  0
SECTION
  2
HEADER
  9
$ACADVER
  1
AC1015
  9
$ACADMAINTVER
 70
    20
  9
$DWGCODEPAGE
  3
ANSI_932
  9
$INSBASE
 10
0.0
 20
0.0
 30
0.0
  9
$EXTMIN
 10
746.6597629999998
 20
678.7582849999998
 30
0.0
  9
$EXTMAX
 10
938.6597639999999
 20
959.8804137299998
 30
0.0
  9
$LIMMIN
 10
746.65879
 20
678.757301
  9
$LIMMAX
 10
938.6607899999999
 20
959.881432
  9
$ORTHOMODE
 70
     0
  9
$REGENMODE
 70
     1
  9
$FILLMODE
 70
     1
  9
$QTEXTMODE
 70
     0
  9
$MIRRTEXT
 70
     0
  9
$LTSCALE
 40
4.685369
  9
$ATTMODE
 70
     1
  9
$TEXTSIZE
 40
3.2
  9
$TRACEWID
 40
0.05
  9
$TEXTSTYLE
  7
高3.2
  9
$CLAYER
  8
0
  9
$CELTYPE
  6
CONTINUOUS
  9
$CECOLOR
 62
   256
  9
$CELTSCALE
 40
1.0
  9
$DISPSILH
 70
     0
  9
$DIMSCALE
 40
1.0
  9
$DIMASZ
 40
2.5
  9
$DIMEXO
 40
0.25
  9
$DIMDLI
 40
0.2
  9
$DIMRND
 40
0.0
  9
$DIMDLE
 40
0.0
  9
$DIMEXE
 40
1.25
  9
$DIMTP
 40
0.0
  9
$DIMTM
 40
0.0
  9
$DIMTXT
 40
3.0
  9
$DIMCEN
 40
0.0
  9
$DIMTSZ
 40
0.0
  9
$DIMTOL
 70
     0
  9
$DIMLIM
 70
     0
  9
$DIMTIH
 70
     0
  9
$DIMTOH
 70
     0
  9
$DIMSE1
 70
     0
  9
$DIMSE2
 70
     0
  9
$DIMTAD
 70
     3
  9
$DIMZIN
 70
     8
  9
$DIMBLK
  1
Open30
  9
$DIMASO
 70
     1
  9
$DIMSHO
 70
     1
  9
$DIMPOST
  1

  9
$DIMAPOST
  1

  9
$DIMALT
 70
     0
  9
$DIMALTD
 70
     3
  9
$DIMALTF
 40
0.03937007874016
  9
$DIMLFAC
 40
1.0
  9
$DIMTOFL
 70
     1
  9
$DIMTVP
 40
0.0
  9
$DIMTIX
 70
     0
  9
$DIMSOXD
 70
     0
  9
$DIMSAH
 70
     0
  9
$DIMBLK1
  1

  9
$DIMBLK2
  1

  9
$DIMSTYLE
  2
1：1
  9
$DIMCLRD
 70
     0
  9
$DIMCLRE
 70
     0
  9
$DIMCLRT
 70
     4
  9
$DIMTFAC
 40
1.0
  9
$DIMGAP
 40
0.625
  9
$DIMJUST
 70
     0
  9
$DIMSD1
 70
     0
  9
$DIMSD2
 70
     0
  9
$DIMTOLJ
 70
     0
  9
$DIMTZIN
 70
     8
  9
$DIMALTZ
 70
     0
  9
$DIMALTTZ
 70
     0
  9
$DIMUPT
 70
     1
  9
$DIMDEC
 70
     2
  9
$DIMTDEC
 70
     2
  9
$DIMALTU
 70
     2
  9
$DIMALTTD
 70
     3
  9
$DIMTXSTY
  7
STANDARD
  9
$DIMAUNIT
 70
     0
  9
$DIMADEC
 70
     1
  9
$DIMALTRND
 40
0.0
  9
$DIMAZIN
 70
     2
  9
$DIMDSEP
 70
    46
  9
$DIMATFIT
 70
     0
  9
$DIMFRAC
 70
     0
  9
$DIMLDRBLK
  1
Open30
  9
$DIMLUNIT
 70
     2
  9
$DIMLWD
 70
    -2
  9
$DIMLWE
 70
    -2
  9
$DIMTMOVE
 70
     0
  9
$LUNITS
 70
     2
  9
$LUPREC
 70
     4
  9
$SKETCHINC
 40
0.1
  9
$FILLETRAD
 40
0.0
  9
$AUNITS
 70
     0
  9
$AUPREC
 70
     0
  9
$MENU
  1
.
  9
$ELEVATION
 40
0.0
  9
$PELEVATION
 40
0.0
  9
$THICKNESS
 40
0.0
  9
$LIMCHECK
 70
     0
  9
$CHAMFERA
 40
0.0
  9
$CHAMFERB
 40
0.0
  9
$CHAMFERC
 40
0.0
  9
$CHAMFERD
 40
0.0
  9
$SKPOLY
 70
     0
  9
$TDCREATE
 40
2456840.389192489
  9
$TDUCREATE
 40
2456840.014192489
  9
$TDUPDATE
 40
2456870.800400822
  9
$TDUUPDATE
 40
2456870.425400822
  9
$TDINDWG
 40
0.0105451620
  9
$TDUSRTIMER
 40
0.0105451042
  9
$USRTIMER
 70
     1
  9
$ANGBASE
 50
0.0
  9
$ANGDIR
 70
     0
  9
$PDMODE
 70
     0
  9
$PDSIZE
 40
0.0
  9
$PLINEWID
 40
0.0
  9
$SPLFRAME
 70
     0
  9
$SPLINETYPE
 70
     6
  9
$SPLINESEGS
 70
     8
  9
$HANDSEED
  5
777
  9
$SURFTAB1
 70
     6
  9
$SURFTAB2
 70
     6
  9
$SURFTYPE
 70
     6
  9
$SURFU
 70
     6
  9
$SURFV
 70
     6
  9
$UCSBASE
  2

  9
$UCSNAME
  2

  9
$UCSORG
 10
0.0
 20
0.0
 30
0.0
  9
$UCSXDIR
 10
1.0
 20
0.0
 30
0.0
  9
$UCSYDIR
 10
0.0
 20
1.0
 30
0.0
  9
$UCSORTHOREF
  2

  9
$UCSORTHOVIEW
 70
     0
  9
$UCSORGTOP
 10
0.0
 20
0.0
 30
0.0
  9
$UCSORGBOTTOM
 10
0.0
 20
0.0
 30
0.0
  9
$UCSORGLEFT
 10
0.0
 20
0.0
 30
0.0
  9
$UCSORGRIGHT
 10
0.0
 20
0.0
 30
0.0
  9
$UCSORGFRONT
 10
0.0
 20
0.0
 30
0.0
  9
$UCSORGBACK
 10
0.0
 20
0.0
 30
0.0
  9
$PUCSBASE
  2

  9
$PUCSNAME
  2

  9
$PUCSORG
 10
0.0
 20
0.0
 30
0.0
  9
$PUCSXDIR
 10
1.0
 20
0.0
 30
0.0
  9
$PUCSYDIR
 10
0.0
 20
1.0
 30
0.0
  9
$PUCSORTHOREF
  2

  9
$PUCSORTHOVIEW
 70
     0
  9
$PUCSORGTOP
 10
0.0
 20
0.0
 30
0.0
  9
$PUCSORGBOTTOM
 10
0.0
 20
0.0
 30
0.0
  9
$PUCSORGLEFT
 10
0.0
 20
0.0
 30
0.0
  9
$PUCSORGRIGHT
 10
0.0
 20
0.0
 30
0.0
  9
$PUCSORGFRONT
 10
0.0
 20
0.0
 30
0.0
  9
$PUCSORGBACK
 10
0.0
 20
0.0
 30
0.0
  9
$USERI1
 70
     0
  9
$USERI2
 70
     0
  9
$USERI3
 70
     0
  9
$USERI4
 70
     0
  9
$USERI5
 70
     0
  9
$USERR1
 40
0.0
  9
$USERR2
 40
0.0
  9
$USERR3
 40
0.0
  9
$USERR4
 40
0.0
  9
$USERR5
 40
0.0
  9
$WORLDVIEW
 70
     1
  9
$SHADEDGE
 70
     3
  9
$SHADEDIF
 70
    70
  9
$TILEMODE
 70
     1
  9
$MAXACTVP
 70
    64
  9
$PINSBASE
 10
0.0
 20
0.0
 30
0.0
  9
$PLIMCHECK
 70
     0
  9
$PEXTMIN
 10
1.000000000000000E+20
 20
1.000000000000000E+20
 30
1.000000000000000E+20
  9
$PEXTMAX
 10
-1.000000000000000E+20
 20
-1.000000000000000E+20
 30
-1.000000000000000E+20
  9
$PLIMMIN
 10
0.0
 20
0.0
  9
$PLIMMAX
 10
12.0
 20
9.0
  9
$UNITMODE
 70
     0
  9
$VISRETAIN
 70
     1
  9
$PLINEGEN
 70
     0
  9
$PSLTSCALE
 70
     1
  9
$TREEDEPTH
 70
  3020
  9
$CMLSTYLE
  2
Standard
  9
$CMLJUST
 70
     0
  9
$CMLSCALE
 40
1.0
  9
$PROXYGRAPHICS
 70
     1
  9
$MEASUREMENT
 70
     0
  9
$CELWEIGHT
370
    -1
  9
$ENDCAPS
280
     0
  9
$JOINSTYLE
280
     0
  9
$LWDISPLAY
290
     0
  9
$INSUNITS
 70
     0
  9
$HYPERLINKBASE
  1

  9
$STYLESHEET
  1

  9
$XEDIT
290
     1
  9
$CEPSNTYPE
380
     0
  9
$PSTYLEMODE
290
     1
  9
$FINGERPRINTGUID
  2
{F45FFFB2-9AD4-4B2F-8A36-F149E916CD06}
  9
$VERSIONGUID
  2
{B497994E-1E3D-4161-8A66-83C03339A4AA}
  9
$EXTNAMES
290
     1
  9
$PSVPSCALE
 40
0.0
  9
$OLESTARTUP
290
     0
  0
ENDSEC
  0
SECTION
  2
CLASSES
  0
CLASS
  1
ACDBDICTIONARYWDFLT
  2
AcDbDictionaryWithDefault
  3
ObjectDBX Classes
 90
        0
280
     0
281
     0
  0
CLASS
  1
MATERIAL
  2
AcDbMaterial
  3
ObjectDBX Classes
 90
     1153
280
     0
281
     0
  0
CLASS
  1
VISUALSTYLE
  2
AcDbVisualStyle
  3
ObjectDBX Classes
 90
     4095
280
     0
281
     0
  0
CLASS
  1
SCALE
  2
AcDbScale
  3
ObjectDBX Classes
 90
     1153
280
     0
281
     0
  0
CLASS
  1
TABLESTYLE
  2
AcDbTableStyle
  3
ObjectDBX Classes
 90
     4095
280
     0
281
     0
  0
CLASS
  1
MLEADERSTYLE
  2
AcDbMLeaderStyle
  3
ACDB_MLEADERSTYLE_CLASS
 90
     4095
280
     0
281
     0
  0
CLASS
  1
SORTENTSTABLE
  2
AcDbSortentsTable
  3
ObjectDBX Classes
 90
        0
280
     0
281
     0
  0
CLASS
  1
DICTIONARYVAR
  2
AcDbDictionaryVar
  3
ObjectDBX Classes
 90
        0
280
     0
281
     0
  0
CLASS
  1
CELLSTYLEMAP
  2
AcDbCellStyleMap
  3
ObjectDBX Classes
 90
     1152
280
     0
281
     0
  0
CLASS
  1
ACDBPLACEHOLDER
  2
AcDbPlaceHolder
  3
ObjectDBX Classes
 90
        0
280
     0
281
     0
  0
CLASS
  1
LAYOUT
  2
AcDbLayout
  3
ObjectDBX Classes
 90
        0
280
     0
281
     0
  0
ENDSEC
  0
SECTION
  2
TABLES
  0
TABLE
  2
VPORT
  5
8
330
0
100
AcDbSymbolTable
 70
     1
  0
VPORT
  5
8B
330
8
100
AcDbSymbolTableRecord
100
AcDbViewportTableRecord
  2
*Active
 70
     0
 10
0.0
 20
0.0
 11
1.0
 21
1.0
 12
944.8846382160869
 22
737.9355434623264
 13
0.0
 23
0.0
 14
1.0
 24
1.0
 15
0.0
 25
0.0
 16
0.0
 26
0.0
 36
1.0
 17
0.0
 27
0.0
 37
0.0
 40
561.301584696281
 41
1.385459533607681
 42
50.0
 43
0.0
 44
0.0
 50
0.0
 51
0.0
 71
     0
 72
   100
 73
     1
 74
     1
 75
     0
 76
     0
 77
     0
 78
     0
281
     0
 65
     1
110
0.0
120
0.0
130
0.0
111
1.0
121
0.0
131
0.0
112
0.0
122
1.0
132
0.0
 79
     0
146
0.0
  0
ENDTAB
  0
TABLE
  2
LTYPE
  5
5
330
0
100
AcDbSymbolTable
 70
     2
  0
LTYPE
  5
5A
330
5
100
AcDbSymbolTableRecord
100
AcDbLinetypeTableRecord
  2
ByBlock
 70
     0
  3

 72
    65
 73
     0
 40
0.0
  0
LTYPE
  5
5B
330
5
100
AcDbSymbolTableRecord
100
AcDbLinetypeTableRecord
  2
ByLayer
 70
     0
  3

 72
    65
 73
     0
 40
0.0
  0
LTYPE
  5
5C
330
5
100
AcDbSymbolTableRecord
100
AcDbLinetypeTableRecord
  2
CONTINUOUS
 70
     0
  3
Solid-line
 72
    65
 73
     0
 40
0.0
  0
LTYPE
  5
78
330
5
100
AcDbSymbolTableRecord
100
AcDbLinetypeTableRecord
  2
DASHED
 70
     0
  3
DASHED
 72
    65
 73
     2
 40
0.75
 49
0.5
 74
     0
 49
-0.25
 74
     0
  0
ENDTAB
  0
TABLE
  2
LAYER
  5
2
102
{ACAD_XDICTIONARY
360
317
102
}
330
0
100
AcDbSymbolTable
 70
     2
  0
LAYER
  5
54
102
{ACAD_XDICTIONARY
360
5D6
102
}
330
2
100
AcDbSymbolTableRecord
100
AcDbLayerTableRecord
  2
0
 70
     0
 62
     7
  6
CONTINUOUS
370
    -3
390
F
  0
LAYER
  5
300
330
2
100
AcDbSymbolTableRecord
100
AcDbLayerTableRecord
  2
Defpoints
 70
     0
 62
     7
  6
CONTINUOUS
290
     0
370
    -3
390
F
  0
ENDTAB
  0
TABLE
  2
STYLE
  5
3
330
0
100
AcDbSymbolTable
 70
     6
  0
STYLE
  5
55
330
3
100
AcDbSymbolTableRecord
100
AcDbTextStyleTableRecord
  2
STANDARD
 70
     0
 40
0.0
 41
1.0
 50
0.0
 71
     0
 42
0.2
  3
TXT
  4
BIGFONT
  0
STYLE
  5
301
330
3
100
AcDbSymbolTableRecord
100
AcDbTextStyleTableRecord
  2
高3.2
 70
     0
 40
3.2
 41
1.0
 50
0.0
 71
     0
 42
3.2
  3
txt.shx
  4
bigfont.shx
  0
STYLE
  5
302
330
3
100
AcDbSymbolTableRecord
100
AcDbTextStyleTableRecord
  2
高6.3
 70
     0
 40
6.299999999999998
 41
1.0
 50
0.0
 71
     0
 42
6.299999999999998
  3
txt.shx
  4
bigfont.shx
  0
STYLE
  5
303
330
3
100
AcDbSymbolTableRecord
100
AcDbTextStyleTableRecord
  2
高2.5
 70
     0
 40
2.5
 41
1.0
 50
0.0
 71
     0
 42
0.2
  3
txt.shx
  4
bigfont.shx
  0
STYLE
  5
304
330
3
100
AcDbSymbolTableRecord
100
AcDbTextStyleTableRecord
  2
高4.5
 70
     0
 40
4.5
 41
1.0
 50
0.0
 71
     0
 42
6.299999999999998
  3
txt.shx
  4
bigfont.shx
  0
STYLE
  5
305
330
3
100
AcDbSymbolTableRecord
100
AcDbTextStyleTableRecord
  2
高2
 70
     0
 40
2.0
 41
1.0
 50
0.0
 71
     0
 42
2.0
  3
txt.shx
  4
bigfont.shx
  0
ENDTAB
  0
TABLE
  2
VIEW
  5
6
330
0
100
AcDbSymbolTable
 70
     0
  0
ENDTAB
  0
TABLE
  2
UCS
  5
7
330
0
100
AcDbSymbolTable
 70
     0
  0
ENDTAB
  0
TABLE
  2
APPID
  5
9
330
0
100
AcDbSymbolTable
 70
    10
  0
APPID
  5
56
330
9
100
AcDbSymbolTableRecord
100
AcDbRegAppTableRecord
  2
ACAD
 70
     0
  0
APPID
  5
5D
330
9
100
AcDbSymbolTableRecord
100
AcDbRegAppTableRecord
  2
AcadAnnotative
 70
     0
  0
APPID
  5
310
330
9
100
AcDbSymbolTableRecord
100
AcDbRegAppTableRecord
  2
ACAD_DSTYLE_DIMJOGGED_JOGANGLE_SYMBOL
 70
     0
  0
APPID
  5
311
330
9
100
AcDbSymbolTableRecord
100
AcDbRegAppTableRecord
  2
ACAD_DSTYLE_DIMJAG
 70
     0
  0
APPID
  5
312
330
9
100
AcDbSymbolTableRecord
100
AcDbRegAppTableRecord
  2
ACAD_DSTYLE_DIMBREAK
 70
     0
  0
APPID
  5
313
330
9
100
AcDbSymbolTableRecord
100
AcDbRegAppTableRecord
  2
ACAD_DSTYLE_DIMTALN
 70
     0
  0
APPID
  5
5A7
330
9
100
AcDbSymbolTableRecord
100
AcDbRegAppTableRecord
  2
ACAD_EXEMPT_FROM_CAD_STANDARDS
 70
     0
  0
APPID
  5
661
330
9
100
AcDbSymbolTableRecord
100
AcDbRegAppTableRecord
  2
ACAD_MLEADERVER
 70
     0
  0
APPID
  5
666
330
9
100
AcDbSymbolTableRecord
100
AcDbRegAppTableRecord
  2
ACAD_DSTYLE_DIMARC_LENGTH_SYMBOL
 70
     0
  0
APPID
  5
667
330
9
100
AcDbSymbolTableRecord
100
AcDbRegAppTableRecord
  2
ACAD_DSTYLE_DIMEXT_LENGTH
 70
     0
  0
ENDTAB
  0
TABLE
  2
DIMSTYLE
  5
A
330
0
100
AcDbSymbolTable
 70
    11
100
AcDbDimStyleTable
 71
     1
340
306
  0
DIMSTYLE
105
57
330
A
100
AcDbSymbolTableRecord
100
AcDbDimStyleTableRecord
  2
Standard
 70
     0
340
55
  0
DIMSTYLE
105
306
330
A
100
AcDbSymbolTableRecord
100
AcDbDimStyleTableRecord
  2
1：1
 70
     0
 41
2.5
 42
0.25
 43
0.2
 44
1.25
 73
     0
 74
     0
 77
     3
 78
     8
 79
     2
140
3.0
141
0.0
143
0.03937007874016
147
0.625
171
     3
172
     1
178
     4
179
     1
271
     2
272
     2
274
     3
283
     0
284
     8
288
     1
289
     0
340
55
341
270
342
270
1001
ACAD_DSTYLE_DIMARC_LENGTH_SYMBOL
1070
   379
1070
     2
1001
ACAD_DSTYLE_DIMEXT_LENGTH
1070
   378
1040
1.25
1001
ACAD_DSTYLE_DIMJOGGED_JOGANGLE_SYMBOL
1070
   384
1040
1.570796326794896
  0
DIMSTYLE
105
307
330
A
100
AcDbSymbolTableRecord
100
AcDbDimStyleTableRecord
  2
2：1
 70
     0
 41
2.5
 42
0.25
 43
0.2
 44
1.25
 73
     0
 74
     0
 77
     3
 78
     8
 79
     2
140
3.0
141
0.0
143
0.03937007874016
144
0.5
147
0.625
171
     3
172
     1
178
     4
179
     1
271
     2
272
     2
274
     3
283
     0
284
     8
288
     1
289
     0
340
55
341
270
342
270
1001
ACAD_DSTYLE_DIMARC_LENGTH_SYMBOL
1070
   379
1070
     2
1001
ACAD_DSTYLE_DIMEXT_LENGTH
1070
   378
1040
1.25
1001
ACAD_DSTYLE_DIMJOGGED_JOGANGLE_SYMBOL
1070
   384
1040
1.570796326794896
  0
DIMSTYLE
105
308
330
A
100
AcDbSymbolTableRecord
100
AcDbDimStyleTableRecord
  2
5：1
 70
     0
 41
2.5
 42
0.25
 43
0.2
 44
1.25
 73
     0
 74
     0
 77
     3
 78
     8
 79
     2
140
3.0
141
0.0
143
0.03937007874016
144
0.2
147
0.625
171
     3
172
     1
178
     4
179
     1
271
     2
272
     2
274
     3
283
     0
284
     8
288
     1
289
     0
340
55
341
270
342
270
1001
ACAD_DSTYLE_DIMARC_LENGTH_SYMBOL
1070
   379
1070
     2
1001
ACAD_DSTYLE_DIMEXT_LENGTH
1070
   378
1040
1.25
1001
ACAD_DSTYLE_DIMJOGGED_JOGANGLE_SYMBOL
1070
   384
1040
1.570796326794896
  0
DIMSTYLE
105
309
330
A
100
AcDbSymbolTableRecord
100
AcDbDimStyleTableRecord
  2
10：1
 70
     0
 41
2.5
 42
0.25
 43
0.2
 44
1.25
 73
     0
 74
     0
 77
     3
 78
     8
 79
     2
140
3.0
141
0.0
143
0.03937007874016
144
0.1
147
0.625
171
     3
172
     1
178
     4
179
     1
271
     2
272
     2
274
     3
283
     0
284
     8
288
     1
289
     0
340
55
341
270
342
270
1001
ACAD_DSTYLE_DIMARC_LENGTH_SYMBOL
1070
   379
1070
     2
1001
ACAD_DSTYLE_DIMEXT_LENGTH
1070
   378
1040
1.25
1001
ACAD_DSTYLE_DIMJOGGED_JOGANGLE_SYMBOL
1070
   384
1040
1.570796326794896
  0
DIMSTYLE
105
30A
330
A
100
AcDbSymbolTableRecord
100
AcDbDimStyleTableRecord
  2
1／2
 70
     0
 41
2.5
 42
0.25
 43
0.2
 44
1.25
 73
     0
 74
     0
 77
     3
 78
     8
 79
     2
140
3.0
141
0.0
143
0.03937007874016
144
2.0
147
0.625
171
     3
172
     1
178
     4
179
     1
271
     2
272
     2
274
     3
283
     0
284
     8
288
     1
289
     0
340
55
341
270
342
270
1001
ACAD_DSTYLE_DIMARC_LENGTH_SYMBOL
1070
   379
1070
     2
1001
ACAD_DSTYLE_DIMEXT_LENGTH
1070
   378
1040
1.25
1001
ACAD_DSTYLE_DIMJOGGED_JOGANGLE_SYMBOL
1070
   384
1040
1.570796326794896
  0
DIMSTYLE
105
30B
330
A
100
AcDbSymbolTableRecord
100
AcDbDimStyleTableRecord
  2
1／5
 70
     0
 41
2.5
 42
0.25
 43
0.2
 44
1.25
 73
     0
 74
     0
 77
     3
 78
     8
 79
     2
140
3.0
141
0.0
143
0.03937007874016
144
5.0
147
0.625
171
     3
172
     1
178
     4
179
     1
271
     2
272
     2
274
     3
283
     0
284
     8
288
     1
289
     0
340
55
341
270
342
270
1001
ACAD_DSTYLE_DIMARC_LENGTH_SYMBOL
1070
   379
1070
     2
1001
ACAD_DSTYLE_DIMEXT_LENGTH
1070
   378
1040
1.25
1001
ACAD_DSTYLE_DIMJOGGED_JOGANGLE_SYMBOL
1070
   384
1040
1.570796326794896
  0
DIMSTYLE
105
30C
330
A
100
AcDbSymbolTableRecord
100
AcDbDimStyleTableRecord
  2
1／10
 70
     0
 41
2.5
 42
0.25
 43
0.2
 44
1.25
 73
     0
 74
     0
 77
     3
 78
     8
 79
     2
140
3.0
141
0.0
143
0.03937007874016
144
10.0
147
0.625
171
     3
172
     1
178
     4
179
     1
271
     2
272
     2
274
     3
283
     0
284
     8
288
     1
289
     0
340
55
341
270
342
270
1001
ACAD_DSTYLE_DIMARC_LENGTH_SYMBOL
1070
   379
1070
     2
1001
ACAD_DSTYLE_DIMEXT_LENGTH
1070
   378
1040
1.25
1001
ACAD_DSTYLE_DIMJOGGED_JOGANGLE_SYMBOL
1070
   384
1040
1.570796326794896
  0
DIMSTYLE
105
30D
330
A
100
AcDbSymbolTableRecord
100
AcDbDimStyleTableRecord
  2
1／4
 70
     0
 41
2.5
 42
0.25
 43
0.2
 44
1.25
 73
     0
 74
     0
 77
     3
 78
     8
 79
     2
140
3.0
141
0.0
143
0.03937007874016
144
4.0
147
0.625
171
     3
172
     1
178
     4
179
     1
271
     2
272
     2
274
     3
283
     0
284
     8
288
     1
289
     0
340
55
341
270
342
270
1001
ACAD_DSTYLE_DIMARC_LENGTH_SYMBOL
1070
   379
1070
     2
1001
ACAD_DSTYLE_DIMEXT_LENGTH
1070
   378
1040
1.25
1001
ACAD_DSTYLE_DIMJOGGED_JOGANGLE_SYMBOL
1070
   384
1040
1.570796326794896
  0
DIMSTYLE
105
30E
330
A
100
AcDbSymbolTableRecord
100
AcDbDimStyleTableRecord
  2
1／3
 70
     0
 41
2.5
 42
0.25
 43
0.2
 44
1.25
 73
     0
 74
     0
 77
     3
 78
     8
 79
     2
140
3.0
141
0.0
143
0.03937007874016
144
3.0
147
0.625
171
     3
172
     1
178
     4
179
     1
271
     2
272
     2
274
     3
283
     0
284
     8
288
     1
289
     0
340
55
341
270
342
270
1001
ACAD_DSTYLE_DIMARC_LENGTH_SYMBOL
1070
   379
1070
     2
1001
ACAD_DSTYLE_DIMEXT_LENGTH
1070
   378
1040
1.25
1001
ACAD_DSTYLE_DIMJOGGED_JOGANGLE_SYMBOL
1070
   384
1040
1.570796326794896
  0
DIMSTYLE
105
30F
330
A
100
AcDbSymbolTableRecord
100
AcDbDimStyleTableRecord
  2
FREE
 70
     0
 41
2.5
 42
0.25
 43
0.2
 44
1.25
 73
     0
 74
     0
 77
     3
 78
     8
 79
     2
140
3.0
141
0.0
143
0.03937007874016
147
0.625
171
     3
172
     1
178
     4
179
     1
271
     2
272
     2
274
     3
283
     0
284
     8
288
     1
289
     0
340
55
341
270
342
270
1001
ACAD_DSTYLE_DIMBREAK
1070
   391
1040
3.75
1001
ACAD_DSTYLE_DIMJAG
1070
   388
1040
1.5
1001
ACAD_DSTYLE_DIMTALN
1070
   392
1070
     0
1001
ACAD_DSTYLE_DIMARC_LENGTH_SYMBOL
1070
   379
1070
     2
1001
ACAD_DSTYLE_DIMEXT_LENGTH
1070
   378
1040
1.25
1001
ACAD_DSTYLE_DIMJOGGED_JOGANGLE_SYMBOL
1070
   384
1040
1.570796326794896
  0
ENDTAB
  0
TABLE
  2
BLOCK_RECORD
  5
1
330
0
100
AcDbSymbolTable
 70
    14
  0
BLOCK_RECORD
  5
6B
102
{ACAD_XDICTIONARY
360
708
102
}
330
1
100
AcDbSymbolTableRecord
100
AcDbBlockTableRecord
  2
*Model_Space
340
6E
  0
BLOCK_RECORD
  5
67
330
1
100
AcDbSymbolTableRecord
100
AcDbBlockTableRecord
  2
*Paper_Space
340
6A
  0
BLOCK_RECORD
  5
270
330
1
100
AcDbSymbolTableRecord
100
AcDbBlockTableRecord
  2
_Open30
340
0
102
{BLKREFS
331
51C
331
51D
331
527
331
528
331
532
331
533
331
53D
331
53E
331
548
331
549
331
553
331
554
331
55E
331
55F
331
569
331
56A
331
574
331
575
331
57D
331
57E
331
671
331
672
331
67A
331
67B
331
683
331
684
102
}
  0
BLOCK_RECORD
  5
48D
330
1
100
AcDbSymbolTableRecord
100
AcDbBlockTableRecord
  2
*D1
340
0
  0
BLOCK_RECORD
  5
49B
330
1
100
AcDbSymbolTableRecord
100
AcDbBlockTableRecord
  2
*D2
340
0
  0
BLOCK_RECORD
  5
4A9
330
1
100
AcDbSymbolTableRecord
100
AcDbBlockTableRecord
  2
*D3
340
0
  0
BLOCK_RECORD
  5
4B7
330
1
100
AcDbSymbolTableRecord
100
AcDbBlockTableRecord
  2
*D4
340
0
  0
BLOCK_RECORD
  5
4C5
330
1
100
AcDbSymbolTableRecord
100
AcDbBlockTableRecord
  2
*D5
340
0
  0
BLOCK_RECORD
  5
4D3
330
1
100
AcDbSymbolTableRecord
100
AcDbBlockTableRecord
  2
*D6
340
0
  0
BLOCK_RECORD
  5
4E1
330
1
100
AcDbSymbolTableRecord
100
AcDbBlockTableRecord
  2
*D7
340
0
  0
BLOCK_RECORD
  5
4EF
330
1
100
AcDbSymbolTableRecord
100
AcDbBlockTableRecord
  2
*D8
340
0
  0
BLOCK_RECORD
  5
4FD
330
1
100
AcDbSymbolTableRecord
100
AcDbBlockTableRecord
  2
*D9
340
0
  0
BLOCK_RECORD
  5
50B
330
1
100
AcDbSymbolTableRecord
100
AcDbBlockTableRecord
  2
*D10
340
0
  0
BLOCK_RECORD
  5
583
330
1
100
AcDbSymbolTableRecord
100
AcDbBlockTableRecord
  2
*D11
340
0
  0
BLOCK_RECORD
  5
58F
330
1
100
AcDbSymbolTableRecord
100
AcDbBlockTableRecord
  2
*D12
340
0
  0
BLOCK_RECORD
  5
59B
330
1
100
AcDbSymbolTableRecord
100
AcDbBlockTableRecord
  2
*D13
340
0
  0
ENDTAB
  0
ENDSEC
  0
SECTION
  2
BLOCKS
  0
BLOCK
  5
6C
330
6B
100
AcDbEntity
  8
0
100
AcDbBlockBegin
  2
*Model_Space
 70
     0
 10
0.0
 20
0.0
 30
0.0
  3
*Model_Space
  1

  0
ENDBLK
  5
6D
330
6B
100
AcDbEntity
  8
0
100
AcDbBlockEnd
  0
BLOCK
  5
68
330
67
100
AcDbEntity
 67
     1
  8
0
100
AcDbBlockBegin
  2
*Paper_Space
 70
     0
 10
0.0
 20
0.0
 30
0.0
  3
*Paper_Space
  1

  0
ENDBLK
  5
69
330
67
100
AcDbEntity
 67
     1
  8
0
100
AcDbBlockEnd
  0
BLOCK
  5
271
330
270
100
AcDbEntity
  8
0
100
AcDbBlockBegin
  2
_Open30
 70
     0
 10
0.0
 20
0.0
 30
0.0
  3
_Open30
  1

  0
LINE
  5
272
330
270
100
AcDbEntity
  8
0
  6
ByBlock
 62
     0
370
    -2
100
AcDbLine
 10
-1.0
 20
0.267949
 30
0.0
 11
0.0
 21
0.0
 31
0.0
  0
LINE
  5
273
330
270
100
AcDbEntity
  8
0
  6
ByBlock
 62
     0
370
    -2
100
AcDbLine
 10
0.0
 20
0.0
 30
0.0
 11
-1.0
 21
-0.267949
 31
0.0
  0
LINE
  5
274
330
270
100
AcDbEntity
  8
0
  6
ByBlock
 62
     0
370
    -2
100
AcDbLine
 10
0.0
 20
0.0
 30
0.0
 11
-1.0
 21
0.0
 31
0.0
  0
ENDBLK
  5
275
330
270
100
AcDbEntity
  8
0
100
AcDbBlockEnd
  0
BLOCK
  5
48E
330
48D
100
AcDbEntity
  8
0
100
AcDbBlockBegin
  2
*D1
 70
     1
 10
0.0
 20
0.0
 30
0.0
  3
*D1
  1

  0
LINE
  5
517
330
48D
100
AcDbEntity
  8
0
 62
     0
370
    -2
100
AcDbLine
 10
1256.523678128774
 20
941.608505139766
 30
0.0
 11
1256.523678128774
 21
938.6988737177572
 31
0.0
  0
LINE
  5
518
330
48D
100
AcDbEntity
  8
0
 62
     0
370
    -2
100
AcDbLine
 10
1254.066491074654
 20
941.608505139766
 30
0.0
 11
1254.066491074654
 21
938.6988737177572
 31
0.0
  0
LINE
  5
519
330
48D
100
AcDbEntity
  8
0
 62
     0
370
    -2
100
AcDbLine
 10
1259.023678128774
 20
939.9488737177572
 30
0.0
 11
1261.523678128774
 21
939.9488737177572
 31
0.0
  0
LINE
  5
51A
330
48D
100
AcDbEntity
  8
0
 62
     0
370
    -2
100
AcDbLine
 10
1251.566491074654
 20
939.9488737177572
 30
0.0
 11
1238.816491074654
 21
939.9488737177572
 31
0.0
  0
LINE
  5
51B
330
48D
100
AcDbEntity
  8
0
 62
     0
370
    -2
100
AcDbLine
 10
1256.523678128774
 20
939.9488737177572
 30
0.0
 11
1254.066491074654
 21
939.9488737177572
 31
0.0
  0
INSERT
  5
51C
330
48D
100
AcDbEntity
  8
0
 62
     0
370
    -2
100
AcDbBlockReference
  2
_Open30
 10
1256.523678128774
 20
939.9488737177572
 30
0.0
 41
2.5
 42
2.5
 43
2.5
 50
180.0
  0
INSERT
  5
51D
330
48D
100
AcDbEntity
  8
0
 62
     0
370
    -2
100
AcDbBlockReference
  2
_Open30
 10
1254.066491074654
 20
939.9488737177572
 30
0.0
 41
2.5
 42
2.5
 43
2.5
  0
MTEXT
  5
51E
330
48D
100
AcDbEntity
  8
0
 62
     4
100
AcDbMText
 10
1243.941491074654
 20
942.0738737177574
 30
0.0
 40
3.0
 41
0.0
 71
     5
 72
     1
  1
2.46
 73
     1
 44
1.0
1001
ACAD
1000
MTEXTBEGIN
1070
    73
1070
     1
1070
    44
1040
1.0
1070
    74
1070
     0
1000
MTEXTEND
  0
POINT
  5
51F
330
48D
100
AcDbEntity
  8
Defpoints
 62
     0
100
AcDbPoint
 10
1256.523678128774
 20
941.8585051397659
 30
0.0
  0
POINT
  5
520
330
48D
100
AcDbEntity
  8
Defpoints
 62
     0
100
AcDbPoint
 10
1254.066491074654
 20
941.8585051397659
 30
0.0
  0
POINT
  5
521
330
48D
100
AcDbEntity
  8
Defpoints
 62
     0
100
AcDbPoint
 10
1254.066491074654
 20
939.9488737177572
 30
0.0
  0
ENDBLK
  5
48F
330
48D
100
AcDbEntity
  8
0
100
AcDbBlockEnd
  0
BLOCK
  5
49C
330
49B
100
AcDbEntity
  8
0
100
AcDbBlockBegin
  2
*D2
 70
     1
 10
0.0
 20
0.0
 30
0.0
  3
*D2
  1

  0
LINE
  5
522
330
49B
100
AcDbEntity
  8
0
 62
     0
370
    -2
100
AcDbLine
 10
1258.161803034847
 20
936.1524155670037
 30
0.0
 11
1258.161803034847
 21
933.6065234975405
 31
0.0
  0
LINE
  5
523
330
49B
100
AcDbEntity
  8
0
 62
     0
370
    -2
100
AcDbLine
 10
1255.067567236705
 20
936.1524155670037
 30
0.0
 11
1255.067567236705
 21
933.6065234975405
 31
0.0
  0
LINE
  5
524
330
49B
100
AcDbEntity
  8
0
 62
     0
370
    -2
100
AcDbLine
 10
1260.661803034847
 20
934.8565234975405
 30
0.0
 11
1263.161803034847
 21
934.8565234975405
 31
0.0
  0
LINE
  5
525
330
49B
100
AcDbEntity
  8
0
 62
     0
370
    -2
100
AcDbLine
 10
1252.567567236704
 20
934.8565234975405
 30
0.0
 11
1238.734233903371
 21
934.8565234975405
 31
0.0
  0
LINE
  5
526
330
49B
100
AcDbEntity
  8
0
 62
     0
370
    -2
100
AcDbLine
 10
1258.161803034847
 20
934.8565234975405
 30
0.0
 11
1255.067567236705
 21
934.8565234975405
 31
0.0
  0
INSERT
  5
527
330
49B
100
AcDbEntity
  8
0
 62
     0
370
    -2
100
AcDbBlockReference
  2
_Open30
 10
1258.161803034847
 20
934.8565234975405
 30
0.0
 41
2.5
 42
2.5
 43
2.5
 50
180.0
  0
INSERT
  5
528
330
49B
100
AcDbEntity
  8
0
 62
     0
370
    -2
100
AcDbBlockReference
  2
_Open30
 10
1255.067567236705
 20
934.8565234975405
 30
0.0
 41
2.5
 42
2.5
 43
2.5
  0
MTEXT
  5
529
330
49B
100
AcDbEntity
  8
0
 62
     4
100
AcDbMText
 10
1243.942567236705
 20
936.7315234975405
 30
0.0
 40
2.5
 41
0.0
 71
     5
 72
     1
  1
15.47
  7
高2.5
 73
     1
 44
1.0
1001
ACAD
1000
MTEXTBEGIN
1070
    73
1070
     1
1070
    44
1040
1.0
1070
    74
1070
     0
1000
MTEXTEND
  0
POINT
  5
52A
330
49B
100
AcDbEntity
  8
Defpoints
 62
     0
100
AcDbPoint
 10
1258.161803034847
 20
936.4024155670037
 30
0.0
  0
POINT
  5
52B
330
49B
100
AcDbEntity
  8
Defpoints
 62
     0
100
AcDbPoint
 10
1255.067567236705
 20
936.4024155670037
 30
0.0
  0
POINT
  5
52C
330
49B
100
AcDbEntity
  8
Defpoints
 62
     0
100
AcDbPoint
 10
1255.067567236705
 20
934.8565234975405
 30
0.0
  0
ENDBLK
  5
49D
330
49B
100
AcDbEntity
  8
0
100
AcDbBlockEnd
  0
BLOCK
  5
4AA
330
4A9
100
AcDbEntity
  8
0
100
AcDbBlockBegin
  2
*D3
 70
     1
 10
0.0
 20
0.0
 30
0.0
  3
*D3
  1

  0
LINE
  5
52D
330
4A9
100
AcDbEntity
  8
0
 62
     0
370
    -2
100
AcDbLine
 10
1259.890934642933
 20
930.6963258511572
 30
0.0
 11
1259.890934642933
 21
928.42323818879
 31
0.0
  0
LINE
  5
52E
330
4A9
100
AcDbEntity
  8
0
 62
     0
370
    -2
100
AcDbLine
 10
1255.886629689741
 20
930.6963258511572
 30
0.0
 11
1255.886629689741
 21
928.42323818879
 31
0.0
  0
LINE
  5
52F
330
4A9
100
AcDbEntity
  8
0
 62
     0
370
    -2
100
AcDbLine
 10
1262.390934642933
 20
929.6732381887899
 30
0.0
 11
1264.890934642933
 21
929.6732381887899
 31
0.0
  0
LINE
  5
530
330
4A9
100
AcDbEntity
  8
0
 62
     0
370
    -2
100
AcDbLine
 10
1253.386629689741
 20
929.6732381887899
 30
0.0
 11
1241.636629689741
 21
929.6732381887899
 31
0.0
  0
LINE
  5
531
330
4A9
100
AcDbEntity
  8
0
 62
     0
370
    -2
100
AcDbLine
 10
1259.890934642933
 20
929.6732381887899
 30
0.0
 11
1255.886629689741
 21
929.6732381887899
 31
0.0
  0
INSERT
  5
532
330
4A9
100
AcDbEntity
  8
0
 62
     0
370
    -2
100
AcDbBlockReference
  2
_Open30
 10
1259.890934642933
 20
929.6732381887899
 30
0.0
 41
2.5
 42
2.5
 43
2.5
 50
180.0
  0
INSERT
  5
533
330
4A9
100
AcDbEntity
  8
0
 62
     0
370
    -2
100
AcDbBlockReference
  2
_Open30
 10
1255.886629689741
 20
929.6732381887899
 30
0.0
 41
2.5
 42
2.5
 43
2.5
  0
MTEXT
  5
534
330
4A9
100
AcDbEntity
  8
0
 62
     4
100
AcDbMText
 10
1246.261629689741
 20
931.8982381887899
 30
0.0
 40
3.2
 41
0.0
 71
     5
 72
     1
  1
8.01
  7
高3.2
 73
     1
 44
1.0
1001
ACAD
1000
MTEXTBEGIN
1070
    73
1070
     1
1070
    44
1040
1.0
1070
    74
1070
     0
1000
MTEXTEND
  0
POINT
  5
535
330
4A9
100
AcDbEntity
  8
Defpoints
 62
     0
100
AcDbPoint
 10
1259.890934642933
 20
930.9463258511572
 30
0.0
  0
POINT
  5
536
330
4A9
100
AcDbEntity
  8
Defpoints
 62
     0
100
AcDbPoint
 10
1255.886629689741
 20
930.9463258511572
 30
0.0
  0
POINT
  5
537
330
4A9
100
AcDbEntity
  8
Defpoints
 62
     0
100
AcDbPoint
 10
1255.886629689741
 20
929.6732381887899
 30
0.0
  0
ENDBLK
  5
4AB
330
4A9
100
AcDbEntity
  8
0
100
AcDbBlockEnd
  0
BLOCK
  5
4B8
330
4B7
100
AcDbEntity
  8
0
100
AcDbBlockBegin
  2
*D4
 70
     1
 10
0.0
 20
0.0
 30
0.0
  3
*D4
  1

  0
LINE
  5
538
330
4B7
100
AcDbEntity
  8
0
 62
     0
370
    -2
100
AcDbLine
 10
1259.799927940921
 20
925.4221058831255
 30
0.0
 11
1259.799927940921
 21
923.6036923756692
 31
0.0
  0
LINE
  5
539
330
4B7
100
AcDbEntity
  8
0
 62
     0
370
    -2
100
AcDbLine
 10
1255.067567236705
 20
925.4221058831255
 30
0.0
 11
1255.067567236705
 21
923.6036923756692
 31
0.0
  0
LINE
  5
53A
330
4B7
100
AcDbEntity
  8
0
 62
     0
370
    -2
100
AcDbLine
 10
1262.299927940921
 20
924.8536923756692
 30
0.0
 11
1264.79992794092
 21
924.8536923756692
 31
0.0
  0
LINE
  5
53B
330
4B7
100
AcDbEntity
  8
0
 62
     0
370
    -2
100
AcDbLine
 10
1252.567567236704
 20
924.8536923756692
 30
0.0
 11
1230.817567236704
 21
924.8536923756692
 31
0.0
  0
LINE
  5
53C
330
4B7
100
AcDbEntity
  8
0
 62
     0
370
    -2
100
AcDbLine
 10
1259.799927940921
 20
924.8536923756692
 30
0.0
 11
1255.067567236705
 21
924.8536923756692
 31
0.0
  0
INSERT
  5
53D
330
4B7
100
AcDbEntity
  8
0
 62
     0
370
    -2
100
AcDbBlockReference
  2
_Open30
 10
1259.799927940921
 20
924.8536923756692
 30
0.0
 41
2.5
 42
2.5
 43
2.5
 50
180.0
  0
INSERT
  5
53E
330
4B7
100
AcDbEntity
  8
0
 62
     0
370
    -2
100
AcDbBlockReference
  2
_Open30
 10
1255.067567236705
 20
924.8536923756692
 30
0.0
 41
2.5
 42
2.5
 43
2.5
  0
MTEXT
  5
53F
330
4B7
100
AcDbEntity
  8
0
 62
     4
100
AcDbMText
 10
1240.442567236704
 20
927.7286923756692
 30
0.0
 40
4.5
 41
0.0
 71
     5
 72
     1
  1
47.32
  7
高4.5
 73
     1
 44
1.0
1001
ACAD
1000
MTEXTBEGIN
1070
    73
1070
     1
1070
    44
1040
1.0
1070
    74
1070
     0
1000
MTEXTEND
  0
POINT
  5
540
330
4B7
100
AcDbEntity
  8
Defpoints
 62
     0
100
AcDbPoint
 10
1259.799927940921
 20
925.6721058831256
 30
0.0
  0
POINT
  5
541
330
4B7
100
AcDbEntity
  8
Defpoints
 62
     0
100
AcDbPoint
 10
1255.067567236705
 20
925.6721058831256
 30
0.0
  0
POINT
  5
542
330
4B7
100
AcDbEntity
  8
Defpoints
 62
     0
100
AcDbPoint
 10
1255.067567236705
 20
924.8536923756692
 30
0.0
  0
ENDBLK
  5
4B9
330
4B7
100
AcDbEntity
  8
0
100
AcDbBlockEnd
  0
BLOCK
  5
4C6
330
4C5
100
AcDbEntity
  8
0
100
AcDbBlockBegin
  2
*D5
 70
     1
 10
0.0
 20
0.0
 30
0.0
  3
*D5
  1

  0
LINE
  5
543
330
4C5
100
AcDbEntity
  8
0
 62
     0
370
    -2
100
AcDbLine
 10
1281.277564208928
 20
941.608505139766
 30
0.0
 11
1281.277564208928
 21
938.6988737177572
 31
0.0
  0
LINE
  5
544
330
4C5
100
AcDbEntity
  8
0
 62
     0
370
    -2
100
AcDbLine
 10
1278.820377154808
 20
941.608505139766
 30
0.0
 11
1278.820377154808
 21
938.6988737177572
 31
0.0
  0
LINE
  5
545
330
4C5
100
AcDbEntity
  8
0
 62
     0
370
    -2
100
AcDbLine
 10
1283.777564208928
 20
939.9488737177572
 30
0.0
 11
1286.277564208928
 21
939.9488737177572
 31
0.0
  0
LINE
  5
546
330
4C5
100
AcDbEntity
  8
0
 62
     0
370
    -2
100
AcDbLine
 10
1276.320377154808
 20
939.9488737177572
 30
0.0
 11
1254.720377154808
 21
939.9488737177572
 31
0.0
  0
LINE
  5
547
330
4C5
100
AcDbEntity
  8
0
 62
     0
370
    -2
100
AcDbLine
 10
1281.277564208928
 20
939.9488737177572
 30
0.0
 11
1278.820377154808
 21
939.9488737177572
 31
0.0
  0
INSERT
  5
548
330
4C5
100
AcDbEntity
  8
0
 62
     0
370
    -2
100
AcDbBlockReference
  2
_Open30
 10
1281.277564208928
 20
939.9488737177572
 30
0.0
 41
2.5
 42
2.5
 43
2.5
 50
180.0
  0
INSERT
  5
549
330
4C5
100
AcDbEntity
  8
0
 62
     0
370
    -2
100
AcDbBlockReference
  2
_Open30
 10
1278.820377154808
 20
939.9488737177572
 30
0.0
 41
2.5
 42
2.5
 43
2.5
  0
MTEXT
  5
54A
330
4C5
100
AcDbEntity
  8
0
 62
     4
100
AcDbMText
 10
1264.270377154808
 20
943.7238737177573
 30
0.0
 40
6.299999999999998
 41
0.0
 71
     5
 72
     1
  1
0.25
  7
高6.3
 73
     1
 44
1.0
1001
ACAD
1000
MTEXTBEGIN
1070
    73
1070
     1
1070
    44
1040
1.0
1070
    74
1070
     0
1000
MTEXTEND
  0
POINT
  5
54B
330
4C5
100
AcDbEntity
  8
Defpoints
 62
     0
100
AcDbPoint
 10
1281.277564208928
 20
941.8585051397659
 30
0.0
  0
POINT
  5
54C
330
4C5
100
AcDbEntity
  8
Defpoints
 62
     0
100
AcDbPoint
 10
1278.820377154808
 20
941.8585051397659
 30
0.0
  0
POINT
  5
54D
330
4C5
100
AcDbEntity
  8
Defpoints
 62
     0
100
AcDbPoint
 10
1278.820377154808
 20
939.9488737177572
 30
0.0
  0
ENDBLK
  5
4C7
330
4C5
100
AcDbEntity
  8
0
100
AcDbBlockEnd
  0
BLOCK
  5
4D4
330
4D3
100
AcDbEntity
  8
0
100
AcDbBlockBegin
  2
*D6
 70
     1
 10
0.0
 20
0.0
 30
0.0
  3
*D6
  1

  0
LINE
  5
54E
330
4D3
100
AcDbEntity
  8
0
 62
     0
370
    -2
100
AcDbLine
 10
1282.915689115001
 20
936.1524155670037
 30
0.0
 11
1282.915689115001
 21
933.6065234975405
 31
0.0
  0
LINE
  5
54F
330
4D3
100
AcDbEntity
  8
0
 62
     0
370
    -2
100
AcDbLine
 10
1279.821453316858
 20
936.1524155670037
 30
0.0
 11
1279.821453316858
 21
933.6065234975405
 31
0.0
  0
LINE
  5
550
330
4D3
100
AcDbEntity
  8
0
 62
     0
370
    -2
100
AcDbLine
 10
1285.415689115001
 20
934.8565234975405
 30
0.0
 11
1287.915689115001
 21
934.8565234975405
 31
0.0
  0
LINE
  5
551
330
4D3
100
AcDbEntity
  8
0
 62
     0
370
    -2
100
AcDbLine
 10
1277.321453316858
 20
934.8565234975405
 30
0.0
 11
1265.321453316858
 21
934.8565234975405
 31
0.0
  0
LINE
  5
552
330
4D3
100
AcDbEntity
  8
0
 62
     0
370
    -2
100
AcDbLine
 10
1282.915689115001
 20
934.8565234975405
 30
0.0
 11
1279.821453316858
 21
934.8565234975405
 31
0.0
  0
INSERT
  5
553
330
4D3
100
AcDbEntity
  8
0
 62
     0
370
    -2
100
AcDbBlockReference
  2
_Open30
 10
1282.915689115001
 20
934.8565234975405
 30
0.0
 41
2.5
 42
2.5
 43
2.5
 50
180.0
  0
INSERT
  5
554
330
4D3
100
AcDbEntity
  8
0
 62
     0
370
    -2
100
AcDbBlockReference
  2
_Open30
 10
1279.821453316858
 20
934.8565234975405
 30
0.0
 41
2.5
 42
2.5
 43
2.5
  0
MTEXT
  5
555
330
4D3
100
AcDbEntity
  8
0
 62
     4
100
AcDbMText
 10
1269.946453316858
 20
936.9815234975405
 30
0.0
 40
3.0
 41
0.0
 71
     5
 72
     1
  1
1.55
 73
     1
 44
1.0
1001
ACAD
1000
MTEXTBEGIN
1070
    73
1070
     1
1070
    44
1040
1.0
1070
    74
1070
     0
1000
MTEXTEND
  0
POINT
  5
556
330
4D3
100
AcDbEntity
  8
Defpoints
 62
     0
100
AcDbPoint
 10
1282.915689115001
 20
936.4024155670037
 30
0.0
  0
POINT
  5
557
330
4D3
100
AcDbEntity
  8
Defpoints
 62
     0
100
AcDbPoint
 10
1279.821453316858
 20
936.4024155670037
 30
0.0
  0
POINT
  5
558
330
4D3
100
AcDbEntity
  8
Defpoints
 62
     0
100
AcDbPoint
 10
1279.821453316858
 20
934.8565234975405
 30
0.0
  0
ENDBLK
  5
4D5
330
4D3
100
AcDbEntity
  8
0
100
AcDbBlockEnd
  0
BLOCK
  5
4E2
330
4E1
100
AcDbEntity
  8
0
100
AcDbBlockBegin
  2
*D7
 70
     1
 10
0.0
 20
0.0
 30
0.0
  3
*D7
  1

  0
LINE
  5
559
330
4E1
100
AcDbEntity
  8
0
 62
     0
370
    -2
100
AcDbLine
 10
1284.644820723087
 20
930.6963258511572
 30
0.0
 11
1284.644820723087
 21
928.42323818879
 31
0.0
  0
LINE
  5
55A
330
4E1
100
AcDbEntity
  8
0
 62
     0
370
    -2
100
AcDbLine
 10
1280.640515769895
 20
930.6963258511572
 30
0.0
 11
1280.640515769895
 21
928.42323818879
 31
0.0
  0
LINE
  5
55B
330
4E1
100
AcDbEntity
  8
0
 62
     0
370
    -2
100
AcDbLine
 10
1287.144820723087
 20
929.6732381887899
 30
0.0
 11
1289.644820723087
 21
929.6732381887899
 31
0.0
  0
LINE
  5
55C
330
4E1
100
AcDbEntity
  8
0
 62
     0
370
    -2
100
AcDbLine
 10
1278.140515769895
 20
929.6732381887899
 30
0.0
 11
1269.807182436561
 21
929.6732381887899
 31
0.0
  0
LINE
  5
55D
330
4E1
100
AcDbEntity
  8
0
 62
     0
370
    -2
100
AcDbLine
 10
1284.644820723087
 20
929.6732381887899
 30
0.0
 11
1280.640515769895
 21
929.6732381887899
 31
0.0
  0
INSERT
  5
55E
330
4E1
100
AcDbEntity
  8
0
 62
     0
370
    -2
100
AcDbBlockReference
  2
_Open30
 10
1284.644820723087
 20
929.6732381887899
 30
0.0
 41
2.5
 42
2.5
 43
2.5
 50
180.0
  0
INSERT
  5
55F
330
4E1
100
AcDbEntity
  8
0
 62
     0
370
    -2
100
AcDbBlockReference
  2
_Open30
 10
1280.640515769895
 20
929.6732381887899
 30
0.0
 41
2.5
 42
2.5
 43
2.5
  0
MTEXT
  5
560
330
4E1
100
AcDbEntity
  8
0
 62
     4
100
AcDbMText
 10
1272.265515769895
 20
931.2982381887898
 30
0.0
 40
2.0
 41
0.0
 71
     5
 72
     1
  1
0.8
  7
高2
 73
     1
 44
1.0
1001
ACAD
1000
MTEXTBEGIN
1070
    73
1070
     1
1070
    44
1040
1.0
1070
    74
1070
     0
1000
MTEXTEND
  0
POINT
  5
561
330
4E1
100
AcDbEntity
  8
Defpoints
 62
     0
100
AcDbPoint
 10
1284.644820723087
 20
930.9463258511572
 30
0.0
  0
POINT
  5
562
330
4E1
100
AcDbEntity
  8
Defpoints
 62
     0
100
AcDbPoint
 10
1280.640515769895
 20
930.9463258511572
 30
0.0
  0
POINT
  5
563
330
4E1
100
AcDbEntity
  8
Defpoints
 62
     0
100
AcDbPoint
 10
1280.640515769895
 20
929.6732381887899
 30
0.0
  0
ENDBLK
  5
4E3
330
4E1
100
AcDbEntity
  8
0
100
AcDbBlockEnd
  0
BLOCK
  5
4F0
330
4EF
100
AcDbEntity
  8
0
100
AcDbBlockBegin
  2
*D8
 70
     1
 10
0.0
 20
0.0
 30
0.0
  3
*D8
  1

  0
LINE
  5
564
330
4EF
100
AcDbEntity
  8
0
 62
     0
370
    -2
100
AcDbLine
 10
1284.553814021074
 20
925.4221058831255
 30
0.0
 11
1284.553814021074
 21
923.6036923756692
 31
0.0
  0
LINE
  5
565
330
4EF
100
AcDbEntity
  8
0
 62
     0
370
    -2
100
AcDbLine
 10
1279.821453316858
 20
925.4221058831255
 30
0.0
 11
1279.821453316858
 21
923.6036923756692
 31
0.0
  0
LINE
  5
566
330
4EF
100
AcDbEntity
  8
0
 62
     0
370
    -2
100
AcDbLine
 10
1287.053814021074
 20
924.8536923756692
 30
0.0
 11
1289.553814021074
 21
924.8536923756692
 31
0.0
  0
LINE
  5
567
330
4EF
100
AcDbEntity
  8
0
 62
     0
370
    -2
100
AcDbLine
 10
1277.321453316858
 20
924.8536923756692
 30
0.0
 11
1262.571453316858
 21
924.8536923756692
 31
0.0
  0
LINE
  5
568
330
4EF
100
AcDbEntity
  8
0
 62
     0
370
    -2
100
AcDbLine
 10
1284.553814021074
 20
924.8536923756692
 30
0.0
 11
1279.821453316858
 21
924.8536923756692
 31
0.0
  0
INSERT
  5
569
330
4EF
100
AcDbEntity
  8
0
 62
     0
370
    -2
100
AcDbBlockReference
  2
_Open30
 10
1284.553814021074
 20
924.8536923756692
 30
0.0
 41
2.5
 42
2.5
 43
2.5
 50
180.0
  0
INSERT
  5
56A
330
4EF
100
AcDbEntity
  8
0
 62
     0
370
    -2
100
AcDbBlockReference
  2
_Open30
 10
1279.821453316858
 20
924.8536923756692
 30
0.0
 41
2.5
 42
2.5
 43
2.5
  0
MTEXT
  5
56B
330
4EF
100
AcDbEntity
  8
0
 62
     4
100
AcDbMText
 10
1268.696453316858
 20
926.9786923756694
 30
0.0
 40
3.0
 41
0.0
 71
     5
 72
     1
  1
18.93
 73
     1
 44
1.0
1001
ACAD
1000
MTEXTBEGIN
1070
    73
1070
     1
1070
    44
1040
1.0
1070
    74
1070
     0
1000
MTEXTEND
  0
POINT
  5
56C
330
4EF
100
AcDbEntity
  8
Defpoints
 62
     0
100
AcDbPoint
 10
1284.553814021074
 20
925.6721058831256
 30
0.0
  0
POINT
  5
56D
330
4EF
100
AcDbEntity
  8
Defpoints
 62
     0
100
AcDbPoint
 10
1279.821453316858
 20
925.6721058831256
 30
0.0
  0
POINT
  5
56E
330
4EF
100
AcDbEntity
  8
Defpoints
 62
     0
100
AcDbPoint
 10
1279.821453316858
 20
924.8536923756692
 30
0.0
  0
ENDBLK
  5
4F1
330
4EF
100
AcDbEntity
  8
0
100
AcDbBlockEnd
  0
BLOCK
  5
4FE
330
4FD
100
AcDbEntity
  8
0
100
AcDbBlockBegin
  2
*D9
 70
     1
 10
0.0
 20
0.0
 30
0.0
  3
*D9
  1

  0
LINE
  5
56F
330
4FD
100
AcDbEntity
  8
0
 62
     0
370
    -2
100
AcDbLine
 10
1281.749387169936
 20
920.3662656765359
 30
0.0
 11
1281.749387169936
 21
918.0563445996602
 31
0.0
  0
LINE
  5
570
330
4FD
100
AcDbEntity
  8
0
 62
     0
370
    -2
100
AcDbLine
 10
1277.160711967788
 20
920.3662656765359
 30
0.0
 11
1277.160711967788
 21
918.0563445996602
 31
0.0
  0
LINE
  5
571
330
4FD
100
AcDbEntity
  8
0
 62
     0
370
    -2
100
AcDbLine
 10
1284.249387169936
 20
919.3063445996603
 30
0.0
 11
1286.749387169936
 21
919.3063445996603
 31
0.0
  0
LINE
  5
572
330
4FD
100
AcDbEntity
  8
0
 62
     0
370
    -2
100
AcDbLine
 10
1274.660711967788
 20
919.3063445996603
 30
0.0
 11
1259.910711967788
 21
919.3063445996603
 31
0.0
  0
LINE
  5
573
330
4FD
100
AcDbEntity
  8
0
 62
     0
370
    -2
100
AcDbLine
 10
1281.749387169936
 20
919.3063445996603
 30
0.0
 11
1277.160711967788
 21
919.3063445996603
 31
0.0
  0
INSERT
  5
574
330
4FD
100
AcDbEntity
  8
0
 62
     0
370
    -2
100
AcDbBlockReference
  2
_Open30
 10
1281.749387169936
 20
919.3063445996603
 30
0.0
 41
2.5
 42
2.5
 43
2.5
 50
180.0
  0
INSERT
  5
575
330
4FD
100
AcDbEntity
  8
0
 62
     0
370
    -2
100
AcDbBlockReference
  2
_Open30
 10
1277.160711967788
 20
919.3063445996603
 30
0.0
 41
2.5
 42
2.5
 43
2.5
  0
MTEXT
  5
576
330
4FD
100
AcDbEntity
  8
0
 62
     4
100
AcDbMText
 10
1266.035711967788
 20
921.4313445996603
 30
0.0
 40
3.0
 41
0.0
 71
     5
 72
     1
  1
13.77
 73
     1
 44
1.0
1001
ACAD
1000
MTEXTBEGIN
1070
    73
1070
     1
1070
    44
1040
1.0
1070
    74
1070
     0
1000
MTEXTEND
  0
POINT
  5
577
330
4FD
100
AcDbEntity
  8
Defpoints
 62
     0
100
AcDbPoint
 10
1281.749387169936
 20
920.6162656765359
 30
0.0
  0
POINT
  5
578
330
4FD
100
AcDbEntity
  8
Defpoints
 62
     0
100
AcDbPoint
 10
1277.160711967788
 20
920.6162656765359
 30
0.0
  0
POINT
  5
579
330
4FD
100
AcDbEntity
  8
Defpoints
 62
     0
100
AcDbPoint
 10
1277.160711967788
 20
919.3063445996603
 30
0.0
  0
ENDBLK
  5
4FF
330
4FD
100
AcDbEntity
  8
0
100
AcDbBlockEnd
  0
BLOCK
  5
50C
330
50B
100
AcDbEntity
  8
0
100
AcDbBlockBegin
  2
*D10
 70
     1
 10
0.0
 20
0.0
 30
0.0
  3
*D10
  1

  0
LINE
  5
57A
330
50B
100
AcDbEntity
  8
0
 62
     0
370
    -2
100
AcDbLine
 10
1274.653104336786
 20
951.2957569948103
 30
0.0
 11
1274.653104336786
 21
958.6922904727479
 31
0.0
  0
LINE
  5
57B
330
50B
100
AcDbEntity
  8
0
 62
     0
370
    -2
100
AcDbLine
 10
1264.714629967296
 20
951.2957569948103
 30
0.0
 11
1264.714629967296
 21
958.6922904727479
 31
0.0
  0
LINE
  5
57C
330
50B
100
AcDbEntity
  8
0
 62
     0
370
    -2
100
AcDbLine
 10
1272.153104336786
 20
957.4422904727478
 30
0.0
 11
1267.214629967296
 21
957.4422904727478
 31
0.0
  0
INSERT
  5
57D
330
50B
100
AcDbEntity
  8
0
 62
     0
370
    -2
100
AcDbBlockReference
  2
_Open30
 10
1274.653104336786
 20
957.4422904727478
 30
0.0
 41
2.5
 42
2.5
 43
2.5
  0
INSERT
  5
57E
330
50B
100
AcDbEntity
  8
0
 62
     0
370
    -2
100
AcDbBlockReference
  2
_Open30
 10
1264.714629967296
 20
957.4422904727478
 30
0.0
 41
2.5
 42
2.5
 43
2.5
 50
180.0
  0
MTEXT
  5
57F
330
50B
100
AcDbEntity
  8
0
 62
     4
100
AcDbMText
 10
1269.683867152041
 20
960.517290472748
 30
0.0
 40
3.0
 41
0.0
 71
     5
 72
     1
  1
9.94\H0.7X;\S+0^ -0.02;
 73
     1
 44
1.0
1001
ACAD
1000
MTEXTBEGIN
1070
    73
1070
     1
1070
    44
1040
1.0
1070
    74
1070
     0
1000
MTEXTEND
  0
POINT
  5
580
330
50B
100
AcDbEntity
  8
Defpoints
 62
     0
100
AcDbPoint
 10
1274.653104336786
 20
951.0457569948103
 30
0.0
  0
POINT
  5
581
330
50B
100
AcDbEntity
  8
Defpoints
 62
     0
100
AcDbPoint
 10
1264.714629967296
 20
951.0457569948103
 30
0.0
  0
POINT
  5
582
330
50B
100
AcDbEntity
  8
Defpoints
 62
     0
100
AcDbPoint
 10
1264.714629967296
 20
957.4422904727478
 30
0.0
  0
ENDBLK
  5
50D
330
50B
100
AcDbEntity
  8
0
100
AcDbBlockEnd
  0
BLOCK
  5
584
330
583
100
AcDbEntity
  8
0
100
AcDbBlockBegin
  2
*D11
 70
     1
 10
0.0
 20
0.0
 30
0.0
  3
*D11
  1

  0
LINE
  5
66E
330
583
100
AcDbEntity
  8
0
 62
     0
370
    -2
100
AcDbLine
 10
802.5373019999998
 20
866.0505179999999
 30
0.0
 11
802.5373019999998
 21
916.872137
 31
0.0
  0
LINE
  5
66F
330
583
100
AcDbEntity
  8
0
 62
     0
370
    -2
100
AcDbLine
 10
872.5373019999999
 20
866.0505179999999
 30
0.0
 11
872.5373019999999
 21
916.872137
 31
0.0
  0
LINE
  5
670
330
583
100
AcDbEntity
  8
0
 62
     0
370
    -2
100
AcDbLine
 10
805.0373019999998
 20
915.6221369999999
 30
0.0
 11
870.0373019999998
 21
915.6221369999999
 31
0.0
  0
INSERT
  5
671
330
583
100
AcDbEntity
  8
0
 62
     0
370
    -2
100
AcDbBlockReference
  2
_Open30
 10
802.5373019999998
 20
915.6221369999999
 30
0.0
 41
2.5
 42
2.5
 43
2.5
 50
180.0
  0
INSERT
  5
672
330
583
100
AcDbEntity
  8
0
 62
     0
370
    -2
100
AcDbBlockReference
  2
_Open30
 10
872.5373019999999
 20
915.6221369999999
 30
0.0
 41
2.5
 42
2.5
 43
2.5
  0
MTEXT
  5
673
330
583
100
AcDbEntity
  8
0
 62
     4
100
AcDbMText
 10
837.5373019999997
 20
917.7471369999999
 30
0.0
 40
3.0
 41
0.0
 71
     5
 72
     1
  1
70
 73
     1
 44
1.0
1001
ACAD
1000
MTEXTBEGIN
1070
    73
1070
     1
1070
    44
1040
1.0
1070
    74
1070
     0
1000
MTEXTEND
  0
POINT
  5
674
330
583
100
AcDbEntity
  8
Defpoints
 62
     0
100
AcDbPoint
 10
802.5373019999998
 20
865.8005179999999
 30
0.0
  0
POINT
  5
675
330
583
100
AcDbEntity
  8
Defpoints
 62
     0
100
AcDbPoint
 10
872.5373019999999
 20
865.8005179999999
 30
0.0
  0
POINT
  5
676
330
583
100
AcDbEntity
  8
Defpoints
 62
     0
100
AcDbPoint
 10
872.5373019999999
 20
915.6221369999999
 30
0.0
  0
ENDBLK
  5
585
330
583
100
AcDbEntity
  8
0
100
AcDbBlockEnd
  0
BLOCK
  5
590
330
58F
100
AcDbEntity
  8
0
100
AcDbBlockBegin
  2
*D12
 70
     1
 10
0.0
 20
0.0
 30
0.0
  3
*D12
  1

  0
LINE
  5
677
330
58F
100
AcDbEntity
  8
0
 62
     0
370
    -2
100
AcDbLine
 10
837.2873019999998
 20
755.800518
 30
0.0
 11
785.5534719999996
 21
755.800518
 31
0.0
  0
LINE
  5
678
330
58F
100
AcDbEntity
  8
0
 62
     0
370
    -2
100
AcDbLine
 10
837.2873019999998
 20
900.8005179999999
 30
0.0
 11
785.5534719999998
 21
900.8005179999999
 31
0.0
  0
LINE
  5
679
330
58F
100
AcDbEntity
  8
0
 62
     0
370
    -2
100
AcDbLine
 10
786.8034719999997
 20
758.300518
 30
0.0
 11
786.8034719999998
 21
898.3005180000001
 31
0.0
  0
INSERT
  5
67A
330
58F
100
AcDbEntity
  8
0
 62
     0
370
    -2
100
AcDbBlockReference
  2
_Open30
 10
786.8034719999997
 20
755.800518
 30
0.0
 41
2.5
 42
2.5
 43
2.5
 50
270.0
  0
INSERT
  5
67B
330
58F
100
AcDbEntity
  8
0
 62
     0
370
    -2
100
AcDbBlockReference
  2
_Open30
 10
786.8034719999998
 20
900.8005179999999
 30
0.0
 41
2.5
 42
2.5
 43
2.5
 50
90.0
  0
MTEXT
  5
67C
330
58F
100
AcDbEntity
  8
0
 62
     4
100
AcDbMText
 10
784.6784719999996
 20
828.3005180000001
 30
0.0
 40
3.0
 41
0.0
 71
     5
 72
     1
  1
145
 11
0.0000000000000001
 21
1.0
 31
0.0
 73
     1
 44
1.0
1001
ACAD
1000
MTEXTBEGIN
1070
    73
1070
     1
1070
    44
1040
1.0
1070
    74
1070
     0
1000
MTEXTEND
  0
POINT
  5
67D
330
58F
100
AcDbEntity
  8
Defpoints
 62
     0
100
AcDbPoint
 10
837.5373019999997
 20
755.800518
 30
0.0
  0
POINT
  5
67E
330
58F
100
AcDbEntity
  8
Defpoints
 62
     0
100
AcDbPoint
 10
837.5373019999997
 20
900.8005179999999
 30
0.0
  0
POINT
  5
67F
330
58F
100
AcDbEntity
  8
Defpoints
 62
     0
100
AcDbPoint
 10
786.8034719999998
 20
900.8005179999999
 30
0.0
  0
ENDBLK
  5
591
330
58F
100
AcDbEntity
  8
0
100
AcDbBlockEnd
  0
BLOCK
  5
59C
330
59B
100
AcDbEntity
  8
0
100
AcDbBlockBegin
  2
*D13
 70
     1
 10
0.0
 20
0.0
 30
0.0
  3
*D13
  1

  0
LINE
  5
680
330
59B
100
AcDbEntity
  8
0
 62
     0
370
    -2
100
AcDbLine
 10
824.54332
 20
763.4308999999998
 30
0.0
 11
824.54332
 21
736.9701019999999
 31
0.0
  0
LINE
  5
681
330
59B
100
AcDbEntity
  8
0
 62
     0
370
    -2
100
AcDbLine
 10
850.5356889999998
 20
765.4308999999998
 30
0.0
 11
850.5356889999998
 21
736.9701019999999
 31
0.0
  0
LINE
  5
682
330
59B
100
AcDbEntity
  8
0
 62
     0
370
    -2
100
AcDbLine
 10
827.0433199999999
 20
738.220102
 30
0.0
 11
848.0356889999997
 21
738.220102
 31
0.0
  0
INSERT
  5
683
330
59B
100
AcDbEntity
  8
0
 62
     0
370
    -2
100
AcDbBlockReference
  2
_Open30
 10
824.54332
 20
738.220102
 30
0.0
 41
2.5
 42
2.5
 43
2.5
 50
180.0
  0
INSERT
  5
684
330
59B
100
AcDbEntity
  8
0
 62
     0
370
    -2
100
AcDbBlockReference
  2
_Open30
 10
850.5356889999998
 20
738.220102
 30
0.0
 41
2.5
 42
2.5
 43
2.5
  0
MTEXT
  5
685
330
59B
100
AcDbEntity
  8
0
 62
     4
100
AcDbMText
 10
837.5395044999999
 20
740.345102
 30
0.0
 40
3.0
 41
0.0
 71
     5
 72
     1
  1
E26
 73
     1
 44
1.0
1001
ACAD
1000
MTEXTBEGIN
1070
    73
1070
     1
1070
    44
1040
1.0
1070
    74
1070
     0
1000
MTEXTEND
  0
POINT
  5
686
330
59B
100
AcDbEntity
  8
Defpoints
 62
     0
100
AcDbPoint
 10
824.54332
 20
763.6808999999998
 30
0.0
  0
POINT
  5
687
330
59B
100
AcDbEntity
  8
Defpoints
 62
     0
100
AcDbPoint
 10
850.5356889999998
 20
765.6808999999998
 30
0.0
  0
POINT
  5
688
330
59B
100
AcDbEntity
  8
Defpoints
 62
     0
100
AcDbPoint
 10
850.5356889999998
 20
738.220102
 30
0.0
  0
ENDBLK
  5
59D
330
59B
100
AcDbEntity
  8
0
100
AcDbBlockEnd
  0
ENDSEC
  0
SECTION
  2
ENTITIES
  0
LINE
  5
BB
330
6B
100
AcDbEntity
  8
0
 62
     3
100
AcDbLine
 10
747.1476889999999
 20
817.2582849999999
 30
0.0
 11
746.6597629999998
 21
817.2582849999999
 31
0.0
  0
LINE
  5
18E
330
6B
100
AcDbEntity
  8
0
 62
     3
100
AcDbLine
 10
912.9604000000002
 20
695.424007
 30
0.0
 11
912.9604000000002
 21
718.4240070000002
 31
0.0
  0
LINE
  5
190
330
6B
100
AcDbEntity
  8
0
 62
     3
100
AcDbLine
 10
859.9067910000004
 20
688.424007
 30
0.0
 11
859.9067910000004
 21
702.4240070000002
 31
0.0
  0
TEXT
  5
192
330
6B
100
AcDbEntity
  8
0
 62
     3
100
AcDbText
 10
888.9707180000002
 20
714.629124
 30
0.0
 40
2.0
  1
A
 41
0.7
100
AcDbText
  0
TEXT
  5
193
330
6B
100
AcDbEntity
  8
0
 62
     3
100
AcDbText
 10
891.5060040000001
 20
714.629124
 30
0.0
 40
2.0
  1
P
 41
0.7
100
AcDbText
  0
TEXT
  5
194
330
6B
100
AcDbEntity
  8
0
 62
     3
100
AcDbText
 10
894.0412900000001
 20
714.629124
 30
0.0
 40
2.0
  1
P
 41
0.7
100
AcDbText
  0
TEXT
  5
195
330
6B
100
AcDbEntity
  8
0
 62
     3
100
AcDbText
 10
896.5765770000002
 20
714.629124
 30
0.0
 40
2.0
  1
D
 41
0.7
100
AcDbText
  0
TEXT
  5
196
330
6B
100
AcDbEntity
  8
0
 62
     3
100
AcDbText
 10
901.9452600000002
 20
714.629124
 30
0.0
 40
2.0
  1
C
 41
0.7
100
AcDbText
  0
TEXT
  5
197
330
6B
100
AcDbEntity
  8
0
 62
     3
100
AcDbText
 10
904.480546
 20
714.629124
 30
0.0
 40
2.0
  1
H
 41
0.7
100
AcDbText
  0
TEXT
  5
198
330
6B
100
AcDbEntity
  8
0
 62
     3
100
AcDbText
 10
907.0158320000002
 20
714.629124
 30
0.0
 40
2.0
  1
C
 41
0.7
100
AcDbText
  0
TEXT
  5
199
330
6B
100
AcDbEntity
  8
0
 62
     3
100
AcDbText
 10
909.5511180000002
 20
714.629124
 30
0.0
 40
2.0
  1
K
 41
0.7
100
AcDbText
  0
TEXT
  5
19A
330
6B
100
AcDbEntity
  8
0
 62
     3
100
AcDbText
 10
915.2250849999999
 20
714.629124
 30
0.0
 40
2.0
  1
DESN
 41
1.216762999999998
100
AcDbText
  0
TEXT
  5
19B
330
6B
100
AcDbEntity
  8
0
 62
     3
100
AcDbText
 10
830.2187260000001
 20
685.2826259999998
 30
0.0
 40
2.0
  1
NICHIDO IND.CO.LTD
 41
1.274876
100
AcDbText
  0
LINE
  5
19C
330
6B
100
AcDbEntity
  8
0
 62
     3
100
AcDbLine
 10
840.6017560000002
 20
718.4240070000002
 30
0.0
 11
840.6017560000002
 21
695.424007
 31
0.0
  0
LINE
  5
19D
330
6B
100
AcDbEntity
  8
0
 62
     3
100
AcDbLine
 10
886.9603999999997
 20
718.4240070000002
 30
0.0
 11
886.9604000000002
 21
678.7582849999998
 31
0.0
  0
LINE
  5
1A2
330
6B
100
AcDbEntity
  8
0
 62
     3
100
AcDbLine
 10
899.9604000000003
 20
718.4240069999998
 30
0.0
 11
899.9604000000003
 21
688.424007
 31
0.0
  0
TEXT
  5
1A3
330
6B
100
AcDbEntity
  8
0
 62
     3
100
AcDbText
 10
888.0728450000001
 20
689.2886940000002
 30
0.0
 40
3.2
  1
作成日
 41
1.017225999999998
100
AcDbText
  0
LINE
  5
1A4
330
6B
100
AcDbEntity
  8
0
 62
     3
100
AcDbLine
 10
938.659763
 20
718.4240070000002
 30
0.0
 11
827.356321
 21
718.4240070000002
 31
0.0
  0
LINE
  5
1A5
330
6B
100
AcDbEntity
  8
0
 62
     3
100
AcDbLine
 10
925.9604000000003
 20
695.424007
 30
0.0
 11
925.9604000000003
 21
718.4240070000002
 31
0.0
  0
TEXT
  5
1A6
330
6B
100
AcDbEntity
  8
0
 62
     3
100
AcDbText
 10
929.2842029999999
 20
714.7149419999998
 30
0.0
 40
1.8
  1
D
 41
0.666667
100
AcDbText
  0
TEXT
  5
1A7
330
6B
100
AcDbEntity
  8
0
 62
     3
100
AcDbText
 10
932.1008320000002
 20
714.7149419999998
 30
0.0
 40
1.8
  1
E
 41
0.666667
100
AcDbText
  0
TEXT
  5
1A8
330
6B
100
AcDbEntity
  8
0
 62
     3
100
AcDbText
 10
934.9174600000003
 20
714.7149419999998
 30
0.0
 40
1.8
  1
F
 41
0.666667
100
AcDbText
  0
TEXT
  5
1A9
330
6B
100
AcDbEntity
  8
0
 62
     3
100
AcDbText
 10
929.2842029999999
 20
710.722389
 30
0.0
 40
3.2
  1
製図
 41
1.076369
100
AcDbText
  0
LINE
  5
1AA
330
6B
100
AcDbEntity
  8
0
 62
     3
100
AcDbLine
 10
827.356321
 20
718.4240070000002
 30
0.0
 11
827.356321
 21
678.7582849999998
 31
0.0
  0
TEXT
  5
1AB
330
6B
100
AcDbEntity
  8
0
 62
     3
100
AcDbText
 10
828.732974
 20
679.0907499999998
 30
0.0
 40
5.0
  1
日動工業株式会社
 41
0.833333
100
AcDbText
  0
LINE
  5
1AC
330
6B
100
AcDbEntity
  8
0
 62
     3
100
AcDbLine
 10
870.2387250000002
 20
702.4240070000002
 30
0.0
 11
870.2387250000002
 21
678.7582849999998
 31
0.0
  0
LINE
  5
1AD
330
6B
100
AcDbEntity
  8
0
 62
     3
100
AcDbLine
 10
870.2387250000002
 20
683.591146
 30
0.0
 11
886.9604000000002
 21
683.591146
 31
0.0
  0
TEXT
  5
1AE
330
6B
100
AcDbEntity
  8
0
 62
     3
100
AcDbText
 10
870.8253270000001
 20
684.4075769999998
 30
0.0
 40
3.2
  1
出図コード
 41
0.8356860000000001
100
AcDbText
  0
LINE
  5
1B0
330
6B
100
AcDbEntity
  8
0
 62
     3
100
AcDbLine
 10
827.356321
 20
688.4240069999998
 30
0.0
 11
938.659763
 21
688.424007
 31
0.0
  0
LINE
  5
1B2
330
6B
100
AcDbEntity
  8
0
 62
     3
100
AcDbLine
 10
827.356321
 20
709.424007
 30
0.0
 11
938.659763
 21
709.424007
 31
0.0
  0
LINE
  5
1B8
330
6B
100
AcDbEntity
  8
0
 62
     3
100
AcDbLine
 10
827.356321
 20
702.4240070000002
 30
0.0
 11
886.9604000000002
 21
702.4240070000002
 31
0.0
  0
LINE
  5
1BE
330
6B
100
AcDbEntity
  8
0
 62
     3
100
AcDbLine
 10
827.356321
 20
695.424007
 30
0.0
 11
938.659763
 21
695.424007
 31
0.0
  0
TEXT
  5
1BF
330
6B
100
AcDbEntity
  8
0
 62
     3
100
AcDbText
 10
870.6927790000001
 20
679.360479
 30
0.0
 40
3.2
  1
ZK-A4Y
 41
0.8112849999999999
100
AcDbText
  0
LINE
  5
1C0
330
6B
100
AcDbEntity
  8
0
 62
     3
100
AcDbLine
 10
758.6597629999999
 20
955.7582850000001
 30
0.0
 11
758.6597629999999
 21
678.7582849999998
 31
0.0
  0
LINE
  5
1C1
330
6B
100
AcDbEntity
  8
0
 62
     3
100
AcDbLine
 10
938.659763
 20
678.7582849999998
 30
0.0
 11
938.659763
 21
955.7582850000001
 31
0.0
  0
LINE
  5
1C2
330
6B
100
AcDbEntity
  8
0
 62
     3
100
AcDbLine
 10
938.659763
 20
678.7582849999998
 30
0.0
 11
758.6597629999999
 21
678.7582849999998
 31
0.0
  0
TEXT
  5
1C7
330
6B
100
AcDbEntity
  8
0
 62
     3
100
AcDbText
 10
829.1737180000001
 20
714.593533
 30
0.0
 40
2.0
  1
CONPONENTS
 41
0.5331600000000001
100
AcDbText
  0
TEXT
  5
1C8
330
6B
100
AcDbEntity
  8
0
 62
     3
100
AcDbText
 10
828.8239910000001
 20
695.661356
 30
0.0
 40
3.0
  1
材
 41
0.833333
100
AcDbText
  0
TEXT
  5
1C9
330
6B
100
AcDbEntity
  8
0
 62
     3
100
AcDbText
 10
836.3596340000002
 20
695.661356
 30
0.0
 40
3.0
  1
質
 41
0.833333
100
AcDbText
  0
TEXT
  5
1CA
330
6B
100
AcDbEntity
  8
0
 62
     3
100
AcDbText
 10
828.9120620000003
 20
706.2858809999998
 30
0.0
 40
2.0
  1
MODEL
 41
1.031072999999999
100
AcDbText
  0
TEXT
  5
1CB
330
6B
100
AcDbEntity
  8
0
 62
     3
100
AcDbText
 10
828.8239910000001
 20
699.3436650000001
 30
0.0
 40
2.0
  1
MATERIAL
 41
0.659278
100
AcDbText
  0
TEXT
  5
1CC
330
6B
100
AcDbEntity
  8
0
 62
     3
100
AcDbText
 10
860.1312720000002
 20
695.661356
 30
0.0
 40
3.0
  1
備
 41
0.833333
100
AcDbText
  0
TEXT
  5
1CD
330
6B
100
AcDbEntity
  8
0
 62
     3
100
AcDbText
 10
866.8642730000001
 20
695.661356
 30
0.0
 40
3.0
  1
考
 41
0.833333
100
AcDbText
  0
TEXT
  5
1CE
330
6B
100
AcDbEntity
  8
0
 62
     3
100
AcDbText
 10
859.8842619999999
 20
699.3436650000001
 30
0.0
 40
2.0
  1
REMARKS
 41
0.675794
100
AcDbText
  0
TEXT
  5
1CF
330
6B
100
AcDbEntity
  8
0
 62
     3
100
AcDbText
 10
830.4137200000001
 20
692.4235440000001
 30
0.0
 40
2.0
  1
3AD
 41
1.42614
100
AcDbText
  0
TEXT
  5
1D0
330
6B
100
AcDbEntity
  8
0
 62
     3
100
AcDbText
 10
839.7247000000001
 20
692.589278
 30
0.0
 40
2.0
  1
ANGLE
 41
1.669883999999998
100
AcDbText
  0
TEXT
  5
1D1
330
6B
100
AcDbEntity
  8
0
 62
     3
100
AcDbText
 10
860.6585870000001
 20
692.212437
 30
0.0
 40
2.0
  1
SCALE
 41
0.7719630000000001
100
AcDbText
  0
TEXT
  5
1D2
330
6B
100
AcDbEntity
  8
0
 62
     3
100
AcDbText
 10
830.0998500000002
 20
688.424007
 30
0.0
 40
3.0
  1
第
 41
0.833333
100
AcDbText
  0
TEXT
  5
1D3
330
6B
100
AcDbEntity
  8
0
 62
     3
100
AcDbText
 10
837.8867000000001
 20
688.424007
 30
0.0
 40
3.0
  1
三
 41
0.833333
100
AcDbText
  0
TEXT
  5
1D4
330
6B
100
AcDbEntity
  8
0
 62
     3
100
AcDbText
 10
845.6735500000004
 20
688.424007
 30
0.0
 40
3.0
  1
角
 41
0.833333
100
AcDbText
  0
TEXT
  5
1D5
330
6B
100
AcDbEntity
  8
0
 62
     3
100
AcDbText
 10
853.4604000000003
 20
688.424007
 30
0.0
 40
3.0
  1
法
 41
0.833333
100
AcDbText
  0
TEXT
  5
1D6
330
6B
100
AcDbEntity
  8
0
 62
     3
100
AcDbText
 10
860.5217920000002
 20
688.712437
 30
0.0
 40
3.0
  1
尺
 41
0.833333
100
AcDbText
  0
TEXT
  5
1D7
330
6B
100
AcDbEntity
  8
0
 62
     3
100
AcDbText
 10
867.2547940000001
 20
688.712437
 30
0.0
 40
3.0
  1
度
 41
0.833333
100
AcDbText
  0
TEXT
  5
1D8
330
6B
100
AcDbEntity
  8
0
 62
     3
100
AcDbText
 10
889.838064
 20
710.881736
 30
0.0
 40
3.0
  1
承認
 41
1.089472999999999
100
AcDbText
  0
TEXT
  5
1D9
330
6B
100
AcDbEntity
  8
0
 62
     3
100
AcDbText
 10
903.0809440000002
 20
710.824007
 30
0.0
 40
3.0
  1
検図
 41
0.931761
100
AcDbText
  0
TEXT
  5
1DA
330
6B
100
AcDbEntity
  8
0
 62
     3
100
AcDbText
 10
916.0813410000002
 20
710.824007
 30
0.0
 40
3.0
  1
設
 41
0.833333
100
AcDbText
  0
TEXT
  5
1DB
330
6B
100
AcDbEntity
  8
0
 62
     3
100
AcDbText
 10
920.5712090000004
 20
710.824007
 30
0.0
 40
3.0
  1
計
 41
0.833333
100
AcDbText
  0
TEXT
  5
1DC
330
6B
100
AcDbEntity
  8
0
 62
     3
100
AcDbText
 10
829.1051900000002
 20
710.1127639999998
 30
0.0
 40
3.0
  1
品
 41
0.833333
100
AcDbText
  0
TEXT
  5
1DD
330
6B
100
AcDbEntity
  8
0
 62
     3
100
AcDbText
 10
836.6408320000001
 20
710.1127639999998
 30
0.0
 40
3.0
  1
名
 41
0.833333
100
AcDbText
  0
TEXT
  5
1DE
330
6B
100
AcDbEntity
  8
0
 62
     3
100
AcDbText
 10
828.9120620000003
 20
702.653621
 30
0.0
 40
3.0
  1
型
 41
0.833333
100
AcDbText
  0
TEXT
  5
1DF
330
6B
100
AcDbEntity
  8
0
 62
     3
100
AcDbText
 10
836.4601520000004
 20
702.653621
 30
0.0
 40
3.0
  1
式
 41
0.833333
100
AcDbText
  0
TEXT
  5
1E9
330
6B
100
AcDbEntity
  8
0
 62
     3
100
AcDbText
 10
873.1070840000002
 20
695.977057
 30
0.0
 40
3.2
  1
交換球
  7
高3.2
100
AcDbText
  0
LINE
  5
1EA
330
6B
100
AcDbEntity
  8
0
 62
     3
100
AcDbLine
 10
869.2967269999996
 20
786.871782
 30
0.0
 11
869.2967269999996
 21
737.871782
 31
0.0
  0
LINE
  5
1EB
330
6B
100
AcDbEntity
  8
0
 62
     3
100
AcDbLine
 10
869.2967269999996
 20
786.871782
 30
0.0
 11
931.7910389999999
 21
786.871782
 31
0.0
  0
LINE
  5
1EC
330
6B
100
AcDbEntity
  8
0
 62
     3
100
AcDbLine
 10
869.2967269999996
 20
737.871782
 30
0.0
 11
931.7910389999999
 21
737.871782
 31
0.0
  0
TEXT
  5
1ED
330
6B
100
AcDbEntity
  8
0
 62
     3
100
AcDbText
 10
881.5232206759656
 20
789.2852958027697
 30
0.0
 40
4.5
  1
主　　　仕　　　様
 41
0.8
  7
高4.5
100
AcDbText
  0
TEXT
  5
1EE
330
6B
100
AcDbEntity
  8
0
 62
     3
100
AcDbText
 10
870.7967269999997
 20
780.3717820000001
 30
0.0
 40
4.5
  1
型　　式
 41
0.8
  7
高4.5
100
AcDbText
  0
TEXT
  5
1EF
330
6B
100
AcDbEntity
  8
0
 62
     3
100
AcDbText
 10
870.7967269999997
 20
773.371782
 30
0.0
 40
4.5
  1
定格電圧
 41
0.8
  7
高4.5
100
AcDbText
  0
TEXT
  5
1F0
330
6B
100
AcDbEntity
  8
0
 62
     3
100
AcDbText
 10
870.7967269999997
 20
766.371782
 30
0.0
 40
4.5
  1
消費電力
 41
0.8
  7
高4.5
100
AcDbText
  0
TEXT
  5
1F1
330
6B
100
AcDbEntity
  8
0
 62
     3
100
AcDbText
 10
870.7967269999997
 20
759.3717820000001
 30
0.0
 40
4.5
  1
定格光束
 41
0.8
  7
高4.5
100
AcDbText
  0
TEXT
  5
1F2
330
6B
100
AcDbEntity
  8
0
 62
     3
100
AcDbText
 10
870.7967269999997
 20
752.371782
 30
0.0
 40
4.5
  1
寿　　命
 41
0.8
  7
高4.5
100
AcDbText
  0
TEXT
  5
1F3
330
6B
100
AcDbEntity
  8
0
 62
     3
100
AcDbText
 10
870.7967269999997
 20
745.371782
 30
0.0
 40
4.5
  1
口　　金
 41
0.8
  7
高4.5
100
AcDbText
  0
TEXT
  5
1F4
330
6B
100
AcDbEntity
  8
0
 62
     3
100
AcDbText
 10
870.7967269999997
 20
738.3717820000001
 30
0.0
 40
4.5
  1
質　　量
 41
0.8
  7
高4.5
100
AcDbText
  0
LINE
  5
1F5
330
6B
100
AcDbEntity
  8
0
 62
     3
100
AcDbLine
 10
931.7910389999999
 20
737.871782
 30
0.0
 11
931.7910389999999
 21
786.871782
 31
0.0
  0
LINE
  5
1F6
330
6B
100
AcDbEntity
  8
0
 62
     7
100
AcDbLine
 10
869.2967269999996
 20
779.8717820000002
 30
0.0
 11
931.7910389999999
 21
779.8717820000002
 31
0.0
  0
LINE
  5
1F7
330
6B
100
AcDbEntity
  8
0
 62
     7
100
AcDbLine
 10
869.2967269999996
 20
772.871782
 30
0.0
 11
931.7910389999999
 21
772.871782
 31
0.0
  0
LINE
  5
1F8
330
6B
100
AcDbEntity
  8
0
 62
     7
100
AcDbLine
 10
869.2967269999996
 20
765.871782
 30
0.0
 11
931.7910389999999
 21
765.871782
 31
0.0
  0
LINE
  5
1F9
330
6B
100
AcDbEntity
  8
0
 62
     7
100
AcDbLine
 10
869.2967269999996
 20
758.871782
 30
0.0
 11
931.7910389999999
 21
758.871782
 31
0.0
  0
LINE
  5
1FA
330
6B
100
AcDbEntity
  8
0
 62
     7
100
AcDbLine
 10
869.2967269999996
 20
751.871782
 30
0.0
 11
931.7910389999999
 21
751.871782
 31
0.0
  0
LINE
  5
1FB
330
6B
100
AcDbEntity
  8
0
 62
     7
100
AcDbLine
 10
869.2967269999996
 20
744.871782
 30
0.0
 11
931.7910389999999
 21
744.871782
 31
0.0
  0
LINE
  5
1FC
330
6B
100
AcDbEntity
  8
0
 62
     7
100
AcDbLine
 10
892.5342859999997
 20
786.378012
 30
0.0
 11
892.5342859999997
 21
737.871782
 31
0.0
  0
LINE
  5
1FD
330
6B
100
AcDbEntity
  8
0
 62
     7
100
AcDbLine
 10
881.4467369999999
 20
788.3257639999998
 30
0.0
 11
921.4467369999999
 21
788.3257639999998
 31
0.0
  0
LINE
  5
1FE
330
6B
100
AcDbEntity
  8
0
 62
     3
100
AcDbLine
 10
912.9603999999996
 20
718.4240070000002
 30
0.0
 11
912.9603999999996
 21
724.424007
 31
0.0
  0
LINE
  5
1FF
330
6B
100
AcDbEntity
  8
0
 62
     3
100
AcDbLine
 10
886.9603999999997
 20
718.4240070000002
 30
0.0
 11
886.9603999999997
 21
724.424007
 31
0.0
  0
LINE
  5
200
330
6B
100
AcDbEntity
  8
0
 62
     3
100
AcDbLine
 10
938.6597639999999
 20
724.424007
 30
0.0
 11
886.9603999999997
 21
724.424007
 31
0.0
  0
TEXT
  5
201
330
6B
100
AcDbEntity
  8
0
 62
     3
100
AcDbText
 10
892.9559979999996
 20
719.2203559999998
 30
0.0
 40
4.5
  1
コード
  7
高4.5
100
AcDbText
  0
TEXT
  5
202
330
6B
100
AcDbEntity
  8
0
 62
     3
100
AcDbText
 10
894.0342859999999
 20
773.371782
 30
0.0
 40
4.5
  1
110V
 41
0.8
  7
高4.5
100
AcDbText
  0
TEXT
  5
209
330
6B
100
AcDbEntity
  8
0
 62
     3
100
AcDbText
 10
894.0342859999999
 20
752.371782
 30
0.0
 40
4.5
  1
約１２００時間
 41
0.8
  7
高4.5
100
AcDbText
  0
TEXT
  5
20A
330
6B
100
AcDbEntity
  8
0
 62
     3
100
AcDbText
 10
894.0342859999999
 20
745.371782
 30
0.0
 40
4.5
  1
E26
 41
0.8
  7
高4.5
100
AcDbText
  0
TEXT
  5
20B
330
6B
100
AcDbEntity
  8
0
 62
     3
100
AcDbText
 10
903.5439489999999
 20
689.198424
 30
0.0
 40
3.2
  1
2008.09.05
  7
高3.2
100
AcDbText
  0
TEXT
  5
20C
330
6B
100
AcDbEntity
  8
0
 62
     3
100
AcDbText
 10
872.2253810000001
 20
689.312005
 30
0.0
 40
3.2
  1
1/1
  7
高3.2
100
AcDbText
  0
LINE
  5
20D
330
6B
100
AcDbEntity
  8
0
 62
     3
100
AcDbLine
 10
849.5373019999997
 20
781.4671839999999
 30
0.0
 11
825.537302
 21
781.4671839999999
 31
0.0
  0
ARC
  5
20E
330
6B
100
AcDbEntity
  8
0
 62
     3
100
AcDbCircle
 10
837.5373019999997
 20
865.8005179999999
 30
0.0
 40
35.0
100
AcDbArc
 50
0.0
 51
180.0
  0
LINE
  5
20F
330
6B
100
AcDbEntity
  8
0
 62
     3
100
AcDbLine
 10
856.5373019999999
 20
788.467184
 30
0.0
 11
856.5373019999999
 21
796.058134
 31
0.0
  0
LINE
  5
210
330
6B
100
AcDbEntity
  8
0
 62
     3
100
AcDbLine
 10
818.537302
 20
788.467184
 30
0.0
 11
818.537302
 21
796.058134
 31
0.0
  0
ARC
  5
211
330
6B
100
AcDbEntity
  8
0
 62
     3
100
AcDbCircle
 10
849.5373019999997
 20
788.467184
 30
0.0
 40
7.0
100
AcDbArc
 50
270.0
 51
0.0
  0
ARC
  5
212
330
6B
100
AcDbEntity
  8
0
 62
     3
100
AcDbCircle
 10
825.537302
 20
788.467184
 30
0.0
 40
7.0
100
AcDbArc
 50
180.0
 51
270.0
  0
ARC
  5
213
330
6B
100
AcDbEntity
  8
0
 62
     3
100
AcDbCircle
 10
812.5373019999997
 20
865.8005179999999
 30
0.0
 40
60.0
100
AcDbArc
 50
334.158067
 51
0.0
  0
ARC
  5
214
330
6B
100
AcDbEntity
  8
0
 62
     3
100
AcDbCircle
 10
862.5373019999997
 20
865.8005179999999
 30
0.0
 40
60.0
100
AcDbArc
 50
180.0
 51
205.841933
  0
ARC
  5
215
330
6B
100
AcDbEntity
  8
0
 62
     3
100
AcDbCircle
 10
956.5373019999999
 20
796.058134
 30
0.0
 40
100.0
100
AcDbArc
 50
154.158067
 51
180.0
  0
ARC
  5
216
330
6B
100
AcDbEntity
  8
0
 62
     3
100
AcDbCircle
 10
718.537302
 20
796.058134
 30
0.0
 40
100.0
100
AcDbArc
 50
0.0
 51
25.84193299999999
  0
LINE
  5
217
330
6B
100
AcDbEntity
  8
0
 62
     7
100
AcDbLine
 10
833.8706359999999
 20
756.4671839999999
 30
0.0
 11
841.2039689999996
 21
756.4671839999999
 31
0.0
  0
LINE
  5
218
330
6B
100
AcDbEntity
  8
0
 62
     7
100
AcDbLine
 10
833.8706359999999
 20
757.8005179999999
 30
0.0
 11
841.2039689999996
 21
757.8005179999999
 31
0.0
  0
LINE
  5
219
330
6B
100
AcDbEntity
  8
0
 62
     7
100
AcDbLine
 10
845.822771
 20
760.4671839999999
 30
0.0
 11
829.251833
 21
760.4671839999999
 31
0.0
  0
LINE
  5
21A
330
6B
100
AcDbEntity
  8
0
 62
     7
100
AcDbLine
 10
833.8706359999999
 20
757.8005179999999
 30
0.0
 11
833.8706359999999
 21
756.4671839999999
 31
0.0
  0
LINE
  5
21B
330
6B
100
AcDbEntity
  8
0
 62
     7
100
AcDbLine
 10
841.2039689999996
 20
757.8005179999999
 30
0.0
 11
841.2039689999996
 21
756.4671839999999
 31
0.0
  0
LINE
  5
21C
330
6B
100
AcDbEntity
  8
0
 62
     7
100
AcDbLine
 10
826.2039689999998
 20
781.550745
 30
0.0
 11
826.2039689999998
 21
781.048583
 31
0.0
  0
LINE
  5
21D
330
6B
100
AcDbEntity
  8
0
 62
     7
100
AcDbLine
 10
826.2039689999998
 20
778.3714029999998
 30
0.0
 11
826.2039689999998
 21
777.048583
 31
0.0
  0
LINE
  5
21E
330
6B
100
AcDbEntity
  8
0
 62
     7
100
AcDbLine
 10
826.2039689999998
 20
774.371403
 30
0.0
 11
826.2039689999998
 21
773.04719
 31
0.0
  0
LINE
  5
21F
330
6B
100
AcDbEntity
  8
0
 62
     7
100
AcDbLine
 10
826.2039689999998
 20
770.3707389999999
 30
0.0
 11
826.2039689999998
 21
769.04719
 31
0.0
  0
LINE
  5
220
330
6B
100
AcDbEntity
  8
0
 62
     7
100
AcDbLine
 10
826.2039689999998
 20
766.3707389999999
 30
0.0
 11
826.2039689999998
 21
765.04719
 31
0.0
  0
ARC
  5
221
330
6B
100
AcDbEntity
  8
0
 62
     7
100
AcDbCircle
 10
827.5373019999998
 20
762.9966699999998
 30
0.0
 40
1.333333
100
AcDbArc
 50
207.3771129999999
 51
240.0
  0
LINE
  5
222
330
6B
100
AcDbEntity
  8
0
 62
     7
100
AcDbLine
 10
848.870636
 20
781.550745
 30
0.0
 11
848.870636
 21
779.06332
 31
0.0
  0
LINE
  5
223
330
6B
100
AcDbEntity
  8
0
 62
     7
100
AcDbLine
 10
848.870636
 20
776.38614
 30
0.0
 11
848.870636
 21
774.990683
 31
0.0
  0
LINE
  5
224
330
6B
100
AcDbEntity
  8
0
 62
     7
100
AcDbLine
 10
848.870636
 20
772.314232
 30
0.0
 11
848.870636
 21
770.990683
 31
0.0
  0
LINE
  5
225
330
6B
100
AcDbEntity
  8
0
 62
     7
100
AcDbLine
 10
848.870636
 20
768.314232
 30
0.0
 11
848.870636
 21
766.990683
 31
0.0
  0
LINE
  5
226
330
6B
100
AcDbEntity
  8
0
 62
     7
100
AcDbLine
 10
848.870636
 20
764.314232
 30
0.0
 11
848.870636
 21
762.9900049999998
 31
0.0
  0
ARC
  5
227
330
6B
100
AcDbEntity
  8
0
 62
     7
100
AcDbCircle
 10
847.5373019999999
 20
762.9966699999998
 30
0.0
 40
1.333333
100
AcDbArc
 50
300.0
 51
0.0
  0
ARC
  5
228
330
6B
100
AcDbEntity
  8
0
 62
     7
100
AcDbCircle
 10
837.5373019999997
 20
766.217184
 30
0.0
 40
10.416667
100
AcDbArc
 50
249.390307
 51
290.609693
  0
LINE
  5
229
330
6B
100
AcDbEntity
  8
0
 62
     7
100
AcDbLine
 10
841.2039689999996
 20
757.8005179999999
 30
0.0
 11
848.2039689999997
 21
761.841969
 31
0.0
  0
LINE
  5
22A
330
6B
100
AcDbEntity
  8
0
 62
     7
100
AcDbLine
 10
833.8706359999999
 20
757.8005179999999
 30
0.0
 11
826.8706359999999
 21
761.841969
 31
0.0
  0
ARC
  5
22B
330
6B
100
AcDbEntity
  8
0
 62
     7
100
AcDbCircle
 10
825.876653
 20
763.6808999999998
 30
0.0
 40
1.333333
100
AcDbArc
 50
94.900687
 51
274.900687
  0
ARC
  5
22C
330
6B
100
AcDbEntity
  8
0
 62
     7
100
AcDbCircle
 10
825.876653
 20
767.6808999999998
 30
0.0
 40
1.333333
100
AcDbArc
 50
94.900687
 51
274.900687
  0
ARC
  5
22D
330
6B
100
AcDbEntity
  8
0
 62
     7
100
AcDbCircle
 10
849.2023559999999
 20
765.6808999999998
 30
0.0
 40
1.333333
100
AcDbArc
 50
274.900687
 51
94.900687
  0
ARC
  5
22E
330
6B
100
AcDbEntity
  8
0
 62
     7
100
AcDbCircle
 10
849.2023559999999
 20
769.6809
 30
0.0
 40
1.333333
100
AcDbArc
 50
274.900687
 51
94.900687
  0
ARC
  5
22F
330
6B
100
AcDbEntity
  8
0
 62
     7
100
AcDbCircle
 10
849.2023559999999
 20
773.6809
 30
0.0
 40
1.333333
100
AcDbArc
 50
274.900687
 51
94.900687
  0
ARC
  5
230
330
6B
100
AcDbEntity
  8
0
 62
     7
100
AcDbCircle
 10
849.2023559999999
 20
777.754215
 30
0.0
 40
1.333333
100
AcDbArc
 50
275.079413
 51
95.079413
  0
ARC
  5
231
330
6B
100
AcDbEntity
  8
0
 62
     7
100
AcDbCircle
 10
825.876653
 20
775.6808999999998
 30
0.0
 40
1.333333
100
AcDbArc
 50
95.079413
 51
275.079413
  0
ARC
  5
232
330
6B
100
AcDbEntity
  8
0
 62
     7
100
AcDbCircle
 10
825.876653
 20
771.6808999999998
 30
0.0
 40
1.333333
100
AcDbArc
 50
94.900687
 51
274.900687
  0
ARC
  5
233
330
6B
100
AcDbEntity
  8
0
 62
     7
100
AcDbCircle
 10
825.876653
 20
779.6808999999998
 30
0.0
 40
1.333333
100
AcDbArc
 50
95.079413
 51
275.079413
  0
LINE
  5
234
330
6B
100
AcDbEntity
  8
0
 62
     7
100
AcDbLine
 10
830.913411
 20
781.4671839999999
 30
0.0
 11
825.758605
 21
781.008997
 31
0.0
  0
LINE
  5
235
330
6B
100
AcDbEntity
  8
0
 62
     7
100
AcDbLine
 10
848.870636
 20
780.38614
 30
0.0
 11
825.994702
 21
778.352802
 31
0.0
  0
LINE
  5
236
330
6B
100
AcDbEntity
  8
0
 62
     7
100
AcDbLine
 10
848.870636
 20
762.9900049999998
 30
0.0
 11
828.082586
 21
761.1422489999998
 31
0.0
  0
LINE
  5
237
330
6B
100
AcDbEntity
  8
0
 62
     7
100
AcDbLine
 10
849.084307
 20
779.082313
 30
0.0
 11
825.758605
 21
777.008997
 31
0.0
  0
LINE
  5
238
330
6B
100
AcDbEntity
  8
0
 62
     7
100
AcDbLine
 10
849.320404
 20
776.426118
 30
0.0
 11
825.994702
 21
774.352802
 31
0.0
  0
LINE
  5
239
330
6B
100
AcDbEntity
  8
0
 62
     7
100
AcDbLine
 10
849.0884499999998
 20
775.009359
 30
0.0
 11
825.7627480000001
 21
773.009359
 31
0.0
  0
LINE
  5
23A
330
6B
100
AcDbEntity
  8
0
 62
     7
100
AcDbLine
 10
849.3162609999997
 20
772.352441
 30
0.0
 11
825.9905589999997
 21
770.3524409999999
 31
0.0
  0
LINE
  5
23B
330
6B
100
AcDbEntity
  8
0
 62
     7
100
AcDbLine
 10
849.0884499999998
 20
771.009359
 30
0.0
 11
825.7627480000001
 21
769.009359
 31
0.0
  0
LINE
  5
23C
330
6B
100
AcDbEntity
  8
0
 62
     7
100
AcDbLine
 10
849.3162609999997
 20
768.352441
 30
0.0
 11
825.9905589999997
 21
766.3524409999999
 31
0.0
  0
LINE
  5
23D
330
6B
100
AcDbEntity
  8
0
 62
     7
100
AcDbLine
 10
849.0884499999998
 20
767.009359
 30
0.0
 11
825.7627480000001
 21
765.0093589999999
 31
0.0
  0
LINE
  5
23E
330
6B
100
AcDbEntity
  8
0
 62
     7
100
AcDbLine
 10
849.3162609999997
 20
764.352441
 30
0.0
 11
825.9905589999997
 21
762.3524409999999
 31
0.0
  0
LINE
  5
23F
330
6B
100
AcDbEntity
  8
0
  6
DASHED
 62
     7
100
AcDbLine
 10
837.5373019999997
 20
817.6093080000001
 30
0.0
 11
837.5373019999997
 21
821.4024809999997
 31
0.0
  0
LINE
  5
240
330
6B
100
AcDbEntity
  8
0
  6
DASHED
 62
     7
100
AcDbLine
 10
835.0373019999999
 20
818.932135
 30
0.0
 11
835.0373019999999
 21
821.4024809999997
 31
0.0
  0
LINE
  5
241
330
6B
100
AcDbEntity
  8
0
  6
DASHED
 62
     7
100
AcDbLine
 10
835.0373019999999
 20
822.4024809999999
 30
0.0
 11
835.0373019999999
 21
836.1208949999998
 31
0.0
  0
LINE
  5
242
330
6B
100
AcDbEntity
  8
0
  6
DASHED
 62
     7
100
AcDbLine
 10
840.0373019999998
 20
815.4570239999998
 30
0.0
 11
840.0373019999998
 21
821.4024809999997
 31
0.0
  0
LINE
  5
243
330
6B
100
AcDbEntity
  8
0
  6
DASHED
 62
     7
100
AcDbLine
 10
840.0373019999998
 20
822.4024809999999
 30
0.0
 11
840.0373019999998
 21
836.1208949999998
 31
0.0
  0
LINE
  5
244
330
6B
100
AcDbEntity
  8
0
  6
DASHED
 62
     7
100
AcDbLine
 10
827.138485
 20
864.3632589999999
 30
0.0
 11
834.537302
 21
822.4024809999999
 31
0.0
  0
LINE
  5
245
330
6B
100
AcDbEntity
  8
0
  6
DASHED
 62
     7
100
AcDbLine
 10
834.7136289999998
 20
821.4024809999997
 30
0.0
 11
835.1523269999999
 21
818.914505
 31
0.0
  0
LINE
  5
246
330
6B
100
AcDbEntity
  8
0
  6
DASHED
 62
     7
100
AcDbLine
 10
826.1484059999997
 20
864.2195049999997
 30
0.0
 11
833.521876
 21
822.4024809999999
 31
0.0
  0
LINE
  5
247
330
6B
100
AcDbEntity
  8
0
  6
DASHED
 62
     7
100
AcDbLine
 10
833.6982029999997
 20
821.4024809999997
 30
0.0
 11
834.129285
 21
818.9576889999997
 31
0.0
  0
LINE
  5
248
330
6B
100
AcDbEntity
  8
0
  6
DASHED
 62
     7
100
AcDbLine
 10
847.9361199999997
 20
864.3632589999999
 30
0.0
 11
840.8874310000001
 21
824.388161
 31
0.0
  0
LINE
  5
249
330
6B
100
AcDbEntity
  8
0
  6
DASHED
 62
     7
100
AcDbLine
 10
848.926198
 20
864.2195049999997
 30
0.0
 11
841.872239
 21
824.214513
 31
0.0
  0
LINE
  5
24A
330
6B
100
AcDbEntity
  8
0
  6
DASHED
 62
     7
100
AcDbLine
 10
830.037302
 20
821.4024809999997
 30
0.0
 11
830.037302
 21
822.4024809999999
 31
0.0
  0
LINE
  5
24B
330
6B
100
AcDbEntity
  8
0
  6
DASHED
 62
     7
100
AcDbLine
 10
845.0373019999997
 20
822.4024809999999
 30
0.0
 11
845.0373019999997
 21
821.4024809999997
 31
0.0
  0
LINE
  5
24C
330
6B
100
AcDbEntity
  8
0
  6
DASHED
 62
     7
100
AcDbLine
 10
845.0373019999997
 20
822.4024809999999
 30
0.0
 11
830.037302
 21
822.4024809999999
 31
0.0
  0
LINE
  5
24D
330
6B
100
AcDbEntity
  8
0
  6
DASHED
 62
     7
100
AcDbLine
 10
845.0373019999997
 20
821.4024809999997
 30
0.0
 11
830.037302
 21
821.4024809999997
 31
0.0
  0
LINE
  5
24E
330
6B
100
AcDbEntity
  8
0
  6
DASHED
 62
     7
100
AcDbLine
 10
834.537302
 20
837.1208949999997
 30
0.0
 11
840.5373019999997
 21
837.1208949999997
 31
0.0
  0
LINE
  5
24F
330
6B
100
AcDbEntity
  8
0
  6
DASHED
 62
     7
100
AcDbLine
 10
834.537302
 20
836.1208949999998
 30
0.0
 11
840.5373019999997
 21
836.1208949999998
 31
0.0
  0
LINE
  5
250
330
6B
100
AcDbEntity
  8
0
  6
DASHED
 62
     7
100
AcDbLine
 10
843.0519249999999
 20
815.2658269999998
 30
0.0
 11
843.049738
 21
815.270516
 31
0.0
  0
ARC
  5
251
330
6B
100
AcDbEntity
  8
0
  6
DASHED
 62
     7
100
AcDbCircle
 10
856.644355
 20
821.6097900000002
 30
0.0
 40
15.0
100
AcDbArc
 50
170.0
 51
176.970732
  0
ARC
  5
252
330
6B
100
AcDbEntity
  8
0
  6
DASHED
 62
     7
100
AcDbCircle
 10
856.644355
 20
821.6097900000002
 30
0.0
 40
15.0
100
AcDbArc
 50
180.791887
 51
205.0
  0
ARC
  5
253
330
6B
100
AcDbEntity
  8
0
  6
DASHED
 62
     7
100
AcDbCircle
 10
856.644355
 20
821.6097900000002
 30
0.0
 40
16.0
100
AcDbArc
 50
170.0
 51
177.160222
  0
ARC
  5
254
330
6B
100
AcDbEntity
  8
0
  6
DASHED
 62
     7
100
AcDbCircle
 10
856.644355
 20
821.6097900000002
 30
0.0
 40
16.0
100
AcDbArc
 50
180.742392
 51
204.366091
  0
ARC
  5
260
330
6B
100
AcDbEntity
  8
0
  6
DASHED
 62
     7
100
AcDbCircle
 10
840.5373019999997
 20
836.620895
 30
0.0
 40
0.5
100
AcDbArc
 50
270.0
 51
90.0
  0
ARC
  5
261
330
6B
100
AcDbEntity
  8
0
  6
DASHED
 62
     7
100
AcDbCircle
 10
834.537302
 20
836.620895
 30
0.0
 40
0.5
100
AcDbArc
 50
90.0
 51
270.0
  0
LINE
  5
262
330
6B
100
AcDbEntity
  8
0
  6
DASHED
 62
     7
100
AcDbLine
 10
838.037302
 20
822.4024809999999
 30
0.0
 11
838.037302
 21
865.8005179999999
 31
0.0
  0
LINE
  5
263
330
6B
100
AcDbEntity
  8
0
  6
DASHED
 62
     7
100
AcDbLine
 10
837.0373019999997
 20
822.4024809999999
 30
0.0
 11
837.0373019999997
 21
865.8005179999999
 31
0.0
  0
LINE
  5
264
330
6B
100
AcDbEntity
  8
0
  6
DASHED
 62
     7
100
AcDbLine
 10
838.037302
 20
865.8005179999999
 30
0.0
 11
848.926198
 21
864.2195049999997
 31
0.0
  0
LINE
  5
265
330
6B
100
AcDbEntity
  8
0
  6
DASHED
 62
     7
100
AcDbLine
 10
837.0373019999997
 20
865.8005179999999
 30
0.0
 11
826.1484059999997
 21
864.2195049999997
 31
0.0
  0
LINE
  5
266
330
6B
100
AcDbEntity
  8
0
  6
DASHED
 62
     7
100
AcDbLine
 10
838.037302
 20
865.8005179999999
 30
0.0
 11
837.0373019999997
 21
865.8005179999999
 31
0.0
  0
TEXT
  5
267
330
6B
100
AcDbEntity
  8
0
 62
     3
100
AcDbText
 10
894.0342859999999
 20
766.371782
 30
0.0
 40
4.5
  1
200W
 41
0.8
  7
高4.5
100
AcDbText
  0
TEXT
  5
268
330
6B
100
AcDbEntity
  8
0
 62
     3
100
AcDbText
 10
894.0342859999999
 20
780.3717820000001
 30
0.0
 40
4.5
  1
WT-200
 41
0.8
  7
高4.5
100
AcDbText
  0
TEXT
  5
269
330
6B
100
AcDbEntity
  8
0
 62
     3
100
AcDbText
 10
894.0342859999999
 20
759.3717820000001
 30
0.0
 40
4.5
  1
3000Lm
 41
0.8
  7
高4.5
100
AcDbText
  0
TEXT
  5
26A
330
6B
100
AcDbEntity
  8
0
 62
     3
100
AcDbText
 10
894.0342859999999
 20
738.3717820000001
 30
0.0
 40
4.5
  1
80g
 41
0.8
  7
高4.5
100
AcDbText
  0
TEXT
  5
26B
330
6B
100
AcDbEntity
  8
0
 62
     3
100
AcDbText
 10
846.0882160000004
 20
709.976424
 30
0.0
 40
4.5
  1
防雨耐震球
  7
高4.5
100
AcDbText
  0
TEXT
  5
26C
330
6B
100
AcDbEntity
  8
0
 62
     3
100
AcDbText
 10
849.8570420000001
 20
703.0383780000001
 30
0.0
 40
4.5
  1
WT-200
  7
高4.5
100
AcDbText
  0
TEXT
  5
26D
330
6B
100
AcDbEntity
  8
0
 62
     3
100
AcDbText
 10
889.3867032808103
 20
680.1416947975853
 30
0.0
 40
6.299999999999998
  1
WT-200
  7
高6.3
100
AcDbText
  0
TEXT
  5
26E
330
6B
100
AcDbEntity
  8
0
 62
     3
100
AcDbText
 10
914.9475469999996
 20
719.068145
 30
0.0
 40
4.5
  1
8177
  7
高4.5
100
AcDbText
  0
LINE
  5
3F8
330
6B
100
AcDbEntity
  8
0
 62
     3
100
AcDbLine
 10
795.74411502
 20
957.5457291000001
 30
0.0
 11
796.1798629300001
 21
957.3182609599999
 31
0.0
  0
LINE
  5
3F9
330
6B
100
AcDbEntity
  8
0
 62
     3
100
AcDbLine
 10
795.74411502
 20
953.8150986199999
 30
0.0
 11
796.1798629300001
 21
954.04256676
 31
0.0
  0
LINE
  5
3FA
330
6B
100
AcDbEntity
  8
0
 62
     3
100
AcDbLine
 10
796.1798629300001
 20
957.3182609599999
 30
0.0
 11
796.1798629300001
 21
954.04256676
 31
0.0
  0
LINE
  5
3FB
330
6B
100
AcDbEntity
  8
0
 62
     3
100
AcDbLine
 10
797.28338035
 20
953.8150986199999
 30
0.0
 11
796.8476324399999
 21
954.04256676
 31
0.0
  0
LINE
  5
3FC
330
6B
100
AcDbEntity
  8
0
 62
     3
100
AcDbLine
 10
796.8476324399999
 20
956.03942557
 30
0.0
 11
796.8476324399999
 21
954.04256676
 31
0.0
  0
LINE
  5
3FD
330
6B
100
AcDbEntity
  8
0
 62
     3
100
AcDbLine
 10
799.82524313
 20
957.5457291000001
 30
0.0
 11
799.3894952199999
 21
957.3182609599999
 31
0.0
  0
LINE
  5
3FE
330
6B
100
AcDbEntity
  8
0
 62
     3
100
AcDbLine
 10
798.2859777999999
 20
957.5457291000001
 30
0.0
 11
798.7217257100001
 21
957.3182609599999
 31
0.0
  0
LINE
  5
3FF
330
6B
100
AcDbEntity
  8
0
 62
     3
100
AcDbLine
 10
798.7217257100001
 20
957.3182609599999
 30
0.0
 11
798.7217257100001
 21
955.8759239
 31
0.0
  0
LINE
  5
400
330
6B
100
AcDbEntity
  8
0
 62
     3
100
AcDbLine
 10
799.3894952199999
 20
957.3182609599999
 30
0.0
 11
799.3894952199999
 21
953.60353748
 31
0.0
  0
LINE
  5
401
330
6B
100
AcDbEntity
  8
0
 62
     3
100
AcDbLine
 10
800.0405403300003
 20
957.54572647
 30
0.0
 11
800.47628667
 21
957.3182553299997
 31
0.0
  0
LINE
  5
402
330
6B
100
AcDbEntity
  8
0
 62
     3
100
AcDbLine
 10
800.0404623599999
 20
953.8151486
 30
0.0
 11
800.47621821
 21
954.0426015199999
 31
0.0
  0
LINE
  5
403
330
6B
100
AcDbEntity
  8
0
 62
     3
100
AcDbLine
 10
800.47628667
 20
957.3182553299997
 30
0.0
 11
800.47628667
 21
954.0426015199999
 31
0.0
  0
LINE
  5
404
330
6B
100
AcDbEntity
  8
0
 62
     3
100
AcDbLine
 10
801.9700767300001
 20
957.5457027999998
 30
0.0
 11
801.5343256400001
 21
957.31824077
 31
0.0
  0
LINE
  5
405
330
6B
100
AcDbEntity
  8
0
 62
     3
100
AcDbLine
 10
801.5343256400001
 20
957.31824077
 30
0.0
 11
801.5343256400001
 21
954.0425869499996
 31
0.0
  0
LINE
  5
406
330
6B
100
AcDbEntity
  8
0
 62
     3
100
AcDbLine
 10
801.9700767300001
 20
953.8151249199996
 30
0.0
 11
801.5343256400001
 21
954.0425869499996
 31
0.0
  0
LINE
  5
407
330
6B
100
AcDbEntity
  8
0
 62
     3
100
AcDbLine
 10
805.6603301699999
 20
957.5456617999998
 30
0.0
 11
806.0960772899997
 21
957.3181921599999
 31
0.0
  0
LINE
  5
408
330
6B
100
AcDbEntity
  8
0
 62
     3
100
AcDbLine
 10
806.0960772899997
 20
957.3181921599999
 30
0.0
 11
806.09602012
 21
954.04253835
 31
0.0
  0
LINE
  5
409
330
6B
100
AcDbEntity
  8
0
 62
     3
100
AcDbLine
 10
805.66026506
 20
953.81508392
 30
0.0
 11
806.09602012
 21
954.04253835
 31
0.0
  0
LINE
  5
40A
330
6B
100
AcDbEntity
  8
0
 62
     3
100
AcDbLine
 10
807.61259113
 20
957.5456617999998
 30
0.0
 11
807.1768440099997
 21
957.3181921599999
 31
0.0
  0
LINE
  5
40B
330
6B
100
AcDbEntity
  8
0
 62
     3
100
AcDbLine
 10
807.61265624
 20
953.81508392
 30
0.0
 11
807.1769011799997
 21
954.04253835
 31
0.0
  0
LINE
  5
40C
330
6B
100
AcDbEntity
  8
0
 62
     3
100
AcDbLine
 10
807.8163189900001
 20
957.5456617999998
 30
0.0
 11
808.2520661200003
 21
957.3181921599999
 31
0.0
  0
LINE
  5
40D
330
6B
100
AcDbEntity
  8
0
 62
     3
100
AcDbLine
 10
807.8162538799999
 20
953.81508392
 30
0.0
 11
808.25200894
 21
954.04253835
 31
0.0
  0
LINE
  5
40E
330
6B
100
AcDbEntity
  8
0
 62
     3
100
AcDbLine
 10
809.7685799599997
 20
957.5456617999998
 30
0.0
 11
809.33283284
 21
957.3181921599999
 31
0.0
  0
LINE
  5
40F
330
6B
100
AcDbEntity
  8
0
 62
     3
100
AcDbLine
 10
809.33283284
 20
957.3181921599999
 30
0.0
 11
809.3328900100001
 21
954.04253835
 31
0.0
  0
LINE
  5
410
330
6B
100
AcDbEntity
  8
0
 62
     3
100
AcDbLine
 10
809.7686450700001
 20
953.81508392
 30
0.0
 11
809.3328900100001
 21
954.04253835
 31
0.0
  0
LINE
  5
411
330
6B
100
AcDbEntity
  8
0
 62
     3
100
AcDbLine
 10
808.25204121
 20
955.89105904
 30
0.0
 11
807.1768689199998
 21
955.89105904
 31
0.0
  0
LINE
  5
412
330
6B
100
AcDbEntity
  8
0
 62
     3
100
AcDbLine
 10
808.2520338499998
 20
955.46976868
 30
0.0
 11
807.1768762699999
 21
955.46976868
 31
0.0
  0
LINE
  5
413
330
6B
100
AcDbEntity
  8
0
 62
     3
100
AcDbLine
 10
808.2520661200003
 20
957.3181921599999
 30
0.0
 11
808.25204121
 21
955.89105904
 31
0.0
  0
LINE
  5
414
330
6B
100
AcDbEntity
  8
0
 62
     3
100
AcDbLine
 10
808.2520338499998
 20
955.46976868
 30
0.0
 11
808.25200894
 21
954.04253835
 31
0.0
  0
LINE
  5
415
330
6B
100
AcDbEntity
  8
0
 62
     3
100
AcDbLine
 10
807.1768440099997
 20
957.3181921599999
 30
0.0
 11
807.1768689199998
 21
955.89105904
 31
0.0
  0
LINE
  5
416
330
6B
100
AcDbEntity
  8
0
 62
     3
100
AcDbLine
 10
807.1768762699999
 20
955.46976868
 30
0.0
 11
807.1769011799997
 21
954.04253835
 31
0.0
  0
LINE
  5
417
330
6B
100
AcDbEntity
  8
0
 62
     3
100
AcDbLine
 10
809.97553908
 20
957.5456617999998
 30
0.0
 11
810.4112861999999
 21
957.3181921599999
 31
0.0
  0
LINE
  5
418
330
6B
100
AcDbEntity
  8
0
 62
     3
100
AcDbLine
 10
810.4112861999999
 20
957.3181921599999
 30
0.0
 11
810.4112290299998
 21
954.04253835
 31
0.0
  0
LINE
  5
419
330
6B
100
AcDbEntity
  8
0
 62
     3
100
AcDbLine
 10
809.9754739699998
 20
953.81508392
 30
0.0
 11
810.4112290299998
 21
954.04253835
 31
0.0
  0
LINE
  5
41A
330
6B
100
AcDbEntity
  8
0
 62
     3
100
AcDbLine
 10
811.9050493499999
 20
957.5456617999998
 30
0.0
 11
811.46930223
 21
957.3181921599999
 31
0.0
  0
LINE
  5
41B
330
6B
100
AcDbEntity
  8
0
 62
     3
100
AcDbLine
 10
811.46930223
 20
957.3181921599999
 30
0.0
 11
811.4693593999998
 21
954.04253835
 31
0.0
  0
LINE
  5
41C
330
6B
100
AcDbEntity
  8
0
 62
     3
100
AcDbLine
 10
811.90511446
 20
953.81508392
 30
0.0
 11
811.4693593999998
 21
954.04253835
 31
0.0
  0
LINE
  5
41D
330
6B
100
AcDbEntity
  8
0
 62
     3
100
AcDbLine
 10
812.1194089200001
 20
957.5456617999998
 30
0.0
 11
812.5551560399998
 21
957.3181921599999
 31
0.0
  0
LINE
  5
41E
330
6B
100
AcDbEntity
  8
0
 62
     3
100
AcDbLine
 10
812.5551560399998
 20
957.3181921599999
 30
0.0
 11
812.5550988699997
 21
954.04253835
 31
0.0
  0
LINE
  5
41F
330
6B
100
AcDbEntity
  8
0
 62
     3
100
AcDbLine
 10
812.1193438099997
 20
953.81508392
 30
0.0
 11
812.5550988699997
 21
954.04253835
 31
0.0
  0
ARC
  5
420
330
6B
100
AcDbEntity
  8
0
 62
     3
100
AcDbCircle
 10
804.2684188999999
 20
955.6898036199999
 30
0.0
 40
2.086285909999999
100
AcDbArc
 50
97.70152350999723
 51
270.0
  0
ARC
  5
421
330
6B
100
AcDbEntity
  8
0
 62
     3
100
AcDbCircle
 10
817.1490197399997
 20
955.66884699
 30
0.0
 40
2.108943379999999
100
AcDbArc
 50
0.3142502700074235
 51
69.00558244998835
  0
ARC
  5
422
330
6B
100
AcDbEntity
  8
0
 62
     3
100
AcDbCircle
 10
817.6096950599998
 20
955.66884699
 30
0.0
 40
2.108943379999999
100
AcDbArc
 50
110.9944175499969
 51
148.1166110200025
  0
ARC
  5
423
330
6B
100
AcDbEntity
  8
0
 62
     3
100
AcDbCircle
 10
817.1490197399997
 20
955.6919807299999
 30
0.0
 40
2.108943379999999
100
AcDbArc
 50
290.9944175499969
 51
359.6857497299926
  0
ARC
  5
424
330
6B
100
AcDbEntity
  8
0
 62
     3
100
AcDbCircle
 10
817.6096950599998
 20
955.6919807299999
 30
0.0
 40
2.108943379999999
100
AcDbArc
 50
211.8833889799973
 51
249.0055824499884
  0
ARC
  5
425
330
6B
100
AcDbEntity
  8
0
 62
     3
100
AcDbCircle
 10
817.3793574000001
 20
956.5432192499999
 30
0.0
 40
1.214070989999998
100
AcDbArc
 50
64.36517190000066
 51
115.6348280999993
  0
ARC
  5
426
330
6B
100
AcDbEntity
  8
0
 62
     3
100
AcDbCircle
 10
817.3793574000001
 20
954.8176084699999
 30
0.0
 40
1.214070989999998
100
AcDbArc
 50
244.3651719000007
 51
295.6348280999993
  0
ARC
  5
427
330
6B
100
AcDbEntity
  8
0
 62
     3
100
AcDbCircle
 10
817.3793574000001
 20
956.5662809299999
 30
0.0
 40
0.59585563
100
AcDbArc
 50
19.48660554000642
 51
160.5133944599935
  0
ARC
  5
428
330
6B
100
AcDbEntity
  8
0
 62
     3
100
AcDbCircle
 10
817.3793574000001
 20
954.8176084699999
 30
0.0
 40
1.214070989999998
100
AcDbArc
 50
244.3651719000007
 51
295.6348280999993
  0
ARC
  5
429
330
6B
100
AcDbEntity
  8
0
 62
     3
100
AcDbCircle
 10
817.3793574000001
 20
954.7945467899999
 30
0.0
 40
0.59585563
100
AcDbArc
 50
199.4866055400056
 51
340.5133944599935
  0
ARC
  5
42A
330
6B
100
AcDbEntity
  8
0
 62
     3
100
AcDbCircle
 10
812.6368848999998
 20
933.4523540200001
 30
0.0
 40
26.04
100
AcDbArc
 50
69.50571480000848
 51
81.68998806999741
  0
ARC
  5
42B
330
6B
100
AcDbEntity
  8
0
 62
     3
100
AcDbCircle
 10
812.6368848999998
 20
977.9084736999999
 30
0.0
 40
26.04
100
AcDbArc
 50
278.3100119300026
 51
290.4942851999915
  0
ARC
  5
42C
330
6B
100
AcDbEntity
  8
0
 62
     3
100
AcDbCircle
 10
820.9450890299999
 20
955.6804138599996
 30
0.0
 40
2.31
100
AcDbArc
 50
290.4942851999915
 51
69.50571480000848
  0
ARC
  5
42D
330
6B
100
AcDbEntity
  8
0
 62
     3
100
AcDbCircle
 10
793.64508903
 20
955.6804138599996
 30
0.0
 40
2.31
100
AcDbArc
 50
110.4942851999915
 51
249.5057147999946
  0
ARC
  5
42E
330
6B
100
AcDbEntity
  8
0
 62
     3
100
AcDbCircle
 10
801.95329315
 20
933.4523540200001
 30
0.0
 40
26.04
100
AcDbArc
 50
98.31001192998948
 51
110.4942851999915
  0
ARC
  5
42F
330
6B
100
AcDbEntity
  8
0
 62
     3
100
AcDbCircle
 10
801.95329315
 20
977.9084736999999
 30
0.0
 40
26.04
100
AcDbArc
 50
249.5057147999946
 51
261.6899880699974
  0
ARC
  5
430
330
6B
100
AcDbEntity
  8
0
 62
     3
100
AcDbCircle
 10
807.2950890299999
 20
896.8804138599999
 30
0.0
 40
62.99999987
100
AcDbArc
 50
81.68998806999741
 51
98.31001192998948
  0
ARC
  5
431
330
6B
100
AcDbEntity
  8
0
 62
     3
100
AcDbCircle
 10
807.2950890299999
 20
1014.48041386
 30
0.0
 40
62.99999987
100
AcDbArc
 50
261.6899880699974
 51
278.3100119300026
  0
ARC
  5
432
330
6B
100
AcDbEntity
  8
0
 62
     3
100
AcDbCircle
 10
807.2950890299999
 20
896.8804138599999
 30
0.0
 40
62.36999987
100
AcDbArc
 50
81.68998806999741
 51
98.31001192998948
  0
ARC
  5
433
330
6B
100
AcDbEntity
  8
0
 62
     3
100
AcDbCircle
 10
807.2950890299999
 20
1014.48041386
 30
0.0
 40
62.36999987
100
AcDbArc
 50
261.6899880699974
 51
278.3100119300026
  0
ARC
  5
434
330
6B
100
AcDbEntity
  8
0
 62
     3
100
AcDbCircle
 10
812.6368848999998
 20
977.9084736999999
 30
0.0
 40
25.41
100
AcDbArc
 50
278.3100119300026
 51
290.4942851999915
  0
ARC
  5
435
330
6B
100
AcDbEntity
  8
0
 62
     3
100
AcDbCircle
 10
812.6368848999998
 20
933.4523540200001
 30
0.0
 40
25.41
100
AcDbArc
 50
69.50571480000848
 51
81.68998806999741
  0
ARC
  5
436
330
6B
100
AcDbEntity
  8
0
 62
     3
100
AcDbCircle
 10
820.9450890299999
 20
955.6804138599996
 30
0.0
 40
1.679999999999999
100
AcDbArc
 50
290.4942851999915
 51
69.50571480000848
  0
ARC
  5
437
330
6B
100
AcDbEntity
  8
0
 62
     3
100
AcDbCircle
 10
793.64508903
 20
955.6804138599996
 30
0.0
 40
1.679999999999999
100
AcDbArc
 50
110.4942851999915
 51
249.5057147999946
  0
ARC
  5
438
330
6B
100
AcDbEntity
  8
0
 62
     3
100
AcDbCircle
 10
801.95329315
 20
933.4523540200001
 30
0.0
 40
25.41
100
AcDbArc
 50
98.31001192998948
 51
110.4942851999915
  0
ARC
  5
439
330
6B
100
AcDbEntity
  8
0
 62
     3
100
AcDbCircle
 10
801.95329315
 20
977.9084736999999
 30
0.0
 40
25.41
100
AcDbArc
 50
249.5057147999946
 51
261.6899880699974
  0
LINE
  5
43A
330
6B
100
AcDbEntity
  8
0
 62
     3
100
AcDbLine
 10
811.90505013
 20
953.60353748
 30
0.0
 11
809.9755382999997
 21
953.60353748
 31
0.0
  0
LINE
  5
43B
330
6B
100
AcDbEntity
  8
0
 62
     3
100
AcDbLine
 10
811.90505013
 20
953.8150986199999
 30
0.0
 11
811.90505013
 21
953.60353748
 31
0.0
  0
LINE
  5
43C
330
6B
100
AcDbEntity
  8
0
 62
     3
100
AcDbLine
 10
809.7685807400001
 20
957.75719152
 30
0.0
 11
807.8163182099999
 21
957.75719152
 31
0.0
  0
LINE
  5
43D
330
6B
100
AcDbEntity
  8
0
 62
     3
100
AcDbLine
 10
809.7685807400001
 20
957.75719152
 30
0.0
 11
809.7685807400001
 21
957.5457291000001
 31
0.0
  0
LINE
  5
43E
330
6B
100
AcDbEntity
  8
0
 62
     3
100
AcDbLine
 10
809.7685807400001
 20
953.8150986199999
 30
0.0
 11
809.7685807400001
 21
953.60343877
 31
0.0
  0
LINE
  5
43F
330
6B
100
AcDbEntity
  8
0
 62
     3
100
AcDbLine
 10
809.7685807400001
 20
953.60343877
 30
0.0
 11
807.8163182099999
 21
953.60343877
 31
0.0
  0
LINE
  5
440
330
6B
100
AcDbEntity
  8
0
 62
     3
100
AcDbLine
 10
811.90505013
 20
957.75729024
 30
0.0
 11
811.90505013
 21
957.5457291000001
 31
0.0
  0
LINE
  5
441
330
6B
100
AcDbEntity
  8
0
 62
     3
100
AcDbLine
 10
811.90505013
 20
957.75729024
 30
0.0
 11
809.9755382999997
 21
957.75729024
 31
0.0
  0
LINE
  5
442
330
6B
100
AcDbEntity
  8
0
 62
     3
100
AcDbLine
 10
809.9755382999997
 20
957.75729024
 30
0.0
 11
809.9755382999997
 21
957.5457291000001
 31
0.0
  0
LINE
  5
443
330
6B
100
AcDbEntity
  8
0
 62
     3
100
AcDbLine
 10
812.11940813
 20
953.8150986199999
 30
0.0
 11
812.11940813
 21
953.60353748
 31
0.0
  0
LINE
  5
444
330
6B
100
AcDbEntity
  8
0
 62
     3
100
AcDbLine
 10
814.1037086899999
 20
953.60353748
 30
0.0
 11
812.11940813
 21
953.60353748
 31
0.0
  0
LINE
  5
445
330
6B
100
AcDbEntity
  8
0
 62
     3
100
AcDbLine
 10
813.6131720600001
 20
957.0895207199999
 30
0.0
 11
813.6131720600001
 21
954.2713069999999
 31
0.0
  0
LINE
  5
446
330
6B
100
AcDbEntity
  8
0
 62
     3
100
AcDbLine
 10
813.6131720600001
 20
954.2713069999999
 30
0.0
 11
813.80322103
 21
954.2713069999999
 31
0.0
  0
ARC
  5
447
330
6B
100
AcDbEntity
  8
0
 62
     3
100
AcDbCircle
 10
812.83143529
 20
955.6804138599996
 30
0.0
 40
1.71170957
100
AcDbArc
 50
304.5919552700034
 51
55.40804472999656
  0
LINE
  5
448
330
6B
100
AcDbEntity
  8
0
 62
     3
100
AcDbLine
 10
814.1037086899999
 20
957.75729024
 30
0.0
 11
812.11940813
 21
957.75729024
 31
0.0
  0
LINE
  5
449
330
6B
100
AcDbEntity
  8
0
 62
     3
100
AcDbLine
 10
812.11940813
 20
957.75729024
 30
0.0
 11
812.11940813
 21
957.5457291000001
 31
0.0
  0
LINE
  5
44A
330
6B
100
AcDbEntity
  8
0
 62
     3
100
AcDbLine
 10
809.9755382999997
 20
953.8150986199999
 30
0.0
 11
809.9755382999997
 21
953.60353748
 31
0.0
  0
LINE
  5
44B
330
6B
100
AcDbEntity
  8
0
 62
     3
100
AcDbLine
 10
813.6131720600001
 20
957.0895207199999
 30
0.0
 11
813.80322103
 21
957.0895207199999
 31
0.0
  0
LINE
  5
44C
330
6B
100
AcDbEntity
  8
0
 62
     3
100
AcDbLine
 10
801.9700124000001
 20
953.8150986199999
 30
0.0
 11
801.97000871
 21
953.6035177100004
 31
0.0
  0
LINE
  5
44D
330
6B
100
AcDbEntity
  8
0
 62
     3
100
AcDbLine
 10
800.0404968699998
 20
953.6035572499999
 30
0.0
 11
801.97000871
 21
953.6035235799996
 31
0.0
  0
LINE
  5
44E
330
6B
100
AcDbEntity
  8
0
 62
     3
100
AcDbLine
 10
795.74411502
 20
953.60353748
 30
0.0
 11
797.28338035
 21
953.60353748
 31
0.0
  0
ARC
  5
44F
330
6B
100
AcDbEntity
  8
0
 62
     3
100
AcDbCircle
 10
790.76217234
 20
955.72932048
 30
0.0
 40
14.71356563
100
AcDbArc
 50
353.8660061899952
 51
357.6940342600066
  0
LINE
  5
450
330
6B
100
AcDbEntity
  8
0
 62
     3
100
AcDbLine
 10
804.4787522000001
 20
955.1409528299997
 30
0.0
 11
805.46382309
 21
955.1373079500001
 31
0.0
  0
LINE
  5
452
330
6B
100
AcDbEntity
  8
0
 62
     3
100
AcDbLine
 10
804.48273062
 20
956.21616757
 30
0.0
 11
805.4678015
 21
956.2125227000001
 31
0.0
  0
ARC
  5
453
330
6B
100
AcDbEntity
  8
0
 62
     3
100
AcDbCircle
 10
790.76217234
 20
955.72932048
 30
0.0
 40
14.71356563
100
AcDbArc
 50
1.881965739991514
 51
5.709993809994633
  0
LINE
  5
454
330
6B
100
AcDbEntity
  8
0
 62
     3
100
AcDbLine
 10
801.9700812000001
 20
957.7572704699999
 30
0.0
 11
801.97007751
 21
957.5457291000001
 31
0.0
  0
LINE
  5
455
330
6B
100
AcDbEntity
  8
0
 62
     3
100
AcDbLine
 10
800.0405693699999
 20
957.75731001
 30
0.0
 11
801.9700812000001
 21
957.7572763299999
 31
0.0
  0
LINE
  5
456
330
6B
100
AcDbEntity
  8
0
 62
     3
100
AcDbLine
 10
800.0405005600001
 20
953.8150986199999
 30
0.0
 11
800.0404968699998
 21
953.6035572499999
 31
0.0
  0
LINE
  5
457
330
6B
100
AcDbEntity
  8
0
 62
     3
100
AcDbLine
 10
800.0405693699999
 20
957.75731001
 30
0.0
 11
800.0405656799996
 21
957.5457291000001
 31
0.0
  0
LINE
  5
458
330
6B
100
AcDbEntity
  8
0
 62
     3
100
AcDbLine
 10
797.28338035
 20
953.8150986199999
 30
0.0
 11
797.28338035
 21
953.60353748
 31
0.0
  0
LINE
  5
459
330
6B
100
AcDbEntity
  8
0
 62
     3
100
AcDbLine
 10
796.8476324399999
 20
956.03942557
 30
0.0
 11
798.3700625000001
 21
953.60353748
 31
0.0
  0
LINE
  5
45A
330
6B
100
AcDbEntity
  8
0
 62
     3
100
AcDbLine
 10
798.3700625000001
 20
953.60353748
 30
0.0
 11
799.3894952199999
 21
953.60353748
 31
0.0
  0
LINE
  5
45B
330
6B
100
AcDbEntity
  8
0
 62
     3
100
AcDbLine
 10
799.82524313
 20
957.75729024
 30
0.0
 11
799.82524313
 21
957.5457291000001
 31
0.0
  0
LINE
  5
45C
330
6B
100
AcDbEntity
  8
0
 62
     3
100
AcDbLine
 10
798.2859777999999
 20
957.75729024
 30
0.0
 11
799.82524313
 21
957.75729024
 31
0.0
  0
LINE
  5
45D
330
6B
100
AcDbEntity
  8
0
 62
     3
100
AcDbLine
 10
798.2859777999999
 20
957.75729024
 30
0.0
 11
798.2859777999999
 21
957.5457291000001
 31
0.0
  0
LINE
  5
45E
330
6B
100
AcDbEntity
  8
0
 62
     3
100
AcDbLine
 10
798.7217257100001
 20
955.8759239
 30
0.0
 11
797.48707904
 21
957.75729024
 31
0.0
  0
LINE
  5
45F
330
6B
100
AcDbEntity
  8
0
 62
     3
100
AcDbLine
 10
795.74411502
 20
957.75729024
 30
0.0
 11
797.48707904
 21
957.75729024
 31
0.0
  0
LINE
  5
460
330
6B
100
AcDbEntity
  8
0
 62
     3
100
AcDbLine
 10
805.6603293799996
 20
957.75719152
 30
0.0
 11
807.6125919199999
 21
957.75719152
 31
0.0
  0
LINE
  5
461
330
6B
100
AcDbEntity
  8
0
 62
     3
100
AcDbLine
 10
805.6603293799996
 20
957.5457291000001
 30
0.0
 11
805.6603293799996
 21
957.75719152
 31
0.0
  0
LINE
  5
462
330
6B
100
AcDbEntity
  8
0
 62
     3
100
AcDbLine
 10
805.6603293799996
 20
953.60343877
 30
0.0
 11
805.6603293799996
 21
953.8150986199999
 31
0.0
  0
LINE
  5
463
330
6B
100
AcDbEntity
  8
0
 62
     3
100
AcDbLine
 10
805.6603293799996
 20
953.60343877
 30
0.0
 11
807.6125919199999
 21
953.60343877
 31
0.0
  0
LINE
  5
464
330
6B
100
AcDbEntity
  8
0
 62
     3
100
AcDbLine
 10
807.8163182099999
 20
953.8150986199999
 30
0.0
 11
807.8163182099999
 21
953.60343877
 31
0.0
  0
LINE
  5
465
330
6B
100
AcDbEntity
  8
0
 62
     3
100
AcDbLine
 10
807.6125919199999
 20
953.8150986199999
 30
0.0
 11
807.6125919199999
 21
953.60343877
 31
0.0
  0
LINE
  5
466
330
6B
100
AcDbEntity
  8
0
 62
     3
100
AcDbLine
 10
807.6125919199999
 20
957.5457291000001
 30
0.0
 11
807.6125919199999
 21
957.75719152
 31
0.0
  0
LINE
  5
467
330
6B
100
AcDbEntity
  8
0
 62
     3
100
AcDbLine
 10
807.8163182099999
 20
957.5457291000001
 30
0.0
 11
807.8163182099999
 21
957.75719152
 31
0.0
  0
LINE
  5
468
330
6B
100
AcDbEntity
  8
0
 62
     3
100
AcDbLine
 10
795.74411502
 20
953.8150986199999
 30
0.0
 11
795.74411502
 21
953.60353748
 31
0.0
  0
LINE
  5
469
330
6B
100
AcDbEntity
  8
0
 62
     3
100
AcDbLine
 10
795.74411502
 20
957.75729024
 30
0.0
 11
795.74411502
 21
957.5457291000001
 31
0.0
  0
ARC
  5
46A
330
6B
100
AcDbEntity
  8
0
 62
     3
100
AcDbCircle
 10
814.3137086900001
 20
956.1161617699998
 30
0.0
 40
1.641128469999999
100
AcDbArc
 50
17.30874897999775
 51
23.76507095999297
  0
ARC
  5
46B
330
6B
100
AcDbEntity
  8
0
 62
     3
100
AcDbCircle
 10
812.91543529
 20
955.6804138599996
 30
0.0
 40
3.105725599999998
100
AcDbArc
 50
342.6912510200022
 51
17.30856643999277
  0
ARC
  5
46C
330
6B
100
AcDbEntity
  8
0
 62
     3
100
AcDbCircle
 10
814.3137086900001
 20
955.2446659600001
 30
0.0
 40
1.641128469999999
100
AcDbArc
 50
336.2349290400072
 51
342.6912510200022
  0
ARC
  5
46D
330
6B
100
AcDbEntity
  8
0
 62
     3
100
AcDbCircle
 10
814.1037086899999
 20
956.1161617699998
 30
0.0
 40
1.641128469999999
100
AcDbArc
 50
17.30874897999775
 51
90.0
  0
ARC
  5
46E
330
6B
100
AcDbEntity
  8
0
 62
     3
100
AcDbCircle
 10
812.70543529
 20
955.6804138599996
 30
0.0
 40
3.105725599999998
100
AcDbArc
 50
342.6912510200022
 51
17.30856643999277
  0
ARC
  5
46F
330
6B
100
AcDbEntity
  8
0
 62
     3
100
AcDbCircle
 10
814.1037086899999
 20
955.2446659600001
 30
0.0
 40
1.641128469999999
100
AcDbArc
 50
270.0
 51
342.6912510200022
  0
ARC
  5
470
330
6B
100
AcDbEntity
  8
0
 62
     3
100
AcDbCircle
 10
803.9797683199997
 20
955.6804138599996
 30
0.0
 40
2.076876379999998
100
AcDbArc
 50
46.75287960999258
 51
89.74999828999569
  0
ARC
  5
471
330
6B
100
AcDbEntity
  8
0
 62
     3
100
AcDbCircle
 10
803.9797683199997
 20
955.6804138599996
 30
0.0
 40
2.076876379999998
100
AcDbArc
 50
273.976333149997
 51
312.8231203899968
  0
ARC
  5
472
330
6B
100
AcDbEntity
  8
0
 62
     3
100
AcDbCircle
 10
815.4215762599998
 20
955.64835233
 30
0.0
 40
2.755888999999998
100
AcDbArc
 50
0.6665840599916528
 51
23.90392827000101
  0
ARC
  5
473
330
6B
100
AcDbEntity
  8
0
 62
     3
100
AcDbCircle
 10
819.3371385399998
 20
955.64835233
 30
0.0
 40
2.755888999999998
100
AcDbArc
 50
156.096071729999
 51
179.3334159400083
  0
ARC
  5
474
330
6B
100
AcDbEntity
  8
0
 62
     3
100
AcDbCircle
 10
815.4215762599998
 20
955.71247539
 30
0.0
 40
2.755888999999998
100
AcDbArc
 50
336.096071729999
 51
359.3334159400084
  0
ARC
  5
475
330
6B
100
AcDbEntity
  8
0
 62
     3
100
AcDbCircle
 10
819.3371385399998
 20
955.71247539
 30
0.0
 40
2.755888999999998
100
AcDbArc
 50
180.6665840599917
 51
203.903928270001
  0
LINE
  5
476
330
6B
100
AcDbEntity
  8
0
 62
     3
100
AcDbLine
 10
823.98742563
 20
955.7582850000001
 30
0.0
 11
938.659763
 21
955.7582850000001
 31
0.0
  0
LINE
  5
477
330
6B
100
AcDbEntity
  8
0
 62
     3
100
AcDbLine
 10
790.57467911
 20
955.7582850000001
 30
0.0
 11
758.6597629999999
 21
955.7582850000001
 31
0.0
  0
TEXT
  5
478
330
6B
100
AcDbEntity
  8
0
 62
     3
100
AcDbText
 10
926.159763
 20
946.258285
 30
0.0
 40
3.2
  1
担　当
  7
高3.2
100
AcDbText
  0
TEXT
  5
479
330
6B
100
AcDbEntity
  8
0
 62
     3
100
AcDbText
 10
882.1597630000001
 20
946.258285
 30
0.0
 40
3.2
  1
変更・追記内容
  7
高3.2
100
AcDbText
  0
TEXT
  5
47A
330
6B
100
AcDbEntity
  8
0
 62
     3
100
AcDbText
 10
857.2732780003391
 20
941.5877464900916
 30
0.0
 40
2.0
  1
1
  7
高2
100
AcDbText
  0
TEXT
  5
47B
330
6B
100
AcDbEntity
  8
0
 62
     3
100
AcDbText
 10
856.9647665235818
 20
936.4179297778187
 30
0.0
 40
2.0
  1
2
  7
高2
100
AcDbText
  0
TEXT
  5
47C
330
6B
100
AcDbEntity
  8
0
 62
     3
100
AcDbText
 10
864.1597630000001
 20
946.258285
 30
0.0
 40
3.2
  1
日　付
  7
高3.2
100
AcDbText
  0
TEXT
  5
47D
330
6B
100
AcDbEntity
  8
0
 62
     3
100
AcDbText
 10
864.1597630000001
 20
951.2582849999999
 30
0.0
 40
3.2
  1
図　　　　面　　　　略　　　　歴
  7
高3.2
100
AcDbText
  0
TEXT
  5
47E
330
6B
100
AcDbEntity
  8
0
 62
     3
100
AcDbText
 10
854.1597630000001
 20
946.258285
 30
0.0
 40
3.2
  1
記号
  7
高3.2
100
AcDbText
  0
LINE
  5
47F
330
6B
100
AcDbEntity
  8
0
 62
     7
100
AcDbLine
 10
857.6597630000001
 20
939.5491810000002
 30
0.0
 11
855.7597630000001
 21
936.258285
 31
0.0
  0
LINE
  5
480
330
6B
100
AcDbEntity
  8
0
 62
     7
100
AcDbLine
 10
857.6597630000001
 20
939.5491810000002
 30
0.0
 11
859.559763
 21
936.258285
 31
0.0
  0
LINE
  5
481
330
6B
100
AcDbEntity
  8
0
 62
     7
100
AcDbLine
 10
855.7597630000001
 20
936.258285
 30
0.0
 11
859.559763
 21
936.258285
 31
0.0
  0
LINE
  5
482
330
6B
100
AcDbEntity
  8
0
 62
     7
100
AcDbLine
 10
857.6597630000001
 20
944.5491819999999
 30
0.0
 11
855.7597630000001
 21
941.2582849999999
 31
0.0
  0
LINE
  5
483
330
6B
100
AcDbEntity
  8
0
 62
     7
100
AcDbLine
 10
857.6597630000001
 20
944.5491819999999
 30
0.0
 11
859.559763
 21
941.2582849999999
 31
0.0
  0
LINE
  5
484
330
6B
100
AcDbEntity
  8
0
 62
     7
100
AcDbLine
 10
855.7597630000001
 20
941.2582849999999
 30
0.0
 11
859.559763
 21
941.2582849999999
 31
0.0
  0
LINE
  5
485
330
6B
100
AcDbEntity
  8
0
 62
     3
100
AcDbLine
 10
852.6597630000001
 20
950.758285
 30
0.0
 11
938.659763
 21
950.758285
 31
0.0
  0
LINE
  5
486
330
6B
100
AcDbEntity
  8
0
 62
     3
100
AcDbLine
 10
852.6597630000001
 20
945.7582849999999
 30
0.0
 11
938.659763
 21
945.7582849999999
 31
0.0
  0
LINE
  5
487
330
6B
100
AcDbEntity
  8
0
 62
     7
100
AcDbLine
 10
852.6597630000001
 20
940.758285
 30
0.0
 11
938.659763
 21
940.758285
 31
0.0
  0
LINE
  5
488
330
6B
100
AcDbEntity
  8
0
 62
     3
100
AcDbLine
 10
852.6597630000001
 20
935.758285
 30
0.0
 11
938.659763
 21
935.758285
 31
0.0
  0
LINE
  5
489
330
6B
100
AcDbEntity
  8
0
 62
     7
100
AcDbLine
 10
924.659763
 20
935.758285
 30
0.0
 11
924.659763
 21
950.758285
 31
0.0
  0
LINE
  5
48A
330
6B
100
AcDbEntity
  8
0
 62
     7
100
AcDbLine
 10
880.659763
 20
935.758285
 30
0.0
 11
880.659763
 21
950.758285
 31
0.0
  0
LINE
  5
48B
330
6B
100
AcDbEntity
  8
0
 62
     7
100
AcDbLine
 10
862.659763
 20
935.758285
 30
0.0
 11
862.659763
 21
950.758285
 31
0.0
  0
LINE
  5
48C
330
6B
100
AcDbEntity
  8
0
 62
     3
100
AcDbLine
 10
852.6597630000001
 20
935.758285
 30
0.0
 11
852.6597630000001
 21
955.7582850000001
 31
0.0
  0
LINE
  5
6C9
330
6B
100
AcDbEntity
  8
0
 62
     3
100
AcDbLine
 10
804.48273062
 20
956.21616757
 30
0.0
 11
804.4641030899999
 21
956.3354353399999
 31
0.0
  0
LINE
  5
6CA
330
6B
100
AcDbEntity
  8
0
 62
     3
100
AcDbLine
 10
804.4641030899999
 20
956.3354353399999
 30
0.0
 11
804.44173191
 21
956.4496401200001
 31
0.0
  0
LINE
  5
6CB
330
6B
100
AcDbEntity
  8
0
 62
     3
100
AcDbLine
 10
804.44173191
 20
956.4496401200001
 30
0.0
 11
804.41578998
 21
956.5578991799997
 31
0.0
  0
LINE
  5
6CC
330
6B
100
AcDbEntity
  8
0
 62
     3
100
AcDbLine
 10
804.41578998
 20
956.5578991799997
 30
0.0
 11
804.3864778399999
 21
956.6593757299999
 31
0.0
  0
LINE
  5
6CD
330
6B
100
AcDbEntity
  8
0
 62
     3
100
AcDbLine
 10
804.3864778399999
 20
956.6593757299999
 30
0.0
 11
804.35402203
 21
956.7532854099999
 31
0.0
  0
LINE
  5
6CE
330
6B
100
AcDbEntity
  8
0
 62
     3
100
AcDbLine
 10
804.35402203
 20
956.7532854099999
 30
0.0
 11
804.31867344
 21
956.8389023499999
 31
0.0
  0
LINE
  5
6CF
330
6B
100
AcDbEntity
  8
0
 62
     3
100
AcDbLine
 10
804.31867344
 20
956.8389023499999
 30
0.0
 11
804.28070529
 21
956.9155647599997
 31
0.0
  0
LINE
  5
6D0
330
6B
100
AcDbEntity
  8
0
 62
     3
100
AcDbLine
 10
804.28070529
 20
956.9155647599997
 30
0.0
 11
804.2404110399997
 21
956.9826801000001
 31
0.0
  0
LINE
  5
6D1
330
6B
100
AcDbEntity
  8
0
 62
     3
100
AcDbLine
 10
804.2404110399997
 20
956.9826801000001
 30
0.0
 11
804.1981021699998
 21
957.0397295899999
 31
0.0
  0
LINE
  5
6D2
330
6B
100
AcDbEntity
  8
0
 62
     3
100
AcDbLine
 10
804.1981021699998
 20
957.0397295899999
 30
0.0
 11
804.1541056799998
 21
957.0862722599999
 31
0.0
  0
LINE
  5
6D3
330
6B
100
AcDbEntity
  8
0
 62
     3
100
AcDbLine
 10
804.1541056799998
 20
957.0862722599999
 30
0.0
 11
804.10876166
 21
957.12194838
 31
0.0
  0
LINE
  5
6D4
330
6B
100
AcDbEntity
  8
0
 62
     3
100
AcDbLine
 10
804.10876166
 20
957.12194838
 30
0.0
 11
804.0624205899996
 21
957.1464821700001
 31
0.0
  0
LINE
  5
6D5
330
6B
100
AcDbEntity
  8
0
 62
     3
100
AcDbLine
 10
804.0624205899996
 20
957.1464821700001
 30
0.0
 11
804.0154406500002
 21
957.1596840199999
 31
0.0
  0
LINE
  5
6D6
330
6B
100
AcDbEntity
  8
0
 62
     3
100
AcDbLine
 10
804.0154406500002
 20
957.1596840199999
 30
0.0
 11
803.96818499
 21
957.16145186
 31
0.0
  0
LINE
  5
6D7
330
6B
100
AcDbEntity
  8
0
 62
     3
100
AcDbLine
 10
803.96818499
 20
957.16145186
 30
0.0
 11
803.92101886
 21
957.1517720499999
 31
0.0
  0
LINE
  5
6D8
330
6B
100
AcDbEntity
  8
0
 62
     3
100
AcDbLine
 10
803.92101886
 20
957.1517720499999
 30
0.0
 11
803.87430683
 21
957.1307193899999
 31
0.0
  0
LINE
  5
6D9
330
6B
100
AcDbEntity
  8
0
 62
     3
100
AcDbLine
 10
803.87430683
 20
957.1307193899999
 30
0.0
 11
803.82840997
 21
957.0984566199998
 31
0.0
  0
LINE
  5
6DA
330
6B
100
AcDbEntity
  8
0
 62
     3
100
AcDbLine
 10
803.82840997
 20
957.0984566199998
 30
0.0
 11
803.7836830299998
 21
957.05523311
 31
0.0
  0
LINE
  5
6DB
330
6B
100
AcDbEntity
  8
0
 62
     3
100
AcDbLine
 10
803.7836830299998
 20
957.05523311
 30
0.0
 11
803.7404717199999
 21
957.00138295
 31
0.0
  0
LINE
  5
6DC
330
6B
100
AcDbEntity
  8
0
 62
     3
100
AcDbLine
 10
803.7404717199999
 20
957.00138295
 30
0.0
 11
803.6991100600001
 21
956.9373223799999
 31
0.0
  0
LINE
  5
6DD
330
6B
100
AcDbEntity
  8
0
 62
     3
100
AcDbLine
 10
803.6991100600001
 20
956.9373223799999
 30
0.0
 11
803.6599177399999
 21
956.8635465599999
 31
0.0
  0
LINE
  5
6DE
330
6B
100
AcDbEntity
  8
0
 62
     3
100
AcDbLine
 10
803.6599177399999
 20
956.8635465599999
 30
0.0
 11
803.6231976999998
 21
956.78062573
 31
0.0
  0
LINE
  5
6DF
330
6B
100
AcDbEntity
  8
0
 62
     3
100
AcDbLine
 10
803.6231976999998
 20
956.78062573
 30
0.0
 11
803.5892337699998
 21
956.6892008199999
 31
0.0
  0
LINE
  5
6E0
330
6B
100
AcDbEntity
  8
0
 62
     3
100
AcDbLine
 10
803.5892337699998
 20
956.6892008199999
 30
0.0
 11
803.55828847
 21
956.58997852
 31
0.0
  0
LINE
  5
6E1
330
6B
100
AcDbEntity
  8
0
 62
     3
100
AcDbLine
 10
803.55828847
 20
956.58997852
 30
0.0
 11
803.5306009900001
 21
956.48372575
 31
0.0
  0
LINE
  5
6E2
330
6B
100
AcDbEntity
  8
0
 62
     3
100
AcDbLine
 10
803.5306009900001
 20
956.48372575
 30
0.0
 11
803.50638534
 21
956.37126379
 31
0.0
  0
LINE
  5
6E3
330
6B
100
AcDbEntity
  8
0
 62
     3
100
AcDbLine
 10
803.50638534
 20
956.37126379
 30
0.0
 11
803.4858287
 21
956.25346191
 31
0.0
  0
LINE
  5
6E4
330
6B
100
AcDbEntity
  8
0
 62
     3
100
AcDbLine
 10
803.4858287
 20
956.25346191
 30
0.0
 11
803.4690899600001
 21
956.1312306700001
 31
0.0
  0
LINE
  5
6E5
330
6B
100
AcDbEntity
  8
0
 62
     3
100
AcDbLine
 10
803.4690899600001
 20
956.1312306700001
 30
0.0
 11
803.4562985
 21
956.00551485
 31
0.0
  0
LINE
  5
6E6
330
6B
100
AcDbEntity
  8
0
 62
     3
100
AcDbLine
 10
803.4562985
 20
956.00551485
 30
0.0
 11
803.44755319
 21
955.8772861700001
 31
0.0
  0
LINE
  5
6E7
330
6B
100
AcDbEntity
  8
0
 62
     3
100
AcDbLine
 10
803.44755319
 20
955.8772861700001
 30
0.0
 11
803.4429216299999
 21
955.7475357599999
 31
0.0
  0
LINE
  5
6E8
330
6B
100
AcDbEntity
  8
0
 62
     3
100
AcDbLine
 10
803.4429216299999
 20
955.7475357599999
 30
0.0
 11
803.44243962
 21
955.61726653
 31
0.0
  0
LINE
  5
6E9
330
6B
100
AcDbEntity
  8
0
 62
     3
100
AcDbLine
 10
803.44243962
 20
955.61726653
 30
0.0
 11
803.44611088
 21
955.4874854099999
 31
0.0
  0
LINE
  5
6EA
330
6B
100
AcDbEntity
  8
0
 62
     3
100
AcDbLine
 10
803.44611088
 20
955.4874854099999
 30
0.0
 11
803.4539070400001
 21
955.3591955199999
 31
0.0
  0
LINE
  5
6EB
330
6B
100
AcDbEntity
  8
0
 62
     3
100
AcDbLine
 10
803.4539070400001
 20
955.3591955199999
 30
0.0
 11
803.4657678399996
 21
955.2333884800001
 31
0.0
  0
LINE
  5
6EC
330
6B
100
AcDbEntity
  8
0
 62
     3
100
AcDbLine
 10
803.4657678399996
 20
955.2333884800001
 30
0.0
 11
803.4816016
 21
955.1110367099999
 31
0.0
  0
LINE
  5
6ED
330
6B
100
AcDbEntity
  8
0
 62
     3
100
AcDbLine
 10
803.4816016
 20
955.1110367099999
 30
0.0
 11
803.5012859200001
 21
954.9930859399999
 31
0.0
  0
LINE
  5
6EE
330
6B
100
AcDbEntity
  8
0
 62
     3
100
AcDbLine
 10
803.5012859200001
 20
954.9930859399999
 30
0.0
 11
803.52466868
 21
954.8804478700001
 31
0.0
  0
LINE
  5
6EF
330
6B
100
AcDbEntity
  8
0
 62
     3
100
AcDbLine
 10
803.52466868
 20
954.8804478700001
 30
0.0
 11
803.5515691099996
 21
954.7739931099997
 31
0.0
  0
LINE
  5
6F0
330
6B
100
AcDbEntity
  8
0
 62
     3
100
AcDbLine
 10
803.5515691099996
 20
954.7739931099997
 30
0.0
 11
803.5817793099999
 21
954.67454452
 31
0.0
  0
LINE
  5
6F1
330
6B
100
AcDbEntity
  8
0
 62
     3
100
AcDbLine
 10
803.5817793099999
 20
954.67454452
 30
0.0
 11
803.61506576
 21
954.5828707899996
 31
0.0
  0
LINE
  5
6F2
330
6B
100
AcDbEntity
  8
0
 62
     3
100
AcDbLine
 10
803.61506576
 20
954.5828707899996
 30
0.0
 11
803.6511711600001
 21
954.49968049
 31
0.0
  0
LINE
  5
6F3
330
6B
100
AcDbEntity
  8
0
 62
     3
100
AcDbLine
 10
803.6511711600001
 20
954.49968049
 30
0.0
 11
803.68981646
 21
954.42561666
 31
0.0
  0
LINE
  5
6F4
330
6B
100
AcDbEntity
  8
0
 62
     3
100
AcDbLine
 10
803.68981646
 20
954.42561666
 30
0.0
 11
803.7307029399999
 21
954.3612517699999
 31
0.0
  0
LINE
  5
6F5
330
6B
100
AcDbEntity
  8
0
 62
     3
100
AcDbLine
 10
803.7307029399999
 20
954.3612517699999
 30
0.0
 11
803.7735145599999
 21
954.3070833199999
 31
0.0
  0
LINE
  5
6F6
330
6B
100
AcDbEntity
  8
0
 62
     3
100
AcDbLine
 10
803.7735145599999
 20
954.3070833199999
 30
0.0
 11
803.81792042
 21
954.26353
 31
0.0
  0
LINE
  5
6F7
330
6B
100
AcDbEntity
  8
0
 62
     3
100
AcDbLine
 10
803.81792042
 20
954.26353
 30
0.0
 11
803.8635772699999
 21
954.2309284699996
 31
0.0
  0
LINE
  5
6F8
330
6B
100
AcDbEntity
  8
0
 62
     3
100
AcDbLine
 10
803.8635772699999
 20
954.2309284699996
 30
0.0
 11
803.91013223
 21
954.20953071
 31
0.0
  0
LINE
  5
6F9
330
6B
100
AcDbEntity
  8
0
 62
     3
100
AcDbLine
 10
803.91013223
 20
954.20953071
 30
0.0
 11
803.9572254399999
 21
954.1995021299999
 31
0.0
  0
LINE
  5
6FA
330
6B
100
AcDbEntity
  8
0
 62
     3
100
AcDbLine
 10
803.9572254399999
 20
954.1995021299999
 30
0.0
 11
804.0044928899996
 21
954.2009202299999
 31
0.0
  0
LINE
  5
6FB
330
6B
100
AcDbEntity
  8
0
 62
     3
100
AcDbLine
 10
804.0044928899996
 20
954.2009202299999
 30
0.0
 11
804.0515692300001
 21
954.2137740499999
 31
0.0
  0
LINE
  5
6FC
330
6B
100
AcDbEntity
  8
0
 62
     3
100
AcDbLine
 10
804.0515692300001
 20
954.2137740499999
 30
0.0
 11
804.0980905900001
 21
954.2379642499996
 31
0.0
  0
LINE
  5
6FD
330
6B
100
AcDbEntity
  8
0
 62
     3
100
AcDbLine
 10
804.0980905900001
 20
954.2379642499996
 30
0.0
 11
804.1436973799998
 21
954.2733038299999
 31
0.0
  0
LINE
  5
6FE
330
6B
100
AcDbEntity
  8
0
 62
     3
100
AcDbLine
 10
804.1436973799998
 20
954.2733038299999
 30
0.0
 11
804.1880370799997
 21
954.3195196499999
 31
0.0
  0
LINE
  5
6FF
330
6B
100
AcDbEntity
  8
0
 62
     3
100
AcDbLine
 10
804.1880370799997
 20
954.3195196499999
 30
0.0
 11
804.2307669699999
 21
954.3762544899999
 31
0.0
  0
LINE
  5
700
330
6B
100
AcDbEntity
  8
0
 62
     3
100
AcDbLine
 10
804.2307669699999
 20
954.3762544899999
 30
0.0
 11
804.27155677
 21
954.4430697999999
 31
0.0
  0
LINE
  5
701
330
6B
100
AcDbEntity
  8
0
 62
     3
100
AcDbLine
 10
804.27155677
 20
954.4430697999999
 30
0.0
 11
804.3100911999998
 21
954.51944915
 31
0.0
  0
LINE
  5
702
330
6B
100
AcDbEntity
  8
0
 62
     3
100
AcDbLine
 10
804.3100911999998
 20
954.51944915
 30
0.0
 11
804.3460723999999
 21
954.6048021599997
 31
0.0
  0
LINE
  5
703
330
6B
100
AcDbEntity
  8
0
 62
     3
100
AcDbLine
 10
804.3460723999999
 20
954.6048021599997
 30
0.0
 11
804.37922226
 21
954.69846909
 31
0.0
  0
LINE
  5
704
330
6B
100
AcDbEntity
  8
0
 62
     3
100
AcDbLine
 10
804.37922226
 20
954.69846909
 30
0.0
 11
804.4092845399998
 21
954.7997259500002
 31
0.0
  0
LINE
  5
705
330
6B
100
AcDbEntity
  8
0
 62
     3
100
AcDbLine
 10
804.4092845399998
 20
954.7997259500002
 30
0.0
 11
804.43602689
 21
954.90779007
 31
0.0
  0
LINE
  5
706
330
6B
100
AcDbEntity
  8
0
 62
     3
100
AcDbLine
 10
804.43602689
 20
954.90779007
 30
0.0
 11
804.4592425900001
 21
955.0218261799999
 31
0.0
  0
LINE
  5
707
330
6B
100
AcDbEntity
  8
0
 62
     3
100
AcDbLine
 10
804.4592425900001
 20
955.0218261799999
 30
0.0
 11
804.4787522000001
 21
955.1409528299997
 31
0.0
  0
LINE
  5
70A
330
6B
100
AcDbEntity
  8
0
  6
DASHED
 62
     7
100
AcDbLine
 10
828.2163059999996
 20
816.470304
 30
0.0
 11
830.321217
 21
817.6494999999999
 31
0.0
  0
LINE
  5
70B
330
6B
100
AcDbEntity
  8
0
  6
DASHED
 62
     7
100
AcDbLine
 10
830.321217
 20
817.6494999999999
 30
0.0
 11
832.378862
 21
818.5688200000001
 31
0.0
  0
LINE
  5
70C
330
6B
100
AcDbEntity
  8
0
  6
DASHED
 62
     7
100
AcDbLine
 10
832.378862
 20
818.5688200000001
 30
0.0
 11
834.341975
 21
818.9683889999999
 31
0.0
  0
LINE
  5
70D
330
6B
100
AcDbEntity
  8
0
  6
DASHED
 62
     7
100
AcDbLine
 10
834.341975
 20
818.9683889999999
 30
0.0
 11
836.1632889999999
 21
818.5883309999997
 31
0.0
  0
LINE
  5
70E
330
6B
100
AcDbEntity
  8
0
  6
DASHED
 62
     7
100
AcDbLine
 10
836.1632889999999
 20
818.5883309999997
 30
0.0
 11
838.5378879999999
 21
816.6794129999997
 31
0.0
  0
LINE
  5
70F
330
6B
100
AcDbEntity
  8
0
  6
DASHED
 62
     7
100
AcDbLine
 10
838.5378879999999
 20
816.6794129999997
 30
0.0
 11
840.9314789999998
 21
815.058286
 31
0.0
  0
LINE
  5
710
330
6B
100
AcDbEntity
  8
0
  6
DASHED
 62
     7
100
AcDbLine
 10
840.9314789999998
 20
815.058286
 30
0.0
 11
843.360835
 21
815.3873169999997
 31
0.0
  0
LINE
  5
711
330
6B
100
AcDbEntity
  8
0
  6
DASHED
 62
     7
100
AcDbLine
 10
843.360835
 20
815.3873169999997
 30
0.0
 11
845.9645699999999
 21
816.8233089999999
 31
0.0
  0
LINE
  5
712
330
6B
100
AcDbEntity
  8
0
100
AcDbLine
 10
824.54332
 20
763.4308999999998
 30
0.0
 11
824.54332
 21
736.9701019999999
 31
0.0
  0
LINE
  5
713
330
6B
100
AcDbEntity
  8
0
100
AcDbLine
 10
850.5356889999998
 20
765.4308999999998
 30
0.0
 11
850.5356889999998
 21
736.9701019999999
 31
0.0
  0
LINE
  5
714
330
6B
100
AcDbEntity
  8
0
100
AcDbLine
 10
827.0433199999999
 20
738.220102
 30
0.0
 11
848.0356889999997
 21
738.220102
 31
0.0
  0
LINE
  5
718
330
6B
100
AcDbEntity
  8
0
100
AcDbLine
 10
802.5373019999998
 20
866.0505179999999
 30
0.0
 11
802.5373019999998
 21
916.872137
 31
0.0
  0
LINE
  5
719
330
6B
100
AcDbEntity
  8
0
100
AcDbLine
 10
872.5373019999999
 20
866.0505179999999
 30
0.0
 11
872.5373019999999
 21
916.872137
 31
0.0
  0
LINE
  5
71A
330
6B
100
AcDbEntity
  8
0
100
AcDbLine
 10
805.0373019999998
 20
915.6221369999999
 30
0.0
 11
870.0373019999998
 21
915.6221369999999
 31
0.0
  0
LINE
  5
71E
330
6B
100
AcDbEntity
  8
0
100
AcDbLine
 10
837.2873019999998
 20
755.800518
 30
0.0
 11
785.5534719999996
 21
755.800518
 31
0.0
  0
LINE
  5
71F
330
6B
100
AcDbEntity
  8
0
100
AcDbLine
 10
837.2873019999998
 20
900.8005179999999
 30
0.0
 11
785.5534719999998
 21
900.8005179999999
 31
0.0
  0
LINE
  5
720
330
6B
100
AcDbEntity
  8
0
100
AcDbLine
 10
786.8034719999997
 20
758.300518
 30
0.0
 11
786.8034719999998
 21
898.3005180000001
 31
0.0
  0
TEXT
  5
724
330
6B
100
AcDbEntity
  8
0
  6
Continuous
 62
     4
100
AcDbText
 10
833.5395044999998
 20
738.8451019999999
 30
0.0
 40
3.0
  1
E26
100
AcDbText
  0
LINE
  5
725
330
6B
100
AcDbEntity
  8
0
  6
ByBlock
 62
     0
370
    -2
100
AcDbLine
 10
848.0356889999997
 20
738.8899744999999
 30
0.0
 11
850.5356889999998
 21
738.220102
 31
0.0
  0
LINE
  5
726
330
6B
100
AcDbEntity
  8
0
  6
ByBlock
 62
     0
370
    -2
100
AcDbLine
 10
850.5356889999998
 20
738.220102
 30
0.0
 11
848.0356889999997
 21
737.5502295
 31
0.0
  0
LINE
  5
727
330
6B
100
AcDbEntity
  8
0
  6
ByBlock
 62
     0
370
    -2
100
AcDbLine
 10
850.5356889999998
 20
738.220102
 30
0.0
 11
848.0356889999997
 21
738.220102
 31
0.0
  0
LINE
  5
728
330
6B
100
AcDbEntity
  8
0
  6
ByBlock
 62
     0
370
    -2
100
AcDbLine
 10
827.0433199999999
 20
737.5502295
 30
0.0
 11
824.54332
 21
738.220102
 31
0.0
  0
LINE
  5
729
330
6B
100
AcDbEntity
  8
0
  6
ByBlock
 62
     0
370
    -2
100
AcDbLine
 10
824.54332
 20
738.220102
 30
0.0
 11
827.0433199999999
 21
738.8899744999999
 31
0.0
  0
LINE
  5
72A
330
6B
100
AcDbEntity
  8
0
  6
ByBlock
 62
     0
370
    -2
100
AcDbLine
 10
824.54332
 20
738.220102
 30
0.0
 11
827.0433199999999
 21
738.220102
 31
0.0
  0
TEXT
  5
72B
330
6B
100
AcDbEntity
  8
0
  6
Continuous
 62
     4
100
AcDbText
 10
835.2873019999998
 20
916.247137
 30
0.0
 40
3.0
  1
70
100
AcDbText
  0
LINE
  5
72C
330
6B
100
AcDbEntity
  8
0
  6
ByBlock
 62
     0
370
    -2
100
AcDbLine
 10
870.0373019999998
 20
916.2920095
 30
0.0
 11
872.5373019999999
 21
915.6221369999999
 31
0.0
  0
LINE
  5
72D
330
6B
100
AcDbEntity
  8
0
  6
ByBlock
 62
     0
370
    -2
100
AcDbLine
 10
872.5373019999999
 20
915.6221369999999
 30
0.0
 11
870.0373019999998
 21
914.9522644999999
 31
0.0
  0
LINE
  5
72E
330
6B
100
AcDbEntity
  8
0
  6
ByBlock
 62
     0
370
    -2
100
AcDbLine
 10
872.5373019999999
 20
915.6221369999999
 30
0.0
 11
870.0373019999998
 21
915.6221369999999
 31
0.0
  0
LINE
  5
72F
330
6B
100
AcDbEntity
  8
0
  6
ByBlock
 62
     0
370
    -2
100
AcDbLine
 10
805.0373019999998
 20
914.9522644999999
 30
0.0
 11
802.5373019999998
 21
915.6221369999999
 31
0.0
  0
LINE
  5
730
330
6B
100
AcDbEntity
  8
0
  6
ByBlock
 62
     0
370
    -2
100
AcDbLine
 10
802.5373019999998
 20
915.6221369999999
 30
0.0
 11
805.0373019999998
 21
916.2920095
 31
0.0
  0
LINE
  5
731
330
6B
100
AcDbEntity
  8
0
  6
ByBlock
 62
     0
370
    -2
100
AcDbLine
 10
802.5373019999998
 20
915.6221369999999
 30
0.0
 11
805.0373019999998
 21
915.6221369999999
 31
0.0
  0
TEXT
  5
732
330
6B
100
AcDbEntity
  8
0
  6
Continuous
 62
     4
100
AcDbText
 10
786.1784719999996
 20
824.8005180000003
 30
0.0
 40
3.0
  1
145
 50
90.0
100
AcDbText
  0
LINE
  5
733
330
6B
100
AcDbEntity
  8
0
  6
ByBlock
 62
     0
370
    -2
100
AcDbLine
 10
786.1335994999998
 20
898.3005180000001
 30
0.0
 11
786.8034719999998
 21
900.8005179999999
 31
0.0
  0
LINE
  5
734
330
6B
100
AcDbEntity
  8
0
  6
ByBlock
 62
     0
370
    -2
100
AcDbLine
 10
786.8034719999998
 20
900.8005179999999
 30
0.0
 11
787.4733444999998
 21
898.3005180000001
 31
0.0
  0
LINE
  5
735
330
6B
100
AcDbEntity
  8
0
  6
ByBlock
 62
     0
370
    -2
100
AcDbLine
 10
786.8034719999998
 20
900.8005179999999
 30
0.0
 11
786.8034719999998
 21
898.3005180000001
 31
0.0
  0
LINE
  5
736
330
6B
100
AcDbEntity
  8
0
  6
ByBlock
 62
     0
370
    -2
100
AcDbLine
 10
787.4733444999997
 20
758.300518
 30
0.0
 11
786.8034719999997
 21
755.800518
 31
0.0
  0
LINE
  5
737
330
6B
100
AcDbEntity
  8
0
  6
ByBlock
 62
     0
370
    -2
100
AcDbLine
 10
786.8034719999997
 20
755.800518
 30
0.0
 11
786.1335994999997
 21
758.300518
 31
0.0
  0
LINE
  5
738
330
6B
100
AcDbEntity
  8
0
  6
ByBlock
 62
     0
370
    -2
100
AcDbLine
 10
786.8034719999997
 20
755.800518
 30
0.0
 11
786.8034719999997
 21
758.300518
 31
0.0
  0
ENDSEC
  0
SECTION
  2
OBJECTS
  0
DICTIONARY
  5
C
330
0
100
AcDbDictionary
281
     1
  3
ACAD_2007HEADERVARS_RT
350
73C
  3
ACAD_COLOR
350
62
  3
ACAD_GROUP
350
D
  3
ACAD_LAYOUT
350
61
  3
ACAD_MATERIAL
350
10
  3
ACAD_MLEADERSTYLE
350
65
  3
ACAD_MLINESTYLE
350
5E
  3
ACAD_PLOTSETTINGS
350
60
  3
ACAD_PLOTSTYLENAME
350
E
  3
ACAD_SCALELIST
350
42
  3
ACAD_TABLESTYLE
350
63
  3
ACAD_VISUALSTYLE
350
29
  3
ACDB_RECOMPOSE_DATA
350
73A
  3
AcDbVariableDictionary
350
5D8
  3
DWGPROPS
350
73B
  0
DICTIONARY
  5
317
330
2
100
AcDbDictionary
280
     1
281
     1
  3
ACAD_LAYERSTATES
360
318
  0
DICTIONARY
  5
5D6
330
54
100
AcDbDictionary
280
     1
281
     1
  3
ADSK_XREC_LAYER_RECONCILED
360
5D7
  0
DICTIONARY
  5
708
330
6B
100
AcDbDictionary
280
     1
281
     1
  3
ACAD_SORTENTS
360
709
  0
DICTIONARY
  5
73C
102
{ACAD_REACTORS
330
C
102
}
330
C
100
AcDbDictionary
281
     1
  3
DIMARCSYM
350
73E
  3
DIMFXL
350
73D
  3
DIMJOGANG
350
73F
  0
DICTIONARY
  5
62
102
{ACAD_REACTORS
330
C
102
}
330
C
100
AcDbDictionary
281
     1
  0
DICTIONARY
  5
D
102
{ACAD_REACTORS
330
C
102
}
330
C
100
AcDbDictionary
281
     1
  0
DICTIONARY
  5
61
102
{ACAD_REACTORS
330
C
102
}
330
C
100
AcDbDictionary
281
     1
  3
Model
350
6E
  3
レイアウト1
350
6A
  0
DICTIONARY
  5
10
102
{ACAD_REACTORS
330
C
102
}
330
C
100
AcDbDictionary
281
     1
  3
ByBlock
350
19
  3
ByLayer
350
11
  3
Global
350
21
  0
DICTIONARY
  5
65
102
{ACAD_REACTORS
330
C
102
}
330
C
100
AcDbDictionary
281
     1
  3
Standard
350
66
  0
DICTIONARY
  5
5E
102
{ACAD_REACTORS
330
C
102
}
330
C
100
AcDbDictionary
281
     1
  3
Standard
350
5F
  0
DICTIONARY
  5
60
102
{ACAD_REACTORS
330
C
102
}
330
C
100
AcDbDictionary
281
     1
  0
ACDBDICTIONARYWDFLT
  5
E
102
{ACAD_REACTORS
330
C
102
}
330
C
100
AcDbDictionary
281
     1
  3
Normal
350
F
100
AcDbDictionaryWithDefault
340
F
  0
DICTIONARY
  5
42
102
{ACAD_REACTORS
330
C
102
}
330
C
100
AcDbDictionary
281
     1
  3
A0
350
43
  3
A1
350
44
  3
A2
350
45
  3
A3
350
46
  3
A4
350
47
  3
A5
350
48
  3
A6
350
49
  3
A7
350
4A
  3
A8
350
4B
  3
A9
350
4C
  3
B0
350
4D
  3
B1
350
4E
  3
B2
350
4F
  3
B3
350
50
  3
B4
350
51
  3
B5
350
52
  3
B6
350
53
  0
DICTIONARY
  5
63
102
{ACAD_REACTORS
330
C
102
}
330
C
100
AcDbDictionary
281
     1
  3
Standard
350
64
  0
DICTIONARY
  5
29
102
{ACAD_REACTORS
330
C
102
}
330
C
100
AcDbDictionary
281
     1
  3
2dWireframe
350
2F
  3
3dWireframe
350
314
  3
Basic
350
2E
  3
Brighten
350
35
  3
ColorChange
350
39
  3
Conceptual
350
32
  3
Dim
350
34
  3
EdgeColorOff
350
41
  3
Facepattern
350
38
  3
Flat
350
2A
  3
FlatWithEdges
350
2B
  3
Gouraud
350
2C
  3
GouraudWithEdges
350
2D
  3
Hidden
350
31
  3
JitterOff
350
3F
  3
Linepattern
350
37
  3
OverhangOff
350
40
  3
Realistic
350
33
  3
Shaded
350
3E
  3
Shaded with edges
350
3D
  3
Shades of Gray
350
3A
  3
Sketchy
350
3B
  3
Thicken
350
36
  3
Wireframe
350
30
  3
X-Ray
350
3C
  0
XRECORD
  5
73A
102
{ACAD_REACTORS
330
C
102
}
330
C
100
AcDbXrecord
280
     1
 90
        1
330
64
  0
DICTIONARY
  5
5D8
102
{ACAD_REACTORS
330
C
102
}
330
C
100
AcDbDictionary
281
     1
  3
CANNOSCALE
350
5DB
  3
CMLEADERSTYLE
350
5DA
  3
CTABLESTYLE
350
5D9
  3
DIMASSOC
350
5DE
  3
INDEXCTL
350
5DD
  3
SORTENTS
350
5DC
  3
XCLIPFRAME
350
68A
  0
XRECORD
  5
73B
102
{ACAD_REACTORS
330
C
102
}
330
C
100
AcDbXrecord
280
     1
  1
DWGPROPS COOKIE
  2

  3

  4

  6

  7

  8
imamura
  9

300
=
301
=
302
=
303
=
304
=
305
=
306
=
307
=
308
=
309
=
 40
0.0105450578703704
 41
2456840.389192489
 42
2456870.800400822
  1

 90
        0
  0
DICTIONARY
  5
318
102
{ACAD_REACTORS
330
317
102
}
330
317
100
AcDbDictionary
281
     1
  0
XRECORD
  5
5D7
102
{ACAD_REACTORS
330
5D6
102
}
330
5D6
100
AcDbXrecord
280
     1
290
     1
  0
SORTENTSTABLE
  5
709
102
{ACAD_REACTORS
330
708
102
}
330
708
100
AcDbSortentsTable
330
6B
331
420
  5
44F
331
1F0
  5
21D
331
442
  5
472
331
431
  5
461
331
201
  5
22E
331
453
  5
6FD
331
20B
  5
232
331
464
  5
710
331
21C
  5
243
331
475
  5
721
331
22D
  5
254
331
486
  5
732
331
23E
  5
3F9
331
6D0
  5
488
331
268
  5
420
331
24F
  5
40A
331
737
  5
196
331
6F2
  5
6E6
331
6E1
  5
6D5
331
401
  5
430
331
703
  5
6F7
331
193
  5
1CE
331
1A4
  5
1DB
331
1D7
  5
20D
331
725
  5
1C2
331
714
  5
1BE
331
410
  5
43F
331
1D8
  5
20E
331
421
  5
450
331
1F1
  5
21E
331
443
  5
473
331
432
  5
462
331
202
  5
22F
331
454
  5
6FE
331
20C
  5
233
331
465
  5
711
331
21D
  5
244
331
476
  5
722
331
22E
  5
260
331
487
  5
733
331
23F
  5
3FA
331
6D1
  5
489
331
269
  5
421
331
250
  5
40B
331
738
  5
197
331
6F3
  5
6E7
331
6E2
  5
6D6
331
402
  5
431
331
704
  5
6F8
331
194
  5
1CF
331
1A5
  5
1DC
331
1C7
  5
1F7
331
726
  5
1C7
331
488
  5
734
331
411
  5
440
331
1D9
  5
20F
331
1C8
  5
1F8
331
444
  5
474
331
433
  5
463
331
422
  5
452
331
1F2
  5
21F
331
455
  5
6FF
331
20D
  5
234
331
466
  5
712
331
21E
  5
245
331
477
  5
723
331
22F
  5
261
331
6D2
  5
48A
331
26A
  5
422
331
251
  5
40C
331
240
  5
3FB
331
6E3
  5
6D7
331
403
  5
432
331
6F4
  5
6E8
331
BB
  5
1CA
331
705
  5
6F9
331
195
  5
1D0
331
1A6
  5
1DD
331
727
  5
1C8
331
1B8
  5
1F1
331
489
  5
735
331
728
  5
1BF
331
412
  5
441
331
1DA
  5
210
331
1C9
  5
1F9
331
445
  5
475
331
434
  5
464
331
423
  5
453
331
1F3
  5
220
331
456
  5
700
331
20E
  5
235
331
467
  5
713
331
21F
  5
246
331
478
  5
724
331
230
  5
262
331
6D3
  5
48B
331
26B
  5
423
331
252
  5
40D
331
241
  5
3FC
331
6F5
  5
6E9
331
6E4
  5
6D8
331
404
  5
433
331
706
  5
6FA
331
196
  5
1D1
331
1A7
  5
1DE
331
1A8
  5
1DF
331
48A
  5
736
331
729
  5
1C0
331
718
  5
1A6
331
413
  5
442
331
1DB
  5
211
331
1CA
  5
1FA
331
446
  5
476
331
435
  5
465
331
424
  5
454
331
1F4
  5
221
331
457
  5
701
331
468
  5
714
331
220
  5
247
331
479
  5
725
331
231
  5
263
331
6D4
  5
48C
331
26C
  5
424
331
253
  5
40E
331
242
  5
3FD
331
6F6
  5
6EA
331
6E5
  5
6D9
331
405
  5
434
331
707
  5
6FB
331
197
  5
1D2
331
20F
  5
236
331
1A9
  5
1E9
331
198
  5
1D3
331
48B
  5
737
331
72A
  5
1C1
331
719
  5
1A7
331
414
  5
443
331
1DC
  5
212
331
1CB
  5
1FB
331
447
  5
477
331
436
  5
466
331
425
  5
455
331
1F5
  5
222
331
458
  5
702
331
469
  5
715
331
221
  5
248
331
47A
  5
726
331
232
  5
264
331
6D5
  5
6C9
331
26D
  5
425
331
254
  5
40F
331
243
  5
3FE
331
6F7
  5
6EB
331
6E6
  5
6DA
331
406
  5
435
331
210
  5
237
331
6F8
  5
6EC
331
1AA
  5
1EA
331
199
  5
1D4
331
48C
  5
738
331
72B
  5
1B0
331
71A
  5
1A8
331
415
  5
444
331
1DD
  5
213
331
1CC
  5
1FC
331
448
  5
478
331
437
  5
467
331
426
  5
456
331
1F6
  5
223
331
459
  5
703
331
46A
  5
716
331
222
  5
249
331
47B
  5
727
331
233
  5
265
331
6D6
  5
6CA
331
26E
  5
426
331
244
  5
3FF
331
6E7
  5
6DB
331
407
  5
436
331
211
  5
238
331
6F9
  5
6ED
331
6E8
  5
6DC
331
408
  5
437
331
70A
  5
410
331
19A
  5
1D5
331
1AB
  5
1EB
331
416
  5
445
331
1DE
  5
214
331
1CD
  5
1FD
331
72C
  5
1AC
331
449
  5
479
331
438
  5
468
331
427
  5
457
331
1F7
  5
224
331
45A
  5
704
331
212
  5
239
331
46B
  5
717
331
47C
  5
728
331
234
  5
266
331
6D7
  5
6CB
331
245
  5
400
331
223
  5
24A
331
6D8
  5
6CC
331
3F8
  5
427
331
6FA
  5
6EE
331
6E9
  5
6DD
331
409
  5
438
331
70B
  5
411
331
19B
  5
1D6
331
1AC
  5
1EC
331
417
  5
446
331
1DF
  5
215
331
1CE
  5
1FE
331
72D
  5
1AD
331
44A
  5
47A
331
439
  5
469
331
428
  5
458
331
1F8
  5
225
331
45B
  5
705
331
213
  5
23A
331
46C
  5
718
331
224
  5
24B
331
47D
  5
729
331
246
  5
401
331
235
  5
267
331
6D9
  5
6CD
331
3F9
  5
428
331
260
  5
418
331
6FB
  5
6EF
331
6EA
  5
6DE
331
40A
  5
439
331
70C
  5
412
331
19C
  5
1D7
331
1BE
  5
1F2
331
1AD
  5
1ED
331
418
  5
447
331
1CF
  5
1FF
331
72E
  5
1AE
331
44B
  5
47B
331
43A
  5
46A
331
429
  5
459
331
1F9
  5
226
331
45C
  5
706
331
214
  5
23B
331
46D
  5
719
331
225
  5
24C
331
47E
  5
72A
331
247
  5
402
331
236
  5
268
331
6C9
  5
481
331
261
  5
419
331
248
  5
403
331
730
  5
1AA
331
6DA
  5
6CE
331
3FA
  5
429
331
6FC
  5
6F0
331
6EB
  5
6DF
331
40B
  5
43A
331
70D
  5
413
331
19D
  5
1D8
331
1AE
  5
1EE
331
1BF
  5
1F3
331
419
  5
448
331
1E9
  5
216
331
1D0
  5
200
331
72F
  5
1A9
331
44C
  5
47C
331
43B
  5
46B
331
42A
  5
45A
331
1FA
  5
227
331
45D
  5
707
331
215
  5
23C
331
46E
  5
71A
331
226
  5
24D
331
47F
  5
72B
331
237
  5
269
331
71E
  5
BB
331
480
  5
72C
331
238
  5
26A
331
6CA
  5
482
331
262
  5
41A
331
249
  5
404
331
731
  5
1AB
331
6DB
  5
6CF
331
3FB
  5
42A
331
6FD
  5
6F1
331
6EC
  5
6E0
331
40C
  5
43B
331
70E
  5
414
331
41A
  5
449
331
1EA
  5
217
331
1D1
  5
201
331
1C0
  5
1F4
331
44D
  5
47D
331
43C
  5
46C
331
42B
  5
45B
331
1FB
  5
228
331
45E
  5
70A
331
216
  5
23D
331
46F
  5
71B
331
227
  5
24E
331
71F
  5
18E
331
470
  5
71C
331
228
  5
24F
331
481
  5
72D
331
239
  5
26B
331
6CB
  5
483
331
263
  5
41B
331
24A
  5
405
331
732
  5
1A5
331
6DC
  5
6D0
331
3FC
  5
42B
331
6ED
  5
6E1
331
40D
  5
43C
331
6FE
  5
6F2
331
18E
  5
1CB
331
70F
  5
415
331
1B0
  5
1EF
331
41B
  5
44A
331
1EB
  5
218
331
1D2
  5
202
331
1C1
  5
1F5
331
44E
  5
47E
331
43D
  5
46D
331
42C
  5
45C
331
1FC
  5
229
331
45F
  5
70B
331
217
  5
23E
331
720
  5
190
331
460
  5
70C
331
218
  5
23F
331
471
  5
71D
331
229
  5
250
331
482
  5
72E
331
23A
  5
26C
331
6CC
  5
484
331
264
  5
41C
331
24B
  5
406
331
733
  5
19B
331
6DD
  5
6D1
331
3FD
  5
42C
331
6FF
  5
6F3
331
6EE
  5
6E2
331
40E
  5
43D
331
710
  5
416
331
41C
  5
44B
331
1EC
  5
219
331
1D3
  5
209
331
1C2
  5
1F6
331
44F
  5
47F
331
43E
  5
46E
331
42D
  5
45D
331
1FD
  5
22A
331
450
  5
480
331
461
  5
70D
331
219
  5
240
331
472
  5
71E
331
22A
  5
251
331
483
  5
72F
331
23B
  5
26D
331
6CD
  5
485
331
265
  5
41D
331
24C
  5
407
331
734
  5
19C
331
6DE
  5
6D2
331
3FE
  5
42D
331
6EF
  5
6E3
331
40F
  5
43E
331
700
  5
6F4
331
190
  5
1CC
331
711
  5
417
331
41D
  5
44C
331
1ED
  5
21A
331
1D4
  5
20A
331
1B2
  5
1F0
331
43F
  5
46F
331
42E
  5
45E
331
1FE
  5
22B
331
440
  5
470
331
462
  5
70E
331
21A
  5
241
331
209
  5
230
331
473
  5
71F
331
22B
  5
252
331
484
  5
730
331
23C
  5
26E
331
6CE
  5
486
331
266
  5
41E
331
24D
  5
408
331
735
  5
19D
331
701
  5
6F5
331
6F0
  5
6E4
331
6DF
  5
6D3
331
3FF
  5
42E
331
1A2
  5
1D9
331
41E
  5
44D
331
1EE
  5
21B
331
1D5
  5
20B
331
712
  5
1B2
331
42F
  5
45F
331
1FF
  5
22C
331
441
  5
471
331
430
  5
460
331
200
  5
22D
331
452
  5
6FC
331
20A
  5
231
331
463
  5
70F
331
21B
  5
242
331
474
  5
720
331
22C
  5
253
331
485
  5
731
331
23D
  5
3F8
331
6CF
  5
487
331
267
  5
41F
331
24E
  5
409
331
736
  5
195
331
6F1
  5
6E5
331
6E0
  5
6D4
331
400
  5
42F
331
702
  5
6F6
331
192
  5
1CD
331
1A3
  5
1DA
331
41F
  5
44E
331
1EF
  5
21C
331
1D6
  5
20C
331
724
  5
1C9
331
713
  5
1B8
  0
XRECORD
  5
73E
102
{ACAD_REACTORS
330
73C
102
}
330
73C
100
AcDbXrecord
280
     1
 70
     2
  0
XRECORD
  5
73D
102
{ACAD_REACTORS
330
73C
102
}
330
73C
100
AcDbXrecord
280
     1
 40
1.25
  0
XRECORD
  5
73F
102
{ACAD_REACTORS
330
73C
102
}
330
73C
100
AcDbXrecord
280
     1
 40
1.570796326794896
  0
LAYOUT
  5
6E
102
{ACAD_XDICTIONARY
360
773
102
}
102
{ACAD_REACTORS
330
61
102
}
330
61
100
AcDbPlotSettings
  1

  2
FX DP 205
  4

  6

 40
0.0
 41
0.0
 42
0.0
 43
0.0
 44
0.0
 45
0.0
 46
0.0
 47
0.0
 48
0.0
 49
0.0
140
0.0
141
0.0
142
1.0
143
1.0
 70
  1712
 72
     0
 73
     0
 74
     0
  7

 75
     0
147
1.0
148
0.0
149
0.0
100
AcDbLayout
  1
Model
 70
     1
 71
     0
 10
0.0
 20
0.0
 11
12.0
 21
9.0
 12
0.0
 22
0.0
 32
0.0
 14
0.0
 24
0.0
 34
0.0
 15
0.0
 25
0.0
 35
0.0
146
0.0
 13
0.0
 23
0.0
 33
0.0
 16
1.0
 26
0.0
 36
0.0
 17
0.0
 27
1.0
 37
0.0
 76
     0
330
6B
331
8B
  0
LAYOUT
  5
6A
102
{ACAD_XDICTIONARY
360
771
102
}
102
{ACAD_REACTORS
330
61
102
}
330
61
100
AcDbPlotSettings
  1

  2
FX DP 205
  4

  6

 40
0.0
 41
0.0
 42
0.0
 43
0.0
 44
0.0
 45
0.0
 46
0.0
 47
0.0
 48
0.0
 49
0.0
140
0.0
141
0.0
142
1.0
143
1.0
 70
   688
 72
     0
 73
     0
 74
     5
  7

 75
    16
147
1.0
148
0.0
149
0.0
100
AcDbLayout
  1
レイアウト1
 70
     1
 71
     1
 10
0.0
 20
0.0
 11
12.0
 21
9.0
 12
0.0
 22
0.0
 32
0.0
 14
1.000000000000000E+20
 24
1.000000000000000E+20
 34
1.000000000000000E+20
 15
-1.000000000000000E+20
 25
-1.000000000000000E+20
 35
-1.000000000000000E+20
146
0.0
 13
0.0
 23
0.0
 33
0.0
 16
1.0
 26
0.0
 36
0.0
 17
0.0
 27
1.0
 37
0.0
 76
     0
330
67
  0
MATERIAL
  5
19
102
{ACAD_XDICTIONARY
360
1A
102
}
102
{ACAD_REACTORS
330
10
102
}
330
10
100
AcDbMaterial
  1
ByBlock
 72
     0
 43
0.0208333333333333
 43
0.0
 43
0.0
 43
0.0
 43
0.0
 43
0.0208333333333333
 43
0.0
 43
0.0
 43
0.0
 43
0.0
 43
1.0
 43
0.0
 43
0.0
 43
0.0
 43
0.0
 43
1.0
 77
     0
 47
0.0208333333333333
 47
0.0
 47
0.0
 47
0.0
 47
0.0
 47
0.0208333333333333
 47
0.0
 47
0.0
 47
0.0
 47
0.0
 47
1.0
 47
0.0
 47
0.0
 47
0.0
 47
0.0
 47
1.0
171
     0
 49
0.0208333333333333
 49
0.0
 49
0.0
 49
0.0
 49
0.0
 49
0.0208333333333333
 49
0.0
 49
0.0
 49
0.0
 49
0.0
 49
1.0
 49
0.0
 49
0.0
 49
0.0
 49
0.0
 49
1.0
175
     0
142
0.0208333333333333
142
0.0
142
0.0
142
0.0
142
0.0
142
0.0208333333333333
142
0.0
142
0.0
142
0.0
142
0.0
142
1.0
142
0.0
142
0.0
142
0.0
142
0.0
142
1.0
179
     0
144
0.0208333333333333
144
0.0
144
0.0
144
0.0
144
0.0
144
0.0208333333333333
144
0.0
144
0.0
144
0.0
144
0.0
144
1.0
144
0.0
144
0.0
144
0.0
144
0.0
144
1.0
147
0.0208333333333333
147
0.0
147
0.0
147
0.0
147
0.0
147
0.0208333333333333
147
0.0
147
0.0
147
0.0
147
0.0
147
1.0
147
0.0
147
0.0
147
0.0
147
0.0
147
1.0
  0
MATERIAL
  5
11
102
{ACAD_XDICTIONARY
360
12
102
}
102
{ACAD_REACTORS
330
10
102
}
330
10
100
AcDbMaterial
  1
ByLayer
 72
     0
 43
0.0208333333333333
 43
0.0
 43
0.0
 43
0.0
 43
0.0
 43
0.0208333333333333
 43
0.0
 43
0.0
 43
0.0
 43
0.0
 43
1.0
 43
0.0
 43
0.0
 43
0.0
 43
0.0
 43
1.0
 77
     0
 47
0.0208333333333333
 47
0.0
 47
0.0
 47
0.0
 47
0.0
 47
0.0208333333333333
 47
0.0
 47
0.0
 47
0.0
 47
0.0
 47
1.0
 47
0.0
 47
0.0
 47
0.0
 47
0.0
 47
1.0
171
     0
 49
0.0208333333333333
 49
0.0
 49
0.0
 49
0.0
 49
0.0
 49
0.0208333333333333
 49
0.0
 49
0.0
 49
0.0
 49
0.0
 49
1.0
 49
0.0
 49
0.0
 49
0.0
 49
0.0
 49
1.0
175
     0
142
0.0208333333333333
142
0.0
142
0.0
142
0.0
142
0.0
142
0.0208333333333333
142
0.0
142
0.0
142
0.0
142
0.0
142
1.0
142
0.0
142
0.0
142
0.0
142
0.0
142
1.0
179
     0
144
0.0208333333333333
144
0.0
144
0.0
144
0.0
144
0.0
144
0.0208333333333333
144
0.0
144
0.0
144
0.0
144
0.0
144
1.0
144
0.0
144
0.0
144
0.0
144
0.0
144
1.0
147
0.0208333333333333
147
0.0
147
0.0
147
0.0
147
0.0
147
0.0208333333333333
147
0.0
147
0.0
147
0.0
147
0.0
147
1.0
147
0.0
147
0.0
147
0.0
147
0.0
147
1.0
  0
MATERIAL
  5
21
102
{ACAD_XDICTIONARY
360
22
102
}
102
{ACAD_REACTORS
330
10
102
}
330
10
100
AcDbMaterial
  1
Global
 72
     0
 43
0.0208333333333333
 43
0.0
 43
0.0
 43
0.0
 43
0.0
 43
0.0208333333333333
 43
0.0
 43
0.0
 43
0.0
 43
0.0
 43
1.0
 43
0.0
 43
0.0
 43
0.0
 43
0.0
 43
1.0
 77
     0
 47
0.0208333333333333
 47
0.0
 47
0.0
 47
0.0
 47
0.0
 47
0.0208333333333333
 47
0.0
 47
0.0
 47
0.0
 47
0.0
 47
1.0
 47
0.0
 47
0.0
 47
0.0
 47
0.0
 47
1.0
171
     0
 49
0.0208333333333333
 49
0.0
 49
0.0
 49
0.0
 49
0.0
 49
0.0208333333333333
 49
0.0
 49
0.0
 49
0.0
 49
0.0
 49
1.0
 49
0.0
 49
0.0
 49
0.0
 49
0.0
 49
1.0
175
     0
142
0.0208333333333333
142
0.0
142
0.0
142
0.0
142
0.0
142
0.0208333333333333
142
0.0
142
0.0
142
0.0
142
0.0
142
1.0
142
0.0
142
0.0
142
0.0
142
0.0
142
1.0
179
     0
144
0.0208333333333333
144
0.0
144
0.0
144
0.0
144
0.0
144
0.0208333333333333
144
0.0
144
0.0
144
0.0
144
0.0
144
1.0
144
0.0
144
0.0
144
0.0
144
0.0
144
1.0
147
0.0208333333333333
147
0.0
147
0.0
147
0.0
147
0.0
147
0.0208333333333333
147
0.0
147
0.0
147
0.0
147
0.0
147
1.0
147
0.0
147
0.0
147
0.0
147
0.0
147
1.0
  0
MLEADERSTYLE
  5
66
102
{ACAD_REACTORS
330
65
102
}
330
65
100
AcDbMLeaderStyle
170
     2
171
     1
172
     0
 90
        2
 40
0.0
 41
0.0
173
     1
 91
-1056964608
340
5A
 92
       -2
290
     1
 42
0.09
291
     1
 43
0.36
  3
Standard
 44
0.18
300

342
55
174
     1
178
     6
175
     1
176
     0
 93
-1056964608
 45
0.18
292
     0
297
     0
 46
0.18
 94
-1056964608
 47
1.0
 49
1.0
140
1.0
293
     1
141
0.0
294
     1
177
     0
142
1.0
295
     0
296
     0
143
0.125
1001
ACAD_MLEADERVER
1070
     2
  0
MLINESTYLE
  5
5F
102
{ACAD_REACTORS
330
5E
102
}
330
5E
100
AcDbMlineStyle
  2
STANDARD
 70
     0
  3

 62
   256
 51
90.0
 52
90.0
 71
     2
 49
0.5
 62
   256
  6
BYLAYER
 49
-0.5
 62
   256
  6
BYLAYER
  0
ACDBPLACEHOLDER
  5
F
102
{ACAD_REACTORS
330
E
102
}
330
E
  0
SCALE
  5
43
102
{ACAD_REACTORS
330
42
102
}
330
42
100
AcDbScale
 70
     0
300
1:1
140
1.0
141
1.0
290
     1
  0
SCALE
  5
44
102
{ACAD_REACTORS
330
42
102
}
330
42
100
AcDbScale
 70
     0
300
1/128" = 1'-0"
140
0.0078125
141
12.0
290
     0
  0
SCALE
  5
45
102
{ACAD_REACTORS
330
42
102
}
330
42
100
AcDbScale
 70
     0
300
1/64" = 1'-0"
140
0.015625
141
12.0
290
     0
  0
SCALE
  5
46
102
{ACAD_REACTORS
330
42
102
}
330
42
100
AcDbScale
 70
     0
300
1/32" = 1'-0"
140
0.03125
141
12.0
290
     0
  0
SCALE
  5
47
102
{ACAD_REACTORS
330
42
102
}
330
42
100
AcDbScale
 70
     0
300
1/16" = 1'-0"
140
0.0625
141
12.0
290
     0
  0
SCALE
  5
48
102
{ACAD_REACTORS
330
42
102
}
330
42
100
AcDbScale
 70
     0
300
3/32" = 1'-0"
140
0.09375
141
12.0
290
     0
  0
SCALE
  5
49
102
{ACAD_REACTORS
330
42
102
}
330
42
100
AcDbScale
 70
     0
300
1/8" = 1'-0"
140
0.125
141
12.0
290
     0
  0
SCALE
  5
4A
102
{ACAD_REACTORS
330
42
102
}
330
42
100
AcDbScale
 70
     0
300
3/16" = 1'-0"
140
0.1875
141
12.0
290
     0
  0
SCALE
  5
4B
102
{ACAD_REACTORS
330
42
102
}
330
42
100
AcDbScale
 70
     0
300
1/4" = 1'-0"
140
0.25
141
12.0
290
     0
  0
SCALE
  5
4C
102
{ACAD_REACTORS
330
42
102
}
330
42
100
AcDbScale
 70
     0
300
3/8" = 1'-0"
140
0.375
141
12.0
290
     0
  0
SCALE
  5
4D
102
{ACAD_REACTORS
330
42
102
}
330
42
100
AcDbScale
 70
     0
300
1/2" = 1'-0"
140
0.5
141
12.0
290
     0
  0
SCALE
  5
4E
102
{ACAD_REACTORS
330
42
102
}
330
42
100
AcDbScale
 70
     0
300
3/4" = 1'-0"
140
0.75
141
12.0
290
     0
  0
SCALE
  5
4F
102
{ACAD_REACTORS
330
42
102
}
330
42
100
AcDbScale
 70
     0
300
1" = 1'-0"
140
1.0
141
12.0
290
     0
  0
SCALE
  5
50
102
{ACAD_REACTORS
330
42
102
}
330
42
100
AcDbScale
 70
     0
300
1-1/2" = 1'-0"
140
1.5
141
12.0
290
     0
  0
SCALE
  5
51
102
{ACAD_REACTORS
330
42
102
}
330
42
100
AcDbScale
 70
     0
300
3" = 1'-0"
140
3.0
141
12.0
290
     0
  0
SCALE
  5
52
102
{ACAD_REACTORS
330
42
102
}
330
42
100
AcDbScale
 70
     0
300
6" = 1'-0"
140
6.0
141
12.0
290
     0
  0
SCALE
  5
53
102
{ACAD_REACTORS
330
42
102
}
330
42
100
AcDbScale
 70
     0
300
1'-0" = 1'-0"
140
12.0
141
12.0
290
     0
  0
TABLESTYLE
  5
64
102
{ACAD_XDICTIONARY
360
625
102
}
102
{ACAD_REACTORS
330
63
102
}
330
63
100
AcDbTableStyle
  3
Standard
 70
     0
 71
     0
 40
0.06
 41
0.06
280
     0
281
     0
  7
STANDARD
140
0.18
170
     2
 62
     0
 63
     7
283
     0
274
    -2
284
     1
 64
     0
275
    -2
285
     1
 65
     0
276
    -2
286
     1
 66
     0
277
    -2
287
     1
 67
     0
278
    -2
288
     1
 68
     0
279
    -2
289
     1
 69
     0
  7
STANDARD
140
0.25
170
     5
 62
     0
 63
     7
283
     0
274
    -2
284
     1
 64
     0
275
    -2
285
     1
 65
     0
276
    -2
286
     1
 66
     0
277
    -2
287
     1
 67
     0
278
    -2
288
     1
 68
     0
279
    -2
289
     1
 69
     0
  7
STANDARD
140
0.18
170
     5
 62
     0
 63
     7
283
     0
274
    -2
284
     1
 64
     0
275
    -2
285
     1
 65
     0
276
    -2
286
     1
 66
     0
277
    -2
287
     1
 67
     0
278
    -2
288
     1
 68
     0
279
    -2
289
     1
 69
     0
  0
VISUALSTYLE
  5
2F
102
{ACAD_XDICTIONARY
360
74A
102
}
102
{ACAD_REACTORS
330
29
102
}
330
29
100
AcDbVisualStyle
  2

 70
     4
 71
     0
 72
     2
 73
     0
 90
        0
 40
-0.6
 41
-30.0
 62
     5
 63
     7
 74
     1
 91
        4
 64
     7
 65
   257
 75
     1
175
     1
 42
1.0
 92
        0
 66
   257
 43
1.0
 76
     1
 77
     6
 78
     2
 67
     7
 79
     5
170
     0
171
     0
290
     0
174
     0
 93
        1
 44
0.0
173
     0
291
     0
 45
0.0
1001
ACAD
1000
AcDbSavedByObjectVersion
1070
     0
  0
VISUALSTYLE
  5
314
102
{ACAD_XDICTIONARY
360
775
102
}
102
{ACAD_REACTORS
330
29
102
}
330
29
100
AcDbVisualStyle
  2

 70
     5
 71
     0
 72
     2
 73
     1
 90
        0
 40
-0.6
 41
-30.0
 62
     5
 63
     7
 74
     1
 91
        4
 64
     7
 65
   257
 75
     1
175
     1
 42
1.0
 92
        0
 66
   257
 43
1.0
 76
     1
 77
     6
 78
     2
 67
     7
 79
     5
170
     0
171
     0
290
     0
174
     0
 93
        1
 44
0.0
173
     0
291
     0
 45
0.0
1001
ACAD
1000
AcDbSavedByObjectVersion
1070
     0
  0
VISUALSTYLE
  5
2E
102
{ACAD_XDICTIONARY
360
748
102
}
102
{ACAD_REACTORS
330
29
102
}
330
29
100
AcDbVisualStyle
  2

 70
     7
 71
     1
 72
     0
 73
     1
 90
        0
 40
-0.6
 41
-30.0
 62
     5
 63
     7
 74
     0
 91
        4
 64
     7
 65
   257
 75
     1
175
     1
 42
1.0
 92
        8
 66
     7
 43
1.0
 76
     1
 77
     6
 78
     2
 67
     7
 79
     5
170
     0
171
     0
290
     0
174
     0
 93
        1
 44
0.0
173
     0
291
     1
 45
0.0
1001
ACAD
1000
AcDbSavedByObjectVersion
1070
     0
  0
VISUALSTYLE
  5
35
102
{ACAD_XDICTIONARY
360
756
102
}
102
{ACAD_REACTORS
330
29
102
}
330
29
100
AcDbVisualStyle
  2

 70
    12
 71
     2
 72
     2
 73
     0
 90
        0
 40
-0.6
 41
-30.0
 62
     5
 63
     7
 74
     1
 91
        4
 64
     7
 65
   257
 75
     1
175
     1
 42
1.0
 92
        8
 66
     7
 43
1.0
 76
     1
 77
     6
 78
     2
 67
     7
 79
     5
170
     0
171
     0
290
     0
174
     0
 93
        1
 44
50.0
173
     0
291
     1
 45
0.0
1001
ACAD
1000
AcDbSavedByObjectVersion
1070
     0
  0
VISUALSTYLE
  5
39
102
{ACAD_XDICTIONARY
360
75E
102
}
102
{ACAD_REACTORS
330
29
102
}
330
29
100
AcDbVisualStyle
  2

 70
    16
 71
     2
 72
     2
 73
     3
 90
        0
 40
-0.6
 41
-30.0
 62
     5
 63
     8
 74
     1
 91
        4
 64
     7
 65
   257
 75
     1
175
     1
 42
1.0
 92
        8
 66
     8
 43
1.0
 76
     1
 77
     6
 78
     2
 67
     7
 79
     5
170
     0
171
     0
290
     0
174
     0
 93
        1
 44
0.0
173
     0
291
     1
 45
0.0
1001
ACAD
1000
AcDbSavedByObjectVersion
1070
     0
  0
VISUALSTYLE
  5
32
102
{ACAD_XDICTIONARY
360
750
102
}
102
{ACAD_REACTORS
330
29
102
}
330
29
100
AcDbVisualStyle
  2

 70
     9
 71
     3
 72
     2
 73
     0
 90
        0
 40
-0.6
 41
-30.0
 62
     5
 63
     7
 74
     2
 91
        2
 64
     7
 65
   257
 75
     1
175
     1
 42
179.0
 92
        8
 66
     7
 43
1.0
 76
     1
 77
     6
 78
     2
 67
     7
 79
     3
170
     0
171
     0
290
     0
174
     0
 93
        1
 44
0.0
173
     0
291
     0
 45
0.0
1001
ACAD
1000
AcDbSavedByObjectVersion
1070
     0
  0
VISUALSTYLE
  5
34
102
{ACAD_XDICTIONARY
360
754
102
}
102
{ACAD_REACTORS
330
29
102
}
330
29
100
AcDbVisualStyle
  2

 70
    11
 71
     2
 72
     2
 73
     0
 90
        0
 40
-0.6
 41
-30.0
 62
     5
 63
     7
 74
     1
 91
        4
 64
     7
 65
   257
 75
     1
175
     1
 42
1.0
 92
        8
 66
     7
 43
1.0
 76
     1
 77
     6
 78
     2
 67
     7
 79
     5
170
     0
171
     0
290
     0
174
     0
 93
        1
 44
-50.0
173
     0
291
     1
 45
0.0
1001
ACAD
1000
AcDbSavedByObjectVersion
1070
     0
  0
VISUALSTYLE
  5
41
102
{ACAD_XDICTIONARY
360
76E
102
}
102
{ACAD_REACTORS
330
29
102
}
330
29
100
AcDbVisualStyle
  2

 70
    22
 71
     2
 72
     2
 73
     0
 90
        0
 40
-0.6
 41
-30.0
 62
     5
 63
     7
 74
     1
 91
        4
 64
     7
 65
   257
 75
     1
175
     1
 42
1.0
 92
        8
 66
     7
 43
1.0
 76
     1
 77
     6
 78
     2
 67
     7
 79
     5
170
     0
171
     0
290
     0
174
     0
 93
        1
 44
0.0
173
     0
291
     1
 45
0.0
1001
ACAD
1000
AcDbSavedByObjectVersion
1070
     0
  0
VISUALSTYLE
  5
38
102
{ACAD_XDICTIONARY
360
75C
102
}
102
{ACAD_REACTORS
330
29
102
}
330
29
100
AcDbVisualStyle
  2

 70
    15
 71
     2
 72
     2
 73
     0
 90
        0
 40
-0.6
 41
-30.0
 62
     5
 63
     7
 74
     1
 91
        4
 64
     7
 65
   257
 75
     1
175
     1
 42
1.0
 92
        8
 66
     7
 43
1.0
 76
     1
 77
     6
 78
     2
 67
     7
 79
     5
170
     0
171
     0
290
     0
174
     0
 93
        1
 44
0.0
173
     0
291
     1
 45
0.0
1001
ACAD
1000
AcDbSavedByObjectVersion
1070
     0
  0
VISUALSTYLE
  5
2A
102
{ACAD_XDICTIONARY
360
740
102
}
102
{ACAD_REACTORS
330
29
102
}
330
29
100
AcDbVisualStyle
  2

 70
     0
 71
     2
 72
     1
 73
     1
 90
        2
 40
-0.6
 41
30.0
 62
     5
 63
     7
 74
     0
 91
        0
 64
     7
 65
   257
 75
     1
175
     1
 42
1.0
 92
        8
 66
     7
 43
1.0
 76
     1
 77
     6
 78
     2
 67
     7
 79
     5
170
     0
171
     0
290
     0
174
     0
 93
       13
 44
0.0
173
     0
291
     1
 45
0.0
1001
ACAD
1000
AcDbSavedByObjectVersion
1070
     0
  0
VISUALSTYLE
  5
2B
102
{ACAD_XDICTIONARY
360
742
102
}
102
{ACAD_REACTORS
330
29
102
}
330
29
100
AcDbVisualStyle
  2

 70
     1
 71
     2
 72
     1
 73
     1
 90
        2
 40
-0.6
 41
30.0
 62
     5
 63
     7
 74
     1
 91
        0
 64
     7
 65
   257
 75
     1
175
     1
 42
1.0
 92
        0
 66
   257
 43
1.0
 76
     1
 77
     6
 78
     2
 67
     7
 79
     5
170
     0
171
     0
290
     0
174
     0
 93
       13
 44
0.0
173
     0
291
     1
 45
0.0
1001
ACAD
1000
AcDbSavedByObjectVersion
1070
     0
  0
VISUALSTYLE
  5
2C
102
{ACAD_XDICTIONARY
360
744
102
}
102
{ACAD_REACTORS
330
29
102
}
330
29
100
AcDbVisualStyle
  2

 70
     2
 71
     2
 72
     2
 73
     1
 90
        2
 40
-0.6
 41
30.0
 62
     5
 63
     7
 74
     0
 91
        0
 64
     7
 65
   257
 75
     1
175
     1
 42
1.0
 92
        0
 66
     7
 43
1.0
 76
     1
 77
     6
 78
     2
 67
     7
 79
     5
170
     0
171
     0
290
     0
174
     0
 93
       13
 44
0.0
173
     0
291
     1
 45
0.0
1001
ACAD
1000
AcDbSavedByObjectVersion
1070
     0
  0
VISUALSTYLE
  5
2D
102
{ACAD_XDICTIONARY
360
746
102
}
102
{ACAD_REACTORS
330
29
102
}
330
29
100
AcDbVisualStyle
  2

 70
     3
 71
     2
 72
     2
 73
     1
 90
        2
 40
-0.6
 41
30.0
 62
     5
 63
     7
 74
     1
 91
        0
 64
     7
 65
   257
 75
     1
175
     1
 42
1.0
 92
        0
 66
   257
 43
1.0
 76
     1
 77
     6
 78
     2
 67
     7
 79
     5
170
     0
171
     0
290
     0
174
     0
 93
       13
 44
0.0
173
     0
291
     1
 45
0.0
1001
ACAD
1000
AcDbSavedByObjectVersion
1070
     0
  0
VISUALSTYLE
  5
31
102
{ACAD_XDICTIONARY
360
74E
102
}
102
{ACAD_REACTORS
330
29
102
}
330
29
100
AcDbVisualStyle
  2

 70
     6
 71
     1
 72
     2
 73
     2
 90
        0
 40
-0.6
 41
-30.0
 62
     5
 63
     7
 74
     2
 91
        2
 64
     7
 65
   257
 75
     2
175
     1
 42
40.0
 92
        0
 66
   257
 43
1.0
 76
     1
 77
     6
 78
     2
 67
     7
 79
     3
170
     0
171
     0
290
     0
174
     0
 93
        1
 44
0.0
173
     0
291
     0
 45
0.0
1001
ACAD
1000
AcDbSavedByObjectVersion
1070
     0
  0
VISUALSTYLE
  5
3F
102
{ACAD_XDICTIONARY
360
76A
102
}
102
{ACAD_REACTORS
330
29
102
}
330
29
100
AcDbVisualStyle
  2

 70
    20
 71
     2
 72
     2
 73
     0
 90
        0
 40
-0.6
 41
-30.0
 62
     5
 63
     7
 74
     1
 91
        4
 64
     7
 65
   257
 75
     1
175
     1
 42
1.0
 92
       10
 66
     7
 43
1.0
 76
     1
 77
     6
 78
     2
 67
     7
 79
     5
170
     0
171
     0
290
     0
174
     0
 93
        1
 44
0.0
173
     0
291
     1
 45
0.0
1001
ACAD
1000
AcDbSavedByObjectVersion
1070
     0
  0
VISUALSTYLE
  5
37
102
{ACAD_XDICTIONARY
360
75A
102
}
102
{ACAD_REACTORS
330
29
102
}
330
29
100
AcDbVisualStyle
  2

 70
    14
 71
     2
 72
     2
 73
     0
 90
        0
 40
-0.6
 41
-30.0
 62
     5
 63
     7
 74
     1
 91
        4
 64
     7
 65
   257
 75
     7
175
     7
 42
1.0
 92
        8
 66
     7
 43
1.0
 76
     1
 77
     6
 78
     2
 67
     7
 79
     5
170
     0
171
     0
290
     0
174
     0
 93
        1
 44
0.0
173
     0
291
     1
 45
0.0
1001
ACAD
1000
AcDbSavedByObjectVersion
1070
     0
  0
VISUALSTYLE
  5
40
102
{ACAD_XDICTIONARY
360
76C
102
}
102
{ACAD_REACTORS
330
29
102
}
330
29
100
AcDbVisualStyle
  2

 70
    21
 71
     2
 72
     2
 73
     0
 90
        0
 40
-0.6
 41
-30.0
 62
     5
 63
     7
 74
     1
 91
        4
 64
     7
 65
   257
 75
     1
175
     1
 42
1.0
 92
        9
 66
     7
 43
1.0
 76
     1
 77
     6
 78
     2
 67
     7
 79
     5
170
     0
171
     0
290
     0
174
     0
 93
        1
 44
0.0
173
     0
291
     1
 45
0.0
1001
ACAD
1000
AcDbSavedByObjectVersion
1070
     0
  0
VISUALSTYLE
  5
33
102
{ACAD_XDICTIONARY
360
752
102
}
102
{ACAD_REACTORS
330
29
102
}
330
29
100
AcDbVisualStyle
  2

 70
     8
 71
     2
 72
     3
 73
     0
 90
        2
 40
-0.6
 41
30.0
 62
     5
 63
     7
 74
     0
 91
        0
 64
     7
 65
   257
 75
     1
175
     1
 42
1.0
 92
        8
 66
   257
 43
1.0
 76
     1
 77
     6
 78
     2
 67
     7
 79
     3
170
     0
171
     0
290
     0
174
     0
 93
       13
 44
0.0
173
     0
291
     0
 45
0.0
1001
ACAD
1000
AcDbSavedByObjectVersion
1070
     0
  0
VISUALSTYLE
  5
3E
102
{ACAD_XDICTIONARY
360
768
102
}
102
{ACAD_REACTORS
330
29
102
}
330
29
100
AcDbVisualStyle
  2

 70
    27
 71
     2
 72
     2
 73
     1
 90
        2
 40
-0.6
 41
30.0
 62
     5
 63
     7
 74
     0
 91
        4
 64
     7
 65
   257
 75
     1
175
     1
 42
1.0
 92
        8
 66
   257
 43
1.0
 76
     1
 77
     6
 78
     2
 67
     8
 79
     3
170
     0
171
     0
290
     0
174
     0
 93
        5
 44
0.0
173
     0
291
     0
 45
0.0
1001
ACAD
1000
AcDbSavedByObjectVersion
1070
     0
  0
VISUALSTYLE
  5
3D
102
{ACAD_XDICTIONARY
360
766
102
}
102
{ACAD_REACTORS
330
29
102
}
330
29
100
AcDbVisualStyle
  2

 70
    26
 71
     2
 72
     2
 73
     1
 90
        2
 40
-0.6
 41
30.0
 62
     5
 63
     7
 74
     1
 91
       10
 64
     7
 65
   257
 75
     2
175
     1
 42
1.0
 92
        8
 66
   257
 43
1.0
 76
     1
 77
     6
 78
     2
 67
     7
 79
     3
170
     0
171
     0
290
     0
174
     0
 93
        5
 44
0.0
173
     0
291
     0
 45
0.0
1001
ACAD
1000
AcDbSavedByObjectVersion
1070
     0
  0
VISUALSTYLE
  5
3A
102
{ACAD_XDICTIONARY
360
760
102
}
102
{ACAD_REACTORS
330
29
102
}
330
29
100
AcDbVisualStyle
  2

 70
    23
 71
     2
 72
     2
 73
     3
 90
        0
 40
-0.6
 41
-30.0
 62
     5
 63
     7
 74
     2
 91
        2
 64
     7
 65
     7
 75
     1
175
     1
 42
40.0
 92
        8
 66
     7
 43
1.0
 76
     1
 77
     6
 78
     2
 67
     7
 79
     3
170
     0
171
     0
290
     0
174
     0
 93
        1
 44
0.0
173
     0
291
     0
 45
0.0
1001
ACAD
1000
AcDbSavedByObjectVersion
1070
     0
  0
VISUALSTYLE
  5
3B
102
{ACAD_XDICTIONARY
360
762
102
}
102
{ACAD_REACTORS
330
29
102
}
330
29
100
AcDbVisualStyle
  2

 70
    24
 71
     1
 72
     2
 73
     2
 90
        0
 40
-0.6
 41
-30.0
 62
     5
 63
     7
 74
     2
 91
        2
 64
     7
 65
     7
 75
     1
175
     1
 42
40.0
 92
       11
 66
     7
 43
1.0
 76
     1
 77
     6
 78
     2
 67
     7
 79
     6
170
     0
171
     0
290
     0
174
     0
 93
        1
 44
0.0
173
     0
291
     0
 45
0.0
1001
ACAD
1000
AcDbSavedByObjectVersion
1070
     0
  0
VISUALSTYLE
  5
36
102
{ACAD_XDICTIONARY
360
758
102
}
102
{ACAD_REACTORS
330
29
102
}
330
29
100
AcDbVisualStyle
  2

 70
    13
 71
     2
 72
     2
 73
     0
 90
        0
 40
-0.6
 41
-30.0
 62
     5
 63
     7
 74
     1
 91
        4
 64
     7
 65
   257
 75
     1
175
     1
 42
1.0
 92
       12
 66
     7
 43
1.0
 76
     1
 77
     6
 78
     2
 67
     7
 79
     5
170
     0
171
     0
290
     0
174
     0
 93
        1
 44
0.0
173
     0
291
     1
 45
0.0
1001
ACAD
1000
AcDbSavedByObjectVersion
1070
     0
  0
VISUALSTYLE
  5
30
102
{ACAD_XDICTIONARY
360
74C
102
}
102
{ACAD_REACTORS
330
29
102
}
330
29
100
AcDbVisualStyle
  2

 70
     5
 71
     0
 72
     2
 73
     0
 90
        0
 40
-0.6
 41
-30.0
 62
     5
 63
     7
 74
     1
 91
        4
 64
     7
 65
   257
 75
     1
175
     1
 42
1.0
 92
        0
 66
   257
 43
1.0
 76
     1
 77
     6
 78
     2
 67
     7
 79
     3
170
     0
171
     0
290
     0
174
     0
 93
        1
 44
0.0
173
     0
291
     0
 45
0.0
1001
ACAD
1000
AcDbSavedByObjectVersion
1070
     0
  0
VISUALSTYLE
  5
3C
102
{ACAD_XDICTIONARY
360
764
102
}
102
{ACAD_REACTORS
330
29
102
}
330
29
100
AcDbVisualStyle
  2

 70
    25
 71
     2
 72
     2
 73
     1
 90
        1
 40
0.5
 41
-30.0
 62
     5
 63
     7
 74
     1
 91
        0
 64
     7
 65
   257
 75
     1
175
     1
 42
1.0
 92
        8
 66
     7
 43
1.0
 76
     1
 77
     6
 78
     2
 67
     7
 79
     3
170
     0
171
     0
290
     0
174
     0
 93
       13
 44
0.0
173
     0
291
     0
 45
0.0
1001
ACAD
1000
AcDbSavedByObjectVersion
1070
     0
  0
DICTIONARYVAR
  5
5DB
102
{ACAD_REACTORS
330
5D8
102
}
330
5D8
100
DictionaryVariables
280
     0
  1
1:1
  0
DICTIONARYVAR
  5
5DA
102
{ACAD_REACTORS
330
5D8
102
}
330
5D8
100
DictionaryVariables
280
     0
  1
STANDARD
  0
DICTIONARYVAR
  5
5D9
102
{ACAD_REACTORS
330
5D8
102
}
330
5D8
100
DictionaryVariables
280
     0
  1
STANDARD
  0
DICTIONARYVAR
  5
5DE
102
{ACAD_REACTORS
330
5D8
102
}
330
5D8
100
DictionaryVariables
280
     0
  1
1
  0
DICTIONARYVAR
  5
5DD
102
{ACAD_REACTORS
330
5D8
102
}
330
5D8
100
DictionaryVariables
280
     0
  1
0
  0
DICTIONARYVAR
  5
5DC
102
{ACAD_REACTORS
330
5D8
102
}
330
5D8
100
DictionaryVariables
280
     0
  1
127
  0
DICTIONARYVAR
  5
68A
102
{ACAD_REACTORS
330
5D8
102
}
330
5D8
100
DictionaryVariables
280
     0
  1
2
  0
DICTIONARY
  5
773
330
6E
100
AcDbDictionary
280
     1
281
     1
  3
ACAD_XREC_ROUNDTRIP
360
774
  0
DICTIONARY
  5
771
330
6A
100
AcDbDictionary
280
     1
281
     1
  3
ACAD_XREC_ROUNDTRIP
360
772
  0
DICTIONARY
  5
1A
330
19
100
AcDbDictionary
280
     1
281
     1
  3
ACAD_XREC_ROUNDTRIP
360
62E
  3
BUMPTILE
360
1C
  3
DIFFUSETILE
360
1B
  3
OPACITYTILE
360
1F
  3
REFLECTIONTILE
360
1E
  3
REFRACTIONTILE
360
20
  3
SPECULARTILE
360
1D
  0
DICTIONARY
  5
12
330
11
100
AcDbDictionary
280
     1
281
     1
  3
ACAD_XREC_ROUNDTRIP
360
62D
  3
BUMPTILE
360
14
  3
DIFFUSETILE
360
13
  3
OPACITYTILE
360
17
  3
REFLECTIONTILE
360
16
  3
REFRACTIONTILE
360
18
  3
SPECULARTILE
360
15
  0
DICTIONARY
  5
22
330
21
100
AcDbDictionary
280
     1
281
     1
  3
ACAD_XREC_ROUNDTRIP
360
62F
  3
BUMPTILE
360
24
  3
DIFFUSETILE
360
23
  3
OPACITYTILE
360
27
  3
REFLECTIONTILE
360
26
  3
REFRACTIONTILE
360
28
  3
SPECULARTILE
360
25
  0
DICTIONARY
  5
625
330
64
100
AcDbDictionary
280
     1
281
     1
  3
ACAD_ROUNDTRIP_2008_TABLESTYLE_CELLSTYLEMAP
360
739
  3
ACAD_XREC_ROUNDTRIP
360
770
  0
DICTIONARY
  5
74A
330
2F
100
AcDbDictionary
280
     1
281
     1
  3
ACAD_XREC_ROUNDTRIP
360
74B
  0
DICTIONARY
  5
775
330
314
100
AcDbDictionary
280
     1
281
     1
  3
ACAD_XREC_ROUNDTRIP
360
776
  0
DICTIONARY
  5
748
330
2E
100
AcDbDictionary
280
     1
281
     1
  3
ACAD_XREC_ROUNDTRIP
360
749
  0
DICTIONARY
  5
756
330
35
100
AcDbDictionary
280
     1
281
     1
  3
ACAD_XREC_ROUNDTRIP
360
757
  0
DICTIONARY
  5
75E
330
39
100
AcDbDictionary
280
     1
281
     1
  3
ACAD_XREC_ROUNDTRIP
360
75F
  0
DICTIONARY
  5
750
330
32
100
AcDbDictionary
280
     1
281
     1
  3
ACAD_XREC_ROUNDTRIP
360
751
  0
DICTIONARY
  5
754
330
34
100
AcDbDictionary
280
     1
281
     1
  3
ACAD_XREC_ROUNDTRIP
360
755
  0
DICTIONARY
  5
76E
330
41
100
AcDbDictionary
280
     1
281
     1
  3
ACAD_XREC_ROUNDTRIP
360
76F
  0
DICTIONARY
  5
75C
330
38
100
AcDbDictionary
280
     1
281
     1
  3
ACAD_XREC_ROUNDTRIP
360
75D
  0
DICTIONARY
  5
740
330
2A
100
AcDbDictionary
280
     1
281
     1
  3
ACAD_XREC_ROUNDTRIP
360
741
  0
DICTIONARY
  5
742
330
2B
100
AcDbDictionary
280
     1
281
     1
  3
ACAD_XREC_ROUNDTRIP
360
743
  0
DICTIONARY
  5
744
330
2C
100
AcDbDictionary
280
     1
281
     1
  3
ACAD_XREC_ROUNDTRIP
360
745
  0
DICTIONARY
  5
746
330
2D
100
AcDbDictionary
280
     1
281
     1
  3
ACAD_XREC_ROUNDTRIP
360
747
  0
DICTIONARY
  5
74E
330
31
100
AcDbDictionary
280
     1
281
     1
  3
ACAD_XREC_ROUNDTRIP
360
74F
  0
DICTIONARY
  5
76A
330
3F
100
AcDbDictionary
280
     1
281
     1
  3
ACAD_XREC_ROUNDTRIP
360
76B
  0
DICTIONARY
  5
75A
330
37
100
AcDbDictionary
280
     1
281
     1
  3
ACAD_XREC_ROUNDTRIP
360
75B
  0
DICTIONARY
  5
76C
330
40
100
AcDbDictionary
280
     1
281
     1
  3
ACAD_XREC_ROUNDTRIP
360
76D
  0
DICTIONARY
  5
752
330
33
100
AcDbDictionary
280
     1
281
     1
  3
ACAD_XREC_ROUNDTRIP
360
753
  0
DICTIONARY
  5
768
330
3E
100
AcDbDictionary
280
     1
281
     1
  3
ACAD_XREC_ROUNDTRIP
360
769
  0
DICTIONARY
  5
766
330
3D
100
AcDbDictionary
280
     1
281
     1
  3
ACAD_XREC_ROUNDTRIP
360
767
  0
DICTIONARY
  5
760
330
3A
100
AcDbDictionary
280
     1
281
     1
  3
ACAD_XREC_ROUNDTRIP
360
761
  0
DICTIONARY
  5
762
330
3B
100
AcDbDictionary
280
     1
281
     1
  3
ACAD_XREC_ROUNDTRIP
360
763
  0
DICTIONARY
  5
758
330
36
100
AcDbDictionary
280
     1
281
     1
  3
ACAD_XREC_ROUNDTRIP
360
759
  0
DICTIONARY
  5
74C
330
30
100
AcDbDictionary
280
     1
281
     1
  3
ACAD_XREC_ROUNDTRIP
360
74D
  0
DICTIONARY
  5
764
330
3C
100
AcDbDictionary
280
     1
281
     1
  3
ACAD_XREC_ROUNDTRIP
360
765
  0
XRECORD
  5
774
102
{ACAD_REACTORS
330
773
102
}
330
773
100
AcDbXrecord
280
     1
102
SHADEPLOT
 70
     0
102
SHADEPLOTRESLEVEL
 70
     2
102
SHADEPLOTCUSTOMDPI
 70
   300
  0
XRECORD
  5
772
102
{ACAD_REACTORS
330
771
102
}
330
771
100
AcDbXrecord
280
     1
102
SHADEPLOT
 70
     0
102
SHADEPLOTRESLEVEL
 70
     2
102
SHADEPLOTCUSTOMDPI
 70
   300
  0
XRECORD
  5
62E
102
{ACAD_REACTORS
330
1A
102
}
330
1A
100
AcDbXrecord
280
     1
102
MATERIAL
148
0.0
149
0.0
149
0.0
 93
        0
 94
      127
282
     0
 72
     0
 77
     0
171
     0
175
     0
179
     0
273
     0
  0
XRECORD
  5
1C
102
{ACAD_REACTORS
330
1A
102
}
330
1A
100
AcDbXrecord
280
     1
270
     1
271
     1
  0
XRECORD
  5
1B
102
{ACAD_REACTORS
330
1A
102
}
330
1A
100
AcDbXrecord
280
     1
270
     1
271
     1
  0
XRECORD
  5
1F
102
{ACAD_REACTORS
330
1A
102
}
330
1A
100
AcDbXrecord
280
     1
270
     1
271
     1
  0
XRECORD
  5
1E
102
{ACAD_REACTORS
330
1A
102
}
330
1A
100
AcDbXrecord
280
     1
270
     1
271
     1
  0
XRECORD
  5
20
102
{ACAD_REACTORS
330
1A
102
}
330
1A
100
AcDbXrecord
280
     1
270
     1
271
     1
  0
XRECORD
  5
1D
102
{ACAD_REACTORS
330
1A
102
}
330
1A
100
AcDbXrecord
280
     1
270
     1
271
     1
  0
XRECORD
  5
62D
102
{ACAD_REACTORS
330
12
102
}
330
12
100
AcDbXrecord
280
     1
102
MATERIAL
148
0.0
149
0.0
149
0.0
 93
        0
 94
      127
282
     0
 72
     0
 77
     0
171
     0
175
     0
179
     0
273
     0
  0
XRECORD
  5
14
102
{ACAD_REACTORS
330
12
102
}
330
12
100
AcDbXrecord
280
     1
270
     1
271
     1
  0
XRECORD
  5
13
102
{ACAD_REACTORS
330
12
102
}
330
12
100
AcDbXrecord
280
     1
270
     1
271
     1
  0
XRECORD
  5
17
102
{ACAD_REACTORS
330
12
102
}
330
12
100
AcDbXrecord
280
     1
270
     1
271
     1
  0
XRECORD
  5
16
102
{ACAD_REACTORS
330
12
102
}
330
12
100
AcDbXrecord
280
     1
270
     1
271
     1
  0
XRECORD
  5
18
102
{ACAD_REACTORS
330
12
102
}
330
12
100
AcDbXrecord
280
     1
270
     1
271
     1
  0
XRECORD
  5
15
102
{ACAD_REACTORS
330
12
102
}
330
12
100
AcDbXrecord
280
     1
270
     1
271
     1
  0
XRECORD
  5
62F
102
{ACAD_REACTORS
330
22
102
}
330
22
100
AcDbXrecord
280
     1
102
MATERIAL
148
0.0
149
0.0
149
0.0
 93
        0
 94
      127
282
     0
 72
     0
 77
     0
171
     0
175
     0
179
     0
273
     0
  0
XRECORD
  5
24
102
{ACAD_REACTORS
330
22
102
}
330
22
100
AcDbXrecord
280
     1
270
     1
271
     1
  0
XRECORD
  5
23
102
{ACAD_REACTORS
330
22
102
}
330
22
100
AcDbXrecord
280
     1
270
     1
271
     1
  0
XRECORD
  5
27
102
{ACAD_REACTORS
330
22
102
}
330
22
100
AcDbXrecord
280
     1
270
     1
271
     1
  0
XRECORD
  5
26
102
{ACAD_REACTORS
330
22
102
}
330
22
100
AcDbXrecord
280
     1
270
     1
271
     1
  0
XRECORD
  5
28
102
{ACAD_REACTORS
330
22
102
}
330
22
100
AcDbXrecord
280
     1
270
     1
271
     1
  0
XRECORD
  5
25
102
{ACAD_REACTORS
330
22
102
}
330
22
100
AcDbXrecord
280
     1
270
     1
271
     1
  0
CELLSTYLEMAP
  5
739
102
{ACAD_REACTORS
330
625
102
}
330
625
100
AcDbCellStyleMap
 90
        3
300
CELLSTYLE
  1
TABLEFORMAT_BEGIN
 90
        5
170
     1
 91
        0
 92
    32768
 62
   257
 93
        1
300
CONTENTFORMAT
  1
CONTENTFORMAT_BEGIN
 90
        0
 91
        0
 92
      512
 93
        0
300

 40
0.0
140
1.0
 94
        5
 62
     0
340
55
144
0.25
309
CONTENTFORMAT_END
171
     1
301
MARGIN
  1
CELLMARGIN_BEGIN
 40
0.06
 40
0.06
 40
0.06
 40
0.06
 40
0.18
 40
0.18
309
CELLMARGIN_END
 94
        6
 95
        1
302
GRIDFORMAT
  1
GRIDFORMAT_BEGIN
 90
        0
 91
        1
 62
     0
 92
       -2
340
0
 93
        0
 40
0.045
309
GRIDFORMAT_END
 95
        2
302
GRIDFORMAT
  1
GRIDFORMAT_BEGIN
 90
        0
 91
        1
 62
     0
 92
       -2
340
0
 93
        0
 40
0.045
309
GRIDFORMAT_END
 95
        4
302
GRIDFORMAT
  1
GRIDFORMAT_BEGIN
 90
        0
 91
        1
 62
     0
 92
       -2
340
0
 93
        0
 40
0.045
309
GRIDFORMAT_END
 95
        8
302
GRIDFORMAT
  1
GRIDFORMAT_BEGIN
 90
        0
 91
        1
 62
     0
 92
       -2
340
0
 93
        0
 40
0.045
309
GRIDFORMAT_END
 95
       16
302
GRIDFORMAT
  1
GRIDFORMAT_BEGIN
 90
        0
 91
        1
 62
     0
 92
       -2
340
0
 93
        0
 40
0.045
309
GRIDFORMAT_END
 95
       32
302
GRIDFORMAT
  1
GRIDFORMAT_BEGIN
 90
        0
 91
        1
 62
     0
 92
       -2
340
0
 93
        0
 40
0.045
309
GRIDFORMAT_END
309
TABLEFORMAT_END
  1
CELLSTYLE_BEGIN
 90
        1
 91
        1
300
_TITLE
309
CELLSTYLE_END
300
CELLSTYLE
  1
TABLEFORMAT_BEGIN
 90
        5
170
     1
 91
        0
 92
        0
 62
   257
 93
        1
300
CONTENTFORMAT
  1
CONTENTFORMAT_BEGIN
 90
        0
 91
        0
 92
      512
 93
        0
300

 40
0.0
140
1.0
 94
        5
 62
     0
340
55
144
0.18
309
CONTENTFORMAT_END
171
     1
301
MARGIN
  1
CELLMARGIN_BEGIN
 40
0.06
 40
0.06
 40
0.06
 40
0.06
 40
0.18
 40
0.18
309
CELLMARGIN_END
 94
        6
 95
        1
302
GRIDFORMAT
  1
GRIDFORMAT_BEGIN
 90
        0
 91
        1
 62
     0
 92
       -2
340
0
 93
        0
 40
0.045
309
GRIDFORMAT_END
 95
        2
302
GRIDFORMAT
  1
GRIDFORMAT_BEGIN
 90
        0
 91
        1
 62
     0
 92
       -2
340
0
 93
        0
 40
0.045
309
GRIDFORMAT_END
 95
        4
302
GRIDFORMAT
  1
GRIDFORMAT_BEGIN
 90
        0
 91
        1
 62
     0
 92
       -2
340
0
 93
        0
 40
0.045
309
GRIDFORMAT_END
 95
        8
302
GRIDFORMAT
  1
GRIDFORMAT_BEGIN
 90
        0
 91
        1
 62
     0
 92
       -2
340
0
 93
        0
 40
0.045
309
GRIDFORMAT_END
 95
       16
302
GRIDFORMAT
  1
GRIDFORMAT_BEGIN
 90
        0
 91
        1
 62
     0
 92
       -2
340
0
 93
        0
 40
0.045
309
GRIDFORMAT_END
 95
       32
302
GRIDFORMAT
  1
GRIDFORMAT_BEGIN
 90
        0
 91
        1
 62
     0
 92
       -2
340
0
 93
        0
 40
0.045
309
GRIDFORMAT_END
309
TABLEFORMAT_END
  1
CELLSTYLE_BEGIN
 90
        2
 91
        1
300
_HEADER
309
CELLSTYLE_END
300
CELLSTYLE
  1
TABLEFORMAT_BEGIN
 90
        5
170
     1
 91
        0
 92
        0
 62
   257
 93
        1
300
CONTENTFORMAT
  1
CONTENTFORMAT_BEGIN
 90
        0
 91
        0
 92
      512
 93
        0
300

 40
0.0
140
1.0
 94
        2
 62
     0
340
55
144
0.18
309
CONTENTFORMAT_END
171
     1
301
MARGIN
  1
CELLMARGIN_BEGIN
 40
0.06
 40
0.06
 40
0.06
 40
0.06
 40
0.18
 40
0.18
309
CELLMARGIN_END
 94
        6
 95
        1
302
GRIDFORMAT
  1
GRIDFORMAT_BEGIN
 90
        0
 91
        1
 62
     0
 92
       -2
340
0
 93
        0
 40
0.045
309
GRIDFORMAT_END
 95
        2
302
GRIDFORMAT
  1
GRIDFORMAT_BEGIN
 90
        0
 91
        1
 62
     0
 92
       -2
340
0
 93
        0
 40
0.045
309
GRIDFORMAT_END
 95
        4
302
GRIDFORMAT
  1
GRIDFORMAT_BEGIN
 90
        0
 91
        1
 62
     0
 92
       -2
340
0
 93
        0
 40
0.045
309
GRIDFORMAT_END
 95
        8
302
GRIDFORMAT
  1
GRIDFORMAT_BEGIN
 90
        0
 91
        1
 62
     0
 92
       -2
340
0
 93
        0
 40
0.045
309
GRIDFORMAT_END
 95
       16
302
GRIDFORMAT
  1
GRIDFORMAT_BEGIN
 90
        0
 91
        1
 62
     0
 92
       -2
340
0
 93
        0
 40
0.045
309
GRIDFORMAT_END
 95
       32
302
GRIDFORMAT
  1
GRIDFORMAT_BEGIN
 90
        0
 91
        1
 62
     0
 92
       -2
340
0
 93
        0
 40
0.045
309
GRIDFORMAT_END
309
TABLEFORMAT_END
  1
CELLSTYLE_BEGIN
 90
        3
 91
        2
300
_DATA
309
CELLSTYLE_END
  0
XRECORD
  5
770
102
{ACAD_REACTORS
330
625
102
}
330
625
100
AcDbXrecord
280
     1
102
ACAD_ROUNDTRIP_PRE2007_TABLESTYLE
 90
      512
 91
        0
  1

 92
      512
 93
        0
  2

 94
      512
 95
        0
  3

  0
XRECORD
  5
74B
102
{ACAD_REACTORS
330
74A
102
}
330
74A
100
AcDbXrecord
280
     1
102
RTVSPropertyOp0
 70
     1
102
RTVSPropertyOp1
 70
     1
102
RTVSPropertyOp2
 70
     1
102
RTVSPropertyOp3
 70
     1
102
RTVSPropertyOp4
 70
     1
102
RTVSPropertyOp5
 70
     1
102
RTVSPropertyOp6
 70
     1
102
RTVSPropertyOp7
 70
     1
102
RTVSPropertyOp8
 70
     1
102
RTVSPropertyOp9
 70
     1
102
RTVSPropertyOp10
 70
     1
102
RTVSPropertyOp11
 70
     1
102
RTVSPropertyOp12
 70
     1
102
RTVSPropertyOp13
 70
     1
102
RTVSPropertyOp14
 70
     1
102
RTVSPropertyOp15
 70
     1
102
RTVSPropertyOp16
 70
     1
102
RTVSPropertyOp17
 70
     1
102
RTVSPropertyOp18
 70
     1
102
RTVSPropertyOp19
 70
     1
102
RTVSPropertyOp20
 70
     1
102
RTVSPropertyOp21
 70
     1
102
RTVSPropertyOp22
 70
     1
102
RTVSPropertyOp23
 70
     1
102
RTVSPropertyOp24
 70
     1
102
RTVSPropertyOp25
 70
     1
102
RTVSPropertyOp26
 70
     1
102
RTVSPropertyOp27
 70
     1
102
RTVSPropertyOp28
 70
     1
102
RTVSPropertyOp29
 70
     1
102
RTVSPropertyOp30
 70
     1
102
RTVSPropertyOp31
 70
     1
102
RTVSPropertyOp32
 70
     1
  0
XRECORD
  5
776
102
{ACAD_REACTORS
330
775
102
}
330
775
100
AcDbXrecord
280
     1
102
RTVSPropertyOp0
 70
     1
102
RTVSPropertyOp1
 70
     1
102
RTVSPropertyOp2
 70
     1
102
RTVSPropertyOp3
 70
     1
102
RTVSPropertyOp4
 70
     1
102
RTVSPropertyOp5
 70
     1
102
RTVSPropertyOp6
 70
     1
102
RTVSPropertyOp7
 70
     1
102
RTVSPropertyOp8
 70
     1
102
RTVSPropertyOp9
 70
     1
102
RTVSPropertyOp10
 70
     1
102
RTVSPropertyOp11
 70
     1
102
RTVSPropertyOp12
 70
     1
102
RTVSPropertyOp13
 70
     1
102
RTVSPropertyOp14
 70
     1
102
RTVSPropertyOp15
 70
     1
102
RTVSPropertyOp16
 70
     1
102
RTVSPropertyOp17
 70
     1
102
RTVSPropertyOp18
 70
     1
102
RTVSPropertyOp19
 70
     1
102
RTVSPropertyOp20
 70
     1
102
RTVSPropertyOp21
 70
     1
102
RTVSPropertyOp22
 70
     1
102
RTVSPropertyOp23
 70
     1
102
RTVSPropertyOp24
 70
     1
102
RTVSPropertyOp25
 70
     1
102
RTVSPropertyOp26
 70
     1
102
RTVSPropertyOp27
 70
     1
102
RTVSPropertyOp28
 70
     1
102
RTVSPropertyOp29
 70
     1
102
RTVSPropertyOp30
 70
     1
102
RTVSPropertyOp31
 70
     1
102
RTVSPropertyOp32
 70
     1
  0
XRECORD
  5
749
102
{ACAD_REACTORS
330
748
102
}
330
748
100
AcDbXrecord
280
     1
102
RTVSPropertyOp0
 70
     1
102
RTVSPropertyOp1
 70
     1
102
RTVSPropertyOp2
 70
     1
102
RTVSPropertyOp3
 70
     1
102
RTVSPropertyOp4
 70
     1
102
RTVSPropertyOp5
 70
     1
102
RTVSPropertyOp6
 70
     1
102
RTVSPropertyOp7
 70
     1
102
RTVSPropertyOp8
 70
     1
102
RTVSPropertyOp9
 70
     1
102
RTVSPropertyOp10
 70
     1
102
RTVSPropertyOp11
 70
     1
102
RTVSPropertyOp12
 70
     1
102
RTVSPropertyOp13
 70
     1
102
RTVSPropertyOp14
 70
     1
102
RTVSPropertyOp15
 70
     1
102
RTVSPropertyOp16
 70
     1
102
RTVSPropertyOp17
 70
     1
102
RTVSPropertyOp18
 70
     1
102
RTVSPropertyOp19
 70
     1
102
RTVSPropertyOp20
 70
     1
102
RTVSPropertyOp21
 70
     1
102
RTVSPropertyOp22
 70
     1
102
RTVSPropertyOp23
 70
     1
102
RTVSPropertyOp24
 70
     1
102
RTVSPropertyOp25
 70
     1
102
RTVSPropertyOp26
 70
     1
102
RTVSPropertyOp27
 70
     1
102
RTVSPropertyOp28
 70
     1
102
RTVSPropertyOp29
 70
     1
102
RTVSPropertyOp30
 70
     1
102
RTVSPropertyOp31
 70
     1
102
RTVSPropertyOp32
 70
     1
  0
XRECORD
  5
757
102
{ACAD_REACTORS
330
756
102
}
330
756
100
AcDbXrecord
280
     1
102
RTVSPropertyOp0
 70
     1
102
RTVSPropertyOp1
 70
     1
102
RTVSPropertyOp2
 70
     1
102
RTVSPropertyOp3
 70
     1
102
RTVSPropertyOp4
 70
     1
102
RTVSPropertyOp5
 70
     1
102
RTVSPropertyOp6
 70
     1
102
RTVSPropertyOp7
 70
     1
102
RTVSPropertyOp8
 70
     1
102
RTVSPropertyOp9
 70
     1
102
RTVSPropertyOp10
 70
     1
102
RTVSPropertyOp11
 70
     1
102
RTVSPropertyOp12
 70
     1
102
RTVSPropertyOp13
 70
     1
102
RTVSPropertyOp14
 70
     1
102
RTVSPropertyOp15
 70
     1
102
RTVSPropertyOp16
 70
     1
102
RTVSPropertyOp17
 70
     1
102
RTVSPropertyOp18
 70
     1
102
RTVSPropertyOp19
 70
     1
102
RTVSPropertyOp20
 70
     1
102
RTVSPropertyOp21
 70
     1
102
RTVSPropertyOp22
 70
     1
102
RTVSPropertyOp23
 70
     1
102
RTVSPropertyOp24
 70
     1
102
RTVSPropertyOp25
 70
     1
102
RTVSPropertyOp26
 70
     1
102
RTVSPropertyOp27
 70
     1
102
RTVSPropertyOp28
 70
     1
102
RTVSPropertyOp29
 70
     1
102
RTVSPropertyOp30
 70
     1
102
RTVSPropertyOp31
 70
     1
102
RTVSPropertyOp32
 70
     1
  0
XRECORD
  5
75F
102
{ACAD_REACTORS
330
75E
102
}
330
75E
100
AcDbXrecord
280
     1
102
RTVSPropertyOp0
 70
     1
102
RTVSPropertyOp1
 70
     1
102
RTVSPropertyOp2
 70
     1
102
RTVSPropertyOp3
 70
     1
102
RTVSPropertyOp4
 70
     1
102
RTVSPropertyOp5
 70
     1
102
RTVSPropertyOp6
 70
     1
102
RTVSPropertyOp7
 70
     1
102
RTVSPropertyOp8
 70
     1
102
RTVSPropertyOp9
 70
     1
102
RTVSPropertyOp10
 70
     1
102
RTVSPropertyOp11
 70
     1
102
RTVSPropertyOp12
 70
     1
102
RTVSPropertyOp13
 70
     1
102
RTVSPropertyOp14
 70
     1
102
RTVSPropertyOp15
 70
     1
102
RTVSPropertyOp16
 70
     1
102
RTVSPropertyOp17
 70
     1
102
RTVSPropertyOp18
 70
     1
102
RTVSPropertyOp19
 70
     1
102
RTVSPropertyOp20
 70
     1
102
RTVSPropertyOp21
 70
     1
102
RTVSPropertyOp22
 70
     1
102
RTVSPropertyOp23
 70
     1
102
RTVSPropertyOp24
 70
     1
102
RTVSPropertyOp25
 70
     1
102
RTVSPropertyOp26
 70
     1
102
RTVSPropertyOp27
 70
     1
102
RTVSPropertyOp28
 70
     1
102
RTVSPropertyOp29
 70
     1
102
RTVSPropertyOp30
 70
     1
102
RTVSPropertyOp31
 70
     1
102
RTVSPropertyOp32
 70
     1
  0
XRECORD
  5
751
102
{ACAD_REACTORS
330
750
102
}
330
750
100
AcDbXrecord
280
     1
102
RTVSPropertyOp0
 70
     1
102
RTVSPropertyOp1
 70
     1
102
RTVSPropertyOp2
 70
     1
102
RTVSPropertyOp3
 70
     1
102
RTVSPropertyOp4
 70
     1
102
RTVSPropertyOp5
 70
     1
102
RTVSPropertyOp6
 70
     1
102
RTVSPropertyOp7
 70
     1
102
RTVSPropertyOp8
 70
     1
102
RTVSPropertyOp9
 70
     1
102
RTVSPropertyOp10
 70
     1
102
RTVSPropertyOp11
 70
     1
102
RTVSPropertyOp12
 70
     1
102
RTVSPropertyOp13
 70
     1
102
RTVSPropertyOp14
 70
     1
102
RTVSPropertyOp15
 70
     1
102
RTVSPropertyOp16
 70
     1
102
RTVSPropertyOp17
 70
     1
102
RTVSPropertyOp18
 70
     1
102
RTVSPropertyOp19
 70
     1
102
RTVSPropertyOp20
 70
     1
102
RTVSPropertyOp21
 70
     1
102
RTVSPropertyOp22
 70
     1
102
RTVSPropertyOp23
 70
     1
102
RTVSPropertyOp24
 70
     1
102
RTVSPropertyOp25
 70
     1
102
RTVSPropertyOp26
 70
     1
102
RTVSPropertyOp27
 70
     1
102
RTVSPropertyOp28
 70
     1
102
RTVSPropertyOp29
 70
     1
102
RTVSPropertyOp30
 70
     1
102
RTVSPropertyOp31
 70
     1
102
RTVSPropertyOp32
 70
     1
  0
XRECORD
  5
755
102
{ACAD_REACTORS
330
754
102
}
330
754
100
AcDbXrecord
280
     1
102
RTVSPropertyOp0
 70
     1
102
RTVSPropertyOp1
 70
     1
102
RTVSPropertyOp2
 70
     1
102
RTVSPropertyOp3
 70
     1
102
RTVSPropertyOp4
 70
     1
102
RTVSPropertyOp5
 70
     1
102
RTVSPropertyOp6
 70
     1
102
RTVSPropertyOp7
 70
     1
102
RTVSPropertyOp8
 70
     1
102
RTVSPropertyOp9
 70
     1
102
RTVSPropertyOp10
 70
     1
102
RTVSPropertyOp11
 70
     1
102
RTVSPropertyOp12
 70
     1
102
RTVSPropertyOp13
 70
     1
102
RTVSPropertyOp14
 70
     1
102
RTVSPropertyOp15
 70
     1
102
RTVSPropertyOp16
 70
     1
102
RTVSPropertyOp17
 70
     1
102
RTVSPropertyOp18
 70
     1
102
RTVSPropertyOp19
 70
     1
102
RTVSPropertyOp20
 70
     1
102
RTVSPropertyOp21
 70
     1
102
RTVSPropertyOp22
 70
     1
102
RTVSPropertyOp23
 70
     1
102
RTVSPropertyOp24
 70
     1
102
RTVSPropertyOp25
 70
     1
102
RTVSPropertyOp26
 70
     1
102
RTVSPropertyOp27
 70
     1
102
RTVSPropertyOp28
 70
     1
102
RTVSPropertyOp29
 70
     1
102
RTVSPropertyOp30
 70
     1
102
RTVSPropertyOp31
 70
     1
102
RTVSPropertyOp32
 70
     1
  0
XRECORD
  5
76F
102
{ACAD_REACTORS
330
76E
102
}
330
76E
100
AcDbXrecord
280
     1
102
RTVSPropertyOp0
 70
     0
102
RTVSPropertyOp1
 70
     0
102
RTVSPropertyOp2
 70
     0
102
RTVSPropertyOp3
 70
     0
102
RTVSPropertyOp4
 70
     0
102
RTVSPropertyOp5
 70
     0
102
RTVSPropertyOp6
 70
     0
102
RTVSPropertyOp7
 70
     0
102
RTVSPropertyOp8
 70
     0
102
RTVSPropertyOp9
 70
     0
102
RTVSPropertyOp10
 70
     0
102
RTVSPropertyOp11
 70
     0
102
RTVSPropertyOp12
 70
     0
102
RTVSPropertyOp13
 70
     0
102
RTVSPropertyOp14
 70
     2
102
RTVSPropertyOp15
 70
     0
102
RTVSPropertyOp16
 70
     0
102
RTVSPropertyOp17
 70
     0
102
RTVSPropertyOp18
 70
     0
102
RTVSPropertyOp19
 70
     0
102
RTVSPropertyOp20
 70
     0
102
RTVSPropertyOp21
 70
     0
102
RTVSPropertyOp22
 70
     0
102
RTVSPropertyOp23
 70
     0
102
RTVSPropertyOp24
 70
     0
102
RTVSPropertyOp25
 70
     0
102
RTVSPropertyOp26
 70
     0
102
RTVSPropertyOp27
 70
     0
102
RTVSPropertyOp28
 70
     0
102
RTVSPropertyOp29
 70
     0
102
RTVSPropertyOp30
 70
     0
102
RTVSPropertyOp31
 70
     0
102
RTVSPropertyOp32
 70
     0
  0
XRECORD
  5
75D
102
{ACAD_REACTORS
330
75C
102
}
330
75C
100
AcDbXrecord
280
     1
102
RTVSPropertyOp0
 70
     1
102
RTVSPropertyOp1
 70
     1
102
RTVSPropertyOp2
 70
     1
102
RTVSPropertyOp3
 70
     1
102
RTVSPropertyOp4
 70
     1
102
RTVSPropertyOp5
 70
     1
102
RTVSPropertyOp6
 70
     1
102
RTVSPropertyOp7
 70
     1
102
RTVSPropertyOp8
 70
     1
102
RTVSPropertyOp9
 70
     1
102
RTVSPropertyOp10
 70
     1
102
RTVSPropertyOp11
 70
     1
102
RTVSPropertyOp12
 70
     1
102
RTVSPropertyOp13
 70
     1
102
RTVSPropertyOp14
 70
     1
102
RTVSPropertyOp15
 70
     1
102
RTVSPropertyOp16
 70
     1
102
RTVSPropertyOp17
 70
     1
102
RTVSPropertyOp18
 70
     1
102
RTVSPropertyOp19
 70
     1
102
RTVSPropertyOp20
 70
     1
102
RTVSPropertyOp21
 70
     1
102
RTVSPropertyOp22
 70
     1
102
RTVSPropertyOp23
 70
     1
102
RTVSPropertyOp24
 70
     1
102
RTVSPropertyOp25
 70
     1
102
RTVSPropertyOp26
 70
     1
102
RTVSPropertyOp27
 70
     1
102
RTVSPropertyOp28
 70
     1
102
RTVSPropertyOp29
 70
     1
102
RTVSPropertyOp30
 70
     1
102
RTVSPropertyOp31
 70
     1
102
RTVSPropertyOp32
 70
     1
  0
XRECORD
  5
741
102
{ACAD_REACTORS
330
740
102
}
330
740
100
AcDbXrecord
280
     1
102
RTVSPropertyOp0
 70
     1
102
RTVSPropertyOp1
 70
     1
102
RTVSPropertyOp2
 70
     1
102
RTVSPropertyOp3
 70
     1
102
RTVSPropertyOp4
 70
     1
102
RTVSPropertyOp5
 70
     1
102
RTVSPropertyOp6
 70
     1
102
RTVSPropertyOp7
 70
     1
102
RTVSPropertyOp8
 70
     1
102
RTVSPropertyOp9
 70
     1
102
RTVSPropertyOp10
 70
     1
102
RTVSPropertyOp11
 70
     1
102
RTVSPropertyOp12
 70
     1
102
RTVSPropertyOp13
 70
     1
102
RTVSPropertyOp14
 70
     1
102
RTVSPropertyOp15
 70
     1
102
RTVSPropertyOp16
 70
     1
102
RTVSPropertyOp17
 70
     1
102
RTVSPropertyOp18
 70
     1
102
RTVSPropertyOp19
 70
     1
102
RTVSPropertyOp20
 70
     1
102
RTVSPropertyOp21
 70
     1
102
RTVSPropertyOp22
 70
     1
102
RTVSPropertyOp23
 70
     1
102
RTVSPropertyOp24
 70
     1
102
RTVSPropertyOp25
 70
     1
102
RTVSPropertyOp26
 70
     1
102
RTVSPropertyOp27
 70
     1
102
RTVSPropertyOp28
 70
     1
102
RTVSPropertyOp29
 70
     1
102
RTVSPropertyOp30
 70
     1
102
RTVSPropertyOp31
 70
     1
102
RTVSPropertyOp32
 70
     1
  0
XRECORD
  5
743
102
{ACAD_REACTORS
330
742
102
}
330
742
100
AcDbXrecord
280
     1
102
RTVSPropertyOp0
 70
     1
102
RTVSPropertyOp1
 70
     1
102
RTVSPropertyOp2
 70
     1
102
RTVSPropertyOp3
 70
     1
102
RTVSPropertyOp4
 70
     1
102
RTVSPropertyOp5
 70
     1
102
RTVSPropertyOp6
 70
     1
102
RTVSPropertyOp7
 70
     1
102
RTVSPropertyOp8
 70
     1
102
RTVSPropertyOp9
 70
     1
102
RTVSPropertyOp10
 70
     1
102
RTVSPropertyOp11
 70
     1
102
RTVSPropertyOp12
 70
     1
102
RTVSPropertyOp13
 70
     1
102
RTVSPropertyOp14
 70
     1
102
RTVSPropertyOp15
 70
     1
102
RTVSPropertyOp16
 70
     1
102
RTVSPropertyOp17
 70
     1
102
RTVSPropertyOp18
 70
     1
102
RTVSPropertyOp19
 70
     1
102
RTVSPropertyOp20
 70
     1
102
RTVSPropertyOp21
 70
     1
102
RTVSPropertyOp22
 70
     1
102
RTVSPropertyOp23
 70
     1
102
RTVSPropertyOp24
 70
     1
102
RTVSPropertyOp25
 70
     1
102
RTVSPropertyOp26
 70
     1
102
RTVSPropertyOp27
 70
     1
102
RTVSPropertyOp28
 70
     1
102
RTVSPropertyOp29
 70
     1
102
RTVSPropertyOp30
 70
     1
102
RTVSPropertyOp31
 70
     1
102
RTVSPropertyOp32
 70
     1
  0
XRECORD
  5
745
102
{ACAD_REACTORS
330
744
102
}
330
744
100
AcDbXrecord
280
     1
102
RTVSPropertyOp0
 70
     1
102
RTVSPropertyOp1
 70
     1
102
RTVSPropertyOp2
 70
     1
102
RTVSPropertyOp3
 70
     1
102
RTVSPropertyOp4
 70
     1
102
RTVSPropertyOp5
 70
     1
102
RTVSPropertyOp6
 70
     1
102
RTVSPropertyOp7
 70
     1
102
RTVSPropertyOp8
 70
     1
102
RTVSPropertyOp9
 70
     1
102
RTVSPropertyOp10
 70
     1
102
RTVSPropertyOp11
 70
     1
102
RTVSPropertyOp12
 70
     1
102
RTVSPropertyOp13
 70
     1
102
RTVSPropertyOp14
 70
     1
102
RTVSPropertyOp15
 70
     1
102
RTVSPropertyOp16
 70
     1
102
RTVSPropertyOp17
 70
     1
102
RTVSPropertyOp18
 70
     1
102
RTVSPropertyOp19
 70
     1
102
RTVSPropertyOp20
 70
     1
102
RTVSPropertyOp21
 70
     1
102
RTVSPropertyOp22
 70
     1
102
RTVSPropertyOp23
 70
     1
102
RTVSPropertyOp24
 70
     1
102
RTVSPropertyOp25
 70
     1
102
RTVSPropertyOp26
 70
     1
102
RTVSPropertyOp27
 70
     1
102
RTVSPropertyOp28
 70
     1
102
RTVSPropertyOp29
 70
     1
102
RTVSPropertyOp30
 70
     1
102
RTVSPropertyOp31
 70
     1
102
RTVSPropertyOp32
 70
     1
  0
XRECORD
  5
747
102
{ACAD_REACTORS
330
746
102
}
330
746
100
AcDbXrecord
280
     1
102
RTVSPropertyOp0
 70
     1
102
RTVSPropertyOp1
 70
     1
102
RTVSPropertyOp2
 70
     1
102
RTVSPropertyOp3
 70
     1
102
RTVSPropertyOp4
 70
     1
102
RTVSPropertyOp5
 70
     1
102
RTVSPropertyOp6
 70
     1
102
RTVSPropertyOp7
 70
     1
102
RTVSPropertyOp8
 70
     1
102
RTVSPropertyOp9
 70
     1
102
RTVSPropertyOp10
 70
     1
102
RTVSPropertyOp11
 70
     1
102
RTVSPropertyOp12
 70
     1
102
RTVSPropertyOp13
 70
     1
102
RTVSPropertyOp14
 70
     1
102
RTVSPropertyOp15
 70
     1
102
RTVSPropertyOp16
 70
     1
102
RTVSPropertyOp17
 70
     1
102
RTVSPropertyOp18
 70
     1
102
RTVSPropertyOp19
 70
     1
102
RTVSPropertyOp20
 70
     1
102
RTVSPropertyOp21
 70
     1
102
RTVSPropertyOp22
 70
     1
102
RTVSPropertyOp23
 70
     1
102
RTVSPropertyOp24
 70
     1
102
RTVSPropertyOp25
 70
     1
102
RTVSPropertyOp26
 70
     1
102
RTVSPropertyOp27
 70
     1
102
RTVSPropertyOp28
 70
     1
102
RTVSPropertyOp29
 70
     1
102
RTVSPropertyOp30
 70
     1
102
RTVSPropertyOp31
 70
     1
102
RTVSPropertyOp32
 70
     1
  0
XRECORD
  5
74F
102
{ACAD_REACTORS
330
74E
102
}
330
74E
100
AcDbXrecord
280
     1
102
RTVSPropertyOp0
 70
     1
102
RTVSPropertyOp1
 70
     1
102
RTVSPropertyOp2
 70
     1
102
RTVSPropertyOp3
 70
     1
102
RTVSPropertyOp4
 70
     1
102
RTVSPropertyOp5
 70
     1
102
RTVSPropertyOp6
 70
     1
102
RTVSPropertyOp7
 70
     1
102
RTVSPropertyOp8
 70
     1
102
RTVSPropertyOp9
 70
     1
102
RTVSPropertyOp10
 70
     1
102
RTVSPropertyOp11
 70
     1
102
RTVSPropertyOp12
 70
     1
102
RTVSPropertyOp13
 70
     1
102
RTVSPropertyOp14
 70
     1
102
RTVSPropertyOp15
 70
     1
102
RTVSPropertyOp16
 70
     1
102
RTVSPropertyOp17
 70
     1
102
RTVSPropertyOp18
 70
     1
102
RTVSPropertyOp19
 70
     1
102
RTVSPropertyOp20
 70
     1
102
RTVSPropertyOp21
 70
     1
102
RTVSPropertyOp22
 70
     1
102
RTVSPropertyOp23
 70
     1
102
RTVSPropertyOp24
 70
     1
102
RTVSPropertyOp25
 70
     1
102
RTVSPropertyOp26
 70
     1
102
RTVSPropertyOp27
 70
     1
102
RTVSPropertyOp28
 70
     1
102
RTVSPropertyOp29
 70
     1
102
RTVSPropertyOp30
 70
     1
102
RTVSPropertyOp31
 70
     1
102
RTVSPropertyOp32
 70
     1
  0
XRECORD
  5
76B
102
{ACAD_REACTORS
330
76A
102
}
330
76A
100
AcDbXrecord
280
     1
102
RTVSPropertyOp0
 70
     0
102
RTVSPropertyOp1
 70
     0
102
RTVSPropertyOp2
 70
     0
102
RTVSPropertyOp3
 70
     0
102
RTVSPropertyOp4
 70
     0
102
RTVSPropertyOp5
 70
     0
102
RTVSPropertyOp6
 70
     0
102
RTVSPropertyOp7
 70
     0
102
RTVSPropertyOp8
 70
     0
102
RTVSPropertyOp9
 70
     0
102
RTVSPropertyOp10
 70
     0
102
RTVSPropertyOp11
 70
     0
102
RTVSPropertyOp12
 70
     0
102
RTVSPropertyOp13
 70
     0
102
RTVSPropertyOp14
 70
     2
102
RTVSPropertyOp15
 70
     0
102
RTVSPropertyOp16
 70
     0
102
RTVSPropertyOp17
 70
     0
102
RTVSPropertyOp18
 70
     0
102
RTVSPropertyOp19
 70
     0
102
RTVSPropertyOp20
 70
     0
102
RTVSPropertyOp21
 70
     0
102
RTVSPropertyOp22
 70
     0
102
RTVSPropertyOp23
 70
     0
102
RTVSPropertyOp24
 70
     0
102
RTVSPropertyOp25
 70
     0
102
RTVSPropertyOp26
 70
     0
102
RTVSPropertyOp27
 70
     0
102
RTVSPropertyOp28
 70
     0
102
RTVSPropertyOp29
 70
     0
102
RTVSPropertyOp30
 70
     0
102
RTVSPropertyOp31
 70
     0
102
RTVSPropertyOp32
 70
     0
  0
XRECORD
  5
75B
102
{ACAD_REACTORS
330
75A
102
}
330
75A
100
AcDbXrecord
280
     1
102
RTVSPropertyOp0
 70
     1
102
RTVSPropertyOp1
 70
     1
102
RTVSPropertyOp2
 70
     1
102
RTVSPropertyOp3
 70
     1
102
RTVSPropertyOp4
 70
     1
102
RTVSPropertyOp5
 70
     1
102
RTVSPropertyOp6
 70
     1
102
RTVSPropertyOp7
 70
     1
102
RTVSPropertyOp8
 70
     1
102
RTVSPropertyOp9
 70
     1
102
RTVSPropertyOp10
 70
     1
102
RTVSPropertyOp11
 70
     1
102
RTVSPropertyOp12
 70
     1
102
RTVSPropertyOp13
 70
     1
102
RTVSPropertyOp14
 70
     1
102
RTVSPropertyOp15
 70
     1
102
RTVSPropertyOp16
 70
     1
102
RTVSPropertyOp17
 70
     1
102
RTVSPropertyOp18
 70
     1
102
RTVSPropertyOp19
 70
     1
102
RTVSPropertyOp20
 70
     1
102
RTVSPropertyOp21
 70
     1
102
RTVSPropertyOp22
 70
     1
102
RTVSPropertyOp23
 70
     1
102
RTVSPropertyOp24
 70
     1
102
RTVSPropertyOp25
 70
     1
102
RTVSPropertyOp26
 70
     1
102
RTVSPropertyOp27
 70
     1
102
RTVSPropertyOp28
 70
     1
102
RTVSPropertyOp29
 70
     1
102
RTVSPropertyOp30
 70
     1
102
RTVSPropertyOp31
 70
     1
102
RTVSPropertyOp32
 70
     1
  0
XRECORD
  5
76D
102
{ACAD_REACTORS
330
76C
102
}
330
76C
100
AcDbXrecord
280
     1
102
RTVSPropertyOp0
 70
     0
102
RTVSPropertyOp1
 70
     0
102
RTVSPropertyOp2
 70
     0
102
RTVSPropertyOp3
 70
     0
102
RTVSPropertyOp4
 70
     0
102
RTVSPropertyOp5
 70
     0
102
RTVSPropertyOp6
 70
     0
102
RTVSPropertyOp7
 70
     0
102
RTVSPropertyOp8
 70
     0
102
RTVSPropertyOp9
 70
     0
102
RTVSPropertyOp10
 70
     0
102
RTVSPropertyOp11
 70
     0
102
RTVSPropertyOp12
 70
     0
102
RTVSPropertyOp13
 70
     0
102
RTVSPropertyOp14
 70
     2
102
RTVSPropertyOp15
 70
     0
102
RTVSPropertyOp16
 70
     0
102
RTVSPropertyOp17
 70
     0
102
RTVSPropertyOp18
 70
     0
102
RTVSPropertyOp19
 70
     0
102
RTVSPropertyOp20
 70
     0
102
RTVSPropertyOp21
 70
     0
102
RTVSPropertyOp22
 70
     0
102
RTVSPropertyOp23
 70
     0
102
RTVSPropertyOp24
 70
     0
102
RTVSPropertyOp25
 70
     0
102
RTVSPropertyOp26
 70
     0
102
RTVSPropertyOp27
 70
     0
102
RTVSPropertyOp28
 70
     0
102
RTVSPropertyOp29
 70
     0
102
RTVSPropertyOp30
 70
     0
102
RTVSPropertyOp31
 70
     0
102
RTVSPropertyOp32
 70
     0
  0
XRECORD
  5
753
102
{ACAD_REACTORS
330
752
102
}
330
752
100
AcDbXrecord
280
     1
102
RTVSPropertyOp0
 70
     1
102
RTVSPropertyOp1
 70
     1
102
RTVSPropertyOp2
 70
     1
102
RTVSPropertyOp3
 70
     1
102
RTVSPropertyOp4
 70
     1
102
RTVSPropertyOp5
 70
     1
102
RTVSPropertyOp6
 70
     1
102
RTVSPropertyOp7
 70
     1
102
RTVSPropertyOp8
 70
     1
102
RTVSPropertyOp9
 70
     1
102
RTVSPropertyOp10
 70
     1
102
RTVSPropertyOp11
 70
     1
102
RTVSPropertyOp12
 70
     1
102
RTVSPropertyOp13
 70
     1
102
RTVSPropertyOp14
 70
     1
102
RTVSPropertyOp15
 70
     1
102
RTVSPropertyOp16
 70
     1
102
RTVSPropertyOp17
 70
     1
102
RTVSPropertyOp18
 70
     1
102
RTVSPropertyOp19
 70
     1
102
RTVSPropertyOp20
 70
     1
102
RTVSPropertyOp21
 70
     1
102
RTVSPropertyOp22
 70
     1
102
RTVSPropertyOp23
 70
     1
102
RTVSPropertyOp24
 70
     1
102
RTVSPropertyOp25
 70
     1
102
RTVSPropertyOp26
 70
     1
102
RTVSPropertyOp27
 70
     1
102
RTVSPropertyOp28
 70
     1
102
RTVSPropertyOp29
 70
     1
102
RTVSPropertyOp30
 70
     1
102
RTVSPropertyOp31
 70
     1
102
RTVSPropertyOp32
 70
     1
  0
XRECORD
  5
769
102
{ACAD_REACTORS
330
768
102
}
330
768
100
AcDbXrecord
280
     1
102
RTVSPropertyOp0
 70
     1
102
RTVSPropertyOp1
 70
     1
102
RTVSPropertyOp2
 70
     1
102
RTVSPropertyOp3
 70
     1
102
RTVSPropertyOp4
 70
     1
102
RTVSPropertyOp5
 70
     1
102
RTVSPropertyOp6
 70
     1
102
RTVSPropertyOp7
 70
     1
102
RTVSPropertyOp8
 70
     1
102
RTVSPropertyOp9
 70
     1
102
RTVSPropertyOp10
 70
     1
102
RTVSPropertyOp11
 70
     1
102
RTVSPropertyOp12
 70
     1
102
RTVSPropertyOp13
 70
     1
102
RTVSPropertyOp14
 70
     1
102
RTVSPropertyOp15
 70
     1
102
RTVSPropertyOp16
 70
     1
102
RTVSPropertyOp17
 70
     1
102
RTVSPropertyOp18
 70
     1
102
RTVSPropertyOp19
 70
     1
102
RTVSPropertyOp20
 70
     1
102
RTVSPropertyOp21
 70
     1
102
RTVSPropertyOp22
 70
     1
102
RTVSPropertyOp23
 70
     1
102
RTVSPropertyOp24
 70
     1
102
RTVSPropertyOp25
 70
     1
102
RTVSPropertyOp26
 70
     1
102
RTVSPropertyOp27
 70
     1
102
RTVSPropertyOp28
 70
     1
102
RTVSPropertyOp29
 70
     1
102
RTVSPropertyOp30
 70
     1
102
RTVSPropertyOp31
 70
     1
102
RTVSPropertyOp32
 70
     1
  0
XRECORD
  5
767
102
{ACAD_REACTORS
330
766
102
}
330
766
100
AcDbXrecord
280
     1
102
RTVSPropertyOp0
 70
     1
102
RTVSPropertyOp1
 70
     1
102
RTVSPropertyOp2
 70
     1
102
RTVSPropertyOp3
 70
     1
102
RTVSPropertyOp4
 70
     1
102
RTVSPropertyOp5
 70
     1
102
RTVSPropertyOp6
 70
     1
102
RTVSPropertyOp7
 70
     1
102
RTVSPropertyOp8
 70
     1
102
RTVSPropertyOp9
 70
     1
102
RTVSPropertyOp10
 70
     1
102
RTVSPropertyOp11
 70
     1
102
RTVSPropertyOp12
 70
     1
102
RTVSPropertyOp13
 70
     1
102
RTVSPropertyOp14
 70
     1
102
RTVSPropertyOp15
 70
     1
102
RTVSPropertyOp16
 70
     1
102
RTVSPropertyOp17
 70
     1
102
RTVSPropertyOp18
 70
     1
102
RTVSPropertyOp19
 70
     1
102
RTVSPropertyOp20
 70
     1
102
RTVSPropertyOp21
 70
     1
102
RTVSPropertyOp22
 70
     1
102
RTVSPropertyOp23
 70
     1
102
RTVSPropertyOp24
 70
     1
102
RTVSPropertyOp25
 70
     1
102
RTVSPropertyOp26
 70
     1
102
RTVSPropertyOp27
 70
     1
102
RTVSPropertyOp28
 70
     1
102
RTVSPropertyOp29
 70
     1
102
RTVSPropertyOp30
 70
     1
102
RTVSPropertyOp31
 70
     1
102
RTVSPropertyOp32
 70
     1
  0
XRECORD
  5
761
102
{ACAD_REACTORS
330
760
102
}
330
760
100
AcDbXrecord
280
     1
102
RTVSPropertyOp0
 70
     1
102
RTVSPropertyOp1
 70
     1
102
RTVSPropertyOp2
 70
     1
102
RTVSPropertyOp3
 70
     1
102
RTVSPropertyOp4
 70
     1
102
RTVSPropertyOp5
 70
     1
102
RTVSPropertyOp6
 70
     1
102
RTVSPropertyOp7
 70
     1
102
RTVSPropertyOp8
 70
     1
102
RTVSPropertyOp9
 70
     1
102
RTVSPropertyOp10
 70
     1
102
RTVSPropertyOp11
 70
     1
102
RTVSPropertyOp12
 70
     1
102
RTVSPropertyOp13
 70
     1
102
RTVSPropertyOp14
 70
     1
102
RTVSPropertyOp15
 70
     1
102
RTVSPropertyOp16
 70
     1
102
RTVSPropertyOp17
 70
     1
102
RTVSPropertyOp18
 70
     1
102
RTVSPropertyOp19
 70
     1
102
RTVSPropertyOp20
 70
     1
102
RTVSPropertyOp21
 70
     1
102
RTVSPropertyOp22
 70
     1
102
RTVSPropertyOp23
 70
     1
102
RTVSPropertyOp24
 70
     1
102
RTVSPropertyOp25
 70
     1
102
RTVSPropertyOp26
 70
     1
102
RTVSPropertyOp27
 70
     1
102
RTVSPropertyOp28
 70
     1
102
RTVSPropertyOp29
 70
     1
102
RTVSPropertyOp30
 70
     1
102
RTVSPropertyOp31
 70
     1
102
RTVSPropertyOp32
 70
     1
  0
XRECORD
  5
763
102
{ACAD_REACTORS
330
762
102
}
330
762
100
AcDbXrecord
280
     1
102
RTVSPropertyOp0
 70
     1
102
RTVSPropertyOp1
 70
     1
102
RTVSPropertyOp2
 70
     1
102
RTVSPropertyOp3
 70
     1
102
RTVSPropertyOp4
 70
     1
102
RTVSPropertyOp5
 70
     1
102
RTVSPropertyOp6
 70
     1
102
RTVSPropertyOp7
 70
     1
102
RTVSPropertyOp8
 70
     1
102
RTVSPropertyOp9
 70
     1
102
RTVSPropertyOp10
 70
     1
102
RTVSPropertyOp11
 70
     1
102
RTVSPropertyOp12
 70
     1
102
RTVSPropertyOp13
 70
     1
102
RTVSPropertyOp14
 70
     1
102
RTVSPropertyOp15
 70
     1
102
RTVSPropertyOp16
 70
     1
102
RTVSPropertyOp17
 70
     1
102
RTVSPropertyOp18
 70
     1
102
RTVSPropertyOp19
 70
     1
102
RTVSPropertyOp20
 70
     1
102
RTVSPropertyOp21
 70
     1
102
RTVSPropertyOp22
 70
     1
102
RTVSPropertyOp23
 70
     1
102
RTVSPropertyOp24
 70
     1
102
RTVSPropertyOp25
 70
     1
102
RTVSPropertyOp26
 70
     1
102
RTVSPropertyOp27
 70
     1
102
RTVSPropertyOp28
 70
     1
102
RTVSPropertyOp29
 70
     1
102
RTVSPropertyOp30
 70
     1
102
RTVSPropertyOp31
 70
     1
102
RTVSPropertyOp32
 70
     1
  0
XRECORD
  5
759
102
{ACAD_REACTORS
330
758
102
}
330
758
100
AcDbXrecord
280
     1
102
RTVSPropertyOp0
 70
     1
102
RTVSPropertyOp1
 70
     1
102
RTVSPropertyOp2
 70
     1
102
RTVSPropertyOp3
 70
     1
102
RTVSPropertyOp4
 70
     1
102
RTVSPropertyOp5
 70
     1
102
RTVSPropertyOp6
 70
     1
102
RTVSPropertyOp7
 70
     1
102
RTVSPropertyOp8
 70
     1
102
RTVSPropertyOp9
 70
     1
102
RTVSPropertyOp10
 70
     1
102
RTVSPropertyOp11
 70
     1
102
RTVSPropertyOp12
 70
     1
102
RTVSPropertyOp13
 70
     1
102
RTVSPropertyOp14
 70
     1
102
RTVSPropertyOp15
 70
     1
102
RTVSPropertyOp16
 70
     1
102
RTVSPropertyOp17
 70
     1
102
RTVSPropertyOp18
 70
     1
102
RTVSPropertyOp19
 70
     1
102
RTVSPropertyOp20
 70
     1
102
RTVSPropertyOp21
 70
     1
102
RTVSPropertyOp22
 70
     1
102
RTVSPropertyOp23
 70
     1
102
RTVSPropertyOp24
 70
     1
102
RTVSPropertyOp25
 70
     1
102
RTVSPropertyOp26
 70
     1
102
RTVSPropertyOp27
 70
     1
102
RTVSPropertyOp28
 70
     1
102
RTVSPropertyOp29
 70
     1
102
RTVSPropertyOp30
 70
     1
102
RTVSPropertyOp31
 70
     1
102
RTVSPropertyOp32
 70
     1
  0
XRECORD
  5
74D
102
{ACAD_REACTORS
330
74C
102
}
330
74C
100
AcDbXrecord
280
     1
102
RTVSPropertyOp0
 70
     1
102
RTVSPropertyOp1
 70
     1
102
RTVSPropertyOp2
 70
     1
102
RTVSPropertyOp3
 70
     1
102
RTVSPropertyOp4
 70
     1
102
RTVSPropertyOp5
 70
     1
102
RTVSPropertyOp6
 70
     1
102
RTVSPropertyOp7
 70
     1
102
RTVSPropertyOp8
 70
     1
102
RTVSPropertyOp9
 70
     1
102
RTVSPropertyOp10
 70
     1
102
RTVSPropertyOp11
 70
     1
102
RTVSPropertyOp12
 70
     1
102
RTVSPropertyOp13
 70
     1
102
RTVSPropertyOp14
 70
     1
102
RTVSPropertyOp15
 70
     1
102
RTVSPropertyOp16
 70
     1
102
RTVSPropertyOp17
 70
     1
102
RTVSPropertyOp18
 70
     1
102
RTVSPropertyOp19
 70
     1
102
RTVSPropertyOp20
 70
     1
102
RTVSPropertyOp21
 70
     1
102
RTVSPropertyOp22
 70
     1
102
RTVSPropertyOp23
 70
     1
102
RTVSPropertyOp24
 70
     1
102
RTVSPropertyOp25
 70
     1
102
RTVSPropertyOp26
 70
     1
102
RTVSPropertyOp27
 70
     1
102
RTVSPropertyOp28
 70
     1
102
RTVSPropertyOp29
 70
     1
102
RTVSPropertyOp30
 70
     1
102
RTVSPropertyOp31
 70
     1
102
RTVSPropertyOp32
 70
     1
  0
XRECORD
  5
765
102
{ACAD_REACTORS
330
764
102
}
330
764
100
AcDbXrecord
280
     1
102
RTVSPropertyOp0
 70
     1
102
RTVSPropertyOp1
 70
     1
102
RTVSPropertyOp2
 70
     1
102
RTVSPropertyOp3
 70
     1
102
RTVSPropertyOp4
 70
     1
102
RTVSPropertyOp5
 70
     1
102
RTVSPropertyOp6
 70
     1
102
RTVSPropertyOp7
 70
     1
102
RTVSPropertyOp8
 70
     1
102
RTVSPropertyOp9
 70
     1
102
RTVSPropertyOp10
 70
     1
102
RTVSPropertyOp11
 70
     1
102
RTVSPropertyOp12
 70
     1
102
RTVSPropertyOp13
 70
     1
102
RTVSPropertyOp14
 70
     1
102
RTVSPropertyOp15
 70
     1
102
RTVSPropertyOp16
 70
     1
102
RTVSPropertyOp17
 70
     1
102
RTVSPropertyOp18
 70
     1
102
RTVSPropertyOp19
 70
     1
102
RTVSPropertyOp20
 70
     1
102
RTVSPropertyOp21
 70
     1
102
RTVSPropertyOp22
 70
     1
102
RTVSPropertyOp23
 70
     1
102
RTVSPropertyOp24
 70
     1
102
RTVSPropertyOp25
 70
     1
102
RTVSPropertyOp26
 70
     1
102
RTVSPropertyOp27
 70
     1
102
RTVSPropertyOp28
 70
     1
102
RTVSPropertyOp29
 70
     1
102
RTVSPropertyOp30
 70
     1
102
RTVSPropertyOp31
 70
     1
102
RTVSPropertyOp32
 70
     1
  0
ENDSEC
  0
EOF
