  0
SECTION
  2
HEADER
  9
$ACADVER
  1
AC1015
  9
$ACADMAINTVER
 70
    20
  9
$DWGCODEPAGE
  3
ANSI_932
  9
$INSBASE
 10
0.0
 20
0.0
 30
0.0
  9
$EXTMIN
 10
570.0447389999998
 20
236.873664
 30
0.0
  9
$EXTMAX
 10
975.0447390000001
 20
516.7042909999998
 30
0.0
  9
$LIMMIN
 10
570.0437389999998
 20
236.872657
  9
$LIMMAX
 10
975.0716179999999
 20
516.705285
  9
$ORTHOMODE
 70
     1
  9
$REGENMODE
 70
     1
  9
$FILLMODE
 70
     1
  9
$QTEXTMODE
 70
     0
  9
$MIRRTEXT
 70
     0
  9
$LTSCALE
 40
6.750430999999998
  9
$ATTMODE
 70
     1
  9
$TEXTSIZE
 40
3.2
  9
$TRACEWID
 40
0.05
  9
$TEXTSTYLE
  7
高3.2
  9
$CLAYER
  8
0
  9
$CELTYPE
  6
CONTINUOUS
  9
$CECOLOR
 62
   256
  9
$CELTSCALE
 40
1.0
  9
$DISPSILH
 70
     0
  9
$DIMSCALE
 40
1.0
  9
$DIMASZ
 40
2.5
  9
$DIMEXO
 40
0.25
  9
$DIMDLI
 40
0.2
  9
$DIMRND
 40
0.0
  9
$DIMDLE
 40
0.0
  9
$DIMEXE
 40
1.25
  9
$DIMTP
 40
0.0
  9
$DIMTM
 40
0.0
  9
$DIMTXT
 40
3.0
  9
$DIMCEN
 40
0.0
  9
$DIMTSZ
 40
0.0
  9
$DIMTOL
 70
     0
  9
$DIMLIM
 70
     0
  9
$DIMTIH
 70
     0
  9
$DIMTOH
 70
     0
  9
$DIMSE1
 70
     0
  9
$DIMSE2
 70
     0
  9
$DIMTAD
 70
     3
  9
$DIMZIN
 70
     8
  9
$DIMBLK
  1
Open30
  9
$DIMASO
 70
     1
  9
$DIMSHO
 70
     1
  9
$DIMPOST
  1

  9
$DIMAPOST
  1

  9
$DIMALT
 70
     0
  9
$DIMALTD
 70
     3
  9
$DIMALTF
 40
0.03937007874016
  9
$DIMLFAC
 40
1.0
  9
$DIMTOFL
 70
     1
  9
$DIMTVP
 40
0.0
  9
$DIMTIX
 70
     0
  9
$DIMSOXD
 70
     0
  9
$DIMSAH
 70
     0
  9
$DIMBLK1
  1

  9
$DIMBLK2
  1

  9
$DIMSTYLE
  2
1：1
  9
$DIMCLRD
 70
     0
  9
$DIMCLRE
 70
     0
  9
$DIMCLRT
 70
     4
  9
$DIMTFAC
 40
1.0
  9
$DIMGAP
 40
0.625
  9
$DIMJUST
 70
     0
  9
$DIMSD1
 70
     0
  9
$DIMSD2
 70
     0
  9
$DIMTOLJ
 70
     0
  9
$DIMTZIN
 70
     8
  9
$DIMALTZ
 70
     0
  9
$DIMALTTZ
 70
     0
  9
$DIMUPT
 70
     1
  9
$DIMDEC
 70
     2
  9
$DIMTDEC
 70
     2
  9
$DIMALTU
 70
     2
  9
$DIMALTTD
 70
     3
  9
$DIMTXSTY
  7
STANDARD
  9
$DIMAUNIT
 70
     0
  9
$DIMADEC
 70
     1
  9
$DIMALTRND
 40
0.0
  9
$DIMAZIN
 70
     2
  9
$DIMDSEP
 70
    46
  9
$DIMATFIT
 70
     0
  9
$DIMFRAC
 70
     0
  9
$DIMLDRBLK
  1
Open30
  9
$DIMLUNIT
 70
     2
  9
$DIMLWD
 70
    -2
  9
$DIMLWE
 70
    -2
  9
$DIMTMOVE
 70
     0
  9
$LUNITS
 70
     2
  9
$LUPREC
 70
     4
  9
$SKETCHINC
 40
0.1
  9
$FILLETRAD
 40
0.0
  9
$AUNITS
 70
     0
  9
$AUPREC
 70
     0
  9
$MENU
  1
.
  9
$ELEVATION
 40
0.0
  9
$PELEVATION
 40
0.0
  9
$THICKNESS
 40
0.0
  9
$LIMCHECK
 70
     0
  9
$CHAMFERA
 40
0.0
  9
$CHAMFERB
 40
0.0
  9
$CHAMFERC
 40
0.0
  9
$CHAMFERD
 40
0.0
  9
$SKPOLY
 70
     0
  9
$TDCREATE
 40
2456870.793064977
  9
$TDUCREATE
 40
2456870.418064977
  9
$TDUPDATE
 40
2456874.651747824
  9
$TDUUPDATE
 40
2456874.276747825
  9
$TDINDWG
 40
0.0035960880
  9
$TDUSRTIMER
 40
0.0035960880
  9
$USRTIMER
 70
     1
  9
$ANGBASE
 50
0.0
  9
$ANGDIR
 70
     0
  9
$PDMODE
 70
     0
  9
$PDSIZE
 40
0.0
  9
$PLINEWID
 40
0.0
  9
$SPLFRAME
 70
     0
  9
$SPLINETYPE
 70
     6
  9
$SPLINESEGS
 70
     8
  9
$HANDSEED
  5
986
  9
$SURFTAB1
 70
     6
  9
$SURFTAB2
 70
     6
  9
$SURFTYPE
 70
     6
  9
$SURFU
 70
     6
  9
$SURFV
 70
     6
  9
$UCSBASE
  2

  9
$UCSNAME
  2

  9
$UCSORG
 10
0.0
 20
0.0
 30
0.0
  9
$UCSXDIR
 10
1.0
 20
0.0
 30
0.0
  9
$UCSYDIR
 10
0.0
 20
1.0
 30
0.0
  9
$UCSORTHOREF
  2

  9
$UCSORTHOVIEW
 70
     0
  9
$UCSORGTOP
 10
0.0
 20
0.0
 30
0.0
  9
$UCSORGBOTTOM
 10
0.0
 20
0.0
 30
0.0
  9
$UCSORGLEFT
 10
0.0
 20
0.0
 30
0.0
  9
$UCSORGRIGHT
 10
0.0
 20
0.0
 30
0.0
  9
$UCSORGFRONT
 10
0.0
 20
0.0
 30
0.0
  9
$UCSORGBACK
 10
0.0
 20
0.0
 30
0.0
  9
$PUCSBASE
  2

  9
$PUCSNAME
  2

  9
$PUCSORG
 10
0.0
 20
0.0
 30
0.0
  9
$PUCSXDIR
 10
1.0
 20
0.0
 30
0.0
  9
$PUCSYDIR
 10
0.0
 20
1.0
 30
0.0
  9
$PUCSORTHOREF
  2

  9
$PUCSORTHOVIEW
 70
     0
  9
$PUCSORGTOP
 10
0.0
 20
0.0
 30
0.0
  9
$PUCSORGBOTTOM
 10
0.0
 20
0.0
 30
0.0
  9
$PUCSORGLEFT
 10
0.0
 20
0.0
 30
0.0
  9
$PUCSORGRIGHT
 10
0.0
 20
0.0
 30
0.0
  9
$PUCSORGFRONT
 10
0.0
 20
0.0
 30
0.0
  9
$PUCSORGBACK
 10
0.0
 20
0.0
 30
0.0
  9
$USERI1
 70
     0
  9
$USERI2
 70
     0
  9
$USERI3
 70
     0
  9
$USERI4
 70
     0
  9
$USERI5
 70
     0
  9
$USERR1
 40
0.0
  9
$USERR2
 40
0.0
  9
$USERR3
 40
0.0
  9
$USERR4
 40
0.0
  9
$USERR5
 40
0.0
  9
$WORLDVIEW
 70
     1
  9
$SHADEDGE
 70
     3
  9
$SHADEDIF
 70
    70
  9
$TILEMODE
 70
     1
  9
$MAXACTVP
 70
    64
  9
$PINSBASE
 10
0.0
 20
0.0
 30
0.0
  9
$PLIMCHECK
 70
     0
  9
$PEXTMIN
 10
1.000000000000000E+20
 20
1.000000000000000E+20
 30
1.000000000000000E+20
  9
$PEXTMAX
 10
-1.000000000000000E+20
 20
-1.000000000000000E+20
 30
-1.000000000000000E+20
  9
$PLIMMIN
 10
0.0
 20
0.0
  9
$PLIMMAX
 10
12.0
 20
9.0
  9
$UNITMODE
 70
     0
  9
$VISRETAIN
 70
     1
  9
$PLINEGEN
 70
     0
  9
$PSLTSCALE
 70
     1
  9
$TREEDEPTH
 70
  3020
  9
$CMLSTYLE
  2
Standard
  9
$CMLJUST
 70
     0
  9
$CMLSCALE
 40
1.0
  9
$PROXYGRAPHICS
 70
     1
  9
$MEASUREMENT
 70
     0
  9
$CELWEIGHT
370
    -1
  9
$ENDCAPS
280
     0
  9
$JOINSTYLE
280
     0
  9
$LWDISPLAY
290
     0
  9
$INSUNITS
 70
     0
  9
$HYPERLINKBASE
  1

  9
$STYLESHEET
  1

  9
$XEDIT
290
     1
  9
$CEPSNTYPE
380
     0
  9
$PSTYLEMODE
290
     1
  9
$FINGERPRINTGUID
  2
{6762D98A-347C-440D-BEA7-DDA7389955BB}
  9
$VERSIONGUID
  2
{ABAB3F7C-73CE-4279-A7FD-1842CBF51F9E}
  9
$EXTNAMES
290
     1
  9
$PSVPSCALE
 40
0.0
  9
$OLESTARTUP
290
     0
  0
ENDSEC
  0
SECTION
  2
CLASSES
  0
CLASS
  1
ACDBDICTIONARYWDFLT
  2
AcDbDictionaryWithDefault
  3
ObjectDBX Classes
 90
        0
280
     0
281
     0
  0
CLASS
  1
MATERIAL
  2
AcDbMaterial
  3
ObjectDBX Classes
 90
     1153
280
     0
281
     0
  0
CLASS
  1
VISUALSTYLE
  2
AcDbVisualStyle
  3
ObjectDBX Classes
 90
     4095
280
     0
281
     0
  0
CLASS
  1
SCALE
  2
AcDbScale
  3
ObjectDBX Classes
 90
     1153
280
     0
281
     0
  0
CLASS
  1
TABLESTYLE
  2
AcDbTableStyle
  3
ObjectDBX Classes
 90
     4095
280
     0
281
     0
  0
CLASS
  1
MLEADERSTYLE
  2
AcDbMLeaderStyle
  3
ACDB_MLEADERSTYLE_CLASS
 90
     4095
280
     0
281
     0
  0
CLASS
  1
SORTENTSTABLE
  2
AcDbSortentsTable
  3
ObjectDBX Classes
 90
        0
280
     0
281
     0
  0
CLASS
  1
DICTIONARYVAR
  2
AcDbDictionaryVar
  3
ObjectDBX Classes
 90
        0
280
     0
281
     0
  0
CLASS
  1
CELLSTYLEMAP
  2
AcDbCellStyleMap
  3
ObjectDBX Classes
 90
     1152
280
     0
281
     0
  0
CLASS
  1
ACDBPLACEHOLDER
  2
AcDbPlaceHolder
  3
ObjectDBX Classes
 90
        0
280
     0
281
     0
  0
CLASS
  1
LAYOUT
  2
AcDbLayout
  3
ObjectDBX Classes
 90
        0
280
     0
281
     0
  0
ENDSEC
  0
SECTION
  2
TABLES
  0
TABLE
  2
VPORT
  5
8
330
0
100
AcDbSymbolTable
 70
     1
  0
VPORT
  5
8B
330
8
100
AcDbSymbolTableRecord
100
AcDbViewportTableRecord
  2
*Active
 70
     0
 10
0.0
 20
0.0
 11
1.0
 21
1.0
 12
798.4557868819944
 22
428.2297312146797
 13
0.0
 23
0.0
 14
1.0
 24
1.0
 15
0.0
 25
0.0
 16
0.0
 26
0.0
 36
1.0
 17
0.0
 27
0.0
 37
0.0
 40
714.0707636083425
 41
1.612859097127222
 42
50.0
 43
0.0
 44
0.0
 50
0.0
 51
0.0
 71
     0
 72
   100
 73
     1
 74
     1
 75
     0
 76
     0
 77
     0
 78
     0
281
     0
 65
     1
110
0.0
120
0.0
130
0.0
111
1.0
121
0.0
131
0.0
112
0.0
122
1.0
132
0.0
 79
     0
146
0.0
  0
ENDTAB
  0
TABLE
  2
LTYPE
  5
5
330
0
100
AcDbSymbolTable
 70
     1
  0
LTYPE
  5
5A
330
5
100
AcDbSymbolTableRecord
100
AcDbLinetypeTableRecord
  2
ByBlock
 70
     0
  3

 72
    65
 73
     0
 40
0.0
  0
LTYPE
  5
5B
330
5
100
AcDbSymbolTableRecord
100
AcDbLinetypeTableRecord
  2
ByLayer
 70
     0
  3

 72
    65
 73
     0
 40
0.0
  0
LTYPE
  5
5C
330
5
100
AcDbSymbolTableRecord
100
AcDbLinetypeTableRecord
  2
CONTINUOUS
 70
     0
  3
Solid-line
 72
    65
 73
     0
 40
0.0
  0
ENDTAB
  0
TABLE
  2
LAYER
  5
2
102
{ACAD_XDICTIONARY
360
545
102
}
330
0
100
AcDbSymbolTable
 70
     2
  0
LAYER
  5
54
102
{ACAD_XDICTIONARY
360
6CC
102
}
330
2
100
AcDbSymbolTableRecord
100
AcDbLayerTableRecord
  2
0
 70
     0
 62
     7
  6
CONTINUOUS
370
    -3
390
F
  0
LAYER
  5
52E
330
2
100
AcDbSymbolTableRecord
100
AcDbLayerTableRecord
  2
Defpoints
 70
     0
 62
     7
  6
CONTINUOUS
290
     0
370
    -3
390
F
  0
ENDTAB
  0
TABLE
  2
STYLE
  5
3
330
0
100
AcDbSymbolTable
 70
     6
  0
STYLE
  5
55
330
3
100
AcDbSymbolTableRecord
100
AcDbTextStyleTableRecord
  2
STANDARD
 70
     0
 40
0.0
 41
1.0
 50
0.0
 71
     0
 42
0.2
  3
TXT
  4
BIGFONT
  0
STYLE
  5
52F
330
3
100
AcDbSymbolTableRecord
100
AcDbTextStyleTableRecord
  2
高3.2
 70
     0
 40
3.2
 41
1.0
 50
0.0
 71
     0
 42
3.2
  3
txt.shx
  4
bigfont.shx
  0
STYLE
  5
530
330
3
100
AcDbSymbolTableRecord
100
AcDbTextStyleTableRecord
  2
高6.3
 70
     0
 40
6.299999999999998
 41
1.0
 50
0.0
 71
     0
 42
6.299999999999998
  3
txt.shx
  4
bigfont.shx
  0
STYLE
  5
531
330
3
100
AcDbSymbolTableRecord
100
AcDbTextStyleTableRecord
  2
高2.5
 70
     0
 40
2.5
 41
1.0
 50
0.0
 71
     0
 42
0.2
  3
txt.shx
  4
bigfont.shx
  0
STYLE
  5
532
330
3
100
AcDbSymbolTableRecord
100
AcDbTextStyleTableRecord
  2
高4.5
 70
     0
 40
4.5
 41
1.0
 50
0.0
 71
     0
 42
6.299999999999998
  3
txt.shx
  4
bigfont.shx
  0
STYLE
  5
533
330
3
100
AcDbSymbolTableRecord
100
AcDbTextStyleTableRecord
  2
高2
 70
     0
 40
2.0
 41
1.0
 50
0.0
 71
     0
 42
2.0
  3
txt.shx
  4
bigfont.shx
  0
ENDTAB
  0
TABLE
  2
VIEW
  5
6
330
0
100
AcDbSymbolTable
 70
     0
  0
ENDTAB
  0
TABLE
  2
UCS
  5
7
330
0
100
AcDbSymbolTable
 70
     0
  0
ENDTAB
  0
TABLE
  2
APPID
  5
9
330
0
100
AcDbSymbolTable
 70
    10
  0
APPID
  5
56
330
9
100
AcDbSymbolTableRecord
100
AcDbRegAppTableRecord
  2
ACAD
 70
     0
  0
APPID
  5
5D
330
9
100
AcDbSymbolTableRecord
100
AcDbRegAppTableRecord
  2
AcadAnnotative
 70
     0
  0
APPID
  5
53E
330
9
100
AcDbSymbolTableRecord
100
AcDbRegAppTableRecord
  2
ACAD_DSTYLE_DIMJOGGED_JOGANGLE_SYMBOL
 70
     0
  0
APPID
  5
53F
330
9
100
AcDbSymbolTableRecord
100
AcDbRegAppTableRecord
  2
ACAD_DSTYLE_DIMJAG
 70
     0
  0
APPID
  5
540
330
9
100
AcDbSymbolTableRecord
100
AcDbRegAppTableRecord
  2
ACAD_DSTYLE_DIMBREAK
 70
     0
  0
APPID
  5
541
330
9
100
AcDbSymbolTableRecord
100
AcDbRegAppTableRecord
  2
ACAD_DSTYLE_DIMTALN
 70
     0
  0
APPID
  5
685
330
9
100
AcDbSymbolTableRecord
100
AcDbRegAppTableRecord
  2
ACAD_EXEMPT_FROM_CAD_STANDARDS
 70
     0
  0
APPID
  5
712
330
9
100
AcDbSymbolTableRecord
100
AcDbRegAppTableRecord
  2
ACAD_MLEADERVER
 70
     0
  0
APPID
  5
717
330
9
100
AcDbSymbolTableRecord
100
AcDbRegAppTableRecord
  2
ACAD_DSTYLE_DIMARC_LENGTH_SYMBOL
 70
     0
  0
APPID
  5
718
330
9
100
AcDbSymbolTableRecord
100
AcDbRegAppTableRecord
  2
ACAD_DSTYLE_DIMEXT_LENGTH
 70
     0
  0
ENDTAB
  0
TABLE
  2
DIMSTYLE
  5
A
330
0
100
AcDbSymbolTable
 70
    11
100
AcDbDimStyleTable
 71
     2
340
534
340
57
  0
DIMSTYLE
105
57
330
A
100
AcDbSymbolTableRecord
100
AcDbDimStyleTableRecord
  2
Standard
 70
     0
340
55
  0
DIMSTYLE
105
534
330
A
100
AcDbSymbolTableRecord
100
AcDbDimStyleTableRecord
  2
1：1
 70
     0
 41
2.5
 42
0.25
 43
0.2
 44
1.25
 73
     0
 74
     0
 77
     3
 78
     8
 79
     2
140
3.0
141
0.0
143
0.03937007874016
147
0.625
171
     3
172
     1
178
     4
179
     1
271
     2
272
     2
274
     3
283
     0
284
     8
288
     1
289
     0
340
55
341
49E
342
49E
1001
ACAD_DSTYLE_DIMARC_LENGTH_SYMBOL
1070
   379
1070
     2
1001
ACAD_DSTYLE_DIMEXT_LENGTH
1070
   378
1040
1.25
1001
ACAD_DSTYLE_DIMJOGGED_JOGANGLE_SYMBOL
1070
   384
1040
1.570796326794896
  0
DIMSTYLE
105
535
330
A
100
AcDbSymbolTableRecord
100
AcDbDimStyleTableRecord
  2
2：1
 70
     0
 41
2.5
 42
0.25
 43
0.2
 44
1.25
 73
     0
 74
     0
 77
     3
 78
     8
 79
     2
140
3.0
141
0.0
143
0.03937007874016
144
0.5
147
0.625
171
     3
172
     1
178
     4
179
     1
271
     2
272
     2
274
     3
283
     0
284
     8
288
     1
289
     0
340
55
341
49E
342
49E
1001
ACAD_DSTYLE_DIMARC_LENGTH_SYMBOL
1070
   379
1070
     2
1001
ACAD_DSTYLE_DIMEXT_LENGTH
1070
   378
1040
1.25
1001
ACAD_DSTYLE_DIMJOGGED_JOGANGLE_SYMBOL
1070
   384
1040
1.570796326794896
  0
DIMSTYLE
105
536
330
A
100
AcDbSymbolTableRecord
100
AcDbDimStyleTableRecord
  2
5：1
 70
     0
 41
2.5
 42
0.25
 43
0.2
 44
1.25
 73
     0
 74
     0
 77
     3
 78
     8
 79
     2
140
3.0
141
0.0
143
0.03937007874016
144
0.2
147
0.625
171
     3
172
     1
178
     4
179
     1
271
     2
272
     2
274
     3
283
     0
284
     8
288
     1
289
     0
340
55
341
49E
342
49E
1001
ACAD_DSTYLE_DIMARC_LENGTH_SYMBOL
1070
   379
1070
     2
1001
ACAD_DSTYLE_DIMEXT_LENGTH
1070
   378
1040
1.25
1001
ACAD_DSTYLE_DIMJOGGED_JOGANGLE_SYMBOL
1070
   384
1040
1.570796326794896
  0
DIMSTYLE
105
537
330
A
100
AcDbSymbolTableRecord
100
AcDbDimStyleTableRecord
  2
10：1
 70
     0
 41
2.5
 42
0.25
 43
0.2
 44
1.25
 73
     0
 74
     0
 77
     3
 78
     8
 79
     2
140
3.0
141
0.0
143
0.03937007874016
144
0.1
147
0.625
171
     3
172
     1
178
     4
179
     1
271
     2
272
     2
274
     3
283
     0
284
     8
288
     1
289
     0
340
55
341
49E
342
49E
1001
ACAD_DSTYLE_DIMARC_LENGTH_SYMBOL
1070
   379
1070
     2
1001
ACAD_DSTYLE_DIMEXT_LENGTH
1070
   378
1040
1.25
1001
ACAD_DSTYLE_DIMJOGGED_JOGANGLE_SYMBOL
1070
   384
1040
1.570796326794896
  0
DIMSTYLE
105
538
330
A
100
AcDbSymbolTableRecord
100
AcDbDimStyleTableRecord
  2
1／2
 70
     0
 41
2.5
 42
0.25
 43
0.2
 44
1.25
 73
     0
 74
     0
 77
     3
 78
     8
 79
     2
140
3.0
141
0.0
143
0.03937007874016
144
2.0
147
0.625
171
     3
172
     1
178
     4
179
     1
271
     2
272
     2
274
     3
283
     0
284
     8
288
     1
289
     0
340
55
341
49E
342
49E
1001
ACAD_DSTYLE_DIMARC_LENGTH_SYMBOL
1070
   379
1070
     2
1001
ACAD_DSTYLE_DIMEXT_LENGTH
1070
   378
1040
1.25
1001
ACAD_DSTYLE_DIMJOGGED_JOGANGLE_SYMBOL
1070
   384
1040
1.570796326794896
  0
DIMSTYLE
105
539
330
A
100
AcDbSymbolTableRecord
100
AcDbDimStyleTableRecord
  2
1／5
 70
     0
 41
2.5
 42
0.25
 43
0.2
 44
1.25
 73
     0
 74
     0
 77
     3
 78
     8
 79
     2
140
3.0
141
0.0
143
0.03937007874016
144
5.0
147
0.625
171
     3
172
     1
178
     4
179
     1
271
     2
272
     2
274
     3
283
     0
284
     8
288
     1
289
     0
340
55
341
49E
342
49E
1001
ACAD_DSTYLE_DIMARC_LENGTH_SYMBOL
1070
   379
1070
     2
1001
ACAD_DSTYLE_DIMEXT_LENGTH
1070
   378
1040
1.25
1001
ACAD_DSTYLE_DIMJOGGED_JOGANGLE_SYMBOL
1070
   384
1040
1.570796326794896
  0
DIMSTYLE
105
53A
330
A
100
AcDbSymbolTableRecord
100
AcDbDimStyleTableRecord
  2
1／10
 70
     0
 41
2.5
 42
0.25
 43
0.2
 44
1.25
 73
     0
 74
     0
 77
     3
 78
     8
 79
     2
140
3.0
141
0.0
143
0.03937007874016
144
10.0
147
0.625
171
     3
172
     1
178
     4
179
     1
271
     2
272
     2
274
     3
283
     0
284
     8
288
     1
289
     0
340
55
341
49E
342
49E
1001
ACAD_DSTYLE_DIMARC_LENGTH_SYMBOL
1070
   379
1070
     2
1001
ACAD_DSTYLE_DIMEXT_LENGTH
1070
   378
1040
1.25
1001
ACAD_DSTYLE_DIMJOGGED_JOGANGLE_SYMBOL
1070
   384
1040
1.570796326794896
  0
DIMSTYLE
105
53B
330
A
100
AcDbSymbolTableRecord
100
AcDbDimStyleTableRecord
  2
1／4
 70
     0
 41
2.5
 42
0.25
 43
0.2
 44
1.25
 73
     0
 74
     0
 77
     3
 78
     8
 79
     2
140
3.0
141
0.0
143
0.03937007874016
144
4.0
147
0.625
171
     3
172
     1
178
     4
179
     1
271
     2
272
     2
274
     3
283
     0
284
     8
288
     1
289
     0
340
55
341
49E
342
49E
1001
ACAD_DSTYLE_DIMARC_LENGTH_SYMBOL
1070
   379
1070
     2
1001
ACAD_DSTYLE_DIMEXT_LENGTH
1070
   378
1040
1.25
1001
ACAD_DSTYLE_DIMJOGGED_JOGANGLE_SYMBOL
1070
   384
1040
1.570796326794896
  0
DIMSTYLE
105
53C
330
A
100
AcDbSymbolTableRecord
100
AcDbDimStyleTableRecord
  2
1／3
 70
     0
 41
2.5
 42
0.25
 43
0.2
 44
1.25
 73
     0
 74
     0
 77
     3
 78
     8
 79
     2
140
3.0
141
0.0
143
0.03937007874016
144
3.0
147
0.625
171
     3
172
     1
178
     4
179
     1
271
     2
272
     2
274
     3
283
     0
284
     8
288
     1
289
     0
340
55
341
49E
342
49E
1001
ACAD_DSTYLE_DIMARC_LENGTH_SYMBOL
1070
   379
1070
     2
1001
ACAD_DSTYLE_DIMEXT_LENGTH
1070
   378
1040
1.25
1001
ACAD_DSTYLE_DIMJOGGED_JOGANGLE_SYMBOL
1070
   384
1040
1.570796326794896
  0
DIMSTYLE
105
53D
330
A
100
AcDbSymbolTableRecord
100
AcDbDimStyleTableRecord
  2
FREE
 70
     0
 41
2.5
 42
0.25
 43
0.2
 44
1.25
 73
     0
 74
     0
 77
     3
 78
     8
 79
     2
140
3.0
141
0.0
143
0.03937007874016
147
0.625
171
     3
172
     1
178
     4
179
     1
271
     2
272
     2
274
     3
283
     0
284
     8
288
     1
289
     0
340
55
341
49E
342
49E
1001
ACAD_DSTYLE_DIMBREAK
1070
   391
1040
3.75
1001
ACAD_DSTYLE_DIMJAG
1070
   388
1040
1.5
1001
ACAD_DSTYLE_DIMTALN
1070
   392
1070
     0
1001
ACAD_DSTYLE_DIMARC_LENGTH_SYMBOL
1070
   379
1070
     2
1001
ACAD_DSTYLE_DIMEXT_LENGTH
1070
   378
1040
1.25
1001
ACAD_DSTYLE_DIMJOGGED_JOGANGLE_SYMBOL
1070
   384
1040
1.570796326794896
  0
ENDTAB
  0
TABLE
  2
BLOCK_RECORD
  5
1
330
0
100
AcDbSymbolTable
 70
    14
  0
BLOCK_RECORD
  5
6B
102
{ACAD_XDICTIONARY
360
73D
102
}
330
1
100
AcDbSymbolTableRecord
100
AcDbBlockTableRecord
  2
*Model_Space
340
6E
  0
BLOCK_RECORD
  5
67
330
1
100
AcDbSymbolTableRecord
100
AcDbBlockTableRecord
  2
*Paper_Space
340
6A
  0
BLOCK_RECORD
  5
49E
330
1
100
AcDbSymbolTableRecord
100
AcDbBlockTableRecord
  2
_Open30
340
0
102
{BLKREFS
331
61E
331
61F
331
629
331
62A
331
634
331
635
331
63F
331
640
331
64A
331
64B
331
655
331
656
331
660
331
661
331
66B
331
66C
331
676
331
677
331
67F
331
680
331
722
331
723
331
72B
331
72C
331
734
331
735
102
}
  0
BLOCK_RECORD
  5
58F
330
1
100
AcDbSymbolTableRecord
100
AcDbBlockTableRecord
  2
*D1
340
0
  0
BLOCK_RECORD
  5
59D
330
1
100
AcDbSymbolTableRecord
100
AcDbBlockTableRecord
  2
*D2
340
0
  0
BLOCK_RECORD
  5
5AB
330
1
100
AcDbSymbolTableRecord
100
AcDbBlockTableRecord
  2
*D3
340
0
  0
BLOCK_RECORD
  5
5B9
330
1
100
AcDbSymbolTableRecord
100
AcDbBlockTableRecord
  2
*D4
340
0
  0
BLOCK_RECORD
  5
5C7
330
1
100
AcDbSymbolTableRecord
100
AcDbBlockTableRecord
  2
*D5
340
0
  0
BLOCK_RECORD
  5
5D5
330
1
100
AcDbSymbolTableRecord
100
AcDbBlockTableRecord
  2
*D6
340
0
  0
BLOCK_RECORD
  5
5E3
330
1
100
AcDbSymbolTableRecord
100
AcDbBlockTableRecord
  2
*D7
340
0
  0
BLOCK_RECORD
  5
5F1
330
1
100
AcDbSymbolTableRecord
100
AcDbBlockTableRecord
  2
*D8
340
0
  0
BLOCK_RECORD
  5
5FF
330
1
100
AcDbSymbolTableRecord
100
AcDbBlockTableRecord
  2
*D9
340
0
  0
BLOCK_RECORD
  5
60D
330
1
100
AcDbSymbolTableRecord
100
AcDbBlockTableRecord
  2
*D10
340
0
  0
BLOCK_RECORD
  5
68D
330
1
100
AcDbSymbolTableRecord
100
AcDbBlockTableRecord
  2
*D11
340
0
  0
BLOCK_RECORD
  5
699
330
1
100
AcDbSymbolTableRecord
100
AcDbBlockTableRecord
  2
*D12
340
0
  0
BLOCK_RECORD
  5
6A5
330
1
100
AcDbSymbolTableRecord
100
AcDbBlockTableRecord
  2
*D13
340
0
  0
ENDTAB
  0
ENDSEC
  0
SECTION
  2
BLOCKS
  0
BLOCK
  5
6C
330
6B
100
AcDbEntity
  8
0
100
AcDbBlockBegin
  2
*Model_Space
 70
     0
 10
0.0
 20
0.0
 30
0.0
  3
*Model_Space
  1

  0
ENDBLK
  5
6D
330
6B
100
AcDbEntity
  8
0
100
AcDbBlockEnd
  0
BLOCK
  5
68
330
67
100
AcDbEntity
 67
     1
  8
0
100
AcDbBlockBegin
  2
*Paper_Space
 70
     0
 10
0.0
 20
0.0
 30
0.0
  3
*Paper_Space
  1

  0
ENDBLK
  5
69
330
67
100
AcDbEntity
 67
     1
  8
0
100
AcDbBlockEnd
  0
BLOCK
  5
49F
330
49E
100
AcDbEntity
  8
0
100
AcDbBlockBegin
  2
_Open30
 70
     0
 10
0.0
 20
0.0
 30
0.0
  3
_Open30
  1

  0
LINE
  5
4A0
330
49E
100
AcDbEntity
  8
0
  6
ByBlock
 62
     0
370
    -2
100
AcDbLine
 10
-1.0
 20
0.267949
 30
0.0
 11
0.0
 21
0.0
 31
0.0
  0
LINE
  5
4A1
330
49E
100
AcDbEntity
  8
0
  6
ByBlock
 62
     0
370
    -2
100
AcDbLine
 10
0.0
 20
0.0
 30
0.0
 11
-1.0
 21
-0.267949
 31
0.0
  0
LINE
  5
4A2
330
49E
100
AcDbEntity
  8
0
  6
ByBlock
 62
     0
370
    -2
100
AcDbLine
 10
0.0
 20
0.0
 30
0.0
 11
-1.0
 21
0.0
 31
0.0
  0
ENDBLK
  5
4A3
330
49E
100
AcDbEntity
  8
0
100
AcDbBlockEnd
  0
BLOCK
  5
590
330
58F
100
AcDbEntity
  8
0
100
AcDbBlockBegin
  2
*D1
 70
     1
 10
0.0
 20
0.0
 30
0.0
  3
*D1
  1

  0
LINE
  5
619
330
58F
100
AcDbEntity
  8
0
 62
     0
370
    -2
100
AcDbLine
 10
1257.680917559229
 20
487.7540054441205
 30
0.0
 11
1257.680917559229
 21
484.8443740221116
 31
0.0
  0
LINE
  5
61A
330
58F
100
AcDbEntity
  8
0
 62
     0
370
    -2
100
AcDbLine
 10
1255.223730505109
 20
487.7540054441205
 30
0.0
 11
1255.223730505109
 21
484.8443740221116
 31
0.0
  0
LINE
  5
61B
330
58F
100
AcDbEntity
  8
0
 62
     0
370
    -2
100
AcDbLine
 10
1260.180917559229
 20
486.0943740221116
 30
0.0
 11
1262.680917559229
 21
486.0943740221116
 31
0.0
  0
LINE
  5
61C
330
58F
100
AcDbEntity
  8
0
 62
     0
370
    -2
100
AcDbLine
 10
1252.723730505109
 20
486.0943740221116
 30
0.0
 11
1239.973730505109
 21
486.0943740221116
 31
0.0
  0
LINE
  5
61D
330
58F
100
AcDbEntity
  8
0
 62
     0
370
    -2
100
AcDbLine
 10
1257.680917559229
 20
486.0943740221116
 30
0.0
 11
1255.223730505109
 21
486.0943740221116
 31
0.0
  0
INSERT
  5
61E
330
58F
100
AcDbEntity
  8
0
 62
     0
370
    -2
100
AcDbBlockReference
  2
_Open30
 10
1257.680917559229
 20
486.0943740221116
 30
0.0
 41
2.5
 42
2.5
 43
2.5
 50
180.0
  0
INSERT
  5
61F
330
58F
100
AcDbEntity
  8
0
 62
     0
370
    -2
100
AcDbBlockReference
  2
_Open30
 10
1255.223730505109
 20
486.0943740221116
 30
0.0
 41
2.5
 42
2.5
 43
2.5
  0
MTEXT
  5
620
330
58F
100
AcDbEntity
  8
0
 62
     4
100
AcDbMText
 10
1245.098730505109
 20
488.2193740221116
 30
0.0
 40
3.0
 41
0.0
 71
     5
 72
     1
  1
2.46
 73
     1
 44
1.0
1001
ACAD
1000
MTEXTBEGIN
1070
    73
1070
     1
1070
    44
1040
1.0
1070
    74
1070
     0
1000
MTEXTEND
  0
POINT
  5
621
330
58F
100
AcDbEntity
  8
Defpoints
 62
     0
100
AcDbPoint
 10
1257.680917559229
 20
488.0040054441204
 30
0.0
  0
POINT
  5
622
330
58F
100
AcDbEntity
  8
Defpoints
 62
     0
100
AcDbPoint
 10
1255.223730505109
 20
488.0040054441204
 30
0.0
  0
POINT
  5
623
330
58F
100
AcDbEntity
  8
Defpoints
 62
     0
100
AcDbPoint
 10
1255.223730505109
 20
486.0943740221116
 30
0.0
  0
ENDBLK
  5
591
330
58F
100
AcDbEntity
  8
0
100
AcDbBlockEnd
  0
BLOCK
  5
59E
330
59D
100
AcDbEntity
  8
0
100
AcDbBlockBegin
  2
*D2
 70
     1
 10
0.0
 20
0.0
 30
0.0
  3
*D2
  1

  0
LINE
  5
624
330
59D
100
AcDbEntity
  8
0
 62
     0
370
    -2
100
AcDbLine
 10
1259.319042465302
 20
482.2979158713581
 30
0.0
 11
1259.319042465302
 21
479.7520238018948
 31
0.0
  0
LINE
  5
625
330
59D
100
AcDbEntity
  8
0
 62
     0
370
    -2
100
AcDbLine
 10
1256.224806667159
 20
482.2979158713581
 30
0.0
 11
1256.224806667159
 21
479.7520238018948
 31
0.0
  0
LINE
  5
626
330
59D
100
AcDbEntity
  8
0
 62
     0
370
    -2
100
AcDbLine
 10
1261.819042465302
 20
481.0020238018948
 30
0.0
 11
1264.319042465303
 21
481.0020238018948
 31
0.0
  0
LINE
  5
627
330
59D
100
AcDbEntity
  8
0
 62
     0
370
    -2
100
AcDbLine
 10
1253.72480666716
 20
481.0020238018948
 30
0.0
 11
1239.891473333826
 21
481.0020238018948
 31
0.0
  0
LINE
  5
628
330
59D
100
AcDbEntity
  8
0
 62
     0
370
    -2
100
AcDbLine
 10
1259.319042465302
 20
481.0020238018948
 30
0.0
 11
1256.224806667159
 21
481.0020238018948
 31
0.0
  0
INSERT
  5
629
330
59D
100
AcDbEntity
  8
0
 62
     0
370
    -2
100
AcDbBlockReference
  2
_Open30
 10
1259.319042465302
 20
481.0020238018948
 30
0.0
 41
2.5
 42
2.5
 43
2.5
 50
180.0
  0
INSERT
  5
62A
330
59D
100
AcDbEntity
  8
0
 62
     0
370
    -2
100
AcDbBlockReference
  2
_Open30
 10
1256.224806667159
 20
481.0020238018948
 30
0.0
 41
2.5
 42
2.5
 43
2.5
  0
MTEXT
  5
62B
330
59D
100
AcDbEntity
  8
0
 62
     4
100
AcDbMText
 10
1245.099806667159
 20
482.8770238018948
 30
0.0
 40
2.5
 41
0.0
 71
     5
 72
     1
  1
15.47
  7
高2.5
 73
     1
 44
1.0
1001
ACAD
1000
MTEXTBEGIN
1070
    73
1070
     1
1070
    44
1040
1.0
1070
    74
1070
     0
1000
MTEXTEND
  0
POINT
  5
62C
330
59D
100
AcDbEntity
  8
Defpoints
 62
     0
100
AcDbPoint
 10
1259.319042465302
 20
482.5479158713581
 30
0.0
  0
POINT
  5
62D
330
59D
100
AcDbEntity
  8
Defpoints
 62
     0
100
AcDbPoint
 10
1256.224806667159
 20
482.5479158713581
 30
0.0
  0
POINT
  5
62E
330
59D
100
AcDbEntity
  8
Defpoints
 62
     0
100
AcDbPoint
 10
1256.224806667159
 20
481.0020238018948
 30
0.0
  0
ENDBLK
  5
59F
330
59D
100
AcDbEntity
  8
0
100
AcDbBlockEnd
  0
BLOCK
  5
5AC
330
5AB
100
AcDbEntity
  8
0
100
AcDbBlockBegin
  2
*D3
 70
     1
 10
0.0
 20
0.0
 30
0.0
  3
*D3
  1

  0
LINE
  5
62F
330
5AB
100
AcDbEntity
  8
0
 62
     0
370
    -2
100
AcDbLine
 10
1261.048174073388
 20
476.8418261555116
 30
0.0
 11
1261.048174073388
 21
474.5687384931442
 31
0.0
  0
LINE
  5
630
330
5AB
100
AcDbEntity
  8
0
 62
     0
370
    -2
100
AcDbLine
 10
1257.043869120196
 20
476.8418261555116
 30
0.0
 11
1257.043869120196
 21
474.5687384931442
 31
0.0
  0
LINE
  5
631
330
5AB
100
AcDbEntity
  8
0
 62
     0
370
    -2
100
AcDbLine
 10
1263.548174073388
 20
475.8187384931442
 30
0.0
 11
1266.048174073388
 21
475.8187384931442
 31
0.0
  0
LINE
  5
632
330
5AB
100
AcDbEntity
  8
0
 62
     0
370
    -2
100
AcDbLine
 10
1254.543869120196
 20
475.8187384931442
 30
0.0
 11
1242.793869120196
 21
475.8187384931442
 31
0.0
  0
LINE
  5
633
330
5AB
100
AcDbEntity
  8
0
 62
     0
370
    -2
100
AcDbLine
 10
1261.048174073388
 20
475.8187384931442
 30
0.0
 11
1257.043869120196
 21
475.8187384931442
 31
0.0
  0
INSERT
  5
634
330
5AB
100
AcDbEntity
  8
0
 62
     0
370
    -2
100
AcDbBlockReference
  2
_Open30
 10
1261.048174073388
 20
475.8187384931442
 30
0.0
 41
2.5
 42
2.5
 43
2.5
 50
180.0
  0
INSERT
  5
635
330
5AB
100
AcDbEntity
  8
0
 62
     0
370
    -2
100
AcDbBlockReference
  2
_Open30
 10
1257.043869120196
 20
475.8187384931442
 30
0.0
 41
2.5
 42
2.5
 43
2.5
  0
MTEXT
  5
636
330
5AB
100
AcDbEntity
  8
0
 62
     4
100
AcDbMText
 10
1247.418869120196
 20
478.0437384931444
 30
0.0
 40
3.2
 41
0.0
 71
     5
 72
     1
  1
8.01
  7
高3.2
 73
     1
 44
1.0
1001
ACAD
1000
MTEXTBEGIN
1070
    73
1070
     1
1070
    44
1040
1.0
1070
    74
1070
     0
1000
MTEXTEND
  0
POINT
  5
637
330
5AB
100
AcDbEntity
  8
Defpoints
 62
     0
100
AcDbPoint
 10
1261.048174073388
 20
477.0918261555116
 30
0.0
  0
POINT
  5
638
330
5AB
100
AcDbEntity
  8
Defpoints
 62
     0
100
AcDbPoint
 10
1257.043869120196
 20
477.0918261555116
 30
0.0
  0
POINT
  5
639
330
5AB
100
AcDbEntity
  8
Defpoints
 62
     0
100
AcDbPoint
 10
1257.043869120196
 20
475.8187384931442
 30
0.0
  0
ENDBLK
  5
5AD
330
5AB
100
AcDbEntity
  8
0
100
AcDbBlockEnd
  0
BLOCK
  5
5BA
330
5B9
100
AcDbEntity
  8
0
100
AcDbBlockBegin
  2
*D4
 70
     1
 10
0.0
 20
0.0
 30
0.0
  3
*D4
  1

  0
LINE
  5
63A
330
5B9
100
AcDbEntity
  8
0
 62
     0
370
    -2
100
AcDbLine
 10
1260.957167371376
 20
471.56760618748
 30
0.0
 11
1260.957167371376
 21
469.7491926800235
 31
0.0
  0
LINE
  5
63B
330
5B9
100
AcDbEntity
  8
0
 62
     0
370
    -2
100
AcDbLine
 10
1256.224806667159
 20
471.56760618748
 30
0.0
 11
1256.224806667159
 21
469.7491926800235
 31
0.0
  0
LINE
  5
63C
330
5B9
100
AcDbEntity
  8
0
 62
     0
370
    -2
100
AcDbLine
 10
1263.457167371376
 20
470.9991926800237
 30
0.0
 11
1265.957167371376
 21
470.9991926800237
 31
0.0
  0
LINE
  5
63D
330
5B9
100
AcDbEntity
  8
0
 62
     0
370
    -2
100
AcDbLine
 10
1253.72480666716
 20
470.9991926800237
 30
0.0
 11
1231.974806667159
 21
470.9991926800237
 31
0.0
  0
LINE
  5
63E
330
5B9
100
AcDbEntity
  8
0
 62
     0
370
    -2
100
AcDbLine
 10
1260.957167371376
 20
470.9991926800237
 30
0.0
 11
1256.224806667159
 21
470.9991926800237
 31
0.0
  0
INSERT
  5
63F
330
5B9
100
AcDbEntity
  8
0
 62
     0
370
    -2
100
AcDbBlockReference
  2
_Open30
 10
1260.957167371376
 20
470.9991926800237
 30
0.0
 41
2.5
 42
2.5
 43
2.5
 50
180.0
  0
INSERT
  5
640
330
5B9
100
AcDbEntity
  8
0
 62
     0
370
    -2
100
AcDbBlockReference
  2
_Open30
 10
1256.224806667159
 20
470.9991926800237
 30
0.0
 41
2.5
 42
2.5
 43
2.5
  0
MTEXT
  5
641
330
5B9
100
AcDbEntity
  8
0
 62
     4
100
AcDbMText
 10
1241.599806667159
 20
473.8741926800236
 30
0.0
 40
4.5
 41
0.0
 71
     5
 72
     1
  1
47.32
  7
高4.5
 73
     1
 44
1.0
1001
ACAD
1000
MTEXTBEGIN
1070
    73
1070
     1
1070
    44
1040
1.0
1070
    74
1070
     0
1000
MTEXTEND
  0
POINT
  5
642
330
5B9
100
AcDbEntity
  8
Defpoints
 62
     0
100
AcDbPoint
 10
1260.957167371376
 20
471.81760618748
 30
0.0
  0
POINT
  5
643
330
5B9
100
AcDbEntity
  8
Defpoints
 62
     0
100
AcDbPoint
 10
1256.224806667159
 20
471.81760618748
 30
0.0
  0
POINT
  5
644
330
5B9
100
AcDbEntity
  8
Defpoints
 62
     0
100
AcDbPoint
 10
1256.224806667159
 20
470.9991926800237
 30
0.0
  0
ENDBLK
  5
5BB
330
5B9
100
AcDbEntity
  8
0
100
AcDbBlockEnd
  0
BLOCK
  5
5C8
330
5C7
100
AcDbEntity
  8
0
100
AcDbBlockBegin
  2
*D5
 70
     1
 10
0.0
 20
0.0
 30
0.0
  3
*D5
  1

  0
LINE
  5
645
330
5C7
100
AcDbEntity
  8
0
 62
     0
370
    -2
100
AcDbLine
 10
1282.434803639383
 20
487.7540054441205
 30
0.0
 11
1282.434803639383
 21
484.8443740221116
 31
0.0
  0
LINE
  5
646
330
5C7
100
AcDbEntity
  8
0
 62
     0
370
    -2
100
AcDbLine
 10
1279.977616585263
 20
487.7540054441205
 30
0.0
 11
1279.977616585263
 21
484.8443740221116
 31
0.0
  0
LINE
  5
647
330
5C7
100
AcDbEntity
  8
0
 62
     0
370
    -2
100
AcDbLine
 10
1284.934803639383
 20
486.0943740221116
 30
0.0
 11
1287.434803639382
 21
486.0943740221116
 31
0.0
  0
LINE
  5
648
330
5C7
100
AcDbEntity
  8
0
 62
     0
370
    -2
100
AcDbLine
 10
1277.477616585263
 20
486.0943740221116
 30
0.0
 11
1255.877616585263
 21
486.0943740221116
 31
0.0
  0
LINE
  5
649
330
5C7
100
AcDbEntity
  8
0
 62
     0
370
    -2
100
AcDbLine
 10
1282.434803639383
 20
486.0943740221116
 30
0.0
 11
1279.977616585263
 21
486.0943740221116
 31
0.0
  0
INSERT
  5
64A
330
5C7
100
AcDbEntity
  8
0
 62
     0
370
    -2
100
AcDbBlockReference
  2
_Open30
 10
1282.434803639383
 20
486.0943740221116
 30
0.0
 41
2.5
 42
2.5
 43
2.5
 50
180.0
  0
INSERT
  5
64B
330
5C7
100
AcDbEntity
  8
0
 62
     0
370
    -2
100
AcDbBlockReference
  2
_Open30
 10
1279.977616585263
 20
486.0943740221116
 30
0.0
 41
2.5
 42
2.5
 43
2.5
  0
MTEXT
  5
64C
330
5C7
100
AcDbEntity
  8
0
 62
     4
100
AcDbMText
 10
1265.427616585263
 20
489.8693740221116
 30
0.0
 40
6.299999999999998
 41
0.0
 71
     5
 72
     1
  1
0.25
  7
高6.3
 73
     1
 44
1.0
1001
ACAD
1000
MTEXTBEGIN
1070
    73
1070
     1
1070
    44
1040
1.0
1070
    74
1070
     0
1000
MTEXTEND
  0
POINT
  5
64D
330
5C7
100
AcDbEntity
  8
Defpoints
 62
     0
100
AcDbPoint
 10
1282.434803639383
 20
488.0040054441204
 30
0.0
  0
POINT
  5
64E
330
5C7
100
AcDbEntity
  8
Defpoints
 62
     0
100
AcDbPoint
 10
1279.977616585263
 20
488.0040054441204
 30
0.0
  0
POINT
  5
64F
330
5C7
100
AcDbEntity
  8
Defpoints
 62
     0
100
AcDbPoint
 10
1279.977616585263
 20
486.0943740221116
 30
0.0
  0
ENDBLK
  5
5C9
330
5C7
100
AcDbEntity
  8
0
100
AcDbBlockEnd
  0
BLOCK
  5
5D6
330
5D5
100
AcDbEntity
  8
0
100
AcDbBlockBegin
  2
*D6
 70
     1
 10
0.0
 20
0.0
 30
0.0
  3
*D6
  1

  0
LINE
  5
650
330
5D5
100
AcDbEntity
  8
0
 62
     0
370
    -2
100
AcDbLine
 10
1284.072928545456
 20
482.2979158713581
 30
0.0
 11
1284.072928545456
 21
479.7520238018948
 31
0.0
  0
LINE
  5
651
330
5D5
100
AcDbEntity
  8
0
 62
     0
370
    -2
100
AcDbLine
 10
1280.978692747313
 20
482.2979158713581
 30
0.0
 11
1280.978692747313
 21
479.7520238018948
 31
0.0
  0
LINE
  5
652
330
5D5
100
AcDbEntity
  8
0
 62
     0
370
    -2
100
AcDbLine
 10
1286.572928545456
 20
481.0020238018948
 30
0.0
 11
1289.072928545456
 21
481.0020238018948
 31
0.0
  0
LINE
  5
653
330
5D5
100
AcDbEntity
  8
0
 62
     0
370
    -2
100
AcDbLine
 10
1278.478692747313
 20
481.0020238018948
 30
0.0
 11
1266.478692747313
 21
481.0020238018948
 31
0.0
  0
LINE
  5
654
330
5D5
100
AcDbEntity
  8
0
 62
     0
370
    -2
100
AcDbLine
 10
1284.072928545456
 20
481.0020238018948
 30
0.0
 11
1280.978692747313
 21
481.0020238018948
 31
0.0
  0
INSERT
  5
655
330
5D5
100
AcDbEntity
  8
0
 62
     0
370
    -2
100
AcDbBlockReference
  2
_Open30
 10
1284.072928545456
 20
481.0020238018948
 30
0.0
 41
2.5
 42
2.5
 43
2.5
 50
180.0
  0
INSERT
  5
656
330
5D5
100
AcDbEntity
  8
0
 62
     0
370
    -2
100
AcDbBlockReference
  2
_Open30
 10
1280.978692747313
 20
481.0020238018948
 30
0.0
 41
2.5
 42
2.5
 43
2.5
  0
MTEXT
  5
657
330
5D5
100
AcDbEntity
  8
0
 62
     4
100
AcDbMText
 10
1271.103692747313
 20
483.1270238018946
 30
0.0
 40
3.0
 41
0.0
 71
     5
 72
     1
  1
1.55
 73
     1
 44
1.0
1001
ACAD
1000
MTEXTBEGIN
1070
    73
1070
     1
1070
    44
1040
1.0
1070
    74
1070
     0
1000
MTEXTEND
  0
POINT
  5
658
330
5D5
100
AcDbEntity
  8
Defpoints
 62
     0
100
AcDbPoint
 10
1284.072928545456
 20
482.5479158713581
 30
0.0
  0
POINT
  5
659
330
5D5
100
AcDbEntity
  8
Defpoints
 62
     0
100
AcDbPoint
 10
1280.978692747313
 20
482.5479158713581
 30
0.0
  0
POINT
  5
65A
330
5D5
100
AcDbEntity
  8
Defpoints
 62
     0
100
AcDbPoint
 10
1280.978692747313
 20
481.0020238018948
 30
0.0
  0
ENDBLK
  5
5D7
330
5D5
100
AcDbEntity
  8
0
100
AcDbBlockEnd
  0
BLOCK
  5
5E4
330
5E3
100
AcDbEntity
  8
0
100
AcDbBlockBegin
  2
*D7
 70
     1
 10
0.0
 20
0.0
 30
0.0
  3
*D7
  1

  0
LINE
  5
65B
330
5E3
100
AcDbEntity
  8
0
 62
     0
370
    -2
100
AcDbLine
 10
1285.802060153542
 20
476.8418261555116
 30
0.0
 11
1285.802060153542
 21
474.5687384931442
 31
0.0
  0
LINE
  5
65C
330
5E3
100
AcDbEntity
  8
0
 62
     0
370
    -2
100
AcDbLine
 10
1281.79775520035
 20
476.8418261555116
 30
0.0
 11
1281.79775520035
 21
474.5687384931442
 31
0.0
  0
LINE
  5
65D
330
5E3
100
AcDbEntity
  8
0
 62
     0
370
    -2
100
AcDbLine
 10
1288.302060153542
 20
475.8187384931442
 30
0.0
 11
1290.802060153542
 21
475.8187384931442
 31
0.0
  0
LINE
  5
65E
330
5E3
100
AcDbEntity
  8
0
 62
     0
370
    -2
100
AcDbLine
 10
1279.29775520035
 20
475.8187384931442
 30
0.0
 11
1270.964421867017
 21
475.8187384931442
 31
0.0
  0
LINE
  5
65F
330
5E3
100
AcDbEntity
  8
0
 62
     0
370
    -2
100
AcDbLine
 10
1285.802060153542
 20
475.8187384931442
 30
0.0
 11
1281.79775520035
 21
475.8187384931442
 31
0.0
  0
INSERT
  5
660
330
5E3
100
AcDbEntity
  8
0
 62
     0
370
    -2
100
AcDbBlockReference
  2
_Open30
 10
1285.802060153542
 20
475.8187384931442
 30
0.0
 41
2.5
 42
2.5
 43
2.5
 50
180.0
  0
INSERT
  5
661
330
5E3
100
AcDbEntity
  8
0
 62
     0
370
    -2
100
AcDbBlockReference
  2
_Open30
 10
1281.79775520035
 20
475.8187384931442
 30
0.0
 41
2.5
 42
2.5
 43
2.5
  0
MTEXT
  5
662
330
5E3
100
AcDbEntity
  8
0
 62
     4
100
AcDbMText
 10
1273.42275520035
 20
477.4437384931442
 30
0.0
 40
2.0
 41
0.0
 71
     5
 72
     1
  1
0.8
  7
高2
 73
     1
 44
1.0
1001
ACAD
1000
MTEXTBEGIN
1070
    73
1070
     1
1070
    44
1040
1.0
1070
    74
1070
     0
1000
MTEXTEND
  0
POINT
  5
663
330
5E3
100
AcDbEntity
  8
Defpoints
 62
     0
100
AcDbPoint
 10
1285.802060153542
 20
477.0918261555116
 30
0.0
  0
POINT
  5
664
330
5E3
100
AcDbEntity
  8
Defpoints
 62
     0
100
AcDbPoint
 10
1281.79775520035
 20
477.0918261555116
 30
0.0
  0
POINT
  5
665
330
5E3
100
AcDbEntity
  8
Defpoints
 62
     0
100
AcDbPoint
 10
1281.79775520035
 20
475.8187384931442
 30
0.0
  0
ENDBLK
  5
5E5
330
5E3
100
AcDbEntity
  8
0
100
AcDbBlockEnd
  0
BLOCK
  5
5F2
330
5F1
100
AcDbEntity
  8
0
100
AcDbBlockBegin
  2
*D8
 70
     1
 10
0.0
 20
0.0
 30
0.0
  3
*D8
  1

  0
LINE
  5
666
330
5F1
100
AcDbEntity
  8
0
 62
     0
370
    -2
100
AcDbLine
 10
1285.711053451529
 20
471.56760618748
 30
0.0
 11
1285.711053451529
 21
469.7491926800235
 31
0.0
  0
LINE
  5
667
330
5F1
100
AcDbEntity
  8
0
 62
     0
370
    -2
100
AcDbLine
 10
1280.978692747313
 20
471.56760618748
 30
0.0
 11
1280.978692747313
 21
469.7491926800235
 31
0.0
  0
LINE
  5
668
330
5F1
100
AcDbEntity
  8
0
 62
     0
370
    -2
100
AcDbLine
 10
1288.211053451529
 20
470.9991926800237
 30
0.0
 11
1290.711053451529
 21
470.9991926800237
 31
0.0
  0
LINE
  5
669
330
5F1
100
AcDbEntity
  8
0
 62
     0
370
    -2
100
AcDbLine
 10
1278.478692747313
 20
470.9991926800237
 30
0.0
 11
1263.728692747313
 21
470.9991926800237
 31
0.0
  0
LINE
  5
66A
330
5F1
100
AcDbEntity
  8
0
 62
     0
370
    -2
100
AcDbLine
 10
1285.711053451529
 20
470.9991926800237
 30
0.0
 11
1280.978692747313
 21
470.9991926800237
 31
0.0
  0
INSERT
  5
66B
330
5F1
100
AcDbEntity
  8
0
 62
     0
370
    -2
100
AcDbBlockReference
  2
_Open30
 10
1285.711053451529
 20
470.9991926800237
 30
0.0
 41
2.5
 42
2.5
 43
2.5
 50
180.0
  0
INSERT
  5
66C
330
5F1
100
AcDbEntity
  8
0
 62
     0
370
    -2
100
AcDbBlockReference
  2
_Open30
 10
1280.978692747313
 20
470.9991926800237
 30
0.0
 41
2.5
 42
2.5
 43
2.5
  0
MTEXT
  5
66D
330
5F1
100
AcDbEntity
  8
0
 62
     4
100
AcDbMText
 10
1269.853692747313
 20
473.1241926800236
 30
0.0
 40
3.0
 41
0.0
 71
     5
 72
     1
  1
18.93
 73
     1
 44
1.0
1001
ACAD
1000
MTEXTBEGIN
1070
    73
1070
     1
1070
    44
1040
1.0
1070
    74
1070
     0
1000
MTEXTEND
  0
POINT
  5
66E
330
5F1
100
AcDbEntity
  8
Defpoints
 62
     0
100
AcDbPoint
 10
1285.711053451529
 20
471.81760618748
 30
0.0
  0
POINT
  5
66F
330
5F1
100
AcDbEntity
  8
Defpoints
 62
     0
100
AcDbPoint
 10
1280.978692747313
 20
471.81760618748
 30
0.0
  0
POINT
  5
670
330
5F1
100
AcDbEntity
  8
Defpoints
 62
     0
100
AcDbPoint
 10
1280.978692747313
 20
470.9991926800237
 30
0.0
  0
ENDBLK
  5
5F3
330
5F1
100
AcDbEntity
  8
0
100
AcDbBlockEnd
  0
BLOCK
  5
600
330
5FF
100
AcDbEntity
  8
0
100
AcDbBlockBegin
  2
*D9
 70
     1
 10
0.0
 20
0.0
 30
0.0
  3
*D9
  1

  0
LINE
  5
671
330
5FF
100
AcDbEntity
  8
0
 62
     0
370
    -2
100
AcDbLine
 10
1282.906626600391
 20
466.5117659808902
 30
0.0
 11
1282.906626600391
 21
464.2018449040146
 31
0.0
  0
LINE
  5
672
330
5FF
100
AcDbEntity
  8
0
 62
     0
370
    -2
100
AcDbLine
 10
1278.317951398243
 20
466.5117659808902
 30
0.0
 11
1278.317951398243
 21
464.2018449040146
 31
0.0
  0
LINE
  5
673
330
5FF
100
AcDbEntity
  8
0
 62
     0
370
    -2
100
AcDbLine
 10
1285.406626600391
 20
465.4518449040145
 30
0.0
 11
1287.906626600391
 21
465.4518449040145
 31
0.0
  0
LINE
  5
674
330
5FF
100
AcDbEntity
  8
0
 62
     0
370
    -2
100
AcDbLine
 10
1275.817951398243
 20
465.4518449040145
 30
0.0
 11
1261.067951398243
 21
465.4518449040145
 31
0.0
  0
LINE
  5
675
330
5FF
100
AcDbEntity
  8
0
 62
     0
370
    -2
100
AcDbLine
 10
1282.906626600391
 20
465.4518449040145
 30
0.0
 11
1278.317951398243
 21
465.4518449040145
 31
0.0
  0
INSERT
  5
676
330
5FF
100
AcDbEntity
  8
0
 62
     0
370
    -2
100
AcDbBlockReference
  2
_Open30
 10
1282.906626600391
 20
465.4518449040145
 30
0.0
 41
2.5
 42
2.5
 43
2.5
 50
180.0
  0
INSERT
  5
677
330
5FF
100
AcDbEntity
  8
0
 62
     0
370
    -2
100
AcDbBlockReference
  2
_Open30
 10
1278.317951398243
 20
465.4518449040145
 30
0.0
 41
2.5
 42
2.5
 43
2.5
  0
MTEXT
  5
678
330
5FF
100
AcDbEntity
  8
0
 62
     4
100
AcDbMText
 10
1267.192951398243
 20
467.5768449040146
 30
0.0
 40
3.0
 41
0.0
 71
     5
 72
     1
  1
13.77
 73
     1
 44
1.0
1001
ACAD
1000
MTEXTBEGIN
1070
    73
1070
     1
1070
    44
1040
1.0
1070
    74
1070
     0
1000
MTEXTEND
  0
POINT
  5
679
330
5FF
100
AcDbEntity
  8
Defpoints
 62
     0
100
AcDbPoint
 10
1282.906626600391
 20
466.7617659808901
 30
0.0
  0
POINT
  5
67A
330
5FF
100
AcDbEntity
  8
Defpoints
 62
     0
100
AcDbPoint
 10
1278.317951398243
 20
466.7617659808901
 30
0.0
  0
POINT
  5
67B
330
5FF
100
AcDbEntity
  8
Defpoints
 62
     0
100
AcDbPoint
 10
1278.317951398243
 20
465.4518449040145
 30
0.0
  0
ENDBLK
  5
601
330
5FF
100
AcDbEntity
  8
0
100
AcDbBlockEnd
  0
BLOCK
  5
60E
330
60D
100
AcDbEntity
  8
0
100
AcDbBlockBegin
  2
*D10
 70
     1
 10
0.0
 20
0.0
 30
0.0
  3
*D10
  1

  0
LINE
  5
67C
330
60D
100
AcDbEntity
  8
0
 62
     0
370
    -2
100
AcDbLine
 10
1275.810343767241
 20
497.4412572991646
 30
0.0
 11
1275.810343767241
 21
504.8377907771023
 31
0.0
  0
LINE
  5
67D
330
60D
100
AcDbEntity
  8
0
 62
     0
370
    -2
100
AcDbLine
 10
1265.871869397751
 20
497.4412572991646
 30
0.0
 11
1265.871869397751
 21
504.8377907771023
 31
0.0
  0
LINE
  5
67E
330
60D
100
AcDbEntity
  8
0
 62
     0
370
    -2
100
AcDbLine
 10
1273.310343767241
 20
503.5877907771022
 30
0.0
 11
1268.371869397751
 21
503.5877907771022
 31
0.0
  0
INSERT
  5
67F
330
60D
100
AcDbEntity
  8
0
 62
     0
370
    -2
100
AcDbBlockReference
  2
_Open30
 10
1275.810343767241
 20
503.5877907771022
 30
0.0
 41
2.5
 42
2.5
 43
2.5
  0
INSERT
  5
680
330
60D
100
AcDbEntity
  8
0
 62
     0
370
    -2
100
AcDbBlockReference
  2
_Open30
 10
1265.871869397751
 20
503.5877907771022
 30
0.0
 41
2.5
 42
2.5
 43
2.5
 50
180.0
  0
MTEXT
  5
681
330
60D
100
AcDbEntity
  8
0
 62
     4
100
AcDbMText
 10
1270.841106582496
 20
506.6627907771022
 30
0.0
 40
3.0
 41
0.0
 71
     5
 72
     1
  1
9.94\H0.7X;\S+0^ -0.02;
 73
     1
 44
1.0
1001
ACAD
1000
MTEXTBEGIN
1070
    73
1070
     1
1070
    44
1040
1.0
1070
    74
1070
     0
1000
MTEXTEND
  0
POINT
  5
682
330
60D
100
AcDbEntity
  8
Defpoints
 62
     0
100
AcDbPoint
 10
1275.810343767241
 20
497.1912572991645
 30
0.0
  0
POINT
  5
683
330
60D
100
AcDbEntity
  8
Defpoints
 62
     0
100
AcDbPoint
 10
1265.871869397751
 20
497.1912572991645
 30
0.0
  0
POINT
  5
684
330
60D
100
AcDbEntity
  8
Defpoints
 62
     0
100
AcDbPoint
 10
1265.871869397751
 20
503.5877907771022
 30
0.0
  0
ENDBLK
  5
60F
330
60D
100
AcDbEntity
  8
0
100
AcDbBlockEnd
  0
BLOCK
  5
68E
330
68D
100
AcDbEntity
  8
0
100
AcDbBlockBegin
  2
*D11
 70
     1
 10
0.0
 20
0.0
 30
0.0
  3
*D11
  1

  0
LINE
  5
71F
330
68D
100
AcDbEntity
  8
0
 62
     0
370
    -2
100
AcDbLine
 10
808.857242
 20
311.552493
 30
0.0
 11
808.857242
 21
287.0329759999999
 31
0.0
  0
LINE
  5
720
330
68D
100
AcDbEntity
  8
0
 62
     0
370
    -2
100
AcDbLine
 10
858.857242
 20
311.552493
 30
0.0
 11
858.857242
 21
287.0329759999999
 31
0.0
  0
LINE
  5
721
330
68D
100
AcDbEntity
  8
0
 62
     0
370
    -2
100
AcDbLine
 10
811.357242
 20
288.2829759999999
 30
0.0
 11
856.3572419999999
 21
288.2829759999999
 31
0.0
  0
INSERT
  5
722
330
68D
100
AcDbEntity
  8
0
 62
     0
370
    -2
100
AcDbBlockReference
  2
_Open30
 10
808.857242
 20
288.2829759999999
 30
0.0
 41
2.5
 42
2.5
 43
2.5
 50
180.0
  0
INSERT
  5
723
330
68D
100
AcDbEntity
  8
0
 62
     0
370
    -2
100
AcDbBlockReference
  2
_Open30
 10
858.857242
 20
288.2829759999999
 30
0.0
 41
2.5
 42
2.5
 43
2.5
  0
MTEXT
  5
724
330
68D
100
AcDbEntity
  8
0
 62
     4
100
AcDbMText
 10
833.857242
 20
290.4079759999999
 30
0.0
 40
3.0
 41
0.0
 71
     5
 72
     1
  1
50
 73
     1
 44
1.0
1001
ACAD
1000
MTEXTBEGIN
1070
    73
1070
     1
1070
    44
1040
1.0
1070
    74
1070
     0
1000
MTEXTEND
  0
POINT
  5
725
330
68D
100
AcDbEntity
  8
Defpoints
 62
     0
100
AcDbPoint
 10
808.857242
 20
311.802493
 30
0.0
  0
POINT
  5
726
330
68D
100
AcDbEntity
  8
Defpoints
 62
     0
100
AcDbPoint
 10
858.857242
 20
311.802493
 30
0.0
  0
POINT
  5
727
330
68D
100
AcDbEntity
  8
Defpoints
 62
     0
100
AcDbPoint
 10
858.857242
 20
288.2829759999999
 30
0.0
  0
ENDBLK
  5
68F
330
68D
100
AcDbEntity
  8
0
100
AcDbBlockEnd
  0
BLOCK
  5
69A
330
699
100
AcDbEntity
  8
0
100
AcDbBlockBegin
  2
*D12
 70
     1
 10
0.0
 20
0.0
 30
0.0
  3
*D12
  1

  0
LINE
  5
728
330
699
100
AcDbEntity
  8
0
 62
     0
370
    -2
100
AcDbLine
 10
676.717995
 20
318.552493
 30
0.0
 11
676.717995
 21
285.528023
 31
0.0
  0
LINE
  5
729
330
699
100
AcDbEntity
  8
0
 62
     0
370
    -2
100
AcDbLine
 10
758.7179949999998
 20
318.552493
 30
0.0
 11
758.7179949999998
 21
285.528023
 31
0.0
  0
LINE
  5
72A
330
699
100
AcDbEntity
  8
0
 62
     0
370
    -2
100
AcDbLine
 10
679.2179949999999
 20
286.778023
 30
0.0
 11
756.2179949999999
 21
286.778023
 31
0.0
  0
INSERT
  5
72B
330
699
100
AcDbEntity
  8
0
 62
     0
370
    -2
100
AcDbBlockReference
  2
_Open30
 10
676.717995
 20
286.778023
 30
0.0
 41
2.5
 42
2.5
 43
2.5
 50
180.0
  0
INSERT
  5
72C
330
699
100
AcDbEntity
  8
0
 62
     0
370
    -2
100
AcDbBlockReference
  2
_Open30
 10
758.7179949999998
 20
286.778023
 30
0.0
 41
2.5
 42
2.5
 43
2.5
  0
MTEXT
  5
72D
330
699
100
AcDbEntity
  8
0
 62
     4
100
AcDbMText
 10
717.717995
 20
288.903023
 30
0.0
 40
3.0
 41
0.0
 71
     5
 72
     1
  1
82
 73
     1
 44
1.0
1001
ACAD
1000
MTEXTBEGIN
1070
    73
1070
     1
1070
    44
1040
1.0
1070
    74
1070
     0
1000
MTEXTEND
  0
POINT
  5
72E
330
699
100
AcDbEntity
  8
Defpoints
 62
     0
100
AcDbPoint
 10
676.717995
 20
318.802493
 30
0.0
  0
POINT
  5
72F
330
699
100
AcDbEntity
  8
Defpoints
 62
     0
100
AcDbPoint
 10
758.7179949999998
 20
318.802493
 30
0.0
  0
POINT
  5
730
330
699
100
AcDbEntity
  8
Defpoints
 62
     0
100
AcDbPoint
 10
758.7179949999998
 20
286.778023
 30
0.0
  0
ENDBLK
  5
69B
330
699
100
AcDbEntity
  8
0
100
AcDbBlockEnd
  0
BLOCK
  5
6A6
330
6A5
100
AcDbEntity
  8
0
100
AcDbBlockBegin
  2
*D13
 70
     1
 10
0.0
 20
0.0
 30
0.0
  3
*D13
  1

  0
LINE
  5
731
330
6A5
100
AcDbEntity
  8
0
 62
     0
370
    -2
100
AcDbLine
 10
688.4679949999999
 20
306.802493
 30
0.0
 11
648.1389690000002
 21
306.802493
 31
0.0
  0
LINE
  5
732
330
6A5
100
AcDbEntity
  8
0
 62
     0
370
    -2
100
AcDbLine
 10
690.4758969999997
 20
434.802493
 30
0.0
 11
648.1389690000002
 21
434.802493
 31
0.0
  0
LINE
  5
733
330
6A5
100
AcDbEntity
  8
0
 62
     0
370
    -2
100
AcDbLine
 10
649.3889690000002
 20
309.302493
 30
0.0
 11
649.3889690000002
 21
432.3024929999999
 31
0.0
  0
INSERT
  5
734
330
6A5
100
AcDbEntity
  8
0
 62
     0
370
    -2
100
AcDbBlockReference
  2
_Open30
 10
649.3889690000002
 20
306.802493
 30
0.0
 41
2.5
 42
2.5
 43
2.5
 50
270.0
  0
INSERT
  5
735
330
6A5
100
AcDbEntity
  8
0
 62
     0
370
    -2
100
AcDbBlockReference
  2
_Open30
 10
649.3889690000002
 20
434.802493
 30
0.0
 41
2.5
 42
2.5
 43
2.5
 50
90.0
  0
MTEXT
  5
736
330
6A5
100
AcDbEntity
  8
0
 62
     4
100
AcDbMText
 10
647.2639690000001
 20
370.8024930000001
 30
0.0
 40
3.0
 41
0.0
 71
     5
 72
     1
  1
128
 11
0.0000000000000001
 21
1.0
 31
0.0
 73
     1
 44
1.0
1001
ACAD
1000
MTEXTBEGIN
1070
    73
1070
     1
1070
    44
1040
1.0
1070
    74
1070
     0
1000
MTEXTEND
  0
POINT
  5
737
330
6A5
100
AcDbEntity
  8
Defpoints
 62
     0
100
AcDbPoint
 10
688.717995
 20
306.802493
 30
0.0
  0
POINT
  5
738
330
6A5
100
AcDbEntity
  8
Defpoints
 62
     0
100
AcDbPoint
 10
690.7258969999998
 20
434.802493
 30
0.0
  0
POINT
  5
739
330
6A5
100
AcDbEntity
  8
Defpoints
 62
     0
100
AcDbPoint
 10
649.3889690000002
 20
434.802493
 30
0.0
  0
ENDBLK
  5
6A7
330
6A5
100
AcDbEntity
  8
0
100
AcDbBlockEnd
  0
ENDSEC
  0
SECTION
  2
ENTITIES
  0
TEXT
  5
BB
330
6B
100
AcDbEntity
  8
0
 62
     3
100
AcDbText
 10
881.534899
 20
269.383646
 30
0.0
 40
4.5
  1
海外用トランス
  7
高4.5
100
AcDbText
  0
LINE
  5
BC
330
6B
100
AcDbEntity
  8
0
 62
     3
100
AcDbLine
 10
949.3453759999999
 20
276.539386
 30
0.0
 11
949.3453759999999
 21
282.539386
 31
0.0
  0
LINE
  5
BD
330
6B
100
AcDbEntity
  8
0
 62
     3
100
AcDbLine
 10
923.3453759999999
 20
276.539386
 30
0.0
 11
923.3453759999999
 21
282.539386
 31
0.0
  0
LINE
  5
BE
330
6B
100
AcDbEntity
  8
0
 62
     3
100
AcDbLine
 10
975.0447390000001
 20
282.539386
 30
0.0
 11
923.3453759999999
 21
282.539386
 31
0.0
  0
TEXT
  5
BF
330
6B
100
AcDbEntity
  8
0
 62
     3
100
AcDbText
 10
929.3409739999999
 20
277.335735
 30
0.0
 40
4.5
  1
コード
  7
高4.5
100
AcDbText
  0
LINE
  5
C0
330
6B
100
AcDbEntity
  8
0
100
AcDbLine
 10
912.4618512948398
 20
345.014632
 30
0.0
 11
951.139075
 21
345.014632
 31
0.0
  0
TEXT
  5
C1
330
6B
100
AcDbEntity
  8
0
 62
     3
100
AcDbText
 10
912.683880489876
 20
346.3521822750132
 30
0.0
 40
4.5
  1
主　　仕　　様
  7
高4.5
100
AcDbText
  0
TEXT
  5
C2
330
6B
100
AcDbEntity
  8
0
 62
     3
100
AcDbText
 10
901.842311
 20
338.301049
 30
0.0
 40
3.2
  1
型　式
  7
高3.2
100
AcDbText
  0
TEXT
  5
C3
330
6B
100
AcDbEntity
  8
0
 62
     3
100
AcDbText
 10
901.842311
 20
332.757049
 30
0.0
 40
3.2
  1
容　量
  7
高3.2
100
AcDbText
  0
TEXT
  5
C4
330
6B
100
AcDbEntity
  8
0
 62
     3
100
AcDbText
 10
901.842311
 20
327.213049
 30
0.0
 40
3.2
  1
入力電圧
  7
高3.2
100
AcDbText
  0
TEXT
  5
C5
330
6B
100
AcDbEntity
  8
0
 62
     3
100
AcDbText
 10
901.842311
 20
316.233573
 30
0.0
 40
3.2
  1
出力電圧
  7
高3.2
100
AcDbText
  0
TEXT
  5
C6
330
6B
100
AcDbEntity
  8
0
 62
     3
100
AcDbText
 10
901.842311
 20
310.581049
 30
0.0
 40
3.2
  1
質　量
  7
高3.2
100
AcDbText
  0
LINE
  5
C7
330
6B
100
AcDbEntity
  8
0
 62
     3
100
AcDbLine
 10
917.0298439999999
 20
343.0530490000001
 30
0.0
 11
917.0298439999999
 21
309.7890490000001
 31
0.0
  0
LINE
  5
C8
330
6B
100
AcDbEntity
  8
0
 62
     3
100
AcDbLine
 10
963.670821
 20
343.0530490000001
 30
0.0
 11
963.670821
 21
309.7890490000001
 31
0.0
  0
LINE
  5
C9
330
6B
100
AcDbEntity
  8
0
 62
     3
100
AcDbLine
 10
900.2583109999998
 20
343.0530490000001
 30
0.0
 11
900.2583109999998
 21
309.7890490000001
 31
0.0
  0
TEXT
  5
CA
330
6B
100
AcDbEntity
  8
0
 62
     3
100
AcDbText
 10
941.2003289999999
 20
247.83909
 30
0.0
 40
3.2
  1
2008.09.05
  7
高3.2
100
AcDbText
  0
TEXT
  5
CB
330
6B
100
AcDbEntity
  8
0
 62
     3
100
AcDbText
 10
908.9620859999996
 20
247.059857
 30
0.0
 40
3.2
  1
1/1
  7
高3.2
100
AcDbText
  0
LINE
  5
CC
330
6B
100
AcDbEntity
  8
0
 62
     3
100
AcDbLine
 10
772.3064779999998
 20
470.481294
 30
0.0
 11
772.260969
 21
470.476045
 31
0.0
  0
LINE
  5
CD
330
6B
100
AcDbEntity
  8
0
 62
     3
100
AcDbLine
 10
772.295976
 20
461.31174
 30
0.0
 11
772.3064779999998
 21
461.3099919999998
 31
0.0
  0
LINE
  5
CE
330
6B
100
AcDbEntity
  8
0
 62
     3
100
AcDbLine
 10
772.3064779999998
 20
470.481294
 30
0.0
 11
772.3064779999998
 21
461.3099919999998
 31
0.0
  0
LINE
  5
CF
330
6B
100
AcDbEntity
  8
0
 62
     3
100
AcDbLine
 10
723.2108009999998
 20
341.819573
 30
0.0
 11
723.2108009999998
 21
333.820169
 31
0.0
  0
LINE
  5
D0
330
6B
100
AcDbEntity
  8
0
 62
     3
100
AcDbLine
 10
725.2132780000001
 20
333.820169
 30
0.0
 11
723.2108009999998
 21
333.820169
 31
0.0
  0
LINE
  5
D1
330
6B
100
AcDbEntity
  8
0
 62
     3
100
AcDbLine
 10
725.2132780000001
 20
341.819573
 30
0.0
 11
725.2132780000001
 21
333.820169
 31
0.0
  0
LINE
  5
D2
330
6B
100
AcDbEntity
  8
0
 62
     3
100
AcDbLine
 10
725.2132780000001
 20
341.819573
 30
0.0
 11
723.2108009999998
 21
341.819573
 31
0.0
  0
LINE
  5
D3
330
6B
100
AcDbEntity
  8
0
 62
     3
100
AcDbLine
 10
712.2234399999999
 20
341.819573
 30
0.0
 11
712.2234399999999
 21
333.820169
 31
0.0
  0
LINE
  5
D4
330
6B
100
AcDbEntity
  8
0
 62
     3
100
AcDbLine
 10
712.2234399999999
 20
333.820169
 30
0.0
 11
710.224465
 21
333.820169
 31
0.0
  0
LINE
  5
D5
330
6B
100
AcDbEntity
  8
0
 62
     3
100
AcDbLine
 10
710.224465
 20
341.819573
 30
0.0
 11
710.224465
 21
333.820169
 31
0.0
  0
LINE
  5
D6
330
6B
100
AcDbEntity
  8
0
 62
     3
100
AcDbLine
 10
712.2234399999999
 20
341.819573
 30
0.0
 11
710.224465
 21
341.819573
 31
0.0
  0
LINE
  5
D7
330
6B
100
AcDbEntity
  8
0
 62
     3
100
AcDbLine
 10
784.065774
 20
475.301941
 30
0.0
 11
784.065774
 21
456.3668129999999
 31
0.0
  0
LINE
  5
D8
330
6B
100
AcDbEntity
  8
0
 62
     3
100
AcDbLine
 10
772.3064779999998
 20
473.2470059999998
 30
0.0
 11
772.3064779999998
 21
458.421749
 31
0.0
  0
LINE
  5
D9
330
6B
100
AcDbEntity
  8
0
 62
     3
100
AcDbLine
 10
763.8974779999998
 20
469.2739469999998
 30
0.0
 11
763.8974779999998
 21
462.3948079999998
 31
0.0
  0
LINE
  5
DA
330
6B
100
AcDbEntity
  8
0
 62
     3
100
AcDbLine
 10
784.065774
 20
475.301941
 30
0.0
 11
772.3064779999998
 21
473.2470059999998
 31
0.0
  0
LINE
  5
DB
330
6B
100
AcDbEntity
  8
0
 62
     3
100
AcDbLine
 10
784.065774
 20
456.3668129999999
 30
0.0
 11
772.3064779999998
 21
458.421749
 31
0.0
  0
LINE
  5
DC
330
6B
100
AcDbEntity
  8
0
 62
     3
100
AcDbLine
 10
772.3064779999998
 20
470.334377
 30
0.0
 11
763.8974779999998
 21
469.2739469999998
 31
0.0
  0
LINE
  5
DD
330
6B
100
AcDbEntity
  8
0
 62
     3
100
AcDbLine
 10
763.8974779999998
 20
462.3948079999998
 30
0.0
 11
772.3064779999998
 21
461.3343769999998
 31
0.0
  0
LINE
  5
DE
330
6B
100
AcDbEntity
  8
0
 62
     3
100
AcDbLine
 10
758.7179949999998
 20
384.80367
 30
0.0
 11
758.7179949999998
 21
318.802493
 31
0.0
  0
LINE
  5
DF
330
6B
100
AcDbEntity
  8
0
 62
     3
100
AcDbLine
 10
676.717995
 20
384.80367
 30
0.0
 11
676.717995
 21
318.802493
 31
0.0
  0
LINE
  5
E0
330
6B
100
AcDbEntity
  8
0
 62
     3
100
AcDbLine
 10
746.717995
 20
306.802493
 30
0.0
 11
688.717995
 21
306.802493
 31
0.0
  0
LINE
  5
E1
330
6B
100
AcDbEntity
  8
0
 62
     3
100
AcDbLine
 10
690.7258969999998
 20
434.802493
 30
0.0
 11
744.7100929999997
 21
434.802493
 31
0.0
  0
LINE
  5
E2
330
6B
100
AcDbEntity
  8
0
 62
     3
100
AcDbLine
 10
758.7179949999998
 20
384.80367
 30
0.0
 11
756.6936469999998
 21
423.430524
 31
0.0
  0
LINE
  5
E3
330
6B
100
AcDbEntity
  8
0
 62
     3
100
AcDbLine
 10
676.717995
 20
384.80367
 30
0.0
 11
678.742342
 21
423.430524
 31
0.0
  0
ARC
  5
E4
330
6B
100
AcDbEntity
  8
0
 62
     3
100
AcDbCircle
 10
690.7258969999998
 20
422.802493
 30
0.0
 40
12.0
100
AcDbArc
 50
90.0
 51
177.0
  0
ARC
  5
E5
330
6B
100
AcDbEntity
  8
0
 62
     3
100
AcDbCircle
 10
744.7100929999997
 20
422.802493
 30
0.0
 40
12.0
100
AcDbArc
 50
3.0
 51
90.0
  0
ARC
  5
E6
330
6B
100
AcDbEntity
  8
0
 62
     3
100
AcDbCircle
 10
746.717995
 20
318.802493
 30
0.0
 40
12.0
100
AcDbArc
 50
270.0
 51
0.0
  0
ARC
  5
E7
330
6B
100
AcDbEntity
  8
0
 62
     3
100
AcDbCircle
 10
688.717995
 20
318.802493
 30
0.0
 40
12.0
100
AcDbArc
 50
180.0
 51
270.0
  0
CIRCLE
  5
15C
330
6B
100
AcDbEntity
  8
0
 62
     3
100
AcDbCircle
 10
724.21204
 20
316.302493
 30
0.0
 40
1.5
  0
CIRCLE
  5
15D
330
6B
100
AcDbEntity
  8
0
 62
     3
100
AcDbCircle
 10
711.2239499999998
 20
316.302493
 30
0.0
 40
1.5
  0
TEXT
  5
15E
330
6B
100
AcDbEntity
  8
0
 62
     3
100
AcDbText
 10
718.1077269999998
 20
382.780838
 30
0.0
 40
7.0
  1
W RLD
100
AcDbText
  0
CIRCLE
  5
15F
330
6B
100
AcDbEntity
  8
0
 62
     3
100
AcDbCircle
 10
728.563223
 20
386.64296
 30
0.0
 40
4.556669
  0
LINE
  5
160
330
6B
100
AcDbEntity
  8
0
 62
     3
100
AcDbLine
 10
814.1250649999998
 20
471.701941
 30
0.0
 11
814.1250649999998
 21
459.966813
 31
0.0
  0
LINE
  5
161
330
6B
100
AcDbEntity
  8
0
 62
     3
100
AcDbLine
 10
806.925065
 20
471.701941
 30
0.0
 11
806.925065
 21
459.966813
 31
0.0
  0
LINE
  5
162
330
6B
100
AcDbEntity
  8
0
 62
     3
100
AcDbLine
 10
810.525065
 20
475.301941
 30
0.0
 11
806.925065
 21
471.701941
 31
0.0
  0
LINE
  5
163
330
6B
100
AcDbEntity
  8
0
 62
     3
100
AcDbLine
 10
810.525065
 20
475.301941
 30
0.0
 11
814.1250649999998
 21
471.701941
 31
0.0
  0
LINE
  5
164
330
6B
100
AcDbEntity
  8
0
 62
     3
100
AcDbLine
 10
810.525065
 20
456.3668129999999
 30
0.0
 11
806.925065
 21
459.966813
 31
0.0
  0
LINE
  5
165
330
6B
100
AcDbEntity
  8
0
 62
     3
100
AcDbLine
 10
810.525065
 20
456.3668129999999
 30
0.0
 11
814.1250649999998
 21
459.966813
 31
0.0
  0
LINE
  5
166
330
6B
100
AcDbEntity
  8
0
 62
     3
100
AcDbLine
 10
853.8572420000001
 20
306.802493
 30
0.0
 11
813.857242
 21
306.802493
 31
0.0
  0
LINE
  5
167
330
6B
100
AcDbEntity
  8
0
 62
     3
100
AcDbLine
 10
853.8572420000001
 20
434.802493
 30
0.0
 11
813.857242
 21
434.802493
 31
0.0
  0
LINE
  5
168
330
6B
100
AcDbEntity
  8
0
 62
     3
100
AcDbLine
 10
858.857242
 20
311.802493
 30
0.0
 11
858.857242
 21
429.8024929999998
 31
0.0
  0
LINE
  5
169
330
6B
100
AcDbEntity
  8
0
 62
     3
100
AcDbLine
 10
808.857242
 20
429.8024929999998
 30
0.0
 11
808.857242
 21
311.802493
 31
0.0
  0
ARC
  5
16A
330
6B
100
AcDbEntity
  8
0
 62
     3
100
AcDbCircle
 10
853.8572420000001
 20
311.802493
 30
0.0
 40
5.0
100
AcDbArc
 50
270.0
 51
0.0
  0
ARC
  5
16B
330
6B
100
AcDbEntity
  8
0
 62
     3
100
AcDbCircle
 10
853.8572420000001
 20
429.8024929999998
 30
0.0
 40
5.0
100
AcDbArc
 50
0.0
 51
90.0
  0
ARC
  5
16C
330
6B
100
AcDbEntity
  8
0
 62
     3
100
AcDbCircle
 10
813.857242
 20
429.8024929999998
 30
0.0
 40
5.0
100
AcDbArc
 50
90.0
 51
180.0
  0
ARC
  5
16D
330
6B
100
AcDbEntity
  8
0
 62
     3
100
AcDbCircle
 10
813.857242
 20
311.802493
 30
0.0
 40
5.0
100
AcDbArc
 50
180.0
 51
270.0
  0
LINE
  5
16E
330
6B
100
AcDbEntity
  8
0
100
AcDbLine
 10
721.1978219999998
 20
333.319548
 30
0.0
 11
723.2108009999998
 21
333.820169
 31
0.0
  0
LINE
  5
16F
330
6B
100
AcDbEntity
  8
0
100
AcDbLine
 10
721.1978219999998
 20
342.320194
 30
0.0
 11
723.2108009999998
 21
341.819573
 31
0.0
  0
LINE
  5
170
330
6B
100
AcDbEntity
  8
0
100
AcDbLine
 10
721.1978219999998
 20
342.320194
 30
0.0
 11
721.1978219999998
 21
333.319548
 31
0.0
  0
LINE
  5
171
330
6B
100
AcDbEntity
  8
0
100
AcDbLine
 10
727.199999
 20
333.319548
 30
0.0
 11
725.2132780000001
 21
333.820169
 31
0.0
  0
LINE
  5
172
330
6B
100
AcDbEntity
  8
0
100
AcDbLine
 10
721.1978219999998
 20
333.319548
 30
0.0
 11
727.199999
 21
333.319548
 31
0.0
  0
LINE
  5
173
330
6B
100
AcDbEntity
  8
0
100
AcDbLine
 10
725.2132780000001
 20
341.819573
 30
0.0
 11
727.199999
 21
342.320194
 31
0.0
  0
LINE
  5
174
330
6B
100
AcDbEntity
  8
0
100
AcDbLine
 10
727.199999
 20
342.320194
 30
0.0
 11
727.199999
 21
333.319548
 31
0.0
  0
LINE
  5
175
330
6B
100
AcDbEntity
  8
0
100
AcDbLine
 10
727.199999
 20
342.320194
 30
0.0
 11
721.1978219999998
 21
342.320194
 31
0.0
  0
LINE
  5
176
330
6B
100
AcDbEntity
  8
0
100
AcDbLine
 10
714.2381669999998
 20
332.818933
 30
0.0
 11
712.2234399999999
 21
333.820169
 31
0.0
  0
LINE
  5
177
330
6B
100
AcDbEntity
  8
0
100
AcDbLine
 10
712.2234399999999
 20
341.819573
 30
0.0
 11
714.2381669999998
 21
342.820809
 31
0.0
  0
LINE
  5
178
330
6B
100
AcDbEntity
  8
0
100
AcDbLine
 10
714.2381669999998
 20
342.820809
 30
0.0
 11
714.2381669999998
 21
332.818933
 31
0.0
  0
LINE
  5
179
330
6B
100
AcDbEntity
  8
0
100
AcDbLine
 10
708.241239
 20
332.818933
 30
0.0
 11
710.224465
 21
333.820169
 31
0.0
  0
LINE
  5
17A
330
6B
100
AcDbEntity
  8
0
100
AcDbLine
 10
708.241239
 20
332.818933
 30
0.0
 11
714.2381669999998
 21
332.818933
 31
0.0
  0
LINE
  5
17B
330
6B
100
AcDbEntity
  8
0
100
AcDbLine
 10
708.241239
 20
342.820809
 30
0.0
 11
710.224465
 21
341.819573
 31
0.0
  0
LINE
  5
17C
330
6B
100
AcDbEntity
  8
0
100
AcDbLine
 10
708.241239
 20
342.820809
 30
0.0
 11
708.241239
 21
332.818933
 31
0.0
  0
LINE
  5
17D
330
6B
100
AcDbEntity
  8
0
100
AcDbLine
 10
714.2381669999998
 20
342.820809
 30
0.0
 11
708.241239
 21
342.820809
 31
0.0
  0
LINE
  5
1C9
330
6B
100
AcDbEntity
  8
0
100
AcDbLine
 10
790.115299
 20
470.4254549999998
 30
0.0
 11
786.0647499999998
 21
470.4254549999998
 31
0.0
  0
LINE
  5
1CA
330
6B
100
AcDbEntity
  8
0
100
AcDbLine
 10
790.115299
 20
471.949723
 30
0.0
 11
786.0647499999998
 21
471.949723
 31
0.0
  0
LINE
  5
1CB
330
6B
100
AcDbEntity
  8
0
100
AcDbLine
 10
794.375047
 20
470.17141
 30
0.0
 11
790.115299
 21
470.17141
 31
0.0
  0
LINE
  5
1CC
330
6B
100
AcDbEntity
  8
0
100
AcDbLine
 10
786.0647499999998
 20
470.17141
 30
0.0
 11
784.065774
 21
470.17141
 31
0.0
  0
LINE
  5
1CD
330
6B
100
AcDbEntity
  8
0
100
AcDbLine
 10
794.375047
 20
472.2037679999998
 30
0.0
 11
790.115299
 21
472.2037679999998
 31
0.0
  0
LINE
  5
1CE
330
6B
100
AcDbEntity
  8
0
100
AcDbLine
 10
786.0647499999998
 20
472.2037679999998
 30
0.0
 11
784.065774
 21
472.2037679999998
 31
0.0
  0
LINE
  5
1CF
330
6B
100
AcDbEntity
  8
0
100
AcDbLine
 10
790.115299
 20
459.719032
 30
0.0
 11
786.0647499999998
 21
459.719032
 31
0.0
  0
LINE
  5
1D0
330
6B
100
AcDbEntity
  8
0
100
AcDbLine
 10
790.115299
 20
461.2433
 30
0.0
 11
786.0647499999998
 21
461.2433
 31
0.0
  0
LINE
  5
1D1
330
6B
100
AcDbEntity
  8
0
100
AcDbLine
 10
794.375047
 20
459.464987
 30
0.0
 11
790.115299
 21
459.464987
 31
0.0
  0
LINE
  5
1D2
330
6B
100
AcDbEntity
  8
0
100
AcDbLine
 10
786.0647499999998
 20
459.464987
 30
0.0
 11
784.065774
 21
459.464987
 31
0.0
  0
LINE
  5
1D3
330
6B
100
AcDbEntity
  8
0
100
AcDbLine
 10
794.375047
 20
461.4973449999998
 30
0.0
 11
790.115299
 21
461.4973449999998
 31
0.0
  0
LINE
  5
1D4
330
6B
100
AcDbEntity
  8
0
100
AcDbLine
 10
786.0647499999998
 20
461.4973449999998
 30
0.0
 11
784.065774
 21
461.4973449999998
 31
0.0
  0
LINE
  5
1D5
330
6B
100
AcDbEntity
  8
0
100
AcDbLine
 10
790.115299
 20
461.4973449999998
 30
0.0
 11
790.115299
 21
459.464987
 31
0.0
  0
LINE
  5
1D6
330
6B
100
AcDbEntity
  8
0
100
AcDbLine
 10
790.115299
 20
470.17141
 30
0.0
 11
790.115299
 21
472.2037679999998
 31
0.0
  0
LINE
  5
1D7
330
6B
100
AcDbEntity
  8
0
100
AcDbLine
 10
786.0647499999998
 20
461.4973449999998
 30
0.0
 11
786.0647499999998
 21
459.464987
 31
0.0
  0
LINE
  5
1D8
330
6B
100
AcDbEntity
  8
0
100
AcDbLine
 10
786.0647499999998
 20
470.17141
 30
0.0
 11
786.0647499999998
 21
472.2037679999998
 31
0.0
  0
ARC
  5
1D9
330
6B
100
AcDbEntity
  8
0
100
AcDbCircle
 10
794.375047
 20
471.1875889999998
 30
0.0
 40
1.016179
100
AcDbArc
 50
270.0
 51
90.0
  0
ARC
  5
1DA
330
6B
100
AcDbEntity
  8
0
100
AcDbCircle
 10
794.375047
 20
460.481166
 30
0.0
 40
1.016179
100
AcDbArc
 50
270.0
 51
90.0
  0
TEXT
  5
2BC
330
6B
100
AcDbEntity
  8
0
100
AcDbText
 10
710.3664049999999
 20
359.125068
 30
0.0
 40
2.5
  1
OUTPUT AC100V 120W
100
AcDbText
  0
TEXT
  5
2BD
330
6B
100
AcDbEntity
  8
0
100
AcDbText
 10
711.811428
 20
423.0298429999998
 30
0.0
 40
2.5
  1
ＡＣ１１０Ｖ～２４０Ｖ
 41
0.8232319999999997
100
AcDbText
  0
TEXT
  5
2BE
330
6B
100
AcDbEntity
  8
0
100
AcDbText
 10
739.6415429999998
 20
423.045419
 30
0.0
 40
2.0
  1
50/60Hz
100
AcDbText
  0
TEXT
  5
2BF
330
6B
100
AcDbEntity
  8
0
100
AcDbText
 10
722.0510929999997
 20
427.1674549999998
 30
0.0
 40
2.5
  1
INPUT
100
AcDbText
  0
LINE
  5
2C0
330
6B
100
AcDbEntity
  8
0
100
AcDbLine
 10
738.217995
 20
436.3024929999999
 30
0.0
 11
738.217995
 21
434.802493
 31
0.0
  0
LINE
  5
2C1
330
6B
100
AcDbEntity
  8
0
100
AcDbLine
 10
731.2179949999999
 20
436.3024929999999
 30
0.0
 11
731.2179949999999
 21
434.802493
 31
0.0
  0
LINE
  5
2C2
330
6B
100
AcDbEntity
  8
0
100
AcDbLine
 10
731.2179949999999
 20
436.3024929999999
 30
0.0
 11
738.217995
 21
436.3024929999999
 31
0.0
  0
LINE
  5
2C3
330
6B
100
AcDbEntity
  8
0
100
AcDbLine
 10
731.967995
 20
450.8024929999998
 30
0.0
 11
737.4679949999999
 21
450.8024929999998
 31
0.0
  0
LINE
  5
2C4
330
6B
100
AcDbEntity
  8
0
100
AcDbLine
 10
737.4679949999999
 20
448.302493
 30
0.0
 11
737.4679949999999
 21
450.8024929999998
 31
0.0
  0
LINE
  5
2C5
330
6B
100
AcDbEntity
  8
0
100
AcDbLine
 10
731.967995
 20
448.302493
 30
0.0
 11
731.967995
 21
450.8024929999998
 31
0.0
  0
LINE
  5
2C6
330
6B
100
AcDbEntity
  8
0
100
AcDbLine
 10
731.967995
 20
448.302493
 30
0.0
 11
737.4679949999999
 21
448.302493
 31
0.0
  0
LINE
  5
2C7
330
6B
100
AcDbEntity
  8
0
100
AcDbLine
 10
731.311745
 20
437.8024929999998
 30
0.0
 11
738.124245
 21
437.8024929999998
 31
0.0
  0
LINE
  5
2C8
330
6B
100
AcDbEntity
  8
0
100
AcDbLine
 10
731.3742449999998
 20
438.8024929999998
 30
0.0
 11
738.0617449999999
 21
438.8024929999998
 31
0.0
  0
LINE
  5
2C9
330
6B
100
AcDbEntity
  8
0
100
AcDbLine
 10
731.4679949999998
 20
440.3024929999999
 30
0.0
 11
737.9679949999998
 21
440.3024929999999
 31
0.0
  0
LINE
  5
2CA
330
6B
100
AcDbEntity
  8
0
100
AcDbLine
 10
731.5304949999998
 20
441.3024929999998
 30
0.0
 11
737.9054949999998
 21
441.3024929999998
 31
0.0
  0
LINE
  5
2CB
330
6B
100
AcDbEntity
  8
0
100
AcDbLine
 10
731.6242449999998
 20
442.8024929999998
 30
0.0
 11
737.8117449999998
 21
442.8024929999998
 31
0.0
  0
LINE
  5
2CC
330
6B
100
AcDbEntity
  8
0
100
AcDbLine
 10
731.686745
 20
443.802493
 30
0.0
 11
737.749245
 21
443.802493
 31
0.0
  0
LINE
  5
2CD
330
6B
100
AcDbEntity
  8
0
100
AcDbLine
 10
731.780495
 20
445.3024929999998
 30
0.0
 11
737.655495
 21
445.3024929999998
 31
0.0
  0
LINE
  5
2CE
330
6B
100
AcDbEntity
  8
0
100
AcDbLine
 10
731.8429949999998
 20
446.3024929999998
 30
0.0
 11
737.5929949999998
 21
446.3024929999998
 31
0.0
  0
LINE
  5
2CF
330
6B
100
AcDbEntity
  8
0
100
AcDbLine
 10
738.124245
 20
437.8024929999998
 30
0.0
 11
738.0617449999999
 21
438.8024929999998
 31
0.0
  0
LINE
  5
2D0
330
6B
100
AcDbEntity
  8
0
100
AcDbLine
 10
731.8429949999998
 20
446.3024929999998
 30
0.0
 11
731.780495
 21
445.3024929999998
 31
0.0
  0
LINE
  5
2D1
330
6B
100
AcDbEntity
  8
0
100
AcDbLine
 10
737.718969
 20
436.271304
 30
0.0
 11
737.6232690000001
 21
437.8024929999998
 31
0.0
  0
LINE
  5
2D2
330
6B
100
AcDbEntity
  8
0
100
AcDbLine
 10
732.467021
 20
448.271304
 30
0.0
 11
732.34397
 21
446.3024929999998
 31
0.0
  0
LINE
  5
2D3
330
6B
100
AcDbEntity
  8
0
100
AcDbLine
 10
731.3742449999998
 20
438.8024929999998
 30
0.0
 11
731.311745
 21
437.8024929999998
 31
0.0
  0
LINE
  5
2D4
330
6B
100
AcDbEntity
  8
0
100
AcDbLine
 10
737.9679949999998
 20
440.3024929999999
 30
0.0
 11
737.9054949999998
 21
441.3024929999998
 31
0.0
  0
LINE
  5
2D5
330
6B
100
AcDbEntity
  8
0
100
AcDbLine
 10
737.560769
 20
438.8024929999998
 30
0.0
 11
737.467019
 21
440.3024929999999
 31
0.0
  0
LINE
  5
2D6
330
6B
100
AcDbEntity
  8
0
100
AcDbLine
 10
731.81272
 20
437.8024929999998
 30
0.0
 11
731.717021
 21
436.271304
 31
0.0
  0
LINE
  5
2D7
330
6B
100
AcDbEntity
  8
0
100
AcDbLine
 10
731.96897
 20
440.3024929999999
 30
0.0
 11
731.87522
 21
438.8024929999998
 31
0.0
  0
LINE
  5
2D8
330
6B
100
AcDbEntity
  8
0
100
AcDbLine
 10
737.404519
 20
441.3024929999998
 30
0.0
 11
737.310769
 21
442.8024929999998
 31
0.0
  0
LINE
  5
2D9
330
6B
100
AcDbEntity
  8
0
100
AcDbLine
 10
737.248269
 20
443.802493
 30
0.0
 11
737.154519
 21
445.3024929999998
 31
0.0
  0
LINE
  5
2DA
330
6B
100
AcDbEntity
  8
0
100
AcDbLine
 10
732.1252199999999
 20
442.8024929999998
 30
0.0
 11
732.0314699999999
 21
441.3024929999998
 31
0.0
  0
LINE
  5
2DB
330
6B
100
AcDbEntity
  8
0
100
AcDbLine
 10
732.28147
 20
445.3024929999998
 30
0.0
 11
732.18772
 21
443.802493
 31
0.0
  0
LINE
  5
2DC
330
6B
100
AcDbEntity
  8
0
100
AcDbLine
 10
737.092019
 20
446.3024929999998
 30
0.0
 11
736.968969
 21
448.271304
 31
0.0
  0
LINE
  5
2DD
330
6B
100
AcDbEntity
  8
0
100
AcDbLine
 10
737.8117449999998
 20
442.8024929999998
 30
0.0
 11
737.749245
 21
443.802493
 31
0.0
  0
LINE
  5
2DE
330
6B
100
AcDbEntity
  8
0
100
AcDbLine
 10
737.655495
 20
445.3024929999998
 30
0.0
 11
737.5929949999998
 21
446.3024929999998
 31
0.0
  0
LINE
  5
2DF
330
6B
100
AcDbEntity
  8
0
100
AcDbLine
 10
731.686745
 20
443.802493
 30
0.0
 11
731.6242449999998
 21
442.8024929999998
 31
0.0
  0
LINE
  5
2E0
330
6B
100
AcDbEntity
  8
0
100
AcDbLine
 10
731.5304949999998
 20
441.3024929999998
 30
0.0
 11
731.4679949999998
 21
440.3024929999999
 31
0.0
  0
CIRCLE
  5
2E1
330
6B
100
AcDbEntity
  8
0
100
AcDbCircle
 10
810.525065
 20
471.1875889999998
 30
0.0
 40
1.016179
  0
CIRCLE
  5
2E2
330
6B
100
AcDbEntity
  8
0
100
AcDbCircle
 10
810.525065
 20
460.481166
 30
0.0
 40
1.016179
  0
LINE
  5
2E3
330
6B
100
AcDbEntity
  8
0
100
AcDbLine
 10
736.517995
 20
459.0343769999998
 30
0.0
 11
736.517995
 21
450.8024929999998
 31
0.0
  0
LINE
  5
2E4
330
6B
100
AcDbEntity
  8
0
100
AcDbLine
 10
732.917995
 20
459.0343769999998
 30
0.0
 11
732.917995
 21
450.8024929999998
 31
0.0
  0
ARC
  5
2E5
330
6B
100
AcDbEntity
  8
0
100
AcDbCircle
 10
741.517995
 20
459.0343769999998
 30
0.0
 40
5.0
100
AcDbArc
 50
90.0
 51
180.0
  0
ARC
  5
2E6
330
6B
100
AcDbEntity
  8
0
100
AcDbCircle
 10
741.517995
 20
459.0343769999998
 30
0.0
 40
8.599999999999999
100
AcDbArc
 50
90.0
 51
180.0
  0
ARC
  5
2E7
330
6B
100
AcDbEntity
  8
0
100
AcDbCircle
 10
741.517995
 20
459.0343769999998
 30
0.0
 40
6.799999999999998
100
AcDbArc
 50
90.0
 51
180.0
  0
LINE
  5
2E8
330
6B
100
AcDbEntity
  8
0
100
AcDbLine
 10
734.717995
 20
459.0343769999998
 30
0.0
 11
734.717995
 21
450.8024929999998
 31
0.0
  0
LINE
  5
2E9
330
6B
100
AcDbEntity
  8
0
100
AcDbLine
 10
834.607242
 20
306.802493
 30
0.0
 11
834.607242
 21
434.802493
 31
0.0
  0
LINE
  5
2EA
330
6B
100
AcDbEntity
  8
0
100
AcDbLine
 10
833.1072419999998
 20
306.802493
 30
0.0
 11
833.1072419999998
 21
434.802493
 31
0.0
  0
LINE
  5
2EB
330
6B
100
AcDbEntity
  8
0
100
AcDbLine
 10
831.107242
 20
448.302493
 30
0.0
 11
831.107242
 21
450.8024929999998
 31
0.0
  0
LINE
  5
2EC
330
6B
100
AcDbEntity
  8
0
100
AcDbLine
 10
836.607242
 20
448.302493
 30
0.0
 11
836.607242
 21
450.8024929999998
 31
0.0
  0
LINE
  5
2ED
330
6B
100
AcDbEntity
  8
0
100
AcDbLine
 10
831.107242
 20
450.8024929999998
 30
0.0
 11
836.607242
 21
450.8024929999998
 31
0.0
  0
LINE
  5
2EE
330
6B
100
AcDbEntity
  8
0
100
AcDbLine
 10
831.107242
 20
448.302493
 30
0.0
 11
836.607242
 21
448.302493
 31
0.0
  0
LINE
  5
2EF
330
6B
100
AcDbEntity
  8
0
100
AcDbLine
 10
830.357242
 20
436.3024929999999
 30
0.0
 11
837.357242
 21
436.3024929999999
 31
0.0
  0
LINE
  5
2F0
330
6B
100
AcDbEntity
  8
0
100
AcDbLine
 10
830.450992
 20
437.8024929999998
 30
0.0
 11
837.2634920000001
 21
437.8024929999998
 31
0.0
  0
LINE
  5
2F1
330
6B
100
AcDbEntity
  8
0
100
AcDbLine
 10
830.513492
 20
438.8024929999998
 30
0.0
 11
837.2009919999998
 21
438.8024929999998
 31
0.0
  0
LINE
  5
2F2
330
6B
100
AcDbEntity
  8
0
100
AcDbLine
 10
830.6072420000001
 20
440.3024929999999
 30
0.0
 11
837.107242
 21
440.3024929999999
 31
0.0
  0
LINE
  5
2F3
330
6B
100
AcDbEntity
  8
0
100
AcDbLine
 10
830.669742
 20
441.3024929999998
 30
0.0
 11
837.0447420000001
 21
441.3024929999998
 31
0.0
  0
LINE
  5
2F4
330
6B
100
AcDbEntity
  8
0
100
AcDbLine
 10
830.7634919999998
 20
442.8024929999998
 30
0.0
 11
836.950992
 21
442.8024929999998
 31
0.0
  0
LINE
  5
2F5
330
6B
100
AcDbEntity
  8
0
100
AcDbLine
 10
830.8259920000001
 20
443.802493
 30
0.0
 11
836.8884920000001
 21
443.802493
 31
0.0
  0
LINE
  5
2F6
330
6B
100
AcDbEntity
  8
0
100
AcDbLine
 10
830.919742
 20
445.3024929999998
 30
0.0
 11
836.794742
 21
445.3024929999998
 31
0.0
  0
LINE
  5
2F7
330
6B
100
AcDbEntity
  8
0
100
AcDbLine
 10
830.9822419999997
 20
446.3024929999998
 30
0.0
 11
836.732242
 21
446.3024929999998
 31
0.0
  0
LINE
  5
2F8
330
6B
100
AcDbEntity
  8
0
100
AcDbLine
 10
837.2634920000001
 20
437.8024929999998
 30
0.0
 11
837.2009919999998
 21
438.8024929999998
 31
0.0
  0
LINE
  5
2F9
330
6B
100
AcDbEntity
  8
0
100
AcDbLine
 10
837.107242
 20
440.3024929999999
 30
0.0
 11
837.0447420000001
 21
441.3024929999998
 31
0.0
  0
LINE
  5
2FA
330
6B
100
AcDbEntity
  8
0
100
AcDbLine
 10
836.950992
 20
442.8024929999998
 30
0.0
 11
836.8884920000001
 21
443.802493
 31
0.0
  0
LINE
  5
2FB
330
6B
100
AcDbEntity
  8
0
100
AcDbLine
 10
836.794742
 20
445.3024929999998
 30
0.0
 11
836.732242
 21
446.3024929999998
 31
0.0
  0
LINE
  5
2FC
330
6B
100
AcDbEntity
  8
0
100
AcDbLine
 10
836.8582150000001
 20
436.271304
 30
0.0
 11
836.7625159999999
 21
437.8024929999998
 31
0.0
  0
LINE
  5
2FD
330
6B
100
AcDbEntity
  8
0
100
AcDbLine
 10
836.7000159999999
 20
438.8024929999998
 30
0.0
 11
836.606266
 21
440.3024929999999
 31
0.0
  0
LINE
  5
2FE
330
6B
100
AcDbEntity
  8
0
100
AcDbLine
 10
836.5437659999999
 20
441.3024929999998
 30
0.0
 11
836.450016
 21
442.8024929999998
 31
0.0
  0
LINE
  5
2FF
330
6B
100
AcDbEntity
  8
0
100
AcDbLine
 10
836.387516
 20
443.802493
 30
0.0
 11
836.293766
 21
445.3024929999998
 31
0.0
  0
LINE
  5
300
330
6B
100
AcDbEntity
  8
0
100
AcDbLine
 10
836.231266
 20
446.3024929999998
 30
0.0
 11
836.1082150000001
 21
448.271304
 31
0.0
  0
LINE
  5
301
330
6B
100
AcDbEntity
  8
0
100
AcDbLine
 10
830.9822419999997
 20
446.3024929999998
 30
0.0
 11
830.919742
 21
445.3024929999998
 31
0.0
  0
LINE
  5
302
330
6B
100
AcDbEntity
  8
0
100
AcDbLine
 10
830.8259920000001
 20
443.802493
 30
0.0
 11
830.7634919999998
 21
442.8024929999998
 31
0.0
  0
LINE
  5
303
330
6B
100
AcDbEntity
  8
0
100
AcDbLine
 10
830.669742
 20
441.3024929999998
 30
0.0
 11
830.6072420000001
 21
440.3024929999999
 31
0.0
  0
LINE
  5
304
330
6B
100
AcDbEntity
  8
0
100
AcDbLine
 10
830.513492
 20
438.8024929999998
 30
0.0
 11
830.450992
 21
437.8024929999998
 31
0.0
  0
LINE
  5
305
330
6B
100
AcDbEntity
  8
0
100
AcDbLine
 10
831.6062679999998
 20
448.271304
 30
0.0
 11
831.4832169999997
 21
446.3024929999998
 31
0.0
  0
LINE
  5
306
330
6B
100
AcDbEntity
  8
0
100
AcDbLine
 10
831.4207169999999
 20
445.3024929999998
 30
0.0
 11
831.326967
 21
443.802493
 31
0.0
  0
LINE
  5
307
330
6B
100
AcDbEntity
  8
0
100
AcDbLine
 10
831.2644669999999
 20
442.8024929999998
 30
0.0
 11
831.170717
 21
441.3024929999998
 31
0.0
  0
LINE
  5
308
330
6B
100
AcDbEntity
  8
0
100
AcDbLine
 10
831.108217
 20
440.3024929999999
 30
0.0
 11
831.0144669999997
 21
438.8024929999998
 31
0.0
  0
LINE
  5
309
330
6B
100
AcDbEntity
  8
0
100
AcDbLine
 10
830.951967
 20
437.8024929999998
 30
0.0
 11
830.8562679999999
 21
436.271304
 31
0.0
  0
LINE
  5
30A
330
6B
100
AcDbEntity
  8
0
100
AcDbLine
 10
832.0572419999999
 20
459.0343769999998
 30
0.0
 11
832.0572419999999
 21
450.8024929999998
 31
0.0
  0
LINE
  5
30B
330
6B
100
AcDbEntity
  8
0
100
AcDbLine
 10
833.857242
 20
459.0343769999998
 30
0.0
 11
833.857242
 21
450.8024929999998
 31
0.0
  0
LINE
  5
30C
330
6B
100
AcDbEntity
  8
0
100
AcDbLine
 10
835.657242
 20
459.0343769999998
 30
0.0
 11
835.657242
 21
450.8024929999998
 31
0.0
  0
LINE
  5
30D
330
6B
100
AcDbEntity
  8
0
100
AcDbLine
 10
837.357242
 20
436.3024929999999
 30
0.0
 11
837.357242
 21
434.802493
 31
0.0
  0
LINE
  5
30E
330
6B
100
AcDbEntity
  8
0
100
AcDbLine
 10
830.357242
 20
436.3024929999999
 30
0.0
 11
830.357242
 21
434.802493
 31
0.0
  0
LINE
  5
311
330
6B
100
AcDbEntity
  8
0
 62
     3
100
AcDbLine
 10
949.3453759999999
 20
253.539386
 30
0.0
 11
949.3453759999999
 21
276.539386
 31
0.0
  0
LINE
  5
313
330
6B
100
AcDbEntity
  8
0
 62
     3
100
AcDbLine
 10
896.291766
 20
246.539386
 30
0.0
 11
896.291766
 21
260.539386
 31
0.0
  0
TEXT
  5
315
330
6B
100
AcDbEntity
  8
0
 62
     3
100
AcDbText
 10
925.3556939999999
 20
272.744502
 30
0.0
 40
2.0
  1
A
 41
0.7
100
AcDbText
  0
TEXT
  5
316
330
6B
100
AcDbEntity
  8
0
 62
     3
100
AcDbText
 10
927.89098
 20
272.744502
 30
0.0
 40
2.0
  1
P
 41
0.7
100
AcDbText
  0
TEXT
  5
317
330
6B
100
AcDbEntity
  8
0
 62
     3
100
AcDbText
 10
930.426266
 20
272.744502
 30
0.0
 40
2.0
  1
P
 41
0.7
100
AcDbText
  0
TEXT
  5
318
330
6B
100
AcDbEntity
  8
0
 62
     3
100
AcDbText
 10
932.9615529999999
 20
272.744502
 30
0.0
 40
2.0
  1
D
 41
0.7
100
AcDbText
  0
TEXT
  5
319
330
6B
100
AcDbEntity
  8
0
 62
     3
100
AcDbText
 10
938.330236
 20
272.744502
 30
0.0
 40
2.0
  1
C
 41
0.7
100
AcDbText
  0
TEXT
  5
31A
330
6B
100
AcDbEntity
  8
0
 62
     3
100
AcDbText
 10
940.8655219999999
 20
272.744502
 30
0.0
 40
2.0
  1
H
 41
0.7
100
AcDbText
  0
TEXT
  5
31B
330
6B
100
AcDbEntity
  8
0
 62
     3
100
AcDbText
 10
943.4008079999999
 20
272.744502
 30
0.0
 40
2.0
  1
C
 41
0.7
100
AcDbText
  0
TEXT
  5
31C
330
6B
100
AcDbEntity
  8
0
 62
     3
100
AcDbText
 10
945.9360939999999
 20
272.744502
 30
0.0
 40
2.0
  1
K
 41
0.7
100
AcDbText
  0
TEXT
  5
31D
330
6B
100
AcDbEntity
  8
0
 62
     3
100
AcDbText
 10
951.610061
 20
272.744502
 30
0.0
 40
2.0
  1
DESN
 41
1.216762999999998
100
AcDbText
  0
TEXT
  5
31E
330
6B
100
AcDbEntity
  8
0
 62
     3
100
AcDbText
 10
866.603702
 20
243.398004
 30
0.0
 40
2.0
  1
NICHIDO IND.CO.LTD
 41
1.274876
100
AcDbText
  0
LINE
  5
31F
330
6B
100
AcDbEntity
  8
0
 62
     3
100
AcDbLine
 10
876.9867320000001
 20
276.539386
 30
0.0
 11
876.9867320000001
 21
253.539386
 31
0.0
  0
LINE
  5
320
330
6B
100
AcDbEntity
  8
0
 62
     3
100
AcDbLine
 10
923.3453759999999
 20
276.539386
 30
0.0
 11
923.3453759999999
 21
236.873664
 31
0.0
  0
LINE
  5
325
330
6B
100
AcDbEntity
  8
0
 62
     3
100
AcDbLine
 10
936.345376
 20
276.539386
 30
0.0
 11
936.345376
 21
246.539386
 31
0.0
  0
TEXT
  5
326
330
6B
100
AcDbEntity
  8
0
 62
     3
100
AcDbText
 10
924.457821
 20
247.404073
 30
0.0
 40
3.2
  1
作成日
 41
1.017225999999998
100
AcDbText
  0
LINE
  5
327
330
6B
100
AcDbEntity
  8
0
 62
     3
100
AcDbLine
 10
975.0447390000001
 20
276.539386
 30
0.0
 11
863.7412969999997
 21
276.539386
 31
0.0
  0
LINE
  5
328
330
6B
100
AcDbEntity
  8
0
 62
     3
100
AcDbLine
 10
962.345376
 20
253.539386
 30
0.0
 11
962.345376
 21
276.539386
 31
0.0
  0
TEXT
  5
329
330
6B
100
AcDbEntity
  8
0
 62
     3
100
AcDbText
 10
965.6691789999996
 20
272.8303209999999
 30
0.0
 40
1.8
  1
D
 41
0.666667
100
AcDbText
  0
TEXT
  5
32A
330
6B
100
AcDbEntity
  8
0
 62
     3
100
AcDbText
 10
968.485807
 20
272.8303209999999
 30
0.0
 40
1.8
  1
E
 41
0.666667
100
AcDbText
  0
TEXT
  5
32B
330
6B
100
AcDbEntity
  8
0
 62
     3
100
AcDbText
 10
971.302436
 20
272.8303209999999
 30
0.0
 40
1.8
  1
F
 41
0.666667
100
AcDbText
  0
TEXT
  5
32C
330
6B
100
AcDbEntity
  8
0
 62
     3
100
AcDbText
 10
965.6691789999996
 20
268.837767
 30
0.0
 40
3.2
  1
製図
 41
1.076369
100
AcDbText
  0
LINE
  5
32D
330
6B
100
AcDbEntity
  8
0
 62
     3
100
AcDbLine
 10
863.7412969999997
 20
276.539386
 30
0.0
 11
863.7412969999997
 21
236.873664
 31
0.0
  0
TEXT
  5
32E
330
6B
100
AcDbEntity
  8
0
 62
     3
100
AcDbText
 10
865.1179499999997
 20
237.206129
 30
0.0
 40
5.0
  1
日動工業株式会社
 41
0.833333
100
AcDbText
  0
LINE
  5
32F
330
6B
100
AcDbEntity
  8
0
 62
     3
100
AcDbLine
 10
906.623701
 20
260.539386
 30
0.0
 11
906.623701
 21
236.873664
 31
0.0
  0
LINE
  5
330
330
6B
100
AcDbEntity
  8
0
 62
     3
100
AcDbLine
 10
906.623701
 20
241.706525
 30
0.0
 11
923.3453759999999
 21
241.706525
 31
0.0
  0
TEXT
  5
331
330
6B
100
AcDbEntity
  8
0
 62
     3
100
AcDbText
 10
907.2103029999999
 20
242.522956
 30
0.0
 40
3.2
  1
出図コード
 41
0.8356860000000001
100
AcDbText
  0
LINE
  5
343
330
6B
100
AcDbEntity
  8
0
 62
     3
100
AcDbLine
 10
863.7412969999997
 20
246.539386
 30
0.0
 11
975.0447390000001
 21
246.539386
 31
0.0
  0
LINE
  5
345
330
6B
100
AcDbEntity
  8
0
 62
     3
100
AcDbLine
 10
863.7412969999997
 20
267.539386
 30
0.0
 11
975.0447390000001
 21
267.539386
 31
0.0
  0
LINE
  5
34B
330
6B
100
AcDbEntity
  8
0
 62
     3
100
AcDbLine
 10
863.7412970000001
 20
260.539386
 30
0.0
 11
923.3453759999999
 21
260.539386
 31
0.0
  0
LINE
  5
351
330
6B
100
AcDbEntity
  8
0
 62
     3
100
AcDbLine
 10
863.7412970000001
 20
253.539386
 30
0.0
 11
975.0447390000001
 21
253.539386
 31
0.0
  0
LINE
  5
355
330
6B
100
AcDbEntity
  8
0
 62
     3
100
AcDbLine
 10
975.0447390000001
 20
510.9290249999999
 30
0.0
 11
975.0447390000001
 21
236.873664
 31
0.0
  0
LINE
  5
356
330
6B
100
AcDbEntity
  8
0
 62
     3
100
AcDbLine
 10
585.0447389999998
 20
510.9290249999999
 30
0.0
 11
585.0447389999998
 21
236.873664
 31
0.0
  0
LINE
  5
357
330
6B
100
AcDbEntity
  8
0
 62
     3
100
AcDbLine
 10
975.0447390000001
 20
236.873664
 30
0.0
 11
585.0447389999998
 21
236.873664
 31
0.0
  0
TEXT
  5
35A
330
6B
100
AcDbEntity
  8
0
 62
     3
100
AcDbText
 10
907.0777539999999
 20
237.215161753719
 30
0.0
 40
3.2
  1
ZK-A3X
 41
0.8112849999999999
100
AcDbText
  0
LINE
  5
35B
330
6B
100
AcDbEntity
  8
0
 62
     2
100
AcDbLine
 10
762.8196289999998
 20
513.3690269999998
 30
0.0
 11
763.442126
 21
513.044072
 31
0.0
  0
LINE
  5
35C
330
6B
100
AcDbEntity
  8
0
 62
     2
100
AcDbLine
 10
762.8196289999998
 20
508.039555
 30
0.0
 11
763.442126
 21
508.364509
 31
0.0
  0
LINE
  5
35D
330
6B
100
AcDbEntity
  8
0
 62
     2
100
AcDbLine
 10
763.442126
 20
513.044072
 30
0.0
 11
763.442126
 21
508.364509
 31
0.0
  0
LINE
  5
35E
330
6B
100
AcDbEntity
  8
0
 62
     2
100
AcDbLine
 10
765.018579
 20
508.039555
 30
0.0
 11
764.396082
 21
508.364509
 31
0.0
  0
LINE
  5
35F
330
6B
100
AcDbEntity
  8
0
 62
     2
100
AcDbLine
 10
764.396082
 20
511.217165
 30
0.0
 11
764.396082
 21
508.364509
 31
0.0
  0
LINE
  5
360
330
6B
100
AcDbEntity
  8
0
 62
     2
100
AcDbLine
 10
768.649812
 20
513.3690269999998
 30
0.0
 11
768.027315
 21
513.044072
 31
0.0
  0
LINE
  5
361
330
6B
100
AcDbEntity
  8
0
 62
     2
100
AcDbLine
 10
766.450861
 20
513.3690269999998
 30
0.0
 11
767.073358
 21
513.044072
 31
0.0
  0
LINE
  5
362
330
6B
100
AcDbEntity
  8
0
 62
     2
100
AcDbLine
 10
767.073358
 20
513.044072
 30
0.0
 11
767.073358
 21
510.983591
 31
0.0
  0
LINE
  5
363
330
6B
100
AcDbEntity
  8
0
 62
     2
100
AcDbLine
 10
768.027315
 20
513.044072
 30
0.0
 11
768.027315
 21
507.7373249999998
 31
0.0
  0
LINE
  5
364
330
6B
100
AcDbEntity
  8
0
 62
     2
100
AcDbLine
 10
768.957379
 20
513.369023
 30
0.0
 11
769.579874
 21
513.0440639999997
 31
0.0
  0
LINE
  5
365
330
6B
100
AcDbEntity
  8
0
 62
     2
100
AcDbLine
 10
768.957268
 20
508.0396259999998
 30
0.0
 11
769.5797759999998
 21
508.3645589999998
 31
0.0
  0
LINE
  5
366
330
6B
100
AcDbEntity
  8
0
 62
     2
100
AcDbLine
 10
769.579874
 20
513.0440639999997
 30
0.0
 11
769.579874
 21
508.3645589999998
 31
0.0
  0
LINE
  5
367
330
6B
100
AcDbEntity
  8
0
 62
     2
100
AcDbLine
 10
771.7138599999998
 20
513.3689889999998
 30
0.0
 11
771.091358
 21
513.044044
 31
0.0
  0
LINE
  5
368
330
6B
100
AcDbEntity
  8
0
 62
     2
100
AcDbLine
 10
771.091358
 20
513.044044
 30
0.0
 11
771.091358
 21
508.364538
 31
0.0
  0
LINE
  5
369
330
6B
100
AcDbEntity
  8
0
 62
     2
100
AcDbLine
 10
771.7138599999998
 20
508.0395919999999
 30
0.0
 11
771.091358
 21
508.364538
 31
0.0
  0
LINE
  5
36A
330
6B
100
AcDbEntity
  8
0
 62
     2
100
AcDbLine
 10
776.9856499999998
 20
513.368931
 30
0.0
 11
777.608146
 21
513.043974
 31
0.0
  0
LINE
  5
36B
330
6B
100
AcDbEntity
  8
0
 62
     2
100
AcDbLine
 10
777.608146
 20
513.043974
 30
0.0
 11
777.6080649999999
 21
508.364469
 31
0.0
  0
LINE
  5
36C
330
6B
100
AcDbEntity
  8
0
 62
     2
100
AcDbLine
 10
776.985557
 20
508.0395339999998
 30
0.0
 11
777.6080649999999
 21
508.364469
 31
0.0
  0
LINE
  5
36D
330
6B
100
AcDbEntity
  8
0
 62
     2
100
AcDbLine
 10
779.774595
 20
513.368931
 30
0.0
 11
779.152099
 21
513.043974
 31
0.0
  0
LINE
  5
36E
330
6B
100
AcDbEntity
  8
0
 62
     2
100
AcDbLine
 10
779.774688
 20
508.0395339999998
 30
0.0
 11
779.1521809999998
 21
508.364469
 31
0.0
  0
LINE
  5
36F
330
6B
100
AcDbEntity
  8
0
 62
     2
100
AcDbLine
 10
780.0656349999997
 20
513.368931
 30
0.0
 11
780.68813
 21
513.043974
 31
0.0
  0
LINE
  5
370
330
6B
100
AcDbEntity
  8
0
 62
     2
100
AcDbLine
 10
780.0655419999998
 20
508.0395339999998
 30
0.0
 11
780.688049
 21
508.364469
 31
0.0
  0
LINE
  5
371
330
6B
100
AcDbEntity
  8
0
 62
     2
100
AcDbLine
 10
782.854579
 20
513.368931
 30
0.0
 11
782.2320829999998
 21
513.043974
 31
0.0
  0
LINE
  5
372
330
6B
100
AcDbEntity
  8
0
 62
     2
100
AcDbLine
 10
782.2320829999998
 20
513.043974
 30
0.0
 11
782.232165
 21
508.364469
 31
0.0
  0
LINE
  5
373
330
6B
100
AcDbEntity
  8
0
 62
     2
100
AcDbLine
 10
782.8546719999998
 20
508.0395339999998
 30
0.0
 11
782.232165
 21
508.364469
 31
0.0
  0
LINE
  5
374
330
6B
100
AcDbEntity
  8
0
 62
     2
100
AcDbLine
 10
780.688095
 20
511.005212
 30
0.0
 11
779.1521339999998
 21
511.005212
 31
0.0
  0
LINE
  5
375
330
6B
100
AcDbEntity
  8
0
 62
     2
100
AcDbLine
 10
780.6880839999998
 20
510.403369
 30
0.0
 11
779.152145
 21
510.403369
 31
0.0
  0
LINE
  5
376
330
6B
100
AcDbEntity
  8
0
 62
     2
100
AcDbLine
 10
780.68813
 20
513.043974
 30
0.0
 11
780.688095
 21
511.005212
 31
0.0
  0
LINE
  5
377
330
6B
100
AcDbEntity
  8
0
 62
     2
100
AcDbLine
 10
780.6880839999998
 20
510.403369
 30
0.0
 11
780.688049
 21
508.364469
 31
0.0
  0
LINE
  5
378
330
6B
100
AcDbEntity
  8
0
 62
     2
100
AcDbLine
 10
779.152099
 20
513.043974
 30
0.0
 11
779.1521339999998
 21
511.005212
 31
0.0
  0
LINE
  5
379
330
6B
100
AcDbEntity
  8
0
 62
     2
100
AcDbLine
 10
779.152145
 20
510.403369
 30
0.0
 11
779.1521809999998
 21
508.364469
 31
0.0
  0
LINE
  5
37A
330
6B
100
AcDbEntity
  8
0
 62
     2
100
AcDbLine
 10
783.150235
 20
513.368931
 30
0.0
 11
783.7727309999998
 21
513.043974
 31
0.0
  0
LINE
  5
37B
330
6B
100
AcDbEntity
  8
0
 62
     2
100
AcDbLine
 10
783.7727309999998
 20
513.043974
 30
0.0
 11
783.772649
 21
508.364469
 31
0.0
  0
LINE
  5
37C
330
6B
100
AcDbEntity
  8
0
 62
     2
100
AcDbLine
 10
783.1501419999998
 20
508.0395339999998
 30
0.0
 11
783.772649
 21
508.364469
 31
0.0
  0
LINE
  5
37D
330
6B
100
AcDbEntity
  8
0
 62
     2
100
AcDbLine
 10
785.906678
 20
513.368931
 30
0.0
 11
785.284182
 21
513.043974
 31
0.0
  0
LINE
  5
37E
330
6B
100
AcDbEntity
  8
0
 62
     2
100
AcDbLine
 10
785.284182
 20
513.043974
 30
0.0
 11
785.284264
 21
508.364469
 31
0.0
  0
LINE
  5
37F
330
6B
100
AcDbEntity
  8
0
 62
     2
100
AcDbLine
 10
785.906771
 20
508.0395339999998
 30
0.0
 11
785.284264
 21
508.364469
 31
0.0
  0
LINE
  5
380
330
6B
100
AcDbEntity
  8
0
 62
     2
100
AcDbLine
 10
786.212906
 20
513.368931
 30
0.0
 11
786.8354019999998
 21
513.043974
 31
0.0
  0
LINE
  5
381
330
6B
100
AcDbEntity
  8
0
 62
     2
100
AcDbLine
 10
786.8354019999998
 20
513.043974
 30
0.0
 11
786.83532
 21
508.364469
 31
0.0
  0
LINE
  5
382
330
6B
100
AcDbEntity
  8
0
 62
     2
100
AcDbLine
 10
786.212813
 20
508.0395339999998
 30
0.0
 11
786.83532
 21
508.364469
 31
0.0
  0
ARC
  5
383
330
6B
100
AcDbEntity
  8
0
 62
     2
100
AcDbCircle
 10
774.997206
 20
510.7177049999998
 30
0.0
 40
2.980408
100
AcDbArc
 50
97.701524
 51
270.0
  0
ARC
  5
384
330
6B
100
AcDbEntity
  8
0
 62
     2
100
AcDbCircle
 10
793.3980639999998
 20
510.687767
 30
0.0
 40
3.012775999999998
100
AcDbArc
 50
0.31425
 51
69.00558199999998
  0
ARC
  5
385
330
6B
100
AcDbEntity
  8
0
 62
     2
100
AcDbCircle
 10
794.0561719999998
 20
510.687767
 30
0.0
 40
3.012775999999998
100
AcDbArc
 50
110.994418
 51
148.116611
  0
ARC
  5
386
330
6B
100
AcDbEntity
  8
0
 62
     2
100
AcDbCircle
 10
793.3980639999998
 20
510.7208149999998
 30
0.0
 40
3.012775999999998
100
AcDbArc
 50
290.994418
 51
359.68575
  0
ARC
  5
387
330
6B
100
AcDbEntity
  8
0
 62
     2
100
AcDbCircle
 10
794.0561719999998
 20
510.7208149999998
 30
0.0
 40
3.012775999999998
100
AcDbArc
 50
211.883389
 51
249.005582
  0
ARC
  5
388
330
6B
100
AcDbEntity
  8
0
 62
     2
100
AcDbCircle
 10
793.727118
 20
511.9368699999998
 30
0.0
 40
1.734386999999999
100
AcDbArc
 50
64.365172
 51
115.634828
  0
ARC
  5
389
330
6B
100
AcDbEntity
  8
0
 62
     2
100
AcDbCircle
 10
793.727118
 20
509.471712
 30
0.0
 40
1.734386999999999
100
AcDbArc
 50
244.365172
 51
295.634828
  0
ARC
  5
38A
330
6B
100
AcDbEntity
  8
0
 62
     2
100
AcDbCircle
 10
793.727118
 20
511.969815
 30
0.0
 40
0.8512219999999999
100
AcDbArc
 50
19.486606
 51
160.513394
  0
ARC
  5
38B
330
6B
100
AcDbEntity
  8
0
 62
     2
100
AcDbCircle
 10
793.727118
 20
509.4387659999998
 30
0.0
 40
0.8512219999999999
100
AcDbArc
 50
199.4866059999999
 51
340.513394
  0
ARC
  5
38C
330
6B
100
AcDbEntity
  8
0
 62
     3
100
AcDbCircle
 10
786.952157
 20
478.94992
 30
0.0
 40
37.20000000000001
100
AcDbArc
 50
69.50571500000001
 51
81.689988
  0
ARC
  5
38D
330
6B
100
AcDbEntity
  8
0
 62
     3
100
AcDbCircle
 10
786.952157
 20
542.458662
 30
0.0
 40
37.20000000000001
100
AcDbArc
 50
278.310012
 51
290.494285
  0
ARC
  5
38E
330
6B
100
AcDbEntity
  8
0
 62
     3
100
AcDbCircle
 10
798.82102
 20
510.704291
 30
0.0
 40
3.299999999999998
100
AcDbArc
 50
290.494285
 51
69.50571500000001
  0
ARC
  5
38F
330
6B
100
AcDbEntity
  8
0
 62
     3
100
AcDbCircle
 10
759.8210199999998
 20
510.704291
 30
0.0
 40
3.299999999999998
100
AcDbArc
 50
110.494285
 51
249.505715
  0
ARC
  5
390
330
6B
100
AcDbEntity
  8
0
 62
     3
100
AcDbCircle
 10
771.6898829999998
 20
478.94992
 30
0.0
 40
37.20000000000001
100
AcDbArc
 50
98.31001200000001
 51
110.494285
  0
ARC
  5
391
330
6B
100
AcDbEntity
  8
0
 62
     3
100
AcDbCircle
 10
771.6898829999998
 20
542.458662
 30
0.0
 40
37.20000000000001
100
AcDbArc
 50
249.505715
 51
261.689988
  0
ARC
  5
392
330
6B
100
AcDbEntity
  8
0
 62
     3
100
AcDbCircle
 10
779.3210199999998
 20
426.7042909999998
 30
0.0
 40
90.0
100
AcDbArc
 50
81.689988
 51
98.31001200000001
  0
ARC
  5
393
330
6B
100
AcDbEntity
  8
0
 62
     3
100
AcDbCircle
 10
779.3210199999998
 20
594.704291
 30
0.0
 40
90.0
100
AcDbArc
 50
261.689988
 51
278.310012
  0
ARC
  5
394
330
6B
100
AcDbEntity
  8
0
 62
     3
100
AcDbCircle
 10
779.3210199999998
 20
426.7042909999998
 30
0.0
 40
89.1
100
AcDbArc
 50
81.689988
 51
98.31001200000001
  0
ARC
  5
395
330
6B
100
AcDbEntity
  8
0
 62
     3
100
AcDbCircle
 10
779.3210199999998
 20
594.704291
 30
0.0
 40
89.1
100
AcDbArc
 50
261.689988
 51
278.310012
  0
ARC
  5
396
330
6B
100
AcDbEntity
  8
0
 62
     3
100
AcDbCircle
 10
786.952157
 20
542.458662
 30
0.0
 40
36.3
100
AcDbArc
 50
278.310012
 51
290.494285
  0
ARC
  5
397
330
6B
100
AcDbEntity
  8
0
 62
     3
100
AcDbCircle
 10
786.952157
 20
478.94992
 30
0.0
 40
36.3
100
AcDbArc
 50
69.50571500000001
 51
81.689988
  0
ARC
  5
398
330
6B
100
AcDbEntity
  8
0
 62
     3
100
AcDbCircle
 10
798.82102
 20
510.704291
 30
0.0
 40
2.399999999999999
100
AcDbArc
 50
290.494285
 51
69.50571500000001
  0
ARC
  5
399
330
6B
100
AcDbEntity
  8
0
 62
     3
100
AcDbCircle
 10
759.8210199999998
 20
510.704291
 30
0.0
 40
2.399999999999999
100
AcDbArc
 50
110.494285
 51
249.505715
  0
ARC
  5
39A
330
6B
100
AcDbEntity
  8
0
 62
     3
100
AcDbCircle
 10
771.6898829999998
 20
478.94992
 30
0.0
 40
36.3
100
AcDbArc
 50
98.31001200000001
 51
110.494285
  0
ARC
  5
39B
330
6B
100
AcDbEntity
  8
0
 62
     3
100
AcDbCircle
 10
771.6898829999998
 20
542.458662
 30
0.0
 40
36.3
100
AcDbArc
 50
249.505715
 51
261.689988
  0
LINE
  5
39C
330
6B
100
AcDbEntity
  8
0
 62
     2
100
AcDbLine
 10
785.906679
 20
507.7373249999998
 30
0.0
 11
783.150234
 21
507.7373249999998
 31
0.0
  0
LINE
  5
39D
330
6B
100
AcDbEntity
  8
0
 62
     2
100
AcDbLine
 10
785.906679
 20
508.039555
 30
0.0
 11
785.906679
 21
507.7373249999998
 31
0.0
  0
LINE
  5
39E
330
6B
100
AcDbEntity
  8
0
 62
     2
100
AcDbLine
 10
782.8545799999998
 20
513.6711159999999
 30
0.0
 11
780.065633
 21
513.6711159999999
 31
0.0
  0
LINE
  5
39F
330
6B
100
AcDbEntity
  8
0
 62
     2
100
AcDbLine
 10
782.8545799999998
 20
513.6711159999999
 30
0.0
 11
782.8545799999998
 21
513.3690269999998
 31
0.0
  0
LINE
  5
3A0
330
6B
100
AcDbEntity
  8
0
 62
     2
100
AcDbLine
 10
782.8545799999998
 20
508.039555
 30
0.0
 11
782.8545799999998
 21
507.737184
 31
0.0
  0
LINE
  5
3A1
330
6B
100
AcDbEntity
  8
0
 62
     2
100
AcDbLine
 10
782.8545799999998
 20
507.737184
 30
0.0
 11
780.065633
 21
507.737184
 31
0.0
  0
LINE
  5
3A2
330
6B
100
AcDbEntity
  8
0
 62
     2
100
AcDbLine
 10
785.906679
 20
513.6712570000002
 30
0.0
 11
785.906679
 21
513.3690269999998
 31
0.0
  0
LINE
  5
3A3
330
6B
100
AcDbEntity
  8
0
 62
     2
100
AcDbLine
 10
785.906679
 20
513.6712570000002
 30
0.0
 11
783.150234
 21
513.6712570000002
 31
0.0
  0
LINE
  5
3A4
330
6B
100
AcDbEntity
  8
0
 62
     2
100
AcDbLine
 10
783.150234
 20
513.6712570000002
 30
0.0
 11
783.150234
 21
513.3690269999998
 31
0.0
  0
LINE
  5
3A5
330
6B
100
AcDbEntity
  8
0
 62
     2
100
AcDbLine
 10
786.212905
 20
508.039555
 30
0.0
 11
786.212905
 21
507.7373249999998
 31
0.0
  0
LINE
  5
3A6
330
6B
100
AcDbEntity
  8
0
 62
     2
100
AcDbLine
 10
789.0476200000001
 20
507.7373249999998
 30
0.0
 11
786.212905
 21
507.7373249999998
 31
0.0
  0
LINE
  5
3A7
330
6B
100
AcDbEntity
  8
0
 62
     2
100
AcDbLine
 10
788.346853
 20
512.7173009999998
 30
0.0
 11
788.346853
 21
508.6912809999998
 31
0.0
  0
LINE
  5
3A8
330
6B
100
AcDbEntity
  8
0
 62
     2
100
AcDbLine
 10
788.346853
 20
508.6912809999998
 30
0.0
 11
788.6183519999998
 21
508.6912809999998
 31
0.0
  0
ARC
  5
3A9
330
6B
100
AcDbEntity
  8
0
 62
     2
100
AcDbCircle
 10
787.230086
 20
510.704291
 30
0.0
 40
2.445299
100
AcDbArc
 50
304.591955
 51
55.408045
  0
LINE
  5
3AA
330
6B
100
AcDbEntity
  8
0
 62
     2
100
AcDbLine
 10
789.0476200000001
 20
513.6712570000002
 30
0.0
 11
786.212905
 21
513.6712570000002
 31
0.0
  0
LINE
  5
3AB
330
6B
100
AcDbEntity
  8
0
 62
     2
100
AcDbLine
 10
786.212905
 20
513.6712570000002
 30
0.0
 11
786.212905
 21
513.3690269999998
 31
0.0
  0
LINE
  5
3AC
330
6B
100
AcDbEntity
  8
0
 62
     2
100
AcDbLine
 10
783.150234
 20
508.039555
 30
0.0
 11
783.150234
 21
507.7373249999998
 31
0.0
  0
LINE
  5
3AD
330
6B
100
AcDbEntity
  8
0
 62
     2
100
AcDbLine
 10
788.346853
 20
512.7173009999998
 30
0.0
 11
788.6183519999998
 21
512.7173009999998
 31
0.0
  0
LINE
  5
3AE
330
6B
100
AcDbEntity
  8
0
 62
     2
100
AcDbLine
 10
771.7137679999998
 20
508.039555
 30
0.0
 11
771.7137629999998
 21
507.7372959999998
 31
0.0
  0
LINE
  5
3AF
330
6B
100
AcDbEntity
  8
0
 62
     2
100
AcDbLine
 10
768.957317
 20
507.737353
 30
0.0
 11
771.7137629999998
 21
507.737305
 31
0.0
  0
LINE
  5
3B0
330
6B
100
AcDbEntity
  8
0
 62
     2
100
AcDbLine
 10
762.8196289999998
 20
507.7373249999998
 30
0.0
 11
765.018579
 21
507.7373249999998
 31
0.0
  0
ARC
  5
3B1
330
6B
100
AcDbEntity
  8
0
 62
     2
100
AcDbCircle
 10
755.7025679999997
 20
510.7741569999998
 30
0.0
 40
21.019379
100
AcDbArc
 50
353.866006
 51
357.694034
  0
LINE
  5
3B2
330
6B
100
AcDbEntity
  8
0
 62
     2
100
AcDbLine
 10
775.297682
 20
509.933632
 30
0.0
 11
776.704926
 21
509.928425
 31
0.0
  0
LINE
  5
3F5
330
6B
100
AcDbEntity
  8
0
 62
     2
100
AcDbLine
 10
775.3033649999998
 20
511.469653
 30
0.0
 11
776.71061
 21
511.464446
 31
0.0
  0
ARC
  5
3F6
330
6B
100
AcDbEntity
  8
0
 62
     2
100
AcDbCircle
 10
755.7025679999997
 20
510.7741569999998
 30
0.0
 40
21.019379
100
AcDbArc
 50
1.881965999999999
 51
5.709994
  0
LINE
  5
3F7
330
6B
100
AcDbEntity
  8
0
 62
     2
100
AcDbLine
 10
771.713866
 20
513.671229
 30
0.0
 11
771.7138610000001
 21
513.3690269999998
 31
0.0
  0
LINE
  5
3F8
330
6B
100
AcDbEntity
  8
0
 62
     2
100
AcDbLine
 10
768.9574209999998
 20
513.671285
 30
0.0
 11
771.713866
 21
513.671237
 31
0.0
  0
LINE
  5
3F9
330
6B
100
AcDbEntity
  8
0
 62
     2
100
AcDbLine
 10
768.9573219999998
 20
508.039555
 30
0.0
 11
768.957317
 21
507.737353
 31
0.0
  0
LINE
  5
3FA
330
6B
100
AcDbEntity
  8
0
 62
     2
100
AcDbLine
 10
768.9574209999998
 20
513.671285
 30
0.0
 11
768.957416
 21
513.3690269999998
 31
0.0
  0
LINE
  5
3FB
330
6B
100
AcDbEntity
  8
0
 62
     2
100
AcDbLine
 10
765.018579
 20
508.039555
 30
0.0
 11
765.018579
 21
507.7373249999998
 31
0.0
  0
LINE
  5
3FC
330
6B
100
AcDbEntity
  8
0
 62
     2
100
AcDbLine
 10
764.396082
 20
511.217165
 30
0.0
 11
766.570982
 21
507.7373249999998
 31
0.0
  0
LINE
  5
3FD
330
6B
100
AcDbEntity
  8
0
 62
     2
100
AcDbLine
 10
766.570982
 20
507.7373249999998
 30
0.0
 11
768.027315
 21
507.7373249999998
 31
0.0
  0
LINE
  5
3FE
330
6B
100
AcDbEntity
  8
0
 62
     2
100
AcDbLine
 10
768.649812
 20
513.6712570000002
 30
0.0
 11
768.649812
 21
513.3690269999998
 31
0.0
  0
LINE
  5
3FF
330
6B
100
AcDbEntity
  8
0
 62
     2
100
AcDbLine
 10
766.450861
 20
513.6712570000002
 30
0.0
 11
768.649812
 21
513.6712570000002
 31
0.0
  0
LINE
  5
400
330
6B
100
AcDbEntity
  8
0
 62
     2
100
AcDbLine
 10
766.450861
 20
513.6712570000002
 30
0.0
 11
766.450861
 21
513.3690269999998
 31
0.0
  0
LINE
  5
401
330
6B
100
AcDbEntity
  8
0
 62
     2
100
AcDbLine
 10
767.073358
 20
510.983591
 30
0.0
 11
765.309577
 21
513.6712570000002
 31
0.0
  0
LINE
  5
402
330
6B
100
AcDbEntity
  8
0
 62
     2
100
AcDbLine
 10
762.8196289999998
 20
513.6712570000002
 30
0.0
 11
765.309577
 21
513.6712570000002
 31
0.0
  0
LINE
  5
403
330
6B
100
AcDbEntity
  8
0
 62
     2
100
AcDbLine
 10
776.9856489999998
 20
513.6711159999999
 30
0.0
 11
779.774596
 21
513.6711159999999
 31
0.0
  0
LINE
  5
404
330
6B
100
AcDbEntity
  8
0
 62
     2
100
AcDbLine
 10
776.9856489999998
 20
513.3690269999998
 30
0.0
 11
776.9856489999998
 21
513.6711159999999
 31
0.0
  0
LINE
  5
405
330
6B
100
AcDbEntity
  8
0
 62
     2
100
AcDbLine
 10
776.9856489999998
 20
507.737184
 30
0.0
 11
776.9856489999998
 21
508.039555
 31
0.0
  0
LINE
  5
406
330
6B
100
AcDbEntity
  8
0
 62
     2
100
AcDbLine
 10
776.9856489999998
 20
507.737184
 30
0.0
 11
779.774596
 21
507.737184
 31
0.0
  0
LINE
  5
407
330
6B
100
AcDbEntity
  8
0
 62
     2
100
AcDbLine
 10
780.065633
 20
508.039555
 30
0.0
 11
780.065633
 21
507.737184
 31
0.0
  0
LINE
  5
408
330
6B
100
AcDbEntity
  8
0
 62
     2
100
AcDbLine
 10
779.774596
 20
508.039555
 30
0.0
 11
779.774596
 21
507.737184
 31
0.0
  0
LINE
  5
409
330
6B
100
AcDbEntity
  8
0
 62
     2
100
AcDbLine
 10
779.774596
 20
513.3690269999998
 30
0.0
 11
779.774596
 21
513.6711159999999
 31
0.0
  0
LINE
  5
40A
330
6B
100
AcDbEntity
  8
0
 62
     2
100
AcDbLine
 10
780.065633
 20
513.3690269999998
 30
0.0
 11
780.065633
 21
513.6711159999999
 31
0.0
  0
LINE
  5
40B
330
6B
100
AcDbEntity
  8
0
 62
     2
100
AcDbLine
 10
762.8196289999998
 20
508.039555
 30
0.0
 11
762.8196289999998
 21
507.7373249999998
 31
0.0
  0
LINE
  5
40C
330
6B
100
AcDbEntity
  8
0
 62
     2
100
AcDbLine
 10
762.8196289999998
 20
513.6712570000002
 30
0.0
 11
762.8196289999998
 21
513.3690269999998
 31
0.0
  0
ARC
  5
40D
330
6B
100
AcDbEntity
  8
0
 62
     2
100
AcDbCircle
 10
789.34762
 20
511.3267879999998
 30
0.0
 40
2.344468999999999
100
AcDbArc
 50
17.308749
 51
23.765071
  0
ARC
  5
40E
330
6B
100
AcDbEntity
  8
0
 62
     2
100
AcDbCircle
 10
787.350086
 20
510.704291
 30
0.0
 40
4.436751
100
AcDbArc
 50
342.691251
 51
17.308566
  0
ARC
  5
40F
330
6B
100
AcDbEntity
  8
0
 62
     2
100
AcDbCircle
 10
789.34762
 20
510.081794
 30
0.0
 40
2.344468999999999
100
AcDbArc
 50
336.234929
 51
342.691251
  0
ARC
  5
410
330
6B
100
AcDbEntity
  8
0
 62
     2
100
AcDbCircle
 10
789.0476200000001
 20
511.3267879999998
 30
0.0
 40
2.344468999999999
100
AcDbArc
 50
17.308749
 51
90.0
  0
ARC
  5
411
330
6B
100
AcDbEntity
  8
0
 62
     2
100
AcDbCircle
 10
787.050086
 20
510.704291
 30
0.0
 40
4.436751
100
AcDbArc
 50
342.691251
 51
17.308566
  0
ARC
  5
412
330
6B
100
AcDbEntity
  8
0
 62
     2
100
AcDbCircle
 10
789.0476200000001
 20
510.081794
 30
0.0
 40
2.344468999999999
100
AcDbArc
 50
270.0
 51
342.691251
  0
ARC
  5
413
330
6B
100
AcDbEntity
  8
0
 62
     2
100
AcDbCircle
 10
774.5848480000002
 20
510.704291
 30
0.0
 40
2.966965999999998
100
AcDbArc
 50
46.75287999999999
 51
89.749998
  0
ARC
  5
414
330
6B
100
AcDbEntity
  8
0
 62
     2
100
AcDbCircle
 10
774.5848480000002
 20
510.704291
 30
0.0
 40
2.966965999999998
100
AcDbArc
 50
273.976333
 51
312.82312
  0
ARC
  5
415
330
6B
100
AcDbEntity
  8
0
 62
     2
100
AcDbCircle
 10
790.930288
 20
510.6584889999998
 30
0.0
 40
3.936983999999998
100
AcDbArc
 50
0.6665840000000001
 51
23.903928
  0
ARC
  5
416
330
6B
100
AcDbEntity
  8
0
 62
     2
100
AcDbCircle
 10
796.523948
 20
510.6584889999998
 30
0.0
 40
3.936983999999998
100
AcDbArc
 50
156.096072
 51
179.333416
  0
ARC
  5
417
330
6B
100
AcDbEntity
  8
0
 62
     2
100
AcDbCircle
 10
790.930288
 20
510.7500929999998
 30
0.0
 40
3.936983999999998
100
AcDbArc
 50
336.096072
 51
359.333416
  0
ARC
  5
418
330
6B
100
AcDbEntity
  8
0
 62
     2
100
AcDbCircle
 10
796.523948
 20
510.7500929999998
 30
0.0
 40
3.936983999999998
100
AcDbArc
 50
180.666584
 51
203.903928
  0
LINE
  5
419
330
6B
100
AcDbEntity
  8
0
 62
     3
100
AcDbLine
 10
803.7014649999999
 20
510.9290249999999
 30
0.0
 11
975.0447390000001
 21
510.9290249999999
 31
0.0
  0
LINE
  5
41A
330
6B
100
AcDbEntity
  8
0
 62
     3
100
AcDbLine
 10
755.1474299999998
 20
510.9290249999999
 30
0.0
 11
585.0447389999998
 21
510.9290249999999
 31
0.0
  0
TEXT
  5
41B
330
6B
100
AcDbEntity
  8
0
 62
     3
100
AcDbText
 10
865.5586939999999
 20
272.708912
 30
0.0
 40
2.0
  1
CONPONENTS
 41
0.5331600000000001
100
AcDbText
  0
TEXT
  5
41C
330
6B
100
AcDbEntity
  8
0
 62
     3
100
AcDbText
 10
865.208967
 20
253.776735
 30
0.0
 40
3.0
  1
材
 41
0.833333
100
AcDbText
  0
TEXT
  5
41D
330
6B
100
AcDbEntity
  8
0
 62
     3
100
AcDbText
 10
872.7446099999998
 20
253.776735
 30
0.0
 40
3.0
  1
質
 41
0.833333
100
AcDbText
  0
TEXT
  5
41E
330
6B
100
AcDbEntity
  8
0
 62
     3
100
AcDbText
 10
865.2970380000001
 20
264.40126
 30
0.0
 40
2.0
  1
MODEL
 41
1.031072999999999
100
AcDbText
  0
TEXT
  5
41F
330
6B
100
AcDbEntity
  8
0
 62
     3
100
AcDbText
 10
865.208967
 20
257.459043
 30
0.0
 40
2.0
  1
MATERIAL
 41
0.659278
100
AcDbText
  0
TEXT
  5
420
330
6B
100
AcDbEntity
  8
0
 62
     3
100
AcDbText
 10
896.516248
 20
253.776735
 30
0.0
 40
3.0
  1
備
 41
0.833333
100
AcDbText
  0
TEXT
  5
421
330
6B
100
AcDbEntity
  8
0
 62
     3
100
AcDbText
 10
903.249249
 20
253.776735
 30
0.0
 40
3.0
  1
考
 41
0.833333
100
AcDbText
  0
TEXT
  5
422
330
6B
100
AcDbEntity
  8
0
 62
     3
100
AcDbText
 10
896.9409997488417
 20
257.459043
 30
0.0
 40
2.0
  1
REMARKS
 41
0.675794
100
AcDbText
  0
TEXT
  5
423
330
6B
100
AcDbEntity
  8
0
 62
     3
100
AcDbText
 10
866.798696
 20
250.538923
 30
0.0
 40
2.0
  1
3AD
 41
1.42614
100
AcDbText
  0
TEXT
  5
424
330
6B
100
AcDbEntity
  8
0
 62
     3
100
AcDbText
 10
876.1096759999999
 20
250.704656
 30
0.0
 40
2.0
  1
ANGLE
 41
1.669883999999998
100
AcDbText
  0
TEXT
  5
425
330
6B
100
AcDbEntity
  8
0
 62
     3
100
AcDbText
 10
897.043563
 20
250.327815
 30
0.0
 40
2.0
  1
SCALE
 41
0.7719630000000001
100
AcDbText
  0
TEXT
  5
426
330
6B
100
AcDbEntity
  8
0
 62
     3
100
AcDbText
 10
866.4848259999999
 20
246.539386
 30
0.0
 40
3.0
  1
第
 41
0.833333
100
AcDbText
  0
TEXT
  5
427
330
6B
100
AcDbEntity
  8
0
 62
     3
100
AcDbText
 10
874.271676
 20
246.539386
 30
0.0
 40
3.0
  1
三
 41
0.833333
100
AcDbText
  0
TEXT
  5
428
330
6B
100
AcDbEntity
  8
0
 62
     3
100
AcDbText
 10
882.0585259999997
 20
246.539386
 30
0.0
 40
3.0
  1
角
 41
0.833333
100
AcDbText
  0
TEXT
  5
429
330
6B
100
AcDbEntity
  8
0
 62
     3
100
AcDbText
 10
889.845376
 20
246.539386
 30
0.0
 40
3.0
  1
法
 41
0.833333
100
AcDbText
  0
TEXT
  5
42A
330
6B
100
AcDbEntity
  8
0
 62
     3
100
AcDbText
 10
896.906768
 20
246.827815
 30
0.0
 40
3.0
  1
尺
 41
0.833333
100
AcDbText
  0
TEXT
  5
42B
330
6B
100
AcDbEntity
  8
0
 62
     3
100
AcDbText
 10
903.6397699999996
 20
246.827815
 30
0.0
 40
3.0
  1
度
 41
0.833333
100
AcDbText
  0
TEXT
  5
42C
330
6B
100
AcDbEntity
  8
0
 62
     3
100
AcDbText
 10
926.2230399999999
 20
268.997115
 30
0.0
 40
3.0
  1
承認
 41
1.089472999999999
100
AcDbText
  0
TEXT
  5
42D
330
6B
100
AcDbEntity
  8
0
 62
     3
100
AcDbText
 10
939.4659199999999
 20
268.939386
 30
0.0
 40
3.0
  1
検図
 41
0.931761
100
AcDbText
  0
TEXT
  5
42E
330
6B
100
AcDbEntity
  8
0
 62
     3
100
AcDbText
 10
952.466317
 20
268.939386
 30
0.0
 40
3.0
  1
設
 41
0.833333
100
AcDbText
  0
TEXT
  5
42F
330
6B
100
AcDbEntity
  8
0
 62
     3
100
AcDbText
 10
956.9561849999999
 20
268.939386
 30
0.0
 40
3.0
  1
計
 41
0.833333
100
AcDbText
  0
TEXT
  5
430
330
6B
100
AcDbEntity
  8
0
 62
     3
100
AcDbText
 10
865.6287999999998
 20
269.111939
 30
0.0
 40
3.0
  1
品
 41
0.833333
100
AcDbText
  0
TEXT
  5
431
330
6B
100
AcDbEntity
  8
0
 62
     3
100
AcDbText
 10
873.164442
 20
269.111939
 30
0.0
 40
3.0
  1
名
 41
0.833333
100
AcDbText
  0
TEXT
  5
432
330
6B
100
AcDbEntity
  8
0
 62
     3
100
AcDbText
 10
865.2970380000001
 20
261.0301397073809
 30
0.0
 40
3.0
  1
型
 41
0.833333
100
AcDbText
  0
TEXT
  5
433
330
6B
100
AcDbEntity
  8
0
 62
     3
100
AcDbText
 10
872.8451279999998
 20
261.0301397073809
 30
0.0
 40
3.0
  1
式
 41
0.833333
100
AcDbText
  0
LINE
  5
441
330
6B
100
AcDbEntity
  8
0
 62
     3
100
AcDbLine
 10
572.642816
 20
377.373664
 30
0.0
 11
570.0447389999998
 21
375.873664
 31
0.0
  0
LINE
  5
442
330
6B
100
AcDbEntity
  8
0
 62
     3
100
AcDbLine
 10
572.642816
 20
377.373664
 30
0.0
 11
570.0447389999998
 21
378.873664
 31
0.0
  0
LINE
  5
443
330
6B
100
AcDbEntity
  8
0
 62
     3
100
AcDbLine
 10
570.0447389999998
 20
375.873664
 30
0.0
 11
570.0447389999998
 21
378.873664
 31
0.0
  0
TEXT
  5
444
330
6B
100
AcDbEntity
  8
0
 62
     3
100
AcDbText
 10
923.039997
 20
338.315061
 30
0.0
 40
3.2
  1
WORLD-120
  7
高3.2
100
AcDbText
  0
TEXT
  5
445
330
6B
100
AcDbEntity
  8
0
 62
     3
100
AcDbText
 10
930.468922
 20
332.59329
 30
0.0
 40
3.2
  1
120VA
  7
高3.2
100
AcDbText
  0
TEXT
  5
446
330
6B
100
AcDbEntity
  8
0
 62
     3
100
AcDbText
 10
918.6089990000001
 20
327.4860450000001
 30
0.0
 40
3.2
  1
AC110～240V
  7
高3.2
100
AcDbText
  0
TEXT
  5
447
330
6B
100
AcDbEntity
  8
0
 62
     3
100
AcDbText
 10
953.249976
 20
316.398045
 30
0.0
 40
3.2
  1
平A2
  7
高3.2
100
AcDbText
  0
TEXT
  5
448
330
6B
100
AcDbEntity
  8
0
 62
     3
100
AcDbText
 10
953.249976
 20
327.4860450000001
 30
0.0
 40
3.2
  1
丸C2
  7
高3.2
100
AcDbText
  0
LINE
  5
449
330
6B
100
AcDbEntity
  8
0
 62
     3
100
AcDbLine
 10
900.2583109999998
 20
343.0530490000001
 30
0.0
 11
963.670821
 21
343.0530490000001
 31
0.0
  0
LINE
  5
44A
330
6B
100
AcDbEntity
  8
0
100
AcDbLine
 10
900.2583109999998
 20
331.965049
 30
0.0
 11
963.670821
 21
331.965049
 31
0.0
  0
LINE
  5
44B
330
6B
100
AcDbEntity
  8
0
100
AcDbLine
 10
917.0298439999999
 20
326.421049
 30
0.0
 11
963.670821
 21
326.421049
 31
0.0
  0
LINE
  5
44C
330
6B
100
AcDbEntity
  8
0
100
AcDbLine
 10
900.2583109999998
 20
315.333049
 30
0.0
 11
963.670821
 21
315.333049
 31
0.0
  0
LINE
  5
44D
330
6B
100
AcDbEntity
  8
0
100
AcDbLine
 10
900.2583109999998
 20
337.509049
 30
0.0
 11
963.670821
 21
337.509049
 31
0.0
  0
LINE
  5
44E
330
6B
100
AcDbEntity
  8
0
 62
     3
100
AcDbLine
 10
900.2583109999998
 20
309.7890490000001
 30
0.0
 11
963.670821
 21
309.7890490000001
 31
0.0
  0
TEXT
  5
44F
330
6B
100
AcDbEntity
  8
0
 62
     3
100
AcDbText
 10
918.6089990000001
 20
316.398045
 30
0.0
 40
3.2
  1
AC100V
  7
高3.2
100
AcDbText
  0
LINE
  5
455
330
6B
100
AcDbEntity
  8
0
100
AcDbLine
 10
784.065774
 20
475.301941
 30
0.0
 11
796.5482849999999
 21
489.526862
 31
0.0
  0
LINE
  5
456
330
6B
100
AcDbEntity
  8
0
100
AcDbLine
 10
796.5482849999999
 20
489.526862
 30
0.0
 11
824.0482849999999
 21
489.526862
 31
0.0
  0
TEXT
  5
457
330
6B
100
AcDbEntity
  8
0
 62
     4
100
AcDbText
 10
798.7982849999998
 20
490.526862
 30
0.0
 40
3.2
  1
丸ピンＣ２プラグ
 41
0.716146
100
AcDbText
  0
LINE
  5
46A
330
6B
100
AcDbEntity
  8
0
100
AcDbLine
 10
749.9811089999998
 20
467.6343769999999
 30
0.0
 11
741.517995
 21
467.6343769999999
 31
0.0
  0
LINE
  5
46B
330
6B
100
AcDbEntity
  8
0
100
AcDbLine
 10
752.940459
 20
467.6343769999999
 30
0.0
 11
763.8974779999998
 21
467.6343769999999
 31
0.0
  0
LINE
  5
46C
330
6B
100
AcDbEntity
  8
0
100
AcDbLine
 10
750.340095
 20
465.834377
 30
0.0
 11
741.517995
 21
465.834377
 31
0.0
  0
LINE
  5
46D
330
6B
100
AcDbEntity
  8
0
100
AcDbLine
 10
753.277557
 20
465.834377
 30
0.0
 11
763.8974779999998
 21
465.834377
 31
0.0
  0
LINE
  5
46E
330
6B
100
AcDbEntity
  8
0
100
AcDbLine
 10
750.8675329999999
 20
464.0343769999998
 30
0.0
 11
741.517995
 21
464.0343769999998
 31
0.0
  0
LINE
  5
46F
330
6B
100
AcDbEntity
  8
0
100
AcDbLine
 10
753.812293
 20
464.0343769999998
 30
0.0
 11
763.8974779999998
 21
464.0343769999998
 31
0.0
  0
LINE
  5
475
330
6B
100
AcDbEntity
  8
0
100
AcDbLine
 10
724.7246579999998
 20
314.892804
 30
0.0
 11
733.32125
 21
294.761352
 31
0.0
  0
LINE
  5
476
330
6B
100
AcDbEntity
  8
0
100
AcDbLine
 10
733.32125
 20
294.761352
 30
0.0
 11
755.3212499999998
 21
294.761352
 31
0.0
  0
TEXT
  5
477
330
6B
100
AcDbEntity
  8
0
 62
     4
100
AcDbText
 10
736.0712499999998
 20
295.761352
 30
0.0
 40
3.2
  1
異常時ランプ
 41
0.716146
100
AcDbText
  0
LINE
  5
47D
330
6B
100
AcDbEntity
  8
0
100
AcDbLine
 10
711.2409190000001
 20
314.802589
 30
0.0
 11
700.2836639999998
 21
293.905456
 31
0.0
  0
LINE
  5
47E
330
6B
100
AcDbEntity
  8
0
100
AcDbLine
 10
700.2836639999998
 20
293.905456
 30
0.0
 11
681.0336639999998
 21
293.905456
 31
0.0
  0
TEXT
  5
47F
330
6B
100
AcDbEntity
  8
0
 62
     4
100
AcDbText
 10
683.7836639999998
 20
294.905456
 30
0.0
 40
3.2
  1
電源ランプ
 41
0.716146
100
AcDbText
  0
LINE
  5
485
330
6B
100
AcDbEntity
  8
0
100
AcDbLine
 10
734.4602059999998
 20
463.948399
 30
0.0
 11
720.001245
 21
474.496694
 31
0.0
  0
LINE
  5
486
330
6B
100
AcDbEntity
  8
0
100
AcDbLine
 10
720.001245
 20
474.496694
 30
0.0
 11
692.501245
 21
474.496694
 31
0.0
  0
TEXT
  5
487
330
6B
100
AcDbEntity
  8
0
 62
     4
100
AcDbText
 10
695.751245
 20
475.496694
 30
0.0
 40
3.2
  1
コード長さ８００
 41
0.716146
100
AcDbText
  0
TEXT
  5
488
330
6B
100
AcDbEntity
  8
0
 62
     3
100
AcDbText
 10
797.5425559999998
 20
483.3571219999998
 30
0.0
 40
3.2
  1
付属　入力変換プラグ（Ａ２・ＢＦ・Ｏ）３種
 41
0.833333
100
AcDbText
  0
LINE
  5
48E
330
6B
100
AcDbEntity
  8
0
100
AcDbLine
 10
727.199999
 20
341.898477
 30
0.0
 11
764.228144
 21
351.822318
 31
0.0
  0
LINE
  5
48F
330
6B
100
AcDbEntity
  8
0
100
AcDbLine
 10
764.228144
 20
351.822318
 30
0.0
 11
791.728144
 21
351.822318
 31
0.0
  0
TEXT
  5
490
330
6B
100
AcDbEntity
  8
0
 62
     4
100
AcDbText
 10
766.978144
 20
352.822318
 30
0.0
 40
3.2
  1
出力ＡＣ１００Ｖ
 41
0.716146
100
AcDbText
  0
LINE
  5
491
330
6B
100
AcDbEntity
  8
0
100
AcDbLine
 10
900.2583109999998
 20
320.877049
 30
0.0
 11
963.670821
 21
320.877049
 31
0.0
  0
TEXT
  5
492
330
6B
100
AcDbEntity
  8
0
 62
     3
100
AcDbText
 10
918.6089990000001
 20
321.942045
 30
0.0
 40
3.2
  1
付属　A2・BF・O
  7
高3.2
100
AcDbText
  0
LINE
  5
493
330
6B
100
AcDbEntity
  8
0
100
AcDbLine
 10
951.670821
 20
331.965049
 30
0.0
 11
951.670821
 21
326.421049
 31
0.0
  0
LINE
  5
494
330
6B
100
AcDbEntity
  8
0
100
AcDbLine
 10
951.670821
 20
320.877049
 30
0.0
 11
951.670821
 21
315.333049
 31
0.0
  0
TEXT
  5
495
330
6B
100
AcDbEntity
  8
0
 62
     3
100
AcDbText
 10
926.81204
 20
310.632394
 30
0.0
 40
3.2
  1
約500g
  7
高3.2
100
AcDbText
  0
TEXT
  5
496
330
6B
100
AcDbEntity
  8
0
 62
     3
100
AcDbText
 10
878.3371650000001
 20
261.350364
 30
0.0
 40
4.5
  1
WORLD-120
  7
高4.5
100
AcDbText
  0
TEXT
  5
497
330
6B
100
AcDbEntity
  8
0
 62
     3
100
AcDbText
 10
924.7743940000001
 20
237.648065
 30
0.0
 40
6.299999999999998
  1
WORLD-120
 41
0.8
  7
高6.3
100
AcDbText
  0
TEXT
  5
498
330
6B
100
AcDbEntity
  8
0
 62
     3
100
AcDbText
 10
702.110309
 20
391.855231
 30
0.0
 40
4.0
  1
trans pal
 41
0.979526
100
AcDbText
  0
TEXT
  5
499
330
6B
100
AcDbEntity
  8
0
 62
     3
100
AcDbText
 10
891.7404019999999
 20
298.491624
 30
0.0
 40
3.2
  1
注）付属品
 41
0.833333
100
AcDbText
  0
TEXT
  5
49A
330
6B
100
AcDbEntity
  8
0
 62
     3
100
AcDbText
 10
892.3410249999998
 20
294.687682
 30
0.0
 40
3.2
  1
　　●変換プラグ(A2・BF・O)3種セット
 41
0.833333
100
AcDbText
  0
TEXT
  5
49B
330
6B
100
AcDbEntity
  8
0
 62
     3
100
AcDbText
 10
892.510584
 20
290.425612
 30
0.0
 40
3.2
  1
　　●トラベルポーチ
 41
0.833333
100
AcDbText
  0
TEXT
  5
49C
330
6B
100
AcDbEntity
  8
0
 62
     3
100
AcDbText
 10
951.3325230000001
 20
277.183523
 30
0.0
 40
4.5
  1
5780
  7
高4.5
100
AcDbText
  0
TEXT
  5
57A
330
6B
100
AcDbEntity
  8
0
 62
     3
100
AcDbText
 10
962.5447390000001
 20
501.429025
 30
0.0
 40
3.2
  1
担　当
  7
高3.2
100
AcDbText
  0
TEXT
  5
57B
330
6B
100
AcDbEntity
  8
0
 62
     3
100
AcDbText
 10
918.544739
 20
501.429025
 30
0.0
 40
3.2
  1
変更・追記内容
  7
高3.2
100
AcDbText
  0
TEXT
  5
57C
330
6B
100
AcDbEntity
  8
0
 62
     3
100
AcDbText
 10
893.6582540003392
 20
496.7584864900916
 30
0.0
 40
2.0
  1
1
  7
高2
100
AcDbText
  0
TEXT
  5
57D
330
6B
100
AcDbEntity
  8
0
 62
     3
100
AcDbText
 10
893.3497425235819
 20
491.5886697778188
 30
0.0
 40
2.0
  1
2
  7
高2
100
AcDbText
  0
TEXT
  5
57E
330
6B
100
AcDbEntity
  8
0
 62
     3
100
AcDbText
 10
900.5447389999996
 20
501.429025
 30
0.0
 40
3.2
  1
日　付
  7
高3.2
100
AcDbText
  0
TEXT
  5
57F
330
6B
100
AcDbEntity
  8
0
 62
     3
100
AcDbText
 10
900.5447389999996
 20
506.4290249999998
 30
0.0
 40
3.2
  1
図　　　　面　　　　略　　　　歴
  7
高3.2
100
AcDbText
  0
TEXT
  5
580
330
6B
100
AcDbEntity
  8
0
 62
     3
100
AcDbText
 10
890.5447389999999
 20
501.429025
 30
0.0
 40
3.2
  1
記号
  7
高3.2
100
AcDbText
  0
LINE
  5
581
330
6B
100
AcDbEntity
  8
0
 62
     7
100
AcDbLine
 10
894.0447389999999
 20
494.7199209999999
 30
0.0
 11
892.1447389999999
 21
491.429025
 31
0.0
  0
LINE
  5
582
330
6B
100
AcDbEntity
  8
0
 62
     7
100
AcDbLine
 10
894.0447389999999
 20
494.7199209999999
 30
0.0
 11
895.9447389999997
 21
491.429025
 31
0.0
  0
LINE
  5
583
330
6B
100
AcDbEntity
  8
0
 62
     7
100
AcDbLine
 10
892.1447389999999
 20
491.429025
 30
0.0
 11
895.9447389999997
 21
491.429025
 31
0.0
  0
LINE
  5
584
330
6B
100
AcDbEntity
  8
0
 62
     7
100
AcDbLine
 10
894.0447389999999
 20
499.7199220000001
 30
0.0
 11
892.1447389999999
 21
496.429025
 31
0.0
  0
LINE
  5
585
330
6B
100
AcDbEntity
  8
0
 62
     7
100
AcDbLine
 10
894.0447389999999
 20
499.7199220000001
 30
0.0
 11
895.9447389999997
 21
496.429025
 31
0.0
  0
LINE
  5
586
330
6B
100
AcDbEntity
  8
0
 62
     7
100
AcDbLine
 10
892.1447389999999
 20
496.429025
 30
0.0
 11
895.9447389999997
 21
496.429025
 31
0.0
  0
LINE
  5
587
330
6B
100
AcDbEntity
  8
0
 62
     3
100
AcDbLine
 10
889.044739
 20
505.929025
 30
0.0
 11
975.0447390000001
 21
505.929025
 31
0.0
  0
LINE
  5
588
330
6B
100
AcDbEntity
  8
0
 62
     3
100
AcDbLine
 10
889.044739
 20
500.929025
 30
0.0
 11
975.0447390000001
 21
500.929025
 31
0.0
  0
LINE
  5
589
330
6B
100
AcDbEntity
  8
0
 62
     7
100
AcDbLine
 10
889.044739
 20
495.929025
 30
0.0
 11
975.0447390000001
 21
495.929025
 31
0.0
  0
LINE
  5
58A
330
6B
100
AcDbEntity
  8
0
 62
     3
100
AcDbLine
 10
889.044739
 20
490.929025
 30
0.0
 11
975.0447390000001
 21
490.929025
 31
0.0
  0
LINE
  5
58B
330
6B
100
AcDbEntity
  8
0
 62
     7
100
AcDbLine
 10
961.044739
 20
490.929025
 30
0.0
 11
961.044739
 21
505.929025
 31
0.0
  0
LINE
  5
58C
330
6B
100
AcDbEntity
  8
0
 62
     7
100
AcDbLine
 10
917.0447390000001
 20
490.929025
 30
0.0
 11
917.0447390000001
 21
505.929025
 31
0.0
  0
LINE
  5
58D
330
6B
100
AcDbEntity
  8
0
 62
     7
100
AcDbLine
 10
899.0447389999998
 20
490.929025
 30
0.0
 11
899.0447389999998
 21
505.929025
 31
0.0
  0
LINE
  5
58E
330
6B
100
AcDbEntity
  8
0
 62
     3
100
AcDbLine
 10
889.044739
 20
490.929025
 30
0.0
 11
889.044739
 21
510.9290249999999
 31
0.0
  0
LINE
  5
73B
330
6B
100
AcDbEntity
  8
0
100
AcDbLine
 10
728.9930929999997
 20
342.933852
 30
0.0
 11
727.199999
 21
341.898477
 31
0.0
  0
LINE
  5
73C
330
6B
100
AcDbEntity
  8
0
100
AcDbLine
 10
727.199999
 20
341.898477
 30
0.0
 11
729.2705509999998
 21
341.898591
 31
0.0
  0
LINE
  5
73F
330
6B
100
AcDbEntity
  8
0
100
AcDbLine
 10
732.5286329999999
 20
464.6941959999998
 30
0.0
 11
734.4602059999998
 21
463.948399
 31
0.0
  0
LINE
  5
740
330
6B
100
AcDbEntity
  8
0
100
AcDbLine
 10
734.4602059999998
 20
463.948399
 30
0.0
 11
733.1603129999998
 21
465.5600650000002
 31
0.0
  0
LINE
  5
741
330
6B
100
AcDbEntity
  8
0
100
AcDbLine
 10
710.786776
 20
312.782455
 30
0.0
 11
711.2409190000001
 21
314.802589
 31
0.0
  0
LINE
  5
742
330
6B
100
AcDbEntity
  8
0
100
AcDbLine
 10
711.2409190000001
 20
314.802589
 30
0.0
 11
709.8375530000001
 21
313.280173
 31
0.0
  0
LINE
  5
743
330
6B
100
AcDbEntity
  8
0
100
AcDbLine
 10
726.0029339999999
 20
313.26394
 30
0.0
 11
724.7246579999998
 21
314.892804
 31
0.0
  0
LINE
  5
744
330
6B
100
AcDbEntity
  8
0
100
AcDbLine
 10
724.7246579999998
 20
314.892804
 30
0.0
 11
725.0172459999999
 21
312.843029
 31
0.0
  0
LINE
  5
745
330
6B
100
AcDbEntity
  8
0
 62
     3
100
AcDbLine
 10
754.4340759999998
 20
470.1598879999998
 30
0.0
 11
753.5743929999998
 21
469.1963440000001
 31
0.0
  0
LINE
  5
746
330
6B
100
AcDbEntity
  8
0
 62
     3
100
AcDbLine
 10
753.5743929999998
 20
469.1963440000001
 30
0.0
 11
753.019441
 21
468.1665389999998
 31
0.0
  0
LINE
  5
747
330
6B
100
AcDbEntity
  8
0
 62
     3
100
AcDbLine
 10
753.019441
 20
468.1665389999998
 30
0.0
 11
753.405063
 21
465.43989
 31
0.0
  0
LINE
  5
748
330
6B
100
AcDbEntity
  8
0
 62
     3
100
AcDbLine
 10
753.405063
 20
465.43989
 30
0.0
 11
753.855361
 21
462.6366039999998
 31
0.0
  0
LINE
  5
749
330
6B
100
AcDbEntity
  8
0
 62
     3
100
AcDbLine
 10
753.855361
 20
462.6366039999998
 30
0.0
 11
753.5473509999998
 21
461.819098
 31
0.0
  0
LINE
  5
74A
330
6B
100
AcDbEntity
  8
0
 62
     3
100
AcDbLine
 10
753.5473509999998
 20
461.819098
 30
0.0
 11
753.083743
 21
461.029065
 31
0.0
  0
LINE
  5
74B
330
6B
100
AcDbEntity
  8
0
 62
     3
100
AcDbLine
 10
751.476203
 20
470.2241889999998
 30
0.0
 11
750.61652
 21
469.260645
 31
0.0
  0
LINE
  5
74C
330
6B
100
AcDbEntity
  8
0
 62
     3
100
AcDbLine
 10
750.61652
 20
469.260645
 30
0.0
 11
750.061569
 21
468.230841
 31
0.0
  0
LINE
  5
74D
330
6B
100
AcDbEntity
  8
0
 62
     3
100
AcDbLine
 10
750.061569
 20
468.230841
 30
0.0
 11
750.4471909999998
 21
465.504192
 31
0.0
  0
LINE
  5
74E
330
6B
100
AcDbEntity
  8
0
 62
     3
100
AcDbLine
 10
750.4471909999998
 20
465.504192
 30
0.0
 11
750.8974889999998
 21
462.7009059999998
 31
0.0
  0
LINE
  5
74F
330
6B
100
AcDbEntity
  8
0
 62
     3
100
AcDbLine
 10
750.8974889999998
 20
462.7009059999998
 30
0.0
 11
750.589479
 21
461.8833999999998
 31
0.0
  0
LINE
  5
750
330
6B
100
AcDbEntity
  8
0
 62
     3
100
AcDbLine
 10
750.589479
 20
461.8833999999998
 30
0.0
 11
750.125871
 21
461.093367
 31
0.0
  0
LINE
  5
751
330
6B
100
AcDbEntity
  8
0
100
AcDbLine
 10
784.982116
 20
477.158687
 30
0.0
 11
784.065774
 21
475.301941
 31
0.0
  0
LINE
  5
752
330
6B
100
AcDbEntity
  8
0
100
AcDbLine
 10
784.065774
 20
475.301941
 30
0.0
 11
785.787722
 21
476.4517599999998
 31
0.0
  0
LINE
  5
753
330
6B
100
AcDbEntity
  8
0
 62
     2
100
AcDbLine
 10
775.3033649999998
 20
511.469653
 30
0.0
 11
775.2767549999998
 21
511.640036
 31
0.0
  0
LINE
  5
754
330
6B
100
AcDbEntity
  8
0
 62
     2
100
AcDbLine
 10
775.2767549999998
 20
511.640036
 30
0.0
 11
775.2447959999998
 21
511.803185
 31
0.0
  0
LINE
  5
755
330
6B
100
AcDbEntity
  8
0
 62
     2
100
AcDbLine
 10
775.2447959999998
 20
511.803185
 30
0.0
 11
775.2077360000002
 21
511.957841
 31
0.0
  0
LINE
  5
756
330
6B
100
AcDbEntity
  8
0
 62
     2
100
AcDbLine
 10
775.2077360000002
 20
511.957841
 30
0.0
 11
775.165861
 21
512.102808
 31
0.0
  0
LINE
  5
757
330
6B
100
AcDbEntity
  8
0
 62
     2
100
AcDbLine
 10
775.165861
 20
512.102808
 30
0.0
 11
775.119496
 21
512.2369639999998
 31
0.0
  0
LINE
  5
758
330
6B
100
AcDbEntity
  8
0
 62
     2
100
AcDbLine
 10
775.119496
 20
512.2369639999998
 30
0.0
 11
775.068998
 21
512.359274
 31
0.0
  0
LINE
  5
759
330
6B
100
AcDbEntity
  8
0
 62
     2
100
AcDbLine
 10
775.068998
 20
512.359274
 30
0.0
 11
775.014758
 21
512.468792
 31
0.0
  0
LINE
  5
75A
330
6B
100
AcDbEntity
  8
0
 62
     2
100
AcDbLine
 10
775.014758
 20
512.468792
 30
0.0
 11
774.957195
 21
512.5646709999998
 31
0.0
  0
LINE
  5
75B
330
6B
100
AcDbEntity
  8
0
 62
     2
100
AcDbLine
 10
774.957195
 20
512.5646709999998
 30
0.0
 11
774.8967529999998
 21
512.64617
 31
0.0
  0
LINE
  5
75C
330
6B
100
AcDbEntity
  8
0
 62
     2
100
AcDbLine
 10
774.8967529999998
 20
512.64617
 30
0.0
 11
774.8339009999998
 21
512.7126599999997
 31
0.0
  0
LINE
  5
75D
330
6B
100
AcDbEntity
  8
0
 62
     2
100
AcDbLine
 10
774.8339009999998
 20
512.7126599999997
 30
0.0
 11
774.769124
 21
512.7636259999998
 31
0.0
  0
LINE
  5
75E
330
6B
100
AcDbEntity
  8
0
 62
     2
100
AcDbLine
 10
774.769124
 20
512.7636259999998
 30
0.0
 11
774.702923
 21
512.7986739999998
 31
0.0
  0
LINE
  5
75F
330
6B
100
AcDbEntity
  8
0
 62
     2
100
AcDbLine
 10
774.702923
 20
512.7986739999998
 30
0.0
 11
774.635808
 21
512.817534
 31
0.0
  0
LINE
  5
760
330
6B
100
AcDbEntity
  8
0
 62
     2
100
AcDbLine
 10
774.635808
 20
512.817534
 30
0.0
 11
774.5683
 21
512.820059
 31
0.0
  0
LINE
  5
761
330
6B
100
AcDbEntity
  8
0
 62
     2
100
AcDbLine
 10
774.5683
 20
512.820059
 30
0.0
 11
774.5009200000001
 21
512.8062309999998
 31
0.0
  0
LINE
  5
762
330
6B
100
AcDbEntity
  8
0
 62
     2
100
AcDbLine
 10
774.5009200000001
 20
512.8062309999998
 30
0.0
 11
774.4341889999998
 21
512.776156
 31
0.0
  0
LINE
  5
763
330
6B
100
AcDbEntity
  8
0
 62
     2
100
AcDbLine
 10
774.4341889999998
 20
512.776156
 30
0.0
 11
774.3686219999998
 21
512.7300659999998
 31
0.0
  0
LINE
  5
764
330
6B
100
AcDbEntity
  8
0
 62
     2
100
AcDbLine
 10
774.3686219999998
 20
512.7300659999998
 30
0.0
 11
774.3047259999998
 21
512.6683179999998
 31
0.0
  0
LINE
  5
765
330
6B
100
AcDbEntity
  8
0
 62
     2
100
AcDbLine
 10
774.3047259999998
 20
512.6683179999998
 30
0.0
 11
774.2429959999998
 21
512.5913889999998
 31
0.0
  0
LINE
  5
766
330
6B
100
AcDbEntity
  8
0
 62
     2
100
AcDbLine
 10
774.2429959999998
 20
512.5913889999998
 30
0.0
 11
774.183907
 21
512.4998739999998
 31
0.0
  0
LINE
  5
767
330
6B
100
AcDbEntity
  8
0
 62
     2
100
AcDbLine
 10
774.183907
 20
512.4998739999998
 30
0.0
 11
774.127918
 21
512.3944799999998
 31
0.0
  0
LINE
  5
768
330
6B
100
AcDbEntity
  8
0
 62
     2
100
AcDbLine
 10
774.127918
 20
512.3944799999998
 30
0.0
 11
774.075461
 21
512.2760219999999
 31
0.0
  0
LINE
  5
769
330
6B
100
AcDbEntity
  8
0
 62
     2
100
AcDbLine
 10
774.075461
 20
512.2760219999999
 30
0.0
 11
774.0269409999998
 21
512.145415
 31
0.0
  0
LINE
  5
76A
330
6B
100
AcDbEntity
  8
0
 62
     2
100
AcDbLine
 10
774.0269409999998
 20
512.145415
 30
0.0
 11
773.9827339999998
 21
512.003669
 31
0.0
  0
LINE
  5
76B
330
6B
100
AcDbEntity
  8
0
 62
     2
100
AcDbLine
 10
773.9827339999998
 20
512.003669
 30
0.0
 11
773.94318
 21
511.851879
 31
0.0
  0
LINE
  5
76C
330
6B
100
AcDbEntity
  8
0
 62
     2
100
AcDbLine
 10
773.94318
 20
511.851879
 30
0.0
 11
773.908586
 21
511.691219
 31
0.0
  0
LINE
  5
76D
330
6B
100
AcDbEntity
  8
0
 62
     2
100
AcDbLine
 10
773.908586
 20
511.691219
 30
0.0
 11
773.87922
 21
511.522931
 31
0.0
  0
LINE
  5
76E
330
6B
100
AcDbEntity
  8
0
 62
     2
100
AcDbLine
 10
773.87922
 20
511.522931
 30
0.0
 11
773.855307
 21
511.348315
 31
0.0
  0
LINE
  5
76F
330
6B
100
AcDbEntity
  8
0
 62
     2
100
AcDbLine
 10
773.855307
 20
511.348315
 30
0.0
 11
773.837034
 21
511.168721
 31
0.0
  0
LINE
  5
770
330
6B
100
AcDbEntity
  8
0
 62
     2
100
AcDbLine
 10
773.837034
 20
511.168721
 30
0.0
 11
773.8245410000001
 21
510.985537
 31
0.0
  0
LINE
  5
771
330
6B
100
AcDbEntity
  8
0
 62
     2
100
AcDbLine
 10
773.8245410000001
 20
510.985537
 30
0.0
 11
773.817924
 21
510.800179
 31
0.0
  0
LINE
  5
772
330
6B
100
AcDbEntity
  8
0
 62
     2
100
AcDbLine
 10
773.817924
 20
510.800179
 30
0.0
 11
773.817235
 21
510.61408
 31
0.0
  0
LINE
  5
773
330
6B
100
AcDbEntity
  8
0
 62
     2
100
AcDbLine
 10
773.817235
 20
510.61408
 30
0.0
 11
773.8224799999998
 21
510.4286789999998
 31
0.0
  0
LINE
  5
774
330
6B
100
AcDbEntity
  8
0
 62
     2
100
AcDbLine
 10
773.8224799999998
 20
510.4286789999998
 30
0.0
 11
773.833617
 21
510.245407
 31
0.0
  0
LINE
  5
775
330
6B
100
AcDbEntity
  8
0
 62
     2
100
AcDbLine
 10
773.833617
 20
510.245407
 30
0.0
 11
773.850561
 21
510.065683
 31
0.0
  0
LINE
  5
776
330
6B
100
AcDbEntity
  8
0
 62
     2
100
AcDbLine
 10
773.850561
 20
510.065683
 30
0.0
 11
773.8731809999998
 21
509.890895
 31
0.0
  0
LINE
  5
777
330
6B
100
AcDbEntity
  8
0
 62
     2
100
AcDbLine
 10
773.8731809999998
 20
509.890895
 30
0.0
 11
773.9013019999998
 21
509.7223940000001
 31
0.0
  0
LINE
  5
778
330
6B
100
AcDbEntity
  8
0
 62
     2
100
AcDbLine
 10
773.9013019999998
 20
509.7223940000001
 30
0.0
 11
773.934706
 21
509.561482
 31
0.0
  0
LINE
  5
779
330
6B
100
AcDbEntity
  8
0
 62
     2
100
AcDbLine
 10
773.934706
 20
509.561482
 30
0.0
 11
773.9731349999998
 21
509.4094039999998
 31
0.0
  0
LINE
  5
77A
330
6B
100
AcDbEntity
  8
0
 62
     2
100
AcDbLine
 10
773.9731349999998
 20
509.4094039999998
 30
0.0
 11
774.016292
 21
509.2673349999998
 31
0.0
  0
LINE
  5
77B
330
6B
100
AcDbEntity
  8
0
 62
     2
100
AcDbLine
 10
774.016292
 20
509.2673349999998
 30
0.0
 11
774.063844
 21
509.136372
 31
0.0
  0
LINE
  5
77C
330
6B
100
AcDbEntity
  8
0
 62
     2
100
AcDbLine
 10
774.063844
 20
509.136372
 30
0.0
 11
774.1154230000002
 21
509.017529
 31
0.0
  0
LINE
  5
77D
330
6B
100
AcDbEntity
  8
0
 62
     2
100
AcDbLine
 10
774.1154230000002
 20
509.017529
 30
0.0
 11
774.1706309999998
 21
508.911723
 31
0.0
  0
LINE
  5
77E
330
6B
100
AcDbEntity
  8
0
 62
     2
100
AcDbLine
 10
774.1706309999998
 20
508.911723
 30
0.0
 11
774.22904
 21
508.819774
 31
0.0
  0
LINE
  5
77F
330
6B
100
AcDbEntity
  8
0
 62
     2
100
AcDbLine
 10
774.22904
 20
508.819774
 30
0.0
 11
774.2902
 21
508.74239
 31
0.0
  0
LINE
  5
780
330
6B
100
AcDbEntity
  8
0
 62
     2
100
AcDbLine
 10
774.2902
 20
508.74239
 30
0.0
 11
774.3536370000001
 21
508.6801709999998
 31
0.0
  0
LINE
  5
781
330
6B
100
AcDbEntity
  8
0
 62
     2
100
AcDbLine
 10
774.3536370000001
 20
508.6801709999998
 30
0.0
 11
774.418861
 21
508.6335969999998
 31
0.0
  0
LINE
  5
782
330
6B
100
AcDbEntity
  8
0
 62
     2
100
AcDbLine
 10
774.418861
 20
508.6335969999998
 30
0.0
 11
774.485368
 21
508.603029
 31
0.0
  0
LINE
  5
783
330
6B
100
AcDbEntity
  8
0
 62
     2
100
AcDbLine
 10
774.485368
 20
508.603029
 30
0.0
 11
774.5526439999999
 21
508.588703
 31
0.0
  0
LINE
  5
784
330
6B
100
AcDbEntity
  8
0
 62
     2
100
AcDbLine
 10
774.5526439999999
 20
508.588703
 30
0.0
 11
774.620169
 21
508.5907279999998
 31
0.0
  0
LINE
  5
785
330
6B
100
AcDbEntity
  8
0
 62
     2
100
AcDbLine
 10
774.620169
 20
508.5907279999998
 30
0.0
 11
774.6874209999998
 21
508.609091
 31
0.0
  0
LINE
  5
786
330
6B
100
AcDbEntity
  8
0
 62
     2
100
AcDbLine
 10
774.6874209999998
 20
508.609091
 30
0.0
 11
774.75388
 21
508.643648
 31
0.0
  0
LINE
  5
787
330
6B
100
AcDbEntity
  8
0
 62
     2
100
AcDbLine
 10
774.75388
 20
508.643648
 30
0.0
 11
774.8190319999999
 21
508.694134
 31
0.0
  0
LINE
  5
788
330
6B
100
AcDbEntity
  8
0
 62
     2
100
AcDbLine
 10
774.8190319999999
 20
508.694134
 30
0.0
 11
774.882375
 21
508.7601559999998
 31
0.0
  0
LINE
  5
789
330
6B
100
AcDbEntity
  8
0
 62
     2
100
AcDbLine
 10
774.882375
 20
508.7601559999998
 30
0.0
 11
774.9434169999998
 21
508.8412059999998
 31
0.0
  0
LINE
  5
78A
330
6B
100
AcDbEntity
  8
0
 62
     2
100
AcDbLine
 10
774.9434169999998
 20
508.8412059999998
 30
0.0
 11
775.0016879999998
 21
508.936656
 31
0.0
  0
LINE
  5
78B
330
6B
100
AcDbEntity
  8
0
 62
     2
100
AcDbLine
 10
775.0016879999998
 20
508.936656
 30
0.0
 11
775.056738
 21
509.0457699999998
 31
0.0
  0
LINE
  5
78C
330
6B
100
AcDbEntity
  8
0
 62
     2
100
AcDbLine
 10
775.056738
 20
509.0457699999998
 30
0.0
 11
775.1081389999998
 21
509.167703
 31
0.0
  0
LINE
  5
78D
330
6B
100
AcDbEntity
  8
0
 62
     2
100
AcDbLine
 10
775.1081389999998
 20
509.167703
 30
0.0
 11
775.1554959999999
 21
509.301513
 31
0.0
  0
LINE
  5
78E
330
6B
100
AcDbEntity
  8
0
 62
     2
100
AcDbLine
 10
775.1554959999999
 20
509.301513
 30
0.0
 11
775.198442
 21
509.446165
 31
0.0
  0
LINE
  5
78F
330
6B
100
AcDbEntity
  8
0
 62
     2
100
AcDbLine
 10
775.198442
 20
509.446165
 30
0.0
 11
775.2366459999998
 21
509.6005429999998
 31
0.0
  0
LINE
  5
790
330
6B
100
AcDbEntity
  8
0
 62
     2
100
AcDbLine
 10
775.2366459999998
 20
509.6005429999998
 30
0.0
 11
775.2698109999998
 21
509.7634509999998
 31
0.0
  0
LINE
  5
791
330
6B
100
AcDbEntity
  8
0
 62
     2
100
AcDbLine
 10
775.2698109999998
 20
509.7634509999998
 30
0.0
 11
775.297682
 21
509.933632
 31
0.0
  0
LINE
  5
792
330
6B
100
AcDbEntity
  8
0
100
AcDbLine
 10
697.717995
 20
416.802493
 30
0.0
 11
697.6989679999998
 21
417.1075379999998
 31
0.0
  0
LINE
  5
793
330
6B
100
AcDbEntity
  8
0
100
AcDbLine
 10
697.6989679999998
 20
417.1075379999998
 30
0.0
 11
697.6420339999998
 21
417.410261
 31
0.0
  0
LINE
  5
794
330
6B
100
AcDbEntity
  8
0
100
AcDbLine
 10
697.6420339999998
 20
417.410261
 30
0.0
 11
697.547624
 21
417.7083589999998
 31
0.0
  0
LINE
  5
795
330
6B
100
AcDbEntity
  8
0
100
AcDbLine
 10
697.547624
 20
417.7083589999998
 30
0.0
 11
697.416458
 21
417.9995629999998
 31
0.0
  0
LINE
  5
796
330
6B
100
AcDbEntity
  8
0
100
AcDbLine
 10
697.416458
 20
417.9995629999998
 30
0.0
 11
697.249534
 21
418.2816569999998
 31
0.0
  0
LINE
  5
797
330
6B
100
AcDbEntity
  8
0
100
AcDbLine
 10
697.249534
 20
418.2816569999998
 30
0.0
 11
697.0481219999998
 21
418.552493
 31
0.0
  0
LINE
  5
798
330
6B
100
AcDbEntity
  8
0
100
AcDbLine
 10
697.0481219999998
 20
418.552493
 30
0.0
 11
696.813755
 21
418.81001
 31
0.0
  0
LINE
  5
799
330
6B
100
AcDbEntity
  8
0
100
AcDbLine
 10
696.813755
 20
418.81001
 30
0.0
 11
696.548217
 21
419.052249
 31
0.0
  0
LINE
  5
79A
330
6B
100
AcDbEntity
  8
0
100
AcDbLine
 10
696.548217
 20
419.052249
 30
0.0
 11
696.2535289999998
 21
419.277366
 31
0.0
  0
LINE
  5
79B
330
6B
100
AcDbEntity
  8
0
100
AcDbLine
 10
696.2535289999998
 20
419.277366
 30
0.0
 11
695.9319329999998
 21
419.483648
 31
0.0
  0
LINE
  5
79C
330
6B
100
AcDbEntity
  8
0
100
AcDbLine
 10
695.9319329999998
 20
419.483648
 30
0.0
 11
695.5858769999998
 21
419.669525
 31
0.0
  0
LINE
  5
79D
330
6B
100
AcDbEntity
  8
0
100
AcDbLine
 10
695.5858769999998
 20
419.669525
 30
0.0
 11
695.2179949999998
 21
419.833582
 31
0.0
  0
LINE
  5
79E
330
6B
100
AcDbEntity
  8
0
100
AcDbLine
 10
695.2179949999998
 20
419.833582
 30
0.0
 11
694.831086
 21
419.97457
 31
0.0
  0
LINE
  5
79F
330
6B
100
AcDbEntity
  8
0
100
AcDbLine
 10
694.831086
 20
419.97457
 30
0.0
 11
694.428096
 21
420.0914169999999
 31
0.0
  0
LINE
  5
7A0
330
6B
100
AcDbEntity
  8
0
100
AcDbLine
 10
694.428096
 20
420.0914169999999
 30
0.0
 11
694.0120900000001
 21
420.183233
 31
0.0
  0
LINE
  5
7A1
330
6B
100
AcDbEntity
  8
0
100
AcDbLine
 10
694.0120900000001
 20
420.183233
 30
0.0
 11
693.5862359999998
 21
420.24932
 31
0.0
  0
LINE
  5
7A2
330
6B
100
AcDbEntity
  8
0
100
AcDbLine
 10
693.5862359999998
 20
420.24932
 30
0.0
 11
693.153774
 21
420.289174
 31
0.0
  0
LINE
  5
7A3
330
6B
100
AcDbEntity
  8
0
100
AcDbLine
 10
693.153774
 20
420.289174
 30
0.0
 11
692.717995
 21
420.3024929999998
 31
0.0
  0
LINE
  5
7A4
330
6B
100
AcDbEntity
  8
0
100
AcDbLine
 10
692.717995
 20
420.3024929999998
 30
0.0
 11
692.282216
 21
420.289174
 31
0.0
  0
LINE
  5
7A5
330
6B
100
AcDbEntity
  8
0
100
AcDbLine
 10
692.282216
 20
420.289174
 30
0.0
 11
691.8497539999998
 21
420.24932
 31
0.0
  0
LINE
  5
7A6
330
6B
100
AcDbEntity
  8
0
100
AcDbLine
 10
691.8497539999998
 20
420.24932
 30
0.0
 11
691.4239
 21
420.183233
 31
0.0
  0
LINE
  5
7A7
330
6B
100
AcDbEntity
  8
0
100
AcDbLine
 10
691.4239
 20
420.183233
 30
0.0
 11
691.007894
 21
420.0914169999999
 31
0.0
  0
LINE
  5
7A8
330
6B
100
AcDbEntity
  8
0
100
AcDbLine
 10
691.007894
 20
420.0914169999999
 30
0.0
 11
690.604903
 21
419.97457
 31
0.0
  0
LINE
  5
7A9
330
6B
100
AcDbEntity
  8
0
100
AcDbLine
 10
690.604903
 20
419.97457
 30
0.0
 11
690.2179949999998
 21
419.833582
 31
0.0
  0
LINE
  5
7AA
330
6B
100
AcDbEntity
  8
0
100
AcDbLine
 10
690.2179949999998
 20
419.833582
 30
0.0
 11
689.8501129999998
 21
419.669525
 31
0.0
  0
LINE
  5
7AB
330
6B
100
AcDbEntity
  8
0
100
AcDbLine
 10
689.8501129999998
 20
419.669525
 30
0.0
 11
689.5040569999999
 21
419.483648
 31
0.0
  0
LINE
  5
7AC
330
6B
100
AcDbEntity
  8
0
100
AcDbLine
 10
689.5040569999999
 20
419.483648
 30
0.0
 11
689.182461
 21
419.277366
 31
0.0
  0
LINE
  5
7AD
330
6B
100
AcDbEntity
  8
0
100
AcDbLine
 10
689.182461
 20
419.277366
 30
0.0
 11
688.887773
 21
419.052249
 31
0.0
  0
LINE
  5
7AE
330
6B
100
AcDbEntity
  8
0
100
AcDbLine
 10
688.887773
 20
419.052249
 30
0.0
 11
688.6222349999997
 21
418.81001
 31
0.0
  0
LINE
  5
7AF
330
6B
100
AcDbEntity
  8
0
100
AcDbLine
 10
688.6222349999997
 20
418.81001
 30
0.0
 11
688.387868
 21
418.552493
 31
0.0
  0
LINE
  5
7B0
330
6B
100
AcDbEntity
  8
0
100
AcDbLine
 10
688.387868
 20
418.552493
 30
0.0
 11
688.1864559999997
 21
418.2816569999998
 31
0.0
  0
LINE
  5
7B1
330
6B
100
AcDbEntity
  8
0
100
AcDbLine
 10
688.1864559999997
 20
418.2816569999998
 30
0.0
 11
688.019532
 21
417.9995629999998
 31
0.0
  0
LINE
  5
7B2
330
6B
100
AcDbEntity
  8
0
100
AcDbLine
 10
688.019532
 20
417.9995629999998
 30
0.0
 11
687.888366
 21
417.7083589999998
 31
0.0
  0
LINE
  5
7B3
330
6B
100
AcDbEntity
  8
0
100
AcDbLine
 10
687.888366
 20
417.7083589999998
 30
0.0
 11
687.7939559999998
 21
417.410261
 31
0.0
  0
LINE
  5
7B4
330
6B
100
AcDbEntity
  8
0
100
AcDbLine
 10
687.7939559999998
 20
417.410261
 30
0.0
 11
687.737021
 21
417.1075379999998
 31
0.0
  0
LINE
  5
7B5
330
6B
100
AcDbEntity
  8
0
100
AcDbLine
 10
687.737021
 20
417.1075379999998
 30
0.0
 11
687.7179949999998
 21
416.802493
 31
0.0
  0
LINE
  5
7B6
330
6B
100
AcDbEntity
  8
0
100
AcDbLine
 10
687.7179949999998
 20
416.802493
 30
0.0
 11
687.737021
 21
416.497448
 31
0.0
  0
LINE
  5
7B7
330
6B
100
AcDbEntity
  8
0
100
AcDbLine
 10
687.737021
 20
416.497448
 30
0.0
 11
687.7939559999998
 21
416.1947239999998
 31
0.0
  0
LINE
  5
7B8
330
6B
100
AcDbEntity
  8
0
100
AcDbLine
 10
687.7939559999998
 20
416.1947239999998
 30
0.0
 11
687.888366
 21
415.8966259999998
 31
0.0
  0
LINE
  5
7B9
330
6B
100
AcDbEntity
  8
0
100
AcDbLine
 10
687.888366
 20
415.8966259999998
 30
0.0
 11
688.019532
 21
415.605422
 31
0.0
  0
LINE
  5
7BA
330
6B
100
AcDbEntity
  8
0
100
AcDbLine
 10
688.019532
 20
415.605422
 30
0.0
 11
688.1864559999997
 21
415.323329
 31
0.0
  0
LINE
  5
7BB
330
6B
100
AcDbEntity
  8
0
100
AcDbLine
 10
688.1864559999997
 20
415.323329
 30
0.0
 11
688.387868
 21
415.052493
 31
0.0
  0
LINE
  5
7BC
330
6B
100
AcDbEntity
  8
0
100
AcDbLine
 10
688.387868
 20
415.052493
 30
0.0
 11
688.6222349999997
 21
414.794975
 31
0.0
  0
LINE
  5
7BD
330
6B
100
AcDbEntity
  8
0
100
AcDbLine
 10
688.6222349999997
 20
414.794975
 30
0.0
 11
688.887773
 21
414.5527359999999
 31
0.0
  0
LINE
  5
7BE
330
6B
100
AcDbEntity
  8
0
100
AcDbLine
 10
688.887773
 20
414.5527359999999
 30
0.0
 11
689.182461
 21
414.3276189999999
 31
0.0
  0
LINE
  5
7BF
330
6B
100
AcDbEntity
  8
0
100
AcDbLine
 10
689.182461
 20
414.3276189999999
 30
0.0
 11
689.5040569999999
 21
414.121337
 31
0.0
  0
LINE
  5
7C0
330
6B
100
AcDbEntity
  8
0
100
AcDbLine
 10
689.5040569999999
 20
414.121337
 30
0.0
 11
689.8501129999998
 21
413.9354609999998
 31
0.0
  0
LINE
  5
7C1
330
6B
100
AcDbEntity
  8
0
100
AcDbLine
 10
689.8501129999998
 20
413.9354609999998
 30
0.0
 11
690.2179949999998
 21
413.771404
 31
0.0
  0
LINE
  5
7C2
330
6B
100
AcDbEntity
  8
0
100
AcDbLine
 10
690.2179949999998
 20
413.771404
 30
0.0
 11
690.604903
 21
413.6304159999999
 31
0.0
  0
LINE
  5
7C3
330
6B
100
AcDbEntity
  8
0
100
AcDbLine
 10
690.604903
 20
413.6304159999999
 30
0.0
 11
691.007894
 21
413.513569
 31
0.0
  0
LINE
  5
7C4
330
6B
100
AcDbEntity
  8
0
100
AcDbLine
 10
691.007894
 20
413.513569
 30
0.0
 11
691.4239
 21
413.4217519999998
 31
0.0
  0
LINE
  5
7C5
330
6B
100
AcDbEntity
  8
0
100
AcDbLine
 10
691.4239
 20
413.4217519999998
 30
0.0
 11
691.8497539999998
 21
413.355666
 31
0.0
  0
LINE
  5
7C6
330
6B
100
AcDbEntity
  8
0
100
AcDbLine
 10
691.8497539999998
 20
413.355666
 30
0.0
 11
692.282216
 21
413.315811
 31
0.0
  0
LINE
  5
7C7
330
6B
100
AcDbEntity
  8
0
100
AcDbLine
 10
692.282216
 20
413.315811
 30
0.0
 11
692.717995
 21
413.302493
 31
0.0
  0
LINE
  5
7C8
330
6B
100
AcDbEntity
  8
0
100
AcDbLine
 10
692.717995
 20
413.302493
 30
0.0
 11
693.153774
 21
413.315811
 31
0.0
  0
LINE
  5
7C9
330
6B
100
AcDbEntity
  8
0
100
AcDbLine
 10
693.153774
 20
413.315811
 30
0.0
 11
693.5862359999998
 21
413.355666
 31
0.0
  0
LINE
  5
7CA
330
6B
100
AcDbEntity
  8
0
100
AcDbLine
 10
693.5862359999998
 20
413.355666
 30
0.0
 11
694.0120900000001
 21
413.4217519999998
 31
0.0
  0
LINE
  5
7CB
330
6B
100
AcDbEntity
  8
0
100
AcDbLine
 10
694.0120900000001
 20
413.4217519999998
 30
0.0
 11
694.428096
 21
413.513569
 31
0.0
  0
LINE
  5
7CC
330
6B
100
AcDbEntity
  8
0
100
AcDbLine
 10
694.428096
 20
413.513569
 30
0.0
 11
694.831086
 21
413.6304159999999
 31
0.0
  0
LINE
  5
7CD
330
6B
100
AcDbEntity
  8
0
100
AcDbLine
 10
694.831086
 20
413.6304159999999
 30
0.0
 11
695.2179949999998
 21
413.771404
 31
0.0
  0
LINE
  5
7CE
330
6B
100
AcDbEntity
  8
0
100
AcDbLine
 10
695.2179949999998
 20
413.771404
 30
0.0
 11
695.5858769999998
 21
413.9354609999998
 31
0.0
  0
LINE
  5
7CF
330
6B
100
AcDbEntity
  8
0
100
AcDbLine
 10
695.5858769999998
 20
413.9354609999998
 30
0.0
 11
695.9319329999998
 21
414.121337
 31
0.0
  0
LINE
  5
7D0
330
6B
100
AcDbEntity
  8
0
100
AcDbLine
 10
695.9319329999998
 20
414.121337
 30
0.0
 11
696.2535289999998
 21
414.3276189999999
 31
0.0
  0
LINE
  5
7D1
330
6B
100
AcDbEntity
  8
0
100
AcDbLine
 10
696.2535289999998
 20
414.3276189999999
 30
0.0
 11
696.548217
 21
414.5527359999999
 31
0.0
  0
LINE
  5
7D2
330
6B
100
AcDbEntity
  8
0
100
AcDbLine
 10
696.548217
 20
414.5527359999999
 30
0.0
 11
696.813755
 21
414.794975
 31
0.0
  0
LINE
  5
7D3
330
6B
100
AcDbEntity
  8
0
100
AcDbLine
 10
696.813755
 20
414.794975
 30
0.0
 11
697.0481219999998
 21
415.052493
 31
0.0
  0
LINE
  5
7D4
330
6B
100
AcDbEntity
  8
0
100
AcDbLine
 10
697.0481219999998
 20
415.052493
 30
0.0
 11
697.249534
 21
415.323329
 31
0.0
  0
LINE
  5
7D5
330
6B
100
AcDbEntity
  8
0
100
AcDbLine
 10
697.249534
 20
415.323329
 30
0.0
 11
697.416458
 21
415.605422
 31
0.0
  0
LINE
  5
7D6
330
6B
100
AcDbEntity
  8
0
100
AcDbLine
 10
697.416458
 20
415.605422
 30
0.0
 11
697.547624
 21
415.8966259999998
 31
0.0
  0
LINE
  5
7D7
330
6B
100
AcDbEntity
  8
0
100
AcDbLine
 10
697.547624
 20
415.8966259999998
 30
0.0
 11
697.6420339999998
 21
416.1947239999998
 31
0.0
  0
LINE
  5
7D8
330
6B
100
AcDbEntity
  8
0
100
AcDbLine
 10
697.6420339999998
 20
416.1947239999998
 30
0.0
 11
697.6989679999998
 21
416.497448
 31
0.0
  0
LINE
  5
7D9
330
6B
100
AcDbEntity
  8
0
100
AcDbLine
 10
697.6989679999998
 20
416.497448
 30
0.0
 11
697.717995
 21
416.802493
 31
0.0
  0
LINE
  5
7DA
330
6B
100
AcDbEntity
  8
0
100
AcDbLine
 10
711.2239499999998
 20
320.802493
 30
0.0
 11
710.962483
 21
320.789174
 31
0.0
  0
LINE
  5
7DB
330
6B
100
AcDbEntity
  8
0
100
AcDbLine
 10
710.962483
 20
320.789174
 30
0.0
 11
710.7030049999998
 21
320.74932
 31
0.0
  0
LINE
  5
7DC
330
6B
100
AcDbEntity
  8
0
100
AcDbLine
 10
710.7030049999998
 20
320.74932
 30
0.0
 11
710.447493
 21
320.6832330000001
 31
0.0
  0
LINE
  5
7DD
330
6B
100
AcDbEntity
  8
0
100
AcDbLine
 10
710.447493
 20
320.6832330000001
 30
0.0
 11
710.19789
 21
320.591417
 31
0.0
  0
LINE
  5
7DE
330
6B
100
AcDbEntity
  8
0
100
AcDbLine
 10
710.19789
 20
320.591417
 30
0.0
 11
709.9560949999998
 21
320.47457
 31
0.0
  0
LINE
  5
7DF
330
6B
100
AcDbEntity
  8
0
100
AcDbLine
 10
709.9560949999998
 20
320.47457
 30
0.0
 11
709.7239499999998
 21
320.333582
 31
0.0
  0
LINE
  5
7E0
330
6B
100
AcDbEntity
  8
0
100
AcDbLine
 10
709.7239499999998
 20
320.333582
 30
0.0
 11
709.5032209999998
 21
320.169525
 31
0.0
  0
LINE
  5
7E1
330
6B
100
AcDbEntity
  8
0
100
AcDbLine
 10
709.5032209999998
 20
320.169525
 30
0.0
 11
709.2955869999998
 21
319.983648
 31
0.0
  0
LINE
  5
7E2
330
6B
100
AcDbEntity
  8
0
100
AcDbLine
 10
709.2955869999998
 20
319.983648
 30
0.0
 11
709.10263
 21
319.777366
 31
0.0
  0
LINE
  5
7E3
330
6B
100
AcDbEntity
  8
0
100
AcDbLine
 10
709.10263
 20
319.777366
 30
0.0
 11
708.9258169999998
 21
319.552249
 31
0.0
  0
LINE
  5
7E4
330
6B
100
AcDbEntity
  8
0
100
AcDbLine
 10
708.9258169999998
 20
319.552249
 30
0.0
 11
708.766494
 21
319.31001
 31
0.0
  0
LINE
  5
7E5
330
6B
100
AcDbEntity
  8
0
100
AcDbLine
 10
708.766494
 20
319.31001
 30
0.0
 11
708.625874
 21
319.052493
 31
0.0
  0
LINE
  5
7E6
330
6B
100
AcDbEntity
  8
0
100
AcDbLine
 10
708.625874
 20
319.052493
 30
0.0
 11
708.5050269999998
 21
318.781657
 31
0.0
  0
LINE
  5
7E7
330
6B
100
AcDbEntity
  8
0
100
AcDbLine
 10
708.5050269999998
 20
318.781657
 30
0.0
 11
708.4048719999998
 21
318.4995629999999
 31
0.0
  0
LINE
  5
7E8
330
6B
100
AcDbEntity
  8
0
100
AcDbLine
 10
708.4048719999998
 20
318.4995629999999
 30
0.0
 11
708.326173
 21
318.208359
 31
0.0
  0
LINE
  5
7E9
330
6B
100
AcDbEntity
  8
0
100
AcDbLine
 10
708.326173
 20
318.208359
 30
0.0
 11
708.2695269999998
 21
317.910261
 31
0.0
  0
LINE
  5
7EA
330
6B
100
AcDbEntity
  8
0
100
AcDbLine
 10
708.2695269999998
 20
317.910261
 30
0.0
 11
708.2353659999998
 21
317.607538
 31
0.0
  0
LINE
  5
7EB
330
6B
100
AcDbEntity
  8
0
100
AcDbLine
 10
708.2353659999998
 20
317.607538
 30
0.0
 11
708.22395
 21
317.302493
 31
0.0
  0
LINE
  5
7EC
330
6B
100
AcDbEntity
  8
0
100
AcDbLine
 10
708.22395
 20
317.302493
 30
0.0
 11
708.2353659999998
 21
316.997448
 31
0.0
  0
LINE
  5
7ED
330
6B
100
AcDbEntity
  8
0
100
AcDbLine
 10
708.2353659999998
 20
316.997448
 30
0.0
 11
708.2695269999998
 21
316.694724
 31
0.0
  0
LINE
  5
7EE
330
6B
100
AcDbEntity
  8
0
100
AcDbLine
 10
708.2695269999998
 20
316.694724
 30
0.0
 11
708.326173
 21
316.396626
 31
0.0
  0
LINE
  5
7EF
330
6B
100
AcDbEntity
  8
0
100
AcDbLine
 10
708.326173
 20
316.396626
 30
0.0
 11
708.4048719999998
 21
316.105422
 31
0.0
  0
LINE
  5
7F0
330
6B
100
AcDbEntity
  8
0
100
AcDbLine
 10
708.4048719999998
 20
316.105422
 30
0.0
 11
708.5050269999998
 21
315.823329
 31
0.0
  0
LINE
  5
7F1
330
6B
100
AcDbEntity
  8
0
100
AcDbLine
 10
708.5050269999998
 20
315.823329
 30
0.0
 11
708.625874
 21
315.552493
 31
0.0
  0
LINE
  5
7F2
330
6B
100
AcDbEntity
  8
0
100
AcDbLine
 10
708.625874
 20
315.552493
 30
0.0
 11
708.766494
 21
315.294975
 31
0.0
  0
LINE
  5
7F3
330
6B
100
AcDbEntity
  8
0
100
AcDbLine
 10
708.766494
 20
315.294975
 30
0.0
 11
708.9258169999998
 21
315.052736
 31
0.0
  0
LINE
  5
7F4
330
6B
100
AcDbEntity
  8
0
100
AcDbLine
 10
708.9258169999998
 20
315.052736
 30
0.0
 11
709.10263
 21
314.827619
 31
0.0
  0
LINE
  5
7F5
330
6B
100
AcDbEntity
  8
0
100
AcDbLine
 10
709.10263
 20
314.827619
 30
0.0
 11
709.2955869999998
 21
314.621337
 31
0.0
  0
LINE
  5
7F6
330
6B
100
AcDbEntity
  8
0
100
AcDbLine
 10
709.2955869999998
 20
314.621337
 30
0.0
 11
709.5032209999998
 21
314.435461
 31
0.0
  0
LINE
  5
7F7
330
6B
100
AcDbEntity
  8
0
100
AcDbLine
 10
709.5032209999998
 20
314.435461
 30
0.0
 11
709.7239499999998
 21
314.271404
 31
0.0
  0
LINE
  5
7F8
330
6B
100
AcDbEntity
  8
0
100
AcDbLine
 10
709.7239499999998
 20
314.271404
 30
0.0
 11
709.9560949999998
 21
314.130416
 31
0.0
  0
LINE
  5
7F9
330
6B
100
AcDbEntity
  8
0
100
AcDbLine
 10
709.9560949999998
 20
314.130416
 30
0.0
 11
710.19789
 21
314.013569
 31
0.0
  0
LINE
  5
7FA
330
6B
100
AcDbEntity
  8
0
100
AcDbLine
 10
710.19789
 20
314.013569
 30
0.0
 11
710.447493
 21
313.921752
 31
0.0
  0
LINE
  5
7FB
330
6B
100
AcDbEntity
  8
0
100
AcDbLine
 10
710.447493
 20
313.921752
 30
0.0
 11
710.7030049999998
 21
313.855666
 31
0.0
  0
LINE
  5
7FC
330
6B
100
AcDbEntity
  8
0
100
AcDbLine
 10
710.7030049999998
 20
313.855666
 30
0.0
 11
710.962483
 21
313.815811
 31
0.0
  0
LINE
  5
7FD
330
6B
100
AcDbEntity
  8
0
100
AcDbLine
 10
710.962483
 20
313.815811
 30
0.0
 11
711.2239499999998
 21
313.802493
 31
0.0
  0
LINE
  5
7FE
330
6B
100
AcDbEntity
  8
0
100
AcDbLine
 10
711.2239499999998
 20
313.802493
 30
0.0
 11
711.485417
 21
313.815811
 31
0.0
  0
LINE
  5
7FF
330
6B
100
AcDbEntity
  8
0
100
AcDbLine
 10
711.485417
 20
313.815811
 30
0.0
 11
711.744895
 21
313.855666
 31
0.0
  0
LINE
  5
800
330
6B
100
AcDbEntity
  8
0
100
AcDbLine
 10
711.744895
 20
313.855666
 30
0.0
 11
712.000407
 21
313.921752
 31
0.0
  0
LINE
  5
801
330
6B
100
AcDbEntity
  8
0
100
AcDbLine
 10
712.000407
 20
313.921752
 30
0.0
 11
712.2500099999999
 21
314.013569
 31
0.0
  0
LINE
  5
802
330
6B
100
AcDbEntity
  8
0
100
AcDbLine
 10
712.2500099999999
 20
314.013569
 30
0.0
 11
712.4918049999998
 21
314.130416
 31
0.0
  0
LINE
  5
803
330
6B
100
AcDbEntity
  8
0
100
AcDbLine
 10
712.4918049999998
 20
314.130416
 30
0.0
 11
712.7239499999998
 21
314.271404
 31
0.0
  0
LINE
  5
804
330
6B
100
AcDbEntity
  8
0
100
AcDbLine
 10
712.7239499999998
 20
314.271404
 30
0.0
 11
712.9446789999998
 21
314.435461
 31
0.0
  0
LINE
  5
805
330
6B
100
AcDbEntity
  8
0
100
AcDbLine
 10
712.9446789999998
 20
314.435461
 30
0.0
 11
713.1523129999997
 21
314.621337
 31
0.0
  0
LINE
  5
806
330
6B
100
AcDbEntity
  8
0
100
AcDbLine
 10
713.1523129999997
 20
314.621337
 30
0.0
 11
713.34527
 21
314.827619
 31
0.0
  0
LINE
  5
807
330
6B
100
AcDbEntity
  8
0
100
AcDbLine
 10
713.34527
 20
314.827619
 30
0.0
 11
713.5220829999998
 21
315.052736
 31
0.0
  0
LINE
  5
808
330
6B
100
AcDbEntity
  8
0
100
AcDbLine
 10
713.5220829999998
 20
315.052736
 30
0.0
 11
713.6814059999997
 21
315.294975
 31
0.0
  0
LINE
  5
809
330
6B
100
AcDbEntity
  8
0
100
AcDbLine
 10
713.6814059999997
 20
315.294975
 30
0.0
 11
713.8220259999997
 21
315.552493
 31
0.0
  0
LINE
  5
80A
330
6B
100
AcDbEntity
  8
0
100
AcDbLine
 10
713.8220259999997
 20
315.552493
 30
0.0
 11
713.942873
 21
315.823329
 31
0.0
  0
LINE
  5
80B
330
6B
100
AcDbEntity
  8
0
100
AcDbLine
 10
713.942873
 20
315.823329
 30
0.0
 11
714.043028
 21
316.105422
 31
0.0
  0
LINE
  5
80C
330
6B
100
AcDbEntity
  8
0
100
AcDbLine
 10
714.043028
 20
316.105422
 30
0.0
 11
714.1217269999998
 21
316.396626
 31
0.0
  0
LINE
  5
80D
330
6B
100
AcDbEntity
  8
0
100
AcDbLine
 10
714.1217269999998
 20
316.396626
 30
0.0
 11
714.1783730000001
 21
316.694724
 31
0.0
  0
LINE
  5
80E
330
6B
100
AcDbEntity
  8
0
100
AcDbLine
 10
714.1783730000001
 20
316.694724
 30
0.0
 11
714.2125339999998
 21
316.997448
 31
0.0
  0
LINE
  5
80F
330
6B
100
AcDbEntity
  8
0
100
AcDbLine
 10
714.2125339999998
 20
316.997448
 30
0.0
 11
714.2239499999998
 21
317.302493
 31
0.0
  0
LINE
  5
810
330
6B
100
AcDbEntity
  8
0
100
AcDbLine
 10
714.2239499999998
 20
317.302493
 30
0.0
 11
714.2125339999998
 21
317.607538
 31
0.0
  0
LINE
  5
811
330
6B
100
AcDbEntity
  8
0
100
AcDbLine
 10
714.2125339999998
 20
317.607538
 30
0.0
 11
714.1783730000001
 21
317.910261
 31
0.0
  0
LINE
  5
812
330
6B
100
AcDbEntity
  8
0
100
AcDbLine
 10
714.1783730000001
 20
317.910261
 30
0.0
 11
714.1217269999998
 21
318.208359
 31
0.0
  0
LINE
  5
813
330
6B
100
AcDbEntity
  8
0
100
AcDbLine
 10
714.1217269999998
 20
318.208359
 30
0.0
 11
714.043028
 21
318.4995629999999
 31
0.0
  0
LINE
  5
814
330
6B
100
AcDbEntity
  8
0
100
AcDbLine
 10
714.043028
 20
318.4995629999999
 30
0.0
 11
713.942873
 21
318.781657
 31
0.0
  0
LINE
  5
815
330
6B
100
AcDbEntity
  8
0
100
AcDbLine
 10
713.942873
 20
318.781657
 30
0.0
 11
713.8220259999997
 21
319.052493
 31
0.0
  0
LINE
  5
816
330
6B
100
AcDbEntity
  8
0
100
AcDbLine
 10
713.8220259999997
 20
319.052493
 30
0.0
 11
713.6814059999997
 21
319.31001
 31
0.0
  0
LINE
  5
817
330
6B
100
AcDbEntity
  8
0
100
AcDbLine
 10
713.6814059999997
 20
319.31001
 30
0.0
 11
713.5220829999998
 21
319.552249
 31
0.0
  0
LINE
  5
818
330
6B
100
AcDbEntity
  8
0
100
AcDbLine
 10
713.5220829999998
 20
319.552249
 30
0.0
 11
713.34527
 21
319.777366
 31
0.0
  0
LINE
  5
819
330
6B
100
AcDbEntity
  8
0
100
AcDbLine
 10
713.34527
 20
319.777366
 30
0.0
 11
713.1523129999997
 21
319.983648
 31
0.0
  0
LINE
  5
81A
330
6B
100
AcDbEntity
  8
0
100
AcDbLine
 10
713.1523129999997
 20
319.983648
 30
0.0
 11
712.9446789999998
 21
320.169525
 31
0.0
  0
LINE
  5
81B
330
6B
100
AcDbEntity
  8
0
100
AcDbLine
 10
712.9446789999998
 20
320.169525
 30
0.0
 11
712.7239499999998
 21
320.333582
 31
0.0
  0
LINE
  5
81C
330
6B
100
AcDbEntity
  8
0
100
AcDbLine
 10
712.7239499999998
 20
320.333582
 30
0.0
 11
712.4918049999998
 21
320.47457
 31
0.0
  0
LINE
  5
81D
330
6B
100
AcDbEntity
  8
0
100
AcDbLine
 10
712.4918049999998
 20
320.47457
 30
0.0
 11
712.2500099999999
 21
320.591417
 31
0.0
  0
LINE
  5
81E
330
6B
100
AcDbEntity
  8
0
100
AcDbLine
 10
712.2500099999999
 20
320.591417
 30
0.0
 11
712.000407
 21
320.6832330000001
 31
0.0
  0
LINE
  5
81F
330
6B
100
AcDbEntity
  8
0
100
AcDbLine
 10
712.000407
 20
320.6832330000001
 30
0.0
 11
711.744895
 21
320.74932
 31
0.0
  0
LINE
  5
820
330
6B
100
AcDbEntity
  8
0
100
AcDbLine
 10
711.744895
 20
320.74932
 30
0.0
 11
711.485417
 21
320.789174
 31
0.0
  0
LINE
  5
821
330
6B
100
AcDbEntity
  8
0
100
AcDbLine
 10
711.485417
 20
320.789174
 30
0.0
 11
711.2239499999998
 21
320.802493
 31
0.0
  0
LINE
  5
822
330
6B
100
AcDbEntity
  8
0
100
AcDbLine
 10
724.21204
 20
320.802493
 30
0.0
 11
723.9505719999998
 21
320.789174
 31
0.0
  0
LINE
  5
823
330
6B
100
AcDbEntity
  8
0
100
AcDbLine
 10
723.9505719999998
 20
320.789174
 30
0.0
 11
723.691095
 21
320.74932
 31
0.0
  0
LINE
  5
824
330
6B
100
AcDbEntity
  8
0
100
AcDbLine
 10
723.691095
 20
320.74932
 30
0.0
 11
723.4355820000001
 21
320.6832330000001
 31
0.0
  0
LINE
  5
825
330
6B
100
AcDbEntity
  8
0
100
AcDbLine
 10
723.4355820000001
 20
320.6832330000001
 30
0.0
 11
723.1859789999998
 21
320.591417
 31
0.0
  0
LINE
  5
826
330
6B
100
AcDbEntity
  8
0
100
AcDbLine
 10
723.1859789999998
 20
320.591417
 30
0.0
 11
722.9441849999998
 21
320.47457
 31
0.0
  0
LINE
  5
827
330
6B
100
AcDbEntity
  8
0
100
AcDbLine
 10
722.9441849999998
 20
320.47457
 30
0.0
 11
722.71204
 21
320.333582
 31
0.0
  0
LINE
  5
828
330
6B
100
AcDbEntity
  8
0
100
AcDbLine
 10
722.71204
 20
320.333582
 30
0.0
 11
722.49131
 21
320.169525
 31
0.0
  0
LINE
  5
829
330
6B
100
AcDbEntity
  8
0
100
AcDbLine
 10
722.49131
 20
320.169525
 30
0.0
 11
722.283677
 21
319.983648
 31
0.0
  0
LINE
  5
82A
330
6B
100
AcDbEntity
  8
0
100
AcDbLine
 10
722.283677
 20
319.983648
 30
0.0
 11
722.090719
 21
319.777366
 31
0.0
  0
LINE
  5
82B
330
6B
100
AcDbEntity
  8
0
100
AcDbLine
 10
722.090719
 20
319.777366
 30
0.0
 11
721.9139059999998
 21
319.552249
 31
0.0
  0
LINE
  5
82C
330
6B
100
AcDbEntity
  8
0
100
AcDbLine
 10
721.9139059999998
 20
319.552249
 30
0.0
 11
721.754583
 21
319.31001
 31
0.0
  0
LINE
  5
82D
330
6B
100
AcDbEntity
  8
0
100
AcDbLine
 10
721.754583
 20
319.31001
 30
0.0
 11
721.613963
 21
319.052493
 31
0.0
  0
LINE
  5
82E
330
6B
100
AcDbEntity
  8
0
100
AcDbLine
 10
721.613963
 20
319.052493
 30
0.0
 11
721.4931159999999
 21
318.781657
 31
0.0
  0
LINE
  5
82F
330
6B
100
AcDbEntity
  8
0
100
AcDbLine
 10
721.4931159999999
 20
318.781657
 30
0.0
 11
721.392962
 21
318.4995629999999
 31
0.0
  0
LINE
  5
830
330
6B
100
AcDbEntity
  8
0
100
AcDbLine
 10
721.392962
 20
318.4995629999999
 30
0.0
 11
721.314262
 21
318.208359
 31
0.0
  0
LINE
  5
831
330
6B
100
AcDbEntity
  8
0
100
AcDbLine
 10
721.314262
 20
318.208359
 30
0.0
 11
721.257616
 21
317.910261
 31
0.0
  0
LINE
  5
832
330
6B
100
AcDbEntity
  8
0
100
AcDbLine
 10
721.257616
 20
317.910261
 30
0.0
 11
721.2234559999998
 21
317.607538
 31
0.0
  0
LINE
  5
833
330
6B
100
AcDbEntity
  8
0
100
AcDbLine
 10
721.2234559999998
 20
317.607538
 30
0.0
 11
721.2120399999998
 21
317.302493
 31
0.0
  0
LINE
  5
834
330
6B
100
AcDbEntity
  8
0
100
AcDbLine
 10
721.2120399999998
 20
317.302493
 30
0.0
 11
721.2234559999998
 21
316.997448
 31
0.0
  0
LINE
  5
835
330
6B
100
AcDbEntity
  8
0
100
AcDbLine
 10
721.2234559999998
 20
316.997448
 30
0.0
 11
721.257616
 21
316.694724
 31
0.0
  0
LINE
  5
836
330
6B
100
AcDbEntity
  8
0
100
AcDbLine
 10
721.257616
 20
316.694724
 30
0.0
 11
721.314262
 21
316.396626
 31
0.0
  0
LINE
  5
837
330
6B
100
AcDbEntity
  8
0
100
AcDbLine
 10
721.314262
 20
316.396626
 30
0.0
 11
721.392962
 21
316.105422
 31
0.0
  0
LINE
  5
838
330
6B
100
AcDbEntity
  8
0
100
AcDbLine
 10
721.392962
 20
316.105422
 30
0.0
 11
721.4931159999999
 21
315.823329
 31
0.0
  0
LINE
  5
839
330
6B
100
AcDbEntity
  8
0
100
AcDbLine
 10
721.4931159999999
 20
315.823329
 30
0.0
 11
721.613963
 21
315.552493
 31
0.0
  0
LINE
  5
83A
330
6B
100
AcDbEntity
  8
0
100
AcDbLine
 10
721.613963
 20
315.552493
 30
0.0
 11
721.754583
 21
315.294975
 31
0.0
  0
LINE
  5
83B
330
6B
100
AcDbEntity
  8
0
100
AcDbLine
 10
721.754583
 20
315.294975
 30
0.0
 11
721.9139059999998
 21
315.052736
 31
0.0
  0
LINE
  5
83C
330
6B
100
AcDbEntity
  8
0
100
AcDbLine
 10
721.9139059999998
 20
315.052736
 30
0.0
 11
722.090719
 21
314.827619
 31
0.0
  0
LINE
  5
83D
330
6B
100
AcDbEntity
  8
0
100
AcDbLine
 10
722.090719
 20
314.827619
 30
0.0
 11
722.283677
 21
314.621337
 31
0.0
  0
LINE
  5
83E
330
6B
100
AcDbEntity
  8
0
100
AcDbLine
 10
722.283677
 20
314.621337
 30
0.0
 11
722.49131
 21
314.435461
 31
0.0
  0
LINE
  5
83F
330
6B
100
AcDbEntity
  8
0
100
AcDbLine
 10
722.49131
 20
314.435461
 30
0.0
 11
722.71204
 21
314.271404
 31
0.0
  0
LINE
  5
840
330
6B
100
AcDbEntity
  8
0
100
AcDbLine
 10
722.71204
 20
314.271404
 30
0.0
 11
722.9441849999998
 21
314.130416
 31
0.0
  0
LINE
  5
841
330
6B
100
AcDbEntity
  8
0
100
AcDbLine
 10
722.9441849999998
 20
314.130416
 30
0.0
 11
723.1859789999998
 21
314.013569
 31
0.0
  0
LINE
  5
842
330
6B
100
AcDbEntity
  8
0
100
AcDbLine
 10
723.1859789999998
 20
314.013569
 30
0.0
 11
723.4355820000001
 21
313.921752
 31
0.0
  0
LINE
  5
843
330
6B
100
AcDbEntity
  8
0
100
AcDbLine
 10
723.4355820000001
 20
313.921752
 30
0.0
 11
723.691095
 21
313.855666
 31
0.0
  0
LINE
  5
844
330
6B
100
AcDbEntity
  8
0
100
AcDbLine
 10
723.691095
 20
313.855666
 30
0.0
 11
723.9505719999998
 21
313.815811
 31
0.0
  0
LINE
  5
845
330
6B
100
AcDbEntity
  8
0
100
AcDbLine
 10
723.9505719999998
 20
313.815811
 30
0.0
 11
724.21204
 21
313.802493
 31
0.0
  0
LINE
  5
846
330
6B
100
AcDbEntity
  8
0
100
AcDbLine
 10
724.21204
 20
313.802493
 30
0.0
 11
724.473507
 21
313.815811
 31
0.0
  0
LINE
  5
847
330
6B
100
AcDbEntity
  8
0
100
AcDbLine
 10
724.473507
 20
313.815811
 30
0.0
 11
724.7329839999999
 21
313.855666
 31
0.0
  0
LINE
  5
848
330
6B
100
AcDbEntity
  8
0
100
AcDbLine
 10
724.7329839999999
 20
313.855666
 30
0.0
 11
724.9884969999998
 21
313.921752
 31
0.0
  0
LINE
  5
849
330
6B
100
AcDbEntity
  8
0
100
AcDbLine
 10
724.9884969999998
 20
313.921752
 30
0.0
 11
725.2381
 21
314.013569
 31
0.0
  0
LINE
  5
84A
330
6B
100
AcDbEntity
  8
0
100
AcDbLine
 10
725.2381
 20
314.013569
 30
0.0
 11
725.479894
 21
314.130416
 31
0.0
  0
LINE
  5
84B
330
6B
100
AcDbEntity
  8
0
100
AcDbLine
 10
725.479894
 20
314.130416
 30
0.0
 11
725.7120399999998
 21
314.271404
 31
0.0
  0
LINE
  5
84C
330
6B
100
AcDbEntity
  8
0
100
AcDbLine
 10
725.7120399999998
 20
314.271404
 30
0.0
 11
725.932769
 21
314.435461
 31
0.0
  0
LINE
  5
84D
330
6B
100
AcDbEntity
  8
0
100
AcDbLine
 10
725.932769
 20
314.435461
 30
0.0
 11
726.140402
 21
314.621337
 31
0.0
  0
LINE
  5
84E
330
6B
100
AcDbEntity
  8
0
100
AcDbLine
 10
726.140402
 20
314.621337
 30
0.0
 11
726.33336
 21
314.827619
 31
0.0
  0
LINE
  5
84F
330
6B
100
AcDbEntity
  8
0
100
AcDbLine
 10
726.33336
 20
314.827619
 30
0.0
 11
726.510173
 21
315.052736
 31
0.0
  0
LINE
  5
850
330
6B
100
AcDbEntity
  8
0
100
AcDbLine
 10
726.510173
 20
315.052736
 30
0.0
 11
726.6694959999998
 21
315.294975
 31
0.0
  0
LINE
  5
851
330
6B
100
AcDbEntity
  8
0
100
AcDbLine
 10
726.6694959999998
 20
315.294975
 30
0.0
 11
726.810116
 21
315.552493
 31
0.0
  0
LINE
  5
852
330
6B
100
AcDbEntity
  8
0
100
AcDbLine
 10
726.810116
 20
315.552493
 30
0.0
 11
726.930963
 21
315.823329
 31
0.0
  0
LINE
  5
853
330
6B
100
AcDbEntity
  8
0
100
AcDbLine
 10
726.930963
 20
315.823329
 30
0.0
 11
727.031117
 21
316.105422
 31
0.0
  0
LINE
  5
854
330
6B
100
AcDbEntity
  8
0
100
AcDbLine
 10
727.031117
 20
316.105422
 30
0.0
 11
727.109817
 21
316.396626
 31
0.0
  0
LINE
  5
855
330
6B
100
AcDbEntity
  8
0
100
AcDbLine
 10
727.109817
 20
316.396626
 30
0.0
 11
727.166463
 21
316.694724
 31
0.0
  0
LINE
  5
856
330
6B
100
AcDbEntity
  8
0
100
AcDbLine
 10
727.166463
 20
316.694724
 30
0.0
 11
727.200624
 21
316.997448
 31
0.0
  0
LINE
  5
857
330
6B
100
AcDbEntity
  8
0
100
AcDbLine
 10
727.200624
 20
316.997448
 30
0.0
 11
727.21204
 21
317.302493
 31
0.0
  0
LINE
  5
858
330
6B
100
AcDbEntity
  8
0
100
AcDbLine
 10
727.21204
 20
317.302493
 30
0.0
 11
727.200624
 21
317.607538
 31
0.0
  0
LINE
  5
859
330
6B
100
AcDbEntity
  8
0
100
AcDbLine
 10
727.200624
 20
317.607538
 30
0.0
 11
727.166463
 21
317.910261
 31
0.0
  0
LINE
  5
85A
330
6B
100
AcDbEntity
  8
0
100
AcDbLine
 10
727.166463
 20
317.910261
 30
0.0
 11
727.109817
 21
318.208359
 31
0.0
  0
LINE
  5
85B
330
6B
100
AcDbEntity
  8
0
100
AcDbLine
 10
727.109817
 20
318.208359
 30
0.0
 11
727.031117
 21
318.4995629999999
 31
0.0
  0
LINE
  5
85C
330
6B
100
AcDbEntity
  8
0
100
AcDbLine
 10
727.031117
 20
318.4995629999999
 30
0.0
 11
726.930963
 21
318.781657
 31
0.0
  0
LINE
  5
85D
330
6B
100
AcDbEntity
  8
0
100
AcDbLine
 10
726.930963
 20
318.781657
 30
0.0
 11
726.810116
 21
319.052493
 31
0.0
  0
LINE
  5
85E
330
6B
100
AcDbEntity
  8
0
100
AcDbLine
 10
726.810116
 20
319.052493
 30
0.0
 11
726.6694959999998
 21
319.31001
 31
0.0
  0
LINE
  5
85F
330
6B
100
AcDbEntity
  8
0
100
AcDbLine
 10
726.6694959999998
 20
319.31001
 30
0.0
 11
726.510173
 21
319.552249
 31
0.0
  0
LINE
  5
860
330
6B
100
AcDbEntity
  8
0
100
AcDbLine
 10
726.510173
 20
319.552249
 30
0.0
 11
726.33336
 21
319.777366
 31
0.0
  0
LINE
  5
861
330
6B
100
AcDbEntity
  8
0
100
AcDbLine
 10
726.33336
 20
319.777366
 30
0.0
 11
726.140402
 21
319.983648
 31
0.0
  0
LINE
  5
862
330
6B
100
AcDbEntity
  8
0
100
AcDbLine
 10
726.140402
 20
319.983648
 30
0.0
 11
725.932769
 21
320.169525
 31
0.0
  0
LINE
  5
863
330
6B
100
AcDbEntity
  8
0
100
AcDbLine
 10
725.932769
 20
320.169525
 30
0.0
 11
725.7120399999998
 21
320.333582
 31
0.0
  0
LINE
  5
864
330
6B
100
AcDbEntity
  8
0
100
AcDbLine
 10
725.7120399999998
 20
320.333582
 30
0.0
 11
725.479894
 21
320.47457
 31
0.0
  0
LINE
  5
865
330
6B
100
AcDbEntity
  8
0
100
AcDbLine
 10
725.479894
 20
320.47457
 30
0.0
 11
725.2381
 21
320.591417
 31
0.0
  0
LINE
  5
866
330
6B
100
AcDbEntity
  8
0
100
AcDbLine
 10
725.2381
 20
320.591417
 30
0.0
 11
724.9884969999998
 21
320.6832330000001
 31
0.0
  0
LINE
  5
867
330
6B
100
AcDbEntity
  8
0
100
AcDbLine
 10
724.9884969999998
 20
320.6832330000001
 30
0.0
 11
724.7329839999999
 21
320.74932
 31
0.0
  0
LINE
  5
868
330
6B
100
AcDbEntity
  8
0
100
AcDbLine
 10
724.7329839999999
 20
320.74932
 30
0.0
 11
724.473507
 21
320.789174
 31
0.0
  0
LINE
  5
869
330
6B
100
AcDbEntity
  8
0
100
AcDbLine
 10
724.473507
 20
320.789174
 30
0.0
 11
724.21204
 21
320.802493
 31
0.0
  0
LINE
  5
86A
330
6B
100
AcDbEntity
  8
0
100
AcDbLine
 10
701.7183150000001
 20
338.11394
 30
0.0
 11
701.7791980000001
 21
337.393709
 31
0.0
  0
LINE
  5
86B
330
6B
100
AcDbEntity
  8
0
100
AcDbLine
 10
701.7791980000001
 20
337.393709
 30
0.0
 11
701.961386
 21
336.67896
 31
0.0
  0
LINE
  5
86C
330
6B
100
AcDbEntity
  8
0
100
AcDbLine
 10
701.961386
 20
336.67896
 30
0.0
 11
702.263491
 21
335.975132
 31
0.0
  0
LINE
  5
86D
330
6B
100
AcDbEntity
  8
0
100
AcDbLine
 10
702.263491
 20
335.975132
 30
0.0
 11
702.683213
 21
335.287581
 31
0.0
  0
LINE
  5
86E
330
6B
100
AcDbEntity
  8
0
100
AcDbLine
 10
702.683213
 20
335.287581
 30
0.0
 11
703.21736
 21
334.62154
 31
0.0
  0
LINE
  5
86F
330
6B
100
AcDbEntity
  8
0
100
AcDbLine
 10
703.21736
 20
334.62154
 30
0.0
 11
703.861865
 21
333.982079
 31
0.0
  0
LINE
  5
870
330
6B
100
AcDbEntity
  8
0
100
AcDbLine
 10
703.861865
 20
333.982079
 30
0.0
 11
704.6118240000001
 21
333.374064
 31
0.0
  0
LINE
  5
871
330
6B
100
AcDbEntity
  8
0
100
AcDbLine
 10
704.6118240000001
 20
333.374064
 30
0.0
 11
705.461529
 21
332.802122
 31
0.0
  0
LINE
  5
872
330
6B
100
AcDbEntity
  8
0
100
AcDbLine
 10
705.461529
 20
332.802122
 30
0.0
 11
706.4045120000002
 21
332.270606
 31
0.0
  0
LINE
  5
873
330
6B
100
AcDbEntity
  8
0
100
AcDbLine
 10
706.4045120000002
 20
332.270606
 30
0.0
 11
707.433599
 21
331.7835609999999
 31
0.0
  0
LINE
  5
874
330
6B
100
AcDbEntity
  8
0
100
AcDbLine
 10
707.433599
 20
331.7835609999999
 30
0.0
 11
708.5409549999998
 21
331.344695
 31
0.0
  0
LINE
  5
875
330
6B
100
AcDbEntity
  8
0
100
AcDbLine
 10
708.5409549999998
 20
331.344695
 30
0.0
 11
709.718155
 21
330.957347
 31
0.0
  0
LINE
  5
876
330
6B
100
AcDbEntity
  8
0
100
AcDbLine
 10
709.718155
 20
330.957347
 30
0.0
 11
710.9562379999998
 21
330.624464
 31
0.0
  0
LINE
  5
877
330
6B
100
AcDbEntity
  8
0
100
AcDbLine
 10
710.9562379999998
 20
330.624464
 30
0.0
 11
712.2457820000001
 21
330.348581
 31
0.0
  0
LINE
  5
878
330
6B
100
AcDbEntity
  8
0
100
AcDbLine
 10
712.2457820000001
 20
330.348581
 30
0.0
 11
713.576973
 21
330.131797
 31
0.0
  0
LINE
  5
879
330
6B
100
AcDbEntity
  8
0
100
AcDbLine
 10
713.576973
 20
330.131797
 30
0.0
 11
714.9396799999998
 21
329.975762
 31
0.0
  0
LINE
  5
87A
330
6B
100
AcDbEntity
  8
0
100
AcDbLine
 10
714.9396799999998
 20
329.975762
 30
0.0
 11
716.323531
 21
329.881664
 31
0.0
  0
LINE
  5
87B
330
6B
100
AcDbEntity
  8
0
100
AcDbLine
 10
716.323531
 20
329.881664
 30
0.0
 11
717.717995
 21
329.850218
 31
0.0
  0
LINE
  5
87C
330
6B
100
AcDbEntity
  8
0
100
AcDbLine
 10
717.717995
 20
329.850218
 30
0.0
 11
719.1124589999998
 21
329.881664
 31
0.0
  0
LINE
  5
87D
330
6B
100
AcDbEntity
  8
0
100
AcDbLine
 10
719.1124589999998
 20
329.881664
 30
0.0
 11
720.49631
 21
329.975762
 31
0.0
  0
LINE
  5
87E
330
6B
100
AcDbEntity
  8
0
100
AcDbLine
 10
720.49631
 20
329.975762
 30
0.0
 11
721.8590169999998
 21
330.131797
 31
0.0
  0
LINE
  5
87F
330
6B
100
AcDbEntity
  8
0
100
AcDbLine
 10
721.8590169999998
 20
330.131797
 30
0.0
 11
723.190208
 21
330.348581
 31
0.0
  0
LINE
  5
880
330
6B
100
AcDbEntity
  8
0
100
AcDbLine
 10
723.190208
 20
330.348581
 30
0.0
 11
724.4797519999998
 21
330.624464
 31
0.0
  0
LINE
  5
881
330
6B
100
AcDbEntity
  8
0
100
AcDbLine
 10
724.4797519999998
 20
330.624464
 30
0.0
 11
725.7178349999998
 21
330.957347
 31
0.0
  0
LINE
  5
882
330
6B
100
AcDbEntity
  8
0
100
AcDbLine
 10
725.7178349999998
 20
330.957347
 30
0.0
 11
726.8950339999999
 21
331.344695
 31
0.0
  0
LINE
  5
883
330
6B
100
AcDbEntity
  8
0
100
AcDbLine
 10
726.8950339999999
 20
331.344695
 30
0.0
 11
728.0023909999998
 21
331.7835609999999
 31
0.0
  0
LINE
  5
884
330
6B
100
AcDbEntity
  8
0
100
AcDbLine
 10
728.0023909999998
 20
331.7835609999999
 30
0.0
 11
729.031477
 21
332.270606
 31
0.0
  0
LINE
  5
885
330
6B
100
AcDbEntity
  8
0
100
AcDbLine
 10
729.031477
 20
332.270606
 30
0.0
 11
729.974461
 21
332.802122
 31
0.0
  0
LINE
  5
886
330
6B
100
AcDbEntity
  8
0
100
AcDbLine
 10
729.974461
 20
332.802122
 30
0.0
 11
730.824165
 21
333.374064
 31
0.0
  0
LINE
  5
887
330
6B
100
AcDbEntity
  8
0
100
AcDbLine
 10
730.824165
 20
333.374064
 30
0.0
 11
731.574124
 21
333.982079
 31
0.0
  0
LINE
  5
888
330
6B
100
AcDbEntity
  8
0
100
AcDbLine
 10
731.574124
 20
333.982079
 30
0.0
 11
732.2186289999998
 21
334.62154
 31
0.0
  0
LINE
  5
889
330
6B
100
AcDbEntity
  8
0
100
AcDbLine
 10
732.2186289999998
 20
334.62154
 30
0.0
 11
732.7527759999997
 21
335.287581
 31
0.0
  0
LINE
  5
88A
330
6B
100
AcDbEntity
  8
0
100
AcDbLine
 10
732.7527759999997
 20
335.287581
 30
0.0
 11
733.172499
 21
335.975132
 31
0.0
  0
LINE
  5
88B
330
6B
100
AcDbEntity
  8
0
100
AcDbLine
 10
733.172499
 20
335.975132
 30
0.0
 11
733.4746039999998
 21
336.67896
 31
0.0
  0
LINE
  5
88C
330
6B
100
AcDbEntity
  8
0
100
AcDbLine
 10
733.4746039999998
 20
336.67896
 30
0.0
 11
733.656791
 21
337.393709
 31
0.0
  0
LINE
  5
88D
330
6B
100
AcDbEntity
  8
0
100
AcDbLine
 10
733.656791
 20
337.393709
 30
0.0
 11
733.717675
 21
338.11394
 31
0.0
  0
LINE
  5
88E
330
6B
100
AcDbEntity
  8
0
100
AcDbLine
 10
733.717675
 20
338.11394
 30
0.0
 11
733.656791
 21
338.834171
 31
0.0
  0
LINE
  5
88F
330
6B
100
AcDbEntity
  8
0
100
AcDbLine
 10
733.656791
 20
338.834171
 30
0.0
 11
733.4746039999998
 21
339.548921
 31
0.0
  0
LINE
  5
890
330
6B
100
AcDbEntity
  8
0
100
AcDbLine
 10
733.4746039999998
 20
339.548921
 30
0.0
 11
733.172499
 21
340.252749
 31
0.0
  0
LINE
  5
891
330
6B
100
AcDbEntity
  8
0
100
AcDbLine
 10
733.172499
 20
340.252749
 30
0.0
 11
732.7527759999997
 21
340.9403
 31
0.0
  0
LINE
  5
892
330
6B
100
AcDbEntity
  8
0
100
AcDbLine
 10
732.7527759999997
 20
340.9403
 30
0.0
 11
732.2186289999998
 21
341.606341
 31
0.0
  0
LINE
  5
893
330
6B
100
AcDbEntity
  8
0
100
AcDbLine
 10
732.2186289999998
 20
341.606341
 30
0.0
 11
731.574124
 21
342.245802
 31
0.0
  0
LINE
  5
894
330
6B
100
AcDbEntity
  8
0
100
AcDbLine
 10
731.574124
 20
342.245802
 30
0.0
 11
730.824165
 21
342.853817
 31
0.0
  0
LINE
  5
895
330
6B
100
AcDbEntity
  8
0
100
AcDbLine
 10
730.824165
 20
342.853817
 30
0.0
 11
729.974461
 21
343.425759
 31
0.0
  0
LINE
  5
896
330
6B
100
AcDbEntity
  8
0
100
AcDbLine
 10
729.974461
 20
343.425759
 30
0.0
 11
729.031477
 21
343.957275
 31
0.0
  0
LINE
  5
897
330
6B
100
AcDbEntity
  8
0
100
AcDbLine
 10
729.031477
 20
343.957275
 30
0.0
 11
728.0023909999998
 21
344.444319
 31
0.0
  0
LINE
  5
898
330
6B
100
AcDbEntity
  8
0
100
AcDbLine
 10
728.0023909999998
 20
344.444319
 30
0.0
 11
726.8950339999999
 21
344.883186
 31
0.0
  0
LINE
  5
899
330
6B
100
AcDbEntity
  8
0
100
AcDbLine
 10
726.8950339999999
 20
344.883186
 30
0.0
 11
725.7178349999998
 21
345.270534
 31
0.0
  0
LINE
  5
89A
330
6B
100
AcDbEntity
  8
0
100
AcDbLine
 10
725.7178349999998
 20
345.270534
 30
0.0
 11
724.4797519999998
 21
345.603417
 31
0.0
  0
LINE
  5
89B
330
6B
100
AcDbEntity
  8
0
100
AcDbLine
 10
724.4797519999998
 20
345.603417
 30
0.0
 11
723.190208
 21
345.8793
 31
0.0
  0
LINE
  5
89C
330
6B
100
AcDbEntity
  8
0
100
AcDbLine
 10
723.190208
 20
345.8793
 30
0.0
 11
721.8590169999998
 21
346.096084
 31
0.0
  0
LINE
  5
89D
330
6B
100
AcDbEntity
  8
0
100
AcDbLine
 10
721.8590169999998
 20
346.096084
 30
0.0
 11
720.49631
 21
346.252119
 31
0.0
  0
LINE
  5
89E
330
6B
100
AcDbEntity
  8
0
100
AcDbLine
 10
720.49631
 20
346.252119
 30
0.0
 11
719.1124589999998
 21
346.346217
 31
0.0
  0
LINE
  5
89F
330
6B
100
AcDbEntity
  8
0
100
AcDbLine
 10
719.1124589999998
 20
346.346217
 30
0.0
 11
717.717995
 21
346.377663
 31
0.0
  0
LINE
  5
8A0
330
6B
100
AcDbEntity
  8
0
100
AcDbLine
 10
717.717995
 20
346.377663
 30
0.0
 11
716.323531
 21
346.346217
 31
0.0
  0
LINE
  5
8A1
330
6B
100
AcDbEntity
  8
0
100
AcDbLine
 10
716.323531
 20
346.346217
 30
0.0
 11
714.9396799999998
 21
346.252119
 31
0.0
  0
LINE
  5
8A2
330
6B
100
AcDbEntity
  8
0
100
AcDbLine
 10
714.9396799999998
 20
346.252119
 30
0.0
 11
713.576973
 21
346.096084
 31
0.0
  0
LINE
  5
8A3
330
6B
100
AcDbEntity
  8
0
100
AcDbLine
 10
713.576973
 20
346.096084
 30
0.0
 11
712.2457820000001
 21
345.8793
 31
0.0
  0
LINE
  5
8A4
330
6B
100
AcDbEntity
  8
0
100
AcDbLine
 10
712.2457820000001
 20
345.8793
 30
0.0
 11
710.9562379999998
 21
345.603417
 31
0.0
  0
LINE
  5
8A5
330
6B
100
AcDbEntity
  8
0
100
AcDbLine
 10
710.9562379999998
 20
345.603417
 30
0.0
 11
709.718155
 21
345.270534
 31
0.0
  0
LINE
  5
8A6
330
6B
100
AcDbEntity
  8
0
100
AcDbLine
 10
709.718155
 20
345.270534
 30
0.0
 11
708.5409549999998
 21
344.883186
 31
0.0
  0
LINE
  5
8A7
330
6B
100
AcDbEntity
  8
0
100
AcDbLine
 10
708.5409549999998
 20
344.883186
 30
0.0
 11
707.433599
 21
344.444319
 31
0.0
  0
LINE
  5
8A8
330
6B
100
AcDbEntity
  8
0
100
AcDbLine
 10
707.433599
 20
344.444319
 30
0.0
 11
706.4045120000002
 21
343.957275
 31
0.0
  0
LINE
  5
8A9
330
6B
100
AcDbEntity
  8
0
100
AcDbLine
 10
706.4045120000002
 20
343.957275
 30
0.0
 11
705.461529
 21
343.425759
 31
0.0
  0
LINE
  5
8AA
330
6B
100
AcDbEntity
  8
0
100
AcDbLine
 10
705.461529
 20
343.425759
 30
0.0
 11
704.6118240000001
 21
342.853817
 31
0.0
  0
LINE
  5
8AB
330
6B
100
AcDbEntity
  8
0
100
AcDbLine
 10
704.6118240000001
 20
342.853817
 30
0.0
 11
703.861865
 21
342.245802
 31
0.0
  0
LINE
  5
8AC
330
6B
100
AcDbEntity
  8
0
100
AcDbLine
 10
703.861865
 20
342.245802
 30
0.0
 11
703.21736
 21
341.606341
 31
0.0
  0
LINE
  5
8AD
330
6B
100
AcDbEntity
  8
0
100
AcDbLine
 10
703.21736
 20
341.606341
 30
0.0
 11
702.683213
 21
340.9403
 31
0.0
  0
LINE
  5
8AE
330
6B
100
AcDbEntity
  8
0
100
AcDbLine
 10
702.683213
 20
340.9403
 30
0.0
 11
702.263491
 21
340.252749
 31
0.0
  0
LINE
  5
8AF
330
6B
100
AcDbEntity
  8
0
100
AcDbLine
 10
702.263491
 20
340.252749
 30
0.0
 11
701.961386
 21
339.548921
 31
0.0
  0
LINE
  5
8B0
330
6B
100
AcDbEntity
  8
0
100
AcDbLine
 10
701.961386
 20
339.548921
 30
0.0
 11
701.7791980000001
 21
338.834171
 31
0.0
  0
LINE
  5
8B1
330
6B
100
AcDbEntity
  8
0
100
AcDbLine
 10
701.7791980000001
 20
338.834171
 30
0.0
 11
701.7183150000001
 21
338.11394
 31
0.0
  0
LINE
  5
8B2
330
6B
100
AcDbEntity
  8
0
 62
     3
100
AcDbLine
 10
737.831254
 20
306.802493
 30
0.0
 11
739.939111
 21
308.373841
 31
0.0
  0
LINE
  5
8B3
330
6B
100
AcDbEntity
  8
0
 62
     3
100
AcDbLine
 10
739.939111
 20
308.373841
 30
0.0
 11
741.8752889999998
 21
310.095295
 31
0.0
  0
LINE
  5
8B4
330
6B
100
AcDbEntity
  8
0
 62
     3
100
AcDbLine
 10
741.8752889999998
 20
310.095295
 30
0.0
 11
743.624828
 21
311.953553
 31
0.0
  0
LINE
  5
8B5
330
6B
100
AcDbEntity
  8
0
 62
     3
100
AcDbLine
 10
743.624828
 20
311.953553
 30
0.0
 11
745.174213
 21
313.934259
 31
0.0
  0
LINE
  5
8B6
330
6B
100
AcDbEntity
  8
0
 62
     3
100
AcDbLine
 10
745.174213
 20
313.934259
 30
0.0
 11
746.511473
 21
316.022111
 31
0.0
  0
LINE
  5
8B7
330
6B
100
AcDbEntity
  8
0
 62
     3
100
AcDbLine
 10
746.511473
 20
316.022111
 30
0.0
 11
747.626276
 21
318.200977
 31
0.0
  0
LINE
  5
8B8
330
6B
100
AcDbEntity
  8
0
 62
     3
100
AcDbLine
 10
747.626276
 20
318.200977
 30
0.0
 11
748.5100089999998
 21
320.454024
 31
0.0
  0
LINE
  5
8B9
330
6B
100
AcDbEntity
  8
0
 62
     3
100
AcDbLine
 10
748.5100089999998
 20
320.454024
 30
0.0
 11
749.155845
 21
322.763844
 31
0.0
  0
LINE
  5
8BA
330
6B
100
AcDbEntity
  8
0
 62
     3
100
AcDbLine
 10
749.155845
 20
322.763844
 30
0.0
 11
749.558794
 21
325.112593
 31
0.0
  0
LINE
  5
8BB
330
6B
100
AcDbEntity
  8
0
 62
     3
100
AcDbLine
 10
749.558794
 20
325.112593
 30
0.0
 11
749.7157419999998
 21
327.482124
 31
0.0
  0
LINE
  5
8BC
330
6B
100
AcDbEntity
  8
0
 62
     3
100
AcDbLine
 10
749.7157419999998
 20
327.482124
 30
0.0
 11
749.6254780000001
 21
329.85413
 31
0.0
  0
LINE
  5
8BD
330
6B
100
AcDbEntity
  8
0
 62
     3
100
AcDbLine
 10
749.6254780000001
 20
329.85413
 30
0.0
 11
749.288698
 21
332.210286
 31
0.0
  0
LINE
  5
8BE
330
6B
100
AcDbEntity
  8
0
 62
     3
100
AcDbLine
 10
749.288698
 20
332.210286
 30
0.0
 11
748.7080049999998
 21
334.532387
 31
0.0
  0
LINE
  5
8BF
330
6B
100
AcDbEntity
  8
0
 62
     3
100
AcDbLine
 10
748.7080049999998
 20
334.532387
 30
0.0
 11
747.887884
 21
336.802493
 31
0.0
  0
LINE
  5
8C0
330
6B
100
AcDbEntity
  8
0
 62
     3
100
AcDbLine
 10
747.887884
 20
336.802493
 30
0.0
 11
746.834673
 21
339.003065
 31
0.0
  0
LINE
  5
8C1
330
6B
100
AcDbEntity
  8
0
 62
     3
100
AcDbLine
 10
746.834673
 20
339.003065
 30
0.0
 11
745.556508
 21
341.117103
 31
0.0
  0
LINE
  5
8C2
330
6B
100
AcDbEntity
  8
0
 62
     3
100
AcDbLine
 10
745.556508
 20
341.117103
 30
0.0
 11
744.063264
 21
343.128273
 31
0.0
  0
LINE
  5
8C3
330
6B
100
AcDbEntity
  8
0
 62
     3
100
AcDbLine
 10
744.063264
 20
343.128273
 30
0.0
 11
742.366478
 21
345.021036
 31
0.0
  0
LINE
  5
8C4
330
6B
100
AcDbEntity
  8
0
 62
     3
100
AcDbLine
 10
742.366478
 20
345.021036
 30
0.0
 11
740.4792589999998
 21
346.78077
 31
0.0
  0
LINE
  5
8C5
330
6B
100
AcDbEntity
  8
0
 62
     3
100
AcDbLine
 10
740.4792589999998
 20
346.78077
 30
0.0
 11
738.416188
 21
348.393879
 31
0.0
  0
LINE
  5
8C6
330
6B
100
AcDbEntity
  8
0
 62
     3
100
AcDbLine
 10
738.416188
 20
348.393879
 30
0.0
 11
736.193203
 21
349.8479
 31
0.0
  0
LINE
  5
8C7
330
6B
100
AcDbEntity
  8
0
 62
     3
100
AcDbLine
 10
736.193203
 20
349.8479
 30
0.0
 11
733.8274809999997
 21
351.1316
 31
0.0
  0
LINE
  5
8C8
330
6B
100
AcDbEntity
  8
0
 62
     3
100
AcDbLine
 10
733.8274809999997
 20
351.1316
 30
0.0
 11
731.3372969999997
 21
352.23506
 31
0.0
  0
LINE
  5
8C9
330
6B
100
AcDbEntity
  8
0
 62
     3
100
AcDbLine
 10
731.3372969999997
 20
352.23506
 30
0.0
 11
728.741891
 21
353.149755
 31
0.0
  0
LINE
  5
8CA
330
6B
100
AcDbEntity
  8
0
 62
     3
100
AcDbLine
 10
728.741891
 20
353.149755
 30
0.0
 11
726.061316
 21
353.868619
 31
0.0
  0
LINE
  5
8CB
330
6B
100
AcDbEntity
  8
0
 62
     3
100
AcDbLine
 10
726.061316
 20
353.868619
 30
0.0
 11
723.31628
 21
354.386098
 31
0.0
  0
LINE
  5
8CC
330
6B
100
AcDbEntity
  8
0
 62
     3
100
AcDbLine
 10
723.31628
 20
354.386098
 30
0.0
 11
720.527992
 21
354.698193
 31
0.0
  0
LINE
  5
8CD
330
6B
100
AcDbEntity
  8
0
 62
     3
100
AcDbLine
 10
720.527992
 20
354.698193
 30
0.0
 11
717.717995
 21
354.802493
 31
0.0
  0
LINE
  5
8CE
330
6B
100
AcDbEntity
  8
0
 62
     3
100
AcDbLine
 10
717.717995
 20
354.802493
 30
0.0
 11
714.907997
 21
354.698193
 31
0.0
  0
LINE
  5
8CF
330
6B
100
AcDbEntity
  8
0
 62
     3
100
AcDbLine
 10
714.907997
 20
354.698193
 30
0.0
 11
712.1197089999998
 21
354.386098
 31
0.0
  0
LINE
  5
8D0
330
6B
100
AcDbEntity
  8
0
 62
     3
100
AcDbLine
 10
712.1197089999998
 20
354.386098
 30
0.0
 11
709.374674
 21
353.868619
 31
0.0
  0
LINE
  5
8D1
330
6B
100
AcDbEntity
  8
0
 62
     3
100
AcDbLine
 10
709.374674
 20
353.868619
 30
0.0
 11
706.694098
 21
353.149755
 31
0.0
  0
LINE
  5
8D2
330
6B
100
AcDbEntity
  8
0
 62
     3
100
AcDbLine
 10
706.694098
 20
353.149755
 30
0.0
 11
704.098693
 21
352.23506
 31
0.0
  0
LINE
  5
8D3
330
6B
100
AcDbEntity
  8
0
 62
     3
100
AcDbLine
 10
704.098693
 20
352.23506
 30
0.0
 11
701.608509
 21
351.1316
 31
0.0
  0
LINE
  5
8D4
330
6B
100
AcDbEntity
  8
0
 62
     3
100
AcDbLine
 10
701.608509
 20
351.1316
 30
0.0
 11
699.242786
 21
349.8479
 31
0.0
  0
LINE
  5
8D5
330
6B
100
AcDbEntity
  8
0
 62
     3
100
AcDbLine
 10
699.242786
 20
349.8479
 30
0.0
 11
697.0198019999997
 21
348.393879
 31
0.0
  0
LINE
  5
8D6
330
6B
100
AcDbEntity
  8
0
 62
     3
100
AcDbLine
 10
697.0198019999997
 20
348.393879
 30
0.0
 11
694.9567309999999
 21
346.78077
 31
0.0
  0
LINE
  5
8D7
330
6B
100
AcDbEntity
  8
0
 62
     3
100
AcDbLine
 10
694.9567309999999
 20
346.78077
 30
0.0
 11
693.069512
 21
345.021036
 31
0.0
  0
LINE
  5
8D8
330
6B
100
AcDbEntity
  8
0
 62
     3
100
AcDbLine
 10
693.069512
 20
345.021036
 30
0.0
 11
691.3727259999998
 21
343.128273
 31
0.0
  0
LINE
  5
8D9
330
6B
100
AcDbEntity
  8
0
 62
     3
100
AcDbLine
 10
691.3727259999998
 20
343.128273
 30
0.0
 11
689.879482
 21
341.117103
 31
0.0
  0
LINE
  5
8DA
330
6B
100
AcDbEntity
  8
0
 62
     3
100
AcDbLine
 10
689.879482
 20
341.117103
 30
0.0
 11
688.601317
 21
339.003065
 31
0.0
  0
LINE
  5
8DB
330
6B
100
AcDbEntity
  8
0
 62
     3
100
AcDbLine
 10
688.601317
 20
339.003065
 30
0.0
 11
687.5481049999998
 21
336.802493
 31
0.0
  0
LINE
  5
8DC
330
6B
100
AcDbEntity
  8
0
 62
     3
100
AcDbLine
 10
687.5481049999998
 20
336.802493
 30
0.0
 11
686.727985
 21
334.532387
 31
0.0
  0
LINE
  5
8DD
330
6B
100
AcDbEntity
  8
0
 62
     3
100
AcDbLine
 10
686.727985
 20
334.532387
 30
0.0
 11
686.1472919999998
 21
332.210286
 31
0.0
  0
LINE
  5
8DE
330
6B
100
AcDbEntity
  8
0
 62
     3
100
AcDbLine
 10
686.1472919999998
 20
332.210286
 30
0.0
 11
685.810512
 21
329.85413
 31
0.0
  0
LINE
  5
8DF
330
6B
100
AcDbEntity
  8
0
 62
     3
100
AcDbLine
 10
685.810512
 20
329.85413
 30
0.0
 11
685.720248
 21
327.482124
 31
0.0
  0
LINE
  5
8E0
330
6B
100
AcDbEntity
  8
0
 62
     3
100
AcDbLine
 10
685.720248
 20
327.482124
 30
0.0
 11
685.877196
 21
325.112593
 31
0.0
  0
LINE
  5
8E1
330
6B
100
AcDbEntity
  8
0
 62
     3
100
AcDbLine
 10
685.877196
 20
325.112593
 30
0.0
 11
686.280145
 21
322.763844
 31
0.0
  0
LINE
  5
8E2
330
6B
100
AcDbEntity
  8
0
 62
     3
100
AcDbLine
 10
686.280145
 20
322.763844
 30
0.0
 11
686.92598
 21
320.454024
 31
0.0
  0
LINE
  5
8E3
330
6B
100
AcDbEntity
  8
0
 62
     3
100
AcDbLine
 10
686.92598
 20
320.454024
 30
0.0
 11
687.809714
 21
318.200977
 31
0.0
  0
LINE
  5
8E4
330
6B
100
AcDbEntity
  8
0
 62
     3
100
AcDbLine
 10
687.809714
 20
318.200977
 30
0.0
 11
688.924517
 21
316.022111
 31
0.0
  0
LINE
  5
8E5
330
6B
100
AcDbEntity
  8
0
 62
     3
100
AcDbLine
 10
688.924517
 20
316.022111
 30
0.0
 11
690.2617759999998
 21
313.934259
 31
0.0
  0
LINE
  5
8E6
330
6B
100
AcDbEntity
  8
0
 62
     3
100
AcDbLine
 10
690.2617759999998
 20
313.934259
 30
0.0
 11
691.8111610000002
 21
311.953553
 31
0.0
  0
LINE
  5
8E7
330
6B
100
AcDbEntity
  8
0
 62
     3
100
AcDbLine
 10
691.8111610000002
 20
311.953553
 30
0.0
 11
693.560701
 21
310.095295
 31
0.0
  0
LINE
  5
8E8
330
6B
100
AcDbEntity
  8
0
 62
     3
100
AcDbLine
 10
693.560701
 20
310.095295
 30
0.0
 11
695.496879
 21
308.373841
 31
0.0
  0
LINE
  5
8E9
330
6B
100
AcDbEntity
  8
0
 62
     3
100
AcDbLine
 10
695.496879
 20
308.373841
 30
0.0
 11
697.6047349999999
 21
306.802493
 31
0.0
  0
LINE
  5
8EA
330
6B
100
AcDbEntity
  8
0
 62
     3
100
AcDbLine
 10
741.166271
 20
306.802493
 30
0.0
 11
743.2431730000002
 21
308.645174
 31
0.0
  0
LINE
  5
8EB
330
6B
100
AcDbEntity
  8
0
 62
     3
100
AcDbLine
 10
743.2431730000002
 20
308.645174
 30
0.0
 11
745.121774
 21
310.636686
 31
0.0
  0
LINE
  5
8EC
330
6B
100
AcDbEntity
  8
0
 62
     3
100
AcDbLine
 10
745.121774
 20
310.636686
 30
0.0
 11
746.7874799999998
 21
312.761557
 31
0.0
  0
LINE
  5
8ED
330
6B
100
AcDbEntity
  8
0
 62
     3
100
AcDbLine
 10
746.7874799999998
 20
312.761557
 30
0.0
 11
748.2273489999998
 21
315.003278
 31
0.0
  0
LINE
  5
8EE
330
6B
100
AcDbEntity
  8
0
 62
     3
100
AcDbLine
 10
748.2273489999998
 20
315.003278
 30
0.0
 11
749.430195
 21
317.344434
 31
0.0
  0
LINE
  5
8EF
330
6B
100
AcDbEntity
  8
0
 62
     3
100
AcDbLine
 10
749.430195
 20
317.344434
 30
0.0
 11
750.3866739999998
 21
319.766838
 31
0.0
  0
LINE
  5
8F0
330
6B
100
AcDbEntity
  8
0
 62
     3
100
AcDbLine
 10
750.3866739999998
 20
319.766838
 30
0.0
 11
751.0893559999998
 21
322.251669
 31
0.0
  0
LINE
  5
8F1
330
6B
100
AcDbEntity
  8
0
 62
     3
100
AcDbLine
 10
751.0893559999998
 20
322.251669
 30
0.0
 11
751.53278
 21
324.779623
 31
0.0
  0
LINE
  5
8F2
330
6B
100
AcDbEntity
  8
0
 62
     3
100
AcDbLine
 10
751.53278
 20
324.779623
 30
0.0
 11
751.7135019999998
 21
327.331062
 31
0.0
  0
LINE
  5
8F3
330
6B
100
AcDbEntity
  8
0
 62
     3
100
AcDbLine
 10
751.7135019999998
 20
327.331062
 30
0.0
 11
751.6301179999998
 21
329.886164
 31
0.0
  0
LINE
  5
8F4
330
6B
100
AcDbEntity
  8
0
 62
     3
100
AcDbLine
 10
751.6301179999998
 20
329.886164
 30
0.0
 11
751.283276
 21
332.425077
 31
0.0
  0
LINE
  5
8F5
330
6B
100
AcDbEntity
  8
0
 62
     3
100
AcDbLine
 10
751.283276
 20
332.425077
 30
0.0
 11
750.6756709999998
 21
334.928079
 31
0.0
  0
LINE
  5
8F6
330
6B
100
AcDbEntity
  8
0
 62
     3
100
AcDbLine
 10
750.6756709999998
 20
334.928079
 30
0.0
 11
749.8120219999998
 21
337.375723
 31
0.0
  0
LINE
  5
8F7
330
6B
100
AcDbEntity
  8
0
 62
     3
100
AcDbLine
 10
749.8120219999998
 20
337.375723
 30
0.0
 11
748.69904
 21
339.748994
 31
0.0
  0
LINE
  5
8F8
330
6B
100
AcDbEntity
  8
0
 62
     3
100
AcDbLine
 10
748.69904
 20
339.748994
 30
0.0
 11
747.345371
 21
342.029454
 31
0.0
  0
LINE
  5
8F9
330
6B
100
AcDbEntity
  8
0
 62
     3
100
AcDbLine
 10
747.345371
 20
342.029454
 30
0.0
 11
745.761531
 21
344.199387
 31
0.0
  0
LINE
  5
8FA
330
6B
100
AcDbEntity
  8
0
 62
     3
100
AcDbLine
 10
745.761531
 20
344.199387
 30
0.0
 11
743.959825
 21
346.241936
 31
0.0
  0
LINE
  5
8FB
330
6B
100
AcDbEntity
  8
0
 62
     3
100
AcDbLine
 10
743.959825
 20
346.241936
 30
0.0
 11
741.954251
 21
348.141231
 31
0.0
  0
LINE
  5
8FC
330
6B
100
AcDbEntity
  8
0
 62
     3
100
AcDbLine
 10
741.954251
 20
348.141231
 30
0.0
 11
739.760388
 21
349.882517
 31
0.0
  0
LINE
  5
8FD
330
6B
100
AcDbEntity
  8
0
 62
     3
100
AcDbLine
 10
739.760388
 20
349.882517
 30
0.0
 11
737.395282
 21
351.452267
 31
0.0
  0
LINE
  5
8FE
330
6B
100
AcDbEntity
  8
0
 62
     3
100
AcDbLine
 10
737.395282
 20
351.452267
 30
0.0
 11
734.877306
 21
352.838286
 31
0.0
  0
LINE
  5
8FF
330
6B
100
AcDbEntity
  8
0
 62
     3
100
AcDbLine
 10
734.877306
 20
352.838286
 30
0.0
 11
732.2260209999998
 21
354.029805
 31
0.0
  0
LINE
  5
900
330
6B
100
AcDbEntity
  8
0
 62
     3
100
AcDbLine
 10
732.2260209999998
 20
354.029805
 30
0.0
 11
729.4620259999998
 21
355.017569
 31
0.0
  0
LINE
  5
901
330
6B
100
AcDbEntity
  8
0
 62
     3
100
AcDbLine
 10
729.4620259999998
 20
355.017569
 30
0.0
 11
726.606794
 21
355.793902
 31
0.0
  0
LINE
  5
902
330
6B
100
AcDbEntity
  8
0
 62
     3
100
AcDbLine
 10
726.606794
 20
355.793902
 30
0.0
 11
723.682505
 21
356.352775
 31
0.0
  0
LINE
  5
903
330
6B
100
AcDbEntity
  8
0
 62
     3
100
AcDbLine
 10
723.682505
 20
356.352775
 30
0.0
 11
720.7118799999998
 21
356.689844
 31
0.0
  0
LINE
  5
904
330
6B
100
AcDbEntity
  8
0
 62
     3
100
AcDbLine
 10
720.7118799999998
 20
356.689844
 30
0.0
 11
717.717995
 21
356.802493
 31
0.0
  0
LINE
  5
905
330
6B
100
AcDbEntity
  8
0
 62
     3
100
AcDbLine
 10
717.717995
 20
356.802493
 30
0.0
 11
714.72411
 21
356.689844
 31
0.0
  0
LINE
  5
906
330
6B
100
AcDbEntity
  8
0
 62
     3
100
AcDbLine
 10
714.72411
 20
356.689844
 30
0.0
 11
711.7534839999998
 21
356.352775
 31
0.0
  0
LINE
  5
907
330
6B
100
AcDbEntity
  8
0
 62
     3
100
AcDbLine
 10
711.7534839999998
 20
356.352775
 30
0.0
 11
708.829196
 21
355.793902
 31
0.0
  0
LINE
  5
908
330
6B
100
AcDbEntity
  8
0
 62
     3
100
AcDbLine
 10
708.829196
 20
355.793902
 30
0.0
 11
705.973963
 21
355.017569
 31
0.0
  0
LINE
  5
909
330
6B
100
AcDbEntity
  8
0
 62
     3
100
AcDbLine
 10
705.973963
 20
355.017569
 30
0.0
 11
703.2099679999999
 21
354.029805
 31
0.0
  0
LINE
  5
90A
330
6B
100
AcDbEntity
  8
0
 62
     3
100
AcDbLine
 10
703.2099679999999
 20
354.029805
 30
0.0
 11
700.5586839999998
 21
352.838286
 31
0.0
  0
LINE
  5
90B
330
6B
100
AcDbEntity
  8
0
 62
     3
100
AcDbLine
 10
700.5586839999998
 20
352.838286
 30
0.0
 11
698.0407079999999
 21
351.452267
 31
0.0
  0
LINE
  5
90C
330
6B
100
AcDbEntity
  8
0
 62
     3
100
AcDbLine
 10
698.0407079999999
 20
351.452267
 30
0.0
 11
695.675601
 21
349.882517
 31
0.0
  0
LINE
  5
90D
330
6B
100
AcDbEntity
  8
0
 62
     3
100
AcDbLine
 10
695.675601
 20
349.882517
 30
0.0
 11
693.4817389999998
 21
348.141231
 31
0.0
  0
LINE
  5
90E
330
6B
100
AcDbEntity
  8
0
 62
     3
100
AcDbLine
 10
693.4817389999998
 20
348.141231
 30
0.0
 11
691.4761639999998
 21
346.241936
 31
0.0
  0
LINE
  5
90F
330
6B
100
AcDbEntity
  8
0
 62
     3
100
AcDbLine
 10
691.4761639999998
 20
346.241936
 30
0.0
 11
689.6744589999998
 21
344.199387
 31
0.0
  0
LINE
  5
910
330
6B
100
AcDbEntity
  8
0
 62
     3
100
AcDbLine
 10
689.6744589999998
 20
344.199387
 30
0.0
 11
688.0906190000001
 21
342.029454
 31
0.0
  0
LINE
  5
911
330
6B
100
AcDbEntity
  8
0
 62
     3
100
AcDbLine
 10
688.0906190000001
 20
342.029454
 30
0.0
 11
686.7369489999998
 21
339.748994
 31
0.0
  0
LINE
  5
912
330
6B
100
AcDbEntity
  8
0
 62
     3
100
AcDbLine
 10
686.7369489999998
 20
339.748994
 30
0.0
 11
685.6239669999999
 21
337.375723
 31
0.0
  0
LINE
  5
913
330
6B
100
AcDbEntity
  8
0
 62
     3
100
AcDbLine
 10
685.6239669999999
 20
337.375723
 30
0.0
 11
684.760319
 21
334.928079
 31
0.0
  0
LINE
  5
914
330
6B
100
AcDbEntity
  8
0
 62
     3
100
AcDbLine
 10
684.760319
 20
334.928079
 30
0.0
 11
684.1527129999998
 21
332.425077
 31
0.0
  0
LINE
  5
915
330
6B
100
AcDbEntity
  8
0
 62
     3
100
AcDbLine
 10
684.1527129999998
 20
332.425077
 30
0.0
 11
683.805871
 21
329.886164
 31
0.0
  0
LINE
  5
916
330
6B
100
AcDbEntity
  8
0
 62
     3
100
AcDbLine
 10
683.805871
 20
329.886164
 30
0.0
 11
683.7224879999999
 21
327.331062
 31
0.0
  0
LINE
  5
917
330
6B
100
AcDbEntity
  8
0
 62
     3
100
AcDbLine
 10
683.7224879999999
 20
327.331062
 30
0.0
 11
683.9032099999998
 21
324.779623
 31
0.0
  0
LINE
  5
918
330
6B
100
AcDbEntity
  8
0
 62
     3
100
AcDbLine
 10
683.9032099999998
 20
324.779623
 30
0.0
 11
684.3466339999999
 21
322.251669
 31
0.0
  0
LINE
  5
919
330
6B
100
AcDbEntity
  8
0
 62
     3
100
AcDbLine
 10
684.3466339999999
 20
322.251669
 30
0.0
 11
685.0493150000001
 21
319.766838
 31
0.0
  0
LINE
  5
91A
330
6B
100
AcDbEntity
  8
0
 62
     3
100
AcDbLine
 10
685.0493150000001
 20
319.766838
 30
0.0
 11
686.005794
 21
317.344434
 31
0.0
  0
LINE
  5
91B
330
6B
100
AcDbEntity
  8
0
 62
     3
100
AcDbLine
 10
686.005794
 20
317.344434
 30
0.0
 11
687.208641
 21
315.003278
 31
0.0
  0
LINE
  5
91C
330
6B
100
AcDbEntity
  8
0
 62
     3
100
AcDbLine
 10
687.208641
 20
315.003278
 30
0.0
 11
688.6485099999998
 21
312.761557
 31
0.0
  0
LINE
  5
91D
330
6B
100
AcDbEntity
  8
0
 62
     3
100
AcDbLine
 10
688.6485099999998
 20
312.761557
 30
0.0
 11
690.3142149999998
 21
310.636686
 31
0.0
  0
LINE
  5
91E
330
6B
100
AcDbEntity
  8
0
 62
     3
100
AcDbLine
 10
690.3142149999998
 20
310.636686
 30
0.0
 11
692.192816
 21
308.645174
 31
0.0
  0
LINE
  5
91F
330
6B
100
AcDbEntity
  8
0
 62
     3
100
AcDbLine
 10
692.192816
 20
308.645174
 30
0.0
 11
694.269719
 21
306.802493
 31
0.0
  0
LINE
  5
920
330
6B
100
AcDbEntity
  8
0
100
AcDbLine
 10
688.4679949999999
 20
306.802493
 30
0.0
 11
648.1389690000002
 21
306.802493
 31
0.0
  0
LINE
  5
921
330
6B
100
AcDbEntity
  8
0
100
AcDbLine
 10
690.4758969999997
 20
434.802493
 30
0.0
 11
648.1389690000002
 21
434.802493
 31
0.0
  0
LINE
  5
922
330
6B
100
AcDbEntity
  8
0
100
AcDbLine
 10
649.3889690000002
 20
309.302493
 30
0.0
 11
649.3889690000002
 21
432.3024929999999
 31
0.0
  0
LINE
  5
926
330
6B
100
AcDbEntity
  8
0
100
AcDbLine
 10
808.857242
 20
311.552493
 30
0.0
 11
808.857242
 21
287.0329759999999
 31
0.0
  0
LINE
  5
927
330
6B
100
AcDbEntity
  8
0
100
AcDbLine
 10
858.857242
 20
311.552493
 30
0.0
 11
858.857242
 21
287.0329759999999
 31
0.0
  0
LINE
  5
928
330
6B
100
AcDbEntity
  8
0
100
AcDbLine
 10
811.357242
 20
288.2829759999999
 30
0.0
 11
856.3572419999999
 21
288.2829759999999
 31
0.0
  0
LINE
  5
92C
330
6B
100
AcDbEntity
  8
0
100
AcDbLine
 10
676.717995
 20
318.552493
 30
0.0
 11
676.717995
 21
285.528023
 31
0.0
  0
LINE
  5
92D
330
6B
100
AcDbEntity
  8
0
100
AcDbLine
 10
758.7179949999998
 20
318.552493
 30
0.0
 11
758.7179949999998
 21
285.528023
 31
0.0
  0
LINE
  5
92E
330
6B
100
AcDbEntity
  8
0
100
AcDbLine
 10
679.2179949999999
 20
286.778023
 30
0.0
 11
756.2179949999999
 21
286.778023
 31
0.0
  0
TEXT
  5
932
330
6B
100
AcDbEntity
  8
0
  6
Continuous
 62
     4
100
AcDbText
 10
648.763969
 20
367.3024930000001
 30
0.0
 40
3.0
  1
128
 50
90.0
100
AcDbText
  0
LINE
  5
933
330
6B
100
AcDbEntity
  8
0
  6
ByBlock
 62
     0
370
    -2
100
AcDbLine
 10
648.7190965000002
 20
432.3024929999999
 30
0.0
 11
649.3889690000002
 21
434.802493
 31
0.0
  0
LINE
  5
934
330
6B
100
AcDbEntity
  8
0
  6
ByBlock
 62
     0
370
    -2
100
AcDbLine
 10
649.3889690000002
 20
434.802493
 30
0.0
 11
650.0588415000001
 21
432.3024929999999
 31
0.0
  0
LINE
  5
935
330
6B
100
AcDbEntity
  8
0
  6
ByBlock
 62
     0
370
    -2
100
AcDbLine
 10
649.3889690000002
 20
434.802493
 30
0.0
 11
649.3889690000002
 21
432.3024929999999
 31
0.0
  0
LINE
  5
936
330
6B
100
AcDbEntity
  8
0
  6
ByBlock
 62
     0
370
    -2
100
AcDbLine
 10
650.0588415000001
 20
309.302493
 30
0.0
 11
649.3889690000002
 21
306.802493
 31
0.0
  0
LINE
  5
937
330
6B
100
AcDbEntity
  8
0
  6
ByBlock
 62
     0
370
    -2
100
AcDbLine
 10
649.3889690000002
 20
306.802493
 30
0.0
 11
648.7190965000002
 21
309.302493
 31
0.0
  0
LINE
  5
938
330
6B
100
AcDbEntity
  8
0
  6
ByBlock
 62
     0
370
    -2
100
AcDbLine
 10
649.3889690000002
 20
306.802493
 30
0.0
 11
649.3889690000002
 21
309.302493
 31
0.0
  0
TEXT
  5
939
330
6B
100
AcDbEntity
  8
0
  6
Continuous
 62
     4
100
AcDbText
 10
831.6072420000001
 20
288.9079759999999
 30
0.0
 40
3.0
  1
50
100
AcDbText
  0
LINE
  5
93A
330
6B
100
AcDbEntity
  8
0
  6
ByBlock
 62
     0
370
    -2
100
AcDbLine
 10
856.3572419999999
 20
288.9528484999999
 30
0.0
 11
858.857242
 21
288.2829759999999
 31
0.0
  0
LINE
  5
93B
330
6B
100
AcDbEntity
  8
0
  6
ByBlock
 62
     0
370
    -2
100
AcDbLine
 10
858.857242
 20
288.2829759999999
 30
0.0
 11
856.3572419999999
 21
287.6131034999999
 31
0.0
  0
LINE
  5
93C
330
6B
100
AcDbEntity
  8
0
  6
ByBlock
 62
     0
370
    -2
100
AcDbLine
 10
858.857242
 20
288.2829759999999
 30
0.0
 11
856.3572419999999
 21
288.2829759999999
 31
0.0
  0
LINE
  5
93D
330
6B
100
AcDbEntity
  8
0
  6
ByBlock
 62
     0
370
    -2
100
AcDbLine
 10
811.357242
 20
287.6131034999999
 30
0.0
 11
808.857242
 21
288.2829759999999
 31
0.0
  0
LINE
  5
93E
330
6B
100
AcDbEntity
  8
0
  6
ByBlock
 62
     0
370
    -2
100
AcDbLine
 10
808.857242
 20
288.2829759999999
 30
0.0
 11
811.357242
 21
288.9528484999999
 31
0.0
  0
LINE
  5
93F
330
6B
100
AcDbEntity
  8
0
  6
ByBlock
 62
     0
370
    -2
100
AcDbLine
 10
808.857242
 20
288.2829759999999
 30
0.0
 11
811.357242
 21
288.2829759999999
 31
0.0
  0
TEXT
  5
940
330
6B
100
AcDbEntity
  8
0
  6
Continuous
 62
     4
100
AcDbText
 10
715.2179949999999
 20
287.403023
 30
0.0
 40
3.0
  1
82
100
AcDbText
  0
LINE
  5
941
330
6B
100
AcDbEntity
  8
0
  6
ByBlock
 62
     0
370
    -2
100
AcDbLine
 10
756.2179949999999
 20
287.4478955
 30
0.0
 11
758.7179949999998
 21
286.778023
 31
0.0
  0
LINE
  5
942
330
6B
100
AcDbEntity
  8
0
  6
ByBlock
 62
     0
370
    -2
100
AcDbLine
 10
758.7179949999998
 20
286.778023
 30
0.0
 11
756.2179949999999
 21
286.1081505000001
 31
0.0
  0
LINE
  5
943
330
6B
100
AcDbEntity
  8
0
  6
ByBlock
 62
     0
370
    -2
100
AcDbLine
 10
758.7179949999998
 20
286.778023
 30
0.0
 11
756.2179949999999
 21
286.778023
 31
0.0
  0
LINE
  5
944
330
6B
100
AcDbEntity
  8
0
  6
ByBlock
 62
     0
370
    -2
100
AcDbLine
 10
679.2179949999999
 20
286.1081505000001
 30
0.0
 11
676.717995
 21
286.778023
 31
0.0
  0
LINE
  5
945
330
6B
100
AcDbEntity
  8
0
  6
ByBlock
 62
     0
370
    -2
100
AcDbLine
 10
676.717995
 20
286.778023
 30
0.0
 11
679.2179949999999
 21
287.4478955
 31
0.0
  0
LINE
  5
946
330
6B
100
AcDbEntity
  8
0
  6
ByBlock
 62
     0
370
    -2
100
AcDbLine
 10
676.717995
 20
286.778023
 30
0.0
 11
679.2179949999999
 21
286.778023
 31
0.0
  0
ENDSEC
  0
SECTION
  2
OBJECTS
  0
DICTIONARY
  5
C
330
0
100
AcDbDictionary
281
     1
  3
ACAD_2007HEADERVARS_RT
350
94B
  3
ACAD_COLOR
350
62
  3
ACAD_GROUP
350
D
  3
ACAD_LAYOUT
350
61
  3
ACAD_MATERIAL
350
10
  3
ACAD_MLEADERSTYLE
350
65
  3
ACAD_MLINESTYLE
350
5E
  3
ACAD_PLOTSETTINGS
350
60
  3
ACAD_PLOTSTYLENAME
350
E
  3
ACAD_SCALELIST
350
42
  3
ACAD_TABLESTYLE
350
63
  3
ACAD_VISUALSTYLE
350
29
  3
ACDB_RECOMPOSE_DATA
350
949
  3
AcDbVariableDictionary
350
6CE
  3
DWGPROPS
350
94A
  0
DICTIONARY
  5
545
330
2
100
AcDbDictionary
280
     1
281
     1
  3
ACAD_LAYERSTATES
360
546
  0
DICTIONARY
  5
6CC
330
54
100
AcDbDictionary
280
     1
281
     1
  3
ADSK_XREC_LAYER_RECONCILED
360
6CD
  0
DICTIONARY
  5
73D
330
6B
100
AcDbDictionary
280
     1
281
     1
  3
ACAD_SORTENTS
360
73E
  0
DICTIONARY
  5
94B
102
{ACAD_REACTORS
330
C
102
}
330
C
100
AcDbDictionary
281
     1
  3
DIMARCSYM
350
94D
  3
DIMFXL
350
94C
  3
DIMJOGANG
350
94E
  0
DICTIONARY
  5
62
102
{ACAD_REACTORS
330
C
102
}
330
C
100
AcDbDictionary
281
     1
  0
DICTIONARY
  5
D
102
{ACAD_REACTORS
330
C
102
}
330
C
100
AcDbDictionary
281
     1
  0
DICTIONARY
  5
61
102
{ACAD_REACTORS
330
C
102
}
330
C
100
AcDbDictionary
281
     1
  3
Model
350
6E
  3
レイアウト1
350
6A
  0
DICTIONARY
  5
10
102
{ACAD_REACTORS
330
C
102
}
330
C
100
AcDbDictionary
281
     1
  3
ByBlock
350
19
  3
ByLayer
350
11
  3
Global
350
21
  0
DICTIONARY
  5
65
102
{ACAD_REACTORS
330
C
102
}
330
C
100
AcDbDictionary
281
     1
  3
Standard
350
66
  0
DICTIONARY
  5
5E
102
{ACAD_REACTORS
330
C
102
}
330
C
100
AcDbDictionary
281
     1
  3
Standard
350
5F
  0
DICTIONARY
  5
60
102
{ACAD_REACTORS
330
C
102
}
330
C
100
AcDbDictionary
281
     1
  0
ACDBDICTIONARYWDFLT
  5
E
102
{ACAD_REACTORS
330
C
102
}
330
C
100
AcDbDictionary
281
     1
  3
Normal
350
F
100
AcDbDictionaryWithDefault
340
F
  0
DICTIONARY
  5
42
102
{ACAD_REACTORS
330
C
102
}
330
C
100
AcDbDictionary
281
     1
  3
A0
350
43
  3
A1
350
44
  3
A2
350
45
  3
A3
350
46
  3
A4
350
47
  3
A5
350
48
  3
A6
350
49
  3
A7
350
4A
  3
A8
350
4B
  3
A9
350
4C
  3
B0
350
4D
  3
B1
350
4E
  3
B2
350
4F
  3
B3
350
50
  3
B4
350
51
  3
B5
350
52
  3
B6
350
53
  0
DICTIONARY
  5
63
102
{ACAD_REACTORS
330
C
102
}
330
C
100
AcDbDictionary
281
     1
  3
Standard
350
64
  0
DICTIONARY
  5
29
102
{ACAD_REACTORS
330
C
102
}
330
C
100
AcDbDictionary
281
     1
  3
2dWireframe
350
2F
  3
3dWireframe
350
542
  3
Basic
350
2E
  3
Brighten
350
35
  3
ColorChange
350
39
  3
Conceptual
350
32
  3
Dim
350
34
  3
EdgeColorOff
350
41
  3
Facepattern
350
38
  3
Flat
350
2A
  3
FlatWithEdges
350
2B
  3
Gouraud
350
2C
  3
GouraudWithEdges
350
2D
  3
Hidden
350
31
  3
JitterOff
350
3F
  3
Linepattern
350
37
  3
OverhangOff
350
40
  3
Realistic
350
33
  3
Shaded
350
3E
  3
Shaded with edges
350
3D
  3
Shades of Gray
350
3A
  3
Sketchy
350
3B
  3
Thicken
350
36
  3
Wireframe
350
30
  3
X-Ray
350
3C
  0
XRECORD
  5
949
102
{ACAD_REACTORS
330
C
102
}
330
C
100
AcDbXrecord
280
     1
 90
        1
330
64
  0
DICTIONARY
  5
6CE
102
{ACAD_REACTORS
330
C
102
}
330
C
100
AcDbDictionary
281
     1
  3
CANNOSCALE
350
6D1
  3
CMLEADERSTYLE
350
6D0
  3
CTABLESTYLE
350
6CF
  3
DIMASSOC
350
6D4
  3
INDEXCTL
350
6D3
  3
SORTENTS
350
6D2
  3
XCLIPFRAME
350
947
  0
XRECORD
  5
94A
102
{ACAD_REACTORS
330
C
102
}
330
C
100
AcDbXrecord
280
     1
  1
DWGPROPS COOKIE
  2

  3

  4

  6

  7

  8
imamura
  9

300
=
301
=
302
=
303
=
304
=
305
=
306
=
307
=
308
=
309
=
 40
0.0035959606481481
 41
2456870.793064977
 42
2456874.651747824
  1

 90
        0
  0
DICTIONARY
  5
546
102
{ACAD_REACTORS
330
545
102
}
330
545
100
AcDbDictionary
281
     1
  0
XRECORD
  5
6CD
102
{ACAD_REACTORS
330
6CC
102
}
330
6CC
100
AcDbXrecord
280
     1
290
     1
  0
SORTENTSTABLE
  5
73E
102
{ACAD_REACTORS
330
73D
102
}
330
73D
100
AcDbSortentsTable
330
6B
331
858
  5
447
331
330
  5
80B
331
C0
  5
E7
331
869
  5
46F
331
8E9
  5
320
331
8FA
  5
2BF
331
D1
  5
16C
331
35A
  5
814
331
E2
  5
17D
331
3A3
  5
85D
331
90B
  5
2D0
331
36B
  5
825
331
794
  5
759
331
91C
  5
2E1
331
37C
  5
836
331
164
  5
32D
331
BC
  5
E3
331
3FD
  5
8B4
331
38D
  5
847
331
175
  5
35F
331
79E
  5
763
331
40E
  5
8C5
331
93E
  5
D2
331
39E
  5
858
331
1CE
  5
3F7
331
41F
  5
8D6
331
7AF
  5
774
331
430
  5
8E7
331
2C0
  5
7A3
331
7C0
  5
785
331
449
  5
8F3
331
7D1
  5
796
331
879
  5
377
331
2D1
  5
7B4
331
2E2
  5
7C5
331
7E2
  5
487
331
88A
  5
388
331
74B
  5
8FF
331
803
  5
58A
331
7F3
  5
57A
331
89B
  5
399
331
2F3
  5
7D6
331
92D
  5
BC
331
75C
  5
876
331
814
  5
749
331
304
  5
7E7
331
475
  5
913
331
8BD
  5
2F0
331
76D
  5
887
331
315
  5
7F4
331
486
  5
91E
331
8CE
  5
301
331
77E
  5
898
331
497
  5
92C
331
8DF
  5
316
331
847
  5
429
331
836
  5
418
331
825
  5
407
331
8AC
  5
3AA
331
320
  5
7FF
331
848
  5
42A
331
8E0
  5
317
331
859
  5
448
331
331
  5
80C
331
C1
  5
15C
331
86A
  5
368
331
8EA
  5
1CE
331
73B
  5
921
331
8FB
  5
2C0
331
D2
  5
16D
331
35B
  5
815
331
E3
  5
1C9
331
3A4
  5
85E
331
90C
  5
2D1
331
36C
  5
826
331
795
  5
75A
331
91D
  5
2E2
331
37D
  5
837
331
165
  5
32E
331
BD
  5
E4
331
3FE
  5
8B5
331
38E
  5
848
331
176
  5
360
331
79F
  5
764
331
40F
  5
8C6
331
93F
  5
D3
331
39F
  5
859
331
1CF
  5
3F8
331
420
  5
8D7
331
7B0
  5
775
331
431
  5
8E8
331
2C1
  5
7A4
331
7C1
  5
786
331
44A
  5
8F4
331
7D2
  5
797
331
87A
  5
378
331
2D2
  5
7B5
331
2E3
  5
7C6
331
7E3
  5
488
331
88B
  5
389
331
74C
  5
900
331
804
  5
58B
331
7F4
  5
57B
331
89C
  5
39A
331
2F4
  5
7D7
331
92E
  5
BD
331
75D
  5
877
331
815
  5
74A
331
305
  5
7E8
331
476
  5
914
331
8BE
  5
2F1
331
76E
  5
888
331
316
  5
7F5
331
487
  5
91F
331
8CF
  5
302
331
77F
  5
899
331
837
  5
419
331
826
  5
408
331
8AD
  5
3AB
331
488
  5
920
331
8D0
  5
303
331
780
  5
89A
331
838
  5
41A
331
85A
  5
449
331
849
  5
42B
331
8E1
  5
318
331
86B
  5
369
331
8EB
  5
1CF
331
C2
  5
15D
331
34B
  5
80F
331
D3
  5
16E
331
73C
  5
922
331
8FC
  5
2C1
331
35C
  5
816
331
E4
  5
1CA
331
3A5
  5
85F
331
90D
  5
2D2
331
36D
  5
827
331
796
  5
75B
331
91E
  5
2E3
331
37E
  5
838
331
166
  5
32F
331
BE
  5
E5
331
3FF
  5
8B6
331
38F
  5
849
331
177
  5
361
331
7A0
  5
765
331
410
  5
8C7
331
940
  5
CD
331
421
  5
8D8
331
7B1
  5
776
331
1D0
  5
3F9
331
432
  5
8E9
331
2C2
  5
7A5
331
7C2
  5
787
331
44B
  5
8F5
331
7D3
  5
798
331
87B
  5
379
331
2D3
  5
7B6
331
2E4
  5
7C7
331
7E4
  5
48E
331
88C
  5
38A
331
74D
  5
901
331
805
  5
58C
331
7F5
  5
57C
331
89D
  5
39B
331
2F5
  5
7D8
331
75E
  5
878
331
816
  5
74B
331
8AE
  5
3AC
331
477
  5
915
331
8BF
  5
2F2
331
76F
  5
889
331
827
  5
409
331
317
  5
7F6
331
306
  5
7E9
331
588
  5
940
331
8C0
  5
2F3
331
770
  5
88A
331
828
  5
40A
331
318
  5
7F7
331
781
  5
89B
331
839
  5
41B
331
8D1
  5
304
331
57A
  5
932
331
8E2
  5
319
331
85B
  5
44A
331
84A
  5
42C
331
86C
  5
36A
331
8EC
  5
1D0
331
C3
  5
15E
331
8FD
  5
2C2
331
D4
  5
16F
331
35D
  5
817
331
E5
  5
1CB
331
3A6
  5
860
331
90E
  5
2D3
331
36E
  5
828
331
797
  5
75C
331
91F
  5
2E4
331
400
  5
8B7
331
37F
  5
839
331
167
  5
330
331
BF
  5
E6
331
390
  5
84A
331
7A1
  5
766
331
411
  5
8C8
331
941
  5
C7
331
422
  5
8D9
331
7B2
  5
777
331
433
  5
8EA
331
7C3
  5
788
331
1D1
  5
3FA
331
2C3
  5
7A6
331
44C
  5
8F6
331
7D4
  5
799
331
87C
  5
37A
331
2D4
  5
7B7
331
2E5
  5
7C8
331
7E5
  5
48F
331
88D
  5
38B
331
74E
  5
902
331
806
  5
58D
331
7F6
  5
57D
331
89E
  5
39C
331
2F6
  5
7D9
331
75F
  5
879
331
817
  5
74C
331
8AF
  5
3AD
331
178
  5
362
331
307
  5
7EA
331
760
  5
87A
331
818
  5
74D
331
8B0
  5
3AE
331
308
  5
7EB
331
589
  5
941
331
8C1
  5
2F4
331
771
  5
88B
331
829
  5
40B
331
319
  5
7F8
331
782
  5
89C
331
83A
  5
41C
331
8D2
  5
305
331
57B
  5
933
331
8E3
  5
31A
331
85C
  5
44B
331
84B
  5
42D
331
86D
  5
36B
331
8ED
  5
1D1
331
C4
  5
15F
331
8FE
  5
2C3
331
D5
  5
170
331
35E
  5
818
331
E6
  5
1CC
331
3A7
  5
861
331
90F
  5
2D4
331
36F
  5
829
331
498
  5
92D
331
920
  5
D8
331
401
  5
8B8
331
380
  5
83A
331
168
  5
331
331
391
  5
84B
331
179
  5
363
331
412
  5
8C9
331
942
  5
C8
331
423
  5
8DA
331
7B3
  5
778
331
2C4
  5
7A7
331
7C4
  5
789
331
1D2
  5
3FB
331
44D
  5
8F7
331
7D5
  5
79A
331
87D
  5
37B
331
2D5
  5
7B8
331
2E6
  5
7C9
331
7E6
  5
490
331
88E
  5
38C
331
74F
  5
903
331
807
  5
58E
331
7F7
  5
57E
331
89F
  5
39D
331
2F7
  5
7DA
331
7A2
  5
767
331
750
  5
904
331
808
  5
73B
331
7F8
  5
57F
331
8A0
  5
39E
331
2F8
  5
7DB
331
761
  5
87B
331
819
  5
74E
331
8B1
  5
3AF
331
309
  5
7EC
331
58A
  5
942
331
8C2
  5
2F5
331
772
  5
88C
331
82A
  5
40C
331
31A
  5
7F9
331
783
  5
89D
331
83B
  5
41D
331
8D3
  5
306
331
57C
  5
934
331
8E4
  5
31B
331
85D
  5
44C
331
84C
  5
42E
331
86E
  5
36C
331
8EE
  5
1D2
331
C5
  5
160
331
73F
  5
91B
331
8FF
  5
2C4
331
D6
  5
171
331
35F
  5
819
331
E7
  5
1CD
331
788
  5
8A2
331
910
  5
2D5
331
3A8
  5
862
331
370
  5
82A
331
499
  5
92E
331
921
  5
D9
331
381
  5
83B
331
402
  5
8B9
331
932
  5
E1
331
169
  5
343
331
392
  5
84C
331
7A3
  5
768
331
17A
  5
364
331
413
  5
8CA
331
943
  5
C9
331
424
  5
8DB
331
7B4
  5
779
331
2C5
  5
7A8
331
7C5
  5
78A
331
44E
  5
8F8
331
7D6
  5
79B
331
87E
  5
37C
331
2D6
  5
7B9
331
2E7
  5
7CA
331
7E7
  5
491
331
88F
  5
38D
331
1D3
  5
3FC
331
740
  5
91C
331
7E8
  5
492
331
890
  5
38E
331
2E8
  5
7CB
331
751
  5
8FA
331
809
  5
73C
331
7F9
  5
580
331
8A1
  5
39F
331
2F9
  5
7DC
331
46A
  5
90B
331
8B2
  5
2E5
331
762
  5
87C
331
81A
  5
74F
331
30A
  5
7ED
331
58B
  5
943
331
8C3
  5
2F6
331
773
  5
88D
331
82B
  5
40D
331
31B
  5
7FA
331
784
  5
89E
331
83C
  5
41E
331
8D4
  5
307
331
57D
  5
935
331
8E5
  5
31C
331
325
  5
800
331
84D
  5
42F
331
85E
  5
44D
331
86F
  5
36D
331
8EF
  5
1D3
331
C6
  5
161
331
360
  5
81A
331
900
  5
2C5
331
D7
  5
172
331
789
  5
8A3
331
911
  5
2D6
331
371
  5
82B
331
3A9
  5
863
331
49A
  5
92F
331
382
  5
83C
331
16A
  5
345
331
403
  5
8BA
331
933
  5
DE
331
922
  5
DA
331
393
  5
84D
331
7A4
  5
769
331
414
  5
8CB
331
425
  5
8DC
331
7B5
  5
77A
331
1D4
  5
3FD
331
944
  5
C1
331
17B
  5
365
331
2C6
  5
7A9
331
44F
  5
8F9
331
7D7
  5
79C
331
87F
  5
37D
331
2D7
  5
7BA
331
7C6
  5
78B
331
2D8
  5
7BB
331
7D8
  5
79D
331
880
  5
37E
331
741
  5
916
331
7E9
  5
493
331
891
  5
38F
331
2E9
  5
7CC
331
752
  5
8FB
331
80A
  5
73F
331
7FA
  5
581
331
8A2
  5
3A0
331
2FA
  5
7DD
331
46B
  5
90C
331
8B3
  5
2E6
331
763
  5
87D
331
81B
  5
750
331
30B
  5
7EE
331
58C
  5
944
331
8C4
  5
2F7
331
774
  5
88E
331
82C
  5
40E
331
31C
  5
7FB
331
785
  5
89F
331
83D
  5
41F
331
8D5
  5
308
331
57E
  5
936
331
8E6
  5
31D
331
326
  5
801
331
84E
  5
430
331
85F
  5
44E
331
8F0
  5
1D4
331
C7
  5
162
331
361
  5
81B
331
901
  5
2C6
331
D8
  5
173
331
78A
  5
8A4
331
3AA
  5
864
331
49B
  5
930
331
372
  5
82C
331
912
  5
2D7
331
383
  5
83D
331
404
  5
8BB
331
934
  5
DF
331
394
  5
84E
331
17C
  5
366
331
7A5
  5
76A
331
415
  5
8CC
331
426
  5
8DD
331
7B6
  5
77B
331
1D5
  5
3FE
331
945
  5
C2
331
16B
  5
34B
331
2C7
  5
7AA
331
7C7
  5
78C
331
2C8
  5
7AB
331
7C8
  5
78D
331
870
  5
36E
331
2D9
  5
7BC
331
7D9
  5
79E
331
881
  5
37F
331
742
  5
917
331
7EA
  5
494
331
892
  5
390
331
2EA
  5
7CD
331
753
  5
86D
331
80B
  5
740
331
7FB
  5
582
331
8A3
  5
3A1
331
2FB
  5
7DE
331
46C
  5
90D
331
8B4
  5
2E7
331
764
  5
87E
331
81C
  5
751
331
30C
  5
7EF
331
58D
  5
945
331
8C5
  5
2F8
331
47D
  5
918
331
775
  5
88F
331
82D
  5
40F
331
31D
  5
7FC
331
48E
  5
923
331
8D6
  5
309
331
786
  5
8A0
331
83E
  5
420
331
57F
  5
937
331
8E7
  5
31E
331
327
  5
802
331
84F
  5
431
331
860
  5
44F
331
8F1
  5
1D5
331
351
  5
810
331
D9
  5
174
331
362
  5
81C
331
902
  5
2C7
331
78B
  5
8A5
331
3AB
  5
865
331
49C
  5
931
331
373
  5
82D
331
913
  5
2D8
331
384
  5
83E
331
405
  5
8BC
331
935
  5
E0
331
395
  5
84F
331
7A6
  5
76B
331
17D
  5
367
331
416
  5
8CD
331
427
  5
8DE
331
7B7
  5
77C
331
1D6
  5
3FF
331
946
  5
C3
331
16C
  5
351
331
C8
  5
163
331
428
  5
8DF
331
7B8
  5
77D
331
441
  5
8EB
331
7C9
  5
78E
331
871
  5
36F
331
2C9
  5
7AC
331
2DA
  5
7BD
331
7DA
  5
475
331
882
  5
380
331
743
  5
911
331
7EB
  5
495
331
893
  5
391
331
2EB
  5
7CE
331
754
  5
86E
331
80C
  5
741
331
7FC
  5
583
331
8A4
  5
3A2
331
2FC
  5
7DF
331
46D
  5
90E
331
8B5
  5
2E8
331
765
  5
87F
331
81D
  5
752
331
30D
  5
7F0
331
58E
  5
946
331
8C6
  5
2F9
331
47E
  5
919
331
776
  5
890
331
82E
  5
410
331
31E
  5
7FD
331
48F
  5
924
331
8D7
  5
30A
331
580
  5
938
331
787
  5
8A1
331
83F
  5
421
331
328
  5
803
331
850
  5
432
331
8F2
  5
1D6
331
C9
  5
164
331
363
  5
81D
331
903
  5
2C8
331
78C
  5
8A6
331
914
  5
2D9
331
3AC
  5
866
331
DA
  5
175
331
861
  5
455
331
3F5
  5
8AC
331
374
  5
82E
331
385
  5
83F
331
16D
  5
355
331
406
  5
8BD
331
936
  5
DB
331
396
  5
850
331
417
  5
8CE
331
1D7
  5
400
331
7A7
  5
76C
331
15C
  5
325
331
418
  5
8CF
331
7A8
  5
76D
331
429
  5
8E0
331
7B9
  5
77E
331
1D8
  5
401
331
442
  5
8EC
331
7CA
  5
78F
331
872
  5
370
331
2CA
  5
7AD
331
2DB
  5
7BE
331
7DB
  5
476
331
883
  5
381
331
744
  5
912
331
7EC
  5
496
331
894
  5
392
331
2EC
  5
7CF
331
755
  5
86F
331
80D
  5
742
331
7FD
  5
584
331
8A5
  5
3A3
331
2FD
  5
7E0
331
46E
  5
90F
331
8B6
  5
2E9
331
766
  5
880
331
81E
  5
753
331
30E
  5
7F1
331
47F
  5
91A
331
8C7
  5
2FA
331
777
  5
891
331
82F
  5
411
331
31F
  5
7FE
331
490
  5
925
331
8D8
  5
30B
331
581
  5
939
331
329
  5
804
331
851
  5
433
331
862
  5
456
331
8F3
  5
1D7
331
364
  5
81E
331
904
  5
2C9
331
DB
  5
176
331
78D
  5
8A7
331
3AD
  5
867
331
375
  5
82F
331
15D
  5
326
331
915
  5
2DA
331
CA
  5
165
331
3F6
  5
8AD
331
386
  5
840
331
16E
  5
356
331
407
  5
8BE
331
937
  5
DC
331
926
  5
CE
331
840
  5
422
331
397
  5
851
331
798
  5
75D
331
408
  5
8BF
331
938
  5
DD
331
398
  5
852
331
419
  5
8D0
331
7A9
  5
76E
331
42A
  5
8E1
331
7BA
  5
77F
331
1D9
  5
402
331
443
  5
8ED
331
7CB
  5
790
331
873
  5
371
331
2CB
  5
7AE
331
2DC
  5
7BF
331
7DC
  5
477
331
884
  5
382
331
745
  5
905
331
7ED
  5
497
331
895
  5
393
331
2ED
  5
7D0
331
756
  5
870
331
80E
  5
743
331
7FE
  5
585
331
8A6
  5
3A4
331
2FE
  5
7E1
331
46F
  5
910
331
8B7
  5
2EA
331
767
  5
881
331
81F
  5
754
331
778
  5
892
331
830
  5
412
331
8C8
  5
2FB
331
491
  5
926
331
8D9
  5
30C
331
582
  5
93A
331
841
  5
423
331
32A
  5
805
331
852
  5
441
331
863
  5
457
331
343
  5
80D
331
8F4
  5
1D8
331
365
  5
81F
331
905
  5
2CA
331
DC
  5
177
331
78E
  5
8A8
331
3AE
  5
868
331
376
  5
830
331
3F7
  5
8AE
331
927
  5
CF
331
387
  5
841
331
16F
  5
357
331
15E
  5
327
331
916
  5
2DB
331
CB
  5
166
331
3F8
  5
8AF
331
928
  5
D0
331
388
  5
842
331
170
  5
35A
331
799
  5
75E
331
409
  5
8C0
331
939
  5
D7
331
399
  5
853
331
1C9
  5
3B0
331
41A
  5
8D1
331
7AA
  5
76F
331
42B
  5
8E2
331
7BB
  5
780
331
1DA
  5
403
331
444
  5
8EE
331
7CC
  5
791
331
874
  5
372
331
455
  5
8FC
331
7DD
  5
47D
331
885
  5
383
331
2CC
  5
7AF
331
2DD
  5
7C0
331
746
  5
906
331
7EE
  5
498
331
896
  5
394
331
2EE
  5
7D1
331
757
  5
871
331
80F
  5
744
331
7FF
  5
586
331
8A7
  5
3A5
331
2FF
  5
7E2
331
768
  5
882
331
820
  5
755
331
8B8
  5
2EB
331
779
  5
893
331
831
  5
413
331
492
  5
927
331
8DA
  5
30D
331
583
  5
93B
331
842
  5
424
331
32B
  5
806
331
864
  5
46A
331
8F5
  5
1D9
331
355
  5
811
331
DD
  5
178
331
366
  5
820
331
906
  5
2CB
331
78F
  5
8A9
331
3AF
  5
869
331
377
  5
831
331
15F
  5
328
331
917
  5
2DC
331
CC
  5
167
331
853
  5
442
331
8C9
  5
2FC
331
790
  5
8AA
331
918
  5
2DD
331
3B0
  5
86A
331
3F9
  5
8B0
331
378
  5
832
331
160
  5
329
331
389
  5
843
331
171
  5
35B
331
79A
  5
75F
331
40A
  5
8C1
331
39A
  5
854
331
1CA
  5
3B1
331
41B
  5
8D2
331
7AB
  5
770
331
42C
  5
8E3
331
7BC
  5
781
331
445
  5
8EF
331
7CD
  5
792
331
875
  5
373
331
2BC
  5
79F
331
2CD
  5
7B0
331
456
  5
8FD
331
7DE
  5
47E
331
886
  5
384
331
747
  5
907
331
7EF
  5
499
331
897
  5
395
331
2DE
  5
7C1
331
2EF
  5
7D2
331
758
  5
872
331
810
  5
745
331
8A8
  5
3A6
331
300
  5
7E3
331
769
  5
883
331
821
  5
756
331
311
  5
7F2
331
77A
  5
894
331
832
  5
414
331
8CA
  5
2FD
331
493
  5
928
331
584
  5
93C
331
843
  5
425
331
32C
  5
807
331
865
  5
46B
331
345
  5
80E
331
CD
  5
168
331
8F6
  5
1DA
331
356
  5
812
331
367
  5
821
331
907
  5
2CC
331
DE
  5
179
331
854
  5
443
331
8DB
  5
30E
331
8B9
  5
2EC
331
93A
  5
D4
331
3A0
  5
85A
331
908
  5
2CD
331
368
  5
822
331
791
  5
8AB
331
919
  5
2DE
331
3B1
  5
86B
331
3FA
  5
8B1
331
379
  5
833
331
161
  5
32A
331
38A
  5
844
331
172
  5
35C
331
79B
  5
760
331
40B
  5
8C2
331
93B
  5
D5
331
39B
  5
855
331
41C
  5
8D3
331
7AC
  5
771
331
42D
  5
8E4
331
7BD
  5
782
331
446
  5
8F0
331
7CE
  5
793
331
876
  5
374
331
2BD
  5
7A0
331
2CE
  5
7B1
331
457
  5
8FE
331
7DF
  5
47F
331
887
  5
385
331
2DF
  5
7C2
331
748
  5
908
331
800
  5
587
331
7F0
  5
49A
331
898
  5
396
331
2F0
  5
7D3
331
759
  5
873
331
811
  5
746
331
8A9
  5
3A7
331
301
  5
7E4
331
76A
  5
884
331
822
  5
404
331
77B
  5
895
331
833
  5
415
331
8CB
  5
2FE
331
494
  5
929
331
8DC
  5
311
331
585
  5
93D
331
32D
  5
808
331
855
  5
444
331
866
  5
46C
331
8F7
  5
2BC
331
CE
  5
169
331
357
  5
813
331
DF
  5
17A
331
844
  5
426
331
8BA
  5
2ED
331
1CB
  5
3B2
331
8F8
  5
2BD
331
3A1
  5
85B
331
909
  5
2CE
331
E0
  5
17B
331
369
  5
823
331
3B2
  5
86C
331
792
  5
757
331
91A
  5
2DF
331
3FB
  5
8B2
331
37A
  5
834
331
162
  5
32B
331
38B
  5
845
331
173
  5
35D
331
79C
  5
761
331
40C
  5
8C3
331
93C
  5
D6
331
39C
  5
856
331
1CC
  5
3F5
331
41D
  5
8D4
331
42E
  5
8E5
331
7BE
  5
783
331
447
  5
8F1
331
7CF
  5
794
331
877
  5
375
331
2BE
  5
7A1
331
2CF
  5
7B2
331
2E0
  5
7C3
331
7E0
  5
485
331
888
  5
386
331
7AD
  5
772
331
749
  5
909
331
801
  5
588
331
7F1
  5
49B
331
2F1
  5
7D4
331
75A
  5
874
331
812
  5
747
331
8AA
  5
3A8
331
302
  5
7E5
331
76B
  5
885
331
823
  5
405
331
8BB
  5
2EE
331
77C
  5
896
331
834
  5
416
331
8CC
  5
2FF
331
495
  5
92A
331
8DD
  5
313
331
586
  5
93E
331
32E
  5
809
331
856
  5
445
331
867
  5
46D
331
CF
  5
16A
331
845
  5
427
331
313
  5
7F3
331
899
  5
397
331
868
  5
46E
331
8E8
  5
31F
331
8F9
  5
2BE
331
D0
  5
16B
331
3A2
  5
85C
331
90A
  5
2CF
331
E1
  5
17C
331
36A
  5
824
331
793
  5
758
331
91B
  5
2E0
331
37B
  5
835
331
163
  5
32C
331
BB
  5
E2
331
3FC
  5
8B3
331
38C
  5
846
331
174
  5
35E
331
79D
  5
762
331
40D
  5
8C4
331
93D
  5
D1
331
39D
  5
857
331
1CD
  5
3F6
331
41E
  5
8D5
331
7AE
  5
773
331
42F
  5
8E6
331
2BF
  5
7A2
331
7BF
  5
784
331
448
  5
8F2
331
7D0
  5
795
331
878
  5
376
331
2D0
  5
7B3
331
2E1
  5
7C4
331
7E1
  5
486
331
889
  5
387
331
74A
  5
90A
331
802
  5
589
331
7F2
  5
49C
331
89A
  5
398
331
2F2
  5
7D5
331
92C
  5
BB
331
75B
  5
875
331
813
  5
748
331
303
  5
7E6
331
76C
  5
886
331
824
  5
406
331
8BC
  5
2EF
331
485
  5
91D
331
77D
  5
897
331
835
  5
417
331
496
  5
92B
331
8DE
  5
315
331
587
  5
93F
331
32F
  5
80A
331
857
  5
446
331
846
  5
428
331
8CD
  5
300
331
8AB
  5
3A9
  0
XRECORD
  5
94D
102
{ACAD_REACTORS
330
94B
102
}
330
94B
100
AcDbXrecord
280
     1
 70
     2
  0
XRECORD
  5
94C
102
{ACAD_REACTORS
330
94B
102
}
330
94B
100
AcDbXrecord
280
     1
 40
1.25
  0
XRECORD
  5
94E
102
{ACAD_REACTORS
330
94B
102
}
330
94B
100
AcDbXrecord
280
     1
 40
1.570796326794896
  0
LAYOUT
  5
6E
102
{ACAD_XDICTIONARY
360
982
102
}
102
{ACAD_REACTORS
330
61
102
}
330
61
100
AcDbPlotSettings
  1

  2
FX DP 205
  4

  6

 40
0.0
 41
0.0
 42
0.0
 43
0.0
 44
0.0
 45
0.0
 46
0.0
 47
0.0
 48
0.0
 49
0.0
140
0.0
141
0.0
142
1.0
143
1.0
 70
  1712
 72
     0
 73
     0
 74
     0
  7

 75
     0
147
1.0
148
0.0
149
0.0
100
AcDbLayout
  1
Model
 70
     1
 71
     0
 10
0.0
 20
0.0
 11
12.0
 21
9.0
 12
0.0
 22
0.0
 32
0.0
 14
0.0
 24
0.0
 34
0.0
 15
0.0
 25
0.0
 35
0.0
146
0.0
 13
0.0
 23
0.0
 33
0.0
 16
1.0
 26
0.0
 36
0.0
 17
0.0
 27
1.0
 37
0.0
 76
     0
330
6B
331
8B
  0
LAYOUT
  5
6A
102
{ACAD_XDICTIONARY
360
980
102
}
102
{ACAD_REACTORS
330
61
102
}
330
61
100
AcDbPlotSettings
  1

  2
FX DP 205
  4

  6

 40
0.0
 41
0.0
 42
0.0
 43
0.0
 44
0.0
 45
0.0
 46
0.0
 47
0.0
 48
0.0
 49
0.0
140
0.0
141
0.0
142
1.0
143
1.0
 70
   688
 72
     0
 73
     0
 74
     5
  7

 75
    16
147
1.0
148
0.0
149
0.0
100
AcDbLayout
  1
レイアウト1
 70
     1
 71
     1
 10
0.0
 20
0.0
 11
12.0
 21
9.0
 12
0.0
 22
0.0
 32
0.0
 14
1.000000000000000E+20
 24
1.000000000000000E+20
 34
1.000000000000000E+20
 15
-1.000000000000000E+20
 25
-1.000000000000000E+20
 35
-1.000000000000000E+20
146
0.0
 13
0.0
 23
0.0
 33
0.0
 16
1.0
 26
0.0
 36
0.0
 17
0.0
 27
1.0
 37
0.0
 76
     0
330
67
  0
MATERIAL
  5
19
102
{ACAD_XDICTIONARY
360
1A
102
}
102
{ACAD_REACTORS
330
10
102
}
330
10
100
AcDbMaterial
  1
ByBlock
 72
     0
 43
0.0208333333333333
 43
0.0
 43
0.0
 43
0.0
 43
0.0
 43
0.0208333333333333
 43
0.0
 43
0.0
 43
0.0
 43
0.0
 43
1.0
 43
0.0
 43
0.0
 43
0.0
 43
0.0
 43
1.0
 77
     0
 47
0.0208333333333333
 47
0.0
 47
0.0
 47
0.0
 47
0.0
 47
0.0208333333333333
 47
0.0
 47
0.0
 47
0.0
 47
0.0
 47
1.0
 47
0.0
 47
0.0
 47
0.0
 47
0.0
 47
1.0
171
     0
 49
0.0208333333333333
 49
0.0
 49
0.0
 49
0.0
 49
0.0
 49
0.0208333333333333
 49
0.0
 49
0.0
 49
0.0
 49
0.0
 49
1.0
 49
0.0
 49
0.0
 49
0.0
 49
0.0
 49
1.0
175
     0
142
0.0208333333333333
142
0.0
142
0.0
142
0.0
142
0.0
142
0.0208333333333333
142
0.0
142
0.0
142
0.0
142
0.0
142
1.0
142
0.0
142
0.0
142
0.0
142
0.0
142
1.0
179
     0
144
0.0208333333333333
144
0.0
144
0.0
144
0.0
144
0.0
144
0.0208333333333333
144
0.0
144
0.0
144
0.0
144
0.0
144
1.0
144
0.0
144
0.0
144
0.0
144
0.0
144
1.0
147
0.0208333333333333
147
0.0
147
0.0
147
0.0
147
0.0
147
0.0208333333333333
147
0.0
147
0.0
147
0.0
147
0.0
147
1.0
147
0.0
147
0.0
147
0.0
147
0.0
147
1.0
  0
MATERIAL
  5
11
102
{ACAD_XDICTIONARY
360
12
102
}
102
{ACAD_REACTORS
330
10
102
}
330
10
100
AcDbMaterial
  1
ByLayer
 72
     0
 43
0.0208333333333333
 43
0.0
 43
0.0
 43
0.0
 43
0.0
 43
0.0208333333333333
 43
0.0
 43
0.0
 43
0.0
 43
0.0
 43
1.0
 43
0.0
 43
0.0
 43
0.0
 43
0.0
 43
1.0
 77
     0
 47
0.0208333333333333
 47
0.0
 47
0.0
 47
0.0
 47
0.0
 47
0.0208333333333333
 47
0.0
 47
0.0
 47
0.0
 47
0.0
 47
1.0
 47
0.0
 47
0.0
 47
0.0
 47
0.0
 47
1.0
171
     0
 49
0.0208333333333333
 49
0.0
 49
0.0
 49
0.0
 49
0.0
 49
0.0208333333333333
 49
0.0
 49
0.0
 49
0.0
 49
0.0
 49
1.0
 49
0.0
 49
0.0
 49
0.0
 49
0.0
 49
1.0
175
     0
142
0.0208333333333333
142
0.0
142
0.0
142
0.0
142
0.0
142
0.0208333333333333
142
0.0
142
0.0
142
0.0
142
0.0
142
1.0
142
0.0
142
0.0
142
0.0
142
0.0
142
1.0
179
     0
144
0.0208333333333333
144
0.0
144
0.0
144
0.0
144
0.0
144
0.0208333333333333
144
0.0
144
0.0
144
0.0
144
0.0
144
1.0
144
0.0
144
0.0
144
0.0
144
0.0
144
1.0
147
0.0208333333333333
147
0.0
147
0.0
147
0.0
147
0.0
147
0.0208333333333333
147
0.0
147
0.0
147
0.0
147
0.0
147
1.0
147
0.0
147
0.0
147
0.0
147
0.0
147
1.0
  0
MATERIAL
  5
21
102
{ACAD_XDICTIONARY
360
22
102
}
102
{ACAD_REACTORS
330
10
102
}
330
10
100
AcDbMaterial
  1
Global
 72
     0
 43
0.0208333333333333
 43
0.0
 43
0.0
 43
0.0
 43
0.0
 43
0.0208333333333333
 43
0.0
 43
0.0
 43
0.0
 43
0.0
 43
1.0
 43
0.0
 43
0.0
 43
0.0
 43
0.0
 43
1.0
 77
     0
 47
0.0208333333333333
 47
0.0
 47
0.0
 47
0.0
 47
0.0
 47
0.0208333333333333
 47
0.0
 47
0.0
 47
0.0
 47
0.0
 47
1.0
 47
0.0
 47
0.0
 47
0.0
 47
0.0
 47
1.0
171
     0
 49
0.0208333333333333
 49
0.0
 49
0.0
 49
0.0
 49
0.0
 49
0.0208333333333333
 49
0.0
 49
0.0
 49
0.0
 49
0.0
 49
1.0
 49
0.0
 49
0.0
 49
0.0
 49
0.0
 49
1.0
175
     0
142
0.0208333333333333
142
0.0
142
0.0
142
0.0
142
0.0
142
0.0208333333333333
142
0.0
142
0.0
142
0.0
142
0.0
142
1.0
142
0.0
142
0.0
142
0.0
142
0.0
142
1.0
179
     0
144
0.0208333333333333
144
0.0
144
0.0
144
0.0
144
0.0
144
0.0208333333333333
144
0.0
144
0.0
144
0.0
144
0.0
144
1.0
144
0.0
144
0.0
144
0.0
144
0.0
144
1.0
147
0.0208333333333333
147
0.0
147
0.0
147
0.0
147
0.0
147
0.0208333333333333
147
0.0
147
0.0
147
0.0
147
0.0
147
1.0
147
0.0
147
0.0
147
0.0
147
0.0
147
1.0
  0
MLEADERSTYLE
  5
66
102
{ACAD_REACTORS
330
65
102
}
330
65
100
AcDbMLeaderStyle
170
     2
171
     1
172
     0
 90
        2
 40
0.0
 41
0.0
173
     1
 91
-1056964608
340
5A
 92
       -2
290
     1
 42
0.09
291
     1
 43
0.36
  3
Standard
 44
0.18
300

342
55
174
     1
178
     6
175
     1
176
     0
 93
-1056964608
 45
0.18
292
     0
297
     0
 46
0.18
 94
-1056964608
 47
1.0
 49
1.0
140
1.0
293
     1
141
0.0
294
     1
177
     0
142
1.0
295
     0
296
     0
143
0.125
1001
ACAD_MLEADERVER
1070
     2
  0
MLINESTYLE
  5
5F
102
{ACAD_REACTORS
330
5E
102
}
330
5E
100
AcDbMlineStyle
  2
STANDARD
 70
     0
  3

 62
   256
 51
90.0
 52
90.0
 71
     2
 49
0.5
 62
   256
  6
BYLAYER
 49
-0.5
 62
   256
  6
BYLAYER
  0
ACDBPLACEHOLDER
  5
F
102
{ACAD_REACTORS
330
E
102
}
330
E
  0
SCALE
  5
43
102
{ACAD_REACTORS
330
42
102
}
330
42
100
AcDbScale
 70
     0
300
1:1
140
1.0
141
1.0
290
     1
  0
SCALE
  5
44
102
{ACAD_REACTORS
330
42
102
}
330
42
100
AcDbScale
 70
     0
300
1/128" = 1'-0"
140
0.0078125
141
12.0
290
     0
  0
SCALE
  5
45
102
{ACAD_REACTORS
330
42
102
}
330
42
100
AcDbScale
 70
     0
300
1/64" = 1'-0"
140
0.015625
141
12.0
290
     0
  0
SCALE
  5
46
102
{ACAD_REACTORS
330
42
102
}
330
42
100
AcDbScale
 70
     0
300
1/32" = 1'-0"
140
0.03125
141
12.0
290
     0
  0
SCALE
  5
47
102
{ACAD_REACTORS
330
42
102
}
330
42
100
AcDbScale
 70
     0
300
1/16" = 1'-0"
140
0.0625
141
12.0
290
     0
  0
SCALE
  5
48
102
{ACAD_REACTORS
330
42
102
}
330
42
100
AcDbScale
 70
     0
300
3/32" = 1'-0"
140
0.09375
141
12.0
290
     0
  0
SCALE
  5
49
102
{ACAD_REACTORS
330
42
102
}
330
42
100
AcDbScale
 70
     0
300
1/8" = 1'-0"
140
0.125
141
12.0
290
     0
  0
SCALE
  5
4A
102
{ACAD_REACTORS
330
42
102
}
330
42
100
AcDbScale
 70
     0
300
3/16" = 1'-0"
140
0.1875
141
12.0
290
     0
  0
SCALE
  5
4B
102
{ACAD_REACTORS
330
42
102
}
330
42
100
AcDbScale
 70
     0
300
1/4" = 1'-0"
140
0.25
141
12.0
290
     0
  0
SCALE
  5
4C
102
{ACAD_REACTORS
330
42
102
}
330
42
100
AcDbScale
 70
     0
300
3/8" = 1'-0"
140
0.375
141
12.0
290
     0
  0
SCALE
  5
4D
102
{ACAD_REACTORS
330
42
102
}
330
42
100
AcDbScale
 70
     0
300
1/2" = 1'-0"
140
0.5
141
12.0
290
     0
  0
SCALE
  5
4E
102
{ACAD_REACTORS
330
42
102
}
330
42
100
AcDbScale
 70
     0
300
3/4" = 1'-0"
140
0.75
141
12.0
290
     0
  0
SCALE
  5
4F
102
{ACAD_REACTORS
330
42
102
}
330
42
100
AcDbScale
 70
     0
300
1" = 1'-0"
140
1.0
141
12.0
290
     0
  0
SCALE
  5
50
102
{ACAD_REACTORS
330
42
102
}
330
42
100
AcDbScale
 70
     0
300
1-1/2" = 1'-0"
140
1.5
141
12.0
290
     0
  0
SCALE
  5
51
102
{ACAD_REACTORS
330
42
102
}
330
42
100
AcDbScale
 70
     0
300
3" = 1'-0"
140
3.0
141
12.0
290
     0
  0
SCALE
  5
52
102
{ACAD_REACTORS
330
42
102
}
330
42
100
AcDbScale
 70
     0
300
6" = 1'-0"
140
6.0
141
12.0
290
     0
  0
SCALE
  5
53
102
{ACAD_REACTORS
330
42
102
}
330
42
100
AcDbScale
 70
     0
300
1'-0" = 1'-0"
140
12.0
141
12.0
290
     0
  0
TABLESTYLE
  5
64
102
{ACAD_XDICTIONARY
360
6D6
102
}
102
{ACAD_REACTORS
330
63
102
}
330
63
100
AcDbTableStyle
  3
Standard
 70
     0
 71
     0
 40
0.06
 41
0.06
280
     0
281
     0
  7
STANDARD
140
0.18
170
     2
 62
     0
 63
     7
283
     0
274
    -2
284
     1
 64
     0
275
    -2
285
     1
 65
     0
276
    -2
286
     1
 66
     0
277
    -2
287
     1
 67
     0
278
    -2
288
     1
 68
     0
279
    -2
289
     1
 69
     0
  7
STANDARD
140
0.25
170
     5
 62
     0
 63
     7
283
     0
274
    -2
284
     1
 64
     0
275
    -2
285
     1
 65
     0
276
    -2
286
     1
 66
     0
277
    -2
287
     1
 67
     0
278
    -2
288
     1
 68
     0
279
    -2
289
     1
 69
     0
  7
STANDARD
140
0.18
170
     5
 62
     0
 63
     7
283
     0
274
    -2
284
     1
 64
     0
275
    -2
285
     1
 65
     0
276
    -2
286
     1
 66
     0
277
    -2
287
     1
 67
     0
278
    -2
288
     1
 68
     0
279
    -2
289
     1
 69
     0
  0
VISUALSTYLE
  5
2F
102
{ACAD_XDICTIONARY
360
959
102
}
102
{ACAD_REACTORS
330
29
102
}
330
29
100
AcDbVisualStyle
  2

 70
     4
 71
     0
 72
     2
 73
     0
 90
        0
 40
-0.6
 41
-30.0
 62
     5
 63
     7
 74
     1
 91
        4
 64
     7
 65
   257
 75
     1
175
     1
 42
1.0
 92
        0
 66
   257
 43
1.0
 76
     1
 77
     6
 78
     2
 67
     7
 79
     5
170
     0
171
     0
290
     0
174
     0
 93
        1
 44
0.0
173
     0
291
     0
 45
0.0
1001
ACAD
1000
AcDbSavedByObjectVersion
1070
     0
  0
VISUALSTYLE
  5
542
102
{ACAD_XDICTIONARY
360
984
102
}
102
{ACAD_REACTORS
330
29
102
}
330
29
100
AcDbVisualStyle
  2

 70
     5
 71
     0
 72
     2
 73
     1
 90
        0
 40
-0.6
 41
-30.0
 62
     5
 63
     7
 74
     1
 91
        4
 64
     7
 65
   257
 75
     1
175
     1
 42
1.0
 92
        0
 66
   257
 43
1.0
 76
     1
 77
     6
 78
     2
 67
     7
 79
     5
170
     0
171
     0
290
     0
174
     0
 93
        1
 44
0.0
173
     0
291
     0
 45
0.0
1001
ACAD
1000
AcDbSavedByObjectVersion
1070
     0
  0
VISUALSTYLE
  5
2E
102
{ACAD_XDICTIONARY
360
957
102
}
102
{ACAD_REACTORS
330
29
102
}
330
29
100
AcDbVisualStyle
  2

 70
     7
 71
     1
 72
     0
 73
     1
 90
        0
 40
-0.6
 41
-30.0
 62
     5
 63
     7
 74
     0
 91
        4
 64
     7
 65
   257
 75
     1
175
     1
 42
1.0
 92
        8
 66
     7
 43
1.0
 76
     1
 77
     6
 78
     2
 67
     7
 79
     5
170
     0
171
     0
290
     0
174
     0
 93
        1
 44
0.0
173
     0
291
     1
 45
0.0
1001
ACAD
1000
AcDbSavedByObjectVersion
1070
     0
  0
VISUALSTYLE
  5
35
102
{ACAD_XDICTIONARY
360
965
102
}
102
{ACAD_REACTORS
330
29
102
}
330
29
100
AcDbVisualStyle
  2

 70
    12
 71
     2
 72
     2
 73
     0
 90
        0
 40
-0.6
 41
-30.0
 62
     5
 63
     7
 74
     1
 91
        4
 64
     7
 65
   257
 75
     1
175
     1
 42
1.0
 92
        8
 66
     7
 43
1.0
 76
     1
 77
     6
 78
     2
 67
     7
 79
     5
170
     0
171
     0
290
     0
174
     0
 93
        1
 44
50.0
173
     0
291
     1
 45
0.0
1001
ACAD
1000
AcDbSavedByObjectVersion
1070
     0
  0
VISUALSTYLE
  5
39
102
{ACAD_XDICTIONARY
360
96D
102
}
102
{ACAD_REACTORS
330
29
102
}
330
29
100
AcDbVisualStyle
  2

 70
    16
 71
     2
 72
     2
 73
     3
 90
        0
 40
-0.6
 41
-30.0
 62
     5
 63
     8
 74
     1
 91
        4
 64
     7
 65
   257
 75
     1
175
     1
 42
1.0
 92
        8
 66
     8
 43
1.0
 76
     1
 77
     6
 78
     2
 67
     7
 79
     5
170
     0
171
     0
290
     0
174
     0
 93
        1
 44
0.0
173
     0
291
     1
 45
0.0
1001
ACAD
1000
AcDbSavedByObjectVersion
1070
     0
  0
VISUALSTYLE
  5
32
102
{ACAD_XDICTIONARY
360
95F
102
}
102
{ACAD_REACTORS
330
29
102
}
330
29
100
AcDbVisualStyle
  2

 70
     9
 71
     3
 72
     2
 73
     0
 90
        0
 40
-0.6
 41
-30.0
 62
     5
 63
     7
 74
     2
 91
        2
 64
     7
 65
   257
 75
     1
175
     1
 42
179.0
 92
        8
 66
     7
 43
1.0
 76
     1
 77
     6
 78
     2
 67
     7
 79
     3
170
     0
171
     0
290
     0
174
     0
 93
        1
 44
0.0
173
     0
291
     0
 45
0.0
1001
ACAD
1000
AcDbSavedByObjectVersion
1070
     0
  0
VISUALSTYLE
  5
34
102
{ACAD_XDICTIONARY
360
963
102
}
102
{ACAD_REACTORS
330
29
102
}
330
29
100
AcDbVisualStyle
  2

 70
    11
 71
     2
 72
     2
 73
     0
 90
        0
 40
-0.6
 41
-30.0
 62
     5
 63
     7
 74
     1
 91
        4
 64
     7
 65
   257
 75
     1
175
     1
 42
1.0
 92
        8
 66
     7
 43
1.0
 76
     1
 77
     6
 78
     2
 67
     7
 79
     5
170
     0
171
     0
290
     0
174
     0
 93
        1
 44
-50.0
173
     0
291
     1
 45
0.0
1001
ACAD
1000
AcDbSavedByObjectVersion
1070
     0
  0
VISUALSTYLE
  5
41
102
{ACAD_XDICTIONARY
360
97D
102
}
102
{ACAD_REACTORS
330
29
102
}
330
29
100
AcDbVisualStyle
  2

 70
    22
 71
     2
 72
     2
 73
     0
 90
        0
 40
-0.6
 41
-30.0
 62
     5
 63
     7
 74
     1
 91
        4
 64
     7
 65
   257
 75
     1
175
     1
 42
1.0
 92
        8
 66
     7
 43
1.0
 76
     1
 77
     6
 78
     2
 67
     7
 79
     5
170
     0
171
     0
290
     0
174
     0
 93
        1
 44
0.0
173
     0
291
     1
 45
0.0
1001
ACAD
1000
AcDbSavedByObjectVersion
1070
     0
  0
VISUALSTYLE
  5
38
102
{ACAD_XDICTIONARY
360
96B
102
}
102
{ACAD_REACTORS
330
29
102
}
330
29
100
AcDbVisualStyle
  2

 70
    15
 71
     2
 72
     2
 73
     0
 90
        0
 40
-0.6
 41
-30.0
 62
     5
 63
     7
 74
     1
 91
        4
 64
     7
 65
   257
 75
     1
175
     1
 42
1.0
 92
        8
 66
     7
 43
1.0
 76
     1
 77
     6
 78
     2
 67
     7
 79
     5
170
     0
171
     0
290
     0
174
     0
 93
        1
 44
0.0
173
     0
291
     1
 45
0.0
1001
ACAD
1000
AcDbSavedByObjectVersion
1070
     0
  0
VISUALSTYLE
  5
2A
102
{ACAD_XDICTIONARY
360
94F
102
}
102
{ACAD_REACTORS
330
29
102
}
330
29
100
AcDbVisualStyle
  2

 70
     0
 71
     2
 72
     1
 73
     1
 90
        2
 40
-0.6
 41
30.0
 62
     5
 63
     7
 74
     0
 91
        0
 64
     7
 65
   257
 75
     1
175
     1
 42
1.0
 92
        8
 66
     7
 43
1.0
 76
     1
 77
     6
 78
     2
 67
     7
 79
     5
170
     0
171
     0
290
     0
174
     0
 93
       13
 44
0.0
173
     0
291
     1
 45
0.0
1001
ACAD
1000
AcDbSavedByObjectVersion
1070
     0
  0
VISUALSTYLE
  5
2B
102
{ACAD_XDICTIONARY
360
951
102
}
102
{ACAD_REACTORS
330
29
102
}
330
29
100
AcDbVisualStyle
  2

 70
     1
 71
     2
 72
     1
 73
     1
 90
        2
 40
-0.6
 41
30.0
 62
     5
 63
     7
 74
     1
 91
        0
 64
     7
 65
   257
 75
     1
175
     1
 42
1.0
 92
        0
 66
   257
 43
1.0
 76
     1
 77
     6
 78
     2
 67
     7
 79
     5
170
     0
171
     0
290
     0
174
     0
 93
       13
 44
0.0
173
     0
291
     1
 45
0.0
1001
ACAD
1000
AcDbSavedByObjectVersion
1070
     0
  0
VISUALSTYLE
  5
2C
102
{ACAD_XDICTIONARY
360
953
102
}
102
{ACAD_REACTORS
330
29
102
}
330
29
100
AcDbVisualStyle
  2

 70
     2
 71
     2
 72
     2
 73
     1
 90
        2
 40
-0.6
 41
30.0
 62
     5
 63
     7
 74
     0
 91
        0
 64
     7
 65
   257
 75
     1
175
     1
 42
1.0
 92
        0
 66
     7
 43
1.0
 76
     1
 77
     6
 78
     2
 67
     7
 79
     5
170
     0
171
     0
290
     0
174
     0
 93
       13
 44
0.0
173
     0
291
     1
 45
0.0
1001
ACAD
1000
AcDbSavedByObjectVersion
1070
     0
  0
VISUALSTYLE
  5
2D
102
{ACAD_XDICTIONARY
360
955
102
}
102
{ACAD_REACTORS
330
29
102
}
330
29
100
AcDbVisualStyle
  2

 70
     3
 71
     2
 72
     2
 73
     1
 90
        2
 40
-0.6
 41
30.0
 62
     5
 63
     7
 74
     1
 91
        0
 64
     7
 65
   257
 75
     1
175
     1
 42
1.0
 92
        0
 66
   257
 43
1.0
 76
     1
 77
     6
 78
     2
 67
     7
 79
     5
170
     0
171
     0
290
     0
174
     0
 93
       13
 44
0.0
173
     0
291
     1
 45
0.0
1001
ACAD
1000
AcDbSavedByObjectVersion
1070
     0
  0
VISUALSTYLE
  5
31
102
{ACAD_XDICTIONARY
360
95D
102
}
102
{ACAD_REACTORS
330
29
102
}
330
29
100
AcDbVisualStyle
  2

 70
     6
 71
     1
 72
     2
 73
     2
 90
        0
 40
-0.6
 41
-30.0
 62
     5
 63
     7
 74
     2
 91
        2
 64
     7
 65
   257
 75
     2
175
     1
 42
40.0
 92
        0
 66
   257
 43
1.0
 76
     1
 77
     6
 78
     2
 67
     7
 79
     3
170
     0
171
     0
290
     0
174
     0
 93
        1
 44
0.0
173
     0
291
     0
 45
0.0
1001
ACAD
1000
AcDbSavedByObjectVersion
1070
     0
  0
VISUALSTYLE
  5
3F
102
{ACAD_XDICTIONARY
360
979
102
}
102
{ACAD_REACTORS
330
29
102
}
330
29
100
AcDbVisualStyle
  2

 70
    20
 71
     2
 72
     2
 73
     0
 90
        0
 40
-0.6
 41
-30.0
 62
     5
 63
     7
 74
     1
 91
        4
 64
     7
 65
   257
 75
     1
175
     1
 42
1.0
 92
       10
 66
     7
 43
1.0
 76
     1
 77
     6
 78
     2
 67
     7
 79
     5
170
     0
171
     0
290
     0
174
     0
 93
        1
 44
0.0
173
     0
291
     1
 45
0.0
1001
ACAD
1000
AcDbSavedByObjectVersion
1070
     0
  0
VISUALSTYLE
  5
37
102
{ACAD_XDICTIONARY
360
969
102
}
102
{ACAD_REACTORS
330
29
102
}
330
29
100
AcDbVisualStyle
  2

 70
    14
 71
     2
 72
     2
 73
     0
 90
        0
 40
-0.6
 41
-30.0
 62
     5
 63
     7
 74
     1
 91
        4
 64
     7
 65
   257
 75
     7
175
     7
 42
1.0
 92
        8
 66
     7
 43
1.0
 76
     1
 77
     6
 78
     2
 67
     7
 79
     5
170
     0
171
     0
290
     0
174
     0
 93
        1
 44
0.0
173
     0
291
     1
 45
0.0
1001
ACAD
1000
AcDbSavedByObjectVersion
1070
     0
  0
VISUALSTYLE
  5
40
102
{ACAD_XDICTIONARY
360
97B
102
}
102
{ACAD_REACTORS
330
29
102
}
330
29
100
AcDbVisualStyle
  2

 70
    21
 71
     2
 72
     2
 73
     0
 90
        0
 40
-0.6
 41
-30.0
 62
     5
 63
     7
 74
     1
 91
        4
 64
     7
 65
   257
 75
     1
175
     1
 42
1.0
 92
        9
 66
     7
 43
1.0
 76
     1
 77
     6
 78
     2
 67
     7
 79
     5
170
     0
171
     0
290
     0
174
     0
 93
        1
 44
0.0
173
     0
291
     1
 45
0.0
1001
ACAD
1000
AcDbSavedByObjectVersion
1070
     0
  0
VISUALSTYLE
  5
33
102
{ACAD_XDICTIONARY
360
961
102
}
102
{ACAD_REACTORS
330
29
102
}
330
29
100
AcDbVisualStyle
  2

 70
     8
 71
     2
 72
     3
 73
     0
 90
        2
 40
-0.6
 41
30.0
 62
     5
 63
     7
 74
     0
 91
        0
 64
     7
 65
   257
 75
     1
175
     1
 42
1.0
 92
        8
 66
   257
 43
1.0
 76
     1
 77
     6
 78
     2
 67
     7
 79
     3
170
     0
171
     0
290
     0
174
     0
 93
       13
 44
0.0
173
     0
291
     0
 45
0.0
1001
ACAD
1000
AcDbSavedByObjectVersion
1070
     0
  0
VISUALSTYLE
  5
3E
102
{ACAD_XDICTIONARY
360
977
102
}
102
{ACAD_REACTORS
330
29
102
}
330
29
100
AcDbVisualStyle
  2

 70
    27
 71
     2
 72
     2
 73
     1
 90
        2
 40
-0.6
 41
30.0
 62
     5
 63
     7
 74
     0
 91
        4
 64
     7
 65
   257
 75
     1
175
     1
 42
1.0
 92
        8
 66
   257
 43
1.0
 76
     1
 77
     6
 78
     2
 67
     8
 79
     3
170
     0
171
     0
290
     0
174
     0
 93
        5
 44
0.0
173
     0
291
     0
 45
0.0
1001
ACAD
1000
AcDbSavedByObjectVersion
1070
     0
  0
VISUALSTYLE
  5
3D
102
{ACAD_XDICTIONARY
360
975
102
}
102
{ACAD_REACTORS
330
29
102
}
330
29
100
AcDbVisualStyle
  2

 70
    26
 71
     2
 72
     2
 73
     1
 90
        2
 40
-0.6
 41
30.0
 62
     5
 63
     7
 74
     1
 91
       10
 64
     7
 65
   257
 75
     2
175
     1
 42
1.0
 92
        8
 66
   257
 43
1.0
 76
     1
 77
     6
 78
     2
 67
     7
 79
     3
170
     0
171
     0
290
     0
174
     0
 93
        5
 44
0.0
173
     0
291
     0
 45
0.0
1001
ACAD
1000
AcDbSavedByObjectVersion
1070
     0
  0
VISUALSTYLE
  5
3A
102
{ACAD_XDICTIONARY
360
96F
102
}
102
{ACAD_REACTORS
330
29
102
}
330
29
100
AcDbVisualStyle
  2

 70
    23
 71
     2
 72
     2
 73
     3
 90
        0
 40
-0.6
 41
-30.0
 62
     5
 63
     7
 74
     2
 91
        2
 64
     7
 65
     7
 75
     1
175
     1
 42
40.0
 92
        8
 66
     7
 43
1.0
 76
     1
 77
     6
 78
     2
 67
     7
 79
     3
170
     0
171
     0
290
     0
174
     0
 93
        1
 44
0.0
173
     0
291
     0
 45
0.0
1001
ACAD
1000
AcDbSavedByObjectVersion
1070
     0
  0
VISUALSTYLE
  5
3B
102
{ACAD_XDICTIONARY
360
971
102
}
102
{ACAD_REACTORS
330
29
102
}
330
29
100
AcDbVisualStyle
  2

 70
    24
 71
     1
 72
     2
 73
     2
 90
        0
 40
-0.6
 41
-30.0
 62
     5
 63
     7
 74
     2
 91
        2
 64
     7
 65
     7
 75
     1
175
     1
 42
40.0
 92
       11
 66
     7
 43
1.0
 76
     1
 77
     6
 78
     2
 67
     7
 79
     6
170
     0
171
     0
290
     0
174
     0
 93
        1
 44
0.0
173
     0
291
     0
 45
0.0
1001
ACAD
1000
AcDbSavedByObjectVersion
1070
     0
  0
VISUALSTYLE
  5
36
102
{ACAD_XDICTIONARY
360
967
102
}
102
{ACAD_REACTORS
330
29
102
}
330
29
100
AcDbVisualStyle
  2

 70
    13
 71
     2
 72
     2
 73
     0
 90
        0
 40
-0.6
 41
-30.0
 62
     5
 63
     7
 74
     1
 91
        4
 64
     7
 65
   257
 75
     1
175
     1
 42
1.0
 92
       12
 66
     7
 43
1.0
 76
     1
 77
     6
 78
     2
 67
     7
 79
     5
170
     0
171
     0
290
     0
174
     0
 93
        1
 44
0.0
173
     0
291
     1
 45
0.0
1001
ACAD
1000
AcDbSavedByObjectVersion
1070
     0
  0
VISUALSTYLE
  5
30
102
{ACAD_XDICTIONARY
360
95B
102
}
102
{ACAD_REACTORS
330
29
102
}
330
29
100
AcDbVisualStyle
  2

 70
     5
 71
     0
 72
     2
 73
     0
 90
        0
 40
-0.6
 41
-30.0
 62
     5
 63
     7
 74
     1
 91
        4
 64
     7
 65
   257
 75
     1
175
     1
 42
1.0
 92
        0
 66
   257
 43
1.0
 76
     1
 77
     6
 78
     2
 67
     7
 79
     3
170
     0
171
     0
290
     0
174
     0
 93
        1
 44
0.0
173
     0
291
     0
 45
0.0
1001
ACAD
1000
AcDbSavedByObjectVersion
1070
     0
  0
VISUALSTYLE
  5
3C
102
{ACAD_XDICTIONARY
360
973
102
}
102
{ACAD_REACTORS
330
29
102
}
330
29
100
AcDbVisualStyle
  2

 70
    25
 71
     2
 72
     2
 73
     1
 90
        1
 40
0.5
 41
-30.0
 62
     5
 63
     7
 74
     1
 91
        0
 64
     7
 65
   257
 75
     1
175
     1
 42
1.0
 92
        8
 66
     7
 43
1.0
 76
     1
 77
     6
 78
     2
 67
     7
 79
     3
170
     0
171
     0
290
     0
174
     0
 93
       13
 44
0.0
173
     0
291
     0
 45
0.0
1001
ACAD
1000
AcDbSavedByObjectVersion
1070
     0
  0
DICTIONARYVAR
  5
6D1
102
{ACAD_REACTORS
330
6CE
102
}
330
6CE
100
DictionaryVariables
280
     0
  1
1:1
  0
DICTIONARYVAR
  5
6D0
102
{ACAD_REACTORS
330
6CE
102
}
330
6CE
100
DictionaryVariables
280
     0
  1
STANDARD
  0
DICTIONARYVAR
  5
6CF
102
{ACAD_REACTORS
330
6CE
102
}
330
6CE
100
DictionaryVariables
280
     0
  1
STANDARD
  0
DICTIONARYVAR
  5
6D4
102
{ACAD_REACTORS
330
6CE
102
}
330
6CE
100
DictionaryVariables
280
     0
  1
1
  0
DICTIONARYVAR
  5
6D3
102
{ACAD_REACTORS
330
6CE
102
}
330
6CE
100
DictionaryVariables
280
     0
  1
0
  0
DICTIONARYVAR
  5
6D2
102
{ACAD_REACTORS
330
6CE
102
}
330
6CE
100
DictionaryVariables
280
     0
  1
127
  0
DICTIONARYVAR
  5
947
102
{ACAD_REACTORS
330
6CE
102
}
330
6CE
100
DictionaryVariables
280
     0
  1
2
  0
DICTIONARY
  5
982
330
6E
100
AcDbDictionary
280
     1
281
     1
  3
ACAD_XREC_ROUNDTRIP
360
983
  0
DICTIONARY
  5
980
330
6A
100
AcDbDictionary
280
     1
281
     1
  3
ACAD_XREC_ROUNDTRIP
360
981
  0
DICTIONARY
  5
1A
330
19
100
AcDbDictionary
280
     1
281
     1
  3
ACAD_XREC_ROUNDTRIP
360
6DF
  3
BUMPTILE
360
1C
  3
DIFFUSETILE
360
1B
  3
OPACITYTILE
360
1F
  3
REFLECTIONTILE
360
1E
  3
REFRACTIONTILE
360
20
  3
SPECULARTILE
360
1D
  0
DICTIONARY
  5
12
330
11
100
AcDbDictionary
280
     1
281
     1
  3
ACAD_XREC_ROUNDTRIP
360
6DE
  3
BUMPTILE
360
14
  3
DIFFUSETILE
360
13
  3
OPACITYTILE
360
17
  3
REFLECTIONTILE
360
16
  3
REFRACTIONTILE
360
18
  3
SPECULARTILE
360
15
  0
DICTIONARY
  5
22
330
21
100
AcDbDictionary
280
     1
281
     1
  3
ACAD_XREC_ROUNDTRIP
360
6E0
  3
BUMPTILE
360
24
  3
DIFFUSETILE
360
23
  3
OPACITYTILE
360
27
  3
REFLECTIONTILE
360
26
  3
REFRACTIONTILE
360
28
  3
SPECULARTILE
360
25
  0
DICTIONARY
  5
6D6
330
64
100
AcDbDictionary
280
     1
281
     1
  3
ACAD_ROUNDTRIP_2008_TABLESTYLE_CELLSTYLEMAP
360
948
  3
ACAD_XREC_ROUNDTRIP
360
97F
  0
DICTIONARY
  5
959
330
2F
100
AcDbDictionary
280
     1
281
     1
  3
ACAD_XREC_ROUNDTRIP
360
95A
  0
DICTIONARY
  5
984
330
542
100
AcDbDictionary
280
     1
281
     1
  3
ACAD_XREC_ROUNDTRIP
360
985
  0
DICTIONARY
  5
957
330
2E
100
AcDbDictionary
280
     1
281
     1
  3
ACAD_XREC_ROUNDTRIP
360
958
  0
DICTIONARY
  5
965
330
35
100
AcDbDictionary
280
     1
281
     1
  3
ACAD_XREC_ROUNDTRIP
360
966
  0
DICTIONARY
  5
96D
330
39
100
AcDbDictionary
280
     1
281
     1
  3
ACAD_XREC_ROUNDTRIP
360
96E
  0
DICTIONARY
  5
95F
330
32
100
AcDbDictionary
280
     1
281
     1
  3
ACAD_XREC_ROUNDTRIP
360
960
  0
DICTIONARY
  5
963
330
34
100
AcDbDictionary
280
     1
281
     1
  3
ACAD_XREC_ROUNDTRIP
360
964
  0
DICTIONARY
  5
97D
330
41
100
AcDbDictionary
280
     1
281
     1
  3
ACAD_XREC_ROUNDTRIP
360
97E
  0
DICTIONARY
  5
96B
330
38
100
AcDbDictionary
280
     1
281
     1
  3
ACAD_XREC_ROUNDTRIP
360
96C
  0
DICTIONARY
  5
94F
330
2A
100
AcDbDictionary
280
     1
281
     1
  3
ACAD_XREC_ROUNDTRIP
360
950
  0
DICTIONARY
  5
951
330
2B
100
AcDbDictionary
280
     1
281
     1
  3
ACAD_XREC_ROUNDTRIP
360
952
  0
DICTIONARY
  5
953
330
2C
100
AcDbDictionary
280
     1
281
     1
  3
ACAD_XREC_ROUNDTRIP
360
954
  0
DICTIONARY
  5
955
330
2D
100
AcDbDictionary
280
     1
281
     1
  3
ACAD_XREC_ROUNDTRIP
360
956
  0
DICTIONARY
  5
95D
330
31
100
AcDbDictionary
280
     1
281
     1
  3
ACAD_XREC_ROUNDTRIP
360
95E
  0
DICTIONARY
  5
979
330
3F
100
AcDbDictionary
280
     1
281
     1
  3
ACAD_XREC_ROUNDTRIP
360
97A
  0
DICTIONARY
  5
969
330
37
100
AcDbDictionary
280
     1
281
     1
  3
ACAD_XREC_ROUNDTRIP
360
96A
  0
DICTIONARY
  5
97B
330
40
100
AcDbDictionary
280
     1
281
     1
  3
ACAD_XREC_ROUNDTRIP
360
97C
  0
DICTIONARY
  5
961
330
33
100
AcDbDictionary
280
     1
281
     1
  3
ACAD_XREC_ROUNDTRIP
360
962
  0
DICTIONARY
  5
977
330
3E
100
AcDbDictionary
280
     1
281
     1
  3
ACAD_XREC_ROUNDTRIP
360
978
  0
DICTIONARY
  5
975
330
3D
100
AcDbDictionary
280
     1
281
     1
  3
ACAD_XREC_ROUNDTRIP
360
976
  0
DICTIONARY
  5
96F
330
3A
100
AcDbDictionary
280
     1
281
     1
  3
ACAD_XREC_ROUNDTRIP
360
970
  0
DICTIONARY
  5
971
330
3B
100
AcDbDictionary
280
     1
281
     1
  3
ACAD_XREC_ROUNDTRIP
360
972
  0
DICTIONARY
  5
967
330
36
100
AcDbDictionary
280
     1
281
     1
  3
ACAD_XREC_ROUNDTRIP
360
968
  0
DICTIONARY
  5
95B
330
30
100
AcDbDictionary
280
     1
281
     1
  3
ACAD_XREC_ROUNDTRIP
360
95C
  0
DICTIONARY
  5
973
330
3C
100
AcDbDictionary
280
     1
281
     1
  3
ACAD_XREC_ROUNDTRIP
360
974
  0
XRECORD
  5
983
102
{ACAD_REACTORS
330
982
102
}
330
982
100
AcDbXrecord
280
     1
102
SHADEPLOT
 70
     0
102
SHADEPLOTRESLEVEL
 70
     2
102
SHADEPLOTCUSTOMDPI
 70
   300
  0
XRECORD
  5
981
102
{ACAD_REACTORS
330
980
102
}
330
980
100
AcDbXrecord
280
     1
102
SHADEPLOT
 70
     0
102
SHADEPLOTRESLEVEL
 70
     2
102
SHADEPLOTCUSTOMDPI
 70
   300
  0
XRECORD
  5
6DF
102
{ACAD_REACTORS
330
1A
102
}
330
1A
100
AcDbXrecord
280
     1
102
MATERIAL
148
0.0
149
0.0
149
0.0
 93
        0
 94
      127
282
     0
 72
     0
 77
     0
171
     0
175
     0
179
     0
273
     0
  0
XRECORD
  5
1C
102
{ACAD_REACTORS
330
1A
102
}
330
1A
100
AcDbXrecord
280
     1
270
     1
271
     1
  0
XRECORD
  5
1B
102
{ACAD_REACTORS
330
1A
102
}
330
1A
100
AcDbXrecord
280
     1
270
     1
271
     1
  0
XRECORD
  5
1F
102
{ACAD_REACTORS
330
1A
102
}
330
1A
100
AcDbXrecord
280
     1
270
     1
271
     1
  0
XRECORD
  5
1E
102
{ACAD_REACTORS
330
1A
102
}
330
1A
100
AcDbXrecord
280
     1
270
     1
271
     1
  0
XRECORD
  5
20
102
{ACAD_REACTORS
330
1A
102
}
330
1A
100
AcDbXrecord
280
     1
270
     1
271
     1
  0
XRECORD
  5
1D
102
{ACAD_REACTORS
330
1A
102
}
330
1A
100
AcDbXrecord
280
     1
270
     1
271
     1
  0
XRECORD
  5
6DE
102
{ACAD_REACTORS
330
12
102
}
330
12
100
AcDbXrecord
280
     1
102
MATERIAL
148
0.0
149
0.0
149
0.0
 93
        0
 94
      127
282
     0
 72
     0
 77
     0
171
     0
175
     0
179
     0
273
     0
  0
XRECORD
  5
14
102
{ACAD_REACTORS
330
12
102
}
330
12
100
AcDbXrecord
280
     1
270
     1
271
     1
  0
XRECORD
  5
13
102
{ACAD_REACTORS
330
12
102
}
330
12
100
AcDbXrecord
280
     1
270
     1
271
     1
  0
XRECORD
  5
17
102
{ACAD_REACTORS
330
12
102
}
330
12
100
AcDbXrecord
280
     1
270
     1
271
     1
  0
XRECORD
  5
16
102
{ACAD_REACTORS
330
12
102
}
330
12
100
AcDbXrecord
280
     1
270
     1
271
     1
  0
XRECORD
  5
18
102
{ACAD_REACTORS
330
12
102
}
330
12
100
AcDbXrecord
280
     1
270
     1
271
     1
  0
XRECORD
  5
15
102
{ACAD_REACTORS
330
12
102
}
330
12
100
AcDbXrecord
280
     1
270
     1
271
     1
  0
XRECORD
  5
6E0
102
{ACAD_REACTORS
330
22
102
}
330
22
100
AcDbXrecord
280
     1
102
MATERIAL
148
0.0
149
0.0
149
0.0
 93
        0
 94
      127
282
     0
 72
     0
 77
     0
171
     0
175
     0
179
     0
273
     0
  0
XRECORD
  5
24
102
{ACAD_REACTORS
330
22
102
}
330
22
100
AcDbXrecord
280
     1
270
     1
271
     1
  0
XRECORD
  5
23
102
{ACAD_REACTORS
330
22
102
}
330
22
100
AcDbXrecord
280
     1
270
     1
271
     1
  0
XRECORD
  5
27
102
{ACAD_REACTORS
330
22
102
}
330
22
100
AcDbXrecord
280
     1
270
     1
271
     1
  0
XRECORD
  5
26
102
{ACAD_REACTORS
330
22
102
}
330
22
100
AcDbXrecord
280
     1
270
     1
271
     1
  0
XRECORD
  5
28
102
{ACAD_REACTORS
330
22
102
}
330
22
100
AcDbXrecord
280
     1
270
     1
271
     1
  0
XRECORD
  5
25
102
{ACAD_REACTORS
330
22
102
}
330
22
100
AcDbXrecord
280
     1
270
     1
271
     1
  0
CELLSTYLEMAP
  5
948
102
{ACAD_REACTORS
330
6D6
102
}
330
6D6
100
AcDbCellStyleMap
 90
        3
300
CELLSTYLE
  1
TABLEFORMAT_BEGIN
 90
        5
170
     1
 91
        0
 92
    32768
 62
   257
 93
        1
300
CONTENTFORMAT
  1
CONTENTFORMAT_BEGIN
 90
        0
 91
        0
 92
      512
 93
        0
300

 40
0.0
140
1.0
 94
        5
 62
     0
340
55
144
0.25
309
CONTENTFORMAT_END
171
     1
301
MARGIN
  1
CELLMARGIN_BEGIN
 40
0.06
 40
0.06
 40
0.06
 40
0.06
 40
0.18
 40
0.18
309
CELLMARGIN_END
 94
        6
 95
        1
302
GRIDFORMAT
  1
GRIDFORMAT_BEGIN
 90
        0
 91
        1
 62
     0
 92
       -2
340
0
 93
        0
 40
0.045
309
GRIDFORMAT_END
 95
        2
302
GRIDFORMAT
  1
GRIDFORMAT_BEGIN
 90
        0
 91
        1
 62
     0
 92
       -2
340
0
 93
        0
 40
0.045
309
GRIDFORMAT_END
 95
        4
302
GRIDFORMAT
  1
GRIDFORMAT_BEGIN
 90
        0
 91
        1
 62
     0
 92
       -2
340
0
 93
        0
 40
0.045
309
GRIDFORMAT_END
 95
        8
302
GRIDFORMAT
  1
GRIDFORMAT_BEGIN
 90
        0
 91
        1
 62
     0
 92
       -2
340
0
 93
        0
 40
0.045
309
GRIDFORMAT_END
 95
       16
302
GRIDFORMAT
  1
GRIDFORMAT_BEGIN
 90
        0
 91
        1
 62
     0
 92
       -2
340
0
 93
        0
 40
0.045
309
GRIDFORMAT_END
 95
       32
302
GRIDFORMAT
  1
GRIDFORMAT_BEGIN
 90
        0
 91
        1
 62
     0
 92
       -2
340
0
 93
        0
 40
0.045
309
GRIDFORMAT_END
309
TABLEFORMAT_END
  1
CELLSTYLE_BEGIN
 90
        1
 91
        1
300
_TITLE
309
CELLSTYLE_END
300
CELLSTYLE
  1
TABLEFORMAT_BEGIN
 90
        5
170
     1
 91
        0
 92
        0
 62
   257
 93
        1
300
CONTENTFORMAT
  1
CONTENTFORMAT_BEGIN
 90
        0
 91
        0
 92
      512
 93
        0
300

 40
0.0
140
1.0
 94
        5
 62
     0
340
55
144
0.18
309
CONTENTFORMAT_END
171
     1
301
MARGIN
  1
CELLMARGIN_BEGIN
 40
0.06
 40
0.06
 40
0.06
 40
0.06
 40
0.18
 40
0.18
309
CELLMARGIN_END
 94
        6
 95
        1
302
GRIDFORMAT
  1
GRIDFORMAT_BEGIN
 90
        0
 91
        1
 62
     0
 92
       -2
340
0
 93
        0
 40
0.045
309
GRIDFORMAT_END
 95
        2
302
GRIDFORMAT
  1
GRIDFORMAT_BEGIN
 90
        0
 91
        1
 62
     0
 92
       -2
340
0
 93
        0
 40
0.045
309
GRIDFORMAT_END
 95
        4
302
GRIDFORMAT
  1
GRIDFORMAT_BEGIN
 90
        0
 91
        1
 62
     0
 92
       -2
340
0
 93
        0
 40
0.045
309
GRIDFORMAT_END
 95
        8
302
GRIDFORMAT
  1
GRIDFORMAT_BEGIN
 90
        0
 91
        1
 62
     0
 92
       -2
340
0
 93
        0
 40
0.045
309
GRIDFORMAT_END
 95
       16
302
GRIDFORMAT
  1
GRIDFORMAT_BEGIN
 90
        0
 91
        1
 62
     0
 92
       -2
340
0
 93
        0
 40
0.045
309
GRIDFORMAT_END
 95
       32
302
GRIDFORMAT
  1
GRIDFORMAT_BEGIN
 90
        0
 91
        1
 62
     0
 92
       -2
340
0
 93
        0
 40
0.045
309
GRIDFORMAT_END
309
TABLEFORMAT_END
  1
CELLSTYLE_BEGIN
 90
        2
 91
        1
300
_HEADER
309
CELLSTYLE_END
300
CELLSTYLE
  1
TABLEFORMAT_BEGIN
 90
        5
170
     1
 91
        0
 92
        0
 62
   257
 93
        1
300
CONTENTFORMAT
  1
CONTENTFORMAT_BEGIN
 90
        0
 91
        0
 92
      512
 93
        0
300

 40
0.0
140
1.0
 94
        2
 62
     0
340
55
144
0.18
309
CONTENTFORMAT_END
171
     1
301
MARGIN
  1
CELLMARGIN_BEGIN
 40
0.06
 40
0.06
 40
0.06
 40
0.06
 40
0.18
 40
0.18
309
CELLMARGIN_END
 94
        6
 95
        1
302
GRIDFORMAT
  1
GRIDFORMAT_BEGIN
 90
        0
 91
        1
 62
     0
 92
       -2
340
0
 93
        0
 40
0.045
309
GRIDFORMAT_END
 95
        2
302
GRIDFORMAT
  1
GRIDFORMAT_BEGIN
 90
        0
 91
        1
 62
     0
 92
       -2
340
0
 93
        0
 40
0.045
309
GRIDFORMAT_END
 95
        4
302
GRIDFORMAT
  1
GRIDFORMAT_BEGIN
 90
        0
 91
        1
 62
     0
 92
       -2
340
0
 93
        0
 40
0.045
309
GRIDFORMAT_END
 95
        8
302
GRIDFORMAT
  1
GRIDFORMAT_BEGIN
 90
        0
 91
        1
 62
     0
 92
       -2
340
0
 93
        0
 40
0.045
309
GRIDFORMAT_END
 95
       16
302
GRIDFORMAT
  1
GRIDFORMAT_BEGIN
 90
        0
 91
        1
 62
     0
 92
       -2
340
0
 93
        0
 40
0.045
309
GRIDFORMAT_END
 95
       32
302
GRIDFORMAT
  1
GRIDFORMAT_BEGIN
 90
        0
 91
        1
 62
     0
 92
       -2
340
0
 93
        0
 40
0.045
309
GRIDFORMAT_END
309
TABLEFORMAT_END
  1
CELLSTYLE_BEGIN
 90
        3
 91
        2
300
_DATA
309
CELLSTYLE_END
  0
XRECORD
  5
97F
102
{ACAD_REACTORS
330
6D6
102
}
330
6D6
100
AcDbXrecord
280
     1
102
ACAD_ROUNDTRIP_PRE2007_TABLESTYLE
 90
      512
 91
        0
  1

 92
      512
 93
        0
  2

 94
      512
 95
        0
  3

  0
XRECORD
  5
95A
102
{ACAD_REACTORS
330
959
102
}
330
959
100
AcDbXrecord
280
     1
102
RTVSPropertyOp0
 70
     1
102
RTVSPropertyOp1
 70
     1
102
RTVSPropertyOp2
 70
     1
102
RTVSPropertyOp3
 70
     1
102
RTVSPropertyOp4
 70
     1
102
RTVSPropertyOp5
 70
     1
102
RTVSPropertyOp6
 70
     1
102
RTVSPropertyOp7
 70
     1
102
RTVSPropertyOp8
 70
     1
102
RTVSPropertyOp9
 70
     1
102
RTVSPropertyOp10
 70
     1
102
RTVSPropertyOp11
 70
     1
102
RTVSPropertyOp12
 70
     1
102
RTVSPropertyOp13
 70
     1
102
RTVSPropertyOp14
 70
     1
102
RTVSPropertyOp15
 70
     1
102
RTVSPropertyOp16
 70
     1
102
RTVSPropertyOp17
 70
     1
102
RTVSPropertyOp18
 70
     1
102
RTVSPropertyOp19
 70
     1
102
RTVSPropertyOp20
 70
     1
102
RTVSPropertyOp21
 70
     1
102
RTVSPropertyOp22
 70
     1
102
RTVSPropertyOp23
 70
     1
102
RTVSPropertyOp24
 70
     1
102
RTVSPropertyOp25
 70
     1
102
RTVSPropertyOp26
 70
     1
102
RTVSPropertyOp27
 70
     1
102
RTVSPropertyOp28
 70
     1
102
RTVSPropertyOp29
 70
     1
102
RTVSPropertyOp30
 70
     1
102
RTVSPropertyOp31
 70
     1
102
RTVSPropertyOp32
 70
     1
  0
XRECORD
  5
985
102
{ACAD_REACTORS
330
984
102
}
330
984
100
AcDbXrecord
280
     1
102
RTVSPropertyOp0
 70
     1
102
RTVSPropertyOp1
 70
     1
102
RTVSPropertyOp2
 70
     1
102
RTVSPropertyOp3
 70
     1
102
RTVSPropertyOp4
 70
     1
102
RTVSPropertyOp5
 70
     1
102
RTVSPropertyOp6
 70
     1
102
RTVSPropertyOp7
 70
     1
102
RTVSPropertyOp8
 70
     1
102
RTVSPropertyOp9
 70
     1
102
RTVSPropertyOp10
 70
     1
102
RTVSPropertyOp11
 70
     1
102
RTVSPropertyOp12
 70
     1
102
RTVSPropertyOp13
 70
     1
102
RTVSPropertyOp14
 70
     1
102
RTVSPropertyOp15
 70
     1
102
RTVSPropertyOp16
 70
     1
102
RTVSPropertyOp17
 70
     1
102
RTVSPropertyOp18
 70
     1
102
RTVSPropertyOp19
 70
     1
102
RTVSPropertyOp20
 70
     1
102
RTVSPropertyOp21
 70
     1
102
RTVSPropertyOp22
 70
     1
102
RTVSPropertyOp23
 70
     1
102
RTVSPropertyOp24
 70
     1
102
RTVSPropertyOp25
 70
     1
102
RTVSPropertyOp26
 70
     1
102
RTVSPropertyOp27
 70
     1
102
RTVSPropertyOp28
 70
     1
102
RTVSPropertyOp29
 70
     1
102
RTVSPropertyOp30
 70
     1
102
RTVSPropertyOp31
 70
     1
102
RTVSPropertyOp32
 70
     1
  0
XRECORD
  5
958
102
{ACAD_REACTORS
330
957
102
}
330
957
100
AcDbXrecord
280
     1
102
RTVSPropertyOp0
 70
     1
102
RTVSPropertyOp1
 70
     1
102
RTVSPropertyOp2
 70
     1
102
RTVSPropertyOp3
 70
     1
102
RTVSPropertyOp4
 70
     1
102
RTVSPropertyOp5
 70
     1
102
RTVSPropertyOp6
 70
     1
102
RTVSPropertyOp7
 70
     1
102
RTVSPropertyOp8
 70
     1
102
RTVSPropertyOp9
 70
     1
102
RTVSPropertyOp10
 70
     1
102
RTVSPropertyOp11
 70
     1
102
RTVSPropertyOp12
 70
     1
102
RTVSPropertyOp13
 70
     1
102
RTVSPropertyOp14
 70
     1
102
RTVSPropertyOp15
 70
     1
102
RTVSPropertyOp16
 70
     1
102
RTVSPropertyOp17
 70
     1
102
RTVSPropertyOp18
 70
     1
102
RTVSPropertyOp19
 70
     1
102
RTVSPropertyOp20
 70
     1
102
RTVSPropertyOp21
 70
     1
102
RTVSPropertyOp22
 70
     1
102
RTVSPropertyOp23
 70
     1
102
RTVSPropertyOp24
 70
     1
102
RTVSPropertyOp25
 70
     1
102
RTVSPropertyOp26
 70
     1
102
RTVSPropertyOp27
 70
     1
102
RTVSPropertyOp28
 70
     1
102
RTVSPropertyOp29
 70
     1
102
RTVSPropertyOp30
 70
     1
102
RTVSPropertyOp31
 70
     1
102
RTVSPropertyOp32
 70
     1
  0
XRECORD
  5
966
102
{ACAD_REACTORS
330
965
102
}
330
965
100
AcDbXrecord
280
     1
102
RTVSPropertyOp0
 70
     1
102
RTVSPropertyOp1
 70
     1
102
RTVSPropertyOp2
 70
     1
102
RTVSPropertyOp3
 70
     1
102
RTVSPropertyOp4
 70
     1
102
RTVSPropertyOp5
 70
     1
102
RTVSPropertyOp6
 70
     1
102
RTVSPropertyOp7
 70
     1
102
RTVSPropertyOp8
 70
     1
102
RTVSPropertyOp9
 70
     1
102
RTVSPropertyOp10
 70
     1
102
RTVSPropertyOp11
 70
     1
102
RTVSPropertyOp12
 70
     1
102
RTVSPropertyOp13
 70
     1
102
RTVSPropertyOp14
 70
     1
102
RTVSPropertyOp15
 70
     1
102
RTVSPropertyOp16
 70
     1
102
RTVSPropertyOp17
 70
     1
102
RTVSPropertyOp18
 70
     1
102
RTVSPropertyOp19
 70
     1
102
RTVSPropertyOp20
 70
     1
102
RTVSPropertyOp21
 70
     1
102
RTVSPropertyOp22
 70
     1
102
RTVSPropertyOp23
 70
     1
102
RTVSPropertyOp24
 70
     1
102
RTVSPropertyOp25
 70
     1
102
RTVSPropertyOp26
 70
     1
102
RTVSPropertyOp27
 70
     1
102
RTVSPropertyOp28
 70
     1
102
RTVSPropertyOp29
 70
     1
102
RTVSPropertyOp30
 70
     1
102
RTVSPropertyOp31
 70
     1
102
RTVSPropertyOp32
 70
     1
  0
XRECORD
  5
96E
102
{ACAD_REACTORS
330
96D
102
}
330
96D
100
AcDbXrecord
280
     1
102
RTVSPropertyOp0
 70
     1
102
RTVSPropertyOp1
 70
     1
102
RTVSPropertyOp2
 70
     1
102
RTVSPropertyOp3
 70
     1
102
RTVSPropertyOp4
 70
     1
102
RTVSPropertyOp5
 70
     1
102
RTVSPropertyOp6
 70
     1
102
RTVSPropertyOp7
 70
     1
102
RTVSPropertyOp8
 70
     1
102
RTVSPropertyOp9
 70
     1
102
RTVSPropertyOp10
 70
     1
102
RTVSPropertyOp11
 70
     1
102
RTVSPropertyOp12
 70
     1
102
RTVSPropertyOp13
 70
     1
102
RTVSPropertyOp14
 70
     1
102
RTVSPropertyOp15
 70
     1
102
RTVSPropertyOp16
 70
     1
102
RTVSPropertyOp17
 70
     1
102
RTVSPropertyOp18
 70
     1
102
RTVSPropertyOp19
 70
     1
102
RTVSPropertyOp20
 70
     1
102
RTVSPropertyOp21
 70
     1
102
RTVSPropertyOp22
 70
     1
102
RTVSPropertyOp23
 70
     1
102
RTVSPropertyOp24
 70
     1
102
RTVSPropertyOp25
 70
     1
102
RTVSPropertyOp26
 70
     1
102
RTVSPropertyOp27
 70
     1
102
RTVSPropertyOp28
 70
     1
102
RTVSPropertyOp29
 70
     1
102
RTVSPropertyOp30
 70
     1
102
RTVSPropertyOp31
 70
     1
102
RTVSPropertyOp32
 70
     1
  0
XRECORD
  5
960
102
{ACAD_REACTORS
330
95F
102
}
330
95F
100
AcDbXrecord
280
     1
102
RTVSPropertyOp0
 70
     1
102
RTVSPropertyOp1
 70
     1
102
RTVSPropertyOp2
 70
     1
102
RTVSPropertyOp3
 70
     1
102
RTVSPropertyOp4
 70
     1
102
RTVSPropertyOp5
 70
     1
102
RTVSPropertyOp6
 70
     1
102
RTVSPropertyOp7
 70
     1
102
RTVSPropertyOp8
 70
     1
102
RTVSPropertyOp9
 70
     1
102
RTVSPropertyOp10
 70
     1
102
RTVSPropertyOp11
 70
     1
102
RTVSPropertyOp12
 70
     1
102
RTVSPropertyOp13
 70
     1
102
RTVSPropertyOp14
 70
     1
102
RTVSPropertyOp15
 70
     1
102
RTVSPropertyOp16
 70
     1
102
RTVSPropertyOp17
 70
     1
102
RTVSPropertyOp18
 70
     1
102
RTVSPropertyOp19
 70
     1
102
RTVSPropertyOp20
 70
     1
102
RTVSPropertyOp21
 70
     1
102
RTVSPropertyOp22
 70
     1
102
RTVSPropertyOp23
 70
     1
102
RTVSPropertyOp24
 70
     1
102
RTVSPropertyOp25
 70
     1
102
RTVSPropertyOp26
 70
     1
102
RTVSPropertyOp27
 70
     1
102
RTVSPropertyOp28
 70
     1
102
RTVSPropertyOp29
 70
     1
102
RTVSPropertyOp30
 70
     1
102
RTVSPropertyOp31
 70
     1
102
RTVSPropertyOp32
 70
     1
  0
XRECORD
  5
964
102
{ACAD_REACTORS
330
963
102
}
330
963
100
AcDbXrecord
280
     1
102
RTVSPropertyOp0
 70
     1
102
RTVSPropertyOp1
 70
     1
102
RTVSPropertyOp2
 70
     1
102
RTVSPropertyOp3
 70
     1
102
RTVSPropertyOp4
 70
     1
102
RTVSPropertyOp5
 70
     1
102
RTVSPropertyOp6
 70
     1
102
RTVSPropertyOp7
 70
     1
102
RTVSPropertyOp8
 70
     1
102
RTVSPropertyOp9
 70
     1
102
RTVSPropertyOp10
 70
     1
102
RTVSPropertyOp11
 70
     1
102
RTVSPropertyOp12
 70
     1
102
RTVSPropertyOp13
 70
     1
102
RTVSPropertyOp14
 70
     1
102
RTVSPropertyOp15
 70
     1
102
RTVSPropertyOp16
 70
     1
102
RTVSPropertyOp17
 70
     1
102
RTVSPropertyOp18
 70
     1
102
RTVSPropertyOp19
 70
     1
102
RTVSPropertyOp20
 70
     1
102
RTVSPropertyOp21
 70
     1
102
RTVSPropertyOp22
 70
     1
102
RTVSPropertyOp23
 70
     1
102
RTVSPropertyOp24
 70
     1
102
RTVSPropertyOp25
 70
     1
102
RTVSPropertyOp26
 70
     1
102
RTVSPropertyOp27
 70
     1
102
RTVSPropertyOp28
 70
     1
102
RTVSPropertyOp29
 70
     1
102
RTVSPropertyOp30
 70
     1
102
RTVSPropertyOp31
 70
     1
102
RTVSPropertyOp32
 70
     1
  0
XRECORD
  5
97E
102
{ACAD_REACTORS
330
97D
102
}
330
97D
100
AcDbXrecord
280
     1
102
RTVSPropertyOp0
 70
     0
102
RTVSPropertyOp1
 70
     0
102
RTVSPropertyOp2
 70
     0
102
RTVSPropertyOp3
 70
     0
102
RTVSPropertyOp4
 70
     0
102
RTVSPropertyOp5
 70
     0
102
RTVSPropertyOp6
 70
     0
102
RTVSPropertyOp7
 70
     0
102
RTVSPropertyOp8
 70
     0
102
RTVSPropertyOp9
 70
     0
102
RTVSPropertyOp10
 70
     0
102
RTVSPropertyOp11
 70
     0
102
RTVSPropertyOp12
 70
     0
102
RTVSPropertyOp13
 70
     0
102
RTVSPropertyOp14
 70
     2
102
RTVSPropertyOp15
 70
     0
102
RTVSPropertyOp16
 70
     0
102
RTVSPropertyOp17
 70
     0
102
RTVSPropertyOp18
 70
     0
102
RTVSPropertyOp19
 70
     0
102
RTVSPropertyOp20
 70
     0
102
RTVSPropertyOp21
 70
     0
102
RTVSPropertyOp22
 70
     0
102
RTVSPropertyOp23
 70
     0
102
RTVSPropertyOp24
 70
     0
102
RTVSPropertyOp25
 70
     0
102
RTVSPropertyOp26
 70
     0
102
RTVSPropertyOp27
 70
     0
102
RTVSPropertyOp28
 70
     0
102
RTVSPropertyOp29
 70
     0
102
RTVSPropertyOp30
 70
     0
102
RTVSPropertyOp31
 70
     0
102
RTVSPropertyOp32
 70
     0
  0
XRECORD
  5
96C
102
{ACAD_REACTORS
330
96B
102
}
330
96B
100
AcDbXrecord
280
     1
102
RTVSPropertyOp0
 70
     1
102
RTVSPropertyOp1
 70
     1
102
RTVSPropertyOp2
 70
     1
102
RTVSPropertyOp3
 70
     1
102
RTVSPropertyOp4
 70
     1
102
RTVSPropertyOp5
 70
     1
102
RTVSPropertyOp6
 70
     1
102
RTVSPropertyOp7
 70
     1
102
RTVSPropertyOp8
 70
     1
102
RTVSPropertyOp9
 70
     1
102
RTVSPropertyOp10
 70
     1
102
RTVSPropertyOp11
 70
     1
102
RTVSPropertyOp12
 70
     1
102
RTVSPropertyOp13
 70
     1
102
RTVSPropertyOp14
 70
     1
102
RTVSPropertyOp15
 70
     1
102
RTVSPropertyOp16
 70
     1
102
RTVSPropertyOp17
 70
     1
102
RTVSPropertyOp18
 70
     1
102
RTVSPropertyOp19
 70
     1
102
RTVSPropertyOp20
 70
     1
102
RTVSPropertyOp21
 70
     1
102
RTVSPropertyOp22
 70
     1
102
RTVSPropertyOp23
 70
     1
102
RTVSPropertyOp24
 70
     1
102
RTVSPropertyOp25
 70
     1
102
RTVSPropertyOp26
 70
     1
102
RTVSPropertyOp27
 70
     1
102
RTVSPropertyOp28
 70
     1
102
RTVSPropertyOp29
 70
     1
102
RTVSPropertyOp30
 70
     1
102
RTVSPropertyOp31
 70
     1
102
RTVSPropertyOp32
 70
     1
  0
XRECORD
  5
950
102
{ACAD_REACTORS
330
94F
102
}
330
94F
100
AcDbXrecord
280
     1
102
RTVSPropertyOp0
 70
     1
102
RTVSPropertyOp1
 70
     1
102
RTVSPropertyOp2
 70
     1
102
RTVSPropertyOp3
 70
     1
102
RTVSPropertyOp4
 70
     1
102
RTVSPropertyOp5
 70
     1
102
RTVSPropertyOp6
 70
     1
102
RTVSPropertyOp7
 70
     1
102
RTVSPropertyOp8
 70
     1
102
RTVSPropertyOp9
 70
     1
102
RTVSPropertyOp10
 70
     1
102
RTVSPropertyOp11
 70
     1
102
RTVSPropertyOp12
 70
     1
102
RTVSPropertyOp13
 70
     1
102
RTVSPropertyOp14
 70
     1
102
RTVSPropertyOp15
 70
     1
102
RTVSPropertyOp16
 70
     1
102
RTVSPropertyOp17
 70
     1
102
RTVSPropertyOp18
 70
     1
102
RTVSPropertyOp19
 70
     1
102
RTVSPropertyOp20
 70
     1
102
RTVSPropertyOp21
 70
     1
102
RTVSPropertyOp22
 70
     1
102
RTVSPropertyOp23
 70
     1
102
RTVSPropertyOp24
 70
     1
102
RTVSPropertyOp25
 70
     1
102
RTVSPropertyOp26
 70
     1
102
RTVSPropertyOp27
 70
     1
102
RTVSPropertyOp28
 70
     1
102
RTVSPropertyOp29
 70
     1
102
RTVSPropertyOp30
 70
     1
102
RTVSPropertyOp31
 70
     1
102
RTVSPropertyOp32
 70
     1
  0
XRECORD
  5
952
102
{ACAD_REACTORS
330
951
102
}
330
951
100
AcDbXrecord
280
     1
102
RTVSPropertyOp0
 70
     1
102
RTVSPropertyOp1
 70
     1
102
RTVSPropertyOp2
 70
     1
102
RTVSPropertyOp3
 70
     1
102
RTVSPropertyOp4
 70
     1
102
RTVSPropertyOp5
 70
     1
102
RTVSPropertyOp6
 70
     1
102
RTVSPropertyOp7
 70
     1
102
RTVSPropertyOp8
 70
     1
102
RTVSPropertyOp9
 70
     1
102
RTVSPropertyOp10
 70
     1
102
RTVSPropertyOp11
 70
     1
102
RTVSPropertyOp12
 70
     1
102
RTVSPropertyOp13
 70
     1
102
RTVSPropertyOp14
 70
     1
102
RTVSPropertyOp15
 70
     1
102
RTVSPropertyOp16
 70
     1
102
RTVSPropertyOp17
 70
     1
102
RTVSPropertyOp18
 70
     1
102
RTVSPropertyOp19
 70
     1
102
RTVSPropertyOp20
 70
     1
102
RTVSPropertyOp21
 70
     1
102
RTVSPropertyOp22
 70
     1
102
RTVSPropertyOp23
 70
     1
102
RTVSPropertyOp24
 70
     1
102
RTVSPropertyOp25
 70
     1
102
RTVSPropertyOp26
 70
     1
102
RTVSPropertyOp27
 70
     1
102
RTVSPropertyOp28
 70
     1
102
RTVSPropertyOp29
 70
     1
102
RTVSPropertyOp30
 70
     1
102
RTVSPropertyOp31
 70
     1
102
RTVSPropertyOp32
 70
     1
  0
XRECORD
  5
954
102
{ACAD_REACTORS
330
953
102
}
330
953
100
AcDbXrecord
280
     1
102
RTVSPropertyOp0
 70
     1
102
RTVSPropertyOp1
 70
     1
102
RTVSPropertyOp2
 70
     1
102
RTVSPropertyOp3
 70
     1
102
RTVSPropertyOp4
 70
     1
102
RTVSPropertyOp5
 70
     1
102
RTVSPropertyOp6
 70
     1
102
RTVSPropertyOp7
 70
     1
102
RTVSPropertyOp8
 70
     1
102
RTVSPropertyOp9
 70
     1
102
RTVSPropertyOp10
 70
     1
102
RTVSPropertyOp11
 70
     1
102
RTVSPropertyOp12
 70
     1
102
RTVSPropertyOp13
 70
     1
102
RTVSPropertyOp14
 70
     1
102
RTVSPropertyOp15
 70
     1
102
RTVSPropertyOp16
 70
     1
102
RTVSPropertyOp17
 70
     1
102
RTVSPropertyOp18
 70
     1
102
RTVSPropertyOp19
 70
     1
102
RTVSPropertyOp20
 70
     1
102
RTVSPropertyOp21
 70
     1
102
RTVSPropertyOp22
 70
     1
102
RTVSPropertyOp23
 70
     1
102
RTVSPropertyOp24
 70
     1
102
RTVSPropertyOp25
 70
     1
102
RTVSPropertyOp26
 70
     1
102
RTVSPropertyOp27
 70
     1
102
RTVSPropertyOp28
 70
     1
102
RTVSPropertyOp29
 70
     1
102
RTVSPropertyOp30
 70
     1
102
RTVSPropertyOp31
 70
     1
102
RTVSPropertyOp32
 70
     1
  0
XRECORD
  5
956
102
{ACAD_REACTORS
330
955
102
}
330
955
100
AcDbXrecord
280
     1
102
RTVSPropertyOp0
 70
     1
102
RTVSPropertyOp1
 70
     1
102
RTVSPropertyOp2
 70
     1
102
RTVSPropertyOp3
 70
     1
102
RTVSPropertyOp4
 70
     1
102
RTVSPropertyOp5
 70
     1
102
RTVSPropertyOp6
 70
     1
102
RTVSPropertyOp7
 70
     1
102
RTVSPropertyOp8
 70
     1
102
RTVSPropertyOp9
 70
     1
102
RTVSPropertyOp10
 70
     1
102
RTVSPropertyOp11
 70
     1
102
RTVSPropertyOp12
 70
     1
102
RTVSPropertyOp13
 70
     1
102
RTVSPropertyOp14
 70
     1
102
RTVSPropertyOp15
 70
     1
102
RTVSPropertyOp16
 70
     1
102
RTVSPropertyOp17
 70
     1
102
RTVSPropertyOp18
 70
     1
102
RTVSPropertyOp19
 70
     1
102
RTVSPropertyOp20
 70
     1
102
RTVSPropertyOp21
 70
     1
102
RTVSPropertyOp22
 70
     1
102
RTVSPropertyOp23
 70
     1
102
RTVSPropertyOp24
 70
     1
102
RTVSPropertyOp25
 70
     1
102
RTVSPropertyOp26
 70
     1
102
RTVSPropertyOp27
 70
     1
102
RTVSPropertyOp28
 70
     1
102
RTVSPropertyOp29
 70
     1
102
RTVSPropertyOp30
 70
     1
102
RTVSPropertyOp31
 70
     1
102
RTVSPropertyOp32
 70
     1
  0
XRECORD
  5
95E
102
{ACAD_REACTORS
330
95D
102
}
330
95D
100
AcDbXrecord
280
     1
102
RTVSPropertyOp0
 70
     1
102
RTVSPropertyOp1
 70
     1
102
RTVSPropertyOp2
 70
     1
102
RTVSPropertyOp3
 70
     1
102
RTVSPropertyOp4
 70
     1
102
RTVSPropertyOp5
 70
     1
102
RTVSPropertyOp6
 70
     1
102
RTVSPropertyOp7
 70
     1
102
RTVSPropertyOp8
 70
     1
102
RTVSPropertyOp9
 70
     1
102
RTVSPropertyOp10
 70
     1
102
RTVSPropertyOp11
 70
     1
102
RTVSPropertyOp12
 70
     1
102
RTVSPropertyOp13
 70
     1
102
RTVSPropertyOp14
 70
     1
102
RTVSPropertyOp15
 70
     1
102
RTVSPropertyOp16
 70
     1
102
RTVSPropertyOp17
 70
     1
102
RTVSPropertyOp18
 70
     1
102
RTVSPropertyOp19
 70
     1
102
RTVSPropertyOp20
 70
     1
102
RTVSPropertyOp21
 70
     1
102
RTVSPropertyOp22
 70
     1
102
RTVSPropertyOp23
 70
     1
102
RTVSPropertyOp24
 70
     1
102
RTVSPropertyOp25
 70
     1
102
RTVSPropertyOp26
 70
     1
102
RTVSPropertyOp27
 70
     1
102
RTVSPropertyOp28
 70
     1
102
RTVSPropertyOp29
 70
     1
102
RTVSPropertyOp30
 70
     1
102
RTVSPropertyOp31
 70
     1
102
RTVSPropertyOp32
 70
     1
  0
XRECORD
  5
97A
102
{ACAD_REACTORS
330
979
102
}
330
979
100
AcDbXrecord
280
     1
102
RTVSPropertyOp0
 70
     0
102
RTVSPropertyOp1
 70
     0
102
RTVSPropertyOp2
 70
     0
102
RTVSPropertyOp3
 70
     0
102
RTVSPropertyOp4
 70
     0
102
RTVSPropertyOp5
 70
     0
102
RTVSPropertyOp6
 70
     0
102
RTVSPropertyOp7
 70
     0
102
RTVSPropertyOp8
 70
     0
102
RTVSPropertyOp9
 70
     0
102
RTVSPropertyOp10
 70
     0
102
RTVSPropertyOp11
 70
     0
102
RTVSPropertyOp12
 70
     0
102
RTVSPropertyOp13
 70
     0
102
RTVSPropertyOp14
 70
     2
102
RTVSPropertyOp15
 70
     0
102
RTVSPropertyOp16
 70
     0
102
RTVSPropertyOp17
 70
     0
102
RTVSPropertyOp18
 70
     0
102
RTVSPropertyOp19
 70
     0
102
RTVSPropertyOp20
 70
     0
102
RTVSPropertyOp21
 70
     0
102
RTVSPropertyOp22
 70
     0
102
RTVSPropertyOp23
 70
     0
102
RTVSPropertyOp24
 70
     0
102
RTVSPropertyOp25
 70
     0
102
RTVSPropertyOp26
 70
     0
102
RTVSPropertyOp27
 70
     0
102
RTVSPropertyOp28
 70
     0
102
RTVSPropertyOp29
 70
     0
102
RTVSPropertyOp30
 70
     0
102
RTVSPropertyOp31
 70
     0
102
RTVSPropertyOp32
 70
     0
  0
XRECORD
  5
96A
102
{ACAD_REACTORS
330
969
102
}
330
969
100
AcDbXrecord
280
     1
102
RTVSPropertyOp0
 70
     1
102
RTVSPropertyOp1
 70
     1
102
RTVSPropertyOp2
 70
     1
102
RTVSPropertyOp3
 70
     1
102
RTVSPropertyOp4
 70
     1
102
RTVSPropertyOp5
 70
     1
102
RTVSPropertyOp6
 70
     1
102
RTVSPropertyOp7
 70
     1
102
RTVSPropertyOp8
 70
     1
102
RTVSPropertyOp9
 70
     1
102
RTVSPropertyOp10
 70
     1
102
RTVSPropertyOp11
 70
     1
102
RTVSPropertyOp12
 70
     1
102
RTVSPropertyOp13
 70
     1
102
RTVSPropertyOp14
 70
     1
102
RTVSPropertyOp15
 70
     1
102
RTVSPropertyOp16
 70
     1
102
RTVSPropertyOp17
 70
     1
102
RTVSPropertyOp18
 70
     1
102
RTVSPropertyOp19
 70
     1
102
RTVSPropertyOp20
 70
     1
102
RTVSPropertyOp21
 70
     1
102
RTVSPropertyOp22
 70
     1
102
RTVSPropertyOp23
 70
     1
102
RTVSPropertyOp24
 70
     1
102
RTVSPropertyOp25
 70
     1
102
RTVSPropertyOp26
 70
     1
102
RTVSPropertyOp27
 70
     1
102
RTVSPropertyOp28
 70
     1
102
RTVSPropertyOp29
 70
     1
102
RTVSPropertyOp30
 70
     1
102
RTVSPropertyOp31
 70
     1
102
RTVSPropertyOp32
 70
     1
  0
XRECORD
  5
97C
102
{ACAD_REACTORS
330
97B
102
}
330
97B
100
AcDbXrecord
280
     1
102
RTVSPropertyOp0
 70
     0
102
RTVSPropertyOp1
 70
     0
102
RTVSPropertyOp2
 70
     0
102
RTVSPropertyOp3
 70
     0
102
RTVSPropertyOp4
 70
     0
102
RTVSPropertyOp5
 70
     0
102
RTVSPropertyOp6
 70
     0
102
RTVSPropertyOp7
 70
     0
102
RTVSPropertyOp8
 70
     0
102
RTVSPropertyOp9
 70
     0
102
RTVSPropertyOp10
 70
     0
102
RTVSPropertyOp11
 70
     0
102
RTVSPropertyOp12
 70
     0
102
RTVSPropertyOp13
 70
     0
102
RTVSPropertyOp14
 70
     2
102
RTVSPropertyOp15
 70
     0
102
RTVSPropertyOp16
 70
     0
102
RTVSPropertyOp17
 70
     0
102
RTVSPropertyOp18
 70
     0
102
RTVSPropertyOp19
 70
     0
102
RTVSPropertyOp20
 70
     0
102
RTVSPropertyOp21
 70
     0
102
RTVSPropertyOp22
 70
     0
102
RTVSPropertyOp23
 70
     0
102
RTVSPropertyOp24
 70
     0
102
RTVSPropertyOp25
 70
     0
102
RTVSPropertyOp26
 70
     0
102
RTVSPropertyOp27
 70
     0
102
RTVSPropertyOp28
 70
     0
102
RTVSPropertyOp29
 70
     0
102
RTVSPropertyOp30
 70
     0
102
RTVSPropertyOp31
 70
     0
102
RTVSPropertyOp32
 70
     0
  0
XRECORD
  5
962
102
{ACAD_REACTORS
330
961
102
}
330
961
100
AcDbXrecord
280
     1
102
RTVSPropertyOp0
 70
     1
102
RTVSPropertyOp1
 70
     1
102
RTVSPropertyOp2
 70
     1
102
RTVSPropertyOp3
 70
     1
102
RTVSPropertyOp4
 70
     1
102
RTVSPropertyOp5
 70
     1
102
RTVSPropertyOp6
 70
     1
102
RTVSPropertyOp7
 70
     1
102
RTVSPropertyOp8
 70
     1
102
RTVSPropertyOp9
 70
     1
102
RTVSPropertyOp10
 70
     1
102
RTVSPropertyOp11
 70
     1
102
RTVSPropertyOp12
 70
     1
102
RTVSPropertyOp13
 70
     1
102
RTVSPropertyOp14
 70
     1
102
RTVSPropertyOp15
 70
     1
102
RTVSPropertyOp16
 70
     1
102
RTVSPropertyOp17
 70
     1
102
RTVSPropertyOp18
 70
     1
102
RTVSPropertyOp19
 70
     1
102
RTVSPropertyOp20
 70
     1
102
RTVSPropertyOp21
 70
     1
102
RTVSPropertyOp22
 70
     1
102
RTVSPropertyOp23
 70
     1
102
RTVSPropertyOp24
 70
     1
102
RTVSPropertyOp25
 70
     1
102
RTVSPropertyOp26
 70
     1
102
RTVSPropertyOp27
 70
     1
102
RTVSPropertyOp28
 70
     1
102
RTVSPropertyOp29
 70
     1
102
RTVSPropertyOp30
 70
     1
102
RTVSPropertyOp31
 70
     1
102
RTVSPropertyOp32
 70
     1
  0
XRECORD
  5
978
102
{ACAD_REACTORS
330
977
102
}
330
977
100
AcDbXrecord
280
     1
102
RTVSPropertyOp0
 70
     1
102
RTVSPropertyOp1
 70
     1
102
RTVSPropertyOp2
 70
     1
102
RTVSPropertyOp3
 70
     1
102
RTVSPropertyOp4
 70
     1
102
RTVSPropertyOp5
 70
     1
102
RTVSPropertyOp6
 70
     1
102
RTVSPropertyOp7
 70
     1
102
RTVSPropertyOp8
 70
     1
102
RTVSPropertyOp9
 70
     1
102
RTVSPropertyOp10
 70
     1
102
RTVSPropertyOp11
 70
     1
102
RTVSPropertyOp12
 70
     1
102
RTVSPropertyOp13
 70
     1
102
RTVSPropertyOp14
 70
     1
102
RTVSPropertyOp15
 70
     1
102
RTVSPropertyOp16
 70
     1
102
RTVSPropertyOp17
 70
     1
102
RTVSPropertyOp18
 70
     1
102
RTVSPropertyOp19
 70
     1
102
RTVSPropertyOp20
 70
     1
102
RTVSPropertyOp21
 70
     1
102
RTVSPropertyOp22
 70
     1
102
RTVSPropertyOp23
 70
     1
102
RTVSPropertyOp24
 70
     1
102
RTVSPropertyOp25
 70
     1
102
RTVSPropertyOp26
 70
     1
102
RTVSPropertyOp27
 70
     1
102
RTVSPropertyOp28
 70
     1
102
RTVSPropertyOp29
 70
     1
102
RTVSPropertyOp30
 70
     1
102
RTVSPropertyOp31
 70
     1
102
RTVSPropertyOp32
 70
     1
  0
XRECORD
  5
976
102
{ACAD_REACTORS
330
975
102
}
330
975
100
AcDbXrecord
280
     1
102
RTVSPropertyOp0
 70
     1
102
RTVSPropertyOp1
 70
     1
102
RTVSPropertyOp2
 70
     1
102
RTVSPropertyOp3
 70
     1
102
RTVSPropertyOp4
 70
     1
102
RTVSPropertyOp5
 70
     1
102
RTVSPropertyOp6
 70
     1
102
RTVSPropertyOp7
 70
     1
102
RTVSPropertyOp8
 70
     1
102
RTVSPropertyOp9
 70
     1
102
RTVSPropertyOp10
 70
     1
102
RTVSPropertyOp11
 70
     1
102
RTVSPropertyOp12
 70
     1
102
RTVSPropertyOp13
 70
     1
102
RTVSPropertyOp14
 70
     1
102
RTVSPropertyOp15
 70
     1
102
RTVSPropertyOp16
 70
     1
102
RTVSPropertyOp17
 70
     1
102
RTVSPropertyOp18
 70
     1
102
RTVSPropertyOp19
 70
     1
102
RTVSPropertyOp20
 70
     1
102
RTVSPropertyOp21
 70
     1
102
RTVSPropertyOp22
 70
     1
102
RTVSPropertyOp23
 70
     1
102
RTVSPropertyOp24
 70
     1
102
RTVSPropertyOp25
 70
     1
102
RTVSPropertyOp26
 70
     1
102
RTVSPropertyOp27
 70
     1
102
RTVSPropertyOp28
 70
     1
102
RTVSPropertyOp29
 70
     1
102
RTVSPropertyOp30
 70
     1
102
RTVSPropertyOp31
 70
     1
102
RTVSPropertyOp32
 70
     1
  0
XRECORD
  5
970
102
{ACAD_REACTORS
330
96F
102
}
330
96F
100
AcDbXrecord
280
     1
102
RTVSPropertyOp0
 70
     1
102
RTVSPropertyOp1
 70
     1
102
RTVSPropertyOp2
 70
     1
102
RTVSPropertyOp3
 70
     1
102
RTVSPropertyOp4
 70
     1
102
RTVSPropertyOp5
 70
     1
102
RTVSPropertyOp6
 70
     1
102
RTVSPropertyOp7
 70
     1
102
RTVSPropertyOp8
 70
     1
102
RTVSPropertyOp9
 70
     1
102
RTVSPropertyOp10
 70
     1
102
RTVSPropertyOp11
 70
     1
102
RTVSPropertyOp12
 70
     1
102
RTVSPropertyOp13
 70
     1
102
RTVSPropertyOp14
 70
     1
102
RTVSPropertyOp15
 70
     1
102
RTVSPropertyOp16
 70
     1
102
RTVSPropertyOp17
 70
     1
102
RTVSPropertyOp18
 70
     1
102
RTVSPropertyOp19
 70
     1
102
RTVSPropertyOp20
 70
     1
102
RTVSPropertyOp21
 70
     1
102
RTVSPropertyOp22
 70
     1
102
RTVSPropertyOp23
 70
     1
102
RTVSPropertyOp24
 70
     1
102
RTVSPropertyOp25
 70
     1
102
RTVSPropertyOp26
 70
     1
102
RTVSPropertyOp27
 70
     1
102
RTVSPropertyOp28
 70
     1
102
RTVSPropertyOp29
 70
     1
102
RTVSPropertyOp30
 70
     1
102
RTVSPropertyOp31
 70
     1
102
RTVSPropertyOp32
 70
     1
  0
XRECORD
  5
972
102
{ACAD_REACTORS
330
971
102
}
330
971
100
AcDbXrecord
280
     1
102
RTVSPropertyOp0
 70
     1
102
RTVSPropertyOp1
 70
     1
102
RTVSPropertyOp2
 70
     1
102
RTVSPropertyOp3
 70
     1
102
RTVSPropertyOp4
 70
     1
102
RTVSPropertyOp5
 70
     1
102
RTVSPropertyOp6
 70
     1
102
RTVSPropertyOp7
 70
     1
102
RTVSPropertyOp8
 70
     1
102
RTVSPropertyOp9
 70
     1
102
RTVSPropertyOp10
 70
     1
102
RTVSPropertyOp11
 70
     1
102
RTVSPropertyOp12
 70
     1
102
RTVSPropertyOp13
 70
     1
102
RTVSPropertyOp14
 70
     1
102
RTVSPropertyOp15
 70
     1
102
RTVSPropertyOp16
 70
     1
102
RTVSPropertyOp17
 70
     1
102
RTVSPropertyOp18
 70
     1
102
RTVSPropertyOp19
 70
     1
102
RTVSPropertyOp20
 70
     1
102
RTVSPropertyOp21
 70
     1
102
RTVSPropertyOp22
 70
     1
102
RTVSPropertyOp23
 70
     1
102
RTVSPropertyOp24
 70
     1
102
RTVSPropertyOp25
 70
     1
102
RTVSPropertyOp26
 70
     1
102
RTVSPropertyOp27
 70
     1
102
RTVSPropertyOp28
 70
     1
102
RTVSPropertyOp29
 70
     1
102
RTVSPropertyOp30
 70
     1
102
RTVSPropertyOp31
 70
     1
102
RTVSPropertyOp32
 70
     1
  0
XRECORD
  5
968
102
{ACAD_REACTORS
330
967
102
}
330
967
100
AcDbXrecord
280
     1
102
RTVSPropertyOp0
 70
     1
102
RTVSPropertyOp1
 70
     1
102
RTVSPropertyOp2
 70
     1
102
RTVSPropertyOp3
 70
     1
102
RTVSPropertyOp4
 70
     1
102
RTVSPropertyOp5
 70
     1
102
RTVSPropertyOp6
 70
     1
102
RTVSPropertyOp7
 70
     1
102
RTVSPropertyOp8
 70
     1
102
RTVSPropertyOp9
 70
     1
102
RTVSPropertyOp10
 70
     1
102
RTVSPropertyOp11
 70
     1
102
RTVSPropertyOp12
 70
     1
102
RTVSPropertyOp13
 70
     1
102
RTVSPropertyOp14
 70
     1
102
RTVSPropertyOp15
 70
     1
102
RTVSPropertyOp16
 70
     1
102
RTVSPropertyOp17
 70
     1
102
RTVSPropertyOp18
 70
     1
102
RTVSPropertyOp19
 70
     1
102
RTVSPropertyOp20
 70
     1
102
RTVSPropertyOp21
 70
     1
102
RTVSPropertyOp22
 70
     1
102
RTVSPropertyOp23
 70
     1
102
RTVSPropertyOp24
 70
     1
102
RTVSPropertyOp25
 70
     1
102
RTVSPropertyOp26
 70
     1
102
RTVSPropertyOp27
 70
     1
102
RTVSPropertyOp28
 70
     1
102
RTVSPropertyOp29
 70
     1
102
RTVSPropertyOp30
 70
     1
102
RTVSPropertyOp31
 70
     1
102
RTVSPropertyOp32
 70
     1
  0
XRECORD
  5
95C
102
{ACAD_REACTORS
330
95B
102
}
330
95B
100
AcDbXrecord
280
     1
102
RTVSPropertyOp0
 70
     1
102
RTVSPropertyOp1
 70
     1
102
RTVSPropertyOp2
 70
     1
102
RTVSPropertyOp3
 70
     1
102
RTVSPropertyOp4
 70
     1
102
RTVSPropertyOp5
 70
     1
102
RTVSPropertyOp6
 70
     1
102
RTVSPropertyOp7
 70
     1
102
RTVSPropertyOp8
 70
     1
102
RTVSPropertyOp9
 70
     1
102
RTVSPropertyOp10
 70
     1
102
RTVSPropertyOp11
 70
     1
102
RTVSPropertyOp12
 70
     1
102
RTVSPropertyOp13
 70
     1
102
RTVSPropertyOp14
 70
     1
102
RTVSPropertyOp15
 70
     1
102
RTVSPropertyOp16
 70
     1
102
RTVSPropertyOp17
 70
     1
102
RTVSPropertyOp18
 70
     1
102
RTVSPropertyOp19
 70
     1
102
RTVSPropertyOp20
 70
     1
102
RTVSPropertyOp21
 70
     1
102
RTVSPropertyOp22
 70
     1
102
RTVSPropertyOp23
 70
     1
102
RTVSPropertyOp24
 70
     1
102
RTVSPropertyOp25
 70
     1
102
RTVSPropertyOp26
 70
     1
102
RTVSPropertyOp27
 70
     1
102
RTVSPropertyOp28
 70
     1
102
RTVSPropertyOp29
 70
     1
102
RTVSPropertyOp30
 70
     1
102
RTVSPropertyOp31
 70
     1
102
RTVSPropertyOp32
 70
     1
  0
XRECORD
  5
974
102
{ACAD_REACTORS
330
973
102
}
330
973
100
AcDbXrecord
280
     1
102
RTVSPropertyOp0
 70
     1
102
RTVSPropertyOp1
 70
     1
102
RTVSPropertyOp2
 70
     1
102
RTVSPropertyOp3
 70
     1
102
RTVSPropertyOp4
 70
     1
102
RTVSPropertyOp5
 70
     1
102
RTVSPropertyOp6
 70
     1
102
RTVSPropertyOp7
 70
     1
102
RTVSPropertyOp8
 70
     1
102
RTVSPropertyOp9
 70
     1
102
RTVSPropertyOp10
 70
     1
102
RTVSPropertyOp11
 70
     1
102
RTVSPropertyOp12
 70
     1
102
RTVSPropertyOp13
 70
     1
102
RTVSPropertyOp14
 70
     1
102
RTVSPropertyOp15
 70
     1
102
RTVSPropertyOp16
 70
     1
102
RTVSPropertyOp17
 70
     1
102
RTVSPropertyOp18
 70
     1
102
RTVSPropertyOp19
 70
     1
102
RTVSPropertyOp20
 70
     1
102
RTVSPropertyOp21
 70
     1
102
RTVSPropertyOp22
 70
     1
102
RTVSPropertyOp23
 70
     1
102
RTVSPropertyOp24
 70
     1
102
RTVSPropertyOp25
 70
     1
102
RTVSPropertyOp26
 70
     1
102
RTVSPropertyOp27
 70
     1
102
RTVSPropertyOp28
 70
     1
102
RTVSPropertyOp29
 70
     1
102
RTVSPropertyOp30
 70
     1
102
RTVSPropertyOp31
 70
     1
102
RTVSPropertyOp32
 70
     1
  0
ENDSEC
  0
EOF
