  0
SECTION
  2
HEADER
  9
$ACADVER
  1
AC1015
  9
$ACADMAINTVER
 70
    20
  9
$DWGCODEPAGE
  3
ANSI_932
  9
$INSBASE
 10
0.0
 20
0.0
 30
0.0
  9
$EXTMIN
 10
-204.510434
 20
-511.052629
 30
0.0
  9
$EXTMAX
 10
200.489566
 20
-236.997268
 30
0.0
  9
$LIMMIN
 10
-204.511437
 20
-511.0536429999998
  9
$LIMMAX
 10
200.516427
 20
-236.996269
  9
$ORTHOMODE
 70
     1
  9
$REGENMODE
 70
     1
  9
$FILLMODE
 70
     1
  9
$QTEXTMODE
 70
     0
  9
$MIRRTEXT
 70
     0
  9
$LTSCALE
 40
4.0
  9
$ATTMODE
 70
     1
  9
$TEXTSIZE
 40
3.2
  9
$TRACEWID
 40
0.05
  9
$TEXTSTYLE
  7
高3.2
  9
$CLAYER
  8
0
  9
$CELTYPE
  6
CONTINUOUS
  9
$CECOLOR
 62
   256
  9
$CELTSCALE
 40
1.0
  9
$DISPSILH
 70
     0
  9
$DIMSCALE
 40
1.0
  9
$DIMASZ
 40
2.5
  9
$DIMEXO
 40
0.25
  9
$DIMDLI
 40
0.2
  9
$DIMRND
 40
0.0
  9
$DIMDLE
 40
0.0
  9
$DIMEXE
 40
1.25
  9
$DIMTP
 40
0.0
  9
$DIMTM
 40
0.0
  9
$DIMTXT
 40
3.0
  9
$DIMCEN
 40
0.0
  9
$DIMTSZ
 40
0.0
  9
$DIMTOL
 70
     0
  9
$DIMLIM
 70
     0
  9
$DIMTIH
 70
     0
  9
$DIMTOH
 70
     0
  9
$DIMSE1
 70
     0
  9
$DIMSE2
 70
     0
  9
$DIMTAD
 70
     3
  9
$DIMZIN
 70
     8
  9
$DIMBLK
  1
Open30
  9
$DIMASO
 70
     1
  9
$DIMSHO
 70
     1
  9
$DIMPOST
  1

  9
$DIMAPOST
  1

  9
$DIMALT
 70
     0
  9
$DIMALTD
 70
     3
  9
$DIMALTF
 40
0.03937007874016
  9
$DIMLFAC
 40
1.0
  9
$DIMTOFL
 70
     1
  9
$DIMTVP
 40
0.0
  9
$DIMTIX
 70
     0
  9
$DIMSOXD
 70
     0
  9
$DIMSAH
 70
     0
  9
$DIMBLK1
  1

  9
$DIMBLK2
  1

  9
$DIMSTYLE
  2
1：1
  9
$DIMCLRD
 70
     0
  9
$DIMCLRE
 70
     0
  9
$DIMCLRT
 70
     4
  9
$DIMTFAC
 40
1.0
  9
$DIMGAP
 40
0.625
  9
$DIMJUST
 70
     0
  9
$DIMSD1
 70
     0
  9
$DIMSD2
 70
     0
  9
$DIMTOLJ
 70
     0
  9
$DIMTZIN
 70
     8
  9
$DIMALTZ
 70
     0
  9
$DIMALTTZ
 70
     0
  9
$DIMUPT
 70
     1
  9
$DIMDEC
 70
     2
  9
$DIMTDEC
 70
     2
  9
$DIMALTU
 70
     2
  9
$DIMALTTD
 70
     3
  9
$DIMTXSTY
  7
STANDARD
  9
$DIMAUNIT
 70
     0
  9
$DIMADEC
 70
     1
  9
$DIMALTRND
 40
0.0
  9
$DIMAZIN
 70
     2
  9
$DIMDSEP
 70
    46
  9
$DIMATFIT
 70
     0
  9
$DIMFRAC
 70
     0
  9
$DIMLDRBLK
  1
Open30
  9
$DIMLUNIT
 70
     2
  9
$DIMLWD
 70
    -2
  9
$DIMLWE
 70
    -2
  9
$DIMTMOVE
 70
     0
  9
$LUNITS
 70
     2
  9
$LUPREC
 70
     4
  9
$SKETCHINC
 40
0.1
  9
$FILLETRAD
 40
0.0
  9
$AUNITS
 70
     0
  9
$AUPREC
 70
     0
  9
$MENU
  1
.
  9
$ELEVATION
 40
0.0
  9
$PELEVATION
 40
0.0
  9
$THICKNESS
 40
0.0
  9
$LIMCHECK
 70
     0
  9
$CHAMFERA
 40
0.0
  9
$CHAMFERB
 40
0.0
  9
$CHAMFERC
 40
0.0
  9
$CHAMFERD
 40
0.0
  9
$SKPOLY
 70
     0
  9
$TDCREATE
 40
2456589.418892651
  9
$TDUCREATE
 40
2456589.043892650
  9
$TDUPDATE
 40
2457606.547429711
  9
$TDUUPDATE
 40
2457606.172429711
  9
$TDINDWG
 40
0.1662748611
  9
$TDUSRTIMER
 40
0.1662678356
  9
$USRTIMER
 70
     1
  9
$ANGBASE
 50
0.0
  9
$ANGDIR
 70
     0
  9
$PDMODE
 70
     0
  9
$PDSIZE
 40
0.0
  9
$PLINEWID
 40
0.0
  9
$SPLFRAME
 70
     0
  9
$SPLINETYPE
 70
     6
  9
$SPLINESEGS
 70
     8
  9
$HANDSEED
  5
F61
  9
$SURFTAB1
 70
     6
  9
$SURFTAB2
 70
     6
  9
$SURFTYPE
 70
     6
  9
$SURFU
 70
     6
  9
$SURFV
 70
     6
  9
$UCSBASE
  2

  9
$UCSNAME
  2

  9
$UCSORG
 10
0.0
 20
0.0
 30
0.0
  9
$UCSXDIR
 10
1.0
 20
0.0
 30
0.0
  9
$UCSYDIR
 10
0.0
 20
1.0
 30
0.0
  9
$UCSORTHOREF
  2

  9
$UCSORTHOVIEW
 70
     0
  9
$UCSORGTOP
 10
0.0
 20
0.0
 30
0.0
  9
$UCSORGBOTTOM
 10
0.0
 20
0.0
 30
0.0
  9
$UCSORGLEFT
 10
0.0
 20
0.0
 30
0.0
  9
$UCSORGRIGHT
 10
0.0
 20
0.0
 30
0.0
  9
$UCSORGFRONT
 10
0.0
 20
0.0
 30
0.0
  9
$UCSORGBACK
 10
0.0
 20
0.0
 30
0.0
  9
$PUCSBASE
  2

  9
$PUCSNAME
  2

  9
$PUCSORG
 10
0.0
 20
0.0
 30
0.0
  9
$PUCSXDIR
 10
1.0
 20
0.0
 30
0.0
  9
$PUCSYDIR
 10
0.0
 20
1.0
 30
0.0
  9
$PUCSORTHOREF
  2

  9
$PUCSORTHOVIEW
 70
     0
  9
$PUCSORGTOP
 10
0.0
 20
0.0
 30
0.0
  9
$PUCSORGBOTTOM
 10
0.0
 20
0.0
 30
0.0
  9
$PUCSORGLEFT
 10
0.0
 20
0.0
 30
0.0
  9
$PUCSORGRIGHT
 10
0.0
 20
0.0
 30
0.0
  9
$PUCSORGFRONT
 10
0.0
 20
0.0
 30
0.0
  9
$PUCSORGBACK
 10
0.0
 20
0.0
 30
0.0
  9
$USERI1
 70
     0
  9
$USERI2
 70
     0
  9
$USERI3
 70
     0
  9
$USERI4
 70
     0
  9
$USERI5
 70
     0
  9
$USERR1
 40
0.0
  9
$USERR2
 40
0.0
  9
$USERR3
 40
0.0
  9
$USERR4
 40
0.0
  9
$USERR5
 40
0.0
  9
$WORLDVIEW
 70
     1
  9
$SHADEDGE
 70
     3
  9
$SHADEDIF
 70
    70
  9
$TILEMODE
 70
     1
  9
$MAXACTVP
 70
    64
  9
$PINSBASE
 10
0.0
 20
0.0
 30
0.0
  9
$PLIMCHECK
 70
     0
  9
$PEXTMIN
 10
1.000000000000000E+20
 20
1.000000000000000E+20
 30
1.000000000000000E+20
  9
$PEXTMAX
 10
-1.000000000000000E+20
 20
-1.000000000000000E+20
 30
-1.000000000000000E+20
  9
$PLIMMIN
 10
0.0
 20
0.0
  9
$PLIMMAX
 10
12.0
 20
9.0
  9
$UNITMODE
 70
     0
  9
$VISRETAIN
 70
     1
  9
$PLINEGEN
 70
     0
  9
$PSLTSCALE
 70
     1
  9
$TREEDEPTH
 70
  3020
  9
$CMLSTYLE
  2
Standard
  9
$CMLJUST
 70
     0
  9
$CMLSCALE
 40
1.0
  9
$PROXYGRAPHICS
 70
     1
  9
$MEASUREMENT
 70
     0
  9
$CELWEIGHT
370
    -1
  9
$ENDCAPS
280
     0
  9
$JOINSTYLE
280
     0
  9
$LWDISPLAY
290
     0
  9
$INSUNITS
 70
     0
  9
$HYPERLINKBASE
  1

  9
$STYLESHEET
  1

  9
$XEDIT
290
     1
  9
$CEPSNTYPE
380
     0
  9
$PSTYLEMODE
290
     1
  9
$FINGERPRINTGUID
  2
{CE621435-45CD-4739-ACE5-AFBF514545FD}
  9
$VERSIONGUID
  2
{3F19219F-49E8-4AB2-AA2B-0DEA42B955DD}
  9
$EXTNAMES
290
     1
  9
$PSVPSCALE
 40
0.0
  9
$OLESTARTUP
290
     0
  0
ENDSEC
  0
SECTION
  2
CLASSES
  0
CLASS
  1
ACDBDICTIONARYWDFLT
  2
AcDbDictionaryWithDefault
  3
ObjectDBX Classes
 90
        0
280
     0
281
     0
  0
CLASS
  1
MATERIAL
  2
AcDbMaterial
  3
ObjectDBX Classes
 90
     1153
280
     0
281
     0
  0
CLASS
  1
VISUALSTYLE
  2
AcDbVisualStyle
  3
ObjectDBX Classes
 90
     4095
280
     0
281
     0
  0
CLASS
  1
SCALE
  2
AcDbScale
  3
ObjectDBX Classes
 90
     1153
280
     0
281
     0
  0
CLASS
  1
TABLESTYLE
  2
AcDbTableStyle
  3
ObjectDBX Classes
 90
     4095
280
     0
281
     0
  0
CLASS
  1
MLEADERSTYLE
  2
AcDbMLeaderStyle
  3
ACDB_MLEADERSTYLE_CLASS
 90
     4095
280
     0
281
     0
  0
CLASS
  1
DICTIONARYVAR
  2
AcDbDictionaryVar
  3
ObjectDBX Classes
 90
        0
280
     0
281
     0
  0
CLASS
  1
SORTENTSTABLE
  2
AcDbSortentsTable
  3
ObjectDBX Classes
 90
        0
280
     0
281
     0
  0
CLASS
  1
CELLSTYLEMAP
  2
AcDbCellStyleMap
  3
ObjectDBX Classes
 90
     1152
280
     0
281
     0
  0
CLASS
  1
ACDBPLACEHOLDER
  2
AcDbPlaceHolder
  3
ObjectDBX Classes
 90
        0
280
     0
281
     0
  0
CLASS
  1
LAYOUT
  2
AcDbLayout
  3
ObjectDBX Classes
 90
        0
280
     0
281
     0
  0
CLASS
  1
AEC_REFEDIT_STATUS_TRACKER
  2
AecDbRefEditStatusTracker
  3
AecArchBase60|Product Desc: Autodesk Architectural Desktop 2007 |Company: Autodesk,Inc. |WEB Address: www.autodesk.com
 90
      129
280
     0
281
     0
  0
CLASS
  1
NPOCOLLECTION
  2
AcDbImpNonPersistentObjectsCollection
  3
ObjectDBX Classes
 90
     1153
280
     0
281
     0
  0
ENDSEC
  0
SECTION
  2
TABLES
  0
TABLE
  2
VPORT
  5
8
330
0
100
AcDbSymbolTable
 70
     1
  0
VPORT
  5
8B
330
8
100
AcDbSymbolTableRecord
100
AcDbViewportTableRecord
  2
*Active
 70
     0
 10
0.0
 20
0.0
 11
1.0
 21
1.0
 12
-134.9382357306523
 22
-361.200240864237
 13
0.0
 23
0.0
 14
1.0
 24
1.0
 15
0.0
 25
0.0
 16
0.0
 26
0.0
 36
1.0
 17
0.0
 27
0.0
 37
0.0
 40
595.2504888384011
 41
1.936139332365747
 42
50.0
 43
0.0
 44
0.0
 50
0.0
 51
0.0
 71
     0
 72
   100
 73
     1
 74
     1
 75
     0
 76
     0
 77
     0
 78
     0
281
     0
 65
     1
110
0.0
120
0.0
130
0.0
111
1.0
121
0.0
131
0.0
112
0.0
122
1.0
132
0.0
 79
     0
146
0.0
  0
ENDTAB
  0
TABLE
  2
LTYPE
  5
5
330
0
100
AcDbSymbolTable
 70
     5
  0
LTYPE
  5
5A
330
5
100
AcDbSymbolTableRecord
100
AcDbLinetypeTableRecord
  2
ByBlock
 70
     0
  3

 72
    65
 73
     0
 40
0.0
  0
LTYPE
  5
5B
330
5
100
AcDbSymbolTableRecord
100
AcDbLinetypeTableRecord
  2
ByLayer
 70
     0
  3

 72
    65
 73
     0
 40
0.0
  0
LTYPE
  5
5C
330
5
100
AcDbSymbolTableRecord
100
AcDbLinetypeTableRecord
  2
CONTINUOUS
 70
     0
  3
Solid-line
 72
    65
 73
     0
 40
0.0
  0
LTYPE
  5
72
330
5
100
AcDbSymbolTableRecord
100
AcDbLinetypeTableRecord
  2
CENTER
 70
     0
  3
CENTER
 72
    65
 73
     4
 40
2.0
 49
1.25
 74
     0
 49
-0.25
 74
     0
 49
0.25
 74
     0
 49
-0.25
 74
     0
  0
LTYPE
  5
81
330
5
100
AcDbSymbolTableRecord
100
AcDbLinetypeTableRecord
  2
HIDDEN
 70
     0
  3
HIDDEN
 72
    65
 73
     2
 40
0.375
 49
0.25
 74
     0
 49
-0.125
 74
     0
  0
LTYPE
  5
84
330
5
100
AcDbSymbolTableRecord
100
AcDbLinetypeTableRecord
  2
PHANTOM
 70
     0
  3
PHANTOM
 72
    65
 73
     6
 40
2.5
 49
1.25
 74
     0
 49
-0.25
 74
     0
 49
0.25
 74
     0
 49
-0.25
 74
     0
 49
0.25
 74
     0
 49
-0.25
 74
     0
  0
ENDTAB
  0
TABLE
  2
LAYER
  5
2
102
{ACAD_XDICTIONARY
360
34D
102
}
330
0
100
AcDbSymbolTable
 70
     2
  0
LAYER
  5
54
102
{ACAD_XDICTIONARY
360
A3D
102
}
330
2
100
AcDbSymbolTableRecord
100
AcDbLayerTableRecord
  2
0
 70
     0
 62
     7
  6
CONTINUOUS
370
    -3
390
F
  0
LAYER
  5
347
330
2
100
AcDbSymbolTableRecord
100
AcDbLayerTableRecord
  2
Defpoints
 70
     0
 62
     7
  6
CONTINUOUS
290
     0
370
    -3
390
F
  0
ENDTAB
  0
TABLE
  2
STYLE
  5
3
330
0
100
AcDbSymbolTable
 70
     5
  0
STYLE
  5
55
330
3
100
AcDbSymbolTableRecord
100
AcDbTextStyleTableRecord
  2
STANDARD
 70
     0
 40
0.0
 41
1.0
 50
0.0
 71
     0
 42
0.2
  3
TXT
  4
BIGFONT
  0
STYLE
  5
348
330
3
100
AcDbSymbolTableRecord
100
AcDbTextStyleTableRecord
  2
高3.2
 70
     0
 40
3.2
 41
1.0
 50
0.0
 71
     0
 42
3.2
  3
txt.shx
  4
bigfont.shx
  0
STYLE
  5
349
330
3
100
AcDbSymbolTableRecord
100
AcDbTextStyleTableRecord
  2
高6.3
 70
     0
 40
6.299999999999998
 41
1.0
 50
0.0
 71
     0
 42
6.299999999999998
  3
txt.shx
  4
bigfont.shx
  0
STYLE
  5
713
330
3
100
AcDbSymbolTableRecord
100
AcDbTextStyleTableRecord
  2
高4.5
 70
     0
 40
4.5
 41
1.0
 50
0.0
 71
     0
 42
6.299999999999998
  3
txt.shx
  4
bigfont.shx
  0
STYLE
  5
714
330
3
100
AcDbSymbolTableRecord
100
AcDbTextStyleTableRecord
  2
高2
 70
     0
 40
2.0
 41
1.0
 50
0.0
 71
     0
 42
2.0
  3
txt.shx
  4
bigfont.shx
  0
ENDTAB
  0
TABLE
  2
VIEW
  5
6
330
0
100
AcDbSymbolTable
 70
     0
  0
ENDTAB
  0
TABLE
  2
UCS
  5
7
330
0
100
AcDbSymbolTable
 70
     0
  0
ENDTAB
  0
TABLE
  2
APPID
  5
9
330
0
100
AcDbSymbolTable
 70
    11
  0
APPID
  5
56
330
9
100
AcDbSymbolTableRecord
100
AcDbRegAppTableRecord
  2
ACAD
 70
     0
  0
APPID
  5
5D
330
9
100
AcDbSymbolTableRecord
100
AcDbRegAppTableRecord
  2
AcadAnnotative
 70
     0
  0
APPID
  5
34B
330
9
100
AcDbSymbolTableRecord
100
AcDbRegAppTableRecord
  2
ACAD_DSTYLE_DIMJOGGED_JOGANGLE_SYMBOL
 70
     0
  0
APPID
  5
34C
330
9
100
AcDbSymbolTableRecord
100
AcDbRegAppTableRecord
  2
ACAD_PSEXT
 70
     0
  0
APPID
  5
71E
330
9
100
AcDbSymbolTableRecord
100
AcDbRegAppTableRecord
  2
ACAD_DSTYLE_DIMJAG
 70
     0
  0
APPID
  5
71F
330
9
100
AcDbSymbolTableRecord
100
AcDbRegAppTableRecord
  2
ACAD_DSTYLE_DIMBREAK
 70
     0
  0
APPID
  5
720
330
9
100
AcDbSymbolTableRecord
100
AcDbRegAppTableRecord
  2
ACAD_DSTYLE_DIMTALN
 70
     0
  0
APPID
  5
94B
330
9
100
AcDbSymbolTableRecord
100
AcDbRegAppTableRecord
  2
ACAD_EXEMPT_FROM_CAD_STANDARDS
 70
     0
  0
APPID
  5
A83
330
9
100
AcDbSymbolTableRecord
100
AcDbRegAppTableRecord
  2
ACAD_MLEADERVER
 70
     0
  0
APPID
  5
A88
330
9
100
AcDbSymbolTableRecord
100
AcDbRegAppTableRecord
  2
ACAD_DSTYLE_DIMARC_LENGTH_SYMBOL
 70
     0
  0
APPID
  5
A89
330
9
100
AcDbSymbolTableRecord
100
AcDbRegAppTableRecord
  2
ACAD_DSTYLE_DIMEXT_LENGTH
 70
     0
  0
ENDTAB
  0
TABLE
  2
DIMSTYLE
  5
A
330
0
100
AcDbSymbolTable
 70
     2
100
AcDbDimStyleTable
 71
     1
340
34A
  0
DIMSTYLE
105
57
330
A
100
AcDbSymbolTableRecord
100
AcDbDimStyleTableRecord
  2
Standard
 70
     0
340
55
  0
DIMSTYLE
105
34A
330
A
100
AcDbSymbolTableRecord
100
AcDbDimStyleTableRecord
  2
1：1
 70
     0
 41
2.5
 42
0.25
 43
0.2
 44
1.25
 73
     0
 74
     0
 77
     3
 78
     8
 79
     2
140
3.0
141
0.0
143
0.03937007874016
147
0.625
171
     3
172
     1
178
     4
179
     1
271
     2
272
     2
274
     3
283
     0
284
     8
288
     1
289
     0
340
55
341
329
342
329
1001
ACAD_DSTYLE_DIMARC_LENGTH_SYMBOL
1070
   379
1070
     2
1001
ACAD_DSTYLE_DIMEXT_LENGTH
1070
   378
1040
1.25
1001
ACAD_DSTYLE_DIMJOGGED_JOGANGLE_SYMBOL
1070
   384
1040
1.570796326794896
  0
ENDTAB
  0
TABLE
  2
BLOCK_RECORD
  5
1
330
0
100
AcDbSymbolTable
 70
    12
  0
BLOCK_RECORD
  5
6B
102
{ACAD_XDICTIONARY
360
8D3
102
}
330
1
100
AcDbSymbolTableRecord
100
AcDbBlockTableRecord
  2
*Model_Space
340
6E
  0
BLOCK_RECORD
  5
67
330
1
100
AcDbSymbolTableRecord
100
AcDbBlockTableRecord
  2
*Paper_Space
340
6A
  0
BLOCK_RECORD
  5
329
330
1
100
AcDbSymbolTableRecord
100
AcDbBlockTableRecord
  2
_Open30
340
0
102
{BLKREFS
331
D89
331
D8A
331
D92
331
D93
331
D9B
331
D9C
331
DA4
331
DA5
331
DAD
331
DAE
331
DB6
331
DB7
331
DBF
331
DC0
331
DC8
331
DC9
331
DD1
331
DD2
331
DDA
331
DDB
331
DE3
331
DE4
102
}
  0
BLOCK_RECORD
  5
3AD
330
1
100
AcDbSymbolTableRecord
100
AcDbBlockTableRecord
  2
*D1
340
0
  0
BLOCK_RECORD
  5
3B9
330
1
100
AcDbSymbolTableRecord
100
AcDbBlockTableRecord
  2
*D2
340
0
  0
BLOCK_RECORD
  5
8DD
330
1
100
AcDbSymbolTableRecord
100
AcDbBlockTableRecord
  2
*D3
340
0
  0
BLOCK_RECORD
  5
8EA
330
1
100
AcDbSymbolTableRecord
100
AcDbBlockTableRecord
  2
*D4
340
0
  0
BLOCK_RECORD
  5
900
330
1
100
AcDbSymbolTableRecord
100
AcDbBlockTableRecord
  2
*D5
340
0
  0
BLOCK_RECORD
  5
90D
330
1
100
AcDbSymbolTableRecord
100
AcDbBlockTableRecord
  2
*D6
340
0
  0
BLOCK_RECORD
  5
91A
330
1
100
AcDbSymbolTableRecord
100
AcDbBlockTableRecord
  2
*D7
340
0
  0
BLOCK_RECORD
  5
927
330
1
100
AcDbSymbolTableRecord
100
AcDbBlockTableRecord
  2
*D8
340
0
  0
BLOCK_RECORD
  5
953
330
1
100
AcDbSymbolTableRecord
100
AcDbBlockTableRecord
  2
*D9
340
0
  0
BLOCK_RECORD
  5
960
330
1
100
AcDbSymbolTableRecord
100
AcDbBlockTableRecord
  2
*D10
340
0
  0
BLOCK_RECORD
  5
976
330
1
100
AcDbSymbolTableRecord
100
AcDbBlockTableRecord
  2
*D11
340
0
  0
ENDTAB
  0
ENDSEC
  0
SECTION
  2
BLOCKS
  0
BLOCK
  5
6C
330
6B
100
AcDbEntity
  8
0
100
AcDbBlockBegin
  2
*Model_Space
 70
     0
 10
0.0
 20
0.0
 30
0.0
  3
*Model_Space
  1

  0
ENDBLK
  5
6D
330
6B
100
AcDbEntity
  8
0
100
AcDbBlockEnd
  0
BLOCK
  5
68
330
67
100
AcDbEntity
 67
     1
  8
0
100
AcDbBlockBegin
  2
*Paper_Space
 70
     0
 10
0.0
 20
0.0
 30
0.0
  3
*Paper_Space
  1

  0
ENDBLK
  5
69
330
67
100
AcDbEntity
 67
     1
  8
0
100
AcDbBlockEnd
  0
BLOCK
  5
32A
330
329
100
AcDbEntity
  8
0
100
AcDbBlockBegin
  2
_Open30
 70
     0
 10
0.0
 20
0.0
 30
0.0
  3
_Open30
  1

  0
LINE
  5
32B
330
329
100
AcDbEntity
  8
0
  6
ByBlock
 62
     0
370
    -2
100
AcDbLine
 10
-1.0
 20
0.267949
 30
0.0
 11
0.0
 21
0.0
 31
0.0
  0
LINE
  5
32C
330
329
100
AcDbEntity
  8
0
  6
ByBlock
 62
     0
370
    -2
100
AcDbLine
 10
0.0
 20
0.0
 30
0.0
 11
-1.0
 21
-0.267949
 31
0.0
  0
LINE
  5
32D
330
329
100
AcDbEntity
  8
0
  6
ByBlock
 62
     0
370
    -2
100
AcDbLine
 10
0.0
 20
0.0
 30
0.0
 11
-1.0
 21
0.0
 31
0.0
  0
ENDBLK
  5
32E
330
329
100
AcDbEntity
  8
0
100
AcDbBlockEnd
  0
BLOCK
  5
3AE
330
3AD
100
AcDbEntity
  8
0
100
AcDbBlockBegin
  2
*D1
 70
     1
 10
0.0
 20
0.0
 30
0.0
  3
*D1
  1

  0
LINE
  5
D86
330
3AD
100
AcDbEntity
  8
0
  6
Continuous
 62
     0
370
    -2
100
AcDbLine
 10
138.0069901055955
 20
-326.8866716199521
 30
0.0
 11
138.0069901055955
 21
-314.0279681920853
 31
0.0
  0
LINE
  5
D87
330
3AD
100
AcDbEntity
  8
0
  6
Continuous
 62
     0
370
    -2
100
AcDbLine
 10
178.0069901055953
 20
-326.8866716199521
 30
0.0
 11
178.0069901055953
 21
-314.0279681920853
 31
0.0
  0
LINE
  5
D88
330
3AD
100
AcDbEntity
  8
0
  6
Continuous
 62
     0
370
    -2
100
AcDbLine
 10
140.5069901055955
 20
-315.2779681920853
 30
0.0
 11
175.5069901055953
 21
-315.2779681920853
 31
0.0
  0
INSERT
  5
D89
330
3AD
100
AcDbEntity
  8
0
  6
Continuous
 62
     0
370
    -2
100
AcDbBlockReference
  2
_Open30
 10
138.0069901055955
 20
-315.2779681920853
 30
0.0
 41
2.5
 42
2.5
 43
2.5
 50
180.0
  0
INSERT
  5
D8A
330
3AD
100
AcDbEntity
  8
0
  6
Continuous
 62
     0
370
    -2
100
AcDbBlockReference
  2
_Open30
 10
178.0069901055953
 20
-315.2779681920853
 30
0.0
 41
2.5
 42
2.5
 43
2.5
  0
MTEXT
  5
D8B
330
3AD
100
AcDbEntity
  8
0
  6
Continuous
 62
     4
100
AcDbMText
 10
159.1607510281142
 20
-313.1529681920853
 30
0.0
 40
3.0
 41
0.0
 71
     5
 72
     1
  1
40
 73
     1
 44
1.0
1001
ACAD
1000
MTEXTBEGIN
1070
    73
1070
     1
1070
    44
1040
1.0
1070
    74
1070
     0
1000
MTEXTEND
  0
POINT
  5
D8C
330
3AD
100
AcDbEntity
  8
Defpoints
  6
Continuous
 62
     0
100
AcDbPoint
 10
138.0069901055955
 20
-327.1366716199521
 30
0.0
  0
POINT
  5
D8D
330
3AD
100
AcDbEntity
  8
Defpoints
  6
Continuous
 62
     0
100
AcDbPoint
 10
178.0069901055953
 20
-327.1366716199521
 30
0.0
  0
POINT
  5
D8E
330
3AD
100
AcDbEntity
  8
Defpoints
  6
Continuous
 62
     0
100
AcDbPoint
 10
178.0069901055953
 20
-315.2779681920853
 30
0.0
  0
ENDBLK
  5
3AF
330
3AD
100
AcDbEntity
  8
0
100
AcDbBlockEnd
  0
BLOCK
  5
3BA
330
3B9
100
AcDbEntity
  8
0
100
AcDbBlockBegin
  2
*D2
 70
     1
 10
0.0
 20
0.0
 30
0.0
  3
*D2
  1

  0
LINE
  5
D8F
330
3B9
100
AcDbEntity
  8
0
  6
Continuous
 62
     0
370
    -2
100
AcDbLine
 10
149.7569906718396
 20
-336.5603741715661
 30
0.0
 11
129.3199859358605
 21
-336.5603741715661
 31
0.0
  0
LINE
  5
D90
330
3B9
100
AcDbEntity
  8
0
  6
Continuous
 62
     0
370
    -2
100
AcDbLine
 10
158.8768318919899
 20
-321.5635019626585
 30
0.0
 11
129.3199859358605
 21
-321.5635019626585
 31
0.0
  0
LINE
  5
D91
330
3B9
100
AcDbEntity
  8
0
  6
Continuous
 62
     0
370
    -2
100
AcDbLine
 10
130.5699859358605
 20
-334.0603741715661
 30
0.0
 11
130.5699859358605
 21
-324.0635019626585
 31
0.0
  0
INSERT
  5
D92
330
3B9
100
AcDbEntity
  8
0
  6
Continuous
 62
     0
370
    -2
100
AcDbBlockReference
  2
_Open30
 10
130.5699859358605
 20
-336.5603741715661
 30
0.0
 41
2.5
 42
2.5
 43
2.5
 50
270.0
  0
INSERT
  5
D93
330
3B9
100
AcDbEntity
  8
0
  6
Continuous
 62
     0
370
    -2
100
AcDbBlockReference
  2
_Open30
 10
130.5699859358605
 20
-321.5635019626585
 30
0.0
 41
2.5
 42
2.5
 43
2.5
 50
90.0
  0
MTEXT
  5
D94
330
3B9
100
AcDbEntity
  8
0
  6
Continuous
 62
     4
100
AcDbMText
 10
128.4449859358606
 20
-328.893381315749
 30
0.0
 40
3.0
 41
0.0
 71
     5
 72
     1
  1
15
 11
0.0000000000000001
 21
1.0
 31
0.0
 73
     1
 44
1.0
1001
ACAD
1000
MTEXTBEGIN
1070
    73
1070
     1
1070
    44
1040
1.0
1070
    74
1070
     0
1000
MTEXTEND
  0
POINT
  5
D95
330
3B9
100
AcDbEntity
  8
Defpoints
  6
Continuous
 62
     0
100
AcDbPoint
 10
150.0069906718396
 20
-336.5603741715661
 30
0.0
  0
POINT
  5
D96
330
3B9
100
AcDbEntity
  8
Defpoints
  6
Continuous
 62
     0
100
AcDbPoint
 10
159.1268318919899
 20
-321.5635019626585
 30
0.0
  0
POINT
  5
D97
330
3B9
100
AcDbEntity
  8
Defpoints
  6
Continuous
 62
     0
100
AcDbPoint
 10
130.5699859358605
 20
-321.5635019626585
 30
0.0
  0
ENDBLK
  5
3BB
330
3B9
100
AcDbEntity
  8
0
100
AcDbBlockEnd
  0
BLOCK
  5
8DE
330
8DD
100
AcDbEntity
  8
0
100
AcDbBlockBegin
  2
*D3
 70
     1
 10
0.0
 20
0.0
 30
0.0
  3
*D3
  1

  0
LINE
  5
D98
330
8DD
100
AcDbEntity
  8
0
  6
Continuous
 62
     0
370
    -2
100
AcDbLine
 10
-82.8756233711601
 20
-280.1337421977775
 30
0.0
 11
-82.8756233711601
 21
-241.9299831142525
 31
0.0
  0
LINE
  5
D99
330
8DD
100
AcDbEntity
  8
0
  6
Continuous
 62
     0
370
    -2
100
AcDbLine
 10
-110.8756223727823
 20
-280.1337421977775
 30
0.0
 11
-110.8756223727823
 21
-241.9299831142525
 31
0.0
  0
LINE
  5
D9A
330
8DD
100
AcDbEntity
  8
0
  6
Continuous
 62
     0
370
    -2
100
AcDbLine
 10
-85.3756233711601
 20
-243.1799831142525
 30
0.0
 11
-108.3756223727823
 21
-243.1799831142525
 31
0.0
  0
INSERT
  5
D9B
330
8DD
100
AcDbEntity
  8
0
  6
Continuous
 62
     0
370
    -2
100
AcDbBlockReference
  2
_Open30
 10
-82.8756233711601
 20
-243.1799831142525
 30
0.0
 41
2.5
 42
2.5
 43
2.5
  0
INSERT
  5
D9C
330
8DD
100
AcDbEntity
  8
0
  6
Continuous
 62
     0
370
    -2
100
AcDbBlockReference
  2
_Open30
 10
-110.8756223727823
 20
-243.1799831142525
 30
0.0
 41
2.5
 42
2.5
 43
2.5
 50
180.0
  0
MTEXT
  5
D9D
330
8DD
100
AcDbEntity
  8
0
  6
Continuous
 62
     4
100
AcDbMText
 10
-95.94780279654651
 20
-241.0549831142525
 30
0.0
 40
3.0
 41
0.0
 71
     5
 72
     1
  1
28
 73
     1
 44
1.0
1001
ACAD
1000
MTEXTBEGIN
1070
    73
1070
     1
1070
    44
1040
1.0
1070
    74
1070
     0
1000
MTEXTEND
  0
POINT
  5
D9E
330
8DD
100
AcDbEntity
  8
Defpoints
  6
Continuous
 62
     0
100
AcDbPoint
 10
-82.8756233711601
 20
-280.3837421977775
 30
0.0
  0
POINT
  5
D9F
330
8DD
100
AcDbEntity
  8
Defpoints
  6
Continuous
 62
     0
100
AcDbPoint
 10
-110.8756223727823
 20
-280.3837421977775
 30
0.0
  0
POINT
  5
DA0
330
8DD
100
AcDbEntity
  8
Defpoints
  6
Continuous
 62
     0
100
AcDbPoint
 10
-110.8756223727823
 20
-243.1799831142525
 30
0.0
  0
ENDBLK
  5
8DF
330
8DD
100
AcDbEntity
  8
0
100
AcDbBlockEnd
  0
BLOCK
  5
8EB
330
8EA
100
AcDbEntity
  8
0
100
AcDbBlockBegin
  2
*D4
 70
     1
 10
0.0
 20
0.0
 30
0.0
  3
*D4
  1

  0
LINE
  5
DA1
330
8EA
100
AcDbEntity
  8
0
  6
Continuous
 62
     0
370
    -2
100
AcDbLine
 10
-106.8756235797763
 20
-261.1337372207896
 30
0.0
 11
-106.8756235797763
 21
-249.7089734361528
 31
0.0
  0
LINE
  5
DA2
330
8EA
100
AcDbEntity
  8
0
  6
Continuous
 62
     0
370
    -2
100
AcDbLine
 10
-86.87562321190393
 20
-261.1337372207896
 30
0.0
 11
-86.87562321190393
 21
-249.7089734361528
 31
0.0
  0
LINE
  5
DA3
330
8EA
100
AcDbEntity
  8
0
  6
Continuous
 62
     0
370
    -2
100
AcDbLine
 10
-104.3756235797763
 20
-250.9589734361528
 30
0.0
 11
-89.37562321190393
 21
-250.9589734361528
 31
0.0
  0
INSERT
  5
DA4
330
8EA
100
AcDbEntity
  8
0
  6
Continuous
 62
     0
370
    -2
100
AcDbBlockReference
  2
_Open30
 10
-106.8756235797763
 20
-250.9589734361528
 30
0.0
 41
2.5
 42
2.5
 43
2.5
 50
180.0
  0
INSERT
  5
DA5
330
8EA
100
AcDbEntity
  8
0
  6
Continuous
 62
     0
370
    -2
100
AcDbBlockReference
  2
_Open30
 10
-86.87562321190393
 20
-250.9589734361528
 30
0.0
 41
2.5
 42
2.5
 43
2.5
  0
MTEXT
  5
DA6
330
8EA
100
AcDbEntity
  8
0
  6
Continuous
 62
     4
100
AcDbMText
 10
-96.46674614291534
 20
-248.8339734361528
 30
0.0
 40
3.0
 41
0.0
 71
     5
 72
     1
  1
%%C20
 73
     1
 44
1.0
1001
ACAD
1000
MTEXTBEGIN
1070
    73
1070
     1
1070
    44
1040
1.0
1070
    74
1070
     0
1000
MTEXTEND
  0
POINT
  5
DA7
330
8EA
100
AcDbEntity
  8
Defpoints
  6
Continuous
 62
     0
100
AcDbPoint
 10
-106.8756235797763
 20
-261.3837372207896
 30
0.0
  0
POINT
  5
DA8
330
8EA
100
AcDbEntity
  8
Defpoints
  6
Continuous
 62
     0
100
AcDbPoint
 10
-86.87562321190393
 20
-261.3837372207896
 30
0.0
  0
POINT
  5
DA9
330
8EA
100
AcDbEntity
  8
Defpoints
  6
Continuous
 62
     0
100
AcDbPoint
 10
-86.87562321190393
 20
-250.9589734361528
 30
0.0
  0
ENDBLK
  5
8EC
330
8EA
100
AcDbEntity
  8
0
100
AcDbBlockEnd
  0
BLOCK
  5
901
330
900
100
AcDbEntity
  8
0
100
AcDbBlockBegin
  2
*D5
 70
     1
 10
0.0
 20
0.0
 30
0.0
  3
*D5
  1

  0
LINE
  5
DAA
330
900
100
AcDbEntity
  8
0
  6
Continuous
 62
     0
370
    -2
100
AcDbLine
 10
7.071985459127859
 20
-254.7120305413446
 30
0.0
 11
7.071985459127859
 21
-250.1830023517937
 31
0.0
  0
LINE
  5
DAB
330
900
100
AcDbEntity
  8
0
  6
Continuous
 62
     0
370
    -2
100
AcDbLine
 10
76.57198545912648
 20
-315.6337407117528
 30
0.0
 11
76.57198545912648
 21
-250.1830023517937
 31
0.0
  0
LINE
  5
DAC
330
900
100
AcDbEntity
  8
0
  6
Continuous
 62
     0
370
    -2
100
AcDbLine
 10
9.571985459127859
 20
-251.4330023517937
 30
0.0
 11
74.07198545912648
 21
-251.4330023517937
 31
0.0
  0
INSERT
  5
DAD
330
900
100
AcDbEntity
  8
0
  6
Continuous
 62
     0
370
    -2
100
AcDbBlockReference
  2
_Open30
 10
7.071985459127859
 20
-251.4330023517937
 30
0.0
 41
2.5
 42
2.5
 43
2.5
 50
180.0
  0
INSERT
  5
DAE
330
900
100
AcDbEntity
  8
0
  6
Continuous
 62
     0
370
    -2
100
AcDbBlockReference
  2
_Open30
 10
76.57198545912648
 20
-251.4330023517937
 30
0.0
 41
2.5
 42
2.5
 43
2.5
  0
MTEXT
  5
DAF
330
900
100
AcDbEntity
  8
0
  6
Continuous
 62
     4
100
AcDbMText
 10
39.38921723592193
 20
-249.3080023517937
 30
0.0
 40
3.0
 41
0.0
 71
     5
 72
     1
  1
69.5
 73
     1
 44
1.0
1001
ACAD
1000
MTEXTBEGIN
1070
    73
1070
     1
1070
    44
1040
1.0
1070
    74
1070
     0
1000
MTEXTEND
  0
POINT
  5
DB0
330
900
100
AcDbEntity
  8
Defpoints
  6
Continuous
 62
     0
100
AcDbPoint
 10
7.071985459127859
 20
-254.9620305413446
 30
0.0
  0
POINT
  5
DB1
330
900
100
AcDbEntity
  8
Defpoints
  6
Continuous
 62
     0
100
AcDbPoint
 10
76.57198545912648
 20
-315.8837407117528
 30
0.0
  0
POINT
  5
DB2
330
900
100
AcDbEntity
  8
Defpoints
  6
Continuous
 62
     0
100
AcDbPoint
 10
76.57198545912648
 20
-251.4330023517937
 30
0.0
  0
ENDBLK
  5
902
330
900
100
AcDbEntity
  8
0
100
AcDbBlockEnd
  0
BLOCK
  5
90E
330
90D
100
AcDbEntity
  8
0
100
AcDbBlockBegin
  2
*D6
 70
     1
 10
0.0
 20
0.0
 30
0.0
  3
*D6
  1

  0
LINE
  5
DB3
330
90D
100
AcDbEntity
  8
0
  6
Continuous
 62
     0
370
    -2
100
AcDbLine
 10
76.57198545912648
 20
-315.3837407117528
 30
0.0
 11
76.57198545912648
 21
-244.3070874506657
 31
0.0
  0
LINE
  5
DB4
330
90D
100
AcDbEntity
  8
0
  6
Continuous
 62
     0
370
    -2
100
AcDbLine
 10
-10.92801376601176
 20
-316.1337406480567
 30
0.0
 11
-10.92801376601175
 21
-244.3070874506657
 31
0.0
  0
LINE
  5
DB5
330
90D
100
AcDbEntity
  8
0
  6
Continuous
 62
     0
370
    -2
100
AcDbLine
 10
74.07198545912648
 20
-245.5570874506657
 30
0.0
 11
-8.428013766011757
 21
-245.5570874506657
 31
0.0
  0
INSERT
  5
DB6
330
90D
100
AcDbEntity
  8
0
  6
Continuous
 62
     0
370
    -2
100
AcDbBlockReference
  2
_Open30
 10
76.57198545912648
 20
-245.5570874506657
 30
0.0
 41
2.5
 42
2.5
 43
2.5
  0
INSERT
  5
DB7
330
90D
100
AcDbEntity
  8
0
  6
Continuous
 62
     0
370
    -2
100
AcDbBlockReference
  2
_Open30
 10
-10.92801376601175
 20
-245.5570874506657
 30
0.0
 41
2.5
 42
2.5
 43
2.5
 50
180.0
  0
MTEXT
  5
DB8
330
90D
100
AcDbEntity
  8
0
  6
Continuous
 62
     4
100
AcDbMText
 10
29.1415555497947
 20
-243.4320874506657
 30
0.0
 40
3.0
 41
0.0
 71
     5
 72
     1
  1
87.5
 73
     1
 44
1.0
1001
ACAD
1000
MTEXTBEGIN
1070
    73
1070
     1
1070
    44
1040
1.0
1070
    74
1070
     0
1000
MTEXTEND
  0
POINT
  5
DB9
330
90D
100
AcDbEntity
  8
Defpoints
  6
Continuous
 62
     0
100
AcDbPoint
 10
76.57198545912648
 20
-315.6337407117528
 30
0.0
  0
POINT
  5
DBA
330
90D
100
AcDbEntity
  8
Defpoints
  6
Continuous
 62
     0
100
AcDbPoint
 10
-10.92801376601176
 20
-316.3837406480567
 30
0.0
  0
POINT
  5
DBB
330
90D
100
AcDbEntity
  8
Defpoints
  6
Continuous
 62
     0
100
AcDbPoint
 10
-10.92801376601175
 20
-245.5570874506657
 30
0.0
  0
ENDBLK
  5
90F
330
90D
100
AcDbEntity
  8
0
100
AcDbBlockEnd
  0
BLOCK
  5
91B
330
91A
100
AcDbEntity
  8
0
100
AcDbBlockBegin
  2
*D7
 70
     1
 10
0.0
 20
0.0
 30
0.0
  3
*D7
  1

  0
LINE
  5
DBC
330
91A
100
AcDbEntity
  8
0
  6
Continuous
 62
     0
370
    -2
100
AcDbLine
 10
-107.1256235797763
 20
-261.3837372207896
 30
0.0
 11
-132.1857119933675
 21
-261.3837372207896
 31
0.0
  0
LINE
  5
DBD
330
91A
100
AcDbEntity
  8
0
  6
Continuous
 62
     0
370
    -2
100
AcDbLine
 10
-105.4140706171155
 20
-458.3837415719287
 30
0.0
 11
-132.1857119933676
 21
-458.3837415719286
 31
0.0
  0
LINE
  5
DBE
330
91A
100
AcDbEntity
  8
0
  6
Continuous
 62
     0
370
    -2
100
AcDbLine
 10
-130.9357119933675
 20
-263.8837372207896
 30
0.0
 11
-130.9357119933676
 21
-455.8837415719287
 31
0.0
  0
INSERT
  5
DBF
330
91A
100
AcDbEntity
  8
0
  6
Continuous
 62
     0
370
    -2
100
AcDbBlockReference
  2
_Open30
 10
-130.9357119933675
 20
-261.3837372207896
 30
0.0
 41
2.5
 42
2.5
 43
2.5
 50
90.0
  0
INSERT
  5
DC0
330
91A
100
AcDbEntity
  8
0
  6
Continuous
 62
     0
370
    -2
100
AcDbBlockReference
  2
_Open30
 10
-130.9357119933676
 20
-458.3837415719286
 30
0.0
 41
2.5
 42
2.5
 43
2.5
 50
270.0
  0
MTEXT
  5
DC1
330
91A
100
AcDbEntity
  8
0
  6
Continuous
 62
     4
100
AcDbMText
 10
-133.0607119933675
 20
-364.4782221984621
 30
0.0
 40
3.0
 41
0.0
 71
     5
 72
     1
  1
197
 11
0.0000000000000001
 21
1.0
 31
0.0
 73
     1
 44
1.0
1001
ACAD
1000
MTEXTBEGIN
1070
    73
1070
     1
1070
    44
1040
1.0
1070
    74
1070
     0
1000
MTEXTEND
  0
POINT
  5
DC2
330
91A
100
AcDbEntity
  8
Defpoints
  6
Continuous
 62
     0
100
AcDbPoint
 10
-106.8756235797763
 20
-261.3837372207896
 30
0.0
  0
POINT
  5
DC3
330
91A
100
AcDbEntity
  8
Defpoints
  6
Continuous
 62
     0
100
AcDbPoint
 10
-105.1640706171155
 20
-458.3837415719287
 30
0.0
  0
POINT
  5
DC4
330
91A
100
AcDbEntity
  8
Defpoints
  6
Continuous
 62
     0
100
AcDbPoint
 10
-130.9357119933676
 20
-458.3837415719286
 30
0.0
  0
ENDBLK
  5
91C
330
91A
100
AcDbEntity
  8
0
100
AcDbBlockEnd
  0
BLOCK
  5
928
330
927
100
AcDbEntity
  8
0
100
AcDbBlockBegin
  2
*D8
 70
     1
 10
0.0
 20
0.0
 30
0.0
  3
*D8
  1

  0
LINE
  5
DC5
330
927
100
AcDbEntity
  8
0
  6
Continuous
 62
     0
370
    -2
100
AcDbLine
 10
-101.313743409404
 20
-473.3837407117515
 30
0.0
 11
-139.9270323417232
 21
-473.3837407117514
 31
0.0
  0
LINE
  5
DC6
330
927
100
AcDbEntity
  8
0
  6
Continuous
 62
     0
370
    -2
100
AcDbLine
 10
-107.1256235797763
 20
-261.3837372207896
 30
0.0
 11
-139.9270323417231
 21
-261.3837372207896
 31
0.0
  0
LINE
  5
DC7
330
927
100
AcDbEntity
  8
0
  6
Continuous
 62
     0
370
    -2
100
AcDbLine
 10
-138.6770323417232
 20
-470.8837407117514
 30
0.0
 11
-138.6770323417231
 21
-263.8837372207896
 31
0.0
  0
INSERT
  5
DC8
330
927
100
AcDbEntity
  8
0
  6
Continuous
 62
     0
370
    -2
100
AcDbBlockReference
  2
_Open30
 10
-138.6770323417232
 20
-473.3837407117514
 30
0.0
 41
2.5
 42
2.5
 43
2.5
 50
270.0
  0
INSERT
  5
DC9
330
927
100
AcDbEntity
  8
0
  6
Continuous
 62
     0
370
    -2
100
AcDbBlockReference
  2
_Open30
 10
-138.6770323417231
 20
-261.3837372207896
 30
0.0
 41
2.5
 42
2.5
 43
2.5
 50
90.0
  0
MTEXT
  5
DCA
330
927
100
AcDbEntity
  8
0
  6
Continuous
 62
     4
100
AcDbMText
 10
-140.8020323417231
 20
-356.5891553904432
 30
0.0
 40
3.0
 41
0.0
 71
     5
 72
     1
  1
212～307
 11
0.0000000000000001
 21
1.0
 31
0.0
 73
     1
 44
1.0
1001
ACAD
1000
MTEXTBEGIN
1070
    73
1070
     1
1070
    44
1040
1.0
1070
    74
1070
     0
1000
MTEXTEND
  0
POINT
  5
DCB
330
927
100
AcDbEntity
  8
Defpoints
  6
Continuous
 62
     0
100
AcDbPoint
 10
-101.063743409404
 20
-473.3837407117515
 30
0.0
  0
POINT
  5
DCC
330
927
100
AcDbEntity
  8
Defpoints
  6
Continuous
 62
     0
100
AcDbPoint
 10
-106.8756235797763
 20
-261.3837372207896
 30
0.0
  0
POINT
  5
DCD
330
927
100
AcDbEntity
  8
Defpoints
  6
Continuous
 62
     0
100
AcDbPoint
 10
-138.6770323417231
 20
-261.3837372207896
 30
0.0
  0
ENDBLK
  5
929
330
927
100
AcDbEntity
  8
0
100
AcDbBlockEnd
  0
BLOCK
  5
954
330
953
100
AcDbEntity
  8
0
100
AcDbBlockBegin
  2
*D9
 70
     1
 10
0.0
 20
0.0
 30
0.0
  3
*D9
  1

  0
LINE
  5
DCE
330
953
100
AcDbEntity
  8
0
  6
Continuous
 62
     0
370
    -2
100
AcDbLine
 10
-3.178014317354723
 20
-261.3837372207896
 30
0.0
 11
-28.13382616365383
 21
-261.3837372207896
 31
0.0
  0
LINE
  5
DCF
330
953
100
AcDbEntity
  8
0
  6
Continuous
 62
     0
370
    -2
100
AcDbLine
 10
-7.178014973005815
 20
-279.3837438965098
 30
0.0
 11
-28.13382616365383
 21
-279.3837438965098
 31
0.0
  0
LINE
  5
DD0
330
953
100
AcDbEntity
  8
0
  6
Continuous
 62
     0
370
    -2
100
AcDbLine
 10
-26.88382616365383
 20
-263.8837372207896
 30
0.0
 11
-26.88382616365383
 21
-276.8837438965098
 31
0.0
  0
INSERT
  5
DD1
330
953
100
AcDbEntity
  8
0
  6
Continuous
 62
     0
370
    -2
100
AcDbBlockReference
  2
_Open30
 10
-26.88382616365383
 20
-261.3837372207896
 30
0.0
 41
2.5
 42
2.5
 43
2.5
 50
90.0
  0
INSERT
  5
DD2
330
953
100
AcDbEntity
  8
0
  6
Continuous
 62
     0
370
    -2
100
AcDbBlockReference
  2
_Open30
 10
-26.88382616365383
 20
-279.3837438965098
 30
0.0
 41
2.5
 42
2.5
 43
2.5
 50
270.0
  0
MTEXT
  5
DD3
330
953
100
AcDbEntity
  8
0
  6
Continuous
 62
     4
100
AcDbMText
 10
-29.00882616365379
 20
-270.7592196229075
 30
0.0
 40
3.0
 41
0.0
 71
     5
 72
     1
  1
18
 11
0.0000000000000001
 21
1.0
 31
0.0
 73
     1
 44
1.0
1001
ACAD
1000
MTEXTBEGIN
1070
    73
1070
     1
1070
    44
1040
1.0
1070
    74
1070
     0
1000
MTEXTEND
  0
POINT
  5
DD4
330
953
100
AcDbEntity
  8
Defpoints
  6
Continuous
 62
     0
100
AcDbPoint
 10
-2.928014317354723
 20
-261.3837372207896
 30
0.0
  0
POINT
  5
DD5
330
953
100
AcDbEntity
  8
Defpoints
  6
Continuous
 62
     0
100
AcDbPoint
 10
-6.928014973005815
 20
-279.3837438965098
 30
0.0
  0
POINT
  5
DD6
330
953
100
AcDbEntity
  8
Defpoints
  6
Continuous
 62
     0
100
AcDbPoint
 10
-26.88382616365383
 20
-279.3837438965098
 30
0.0
  0
ENDBLK
  5
955
330
953
100
AcDbEntity
  8
0
100
AcDbBlockEnd
  0
BLOCK
  5
961
330
960
100
AcDbEntity
  8
0
100
AcDbBlockBegin
  2
*D10
 70
     1
 10
0.0
 20
0.0
 30
0.0
  3
*D10
  1

  0
LINE
  5
DD7
330
960
100
AcDbEntity
  8
0
  6
Continuous
 62
     0
370
    -2
100
AcDbLine
 10
-7.178014973005815
 20
-279.3837438965098
 30
0.0
 11
-28.13382616365383
 21
-279.3837438965098
 31
0.0
  0
LINE
  5
DD8
330
960
100
AcDbEntity
  8
0
  6
Continuous
 62
     0
370
    -2
100
AcDbLine
 10
-11.17801376601176
 20
-316.3837406480567
 30
0.0
 11
-28.13382616365384
 21
-316.3837406480567
 31
0.0
  0
LINE
  5
DD9
330
960
100
AcDbEntity
  8
0
  6
Continuous
 62
     0
370
    -2
100
AcDbLine
 10
-26.88382616365384
 20
-281.8837438965098
 30
0.0
 11
-26.88382616365384
 21
-313.8837406480567
 31
0.0
  0
INSERT
  5
DDA
330
960
100
AcDbEntity
  8
0
  6
Continuous
 62
     0
370
    -2
100
AcDbBlockReference
  2
_Open30
 10
-26.88382616365383
 20
-279.3837438965098
 30
0.0
 41
2.5
 42
2.5
 43
2.5
 50
90.0
  0
INSERT
  5
DDB
330
960
100
AcDbEntity
  8
0
  6
Continuous
 62
     0
370
    -2
100
AcDbBlockReference
  2
_Open30
 10
-26.88382616365384
 20
-316.3837406480567
 30
0.0
 41
2.5
 42
2.5
 43
2.5
 50
270.0
  0
MTEXT
  5
DDC
330
960
100
AcDbEntity
  8
0
  6
Continuous
 62
     4
100
AcDbMText
 10
-29.00882616365379
 20
-298.8273440499893
 30
0.0
 40
3.0
 41
0.0
 71
     5
 72
     1
  1
37
 11
0.0000000000000001
 21
1.0
 31
0.0
 73
     1
 44
1.0
1001
ACAD
1000
MTEXTBEGIN
1070
    73
1070
     1
1070
    44
1040
1.0
1070
    74
1070
     0
1000
MTEXTEND
  0
POINT
  5
DDD
330
960
100
AcDbEntity
  8
Defpoints
  6
Continuous
 62
     0
100
AcDbPoint
 10
-6.928014973005815
 20
-279.3837438965098
 30
0.0
  0
POINT
  5
DDE
330
960
100
AcDbEntity
  8
Defpoints
  6
Continuous
 62
     0
100
AcDbPoint
 10
-10.92801376601176
 20
-316.3837406480567
 30
0.0
  0
POINT
  5
DDF
330
960
100
AcDbEntity
  8
Defpoints
  6
Continuous
 62
     0
100
AcDbPoint
 10
-26.88382616365384
 20
-316.3837406480567
 30
0.0
  0
ENDBLK
  5
962
330
960
100
AcDbEntity
  8
0
100
AcDbBlockEnd
  0
BLOCK
  5
977
330
976
100
AcDbEntity
  8
0
100
AcDbBlockBegin
  2
*D11
 70
     1
 10
0.0
 20
0.0
 30
0.0
  3
*D11
  1

  0
LINE
  5
DE0
330
976
100
AcDbEntity
  8
0
  6
Continuous
 62
     0
370
    -2
100
AcDbLine
 10
-11.17801376601176
 20
-316.3837406480567
 30
0.0
 11
-28.13382616365379
 21
-316.3837406480567
 31
0.0
  0
LINE
  5
DE1
330
976
100
AcDbEntity
  8
0
  6
Continuous
 62
     0
370
    -2
100
AcDbLine
 10
-11.17801566242229
 20
-411.3837406480564
 30
0.0
 11
-28.13382616365381
 21
-411.3837406480564
 31
0.0
  0
LINE
  5
DE2
330
976
100
AcDbEntity
  8
0
  6
Continuous
 62
     0
370
    -2
100
AcDbLine
 10
-26.88382616365379
 20
-318.8837406480567
 30
0.0
 11
-26.88382616365381
 21
-408.8837406480563
 31
0.0
  0
INSERT
  5
DE3
330
976
100
AcDbEntity
  8
0
  6
Continuous
 62
     0
370
    -2
100
AcDbBlockReference
  2
_Open30
 10
-26.88382616365379
 20
-316.3837406480567
 30
0.0
 41
2.5
 42
2.5
 43
2.5
 50
90.0
  0
INSERT
  5
DE4
330
976
100
AcDbEntity
  8
0
  6
Continuous
 62
     0
370
    -2
100
AcDbBlockReference
  2
_Open30
 10
-26.88382616365381
 20
-411.3837406480564
 30
0.0
 41
2.5
 42
2.5
 43
2.5
 50
270.0
  0
MTEXT
  5
DE5
330
976
100
AcDbEntity
  8
0
  6
Continuous
 62
     4
100
AcDbMText
 10
-29.00882616365374
 20
-372.1575581236798
 30
0.0
 40
3.0
 41
0.0
 71
     5
 72
     1
  1
開口寸法MAX　95
 11
0.0000000000000001
 21
1.0
 31
0.0
 73
     1
 44
1.0
1001
ACAD
1000
MTEXTBEGIN
1070
    73
1070
     1
1070
    44
1040
1.0
1070
    74
1070
     0
1000
MTEXTEND
  0
POINT
  5
DE6
330
976
100
AcDbEntity
  8
Defpoints
  6
Continuous
 62
     0
100
AcDbPoint
 10
-10.92801376601176
 20
-316.3837406480567
 30
0.0
  0
POINT
  5
DE7
330
976
100
AcDbEntity
  8
Defpoints
  6
Continuous
 62
     0
100
AcDbPoint
 10
-10.92801566242229
 20
-411.3837406480564
 30
0.0
  0
POINT
  5
DE8
330
976
100
AcDbEntity
  8
Defpoints
  6
Continuous
 62
     0
100
AcDbPoint
 10
-26.88382616365381
 20
-411.3837406480564
 30
0.0
  0
ENDBLK
  5
978
330
976
100
AcDbEntity
  8
0
100
AcDbBlockEnd
  0
ENDSEC
  0
SECTION
  2
ENTITIES
  0
LINE
  5
12B
330
6B
100
AcDbEntity
  8
0
 62
     3
100
AcDbLine
 10
200.489566
 20
-236.997268
 30
0.0
 11
200.489566
 21
-511.052629
 31
0.0
  0
LINE
  5
12C
330
6B
100
AcDbEntity
  8
0
 62
     3
100
AcDbLine
 10
-189.510434
 20
-236.997268
 30
0.0
 11
-189.510434
 21
-511.052629
 31
0.0
  0
LINE
  5
12D
330
6B
100
AcDbEntity
  8
0
 62
     3
100
AcDbLine
 10
-189.510434
 20
-236.997268
 30
0.0
 11
200.489566
 21
-236.997268
 31
0.0
  0
LINE
  5
12E
330
6B
100
AcDbEntity
  8
0
 62
     3
100
AcDbLine
 10
200.489566
 20
-511.052629
 30
0.0
 11
-189.510434
 21
-511.052629
 31
0.0
  0
TEXT
  5
137
330
6B
100
AcDbEntity
  8
0
 62
     3
100
AcDbText
 10
136.313667
 20
-499.5347709999998
 30
0.0
 40
3.2
  1
1/1
  7
高3.2
100
AcDbText
  0
TEXT
  5
138
330
6B
100
AcDbEntity
  8
0
 62
     3
100
AcDbText
 10
163.577862
 20
-500.1655079999999
 30
0.0
 40
3.2
  1
2002.6.6
  7
高3.2
100
AcDbText
  0
TEXT
  5
139
330
6B
100
AcDbEntity
  8
0
 62
     3
100
AcDbText
 10
115.401952
 20
-486.1440809999998
 30
0.0
 40
4.5
  1
V-95
  7
高4.5
100
AcDbText
  0
TEXT
  5
13A
330
6B
100
AcDbEntity
  8
0
 62
     3
100
AcDbText
 10
112.255325
 20
-477.9055389999999
 30
0.0
 40
4.5
  1
投光器バイス
  7
高4.5
100
AcDbText
  0
TEXT
  5
13B
330
6B
100
AcDbEntity
  8
0
 62
     3
100
AcDbText
 10
152.291648
 20
-510.021845
 30
0.0
 40
6.299999999999998
  1
V-95
  7
高6.3
100
AcDbText
  0
LINE
  5
29C
330
6B
100
AcDbEntity
  8
0
 62
     3
100
AcDbLine
 10
174.790202
 20
-494.3869069999998
 30
0.0
 11
174.7902019999999
 21
-471.386907
 31
0.0
  0
LINE
  5
29E
330
6B
100
AcDbEntity
  8
0
 62
     3
100
AcDbLine
 10
121.736593
 20
-501.386907
 30
0.0
 11
121.736593
 21
-487.386907
 31
0.0
  0
TEXT
  5
2A0
330
6B
100
AcDbEntity
  8
0
 62
     3
100
AcDbText
 10
150.80052
 20
-475.18179
 30
0.0
 40
2.0
  1
A
 41
0.7
100
AcDbText
  0
TEXT
  5
2A1
330
6B
100
AcDbEntity
  8
0
 62
     3
100
AcDbText
 10
153.335806
 20
-475.18179
 30
0.0
 40
2.0
  1
P
 41
0.7
100
AcDbText
  0
TEXT
  5
2A2
330
6B
100
AcDbEntity
  8
0
 62
     3
100
AcDbText
 10
155.871093
 20
-475.18179
 30
0.0
 40
2.0
  1
P
 41
0.7
100
AcDbText
  0
TEXT
  5
2A3
330
6B
100
AcDbEntity
  8
0
 62
     3
100
AcDbText
 10
158.406379
 20
-475.18179
 30
0.0
 40
2.0
  1
D
 41
0.7
100
AcDbText
  0
TEXT
  5
2A4
330
6B
100
AcDbEntity
  8
0
 62
     3
100
AcDbText
 10
163.775062
 20
-475.18179
 30
0.0
 40
2.0
  1
C
 41
0.7
100
AcDbText
  0
TEXT
  5
2A5
330
6B
100
AcDbEntity
  8
0
 62
     3
100
AcDbText
 10
166.310348
 20
-475.18179
 30
0.0
 40
2.0
  1
H
 41
0.7
100
AcDbText
  0
TEXT
  5
2A6
330
6B
100
AcDbEntity
  8
0
 62
     3
100
AcDbText
 10
168.845634
 20
-475.18179
 30
0.0
 40
2.0
  1
C
 41
0.7
100
AcDbText
  0
TEXT
  5
2A7
330
6B
100
AcDbEntity
  8
0
 62
     3
100
AcDbText
 10
171.380921
 20
-475.18179
 30
0.0
 40
2.0
  1
K
 41
0.7
100
AcDbText
  0
TEXT
  5
2A8
330
6B
100
AcDbEntity
  8
0
 62
     3
100
AcDbText
 10
177.054887
 20
-475.18179
 30
0.0
 40
2.0
  1
DESN
 41
1.216762999999998
100
AcDbText
  0
TEXT
  5
2A9
330
6B
100
AcDbEntity
  8
0
 62
     3
100
AcDbText
 10
92.04852800000001
 20
-504.528288
 30
0.0
 40
2.0
  1
NICHIDO IND.CO.LTD
 41
1.274876
100
AcDbText
  0
LINE
  5
2AA
330
6B
100
AcDbEntity
  8
0
 62
     3
100
AcDbLine
 10
102.431558
 20
-471.386907
 30
0.0
 11
102.431558
 21
-494.3869069999998
 31
0.0
  0
LINE
  5
2AB
330
6B
100
AcDbEntity
  8
0
 62
     3
100
AcDbLine
 10
148.7902019999999
 20
-471.386907
 30
0.0
 11
148.790202
 21
-511.052629
 31
0.0
  0
LINE
  5
2B0
330
6B
100
AcDbEntity
  8
0
 62
     3
100
AcDbLine
 10
161.790202
 20
-471.3869069999998
 30
0.0
 11
161.790202
 21
-501.386907
 31
0.0
  0
TEXT
  5
2B1
330
6B
100
AcDbEntity
  8
0
 62
     3
100
AcDbText
 10
149.902647
 20
-500.52222
 30
0.0
 40
3.2
  1
作成日
 41
1.017225999999997
100
AcDbText
  0
LINE
  5
2B2
330
6B
100
AcDbEntity
  8
0
 62
     3
100
AcDbLine
 10
200.489566
 20
-471.386907
 30
0.0
 11
89.18612299999997
 21
-471.386907
 31
0.0
  0
LINE
  5
2B3
330
6B
100
AcDbEntity
  8
0
 62
     3
100
AcDbLine
 10
187.790202
 20
-494.3869069999998
 30
0.0
 11
187.790202
 21
-471.386907
 31
0.0
  0
TEXT
  5
2B4
330
6B
100
AcDbEntity
  8
0
 62
     3
100
AcDbText
 10
191.114005
 20
-475.0959719999998
 30
0.0
 40
1.8
  1
D
 41
0.666667
100
AcDbText
  0
TEXT
  5
2B5
330
6B
100
AcDbEntity
  8
0
 62
     3
100
AcDbText
 10
193.930634
 20
-475.0959719999998
 30
0.0
 40
1.8
  1
E
 41
0.666667
100
AcDbText
  0
TEXT
  5
2B6
330
6B
100
AcDbEntity
  8
0
 62
     3
100
AcDbText
 10
196.747262
 20
-475.0959719999998
 30
0.0
 40
1.8
  1
F
 41
0.666667
100
AcDbText
  0
TEXT
  5
2B7
330
6B
100
AcDbEntity
  8
0
 62
     3
100
AcDbText
 10
191.114005
 20
-479.088525
 30
0.0
 40
3.2
  1
製図
 41
1.076369
100
AcDbText
  0
LINE
  5
2B8
330
6B
100
AcDbEntity
  8
0
 62
     3
100
AcDbLine
 10
89.18612299999997
 20
-471.386907
 30
0.0
 11
89.18612299999997
 21
-511.052629
 31
0.0
  0
TEXT
  5
2B9
330
6B
100
AcDbEntity
  8
0
 62
     3
100
AcDbText
 10
90.56277599999999
 20
-510.7201639999998
 30
0.0
 40
5.0
  1
日動工業株式会社
 41
0.833333
100
AcDbText
  0
LINE
  5
2BA
330
6B
100
AcDbEntity
  8
0
 62
     3
100
AcDbLine
 10
132.0685269999999
 20
-487.3869069999998
 30
0.0
 11
132.068527
 21
-511.052629
 31
0.0
  0
LINE
  5
2BB
330
6B
100
AcDbEntity
  8
0
 62
     3
100
AcDbLine
 10
132.068527
 20
-506.2197679999998
 30
0.0
 11
148.790202
 21
-506.2197679999998
 31
0.0
  0
TEXT
  5
2BC
330
6B
100
AcDbEntity
  8
0
 62
     3
100
AcDbText
 10
132.655129
 20
-505.4033369999998
 30
0.0
 40
3.2
  1
出図コード
 41
0.8356860000000001
100
AcDbText
  0
LINE
  5
2BE
330
6B
100
AcDbEntity
  8
0
 62
     3
100
AcDbLine
 10
89.18612299999997
 20
-501.3869069999998
 30
0.0
 11
200.489566
 21
-501.386907
 31
0.0
  0
LINE
  5
2C0
330
6B
100
AcDbEntity
  8
0
 62
     3
100
AcDbLine
 10
89.18612299999997
 20
-480.386907
 30
0.0
 11
200.489566
 21
-480.386907
 31
0.0
  0
LINE
  5
2C6
330
6B
100
AcDbEntity
  8
0
 62
     3
100
AcDbLine
 10
89.18612299999997
 20
-487.3869069999998
 30
0.0
 11
148.790202
 21
-487.386907
 31
0.0
  0
LINE
  5
2CC
330
6B
100
AcDbEntity
  8
0
 62
     3
100
AcDbLine
 10
89.18612299999997
 20
-494.3869069999998
 30
0.0
 11
200.489566
 21
-494.3869069999998
 31
0.0
  0
TEXT
  5
2CD
330
6B
100
AcDbEntity
  8
0
 62
     3
100
AcDbText
 10
132.522581
 20
-510.7033158500662
 30
0.0
 40
3.2
  1
ZK-A3X
 41
0.8112849999999999
100
AcDbText
  0
TEXT
  5
2CE
330
6B
100
AcDbEntity
  8
0
 62
     3
100
AcDbText
 10
91.00351999999999
 20
-475.2173809999998
 30
0.0
 40
2.0
  1
CONPONENTS
 41
0.5331600000000001
100
AcDbText
  0
TEXT
  5
2CF
330
6B
100
AcDbEntity
  8
0
 62
     3
100
AcDbText
 10
90.65379300000001
 20
-494.149558
 30
0.0
 40
3.0
  1
材
 41
0.833333
100
AcDbText
  0
TEXT
  5
2D0
330
6B
100
AcDbEntity
  8
0
 62
     3
100
AcDbText
 10
98.189436
 20
-494.149558
 30
0.0
 40
3.0
  1
質
 41
0.833333
100
AcDbText
  0
TEXT
  5
2D1
330
6B
100
AcDbEntity
  8
0
 62
     3
100
AcDbText
 10
90.741864
 20
-483.525033
 30
0.0
 40
2.0
  1
MODEL
 41
1.031072999999999
100
AcDbText
  0
TEXT
  5
2D2
330
6B
100
AcDbEntity
  8
0
 62
     3
100
AcDbText
 10
90.65379300000001
 20
-490.467249
 30
0.0
 40
2.0
  1
MATERIAL
 41
0.659278
100
AcDbText
  0
TEXT
  5
2D3
330
6B
100
AcDbEntity
  8
0
 62
     3
100
AcDbText
 10
121.961074
 20
-494.149558
 30
0.0
 40
3.0
  1
備
 41
0.833333
100
AcDbText
  0
TEXT
  5
2D4
330
6B
100
AcDbEntity
  8
0
 62
     3
100
AcDbText
 10
128.694075
 20
-494.149558
 30
0.0
 40
3.0
  1
考
 41
0.833333
100
AcDbText
  0
TEXT
  5
2D5
330
6B
100
AcDbEntity
  8
0
 62
     3
100
AcDbText
 10
122.18192437486
 20
-490.467249
 30
0.0
 40
2.0
  1
REMARKS
 41
0.675794
100
AcDbText
  0
TEXT
  5
2D6
330
6B
100
AcDbEntity
  8
0
 62
     3
100
AcDbText
 10
92.243522
 20
-497.38737
 30
0.0
 40
2.0
  1
3AD
 41
1.42614
100
AcDbText
  0
TEXT
  5
2D7
330
6B
100
AcDbEntity
  8
0
 62
     3
100
AcDbText
 10
101.554502
 20
-497.221636
 30
0.0
 40
2.0
  1
ANGLE
 41
1.669883999999995
100
AcDbText
  0
TEXT
  5
2D8
330
6B
100
AcDbEntity
  8
0
 62
     3
100
AcDbText
 10
122.488389
 20
-497.5984769999998
 30
0.0
 40
2.0
  1
SCALE
 41
0.7719630000000001
100
AcDbText
  0
TEXT
  5
2D9
330
6B
100
AcDbEntity
  8
0
 62
     3
100
AcDbText
 10
91.92965200000001
 20
-501.386907
 30
0.0
 40
3.0
  1
第
 41
0.833333
100
AcDbText
  0
TEXT
  5
2DA
330
6B
100
AcDbEntity
  8
0
 62
     3
100
AcDbText
 10
99.716502
 20
-501.386907
 30
0.0
 40
3.0
  1
三
 41
0.833333
100
AcDbText
  0
TEXT
  5
2DB
330
6B
100
AcDbEntity
  8
0
 62
     3
100
AcDbText
 10
107.503352
 20
-501.386907
 30
0.0
 40
3.0
  1
角
 41
0.833333
100
AcDbText
  0
TEXT
  5
2DC
330
6B
100
AcDbEntity
  8
0
 62
     3
100
AcDbText
 10
115.290202
 20
-501.386907
 30
0.0
 40
3.0
  1
法
 41
0.833333
100
AcDbText
  0
TEXT
  5
2DD
330
6B
100
AcDbEntity
  8
0
 62
     3
100
AcDbText
 10
122.351594
 20
-501.0984769999998
 30
0.0
 40
3.0
  1
尺
 41
0.833333
100
AcDbText
  0
TEXT
  5
2DE
330
6B
100
AcDbEntity
  8
0
 62
     3
100
AcDbText
 10
129.084596
 20
-501.0984769999998
 30
0.0
 40
3.0
  1
度
 41
0.833333
100
AcDbText
  0
TEXT
  5
2DF
330
6B
100
AcDbEntity
  8
0
 62
     3
100
AcDbText
 10
151.667866
 20
-478.929178
 30
0.0
 40
3.0
  1
承認
 41
1.089472999999999
100
AcDbText
  0
TEXT
  5
2E0
330
6B
100
AcDbEntity
  8
0
 62
     3
100
AcDbText
 10
164.910747
 20
-478.986907
 30
0.0
 40
3.0
  1
検図
 41
0.931761
100
AcDbText
  0
TEXT
  5
2E1
330
6B
100
AcDbEntity
  8
0
 62
     3
100
AcDbText
 10
177.911143
 20
-478.986907
 30
0.0
 40
3.0
  1
設
 41
0.833333
100
AcDbText
  0
TEXT
  5
2E2
330
6B
100
AcDbEntity
  8
0
 62
     3
100
AcDbText
 10
182.401011
 20
-478.986907
 30
0.0
 40
3.0
  1
計
 41
0.833333
100
AcDbText
  0
TEXT
  5
2E3
330
6B
100
AcDbEntity
  8
0
 62
     3
100
AcDbText
 10
91.07362700000001
 20
-478.814354
 30
0.0
 40
3.0
  1
品
 41
0.833333
100
AcDbText
  0
TEXT
  5
2E4
330
6B
100
AcDbEntity
  8
0
 62
     3
100
AcDbText
 10
98.609269
 20
-478.814354
 30
0.0
 40
3.0
  1
名
 41
0.833333
100
AcDbText
  0
TEXT
  5
2E5
330
6B
100
AcDbEntity
  8
0
 62
     3
100
AcDbText
 10
90.741864
 20
-487.0341352681591
 30
0.0
 40
3.0
  1
型
 41
0.833333
100
AcDbText
  0
TEXT
  5
2E6
330
6B
100
AcDbEntity
  8
0
 62
     3
100
AcDbText
 10
98.28995400000001
 20
-487.0341352681591
 30
0.0
 40
3.0
  1
式
 41
0.833333
100
AcDbText
  0
LINE
  5
2E7
330
6B
100
AcDbEntity
  8
0
 62
     3
100
AcDbLine
 10
-201.912358
 20
-370.552629
 30
0.0
 11
-204.510434
 21
-372.052629
 31
0.0
  0
LINE
  5
2E8
330
6B
100
AcDbEntity
  8
0
 62
     3
100
AcDbLine
 10
-201.912358
 20
-370.552629
 30
0.0
 11
-204.510434
 21
-369.052629
 31
0.0
  0
LINE
  5
2E9
330
6B
100
AcDbEntity
  8
0
 62
     3
100
AcDbLine
 10
-204.510434
 20
-372.052629
 30
0.0
 11
-204.510434
 21
-369.052629
 31
0.0
  0
TEXT
  5
2EA
330
6B
100
AcDbEntity
  8
0
 62
     3
100
AcDbText
 10
-130.6839695710453
 20
-510.552629
 30
0.0
 40
3.2
  1
備考
 41
0.8
  7
高3.2
100
AcDbText
  0
TEXT
  5
2EB
330
6B
100
AcDbEntity
  8
0
 62
     3
100
AcDbText
 10
-145.4179719206979
 20
-510.552629
 30
0.0
 40
3.2
  1
材質
 41
0.8
  7
高3.2
100
AcDbText
  0
TEXT
  5
2EC
330
6B
100
AcDbEntity
  8
0
 62
     3
100
AcDbText
 10
-153.4017723333333
 20
-510.552629
 30
0.0
 40
3.2
  1
個数
 41
0.8
  7
高3.2
100
AcDbText
  0
TEXT
  5
2ED
330
6B
100
AcDbEntity
  8
0
 62
     3
100
AcDbText
 10
-188.010434
 20
-510.552629
 30
0.0
 40
3.2
  1
品番
 41
0.8
  7
高3.2
100
AcDbText
  0
TEXT
  5
2EE
330
6B
100
AcDbEntity
  8
0
 62
     3
100
AcDbText
 10
-180.6478731666667
 20
-510.552629
 30
0.0
 40
3.2
  1
部品名
 41
0.8
  7
高3.2
100
AcDbText
  0
LINE
  5
2EF
330
6B
100
AcDbEntity
  8
0
 62
     7
100
AcDbLine
 10
-75.6281057707354
 20
-481.052629
 30
0.0
 11
-75.6281057707354
 21
-511.052629
 31
0.0
  0
LINE
  5
2F0
330
6B
100
AcDbEntity
  8
0
 62
     7
100
AcDbLine
 10
-132.1839695710453
 20
-511.052629
 30
0.0
 11
-132.1839695710453
 21
-481.052629
 31
0.0
  0
TEXT
  5
2F1
330
6B
100
AcDbEntity
  8
0
 62
     3
100
AcDbText
 10
-130.6839695710453
 20
-490.552629
 30
0.0
 40
3.2
  1
M5ゆるみ止め付き
 41
0.8
  7
高3.2
100
AcDbText
  0
TEXT
  5
2F2
330
6B
100
AcDbEntity
  8
0
 62
     3
100
AcDbText
 10
-130.6839695710453
 20
-505.552629
 30
0.0
 40
3.2
  1
高張力　焼き付け塗装
 41
0.8
  7
高3.2
100
AcDbText
  0
TEXT
  5
2F3
330
6B
100
AcDbEntity
  8
0
 62
     3
100
AcDbText
 10
-130.6839695710453
 20
-495.5526289999999
 30
0.0
 40
3.2
  1
プレス加工品　メッキ処理加工
 41
0.8
  7
高3.2
100
AcDbText
  0
TEXT
  5
2F4
330
6B
100
AcDbEntity
  8
0
 62
     3
100
AcDbText
 10
-130.6839695710453
 20
-500.552629
 30
0.0
 40
3.2
  1
蝶ねじタイプ　メッキ処理加工
 41
0.8
  7
高3.2
100
AcDbText
  0
LINE
  5
2F5
330
6B
100
AcDbEntity
  8
0
 62
     7
100
AcDbLine
 10
-182.1478731666666
 20
-481.052629
 30
0.0
 11
-182.1478731666666
 21
-511.052629
 31
0.0
  0
TEXT
  5
2F6
330
6B
100
AcDbEntity
  8
0
 62
     3
100
AcDbText
 10
-188.010434
 20
-505.552629
 30
0.0
 40
3.2
  1
1
 41
0.8
  7
高3.2
100
AcDbText
  0
TEXT
  5
2F7
330
6B
100
AcDbEntity
  8
0
 62
     3
100
AcDbText
 10
-188.010434
 20
-500.552629
 30
0.0
 40
3.2
  1
2
 41
0.8
  7
高3.2
100
AcDbText
  0
TEXT
  5
2F8
330
6B
100
AcDbEntity
  8
0
 62
     3
100
AcDbText
 10
-188.010434
 20
-495.552629
 30
0.0
 40
3.2
  1
3
 41
0.8
  7
高3.2
100
AcDbText
  0
TEXT
  5
2F9
330
6B
100
AcDbEntity
  8
0
 62
     3
100
AcDbText
 10
-188.010434
 20
-490.552629
 30
0.0
 40
3.2
  1
4
 41
0.8
  7
高3.2
100
AcDbText
  0
TEXT
  5
2FA
330
6B
100
AcDbEntity
  8
0
 62
     3
100
AcDbText
 10
-180.6478731666667
 20
-490.552629
 30
0.0
 40
3.2
  1
Uナット
 41
0.8
  7
高3.2
100
AcDbText
  0
LINE
  5
2FB
330
6B
100
AcDbEntity
  8
0
 62
     7
100
AcDbLine
 10
-154.9017723333333
 20
-511.052629
 30
0.0
 11
-154.9017723333333
 21
-481.052629
 31
0.0
  0
LINE
  5
2FC
330
6B
100
AcDbEntity
  8
0
 62
     7
100
AcDbLine
 10
-146.9179719206979
 20
-511.052629
 30
0.0
 11
-146.9179719206979
 21
-481.052629
 31
0.0
  0
TEXT
  5
2FD
330
6B
100
AcDbEntity
  8
0
 62
     3
100
AcDbText
 10
-153.4017723333333
 20
-505.552629
 30
0.0
 40
3.2
  1
1
 41
0.8
  7
高3.2
100
AcDbText
  0
TEXT
  5
2FE
330
6B
100
AcDbEntity
  8
0
 62
     3
100
AcDbText
 10
-153.4017723333333
 20
-500.552629
 30
0.0
 40
3.2
  1
1
 41
0.8
  7
高3.2
100
AcDbText
  0
TEXT
  5
2FF
330
6B
100
AcDbEntity
  8
0
 62
     3
100
AcDbText
 10
-153.4017723333333
 20
-495.552629
 30
0.0
 40
3.2
  1
1
 41
0.8
  7
高3.2
100
AcDbText
  0
TEXT
  5
300
330
6B
100
AcDbEntity
  8
0
 62
     3
100
AcDbText
 10
-153.4017723333333
 20
-490.552629
 30
0.0
 40
3.2
  1
1
 41
0.8
  7
高3.2
100
AcDbText
  0
TEXT
  5
301
330
6B
100
AcDbEntity
  8
0
 62
     3
100
AcDbText
 10
-145.4179719206979
 20
-505.552629
 30
0.0
 40
3.2
  1
ADC
 41
0.8
  7
高3.2
100
AcDbText
  0
TEXT
  5
302
330
6B
100
AcDbEntity
  8
0
 62
     3
100
AcDbText
 10
-145.4179719206979
 20
-500.552629
 30
0.0
 40
3.2
  1
SS400
 41
0.8
  7
高3.2
100
AcDbText
  0
TEXT
  5
303
330
6B
100
AcDbEntity
  8
0
 62
     3
100
AcDbText
 10
-145.4179719206979
 20
-495.552629
 30
0.0
 40
3.2
  1
SPC
 41
0.8
  7
高3.2
100
AcDbText
  0
TEXT
  5
304
330
6B
100
AcDbEntity
  8
0
 62
     3
100
AcDbText
 10
-145.4179719206979
 20
-490.552629
 30
0.0
 40
3.2
  1
SS
 41
0.8
  7
高3.2
100
AcDbText
  0
TEXT
  5
305
330
6B
100
AcDbEntity
  8
0
 62
     3
100
AcDbText
 10
-180.6478731666667
 20
-505.552629
 30
0.0
 40
3.2
  1
バイスフレーム
 41
0.8
  7
高3.2
100
AcDbText
  0
TEXT
  5
306
330
6B
100
AcDbEntity
  8
0
 62
     3
100
AcDbText
 10
-180.6478731666667
 20
-500.552629
 30
0.0
 40
3.2
  1
締め付けねじ
 41
0.8
  7
高3.2
100
AcDbText
  0
TEXT
  5
307
330
6B
100
AcDbEntity
  8
0
 62
     3
100
AcDbText
 10
-180.6478731666667
 20
-495.552629
 30
0.0
 40
3.2
  1
クランプ金具
 41
0.8
  7
高3.2
100
AcDbText
  0
LINE
  5
310
330
6B
100
AcDbEntity
  8
0
 62
     3
100
AcDbLine
 10
174.790202
 20
-471.386907
 30
0.0
 11
174.790202
 21
-465.3869069999998
 31
0.0
  0
LINE
  5
311
330
6B
100
AcDbEntity
  8
0
 62
     3
100
AcDbLine
 10
148.790202
 20
-471.386907
 30
0.0
 11
148.790202
 21
-465.3869069999998
 31
0.0
  0
LINE
  5
312
330
6B
100
AcDbEntity
  8
0
 62
     3
100
AcDbLine
 10
200.489566
 20
-465.3869069999998
 30
0.0
 11
148.790202
 21
-465.3869069999998
 31
0.0
  0
TEXT
  5
313
330
6B
100
AcDbEntity
  8
0
 62
     3
100
AcDbText
 10
154.7858
 20
-470.5905579999998
 30
0.0
 40
4.5
  1
コード
  7
高4.5
100
AcDbText
  0
TEXT
  5
314
330
6B
100
AcDbEntity
  8
0
 62
     3
100
AcDbText
 10
176.777349
 20
-470.7427690000002
 30
0.0
 40
4.5
  1
8158
  7
高4.5
100
AcDbText
  0
TEXT
  5
315
330
6B
100
AcDbEntity
  8
0
 62
     3
100
AcDbText
 10
-74.12810577073543
 20
-510.552629
 30
0.0
 40
3.2
  1
コード
 41
0.8
  7
高3.2
100
AcDbText
  0
LINE
  5
316
330
6B
100
AcDbEntity
  8
0
 62
     3
100
AcDbLine
 10
-56.93427623771197
 20
-481.052629
 30
0.0
 11
-56.93427623771197
 21
-511.052629
 31
0.0
  0
TEXT
  5
31C
330
6B
100
AcDbEntity
  8
0
 62
     3
100
AcDbText
 10
-74.12810577073543
 20
-490.552629
 30
0.0
 40
3.2
  1
-
 41
0.8
  7
高3.2
100
AcDbText
  0
TEXT
  5
31D
330
6B
100
AcDbEntity
  8
0
 62
     3
100
AcDbText
 10
-74.12810577073543
 20
-495.5526289999999
 30
0.0
 40
3.2
  1
-
 41
0.8
  7
高3.2
100
AcDbText
  0
TEXT
  5
31E
330
6B
100
AcDbEntity
  8
0
 62
     3
100
AcDbText
 10
-74.12810577073543
 20
-500.552629
 30
0.0
 40
3.2
  1
-
 41
0.8
  7
高3.2
100
AcDbText
  0
TEXT
  5
31F
330
6B
100
AcDbEntity
  8
0
 62
     3
100
AcDbText
 10
-74.12810577073543
 20
-505.552629
 30
0.0
 40
3.2
  1
-
 41
0.8
  7
高3.2
100
AcDbText
  0
LINE
  5
381
330
6B
100
AcDbEntity
  8
0
 62
     3
100
AcDbLine
 10
166.0069895691536
 20
-336.5603741715661
 30
0.0
 11
166.0069895691536
 21
-331.5603752146472
 31
0.0
  0
LINE
  5
382
330
6B
100
AcDbEntity
  8
0
 62
     3
100
AcDbLine
 10
150.0069906718396
 20
-331.5603752146472
 30
0.0
 11
150.0069906718396
 21
-336.5603741715661
 31
0.0
  0
LINE
  5
383
330
6B
100
AcDbEntity
  8
0
 62
     3
100
AcDbLine
 10
165.3069907582663
 20
-338.5603744993921
 30
0.0
 11
165.3069907582663
 21
-336.5603741715661
 31
0.0
  0
LINE
  5
384
330
6B
100
AcDbEntity
  8
0
 62
     3
100
AcDbLine
 10
150.7069913453721
 20
-336.5603741715661
 30
0.0
 11
150.7069913453721
 21
-338.5603744993921
 31
0.0
  0
LINE
  5
385
330
6B
100
AcDbEntity
  8
0
 62
     3
100
AcDbLine
 10
165.7569909251592
 20
-340.1603755067098
 30
0.0
 11
165.7569909251592
 21
-338.5603744993921
 31
0.0
  0
LINE
  5
386
330
6B
100
AcDbEntity
  8
0
 62
     3
100
AcDbLine
 10
150.256991178479
 20
-338.5603744993921
 30
0.0
 11
150.256991178479
 21
-340.1603755067098
 31
0.0
  0
LINE
  5
387
330
6B
100
AcDbEntity
  8
0
 62
     3
100
AcDbLine
 10
154.145940930333
 20
-323.560373903345
 30
0.0
 11
161.8680393106601
 21
-323.560373903345
 31
0.0
  0
SPLINE
  5
388
330
6B
100
AcDbEntity
  8
0
 62
     3
100
AcDbSpline
210
0.0
220
0.0
230
1.0
 70
     8
 71
     3
 72
    14
 73
    10
 74
     0
 42
0.0000000001
 43
0.0000000001
 40
0.0
 40
0.0
 40
0.0
 40
0.0
 40
0.227525579317814
 40
0.4543482629175179
 40
0.6112158751336562
 40
0.7689666678165115
 40
0.8707702714778957
 40
0.9570715897677047
 40
1.0
 40
1.0
 40
1.0
 40
1.0
 10
161.8680393106601
 20
-323.560373903345
 30
0.0
 10
162.0541458625357
 20
-323.56427769676
 30
0.0
 10
162.4257840265421
 20
-323.5720732235841
 30
0.0
 10
162.9210513494503
 20
-323.6610425263862
 30
0.0
 10
163.3388577821856
 20
-323.8152115361081
 30
0.0
 10
163.6299676420648
 20
-324.0067135859411
 30
0.0
 10
163.8113972310976
 20
-324.2326068777002
 30
0.0
 10
163.8829317031565
 20
-324.4164942094601
 30
0.0
 10
163.8888514606918
 20
-324.5244983724151
 30
0.0
 10
163.8908179260156
 20
-324.5603759299031
 30
0.0
  0
SPLINE
  5
389
330
6B
100
AcDbEntity
  8
0
 62
     3
100
AcDbSpline
210
0.0
220
0.0
230
1.0
 70
     8
 71
     3
 72
    13
 73
     9
 74
     0
 42
0.0000000001
 43
0.0000000001
 40
0.0
 40
0.0
 40
0.0
 40
0.0
 40
0.0942409592276018
 40
0.1878457117342619
 40
0.3292765401620468
 40
0.5665851666547437
 40
0.7830188915988991
 40
1.0
 40
1.0
 40
1.0
 40
1.0
 10
152.1231604523323
 20
-324.5603759299031
 30
0.0
 10
152.132640326771
 20
-324.4813488899702
 30
0.0
 10
152.1515360784237
 20
-324.323828309916
 30
0.0
 10
152.3046200245512
 20
-324.0886486094971
 30
0.0
 10
152.6080678990497
 20
-323.8376587024011
 30
0.0
 10
153.0721143740118
 20
-323.6624598512221
 30
0.0
 10
153.6140529189261
 20
-323.5711574379832
 30
0.0
 10
153.9684957114246
 20
-323.5639714400891
 30
0.0
 10
154.145940930333
 20
-323.560373903345
 30
0.0
  0
LINE
  5
38A
330
6B
100
AcDbEntity
  8
0
 62
     3
100
AcDbLine
 10
150.0069906718396
 20
-336.5603741715661
 30
0.0
 11
166.0069895691536
 21
-336.5603741715661
 31
0.0
  0
LINE
  5
38B
330
6B
100
AcDbEntity
  8
0
 62
     3
100
AcDbLine
 10
154.2569910518191
 20
-351.5603741715661
 30
0.0
 11
161.7569910518191
 21
-351.5603741715661
 31
0.0
  0
LINE
  5
38C
330
6B
100
AcDbEntity
  8
0
  6
Continuous
 62
     3
100
AcDbLine
 10
153.0069910518191
 20
-350.3103741715662
 30
0.0
 11
154.2569910518191
 21
-351.5603741715661
 31
0.0
  0
LINE
  5
38D
330
6B
100
AcDbEntity
  8
0
 62
     3
100
AcDbLine
 10
152.1231604523323
 20
-324.5603759299031
 30
0.0
 11
152.1231604523323
 21
-331.5603752146472
 31
0.0
  0
LINE
  5
38E
330
6B
100
AcDbEntity
  8
0
 62
     3
100
AcDbLine
 10
163.8908179260156
 20
-331.5603752146472
 30
0.0
 11
163.8908179260156
 21
-324.5603759299031
 31
0.0
  0
SPLINE
  5
38F
330
6B
100
AcDbEntity
  8
0
 62
     3
100
AcDbSpline
210
0.0
220
0.0
230
1.0
 70
     8
 71
     3
 72
    10
 73
     6
 74
     0
 42
0.0000000001
 43
0.0000000001
 40
0.0
 40
0.0
 40
0.0
 40
0.0
 40
0.1735519513532988
 40
0.5809271048372128
 40
1.0
 40
1.0
 40
1.0
 40
1.0
 10
156.8871473676822
 20
-321.5635028193701
 30
0.0
 10
157.0153433458306
 20
-321.5628641341179
 30
0.0
 10
157.4444512749363
 20
-321.5607262752701
 30
0.0
 10
158.2006403549043
 20
-321.5595851558121
 30
0.0
 10
158.8152024811478
 20
-321.5621846668191
 30
0.0
 10
159.1268328733109
 20
-321.5635028193701
 30
0.0
  0
LINE
  5
390
330
6B
100
AcDbEntity
  8
0
 62
     3
100
AcDbLine
 10
163.8908179260156
 20
-331.5603752146472
 30
0.0
 11
177.2095819718502
 21
-331.5603752146472
 31
0.0
  0
ARC
  5
391
330
6B
100
AcDbEntity
  8
0
 62
     3
100
AcDbCircle
 10
158.0069901055955
 20
-522.0603746424432
 30
0.0
 40
200.5000000000009
100
AcDbArc
 50
85.59957966625326
 51
89.67998732330583
  0
LINE
  5
392
330
6B
100
AcDbEntity
  8
0
 62
     3
100
AcDbLine
 10
138.804398269143
 20
-331.5603752146472
 30
0.0
 11
152.1231604523323
 21
-331.5603752146472
 31
0.0
  0
ARC
  5
393
330
6B
100
AcDbEntity
  8
0
 62
     3
100
AcDbCircle
 10
158.0069901055955
 20
-522.0603746424432
 30
0.0
 40
200.5000000000009
100
AcDbArc
 50
90.32001267669413
 51
94.40042033374671
  0
ARC
  5
394
330
6B
100
AcDbEntity
  8
0
 62
     3
100
AcDbCircle
 10
173.0069901055953
 20
-327.1366716199521
 30
0.0
 40
5.000000000000028
100
AcDbArc
 50
0.0
 51
85.59957966625326
  0
ARC
  5
395
330
6B
100
AcDbEntity
  8
0
 62
     3
100
AcDbCircle
 10
143.0069901055955
 20
-327.1366716199521
 30
0.0
 40
5.000000000000028
100
AcDbArc
 50
94.40042033374671
 51
180.0
  0
LINE
  5
396
330
6B
100
AcDbEntity
  8
0
 62
     3
100
AcDbLine
 10
178.0069896734616
 20
-327.1366712163201
 30
0.0
 11
178.0069896734616
 21
-331.5603752146472
 31
0.0
  0
LINE
  5
397
330
6B
100
AcDbEntity
  8
0
 62
     3
100
AcDbLine
 10
178.0069896734616
 20
-331.5603752146472
 30
0.0
 11
177.2095819718502
 21
-331.5603752146472
 31
0.0
  0
LINE
  5
398
330
6B
100
AcDbEntity
  8
0
 62
     3
100
AcDbLine
 10
138.0069887048862
 20
-331.5603752146472
 30
0.0
 11
138.0069887048862
 21
-327.1366712163201
 31
0.0
  0
LINE
  5
399
330
6B
100
AcDbEntity
  8
0
 62
     3
100
AcDbLine
 10
138.804398269143
 20
-331.5603752146472
 30
0.0
 11
138.0069887048862
 21
-331.5603752146472
 31
0.0
  0
ELLIPSE
  5
39A
330
6B
100
AcDbEntity
  8
0
 62
     3
100
AcDbEllipse
 10
158.0069901055955
 20
-338.560374642442
 30
0.0
 11
7.299969553063673
 21
29.19999952483434
 31
0.0
210
0.0
220
0.0
230
0.9999999999999998
 40
0.0007220477807646
 41
1.502430020144504
 42
1.570976837988182
  0
ELLIPSE
  5
39B
330
6B
100
AcDbEntity
  8
0
 62
     3
100
AcDbEllipse
 10
158.0069901055955
 20
-336.560374642442
 30
0.0
 11
7.299969553063673
 21
29.19999952483434
 31
0.0
210
0.0
220
0.0
230
0.9999999999999998
 40
0.0007220477807646
 41
1.570976837988182
 42
1.639523655831793
  0
ELLIPSE
  5
39C
330
6B
100
AcDbEntity
  8
0
 62
     3
100
AcDbEllipse
 10
158.0069901055955
 20
-336.560374642442
 30
0.0
 11
4.099982899570163
 21
16.39999973274311
 31
0.0
210
0.0
220
0.0
230
1.0
 40
0.0007220477807826
 41
1.570976837988186
 42
1.693232377028889
  0
LINE
  5
39D
330
6B
100
AcDbEntity
  8
0
 62
     3
100
AcDbLine
 10
158.0069882578514
 20
-338.5603744993921
 30
0.0
 11
165.7569909251592
 21
-338.5603744993921
 31
0.0
  0
LINE
  5
39E
330
6B
100
AcDbEntity
  8
0
 62
     3
100
AcDbLine
 10
150.256991178479
 20
-338.5603744993921
 30
0.0
 11
158.0069882578514
 21
-338.5603744993921
 31
0.0
  0
LINE
  5
39F
330
6B
100
AcDbEntity
  8
0
  6
Continuous
 62
     3
100
AcDbLine
 10
150.256991178479
 20
-340.1603755067098
 30
0.0
 11
165.7569909251592
 21
-340.1603755067098
 31
0.0
  0
LINE
  5
3A0
330
6B
100
AcDbEntity
  8
0
  6
Continuous
 62
     3
100
AcDbLine
 10
163.0069910518191
 20
-340.1603755067098
 30
0.0
 11
163.0069910518191
 21
-350.3103741715662
 31
0.0
  0
LINE
  5
3A1
330
6B
100
AcDbEntity
  8
0
  6
Continuous
 62
     3
100
AcDbLine
 10
161.7569910518191
 20
-351.5603741715661
 30
0.0
 11
163.0069910518191
 21
-350.3103741715662
 31
0.0
  0
LINE
  5
3A2
330
6B
100
AcDbEntity
  8
0
  6
Continuous
 62
     3
100
AcDbLine
 10
153.0069910518191
 20
-340.1603755067098
 30
0.0
 11
153.0069910518191
 21
-350.3103741715662
 31
0.0
  0
LINE
  5
3A3
330
6B
100
AcDbEntity
  8
0
  6
Continuous
100
AcDbLine
 10
153.0069910518191
 20
-350.3103741715662
 30
0.0
 11
163.0069910518191
 21
-350.3103741715662
 31
0.0
  0
LINE
  5
3A4
330
6B
100
AcDbEntity
  8
0
  6
Continuous
100
AcDbLine
 10
154.2569910518191
 20
-351.5603741715661
 30
0.0
 11
154.2569910518191
 21
-340.1603755067098
 31
0.0
  0
LINE
  5
3A5
330
6B
100
AcDbEntity
  8
0
  6
Continuous
100
AcDbLine
 10
161.7569910518191
 20
-351.5603741715661
 30
0.0
 11
161.7569910518191
 21
-340.1603755067098
 31
0.0
  0
CIRCLE
  5
3AA
330
6B
100
AcDbEntity
  8
0
 62
     7
100
AcDbCircle
 10
128.1856775281037
 20
-370.4425516526159
 30
0.0
 40
5.0
  0
TEXT
  5
3AB
330
6B
100
AcDbEntity
  8
0
 62
     4
100
AcDbText
 10
125.8492737584906
 20
-373.5794884434923
 30
0.0
 40
6.299999999999998
  1
5
  7
高6.3
100
AcDbText
  0
LINE
  5
540
330
6B
100
AcDbEntity
  8
0
 62
     3
100
AcDbLine
 10
11.69078756699843
 20
-323.9410061085479
 30
0.0
 11
11.07198564911766
 21
-323.5837414556996
 31
0.0
  0
LINE
  5
541
330
6B
100
AcDbEntity
  8
0
 62
     3
100
AcDbLine
 10
3.071985269138052
 20
-323.5837414556996
 30
0.0
 11
2.453183351257279
 21
-323.9410061085479
 31
0.0
  0
LINE
  5
542
330
6B
100
AcDbEntity
  8
0
 62
     3
100
AcDbLine
 10
12.07198534736915
 20
-328.5837404126183
 30
0.0
 11
12.07198534736915
 21
-327.5837402487056
 31
0.0
  0
LINE
  5
543
330
6B
100
AcDbEntity
  8
0
 62
     3
100
AcDbLine
 10
2.071985570886567
 20
-327.5837402487056
 30
0.0
 11
2.071985570886567
 21
-328.5837404126183
 31
0.0
  0
LINE
  5
544
330
6B
100
AcDbEntity
  8
0
 62
     3
100
AcDbLine
 10
12.07198534736915
 20
-471.8837391281383
 30
0.0
 11
12.07198534736915
 21
-468.2742457533136
 31
0.0
  0
LINE
  5
545
330
6B
100
AcDbEntity
  8
0
 62
     3
100
AcDbLine
 10
2.071985570886567
 20
-468.264351382281
 30
0.0
 11
2.071985570886567
 21
-471.8837391281383
 31
0.0
  0
LINE
  5
546
330
6B
100
AcDbEntity
  8
0
 62
     3
100
AcDbLine
 10
11.57198526541276
 20
-458.7497662449138
 30
0.0
 11
11.57198526541276
 21
-458.3837415719287
 31
0.0
  0
LINE
  5
547
330
6B
100
AcDbEntity
  8
0
 62
     3
100
AcDbLine
 10
11.57198526541276
 20
-432.8837420487658
 30
0.0
 11
11.57198526541276
 21
-330.8837411621468
 31
0.0
  0
LINE
  5
548
330
6B
100
AcDbEntity
  8
0
 62
     3
100
AcDbLine
 10
2.571985652842954
 20
-330.8837411621468
 30
0.0
 11
2.571985652842954
 21
-432.8837420487658
 31
0.0
  0
LINE
  5
549
330
6B
100
AcDbEntity
  8
0
 62
     3
100
AcDbLine
 10
2.571985652842954
 20
-458.3837415719287
 30
0.0
 11
2.571985652842954
 21
-458.7526049161212
 31
0.0
  0
ARC
  5
54A
330
6B
100
AcDbEntity
  8
0
 62
     3
100
AcDbCircle
 10
20.0719854591265
 20
-280.3837407117528
 30
0.0
 40
1.0
100
AcDbArc
 50
0.0
 51
90.0
  0
LINE
  5
54B
330
6B
100
AcDbEntity
  8
0
 62
     3
100
AcDbLine
 10
21.07198589126153
 20
-280.8837394857661
 30
0.0
 11
21.07198589126153
 21
-280.3837421977775
 31
0.0
  0
ARC
  5
54C
330
6B
100
AcDbEntity
  8
0
 62
     3
100
AcDbCircle
 10
-2.138030214977443
 20
-433.8837407117527
 30
0.0
 40
1.0
100
AcDbArc
 50
90.0
 51
182.2457425658964
  0
LINE
  5
54D
330
6B
100
AcDbEntity
  8
0
 62
     3
100
AcDbLine
 10
-3.137262010774178
 20
-433.922926678683
 30
0.0
 11
-2.215693177482648
 21
-457.4229295993106
 31
0.0
  0
LINE
  5
54E
330
6B
100
AcDbEntity
  8
0
 62
     3
100
AcDbLine
 10
-2.928014317354723
 20
-276.3837378168361
 30
0.0
 11
-2.928014317354723
 21
-279.3837438965098
 31
0.0
  0
LINE
  5
54F
330
6B
100
AcDbEntity
  8
0
 62
     3
100
AcDbLine
 10
17.07198523561044
 20
-279.3837438965098
 30
0.0
 11
17.07198523561044
 21
-276.3837378168361
 31
0.0
  0
LINE
  5
550
330
6B
100
AcDbEntity
  8
0
 62
     3
100
AcDbLine
 10
-2.928014317354723
 20
-261.3837372207896
 30
0.0
 11
-2.928014317354723
 21
-264.3837433004634
 31
0.0
  0
LINE
  5
551
330
6B
100
AcDbEntity
  8
0
 62
     3
100
AcDbLine
 10
17.07198523561044
 20
-264.3837433004634
 30
0.0
 11
17.07198523561044
 21
-261.3837372207896
 31
0.0
  0
ARC
  5
552
330
6B
100
AcDbEntity
  8
0
 62
     3
100
AcDbCircle
 10
-1.216461587526452
 20
-457.3837407117527
 30
0.0
 40
1.0
100
AcDbArc
 50
182.2457425658964
 51
270.0
  0
LINE
  5
553
330
6B
100
AcDbEntity
  8
0
 62
     3
100
AcDbLine
 10
-1.928014153441948
 20
-264.3837433004634
 30
0.0
 11
-1.928014153441948
 21
-276.3837378168361
 31
0.0
  0
LINE
  5
554
330
6B
100
AcDbEntity
  8
0
 62
     3
100
AcDbLine
 10
16.07198507169767
 20
-276.3837378168361
 30
0.0
 11
16.07198507169767
 21
-264.3837433004634
 31
0.0
  0
LINE
  5
568
330
6B
100
AcDbEntity
  8
0
 62
     3
100
AcDbLine
 10
4.762584405192566
 20
-323.9410061085479
 30
0.0
 11
4.762584405192566
 21
-327.5837402487056
 31
0.0
  0
SPLINE
  5
569
330
6B
100
AcDbEntity
  8
0
 62
     3
100
AcDbSpline
210
0.0
220
0.0
230
1.0
 70
     8
 71
     3
 72
     9
 73
     5
 74
     0
 42
0.0000000001
 43
0.0000000001
 40
0.0
 40
0.0
 40
0.0
 40
0.0
 40
0.2385511408512822
 40
1.0
 40
1.0
 40
1.0
 40
1.0
 10
7.071985459126547
 20
-323.5837414556996
 30
0.0
 10
6.885561704537622
 20
-323.5879170057995
 30
0.0
 10
6.104078313078217
 20
-323.6054208001009
 30
0.0
 10
5.342492814346201
 20
-323.7959374345771
 30
0.0
 10
4.762584405192566
 20
-323.9410061085479
 30
0.0
  0
SPLINE
  5
56A
330
6B
100
AcDbEntity
  8
0
 62
     3
100
AcDbSpline
210
0.0
220
0.0
230
1.0
 70
     8
 71
     3
 72
     9
 73
     5
 74
     0
 42
0.0000000001
 43
0.0000000001
 40
0.0
 40
0.0
 40
0.0
 40
0.0
 40
0.2195231692878676
 40
1.0
 40
1.0
 40
1.0
 40
1.0
 10
9.381386513063148
 20
-323.9410061085479
 30
0.0
 10
9.216280585282447
 20
-323.8947971268785
 30
0.0
 10
8.464168959360222
 20
-323.6843000671862
 30
0.0
 10
7.682252859010417
 20
-323.6278215948173
 30
0.0
 10
7.071985459126547
 20
-323.5837414556996
 30
0.0
  0
LINE
  5
56B
330
6B
100
AcDbEntity
  8
0
 62
     3
100
AcDbLine
 10
9.381386513063148
 20
-323.9410061085479
 30
0.0
 11
9.381386513063148
 21
-327.5837402487056
 31
0.0
  0
SPLINE
  5
56C
330
6B
100
AcDbEntity
  8
0
 62
     3
100
AcDbSpline
210
0.0
220
0.0
230
1.0
 70
     8
 71
     3
 72
    10
 73
     6
 74
     0
 42
0.0000000001
 43
0.0000000001
 40
0.0
 40
0.0
 40
0.0
 40
0.0
 40
0.0700473683476058
 40
0.5307622493167351
 40
1.0
 40
1.0
 40
1.0
 40
1.0
 10
10.53608704003079
 20
-323.5837414556996
 30
0.0
 10
10.50873354473828
 20
-323.584167355081
 30
0.0
 10
10.30147090189212
 20
-323.5873944757992
 30
0.0
 10
9.910671298605846
 20
-323.6654136775555
 30
0.0
 10
9.558889450029028
 20
-323.8485823940507
 30
0.0
 10
9.381386513063148
 20
-323.9410061085479
 30
0.0
  0
SPLINE
  5
56D
330
6B
100
AcDbEntity
  8
0
 62
     3
100
AcDbSpline
210
0.0
220
0.0
230
1.0
 70
     8
 71
     3
 72
     9
 73
     5
 74
     0
 42
0.0000000001
 43
0.0000000001
 40
0.0
 40
0.0
 40
0.0
 40
0.0
 40
0.4954577589832623
 40
1.0
 40
1.0
 40
1.0
 40
1.0
 10
11.69078756699843
 20
-323.9410061085479
 30
0.0
 10
11.50325916704327
 20
-323.8411515121388
 30
0.0
 10
11.12476393398856
 20
-323.6396114320844
 30
0.0
 10
10.7334974890133
 20
-323.6024772294933
 30
0.0
 10
10.53608704003079
 20
-323.5837414556996
 30
0.0
  0
LINE
  5
56E
330
6B
100
AcDbEntity
  8
0
 62
     3
100
AcDbLine
 10
11.69078756699843
 20
-323.9410061085479
 30
0.0
 11
11.69078756699843
 21
-327.5837402487056
 31
0.0
  0
LINE
  5
56F
330
6B
100
AcDbEntity
  8
0
 62
     3
100
AcDbLine
 10
2.453183351257279
 20
-323.9410061085479
 30
0.0
 11
2.453183351257279
 21
-327.5837402487056
 31
0.0
  0
SPLINE
  5
570
330
6B
100
AcDbEntity
  8
0
 62
     3
100
AcDbSpline
210
0.0
220
0.0
230
1.0
 70
     8
 71
     3
 72
    10
 73
     6
 74
     0
 42
0.0000000001
 43
0.0000000001
 40
0.0
 40
0.0
 40
0.0
 40
0.0
 40
0.0700475401241406
 40
0.5307624190371129
 40
1.0
 40
1.0
 40
1.0
 40
1.0
 10
3.607883878224923
 20
-323.5837414556996
 30
0.0
 10
3.580530387732947
 20
-323.5841673540542
 30
0.0
 10
3.373268223252978
 20
-323.5873944601094
 30
0.0
 10
2.982468089632902
 20
-323.6654136357108
 30
0.0
 10
2.630686251525955
 20
-323.848582390889
 30
0.0
 10
2.453183351257279
 20
-323.9410061085479
 30
0.0
  0
SPLINE
  5
571
330
6B
100
AcDbEntity
  8
0
 62
     3
100
AcDbSpline
210
0.0
220
0.0
230
1.0
 70
     8
 71
     3
 72
     9
 73
     5
 74
     0
 42
0.0000000001
 43
0.0000000001
 40
0.0
 40
0.0
 40
0.0
 40
0.0
 40
0.4954579776036815
 40
1.0
 40
1.0
 40
1.0
 40
1.0
 10
4.762584405192566
 20
-323.9410061085479
 30
0.0
 10
4.575055931750681
 20
-323.8411515131569
 30
0.0
 10
4.196560717385863
 20
-323.6396115240867
 30
0.0
 10
3.805294251977783
 20
-323.60247725495
 30
0.0
 10
3.607883878224923
 20
-323.5837414556996
 30
0.0
  0
LINE
  5
572
330
6B
100
AcDbEntity
  8
0
 62
     3
100
AcDbLine
 10
10.53608704003079
 20
-323.5837414556996
 30
0.0
 11
7.071985459126547
 21
-323.5837414556996
 31
0.0
  0
LINE
  5
573
330
6B
100
AcDbEntity
  8
0
 62
     3
100
AcDbLine
 10
7.071985459126547
 20
-323.5837414556996
 30
0.0
 11
3.607883878224923
 21
-323.5837414556996
 31
0.0
  0
LINE
  5
574
330
6B
100
AcDbEntity
  8
0
 62
     3
100
AcDbLine
 10
11.07198564911766
 20
-323.5837414556996
 30
0.0
 11
10.53608704003079
 21
-323.5837414556996
 31
0.0
  0
LINE
  5
575
330
6B
100
AcDbEntity
  8
0
 62
     3
100
AcDbLine
 10
3.607883878224923
 20
-323.5837414556996
 30
0.0
 11
3.071985269138052
 21
-323.5837414556996
 31
0.0
  0
LINE
  5
576
330
6B
100
AcDbEntity
  8
0
 62
     3
100
AcDbLine
 10
2.071985570886567
 20
-327.5837402487056
 30
0.0
 11
12.07198534736915
 21
-327.5837402487056
 31
0.0
  0
LINE
  5
577
330
6B
100
AcDbEntity
  8
0
 62
     3
100
AcDbLine
 10
-7.928014205596014
 20
-318.6837404662625
 30
0.0
 11
-10.92801376601176
 21
-318.6837404662625
 31
0.0
  0
LINE
  5
578
330
6B
100
AcDbEntity
  8
0
 62
     3
100
AcDbLine
 10
-10.92801376601176
 20
-318.6837404662625
 30
0.0
 11
-10.92801376601176
 21
-316.3837406480567
 31
0.0
  0
LINE
  5
579
330
6B
100
AcDbEntity
  8
0
 62
     3
100
AcDbLine
 10
-10.19057578762488
 20
-316.3837406480567
 30
0.0
 11
-7.928014205596014
 21
-316.3837406480567
 31
0.0
  0
ARC
  5
57A
330
6B
100
AcDbEntity
  8
0
 62
     3
100
AcDbCircle
 10
0.3417071422863955
 20
-327.5837407117527
 30
0.0
 40
3.300000000000011
100
AcDbArc
 50
194.8274822216318
 51
270.0
  0
LINE
  5
57B
330
6B
100
AcDbEntity
  8
0
 62
     3
100
AcDbLine
 10
-4.83707751502709
 20
-320.9160126441972
 30
0.0
 11
-2.848405794999166
 21
-328.4282421389477
 31
0.0
  0
LINE
  5
57C
330
6B
100
AcDbEntity
  8
0
 62
     3
100
AcDbLine
 10
-7.928014205596014
 20
-318.6837404662625
 30
0.0
 11
-7.73717969079928
 21
-318.6837404662625
 31
0.0
  0
LINE
  5
57D
330
6B
100
AcDbEntity
  8
0
 62
     3
100
AcDbLine
 10
-7.73717969079928
 20
-316.3837406480567
 30
0.0
 11
-7.928014205596014
 21
-316.3837406480567
 31
0.0
  0
ARC
  5
57E
330
6B
100
AcDbEntity
  8
0
 62
     3
100
AcDbCircle
 10
-7.737179590353092
 20
-321.6837407117528
 30
0.0
 40
5.300000000000012
100
AcDbArc
 50
14.82748222162886
 51
90.0
  0
LINE
  5
57F
330
6B
100
AcDbEntity
  8
0
 62
     3
100
AcDbLine
 10
-0.6249937543781244
 20
-327.839649997081
 30
0.0
 11
-2.613665940067335
 21
-320.3274205023305
 31
0.0
  0
LINE
  5
580
330
6B
100
AcDbEntity
  8
0
 62
     3
100
AcDbLine
 10
13.80226394737644
 20
-328.5837404126183
 30
0.0
 11
0.3417069708792724
 21
-328.5837404126183
 31
0.0
  0
ARC
  5
581
330
6B
100
AcDbEntity
  8
0
 62
     3
100
AcDbCircle
 10
13.80226377596665
 20
-327.5837407117528
 30
0.0
 40
1.000000000000001
100
AcDbArc
 50
270.0
 51
345.1725177783719
  0
LINE
  5
582
330
6B
100
AcDbEntity
  8
0
 62
     3
100
AcDbLine
 10
16.75763685832305
 20
-320.3274205023305
 30
0.0
 11
14.76896467263384
 21
-327.839649997081
 31
0.0
  0
ARC
  5
583
330
6B
100
AcDbEntity
  8
0
 62
     3
100
AcDbCircle
 10
21.8811505086062
 20
-321.6837407117528
 30
0.0
 40
5.300000000000012
100
AcDbArc
 50
90.0
 51
165.1725177783711
  0
LINE
  5
584
330
6B
100
AcDbEntity
  8
0
 62
     3
100
AcDbLine
 10
32.07198583165689
 20
-316.3837406480567
 30
0.0
 11
21.881150609055
 21
-316.3837406480567
 31
0.0
  0
LINE
  5
585
330
6B
100
AcDbEntity
  8
0
 62
     3
100
AcDbLine
 10
32.07198583165689
 20
-318.6837404662625
 30
0.0
 11
32.07198583165689
 21
-316.3837406480567
 31
0.0
  0
LINE
  5
586
330
6B
100
AcDbEntity
  8
0
 62
     3
100
AcDbLine
 10
21.881150609055
 20
-318.6837404662625
 30
0.0
 11
32.07198583165689
 21
-318.6837404662625
 31
0.0
  0
ARC
  5
587
330
6B
100
AcDbEntity
  8
0
 62
     3
100
AcDbCircle
 10
21.8811505086062
 20
-321.6837407117528
 30
0.0
 40
3.0
100
AcDbArc
 50
90.0
 51
165.1725177783711
  0
LINE
  5
588
330
6B
100
AcDbEntity
  8
0
 62
     3
100
AcDbLine
 10
16.99237671325488
 20
-328.4282421389477
 30
0.0
 11
18.98104843328281
 21
-320.9160126441972
 31
0.0
  0
ARC
  5
589
330
6B
100
AcDbEntity
  8
0
 62
     3
100
AcDbCircle
 10
13.80226377596665
 20
-327.5837407117527
 30
0.0
 40
3.300000000000018
100
AcDbArc
 50
270.0
 51
345.1725177783711
  0
LINE
  5
58A
330
6B
100
AcDbEntity
  8
0
 62
     3
100
AcDbLine
 10
0.3417069708792724
 20
-330.8837411621468
 30
0.0
 11
13.80226394737644
 21
-330.8837411621468
 31
0.0
  0
ARC
  5
58B
330
6B
100
AcDbEntity
  8
0
 62
     3
100
AcDbCircle
 10
-7.737179590353092
 20
-321.6837407117528
 30
0.0
 40
3.0
100
AcDbArc
 50
14.82748222162886
 51
90.0
  0
ARC
  5
58C
330
6B
100
AcDbEntity
  8
0
 62
     3
100
AcDbCircle
 10
0.3417071422863955
 20
-327.5837407117528
 30
0.0
 40
1.0
100
AcDbArc
 50
194.8274822216288
 51
270.0
  0
LINE
  5
58D
330
6B
100
AcDbEntity
  8
0
 62
     3
100
AcDbLine
 10
42.8570756373791
 20
-325.5781408095614
 30
0.0
 11
44.61897776106876
 21
-324.0997295522944
 31
0.0
  0
LINE
  5
58E
330
6B
100
AcDbEntity
  8
0
 62
     3
100
AcDbLine
 10
37.07198478857562
 20
-318.6837404662625
 30
0.0
 11
42.8570756373791
 21
-325.5781408095614
 31
0.0
  0
LINE
  5
58F
330
6B
100
AcDbEntity
  8
0
 62
     3
100
AcDbLine
 10
32.07198583165689
 20
-318.6837404662625
 30
0.0
 11
37.07198478857562
 21
-318.6837404662625
 31
0.0
  0
LINE
  5
590
330
6B
100
AcDbEntity
  8
0
 62
     3
100
AcDbLine
 10
33.54300797561689
 20
-316.3837406480567
 30
0.0
 11
32.07198583165689
 21
-316.3837406480567
 31
0.0
  0
ARC
  5
591
330
6B
100
AcDbEntity
  8
0
 62
     3
100
AcDbCircle
 10
37.07198545912655
 20
-318.6837407117528
 30
0.0
 40
2.30000000000001
100
AcDbArc
 50
40.00000000000029
 51
90.0
  0
LINE
  5
592
330
6B
100
AcDbEntity
  8
0
 62
     3
100
AcDbLine
 10
44.61897776106876
 20
-324.0997295522944
 30
0.0
 11
38.83388877491041
 21
-317.2053292089955
 31
0.0
  0
SPLINE
  5
594
330
6B
100
AcDbEntity
  8
0
 62
     3
100
AcDbSpline
210
0.0
220
0.0
230
1.0
 70
     8
 71
     3
 72
    20
 73
    16
 74
     0
 42
0.0000000001
 43
0.0000000001
 40
0.0
 40
0.0
 40
0.0
 40
0.0
 40
0.083902135376044
 40
0.1678086308968556
 40
0.2517657515607353
 40
0.3357037329072033
 40
0.4181647335754784
 40
0.500613194573818
 40
0.5794321106676375
 40
0.6582613234749021
 40
0.7368965357315135
 40
0.8155473104059943
 40
0.8975115133838226
 40
0.9794746991725064
 40
0.9999999999999998
 40
0.9999999999999998
 40
0.9999999999999998
 40
0.9999999999999998
 10
-1.872286604544683
 20
-469.1507171535747
 30
0.0
 10
-1.534497159862667
 20
-469.0561379998801
 30
0.0
 10
-0.8589007165845146
 20
-468.8669747774935
 30
0.0
 10
0.4480160041542831
 20
-468.5613761202707
 30
0.0
 10
1.934817870042195
 20
-468.2837254772003
 30
0.0
 10
3.570702909619113
 20
-468.058961913354
 30
0.0
 10
5.306194441214983
 20
-467.9173876542803
 30
0.0
 10
7.060094089143262
 20
-467.8673178381587
 30
0.0
 10
8.787072834281842
 20
-467.9158149983964
 30
0.0
 10
10.43833673229704
 20
-468.0461005846193
 30
0.0
 10
11.99217071760256
 20
-468.2505949433836
 30
0.0
 10
13.43535286759402
 20
-468.5080506856026
 30
0.0
 10
14.72073383032142
 20
-468.7975157067611
 30
0.0
 10
15.54886107212655
 20
-469.0167396093461
 30
0.0
 10
15.93827071371874
 20
-469.1283625097859
 30
0.0
 10
16.0162575228004
 20
-469.1507171535747
 30
0.0
  0
LINE
  5
595
330
6B
100
AcDbEntity
  8
0
 62
     3
100
AcDbLine
 10
-1.872286604544683
 20
-459.8369028115526
 30
0.0
 11
-1.872286604544683
 21
-469.1507171535747
 31
0.0
  0
LINE
  5
596
330
6B
100
AcDbEntity
  8
0
 62
     3
100
AcDbLine
 10
16.0162575228004
 20
-459.8369028115526
 30
0.0
 11
16.0162575228004
 21
-469.1507171535747
 31
0.0
  0
SPLINE
  5
597
330
6B
100
AcDbEntity
  8
0
 62
     3
100
AcDbSpline
210
0.0
220
0.0
230
1.0
 70
     8
 71
     3
 72
    20
 73
    16
 74
     0
 42
0.0000000001
 43
0.0000000001
 40
0.0
 40
0.0
 40
0.0
 40
0.0
 40
0.0451346359175569
 40
0.1271064310271176
 40
0.2090742205290979
 40
0.2937831903201307
 40
0.3784636277114457
 40
0.4595402766308883
 40
0.5406088314066705
 40
0.6177244967898523
 40
0.6948567255056372
 40
0.773104154734104
 40
0.8513685094368344
 40
0.9256864763294782
 40
1.0
 40
1.0
 40
1.0
 40
1.0
 10
16.0162575228004
 20
-459.8369028115526
 30
0.0
 10
15.84106488723796
 20
-459.7794656361563
 30
0.0
 10
15.34769410455897
 20
-459.6177132651777
 30
0.0
 10
14.35169893526017
 20
-459.3279609477394
 30
0.0
 10
12.98014750505035
 20
-458.9942456753586
 30
0.0
 10
11.40987710434063
 20
-458.7031098100036
 30
0.0
 10
9.710909687543107
 20
-458.4884918360773
 30
0.0
 10
7.950621346161142
 20
-458.3806791353693
 30
0.0
 10
6.2173723829203
 20
-458.3786913171008
 30
0.0
 10
4.539998211941678
 20
-458.4828765933535
 30
0.0
 10
2.953003379805693
 20
-458.6706997690686
 30
0.0
 10
1.471811745495074
 20
-458.9324225028881
 30
0.0
 10
0.1557076547550196
 20
-459.2336298413964
 30
0.0
 10
-0.9840925236098312
 20
-459.5489383583601
 30
0.0
 10
-1.576227811373428
 20
-459.7409165735014
 30
0.0
 10
-1.872286604544683
 20
-459.8369028115526
 30
0.0
  0
LINE
  5
598
330
6B
100
AcDbEntity
  8
0
 62
     3
100
AcDbLine
 10
25.07198468426749
 20
-473.3837347173944
 30
0.0
 11
29.82198499719186
 21
-473.3837347173944
 31
0.0
  0
LINE
  5
599
330
6B
100
AcDbEntity
  8
0
 62
     3
100
AcDbLine
 10
29.82198499719186
 20
-469.8837350750222
 30
0.0
 11
29.82198499719186
 21
-473.3837347173944
 31
0.0
  0
ARC
  5
59A
330
6B
100
AcDbEntity
  8
0
 62
     3
100
AcDbCircle
 10
7.071985459126547
 20
-500.0882861662983
 30
0.0
 40
32.20454545454547
100
AcDbArc
 50
56.01835341602782
 51
73.87503769513481
  0
ARC
  5
59B
330
6B
100
AcDbEntity
  8
0
 62
     3
100
AcDbCircle
 10
7.071985459126547
 20
-486.6364581030571
 30
0.0
 40
28.25271739130434
100
AcDbArc
 50
36.36730631142511
 51
71.54371971846199
  0
LINE
  5
59C
330
6B
100
AcDbEntity
  8
0
 62
     3
100
AcDbLine
 10
-15.67801407893614
 20
-473.3837347173944
 30
0.0
 11
-10.92801376601176
 21
-473.3837347173944
 31
0.0
  0
LINE
  5
59D
330
6B
100
AcDbEntity
  8
0
 62
     3
100
AcDbLine
 10
-15.67801407893614
 20
-469.8837350750222
 30
0.0
 11
-15.67801407893614
 21
-473.3837347173944
 31
0.0
  0
ARC
  5
59E
330
6B
100
AcDbEntity
  8
0
 62
     3
100
AcDbCircle
 10
7.071985459126547
 20
-500.0882861662983
 30
0.0
 40
32.20454545454547
100
AcDbArc
 50
106.1249623048652
 51
123.9816465839721
  0
ARC
  5
59F
330
6B
100
AcDbEntity
  8
0
 62
     3
100
AcDbCircle
 10
7.071985459126547
 20
-486.6364581030571
 30
0.0
 40
28.25271739130434
100
AcDbArc
 50
108.456280281538
 51
143.6326936885748
  0
LINE
  5
5A0
330
6B
100
AcDbEntity
  8
0
 62
     3
100
AcDbLine
 10
2.071985570886567
 20
-471.8837391281383
 30
0.0
 11
12.07198534736915
 21
-471.8837391281383
 31
0.0
  0
ARC
  5
5A1
330
6B
100
AcDbEntity
  8
0
 62
     3
100
AcDbCircle
 10
7.071985459126493
 20
-310.3837407117528
 30
0.0
 40
3.000000000000001
100
AcDbArc
 50
63.43494882292365
 51
116.5650511770798
  0
LINE
  5
5A2
330
6B
100
AcDbEntity
  8
0
 62
     3
100
AcDbLine
 10
9.670903967866136
 20
-441.418642892863
 30
0.0
 11
9.649857241833046
 21
-442.4186449194207
 31
0.0
  0
ELLIPSE
  5
5A3
330
6B
100
AcDbEntity
  8
0
 62
     3
100
AcDbEllipse
 10
-7.400150495872707
 20
-315.3837407117528
 30
0.0
 11
4.233752028828605
 21
0.9994532786812158
 31
0.0
210
0.0
220
0.0
230
1.0
 40
0.0078093199607892
 41
3.73251507391473
 42
4.710545452104369
  0
LINE
  5
5A5
330
6B
100
AcDbEntity
  8
0
 62
     3
100
AcDbLine
 10
-10.88754593749956
 20
-316.0094048524157
 30
0.0
 11
5.73034462629391
 21
-307.7004577660815
 31
0.0
  0
LINE
  5
5A6
330
6B
100
AcDbEntity
  8
0
 62
     3
100
AcDbLine
 10
8.413626291961803
 20
-307.7004577660815
 30
0.0
 11
19.7802032960443
 21
-313.383747606899
 31
0.0
  0
ELLIPSE
  5
5A7
330
6B
100
AcDbEntity
  8
0
 62
     3
100
AcDbEllipse
 10
19.54412141412615
 20
-314.3837407117528
 30
0.0
 11
0.2360675763499671
 21
0.9999983007021738
 31
0.0
210
0.0
220
0.0
230
0.9999999999999998
 40
0.0078093199607849
 41
4.679320229473558
 42
6.281341778900271
  0
ELLIPSE
  5
5A8
330
6B
100
AcDbEntity
  8
0
 62
     3
100
AcDbEllipse
 10
-5.164082518373277
 20
-315.3837407117528
 30
0.0
 11
-0.2360675763499671
 21
0.9999983007021171
 31
0.0
210
0.0
220
0.0
230
1.0
 40
0.007809319960798
 41
1.603865077706083
 42
3.139749125309187
  0
LINE
  5
5A9
330
6B
100
AcDbEntity
  8
0
 62
     3
100
AcDbLine
 10
7.071985459126493
 20
-309.3006115103023
 30
0.0
 11
7.071985459126493
 21
-310.3837396645801
 31
0.0
  0
LINE
  5
5AA
330
6B
100
AcDbEntity
  8
0
 62
     3
100
AcDbLine
 10
7.071985459126493
 20
-310.3837396645801
 30
0.0
 11
-4.928014645180268
 21
-316.3837406480567
 31
0.0
  0
LINE
  5
5AB
330
6B
100
AcDbEntity
  8
0
 62
     3
100
AcDbLine
 10
-4.928014645180268
 20
-316.3837406480567
 30
0.0
 11
-4.928029546341463
 21
-316.3837406480567
 31
0.0
  0
ELLIPSE
  5
5AC
330
6B
100
AcDbEntity
  8
0
 62
     3
100
AcDbEllipse
 10
19.30805343662626
 20
-315.3837407117528
 30
0.0
 11
0.2360675763500239
 21
0.9999983007021736
 31
0.0
210
0.0
220
0.0
230
0.9999999999999998
 40
0.0078093199607975
 41
3.143436181877417
 42
4.679320229473511
  0
LINE
  5
5AD
330
6B
100
AcDbEntity
  8
0
 62
     3
100
AcDbLine
 10
19.07200046459718
 20
-316.3837406480567
 30
0.0
 11
19.07198556343599
 21
-316.3837406480567
 31
0.0
  0
LINE
  5
5AE
330
6B
100
AcDbEntity
  8
0
 62
     3
100
AcDbLine
 10
19.07198556343599
 20
-316.3837406480567
 30
0.0
 11
7.071985459126493
 21
-310.3837396645801
 31
0.0
  0
LINE
  5
5AF
330
6B
100
AcDbEntity
  8
0
 62
     3
100
AcDbLine
 10
19.78018932620569
 20
-313.3837401563184
 30
0.0
 11
39.57198426703497
 21
-313.3837401563184
 31
0.0
  0
ARC
  5
5B0
330
6B
100
AcDbEntity
  8
0
 62
     3
100
AcDbCircle
 10
39.5719854591265
 20
-323.3837407117528
 30
0.0
 40
10.00000000000003
100
AcDbArc
 50
0.0
 51
90.0
  0
SPLINE
  5
5B1
330
6B
100
AcDbEntity
  8
0
 62
     3
100
AcDbSpline
210
0.0
220
0.0
230
1.0
 70
     8
 71
     3
 72
    14
 73
    10
 74
     0
 42
0.0000000001
 43
0.0000000001
 40
0.0
 40
0.0
 40
0.0
 40
0.0
 40
0.1024766175985623
 40
0.2046441371085023
 40
0.3948378218362143
 40
0.6027202865491668
 40
0.7918262039223443
 40
0.9446713636596319
 40
1.0
 40
1.0
 40
1.0
 40
1.0
 10
-6.836524637243312
 20
-280.3837421977775
 30
0.0
 10
-6.834186071357294
 20
-280.3259619283854
 30
0.0
 10
-6.829515993352856
 20
-280.2105756710251
 30
0.0
 10
-6.764676693703561
 20
-280.0013028596289
 30
0.0
 10
-6.631803090431219
 20
-279.7818444638588
 30
0.0
 10
-6.409725128062517
 20
-279.576231216585
 30
0.0
 10
-6.143134820339355
 20
-279.4389885313381
 30
0.0
 10
-5.921692514212054
 20
-279.3879684517518
 30
0.0
 10
-5.805738619270242
 20
-279.3846309428971
 30
0.0
 10
-5.77492027898745
 20
-279.3837438965098
 30
0.0
  0
LINE
  5
5B2
330
6B
100
AcDbEntity
  8
0
 62
     3
100
AcDbLine
 10
-5.77492027898745
 20
-279.3837438965098
 30
0.0
 11
20.07198572734876
 21
-279.3837438965098
 31
0.0
  0
SPLINE
  5
5B3
330
6B
100
AcDbEntity
  8
0
 62
     3
100
AcDbSpline
210
0.0
220
0.0
230
1.0
 70
     8
 71
     3
 72
    12
 73
     8
 74
     0
 42
0.0000000001
 43
0.0000000001
 40
0.0
 40
0.0
 40
0.0
 40
0.0
 40
0.2113378995643274
 40
0.4282863264749209
 40
0.7116535677903608
 40
0.9970470620315047
 40
1.0
 40
1.0
 40
1.0
 40
1.0
 10
20.9283917827396
 20
-287.2952546620624
 30
0.0
 10
20.93254919476419
 20
-286.8177755677562
 30
0.0
 10
20.94097438838696
 20
-285.8501414250373
 30
0.0
 10
20.99518529779687
 20
-284.2906679028331
 30
0.0
 10
21.05361887666425
 20
-282.6386050324993
 30
0.0
 10
21.07192565451533
 20
-281.4760102988369
 30
0.0
 10
21.07198528063418
 20
-280.889743408708
 30
0.0
 10
21.07198589126153
 20
-280.8837394857661
 30
0.0
  0
LINE
  5
5B4
330
6B
100
AcDbEntity
  8
0
 62
     3
100
AcDbLine
 10
20.9283917827396
 20
-313.3837401563184
 30
0.0
 11
20.9283917827396
 21
-287.2952546620624
 31
0.0
  0
SPLINE
  5
5B5
330
6B
100
AcDbEntity
  8
0
 62
     3
100
AcDbSpline
210
0.0
220
0.0
230
1.0
 70
     8
 71
     3
 72
    12
 73
     8
 74
     0
 42
0.0000000001
 43
0.0000000001
 40
0.0
 40
0.0
 40
0.0
 40
0.0
 40
0.2265889368932489
 40
0.4607567989378377
 40
0.6871161823476151
 40
0.9188727471616543
 40
1.0
 40
1.0
 40
1.0
 40
1.0
 10
15.07198583910747
 20
-305.3837407076613
 30
0.0
 10
15.05446284532252
 20
-305.7842885980006
 30
0.0
 10
15.01883075032776
 20
-306.5987818663146
 30
0.0
 10
14.73625376752335
 20
-307.7733607322183
 30
0.0
 10
14.2974812537833
 20
-308.8831134798084
 30
0.0
 10
13.84013824154738
 20
-309.6808445343203
 30
0.0
 10
13.52782939799306
 20
-310.1066608086677
 30
0.0
 10
13.44685122946782
 20
-310.2170701766269
 30
0.0
  0
LINE
  5
5B6
330
6B
100
AcDbEntity
  8
0
 62
     3
100
AcDbLine
 10
15.07198583910747
 20
-293.3837424659984
 30
0.0
 11
15.07198583910747
 21
-305.3837407076613
 31
0.0
  0
LINE
  5
5B7
330
6B
100
AcDbEntity
  8
0
 62
     3
100
AcDbLine
 10
-0.9280149208517514
 20
-305.3837407076613
 30
0.0
 11
-0.9280149208517514
 21
-293.3837424659984
 31
0.0
  0
SPLINE
  5
5B8
330
6B
100
AcDbEntity
  8
0
 62
     3
100
AcDbSpline
210
0.0
220
0.0
230
1.0
 70
     8
 71
     3
 72
    12
 73
     8
 74
     0
 42
0.0000000001
 43
0.0000000001
 40
0.0
 40
0.0
 40
0.0
 40
0.0
 40
0.0465721198685759
 40
0.3199229029938767
 40
0.6024647152547003
 40
0.7988461749298159
 40
0.9999999999999998
 40
0.9999999999999998
 40
0.9999999999999998
 40
0.9999999999999998
 10
0.6971196887878932
 20
-310.2170701766269
 30
0.0
 10
0.6502455101187934
 20
-310.1540186937257
 30
0.0
 10
0.3282476419180398
 20
-309.7208923188743
 30
0.0
 10
-0.1921527011134572
 20
-308.8349873711522
 30
0.0
 10
-0.6434448159359363
 20
-307.6125402019995
 30
0.0
 10
-0.8870692572566554
 20
-306.4417081765697
 30
0.0
 10
-0.9142575688018723
 20
-305.7392076765466
 30
0.0
 10
-0.9280149208517514
 20
-305.3837407076613
 30
0.0
  0
LINE
  5
5B9
330
6B
100
AcDbEntity
  8
0
 62
     3
100
AcDbLine
 10
-6.784420864483877
 20
-287.3593967104213
 30
0.0
 11
-6.784420864483877
 21
-313.9578427815692
 31
0.0
  0
SPLINE
  5
5BA
330
6B
100
AcDbEntity
  8
0
 62
     3
100
AcDbSpline
210
0.0
220
0.0
230
1.0
 70
     8
 71
     3
 72
    10
 73
     6
 74
     0
 42
0.0000000001
 43
0.0000000001
 40
0.0
 40
0.0
 40
0.0
 40
0.0
 40
0.1043845299937991
 40
0.5512269732687907
 40
1.0
 40
1.0
 40
1.0
 40
1.0
 10
-6.836524637243312
 20
-280.3837421977775
 30
0.0
 10
-6.832244244109801
 20
-280.6243329053998
 30
0.0
 10
-6.809640625053247
 20
-281.8948285197127
 30
0.0
 10
-6.789511765242991
 20
-284.2265853275007
 30
0.0
 10
-6.786120268300577
 20
-286.3136266447719
 30
0.0
 10
-6.784420864483877
 20
-287.3593967104213
 30
0.0
  0
SPLINE
  5
5BB
330
6B
100
AcDbEntity
  8
0
 62
     3
100
AcDbSpline
210
0.0
220
0.0
230
1.0
 70
     8
 71
     3
 72
    28
 73
    24
 74
     0
 42
0.0000000001
 43
0.0000000001
 40
0.0
 40
0.0
 40
0.0
 40
0.0
 40
0.0063179936849026
 40
0.0504157168286945
 40
0.0945365854337822
 40
0.1392137818741361
 40
0.1839150280071111
 40
0.2360665673070763
 40
0.2882177102653133
 40
0.3455999208286631
 40
0.4029338454107301
 40
0.4555845866697702
 40
0.5082144391473829
 40
0.5547027129069578
 40
0.6012062885287767
 40
0.6477770227315608
 40
0.6943695295404674
 40
0.7461050028166955
 40
0.7978476529721995
 40
0.8550145949200182
 40
0.9121217272945278
 40
0.9560711605210684
 40
1.0
 40
1.0
 40
1.0
 40
1.0
 10
-0.9280149208517514
 20
-293.3837424659984
 30
0.0
 10
-0.9276661084239208
 20
-293.3296008510287
 30
0.0
 10
-0.9248826886446863
 20
-292.8975668122037
 30
0.0
 10
-0.8476724218479033
 20
-292.088148045662
 30
0.0
 10
-0.5890525227271155
 20
-290.988127267039
 30
0.0
 10
-0.1799464939406334
 20
-289.9467659759249
 30
0.0
 10
0.3927634613930877
 20
-288.926099500523
 30
0.0
 10
1.144866063489754
 20
-287.9611076029447
 30
0.0
 10
2.115267179983561
 20
-287.0551739668384
 30
0.0
 10
3.273809620380461
 20
-286.2962576517957
 30
0.0
 10
4.571072885048748
 20
-285.7406497045967
 30
0.0
 10
5.926620631963827
 20
-285.4299042370156
 30
0.0
 10
7.232458024781067
 20
-285.350312369504
 30
0.0
 10
8.477595578193302
 20
-285.4795399963133
 30
0.0
 10
9.631010389954894
 20
-285.7727809489554
 30
0.0
 10
10.71426117089129
 20
-286.230130218077
 30
0.0
 10
11.74536183077958
 20
-286.8522035231414
 30
0.0
 10
12.69266902550885
 20
-287.6447312010224
 30
0.0
 10
13.5586818658013
 20
-288.6373658674425
 30
0.0
 10
14.27442256165943
 20
-289.8076489970669
 30
0.0
 10
14.7565817613098
 20
-291.0448272392505
 30
0.0
 10
15.02442048446084
 20
-292.2530307000277
 30
0.0
 10
15.05613319812016
 20
-293.0068974320615
 30
0.0
 10
15.07198583910747
 20
-293.3837424659984
 30
0.0
  0
LINE
  5
5BC
330
6B
100
AcDbEntity
  8
0
 62
     3
100
AcDbLine
 10
-4.928029546341463
 20
-316.3837406480567
 30
0.0
 11
-7.73717969079928
 21
-316.3837406480567
 31
0.0
  0
LINE
  5
5BD
330
6B
100
AcDbEntity
  8
0
 62
     3
100
AcDbLine
 10
-10.19057578762488
 20
-316.3837406480567
 30
0.0
 11
-10.92801376601176
 21
-316.3837406480567
 31
0.0
  0
ARC
  5
5BF
330
6B
100
AcDbEntity
  8
0
 62
     3
100
AcDbCircle
 10
39.5719854591265
 20
-323.3837407117528
 30
0.0
 40
7.000000000000027
100
AcDbArc
 50
0.0
 51
90.0
  0
LINE
  5
5C0
330
6B
100
AcDbEntity
  8
0
 62
     3
100
AcDbLine
 10
39.57198426703497
 20
-316.3837406480567
 30
0.0
 11
33.54300797561689
 21
-316.3837406480567
 31
0.0
  0
LINE
  5
5C1
330
6B
100
AcDbEntity
  8
0
 62
     3
100
AcDbLine
 10
21.881150609055
 20
-316.3837406480567
 30
0.0
 11
19.07200046459718
 21
-316.3837406480567
 31
0.0
  0
LINE
  5
5C2
330
6B
100
AcDbEntity
  8
0
 62
     3
100
AcDbLine
 10
46.5719872770695
 20
-420.3837390685336
 30
0.0
 11
46.5719872770695
 21
-323.383739932801
 31
0.0
  0
LINE
  5
5C3
330
6B
100
AcDbEntity
  8
0
 62
     3
100
AcDbLine
 10
49.57198590616268
 20
-323.383739932801
 30
0.0
 11
49.57198590616268
 21
-420.3837390685336
 31
0.0
  0
ARC
  5
5C4
330
6B
100
AcDbEntity
  8
0
 62
     3
100
AcDbCircle
 10
26.57198545912649
 20
-420.3837407117527
 30
0.0
 40
20.0
100
AcDbArc
 50
270.0
 51
0.0
  0
ARC
  5
5C5
330
6B
100
AcDbEntity
  8
0
 62
     3
100
AcDbCircle
 10
26.57198545912649
 20
-420.3837407117527
 30
0.0
 40
23.0
100
AcDbArc
 50
270.0
 51
0.0
  0
SPLINE
  5
5C6
330
6B
100
AcDbEntity
  8
0
 62
     3
100
AcDbSpline
210
0.0
220
0.0
230
1.0
 70
     8
 71
     3
 72
     9
 73
     5
 74
     0
 42
0.0000000001
 43
0.0000000001
 40
0.0
 40
0.0
 40
0.0
 40
0.0
 40
0.5889086319488126
 40
1.0
 40
1.0
 40
1.0
 40
1.0
 10
16.94754098186774
 20
-433.3837430620448
 30
0.0
 10
16.99587870534378
 20
-433.4847138218141
 30
0.0
 10
17.07795888018529
 20
-433.6561678543951
 30
0.0
 10
17.08182572928308
 20
-433.845212185845
 30
0.0
 10
17.0834153575687
 20
-433.922926678683
 30
0.0
  0
LINE
  5
5C7
330
6B
100
AcDbEntity
  8
0
 62
     3
100
AcDbLine
 10
-2.138030187985464
 20
-432.8837420487658
 30
0.0
 11
16.15903020481153
 21
-432.8837420487658
 31
0.0
  0
SPLINE
  5
5C8
330
6B
100
AcDbEntity
  8
0
 62
     3
100
AcDbSpline
210
0.0
220
0.0
230
1.0
 70
     8
 71
     3
 72
    12
 73
     8
 74
     0
 42
0.0000000001
 43
0.0000000001
 40
0.0
 40
0.0
 40
0.0
 40
0.0
 40
0.0057250728073753
 40
0.1711860539886552
 40
0.5102513907364182
 40
0.7713114590993832
 40
0.9999999999999998
 40
0.9999999999999998
 40
0.9999999999999998
 40
0.9999999999999998
 10
16.15903020481153
 20
-432.8837420487658
 30
0.0
 10
16.16070069734144
 20
-432.8837452626272
 30
0.0
 10
16.21065028471469
 20
-432.8838413606625
 30
0.0
 10
16.35945205682094
 20
-432.8981443562441
 30
0.0
 10
16.5782783813662
 20
-432.9834224208418
 30
0.0
 10
16.79812249819247
 20
-433.160968962863
 30
0.0
 10
16.89997899957404
 20
-433.3128309666991
 30
0.0
 10
16.94754098186774
 20
-433.3837430620448
 30
0.0
  0
SPLINE
  5
5CA
330
6B
100
AcDbEntity
  8
0
 62
     3
100
AcDbSpline
210
0.0
220
0.0
230
1.0
 70
     8
 71
     3
 72
    12
 73
     8
 74
     0
 42
0.0000000001
 43
0.0000000001
 40
0.0
 40
0.0
 40
0.0
 40
0.0
 40
0.0372616862226821
 40
0.0853749939681243
 40
0.2022244150853047
 40
0.5671943898079649
 40
1.0
 40
1.0
 40
1.0
 40
1.0
 10
9.670903967866136
 20
-441.418642892863
 30
0.0
 10
9.676502356785476
 20
-441.3814232758944
 30
0.0
 10
9.689329538501509
 20
-441.2961446721508
 30
0.0
 10
9.809757462982927
 20
-441.1283904959874
 30
0.0
 10
10.22970630226945
 20
-440.8207371986236
 30
0.0
 10
11.05943225080312
 20
-440.4974963697731
 30
0.0
 10
11.76014031076795
 20
-440.4237505799111
 30
0.0
 10
12.14028528536244
 20
-440.3837423467891
 30
0.0
  0
SPLINE
  5
5CB
330
6B
100
AcDbEntity
  8
0
 62
     3
100
AcDbSpline
210
0.0
220
0.0
230
1.0
 70
     8
 71
     3
 72
    14
 73
    10
 74
     0
 42
0.0000000001
 43
0.0000000001
 40
0.0
 40
0.0
 40
0.0
 40
0.0
 40
0.5210358113094741
 40
0.6720335843516417
 40
0.8136582482774718
 40
0.8964041359256535
 40
0.9451978465319527
 40
0.9806011491667256
 40
1.0
 40
1.0
 40
1.0
 40
1.0
 10
11.96650421822949
 20
-443.3837409758822
 30
0.0
 10
11.52809121351981
 20
-443.3395958977173
 30
0.0
 10
10.96262477803441
 20
-443.2826574407693
 30
0.0
 10
10.28478439809851
 20
-443.0171330655448
 30
0.0
 10
9.983120792597331
 20
-442.8601735515626
 30
0.0
 10
9.784425599021917
 20
-442.7046623235757
 30
0.0
 10
9.689091225632012
 20
-442.5813218136903
 30
0.0
 10
9.652734109980881
 20
-442.4888615233061
 30
0.0
 10
9.650609360171527
 20
-442.4370021025563
 30
0.0
 10
9.649857241833046
 20
-442.4186449194207
 30
0.0
  0
SPLINE
  5
5CD
330
6B
100
AcDbEntity
  8
0
 62
     3
100
AcDbSpline
210
0.0
220
0.0
230
1.0
 70
     8
 71
     3
 72
     9
 73
     5
 74
     0
 42
0.0000000001
 43
0.0000000001
 40
0.0
 40
0.0
 40
0.0
 40
0.0
 40
0.5839469604903531
 40
1.0
 40
1.0
 40
1.0
 40
1.0
 10
16.20110829005523
 20
-457.4229295993106
 30
0.0
 10
16.18958867037315
 20
-457.2308618356981
 30
0.0
 10
16.16986150256252
 20
-456.9019488065913
 30
0.0
 10
16.17949005877028
 20
-456.5359940906875
 30
0.0
 10
16.18349604884668
 20
-456.3837375188128
 30
0.0
  0
LINE
  5
5CE
330
6B
100
AcDbEntity
  8
0
 62
     3
100
AcDbLine
 10
-2.928014317354723
 20
-276.3837378168361
 30
0.0
 11
17.07198523561044
 21
-276.3837378168361
 31
0.0
  0
LINE
  5
5CF
330
6B
100
AcDbEntity
  8
0
 62
     3
100
AcDbLine
 10
-2.928014317354723
 20
-261.3837372207896
 30
0.0
 11
17.07198523561044
 21
-261.3837372207896
 31
0.0
  0
LINE
  5
5D0
330
6B
100
AcDbEntity
  8
0
 62
     3
100
AcDbLine
 10
-2.928014317354723
 20
-264.3837433004634
 30
0.0
 11
17.07198523561044
 21
-264.3837433004634
 31
0.0
  0
LINE
  5
5D1
330
6B
100
AcDbEntity
  8
0
 62
     3
100
AcDbLine
 10
12.14028528536244
 20
-440.3837423467891
 30
0.0
 11
26.57198586145921
 21
-440.3837423467891
 31
0.0
  0
LINE
  5
5D2
330
6B
100
AcDbEntity
  8
0
 62
     3
100
AcDbLine
 10
26.57198586145921
 20
-443.3837409758822
 30
0.0
 11
11.96650421822949
 21
-443.3837409758822
 31
0.0
  0
LINE
  5
5D3
330
6B
100
AcDbEntity
  8
0
 62
     3
100
AcDbLine
 10
15.21893550286575
 20
-458.3837415719287
 30
0.0
 11
-1.216461354693932
 21
-458.3837415719287
 31
0.0
  0
LINE
  5
5D4
330
6B
100
AcDbEntity
  8
0
 62
     3
100
AcDbLine
 10
40.82198680023235
 20
-308.4359157526748
 30
0.0
 11
40.82198680023235
 21
-313.4621724182622
 31
0.0
  0
LINE
  5
5D5
330
6B
100
AcDbEntity
  8
0
 62
     3
100
AcDbLine
 10
39.57198426703497
 20
-313.3837401563184
 30
0.0
 11
39.57198426703497
 21
-308.3837393367545
 31
0.0
  0
ARC
  5
5D6
330
6B
100
AcDbEntity
  8
0
 62
     3
100
AcDbCircle
 10
39.5719854591265
 20
-323.3837407117528
 30
0.0
 40
15.0
100
AcDbArc
 50
85.21980815280192
 51
90.0
  0
LINE
  5
5D7
330
6B
100
AcDbEntity
  8
0
 62
     3
100
AcDbLine
 10
49.57198590616268
 20
-331.1337407374637
 30
0.0
 11
54.5719848630814
 21
-331.1337407374637
 31
0.0
  0
ARC
  5
5D8
330
6B
100
AcDbEntity
  8
0
 62
     3
100
AcDbCircle
 10
39.5719854591265
 20
-323.3837407117528
 30
0.0
 40
14.99999999999999
100
AcDbArc
 50
0.0
 51
85.21980815280192
  0
LINE
  5
5D9
330
6B
100
AcDbEntity
  8
0
 62
     3
100
AcDbLine
 10
54.5719848630814
 20
-331.1337407374637
 30
0.0
 11
54.5719848630814
 21
-323.383739932801
 31
0.0
  0
LINE
  5
5DA
330
6B
100
AcDbEntity
  8
0
 62
     3
100
AcDbLine
 10
54.5719848630814
 20
-332.3837404766933
 30
0.0
 11
49.57198590616268
 21
-332.3837404766933
 31
0.0
  0
LINE
  5
5DB
330
6B
100
AcDbEntity
  8
0
 62
     3
100
AcDbLine
 10
54.5719848630814
 20
-331.1337407374637
 30
0.0
 11
54.5719848630814
 21
-332.3837404766933
 31
0.0
  0
ARC
  5
5DC
330
6B
100
AcDbEntity
  8
0
 62
     3
100
AcDbCircle
 10
31.0719854591265
 20
-280.8837407117528
 30
0.0
 40
10.0
100
AcDbArc
 50
180.0
 51
270.0
  0
LINE
  5
5DD
330
6B
100
AcDbEntity
  8
0
 62
     3
100
AcDbLine
 10
-6.928014973005815
 20
-279.3837438965098
 30
0.0
 11
-5.77492027898745
 21
-279.3837438965098
 31
0.0
  0
LINE
  5
5DE
330
6B
100
AcDbEntity
  8
0
 62
     3
100
AcDbLine
 10
-10.88754593749956
 20
-316.0094048524157
 30
0.0
 11
-6.928014973005815
 21
-279.3837438965098
 31
0.0
  0
ARC
  5
5DF
330
6B
100
AcDbEntity
  8
0
 62
     3
100
AcDbCircle
 10
37.5719854591265
 20
-319.3837407117528
 30
0.0
 40
3.000000000000028
100
AcDbArc
 50
2.089954174725324
 51
90.0
  0
LINE
  5
5E0
330
6B
100
AcDbEntity
  8
0
 62
     3
100
AcDbLine
 10
29.57198635319753
 20
-458.3837415719287
 30
0.0
 11
16.32198557833715
 21
-458.3837415719287
 31
0.0
  0
SPLINE
  5
5E1
330
6B
100
AcDbEntity
  8
0
 62
     3
100
AcDbSpline
210
0.0
220
0.0
230
1.0
 70
     8
 71
     3
 72
    11
 73
     7
 74
     0
 42
0.0000000001
 43
0.0000000001
 40
0.0
 40
0.0
 40
0.0
 40
0.0
 40
0.3259707975491712
 40
0.651815521142193
 40
0.9808694458720223
 40
1.0
 40
1.0
 40
1.0
 40
1.0
 10
16.32198557833715
 20
-458.3837415719287
 30
0.0
 10
16.31799939443726
 20
-458.3619478701937
 30
0.0
 10
16.31002856835209
 20
-458.3183688957554
 30
0.0
 10
16.2558286466724
 20
-457.9792510974093
 30
0.0
 10
16.21707782760029
 20
-457.6354446563088
 30
0.0
 10
16.20194001779566
 20
-457.43399783893
 30
0.0
 10
16.20110829005523
 20
-457.4229295993106
 30
0.0
  0
ARC
  5
5E2
330
6B
100
AcDbEntity
  8
0
 62
     3
100
AcDbCircle
 10
29.5719854591265
 20
-411.3837407117527
 30
0.0
 40
47.00000000000001
100
AcDbArc
 50
270.0
 51
0.0
  0
ARC
  5
5E3
330
6B
100
AcDbEntity
  8
0
 62
     3
100
AcDbCircle
 10
16.32198545912655
 20
-414.8837407117526
 30
0.0
 40
24.24999999999997
100
AcDbArc
 50
325.847084601064
 51
0.0
  0
ARC
  5
5E4
330
6B
100
AcDbEntity
  8
0
 62
     3
100
AcDbCircle
 10
51.57198545912649
 20
-315.8837407117528
 30
0.0
 40
25.0
100
AcDbArc
 50
0.0
 51
90.0
  0
LINE
  5
5E5
330
6B
100
AcDbEntity
  8
0
 62
     3
100
AcDbLine
 10
16.15903020481153
 20
-432.8837420487658
 30
0.0
 11
28.11446279863401
 21
-432.8837420487658
 31
0.0
  0
LINE
  5
5E6
330
6B
100
AcDbEntity
  8
0
 62
     3
100
AcDbLine
 10
31.07198566774413
 20
-290.8837411248939
 30
0.0
 11
51.57198623398825
 21
-290.8837411248939
 31
0.0
  0
LINE
  5
5E7
330
6B
100
AcDbEntity
  8
0
 62
     3
100
AcDbLine
 10
76.57198474387212
 20
-315.8837414974229
 30
0.0
 11
76.57198474387212
 21
-411.3837431812541
 31
0.0
  0
LINE
  5
5E8
330
6B
100
AcDbEntity
  8
0
 62
     3
100
AcDbLine
 10
40.57198629359286
 20
-414.8837428236261
 30
0.0
 11
40.57198629359286
 21
-322.8548790955798
 31
0.0
  0
ARC
  5
5E9
330
6B
100
AcDbEntity
  8
0
 62
     3
100
AcDbCircle
 10
28.11446187419728
 20
-422.8837407117526
 30
0.0
 40
10.0
100
AcDbArc
 50
270.0
 51
325.847084601064
  0
SPLINE
  5
5EA
330
6B
100
AcDbEntity
  8
0
 62
     3
100
AcDbSpline
210
0.0
220
0.0
230
1.0
 70
    24
 71
     3
 72
    11
 73
     7
 74
     0
 42
0.0000000001
 43
0.0000000001
 40
0.0
 40
0.0
 40
0.0
 40
0.0
 40
0.0033078260378077
 40
0.5147464703947509
 40
0.8303799661800248
 40
1.0
 40
1.0
 40
1.0
 40
1.0
 10
16.32198557833715
 20
-458.3837415719287
 30
0.0
 10
16.32049441257698
 20
-458.3837415719287
 30
0.0
 10
16.08844704883006
 20
-458.3837415719273
 30
0.0
 10
15.69159665071333
 20
-458.383741571929
 30
0.0
 10
15.32492206580718
 20
-458.3837415719287
 30
0.0
 10
15.24638728194895
 20
-458.3837415719286
 30
0.0
 10
15.21893550286575
 20
-458.3837415719287
 30
0.0
  0
LINE
  5
5F3
330
6B
100
AcDbEntity
  8
0
 62
     3
100
AcDbLine
 10
-86.37562324636286
 20
-458.3837415719287
 30
0.0
 11
-87.40010479575625
 21
-458.3837415719287
 31
0.0
  0
LINE
  5
5F4
330
6B
100
AcDbEntity
  8
0
 62
     3
100
AcDbLine
 10
-106.351141821301
 20
-458.3837415719287
 30
0.0
 11
-107.3756227304101
 21
-458.3837415719287
 31
0.0
  0
LINE
  5
5F5
330
6B
100
AcDbEntity
  8
0
 62
     3
100
AcDbLine
 10
-86.37562324636286
 20
-467.8841333532588
 30
0.0
 11
-86.37562324636286
 21
-458.3837415719287
 31
0.0
  0
LINE
  5
5F6
330
6B
100
AcDbEntity
  8
0
 62
     3
100
AcDbLine
 10
-107.3756227304101
 20
-458.3837415719287
 30
0.0
 11
-107.3756227304101
 21
-467.8841333532588
 31
0.0
  0
LINE
  5
5F7
330
6B
100
AcDbEntity
  8
0
 62
     3
100
AcDbLine
 10
-91.87562321656056
 20
-471.8837391281383
 30
0.0
 11
-91.87562321656056
 21
-470.3649084711329
 31
0.0
  0
LINE
  5
5F8
330
6B
100
AcDbEntity
  8
0
 62
     3
100
AcDbLine
 10
-101.875623691535
 20
-470.3649084711329
 30
0.0
 11
-101.875623691535
 21
-471.8837391281383
 31
0.0
  0
LINE
  5
5F9
330
6B
100
AcDbEntity
  8
0
 62
     3
100
AcDbLine
 10
-92.37562306568628
 20
-459.8129640960948
 30
0.0
 11
-92.37562306568628
 21
-458.3837415719287
 31
0.0
  0
LINE
  5
5FA
330
6B
100
AcDbEntity
  8
0
 62
     3
100
AcDbLine
 10
-92.37562306568628
 20
-432.8837420487658
 30
0.0
 11
-92.37562306568628
 21
-330.8837411621468
 31
0.0
  0
LINE
  5
5FB
330
6B
100
AcDbEntity
  8
0
 62
     3
100
AcDbLine
 10
-101.3756236095787
 20
-330.8837411621468
 30
0.0
 11
-101.3756236095787
 21
-432.8837420487658
 31
0.0
  0
LINE
  5
5FC
330
6B
100
AcDbEntity
  8
0
 62
     3
100
AcDbLine
 10
-101.3756236095787
 20
-458.3837415719287
 30
0.0
 11
-101.3756236095787
 21
-459.8129640960948
 31
0.0
  0
LINE
  5
5FD
330
6B
100
AcDbEntity
  8
0
 62
     3
100
AcDbLine
 10
-94.87562300980691
 20
-279.4002618336932
 30
0.0
 11
-94.87562300980691
 21
-279.3837438965098
 31
0.0
  0
LINE
  5
5FE
330
6B
100
AcDbEntity
  8
0
 62
     3
100
AcDbLine
 10
-98.87562319979672
 20
-279.3837438965098
 30
0.0
 11
-98.87562319979672
 21
-279.404054179217
 31
0.0
  0
LINE
  5
5FF
330
6B
100
AcDbEntity
  8
0
 62
     3
100
AcDbLine
 10
-110.8756223727823
 20
-280.3837421977775
 30
0.0
 11
-110.8756223727823
 21
-285.4057091915862
 31
0.0
  0
LINE
  5
600
330
6B
100
AcDbEntity
  8
0
 62
     3
100
AcDbLine
 10
-82.8756233711601
 20
-285.3991899335639
 30
0.0
 11
-82.8756233711601
 21
-280.3837421977775
 31
0.0
  0
ARC
  5
601
330
6B
100
AcDbEntity
  8
0
 62
     3
100
AcDbCircle
 10
-83.87562323652565
 20
-280.3837407117528
 30
0.0
 40
1.0
100
AcDbArc
 50
0.0
 51
90.0
  0
ARC
  5
602
330
6B
100
AcDbEntity
  8
0
 62
     3
100
AcDbCircle
 10
-109.8756232365256
 20
-280.3837407117528
 30
0.0
 40
1.0
100
AcDbArc
 50
90.0
 51
180.0
  0
ARC
  5
603
330
6B
100
AcDbEntity
  8
0
 62
     3
100
AcDbCircle
 10
-87.66560756242169
 20
-433.8837407117527
 30
0.0
 40
1.000000000000011
100
AcDbArc
 50
357.7542574341066
 51
90.0
  0
ARC
  5
604
330
6B
100
AcDbEntity
  8
0
 62
     3
100
AcDbCircle
 10
-106.0856389106296
 20
-433.8837407117527
 30
0.0
 40
1.0
100
AcDbArc
 50
90.0
 51
182.2457425658964
  0
LINE
  5
605
330
6B
100
AcDbEntity
  8
0
 62
     3
100
AcDbLine
 10
-107.0848712731958
 20
-433.922926678683
 30
0.0
 11
-106.1633015085817
 21
-457.4229295993106
 31
0.0
  0
LINE
  5
606
330
6B
100
AcDbEntity
  8
0
 62
     3
100
AcDbLine
 10
-87.58794423536068
 20
-457.4229295993106
 30
0.0
 11
-86.66637563489979
 21
-433.922926678683
 31
0.0
  0
LINE
  5
607
330
6B
100
AcDbEntity
  8
0
 62
     3
100
AcDbLine
 10
-106.8756235797763
 20
-276.3837378168361
 30
0.0
 11
-106.8756235797763
 21
-279.3837438965098
 31
0.0
  0
LINE
  5
608
330
6B
100
AcDbEntity
  8
0
 62
     3
100
AcDbLine
 10
-86.87562321190393
 20
-279.3837438965098
 30
0.0
 11
-86.87562321190393
 21
-276.3837378168361
 31
0.0
  0
LINE
  5
609
330
6B
100
AcDbEntity
  8
0
 62
     3
100
AcDbLine
 10
-106.8756235797763
 20
-261.3837372207896
 30
0.0
 11
-106.8756235797763
 21
-264.3837433004634
 31
0.0
  0
LINE
  5
60A
330
6B
100
AcDbEntity
  8
0
 62
     3
100
AcDbLine
 10
-86.87562321190393
 20
-264.3837433004634
 30
0.0
 11
-86.87562321190393
 21
-261.3837372207896
 31
0.0
  0
ARC
  5
60B
330
6B
100
AcDbEntity
  8
0
 62
     3
100
AcDbCircle
 10
-105.1640702831786
 20
-457.3837407117527
 30
0.0
 40
1.000000000000011
100
AcDbArc
 50
182.2457425658964
 51
270.0
  0
ARC
  5
60C
330
6B
100
AcDbEntity
  8
0
 62
     3
100
AcDbCircle
 10
-88.5871761898727
 20
-457.3837407117527
 30
0.0
 40
1.0
100
AcDbArc
 50
270.0
 51
357.7542574341066
  0
LINE
  5
60D
330
6B
100
AcDbEntity
  8
0
 62
     3
100
AcDbLine
 10
-105.8756234158636
 20
-264.3837433004634
 30
0.0
 11
-105.8756234158636
 21
-276.3837378168361
 31
0.0
  0
LINE
  5
60E
330
6B
100
AcDbEntity
  8
0
 62
     3
100
AcDbLine
 10
-87.87562323029755
 20
-276.3837378168361
 30
0.0
 11
-87.87562323029755
 21
-264.3837433004634
 31
0.0
  0
ARC
  5
60F
330
6B
100
AcDbEntity
  8
0
 62
     3
100
AcDbCircle
 10
-83.66115945039435
 20
-308.3837407117528
 30
0.0
 40
1.000000000000011
100
AcDbArc
 50
357.999673749148
 51
90.09128446887094
  0
ARC
  5
610
330
6B
100
AcDbEntity
  8
0
 62
     3
100
AcDbCircle
 10
-110.0900870226569
 20
-308.3837407117528
 30
0.0
 40
1.000000000000011
100
AcDbArc
 50
89.84059048392916
 51
182.0003262508551
  0
LINE
  5
611
330
6B
100
AcDbEntity
  8
0
 62
     3
100
AcDbLine
 10
-83.66115950391298
 20
-307.3837410354869
 30
0.0
 11
-85.21084930159753
 21
-307.3837410354869
 31
0.0
  0
LINE
  5
612
330
6B
100
AcDbEntity
  8
0
 62
     3
100
AcDbLine
 10
-108.5490966250062
 20
-307.3837410354869
 30
0.0
 11
-110.090087171352
 21
-307.3837410354869
 31
0.0
  0
LINE
  5
62C
330
6B
100
AcDbEntity
  8
0
 62
     3
100
AcDbLine
 10
-85.87562316440648
 20
-318.6837404662625
 30
0.0
 11
-107.8756237436891
 21
-318.6837404662625
 31
0.0
  0
LINE
  5
62D
330
6B
100
AcDbEntity
  8
0
 62
     3
100
AcDbLine
 10
-85.87562316440648
 20
-316.3837406480567
 30
0.0
 11
-107.8756237436891
 21
-316.3837406480567
 31
0.0
  0
LINE
  5
62E
330
6B
100
AcDbEntity
  8
0
 62
     3
100
AcDbLine
 10
-82.8756233711601
 20
-316.3837406480567
 30
0.0
 11
-82.8756233711601
 21
-318.6837404662625
 31
0.0
  0
LINE
  5
62F
330
6B
100
AcDbEntity
  8
0
 62
     3
100
AcDbLine
 10
-83.90564471826559
 20
-316.3837406480567
 30
0.0
 11
-82.8756233711601
 21
-316.3837406480567
 31
0.0
  0
LINE
  5
630
330
6B
100
AcDbEntity
  8
0
 62
     3
100
AcDbLine
 10
-82.8756233711601
 20
-318.6837404662625
 30
0.0
 11
-85.87562316440648
 21
-318.6837404662625
 31
0.0
  0
LINE
  5
631
330
6B
100
AcDbEntity
  8
0
 62
     3
100
AcDbLine
 10
-110.8756223727823
 20
-318.6837404662625
 30
0.0
 11
-110.8756223727823
 21
-316.3837406480567
 31
0.0
  0
LINE
  5
632
330
6B
100
AcDbEntity
  8
0
 62
     3
100
AcDbLine
 10
-110.8756223727823
 20
-316.3837406480567
 30
0.0
 11
-109.8456019569993
 21
-316.3837406480567
 31
0.0
  0
LINE
  5
633
330
6B
100
AcDbEntity
  8
0
 62
     3
100
AcDbLine
 10
-107.8756237436891
 20
-318.6837404662625
 30
0.0
 11
-110.8756223727823
 21
-318.6837404662625
 31
0.0
  0
LINE
  5
634
330
6B
100
AcDbEntity
  8
0
 62
     3
100
AcDbLine
 10
-82.8756233711601
 20
-318.6837404662625
 30
0.0
 11
-82.8756233711601
 21
-320.9160126441972
 31
0.0
  0
LINE
  5
635
330
6B
100
AcDbEntity
  8
0
 62
     3
100
AcDbLine
 10
-110.8756223727823
 20
-320.9160126441972
 30
0.0
 11
-110.8756223727823
 21
-318.6837404662625
 31
0.0
  0
LINE
  5
636
330
6B
100
AcDbEntity
  8
0
 62
     3
100
AcDbLine
 10
-82.8756233711601
 20
-320.9160126441972
 30
0.0
 11
-82.8756233711601
 21
-328.4282421389477
 31
0.0
  0
LINE
  5
637
330
6B
100
AcDbEntity
  8
0
 62
     3
100
AcDbLine
 10
-110.8756223727823
 20
-320.9160126441972
 30
0.0
 11
-110.8756223727823
 21
-328.4282421389477
 31
0.0
  0
LINE
  5
638
330
6B
100
AcDbEntity
  8
0
 62
     3
100
AcDbLine
 10
-82.8756233711601
 20
-330.8837411621468
 30
0.0
 11
-110.8756223727823
 21
-330.8837411621468
 31
0.0
  0
LINE
  5
639
330
6B
100
AcDbEntity
  8
0
 62
     3
100
AcDbLine
 10
-82.8756233711601
 20
-328.4282421389477
 30
0.0
 11
-82.8756233711601
 21
-330.8837411621468
 31
0.0
  0
LINE
  5
63A
330
6B
100
AcDbEntity
  8
0
 62
     3
100
AcDbLine
 10
-110.8756223727823
 20
-330.8837411621468
 30
0.0
 11
-110.8756223727823
 21
-328.4282421389477
 31
0.0
  0
LINE
  5
63B
330
6B
100
AcDbEntity
  8
0
 62
     3
100
AcDbLine
 10
-93.37562322959906
 20
-469.8837350750222
 30
0.0
 11
-93.37562322959906
 21
-473.3837347173944
 31
0.0
  0
LINE
  5
63C
330
6B
100
AcDbEntity
  8
0
 62
     3
100
AcDbLine
 10
-100.3756234456659
 20
-473.3837347173944
 30
0.0
 11
-93.37562322959906
 21
-473.3837347173944
 31
0.0
  0
LINE
  5
63D
330
6B
100
AcDbEntity
  8
0
 62
     3
100
AcDbLine
 10
-100.3756234456659
 20
-469.8837350750222
 30
0.0
 11
-100.3756234456659
 21
-473.3837347173944
 31
0.0
  0
LINE
  5
63E
330
6B
100
AcDbEntity
  8
0
 62
     3
100
AcDbLine
 10
-100.3756234456659
 20
-469.8837350750222
 30
0.0
 11
-99.36518408701424
 21
-469.8837350750222
 31
0.0
  0
LINE
  5
63F
330
6B
100
AcDbEntity
  8
0
 62
     3
100
AcDbLine
 10
-99.36518408701424
 20
-469.8837350750222
 30
0.0
 11
-99.36518408701424
 21
-472.3837475919978
 31
0.0
  0
LINE
  5
640
330
6B
100
AcDbEntity
  8
0
 62
     3
100
AcDbLine
 10
-99.36518408701424
 20
-472.3837475919978
 30
0.0
 11
-94.38606212258939
 21
-472.3837475919978
 31
0.0
  0
LINE
  5
641
330
6B
100
AcDbEntity
  8
0
 62
     3
100
AcDbLine
 10
-94.38606212258939
 20
-469.8837350750222
 30
0.0
 11
-94.38606212258939
 21
-472.3837475919978
 31
0.0
  0
LINE
  5
642
330
6B
100
AcDbEntity
  8
0
 62
     3
100
AcDbLine
 10
-94.38606212258939
 20
-469.8837350750222
 30
0.0
 11
-93.37562322959906
 21
-469.8837350750222
 31
0.0
  0
ELLIPSE
  5
643
330
6B
100
AcDbEntity
  8
0
 62
     3
100
AcDbEllipse
 10
-90.0798897769514
 20
-500.0882861662983
 30
0.0
 11
0.0
 21
32.20454545454546
 31
0.0
210
0.0
220
0.0
230
1.0
 40
0.144867404816451
 41
0.2814336839798693
 42
0.5930916181394013
  0
LINE
  5
644
330
6B
100
AcDbEntity
  8
0
 62
     3
100
AcDbLine
 10
-93.37562322959906
 20
-473.3837347173944
 30
0.0
 11
-92.68750297248963
 21
-473.3837347173944
 31
0.0
  0
ELLIPSE
  5
645
330
6B
100
AcDbEntity
  8
0
 62
     3
100
AcDbEllipse
 10
-90.0798897769514
 20
-486.6364581030571
 30
0.0
 11
0.0
 21
28.25271739130436
 31
0.0
210
0.0
220
0.0
230
1.0
 40
0.144867404816451
 41
0.3221228585837632
 42
0.9360670915791954
  0
LINE
  5
646
330
6B
100
AcDbEntity
  8
0
 62
     3
100
AcDbLine
 10
-91.37562313460415
 20
-459.8369028115526
 30
0.0
 11
-91.37562313460415
 21
-469.1507171535747
 31
0.0
  0
SPLINE
  5
647
330
6B
100
AcDbEntity
  8
0
 62
     3
100
AcDbSpline
210
0.0
220
0.0
230
1.0
 70
     8
 71
     3
 72
    14
 73
    10
 74
     0
 42
0.0000000001
 43
0.0000000001
 40
0.0
 40
0.0
 40
0.0
 40
0.0
 40
0.0812647664997327
 40
0.2333553982012845
 40
0.3897494618225481
 40
0.5442440900989213
 40
0.7027565234393311
 40
0.84974617587522
 40
0.9999999999999998
 40
0.9999999999999998
 40
0.9999999999999998
 40
0.9999999999999998
 10
-86.41341643285608
 20
-458.3977635646121
 30
0.0
 10
-86.40582999183118
 20
-458.3949526422422
 30
0.0
 10
-86.38404518837251
 20
-458.386880953402
 30
0.0
 10
-86.64755044599223
 20
-458.4845083069394
 30
0.0
 10
-87.16107533813248
 20
-458.6681942755594
 30
0.0
 10
-87.93786306469064
 20
-458.9308538432332
 30
0.0
 10
-88.91472238203869
 20
-459.2312438260578
 30
0.0
 10
-90.059763093502
 20
-459.5477831455111
 30
0.0
 10
-90.93380370265288
 20
-459.7398266160406
 30
0.0
 10
-91.37562313460415
 20
-459.8369028115526
 30
0.0
  0
SPLINE
  5
648
330
6B
100
AcDbEntity
  8
0
 62
     3
100
AcDbSpline
210
0.0
220
0.0
230
1.0
 70
     8
 71
     3
 72
    14
 73
    10
 74
     0
 42
0.0000000001
 43
0.0000000001
 40
0.0
 40
0.0
 40
0.0
 40
0.0
 40
0.1070817956363397
 40
0.2600952332634434
 40
0.4072966385083605
 40
0.5584532427582694
 40
0.7116659157802388
 40
0.869013457114643
 40
1.0
 40
1.0
 40
1.0
 40
1.0
 10
-87.40010479575625
 20
-458.3919521117465
 30
0.0
 10
-87.40263014753834
 20
-458.3928173413941
 30
0.0
 10
-87.40876407494324
 20
-458.3949189321049
 30
0.0
 10
-87.70594031076281
 20
-458.4940688005658
 30
0.0
 10
-88.23873793137705
 20
-458.6642423286907
 30
0.0
 10
-88.99769232715073
 20
-458.891471046816
 30
0.0
 10
-89.97875279911852
 20
-459.1552678651573
 30
0.0
 10
-91.08611186292783
 20
-459.4171842885208
 30
0.0
 10
-91.91813319298232
 20
-459.5687519510688
 30
0.0
 10
-92.29611000389464
 20
-459.6376072311656
 30
0.0
  0
ELLIPSE
  5
649
330
6B
100
AcDbEntity
  8
0
 62
     3
100
AcDbEllipse
 10
-91.09032857518622
 20
-486.6364581030571
 30
0.0
 11
0.0
 21
28.25271739130436
 31
0.0
210
0.0
220
0.0
230
1.0
 40
0.144867404816451
 41
0.2990403806974059
 42
0.9360670915791974
  0
ELLIPSE
  5
64A
330
6B
100
AcDbEntity
  8
0
 62
     3
100
AcDbEllipse
 10
-102.660917897865
 20
-486.6364581030571
 30
0.0
 11
0.0
 21
28.25271739130436
 31
0.0
210
0.0
220
0.0
230
1.0
 40
0.1448674048164515
 41
5.347118215600423
 42
5.984144926482271
  0
ELLIPSE
  5
64B
330
6B
100
AcDbEntity
  8
0
 62
     3
100
AcDbEllipse
 10
-103.6713566960999
 20
-486.6364581030571
 30
0.0
 11
0.0
 21
28.25271739130436
 31
0.0
210
0.0
220
0.0
230
1.0
 40
0.144867404816451
 41
5.347118215600421
 42
5.961062448595908
  0
SPLINE
  5
64C
330
6B
100
AcDbEntity
  8
0
 62
     3
100
AcDbSpline
210
0.0
220
0.0
230
1.0
 70
     8
 71
     3
 72
    13
 73
     9
 74
     0
 42
0.0000000001
 43
0.0000000001
 40
0.0
 40
0.0
 40
0.0
 40
0.0
 40
0.2363326788472741
 40
0.4019672861767159
 40
0.5724200567058685
 40
0.7371051169507225
 40
0.9071484972410043
 40
1.0
 40
1.0
 40
1.0
 40
1.0
 10
-102.3756228421689
 20
-459.8369028115526
 30
0.0
 10
-103.0604822406424
 20
-459.6807982826486
 30
0.0
 10
-104.225327809862
 20
-459.4152873336361
 30
0.0
 10
-105.5163297119181
 20
-459.0250937008867
 30
0.0
 10
-106.4201366364786
 20
-458.7280910870486
 30
0.0
 10
-107.0401108598593
 20
-458.5078090240314
 30
0.0
 10
-107.355609425268
 20
-458.3912073196581
 30
0.0
 10
-107.3465253911645
 20
-458.3945492308351
 30
0.0
 10
-107.3433170129419
 20
-458.3957295561091
 30
0.0
  0
SPLINE
  5
64D
330
6B
100
AcDbEntity
  8
0
 62
     3
100
AcDbSpline
210
0.0
220
0.0
230
1.0
 70
     8
 71
     3
 72
    14
 73
    10
 74
     0
 42
0.0000000001
 43
0.0000000001
 40
0.0
 40
0.0
 40
0.0
 40
0.0
 40
0.1580976624787354
 40
0.3207916489127518
 40
0.4788786368982925
 40
0.6416460446215686
 40
0.797575239072642
 40
0.9584825592676283
 40
1.0
 40
1.0
 40
1.0
 40
1.0
 10
-101.455136205709
 20
-459.6376072311656
 30
0.0
 10
-101.9093527210922
 20
-459.5537182253801
 30
0.0
 10
-102.8309910467237
 20
-459.3835013349491
 30
0.0
 10
-103.996797935114
 20
-459.0978585775091
 30
0.0
 10
-104.976929728156
 20
-458.8272296513669
 30
0.0
 10
-105.7167055711427
 20
-458.6002220000498
 30
0.0
 10
-106.1871093791382
 20
-458.4472445498828
 30
0.0
 10
-106.3929712393308
 20
-458.3779161856154
 30
0.0
 10
-106.35826092727
 20
-458.3895632846911
 30
0.0
 10
-106.351141821301
 20
-458.3919521117465
 30
0.0
  0
ELLIPSE
  5
64E
330
6B
100
AcDbEntity
  8
0
 62
     3
100
AcDbEllipse
 10
-103.6713566960999
 20
-500.0882861662983
 30
0.0
 11
0.0
 21
32.20454545454546
 31
0.0
210
0.0
220
0.0
230
1.0
 40
0.144867404816451
 41
5.690093689040249
 42
6.001751623199807
  0
LINE
  5
64F
330
6B
100
AcDbEntity
  8
0
 62
     3
100
AcDbLine
 10
-102.3756228421689
 20
-459.8369028115526
 30
0.0
 11
-102.3756228421689
 21
-469.1507171535747
 31
0.0
  0
LINE
  5
650
330
6B
100
AcDbEntity
  8
0
 62
     3
100
AcDbLine
 10
-101.063743237114
 20
-473.3837347173944
 30
0.0
 11
-100.3756234456659
 21
-473.3837347173944
 31
0.0
  0
SPLINE
  5
651
330
6B
100
AcDbEntity
  8
0
 62
     3
100
AcDbSpline
210
0.0
220
0.0
230
1.0
 70
     8
 71
     3
 72
    10
 73
     6
 74
     0
 42
0.0000000001
 43
0.0000000001
 40
0.0
 40
0.0
 40
0.0
 40
0.0
 40
0.4467383224251308
 40
0.9066616591820592
 40
1.0
 40
1.0
 40
1.0
 40
1.0
 10
-96.8756228719712
 20
-467.8008358621852
 30
0.0
 10
-96.45409032552652
 20
-467.7954605059651
 30
0.0
 10
-95.59858414042002
 20
-467.7845511455088
 30
0.0
 10
-94.66362598752704
 20
-467.7336752402069
 30
0.0
 10
-94.188803219578
 20
-467.6869979051619
 30
0.0
 10
-94.10869796172386
 20
-467.6791231775538
 30
0.0
  0
SPLINE
  5
652
330
6B
100
AcDbEntity
  8
0
 62
     3
100
AcDbSpline
210
0.0
220
0.0
230
1.0
 70
     8
 71
     3
 72
     9
 73
     5
 74
     0
 42
0.0000000001
 43
0.0000000001
 40
0.0
 40
0.0
 40
0.0
 40
0.0
 40
0.2671407261410486
 40
1.0
 40
1.0
 40
1.0
 40
1.0
 10
-99.64156430557972
 20
-467.6766495847957
 30
0.0
 10
-99.40745900308591
 20
-467.6977535112696
 30
0.0
 10
-98.53112200319989
 20
-467.7767527966977
 30
0.0
 10
-97.57576506440932
 20
-467.7906506739522
 30
0.0
 10
-96.8756228719712
 20
-467.8008358621852
 30
0.0
  0
SPLINE
  5
653
330
6B
100
AcDbEntity
  8
0
 62
     3
100
AcDbSpline
210
0.0
220
0.0
230
1.0
 70
     8
 71
     3
 72
    15
 73
    11
 74
     0
 42
0.0000000001
 43
0.0000000001
 40
0.0
 40
0.0
 40
0.0
 40
0.0
 40
0.0013110194004612
 40
0.1566777013010841
 40
0.3165848435045139
 40
0.4717784063508379
 40
0.6311294755634106
 40
0.7928256386667502
 40
0.9589546386634355
 40
0.9999999999999998
 40
0.9999999999999998
 40
0.9999999999999998
 40
0.9999999999999998
 10
-107.3744175989986
 20
-467.8841333532588
 30
0.0
 10
-107.374819207441
 20
-467.8840032330843
 30
0.0
 10
-107.4228147501113
 20
-467.8684527920951
 30
0.0
 10
-107.259859346892
 20
-467.9215974144502
 30
0.0
 10
-106.8804228272878
 20
-468.0430576230047
 30
0.0
 10
-106.2037632065473
 20
-468.2494539816134
 30
0.0
 10
-105.2965380715088
 20
-468.5056670173791
 30
0.0
 10
-104.1420704869346
 20
-468.7960554208916
 30
0.0
 10
-103.1206445261819
 20
-469.0155307423157
 30
0.0
 10
-102.4988188714569
 20
-469.1283628658563
 30
0.0
 10
-102.3756228421689
 20
-469.1507171535747
 30
0.0
  0
SPLINE
  5
654
330
6B
100
AcDbEntity
  8
0
 62
     3
100
AcDbSpline
210
0.0
220
0.0
230
1.0
 70
     8
 71
     3
 72
    13
 73
     9
 74
     0
 42
0.0000000001
 43
0.0000000001
 40
0.0
 40
0.0
 40
0.0
 40
0.0
 40
0.1654327133373569
 40
0.3356420043941188
 40
0.5010756593190424
 40
0.6714597858004724
 40
0.8338133476335453
 40
1.0
 40
1.0
 40
1.0
 40
1.0
 10
-91.37562313460415
 20
-469.1507171535747
 30
0.0
 10
-90.88993406631374
 20
-469.0575254610047
 30
0.0
 10
-89.90453251480266
 20
-468.8684513301629
 30
0.0
 10
-88.67837737924537
 20
-468.5644795746626
 30
0.0
 10
-87.66250194173222
 20
-468.2839875112676
 30
0.0
 10
-86.93264509536579
 20
-468.0626012768031
 30
0.0
 10
-86.46328214377348
 20
-467.9125191504701
 30
0.0
 10
-86.40586942331408
 20
-467.8936685956967
 30
0.0
 10
-86.37682814494377
 20
-467.8841333532588
 30
0.0
  0
LINE
  5
655
330
6B
100
AcDbEntity
  8
0
 62
     3
100
AcDbLine
 10
-93.86763256386524
 20
-465.8837418699517
 30
0.0
 11
-99.88361411139973
 21
-465.8837418699517
 31
0.0
  0
LINE
  5
656
330
6B
100
AcDbEntity
  8
0
 62
     3
100
AcDbLine
 10
-92.33180387288937
 20
-471.8837391281383
 30
0.0
 11
-91.87562321656056
 21
-471.8837391281383
 31
0.0
  0
LINE
  5
657
330
6B
100
AcDbEntity
  8
0
 62
     3
100
AcDbLine
 10
-101.875623691535
 20
-471.8837391281383
 30
0.0
 11
-101.4194423367143
 21
-471.8837391281383
 31
0.0
  0
ELLIPSE
  5
658
330
6B
100
AcDbEntity
  8
0
 62
     3
100
AcDbEllipse
 10
-83.9687773186621
 20
-317.1913259926819
 30
0.0
 11
0.0353254890557508
 21
1.181543781622932
 31
0.0
210
0.0
220
0.0
230
1.0
 40
0.8459681027590665
 41
5.684481279280126
 42
6.308472450514424
  0
LINE
  5
659
330
6B
100
AcDbEntity
  8
0
 62
     3
100
AcDbLine
 10
-83.90564471826559
 20
-316.3837406480567
 30
0.0
 11
-109.8456019569993
 21
-316.3837406480567
 31
0.0
  0
ELLIPSE
  5
65A
330
6B
100
AcDbEntity
  8
0
 62
     3
100
AcDbEllipse
 10
-109.7824691543892
 20
-317.1913259926819
 30
0.0
 11
-0.0353254890557366
 21
1.181543781622932
 31
0.0
210
0.0
220
0.0
230
1.0
 40
0.8459681027590672
 41
6.257898163844777
 42
6.881889335079034
  0
LINE
  5
65B
330
6B
100
AcDbEntity
  8
0
 62
     3
100
AcDbLine
 10
-97.87562303588396
 20
-316.0094048524157
 30
0.0
 11
-109.7925109823108
 21
-316.0094048524157
 31
0.0
  0
LINE
  5
65C
330
6B
100
AcDbEntity
  8
0
 62
     3
100
AcDbLine
 10
-95.87562317371972
 20
-279.3837438965098
 30
0.0
 11
-97.87562303588396
 21
-279.3837438965098
 31
0.0
  0
LINE
  5
65D
330
6B
100
AcDbEntity
  8
0
 62
     3
100
AcDbLine
 10
-83.95873615861541
 20
-316.0094048524157
 30
0.0
 11
-95.87562317371972
 21
-316.0094048524157
 31
0.0
  0
ARC
  5
65E
330
6B
100
AcDbEntity
  8
0
 62
     3
100
AcDbCircle
 10
-109.8456017285393
 20
-315.3837407117528
 30
0.0
 40
1.0
100
AcDbArc
 50
238.0373391568054
 51
270.0
  0
ARC
  5
65F
330
6B
100
AcDbEntity
  8
0
 62
     3
100
AcDbCircle
 10
-83.90564474451196
 20
-315.3837407117528
 30
0.0
 40
1.00000000000003
100
AcDbArc
 50
270.0
 51
301.9626608431987
  0
LINE
  5
660
330
6B
100
AcDbEntity
  8
0
 62
     3
100
AcDbLine
 10
-110.8449930359483
 20
-315.4186464542405
 30
0.0
 11
-111.08210217551
 21
-308.6297910356777
 31
0.0
  0
ARC
  5
661
330
6B
100
AcDbEntity
  8
0
 62
     3
100
AcDbCircle
 10
-109.8456017285393
 20
-315.3837407117528
 30
0.0
 40
0.9999999999999859
100
AcDbArc
 50
182.0003262508551
 51
238.0373391568054
  0
LINE
  5
662
330
6B
100
AcDbEntity
  8
0
 62
     3
100
AcDbLine
 10
-82.66914356843239
 20
-308.6297910356777
 30
0.0
 11
-82.9062541049779
 21
-315.4186464542405
 31
0.0
  0
ARC
  5
663
330
6B
100
AcDbEntity
  8
0
 62
     3
100
AcDbCircle
 10
-83.90564474451196
 20
-315.3837407117528
 30
0.0
 40
1.00000000000003
100
AcDbArc
 50
301.9626608431987
 51
357.9996737491447
  0
SPLINE
  5
664
330
6B
100
AcDbEntity
  8
0
 62
     3
100
AcDbSpline
210
0.0
220
0.0
230
1.0
 70
     8
 71
     3
 72
    13
 73
     9
 74
     0
 42
0.0000000001
 43
0.0000000001
 40
0.0
 40
0.0
 40
0.0
 40
0.0
 40
0.1125665266407419
 40
0.2247935212102379
 40
0.4337137898579731
 40
0.6620644863448755
 40
0.8697898854139442
 40
1.0
 40
1.0
 40
1.0
 40
1.0
 10
-95.27770709589724
 20
-280.3837421977775
 30
0.0
 10
-95.28297358018729
 20
-280.325957831689
 30
0.0
 10
-95.2934906635803
 20
-280.2105633932926
 30
0.0
 10
-95.23643718950451
 20
-280.001369361006
 30
0.0
 10
-95.11539667834767
 20
-279.7813250923838
 30
0.0
 10
-94.97826301206286
 20
-279.5782463097722
 30
0.0
 10
-94.88718403919586
 20
-279.4418650555857
 30
0.0
 10
-94.88258355662384
 20
-279.4118602531617
 30
0.0
 10
-94.88081094220881
 20
-279.4002990865962
 30
0.0
  0
SPLINE
  5
665
330
6B
100
AcDbEntity
  8
0
 62
     3
100
AcDbSpline
210
0.0
220
0.0
230
1.0
 70
     8
 71
     3
 72
    10
 73
     6
 74
     0
 42
0.0000000001
 43
0.0000000001
 40
0.0
 40
0.0
 40
0.0
 40
0.0
 40
0.1043845299937991
 40
0.5512269732687907
 40
1.0
 40
1.0
 40
1.0
 40
1.0
 10
-95.27770709589724
 20
-280.3837421977775
 30
0.0
 10
-95.24141935349019
 20
-280.6243329053998
 30
0.0
 10
-95.04979342563499
 20
-281.8948285197127
 30
0.0
 10
-94.91269112975407
 20
-284.2265853275007
 30
0.0
 10
-94.88799679344479
 20
-286.3136266447719
 30
0.0
 10
-94.87562300980691
 20
-287.3593967104213
 30
0.0
  0
LINE
  5
666
330
6B
100
AcDbEntity
  8
0
 62
     3
100
AcDbLine
 10
-94.87562300980691
 20
-287.3593967104213
 30
0.0
 11
-94.87562300980691
 21
-315.4777537727611
 31
0.0
  0
ELLIPSE
  5
667
330
6B
100
AcDbEntity
  8
0
 62
     3
100
AcDbEllipse
 10
-95.87562323652566
 20
-315.4777530884054
 30
0.0
 11
1.0
 21
0.0
 31
0.0
210
0.0
220
0.0
230
1.0
 40
0.5316512590265461
 41
4.712388980384695
 42
6.283185307179584
  0
LINE
  5
668
330
6B
100
AcDbEntity
  8
0
 62
     3
100
AcDbLine
 10
-95.87562317371972
 20
-279.3837438965098
 30
0.0
 11
-94.87562300980691
 21
-279.3837438965098
 31
0.0
  0
ELLIPSE
  5
669
330
6B
100
AcDbEntity
  8
0
 62
     3
100
AcDbEllipse
 10
-96.87562323652565
 20
-307.0296387455031
 30
0.0
 11
14.0
 21
0.0
 31
0.0
210
0.0
220
0.0
230
1.0
 40
0.5000000000000126
 41
4.855736549290061
 42
5.810422764578055
  0
ELLIPSE
  5
66A
330
6B
100
AcDbEntity
  8
0
 62
     3
100
AcDbEllipse
 10
-96.87562323652565
 20
-307.0296387455031
 30
0.0
 11
14.0
 21
0.0
 31
0.0
210
0.0
220
0.0
230
1.0
 40
0.5000000000000126
 41
3.61435519619137
 42
4.56904141147933
  0
ELLIPSE
  5
66B
330
6B
100
AcDbEntity
  8
0
 62
     3
100
AcDbEllipse
 10
-97.87562323652565
 20
-315.4777530884055
 30
0.0
 11
1.0
 21
0.0
 31
0.0
210
0.0
220
0.0
230
1.0
 40
0.5316512590265461
 41
3.141592653589792
 42
4.712388980384695
  0
SPLINE
  5
66C
330
6B
100
AcDbEntity
  8
0
 62
     3
100
AcDbSpline
210
0.0
220
0.0
230
1.0
 70
     8
 71
     3
 72
    13
 73
     9
 74
     0
 42
0.0000000001
 43
0.0000000001
 40
0.0
 40
0.0
 40
0.0
 40
0.0
 40
0.0805651562951579
 40
0.2588391238663301
 40
0.5140498345531899
 40
0.775226832125489
 40
0.8967872909124899
 40
1.0
 40
1.0
 40
1.0
 40
1.0
 10
-98.86682406411177
 20
-279.4040467286365
 30
0.0
 10
-98.86869560371321
 20
-279.4082131723176
 30
0.0
 10
-98.87470847196787
 20
-279.4215990910156
 30
0.0
 10
-98.80462027160378
 20
-279.5314785952053
 30
0.0
 10
-98.66820650614565
 20
-279.7318256664038
 30
0.0
 10
-98.51920771711169
 20
-279.9802253391541
 30
0.0
 10
-98.45704400772872
 20
-280.2158839103913
 30
0.0
 10
-98.46834864659776
 20
-280.3309194703345
 30
0.0
 10
-98.47353957936769
 20
-280.3837421977775
 30
0.0
  0
LINE
  5
66D
330
6B
100
AcDbEntity
  8
0
 62
     3
100
AcDbLine
 10
-98.87562319979672
 20
-279.3837438965098
 30
0.0
 11
-97.87562303588396
 21
-279.3837438965098
 31
0.0
  0
LINE
  5
66E
330
6B
100
AcDbEntity
  8
0
 62
     3
100
AcDbLine
 10
-98.87562319979672
 20
-315.4777537727611
 30
0.0
 11
-98.87562319979672
 21
-287.3593967104213
 31
0.0
  0
SPLINE
  5
66F
330
6B
100
AcDbEntity
  8
0
 62
     3
100
AcDbSpline
210
0.0
220
0.0
230
1.0
 70
     8
 71
     3
 72
    10
 73
     6
 74
     0
 42
0.0000000001
 43
0.0000000001
 40
0.0
 40
0.0
 40
0.0
 40
0.0
 40
0.2860271079604943
 40
0.6424345155958027
 40
1.0
 40
1.0
 40
1.0
 40
1.0
 10
-98.87562319979672
 20
-287.3593967104213
 30
0.0
 10
-98.8702334162445
 20
-286.6927737027752
 30
0.0
 10
-98.85812763015223
 20
-285.1954973360146
 30
0.0
 10
-98.7766798607398
 20
-282.8638374759679
 30
0.0
 10
-98.57469554721177
 20
-281.2113340871673
 30
0.0
 10
-98.47353957936769
 20
-280.3837421977775
 30
0.0
  0
SPLINE
  5
670
330
6B
100
AcDbEntity
  8
0
 62
     3
100
AcDbSpline
210
0.0
220
0.0
230
1.0
 70
     8
 71
     3
 72
    13
 73
     9
 74
     0
 42
0.0000000001
 43
0.0000000001
 40
0.0
 40
0.0
 40
0.0
 40
0.0
 40
0.0306631111499881
 40
0.2446881603691656
 40
0.4588241440393566
 40
0.6756609048389956
 40
0.8926143886620485
 40
1.0
 40
1.0
 40
1.0
 40
1.0
 10
-108.3647487719417
 20
-305.3837407076613
 30
0.0
 10
-108.3649889806513
 20
-305.4378812626938
 30
0.0
 10
-108.3669058189966
 20
-305.8699167710108
 30
0.0
 10
-108.4214583270452
 20
-306.6792719003764
 30
0.0
 10
-108.5955563590682
 20
-307.7795714101495
 30
0.0
 10
-108.8554318786404
 20
-308.8198904802085
 30
0.0
 10
-109.1164395649246
 20
-309.6272600915384
 30
0.0
 10
-109.2844049731656
 20
-310.0703629912213
 30
0.0
 10
-109.340016733563
 20
-310.2170701766269
 30
0.0
  0
LINE
  5
671
330
6B
100
AcDbEntity
  8
0
 62
     3
100
AcDbLine
 10
-108.3647487719417
 20
-293.3837424659984
 30
0.0
 11
-108.3647487719417
 21
-305.3837407076613
 31
0.0
  0
SPLINE
  5
672
330
6B
100
AcDbEntity
  8
0
 62
     3
100
AcDbSpline
210
0.0
220
0.0
230
1.0
 70
     8
 71
     3
 72
    18
 73
    14
 74
     0
 42
0.0000000001
 43
0.0000000001
 40
0.0
 40
0.0
 40
0.0
 40
0.0
 40
0.0266621700729045
 40
0.1180093356892018
 40
0.2119784118588698
 40
0.3043866940223702
 40
0.3989751513704094
 40
0.5018855390299474
 40
0.6072681384062843
 40
0.7198655982755584
 40
0.8362487172601451
 40
0.9171413050641398
 40
1.0
 40
1.0
 40
1.0
 40
1.0
 10
-110.8630960841537
 20
-285.4057091915862
 30
0.0
 10
-110.8669264932759
 20
-285.3989909327339
 30
0.0
 10
-110.883880253405
 20
-285.3692552712338
 30
0.0
 10
-110.8032132904092
 20
-285.5104161387964
 30
0.0
 10
-110.6365187109261
 20
-285.8077317899319
 30
0.0
 10
-110.3783034935036
 20
-286.2848642565975
 30
0.0
 10
-110.0524070972141
 20
-286.9217875172016
 30
0.0
 10
-109.6696448677659
 20
-287.7349804557842
 30
0.0
 10
-109.2536373312052
 20
-288.7413946595568
 30
0.0
 10
-108.8503943128037
 20
-289.9317671972972
 30
0.0
 10
-108.5599254194511
 20
-291.1550712022044
 30
0.0
 10
-108.3934376001319
 20
-292.3257440733862
 30
0.0
 10
-108.374387955585
 20
-293.0282646914075
 30
0.0
 10
-108.3647487719417
 20
-293.3837424659984
 30
0.0
  0
SPLINE
  5
673
330
6B
100
AcDbEntity
  8
0
 62
     3
100
AcDbSpline
210
0.0
220
0.0
230
1.0
 70
     8
 71
     3
 72
    18
 73
    14
 74
     0
 42
0.0000000001
 43
0.0000000001
 40
0.0
 40
0.0
 40
0.0
 40
0.0
 40
0.0126360821299814
 40
0.0996171069916097
 40
0.1890870764471298
 40
0.2775158088129041
 40
0.3678491478443005
 40
0.4709234367884874
 40
0.5764597793315515
 40
0.6892666100536104
 40
0.8059083326106748
 40
0.9092826949583699
 40
1.0
 40
1.0
 40
1.0
 40
1.0
 10
-85.38649790332323
 20
-293.3837424659984
 30
0.0
 10
-85.38625344874361
 20
-293.3296015357337
 30
0.0
 10
-85.38432628035691
 20
-292.9027791403644
 30
0.0
 10
-85.33177078230556
 20
-292.0930663283949
 30
0.0
 10
-85.15703767911839
 20
-290.9969075317976
 30
0.0
 10
-84.8973087624792
 20
-289.9499836331841
 30
0.0
 10
-84.56661388806379
 20
-288.9337310687043
 30
0.0
 10
-84.18209689347429
 20
-287.964394458465
 30
0.0
 10
-83.77001869359316
 20
-287.0641949026071
 30
0.0
 10
-83.38100733985418
 20
-286.2975502527413
 30
0.0
 10
-83.08376902583573
 20
-285.7511009269543
 30
0.0
 10
-82.90291627118847
 20
-285.4313155469494
 30
0.0
 10
-82.89031440684698
 20
-285.4094225784286
 30
0.0
 10
-82.8844243694902
 20
-285.3991899335639
 30
0.0
  0
LINE
  5
674
330
6B
100
AcDbEntity
  8
0
 62
     3
100
AcDbLine
 10
-85.38649790332323
 20
-305.3837407076613
 30
0.0
 11
-85.38649790332323
 21
-293.3837424659984
 31
0.0
  0
SPLINE
  5
675
330
6B
100
AcDbEntity
  8
0
 62
     3
100
AcDbSpline
210
0.0
220
0.0
230
1.0
 70
     8
 71
     3
 72
    12
 73
     8
 74
     0
 42
0.0000000001
 43
0.0000000001
 40
0.0
 40
0.0
 40
0.0
 40
0.0
 40
0.0465721198685759
 40
0.3199229029938767
 40
0.6024647152547003
 40
0.7988461749298159
 40
0.9999999999999998
 40
0.9999999999999998
 40
0.9999999999999998
 40
0.9999999999999998
 10
-84.41123040736323
 20
-310.2170701766269
 30
0.0
 10
-84.43542144946032
 20
-310.1540186937257
 30
0.0
 10
-84.60159959286384
 20
-309.7208923188743
 30
0.0
 10
-84.90083780566193
 20
-308.8349873711522
 30
0.0
 10
-85.19132334791345
 20
-307.6125402019995
 30
0.0
 10
-85.35780907984442
 20
-306.4417081765697
 30
0.0
 10
-85.37685873253337
 20
-305.7392076765466
 30
0.0
 10
-85.38649790332323
 20
-305.3837407076613
 30
0.0
  0
LINE
  5
676
330
6B
100
AcDbEntity
  8
0
 62
     3
100
AcDbLine
 10
-94.88639980897907
 20
-279.3837438965098
 30
0.0
 11
-83.87562306941156
 21
-279.3837438965098
 31
0.0
  0
LINE
  5
677
330
6B
100
AcDbEntity
  8
0
 62
     3
100
AcDbLine
 10
-109.8756240715147
 20
-279.3837438965098
 30
0.0
 11
-98.86484686628586
 21
-279.3837438965098
 31
0.0
  0
LINE
  5
678
330
6B
100
AcDbEntity
  8
0
 62
     3
100
AcDbLine
 10
-106.0856385190845
 20
-432.8837420487658
 30
0.0
 11
-87.66560757410383
 21
-432.8837420487658
 31
0.0
  0
LINE
  5
679
330
6B
100
AcDbEntity
  8
0
 62
     3
100
AcDbLine
 10
-96.8756228719712
 20
-276.3837378168361
 30
0.0
 11
-86.87562321190393
 21
-276.3837378168361
 31
0.0
  0
LINE
  5
67A
330
6B
100
AcDbEntity
  8
0
 62
     3
100
AcDbLine
 10
-106.8756235797763
 20
-276.3837378168361
 30
0.0
 11
-96.8756228719712
 21
-276.3837378168361
 31
0.0
  0
LINE
  5
67B
330
6B
100
AcDbEntity
  8
0
 62
     3
100
AcDbLine
 10
-96.8756228719712
 20
-261.3837372207896
 30
0.0
 11
-86.87562321190393
 21
-261.3837372207896
 31
0.0
  0
LINE
  5
67C
330
6B
100
AcDbEntity
  8
0
 62
     3
100
AcDbLine
 10
-106.8756235797763
 20
-261.3837372207896
 30
0.0
 11
-96.8756228719712
 21
-261.3837372207896
 31
0.0
  0
LINE
  5
67D
330
6B
100
AcDbEntity
  8
0
 62
     3
100
AcDbLine
 10
-96.8756228719712
 20
-264.3837433004634
 30
0.0
 11
-86.87562321190393
 21
-264.3837433004634
 31
0.0
  0
LINE
  5
67E
330
6B
100
AcDbEntity
  8
0
 62
     3
100
AcDbLine
 10
-106.8756235797763
 20
-264.3837433004634
 30
0.0
 11
-96.8756228719712
 21
-264.3837433004634
 31
0.0
  0
LINE
  5
67F
330
6B
100
AcDbEntity
  8
0
 62
     3
100
AcDbLine
 10
-88.58717618911663
 20
-458.3837415719287
 30
0.0
 11
-105.1640706171155
 21
-458.3837415719287
 31
0.0
  0
LINE
  5
686
330
6B
100
AcDbEntity
  8
0
 62
     3
100
AcDbLine
 10
-83.44639512122281
 20
-330.8837411621468
 30
0.0
 11
-86.57353348442024
 21
-420.4186450386302
 31
0.0
  0
LINE
  5
687
330
6B
100
AcDbEntity
  8
0
 62
     3
100
AcDbLine
 10
-107.1777129580141
 20
-420.4186450386302
 30
0.0
 11
-110.3048520197034
 21
-330.8837411621468
 31
0.0
  0
TEXT
  5
757
330
6B
100
AcDbEntity
  8
0
 62
     3
100
AcDbText
 10
187.9895659999999
 20
-246.497268
 30
0.0
 40
3.2
  1
担　当
  7
高3.2
100
AcDbText
  0
TEXT
  5
758
330
6B
100
AcDbEntity
  8
0
 62
     3
100
AcDbText
 10
143.9895659999999
 20
-246.497268
 30
0.0
 40
3.2
  1
変更・追記内容
  7
高3.2
100
AcDbText
  0
TEXT
  5
759
330
6B
100
AcDbEntity
  8
0
 62
     3
100
AcDbText
 10
119.1030810003391
 20
-251.1678065099083
 30
0.0
 40
2.0
  1
1
  7
高2
100
AcDbText
  0
TEXT
  5
75A
330
6B
100
AcDbEntity
  8
0
 62
     3
100
AcDbText
 10
118.7945695235818
 20
-256.3376232221812
 30
0.0
 40
2.0
  1
2
  7
高2
100
AcDbText
  0
TEXT
  5
75B
330
6B
100
AcDbEntity
  8
0
 62
     3
100
AcDbText
 10
125.9895659999999
 20
-246.497268
 30
0.0
 40
3.2
  1
日　付
  7
高3.2
100
AcDbText
  0
TEXT
  5
75C
330
6B
100
AcDbEntity
  8
0
 62
     3
100
AcDbText
 10
125.9895659999999
 20
-241.497268
 30
0.0
 40
3.2
  1
図　　　　面　　　　略　　　　歴
  7
高3.2
100
AcDbText
  0
TEXT
  5
75D
330
6B
100
AcDbEntity
  8
0
 62
     3
100
AcDbText
 10
115.9895659999998
 20
-246.497268
 30
0.0
 40
3.2
  1
記号
  7
高3.2
100
AcDbText
  0
LINE
  5
75E
330
6B
100
AcDbEntity
  8
0
 62
     7
100
AcDbLine
 10
119.4895659999999
 20
-253.206372
 30
0.0
 11
117.5895659999999
 21
-256.497268
 31
0.0
  0
LINE
  5
75F
330
6B
100
AcDbEntity
  8
0
 62
     7
100
AcDbLine
 10
119.4895659999999
 20
-253.206372
 30
0.0
 11
121.3895659999998
 21
-256.497268
 31
0.0
  0
LINE
  5
760
330
6B
100
AcDbEntity
  8
0
 62
     7
100
AcDbLine
 10
117.5895659999999
 20
-256.497268
 30
0.0
 11
121.3895659999998
 21
-256.497268
 31
0.0
  0
LINE
  5
761
330
6B
100
AcDbEntity
  8
0
 62
     7
100
AcDbLine
 10
119.4895659999999
 20
-248.2063709999999
 30
0.0
 11
117.5895659999999
 21
-251.497268
 31
0.0
  0
LINE
  5
762
330
6B
100
AcDbEntity
  8
0
 62
     7
100
AcDbLine
 10
119.4895659999999
 20
-248.2063709999999
 30
0.0
 11
121.3895659999998
 21
-251.497268
 31
0.0
  0
LINE
  5
763
330
6B
100
AcDbEntity
  8
0
 62
     7
100
AcDbLine
 10
117.5895659999999
 20
-251.497268
 30
0.0
 11
121.3895659999998
 21
-251.497268
 31
0.0
  0
LINE
  5
764
330
6B
100
AcDbEntity
  8
0
 62
     3
100
AcDbLine
 10
114.4895659999999
 20
-241.997268
 30
0.0
 11
200.4895659999999
 21
-241.997268
 31
0.0
  0
LINE
  5
765
330
6B
100
AcDbEntity
  8
0
 62
     3
100
AcDbLine
 10
114.4895659999999
 20
-246.997268
 30
0.0
 11
200.4895659999999
 21
-246.997268
 31
0.0
  0
LINE
  5
766
330
6B
100
AcDbEntity
  8
0
 62
     7
100
AcDbLine
 10
114.4895659999999
 20
-251.997268
 30
0.0
 11
200.4895659999999
 21
-251.997268
 31
0.0
  0
LINE
  5
767
330
6B
100
AcDbEntity
  8
0
 62
     3
100
AcDbLine
 10
114.4895659999999
 20
-256.997268
 30
0.0
 11
200.4895659999999
 21
-256.997268
 31
0.0
  0
LINE
  5
768
330
6B
100
AcDbEntity
  8
0
 62
     7
100
AcDbLine
 10
186.4895659999998
 20
-256.997268
 30
0.0
 11
186.4895659999999
 21
-241.997268
 31
0.0
  0
LINE
  5
769
330
6B
100
AcDbEntity
  8
0
 62
     7
100
AcDbLine
 10
142.4895659999999
 20
-256.997268
 30
0.0
 11
142.4895659999999
 21
-241.997268
 31
0.0
  0
LINE
  5
76A
330
6B
100
AcDbEntity
  8
0
 62
     7
100
AcDbLine
 10
124.4895659999999
 20
-256.997268
 30
0.0
 11
124.4895659999999
 21
-241.997268
 31
0.0
  0
LINE
  5
76B
330
6B
100
AcDbEntity
  8
0
 62
     3
100
AcDbLine
 10
114.4895659999999
 20
-256.997268
 30
0.0
 11
114.4895659999999
 21
-236.997268
 31
0.0
  0
LINE
  5
8CE
330
6B
100
AcDbEntity
  8
0
  6
CENTER
100
AcDbLine
 10
-96.8756228719712
 20
-254.9620305413446
 30
0.0
 11
-96.8756228719712
 21
-476.9658123411042
 31
0.0
  0
LINE
  5
8CF
330
6B
100
AcDbEntity
  8
0
  6
CENTER
100
AcDbLine
 10
7.071985459127859
 20
-254.9620305413446
 30
0.0
 11
7.071985459127859
 21
-480.9745777005373
 31
0.0
  0
LINE
  5
8D2
330
6B
100
AcDbEntity
  8
0
  6
HIDDEN
100
AcDbLine
 10
12.07198545912791
 20
-261.3837372207896
 30
0.0
 11
12.07198545912786
 21
-287.1388301688901
 31
0.0
  0
LINE
  5
8D5
330
6B
100
AcDbEntity
  8
0
  6
HIDDEN
100
AcDbLine
 10
2.071985459127914
 20
-261.3837372207896
 30
0.0
 11
2.071985459127859
 21
-287.1387251499238
 31
0.0
  0
LINE
  5
8D6
330
6B
100
AcDbEntity
  8
0
  6
HIDDEN
100
AcDbLine
 10
10.82198545912786
 20
-261.3837372207896
 30
0.0
 11
10.82198545912786
 21
-286.3175765782756
 31
0.0
  0
LINE
  5
8D7
330
6B
100
AcDbEntity
  8
0
  6
HIDDEN
100
AcDbLine
 10
3.321985459127859
 20
-261.3837372207896
 30
0.0
 11
3.321985459127859
 21
-286.318154243905
 31
0.0
  0
LINE
  5
8D8
330
6B
100
AcDbEntity
  8
0
 62
     7
100
AcDbLine
 10
10.67198526541278
 20
-432.8837420487658
 30
0.0
 11
10.67198526541278
 21
-330.8837411621468
 31
0.0
  0
LINE
  5
8D9
330
6B
100
AcDbEntity
  8
0
 62
     7
100
AcDbLine
 10
3.471985652842931
 20
-330.8837411621468
 30
0.0
 11
3.471985652842931
 21
-432.8837420487658
 31
0.0
  0
LINE
  5
8DA
330
6B
100
AcDbEntity
  8
0
 62
     7
100
AcDbLine
 10
-93.27562306568626
 20
-432.8837420487658
 30
0.0
 11
-93.27562306568626
 21
-330.8837411621468
 31
0.0
  0
LINE
  5
8DB
330
6B
100
AcDbEntity
  8
0
 62
     7
100
AcDbLine
 10
-100.4756236095787
 20
-330.8837411621468
 30
0.0
 11
-100.4756236095787
 21
-432.8837420487658
 31
0.0
  0
LINE
  5
933
330
6B
100
AcDbEntity
  8
0
  6
PHANTOM
 62
     7
100
AcDbLine
 10
-7.737179590353092
 20
-413.6837407117528
 30
0.0
 11
-10.92801376601176
 21
-413.6837404662625
 31
0.0
  0
LINE
  5
934
330
6B
100
AcDbEntity
  8
0
  6
PHANTOM
 62
     7
100
AcDbLine
 10
-10.92801376601176
 20
-413.6837404662625
 30
0.0
 11
-10.92801376601176
 21
-411.3837406480566
 31
0.0
  0
LINE
  5
935
330
6B
100
AcDbEntity
  8
0
  6
PHANTOM
 62
     7
100
AcDbLine
 10
-10.92801376601176
 20
-411.3837406480566
 30
0.0
 11
-7.737179590353092
 21
-411.3837407117527
 31
0.0
  0
ARC
  5
936
330
6B
100
AcDbEntity
  8
0
  6
PHANTOM
 62
     7
100
AcDbCircle
 10
0.3417071422863955
 20
-422.5837407117526
 30
0.0
 40
3.300000000000011
100
AcDbArc
 50
194.8274822216316
 51
270.0
  0
LINE
  5
937
330
6B
100
AcDbEntity
  8
0
  6
PHANTOM
 62
     7
100
AcDbLine
 10
-4.83707751502709
 20
-415.9160126441971
 30
0.0
 11
-2.848405794999166
 21
-423.4282421389476
 31
0.0
  0
ARC
  5
938
330
6B
100
AcDbEntity
  8
0
  6
PHANTOM
 62
     7
100
AcDbCircle
 10
-7.737179590353092
 20
-416.6837407117527
 30
0.0
 40
5.300000000000012
100
AcDbArc
 50
14.82748222162854
 51
90.0
  0
LINE
  5
939
330
6B
100
AcDbEntity
  8
0
  6
PHANTOM
 62
     7
100
AcDbLine
 10
-0.6249937543781244
 20
-422.8396499970808
 30
0.0
 11
-2.613665940067335
 21
-415.3274205023304
 31
0.0
  0
LINE
  5
93A
330
6B
100
AcDbEntity
  8
0
  6
PHANTOM
 62
     7
100
AcDbLine
 10
13.80226394737644
 20
-423.5837404126183
 30
0.0
 11
0.3417069708792724
 21
-423.5837404126183
 31
0.0
  0
ARC
  5
93B
330
6B
100
AcDbEntity
  8
0
  6
PHANTOM
 62
     7
100
AcDbCircle
 10
13.80226377596665
 20
-422.5837407117528
 30
0.0
 40
1.000000000000001
100
AcDbArc
 50
270.0
 51
345.1725177783731
  0
LINE
  5
93C
330
6B
100
AcDbEntity
  8
0
  6
PHANTOM
 62
     7
100
AcDbLine
 10
16.75763685832305
 20
-415.3274205023304
 30
0.0
 11
14.76896467263384
 21
-422.8396499970808
 31
0.0
  0
ARC
  5
93D
330
6B
100
AcDbEntity
  8
0
  6
PHANTOM
 62
     7
100
AcDbCircle
 10
21.8811505086062
 20
-416.6837407117527
 30
0.0
 40
5.300000000000012
100
AcDbArc
 50
90.0
 51
165.1725177783714
  0
LINE
  5
93E
330
6B
100
AcDbEntity
  8
0
  6
PHANTOM
 62
     7
100
AcDbLine
 10
37.07198545912655
 20
-411.3837407117527
 30
0.0
 11
21.881150609055
 21
-411.3837406480566
 31
0.0
  0
LINE
  5
93F
330
6B
100
AcDbEntity
  8
0
  6
PHANTOM
 62
     7
100
AcDbLine
 10
32.07198583165689
 20
-413.6837404662625
 30
0.0
 11
32.07198583165689
 21
-411.3837406480566
 31
0.0
  0
LINE
  5
940
330
6B
100
AcDbEntity
  8
0
  6
PHANTOM
 62
     7
100
AcDbLine
 10
21.881150609055
 20
-413.6837404662625
 30
0.0
 11
37.07198478857562
 21
-413.6837404662625
 31
0.0
  0
ARC
  5
941
330
6B
100
AcDbEntity
  8
0
  6
PHANTOM
 62
     7
100
AcDbCircle
 10
21.8811505086062
 20
-416.6837407117527
 30
0.0
 40
3.0
100
AcDbArc
 50
90.0
 51
165.1725177783714
  0
LINE
  5
942
330
6B
100
AcDbEntity
  8
0
  6
PHANTOM
 62
     7
100
AcDbLine
 10
16.99237671325488
 20
-423.4282421389476
 30
0.0
 11
18.98104843328281
 21
-415.9160126441971
 31
0.0
  0
ARC
  5
943
330
6B
100
AcDbEntity
  8
0
  6
PHANTOM
 62
     7
100
AcDbCircle
 10
13.80226377596665
 20
-422.5837407117526
 30
0.0
 40
3.300000000000018
100
AcDbArc
 50
270.0
 51
345.1725177783714
  0
LINE
  5
944
330
6B
100
AcDbEntity
  8
0
  6
PHANTOM
 62
     7
100
AcDbLine
 10
0.3417069708792724
 20
-425.8837411621467
 30
0.0
 11
13.80226394737644
 21
-425.8837411621467
 31
0.0
  0
ARC
  5
945
330
6B
100
AcDbEntity
  8
0
  6
PHANTOM
 62
     7
100
AcDbCircle
 10
-7.737179590353092
 20
-416.6837407117527
 30
0.0
 40
3.0
100
AcDbArc
 50
14.82748222162854
 51
90.0
  0
ARC
  5
946
330
6B
100
AcDbEntity
  8
0
  6
PHANTOM
 62
     7
100
AcDbCircle
 10
0.3417071422863955
 20
-422.5837407117528
 30
0.0
 40
1.0
100
AcDbArc
 50
194.8274822216285
 51
270.0
  0
LINE
  5
947
330
6B
100
AcDbEntity
  8
0
  6
PHANTOM
 62
     7
100
AcDbLine
 10
42.8570756373791
 20
-420.5781408095614
 30
0.0
 11
44.61897776106876
 21
-419.0997295522944
 31
0.0
  0
LINE
  5
948
330
6B
100
AcDbEntity
  8
0
  6
PHANTOM
 62
     7
100
AcDbLine
 10
37.07198478857562
 20
-413.6837404662625
 30
0.0
 11
42.8570756373791
 21
-420.5781408095614
 31
0.0
  0
ARC
  5
949
330
6B
100
AcDbEntity
  8
0
  6
PHANTOM
 62
     7
100
AcDbCircle
 10
37.07198545912655
 20
-413.6837407117528
 30
0.0
 40
2.30000000000001
100
AcDbArc
 50
40.00000000000015
 51
90.0
  0
LINE
  5
94A
330
6B
100
AcDbEntity
  8
0
  6
PHANTOM
 62
     7
100
AcDbLine
 10
44.61897776106876
 20
-419.0997295522944
 30
0.0
 11
38.83388877491041
 21
-412.2053292089955
 31
0.0
  0
LINE
  5
997
330
6B
100
AcDbEntity
  8
0
 62
     3
100
AcDbLine
 10
67.31139645912787
 20
-355.3217712207896
 30
0.0
 11
62.33368745912788
 21
-355.3217712207896
 31
0.0
  0
LINE
  5
998
330
6B
100
AcDbEntity
  8
0
 62
     3
100
AcDbLine
 10
65.13368745912782
 20
-354.5217712207896
 30
0.0
 11
60.1559784591279
 21
-354.5217712207896
 31
0.0
  0
ARC
  5
999
330
6B
100
AcDbEntity
  8
0
 62
     3
100
AcDbCircle
 10
63.73368745912785
 20
-354.9217712207897
 30
0.0
 40
3.6
100
AcDbArc
 50
119.6772750000016
 51
173.6206300000002
  0
ARC
  5
99A
330
6B
100
AcDbEntity
  8
0
 62
     3
100
AcDbCircle
 10
63.73368745912785
 20
-354.9217712207897
 30
0.0
 40
3.6
100
AcDbArc
 50
10.4659350000005
 51
113.9645789999985
  0
ARC
  5
99B
330
6B
100
AcDbEntity
  8
0
 62
     3
100
AcDbCircle
 10
63.73368745912785
 20
-354.9217712207897
 30
0.0
 40
3.6
100
AcDbArc
 50
190.4659350000004
 51
293.9645789999985
  0
ARC
  5
99C
330
6B
100
AcDbEntity
  8
0
 62
     3
100
AcDbCircle
 10
63.73368745912785
 20
-354.9217712207897
 30
0.0
 40
3.6
100
AcDbArc
 50
299.6772750000017
 51
353.6206300000003
  0
LINE
  5
99D
330
6B
100
AcDbEntity
  8
0
 62
     3
100
AcDbLine
 10
61.61107145912786
 20
-351.5314172207896
 30
0.0
 11
60.93368745912782
 21
-350.9217712207897
 31
0.0
  0
LINE
  5
99E
330
6B
100
AcDbEntity
  8
0
 62
     3
100
AcDbLine
 10
60.93368745912782
 20
-350.9217712207897
 30
0.0
 11
61.83572145912785
 21
-351.4007312207896
 31
0.0
  0
LINE
  5
99F
330
6B
100
AcDbEntity
  8
0
 62
     3
100
AcDbLine
 10
62.27146945912784
 20
-351.6321032207896
 30
0.0
 11
67.27788945912789
 21
-354.2903992207897
 31
0.0
  0
LINE
  5
9A0
330
6B
100
AcDbEntity
  8
0
 62
     3
100
AcDbLine
 10
61.95127645912783
 20
-351.7939902207896
 30
0.0
 11
65.13368745912782
 21
-354.5217712207896
 31
0.0
  0
LINE
  5
9A1
330
6B
100
AcDbEntity
  8
0
 62
     3
100
AcDbLine
 10
65.19590545912786
 20
-358.2114392207897
 30
0.0
 11
60.18948545912786
 21
-355.5531432207896
 31
0.0
  0
LINE
  5
9A2
330
6B
100
AcDbEntity
  8
0
 62
     3
100
AcDbLine
 10
65.51609845912786
 20
-358.0495522207896
 30
0.0
 11
62.33368745912788
 21
-355.3217712207896
 31
0.0
  0
LINE
  5
9A3
330
6B
100
AcDbEntity
  8
0
 62
     3
100
AcDbLine
 10
65.85630345912784
 20
-358.3121252207897
 30
0.0
 11
66.53368745912786
 21
-358.9217712207897
 31
0.0
  0
LINE
  5
9A4
330
6B
100
AcDbEntity
  8
0
 62
     3
100
AcDbLine
 10
66.53368745912786
 20
-358.9217712207897
 30
0.0
 11
65.63165345912786
 21
-358.4428112207896
 31
0.0
  0
ARC
  5
9A5
330
6B
100
AcDbEntity
  8
0
 62
     3
100
AcDbCircle
 10
63.73368745912785
 20
-354.9217712207897
 30
0.0
 40
4.0
100
AcDbArc
 50
302.0496510000003
 51
118.3262469999996
  0
ARC
  5
9A6
330
6B
100
AcDbEntity
  8
0
 62
     3
100
AcDbCircle
 10
63.73368745912785
 20
-354.9217712207897
 30
0.0
 40
4.0
100
AcDbArc
 50
122.0496489999997
 51
298.3262469999997
  0
TEXT
  5
9A7
330
6B
100
AcDbEntity
  8
0
 62
     3
100
AcDbText
 10
59.50972345912783
 20
-365.0542412207897
 30
0.0
 40
7.559999999999997
  1
V-95
 50
270.000001
 41
0.9230769999999999
100
AcDbText
  0
LINE
  5
9B0
330
6B
100
AcDbEntity
  8
0
 62
     7
100
AcDbLine
 10
-56.93427623771196
 20
-506.052629
 30
0.0
 11
-189.510434
 21
-506.052629
 31
0.0
  0
LINE
  5
9B1
330
6B
100
AcDbEntity
  8
0
 62
     7
100
AcDbLine
 10
-56.93427623771196
 20
-501.052629
 30
0.0
 11
-189.510434
 21
-501.052629
 31
0.0
  0
LINE
  5
9B2
330
6B
100
AcDbEntity
  8
0
 62
     7
100
AcDbLine
 10
-56.93427623771196
 20
-496.0526289999998
 30
0.0
 11
-189.510434
 21
-496.052629
 31
0.0
  0
LINE
  5
9B3
330
6B
100
AcDbEntity
  8
0
 62
     7
100
AcDbLine
 10
-56.93427623771196
 20
-491.0526289999999
 30
0.0
 11
-189.510434
 21
-491.0526289999999
 31
0.0
  0
LINE
  5
9B4
330
6B
100
AcDbEntity
  8
0
 62
     7
100
AcDbLine
 10
-56.93427623771196
 20
-486.052629
 30
0.0
 11
-189.510434
 21
-486.052629
 31
0.0
  0
LINE
  5
9B5
330
6B
100
AcDbEntity
  8
0
 62
     3
100
AcDbLine
 10
-56.93427623771196
 20
-481.052629
 30
0.0
 11
-189.510434
 21
-481.052629
 31
0.0
  0
CIRCLE
  5
9B6
330
6B
100
AcDbEntity
  8
0
 62
     7
100
AcDbCircle
 10
96.6025133449653
 20
-354.6395881583907
 30
0.0
 40
5.0
  0
TEXT
  5
9B7
330
6B
100
AcDbEntity
  8
0
 62
     4
100
AcDbText
 10
94.03586555312676
 20
-357.9240845291817
 30
0.0
 40
6.299999999999998
  1
4
  7
高6.3
100
AcDbText
  0
CIRCLE
  5
9B8
330
6B
100
AcDbEntity
  8
0
 62
     7
100
AcDbCircle
 10
96.6025133449653
 20
-340.0420171583906
 30
0.0
 40
5.0
  0
TEXT
  5
9B9
330
6B
100
AcDbEntity
  8
0
 62
     4
100
AcDbText
 10
94.15526757653788
 20
-343.2139187911634
 30
0.0
 40
6.299999999999998
  1
3
  7
高6.3
100
AcDbText
  0
CIRCLE
  5
9BA
330
6B
100
AcDbEntity
  8
0
 62
     7
100
AcDbCircle
 10
96.6025133449653
 20
-326.1733401583906
 30
0.0
 40
5.0
  0
TEXT
  5
9BB
330
6B
100
AcDbEntity
  8
0
 62
     4
100
AcDbText
 10
95.5309949906764
 20
-329.3434203443912
 30
0.0
 40
6.299999999999998
  1
1
  7
高6.3
100
AcDbText
  0
CIRCLE
  5
9BC
330
6B
100
AcDbEntity
  8
0
 62
     7
100
AcDbCircle
 10
94.83271470395903
 20
-460.3832934664171
 30
0.0
 40
5.0
  0
TEXT
  5
9BD
330
6B
100
AcDbEntity
  8
0
 62
     4
100
AcDbText
 10
92.76408082586069
 20
-463.5347937387235
 30
0.0
 40
6.299999999999998
  1
2
  7
高6.3
100
AcDbText
  0
TEXT
  5
A37
330
6B
100
AcDbEntity
  8
0
 62
     3
100
AcDbText
 10
-130.6839695710453
 20
-485.552629
 30
0.0
 40
3.2
  1
M10x15 平ワッシャー Sワッシャー
 41
0.8
  7
高3.2
100
AcDbText
  0
TEXT
  5
A38
330
6B
100
AcDbEntity
  8
0
 62
     3
100
AcDbText
 10
-188.010434
 20
-485.552629
 30
0.0
 40
3.2
  1
5
 41
0.8
  7
高3.2
100
AcDbText
  0
TEXT
  5
A39
330
6B
100
AcDbEntity
  8
0
 62
     3
100
AcDbText
 10
-180.6478731666667
 20
-485.552629
 30
0.0
 40
3.2
  1
ノブボルト
 41
0.8
  7
高3.2
100
AcDbText
  0
TEXT
  5
A3A
330
6B
100
AcDbEntity
  8
0
 62
     3
100
AcDbText
 10
-153.4017723333333
 20
-485.552629
 30
0.0
 40
3.2
  1
1
 41
0.8
  7
高3.2
100
AcDbText
  0
TEXT
  5
A3B
330
6B
100
AcDbEntity
  8
0
 62
     3
100
AcDbText
 10
-145.4179719206979
 20
-485.552629
 30
0.0
 40
3.2
  1
SS
 41
0.8
  7
高3.2
100
AcDbText
  0
TEXT
  5
A3C
330
6B
100
AcDbEntity
  8
0
 62
     3
100
AcDbText
 10
-74.12810577073543
 20
-485.5526289999998
 30
0.0
 40
3.2
  1
-
 41
0.8
  7
高3.2
100
AcDbText
  0
TEXT
  5
E30
330
6B
100
AcDbEntity
  8
0
  6
Continuous
 62
     4
100
AcDbText
 10
-78.11493042127111
 20
-397.2346729851333
 30
0.0
 40
3.0
  1
M9 P=1.75
100
AcDbText
1001
ACAD
1000
MTEXTBEGIN
1070
    73
1070
     1
1070
    44
1040
1.0
1070
    74
1070
     0
1000
MTEXTEND
  0
TEXT
  5
E39
330
6B
100
AcDbEntity
  8
0
  6
Continuous
 62
     4
100
AcDbText
 10
16.68361699649222
 20
-257.4047482388284
 30
0.0
 40
3.0
  1
M10
100
AcDbText
1001
ACAD
1000
MTEXTBEGIN
1070
    73
1070
     1
1070
    44
1040
1.0
1070
    74
1070
     0
1000
MTEXTEND
  0
LINE
  5
E3C
330
6B
100
AcDbEntity
  8
0
  6
Continuous
100
AcDbLine
 10
-11.17801376601176
 20
-316.3837406480567
 30
0.0
 11
-28.13382616365379
 21
-316.3837406480567
 31
0.0
  0
LINE
  5
E3D
330
6B
100
AcDbEntity
  8
0
  6
Continuous
100
AcDbLine
 10
-11.17801566242229
 20
-411.3837406480564
 30
0.0
 11
-28.13382616365381
 21
-411.3837406480564
 31
0.0
  0
LINE
  5
E3E
330
6B
100
AcDbEntity
  8
0
  6
Continuous
100
AcDbLine
 10
-26.88382616365379
 20
-318.8837406480567
 30
0.0
 11
-26.88382616365381
 21
-408.8837406480563
 31
0.0
  0
LINE
  5
E42
330
6B
100
AcDbEntity
  8
0
  6
Continuous
100
AcDbLine
 10
-7.178014973005815
 20
-279.3837438965098
 30
0.0
 11
-28.13382616365383
 21
-279.3837438965098
 31
0.0
  0
LINE
  5
E43
330
6B
100
AcDbEntity
  8
0
  6
Continuous
100
AcDbLine
 10
-11.17801376601176
 20
-316.3837406480567
 30
0.0
 11
-28.13382616365384
 21
-316.3837406480567
 31
0.0
  0
LINE
  5
E44
330
6B
100
AcDbEntity
  8
0
  6
Continuous
100
AcDbLine
 10
-26.88382616365384
 20
-281.8837438965098
 30
0.0
 11
-26.88382616365384
 21
-313.8837406480567
 31
0.0
  0
LINE
  5
E48
330
6B
100
AcDbEntity
  8
0
  6
Continuous
100
AcDbLine
 10
-3.178014317354723
 20
-261.3837372207896
 30
0.0
 11
-28.13382616365383
 21
-261.3837372207896
 31
0.0
  0
LINE
  5
E49
330
6B
100
AcDbEntity
  8
0
  6
Continuous
100
AcDbLine
 10
-7.178014973005815
 20
-279.3837438965098
 30
0.0
 11
-28.13382616365383
 21
-279.3837438965098
 31
0.0
  0
LINE
  5
E4A
330
6B
100
AcDbEntity
  8
0
  6
Continuous
100
AcDbLine
 10
-26.88382616365383
 20
-263.8837372207896
 30
0.0
 11
-26.88382616365383
 21
-276.8837438965098
 31
0.0
  0
LINE
  5
E4E
330
6B
100
AcDbEntity
  8
0
  6
Continuous
100
AcDbLine
 10
-101.313743409404
 20
-473.3837407117515
 30
0.0
 11
-139.9270323417232
 21
-473.3837407117514
 31
0.0
  0
LINE
  5
E4F
330
6B
100
AcDbEntity
  8
0
  6
Continuous
100
AcDbLine
 10
-107.1256235797763
 20
-261.3837372207896
 30
0.0
 11
-139.9270323417231
 21
-261.3837372207896
 31
0.0
  0
LINE
  5
E50
330
6B
100
AcDbEntity
  8
0
  6
Continuous
100
AcDbLine
 10
-138.6770323417232
 20
-470.8837407117514
 30
0.0
 11
-138.6770323417231
 21
-263.8837372207896
 31
0.0
  0
LINE
  5
E54
330
6B
100
AcDbEntity
  8
0
  6
Continuous
100
AcDbLine
 10
-107.1256235797763
 20
-261.3837372207896
 30
0.0
 11
-132.1857119933675
 21
-261.3837372207896
 31
0.0
  0
LINE
  5
E55
330
6B
100
AcDbEntity
  8
0
  6
Continuous
100
AcDbLine
 10
-105.4140706171155
 20
-458.3837415719287
 30
0.0
 11
-132.1857119933676
 21
-458.3837415719286
 31
0.0
  0
LINE
  5
E56
330
6B
100
AcDbEntity
  8
0
  6
Continuous
100
AcDbLine
 10
-130.9357119933675
 20
-263.8837372207896
 30
0.0
 11
-130.9357119933676
 21
-455.8837415719287
 31
0.0
  0
LINE
  5
E5A
330
6B
100
AcDbEntity
  8
0
  6
Continuous
100
AcDbLine
 10
76.57198545912648
 20
-315.3837407117528
 30
0.0
 11
76.57198545912648
 21
-244.3070874506657
 31
0.0
  0
LINE
  5
E5B
330
6B
100
AcDbEntity
  8
0
  6
Continuous
100
AcDbLine
 10
-10.92801376601176
 20
-316.1337406480567
 30
0.0
 11
-10.92801376601175
 21
-244.3070874506657
 31
0.0
  0
LINE
  5
E5C
330
6B
100
AcDbEntity
  8
0
  6
Continuous
100
AcDbLine
 10
74.07198545912648
 20
-245.5570874506657
 30
0.0
 11
-8.428013766011757
 21
-245.5570874506657
 31
0.0
  0
LINE
  5
E60
330
6B
100
AcDbEntity
  8
0
  6
Continuous
100
AcDbLine
 10
7.071985459127859
 20
-254.7120305413446
 30
0.0
 11
7.071985459127859
 21
-250.1830023517937
 31
0.0
  0
LINE
  5
E61
330
6B
100
AcDbEntity
  8
0
  6
Continuous
100
AcDbLine
 10
76.57198545912648
 20
-315.6337407117528
 30
0.0
 11
76.57198545912648
 21
-250.1830023517937
 31
0.0
  0
LINE
  5
E62
330
6B
100
AcDbEntity
  8
0
  6
Continuous
100
AcDbLine
 10
9.571985459127859
 20
-251.4330023517937
 30
0.0
 11
74.07198545912648
 21
-251.4330023517937
 31
0.0
  0
LINE
  5
E66
330
6B
100
AcDbEntity
  8
0
  6
Continuous
100
AcDbLine
 10
-106.8756235797763
 20
-261.1337372207896
 30
0.0
 11
-106.8756235797763
 21
-249.7089734361528
 31
0.0
  0
LINE
  5
E67
330
6B
100
AcDbEntity
  8
0
  6
Continuous
100
AcDbLine
 10
-86.87562321190393
 20
-261.1337372207896
 30
0.0
 11
-86.87562321190393
 21
-249.7089734361528
 31
0.0
  0
LINE
  5
E68
330
6B
100
AcDbEntity
  8
0
  6
Continuous
100
AcDbLine
 10
-104.3756235797763
 20
-250.9589734361528
 30
0.0
 11
-89.37562321190393
 21
-250.9589734361528
 31
0.0
  0
LINE
  5
E6C
330
6B
100
AcDbEntity
  8
0
  6
Continuous
100
AcDbLine
 10
-82.8756233711601
 20
-280.1337421977775
 30
0.0
 11
-82.8756233711601
 21
-241.9299831142525
 31
0.0
  0
LINE
  5
E6D
330
6B
100
AcDbEntity
  8
0
  6
Continuous
100
AcDbLine
 10
-110.8756223727823
 20
-280.1337421977775
 30
0.0
 11
-110.8756223727823
 21
-241.9299831142525
 31
0.0
  0
LINE
  5
E6E
330
6B
100
AcDbEntity
  8
0
  6
Continuous
100
AcDbLine
 10
-85.3756233711601
 20
-243.1799831142525
 30
0.0
 11
-108.3756223727823
 21
-243.1799831142525
 31
0.0
  0
LINE
  5
E72
330
6B
100
AcDbEntity
  8
0
 62
     3
100
AcDbLine
 10
-82.9062541049779
 20
-315.4186464542405
 30
0.0
 11
-82.90969394490725
 21
-315.5171394044415
 31
0.0
  0
LINE
  5
E73
330
6B
100
AcDbEntity
  8
0
 62
     3
100
AcDbLine
 10
-82.90969394490725
 20
-315.5171394044415
 30
0.0
 11
-82.91992964566357
 21
-315.8101930910603
 31
0.0
  0
LINE
  5
E74
330
6B
100
AcDbEntity
  8
0
 62
     3
100
AcDbLine
 10
-82.91992964566357
 20
-315.8101930910603
 30
0.0
 11
-82.93670835316783
 21
-316.290593489434
 31
0.0
  0
LINE
  5
E75
330
6B
100
AcDbEntity
  8
0
 62
     3
100
AcDbLine
 10
-82.93670835316783
 20
-316.290593489434
 30
0.0
 11
-82.93996146292093
 21
-316.3837406480567
 31
0.0
  0
LINE
  5
E76
330
6B
100
AcDbEntity
  8
0
 62
     3
100
AcDbLine
 10
-110.8112847466827
 20
-316.3837406480567
 30
0.0
 11
-110.8145387877584
 21
-316.290593489434
 31
0.0
  0
LINE
  5
E77
330
6B
100
AcDbEntity
  8
0
 62
     3
100
AcDbLine
 10
-110.8145387877584
 20
-316.290593489434
 30
0.0
 11
-110.8313174952627
 21
-315.8101930910603
 31
0.0
  0
LINE
  5
E78
330
6B
100
AcDbEntity
  8
0
 62
     3
100
AcDbLine
 10
-110.8313174952627
 20
-315.8101930910603
 30
0.0
 11
-110.8415527303577
 21
-315.5171394044415
 31
0.0
  0
LINE
  5
E79
330
6B
100
AcDbEntity
  8
0
 62
     3
100
AcDbLine
 10
-110.8415527303577
 20
-315.5171394044415
 30
0.0
 11
-110.8449930359483
 21
-315.4186464542405
 31
0.0
  0
LINE
  5
E7A
330
6B
100
AcDbEntity
  8
0
 62
     3
100
AcDbLine
 10
-106.7340141196609
 20
-433.1224213981883
 30
0.0
 11
-106.7357072641015
 21
-433.0739702725665
 31
0.0
  0
LINE
  5
E7B
330
6B
100
AcDbEntity
  8
0
 62
     3
100
AcDbLine
 10
-106.7357072641015
 20
-433.0739702725665
 30
0.0
 11
-106.7915977944494
 21
-431.473719670798
 31
0.0
  0
LINE
  5
E7C
330
6B
100
AcDbEntity
  8
0
 62
     3
100
AcDbLine
 10
-106.7915977944494
 20
-431.473719670798
 30
0.0
 11
-106.8507833440662
 21
-429.7791521692531
 31
0.0
  0
LINE
  5
E7D
330
6B
100
AcDbEntity
  8
0
 62
     3
100
AcDbLine
 10
-106.8507833440662
 20
-429.7791521692531
 30
0.0
 11
-106.9127572734714
 21
-428.0047218942897
 31
0.0
  0
LINE
  5
E7E
330
6B
100
AcDbEntity
  8
0
 62
     3
100
AcDbLine
 10
-106.9127572734714
 20
-428.0047218942897
 30
0.0
 11
-106.9769924540878
 21
-426.1655684256808
 31
0.0
  0
LINE
  5
E7F
330
6B
100
AcDbEntity
  8
0
 62
     3
100
AcDbLine
 10
-106.9769924540878
 20
-426.1655684256808
 30
0.0
 11
-107.0429412682414
 21
-424.2773826861636
 31
0.0
  0
LINE
  5
E80
330
6B
100
AcDbEntity
  8
0
 62
     3
100
AcDbLine
 10
-107.0429412682414
 20
-424.2773826861636
 30
0.0
 11
-107.110037471807
 21
-422.3562802815692
 31
0.0
  0
LINE
  5
E81
330
6B
100
AcDbEntity
  8
0
 62
     3
100
AcDbLine
 10
-107.110037471807
 20
-422.3562802815692
 30
0.0
 11
-107.1777129580141
 21
-420.4186450386302
 31
0.0
  0
LINE
  5
E82
330
6B
100
AcDbEntity
  8
0
 62
     3
100
AcDbLine
 10
-86.57353348442024
 20
-420.4186450386302
 30
0.0
 11
-86.64120827213531
 21
-422.3562802815692
 31
0.0
  0
LINE
  5
E83
330
6B
100
AcDbEntity
  8
0
 62
     3
100
AcDbLine
 10
-86.64120827213531
 20
-422.3562802815692
 30
0.0
 11
-86.70830563985413
 21
-424.2773826861636
 31
0.0
  0
LINE
  5
E84
330
6B
100
AcDbEntity
  8
0
 62
     3
100
AcDbLine
 10
-86.70830563985413
 20
-424.2773826861636
 30
0.0
 11
-86.77425328985458
 21
-426.1655684256808
 31
0.0
  0
LINE
  5
E85
330
6B
100
AcDbEntity
  8
0
 62
     3
100
AcDbLine
 10
-86.77425328985458
 20
-426.1655684256808
 30
0.0
 11
-86.83848835405562
 21
-428.0047218942897
 31
0.0
  0
LINE
  5
E86
330
6B
100
AcDbEntity
  8
0
 62
     3
100
AcDbLine
 10
-86.83848835405562
 20
-428.0047218942897
 30
0.0
 11
-86.90046298195278
 21
-429.7791521692531
 31
0.0
  0
LINE
  5
E87
330
6B
100
AcDbEntity
  8
0
 62
     3
100
AcDbLine
 10
-86.90046298195278
 20
-429.7791521692531
 30
0.0
 11
-86.95964829873895
 21
-431.473719670798
 31
0.0
  0
LINE
  5
E88
330
6B
100
AcDbEntity
  8
0
 62
     3
100
AcDbLine
 10
-86.95964829873895
 20
-431.473719670798
 30
0.0
 11
-87.01553941116339
 21
-433.0739702725665
 31
0.0
  0
LINE
  5
E89
330
6B
100
AcDbEntity
  8
0
 62
     3
100
AcDbLine
 10
-87.01553941116339
 20
-433.0739702725665
 30
0.0
 11
-87.01723150786611
 21
-433.1224213981883
 31
0.0
  0
LINE
  5
E8A
330
6B
100
AcDbEntity
  8
0
 62
     3
100
AcDbLine
 10
-111.08210217551
 20
-308.6297910356777
 30
0.0
 11
-111.0867923159957
 21
-308.4955352986114
 31
0.0
  0
LINE
  5
E8B
330
6B
100
AcDbEntity
  8
0
 62
     3
100
AcDbLine
 10
-111.0867923159957
 20
-308.4955352986114
 30
0.0
 11
-111.0891783644319
 21
-308.4272395515696
 31
0.0
  0
LINE
  5
E8C
330
6B
100
AcDbEntity
  8
0
 62
     3
100
AcDbLine
 10
-111.0891783644319
 20
-308.4272395515696
 30
0.0
 11
-111.0894763876558
 21
-308.4186713838832
 31
0.0
  0
LINE
  5
E8D
330
6B
100
AcDbEntity
  8
0
 62
     3
100
AcDbLine
 10
-82.6617688906253
 20
-308.4186453068511
 30
0.0
 11
-82.66206877649429
 21
-308.4272395515696
 31
0.0
  0
LINE
  5
E8E
330
6B
100
AcDbEntity
  8
0
 62
     3
100
AcDbLine
 10
-82.66206877649429
 20
-308.4272395515696
 30
0.0
 11
-82.6644543592692
 21
-308.4955352986114
 31
0.0
  0
LINE
  5
E8F
330
6B
100
AcDbEntity
  8
0
 62
     3
100
AcDbLine
 10
-82.6644543592692
 20
-308.4955352986114
 30
0.0
 11
-82.66914356843239
 21
-308.6297910356777
 31
0.0
  0
LINE
  5
E90
330
6B
100
AcDbEntity
  8
0
 62
     3
100
AcDbLine
 10
16.18349604884668
 20
-456.3837375188128
 30
0.0
 11
16.22877881506963
 21
-455.2557643199222
 31
0.0
  0
LINE
  5
E91
330
6B
100
AcDbEntity
  8
0
 62
     3
100
AcDbLine
 10
16.22877881506963
 20
-455.2557643199222
 30
0.0
 11
16.70478709618135
 21
-443.3837409758822
 31
0.0
  0
LINE
  5
E92
330
6B
100
AcDbEntity
  8
0
 62
     3
100
AcDbLine
 10
16.82491280714555
 20
-440.3837423467891
 30
0.0
 11
16.89858135412021
 21
-438.5432030701892
 31
0.0
  0
LINE
  5
E93
330
6B
100
AcDbEntity
  8
0
 62
     3
100
AcDbLine
 10
16.89858135412021
 20
-438.5432030701892
 30
0.0
 11
17.0834153575687
 21
-433.922926678683
 31
0.0
  0
LINE
  5
E94
330
6B
100
AcDbEntity
  8
0
 62
     3
100
AcDbLine
 10
-10.92801376601176
 20
-316.3837406480567
 30
0.0
 11
-10.92615112086253
 21
-316.3665018672006
 31
0.0
  0
LINE
  5
E95
330
6B
100
AcDbEntity
  8
0
 62
     3
100
AcDbLine
 10
-10.92615112086253
 20
-316.3665018672006
 30
0.0
 11
-10.92062465270476
 21
-316.3153778457897
 31
0.0
  0
LINE
  5
E96
330
6B
100
AcDbEntity
  8
0
 62
     3
100
AcDbLine
 10
-10.92062465270476
 20
-316.3153778457897
 30
0.0
 11
-10.91162435134367
 21
-316.2321343714253
 31
0.0
  0
LINE
  5
E97
330
6B
100
AcDbEntity
  8
0
 62
     3
100
AcDbLine
 10
-10.91162435134367
 20
-316.2321343714253
 30
0.0
 11
-10.89844241162257
 21
-316.1102037573115
 31
0.0
  0
LINE
  5
E98
330
6B
100
AcDbEntity
  8
0
 62
     3
100
AcDbLine
 10
-10.89844241162257
 20
-316.1102037573115
 30
0.0
 11
-10.89029892703013
 21
-316.0348783874766
 31
0.0
  0
LINE
  5
E99
330
6B
100
AcDbEntity
  8
0
 62
     3
100
AcDbLine
 10
-10.89029892703013
 20
-316.0348783874766
 30
0.0
 11
-10.88754593749956
 21
-316.0094048524157
 31
0.0
  0
LINE
  5
E9A
330
6B
100
AcDbEntity
  8
0
 62
     3
100
AcDbLine
 10
38.20032679120585
 20
-316.4502799207227
 30
0.0
 11
38.2481595186381
 21
-316.5072843128697
 31
0.0
  0
LINE
  5
E9B
330
6B
100
AcDbEntity
  8
0
 62
     3
100
AcDbLine
 10
38.2481595186381
 20
-316.5072843128697
 30
0.0
 11
38.3272306678681
 21
-316.6015211189048
 31
0.0
  0
LINE
  5
E9C
330
6B
100
AcDbEntity
  8
0
 62
     3
100
AcDbLine
 10
38.3272306678681
 20
-316.6015211189048
 30
0.0
 11
38.42691943625494
 21
-316.720324351813
 31
0.0
  0
LINE
  5
E9D
330
6B
100
AcDbEntity
  8
0
 62
     3
100
AcDbLine
 10
38.42691943625494
 20
-316.720324351813
 30
0.0
 11
38.54578227380796
 21
-316.861978515412
 31
0.0
  0
LINE
  5
E9E
330
6B
100
AcDbEntity
  8
0
 62
     3
100
AcDbLine
 10
38.54578227380796
 20
-316.861978515412
 30
0.0
 11
38.68209437111897
 21
-317.0244291121022
 31
0.0
  0
LINE
  5
E9F
330
6B
100
AcDbEntity
  8
0
 62
     3
100
AcDbLine
 10
38.68209437111897
 20
-317.0244291121022
 30
0.0
 11
38.83388877491041
 21
-317.2053292089955
 31
0.0
  0
LINE
  5
EA2
330
6B
100
AcDbEntity
  8
0
  6
Continuous
100
AcDbLine
 10
149.7569906718396
 20
-336.5603741715661
 30
0.0
 11
129.3199859358605
 21
-336.5603741715661
 31
0.0
  0
LINE
  5
EA3
330
6B
100
AcDbEntity
  8
0
  6
Continuous
100
AcDbLine
 10
158.8768318919899
 20
-321.5635019626585
 30
0.0
 11
129.3199859358605
 21
-321.5635019626585
 31
0.0
  0
LINE
  5
EA4
330
6B
100
AcDbEntity
  8
0
  6
Continuous
100
AcDbLine
 10
130.5699859358605
 20
-334.0603741715661
 30
0.0
 11
130.5699859358605
 21
-324.0635019626585
 31
0.0
  0
LINE
  5
EA8
330
6B
100
AcDbEntity
  8
0
  6
Continuous
100
AcDbLine
 10
138.0069901055955
 20
-326.8866716199521
 30
0.0
 11
138.0069901055955
 21
-314.0279681920853
 31
0.0
  0
LINE
  5
EA9
330
6B
100
AcDbEntity
  8
0
  6
Continuous
100
AcDbLine
 10
178.0069901055953
 20
-326.8866716199521
 30
0.0
 11
178.0069901055953
 21
-314.0279681920853
 31
0.0
  0
LINE
  5
EAA
330
6B
100
AcDbEntity
  8
0
  6
Continuous
100
AcDbLine
 10
140.5069901055955
 20
-315.2779681920853
 30
0.0
 11
175.5069901055953
 21
-315.2779681920853
 31
0.0
  0
TEXT
  5
EAE
330
6B
100
AcDbEntity
  8
0
  6
Continuous
 62
     4
100
AcDbText
 10
177.7252138199114
 20
-353.2995468973483
 30
0.0
 40
3.0
  1
M10x15
100
AcDbText
1001
ACAD
1000
MTEXTBEGIN
1070
    73
1070
     1
1070
    44
1040
1.0
1070
    74
1070
     0
1000
MTEXTEND
  0
LINE
  5
EB1
330
6B
100
AcDbEntity
  8
0
  6
Continuous
100
AcDbLine
 10
-91.84822221574437
 20
-406.9224399087233
 30
0.0
 11
-79.41581304754731
 21
-398.1644118418734
 31
0.0
1001
ACAD
1000
DSTYLE
1002
{
1070
   147
1040
0.625
1070
    77
1070
     0
1002
}
  0
LINE
  5
EB2
330
6B
100
AcDbEntity
  8
0
  6
Continuous
100
AcDbLine
 10
-79.41581304754731
 20
-398.1644118418734
 30
0.0
 11
-55.62289877043622
 21
-398.1644118418734
 31
0.0
1001
ACAD
1000
DSTYLE
1002
{
1070
   147
1040
0.625
1070
    77
1070
     0
1002
}
  0
LINE
  5
EB3
330
6B
100
AcDbEntity
  8
0
  6
ByBlock
 62
     0
370
    -2
100
AcDbLine
 10
-91.46244120441201
 20
-407.4700731596784
 30
0.0
 11
-93.89201880000136
 21
-408.3621952775896
 31
0.0
  0
LINE
  5
EB4
330
6B
100
AcDbEntity
  8
0
  6
ByBlock
 62
     0
370
    -2
100
AcDbLine
 10
-93.89201880000136
 20
-408.3621952775896
 30
0.0
 11
-92.23400322707673
 21
-406.3748066577682
 31
0.0
  0
LINE
  5
EB5
330
6B
100
AcDbEntity
  8
0
  6
ByBlock
 62
     0
370
    -2
100
AcDbLine
 10
-93.89201880000136
 20
-408.3621952775896
 30
0.0
 11
-91.84822221574437
 21
-406.9224399087233
 31
0.0
  0
LINE
  5
EB6
330
6B
100
AcDbEntity
  8
0
  6
Continuous
100
AcDbLine
 10
32.28537027531404
 20
-471.2074333931254
 30
0.0
 11
89.9059441477147
 21
-461.2358964725831
 31
0.0
1001
ACAD
1000
DSTYLE
1002
{
1070
   147
1040
0.625
1070
    77
1070
     0
1002
}
  0
LINE
  5
EB7
330
6B
100
AcDbEntity
  8
0
  6
ByBlock
 62
     0
370
    -2
100
AcDbLine
 10
32.39959733676366
 20
-471.867495015013
 30
0.0
 11
29.82198499719186
 21
-471.6337348962085
 31
0.0
  0
LINE
  5
EB8
330
6B
100
AcDbEntity
  8
0
  6
ByBlock
 62
     0
370
    -2
100
AcDbLine
 10
29.82198499719186
 20
-471.6337348962085
 30
0.0
 11
32.17114321386443
 21
-470.5473717712378
 31
0.0
  0
LINE
  5
EB9
330
6B
100
AcDbEntity
  8
0
  6
ByBlock
 62
     0
370
    -2
100
AcDbLine
 10
29.82198499719186
 20
-471.6337348962085
 30
0.0
 11
32.28537027531404
 21
-471.2074333931254
 31
0.0
  0
LINE
  5
EBA
330
6B
100
AcDbEntity
  8
0
  6
Continuous
100
AcDbLine
 10
14.05765801651078
 20
-326.5673106142235
 30
0.0
 11
91.86877244594059
 21
-353.0297132871969
 31
0.0
1001
ACAD
1000
DSTYLE
1002
{
1070
   147
1040
0.625
1070
    77
1070
     0
1002
}
  0
LINE
  5
EBB
330
6B
100
AcDbEntity
  8
0
  6
ByBlock
 62
     0
370
    -2
100
AcDbLine
 10
13.84197583558004
 20
-327.2015111842999
 30
0.0
 11
11.69078756699843
 21
-325.7623731786267
 31
0.0
  0
LINE
  5
EBC
330
6B
100
AcDbEntity
  8
0
  6
ByBlock
 62
     0
370
    -2
100
AcDbLine
 10
11.69078756699843
 20
-325.7623731786267
 30
0.0
 11
14.27334019744151
 21
-325.9331100441471
 31
0.0
  0
LINE
  5
EBD
330
6B
100
AcDbEntity
  8
0
  6
ByBlock
 62
     0
370
    -2
100
AcDbLine
 10
11.69078756699843
 20
-325.7623731786267
 30
0.0
 11
14.05765801651078
 21
-326.5673106142235
 31
0.0
  0
LINE
  5
EBE
330
6B
100
AcDbEntity
  8
0
  6
Continuous
100
AcDbLine
 10
46.14064513368767
 20
-325.529894411545
 30
0.0
 11
91.79727647603789
 21
-338.6600986971562
 31
0.0
1001
ACAD
1000
DSTYLE
1002
{
1070
   147
1040
0.625
1070
    77
1070
     0
1002
}
  0
LINE
  5
EBF
330
6B
100
AcDbEntity
  8
0
  6
ByBlock
 62
     0
370
    -2
100
AcDbLine
 10
45.95550329880302
 20
-326.1736736184412
 30
0.0
 11
43.73802669922396
 21
-324.8389351809279
 31
0.0
  0
LINE
  5
EC0
330
6B
100
AcDbEntity
  8
0
  6
ByBlock
 62
     0
370
    -2
100
AcDbLine
 10
43.73802669922396
 20
-324.8389351809279
 30
0.0
 11
46.32578696857232
 21
-324.8861152046489
 31
0.0
  0
LINE
  5
EC1
330
6B
100
AcDbEntity
  8
0
  6
ByBlock
 62
     0
370
    -2
100
AcDbLine
 10
43.73802669922396
 20
-324.8389351809279
 30
0.0
 11
46.14064513368767
 21
-325.529894411545
 31
0.0
  0
LINE
  5
EC2
330
6B
100
AcDbEntity
  8
0
  6
Continuous
100
AcDbLine
 10
78.79573753349259
 20
-317.0260739930892
 30
0.0
 11
92.15500776572438
 21
-323.888675167058
 31
0.0
1001
ACAD
1000
DSTYLE
1002
{
1070
   147
1040
0.625
1070
    77
1070
     0
1002
}
  0
LINE
  5
EC3
330
6B
100
AcDbEntity
  8
0
  6
ByBlock
 62
     0
370
    -2
100
AcDbLine
 10
78.4896506836113
 20
-317.6219263293152
 30
0.0
 11
76.57198474387212
 21
-315.8837414974229
 31
0.0
  0
LINE
  5
EC4
330
6B
100
AcDbEntity
  8
0
  6
ByBlock
 62
     0
370
    -2
100
AcDbLine
 10
76.57198474387212
 20
-315.8837414974229
 30
0.0
 11
79.10182438337388
 21
-316.4302216568632
 31
0.0
  0
LINE
  5
EC5
330
6B
100
AcDbEntity
  8
0
  6
ByBlock
 62
     0
370
    -2
100
AcDbLine
 10
76.57198474387212
 20
-315.8837414974229
 30
0.0
 11
78.79573753349259
 21
-317.0260739930892
 31
0.0
  0
LINE
  5
EC6
330
6B
100
AcDbEntity
  8
0
  6
Continuous
100
AcDbLine
 10
8.981858636533166
 20
-259.7705464551863
 30
0.0
 11
13.55861699649222
 21
-255.9047482388282
 31
0.0
1001
ACAD
1000
DSTYLE
1002
{
1070
   147
1040
0.625
1070
    77
1070
     0
1002
}
  0
LINE
  5
EC7
330
6B
100
AcDbEntity
  8
0
  6
Continuous
100
AcDbLine
 10
13.55861699649222
 20
-255.9047482388282
 30
0.0
 11
16.05861699649222
 21
-255.9047482388282
 31
0.0
1001
ACAD
1000
DSTYLE
1002
{
1070
   147
1040
0.625
1070
    77
1070
     0
1002
}
  0
LINE
  5
EC8
330
6B
100
AcDbEntity
  8
0
  6
ByBlock
 62
     0
370
    -2
100
AcDbLine
 10
9.414111488985806
 20
-260.2822950631989
 30
0.0
 11
7.071985459127859
 21
-261.3837372207896
 31
0.0
  0
LINE
  5
EC9
330
6B
100
AcDbEntity
  8
0
  6
ByBlock
 62
     0
370
    -2
100
AcDbLine
 10
7.071985459127859
 20
-261.3837372207896
 30
0.0
 11
8.549605784080531
 21
-259.2587978471737
 31
0.0
  0
LINE
  5
ECA
330
6B
100
AcDbEntity
  8
0
  6
ByBlock
 62
     0
370
    -2
100
AcDbLine
 10
7.071985459127859
 20
-261.3837372207896
 30
0.0
 11
8.981858636533168
 21
-259.7705464551863
 31
0.0
  0
TEXT
  5
ECB
330
6B
100
AcDbEntity
  8
0
  6
Continuous
 62
     4
100
AcDbText
 10
-27.50882616365374
 20
-388.2575581236798
 30
0.0
 40
3.0
  1
開口寸法MAX　95
 50
90.0
100
AcDbText
  0
LINE
  5
ECC
330
6B
100
AcDbEntity
  8
0
  6
ByBlock
 62
     0
370
    -2
100
AcDbLine
 10
-26.21395366365381
 20
-408.8837406480563
 30
0.0
 11
-26.88382616365381
 21
-411.3837406480564
 31
0.0
  0
LINE
  5
ECD
330
6B
100
AcDbEntity
  8
0
  6
ByBlock
 62
     0
370
    -2
100
AcDbLine
 10
-26.88382616365381
 20
-411.3837406480564
 30
0.0
 11
-27.55369866365381
 21
-408.8837406480563
 31
0.0
  0
LINE
  5
ECE
330
6B
100
AcDbEntity
  8
0
  6
ByBlock
 62
     0
370
    -2
100
AcDbLine
 10
-26.88382616365381
 20
-411.3837406480564
 30
0.0
 11
-26.88382616365381
 21
-408.8837406480563
 31
0.0
  0
LINE
  5
ECF
330
6B
100
AcDbEntity
  8
0
  6
ByBlock
 62
     0
370
    -2
100
AcDbLine
 10
-27.55369866365379
 20
-318.8837406480567
 30
0.0
 11
-26.88382616365379
 21
-316.3837406480567
 31
0.0
  0
LINE
  5
ED0
330
6B
100
AcDbEntity
  8
0
  6
ByBlock
 62
     0
370
    -2
100
AcDbLine
 10
-26.88382616365379
 20
-316.3837406480567
 30
0.0
 11
-26.21395366365379
 21
-318.8837406480567
 31
0.0
  0
LINE
  5
ED1
330
6B
100
AcDbEntity
  8
0
  6
ByBlock
 62
     0
370
    -2
100
AcDbLine
 10
-26.88382616365379
 20
-316.3837406480567
 30
0.0
 11
-26.88382616365379
 21
-318.8837406480567
 31
0.0
  0
TEXT
  5
ED2
330
6B
100
AcDbEntity
  8
0
  6
Continuous
 62
     4
100
AcDbText
 10
-27.50882616365379
 20
-301.3273440499893
 30
0.0
 40
3.0
  1
37
 50
90.0
100
AcDbText
  0
LINE
  5
ED3
330
6B
100
AcDbEntity
  8
0
  6
ByBlock
 62
     0
370
    -2
100
AcDbLine
 10
-26.21395366365384
 20
-313.8837406480567
 30
0.0
 11
-26.88382616365384
 21
-316.3837406480567
 31
0.0
  0
LINE
  5
ED4
330
6B
100
AcDbEntity
  8
0
  6
ByBlock
 62
     0
370
    -2
100
AcDbLine
 10
-26.88382616365384
 20
-316.3837406480567
 30
0.0
 11
-27.55369866365385
 21
-313.8837406480567
 31
0.0
  0
LINE
  5
ED5
330
6B
100
AcDbEntity
  8
0
  6
ByBlock
 62
     0
370
    -2
100
AcDbLine
 10
-26.88382616365384
 20
-316.3837406480567
 30
0.0
 11
-26.88382616365384
 21
-313.8837406480567
 31
0.0
  0
LINE
  5
ED6
330
6B
100
AcDbEntity
  8
0
  6
ByBlock
 62
     0
370
    -2
100
AcDbLine
 10
-27.55369866365383
 20
-281.8837438965098
 30
0.0
 11
-26.88382616365383
 21
-279.3837438965098
 31
0.0
  0
LINE
  5
ED7
330
6B
100
AcDbEntity
  8
0
  6
ByBlock
 62
     0
370
    -2
100
AcDbLine
 10
-26.88382616365383
 20
-279.3837438965098
 30
0.0
 11
-26.21395366365383
 21
-281.8837438965098
 31
0.0
  0
LINE
  5
ED8
330
6B
100
AcDbEntity
  8
0
  6
ByBlock
 62
     0
370
    -2
100
AcDbLine
 10
-26.88382616365383
 20
-279.3837438965098
 30
0.0
 11
-26.88382616365383
 21
-281.8837438965098
 31
0.0
  0
TEXT
  5
ED9
330
6B
100
AcDbEntity
  8
0
  6
Continuous
 62
     4
100
AcDbText
 10
-27.50882616365379
 20
-272.7592196229075
 30
0.0
 40
3.0
  1
18
 50
90.0
100
AcDbText
  0
LINE
  5
EDA
330
6B
100
AcDbEntity
  8
0
  6
ByBlock
 62
     0
370
    -2
100
AcDbLine
 10
-26.21395366365383
 20
-276.8837438965098
 30
0.0
 11
-26.88382616365383
 21
-279.3837438965098
 31
0.0
  0
LINE
  5
EDB
330
6B
100
AcDbEntity
  8
0
  6
ByBlock
 62
     0
370
    -2
100
AcDbLine
 10
-26.88382616365383
 20
-279.3837438965098
 30
0.0
 11
-27.55369866365383
 21
-276.8837438965098
 31
0.0
  0
LINE
  5
EDC
330
6B
100
AcDbEntity
  8
0
  6
ByBlock
 62
     0
370
    -2
100
AcDbLine
 10
-26.88382616365383
 20
-279.3837438965098
 30
0.0
 11
-26.88382616365383
 21
-276.8837438965098
 31
0.0
  0
LINE
  5
EDD
330
6B
100
AcDbEntity
  8
0
  6
ByBlock
 62
     0
370
    -2
100
AcDbLine
 10
-27.55369866365383
 20
-263.8837372207896
 30
0.0
 11
-26.88382616365383
 21
-261.3837372207896
 31
0.0
  0
LINE
  5
EDE
330
6B
100
AcDbEntity
  8
0
  6
ByBlock
 62
     0
370
    -2
100
AcDbLine
 10
-26.88382616365383
 20
-261.3837372207896
 30
0.0
 11
-26.21395366365383
 21
-263.8837372207896
 31
0.0
  0
LINE
  5
EDF
330
6B
100
AcDbEntity
  8
0
  6
ByBlock
 62
     0
370
    -2
100
AcDbLine
 10
-26.88382616365383
 20
-261.3837372207896
 30
0.0
 11
-26.88382616365383
 21
-263.8837372207896
 31
0.0
  0
TEXT
  5
EE0
330
6B
100
AcDbEntity
  8
0
  6
Continuous
 62
     4
100
AcDbText
 10
-139.3020323417231
 20
-366.1391553904432
 30
0.0
 40
3.0
  1
212～307
 50
90.0
100
AcDbText
  0
LINE
  5
EE1
330
6B
100
AcDbEntity
  8
0
  6
ByBlock
 62
     0
370
    -2
100
AcDbLine
 10
-139.3469048417231
 20
-263.8837372207896
 30
0.0
 11
-138.6770323417231
 21
-261.3837372207896
 31
0.0
  0
LINE
  5
EE2
330
6B
100
AcDbEntity
  8
0
  6
ByBlock
 62
     0
370
    -2
100
AcDbLine
 10
-138.6770323417231
 20
-261.3837372207896
 30
0.0
 11
-138.0071598417231
 21
-263.8837372207896
 31
0.0
  0
LINE
  5
EE3
330
6B
100
AcDbEntity
  8
0
  6
ByBlock
 62
     0
370
    -2
100
AcDbLine
 10
-138.6770323417231
 20
-261.3837372207896
 30
0.0
 11
-138.6770323417231
 21
-263.8837372207896
 31
0.0
  0
LINE
  5
EE4
330
6B
100
AcDbEntity
  8
0
  6
ByBlock
 62
     0
370
    -2
100
AcDbLine
 10
-138.0071598417232
 20
-470.8837407117514
 30
0.0
 11
-138.6770323417232
 21
-473.3837407117514
 31
0.0
  0
LINE
  5
EE5
330
6B
100
AcDbEntity
  8
0
  6
ByBlock
 62
     0
370
    -2
100
AcDbLine
 10
-138.6770323417232
 20
-473.3837407117514
 30
0.0
 11
-139.3469048417232
 21
-470.8837407117514
 31
0.0
  0
LINE
  5
EE6
330
6B
100
AcDbEntity
  8
0
  6
ByBlock
 62
     0
370
    -2
100
AcDbLine
 10
-138.6770323417232
 20
-473.3837407117514
 30
0.0
 11
-138.6770323417232
 21
-470.8837407117514
 31
0.0
  0
TEXT
  5
EE7
330
6B
100
AcDbEntity
  8
0
  6
Continuous
 62
     4
100
AcDbText
 10
-131.5607119933675
 20
-367.9782221984622
 30
0.0
 40
3.0
  1
197
 50
90.0
100
AcDbText
  0
LINE
  5
EE8
330
6B
100
AcDbEntity
  8
0
  6
ByBlock
 62
     0
370
    -2
100
AcDbLine
 10
-130.2658394933676
 20
-455.8837415719287
 30
0.0
 11
-130.9357119933676
 21
-458.3837415719286
 31
0.0
  0
LINE
  5
EE9
330
6B
100
AcDbEntity
  8
0
  6
ByBlock
 62
     0
370
    -2
100
AcDbLine
 10
-130.9357119933676
 20
-458.3837415719286
 30
0.0
 11
-131.6055844933676
 21
-455.8837415719287
 31
0.0
  0
LINE
  5
EEA
330
6B
100
AcDbEntity
  8
0
  6
ByBlock
 62
     0
370
    -2
100
AcDbLine
 10
-130.9357119933676
 20
-458.3837415719286
 30
0.0
 11
-130.9357119933676
 21
-455.8837415719287
 31
0.0
  0
LINE
  5
EEB
330
6B
100
AcDbEntity
  8
0
  6
ByBlock
 62
     0
370
    -2
100
AcDbLine
 10
-131.6055844933675
 20
-263.8837372207896
 30
0.0
 11
-130.9357119933675
 21
-261.3837372207896
 31
0.0
  0
LINE
  5
EEC
330
6B
100
AcDbEntity
  8
0
  6
ByBlock
 62
     0
370
    -2
100
AcDbLine
 10
-130.9357119933675
 20
-261.3837372207896
 30
0.0
 11
-130.2658394933675
 21
-263.8837372207896
 31
0.0
  0
LINE
  5
EED
330
6B
100
AcDbEntity
  8
0
  6
ByBlock
 62
     0
370
    -2
100
AcDbLine
 10
-130.9357119933675
 20
-261.3837372207896
 30
0.0
 11
-130.9357119933675
 21
-263.8837372207896
 31
0.0
  0
TEXT
  5
EEE
330
6B
100
AcDbEntity
  8
0
  6
Continuous
 62
     4
100
AcDbText
 10
24.6415555497947
 20
-244.9320874506657
 30
0.0
 40
3.0
  1
87.5
100
AcDbText
  0
LINE
  5
EEF
330
6B
100
AcDbEntity
  8
0
  6
ByBlock
 62
     0
370
    -2
100
AcDbLine
 10
-8.428013766011757
 20
-246.2269599506657
 30
0.0
 11
-10.92801376601175
 21
-245.5570874506657
 31
0.0
  0
LINE
  5
EF0
330
6B
100
AcDbEntity
  8
0
  6
ByBlock
 62
     0
370
    -2
100
AcDbLine
 10
-10.92801376601175
 20
-245.5570874506657
 30
0.0
 11
-8.428013766011757
 21
-244.8872149506657
 31
0.0
  0
LINE
  5
EF1
330
6B
100
AcDbEntity
  8
0
  6
ByBlock
 62
     0
370
    -2
100
AcDbLine
 10
-10.92801376601175
 20
-245.5570874506657
 30
0.0
 11
-8.428013766011757
 21
-245.5570874506657
 31
0.0
  0
LINE
  5
EF2
330
6B
100
AcDbEntity
  8
0
  6
ByBlock
 62
     0
370
    -2
100
AcDbLine
 10
74.07198545912648
 20
-244.8872149506657
 30
0.0
 11
76.57198545912648
 21
-245.5570874506657
 31
0.0
  0
LINE
  5
EF3
330
6B
100
AcDbEntity
  8
0
  6
ByBlock
 62
     0
370
    -2
100
AcDbLine
 10
76.57198545912648
 20
-245.5570874506657
 30
0.0
 11
74.07198545912648
 21
-246.2269599506657
 31
0.0
  0
LINE
  5
EF4
330
6B
100
AcDbEntity
  8
0
  6
ByBlock
 62
     0
370
    -2
100
AcDbLine
 10
76.57198545912648
 20
-245.5570874506657
 30
0.0
 11
74.07198545912648
 21
-245.5570874506657
 31
0.0
  0
TEXT
  5
EF5
330
6B
100
AcDbEntity
  8
0
  6
Continuous
 62
     4
100
AcDbText
 10
34.88921723592194
 20
-250.8080023517937
 30
0.0
 40
3.0
  1
69.5
100
AcDbText
  0
LINE
  5
EF6
330
6B
100
AcDbEntity
  8
0
  6
ByBlock
 62
     0
370
    -2
100
AcDbLine
 10
74.07198545912648
 20
-250.7631298517937
 30
0.0
 11
76.57198545912648
 21
-251.4330023517937
 31
0.0
  0
LINE
  5
EF7
330
6B
100
AcDbEntity
  8
0
  6
ByBlock
 62
     0
370
    -2
100
AcDbLine
 10
76.57198545912648
 20
-251.4330023517937
 30
0.0
 11
74.07198545912648
 21
-252.1028748517937
 31
0.0
  0
LINE
  5
EF8
330
6B
100
AcDbEntity
  8
0
  6
ByBlock
 62
     0
370
    -2
100
AcDbLine
 10
76.57198545912648
 20
-251.4330023517937
 30
0.0
 11
74.07198545912648
 21
-251.4330023517937
 31
0.0
  0
LINE
  5
EF9
330
6B
100
AcDbEntity
  8
0
  6
ByBlock
 62
     0
370
    -2
100
AcDbLine
 10
9.571985459127859
 20
-252.1028748517937
 30
0.0
 11
7.071985459127859
 21
-251.4330023517937
 31
0.0
  0
LINE
  5
EFA
330
6B
100
AcDbEntity
  8
0
  6
ByBlock
 62
     0
370
    -2
100
AcDbLine
 10
7.071985459127859
 20
-251.4330023517937
 30
0.0
 11
9.571985459127859
 21
-250.7631298517937
 31
0.0
  0
LINE
  5
EFB
330
6B
100
AcDbEntity
  8
0
  6
ByBlock
 62
     0
370
    -2
100
AcDbLine
 10
7.071985459127859
 20
-251.4330023517937
 30
0.0
 11
9.571985459127859
 21
-251.4330023517937
 31
0.0
  0
TEXT
  5
EFC
330
6B
100
AcDbEntity
  8
0
  6
Continuous
 62
     4
100
AcDbText
 10
-100.2167461429153
 20
-250.3339734361528
 30
0.0
 40
3.0
  1
\U+220520
100
AcDbText
  0
LINE
  5
EFD
330
6B
100
AcDbEntity
  8
0
  6
ByBlock
 62
     0
370
    -2
100
AcDbLine
 10
-89.37562321190393
 20
-250.2891009361528
 30
0.0
 11
-86.87562321190393
 21
-250.9589734361528
 31
0.0
  0
LINE
  5
EFE
330
6B
100
AcDbEntity
  8
0
  6
ByBlock
 62
     0
370
    -2
100
AcDbLine
 10
-86.87562321190393
 20
-250.9589734361528
 30
0.0
 11
-89.37562321190393
 21
-251.6288459361528
 31
0.0
  0
LINE
  5
EFF
330
6B
100
AcDbEntity
  8
0
  6
ByBlock
 62
     0
370
    -2
100
AcDbLine
 10
-86.87562321190393
 20
-250.9589734361528
 30
0.0
 11
-89.37562321190393
 21
-250.9589734361528
 31
0.0
  0
LINE
  5
F00
330
6B
100
AcDbEntity
  8
0
  6
ByBlock
 62
     0
370
    -2
100
AcDbLine
 10
-104.3756235797763
 20
-251.6288459361528
 30
0.0
 11
-106.8756235797763
 21
-250.9589734361528
 31
0.0
  0
LINE
  5
F01
330
6B
100
AcDbEntity
  8
0
  6
ByBlock
 62
     0
370
    -2
100
AcDbLine
 10
-106.8756235797763
 20
-250.9589734361528
 30
0.0
 11
-104.3756235797763
 21
-250.2891009361528
 31
0.0
  0
LINE
  5
F02
330
6B
100
AcDbEntity
  8
0
  6
ByBlock
 62
     0
370
    -2
100
AcDbLine
 10
-106.8756235797763
 20
-250.9589734361528
 30
0.0
 11
-104.3756235797763
 21
-250.9589734361528
 31
0.0
  0
TEXT
  5
F03
330
6B
100
AcDbEntity
  8
0
  6
Continuous
 62
     4
100
AcDbText
 10
-98.44780279654651
 20
-242.5549831142525
 30
0.0
 40
3.0
  1
28
100
AcDbText
  0
LINE
  5
F04
330
6B
100
AcDbEntity
  8
0
  6
ByBlock
 62
     0
370
    -2
100
AcDbLine
 10
-108.3756223727823
 20
-243.8498556142525
 30
0.0
 11
-110.8756223727823
 21
-243.1799831142525
 31
0.0
  0
LINE
  5
F05
330
6B
100
AcDbEntity
  8
0
  6
ByBlock
 62
     0
370
    -2
100
AcDbLine
 10
-110.8756223727823
 20
-243.1799831142525
 30
0.0
 11
-108.3756223727823
 21
-242.5101106142525
 31
0.0
  0
LINE
  5
F06
330
6B
100
AcDbEntity
  8
0
  6
ByBlock
 62
     0
370
    -2
100
AcDbLine
 10
-110.8756223727823
 20
-243.1799831142525
 30
0.0
 11
-108.3756223727823
 21
-243.1799831142525
 31
0.0
  0
LINE
  5
F07
330
6B
100
AcDbEntity
  8
0
  6
ByBlock
 62
     0
370
    -2
100
AcDbLine
 10
-85.3756233711601
 20
-242.5101106142525
 30
0.0
 11
-82.8756233711601
 21
-243.1799831142525
 31
0.0
  0
LINE
  5
F08
330
6B
100
AcDbEntity
  8
0
  6
ByBlock
 62
     0
370
    -2
100
AcDbLine
 10
-82.8756233711601
 20
-243.1799831142525
 30
0.0
 11
-85.3756233711601
 21
-243.8498556142525
 31
0.0
  0
LINE
  5
F09
330
6B
100
AcDbEntity
  8
0
  6
ByBlock
 62
     0
370
    -2
100
AcDbLine
 10
-82.8756233711601
 20
-243.1799831142525
 30
0.0
 11
-85.3756233711601
 21
-243.1799831142525
 31
0.0
  0
LINE
  5
F0A
330
6B
100
AcDbEntity
  8
0
  6
Continuous
100
AcDbLine
 10
151.1577056998403
 20
-349.5447956963466
 30
0.0
 11
131.8842482320611
 21
-367.0779454724177
 31
0.0
1001
ACAD
1000
DSTYLE
1002
{
1070
   147
1040
0.625
1070
    77
1070
     0
1002
}
  0
LINE
  5
F0B
330
6B
100
AcDbEntity
  8
0
  6
ByBlock
 62
     0
370
    -2
100
AcDbLine
 10
150.7069342691514
 20
-349.0492815355692
 30
0.0
 11
153.0069910518191
 21
-347.8624926062475
 31
0.0
  0
LINE
  5
F0C
330
6B
100
AcDbEntity
  8
0
  6
ByBlock
 62
     0
370
    -2
100
AcDbLine
 10
153.0069910518191
 20
-347.8624926062475
 30
0.0
 11
151.6084771305292
 21
-350.0403098571239
 31
0.0
  0
LINE
  5
F0D
330
6B
100
AcDbEntity
  8
0
  6
ByBlock
 62
     0
370
    -2
100
AcDbLine
 10
153.0069910518191
 20
-347.8624926062475
 30
0.0
 11
151.1577056998403
 21
-349.5447956963466
 31
0.0
  0
TEXT
  5
F0E
330
6B
100
AcDbEntity
  8
0
  6
Continuous
 62
     4
100
AcDbText
 10
129.9449859358606
 20
-330.893381315749
 30
0.0
 40
3.0
  1
15
 50
90.0
100
AcDbText
  0
LINE
  5
F0F
330
6B
100
AcDbEntity
  8
0
  6
ByBlock
 62
     0
370
    -2
100
AcDbLine
 10
129.9001134358605
 20
-324.0635019626585
 30
0.0
 11
130.5699859358605
 21
-321.5635019626585
 31
0.0
  0
LINE
  5
F10
330
6B
100
AcDbEntity
  8
0
  6
ByBlock
 62
     0
370
    -2
100
AcDbLine
 10
130.5699859358605
 20
-321.5635019626585
 30
0.0
 11
131.2398584358605
 21
-324.0635019626585
 31
0.0
  0
LINE
  5
F11
330
6B
100
AcDbEntity
  8
0
  6
ByBlock
 62
     0
370
    -2
100
AcDbLine
 10
130.5699859358605
 20
-321.5635019626585
 30
0.0
 11
130.5699859358605
 21
-324.0635019626585
 31
0.0
  0
LINE
  5
F12
330
6B
100
AcDbEntity
  8
0
  6
ByBlock
 62
     0
370
    -2
100
AcDbLine
 10
131.2398584358605
 20
-334.0603741715661
 30
0.0
 11
130.5699859358605
 21
-336.5603741715661
 31
0.0
  0
LINE
  5
F13
330
6B
100
AcDbEntity
  8
0
  6
ByBlock
 62
     0
370
    -2
100
AcDbLine
 10
130.5699859358605
 20
-336.5603741715661
 30
0.0
 11
129.9001134358605
 21
-334.0603741715661
 31
0.0
  0
LINE
  5
F14
330
6B
100
AcDbEntity
  8
0
  6
ByBlock
 62
     0
370
    -2
100
AcDbLine
 10
130.5699859358605
 20
-336.5603741715661
 30
0.0
 11
130.5699859358605
 21
-334.0603741715661
 31
0.0
  0
TEXT
  5
F15
330
6B
100
AcDbEntity
  8
0
  6
Continuous
 62
     4
100
AcDbText
 10
156.9107510281142
 20
-314.6529681920853
 30
0.0
 40
3.0
  1
40
100
AcDbText
  0
LINE
  5
F16
330
6B
100
AcDbEntity
  8
0
  6
ByBlock
 62
     0
370
    -2
100
AcDbLine
 10
175.5069901055953
 20
-314.6080956920853
 30
0.0
 11
178.0069901055953
 21
-315.2779681920853
 31
0.0
  0
LINE
  5
F17
330
6B
100
AcDbEntity
  8
0
  6
ByBlock
 62
     0
370
    -2
100
AcDbLine
 10
178.0069901055953
 20
-315.2779681920853
 30
0.0
 11
175.5069901055953
 21
-315.9478406920853
 31
0.0
  0
LINE
  5
F18
330
6B
100
AcDbEntity
  8
0
  6
ByBlock
 62
     0
370
    -2
100
AcDbLine
 10
178.0069901055953
 20
-315.2779681920853
 30
0.0
 11
175.5069901055953
 21
-315.2779681920853
 31
0.0
  0
LINE
  5
F19
330
6B
100
AcDbEntity
  8
0
  6
ByBlock
 62
     0
370
    -2
100
AcDbLine
 10
140.5069901055955
 20
-315.9478406920853
 30
0.0
 11
138.0069901055955
 21
-315.2779681920853
 31
0.0
  0
LINE
  5
F1A
330
6B
100
AcDbEntity
  8
0
  6
ByBlock
 62
     0
370
    -2
100
AcDbLine
 10
138.0069901055955
 20
-315.2779681920853
 30
0.0
 11
140.5069901055955
 21
-314.6080956920853
 31
0.0
  0
LINE
  5
F1B
330
6B
100
AcDbEntity
  8
0
  6
ByBlock
 62
     0
370
    -2
100
AcDbLine
 10
138.0069901055955
 20
-315.2779681920853
 30
0.0
 11
140.5069901055955
 21
-315.2779681920853
 31
0.0
  0
LINE
  5
F1C
330
6B
100
AcDbEntity
  8
0
  6
Continuous
100
AcDbLine
 10
165.3662214064906
 20
-348.5624371908361
 30
0.0
 11
174.6002138199114
 21
-351.7995468973483
 31
0.0
1001
ACAD
1000
DSTYLE
1002
{
1070
   147
1040
0.625
1070
    77
1070
     0
1002
}
  0
LINE
  5
F1D
330
6B
100
AcDbEntity
  8
0
  6
Continuous
100
AcDbLine
 10
174.6002138199114
 20
-351.7995468973483
 30
0.0
 11
177.1002138199114
 21
-351.7995468973483
 31
0.0
1001
ACAD
1000
DSTYLE
1002
{
1070
   147
1040
0.625
1070
    77
1070
     0
1002
}
  0
LINE
  5
F1E
330
6B
100
AcDbEntity
  8
0
  6
ByBlock
 62
     0
370
    -2
100
AcDbLine
 10
165.1446108764155
 20
-349.19459060514
 30
0.0
 11
163.0069910518191
 21
-347.735374839138
 31
0.0
  0
LINE
  5
F1F
330
6B
100
AcDbEntity
  8
0
  6
ByBlock
 62
     0
370
    -2
100
AcDbLine
 10
163.0069910518191
 20
-347.735374839138
 30
0.0
 11
165.5878319365658
 21
-347.9302837765322
 31
0.0
  0
LINE
  5
F20
330
6B
100
AcDbEntity
  8
0
  6
ByBlock
 62
     0
370
    -2
100
AcDbLine
 10
163.0069910518191
 20
-347.735374839138
 30
0.0
 11
165.3662214064906
 21
-348.5624371908361
 31
0.0
  0
ENDSEC
  0
SECTION
  2
OBJECTS
  0
DICTIONARY
  5
C
330
0
100
AcDbDictionary
281
     1
  3
ACAD_2007HEADERVARS_RT
350
F24
  3
ACAD_COLOR
350
62
  3
ACAD_GROUP
350
D
  3
ACAD_LAYOUT
350
61
  3
ACAD_MATERIAL
350
10
  3
ACAD_MLEADERSTYLE
350
65
  3
ACAD_MLINESTYLE
350
5E
  3
ACAD_PLOTSETTINGS
350
60
  3
ACAD_PLOTSTYLENAME
350
E
  3
ACAD_SCALELIST
350
42
  3
ACAD_TABLESTYLE
350
63
  3
ACAD_VISUALSTYLE
350
29
  3
ACDB_RECOMPOSE_DATA
350
F22
  3
AcDbVariableDictionary
350
A3F
  3
DWGPROPS
350
F23
  0
DICTIONARY
  5
34D
330
2
100
AcDbDictionary
280
     1
281
     1
  3
ACAD_LAYERSTATES
360
34E
  0
DICTIONARY
  5
A3D
330
54
100
AcDbDictionary
280
     1
281
     1
  3
ADSK_XREC_LAYER_RECONCILED
360
A3E
  0
DICTIONARY
  5
8D3
330
6B
100
AcDbDictionary
280
     1
281
     1
  3
ACAD_SORTENTS
360
8D4
  0
DICTIONARY
  5
F24
102
{ACAD_REACTORS
330
C
102
}
330
C
100
AcDbDictionary
281
     1
  3
DIMARCSYM
350
F26
  3
DIMFXL
350
F25
  3
DIMJOGANG
350
F27
  0
DICTIONARY
  5
62
102
{ACAD_REACTORS
330
C
102
}
330
C
100
AcDbDictionary
281
     1
  0
DICTIONARY
  5
D
102
{ACAD_REACTORS
330
C
102
}
330
C
100
AcDbDictionary
281
     1
  0
DICTIONARY
  5
61
102
{ACAD_REACTORS
330
C
102
}
330
C
100
AcDbDictionary
281
     1
  3
Model
350
6E
  3
レイアウト1
350
6A
  0
DICTIONARY
  5
10
102
{ACAD_REACTORS
330
C
102
}
330
C
100
AcDbDictionary
281
     1
  3
ByBlock
350
19
  3
ByLayer
350
11
  3
Global
350
21
  0
DICTIONARY
  5
65
102
{ACAD_REACTORS
330
C
102
}
330
C
100
AcDbDictionary
281
     1
  3
Standard
350
66
  0
DICTIONARY
  5
5E
102
{ACAD_REACTORS
330
C
102
}
330
C
100
AcDbDictionary
281
     1
  3
Standard
350
5F
  0
DICTIONARY
  5
60
102
{ACAD_REACTORS
330
C
102
}
330
C
100
AcDbDictionary
281
     1
  0
ACDBDICTIONARYWDFLT
  5
E
102
{ACAD_REACTORS
330
C
102
}
330
C
100
AcDbDictionary
281
     1
  3
Normal
350
F
100
AcDbDictionaryWithDefault
340
F
  0
DICTIONARY
  5
42
102
{ACAD_REACTORS
330
C
102
}
330
C
100
AcDbDictionary
281
     1
  3
A0
350
43
  3
A1
350
44
  3
A2
350
45
  3
A3
350
46
  3
A4
350
47
  3
A5
350
48
  3
A6
350
49
  3
A7
350
4A
  3
A8
350
4B
  3
A9
350
4C
  3
B0
350
4D
  3
B1
350
4E
  3
B2
350
4F
  3
B3
350
50
  3
B4
350
51
  3
B5
350
52
  3
B6
350
53
  0
DICTIONARY
  5
63
102
{ACAD_REACTORS
330
C
102
}
330
C
100
AcDbDictionary
281
     1
  3
Standard
350
64
  0
DICTIONARY
  5
29
102
{ACAD_REACTORS
330
C
102
}
330
C
100
AcDbDictionary
281
     1
  3
2dWireframe
350
2F
  3
3D Hidden
350
CAE
  3
3dWireframe
350
721
  3
Basic
350
2E
  3
Brighten
350
35
  3
ColorChange
350
39
  3
Conceptual
350
32
  3
Dim
350
34
  3
EdgeColorOff
350
41
  3
Facepattern
350
38
  3
Flat
350
2A
  3
FlatWithEdges
350
2B
  3
Gouraud
350
2C
  3
GouraudWithEdges
350
2D
  3
Hidden
350
31
  3
JitterOff
350
3F
  3
Linepattern
350
37
  3
OverhangOff
350
40
  3
Realistic
350
33
  3
Shaded
350
3E
  3
Shaded with edges
350
3D
  3
Shades of Gray
350
3A
  3
Sketchy
350
3B
  3
Thicken
350
36
  3
Wireframe
350
30
  3
X-Ray
350
3C
  0
XRECORD
  5
F22
102
{ACAD_REACTORS
330
C
102
}
330
C
100
AcDbXrecord
280
     1
 90
        1
330
64
  0
DICTIONARY
  5
A3F
102
{ACAD_REACTORS
330
C
102
}
330
C
100
AcDbDictionary
281
     1
  3
CANNOSCALE
350
A42
  3
CMLEADERSTYLE
350
A41
  3
CTABLESTYLE
350
A40
  3
DIMASSOC
350
A45
  3
INDEXCTL
350
A44
  3
SORTENTS
350
A43
  3
XCLIPFRAME
350
DEB
  0
XRECORD
  5
F23
102
{ACAD_REACTORS
330
C
102
}
330
C
100
AcDbXrecord
280
     1
  1
DWGPROPS COOKIE
  2

  3

  4

  6

  7

  8
imamura
  9

300
=
301
=
302
=
303
=
304
=
305
=
306
=
307
=
308
=
309
=
 40
0.1662748611111111
 41
2456589.418892651
 42
2457606.547429711
  1

 90
        0
  0
DICTIONARY
  5
34E
102
{ACAD_REACTORS
330
34D
102
}
330
34D
100
AcDbDictionary
281
     1
  0
XRECORD
  5
A3E
102
{ACAD_REACTORS
330
A3D
102
}
330
A3D
100
AcDbXrecord
280
     1
290
     1
  0
SORTENTSTABLE
  5
8D4
102
{ACAD_REACTORS
330
8D3
102
}
330
8D3
100
AcDbSortentsTable
330
6B
331
EEE
  5
E91
331
EEA
  5
E9A
331
EE6
  5
EA9
331
EE2
  5
EAB
331
E77
  5
A38
331
E73
  5
A3C
331
EAE
  5
54E
331
E30
  5
F1B
331
687
  5
E31
331
5FD
  5
658
331
EAA
  5
554
331
5F9
  5
652
331
644
  5
686
331
93E
  5
EBB
331
5F5
  5
64E
331
67F
  5
99F
331
586
  5
5B8
331
93A
  5
EB7
331
640
  5
682
331
67B
  5
996
331
582
  5
5B4
331
39F
  5
3A5
331
5BD
  5
601
331
94A
  5
EC7
331
39B
  5
3A1
331
2B9
  5
2BF
331
5B9
  5
5FD
331
57E
  5
5B0
331
2B5
  5
2BB
331
2F4
  5
2FA
331
397
  5
39D
331
57A
  5
5AB
331
2B1
  5
2B7
331
2F0
  5
2F6
331
393
  5
399
331
EDE
  5
ECC
331
F1D
  5
54D
331
EDA
  5
ECE
331
F19
  5
56A
331
ED6
  5
ED5
331
F15
  5
570
331
ED2
  5
EDB
331
F11
  5
579
331
E67
  5
E6A
331
EA2
  5
571
331
9BD
  5
F04
331
E9E
  5
5CA
331
9B9
  5
F00
331
E5B
  5
E89
331
E9A
  5
5C5
331
936
  5
EB3
331
63C
  5
67E
331
677
  5
952
331
638
  5
67A
331
673
  5
947
331
5E9
  5
64A
331
9B5
  5
13A
331
634
  5
676
331
8CE
  5
E56
331
5E5
  5
646
331
66F
  5
943
331
5B5
  5
5F9
331
9B1
  5
130
331
630
  5
672
331
66B
  5
93F
331
5E1
  5
642
331
5B1
  5
5F5
331
576
  5
5A7
331
38F
  5
395
331
2EC
  5
2F2
331
8D7
  5
E5C
331
5AD
  5
5E9
331
572
  5
5A3
331
38B
  5
391
331
2A9
  5
2AF
331
2E8
  5
2EE
331
5A9
  5
5E5
331
56E
  5
59F
331
2A5
  5
2AB
331
2E4
  5
2EA
331
387
  5
38D
331
56A
  5
59A
331
2A1
  5
2A7
331
2E0
  5
2E6
331
383
  5
389
331
ECE
  5
EE4
331
F0D
  5
57F
331
ECA
  5
EE8
331
F09
  5
E64
331
EC6
  5
EE9
331
F05
  5
E66
331
EC2
  5
F08
331
F01
  5
E6D
331
E96
  5
604
331
E92
  5
60F
331
9A5
  5
EFA
331
E4F
  5
E9D
331
E8E
  5
9A1
331
9A1
  5
EF6
331
E8A
  5
9A3
331
62C
  5
66E
331
667
  5
93B
331
5DD
  5
63E
331
99D
  5
EF2
331
76A
  5
E54
331
5D9
  5
63A
331
663
  5
919
331
999
  5
EEE
331
766
  5
E4A
331
5D5
  5
636
331
65F
  5
8DC
331
5A5
  5
5E1
331
610
  5
66B
331
762
  5
E43
331
5D1
  5
632
331
65B
  5
8D6
331
5A1
  5
5DB
331
2DC
  5
2E2
331
31F
  5
386
331
59D
  5
5D7
331
552
  5
595
331
2D8
  5
2DE
331
599
  5
5D2
331
54E
  5
591
331
2D4
  5
2DA
331
8D8
  5
589
331
2D0
  5
2D6
331
A3A
  5
F18
331
54A
  5
58D
331
313
  5
31E
331
139
  5
13F
331
EBE
  5
F0C
331
EFD
  5
E6F
331
EBA
  5
F10
331
EF9
  5
E79
331
EB6
  5
F14
331
EF5
  5
E87
331
EB2
  5
F20
331
EF1
  5
E90
331
E86
  5
9B2
331
E43
  5
ED3
331
E82
  5
9A6
331
E7E
  5
9BA
331
E7A
  5
9B6
331
60C
  5
667
331
75E
  5
E3C
331
5CD
  5
62E
331
657
  5
8D0
331
945
  5
EC2
331
75A
  5
E35
331
608
  5
663
331
653
  5
76A
331
941
  5
EBE
331
604
  5
65F
331
64F
  5
766
331
5C5
  5
60B
331
595
  5
5CD
331
600
  5
65B
331
64B
  5
762
331
5C1
  5
607
331
591
  5
5C3
331
546
  5
587
331
2CC
  5
2D2
331
307
  5
311
331
58D
  5
5BF
331
542
  5
583
331
303
  5
30D
331
589
  5
5BB
331
2FF
  5
305
331
12D
  5
12D
331
2C0
  5
2C6
331
2FB
  5
301
331
3A2
  5
3A8
331
EED
  5
E97
331
EE9
  5
E99
331
EE5
  5
EA8
331
EE1
  5
EAA
331
F20
  5
548
331
E76
  5
A37
331
E72
  5
A3B
331
E6E
  5
E61
331
686
  5
E30
331
5FC
  5
657
331
EA9
  5
553
331
647
  5
74C
331
5F8
  5
651
331
643
  5
685
331
93D
  5
EBA
331
5F4
  5
64D
331
67E
  5
99E
331
585
  5
5B7
331
939
  5
EB6
331
67A
  5
995
331
581
  5
5B3
331
39E
  5
3A4
331
2BC
  5
2C2
331
5BC
  5
600
331
2F7
  5
2FD
331
949
  5
EC6
331
39A
  5
3A0
331
2B8
  5
2BE
331
5B8
  5
5FC
331
57D
  5
5AF
331
2B4
  5
2BA
331
2F3
  5
2F9
331
396
  5
39C
331
579
  5
5AA
331
2B0
  5
2B6
331
392
  5
398
331
EDD
  5
ECB
331
F1C
  5
549
331
ED9
  5
ED1
331
F18
  5
56F
331
ED5
  5
EDA
331
F14
  5
576
331
ED1
  5
EE1
331
F10
  5
578
331
E66
  5
E69
331
E62
  5
E78
331
9BC
  5
F03
331
E9D
  5
5C9
331
63F
  5
681
331
9B8
  5
EFF
331
E5A
  5
E88
331
E99
  5
5E0
331
935
  5
EB2
331
63B
  5
67D
331
676
  5
94A
331
637
  5
679
331
672
  5
946
331
5E8
  5
649
331
9B4
  5
139
331
633
  5
675
331
66E
  5
942
331
5E4
  5
645
331
5B4
  5
5F8
331
9B0
  5
12F
331
2EF
  5
2F5
331
66A
  5
93E
331
5E0
  5
641
331
5B0
  5
5F4
331
575
  5
5A6
331
38E
  5
394
331
2EB
  5
2F1
331
8D6
  5
E5E
331
5AC
  5
5E8
331
571
  5
5A2
331
38A
  5
390
331
2A8
  5
2AE
331
2E7
  5
2ED
331
8D2
  5
E5D
331
5A8
  5
5E4
331
56D
  5
59E
331
2A4
  5
2AA
331
2E3
  5
2E9
331
386
  5
38C
331
569
  5
599
331
2A0
  5
2A6
331
382
  5
388
331
ECD
  5
EE3
331
F0C
  5
57E
331
EC9
  5
EE7
331
F08
  5
E63
331
EC5
  5
F07
331
F04
  5
E65
331
EC1
  5
F0B
331
F00
  5
E6C
331
E56
  5
E94
331
E95
  5
603
331
E91
  5
62D
331
9A4
  5
EF9
331
E4E
  5
E9C
331
E8D
  5
9A0
331
62F
  5
671
331
9A0
  5
EF5
331
E4A
  5
ECA
331
E89
  5
9B5
331
666
  5
93A
331
5DC
  5
63D
331
99C
  5
EF1
331
769
  5
E50
331
5D8
  5
639
331
662
  5
90C
331
998
  5
EED
331
765
  5
E49
331
5D4
  5
635
331
65E
  5
8D9
331
2DF
  5
2E5
331
761
  5
E42
331
5D0
  5
631
331
65A
  5
8D5
331
5A0
  5
5DA
331
31E
  5
385
331
29C
  5
2A2
331
2DB
  5
2E1
331
59C
  5
5D6
331
551
  5
594
331
2D7
  5
2DD
331
598
  5
5D0
331
8DB
  5
656
331
54D
  5
590
331
2D3
  5
2D9
331
316
  5
382
331
A39
  5
F17
331
549
  5
58C
331
138
  5
13E
331
312
  5
31D
331
EBD
  5
F0F
331
EFC
  5
E72
331
EB9
  5
F13
331
EF8
  5
E86
331
EB5
  5
F1E
331
EF4
  5
E8D
331
EB1
  5
F1F
331
EF0
  5
E8F
331
E85
  5
9B1
331
E42
  5
ED2
331
E81
  5
9BD
331
E3E
  5
EDE
331
E7D
  5
9B9
331
60F
  5
66A
331
E79
  5
A3A
331
75D
  5
E38
331
60B
  5
666
331
656
  5
8CF
331
944
  5
EC1
331
607
  5
662
331
759
  5
E34
331
5C8
  5
60E
331
652
  5
769
331
940
  5
EBD
331
603
  5
65E
331
64E
  5
765
331
5C4
  5
60A
331
594
  5
5CC
331
2CF
  5
2D5
331
64A
  5
761
331
5C0
  5
606
331
590
  5
5C2
331
545
  5
586
331
3AB
  5
57C
331
306
  5
310
331
58C
  5
5BE
331
541
  5
582
331
302
  5
308
331
588
  5
5BA
331
12C
  5
12C
331
2FE
  5
304
331
3A5
  5
3AB
331
2FA
  5
300
331
3A1
  5
3A7
331
EEC
  5
E96
331
EE8
  5
E98
331
EE4
  5
E9F
331
EE0
  5
EAD
331
E75
  5
E2F
331
A37
  5
F15
331
E6D
  5
E60
331
5FF
  5
65A
331
5FB
  5
655
331
EA8
  5
54F
331
646
  5
74B
331
5F7
  5
650
331
642
  5
684
331
93C
  5
EB9
331
5F3
  5
64C
331
67D
  5
99D
331
584
  5
5B6
331
938
  5
EB5
331
679
  5
975
331
5BF
  5
605
331
580
  5
5B2
331
39D
  5
3A3
331
2BB
  5
2C1
331
5BB
  5
5FF
331
948
  5
EC5
331
2B7
  5
2BD
331
2F6
  5
2FC
331
399
  5
39F
331
57C
  5
5AE
331
2B3
  5
2B9
331
2F2
  5
2F8
331
395
  5
39B
331
578
  5
5A9
331
391
  5
397
331
F1F
  5
547
331
EDC
  5
ED0
331
F1B
  5
56C
331
ED8
  5
ED7
331
F17
  5
56E
331
ED4
  5
ED9
331
F13
  5
575
331
ED0
  5
EE0
331
EA4
  5
573
331
E61
  5
E74
331
9BB
  5
F02
331
E9C
  5
5C8
331
63E
  5
680
331
9B7
  5
EFE
331
E98
  5
5DF
331
934
  5
EB1
331
63A
  5
67C
331
675
  5
949
331
636
  5
678
331
671
  5
945
331
5E7
  5
648
331
5B7
  5
5FB
331
9B3
  5
138
331
632
  5
674
331
66D
  5
941
331
5E3
  5
644
331
5B3
  5
5F7
331
2EE
  5
2F4
331
669
  5
93D
331
5AF
  5
5F3
331
2EA
  5
2F0
331
574
  5
5A5
331
38D
  5
393
331
2AB
  5
2B1
331
8D5
  5
E5B
331
5AB
  5
5E7
331
570
  5
5A1
331
389
  5
38F
331
2A7
  5
2AD
331
2E6
  5
2EC
331
56C
  5
59D
331
2A3
  5
2A9
331
2E2
  5
2E8
331
385
  5
38B
331
568
  5
598
331
381
  5
387
331
F0F
  5
577
331
ECC
  5
EE2
331
F0B
  5
57D
331
EC8
  5
EE6
331
F07
  5
E62
331
EC4
  5
F06
331
F03
  5
E68
331
EC0
  5
F0A
331
E55
  5
E93
331
E94
  5
602
331
9A7
  5
EFC
331
E90
  5
62C
331
9A3
  5
EF8
331
E8C
  5
9A5
331
62E
  5
670
331
5DF
  5
640
331
99F
  5
EF4
331
E49
  5
EC9
331
E88
  5
9B4
331
665
  5
939
331
5DB
  5
63C
331
99B
  5
EF0
331
768
  5
E4F
331
5D7
  5
638
331
661
  5
8FF
331
5A7
  5
5E3
331
612
  5
66D
331
764
  5
E48
331
5D3
  5
634
331
65D
  5
8D8
331
5A3
  5
5DD
331
2DE
  5
2E4
331
760
  5
E3E
331
659
  5
8D2
331
59F
  5
5D9
331
554
  5
597
331
31D
  5
384
331
2DA
  5
2E0
331
59B
  5
5D5
331
550
  5
593
331
2D6
  5
2DC
331
8DA
  5
654
331
2D2
  5
2D8
331
A3C
  5
F1A
331
54C
  5
58F
331
315
  5
381
331
13B
  5
141
331
A38
  5
F16
331
548
  5
58A
331
311
  5
31C
331
EFF
  5
E71
331
EBC
  5
F0E
331
EFB
  5
E7E
331
EB8
  5
F12
331
EF7
  5
E80
331
EB4
  5
F1D
331
EF3
  5
E8C
331
E84
  5
9B0
331
997
  5
EEC
331
E80
  5
9BC
331
E3D
  5
EDD
331
E7C
  5
9B8
331
60E
  5
669
331
5CF
  5
630
331
E39
  5
EEB
331
E78
  5
A39
331
947
  5
EC4
331
60A
  5
665
331
75C
  5
E37
331
5CB
  5
612
331
655
  5
8CE
331
943
  5
EC0
331
606
  5
661
331
758
  5
E33
331
5C7
  5
60D
331
651
  5
768
331
597
  5
5CF
331
602
  5
65D
331
64D
  5
764
331
5C3
  5
609
331
137
  5
13D
331
2CE
  5
2D4
331
649
  5
754
331
58F
  5
5C1
331
544
  5
585
331
3AA
  5
57B
331
305
  5
30F
331
58B
  5
5BD
331
540
  5
581
331
2C6
  5
2CC
331
301
  5
307
331
12B
  5
12B
331
2FD
  5
303
331
3A4
  5
3AA
331
3A0
  5
3A6
331
2F9
  5
2FF
331
EEF
  5
E8E
331
EEB
  5
E95
331
EE7
  5
E9B
331
EE3
  5
EAC
331
E74
  5
E2C
331
E6C
  5
E5F
331
5FE
  5
659
331
E68
  5
E6B
331
5FA
  5
653
331
645
  5
687
331
93F
  5
EBC
331
5F6
  5
64F
331
587
  5
5B9
331
93B
  5
EB8
331
641
  5
683
331
67C
  5
997
331
583
  5
5B5
331
2BE
  5
2C4
331
678
  5
95F
331
39C
  5
3A2
331
2BA
  5
2C0
331
5BA
  5
5FE
331
57F
  5
5B1
331
2B6
  5
2BC
331
2F5
  5
2FB
331
398
  5
39E
331
57B
  5
5AD
331
2B2
  5
2B8
331
2F1
  5
2F7
331
394
  5
39A
331
390
  5
396
331
EDF
  5
ECD
331
F1E
  5
546
331
EDB
  5
ECF
331
F1A
  5
56B
331
ED7
  5
ED6
331
F16
  5
56D
331
ED3
  5
ED8
331
F12
  5
574
331
EA3
  5
572
331
E60
  5
E73
331
E9F
  5
5CB
331
9BA
  5
F01
331
E5C
  5
E8A
331
E9B
  5
5C7
331
937
  5
EB4
331
63D
  5
67F
331
9B6
  5
EFD
331
639
  5
67B
331
933
  5
EAE
331
5EA
  5
64B
331
674
  5
948
331
635
  5
677
331
8CF
  5
E5A
331
5E6
  5
647
331
670
  5
944
331
5B6
  5
5FA
331
9B2
  5
137
331
631
  5
673
331
66C
  5
940
331
5E2
  5
643
331
5B2
  5
5F6
331
577
  5
5A8
331
2ED
  5
2F3
331
668
  5
93C
331
5AE
  5
5EA
331
2E9
  5
2EF
331
573
  5
5A4
331
38C
  5
392
331
2AA
  5
2B0
331
5AA
  5
5E6
331
56F
  5
5A0
331
2A6
  5
2AC
331
2E5
  5
2EB
331
388
  5
38E
331
56B
  5
59C
331
2A2
  5
2A8
331
2E1
  5
2E7
331
384
  5
38A
331
ECF
  5
EDF
331
F0E
  5
57A
331
ECB
  5
EE5
331
F0A
  5
580
331
EC7
  5
EEA
331
F06
  5
E67
331
EC3
  5
F05
331
F02
  5
E6E
331
E97
  5
5DE
331
E54
  5
E92
331
E93
  5
610
331
9A6
  5
EFB
331
E50
  5
E9E
331
E8F
  5
9A2
331
9A2
  5
EF7
331
E8B
  5
9A4
331
62D
  5
66F
331
5DE
  5
63F
331
99E
  5
EF3
331
E48
  5
EC8
331
76B
  5
E55
331
5DA
  5
63B
331
664
  5
926
331
99A
  5
EEF
331
767
  5
E4E
331
5D6
  5
637
331
660
  5
8E9
331
5A6
  5
5E2
331
611
  5
66C
331
763
  5
E44
331
5D2
  5
633
331
65C
  5
8D7
331
5A2
  5
5DC
331
29E
  5
2A4
331
2DD
  5
2E3
331
658
  5
8D1
331
59E
  5
5D8
331
553
  5
596
331
2D9
  5
2DF
331
31C
  5
383
331
59A
  5
5D3
331
54F
  5
592
331
2D5
  5
2DB
331
8D9
  5
58B
331
2D1
  5
2D7
331
A3B
  5
F19
331
54B
  5
58E
331
314
  5
31F
331
13A
  5
140
331
310
  5
316
331
EBF
  5
F09
331
EFE
  5
E70
331
EBB
  5
F0D
331
EFA
  5
E7A
331
EB7
  5
F11
331
EF6
  5
E7F
331
EB3
  5
F1C
331
EF2
  5
E8B
331
E87
  5
9B3
331
E44
  5
ED4
331
E83
  5
9A7
331
E7F
  5
9BB
331
E3C
  5
EDC
331
E7B
  5
9B7
331
60D
  5
668
331
75F
  5
E3D
331
5CE
  5
62F
331
946
  5
EC3
331
609
  5
664
331
75B
  5
E36
331
5CA
  5
611
331
654
  5
76B
331
942
  5
EBF
331
605
  5
660
331
757
  5
E32
331
5C6
  5
60C
331
650
  5
767
331
596
  5
5CE
331
601
  5
65C
331
64C
  5
763
331
5C2
  5
608
331
592
  5
5C4
331
547
  5
588
331
2CD
  5
2D3
331
648
  5
753
331
58E
  5
5C0
331
543
  5
584
331
304
  5
30E
331
58A
  5
5BC
331
300
  5
306
331
12E
  5
12E
331
2FC
  5
302
331
3A3
  5
3A9
331
2F8
  5
2FE
  0
XRECORD
  5
F26
102
{ACAD_REACTORS
330
F24
102
}
330
F24
100
AcDbXrecord
280
     1
 70
     2
  0
XRECORD
  5
F25
102
{ACAD_REACTORS
330
F24
102
}
330
F24
100
AcDbXrecord
280
     1
 40
1.25
  0
XRECORD
  5
F27
102
{ACAD_REACTORS
330
F24
102
}
330
F24
100
AcDbXrecord
280
     1
 40
1.570796326794896
  0
LAYOUT
  5
6E
102
{ACAD_XDICTIONARY
360
F5B
102
}
102
{ACAD_REACTORS
330
61
102
}
330
61
100
AcDbPlotSettings
  1

  2
FX DP 205
  4

  6

 40
0.0
 41
0.0
 42
0.0
 43
0.0
 44
0.0
 45
0.0
 46
0.0
 47
0.0
 48
0.0
 49
0.0
140
0.0
141
0.0
142
1.0
143
1.0
 70
  1712
 72
     0
 73
     0
 74
     0
  7

 75
     0
147
1.0
148
0.0
149
0.0
100
AcDbLayout
  1
Model
 70
     1
 71
     0
 10
0.0
 20
0.0
 11
12.0
 21
9.0
 12
0.0
 22
0.0
 32
0.0
 14
0.0
 24
0.0
 34
0.0
 15
0.0
 25
0.0
 35
0.0
146
0.0
 13
0.0
 23
0.0
 33
0.0
 16
1.0
 26
0.0
 36
0.0
 17
0.0
 27
1.0
 37
0.0
 76
     0
330
6B
331
8B
  0
LAYOUT
  5
6A
102
{ACAD_XDICTIONARY
360
F59
102
}
102
{ACAD_REACTORS
330
61
102
}
330
61
100
AcDbPlotSettings
  1

  2
FX DP 205
  4

  6

 40
0.0
 41
0.0
 42
0.0
 43
0.0
 44
0.0
 45
0.0
 46
0.0
 47
0.0
 48
0.0
 49
0.0
140
0.0
141
0.0
142
1.0
143
1.0
 70
   688
 72
     0
 73
     0
 74
     5
  7

 75
    16
147
1.0
148
0.0
149
0.0
100
AcDbLayout
  1
レイアウト1
 70
     1
 71
     1
 10
0.0
 20
0.0
 11
12.0
 21
9.0
 12
0.0
 22
0.0
 32
0.0
 14
1.000000000000000E+20
 24
1.000000000000000E+20
 34
1.000000000000000E+20
 15
-1.000000000000000E+20
 25
-1.000000000000000E+20
 35
-1.000000000000000E+20
146
0.0
 13
0.0
 23
0.0
 33
0.0
 16
1.0
 26
0.0
 36
0.0
 17
0.0
 27
1.0
 37
0.0
 76
     0
330
67
  0
MATERIAL
  5
19
102
{ACAD_XDICTIONARY
360
1A
102
}
102
{ACAD_REACTORS
330
10
102
}
330
10
100
AcDbMaterial
  1
ByBlock
 72
     0
 43
0.0208333333333333
 43
0.0
 43
0.0
 43
0.0
 43
0.0
 43
0.0208333333333333
 43
0.0
 43
0.0
 43
0.0
 43
0.0
 43
1.0
 43
0.0
 43
0.0
 43
0.0
 43
0.0
 43
1.0
 77
     0
 47
0.0208333333333333
 47
0.0
 47
0.0
 47
0.0
 47
0.0
 47
0.0208333333333333
 47
0.0
 47
0.0
 47
0.0
 47
0.0
 47
1.0
 47
0.0
 47
0.0
 47
0.0
 47
0.0
 47
1.0
171
     0
 49
0.0208333333333333
 49
0.0
 49
0.0
 49
0.0
 49
0.0
 49
0.0208333333333333
 49
0.0
 49
0.0
 49
0.0
 49
0.0
 49
1.0
 49
0.0
 49
0.0
 49
0.0
 49
0.0
 49
1.0
175
     0
142
0.0208333333333333
142
0.0
142
0.0
142
0.0
142
0.0
142
0.0208333333333333
142
0.0
142
0.0
142
0.0
142
0.0
142
1.0
142
0.0
142
0.0
142
0.0
142
0.0
142
1.0
179
     0
144
0.0208333333333333
144
0.0
144
0.0
144
0.0
144
0.0
144
0.0208333333333333
144
0.0
144
0.0
144
0.0
144
0.0
144
1.0
144
0.0
144
0.0
144
0.0
144
0.0
144
1.0
147
0.0208333333333333
147
0.0
147
0.0
147
0.0
147
0.0
147
0.0208333333333333
147
0.0
147
0.0
147
0.0
147
0.0
147
1.0
147
0.0
147
0.0
147
0.0
147
0.0
147
1.0
  0
MATERIAL
  5
11
102
{ACAD_XDICTIONARY
360
12
102
}
102
{ACAD_REACTORS
330
10
102
}
330
10
100
AcDbMaterial
  1
ByLayer
 72
     0
 43
0.0208333333333333
 43
0.0
 43
0.0
 43
0.0
 43
0.0
 43
0.0208333333333333
 43
0.0
 43
0.0
 43
0.0
 43
0.0
 43
1.0
 43
0.0
 43
0.0
 43
0.0
 43
0.0
 43
1.0
 77
     0
 47
0.0208333333333333
 47
0.0
 47
0.0
 47
0.0
 47
0.0
 47
0.0208333333333333
 47
0.0
 47
0.0
 47
0.0
 47
0.0
 47
1.0
 47
0.0
 47
0.0
 47
0.0
 47
0.0
 47
1.0
171
     0
 49
0.0208333333333333
 49
0.0
 49
0.0
 49
0.0
 49
0.0
 49
0.0208333333333333
 49
0.0
 49
0.0
 49
0.0
 49
0.0
 49
1.0
 49
0.0
 49
0.0
 49
0.0
 49
0.0
 49
1.0
175
     0
142
0.0208333333333333
142
0.0
142
0.0
142
0.0
142
0.0
142
0.0208333333333333
142
0.0
142
0.0
142
0.0
142
0.0
142
1.0
142
0.0
142
0.0
142
0.0
142
0.0
142
1.0
179
     0
144
0.0208333333333333
144
0.0
144
0.0
144
0.0
144
0.0
144
0.0208333333333333
144
0.0
144
0.0
144
0.0
144
0.0
144
1.0
144
0.0
144
0.0
144
0.0
144
0.0
144
1.0
147
0.0208333333333333
147
0.0
147
0.0
147
0.0
147
0.0
147
0.0208333333333333
147
0.0
147
0.0
147
0.0
147
0.0
147
1.0
147
0.0
147
0.0
147
0.0
147
0.0
147
1.0
  0
MATERIAL
  5
21
102
{ACAD_XDICTIONARY
360
22
102
}
102
{ACAD_REACTORS
330
10
102
}
330
10
100
AcDbMaterial
  1
Global
 72
     0
 43
0.0208333333333333
 43
0.0
 43
0.0
 43
0.0
 43
0.0
 43
0.0208333333333333
 43
0.0
 43
0.0
 43
0.0
 43
0.0
 43
1.0
 43
0.0
 43
0.0
 43
0.0
 43
0.0
 43
1.0
 77
     0
 47
0.0208333333333333
 47
0.0
 47
0.0
 47
0.0
 47
0.0
 47
0.0208333333333333
 47
0.0
 47
0.0
 47
0.0
 47
0.0
 47
1.0
 47
0.0
 47
0.0
 47
0.0
 47
0.0
 47
1.0
171
     0
 49
0.0208333333333333
 49
0.0
 49
0.0
 49
0.0
 49
0.0
 49
0.0208333333333333
 49
0.0
 49
0.0
 49
0.0
 49
0.0
 49
1.0
 49
0.0
 49
0.0
 49
0.0
 49
0.0
 49
1.0
175
     0
142
0.0208333333333333
142
0.0
142
0.0
142
0.0
142
0.0
142
0.0208333333333333
142
0.0
142
0.0
142
0.0
142
0.0
142
1.0
142
0.0
142
0.0
142
0.0
142
0.0
142
1.0
179
     0
144
0.0208333333333333
144
0.0
144
0.0
144
0.0
144
0.0
144
0.0208333333333333
144
0.0
144
0.0
144
0.0
144
0.0
144
1.0
144
0.0
144
0.0
144
0.0
144
0.0
144
1.0
147
0.0208333333333333
147
0.0
147
0.0
147
0.0
147
0.0
147
0.0208333333333333
147
0.0
147
0.0
147
0.0
147
0.0
147
1.0
147
0.0
147
0.0
147
0.0
147
0.0
147
1.0
  0
MLEADERSTYLE
  5
66
102
{ACAD_REACTORS
330
65
102
}
330
65
100
AcDbMLeaderStyle
170
     2
171
     1
172
     0
 90
        2
 40
0.0
 41
0.0
173
     1
 91
-1056964608
340
5A
 92
       -2
290
     1
 42
0.09
291
     1
 43
0.36
  3
Standard
 44
0.18
300

342
55
174
     1
178
     6
175
     1
176
     0
 93
-1056964608
 45
0.18
292
     0
297
     0
 46
0.18
 94
-1056964608
 47
1.0
 49
1.0
140
1.0
293
     1
141
0.0
294
     1
177
     0
142
1.0
295
     0
296
     0
143
0.125
1001
ACAD
1000
AcRTDxfName
1000
MLEADERSTYLE
1001
ACAD_MLEADERVER
1070
     2
  0
MLINESTYLE
  5
5F
102
{ACAD_REACTORS
330
5E
102
}
330
5E
100
AcDbMlineStyle
  2
STANDARD
 70
     0
  3

 62
   256
 51
90.0
 52
90.0
 71
     2
 49
0.5
 62
   256
  6
BYLAYER
 49
-0.5
 62
   256
  6
BYLAYER
  0
ACDBPLACEHOLDER
  5
F
102
{ACAD_REACTORS
330
E
102
}
330
E
  0
SCALE
  5
43
102
{ACAD_REACTORS
330
42
102
}
330
42
100
AcDbScale
 70
     0
300
1:1
140
1.0
141
1.0
290
     1
1001
ACAD
1000
AcRTDxfName
1000
SCALE
  0
SCALE
  5
44
102
{ACAD_REACTORS
330
42
102
}
330
42
100
AcDbScale
 70
     0
300
1/128" = 1'-0"
140
0.0078125
141
12.0
290
     0
1001
ACAD
1000
AcRTDxfName
1000
SCALE
  0
SCALE
  5
45
102
{ACAD_REACTORS
330
42
102
}
330
42
100
AcDbScale
 70
     0
300
1/64" = 1'-0"
140
0.015625
141
12.0
290
     0
1001
ACAD
1000
AcRTDxfName
1000
SCALE
  0
SCALE
  5
46
102
{ACAD_REACTORS
330
42
102
}
330
42
100
AcDbScale
 70
     0
300
1/32" = 1'-0"
140
0.03125
141
12.0
290
     0
1001
ACAD
1000
AcRTDxfName
1000
SCALE
  0
SCALE
  5
47
102
{ACAD_REACTORS
330
42
102
}
330
42
100
AcDbScale
 70
     0
300
1/16" = 1'-0"
140
0.0625
141
12.0
290
     0
1001
ACAD
1000
AcRTDxfName
1000
SCALE
  0
SCALE
  5
48
102
{ACAD_REACTORS
330
42
102
}
330
42
100
AcDbScale
 70
     0
300
3/32" = 1'-0"
140
0.09375
141
12.0
290
     0
1001
ACAD
1000
AcRTDxfName
1000
SCALE
  0
SCALE
  5
49
102
{ACAD_REACTORS
330
42
102
}
330
42
100
AcDbScale
 70
     0
300
1/8" = 1'-0"
140
0.125
141
12.0
290
     0
1001
ACAD
1000
AcRTDxfName
1000
SCALE
  0
SCALE
  5
4A
102
{ACAD_REACTORS
330
42
102
}
330
42
100
AcDbScale
 70
     0
300
3/16" = 1'-0"
140
0.1875
141
12.0
290
     0
1001
ACAD
1000
AcRTDxfName
1000
SCALE
  0
SCALE
  5
4B
102
{ACAD_REACTORS
330
42
102
}
330
42
100
AcDbScale
 70
     0
300
1/4" = 1'-0"
140
0.25
141
12.0
290
     0
1001
ACAD
1000
AcRTDxfName
1000
SCALE
  0
SCALE
  5
4C
102
{ACAD_REACTORS
330
42
102
}
330
42
100
AcDbScale
 70
     0
300
3/8" = 1'-0"
140
0.375
141
12.0
290
     0
1001
ACAD
1000
AcRTDxfName
1000
SCALE
  0
SCALE
  5
4D
102
{ACAD_REACTORS
330
42
102
}
330
42
100
AcDbScale
 70
     0
300
1/2" = 1'-0"
140
0.5
141
12.0
290
     0
1001
ACAD
1000
AcRTDxfName
1000
SCALE
  0
SCALE
  5
4E
102
{ACAD_REACTORS
330
42
102
}
330
42
100
AcDbScale
 70
     0
300
3/4" = 1'-0"
140
0.75
141
12.0
290
     0
1001
ACAD
1000
AcRTDxfName
1000
SCALE
  0
SCALE
  5
4F
102
{ACAD_REACTORS
330
42
102
}
330
42
100
AcDbScale
 70
     0
300
1" = 1'-0"
140
1.0
141
12.0
290
     0
1001
ACAD
1000
AcRTDxfName
1000
SCALE
  0
SCALE
  5
50
102
{ACAD_REACTORS
330
42
102
}
330
42
100
AcDbScale
 70
     0
300
1-1/2" = 1'-0"
140
1.5
141
12.0
290
     0
1001
ACAD
1000
AcRTDxfName
1000
SCALE
  0
SCALE
  5
51
102
{ACAD_REACTORS
330
42
102
}
330
42
100
AcDbScale
 70
     0
300
3" = 1'-0"
140
3.0
141
12.0
290
     0
1001
ACAD
1000
AcRTDxfName
1000
SCALE
  0
SCALE
  5
52
102
{ACAD_REACTORS
330
42
102
}
330
42
100
AcDbScale
 70
     0
300
6" = 1'-0"
140
6.0
141
12.0
290
     0
1001
ACAD
1000
AcRTDxfName
1000
SCALE
  0
SCALE
  5
53
102
{ACAD_REACTORS
330
42
102
}
330
42
100
AcDbScale
 70
     0
300
1'-0" = 1'-0"
140
12.0
141
12.0
290
     0
1001
ACAD
1000
AcRTDxfName
1000
SCALE
  0
TABLESTYLE
  5
64
102
{ACAD_XDICTIONARY
360
A47
102
}
102
{ACAD_REACTORS
330
63
102
}
330
63
100
AcDbTableStyle
  3
Standard
 70
     0
 71
     0
 40
0.06
 41
0.06
280
     0
281
     0
  7
STANDARD
140
0.18
170
     2
 62
     0
 63
     7
283
     0
274
    -2
284
     1
 64
     0
275
    -2
285
     1
 65
     0
276
    -2
286
     1
 66
     0
277
    -2
287
     1
 67
     0
278
    -2
288
     1
 68
     0
279
    -2
289
     1
 69
     0
  7
STANDARD
140
0.25
170
     5
 62
     0
 63
     7
283
     0
274
    -2
284
     1
 64
     0
275
    -2
285
     1
 65
     0
276
    -2
286
     1
 66
     0
277
    -2
287
     1
 67
     0
278
    -2
288
     1
 68
     0
279
    -2
289
     1
 69
     0
  7
STANDARD
140
0.18
170
     5
 62
     0
 63
     7
283
     0
274
    -2
284
     1
 64
     0
275
    -2
285
     1
 65
     0
276
    -2
286
     1
 66
     0
277
    -2
287
     1
 67
     0
278
    -2
288
     1
 68
     0
279
    -2
289
     1
 69
     0
  0
VISUALSTYLE
  5
2F
102
{ACAD_XDICTIONARY
360
F32
102
}
102
{ACAD_REACTORS
330
29
102
}
330
29
100
AcDbVisualStyle
  2

 70
     4
 71
     0
 72
     2
 73
     0
 90
        0
 40
-0.6
 41
-30.0
 62
     5
 63
     7
 74
     1
 91
        4
 64
     7
 65
   257
 75
     1
175
     1
 42
1.0
 92
        0
 66
   257
 43
1.0
 76
     1
 77
     6
 78
     2
 67
     7
 79
     5
170
     0
171
     0
290
     0
174
     0
 93
        1
 44
0.0
173
     0
291
     0
 45
0.0
1001
ACAD
1000
AcDbSavedByObjectVersion
1070
     0
  0
VISUALSTYLE
  5
CAE
102
{ACAD_XDICTIONARY
360
F5F
102
}
102
{ACAD_REACTORS
330
29
102
}
330
29
100
AcDbVisualStyle
  2

 70
     6
 71
     1
 72
     2
 73
     2
 90
        0
 40
-0.6
 41
-30.0
 62
     5
 63
     7
 74
     2
 91
        2
 64
     7
 65
   257
 75
     2
175
     1
 42
40.0
 92
        0
 66
   257
 43
1.0
 76
     1
 77
     6
 78
     2
 67
     7
 79
     3
170
     0
171
     0
290
     0
174
     0
 93
        1
 44
0.0
173
     0
291
     0
 45
0.0
1001
ACAD
1000
AcDbSavedByObjectVersion
1070
     0
  0
VISUALSTYLE
  5
721
102
{ACAD_XDICTIONARY
360
F5D
102
}
102
{ACAD_REACTORS
330
29
102
}
330
29
100
AcDbVisualStyle
  2

 70
     5
 71
     0
 72
     2
 73
     1
 90
        0
 40
-0.6
 41
-30.0
 62
     5
 63
     7
 74
     1
 91
        4
 64
     7
 65
   257
 75
     1
175
     1
 42
1.0
 92
        0
 66
   257
 43
1.0
 76
     1
 77
     6
 78
     2
 67
     7
 79
     5
170
     0
171
     0
290
     0
174
     0
 93
        1
 44
0.0
173
     0
291
     0
 45
0.0
1001
ACAD
1000
AcDbSavedByObjectVersion
1070
     0
  0
VISUALSTYLE
  5
2E
102
{ACAD_XDICTIONARY
360
F30
102
}
102
{ACAD_REACTORS
330
29
102
}
330
29
100
AcDbVisualStyle
  2

 70
     7
 71
     1
 72
     0
 73
     1
 90
        0
 40
-0.6
 41
-30.0
 62
     5
 63
     7
 74
     0
 91
        4
 64
     7
 65
   257
 75
     1
175
     1
 42
1.0
 92
        8
 66
     7
 43
1.0
 76
     1
 77
     6
 78
     2
 67
     7
 79
     5
170
     0
171
     0
290
     0
174
     0
 93
        1
 44
0.0
173
     0
291
     1
 45
0.0
1001
ACAD
1000
AcDbSavedByObjectVersion
1070
     0
  0
VISUALSTYLE
  5
35
102
{ACAD_XDICTIONARY
360
F3E
102
}
102
{ACAD_REACTORS
330
29
102
}
330
29
100
AcDbVisualStyle
  2

 70
    12
 71
     2
 72
     2
 73
     0
 90
        0
 40
-0.6
 41
-30.0
 62
     5
 63
     7
 74
     1
 91
        4
 64
     7
 65
   257
 75
     1
175
     1
 42
1.0
 92
        8
 66
     7
 43
1.0
 76
     1
 77
     6
 78
     2
 67
     7
 79
     5
170
     0
171
     0
290
     0
174
     0
 93
        1
 44
50.0
173
     0
291
     1
 45
0.0
1001
ACAD
1000
AcDbSavedByObjectVersion
1070
     0
  0
VISUALSTYLE
  5
39
102
{ACAD_XDICTIONARY
360
F46
102
}
102
{ACAD_REACTORS
330
29
102
}
330
29
100
AcDbVisualStyle
  2

 70
    16
 71
     2
 72
     2
 73
     3
 90
        0
 40
-0.6
 41
-30.0
 62
     5
 63
     8
 74
     1
 91
        4
 64
     7
 65
   257
 75
     1
175
     1
 42
1.0
 92
        8
 66
     8
 43
1.0
 76
     1
 77
     6
 78
     2
 67
     7
 79
     5
170
     0
171
     0
290
     0
174
     0
 93
        1
 44
0.0
173
     0
291
     1
 45
0.0
1001
ACAD
1000
AcDbSavedByObjectVersion
1070
     0
  0
VISUALSTYLE
  5
32
102
{ACAD_XDICTIONARY
360
F38
102
}
102
{ACAD_REACTORS
330
29
102
}
330
29
100
AcDbVisualStyle
  2

 70
     9
 71
     3
 72
     2
 73
     0
 90
        0
 40
-0.6
 41
-30.0
 62
     5
 63
     7
 74
     2
 91
        2
 64
     7
 65
   257
 75
     1
175
     1
 42
179.0
 92
        8
 66
     7
 43
1.0
 76
     1
 77
     6
 78
     2
 67
     7
 79
     3
170
     0
171
     0
290
     0
174
     0
 93
        1
 44
0.0
173
     0
291
     0
 45
0.0
1001
ACAD
1000
AcDbSavedByObjectVersion
1070
     0
  0
VISUALSTYLE
  5
34
102
{ACAD_XDICTIONARY
360
F3C
102
}
102
{ACAD_REACTORS
330
29
102
}
330
29
100
AcDbVisualStyle
  2

 70
    11
 71
     2
 72
     2
 73
     0
 90
        0
 40
-0.6
 41
-30.0
 62
     5
 63
     7
 74
     1
 91
        4
 64
     7
 65
   257
 75
     1
175
     1
 42
1.0
 92
        8
 66
     7
 43
1.0
 76
     1
 77
     6
 78
     2
 67
     7
 79
     5
170
     0
171
     0
290
     0
174
     0
 93
        1
 44
-50.0
173
     0
291
     1
 45
0.0
1001
ACAD
1000
AcDbSavedByObjectVersion
1070
     0
  0
VISUALSTYLE
  5
41
102
{ACAD_XDICTIONARY
360
F56
102
}
102
{ACAD_REACTORS
330
29
102
}
330
29
100
AcDbVisualStyle
  2

 70
    22
 71
     2
 72
     2
 73
     0
 90
        0
 40
-0.6
 41
-30.0
 62
     5
 63
     7
 74
     1
 91
        4
 64
     7
 65
   257
 75
     1
175
     1
 42
1.0
 92
        8
 66
     7
 43
1.0
 76
     1
 77
     6
 78
     2
 67
     7
 79
     5
170
     0
171
     0
290
     0
174
     0
 93
        1
 44
0.0
173
     0
291
     1
 45
0.0
1001
ACAD
1000
AcDbSavedByObjectVersion
1070
     0
  0
VISUALSTYLE
  5
38
102
{ACAD_XDICTIONARY
360
F44
102
}
102
{ACAD_REACTORS
330
29
102
}
330
29
100
AcDbVisualStyle
  2

 70
    15
 71
     2
 72
     2
 73
     0
 90
        0
 40
-0.6
 41
-30.0
 62
     5
 63
     7
 74
     1
 91
        4
 64
     7
 65
   257
 75
     1
175
     1
 42
1.0
 92
        8
 66
     7
 43
1.0
 76
     1
 77
     6
 78
     2
 67
     7
 79
     5
170
     0
171
     0
290
     0
174
     0
 93
        1
 44
0.0
173
     0
291
     1
 45
0.0
1001
ACAD
1000
AcDbSavedByObjectVersion
1070
     0
  0
VISUALSTYLE
  5
2A
102
{ACAD_XDICTIONARY
360
F28
102
}
102
{ACAD_REACTORS
330
29
102
}
330
29
100
AcDbVisualStyle
  2

 70
     0
 71
     2
 72
     1
 73
     1
 90
        2
 40
-0.6
 41
30.0
 62
     5
 63
     7
 74
     0
 91
        0
 64
     7
 65
   257
 75
     1
175
     1
 42
1.0
 92
        8
 66
     7
 43
1.0
 76
     1
 77
     6
 78
     2
 67
     7
 79
     5
170
     0
171
     0
290
     0
174
     0
 93
       13
 44
0.0
173
     0
291
     1
 45
0.0
1001
ACAD
1000
AcDbSavedByObjectVersion
1070
     0
  0
VISUALSTYLE
  5
2B
102
{ACAD_XDICTIONARY
360
F2A
102
}
102
{ACAD_REACTORS
330
29
102
}
330
29
100
AcDbVisualStyle
  2

 70
     1
 71
     2
 72
     1
 73
     1
 90
        2
 40
-0.6
 41
30.0
 62
     5
 63
     7
 74
     1
 91
        0
 64
     7
 65
   257
 75
     1
175
     1
 42
1.0
 92
        0
 66
   257
 43
1.0
 76
     1
 77
     6
 78
     2
 67
     7
 79
     5
170
     0
171
     0
290
     0
174
     0
 93
       13
 44
0.0
173
     0
291
     1
 45
0.0
1001
ACAD
1000
AcDbSavedByObjectVersion
1070
     0
  0
VISUALSTYLE
  5
2C
102
{ACAD_XDICTIONARY
360
F2C
102
}
102
{ACAD_REACTORS
330
29
102
}
330
29
100
AcDbVisualStyle
  2

 70
     2
 71
     2
 72
     2
 73
     1
 90
        2
 40
-0.6
 41
30.0
 62
     5
 63
     7
 74
     0
 91
        0
 64
     7
 65
   257
 75
     1
175
     1
 42
1.0
 92
        0
 66
     7
 43
1.0
 76
     1
 77
     6
 78
     2
 67
     7
 79
     5
170
     0
171
     0
290
     0
174
     0
 93
       13
 44
0.0
173
     0
291
     1
 45
0.0
1001
ACAD
1000
AcDbSavedByObjectVersion
1070
     0
  0
VISUALSTYLE
  5
2D
102
{ACAD_XDICTIONARY
360
F2E
102
}
102
{ACAD_REACTORS
330
29
102
}
330
29
100
AcDbVisualStyle
  2

 70
     3
 71
     2
 72
     2
 73
     1
 90
        2
 40
-0.6
 41
30.0
 62
     5
 63
     7
 74
     1
 91
        0
 64
     7
 65
   257
 75
     1
175
     1
 42
1.0
 92
        0
 66
   257
 43
1.0
 76
     1
 77
     6
 78
     2
 67
     7
 79
     5
170
     0
171
     0
290
     0
174
     0
 93
       13
 44
0.0
173
     0
291
     1
 45
0.0
1001
ACAD
1000
AcDbSavedByObjectVersion
1070
     0
  0
VISUALSTYLE
  5
31
102
{ACAD_XDICTIONARY
360
F36
102
}
102
{ACAD_REACTORS
330
29
102
}
330
29
100
AcDbVisualStyle
  2

 70
     6
 71
     1
 72
     2
 73
     2
 90
        0
 40
-0.6
 41
-30.0
 62
     5
 63
     7
 74
     2
 91
        2
 64
     7
 65
   257
 75
     2
175
     1
 42
40.0
 92
        0
 66
   257
 43
1.0
 76
     1
 77
     6
 78
     2
 67
     7
 79
     3
170
     0
171
     0
290
     0
174
     0
 93
        1
 44
0.0
173
     0
291
     0
 45
0.0
1001
ACAD
1000
AcDbSavedByObjectVersion
1070
     0
  0
VISUALSTYLE
  5
3F
102
{ACAD_XDICTIONARY
360
F52
102
}
102
{ACAD_REACTORS
330
29
102
}
330
29
100
AcDbVisualStyle
  2

 70
    20
 71
     2
 72
     2
 73
     0
 90
        0
 40
-0.6
 41
-30.0
 62
     5
 63
     7
 74
     1
 91
        4
 64
     7
 65
   257
 75
     1
175
     1
 42
1.0
 92
       10
 66
     7
 43
1.0
 76
     1
 77
     6
 78
     2
 67
     7
 79
     5
170
     0
171
     0
290
     0
174
     0
 93
        1
 44
0.0
173
     0
291
     1
 45
0.0
1001
ACAD
1000
AcDbSavedByObjectVersion
1070
     0
  0
VISUALSTYLE
  5
37
102
{ACAD_XDICTIONARY
360
F42
102
}
102
{ACAD_REACTORS
330
29
102
}
330
29
100
AcDbVisualStyle
  2

 70
    14
 71
     2
 72
     2
 73
     0
 90
        0
 40
-0.6
 41
-30.0
 62
     5
 63
     7
 74
     1
 91
        4
 64
     7
 65
   257
 75
     7
175
     7
 42
1.0
 92
        8
 66
     7
 43
1.0
 76
     1
 77
     6
 78
     2
 67
     7
 79
     5
170
     0
171
     0
290
     0
174
     0
 93
        1
 44
0.0
173
     0
291
     1
 45
0.0
1001
ACAD
1000
AcDbSavedByObjectVersion
1070
     0
  0
VISUALSTYLE
  5
40
102
{ACAD_XDICTIONARY
360
F54
102
}
102
{ACAD_REACTORS
330
29
102
}
330
29
100
AcDbVisualStyle
  2

 70
    21
 71
     2
 72
     2
 73
     0
 90
        0
 40
-0.6
 41
-30.0
 62
     5
 63
     7
 74
     1
 91
        4
 64
     7
 65
   257
 75
     1
175
     1
 42
1.0
 92
        9
 66
     7
 43
1.0
 76
     1
 77
     6
 78
     2
 67
     7
 79
     5
170
     0
171
     0
290
     0
174
     0
 93
        1
 44
0.0
173
     0
291
     1
 45
0.0
1001
ACAD
1000
AcDbSavedByObjectVersion
1070
     0
  0
VISUALSTYLE
  5
33
102
{ACAD_XDICTIONARY
360
F3A
102
}
102
{ACAD_REACTORS
330
29
102
}
330
29
100
AcDbVisualStyle
  2

 70
     8
 71
     2
 72
     3
 73
     0
 90
        2
 40
-0.6
 41
30.0
 62
     5
 63
     7
 74
     0
 91
        0
 64
     7
 65
   257
 75
     1
175
     1
 42
1.0
 92
        8
 66
   257
 43
1.0
 76
     1
 77
     6
 78
     2
 67
     7
 79
     3
170
     0
171
     0
290
     0
174
     0
 93
       13
 44
0.0
173
     0
291
     0
 45
0.0
1001
ACAD
1000
AcDbSavedByObjectVersion
1070
     0
  0
VISUALSTYLE
  5
3E
102
{ACAD_XDICTIONARY
360
F50
102
}
102
{ACAD_REACTORS
330
29
102
}
330
29
100
AcDbVisualStyle
  2

 70
    27
 71
     2
 72
     2
 73
     1
 90
        2
 40
-0.6
 41
30.0
 62
     5
 63
     7
 74
     0
 91
        4
 64
     7
 65
   257
 75
     1
175
     1
 42
1.0
 92
        8
 66
   257
 43
1.0
 76
     1
 77
     6
 78
     2
 67
     8
 79
     3
170
     0
171
     0
290
     0
174
     0
 93
        5
 44
0.0
173
     0
291
     0
 45
0.0
1001
ACAD
1000
AcDbSavedByObjectVersion
1070
     0
  0
VISUALSTYLE
  5
3D
102
{ACAD_XDICTIONARY
360
F4E
102
}
102
{ACAD_REACTORS
330
29
102
}
330
29
100
AcDbVisualStyle
  2

 70
    26
 71
     2
 72
     2
 73
     1
 90
        2
 40
-0.6
 41
30.0
 62
     5
 63
     7
 74
     1
 91
       10
 64
     7
 65
   257
 75
     2
175
     1
 42
1.0
 92
        8
 66
   257
 43
1.0
 76
     1
 77
     6
 78
     2
 67
     7
 79
     3
170
     0
171
     0
290
     0
174
     0
 93
        5
 44
0.0
173
     0
291
     0
 45
0.0
1001
ACAD
1000
AcDbSavedByObjectVersion
1070
     0
  0
VISUALSTYLE
  5
3A
102
{ACAD_XDICTIONARY
360
F48
102
}
102
{ACAD_REACTORS
330
29
102
}
330
29
100
AcDbVisualStyle
  2

 70
    23
 71
     2
 72
     2
 73
     3
 90
        0
 40
-0.6
 41
-30.0
 62
     5
 63
     7
 74
     2
 91
        2
 64
     7
 65
     7
 75
     1
175
     1
 42
40.0
 92
        8
 66
     7
 43
1.0
 76
     1
 77
     6
 78
     2
 67
     7
 79
     3
170
     0
171
     0
290
     0
174
     0
 93
        1
 44
0.0
173
     0
291
     0
 45
0.0
1001
ACAD
1000
AcDbSavedByObjectVersion
1070
     0
  0
VISUALSTYLE
  5
3B
102
{ACAD_XDICTIONARY
360
F4A
102
}
102
{ACAD_REACTORS
330
29
102
}
330
29
100
AcDbVisualStyle
  2

 70
    24
 71
     1
 72
     2
 73
     2
 90
        0
 40
-0.6
 41
-30.0
 62
     5
 63
     7
 74
     2
 91
        2
 64
     7
 65
     7
 75
     1
175
     1
 42
40.0
 92
       11
 66
     7
 43
1.0
 76
     1
 77
     6
 78
     2
 67
     7
 79
     6
170
     0
171
     0
290
     0
174
     0
 93
        1
 44
0.0
173
     0
291
     0
 45
0.0
1001
ACAD
1000
AcDbSavedByObjectVersion
1070
     0
  0
VISUALSTYLE
  5
36
102
{ACAD_XDICTIONARY
360
F40
102
}
102
{ACAD_REACTORS
330
29
102
}
330
29
100
AcDbVisualStyle
  2

 70
    13
 71
     2
 72
     2
 73
     0
 90
        0
 40
-0.6
 41
-30.0
 62
     5
 63
     7
 74
     1
 91
        4
 64
     7
 65
   257
 75
     1
175
     1
 42
1.0
 92
       12
 66
     7
 43
1.0
 76
     1
 77
     6
 78
     2
 67
     7
 79
     5
170
     0
171
     0
290
     0
174
     0
 93
        1
 44
0.0
173
     0
291
     1
 45
0.0
1001
ACAD
1000
AcDbSavedByObjectVersion
1070
     0
  0
VISUALSTYLE
  5
30
102
{ACAD_XDICTIONARY
360
F34
102
}
102
{ACAD_REACTORS
330
29
102
}
330
29
100
AcDbVisualStyle
  2

 70
     5
 71
     0
 72
     2
 73
     0
 90
        0
 40
-0.6
 41
-30.0
 62
     5
 63
     7
 74
     1
 91
        4
 64
     7
 65
   257
 75
     1
175
     1
 42
1.0
 92
        0
 66
   257
 43
1.0
 76
     1
 77
     6
 78
     2
 67
     7
 79
     3
170
     0
171
     0
290
     0
174
     0
 93
        1
 44
0.0
173
     0
291
     0
 45
0.0
1001
ACAD
1000
AcDbSavedByObjectVersion
1070
     0
  0
VISUALSTYLE
  5
3C
102
{ACAD_XDICTIONARY
360
F4C
102
}
102
{ACAD_REACTORS
330
29
102
}
330
29
100
AcDbVisualStyle
  2

 70
    25
 71
     2
 72
     2
 73
     1
 90
        1
 40
0.5
 41
-30.0
 62
     5
 63
     7
 74
     1
 91
        0
 64
     7
 65
   257
 75
     1
175
     1
 42
1.0
 92
        8
 66
     7
 43
1.0
 76
     1
 77
     6
 78
     2
 67
     7
 79
     3
170
     0
171
     0
290
     0
174
     0
 93
       13
 44
0.0
173
     0
291
     0
 45
0.0
1001
ACAD
1000
AcDbSavedByObjectVersion
1070
     0
  0
DICTIONARYVAR
  5
A42
102
{ACAD_REACTORS
330
A3F
102
}
330
A3F
100
DictionaryVariables
280
     0
  1
1:1
  0
DICTIONARYVAR
  5
A41
102
{ACAD_REACTORS
330
A3F
102
}
330
A3F
100
DictionaryVariables
280
     0
  1
STANDARD
  0
DICTIONARYVAR
  5
A40
102
{ACAD_REACTORS
330
A3F
102
}
330
A3F
100
DictionaryVariables
280
     0
  1
STANDARD
  0
DICTIONARYVAR
  5
A45
102
{ACAD_REACTORS
330
A3F
102
}
330
A3F
100
DictionaryVariables
280
     0
  1
1
  0
DICTIONARYVAR
  5
A44
102
{ACAD_REACTORS
330
A3F
102
}
330
A3F
100
DictionaryVariables
280
     0
  1
0
  0
DICTIONARYVAR
  5
A43
102
{ACAD_REACTORS
330
A3F
102
}
330
A3F
100
DictionaryVariables
280
     0
  1
127
  0
DICTIONARYVAR
  5
DEB
102
{ACAD_REACTORS
330
A3F
102
}
330
A3F
100
DictionaryVariables
280
     0
  1
2
  0
DICTIONARY
  5
F5B
330
6E
100
AcDbDictionary
280
     1
281
     1
  3
ACAD_XREC_ROUNDTRIP
360
F5C
  0
DICTIONARY
  5
F59
330
6A
100
AcDbDictionary
280
     1
281
     1
  3
ACAD_XREC_ROUNDTRIP
360
F5A
  0
DICTIONARY
  5
1A
330
19
100
AcDbDictionary
280
     1
281
     1
  3
ACAD_XREC_ROUNDTRIP
360
A50
  3
BUMPTILE
360
1C
  3
DIFFUSETILE
360
1B
  3
OPACITYTILE
360
1F
  3
REFLECTIONTILE
360
1E
  3
REFRACTIONTILE
360
20
  3
SPECULARTILE
360
1D
  0
DICTIONARY
  5
12
330
11
100
AcDbDictionary
280
     1
281
     1
  3
ACAD_XREC_ROUNDTRIP
360
A4F
  3
BUMPTILE
360
14
  3
DIFFUSETILE
360
13
  3
OPACITYTILE
360
17
  3
REFLECTIONTILE
360
16
  3
REFRACTIONTILE
360
18
  3
SPECULARTILE
360
15
  0
DICTIONARY
  5
22
330
21
100
AcDbDictionary
280
     1
281
     1
  3
ACAD_XREC_ROUNDTRIP
360
A51
  3
BUMPTILE
360
24
  3
DIFFUSETILE
360
23
  3
OPACITYTILE
360
27
  3
REFLECTIONTILE
360
26
  3
REFRACTIONTILE
360
28
  3
SPECULARTILE
360
25
  0
DICTIONARY
  5
A47
330
64
100
AcDbDictionary
280
     1
281
     1
  3
ACAD_ROUNDTRIP_2008_TABLESTYLE_CELLSTYLEMAP
360
F21
  3
ACAD_XREC_ROUNDTRIP
360
F58
  0
DICTIONARY
  5
F32
330
2F
100
AcDbDictionary
280
     1
281
     1
  3
ACAD_XREC_ROUNDTRIP
360
F33
  0
DICTIONARY
  5
F5F
330
CAE
100
AcDbDictionary
280
     1
281
     1
  3
ACAD_XREC_ROUNDTRIP
360
F60
  0
DICTIONARY
  5
F5D
330
721
100
AcDbDictionary
280
     1
281
     1
  3
ACAD_XREC_ROUNDTRIP
360
F5E
  0
DICTIONARY
  5
F30
330
2E
100
AcDbDictionary
280
     1
281
     1
  3
ACAD_XREC_ROUNDTRIP
360
F31
  0
DICTIONARY
  5
F3E
330
35
100
AcDbDictionary
280
     1
281
     1
  3
ACAD_XREC_ROUNDTRIP
360
F3F
  0
DICTIONARY
  5
F46
330
39
100
AcDbDictionary
280
     1
281
     1
  3
ACAD_XREC_ROUNDTRIP
360
F47
  0
DICTIONARY
  5
F38
330
32
100
AcDbDictionary
280
     1
281
     1
  3
ACAD_XREC_ROUNDTRIP
360
F39
  0
DICTIONARY
  5
F3C
330
34
100
AcDbDictionary
280
     1
281
     1
  3
ACAD_XREC_ROUNDTRIP
360
F3D
  0
DICTIONARY
  5
F56
330
41
100
AcDbDictionary
280
     1
281
     1
  3
ACAD_XREC_ROUNDTRIP
360
F57
  0
DICTIONARY
  5
F44
330
38
100
AcDbDictionary
280
     1
281
     1
  3
ACAD_XREC_ROUNDTRIP
360
F45
  0
DICTIONARY
  5
F28
330
2A
100
AcDbDictionary
280
     1
281
     1
  3
ACAD_XREC_ROUNDTRIP
360
F29
  0
DICTIONARY
  5
F2A
330
2B
100
AcDbDictionary
280
     1
281
     1
  3
ACAD_XREC_ROUNDTRIP
360
F2B
  0
DICTIONARY
  5
F2C
330
2C
100
AcDbDictionary
280
     1
281
     1
  3
ACAD_XREC_ROUNDTRIP
360
F2D
  0
DICTIONARY
  5
F2E
330
2D
100
AcDbDictionary
280
     1
281
     1
  3
ACAD_XREC_ROUNDTRIP
360
F2F
  0
DICTIONARY
  5
F36
330
31
100
AcDbDictionary
280
     1
281
     1
  3
ACAD_XREC_ROUNDTRIP
360
F37
  0
DICTIONARY
  5
F52
330
3F
100
AcDbDictionary
280
     1
281
     1
  3
ACAD_XREC_ROUNDTRIP
360
F53
  0
DICTIONARY
  5
F42
330
37
100
AcDbDictionary
280
     1
281
     1
  3
ACAD_XREC_ROUNDTRIP
360
F43
  0
DICTIONARY
  5
F54
330
40
100
AcDbDictionary
280
     1
281
     1
  3
ACAD_XREC_ROUNDTRIP
360
F55
  0
DICTIONARY
  5
F3A
330
33
100
AcDbDictionary
280
     1
281
     1
  3
ACAD_XREC_ROUNDTRIP
360
F3B
  0
DICTIONARY
  5
F50
330
3E
100
AcDbDictionary
280
     1
281
     1
  3
ACAD_XREC_ROUNDTRIP
360
F51
  0
DICTIONARY
  5
F4E
330
3D
100
AcDbDictionary
280
     1
281
     1
  3
ACAD_XREC_ROUNDTRIP
360
F4F
  0
DICTIONARY
  5
F48
330
3A
100
AcDbDictionary
280
     1
281
     1
  3
ACAD_XREC_ROUNDTRIP
360
F49
  0
DICTIONARY
  5
F4A
330
3B
100
AcDbDictionary
280
     1
281
     1
  3
ACAD_XREC_ROUNDTRIP
360
F4B
  0
DICTIONARY
  5
F40
330
36
100
AcDbDictionary
280
     1
281
     1
  3
ACAD_XREC_ROUNDTRIP
360
F41
  0
DICTIONARY
  5
F34
330
30
100
AcDbDictionary
280
     1
281
     1
  3
ACAD_XREC_ROUNDTRIP
360
F35
  0
DICTIONARY
  5
F4C
330
3C
100
AcDbDictionary
280
     1
281
     1
  3
ACAD_XREC_ROUNDTRIP
360
F4D
  0
XRECORD
  5
F5C
102
{ACAD_REACTORS
330
F5B
102
}
330
F5B
100
AcDbXrecord
280
     1
102
SHADEPLOT
 70
     0
102
SHADEPLOTRESLEVEL
 70
     2
102
SHADEPLOTCUSTOMDPI
 70
   300
  0
XRECORD
  5
F5A
102
{ACAD_REACTORS
330
F59
102
}
330
F59
100
AcDbXrecord
280
     1
102
SHADEPLOT
 70
     0
102
SHADEPLOTRESLEVEL
 70
     2
102
SHADEPLOTCUSTOMDPI
 70
   300
  0
XRECORD
  5
A50
102
{ACAD_REACTORS
330
1A
102
}
330
1A
100
AcDbXrecord
280
     1
102
MATERIAL
148
0.0
149
0.0
149
0.0
 93
        0
 94
      127
282
     0
 72
     0
 77
     0
171
     0
175
     0
179
     0
273
     0
  0
XRECORD
  5
1C
102
{ACAD_REACTORS
330
1A
102
}
330
1A
100
AcDbXrecord
280
     1
270
     1
271
     1
  0
XRECORD
  5
1B
102
{ACAD_REACTORS
330
1A
102
}
330
1A
100
AcDbXrecord
280
     1
270
     1
271
     1
  0
XRECORD
  5
1F
102
{ACAD_REACTORS
330
1A
102
}
330
1A
100
AcDbXrecord
280
     1
270
     1
271
     1
  0
XRECORD
  5
1E
102
{ACAD_REACTORS
330
1A
102
}
330
1A
100
AcDbXrecord
280
     1
270
     1
271
     1
  0
XRECORD
  5
20
102
{ACAD_REACTORS
330
1A
102
}
330
1A
100
AcDbXrecord
280
     1
270
     1
271
     1
  0
XRECORD
  5
1D
102
{ACAD_REACTORS
330
1A
102
}
330
1A
100
AcDbXrecord
280
     1
270
     1
271
     1
  0
XRECORD
  5
A4F
102
{ACAD_REACTORS
330
12
102
}
330
12
100
AcDbXrecord
280
     1
102
MATERIAL
148
0.0
149
0.0
149
0.0
 93
        0
 94
      127
282
     0
 72
     0
 77
     0
171
     0
175
     0
179
     0
273
     0
  0
XRECORD
  5
14
102
{ACAD_REACTORS
330
12
102
}
330
12
100
AcDbXrecord
280
     1
270
     1
271
     1
  0
XRECORD
  5
13
102
{ACAD_REACTORS
330
12
102
}
330
12
100
AcDbXrecord
280
     1
270
     1
271
     1
  0
XRECORD
  5
17
102
{ACAD_REACTORS
330
12
102
}
330
12
100
AcDbXrecord
280
     1
270
     1
271
     1
  0
XRECORD
  5
16
102
{ACAD_REACTORS
330
12
102
}
330
12
100
AcDbXrecord
280
     1
270
     1
271
     1
  0
XRECORD
  5
18
102
{ACAD_REACTORS
330
12
102
}
330
12
100
AcDbXrecord
280
     1
270
     1
271
     1
  0
XRECORD
  5
15
102
{ACAD_REACTORS
330
12
102
}
330
12
100
AcDbXrecord
280
     1
270
     1
271
     1
  0
XRECORD
  5
A51
102
{ACAD_REACTORS
330
22
102
}
330
22
100
AcDbXrecord
280
     1
102
MATERIAL
148
0.0
149
0.0
149
0.0
 93
        0
 94
      127
282
     0
 72
     0
 77
     0
171
     0
175
     0
179
     0
273
     0
  0
XRECORD
  5
24
102
{ACAD_REACTORS
330
22
102
}
330
22
100
AcDbXrecord
280
     1
270
     1
271
     1
  0
XRECORD
  5
23
102
{ACAD_REACTORS
330
22
102
}
330
22
100
AcDbXrecord
280
     1
270
     1
271
     1
  0
XRECORD
  5
27
102
{ACAD_REACTORS
330
22
102
}
330
22
100
AcDbXrecord
280
     1
270
     1
271
     1
  0
XRECORD
  5
26
102
{ACAD_REACTORS
330
22
102
}
330
22
100
AcDbXrecord
280
     1
270
     1
271
     1
  0
XRECORD
  5
28
102
{ACAD_REACTORS
330
22
102
}
330
22
100
AcDbXrecord
280
     1
270
     1
271
     1
  0
XRECORD
  5
25
102
{ACAD_REACTORS
330
22
102
}
330
22
100
AcDbXrecord
280
     1
270
     1
271
     1
  0
CELLSTYLEMAP
  5
F21
102
{ACAD_REACTORS
330
A47
102
}
330
A47
100
AcDbCellStyleMap
 90
        3
300
CELLSTYLE
  1
TABLEFORMAT_BEGIN
 90
        5
170
     1
 91
        0
 92
    32768
 62
   257
 93
        1
300
CONTENTFORMAT
  1
CONTENTFORMAT_BEGIN
 90
        0
 91
        0
 92
      512
 93
        0
300

 40
0.0
140
1.0
 94
        5
 62
     0
340
55
144
0.25
309
CONTENTFORMAT_END
171
     1
301
MARGIN
  1
CELLMARGIN_BEGIN
 40
0.06
 40
0.06
 40
0.06
 40
0.06
 40
0.18
 40
0.18
309
CELLMARGIN_END
 94
        6
 95
        1
302
GRIDFORMAT
  1
GRIDFORMAT_BEGIN
 90
        0
 91
        1
 62
     0
 92
       -2
340
0
 93
        0
 40
0.045
309
GRIDFORMAT_END
 95
        2
302
GRIDFORMAT
  1
GRIDFORMAT_BEGIN
 90
        0
 91
        1
 62
     0
 92
       -2
340
0
 93
        0
 40
0.045
309
GRIDFORMAT_END
 95
        4
302
GRIDFORMAT
  1
GRIDFORMAT_BEGIN
 90
        0
 91
        1
 62
     0
 92
       -2
340
0
 93
        0
 40
0.045
309
GRIDFORMAT_END
 95
        8
302
GRIDFORMAT
  1
GRIDFORMAT_BEGIN
 90
        0
 91
        1
 62
     0
 92
       -2
340
0
 93
        0
 40
0.045
309
GRIDFORMAT_END
 95
       16
302
GRIDFORMAT
  1
GRIDFORMAT_BEGIN
 90
        0
 91
        1
 62
     0
 92
       -2
340
0
 93
        0
 40
0.045
309
GRIDFORMAT_END
 95
       32
302
GRIDFORMAT
  1
GRIDFORMAT_BEGIN
 90
        0
 91
        1
 62
     0
 92
       -2
340
0
 93
        0
 40
0.045
309
GRIDFORMAT_END
309
TABLEFORMAT_END
  1
CELLSTYLE_BEGIN
 90
        1
 91
        1
300
_TITLE
309
CELLSTYLE_END
300
CELLSTYLE
  1
TABLEFORMAT_BEGIN
 90
        5
170
     1
 91
        0
 92
        0
 62
   257
 93
        1
300
CONTENTFORMAT
  1
CONTENTFORMAT_BEGIN
 90
        0
 91
        0
 92
      512
 93
        0
300

 40
0.0
140
1.0
 94
        5
 62
     0
340
55
144
0.18
309
CONTENTFORMAT_END
171
     1
301
MARGIN
  1
CELLMARGIN_BEGIN
 40
0.06
 40
0.06
 40
0.06
 40
0.06
 40
0.18
 40
0.18
309
CELLMARGIN_END
 94
        6
 95
        1
302
GRIDFORMAT
  1
GRIDFORMAT_BEGIN
 90
        0
 91
        1
 62
     0
 92
       -2
340
0
 93
        0
 40
0.045
309
GRIDFORMAT_END
 95
        2
302
GRIDFORMAT
  1
GRIDFORMAT_BEGIN
 90
        0
 91
        1
 62
     0
 92
       -2
340
0
 93
        0
 40
0.045
309
GRIDFORMAT_END
 95
        4
302
GRIDFORMAT
  1
GRIDFORMAT_BEGIN
 90
        0
 91
        1
 62
     0
 92
       -2
340
0
 93
        0
 40
0.045
309
GRIDFORMAT_END
 95
        8
302
GRIDFORMAT
  1
GRIDFORMAT_BEGIN
 90
        0
 91
        1
 62
     0
 92
       -2
340
0
 93
        0
 40
0.045
309
GRIDFORMAT_END
 95
       16
302
GRIDFORMAT
  1
GRIDFORMAT_BEGIN
 90
        0
 91
        1
 62
     0
 92
       -2
340
0
 93
        0
 40
0.045
309
GRIDFORMAT_END
 95
       32
302
GRIDFORMAT
  1
GRIDFORMAT_BEGIN
 90
        0
 91
        1
 62
     0
 92
       -2
340
0
 93
        0
 40
0.045
309
GRIDFORMAT_END
309
TABLEFORMAT_END
  1
CELLSTYLE_BEGIN
 90
        2
 91
        1
300
_HEADER
309
CELLSTYLE_END
300
CELLSTYLE
  1
TABLEFORMAT_BEGIN
 90
        5
170
     1
 91
        0
 92
        0
 62
   257
 93
        1
300
CONTENTFORMAT
  1
CONTENTFORMAT_BEGIN
 90
        0
 91
        0
 92
      512
 93
        0
300

 40
0.0
140
1.0
 94
        2
 62
     0
340
55
144
0.18
309
CONTENTFORMAT_END
171
     1
301
MARGIN
  1
CELLMARGIN_BEGIN
 40
0.06
 40
0.06
 40
0.06
 40
0.06
 40
0.18
 40
0.18
309
CELLMARGIN_END
 94
        6
 95
        1
302
GRIDFORMAT
  1
GRIDFORMAT_BEGIN
 90
        0
 91
        1
 62
     0
 92
       -2
340
0
 93
        0
 40
0.045
309
GRIDFORMAT_END
 95
        2
302
GRIDFORMAT
  1
GRIDFORMAT_BEGIN
 90
        0
 91
        1
 62
     0
 92
       -2
340
0
 93
        0
 40
0.045
309
GRIDFORMAT_END
 95
        4
302
GRIDFORMAT
  1
GRIDFORMAT_BEGIN
 90
        0
 91
        1
 62
     0
 92
       -2
340
0
 93
        0
 40
0.045
309
GRIDFORMAT_END
 95
        8
302
GRIDFORMAT
  1
GRIDFORMAT_BEGIN
 90
        0
 91
        1
 62
     0
 92
       -2
340
0
 93
        0
 40
0.045
309
GRIDFORMAT_END
 95
       16
302
GRIDFORMAT
  1
GRIDFORMAT_BEGIN
 90
        0
 91
        1
 62
     0
 92
       -2
340
0
 93
        0
 40
0.045
309
GRIDFORMAT_END
 95
       32
302
GRIDFORMAT
  1
GRIDFORMAT_BEGIN
 90
        0
 91
        1
 62
     0
 92
       -2
340
0
 93
        0
 40
0.045
309
GRIDFORMAT_END
309
TABLEFORMAT_END
  1
CELLSTYLE_BEGIN
 90
        3
 91
        2
300
_DATA
309
CELLSTYLE_END
  0
XRECORD
  5
F58
102
{ACAD_REACTORS
330
A47
102
}
330
A47
100
AcDbXrecord
280
     1
102
ACAD_ROUNDTRIP_PRE2007_TABLESTYLE
 90
      512
 91
        0
  1

 92
      512
 93
        0
  2

 94
      512
 95
        0
  3

  0
XRECORD
  5
F33
102
{ACAD_REACTORS
330
F32
102
}
330
F32
100
AcDbXrecord
280
     1
102
RTVSPropertyOp0
 70
     1
102
RTVSPropertyOp1
 70
     1
102
RTVSPropertyOp2
 70
     1
102
RTVSPropertyOp3
 70
     1
102
RTVSPropertyOp4
 70
     1
102
RTVSPropertyOp5
 70
     1
102
RTVSPropertyOp6
 70
     1
102
RTVSPropertyOp7
 70
     1
102
RTVSPropertyOp8
 70
     1
102
RTVSPropertyOp9
 70
     1
102
RTVSPropertyOp10
 70
     1
102
RTVSPropertyOp11
 70
     1
102
RTVSPropertyOp12
 70
     1
102
RTVSPropertyOp13
 70
     1
102
RTVSPropertyOp14
 70
     1
102
RTVSPropertyOp15
 70
     1
102
RTVSPropertyOp16
 70
     1
102
RTVSPropertyOp17
 70
     1
102
RTVSPropertyOp18
 70
     1
102
RTVSPropertyOp19
 70
     1
102
RTVSPropertyOp20
 70
     1
102
RTVSPropertyOp21
 70
     1
102
RTVSPropertyOp22
 70
     1
102
RTVSPropertyOp23
 70
     1
102
RTVSPropertyOp24
 70
     1
102
RTVSPropertyOp25
 70
     1
102
RTVSPropertyOp26
 70
     1
102
RTVSPropertyOp27
 70
     1
102
RTVSPropertyOp28
 70
     1
102
RTVSPropertyOp29
 70
     1
102
RTVSPropertyOp30
 70
     1
102
RTVSPropertyOp31
 70
     1
102
RTVSPropertyOp32
 70
     1
  0
XRECORD
  5
F60
102
{ACAD_REACTORS
330
F5F
102
}
330
F5F
100
AcDbXrecord
280
     1
102
RTVSPropertyOp0
 70
     1
102
RTVSPropertyOp1
 70
     1
102
RTVSPropertyOp2
 70
     1
102
RTVSPropertyOp3
 70
     1
102
RTVSPropertyOp4
 70
     1
102
RTVSPropertyOp5
 70
     1
102
RTVSPropertyOp6
 70
     1
102
RTVSPropertyOp7
 70
     1
102
RTVSPropertyOp8
 70
     1
102
RTVSPropertyOp9
 70
     1
102
RTVSPropertyOp10
 70
     1
102
RTVSPropertyOp11
 70
     1
102
RTVSPropertyOp12
 70
     1
102
RTVSPropertyOp13
 70
     1
102
RTVSPropertyOp14
 70
     1
102
RTVSPropertyOp15
 70
     1
102
RTVSPropertyOp16
 70
     1
102
RTVSPropertyOp17
 70
     1
102
RTVSPropertyOp18
 70
     1
102
RTVSPropertyOp19
 70
     1
102
RTVSPropertyOp20
 70
     1
102
RTVSPropertyOp21
 70
     1
102
RTVSPropertyOp22
 70
     1
102
RTVSPropertyOp23
 70
     1
102
RTVSPropertyOp24
 70
     1
102
RTVSPropertyOp25
 70
     1
102
RTVSPropertyOp26
 70
     1
102
RTVSPropertyOp27
 70
     1
102
RTVSPropertyOp28
 70
     1
102
RTVSPropertyOp29
 70
     1
102
RTVSPropertyOp30
 70
     1
102
RTVSPropertyOp31
 70
     1
102
RTVSPropertyOp32
 70
     1
  0
XRECORD
  5
F5E
102
{ACAD_REACTORS
330
F5D
102
}
330
F5D
100
AcDbXrecord
280
     1
102
RTVSPropertyOp0
 70
     1
102
RTVSPropertyOp1
 70
     1
102
RTVSPropertyOp2
 70
     1
102
RTVSPropertyOp3
 70
     1
102
RTVSPropertyOp4
 70
     1
102
RTVSPropertyOp5
 70
     1
102
RTVSPropertyOp6
 70
     1
102
RTVSPropertyOp7
 70
     1
102
RTVSPropertyOp8
 70
     1
102
RTVSPropertyOp9
 70
     1
102
RTVSPropertyOp10
 70
     1
102
RTVSPropertyOp11
 70
     1
102
RTVSPropertyOp12
 70
     1
102
RTVSPropertyOp13
 70
     1
102
RTVSPropertyOp14
 70
     1
102
RTVSPropertyOp15
 70
     1
102
RTVSPropertyOp16
 70
     1
102
RTVSPropertyOp17
 70
     1
102
RTVSPropertyOp18
 70
     1
102
RTVSPropertyOp19
 70
     1
102
RTVSPropertyOp20
 70
     1
102
RTVSPropertyOp21
 70
     1
102
RTVSPropertyOp22
 70
     1
102
RTVSPropertyOp23
 70
     1
102
RTVSPropertyOp24
 70
     1
102
RTVSPropertyOp25
 70
     1
102
RTVSPropertyOp26
 70
     1
102
RTVSPropertyOp27
 70
     1
102
RTVSPropertyOp28
 70
     1
102
RTVSPropertyOp29
 70
     1
102
RTVSPropertyOp30
 70
     1
102
RTVSPropertyOp31
 70
     1
102
RTVSPropertyOp32
 70
     1
  0
XRECORD
  5
F31
102
{ACAD_REACTORS
330
F30
102
}
330
F30
100
AcDbXrecord
280
     1
102
RTVSPropertyOp0
 70
     1
102
RTVSPropertyOp1
 70
     1
102
RTVSPropertyOp2
 70
     1
102
RTVSPropertyOp3
 70
     1
102
RTVSPropertyOp4
 70
     1
102
RTVSPropertyOp5
 70
     1
102
RTVSPropertyOp6
 70
     1
102
RTVSPropertyOp7
 70
     1
102
RTVSPropertyOp8
 70
     1
102
RTVSPropertyOp9
 70
     1
102
RTVSPropertyOp10
 70
     1
102
RTVSPropertyOp11
 70
     1
102
RTVSPropertyOp12
 70
     1
102
RTVSPropertyOp13
 70
     1
102
RTVSPropertyOp14
 70
     1
102
RTVSPropertyOp15
 70
     1
102
RTVSPropertyOp16
 70
     1
102
RTVSPropertyOp17
 70
     1
102
RTVSPropertyOp18
 70
     1
102
RTVSPropertyOp19
 70
     1
102
RTVSPropertyOp20
 70
     1
102
RTVSPropertyOp21
 70
     1
102
RTVSPropertyOp22
 70
     1
102
RTVSPropertyOp23
 70
     1
102
RTVSPropertyOp24
 70
     1
102
RTVSPropertyOp25
 70
     1
102
RTVSPropertyOp26
 70
     1
102
RTVSPropertyOp27
 70
     1
102
RTVSPropertyOp28
 70
     1
102
RTVSPropertyOp29
 70
     1
102
RTVSPropertyOp30
 70
     1
102
RTVSPropertyOp31
 70
     1
102
RTVSPropertyOp32
 70
     1
  0
XRECORD
  5
F3F
102
{ACAD_REACTORS
330
F3E
102
}
330
F3E
100
AcDbXrecord
280
     1
102
RTVSPropertyOp0
 70
     1
102
RTVSPropertyOp1
 70
     1
102
RTVSPropertyOp2
 70
     1
102
RTVSPropertyOp3
 70
     1
102
RTVSPropertyOp4
 70
     1
102
RTVSPropertyOp5
 70
     1
102
RTVSPropertyOp6
 70
     1
102
RTVSPropertyOp7
 70
     1
102
RTVSPropertyOp8
 70
     1
102
RTVSPropertyOp9
 70
     1
102
RTVSPropertyOp10
 70
     1
102
RTVSPropertyOp11
 70
     1
102
RTVSPropertyOp12
 70
     1
102
RTVSPropertyOp13
 70
     1
102
RTVSPropertyOp14
 70
     1
102
RTVSPropertyOp15
 70
     1
102
RTVSPropertyOp16
 70
     1
102
RTVSPropertyOp17
 70
     1
102
RTVSPropertyOp18
 70
     1
102
RTVSPropertyOp19
 70
     1
102
RTVSPropertyOp20
 70
     1
102
RTVSPropertyOp21
 70
     1
102
RTVSPropertyOp22
 70
     1
102
RTVSPropertyOp23
 70
     1
102
RTVSPropertyOp24
 70
     1
102
RTVSPropertyOp25
 70
     1
102
RTVSPropertyOp26
 70
     1
102
RTVSPropertyOp27
 70
     1
102
RTVSPropertyOp28
 70
     1
102
RTVSPropertyOp29
 70
     1
102
RTVSPropertyOp30
 70
     1
102
RTVSPropertyOp31
 70
     1
102
RTVSPropertyOp32
 70
     1
  0
XRECORD
  5
F47
102
{ACAD_REACTORS
330
F46
102
}
330
F46
100
AcDbXrecord
280
     1
102
RTVSPropertyOp0
 70
     1
102
RTVSPropertyOp1
 70
     1
102
RTVSPropertyOp2
 70
     1
102
RTVSPropertyOp3
 70
     1
102
RTVSPropertyOp4
 70
     1
102
RTVSPropertyOp5
 70
     1
102
RTVSPropertyOp6
 70
     1
102
RTVSPropertyOp7
 70
     1
102
RTVSPropertyOp8
 70
     1
102
RTVSPropertyOp9
 70
     1
102
RTVSPropertyOp10
 70
     1
102
RTVSPropertyOp11
 70
     1
102
RTVSPropertyOp12
 70
     1
102
RTVSPropertyOp13
 70
     1
102
RTVSPropertyOp14
 70
     1
102
RTVSPropertyOp15
 70
     1
102
RTVSPropertyOp16
 70
     1
102
RTVSPropertyOp17
 70
     1
102
RTVSPropertyOp18
 70
     1
102
RTVSPropertyOp19
 70
     1
102
RTVSPropertyOp20
 70
     1
102
RTVSPropertyOp21
 70
     1
102
RTVSPropertyOp22
 70
     1
102
RTVSPropertyOp23
 70
     1
102
RTVSPropertyOp24
 70
     1
102
RTVSPropertyOp25
 70
     1
102
RTVSPropertyOp26
 70
     1
102
RTVSPropertyOp27
 70
     1
102
RTVSPropertyOp28
 70
     1
102
RTVSPropertyOp29
 70
     1
102
RTVSPropertyOp30
 70
     1
102
RTVSPropertyOp31
 70
     1
102
RTVSPropertyOp32
 70
     1
  0
XRECORD
  5
F39
102
{ACAD_REACTORS
330
F38
102
}
330
F38
100
AcDbXrecord
280
     1
102
RTVSPropertyOp0
 70
     1
102
RTVSPropertyOp1
 70
     1
102
RTVSPropertyOp2
 70
     1
102
RTVSPropertyOp3
 70
     1
102
RTVSPropertyOp4
 70
     1
102
RTVSPropertyOp5
 70
     1
102
RTVSPropertyOp6
 70
     1
102
RTVSPropertyOp7
 70
     1
102
RTVSPropertyOp8
 70
     1
102
RTVSPropertyOp9
 70
     1
102
RTVSPropertyOp10
 70
     1
102
RTVSPropertyOp11
 70
     1
102
RTVSPropertyOp12
 70
     1
102
RTVSPropertyOp13
 70
     1
102
RTVSPropertyOp14
 70
     1
102
RTVSPropertyOp15
 70
     1
102
RTVSPropertyOp16
 70
     1
102
RTVSPropertyOp17
 70
     1
102
RTVSPropertyOp18
 70
     1
102
RTVSPropertyOp19
 70
     1
102
RTVSPropertyOp20
 70
     1
102
RTVSPropertyOp21
 70
     1
102
RTVSPropertyOp22
 70
     1
102
RTVSPropertyOp23
 70
     1
102
RTVSPropertyOp24
 70
     1
102
RTVSPropertyOp25
 70
     1
102
RTVSPropertyOp26
 70
     1
102
RTVSPropertyOp27
 70
     1
102
RTVSPropertyOp28
 70
     1
102
RTVSPropertyOp29
 70
     1
102
RTVSPropertyOp30
 70
     1
102
RTVSPropertyOp31
 70
     1
102
RTVSPropertyOp32
 70
     1
  0
XRECORD
  5
F3D
102
{ACAD_REACTORS
330
F3C
102
}
330
F3C
100
AcDbXrecord
280
     1
102
RTVSPropertyOp0
 70
     1
102
RTVSPropertyOp1
 70
     1
102
RTVSPropertyOp2
 70
     1
102
RTVSPropertyOp3
 70
     1
102
RTVSPropertyOp4
 70
     1
102
RTVSPropertyOp5
 70
     1
102
RTVSPropertyOp6
 70
     1
102
RTVSPropertyOp7
 70
     1
102
RTVSPropertyOp8
 70
     1
102
RTVSPropertyOp9
 70
     1
102
RTVSPropertyOp10
 70
     1
102
RTVSPropertyOp11
 70
     1
102
RTVSPropertyOp12
 70
     1
102
RTVSPropertyOp13
 70
     1
102
RTVSPropertyOp14
 70
     1
102
RTVSPropertyOp15
 70
     1
102
RTVSPropertyOp16
 70
     1
102
RTVSPropertyOp17
 70
     1
102
RTVSPropertyOp18
 70
     1
102
RTVSPropertyOp19
 70
     1
102
RTVSPropertyOp20
 70
     1
102
RTVSPropertyOp21
 70
     1
102
RTVSPropertyOp22
 70
     1
102
RTVSPropertyOp23
 70
     1
102
RTVSPropertyOp24
 70
     1
102
RTVSPropertyOp25
 70
     1
102
RTVSPropertyOp26
 70
     1
102
RTVSPropertyOp27
 70
     1
102
RTVSPropertyOp28
 70
     1
102
RTVSPropertyOp29
 70
     1
102
RTVSPropertyOp30
 70
     1
102
RTVSPropertyOp31
 70
     1
102
RTVSPropertyOp32
 70
     1
  0
XRECORD
  5
F57
102
{ACAD_REACTORS
330
F56
102
}
330
F56
100
AcDbXrecord
280
     1
102
RTVSPropertyOp0
 70
     0
102
RTVSPropertyOp1
 70
     0
102
RTVSPropertyOp2
 70
     0
102
RTVSPropertyOp3
 70
     0
102
RTVSPropertyOp4
 70
     0
102
RTVSPropertyOp5
 70
     0
102
RTVSPropertyOp6
 70
     0
102
RTVSPropertyOp7
 70
     0
102
RTVSPropertyOp8
 70
     0
102
RTVSPropertyOp9
 70
     0
102
RTVSPropertyOp10
 70
     0
102
RTVSPropertyOp11
 70
     0
102
RTVSPropertyOp12
 70
     0
102
RTVSPropertyOp13
 70
     0
102
RTVSPropertyOp14
 70
     2
102
RTVSPropertyOp15
 70
     0
102
RTVSPropertyOp16
 70
     0
102
RTVSPropertyOp17
 70
     0
102
RTVSPropertyOp18
 70
     0
102
RTVSPropertyOp19
 70
     0
102
RTVSPropertyOp20
 70
     0
102
RTVSPropertyOp21
 70
     0
102
RTVSPropertyOp22
 70
     0
102
RTVSPropertyOp23
 70
     0
102
RTVSPropertyOp24
 70
     0
102
RTVSPropertyOp25
 70
     0
102
RTVSPropertyOp26
 70
     0
102
RTVSPropertyOp27
 70
     0
102
RTVSPropertyOp28
 70
     0
102
RTVSPropertyOp29
 70
     0
102
RTVSPropertyOp30
 70
     0
102
RTVSPropertyOp31
 70
     0
102
RTVSPropertyOp32
 70
     0
  0
XRECORD
  5
F45
102
{ACAD_REACTORS
330
F44
102
}
330
F44
100
AcDbXrecord
280
     1
102
RTVSPropertyOp0
 70
     1
102
RTVSPropertyOp1
 70
     1
102
RTVSPropertyOp2
 70
     1
102
RTVSPropertyOp3
 70
     1
102
RTVSPropertyOp4
 70
     1
102
RTVSPropertyOp5
 70
     1
102
RTVSPropertyOp6
 70
     1
102
RTVSPropertyOp7
 70
     1
102
RTVSPropertyOp8
 70
     1
102
RTVSPropertyOp9
 70
     1
102
RTVSPropertyOp10
 70
     1
102
RTVSPropertyOp11
 70
     1
102
RTVSPropertyOp12
 70
     1
102
RTVSPropertyOp13
 70
     1
102
RTVSPropertyOp14
 70
     1
102
RTVSPropertyOp15
 70
     1
102
RTVSPropertyOp16
 70
     1
102
RTVSPropertyOp17
 70
     1
102
RTVSPropertyOp18
 70
     1
102
RTVSPropertyOp19
 70
     1
102
RTVSPropertyOp20
 70
     1
102
RTVSPropertyOp21
 70
     1
102
RTVSPropertyOp22
 70
     1
102
RTVSPropertyOp23
 70
     1
102
RTVSPropertyOp24
 70
     1
102
RTVSPropertyOp25
 70
     1
102
RTVSPropertyOp26
 70
     1
102
RTVSPropertyOp27
 70
     1
102
RTVSPropertyOp28
 70
     1
102
RTVSPropertyOp29
 70
     1
102
RTVSPropertyOp30
 70
     1
102
RTVSPropertyOp31
 70
     1
102
RTVSPropertyOp32
 70
     1
  0
XRECORD
  5
F29
102
{ACAD_REACTORS
330
F28
102
}
330
F28
100
AcDbXrecord
280
     1
102
RTVSPropertyOp0
 70
     1
102
RTVSPropertyOp1
 70
     1
102
RTVSPropertyOp2
 70
     1
102
RTVSPropertyOp3
 70
     1
102
RTVSPropertyOp4
 70
     1
102
RTVSPropertyOp5
 70
     1
102
RTVSPropertyOp6
 70
     1
102
RTVSPropertyOp7
 70
     1
102
RTVSPropertyOp8
 70
     1
102
RTVSPropertyOp9
 70
     1
102
RTVSPropertyOp10
 70
     1
102
RTVSPropertyOp11
 70
     1
102
RTVSPropertyOp12
 70
     1
102
RTVSPropertyOp13
 70
     1
102
RTVSPropertyOp14
 70
     1
102
RTVSPropertyOp15
 70
     1
102
RTVSPropertyOp16
 70
     1
102
RTVSPropertyOp17
 70
     1
102
RTVSPropertyOp18
 70
     1
102
RTVSPropertyOp19
 70
     1
102
RTVSPropertyOp20
 70
     1
102
RTVSPropertyOp21
 70
     1
102
RTVSPropertyOp22
 70
     1
102
RTVSPropertyOp23
 70
     1
102
RTVSPropertyOp24
 70
     1
102
RTVSPropertyOp25
 70
     1
102
RTVSPropertyOp26
 70
     1
102
RTVSPropertyOp27
 70
     1
102
RTVSPropertyOp28
 70
     1
102
RTVSPropertyOp29
 70
     1
102
RTVSPropertyOp30
 70
     1
102
RTVSPropertyOp31
 70
     1
102
RTVSPropertyOp32
 70
     1
  0
XRECORD
  5
F2B
102
{ACAD_REACTORS
330
F2A
102
}
330
F2A
100
AcDbXrecord
280
     1
102
RTVSPropertyOp0
 70
     1
102
RTVSPropertyOp1
 70
     1
102
RTVSPropertyOp2
 70
     1
102
RTVSPropertyOp3
 70
     1
102
RTVSPropertyOp4
 70
     1
102
RTVSPropertyOp5
 70
     1
102
RTVSPropertyOp6
 70
     1
102
RTVSPropertyOp7
 70
     1
102
RTVSPropertyOp8
 70
     1
102
RTVSPropertyOp9
 70
     1
102
RTVSPropertyOp10
 70
     1
102
RTVSPropertyOp11
 70
     1
102
RTVSPropertyOp12
 70
     1
102
RTVSPropertyOp13
 70
     1
102
RTVSPropertyOp14
 70
     1
102
RTVSPropertyOp15
 70
     1
102
RTVSPropertyOp16
 70
     1
102
RTVSPropertyOp17
 70
     1
102
RTVSPropertyOp18
 70
     1
102
RTVSPropertyOp19
 70
     1
102
RTVSPropertyOp20
 70
     1
102
RTVSPropertyOp21
 70
     1
102
RTVSPropertyOp22
 70
     1
102
RTVSPropertyOp23
 70
     1
102
RTVSPropertyOp24
 70
     1
102
RTVSPropertyOp25
 70
     1
102
RTVSPropertyOp26
 70
     1
102
RTVSPropertyOp27
 70
     1
102
RTVSPropertyOp28
 70
     1
102
RTVSPropertyOp29
 70
     1
102
RTVSPropertyOp30
 70
     1
102
RTVSPropertyOp31
 70
     1
102
RTVSPropertyOp32
 70
     1
  0
XRECORD
  5
F2D
102
{ACAD_REACTORS
330
F2C
102
}
330
F2C
100
AcDbXrecord
280
     1
102
RTVSPropertyOp0
 70
     1
102
RTVSPropertyOp1
 70
     1
102
RTVSPropertyOp2
 70
     1
102
RTVSPropertyOp3
 70
     1
102
RTVSPropertyOp4
 70
     1
102
RTVSPropertyOp5
 70
     1
102
RTVSPropertyOp6
 70
     1
102
RTVSPropertyOp7
 70
     1
102
RTVSPropertyOp8
 70
     1
102
RTVSPropertyOp9
 70
     1
102
RTVSPropertyOp10
 70
     1
102
RTVSPropertyOp11
 70
     1
102
RTVSPropertyOp12
 70
     1
102
RTVSPropertyOp13
 70
     1
102
RTVSPropertyOp14
 70
     1
102
RTVSPropertyOp15
 70
     1
102
RTVSPropertyOp16
 70
     1
102
RTVSPropertyOp17
 70
     1
102
RTVSPropertyOp18
 70
     1
102
RTVSPropertyOp19
 70
     1
102
RTVSPropertyOp20
 70
     1
102
RTVSPropertyOp21
 70
     1
102
RTVSPropertyOp22
 70
     1
102
RTVSPropertyOp23
 70
     1
102
RTVSPropertyOp24
 70
     1
102
RTVSPropertyOp25
 70
     1
102
RTVSPropertyOp26
 70
     1
102
RTVSPropertyOp27
 70
     1
102
RTVSPropertyOp28
 70
     1
102
RTVSPropertyOp29
 70
     1
102
RTVSPropertyOp30
 70
     1
102
RTVSPropertyOp31
 70
     1
102
RTVSPropertyOp32
 70
     1
  0
XRECORD
  5
F2F
102
{ACAD_REACTORS
330
F2E
102
}
330
F2E
100
AcDbXrecord
280
     1
102
RTVSPropertyOp0
 70
     1
102
RTVSPropertyOp1
 70
     1
102
RTVSPropertyOp2
 70
     1
102
RTVSPropertyOp3
 70
     1
102
RTVSPropertyOp4
 70
     1
102
RTVSPropertyOp5
 70
     1
102
RTVSPropertyOp6
 70
     1
102
RTVSPropertyOp7
 70
     1
102
RTVSPropertyOp8
 70
     1
102
RTVSPropertyOp9
 70
     1
102
RTVSPropertyOp10
 70
     1
102
RTVSPropertyOp11
 70
     1
102
RTVSPropertyOp12
 70
     1
102
RTVSPropertyOp13
 70
     1
102
RTVSPropertyOp14
 70
     1
102
RTVSPropertyOp15
 70
     1
102
RTVSPropertyOp16
 70
     1
102
RTVSPropertyOp17
 70
     1
102
RTVSPropertyOp18
 70
     1
102
RTVSPropertyOp19
 70
     1
102
RTVSPropertyOp20
 70
     1
102
RTVSPropertyOp21
 70
     1
102
RTVSPropertyOp22
 70
     1
102
RTVSPropertyOp23
 70
     1
102
RTVSPropertyOp24
 70
     1
102
RTVSPropertyOp25
 70
     1
102
RTVSPropertyOp26
 70
     1
102
RTVSPropertyOp27
 70
     1
102
RTVSPropertyOp28
 70
     1
102
RTVSPropertyOp29
 70
     1
102
RTVSPropertyOp30
 70
     1
102
RTVSPropertyOp31
 70
     1
102
RTVSPropertyOp32
 70
     1
  0
XRECORD
  5
F37
102
{ACAD_REACTORS
330
F36
102
}
330
F36
100
AcDbXrecord
280
     1
102
RTVSPropertyOp0
 70
     1
102
RTVSPropertyOp1
 70
     1
102
RTVSPropertyOp2
 70
     1
102
RTVSPropertyOp3
 70
     1
102
RTVSPropertyOp4
 70
     1
102
RTVSPropertyOp5
 70
     1
102
RTVSPropertyOp6
 70
     1
102
RTVSPropertyOp7
 70
     1
102
RTVSPropertyOp8
 70
     1
102
RTVSPropertyOp9
 70
     1
102
RTVSPropertyOp10
 70
     1
102
RTVSPropertyOp11
 70
     1
102
RTVSPropertyOp12
 70
     1
102
RTVSPropertyOp13
 70
     1
102
RTVSPropertyOp14
 70
     1
102
RTVSPropertyOp15
 70
     1
102
RTVSPropertyOp16
 70
     1
102
RTVSPropertyOp17
 70
     1
102
RTVSPropertyOp18
 70
     1
102
RTVSPropertyOp19
 70
     1
102
RTVSPropertyOp20
 70
     1
102
RTVSPropertyOp21
 70
     1
102
RTVSPropertyOp22
 70
     1
102
RTVSPropertyOp23
 70
     1
102
RTVSPropertyOp24
 70
     1
102
RTVSPropertyOp25
 70
     1
102
RTVSPropertyOp26
 70
     1
102
RTVSPropertyOp27
 70
     1
102
RTVSPropertyOp28
 70
     1
102
RTVSPropertyOp29
 70
     1
102
RTVSPropertyOp30
 70
     1
102
RTVSPropertyOp31
 70
     1
102
RTVSPropertyOp32
 70
     1
  0
XRECORD
  5
F53
102
{ACAD_REACTORS
330
F52
102
}
330
F52
100
AcDbXrecord
280
     1
102
RTVSPropertyOp0
 70
     0
102
RTVSPropertyOp1
 70
     0
102
RTVSPropertyOp2
 70
     0
102
RTVSPropertyOp3
 70
     0
102
RTVSPropertyOp4
 70
     0
102
RTVSPropertyOp5
 70
     0
102
RTVSPropertyOp6
 70
     0
102
RTVSPropertyOp7
 70
     0
102
RTVSPropertyOp8
 70
     0
102
RTVSPropertyOp9
 70
     0
102
RTVSPropertyOp10
 70
     0
102
RTVSPropertyOp11
 70
     0
102
RTVSPropertyOp12
 70
     0
102
RTVSPropertyOp13
 70
     0
102
RTVSPropertyOp14
 70
     2
102
RTVSPropertyOp15
 70
     0
102
RTVSPropertyOp16
 70
     0
102
RTVSPropertyOp17
 70
     0
102
RTVSPropertyOp18
 70
     0
102
RTVSPropertyOp19
 70
     0
102
RTVSPropertyOp20
 70
     0
102
RTVSPropertyOp21
 70
     0
102
RTVSPropertyOp22
 70
     0
102
RTVSPropertyOp23
 70
     0
102
RTVSPropertyOp24
 70
     0
102
RTVSPropertyOp25
 70
     0
102
RTVSPropertyOp26
 70
     0
102
RTVSPropertyOp27
 70
     0
102
RTVSPropertyOp28
 70
     0
102
RTVSPropertyOp29
 70
     0
102
RTVSPropertyOp30
 70
     0
102
RTVSPropertyOp31
 70
     0
102
RTVSPropertyOp32
 70
     0
  0
XRECORD
  5
F43
102
{ACAD_REACTORS
330
F42
102
}
330
F42
100
AcDbXrecord
280
     1
102
RTVSPropertyOp0
 70
     1
102
RTVSPropertyOp1
 70
     1
102
RTVSPropertyOp2
 70
     1
102
RTVSPropertyOp3
 70
     1
102
RTVSPropertyOp4
 70
     1
102
RTVSPropertyOp5
 70
     1
102
RTVSPropertyOp6
 70
     1
102
RTVSPropertyOp7
 70
     1
102
RTVSPropertyOp8
 70
     1
102
RTVSPropertyOp9
 70
     1
102
RTVSPropertyOp10
 70
     1
102
RTVSPropertyOp11
 70
     1
102
RTVSPropertyOp12
 70
     1
102
RTVSPropertyOp13
 70
     1
102
RTVSPropertyOp14
 70
     1
102
RTVSPropertyOp15
 70
     1
102
RTVSPropertyOp16
 70
     1
102
RTVSPropertyOp17
 70
     1
102
RTVSPropertyOp18
 70
     1
102
RTVSPropertyOp19
 70
     1
102
RTVSPropertyOp20
 70
     1
102
RTVSPropertyOp21
 70
     1
102
RTVSPropertyOp22
 70
     1
102
RTVSPropertyOp23
 70
     1
102
RTVSPropertyOp24
 70
     1
102
RTVSPropertyOp25
 70
     1
102
RTVSPropertyOp26
 70
     1
102
RTVSPropertyOp27
 70
     1
102
RTVSPropertyOp28
 70
     1
102
RTVSPropertyOp29
 70
     1
102
RTVSPropertyOp30
 70
     1
102
RTVSPropertyOp31
 70
     1
102
RTVSPropertyOp32
 70
     1
  0
XRECORD
  5
F55
102
{ACAD_REACTORS
330
F54
102
}
330
F54
100
AcDbXrecord
280
     1
102
RTVSPropertyOp0
 70
     0
102
RTVSPropertyOp1
 70
     0
102
RTVSPropertyOp2
 70
     0
102
RTVSPropertyOp3
 70
     0
102
RTVSPropertyOp4
 70
     0
102
RTVSPropertyOp5
 70
     0
102
RTVSPropertyOp6
 70
     0
102
RTVSPropertyOp7
 70
     0
102
RTVSPropertyOp8
 70
     0
102
RTVSPropertyOp9
 70
     0
102
RTVSPropertyOp10
 70
     0
102
RTVSPropertyOp11
 70
     0
102
RTVSPropertyOp12
 70
     0
102
RTVSPropertyOp13
 70
     0
102
RTVSPropertyOp14
 70
     2
102
RTVSPropertyOp15
 70
     0
102
RTVSPropertyOp16
 70
     0
102
RTVSPropertyOp17
 70
     0
102
RTVSPropertyOp18
 70
     0
102
RTVSPropertyOp19
 70
     0
102
RTVSPropertyOp20
 70
     0
102
RTVSPropertyOp21
 70
     0
102
RTVSPropertyOp22
 70
     0
102
RTVSPropertyOp23
 70
     0
102
RTVSPropertyOp24
 70
     0
102
RTVSPropertyOp25
 70
     0
102
RTVSPropertyOp26
 70
     0
102
RTVSPropertyOp27
 70
     0
102
RTVSPropertyOp28
 70
     0
102
RTVSPropertyOp29
 70
     0
102
RTVSPropertyOp30
 70
     0
102
RTVSPropertyOp31
 70
     0
102
RTVSPropertyOp32
 70
     0
  0
XRECORD
  5
F3B
102
{ACAD_REACTORS
330
F3A
102
}
330
F3A
100
AcDbXrecord
280
     1
102
RTVSPropertyOp0
 70
     1
102
RTVSPropertyOp1
 70
     1
102
RTVSPropertyOp2
 70
     1
102
RTVSPropertyOp3
 70
     1
102
RTVSPropertyOp4
 70
     1
102
RTVSPropertyOp5
 70
     1
102
RTVSPropertyOp6
 70
     1
102
RTVSPropertyOp7
 70
     1
102
RTVSPropertyOp8
 70
     1
102
RTVSPropertyOp9
 70
     1
102
RTVSPropertyOp10
 70
     1
102
RTVSPropertyOp11
 70
     1
102
RTVSPropertyOp12
 70
     1
102
RTVSPropertyOp13
 70
     1
102
RTVSPropertyOp14
 70
     1
102
RTVSPropertyOp15
 70
     1
102
RTVSPropertyOp16
 70
     1
102
RTVSPropertyOp17
 70
     1
102
RTVSPropertyOp18
 70
     1
102
RTVSPropertyOp19
 70
     1
102
RTVSPropertyOp20
 70
     1
102
RTVSPropertyOp21
 70
     1
102
RTVSPropertyOp22
 70
     1
102
RTVSPropertyOp23
 70
     1
102
RTVSPropertyOp24
 70
     1
102
RTVSPropertyOp25
 70
     1
102
RTVSPropertyOp26
 70
     1
102
RTVSPropertyOp27
 70
     1
102
RTVSPropertyOp28
 70
     1
102
RTVSPropertyOp29
 70
     1
102
RTVSPropertyOp30
 70
     1
102
RTVSPropertyOp31
 70
     1
102
RTVSPropertyOp32
 70
     1
  0
XRECORD
  5
F51
102
{ACAD_REACTORS
330
F50
102
}
330
F50
100
AcDbXrecord
280
     1
102
RTVSPropertyOp0
 70
     1
102
RTVSPropertyOp1
 70
     1
102
RTVSPropertyOp2
 70
     1
102
RTVSPropertyOp3
 70
     1
102
RTVSPropertyOp4
 70
     1
102
RTVSPropertyOp5
 70
     1
102
RTVSPropertyOp6
 70
     1
102
RTVSPropertyOp7
 70
     1
102
RTVSPropertyOp8
 70
     1
102
RTVSPropertyOp9
 70
     1
102
RTVSPropertyOp10
 70
     1
102
RTVSPropertyOp11
 70
     1
102
RTVSPropertyOp12
 70
     1
102
RTVSPropertyOp13
 70
     1
102
RTVSPropertyOp14
 70
     1
102
RTVSPropertyOp15
 70
     1
102
RTVSPropertyOp16
 70
     1
102
RTVSPropertyOp17
 70
     1
102
RTVSPropertyOp18
 70
     1
102
RTVSPropertyOp19
 70
     1
102
RTVSPropertyOp20
 70
     1
102
RTVSPropertyOp21
 70
     1
102
RTVSPropertyOp22
 70
     1
102
RTVSPropertyOp23
 70
     1
102
RTVSPropertyOp24
 70
     1
102
RTVSPropertyOp25
 70
     1
102
RTVSPropertyOp26
 70
     1
102
RTVSPropertyOp27
 70
     1
102
RTVSPropertyOp28
 70
     1
102
RTVSPropertyOp29
 70
     1
102
RTVSPropertyOp30
 70
     1
102
RTVSPropertyOp31
 70
     1
102
RTVSPropertyOp32
 70
     1
  0
XRECORD
  5
F4F
102
{ACAD_REACTORS
330
F4E
102
}
330
F4E
100
AcDbXrecord
280
     1
102
RTVSPropertyOp0
 70
     1
102
RTVSPropertyOp1
 70
     1
102
RTVSPropertyOp2
 70
     1
102
RTVSPropertyOp3
 70
     1
102
RTVSPropertyOp4
 70
     1
102
RTVSPropertyOp5
 70
     1
102
RTVSPropertyOp6
 70
     1
102
RTVSPropertyOp7
 70
     1
102
RTVSPropertyOp8
 70
     1
102
RTVSPropertyOp9
 70
     1
102
RTVSPropertyOp10
 70
     1
102
RTVSPropertyOp11
 70
     1
102
RTVSPropertyOp12
 70
     1
102
RTVSPropertyOp13
 70
     1
102
RTVSPropertyOp14
 70
     1
102
RTVSPropertyOp15
 70
     1
102
RTVSPropertyOp16
 70
     1
102
RTVSPropertyOp17
 70
     1
102
RTVSPropertyOp18
 70
     1
102
RTVSPropertyOp19
 70
     1
102
RTVSPropertyOp20
 70
     1
102
RTVSPropertyOp21
 70
     1
102
RTVSPropertyOp22
 70
     1
102
RTVSPropertyOp23
 70
     1
102
RTVSPropertyOp24
 70
     1
102
RTVSPropertyOp25
 70
     1
102
RTVSPropertyOp26
 70
     1
102
RTVSPropertyOp27
 70
     1
102
RTVSPropertyOp28
 70
     1
102
RTVSPropertyOp29
 70
     1
102
RTVSPropertyOp30
 70
     1
102
RTVSPropertyOp31
 70
     1
102
RTVSPropertyOp32
 70
     1
  0
XRECORD
  5
F49
102
{ACAD_REACTORS
330
F48
102
}
330
F48
100
AcDbXrecord
280
     1
102
RTVSPropertyOp0
 70
     1
102
RTVSPropertyOp1
 70
     1
102
RTVSPropertyOp2
 70
     1
102
RTVSPropertyOp3
 70
     1
102
RTVSPropertyOp4
 70
     1
102
RTVSPropertyOp5
 70
     1
102
RTVSPropertyOp6
 70
     1
102
RTVSPropertyOp7
 70
     1
102
RTVSPropertyOp8
 70
     1
102
RTVSPropertyOp9
 70
     1
102
RTVSPropertyOp10
 70
     1
102
RTVSPropertyOp11
 70
     1
102
RTVSPropertyOp12
 70
     1
102
RTVSPropertyOp13
 70
     1
102
RTVSPropertyOp14
 70
     1
102
RTVSPropertyOp15
 70
     1
102
RTVSPropertyOp16
 70
     1
102
RTVSPropertyOp17
 70
     1
102
RTVSPropertyOp18
 70
     1
102
RTVSPropertyOp19
 70
     1
102
RTVSPropertyOp20
 70
     1
102
RTVSPropertyOp21
 70
     1
102
RTVSPropertyOp22
 70
     1
102
RTVSPropertyOp23
 70
     1
102
RTVSPropertyOp24
 70
     1
102
RTVSPropertyOp25
 70
     1
102
RTVSPropertyOp26
 70
     1
102
RTVSPropertyOp27
 70
     1
102
RTVSPropertyOp28
 70
     1
102
RTVSPropertyOp29
 70
     1
102
RTVSPropertyOp30
 70
     1
102
RTVSPropertyOp31
 70
     1
102
RTVSPropertyOp32
 70
     1
  0
XRECORD
  5
F4B
102
{ACAD_REACTORS
330
F4A
102
}
330
F4A
100
AcDbXrecord
280
     1
102
RTVSPropertyOp0
 70
     1
102
RTVSPropertyOp1
 70
     1
102
RTVSPropertyOp2
 70
     1
102
RTVSPropertyOp3
 70
     1
102
RTVSPropertyOp4
 70
     1
102
RTVSPropertyOp5
 70
     1
102
RTVSPropertyOp6
 70
     1
102
RTVSPropertyOp7
 70
     1
102
RTVSPropertyOp8
 70
     1
102
RTVSPropertyOp9
 70
     1
102
RTVSPropertyOp10
 70
     1
102
RTVSPropertyOp11
 70
     1
102
RTVSPropertyOp12
 70
     1
102
RTVSPropertyOp13
 70
     1
102
RTVSPropertyOp14
 70
     1
102
RTVSPropertyOp15
 70
     1
102
RTVSPropertyOp16
 70
     1
102
RTVSPropertyOp17
 70
     1
102
RTVSPropertyOp18
 70
     1
102
RTVSPropertyOp19
 70
     1
102
RTVSPropertyOp20
 70
     1
102
RTVSPropertyOp21
 70
     1
102
RTVSPropertyOp22
 70
     1
102
RTVSPropertyOp23
 70
     1
102
RTVSPropertyOp24
 70
     1
102
RTVSPropertyOp25
 70
     1
102
RTVSPropertyOp26
 70
     1
102
RTVSPropertyOp27
 70
     1
102
RTVSPropertyOp28
 70
     1
102
RTVSPropertyOp29
 70
     1
102
RTVSPropertyOp30
 70
     1
102
RTVSPropertyOp31
 70
     1
102
RTVSPropertyOp32
 70
     1
  0
XRECORD
  5
F41
102
{ACAD_REACTORS
330
F40
102
}
330
F40
100
AcDbXrecord
280
     1
102
RTVSPropertyOp0
 70
     1
102
RTVSPropertyOp1
 70
     1
102
RTVSPropertyOp2
 70
     1
102
RTVSPropertyOp3
 70
     1
102
RTVSPropertyOp4
 70
     1
102
RTVSPropertyOp5
 70
     1
102
RTVSPropertyOp6
 70
     1
102
RTVSPropertyOp7
 70
     1
102
RTVSPropertyOp8
 70
     1
102
RTVSPropertyOp9
 70
     1
102
RTVSPropertyOp10
 70
     1
102
RTVSPropertyOp11
 70
     1
102
RTVSPropertyOp12
 70
     1
102
RTVSPropertyOp13
 70
     1
102
RTVSPropertyOp14
 70
     1
102
RTVSPropertyOp15
 70
     1
102
RTVSPropertyOp16
 70
     1
102
RTVSPropertyOp17
 70
     1
102
RTVSPropertyOp18
 70
     1
102
RTVSPropertyOp19
 70
     1
102
RTVSPropertyOp20
 70
     1
102
RTVSPropertyOp21
 70
     1
102
RTVSPropertyOp22
 70
     1
102
RTVSPropertyOp23
 70
     1
102
RTVSPropertyOp24
 70
     1
102
RTVSPropertyOp25
 70
     1
102
RTVSPropertyOp26
 70
     1
102
RTVSPropertyOp27
 70
     1
102
RTVSPropertyOp28
 70
     1
102
RTVSPropertyOp29
 70
     1
102
RTVSPropertyOp30
 70
     1
102
RTVSPropertyOp31
 70
     1
102
RTVSPropertyOp32
 70
     1
  0
XRECORD
  5
F35
102
{ACAD_REACTORS
330
F34
102
}
330
F34
100
AcDbXrecord
280
     1
102
RTVSPropertyOp0
 70
     1
102
RTVSPropertyOp1
 70
     1
102
RTVSPropertyOp2
 70
     1
102
RTVSPropertyOp3
 70
     1
102
RTVSPropertyOp4
 70
     1
102
RTVSPropertyOp5
 70
     1
102
RTVSPropertyOp6
 70
     1
102
RTVSPropertyOp7
 70
     1
102
RTVSPropertyOp8
 70
     1
102
RTVSPropertyOp9
 70
     1
102
RTVSPropertyOp10
 70
     1
102
RTVSPropertyOp11
 70
     1
102
RTVSPropertyOp12
 70
     1
102
RTVSPropertyOp13
 70
     1
102
RTVSPropertyOp14
 70
     1
102
RTVSPropertyOp15
 70
     1
102
RTVSPropertyOp16
 70
     1
102
RTVSPropertyOp17
 70
     1
102
RTVSPropertyOp18
 70
     1
102
RTVSPropertyOp19
 70
     1
102
RTVSPropertyOp20
 70
     1
102
RTVSPropertyOp21
 70
     1
102
RTVSPropertyOp22
 70
     1
102
RTVSPropertyOp23
 70
     1
102
RTVSPropertyOp24
 70
     1
102
RTVSPropertyOp25
 70
     1
102
RTVSPropertyOp26
 70
     1
102
RTVSPropertyOp27
 70
     1
102
RTVSPropertyOp28
 70
     1
102
RTVSPropertyOp29
 70
     1
102
RTVSPropertyOp30
 70
     1
102
RTVSPropertyOp31
 70
     1
102
RTVSPropertyOp32
 70
     1
  0
XRECORD
  5
F4D
102
{ACAD_REACTORS
330
F4C
102
}
330
F4C
100
AcDbXrecord
280
     1
102
RTVSPropertyOp0
 70
     1
102
RTVSPropertyOp1
 70
     1
102
RTVSPropertyOp2
 70
     1
102
RTVSPropertyOp3
 70
     1
102
RTVSPropertyOp4
 70
     1
102
RTVSPropertyOp5
 70
     1
102
RTVSPropertyOp6
 70
     1
102
RTVSPropertyOp7
 70
     1
102
RTVSPropertyOp8
 70
     1
102
RTVSPropertyOp9
 70
     1
102
RTVSPropertyOp10
 70
     1
102
RTVSPropertyOp11
 70
     1
102
RTVSPropertyOp12
 70
     1
102
RTVSPropertyOp13
 70
     1
102
RTVSPropertyOp14
 70
     1
102
RTVSPropertyOp15
 70
     1
102
RTVSPropertyOp16
 70
     1
102
RTVSPropertyOp17
 70
     1
102
RTVSPropertyOp18
 70
     1
102
RTVSPropertyOp19
 70
     1
102
RTVSPropertyOp20
 70
     1
102
RTVSPropertyOp21
 70
     1
102
RTVSPropertyOp22
 70
     1
102
RTVSPropertyOp23
 70
     1
102
RTVSPropertyOp24
 70
     1
102
RTVSPropertyOp25
 70
     1
102
RTVSPropertyOp26
 70
     1
102
RTVSPropertyOp27
 70
     1
102
RTVSPropertyOp28
 70
     1
102
RTVSPropertyOp29
 70
     1
102
RTVSPropertyOp30
 70
     1
102
RTVSPropertyOp31
 70
     1
102
RTVSPropertyOp32
 70
     1
  0
ENDSEC
  0
EOF
