  0
SECTION
  2
HEADER
  9
$ACADVER
  1
AC1015
  9
$ACADMAINTVER
 70
    20
  9
$DWGCODEPAGE
  3
ANSI_932
  9
$INSBASE
 10
0.0
 20
0.0
 30
0.0
  9
$EXTMIN
 10
1310.079525425283
 20
19.14526696441885
 30
-0.0000000349181948
  9
$EXTMAX
 10
1502.264603133216
 20
300.2975660267968
 30
0.0000000814935746
  9
$LIMMIN
 10
0.0
 20
0.0
  9
$LIMMAX
 10
12.0
 20
9.0
  9
$ORTHOMODE
 70
     1
  9
$REGENMODE
 70
     1
  9
$FILLMODE
 70
     1
  9
$QTEXTMODE
 70
     0
  9
$MIRRTEXT
 70
     0
  9
$LTSCALE
 40
0.2
  9
$ATTMODE
 70
     1
  9
$TEXTSIZE
 40
3.2
  9
$TRACEWID
 40
0.05
  9
$TEXTSTYLE
  7
高3.2
  9
$CLAYER
  8
0
  9
$CELTYPE
  6
ByLayer
  9
$CECOLOR
 62
   256
  9
$CELTSCALE
 40
1.0
  9
$DISPSILH
 70
     0
  9
$DIMSCALE
 40
1.0
  9
$DIMASZ
 40
2.5
  9
$DIMEXO
 40
0.25
  9
$DIMDLI
 40
0.2
  9
$DIMRND
 40
0.0
  9
$DIMDLE
 40
0.0
  9
$DIMEXE
 40
1.25
  9
$DIMTP
 40
0.0
  9
$DIMTM
 40
0.0
  9
$DIMTXT
 40
3.0
  9
$DIMCEN
 40
0.0
  9
$DIMTSZ
 40
0.0
  9
$DIMTOL
 70
     0
  9
$DIMLIM
 70
     0
  9
$DIMTIH
 70
     0
  9
$DIMTOH
 70
     0
  9
$DIMSE1
 70
     0
  9
$DIMSE2
 70
     0
  9
$DIMTAD
 70
     3
  9
$DIMZIN
 70
     8
  9
$DIMBLK
  1
Open30
  9
$DIMASO
 70
     1
  9
$DIMSHO
 70
     1
  9
$DIMPOST
  1

  9
$DIMAPOST
  1

  9
$DIMALT
 70
     0
  9
$DIMALTD
 70
     3
  9
$DIMALTF
 40
0.03937007874016
  9
$DIMLFAC
 40
1.0
  9
$DIMTOFL
 70
     1
  9
$DIMTVP
 40
0.0
  9
$DIMTIX
 70
     0
  9
$DIMSOXD
 70
     0
  9
$DIMSAH
 70
     0
  9
$DIMBLK1
  1

  9
$DIMBLK2
  1

  9
$DIMSTYLE
  2
1：1
  9
$DIMCLRD
 70
     0
  9
$DIMCLRE
 70
     0
  9
$DIMCLRT
 70
     4
  9
$DIMTFAC
 40
1.0
  9
$DIMGAP
 40
0.625
  9
$DIMJUST
 70
     0
  9
$DIMSD1
 70
     0
  9
$DIMSD2
 70
     0
  9
$DIMTOLJ
 70
     0
  9
$DIMTZIN
 70
     8
  9
$DIMALTZ
 70
     0
  9
$DIMALTTZ
 70
     0
  9
$DIMUPT
 70
     1
  9
$DIMDEC
 70
     2
  9
$DIMTDEC
 70
     2
  9
$DIMALTU
 70
     2
  9
$DIMALTTD
 70
     3
  9
$DIMTXSTY
  7
Standard
  9
$DIMAUNIT
 70
     0
  9
$DIMADEC
 70
     1
  9
$DIMALTRND
 40
0.0
  9
$DIMAZIN
 70
     2
  9
$DIMDSEP
 70
    46
  9
$DIMATFIT
 70
     0
  9
$DIMFRAC
 70
     0
  9
$DIMLDRBLK
  1
Open30
  9
$DIMLUNIT
 70
     2
  9
$DIMLWD
 70
    -2
  9
$DIMLWE
 70
    -2
  9
$DIMTMOVE
 70
     0
  9
$LUNITS
 70
     2
  9
$LUPREC
 70
     4
  9
$SKETCHINC
 40
0.1
  9
$FILLETRAD
 40
0.0
  9
$AUNITS
 70
     0
  9
$AUPREC
 70
     0
  9
$MENU
  1
.
  9
$ELEVATION
 40
0.0
  9
$PELEVATION
 40
0.0
  9
$THICKNESS
 40
0.0
  9
$LIMCHECK
 70
     0
  9
$CHAMFERA
 40
0.0
  9
$CHAMFERB
 40
0.0
  9
$CHAMFERC
 40
0.0
  9
$CHAMFERD
 40
0.0
  9
$SKPOLY
 70
     0
  9
$TDCREATE
 40
2457009.428817650
  9
$TDUCREATE
 40
2457009.053817651
  9
$TDUPDATE
 40
2457009.478211250
  9
$TDUUPDATE
 40
2457009.103211250
  9
$TDINDWG
 40
0.0493946296
  9
$TDUSRTIMER
 40
0.0493946065
  9
$USRTIMER
 70
     1
  9
$ANGBASE
 50
0.0
  9
$ANGDIR
 70
     0
  9
$PDMODE
 70
     0
  9
$PDSIZE
 40
0.0
  9
$PLINEWID
 40
0.0
  9
$SPLFRAME
 70
     0
  9
$SPLINETYPE
 70
     6
  9
$SPLINESEGS
 70
     8
  9
$HANDSEED
  5
19B1
  9
$SURFTAB1
 70
     6
  9
$SURFTAB2
 70
     6
  9
$SURFTYPE
 70
     6
  9
$SURFU
 70
     6
  9
$SURFV
 70
     6
  9
$UCSBASE
  2

  9
$UCSNAME
  2

  9
$UCSORG
 10
0.0
 20
0.0
 30
0.0
  9
$UCSXDIR
 10
1.0
 20
0.0
 30
0.0
  9
$UCSYDIR
 10
0.0
 20
1.0
 30
0.0
  9
$UCSORTHOREF
  2

  9
$UCSORTHOVIEW
 70
     0
  9
$UCSORGTOP
 10
0.0
 20
0.0
 30
0.0
  9
$UCSORGBOTTOM
 10
0.0
 20
0.0
 30
0.0
  9
$UCSORGLEFT
 10
0.0
 20
0.0
 30
0.0
  9
$UCSORGRIGHT
 10
0.0
 20
0.0
 30
0.0
  9
$UCSORGFRONT
 10
0.0
 20
0.0
 30
0.0
  9
$UCSORGBACK
 10
0.0
 20
0.0
 30
0.0
  9
$PUCSBASE
  2

  9
$PUCSNAME
  2

  9
$PUCSORG
 10
0.0
 20
0.0
 30
0.0
  9
$PUCSXDIR
 10
1.0
 20
0.0
 30
0.0
  9
$PUCSYDIR
 10
0.0
 20
1.0
 30
0.0
  9
$PUCSORTHOREF
  2

  9
$PUCSORTHOVIEW
 70
     0
  9
$PUCSORGTOP
 10
0.0
 20
0.0
 30
0.0
  9
$PUCSORGBOTTOM
 10
0.0
 20
0.0
 30
0.0
  9
$PUCSORGLEFT
 10
0.0
 20
0.0
 30
0.0
  9
$PUCSORGRIGHT
 10
0.0
 20
0.0
 30
0.0
  9
$PUCSORGFRONT
 10
0.0
 20
0.0
 30
0.0
  9
$PUCSORGBACK
 10
0.0
 20
0.0
 30
0.0
  9
$USERI1
 70
     0
  9
$USERI2
 70
     0
  9
$USERI3
 70
     0
  9
$USERI4
 70
     0
  9
$USERI5
 70
     0
  9
$USERR1
 40
0.0
  9
$USERR2
 40
0.0
  9
$USERR3
 40
0.0
  9
$USERR4
 40
0.0
  9
$USERR5
 40
0.0
  9
$WORLDVIEW
 70
     1
  9
$SHADEDGE
 70
     3
  9
$SHADEDIF
 70
    70
  9
$TILEMODE
 70
     1
  9
$MAXACTVP
 70
    64
  9
$PINSBASE
 10
0.0
 20
0.0
 30
0.0
  9
$PLIMCHECK
 70
     0
  9
$PEXTMIN
 10
0.0
 20
0.0
 30
0.0
  9
$PEXTMAX
 10
0.0
 20
0.0
 30
0.0
  9
$PLIMMIN
 10
0.0
 20
0.0
  9
$PLIMMAX
 10
12.0
 20
9.0
  9
$UNITMODE
 70
     0
  9
$VISRETAIN
 70
     1
  9
$PLINEGEN
 70
     0
  9
$PSLTSCALE
 70
     1
  9
$TREEDEPTH
 70
  3020
  9
$CMLSTYLE
  2
Standard
  9
$CMLJUST
 70
     0
  9
$CMLSCALE
 40
1.0
  9
$PROXYGRAPHICS
 70
     1
  9
$MEASUREMENT
 70
     1
  9
$CELWEIGHT
370
    -1
  9
$ENDCAPS
280
     0
  9
$JOINSTYLE
280
     0
  9
$LWDISPLAY
290
     0
  9
$INSUNITS
 70
     1
  9
$HYPERLINKBASE
  1

  9
$STYLESHEET
  1
n-plot.ctb
  9
$XEDIT
290
     1
  9
$CEPSNTYPE
380
     0
  9
$PSTYLEMODE
290
     1
  9
$FINGERPRINTGUID
  2
{A3828E67-5C93-438E-86F4-EE2F74B7E525}
  9
$VERSIONGUID
  2
{E713F171-A796-42EE-965B-5E7A42772BF3}
  9
$EXTNAMES
290
     1
  9
$PSVPSCALE
 40
0.0
  9
$OLESTARTUP
290
     0
  0
ENDSEC
  0
SECTION
  2
CLASSES
  0
CLASS
  1
ACDBDICTIONARYWDFLT
  2
AcDbDictionaryWithDefault
  3
ObjectDBX Classes
 90
        0
280
     0
281
     0
  0
CLASS
  1
ACDBPLACEHOLDER
  2
AcDbPlaceHolder
  3
ObjectDBX Classes
 90
        0
280
     0
281
     0
  0
CLASS
  1
LAYOUT
  2
AcDbLayout
  3
ObjectDBX Classes
 90
        0
280
     0
281
     0
  0
CLASS
  1
DICTIONARYVAR
  2
AcDbDictionaryVar
  3
ObjectDBX Classes
 90
        0
280
     0
281
     0
  0
CLASS
  1
TABLESTYLE
  2
AcDbTableStyle
  3
ObjectDBX Classes
 90
     4095
280
     0
281
     0
  0
CLASS
  1
MATERIAL
  2
AcDbMaterial
  3
ObjectDBX Classes
 90
     1153
280
     0
281
     0
  0
CLASS
  1
VISUALSTYLE
  2
AcDbVisualStyle
  3
ObjectDBX Classes
 90
     4095
280
     0
281
     0
  0
CLASS
  1
SORTENTSTABLE
  2
AcDbSortentsTable
  3
ObjectDBX Classes
 90
        0
280
     0
281
     0
  0
CLASS
  1
DIMASSOC
  2
AcDbDimAssoc
  3
"AcDbDimAssoc|Product Desc:     AcDim ARX App For Dimension|Company:          Autodesk, Inc.|WEB Address:      www.autodesk.com"
 90
        0
280
     0
281
     0
  0
CLASS
  1
SCALE
  2
AcDbScale
  3
ObjectDBX Classes
 90
     1153
280
     0
281
     0
  0
CLASS
  1
MLEADERSTYLE
  2
AcDbMLeaderStyle
  3
ACDB_MLEADERSTYLE_CLASS
 90
     4095
280
     0
281
     0
  0
CLASS
  1
CELLSTYLEMAP
  2
AcDbCellStyleMap
  3
ObjectDBX Classes
 90
     1152
280
     0
281
     0
  0
ENDSEC
  0
SECTION
  2
TABLES
  0
TABLE
  2
VPORT
  5
8
330
0
100
AcDbSymbolTable
 70
     1
  0
VPORT
  5
94
330
8
100
AcDbSymbolTableRecord
100
AcDbViewportTableRecord
  2
*Active
 70
     0
 10
0.0
 20
0.0
 11
1.0
 21
1.0
 12
1514.31111213366
 22
98.55712618653406
 13
0.0
 23
0.0
 14
0.5
 24
0.5
 15
0.5
 25
0.5
 16
0.0
 26
0.0
 36
1.0
 17
0.0
 27
0.0
 37
0.0
 40
480.6200655174721
 41
1.850393700787401
 42
50.0
 43
0.0
 44
0.0
 50
0.0
 51
0.0
 71
     0
 72
  1000
 73
     1
 74
     2
 75
     0
 76
     0
 77
     0
 78
     0
281
     0
 65
     1
110
0.0
120
0.0
130
0.0
111
1.0
121
0.0
131
0.0
112
0.0
122
1.0
132
0.0
 79
     0
146
0.0
  0
ENDTAB
  0
TABLE
  2
LTYPE
  5
5
330
0
100
AcDbSymbolTable
 70
     6
  0
LTYPE
  5
14
330
5
100
AcDbSymbolTableRecord
100
AcDbLinetypeTableRecord
  2
ByBlock
 70
     0
  3

 72
    65
 73
     0
 40
0.0
  0
LTYPE
  5
15
330
5
100
AcDbSymbolTableRecord
100
AcDbLinetypeTableRecord
  2
ByLayer
 70
     0
  3

 72
    65
 73
     0
 40
0.0
  0
LTYPE
  5
16
330
5
100
AcDbSymbolTableRecord
100
AcDbLinetypeTableRecord
  2
Continuous
 70
     0
  3
Solid line
 72
    65
 73
     0
 40
0.0
  0
LTYPE
  5
F7A
330
5
100
AcDbSymbolTableRecord
100
AcDbLinetypeTableRecord
  2
CENTER
 70
     0
  3
Center ____ _ ____ _ ____ _ ____ _ ____ _ ____
 72
    65
 73
     4
 40
50.8
 49
31.75
 74
     0
 49
-6.349999999999999
 74
     0
 49
6.349999999999999
 74
     0
 49
-6.349999999999999
 74
     0
  0
LTYPE
  5
F7B
330
5
100
AcDbSymbolTableRecord
100
AcDbLinetypeTableRecord
  2
HIDDEN
 70
     0
  3
Hidden __ __ __ __ __ __ __ __ __ __ __ __ __ _
 72
    65
 73
     2
 40
9.524999999999998
 49
6.349999999999999
 74
     0
 49
-3.174999999999999
 74
     0
  0
LTYPE
  5
F7C
330
5
100
AcDbSymbolTableRecord
100
AcDbLinetypeTableRecord
  2
PHANTOM
 70
     0
  3
Phantom ______  __  __  ______  __  __  ______
 72
    65
 73
     6
 40
63.5
 49
31.75
 74
     0
 49
-6.349999999999999
 74
     0
 49
6.349999999999999
 74
     0
 49
-6.349999999999999
 74
     0
 49
6.349999999999999
 74
     0
 49
-6.349999999999999
 74
     0
  0
ENDTAB
  0
TABLE
  2
LAYER
  5
2
102
{ACAD_XDICTIONARY
360
DD
102
}
330
0
100
AcDbSymbolTable
 70
     2
  0
LAYER
  5
10
102
{ACAD_XDICTIONARY
360
17A9
102
}
330
2
100
AcDbSymbolTableRecord
100
AcDbLayerTableRecord
  2
0
 70
     0
 62
     7
  6
Continuous
370
    -3
390
F
  0
LAYER
  5
D8
330
2
100
AcDbSymbolTableRecord
100
AcDbLayerTableRecord
  2
Defpoints
 70
     0
 62
     7
  6
Continuous
290
     0
370
    -3
390
F
  0
ENDTAB
  0
TABLE
  2
STYLE
  5
3
330
0
100
AcDbSymbolTable
 70
     9
  0
STYLE
  5
11
330
3
100
AcDbSymbolTableRecord
100
AcDbTextStyleTableRecord
  2
Standard
 70
     0
 40
0.0
 41
1.0
 50
0.0
 71
     0
 42
0.2
  3
txt.shx
  4
bigfont.shx
  0
STYLE
  5
11D
330
3
100
AcDbSymbolTableRecord
100
AcDbTextStyleTableRecord
  2
高3.2
 70
     0
 40
3.2
 41
1.0
 50
0.0
 71
     0
 42
3.2
  3
txt.shx
  4
bigfont.shx
  0
STYLE
  5
11E
330
3
100
AcDbSymbolTableRecord
100
AcDbTextStyleTableRecord
  2
高6.3
 70
     0
 40
6.299999999999999
 41
1.0
 50
0.0
 71
     0
 42
6.299999999999999
  3
txt.shx
  4
bigfont.shx
  0
STYLE
  5
11F
330
3
100
AcDbSymbolTableRecord
100
AcDbTextStyleTableRecord
  2
高2.5
 70
     0
 40
2.5
 41
1.0
 50
0.0
 71
     0
 42
0.2
  3
txt.shx
  4
bigfont.shx
  0
STYLE
  5
146
330
3
100
AcDbSymbolTableRecord
100
AcDbTextStyleTableRecord
  2
高4.5
 70
     0
 40
4.5
 41
1.0
 50
0.0
 71
     0
 42
6.299999999999999
  3
txt.shx
  4
bigfont.shx
  0
STYLE
  5
171
330
3
100
AcDbSymbolTableRecord
100
AcDbTextStyleTableRecord
  2
高2
 70
     0
 40
2.0
 41
1.0
 50
0.0
 71
     0
 42
6.299999999999999
  3
txt.shx
  4
bigfont.shx
  0
STYLE
  5
F79
330
3
100
AcDbSymbolTableRecord
100
AcDbTextStyleTableRecord
  2

 70
     1
 40
0.0
 41
1.0
 50
0.0
 71
     0
 42
6.299999999999999
  3
ltypeshp.shx
  4

  0
ENDTAB
  0
TABLE
  2
VIEW
  5
6
330
0
100
AcDbSymbolTable
 70
     0
  0
ENDTAB
  0
TABLE
  2
UCS
  5
7
330
0
100
AcDbSymbolTable
 70
     0
  0
ENDTAB
  0
TABLE
  2
APPID
  5
9
330
0
100
AcDbSymbolTable
 70
     9
  0
APPID
  5
12
330
9
100
AcDbSymbolTableRecord
100
AcDbRegAppTableRecord
  2
ACAD
 70
     0
  0
APPID
  5
DC
330
9
100
AcDbSymbolTableRecord
100
AcDbRegAppTableRecord
  2
ACAD_DSTYLE_DIMJOGGED_JOGANGLE_SYMBOL
 70
     0
  0
APPID
  5
566
330
9
100
AcDbSymbolTableRecord
100
AcDbRegAppTableRecord
  2
ACAD_EXEMPT_FROM_CAD_STANDARDS
 70
     0
  0
APPID
  5
647
330
9
100
AcDbSymbolTableRecord
100
AcDbRegAppTableRecord
  2
ACAD_DSTYLE_DIMJAG
 70
     0
  0
APPID
  5
648
330
9
100
AcDbSymbolTableRecord
100
AcDbRegAppTableRecord
  2
ACAD_DSTYLE_DIMBREAK
 70
     0
  0
APPID
  5
649
330
9
100
AcDbSymbolTableRecord
100
AcDbRegAppTableRecord
  2
ACAD_DSTYLE_DIMTALN
 70
     0
  0
APPID
  5
1999
330
9
100
AcDbSymbolTableRecord
100
AcDbRegAppTableRecord
  2
ACAD_DSTYLE_DIMARC_LENGTH_SYMBOL
 70
     0
  0
APPID
  5
199A
330
9
100
AcDbSymbolTableRecord
100
AcDbRegAppTableRecord
  2
ACAD_DSTYLE_DIMEXT_LENGTH
 70
     0
  0
APPID
  5
19AF
330
9
100
AcDbSymbolTableRecord
100
AcDbRegAppTableRecord
  2
ACAD_MLEADERVER
 70
     0
  0
ENDTAB
  0
TABLE
  2
DIMSTYLE
  5
A
330
0
100
AcDbSymbolTable
 70
    14
100
AcDbDimStyleTable
 71
     1
340
D9
  0
DIMSTYLE
105
D9
330
A
100
AcDbSymbolTableRecord
100
AcDbDimStyleTableRecord
  2
1：1
 70
     0
 41
2.5
 42
0.25
 43
0.2
 44
1.25
 73
     0
 74
     0
 77
     3
 78
     8
 79
     2
140
3.0
141
0.0
143
0.03937007874016
147
0.625
171
     3
172
     1
178
     4
179
     1
271
     2
272
     2
274
     3
283
     0
284
     8
288
     1
289
     0
340
11
341
C6
342
C6
1001
ACAD_DSTYLE_DIMARC_LENGTH_SYMBOL
1070
   379
1070
     2
1001
ACAD_DSTYLE_DIMEXT_LENGTH
1070
   378
1040
1.25
1001
ACAD_DSTYLE_DIMJOGGED_JOGANGLE_SYMBOL
1070
   384
1040
1.570796326794896
  0
DIMSTYLE
105
D8E
330
A
100
AcDbSymbolTableRecord
100
AcDbDimStyleTableRecord
  2
2：1
 70
     0
 41
2.5
 42
0.25
 43
0.2
 44
1.25
 73
     0
 74
     0
 77
     3
 78
     8
 79
     2
140
3.0
141
0.0
143
0.03937007874016
144
0.5
147
0.625
171
     3
172
     1
178
     4
179
     1
271
     2
272
     2
274
     3
283
     0
284
     8
288
     1
289
     0
340
11
341
C6
342
C6
1001
ACAD_DSTYLE_DIMARC_LENGTH_SYMBOL
1070
   379
1070
     2
1001
ACAD_DSTYLE_DIMEXT_LENGTH
1070
   378
1040
1.25
1001
ACAD_DSTYLE_DIMJOGGED_JOGANGLE_SYMBOL
1070
   384
1040
1.570796326794896
  0
DIMSTYLE
105
D8F
330
A
100
AcDbSymbolTableRecord
100
AcDbDimStyleTableRecord
  2
5：1
 70
     0
 41
2.5
 42
0.25
 43
0.2
 44
1.25
 73
     0
 74
     0
 77
     3
 78
     8
 79
     2
140
3.0
141
0.0
143
0.03937007874016
144
0.2
147
0.625
171
     3
172
     1
178
     4
179
     1
271
     2
272
     2
274
     3
283
     0
284
     8
288
     1
289
     0
340
11
341
C6
342
C6
1001
ACAD_DSTYLE_DIMARC_LENGTH_SYMBOL
1070
   379
1070
     2
1001
ACAD_DSTYLE_DIMEXT_LENGTH
1070
   378
1040
1.25
1001
ACAD_DSTYLE_DIMJOGGED_JOGANGLE_SYMBOL
1070
   384
1040
1.570796326794896
  0
DIMSTYLE
105
D90
330
A
100
AcDbSymbolTableRecord
100
AcDbDimStyleTableRecord
  2
10：1
 70
     0
 41
2.5
 42
0.25
 43
0.2
 44
1.25
 73
     0
 74
     0
 77
     3
 78
     8
 79
     2
140
3.0
141
0.0
143
0.03937007874016
144
0.1
147
0.625
171
     3
172
     1
178
     4
179
     1
271
     2
272
     2
274
     3
283
     0
284
     8
288
     1
289
     0
340
11
341
C6
342
C6
1001
ACAD_DSTYLE_DIMARC_LENGTH_SYMBOL
1070
   379
1070
     2
1001
ACAD_DSTYLE_DIMEXT_LENGTH
1070
   378
1040
1.25
1001
ACAD_DSTYLE_DIMJOGGED_JOGANGLE_SYMBOL
1070
   384
1040
1.570796326794896
  0
DIMSTYLE
105
D91
330
A
100
AcDbSymbolTableRecord
100
AcDbDimStyleTableRecord
  2
1／2
 70
     0
 41
2.5
 42
0.25
 43
0.2
 44
1.25
 73
     0
 74
     0
 77
     3
 78
     8
 79
     2
140
3.0
141
0.0
143
0.03937007874016
144
2.0
147
0.625
171
     3
172
     1
178
     4
179
     1
271
     2
272
     2
274
     3
283
     0
284
     8
288
     1
289
     0
340
11
341
C6
342
C6
1001
ACAD_DSTYLE_DIMARC_LENGTH_SYMBOL
1070
   379
1070
     2
1001
ACAD_DSTYLE_DIMEXT_LENGTH
1070
   378
1040
1.25
1001
ACAD_DSTYLE_DIMJOGGED_JOGANGLE_SYMBOL
1070
   384
1040
1.570796326794896
  0
DIMSTYLE
105
D92
330
A
100
AcDbSymbolTableRecord
100
AcDbDimStyleTableRecord
  2
1／5
 70
     0
 41
2.5
 42
0.25
 43
0.2
 44
1.25
 73
     0
 74
     0
 77
     3
 78
     8
 79
     2
140
3.0
141
0.0
143
0.03937007874016
144
5.0
147
0.625
171
     3
172
     1
178
     4
179
     1
271
     2
272
     2
274
     3
283
     0
284
     8
288
     1
289
     0
340
11
341
C6
342
C6
1001
ACAD_DSTYLE_DIMARC_LENGTH_SYMBOL
1070
   379
1070
     2
1001
ACAD_DSTYLE_DIMEXT_LENGTH
1070
   378
1040
1.25
1001
ACAD_DSTYLE_DIMJOGGED_JOGANGLE_SYMBOL
1070
   384
1040
1.570796326794896
  0
DIMSTYLE
105
D93
330
A
100
AcDbSymbolTableRecord
100
AcDbDimStyleTableRecord
  2
1／10
 70
     0
 41
2.5
 42
0.25
 43
0.2
 44
1.25
 73
     0
 74
     0
 77
     3
 78
     8
 79
     2
140
3.0
141
0.0
143
0.03937007874016
144
10.0
147
0.625
171
     3
172
     1
178
     4
179
     1
271
     2
272
     2
274
     3
283
     0
284
     8
288
     1
289
     0
340
11
341
C6
342
C6
1001
ACAD_DSTYLE_DIMARC_LENGTH_SYMBOL
1070
   379
1070
     2
1001
ACAD_DSTYLE_DIMEXT_LENGTH
1070
   378
1040
1.25
1001
ACAD_DSTYLE_DIMJOGGED_JOGANGLE_SYMBOL
1070
   384
1040
1.570796326794896
  0
DIMSTYLE
105
D94
330
A
100
AcDbSymbolTableRecord
100
AcDbDimStyleTableRecord
  2
1／4
 70
     0
 41
2.5
 42
0.25
 43
0.2
 44
1.25
 73
     0
 74
     0
 77
     3
 78
     8
 79
     2
140
3.0
141
0.0
143
0.03937007874016
144
4.0
147
0.625
171
     3
172
     1
178
     4
179
     1
271
     2
272
     2
274
     3
283
     0
284
     8
288
     1
289
     0
340
11
341
C6
342
C6
1001
ACAD_DSTYLE_DIMARC_LENGTH_SYMBOL
1070
   379
1070
     2
1001
ACAD_DSTYLE_DIMEXT_LENGTH
1070
   378
1040
1.25
1001
ACAD_DSTYLE_DIMJOGGED_JOGANGLE_SYMBOL
1070
   384
1040
1.570796326794896
  0
DIMSTYLE
105
D95
330
A
100
AcDbSymbolTableRecord
100
AcDbDimStyleTableRecord
  2
1／3
 70
     0
 41
2.5
 42
0.25
 43
0.2
 44
1.25
 73
     0
 74
     0
 77
     3
 78
     8
 79
     2
140
3.0
141
0.0
143
0.03937007874016
144
3.0
147
0.625
171
     3
172
     1
178
     4
179
     1
271
     2
272
     2
274
     3
283
     0
284
     8
288
     1
289
     0
340
11
341
C6
342
C6
1001
ACAD_DSTYLE_DIMARC_LENGTH_SYMBOL
1070
   379
1070
     2
1001
ACAD_DSTYLE_DIMEXT_LENGTH
1070
   378
1040
1.25
1001
ACAD_DSTYLE_DIMJOGGED_JOGANGLE_SYMBOL
1070
   384
1040
1.570796326794896
  0
DIMSTYLE
105
D96
330
A
100
AcDbSymbolTableRecord
100
AcDbDimStyleTableRecord
  2
FREE
 70
     0
 41
2.5
 42
0.25
 43
0.2
 44
1.25
 73
     0
 74
     0
 77
     3
 78
     8
 79
     2
140
3.0
141
0.0
143
0.03937007874016
147
0.625
171
     3
172
     1
178
     4
179
     1
271
     2
272
     2
274
     3
283
     0
284
     8
288
     1
289
     0
340
11
341
C6
342
C6
1001
ACAD_DSTYLE_DIMBREAK
1070
   391
1040
3.75
1001
ACAD_DSTYLE_DIMJAG
1070
   388
1040
1.5
1001
ACAD_DSTYLE_DIMTALN
1070
   392
1070
     0
1001
ACAD_DSTYLE_DIMARC_LENGTH_SYMBOL
1070
   379
1070
     2
1001
ACAD_DSTYLE_DIMEXT_LENGTH
1070
   378
1040
1.25
1001
ACAD_DSTYLE_DIMJOGGED_JOGANGLE_SYMBOL
1070
   384
1040
1.570796326794896
  0
DIMSTYLE
105
F83
330
A
100
AcDbSymbolTableRecord
100
AcDbDimStyleTableRecord
  2
ISO-25
 70
     0
 41
2.5
 42
0.625
 43
3.75
 44
1.25
 73
     0
 74
     0
 77
     1
 78
     8
140
2.5
141
2.5
143
0.03937007874016
147
0.625
171
     3
172
     1
271
     2
272
     2
274
     3
278
    44
283
     0
284
     8
340
11
  0
ENDTAB
  0
TABLE
  2
BLOCK_RECORD
  5
1
330
0
100
AcDbSymbolTable
 70
    16
  0
BLOCK_RECORD
  5
1F
102
{ACAD_XDICTIONARY
360
31A
102
}
330
1
100
AcDbSymbolTableRecord
100
AcDbBlockTableRecord
  2
*Model_Space
340
22
  0
BLOCK_RECORD
  5
58
330
1
100
AcDbSymbolTableRecord
100
AcDbBlockTableRecord
  2
*Paper_Space
340
59
  0
BLOCK_RECORD
  5
5D
330
1
100
AcDbSymbolTableRecord
100
AcDbBlockTableRecord
  2
*Paper_Space0
340
5E
  0
BLOCK_RECORD
  5
C6
330
1
100
AcDbSymbolTableRecord
100
AcDbBlockTableRecord
  2
_Open30
340
0
102
{BLKREFS
331
12AF
331
12B0
331
12D0
331
12D1
331
1304
331
1305
331
1646
331
1647
331
1659
331
165A
331
167A
331
167B
331
16A1
331
16A2
331
16CC
331
16CD
102
}
  0
BLOCK_RECORD
  5
C34
102
{ACAD_XDICTIONARY
360
CFF
102
}
330
1
100
AcDbSymbolTableRecord
100
AcDbBlockTableRecord
  2
A$C369B3533
340
0
1001
ACAD
1000
DesignCenter Data
1002
{
1070
     1
1070
     1
1002
}
  0
BLOCK_RECORD
  5
1295
330
1
100
AcDbSymbolTableRecord
100
AcDbBlockTableRecord
  2
*D4
340
0
  0
BLOCK_RECORD
  5
12B6
330
1
100
AcDbSymbolTableRecord
100
AcDbBlockTableRecord
  2
*D5
340
0
  0
BLOCK_RECORD
  5
12EE
330
1
100
AcDbSymbolTableRecord
100
AcDbBlockTableRecord
  2
*D8
340
0
  0
BLOCK_RECORD
  5
161E
330
1
100
AcDbSymbolTableRecord
100
AcDbBlockTableRecord
  2
*D10
340
0
  0
BLOCK_RECORD
  5
1636
330
1
100
AcDbSymbolTableRecord
100
AcDbBlockTableRecord
  2
*D11
340
0
  0
BLOCK_RECORD
  5
1660
330
1
100
AcDbSymbolTableRecord
100
AcDbBlockTableRecord
  2
*D12
340
0
  0
BLOCK_RECORD
  5
1681
330
1
100
AcDbSymbolTableRecord
100
AcDbBlockTableRecord
  2
*D13
340
0
  0
BLOCK_RECORD
  5
16A8
330
1
100
AcDbSymbolTableRecord
100
AcDbBlockTableRecord
  2
*D14
340
0
  0
ENDTAB
  0
ENDSEC
  0
SECTION
  2
BLOCKS
  0
BLOCK
  5
20
330
1F
100
AcDbEntity
  8
0
100
AcDbBlockBegin
  2
*Model_Space
 70
     0
 10
0.0
 20
0.0
 30
0.0
  3
*Model_Space
  1

  0
ENDBLK
  5
21
330
1F
100
AcDbEntity
  8
0
100
AcDbBlockEnd
  0
BLOCK
  5
5A
330
58
100
AcDbEntity
 67
     1
  8
0
100
AcDbBlockBegin
  2
*Paper_Space
 70
     0
 10
0.0
 20
0.0
 30
0.0
  3
*Paper_Space
  1

  0
ENDBLK
  5
5B
330
58
100
AcDbEntity
 67
     1
  8
0
100
AcDbBlockEnd
  0
BLOCK
  5
5F
330
5D
100
AcDbEntity
 67
     1
  8
0
100
AcDbBlockBegin
  2
*Paper_Space0
 70
     0
 10
0.0
 20
0.0
 30
0.0
  3
*Paper_Space0
  1

  0
ENDBLK
  5
60
330
5D
100
AcDbEntity
 67
     1
  8
0
100
AcDbBlockEnd
  0
BLOCK
  5
C7
330
C6
100
AcDbEntity
  8
0
100
AcDbBlockBegin
  2
_Open30
 70
     0
 10
0.0
 20
0.0
 30
0.0
  3
_Open30
  1

  0
LINE
  5
C8
330
C6
100
AcDbEntity
  8
0
  6
ByBlock
 62
     0
370
    -2
100
AcDbLine
 10
-1.0
 20
0.267949
 30
0.0
 11
0.0
 21
0.0
 31
0.0
  0
LINE
  5
C9
330
C6
100
AcDbEntity
  8
0
  6
ByBlock
 62
     0
370
    -2
100
AcDbLine
 10
0.0
 20
0.0
 30
0.0
 11
-1.0
 21
-0.267949
 31
0.0
  0
LINE
  5
CA
330
C6
100
AcDbEntity
  8
0
  6
ByBlock
 62
     0
370
    -2
100
AcDbLine
 10
0.0
 20
0.0
 30
0.0
 11
-1.0
 21
0.0
 31
0.0
  0
ENDBLK
  5
CB
330
C6
100
AcDbEntity
  8
0
100
AcDbBlockEnd
  0
BLOCK
  5
D01
330
C34
100
AcDbEntity
  8
0
100
AcDbBlockBegin
  2
A$C369B3533
 70
     0
 10
0.0
 20
0.0
 30
0.0
  3
A$C369B3533
  1

  0
LINE
  5
C35
330
C34
100
AcDbEntity
  8
0
 62
     3
100
AcDbLine
 10
8.487927449920789
 20
138.4999996444132
 30
0.0
 11
8.000000619920911
 21
138.4999996444132
 31
0.0
  0
LINE
  5
C36
330
C34
100
AcDbEntity
  8
0
 62
     3
100
AcDbLine
 10
20.00000061992091
 20
276.9999996444133
 30
0.0
 11
20.00000061992091
 21
-0.0000003555867352
 31
0.0
  0
LINE
  5
C37
330
C34
100
AcDbEntity
  8
0
 62
   254
100
AcDbLine
 10
0.000000619920911
 20
286.9999996444132
 30
0.0
 11
0.000000619920911
 21
-0.0000003555867352
 31
0.0
  0
LINE
  5
C38
330
C34
100
AcDbEntity
  8
0
 62
     3
100
AcDbLine
 10
200.0000006199209
 20
-0.0000003555867352
 30
0.0
 11
200.0000006199209
 21
276.9999996444133
 31
0.0
  0
LINE
  5
C39
330
C34
100
AcDbEntity
  8
0
 62
     3
100
AcDbLine
 10
20.00000061992091
 20
-0.0000003555867352
 30
0.0
 11
200.0000006199209
 21
-0.0000003555867352
 31
0.0
  0
LINE
  5
C3A
330
C34
100
AcDbEntity
  8
0
 62
     3
100
AcDbLine
 10
57.08435263992078
 20
278.7874437444133
 30
0.0
 11
57.52010054992092
 21
278.5599756044133
 31
0.0
  0
LINE
  5
C3B
330
C34
100
AcDbEntity
  8
0
 62
     3
100
AcDbLine
 10
57.08435263992078
 20
275.0568132644133
 30
0.0
 11
57.52010054992092
 21
275.2842814044133
 31
0.0
  0
LINE
  5
C3C
330
C34
100
AcDbEntity
  8
0
 62
     3
100
AcDbLine
 10
57.52010054992092
 20
278.5599756044133
 30
0.0
 11
57.52010054992092
 21
275.2842814044133
 31
0.0
  0
LINE
  5
C3D
330
C34
100
AcDbEntity
  8
0
 62
     3
100
AcDbLine
 10
58.62361796992082
 20
275.0568132644133
 30
0.0
 11
58.18787005992067
 21
275.2842814044133
 31
0.0
  0
LINE
  5
C3E
330
C34
100
AcDbEntity
  8
0
 62
     3
100
AcDbLine
 10
58.18787005992067
 20
277.2811402144133
 30
0.0
 11
58.18787005992067
 21
275.2842814044133
 31
0.0
  0
LINE
  5
C3F
330
C34
100
AcDbEntity
  8
0
 62
     3
100
AcDbLine
 10
61.16548074992079
 20
278.7874437444133
 30
0.0
 11
60.72973283992087
 21
278.5599756044133
 31
0.0
  0
LINE
  5
C40
330
C34
100
AcDbEntity
  8
0
 62
     3
100
AcDbLine
 10
59.62621541992075
 20
278.7874437444133
 30
0.0
 11
60.06196332992089
 21
278.5599756044133
 31
0.0
  0
LINE
  5
C41
330
C34
100
AcDbEntity
  8
0
 62
     3
100
AcDbLine
 10
60.06196332992089
 20
278.5599756044133
 30
0.0
 11
60.06196332992089
 21
277.1176385444132
 31
0.0
  0
LINE
  5
C42
330
C34
100
AcDbEntity
  8
0
 62
     3
100
AcDbLine
 10
60.72973283992087
 20
278.5599756044133
 30
0.0
 11
60.72973283992087
 21
274.8452521244133
 31
0.0
  0
LINE
  5
C43
330
C34
100
AcDbEntity
  8
0
 62
     3
100
AcDbLine
 10
61.38077794992091
 20
278.7874411144132
 30
0.0
 11
61.81652428992084
 21
278.5599699744133
 31
0.0
  0
LINE
  5
C44
330
C34
100
AcDbEntity
  8
0
 62
     3
100
AcDbLine
 10
61.38069997992079
 20
275.0568632444133
 30
0.0
 11
61.81645582992087
 21
275.2843161644133
 31
0.0
  0
LINE
  5
C45
330
C34
100
AcDbEntity
  8
0
 62
     3
100
AcDbLine
 10
61.81652428992084
 20
278.5599699744133
 30
0.0
 11
61.81652428992084
 21
275.2843161644133
 31
0.0
  0
LINE
  5
C46
330
C34
100
AcDbEntity
  8
0
 62
     3
100
AcDbLine
 10
63.31031434992087
 20
278.7874174444132
 30
0.0
 11
62.87456325992093
 21
278.5599554144133
 31
0.0
  0
LINE
  5
C47
330
C34
100
AcDbEntity
  8
0
 62
     3
100
AcDbLine
 10
62.87456325992093
 20
278.5599554144133
 30
0.0
 11
62.87456325992093
 21
275.2843015944133
 31
0.0
  0
LINE
  5
C48
330
C34
100
AcDbEntity
  8
0
 62
     3
100
AcDbLine
 10
63.31031434992087
 20
275.0568395644133
 30
0.0
 11
62.87456325992093
 21
275.2843015944133
 31
0.0
  0
LINE
  5
C49
330
C34
100
AcDbEntity
  8
0
 62
     3
100
AcDbLine
 10
67.00056778992075
 20
278.7873764444133
 30
0.0
 11
67.43631490992084
 21
278.5599068044132
 31
0.0
  0
LINE
  5
C4A
330
C34
100
AcDbEntity
  8
0
 62
     3
100
AcDbLine
 10
67.43631490992084
 20
278.5599068044132
 30
0.0
 11
67.43625773992085
 21
275.2842529944132
 31
0.0
  0
LINE
  5
C4B
330
C34
100
AcDbEntity
  8
0
 62
     3
100
AcDbLine
 10
67.00050267992082
 20
275.0567985644133
 30
0.0
 11
67.43625773992085
 21
275.2842529944132
 31
0.0
  0
LINE
  5
C4C
330
C34
100
AcDbEntity
  8
0
 62
     3
100
AcDbLine
 10
68.95282874992085
 20
278.7873764444133
 30
0.0
 11
68.51708162992077
 21
278.5599068044132
 31
0.0
  0
LINE
  5
C4D
330
C34
100
AcDbEntity
  8
0
 62
     3
100
AcDbLine
 10
68.95289385992078
 20
275.0567985644133
 30
0.0
 11
68.51713879992075
 21
275.2842529944132
 31
0.0
  0
LINE
  5
C4E
330
C34
100
AcDbEntity
  8
0
 62
     3
100
AcDbLine
 10
69.15655660992093
 20
278.7873764444133
 30
0.0
 11
69.59230373992091
 21
278.5599068044132
 31
0.0
  0
LINE
  5
C4F
330
C34
100
AcDbEntity
  8
0
 62
     3
100
AcDbLine
 10
69.15649149992077
 20
275.0567985644133
 30
0.0
 11
69.5922465599208
 21
275.2842529944132
 31
0.0
  0
LINE
  5
C50
330
C34
100
AcDbEntity
  8
0
 62
     3
100
AcDbLine
 10
71.1088175799207
 20
278.7873764444133
 30
0.0
 11
70.67307045992084
 21
278.5599068044132
 31
0.0
  0
LINE
  5
C51
330
C34
100
AcDbEntity
  8
0
 62
     3
100
AcDbLine
 10
70.67307045992084
 20
278.5599068044132
 30
0.0
 11
70.67312762992083
 21
275.2842529944132
 31
0.0
  0
LINE
  5
C52
330
C34
100
AcDbEntity
  8
0
 62
     3
100
AcDbLine
 10
71.10888268992084
 20
275.0567985644133
 30
0.0
 11
70.67312762992083
 21
275.2842529944132
 31
0.0
  0
LINE
  5
C53
330
C34
100
AcDbEntity
  8
0
 62
     3
100
AcDbLine
 10
69.59227882992081
 20
277.1327736844132
 30
0.0
 11
68.51710653992086
 21
277.1327736844132
 31
0.0
  0
LINE
  5
C54
330
C34
100
AcDbEntity
  8
0
 62
     3
100
AcDbLine
 10
69.59227146992066
 20
276.7114833244133
 30
0.0
 11
68.51711388992066
 21
276.7114833244133
 31
0.0
  0
LINE
  5
C55
330
C34
100
AcDbEntity
  8
0
 62
     3
100
AcDbLine
 10
69.59230373992091
 20
278.5599068044132
 30
0.0
 11
69.59227882992081
 21
277.1327736844132
 31
0.0
  0
LINE
  5
C56
330
C34
100
AcDbEntity
  8
0
 62
     3
100
AcDbLine
 10
69.59227146992066
 20
276.7114833244133
 30
0.0
 11
69.5922465599208
 21
275.2842529944132
 31
0.0
  0
LINE
  5
C57
330
C34
100
AcDbEntity
  8
0
 62
     3
100
AcDbLine
 10
68.51708162992077
 20
278.5599068044132
 30
0.0
 11
68.51710653992086
 21
277.1327736844132
 31
0.0
  0
LINE
  5
C58
330
C34
100
AcDbEntity
  8
0
 62
     3
100
AcDbLine
 10
68.51711388992066
 20
276.7114833244133
 30
0.0
 11
68.51713879992075
 21
275.2842529944132
 31
0.0
  0
LINE
  5
C59
330
C34
100
AcDbEntity
  8
0
 62
     3
100
AcDbLine
 10
71.31577669992089
 20
278.7873764444133
 30
0.0
 11
71.75152381992075
 21
278.5599068044132
 31
0.0
  0
LINE
  5
C5A
330
C34
100
AcDbEntity
  8
0
 62
     3
100
AcDbLine
 10
71.75152381992075
 20
278.5599068044132
 30
0.0
 11
71.75146664992076
 21
275.2842529944132
 31
0.0
  0
LINE
  5
C5B
330
C34
100
AcDbEntity
  8
0
 62
     3
100
AcDbLine
 10
71.31571158992073
 20
275.0567985644133
 30
0.0
 11
71.75146664992076
 21
275.2842529944132
 31
0.0
  0
LINE
  5
C5C
330
C34
100
AcDbEntity
  8
0
 62
     3
100
AcDbLine
 10
73.2452869699207
 20
278.7873764444133
 30
0.0
 11
72.80953984992084
 21
278.5599068044132
 31
0.0
  0
LINE
  5
C5D
330
C34
100
AcDbEntity
  8
0
 62
     3
100
AcDbLine
 10
72.80953984992084
 20
278.5599068044132
 30
0.0
 11
72.80959701992083
 21
275.2842529944132
 31
0.0
  0
LINE
  5
C5E
330
C34
100
AcDbEntity
  8
0
 62
     3
100
AcDbLine
 10
73.24535207992084
 20
275.0567985644133
 30
0.0
 11
72.80959701992083
 21
275.2842529944132
 31
0.0
  0
LINE
  5
C5F
330
C34
100
AcDbEntity
  8
0
 62
     3
100
AcDbLine
 10
73.45964653992087
 20
278.7873764444133
 30
0.0
 11
73.89539365992073
 21
278.5599068044132
 31
0.0
  0
LINE
  5
C60
330
C34
100
AcDbEntity
  8
0
 62
     3
100
AcDbLine
 10
73.89539365992073
 20
278.5599068044132
 30
0.0
 11
73.89533648992074
 21
275.2842529944132
 31
0.0
  0
LINE
  5
C61
330
C34
100
AcDbEntity
  8
0
 62
     3
100
AcDbLine
 10
73.45958142992071
 20
275.0567985644133
 30
0.0
 11
73.89533648992074
 21
275.2842529944132
 31
0.0
  0
ARC
  5
C62
330
C34
100
AcDbEntity
  8
0
 62
     3
100
AcDbCircle
 10
65.60865651992094
 20
276.9315182644133
 30
0.0
 40
2.086285909999999
100
AcDbArc
 50
97.70152350999723
 51
270.0
  0
ARC
  5
C63
330
C34
100
AcDbEntity
  8
0
 62
     3
100
AcDbCircle
 10
78.48925735992065
 20
276.9105616344133
 30
0.0
 40
2.108943379999999
100
AcDbArc
 50
0.314250269999259
 51
69.00558244998928
  0
ARC
  5
C64
330
C34
100
AcDbEntity
  8
0
 62
     3
100
AcDbCircle
 10
78.94993267992072
 20
276.9105616344133
 30
0.0
 40
2.108943379999999
100
AcDbArc
 50
110.9944175499969
 51
148.1166110200049
  0
ARC
  5
C65
330
C34
100
AcDbEntity
  8
0
 62
     3
100
AcDbCircle
 10
78.48925735992065
 20
276.9336953744133
 30
0.0
 40
2.108943379999999
100
AcDbArc
 50
290.9944175499969
 51
359.6857497300005
  0
ARC
  5
C66
330
C34
100
AcDbEntity
  8
0
 62
     3
100
AcDbCircle
 10
78.94993267992072
 20
276.9336953744133
 30
0.0
 40
2.108943379999999
100
AcDbArc
 50
211.8833889799949
 51
249.0055824499893
  0
ARC
  5
C67
330
C34
100
AcDbEntity
  8
0
 62
     3
100
AcDbCircle
 10
78.71959501992091
 20
277.7849338944132
 30
0.0
 40
1.214070989999999
100
AcDbArc
 50
64.36517189999968
 51
115.6348281000003
  0
ARC
  5
C68
330
C34
100
AcDbEntity
  8
0
 62
     3
100
AcDbCircle
 10
78.71959501992091
 20
276.0593231144132
 30
0.0
 40
1.214070989999999
100
AcDbArc
 50
244.3651718999997
 51
295.6348281000003
  0
ARC
  5
C69
330
C34
100
AcDbEntity
  8
0
 62
     3
100
AcDbCircle
 10
78.71959501992091
 20
277.8079955744133
 30
0.0
 40
0.59585563
100
AcDbArc
 50
19.48660554000477
 51
160.5133944599952
  0
ARC
  5
C6A
330
C34
100
AcDbEntity
  8
0
 62
     3
100
AcDbCircle
 10
78.71959501992091
 20
276.0593231144132
 30
0.0
 40
1.214070989999999
100
AcDbArc
 50
244.3651718999997
 51
295.6348281000003
  0
ARC
  5
C6B
330
C34
100
AcDbEntity
  8
0
 62
     3
100
AcDbCircle
 10
78.71959501992091
 20
276.0362614344133
 30
0.0
 40
0.59585563
100
AcDbArc
 50
199.4866055400047
 51
340.513394459995
  0
ARC
  5
C6C
330
C34
100
AcDbEntity
  8
0
 62
     3
100
AcDbCircle
 10
73.97712251992084
 20
254.6940686644133
 30
0.0
 40
26.04
100
AcDbArc
 50
69.50571480000833
 51
81.68998806999736
  0
ARC
  5
C6D
330
C34
100
AcDbEntity
  8
0
 62
     3
100
AcDbCircle
 10
73.97712251992084
 20
299.1501883444133
 30
0.0
 40
26.04
100
AcDbArc
 50
278.3100119300026
 51
290.4942851999917
  0
ARC
  5
C6E
330
C34
100
AcDbEntity
  8
0
 62
     3
100
AcDbCircle
 10
82.28532664992076
 20
276.9221285044133
 30
0.0
 40
2.31
100
AcDbArc
 50
290.4942851999917
 51
69.50571480000833
  0
ARC
  5
C6F
330
C34
100
AcDbEntity
  8
0
 62
     3
100
AcDbCircle
 10
54.9853266499208
 20
276.9221285044133
 30
0.0
 40
2.31
100
AcDbArc
 50
110.4942851999916
 51
249.5057147999945
  0
ARC
  5
C70
330
C34
100
AcDbEntity
  8
0
 62
     3
100
AcDbCircle
 10
63.29353076992084
 20
254.6940686644133
 30
0.0
 40
26.04
100
AcDbArc
 50
98.31001192998947
 51
110.4942851999916
  0
ARC
  5
C71
330
C34
100
AcDbEntity
  8
0
 62
     3
100
AcDbCircle
 10
63.29353076992084
 20
299.1501883444133
 30
0.0
 40
26.04
100
AcDbArc
 50
249.5057147999945
 51
261.6899880699973
  0
ARC
  5
C72
330
C34
100
AcDbEntity
  8
0
 62
     3
100
AcDbCircle
 10
68.63532664992067
 20
218.1221285044133
 30
0.0
 40
62.99999987
100
AcDbArc
 50
81.68998806999736
 51
98.31001192998947
  0
ARC
  5
C73
330
C34
100
AcDbEntity
  8
0
 62
     3
100
AcDbCircle
 10
68.63532664992067
 20
335.7221285044133
 30
0.0
 40
62.99999987
100
AcDbArc
 50
261.6899880699973
 51
278.3100119300026
  0
ARC
  5
C74
330
C34
100
AcDbEntity
  8
0
 62
     3
100
AcDbCircle
 10
68.63532664992067
 20
218.1221285044133
 30
0.0
 40
62.36999987
100
AcDbArc
 50
81.68998806999736
 51
98.31001192998947
  0
ARC
  5
C75
330
C34
100
AcDbEntity
  8
0
 62
     3
100
AcDbCircle
 10
68.63532664992067
 20
335.7221285044133
 30
0.0
 40
62.36999987
100
AcDbArc
 50
261.6899880699973
 51
278.3100119300026
  0
ARC
  5
C76
330
C34
100
AcDbEntity
  8
0
 62
     3
100
AcDbCircle
 10
73.97712251992084
 20
299.1501883444133
 30
0.0
 40
25.41
100
AcDbArc
 50
278.3100119300026
 51
290.4942851999917
  0
ARC
  5
C77
330
C34
100
AcDbEntity
  8
0
 62
     3
100
AcDbCircle
 10
73.97712251992084
 20
254.6940686644133
 30
0.0
 40
25.41
100
AcDbArc
 50
69.50571480000833
 51
81.68998806999736
  0
ARC
  5
C78
330
C34
100
AcDbEntity
  8
0
 62
     3
100
AcDbCircle
 10
82.28532664992076
 20
276.9221285044133
 30
0.0
 40
1.679999999999999
100
AcDbArc
 50
290.4942851999917
 51
69.50571480000833
  0
ARC
  5
C79
330
C34
100
AcDbEntity
  8
0
 62
     3
100
AcDbCircle
 10
54.9853266499208
 20
276.9221285044133
 30
0.0
 40
1.679999999999999
100
AcDbArc
 50
110.4942851999916
 51
249.5057147999945
  0
ARC
  5
C7A
330
C34
100
AcDbEntity
  8
0
 62
     3
100
AcDbCircle
 10
63.29353076992084
 20
254.6940686644133
 30
0.0
 40
25.41
100
AcDbArc
 50
98.31001192998947
 51
110.4942851999916
  0
ARC
  5
C7B
330
C34
100
AcDbEntity
  8
0
 62
     3
100
AcDbCircle
 10
63.29353076992084
 20
299.1501883444133
 30
0.0
 40
25.41
100
AcDbArc
 50
249.5057147999945
 51
261.6899880699973
  0
LINE
  5
C7C
330
C34
100
AcDbEntity
  8
0
 62
     3
100
AcDbLine
 10
73.24528774992086
 20
274.8452521244133
 30
0.0
 11
71.31577591992073
 21
274.8452521244133
 31
0.0
  0
LINE
  5
C7D
330
C34
100
AcDbEntity
  8
0
 62
     3
100
AcDbLine
 10
73.24528774992086
 20
275.0568132644133
 30
0.0
 11
73.24528774992086
 21
274.8452521244133
 31
0.0
  0
LINE
  5
C7E
330
C34
100
AcDbEntity
  8
0
 62
     3
100
AcDbLine
 10
71.10881835992086
 20
278.9989061644133
 30
0.0
 11
69.15655582992076
 21
278.9989061644133
 31
0.0
  0
LINE
  5
C7F
330
C34
100
AcDbEntity
  8
0
 62
     3
100
AcDbLine
 10
71.10881835992086
 20
278.9989061644133
 30
0.0
 11
71.10881835992086
 21
278.7874437444133
 31
0.0
  0
LINE
  5
C80
330
C34
100
AcDbEntity
  8
0
 62
     3
100
AcDbLine
 10
71.10881835992086
 20
275.0568132644133
 30
0.0
 11
71.10881835992086
 21
274.8451534144133
 31
0.0
  0
LINE
  5
C81
330
C34
100
AcDbEntity
  8
0
 62
     3
100
AcDbLine
 10
71.10881835992086
 20
274.8451534144133
 30
0.0
 11
69.15655582992076
 21
274.8451534144133
 31
0.0
  0
LINE
  5
C82
330
C34
100
AcDbEntity
  8
0
 62
     3
100
AcDbLine
 10
73.24528774992086
 20
278.9990048844132
 30
0.0
 11
73.24528774992086
 21
278.7874437444133
 31
0.0
  0
LINE
  5
C83
330
C34
100
AcDbEntity
  8
0
 62
     3
100
AcDbLine
 10
73.24528774992086
 20
278.9990048844132
 30
0.0
 11
71.31577591992073
 21
278.9990048844132
 31
0.0
  0
LINE
  5
C84
330
C34
100
AcDbEntity
  8
0
 62
     3
100
AcDbLine
 10
71.31577591992073
 20
278.9990048844132
 30
0.0
 11
71.31577591992073
 21
278.7874437444133
 31
0.0
  0
LINE
  5
C85
330
C34
100
AcDbEntity
  8
0
 62
     3
100
AcDbLine
 10
73.4596457499208
 20
275.0568132644133
 30
0.0
 11
73.4596457499208
 21
274.8452521244133
 31
0.0
  0
LINE
  5
C86
330
C34
100
AcDbEntity
  8
0
 62
     3
100
AcDbLine
 10
75.44394630992087
 20
274.8452521244133
 30
0.0
 11
73.4596457499208
 21
274.8452521244133
 31
0.0
  0
LINE
  5
C87
330
C34
100
AcDbEntity
  8
0
 62
     3
100
AcDbLine
 10
74.95340967992092
 20
278.3312353644133
 30
0.0
 11
74.95340967992092
 21
275.5130216444133
 31
0.0
  0
LINE
  5
C88
330
C34
100
AcDbEntity
  8
0
 62
     3
100
AcDbLine
 10
74.95340967992092
 20
275.5130216444133
 30
0.0
 11
75.14345864992083
 21
275.5130216444133
 31
0.0
  0
ARC
  5
C89
330
C34
100
AcDbEntity
  8
0
 62
     3
100
AcDbCircle
 10
74.17167290992074
 20
276.9221285044133
 30
0.0
 40
1.71170957
100
AcDbArc
 50
304.5919552700024
 51
55.40804472999759
  0
LINE
  5
C8A
330
C34
100
AcDbEntity
  8
0
 62
     3
100
AcDbLine
 10
75.44394630992087
 20
278.9990048844132
 30
0.0
 11
73.4596457499208
 21
278.9990048844132
 31
0.0
  0
LINE
  5
C8B
330
C34
100
AcDbEntity
  8
0
 62
     3
100
AcDbLine
 10
73.4596457499208
 20
278.9990048844132
 30
0.0
 11
73.4596457499208
 21
278.7874437444133
 31
0.0
  0
LINE
  5
C8C
330
C34
100
AcDbEntity
  8
0
 62
     3
100
AcDbLine
 10
71.31577591992073
 20
275.0568132644133
 30
0.0
 11
71.31577591992073
 21
274.8452521244133
 31
0.0
  0
LINE
  5
C8D
330
C34
100
AcDbEntity
  8
0
 62
     3
100
AcDbLine
 10
74.95340967992092
 20
278.3312353644133
 30
0.0
 11
75.14345864992083
 21
278.3312353644133
 31
0.0
  0
LINE
  5
C8E
330
C34
100
AcDbEntity
  8
0
 62
     3
100
AcDbLine
 10
63.31025001992088
 20
275.0568132644133
 30
0.0
 11
63.3102463299208
 21
274.8452323544133
 31
0.0
  0
LINE
  5
C8F
330
C34
100
AcDbEntity
  8
0
 62
     3
100
AcDbLine
 10
61.38073448992077
 20
274.8452718944133
 30
0.0
 11
63.3102463299208
 21
274.8452382244133
 31
0.0
  0
LINE
  5
C90
330
C34
100
AcDbEntity
  8
0
 62
     3
100
AcDbLine
 10
57.08435263992078
 20
274.8452521244133
 30
0.0
 11
58.62361796992082
 21
274.8452521244133
 31
0.0
  0
ARC
  5
C91
330
C34
100
AcDbEntity
  8
0
 62
     3
100
AcDbCircle
 10
52.1024099599208
 20
276.9710351244133
 30
0.0
 40
14.71356563
100
AcDbArc
 50
353.8660061899987
 51
357.6940342600003
  0
LINE
  5
C92
330
C34
100
AcDbEntity
  8
0
 62
     3
100
AcDbLine
 10
65.81898981992094
 20
276.3826674744133
 30
0.0
 11
66.80406070992081
 21
276.3790225944133
 31
0.0
  0
LWPOLYLINE
  5
C93
330
C34
100
AcDbEntity
  8
0
 62
     3
100
AcDbPolyline
 90
       64
 70
     0
 43
0.0
 10
65.82296823992078
 20
277.4578822144133
 10
65.80434070992078
 20
277.5771499844132
 10
65.78196952992084
 20
277.6913547644133
 10
65.75602759992079
 20
277.7996138244132
 10
65.72671545992079
 20
277.9010903744132
 10
65.69425964992092
 20
277.9950000544133
 10
65.65891105992091
 20
278.0806169944133
 10
65.62094290992082
 20
278.1572794044133
 10
65.58064865992083
 20
278.2243947444133
 10
65.53833978992066
 20
278.2814442344132
 10
65.49434329992073
 20
278.3279869044132
 10
65.44899927992083
 20
278.3636630244132
 10
65.40265820992067
 20
278.3881968144133
 10
65.35567826992087
 20
278.4013986644132
 10
65.30842260992085
 20
278.4031665044133
 10
65.2612564799208
 20
278.3934866944132
 10
65.21454444992082
 20
278.3724340344132
 10
65.16864758992074
 20
278.3401712644133
 10
65.12392064992082
 20
278.2969477544133
 10
65.08070933992076
 20
278.2430975944133
 10
65.03934767992086
 20
278.1790370244133
 10
65.00015535992066
 20
278.1052612044133
 10
64.96343531992079
 20
278.0223403744133
 10
64.92947138992076
 20
277.9309154644133
 10
64.89852608992078
 20
277.8316931644133
 10
64.87083860992084
 20
277.7254403944132
 10
64.84662295992075
 20
277.6129784344133
 10
64.82606631992076
 20
277.4951765544133
 10
64.80932757992082
 20
277.3729453144133
 10
64.7965361199208
 20
277.2472294944133
 10
64.7877908099208
 20
277.1190008144133
 10
64.7831592499208
 20
276.9892504044133
 10
64.78267723992075
 20
276.8589811744133
 10
64.7863484999209
 20
276.7292000544133
 10
64.7941446599209
 20
276.6009101644133
 10
64.8060054599207
 20
276.4751031244133
 10
64.82183921992078
 20
276.3527513544133
 10
64.8415235399209
 20
276.2348005844133
 10
64.8649062999209
 20
276.1221625144133
 10
64.89180672992074
 20
276.0157077544132
 10
64.9220169299208
 20
275.9162591644133
 10
64.9553033799209
 20
275.8245854344133
 10
64.9914087799209
 20
275.7413951344133
 10
65.03005407992077
 20
275.6673313044132
 10
65.0709405599207
 20
275.6029664144132
 10
65.11375217992076
 20
275.5487979644133
 10
65.15815803992087
 20
275.5052446444133
 10
65.20381488992075
 20
275.4726431144133
 10
65.25036984992084
 20
275.4512453544132
 10
65.2974630599208
 20
275.4412167744133
 10
65.34473050992073
 20
275.4426348744133
 10
65.39180684992084
 20
275.4554886944132
 10
65.43832820992088
 20
275.4796788944133
 10
65.48393499992084
 20
275.5150184744133
 10
65.52827469992076
 20
275.5612342944132
 10
65.57100458992067
 20
275.6179691344133
 10
65.61179438992076
 20
275.6847844444132
 10
65.65032881992078
 20
275.7611637944133
 10
65.68631001992094
 20
275.8465168044132
 10
65.7194598799208
 20
275.9401837344133
 10
65.74952215992084
 20
276.0414405944133
 10
65.77626450992079
 20
276.1495047144133
 10
65.79948020992083
 20
276.2635408244133
 10
65.81898981992094
 20
276.3826674744133
  0
LINE
  5
C94
330
C34
100
AcDbEntity
  8
0
 62
     3
100
AcDbLine
 10
65.82296823992078
 20
277.4578822144133
 30
0.0
 11
66.80803911992075
 21
277.4542373444133
 31
0.0
  0
ARC
  5
C95
330
C34
100
AcDbEntity
  8
0
 62
     3
100
AcDbCircle
 10
52.1024099599208
 20
276.9710351244133
 30
0.0
 40
14.71356563
100
AcDbArc
 50
1.881965739999166
 51
5.709993809998727
  0
LINE
  5
C96
330
C34
100
AcDbEntity
  8
0
 62
     3
100
AcDbLine
 10
63.31031881992089
 20
278.9989851144132
 30
0.0
 11
63.31031512992081
 21
278.7874437444133
 31
0.0
  0
LINE
  5
C97
330
C34
100
AcDbEntity
  8
0
 62
     3
100
AcDbLine
 10
61.38080698992076
 20
278.9990246544132
 30
0.0
 11
63.31031881992089
 21
278.9989909744132
 31
0.0
  0
LINE
  5
C98
330
C34
100
AcDbEntity
  8
0
 62
     3
100
AcDbLine
 10
61.38073817992085
 20
275.0568132644133
 30
0.0
 11
61.38073448992077
 21
274.8452718944133
 31
0.0
  0
LINE
  5
C99
330
C34
100
AcDbEntity
  8
0
 62
     3
100
AcDbLine
 10
61.38080698992076
 20
278.9990246544132
 30
0.0
 11
61.38080329992067
 21
278.7874437444133
 31
0.0
  0
LINE
  5
C9A
330
C34
100
AcDbEntity
  8
0
 62
     3
100
AcDbLine
 10
58.62361796992082
 20
275.0568132644133
 30
0.0
 11
58.62361796992082
 21
274.8452521244133
 31
0.0
  0
LINE
  5
C9B
330
C34
100
AcDbEntity
  8
0
 62
     3
100
AcDbLine
 10
58.18787005992067
 20
277.2811402144133
 30
0.0
 11
59.71030011992093
 21
274.8452521244133
 31
0.0
  0
LINE
  5
C9C
330
C34
100
AcDbEntity
  8
0
 62
     3
100
AcDbLine
 10
59.71030011992093
 20
274.8452521244133
 30
0.0
 11
60.72973283992087
 21
274.8452521244133
 31
0.0
  0
LINE
  5
C9D
330
C34
100
AcDbEntity
  8
0
 62
     3
100
AcDbLine
 10
61.16548074992079
 20
278.9990048844132
 30
0.0
 11
61.16548074992079
 21
278.7874437444133
 31
0.0
  0
LINE
  5
C9E
330
C34
100
AcDbEntity
  8
0
 62
     3
100
AcDbLine
 10
59.62621541992075
 20
278.9990048844132
 30
0.0
 11
61.16548074992079
 21
278.9990048844132
 31
0.0
  0
LINE
  5
C9F
330
C34
100
AcDbEntity
  8
0
 62
     3
100
AcDbLine
 10
59.62621541992075
 20
278.9990048844132
 30
0.0
 11
59.62621541992075
 21
278.7874437444133
 31
0.0
  0
LINE
  5
CA0
330
C34
100
AcDbEntity
  8
0
 62
     3
100
AcDbLine
 10
60.06196332992089
 20
277.1176385444132
 30
0.0
 11
58.82731665992082
 21
278.9990048844132
 31
0.0
  0
LINE
  5
CA1
330
C34
100
AcDbEntity
  8
0
 62
     3
100
AcDbLine
 10
57.08435263992078
 20
278.9990048844132
 30
0.0
 11
58.82731665992082
 21
278.9990048844132
 31
0.0
  0
LINE
  5
CA2
330
C34
100
AcDbEntity
  8
0
 62
     3
100
AcDbLine
 10
67.00056699992069
 20
278.9989061644133
 30
0.0
 11
68.95282953992069
 21
278.9989061644133
 31
0.0
  0
LINE
  5
CA3
330
C34
100
AcDbEntity
  8
0
 62
     3
100
AcDbLine
 10
67.00056699992069
 20
278.7874437444133
 30
0.0
 11
67.00056699992069
 21
278.9989061644133
 31
0.0
  0
LINE
  5
CA4
330
C34
100
AcDbEntity
  8
0
 62
     3
100
AcDbLine
 10
67.00056699992069
 20
274.8451534144133
 30
0.0
 11
67.00056699992069
 21
275.0568132644133
 31
0.0
  0
LINE
  5
CA5
330
C34
100
AcDbEntity
  8
0
 62
     3
100
AcDbLine
 10
67.00056699992069
 20
274.8451534144133
 30
0.0
 11
68.95282953992069
 21
274.8451534144133
 31
0.0
  0
LINE
  5
CA6
330
C34
100
AcDbEntity
  8
0
 62
     3
100
AcDbLine
 10
69.15655582992076
 20
275.0568132644133
 30
0.0
 11
69.15655582992076
 21
274.8451534144133
 31
0.0
  0
LINE
  5
CA7
330
C34
100
AcDbEntity
  8
0
 62
     3
100
AcDbLine
 10
68.95282953992069
 20
275.0568132644133
 30
0.0
 11
68.95282953992069
 21
274.8451534144133
 31
0.0
  0
LINE
  5
CA8
330
C34
100
AcDbEntity
  8
0
 62
     3
100
AcDbLine
 10
68.95282953992069
 20
278.7874437444133
 30
0.0
 11
68.95282953992069
 21
278.9989061644133
 31
0.0
  0
LINE
  5
CA9
330
C34
100
AcDbEntity
  8
0
 62
     3
100
AcDbLine
 10
69.15655582992076
 20
278.7874437444133
 30
0.0
 11
69.15655582992076
 21
278.9989061644133
 31
0.0
  0
LINE
  5
CAA
330
C34
100
AcDbEntity
  8
0
 62
     3
100
AcDbLine
 10
57.08435263992078
 20
275.0568132644133
 30
0.0
 11
57.08435263992078
 21
274.8452521244133
 31
0.0
  0
LINE
  5
CAB
330
C34
100
AcDbEntity
  8
0
 62
     3
100
AcDbLine
 10
57.08435263992078
 20
278.9990048844132
 30
0.0
 11
57.08435263992078
 21
278.7874437444133
 31
0.0
  0
ARC
  5
CAC
330
C34
100
AcDbEntity
  8
0
 62
     3
100
AcDbCircle
 10
75.65394630992091
 20
277.3578764144132
 30
0.0
 40
1.641128469999999
100
AcDbArc
 50
17.30874897999683
 51
23.76507095999502
  0
ARC
  5
CAD
330
C34
100
AcDbEntity
  8
0
 62
     3
100
AcDbCircle
 10
74.25567290992081
 20
276.9221285044133
 30
0.0
 40
3.105725599999999
100
AcDbArc
 50
342.6912510200032
 51
17.30856644000026
  0
ARC
  5
CAE
330
C34
100
AcDbEntity
  8
0
 62
     3
100
AcDbCircle
 10
75.65394630992091
 20
276.4863806044133
 30
0.0
 40
1.641128469999999
100
AcDbArc
 50
336.2349290399992
 51
342.6912510200032
  0
ARC
  5
CAF
330
C34
100
AcDbEntity
  8
0
 62
     3
100
AcDbCircle
 10
75.44394630992087
 20
277.3578764144132
 30
0.0
 40
1.641128469999999
100
AcDbArc
 50
17.30874897999683
 51
90.0
  0
ARC
  5
CB0
330
C34
100
AcDbEntity
  8
0
 62
     3
100
AcDbCircle
 10
74.04567290992076
 20
276.9221285044133
 30
0.0
 40
3.105725599999999
100
AcDbArc
 50
342.6912510200032
 51
17.30856644000026
  0
ARC
  5
CB1
330
C34
100
AcDbEntity
  8
0
 62
     3
100
AcDbCircle
 10
75.44394630992087
 20
276.4863806044133
 30
0.0
 40
1.641128469999999
100
AcDbArc
 50
270.0
 51
342.6912510200032
  0
ARC
  5
CB2
330
C34
100
AcDbEntity
  8
0
 62
     3
100
AcDbCircle
 10
65.32000593992075
 20
276.9221285044133
 30
0.0
 40
2.076876379999999
100
AcDbArc
 50
46.75287960999439
 51
89.74999828999569
  0
ARC
  5
CB3
330
C34
100
AcDbEntity
  8
0
 62
     3
100
AcDbCircle
 10
65.32000593992075
 20
276.9221285044133
 30
0.0
 40
2.076876379999999
100
AcDbArc
 50
273.976333149997
 51
312.8231203899985
  0
ARC
  5
CB4
330
C34
100
AcDbEntity
  8
0
 62
     3
100
AcDbCircle
 10
76.76181387992073
 20
276.8900669744132
 30
0.0
 40
2.755888999999999
100
AcDbArc
 50
0.6665840599997753
 51
23.90392827000157
  0
ARC
  5
CB5
330
C34
100
AcDbEntity
  8
0
 62
     3
100
AcDbCircle
 10
80.67737615992086
 20
276.8900669744132
 30
0.0
 40
2.755888999999999
100
AcDbArc
 50
156.0960717299984
 51
179.3334159400002
  0
ARC
  5
CB6
330
C34
100
AcDbEntity
  8
0
 62
     3
100
AcDbCircle
 10
76.76181387992073
 20
276.9541900344133
 30
0.0
 40
2.755888999999999
100
AcDbArc
 50
336.0960717299984
 51
359.3334159400005
  0
ARC
  5
CB7
330
C34
100
AcDbEntity
  8
0
 62
     3
100
AcDbCircle
 10
80.67737615992086
 20
276.9541900344133
 30
0.0
 40
2.755888999999999
100
AcDbArc
 50
180.6665840599995
 51
203.9039282700016
  0
LINE
  5
CB8
330
C34
100
AcDbEntity
  8
0
 62
     3
100
AcDbLine
 10
85.32766324992076
 20
276.9999996444133
 30
0.0
 11
200.0000006199209
 21
276.9999996444133
 31
0.0
  0
LINE
  5
CB9
330
C34
100
AcDbEntity
  8
0
 62
   254
100
AcDbLine
 10
0.000000619920911
 20
286.9999996444132
 30
0.0
 11
200.0000006199209
 21
286.9999996444132
 31
0.0
  0
LINE
  5
CBA
330
C34
100
AcDbEntity
  8
0
 62
     3
100
AcDbLine
 10
51.91491672992083
 20
276.9999996444133
 30
0.0
 11
20.00000061992091
 21
276.9999996444133
 31
0.0
  0
LINE
  5
CBB
330
C34
100
AcDbEntity
  8
0
 62
     3
100
AcDbLine
 10
148.0000006199209
 20
-0.0000003555867352
 30
0.0
 11
148.0000006199209
 21
39.99999964441327
 31
0.0
  0
LINE
  5
CBC
330
C34
100
AcDbEntity
  8
0
 62
     3
100
AcDbLine
 10
161.0000006199209
 20
9.999999644413264
 30
0.0
 11
161.0000006199209
 21
37.99999964441326
 31
0.0
  0
LINE
  5
CBD
330
C34
100
AcDbEntity
  8
0
 62
     3
100
AcDbLine
 10
121.0000006199209
 20
9.999999644413264
 30
0.0
 11
121.0000006199209
 21
23.99999964441326
 31
0.0
  0
LINE
  5
CBE
330
C34
100
AcDbEntity
  8
0
 62
     3
100
AcDbLine
 10
131.0000006199209
 20
23.99999964441326
 30
0.0
 11
131.0000006199209
 21
-0.0000003555867352
 31
0.0
  0
LINE
  5
CBF
330
C34
100
AcDbEntity
  8
0
 62
     3
100
AcDbLine
 10
102.0000006199209
 20
39.99999964441326
 30
0.0
 11
102.0000006199209
 21
16.99999964441327
 31
0.0
  0
LINE
  5
CC0
330
C34
100
AcDbEntity
  8
0
 62
     3
100
AcDbLine
 10
161.0000006199209
 20
37.99999964441326
 30
0.0
 11
161.0000006199209
 21
39.99999964441327
 31
0.0
  0
LINE
  5
CC1
330
C34
100
AcDbEntity
  8
0
 62
     3
100
AcDbLine
 10
174.0000006199209
 20
16.99999964441327
 30
0.0
 11
174.0000006199209
 21
39.99999964441327
 31
0.0
  0
LINE
  5
CC2
330
C34
100
AcDbEntity
  8
0
 62
     3
100
AcDbLine
 10
200.0000006199209
 20
39.99999964441327
 30
0.0
 11
88.75456597992092
 21
39.99999964441328
 31
0.0
  0
LINE
  5
CC3
330
C34
100
AcDbEntity
  8
0
 62
     3
100
AcDbLine
 10
200.0000006199209
 20
30.99999964441327
 30
0.0
 11
88.75456597992092
 21
30.99999964441327
 31
0.0
  0
LINE
  5
CC4
330
C34
100
AcDbEntity
  8
0
 62
     3
100
AcDbLine
 10
200.0000006199209
 20
16.99999964441327
 30
0.0
 11
88.75456597992092
 21
16.99999964441327
 31
0.0
  0
LINE
  5
CC5
330
C34
100
AcDbEntity
  8
0
 62
     3
100
AcDbLine
 10
200.0000006199209
 20
9.999999644413264
 30
0.0
 11
88.75456597992092
 21
9.999999644413261
 31
0.0
  0
LINE
  5
CC6
330
C34
100
AcDbEntity
  8
0
 62
     3
100
AcDbLine
 10
187.0000006199209
 20
16.99999964441327
 30
0.0
 11
187.0000006199209
 21
39.99999964441327
 31
0.0
  0
LINE
  5
CC7
330
C34
100
AcDbEntity
  8
0
 62
     3
100
AcDbLine
 10
88.75456597992092
 20
39.99999964441328
 30
0.0
 11
88.75456597992092
 21
-0.0000003555867352
 31
0.0
  0
LINE
  5
CC8
330
C34
100
AcDbEntity
  8
0
 62
     3
100
AcDbLine
 10
148.0000006199209
 20
23.99999964441326
 30
0.0
 11
88.75456597992092
 21
23.99999964441325
 31
0.0
  0
LINE
  5
CC9
330
C34
100
AcDbEntity
  8
0
 62
     3
100
AcDbLine
 10
131.2783255499207
 20
4.832860904413252
 30
0.0
 11
148.0000006199209
 21
4.832860904413252
 31
0.0
  0
TEXT
  5
CCA
330
C34
100
AcDbEntity
  8
0
 62
     3
100
AcDbText
 10
132.1643260332364
 20
19.07309649777861
 30
0.0
 40
2.5
  1
******
  7
高2.5
100
AcDbText
  0
TEXT
  5
CCB
330
C34
100
AcDbEntity
  8
0
 62
     3
100
AcDbText
 10
103.1963693151731
 20
19.29781404939717
 30
0.0
 40
2.5
  1
*****
  7
高2.5
100
AcDbText
  0
TEXT
  5
CCC
330
C34
100
AcDbEntity
  8
0
 62
     3
100
AcDbText
 10
103.4612770698704
 20
32.31224916817116
 30
0.0
 40
4.5
  1
**********
  7
高4.5
100
AcDbText
1001
ACAD
1000
ACAD_MTEXT_DEFINED_HEIGHT_BEGIN
1070
    46
1040
0.0
1000
ACAD_MTEXT_DEFINED_HEIGHT_END
  0
TEXT
  5
CCD
330
C34
100
AcDbEntity
  8
0
 62
     3
100
AcDbText
 10
190.0655897133949
 20
36.51369174311686
 30
0.0
 40
2.0
  1
DEF
  7
高2
100
AcDbText
  0
TEXT
  5
CCE
330
C34
100
AcDbEntity
  8
0
 62
     3
100
AcDbText
 10
176.1264913596867
 20
36.51369174311677
 30
0.0
 40
2.0
  1
DESN
  7
高2
100
AcDbText
  0
TEXT
  5
CCF
330
C34
100
AcDbEntity
  8
0
 62
     3
100
AcDbText
 10
149.8721244196865
 20
36.51369174311686
 30
0.0
 40
2.0
  1
APPD
  7
高2
100
AcDbText
  0
TEXT
  5
CD0
330
C34
100
AcDbEntity
  8
0
 62
     3
100
AcDbText
 10
162.9848605199206
 20
36.51369174311688
 30
0.0
 40
2.0
  1
CHCK
  7
高2
100
AcDbText
  0
TEXT
  5
CD1
330
C34
100
AcDbEntity
  8
0
 62
     3
100
AcDbText
 10
121.9271662590734
 20
14.16839846764398
 30
0.0
 40
2.0
  1
SCALE
 41
0.8
  7
高2
100
AcDbText
  0
TEXT
  5
CD2
330
C34
100
AcDbEntity
  8
0
 62
     3
100
AcDbText
 10
90.43914468296703
 20
14.16839846764399
 30
0.0
 40
2.0
  1
3AD　ANGLE
 41
1.5
  7
高2
100
AcDbText
  0
TEXT
  5
CD3
330
C34
100
AcDbEntity
  8
0
 62
     3
100
AcDbText
 10
121.1965719499223
 20
20.91993653660109
 30
0.0
 40
2.0
  1
REMARKS
 41
0.7
  7
高2
100
AcDbText
  0
TEXT
  5
CD4
330
C34
100
AcDbEntity
  8
0
 62
     3
100
AcDbText
 10
90.22223632992085
 20
20.99999964441327
 30
0.0
 40
2.0
  1
MATERIAL
 41
0.7
  7
高2
100
AcDbText
  0
TEXT
  5
CD5
330
C34
100
AcDbEntity
  8
0
 62
     3
100
AcDbText
 10
90.79872353267479
 20
27.99999964441325
 30
0.0
 40
2.0
  1
MODEL
  7
高2
100
AcDbText
  0
TEXT
  5
CD6
330
C34
100
AcDbEntity
  8
0
 62
     3
100
AcDbText
 10
90.43564441400599
 20
36.70702099501228
 30
0.0
 40
2.0
  1
CONPONENTS
 41
0.5
  7
高2
100
AcDbText
  0
TEXT
  5
CD7
330
C34
100
AcDbEntity
  8
0
 62
     3
100
AcDbText
 10
103.142759885173
 20
25.08748077222521
 30
0.0
 40
4.5
  1
********
  7
高4.5
100
AcDbText
  0
TEXT
  5
CD8
330
C34
100
AcDbEntity
  8
0
 62
     3
100
AcDbText
 10
151.0650463505392
 20
2.038461039778852
 30
0.0
 40
6.299999999999999
  1
*-********
 41
0.6
  7
高6.3
100
AcDbText
1001
ACAD
1000
ACAD_MTEXT_DEFINED_HEIGHT_BEGIN
1070
    46
1040
0.0
1000
ACAD_MTEXT_DEFINED_HEIGHT_END
  0
TEXT
  5
CD9
330
C34
100
AcDbEntity
  8
0
 62
     3
100
AcDbText
 10
164.5635103702504
 20
11.10088880264627
 30
0.0
 40
3.2
  1
******
  7
高3.2
100
AcDbText
1001
ACAD
1000
ACAD_MTEXT_DEFINED_HEIGHT_BEGIN
1070
    46
1040
0.0
1000
ACAD_MTEXT_DEFINED_HEIGHT_END
  0
TEXT
  5
CDA
330
C34
100
AcDbEntity
  8
0
 62
     3
100
AcDbText
 10
134.7875985145672
 20
11.10091664698114
 30
0.0
 40
3.2
  1
1/1
  7
高3.2
100
AcDbText
  0
TEXT
  5
CDB
330
C34
100
AcDbEntity
  8
0
 62
     3
100
AcDbText
 10
131.8649274899208
 20
0.8168778175492263
 30
0.0
 40
3.2
  1
ZK-A4Y
 41
0.8
  7
高3.2
100
AcDbText
  0
TEXT
  5
CDC
330
C34
100
AcDbEntity
  8
0
 62
     3
100
AcDbText
 10
89.58526701992083
 20
6.524620066601091
 30
0.0
 40
2.0
  1
NICHIDO IND.CO.LTD
 41
1.3
  7
高2
100
AcDbText
  0
TEXT
  5
CDD
330
C34
100
AcDbEntity
  8
0
 62
     3
100
AcDbText
 10
90.76679028487797
 20
32.1405278522982
 30
0.0
 40
3.2
  1
品 名
  7
高3.2
100
AcDbText
1001
ACAD
1000
ACAD_MTEXT_DEFINED_HEIGHT_BEGIN
1070
    46
1040
0.0
1000
ACAD_MTEXT_DEFINED_HEIGHT_END
  0
TEXT
  5
CDE
330
C34
100
AcDbEntity
  8
0
 62
     3
100
AcDbText
 10
90.76679028487797
 20
24.49999964441325
 30
0.0
 40
3.2
  1
型 式
  7
高3.2
100
AcDbText
1001
ACAD
1000
ACAD_MTEXT_DEFINED_HEIGHT_BEGIN
1070
    46
1040
3.064735913775955
1000
ACAD_MTEXT_DEFINED_HEIGHT_END
  0
TEXT
  5
CDF
330
C34
100
AcDbEntity
  8
0
 62
     3
100
AcDbText
 10
90.76679028487797
 20
17.49999964441327
 30
0.0
 40
3.2
  1
材 質
  7
高3.2
100
AcDbText
1001
ACAD
1000
ACAD_MTEXT_DEFINED_HEIGHT_BEGIN
1070
    46
1040
0.0
1000
ACAD_MTEXT_DEFINED_HEIGHT_END
  0
TEXT
  5
CE0
330
C34
100
AcDbEntity
  8
0
 62
     3
100
AcDbText
 10
90.46175533487781
 20
10.4674396366595
 30
0.0
 40
3.2
  1
第 三 角 法
  7
高3.2
100
AcDbText
1001
ACAD
1000
ACAD_MTEXT_DEFINED_HEIGHT_BEGIN
1070
    46
1040
0.0
1000
ACAD_MTEXT_DEFINED_HEIGHT_END
  0
TEXT
  5
CE1
330
C34
100
AcDbEntity
  8
0
 62
     3
100
AcDbText
 10
88.86828794240683
 20
1.140527852298198
 30
0.0
 40
3.2
  1
日動工業株式会社
 41
1.199999999999999
  7
高3.2
100
AcDbText
1001
ACAD
1000
ACAD_MTEXT_DEFINED_HEIGHT_BEGIN
1070
    46
1040
0.0
1000
ACAD_MTEXT_DEFINED_HEIGHT_END
  0
TEXT
  5
CE2
330
C34
100
AcDbEntity
  8
0
 62
     3
100
AcDbText
 10
122.5039121418851
 20
17.38457817758082
 30
0.0
 40
3.2
  1
備考
  7
高3.2
100
AcDbText
1001
ACAD
1000
ACAD_MTEXT_DEFINED_HEIGHT_BEGIN
1070
    46
1040
0.0
1000
ACAD_MTEXT_DEFINED_HEIGHT_END
  0
TEXT
  5
CE3
330
C34
100
AcDbEntity
  8
0
 62
     3
100
AcDbText
 10
132.1529695889207
 20
6.146229669983558
 30
0.0
 40
2.5
  1
出図コード
  7
高2.5
100
AcDbText
1001
ACAD
1000
ACAD_MTEXT_DEFINED_HEIGHT_BEGIN
1070
    46
1040
0.0
1000
ACAD_MTEXT_DEFINED_HEIGHT_END
  0
TEXT
  5
CE4
330
C34
100
AcDbEntity
  8
0
 62
     3
100
AcDbText
 10
122.3451460237977
 20
10.45323455482618
 30
0.0
 40
3.2
  1
尺度
  7
高3.2
100
AcDbText
1001
ACAD
1000
ACAD_MTEXT_DEFINED_HEIGHT_BEGIN
1070
    46
1040
0.0
1000
ACAD_MTEXT_DEFINED_HEIGHT_END
  0
TEXT
  5
CE5
330
C34
100
AcDbEntity
  8
0
 62
     3
100
AcDbText
 10
149.4914075055765
 20
11.58471300294367
 30
0.0
 40
3.2
  1
作成日
  7
高3.2
100
AcDbText
1001
ACAD
1000
ACAD_MTEXT_DEFINED_HEIGHT_BEGIN
1070
    46
1040
0.0
1000
ACAD_MTEXT_DEFINED_HEIGHT_END
  0
TEXT
  5
CE6
330
C34
100
AcDbEntity
  8
0
 62
     3
100
AcDbText
 10
149.3858815124406
 20
32.1405278522982
 30
0.0
 40
3.2
  1
承 認
  7
高3.2
100
AcDbText
1001
ACAD
1000
ACAD_MTEXT_DEFINED_HEIGHT_BEGIN
1070
    46
1040
0.0
1000
ACAD_MTEXT_DEFINED_HEIGHT_END
  0
TEXT
  5
CE7
330
C34
100
AcDbEntity
  8
0
 62
     3
100
AcDbText
 10
162.3858815124406
 20
32.1405278522982
 30
0.0
 40
3.2
  1
検 図
  7
高3.2
100
AcDbText
1001
ACAD
1000
ACAD_MTEXT_DEFINED_HEIGHT_BEGIN
1070
    46
1040
0.0
1000
ACAD_MTEXT_DEFINED_HEIGHT_END
  0
TEXT
  5
CE8
330
C34
100
AcDbEntity
  8
0
 62
     3
100
AcDbText
 10
175.3858815124406
 20
32.1405278522982
 30
0.0
 40
3.2
  1
設 計
  7
高3.2
100
AcDbText
1001
ACAD
1000
ACAD_MTEXT_DEFINED_HEIGHT_BEGIN
1070
    46
1040
0.0
1000
ACAD_MTEXT_DEFINED_HEIGHT_END
  0
TEXT
  5
CE9
330
C34
100
AcDbEntity
  8
0
 62
     3
100
AcDbText
 10
188.6865180324405
 20
32.1405278522982
 30
0.0
 40
3.2
  1
製 図
  7
高3.2
100
AcDbText
1001
ACAD
1000
ACAD_MTEXT_DEFINED_HEIGHT_BEGIN
1070
    46
1040
0.0
1000
ACAD_MTEXT_DEFINED_HEIGHT_END
  0
TEXT
  5
CEA
330
C34
100
AcDbEntity
  8
0
 62
     3
100
AcDbText
 10
187.5000006199209
 20
267.4999996444133
 30
0.0
 40
3.2
  1
担　当
  7
高3.2
100
AcDbText
  0
TEXT
  5
CEB
330
C34
100
AcDbEntity
  8
0
 62
     3
100
AcDbText
 10
143.5000006199209
 20
267.4999996444133
 30
0.0
 40
3.2
  1
変更・追記内容
  7
高3.2
100
AcDbText
  0
TEXT
  5
CEC
330
C34
100
AcDbEntity
  8
0
 62
     3
100
AcDbText
 10
118.6135156202601
 20
262.829461134505
 30
0.0
 40
2.0
  1
1
  7
高2
100
AcDbText
  0
TEXT
  5
CED
330
C34
100
AcDbEntity
  8
0
 62
     3
100
AcDbText
 10
118.3050041435028
 20
257.6596444222321
 30
0.0
 40
2.0
  1
2
  7
高2
100
AcDbText
  0
TEXT
  5
CEE
330
C34
100
AcDbEntity
  8
0
 62
     3
100
AcDbText
 10
125.5000006199209
 20
267.4999996444133
 30
0.0
 40
3.2
  1
日　付
  7
高3.2
100
AcDbText
  0
TEXT
  5
CEF
330
C34
100
AcDbEntity
  8
0
 62
     3
100
AcDbText
 10
125.5000006199209
 20
272.4999996444132
 30
0.0
 40
3.2
  1
図　　　　面　　　　略　　　　歴
  7
高3.2
100
AcDbText
  0
TEXT
  5
CF0
330
C34
100
AcDbEntity
  8
0
 62
     3
100
AcDbText
 10
115.5000006199209
 20
267.4999996444133
 30
0.0
 40
3.2
  1
記号
  7
高3.2
100
AcDbText
  0
LINE
  5
CF1
330
C34
100
AcDbEntity
  8
0
 62
     7
100
AcDbLine
 10
119.0000006199209
 20
260.7908956444134
 30
0.0
 11
117.1000006199208
 21
257.4999996444133
 31
0.0
  0
LINE
  5
CF2
330
C34
100
AcDbEntity
  8
0
 62
     7
100
AcDbLine
 10
119.0000006199209
 20
260.7908956444134
 30
0.0
 11
120.9000006199207
 21
257.4999996444133
 31
0.0
  0
LINE
  5
CF3
330
C34
100
AcDbEntity
  8
0
 62
     7
100
AcDbLine
 10
117.1000006199208
 20
257.4999996444133
 30
0.0
 11
120.9000006199207
 21
257.4999996444133
 31
0.0
  0
LINE
  5
CF4
330
C34
100
AcDbEntity
  8
0
 62
     7
100
AcDbLine
 10
119.0000006199209
 20
265.7908966444133
 30
0.0
 11
117.1000006199208
 21
262.4999996444133
 31
0.0
  0
LINE
  5
CF5
330
C34
100
AcDbEntity
  8
0
 62
     7
100
AcDbLine
 10
119.0000006199209
 20
265.7908966444133
 30
0.0
 11
120.9000006199207
 21
262.4999996444133
 31
0.0
  0
LINE
  5
CF6
330
C34
100
AcDbEntity
  8
0
 62
     7
100
AcDbLine
 10
117.1000006199208
 20
262.4999996444133
 30
0.0
 11
120.9000006199207
 21
262.4999996444133
 31
0.0
  0
LINE
  5
CF7
330
C34
100
AcDbEntity
  8
0
 62
     3
100
AcDbLine
 10
114.0000006199209
 20
271.9999996444133
 30
0.0
 11
200.0000006199209
 21
271.9999996444133
 31
0.0
  0
LINE
  5
CF8
330
C34
100
AcDbEntity
  8
0
 62
     3
100
AcDbLine
 10
114.0000006199209
 20
266.9999996444133
 30
0.0
 11
200.0000006199209
 21
266.9999996444133
 31
0.0
  0
LINE
  5
CF9
330
C34
100
AcDbEntity
  8
0
 62
     7
100
AcDbLine
 10
114.0000006199209
 20
261.9999996444132
 30
0.0
 11
200.0000006199209
 21
261.9999996444132
 31
0.0
  0
LINE
  5
CFA
330
C34
100
AcDbEntity
  8
0
 62
     3
100
AcDbLine
 10
114.0000006199209
 20
256.9999996444133
 30
0.0
 11
200.0000006199209
 21
256.9999996444133
 31
0.0
  0
LINE
  5
CFB
330
C34
100
AcDbEntity
  8
0
 62
     7
100
AcDbLine
 10
186.0000006199209
 20
256.9999996444133
 30
0.0
 11
186.0000006199209
 21
271.9999996444133
 31
0.0
  0
LINE
  5
CFC
330
C34
100
AcDbEntity
  8
0
 62
     7
100
AcDbLine
 10
142.0000006199209
 20
256.9999996444133
 30
0.0
 11
142.0000006199209
 21
271.9999996444133
 31
0.0
  0
LINE
  5
CFD
330
C34
100
AcDbEntity
  8
0
 62
     7
100
AcDbLine
 10
124.0000006199209
 20
256.9999996444133
 30
0.0
 11
124.0000006199209
 21
271.9999996444133
 31
0.0
  0
LINE
  5
CFE
330
C34
100
AcDbEntity
  8
0
 62
     3
100
AcDbLine
 10
114.0000006199209
 20
256.9999996444133
 30
0.0
 11
114.0000006199209
 21
276.9999996444133
 31
0.0
  0
ENDBLK
  5
D02
330
C34
100
AcDbEntity
  8
0
100
AcDbBlockEnd
  0
BLOCK
  5
1296
330
1295
100
AcDbEntity
  8
0
100
AcDbBlockBegin
  2
*D4
 70
     1
 10
0.0
 20
0.0
 30
0.0
  3
*D4
  1

  0
LINE
  5
12AC
330
1295
100
AcDbEntity
  8
0
 62
     0
370
    -2
100
AcDbLine
 10
1394.898322743785
 20
186.406490079207
 30
0.0
 11
1394.898322743785
 21
145.5517239780142
 31
0.0
  0
LINE
  5
12AD
330
1295
100
AcDbEntity
  8
0
 62
     0
370
    -2
100
AcDbLine
 10
1441.898322743785
 20
194.5929198055396
 30
0.0
 11
1441.898322743785
 21
145.5517239780142
 31
0.0
  0
LINE
  5
12AE
330
1295
100
AcDbEntity
  8
0
 62
     0
370
    -2
100
AcDbLine
 10
1397.398322743785
 20
146.8017239780142
 30
0.0
 11
1439.398322743785
 21
146.8017239780142
 31
0.0
  0
INSERT
  5
12AF
330
1295
100
AcDbEntity
  8
0
 62
     0
370
    -2
100
AcDbBlockReference
  2
_Open30
 10
1394.898322743785
 20
146.8017239780142
 30
0.0
 41
2.5
 42
2.5
 43
2.5
 50
180.0
  0
INSERT
  5
12B0
330
1295
100
AcDbEntity
  8
0
 62
     0
370
    -2
100
AcDbBlockReference
  2
_Open30
 10
1441.898322743785
 20
146.8017239780142
 30
0.0
 41
2.5
 42
2.5
 43
2.5
  0
MTEXT
  5
12B1
330
1295
100
AcDbEntity
  8
0
 62
     4
100
AcDbMText
 10
1417.555189723276
 20
148.9267239780142
 30
0.0
 40
3.0
 41
0.0
 71
     5
 72
     1
  1
47
 73
     1
 44
1.0
1001
ACAD
1000
MTEXTBEGIN
1070
    73
1070
     1
1070
    44
1040
1.0
1070
    74
1070
     0
1000
MTEXTEND
  0
POINT
  5
12B2
330
1295
100
AcDbEntity
  8
Defpoints
 62
     0
100
AcDbPoint
 10
1394.898322743785
 20
186.656490079207
 30
0.0
  0
POINT
  5
12B3
330
1295
100
AcDbEntity
  8
Defpoints
 62
     0
100
AcDbPoint
 10
1441.898322743785
 20
194.8429198055396
 30
0.0
  0
POINT
  5
12B4
330
1295
100
AcDbEntity
  8
Defpoints
 62
     0
100
AcDbPoint
 10
1441.898322743785
 20
146.8017239780142
 30
0.0
  0
ENDBLK
  5
1297
330
1295
100
AcDbEntity
  8
0
100
AcDbBlockEnd
  0
BLOCK
  5
12B7
330
12B6
100
AcDbEntity
  8
0
100
AcDbBlockBegin
  2
*D5
 70
     1
 10
0.0
 20
0.0
 30
0.0
  3
*D5
  1

  0
LINE
  5
12CD
330
12B6
100
AcDbEntity
  8
0
 62
     0
370
    -2
100
AcDbLine
 10
1426.394878736267
 20
175.656490079207
 30
0.0
 11
1451.100172308085
 21
175.656490079207
 31
0.0
  0
LINE
  5
12CE
330
12B6
100
AcDbEntity
  8
0
 62
     0
370
    -2
100
AcDbLine
 10
1405.648322743785
 20
217.656490079207
 30
0.0
 11
1451.100172308085
 21
217.656490079207
 31
0.0
  0
LINE
  5
12CF
330
12B6
100
AcDbEntity
  8
0
 62
     0
370
    -2
100
AcDbLine
 10
1449.850172308085
 20
178.156490079207
 30
0.0
 11
1449.850172308085
 21
215.156490079207
 31
0.0
  0
INSERT
  5
12D0
330
12B6
100
AcDbEntity
  8
0
 62
     0
370
    -2
100
AcDbBlockReference
  2
_Open30
 10
1449.850172308085
 20
175.656490079207
 30
0.0
 41
2.5
 42
2.5
 43
2.5
 50
270.0
  0
INSERT
  5
12D1
330
12B6
100
AcDbEntity
  8
0
 62
     0
370
    -2
100
AcDbBlockReference
  2
_Open30
 10
1449.850172308085
 20
217.656490079207
 30
0.0
 41
2.5
 42
2.5
 43
2.5
 50
90.0
  0
MTEXT
  5
12D2
330
12B6
100
AcDbEntity
  8
0
 62
     4
100
AcDbMText
 10
1447.725172308085
 20
194.8107162126971
 30
0.0
 40
3.0
 41
0.0
 71
     5
 72
     1
  1
42
 11
0.0000000000000001
 21
1.0
 31
0.0
 73
     1
 44
1.0
1001
ACAD
1000
MTEXTBEGIN
1070
    73
1070
     1
1070
    44
1040
1.0
1070
    74
1070
     0
1000
MTEXTEND
  0
POINT
  5
12D3
330
12B6
100
AcDbEntity
  8
Defpoints
 62
     0
100
AcDbPoint
 10
1426.144878736267
 20
175.656490079207
 30
0.0
  0
POINT
  5
12D4
330
12B6
100
AcDbEntity
  8
Defpoints
 62
     0
100
AcDbPoint
 10
1405.398322743785
 20
217.656490079207
 30
0.0
  0
POINT
  5
12D5
330
12B6
100
AcDbEntity
  8
Defpoints
 62
     0
100
AcDbPoint
 10
1449.850172308085
 20
217.656490079207
 30
0.0
  0
ENDBLK
  5
12B8
330
12B6
100
AcDbEntity
  8
0
100
AcDbBlockEnd
  0
BLOCK
  5
12EF
330
12EE
100
AcDbEntity
  8
0
100
AcDbBlockBegin
  2
*D8
 70
     1
 10
0.0
 20
0.0
 30
0.0
  3
*D8
  1

  0
LINE
  5
12FF
330
12EE
100
AcDbEntity
  8
0
 62
     0
370
    -2
100
AcDbLine
 10
1426.955117642829
 20
203.1051128002634
 30
0.0
 11
1430.810854533094
 21
202.4944240708601
 31
0.0
  0
LINE
  5
1300
330
12EE
100
AcDbEntity
  8
0
 62
     0
370
    -2
100
AcDbLine
 10
1424.147909482931
 20
205.6421213756315
 30
0.0
 11
1431.106733195568
 21
205.2415020338204
 31
0.0
  0
ARC
  5
1301
330
12EE
100
AcDbEntity
  8
0
 62
     0
370
    -2
100
AcDbCircle
 10
1403.393044804705
 20
206.8369785196153
 30
0.0
 40
26.50957617548543
100
AcDbArc
 50
340.1893721429234
 51
345.594686071462
  0
ARC
  5
1302
330
12EE
100
AcDbEntity
  8
0
 62
     0
370
    -2
100
AcDbCircle
 10
1403.393044804705
 20
206.8369785196153
 30
0.0
 40
26.50957617548543
100
AcDbArc
 50
2.110433913995688
 51
7.51574784253429
  0
ARC
  5
1303
330
12EE
100
AcDbEntity
  8
0
 62
     0
370
    -2
100
AcDbCircle
 10
1403.393044804705
 20
206.8369785196153
 30
0.0
 40
26.50957617548543
100
AcDbArc
 50
351.0000000000006
 51
356.7051199854571
  0
INSERT
  5
1304
330
12EE
100
AcDbEntity
  8
0
 62
     0
370
    -2
100
AcDbBlockReference
  2
_Open30
 10
1429.576244107351
 20
202.6899671521604
 30
0.0
 41
2.5
 42
2.5
 43
2.5
 50
78.29734303573133
  0
INSERT
  5
1305
330
12EE
100
AcDbEntity
  8
0
 62
     0
370
    -2
100
AcDbBlockReference
  2
_Open30
 10
1429.858799499838
 20
205.3133455516982
 30
0.0
 41
2.5
 42
2.5
 43
2.5
 50
269.4077769497264
  0
MTEXT
  5
1306
330
12EE
100
AcDbEntity
  8
0
 62
     4
100
AcDbMText
 10
1427.667316425803
 20
204.5202367292574
 30
0.0
 40
3.0
 41
0.0
 71
     5
 72
     1
  1
5.7\U+00B0
 11
0.0950084911743136
 21
0.9954764621048457
 31
0.0
 73
     1
 44
1.0
1001
ACAD
1000
MTEXTBEGIN
1070
    73
1070
     1
1070
    44
1040
1.0
1070
    74
1070
     0
1000
MTEXTEND
  0
POINT
  5
1307
330
12EE
100
AcDbEntity
  8
Defpoints
 62
     0
100
AcDbPoint
 10
1429.699441492107
 20
203.5611393402722
 30
0.0
  0
POINT
  5
1308
330
12EE
100
AcDbEntity
  8
Defpoints
 62
     0
100
AcDbPoint
 10
1423.898322743785
 20
205.656490079207
 30
0.0
  0
POINT
  5
1309
330
12EE
100
AcDbEntity
  8
Defpoints
 62
     0
100
AcDbPoint
 10
1403.393044804705
 20
206.8369785196153
 30
0.0
  0
POINT
  5
130A
330
12EE
100
AcDbEntity
  8
Defpoints
 62
     0
100
AcDbPoint
 10
1426.70819555768
 20
203.1442214165234
 30
0.0
  0
POINT
  5
130B
330
12EE
100
AcDbEntity
  8
Defpoints
 62
     0
100
AcDbPoint
 10
1403.393044804705
 20
206.8369785196153
 30
0.0
  0
ENDBLK
  5
12F0
330
12EE
100
AcDbEntity
  8
0
100
AcDbBlockEnd
  0
BLOCK
  5
161F
330
161E
100
AcDbEntity
  8
0
100
AcDbBlockBegin
  2
*D10
 70
     1
 10
0.0
 20
0.0
 30
0.0
  3
*D10
  1

  0
LINE
  5
1656
330
161E
100
AcDbEntity
  8
0
 62
     0
370
    -2
100
AcDbLine
 10
1389.59399348159
 20
188.8821825209131
 30
0.0
 11
1389.59399348159
 21
141.3075946668609
 31
0.0
  0
LINE
  5
1657
330
161E
100
AcDbEntity
  8
0
 62
     0
370
    -2
100
AcDbLine
 10
1436.59399348159
 20
198.6916738385227
 30
0.0
 11
1436.59399348159
 21
141.3075946668609
 31
0.0
  0
LINE
  5
1658
330
161E
100
AcDbEntity
  8
0
 62
     0
370
    -2
100
AcDbLine
 10
1392.09399348159
 20
142.5575946668609
 30
0.0
 11
1434.09399348159
 21
142.5575946668609
 31
0.0
  0
INSERT
  5
1659
330
161E
100
AcDbEntity
  8
0
 62
     0
370
    -2
100
AcDbBlockReference
  2
_Open30
 10
1389.59399348159
 20
142.5575946668609
 30
0.0
 41
2.5
 42
2.5
 43
2.5
 50
180.0
  0
INSERT
  5
165A
330
161E
100
AcDbEntity
  8
0
 62
     0
370
    -2
100
AcDbBlockReference
  2
_Open30
 10
1436.59399348159
 20
142.5575946668609
 30
0.0
 41
2.5
 42
2.5
 43
2.5
  0
MTEXT
  5
165B
330
161E
100
AcDbEntity
  8
0
 62
     4
100
AcDbMText
 10
1411.193216663247
 20
144.6825946668609
 30
0.0
 40
3.0
 41
0.0
 71
     5
 72
     1
  1
47
 73
     1
 44
1.0
1001
ACAD
1000
MTEXTBEGIN
1070
    73
1070
     1
1070
    44
1040
1.0
1070
    74
1070
     0
1000
MTEXTEND
  0
POINT
  5
165C
330
161E
100
AcDbEntity
  8
Defpoints
 62
     0
100
AcDbPoint
 10
1389.59399348159
 20
189.1321825209131
 30
0.0
  0
POINT
  5
165D
330
161E
100
AcDbEntity
  8
Defpoints
 62
     0
100
AcDbPoint
 10
1436.59399348159
 20
198.9416738385227
 30
0.0
  0
POINT
  5
165E
330
161E
100
AcDbEntity
  8
Defpoints
 62
     0
100
AcDbPoint
 10
1436.59399348159
 20
142.5575946668609
 30
0.0
  0
ENDBLK
  5
1620
330
161E
100
AcDbEntity
  8
0
100
AcDbBlockEnd
  0
BLOCK
  5
1637
330
1636
100
AcDbEntity
  8
0
100
AcDbBlockBegin
  2
*D11
 70
     1
 10
0.0
 20
0.0
 30
0.0
  3
*D11
  1

  0
LINE
  5
1643
330
1636
100
AcDbEntity
  8
0
 62
     0
370
    -2
100
AcDbLine
 10
1420.055635892731
 20
178.1321825209131
 30
0.0
 11
1446.468904289169
 21
178.1321825209131
 31
0.0
  0
LINE
  5
1644
330
1636
100
AcDbEntity
  8
0
 62
     0
370
    -2
100
AcDbLine
 10
1400.34399348159
 20
220.1321825209131
 30
0.0
 11
1446.468904289169
 21
220.1321825209131
 31
0.0
  0
LINE
  5
1645
330
1636
100
AcDbEntity
  8
0
 62
     0
370
    -2
100
AcDbLine
 10
1445.218904289169
 20
180.6321825209131
 30
0.0
 11
1445.218904289169
 21
217.6321825209131
 31
0.0
  0
INSERT
  5
1646
330
1636
100
AcDbEntity
  8
0
 62
     0
370
    -2
100
AcDbBlockReference
  2
_Open30
 10
1445.218904289169
 20
178.1321825209131
 30
0.0
 41
2.5
 42
2.5
 43
2.5
 50
270.0
  0
INSERT
  5
1647
330
1636
100
AcDbEntity
  8
0
 62
     0
370
    -2
100
AcDbBlockReference
  2
_Open30
 10
1445.218904289169
 20
220.1321825209131
 30
0.0
 41
2.5
 42
2.5
 43
2.5
 50
90.0
  0
MTEXT
  5
1648
330
1636
100
AcDbEntity
  8
0
 62
     4
100
AcDbMText
 10
1443.093904289169
 20
197.7275923529487
 30
0.0
 40
3.0
 41
0.0
 71
     5
 72
     1
  1
42
 11
0.0000000000000001
 21
1.0
 31
0.0
 73
     1
 44
1.0
1001
ACAD
1000
MTEXTBEGIN
1070
    73
1070
     1
1070
    44
1040
1.0
1070
    74
1070
     0
1000
MTEXTEND
  0
POINT
  5
1649
330
1636
100
AcDbEntity
  8
Defpoints
 62
     0
100
AcDbPoint
 10
1419.805635892731
 20
178.1321825209131
 30
0.0
  0
POINT
  5
164A
330
1636
100
AcDbEntity
  8
Defpoints
 62
     0
100
AcDbPoint
 10
1400.09399348159
 20
220.1321825209131
 30
0.0
  0
POINT
  5
164B
330
1636
100
AcDbEntity
  8
Defpoints
 62
     0
100
AcDbPoint
 10
1445.218904289169
 20
220.1321825209131
 30
0.0
  0
ENDBLK
  5
1638
330
1636
100
AcDbEntity
  8
0
100
AcDbBlockEnd
  0
BLOCK
  5
1661
330
1660
100
AcDbEntity
  8
0
100
AcDbBlockBegin
  2
*D12
 70
     1
 10
0.0
 20
0.0
 30
0.0
  3
*D12
  1

  0
LINE
  5
1677
330
1660
100
AcDbEntity
  8
0
 62
     0
370
    -2
100
AcDbLine
 10
1336.393200084488
 20
190.8821825209131
 30
0.0
 11
1336.393200084488
 21
140.5078212001796
 31
0.0
  0
LINE
  5
1678
330
1660
100
AcDbEntity
  8
0
 62
     0
370
    -2
100
AcDbLine
 10
1370.093200084488
 20
190.8821825209131
 30
0.0
 11
1370.093200084488
 21
140.5078212001796
 31
0.0
  0
LINE
  5
1679
330
1660
100
AcDbEntity
  8
0
 62
     0
370
    -2
100
AcDbLine
 10
1338.893200084487
 20
141.7578212001796
 30
0.0
 11
1367.593200084488
 21
141.7578212001796
 31
0.0
  0
INSERT
  5
167A
330
1660
100
AcDbEntity
  8
0
 62
     0
370
    -2
100
AcDbBlockReference
  2
_Open30
 10
1336.393200084488
 20
141.7578212001796
 30
0.0
 41
2.5
 42
2.5
 43
2.5
 50
180.0
  0
INSERT
  5
167B
330
1660
100
AcDbEntity
  8
0
 62
     0
370
    -2
100
AcDbBlockReference
  2
_Open30
 10
1370.093200084488
 20
141.7578212001796
 30
0.0
 41
2.5
 42
2.5
 43
2.5
  0
MTEXT
  5
167C
330
1660
100
AcDbEntity
  8
0
 62
     4
100
AcDbMText
 10
1355.403183875397
 20
143.8828212001796
 30
0.0
 40
3.0
 41
0.0
 71
     5
 72
     1
  1
33.7
 73
     1
 44
1.0
1001
ACAD
1000
MTEXTBEGIN
1070
    73
1070
     1
1070
    44
1040
1.0
1070
    74
1070
     0
1000
MTEXTEND
  0
POINT
  5
167D
330
1660
100
AcDbEntity
  8
Defpoints
 62
     0
100
AcDbPoint
 10
1336.393200084488
 20
191.1321825209131
 30
0.0
  0
POINT
  5
167E
330
1660
100
AcDbEntity
  8
Defpoints
 62
     0
100
AcDbPoint
 10
1370.093200084488
 20
191.1321825209131
 30
0.0
  0
POINT
  5
167F
330
1660
100
AcDbEntity
  8
Defpoints
 62
     0
100
AcDbPoint
 10
1370.093200084488
 20
141.7578212001796
 30
0.0
  0
ENDBLK
  5
1662
330
1660
100
AcDbEntity
  8
0
100
AcDbBlockEnd
  0
BLOCK
  5
1682
330
1681
100
AcDbEntity
  8
0
100
AcDbBlockBegin
  2
*D13
 70
     1
 10
0.0
 20
0.0
 30
0.0
  3
*D13
  1

  0
LINE
  5
169C
330
1681
100
AcDbEntity
  8
0
 62
     0
370
    -2
100
AcDbLine
 10
1417.34399348159
 20
171.6321825209131
 30
0.0
 11
1446.468904289169
 21
171.6321825209131
 31
0.0
  0
LINE
  5
169D
330
1681
100
AcDbEntity
  8
0
 62
     0
370
    -2
100
AcDbLine
 10
1420.055635892731
 20
178.1321825209131
 30
0.0
 11
1446.468904289169
 21
178.1321825209131
 31
0.0
  0
LINE
  5
169E
330
1681
100
AcDbEntity
  8
0
 62
     0
370
    -2
100
AcDbLine
 10
1445.218904289169
 20
180.6321825209131
 30
0.0
 11
1445.218904289169
 21
183.1321825209131
 31
0.0
  0
LINE
  5
169F
330
1681
100
AcDbEntity
  8
0
 62
     0
370
    -2
100
AcDbLine
 10
1445.218904289169
 20
169.1321825209131
 30
0.0
 11
1445.218904289169
 21
159.3821825209131
 31
0.0
  0
LINE
  5
16A0
330
1681
100
AcDbEntity
  8
0
 62
     0
370
    -2
100
AcDbLine
 10
1445.218904289169
 20
178.1321825209131
 30
0.0
 11
1445.218904289169
 21
171.6321825209131
 31
0.0
  0
INSERT
  5
16A1
330
1681
100
AcDbEntity
  8
0
 62
     0
370
    -2
100
AcDbBlockReference
  2
_Open30
 10
1445.218904289169
 20
178.1321825209131
 30
0.0
 41
2.5
 42
2.5
 43
2.5
 50
270.0
  0
INSERT
  5
16A2
330
1681
100
AcDbEntity
  8
0
 62
     0
370
    -2
100
AcDbBlockReference
  2
_Open30
 10
1445.218904289169
 20
171.6321825209131
 30
0.0
 41
2.5
 42
2.5
 43
2.5
 50
90.0
  0
MTEXT
  5
16A3
330
1681
100
AcDbEntity
  8
0
 62
     4
100
AcDbMText
 10
1443.093904289169
 20
163.0071825209133
 30
0.0
 40
3.0
 41
0.0
 71
     5
 72
     1
  1
6.5
 11
0.0000000000000001
 21
1.0
 31
0.0
 73
     1
 44
1.0
1001
ACAD
1000
MTEXTBEGIN
1070
    73
1070
     1
1070
    44
1040
1.0
1070
    74
1070
     0
1000
MTEXTEND
  0
POINT
  5
16A4
330
1681
100
AcDbEntity
  8
Defpoints
 62
     0
100
AcDbPoint
 10
1417.09399348159
 20
171.6321825209131
 30
0.0
  0
POINT
  5
16A5
330
1681
100
AcDbEntity
  8
Defpoints
 62
     0
100
AcDbPoint
 10
1419.805635892731
 20
178.1321825209131
 30
0.0
  0
POINT
  5
16A6
330
1681
100
AcDbEntity
  8
Defpoints
 62
     0
100
AcDbPoint
 10
1445.218904289169
 20
178.1321825209131
 30
0.0
  0
ENDBLK
  5
1683
330
1681
100
AcDbEntity
  8
0
100
AcDbBlockEnd
  0
BLOCK
  5
16A9
330
16A8
100
AcDbEntity
  8
0
100
AcDbBlockBegin
  2
*D14
 70
     1
 10
0.0
 20
0.0
 30
0.0
  3
*D14
  1

  0
LINE
  5
16C9
330
16A8
100
AcDbEntity
  8
0
 62
     0
370
    -2
100
AcDbLine
 10
1381.502284286399
 20
191.1321825209131
 30
0.0
 11
1377.549968231282
 21
191.1321825209131
 31
0.0
  0
LINE
  5
16CA
330
16A8
100
AcDbEntity
  8
0
 62
     0
370
    -2
100
AcDbLine
 10
1381.502284286399
 20
207.1321825209131
 30
0.0
 11
1377.549968231282
 21
207.1321825209131
 31
0.0
  0
LINE
  5
16CB
330
16A8
100
AcDbEntity
  8
0
 62
     0
370
    -2
100
AcDbLine
 10
1378.799968231282
 20
193.6321825209131
 30
0.0
 11
1378.799968231282
 21
204.6321825209131
 31
0.0
  0
INSERT
  5
16CC
330
16A8
100
AcDbEntity
  8
0
 62
     0
370
    -2
100
AcDbBlockReference
  2
_Open30
 10
1378.799968231282
 20
191.1321825209131
 30
0.0
 41
2.5
 42
2.5
 43
2.5
 50
270.0
  0
INSERT
  5
16CD
330
16A8
100
AcDbEntity
  8
0
 62
     0
370
    -2
100
AcDbBlockReference
  2
_Open30
 10
1378.799968231282
 20
207.1321825209131
 30
0.0
 41
2.5
 42
2.5
 43
2.5
 50
90.0
  0
MTEXT
  5
16CE
330
16A8
100
AcDbEntity
  8
0
 62
     4
100
AcDbMText
 10
1376.674968231282
 20
199.1321825209131
 30
0.0
 40
3.0
 41
0.0
 71
     5
 72
     1
  1
3～16
 11
0.0000000000000001
 21
1.0
 31
0.0
 73
     1
 44
1.0
1001
ACAD
1000
MTEXTBEGIN
1070
    73
1070
     1
1070
    44
1040
1.0
1070
    74
1070
     0
1000
MTEXTEND
  0
POINT
  5
16CF
330
16A8
100
AcDbEntity
  8
Defpoints
 62
     0
100
AcDbPoint
 10
1381.752284286399
 20
191.1321825209131
 30
0.0
  0
POINT
  5
16D0
330
16A8
100
AcDbEntity
  8
Defpoints
 62
     0
100
AcDbPoint
 10
1381.752284286399
 20
207.1321825209131
 30
0.0
  0
POINT
  5
16D1
330
16A8
100
AcDbEntity
  8
Defpoints
 62
     0
100
AcDbPoint
 10
1378.799968231282
 20
207.1321825209131
 30
0.0
  0
ENDBLK
  5
16AA
330
16A8
100
AcDbEntity
  8
0
100
AcDbBlockEnd
  0
ENDSEC
  0
SECTION
  2
ENTITIES
  0
ARC
  5
1497
330
1F
100
AcDbEntity
  8
0
 62
     3
100
AcDbCircle
 10
1405.529310425486
 20
198.9416738385227
 30
0.0
 40
31.06468305610389
100
AcDbArc
 50
341.3820596397758
 51
0.0
  0
ARC
  5
1498
330
1F
100
AcDbEntity
  8
0
 62
     3
100
AcDbCircle
 10
1405.529310425486
 20
198.9416738385227
 30
0.0
 40
31.06468305610389
100
AcDbArc
 50
0.0
 51
15.88911434044972
  0
LINE
  5
1499
330
1F
100
AcDbEntity
  8
0
 62
     3
100
AcDbLine
 10
1389.882038618851
 20
178.1321825209131
 30
0.0
 11
1419.805635892731
 21
178.1321825209131
 31
0.0
  0
ARC
  5
149A
330
1F
100
AcDbEntity
  8
0
 62
     3
100
AcDbCircle
 10
1419.805635892731
 20
194.1321825209131
 30
0.0
 40
16.00000000000001
100
AcDbArc
 50
270.0
 51
341.3820596397758
  0
LINE
  5
149B
330
1F
100
AcDbEntity
  8
0
 62
     3
100
AcDbLine
 10
1420.85579758608
 20
219.0441024738874
 30
0.0
 11
1400.09399348159
 21
220.1321825209131
 31
0.0
  0
ARC
  5
149C
330
1F
100
AcDbEntity
  8
0
 62
     3
100
AcDbCircle
 10
1420.018422286193
 20
203.0660299178142
 30
0.0
 40
16.00000000000002
100
AcDbArc
 50
15.88911434044972
 51
86.99999999999439
  0
LINE
  5
149D
330
1F
100
AcDbEntity
  8
0
 62
     3
100
AcDbLine
 10
1414.59399348159
 20
159.6321825209131
 30
0.0
 11
1415.908948057814
 21
160.3913718994679
 31
0.0
  0
LINE
  5
149E
330
1F
100
AcDbEntity
  8
0
 62
     3
100
AcDbLine
 10
1396.279038905366
 20
160.3913718994679
 30
0.0
 11
1397.59399348159
 21
159.6321825209131
 31
0.0
  0
LINE
  5
149F
330
1F
100
AcDbEntity
  8
0
 62
     3
100
AcDbLine
 10
1415.09399348159
 20
167.4321825209131
 30
0.0
 11
1415.09399348159
 21
170.0321825209131
 31
0.0
  0
LINE
  5
14A0
330
1F
100
AcDbEntity
  8
0
 62
     3
100
AcDbLine
 10
1417.09399348159
 20
170.0321825209131
 30
0.0
 11
1417.09399348159
 21
171.6321825209131
 31
0.0
  0
LINE
  5
14A1
330
1F
100
AcDbEntity
  8
0
 62
     3
100
AcDbLine
 10
1395.09399348159
 20
171.6321825209131
 30
0.0
 11
1395.09399348159
 21
170.0321825209131
 31
0.0
  0
LINE
  5
14A2
330
1F
100
AcDbEntity
  8
0
 62
     3
100
AcDbLine
 10
1401.09399348159
 20
178.1321825209131
 30
0.0
 11
1401.09399348159
 21
171.6321825209131
 31
0.0
  0
LINE
  5
14A3
330
1F
100
AcDbEntity
  8
0
 62
     3
100
AcDbLine
 10
1401.09399348159
 20
159.6321825209131
 30
0.0
 11
1401.09399348159
 21
157.6321825209131
 31
0.0
  0
LINE
  5
14A4
330
1F
100
AcDbEntity
  8
0
 62
     3
100
AcDbLine
 10
1411.09399348159
 20
157.6321825209131
 30
0.0
 11
1411.09399348159
 21
159.6321825209131
 31
0.0
  0
LINE
  5
14A5
330
1F
100
AcDbEntity
  8
0
 62
     3
100
AcDbLine
 10
1411.09399348159
 20
171.6321825209131
 30
0.0
 11
1411.09399348159
 21
178.1321825209131
 31
0.0
  0
LINE
  5
14A6
330
1F
100
AcDbEntity
  8
0
 62
     3
100
AcDbLine
 10
1405.221841225048
 20
220.8755401225332
 30
0.0
 11
1405.168944767934
 21
219.8662155940263
 31
0.0
  0
LINE
  5
14A7
330
1F
100
AcDbEntity
  8
0
 62
     3
100
AcDbLine
 10
1404.593249249261
 20
208.8812907117259
 30
0.0
 11
1404.086150974577
 21
199.2052792183589
 31
0.0
  0
LINE
  5
14A8
330
1F
100
AcDbEntity
  8
0
 62
     3
100
AcDbLine
 10
1410.077928183104
 20
198.8912634809012
 30
0.0
 11
1410.585026457789
 21
208.5672749742683
 31
0.0
  0
LINE
  5
14A9
330
1F
100
AcDbEntity
  8
0
 62
     3
100
AcDbLine
 10
1411.160721976461
 20
219.5521998565686
 30
0.0
 11
1411.213618433576
 21
220.5615243850755
 31
0.0
  0
LINE
  5
14AA
330
1F
100
AcDbEntity
  8
0
 62
     3
100
AcDbLine
 10
1404.086150974577
 20
199.2052792183589
 30
0.0
 11
1405.505591342344
 21
197.6288309818626
 31
0.0
  0
LINE
  5
14AB
330
1F
100
AcDbEntity
  8
0
 62
     3
100
AcDbLine
 10
1408.501479946608
 20
197.4718231131338
 30
0.0
 11
1410.077928183104
 21
198.8912634809012
 31
0.0
  0
LINE
  5
14AC
330
1F
100
AcDbEntity
  8
0
 62
     3
100
AcDbLine
 10
1405.565703329975
 20
222.6599892960307
 30
0.0
 11
1405.471498608737
 21
220.8624561334724
 31
0.0
  0
LINE
  5
14AD
330
1F
100
AcDbEntity
  8
0
 62
     3
100
AcDbLine
 10
1410.963961049887
 20
220.5746083741362
 30
0.0
 11
1411.058165771125
 21
222.3721415366945
 31
0.0
  0
LINE
  5
14AE
330
1F
100
AcDbEntity
  8
0
 62
     3
100
AcDbLine
 10
1389.824693724508
 20
180.32209568444
 30
0.0
 11
1389.59399348159
 21
189.1321825209131
 31
0.0
  0
LINE
  5
14AF
330
1F
100
AcDbEntity
  8
0
 62
     3
100
AcDbLine
 10
1389.59399348159
 20
189.1321825209131
 30
0.0
 11
1389.887982152007
 21
190.2108718467463
 31
0.0
  0
ARC
  5
14B0
330
1F
100
AcDbEntity
  8
0
 62
     3
100
AcDbCircle
 10
1391.09399348159
 20
189.8821825209131
 30
0.0
 40
1.250000000000027
100
AcDbArc
 50
33.85502612829192
 51
164.7547362813021
  0
ARC
  5
14B1
330
1F
100
AcDbEntity
  8
0
 62
     3
100
AcDbCircle
 10
1394.84399348159
 20
192.3978075209131
 30
0.0
 40
3.265625000000028
100
AcDbArc
 50
213.8550261282919
 51
326.144973871709
  0
ARC
  5
14B2
330
1F
100
AcDbEntity
  8
0
 62
     3
100
AcDbCircle
 10
1402.34399348159
 20
192.3978075209131
 30
0.0
 40
3.265625000000051
100
AcDbArc
 50
213.855026128291
 51
326.144973871709
  0
ARC
  5
14B3
330
1F
100
AcDbEntity
  8
0
 62
     3
100
AcDbCircle
 10
1406.09399348159
 20
189.8821825209131
 30
0.0
 40
1.249999999999995
100
AcDbArc
 50
33.85502612829097
 51
146.144973871708
  0
ARC
  5
14B4
330
1F
100
AcDbEntity
  8
0
 62
     3
100
AcDbCircle
 10
1409.84399348159
 20
192.3978075209131
 30
0.0
 40
3.265625000000051
100
AcDbArc
 50
213.855026128291
 51
326.144973871709
  0
ARC
  5
14B5
330
1F
100
AcDbEntity
  8
0
 62
     3
100
AcDbCircle
 10
1413.59399348159
 20
189.8821825209131
 30
0.0
 40
1.250000000000042
100
AcDbArc
 50
33.85502612829097
 51
146.144973871709
  0
ARC
  5
14B6
330
1F
100
AcDbEntity
  8
0
 62
     3
100
AcDbCircle
 10
1417.34399348159
 20
192.3978075209131
 30
0.0
 40
3.265625000000004
100
AcDbArc
 50
213.8550261282919
 51
270.0
  0
LINE
  5
14B7
330
1F
100
AcDbEntity
  8
0
 62
     3
100
AcDbLine
 10
1417.34399348159
 20
189.1321825209131
 30
0.0
 11
1419.805635892731
 21
189.1321825209131
 31
0.0
  0
ARC
  5
14B8
330
1F
100
AcDbEntity
  8
0
 62
     3
100
AcDbCircle
 10
1398.59399348159
 20
189.8821825209131
 30
0.0
 40
1.249999999999995
100
AcDbArc
 50
33.85502612829097
 51
146.144973871708
  0
LINE
  5
14B9
330
1F
100
AcDbEntity
  8
0
 62
     3
100
AcDbLine
 10
1399.230647581506
 20
209.1623327563124
 30
0.0
 11
1420.280102067408
 21
208.0591775915871
 31
0.0
  0
LINE
  5
14BA
330
1F
100
AcDbEntity
  8
0
 62
     3
100
AcDbLine
 10
1399.922115976929
 20
217.9482717571484
 30
0.0
 11
1399.230647581506
 21
209.1623327563124
 31
0.0
  0
ARC
  5
14BB
330
1F
100
AcDbEntity
  8
0
 62
     3
100
AcDbCircle
 10
1420.018422286193
 20
203.0660299178142
 30
0.0
 40
5.000000000000036
100
AcDbArc
 50
15.88911434044972
 51
86.99999999999439
  0
ARC
  5
14BC
330
1F
100
AcDbEntity
  8
0
 62
     3
100
AcDbCircle
 10
1419.805635892731
 20
194.1321825209131
 30
0.0
 40
5.0
100
AcDbArc
 50
270.0
 51
341.3820596397758
  0
ARC
  5
14BD
330
1F
100
AcDbEntity
  8
0
 62
     3
100
AcDbCircle
 10
1405.529310425486
 20
198.9416738385227
 30
0.0
 40
20.06468305610387
100
AcDbArc
 50
341.3820596397758
 51
15.88911434044972
  0
LINE
  5
14BE
330
1F
100
AcDbEntity
  8
0
 62
     3
100
AcDbLine
 10
1389.882038618851
 20
178.1321825209131
 30
0.0
 11
1389.824693724508
 21
180.3220956844401
 31
0.0
  0
LINE
  5
14BF
330
1F
100
AcDbEntity
  8
0
 62
     3
100
AcDbLine
 10
1400.09399348159
 20
220.1321825209131
 30
0.0
 11
1399.922115976929
 21
217.9482717571483
 31
0.0
  0
SPLINE
  5
14C0
330
1F
100
AcDbEntity
  8
0
 62
     3
100
AcDbSpline
210
0.0
220
0.0
230
1.0
 70
     8
 71
     3
 72
    12
 73
     8
 74
     0
 42
0.0000000001
 43
0.0000000001
 40
0.0
 40
0.0
 40
0.0
 40
0.0
 40
0.0700536154785269
 40
0.2998111133083125
 40
0.530830254097605
 40
0.7650250573854947
 40
1.0
 40
1.0
 40
1.0
 40
1.0
 10
1398.732777549422
 20
159.6321825209131
 30
0.0
 10
1398.790942994262
 20
159.6330422670661
 30
0.0
 10
1399.039875853109
 20
159.6367217552629
 30
0.0
 10
1399.480270658342
 20
159.6936616330777
 30
0.0
 10
1400.052285906088
 20
159.850848103915
 30
0.0
 10
1400.622584789371
 20
160.0818770454545
 30
0.0
 10
1400.998330794256
 20
160.2880926491274
 30
0.0
 10
1401.186516193478
 20
160.3913718994679
 30
0.0
  0
SPLINE
  5
14C1
330
1F
100
AcDbEntity
  8
0
 62
     3
100
AcDbSpline
210
0.0
220
0.0
230
1.0
 70
     8
 71
     3
 72
    11
 73
     7
 74
     0
 42
0.0000000001
 43
0.0000000001
 40
0.0
 40
0.0
 40
0.0
 40
0.0
 40
0.3820492032252858
 40
0.7677441378822172
 40
0.8837849728785698
 40
1.0
 40
1.0
 40
1.0
 40
1.0
 10
1401.186516193478
 20
160.3913718994679
 30
0.0
 10
1401.799912512179
 20
160.2282065584803
 30
0.0
 10
1403.032558527157
 20
159.9003188597461
 30
0.0
 10
1404.491100928214
 20
159.7013138392557
 30
0.0
 10
1405.515367587122
 20
159.6387498387755
 30
0.0
 10
1405.901021769762
 20
159.6343727211481
 30
0.0
 10
1406.09399348159
 20
159.6321825209131
 30
0.0
  0
LINE
  5
14C2
330
1F
100
AcDbEntity
  8
0
 62
     3
100
AcDbLine
 10
1398.732777549422
 20
159.6321825209131
 30
0.0
 11
1406.09399348159
 21
159.6321825209131
 31
0.0
  0
LINE
  5
14C3
330
1F
100
AcDbEntity
  8
0
 62
     3
100
AcDbLine
 10
1411.001470769702
 20
167.4321825209131
 30
0.0
 11
1411.976189467983
 21
167.4321825209131
 31
0.0
  0
LINE
  5
14C4
330
1F
100
AcDbEntity
  8
0
 62
     3
100
AcDbLine
 10
1414.934229359533
 20
167.4321825209131
 30
0.0
 11
1415.908948057814
 21
167.4321825209131
 31
0.0
  0
LINE
  5
14C5
330
1F
100
AcDbEntity
  8
0
 62
     3
100
AcDbLine
 10
1415.908948057814
 20
160.3913718994679
 30
0.0
 11
1415.908948057814
 21
167.4321825209131
 31
0.0
  0
SPLINE
  5
14C6
330
1F
100
AcDbEntity
  8
0
 62
     3
100
AcDbSpline
210
0.0
220
0.0
230
1.0
 70
     8
 71
     3
 72
    12
 73
     8
 74
     0
 42
0.0000000001
 43
0.0000000001
 40
0.0
 40
0.0
 40
0.0
 40
0.0
 40
0.0700536154785272
 40
0.2998111133083128
 40
0.5308302540976047
 40
0.7650250573854946
 40
1.0
 40
1.0
 40
1.0
 40
1.0
 10
1413.455209413758
 20
159.6321825209131
 30
0.0
 10
1413.513374858598
 20
159.6330422670661
 30
0.0
 10
1413.762307717444
 20
159.6367217552629
 30
0.0
 10
1414.202702522677
 20
159.6936616330778
 30
0.0
 10
1414.774717770424
 20
159.850848103915
 30
0.0
 10
1415.345016653706
 20
160.0818770454545
 30
0.0
 10
1415.720762658592
 20
160.2880926491274
 30
0.0
 10
1415.908948057814
 20
160.3913718994679
 30
0.0
  0
SPLINE
  5
14C7
330
1F
100
AcDbEntity
  8
0
 62
     3
100
AcDbSpline
210
0.0
220
0.0
230
1.0
 70
     8
 71
     3
 72
    11
 73
     7
 74
     0
 42
0.0000000001
 43
0.0000000001
 40
0.0
 40
0.0
 40
0.0
 40
0.0
 40
0.2472686137512649
 40
0.4953625653849103
 40
0.7468740051198237
 40
1.0
 40
1.0
 40
1.0
 40
1.0
 10
1411.001470769702
 20
160.3913718994679
 30
0.0
 10
1411.199535970034
 20
160.2828505832869
 30
0.0
 10
1411.596327476491
 20
160.0654457264115
 30
0.0
 10
1412.205298553913
 20
159.8268721051272
 30
0.0
 10
1412.82585563129
 20
159.6633749531408
 30
0.0
 10
1413.244977834721
 20
159.6426021520711
 30
0.0
 10
1413.455209413758
 20
159.6321825209131
 30
0.0
  0
LINE
  5
14C8
330
1F
100
AcDbEntity
  8
0
 62
     3
100
AcDbLine
 10
1411.001470769702
 20
160.3913718994679
 30
0.0
 11
1411.001470769702
 21
167.4321825209131
 31
0.0
  0
SPLINE
  5
14C9
330
1F
100
AcDbEntity
  8
0
 62
     3
100
AcDbSpline
210
0.0
220
0.0
230
1.0
 70
     8
 71
     3
 72
    12
 73
     8
 74
     0
 42
0.0000000001
 43
0.0000000001
 40
0.0
 40
0.0
 40
0.0
 40
0.0
 40
0.1957081198591779
 40
0.3914297674115105
 40
0.7885570881138959
 40
0.8942506401528127
 40
1.0
 40
1.0
 40
1.0
 40
1.0
 10
1406.09399348159
 20
159.6321825209131
 30
0.0
 10
1406.419013466167
 20
159.6385350175161
 30
0.0
 10
1407.06907590128
 20
159.6512404498182
 30
0.0
 10
1408.372957000437
 20
159.7834757714448
 30
0.0
 10
1409.514761630381
 20
160.0009770697933
 30
0.0
 10
1410.494555010053
 20
160.2483356341556
 30
0.0
 10
1410.832469120366
 20
160.3436847556133
 30
0.0
 10
1411.001470769702
 20
160.3913718994679
 30
0.0
  0
LINE
  5
14CA
330
1F
100
AcDbEntity
  8
0
 62
     3
100
AcDbLine
 10
1406.09399348159
 20
159.6321825209131
 30
0.0
 11
1413.455209413758
 21
159.6321825209131
 31
0.0
  0
LINE
  5
14CB
330
1F
100
AcDbEntity
  8
0
 62
     3
100
AcDbLine
 10
1396.279038905366
 20
167.4321825209131
 30
0.0
 11
1397.253757603647
 21
167.4321825209131
 31
0.0
  0
LINE
  5
14CC
330
1F
100
AcDbEntity
  8
0
 62
     3
100
AcDbLine
 10
1400.211797495197
 20
167.4321825209131
 30
0.0
 11
1401.186516193478
 21
167.4321825209131
 31
0.0
  0
LINE
  5
14CD
330
1F
100
AcDbEntity
  8
0
 62
     3
100
AcDbLine
 10
1401.186516193478
 20
160.3913718994679
 30
0.0
 11
1401.186516193478
 21
167.4321825209131
 31
0.0
  0
SPLINE
  5
14CE
330
1F
100
AcDbEntity
  8
0
 62
     3
100
AcDbSpline
210
0.0
220
0.0
230
1.0
 70
     8
 71
     3
 72
    11
 73
     7
 74
     0
 42
0.0000000001
 43
0.0000000001
 40
0.0
 40
0.0
 40
0.0
 40
0.0
 40
0.247268613751265
 40
0.4953625653849104
 40
0.7468740051198236
 40
1.0
 40
1.0
 40
1.0
 40
1.0
 10
1396.279038905366
 20
160.3913718994679
 30
0.0
 10
1396.477104105698
 20
160.2828505832869
 30
0.0
 10
1396.873895612156
 20
160.0654457264115
 30
0.0
 10
1397.482866689578
 20
159.8268721051272
 30
0.0
 10
1398.103423766954
 20
159.6633749531408
 30
0.0
 10
1398.522545970386
 20
159.6426021520711
 30
0.0
 10
1398.732777549422
 20
159.6321825209131
 30
0.0
  0
LINE
  5
14CF
330
1F
100
AcDbEntity
  8
0
 62
     3
100
AcDbLine
 10
1396.279038905366
 20
160.3913718994679
 30
0.0
 11
1396.279038905366
 21
167.4321825209131
 31
0.0
  0
LINE
  5
14D0
330
1F
100
AcDbEntity
  8
0
 62
     3
100
AcDbLine
 10
1401.186516193478
 20
167.4321825209131
 30
0.0
 11
1403.13595359004
 21
167.4321825209131
 31
0.0
  0
LINE
  5
14D1
330
1F
100
AcDbEntity
  8
0
 62
     3
100
AcDbLine
 10
1409.05203337314
 20
167.4321825209131
 30
0.0
 11
1411.001470769702
 21
167.4321825209131
 31
0.0
  0
LINE
  5
14D2
330
1F
100
AcDbEntity
  8
0
 62
     3
100
AcDbLine
 10
1413.455209413758
 20
159.6321825209131
 30
0.0
 11
1414.59399348159
 21
159.6321825209131
 31
0.0
  0
LINE
  5
14D3
330
1F
100
AcDbEntity
  8
0
 62
     3
100
AcDbLine
 10
1397.59399348159
 20
159.6321825209131
 30
0.0
 11
1398.732777549422
 21
159.6321825209131
 31
0.0
  0
ELLIPSE
  5
14D4
330
1F
100
AcDbEntity
  8
0
 62
     3
100
AcDbEllipse
 10
1406.09399348159
 20
170.0321825209131
 30
0.0
 11
0.0
 21
15.58845726811975
 31
0.0
210
0.0
220
0.0
230
1.0
 40
0.5773502691896311
 41
1.570796326794896
 42
1.654288334493301
  0
ELLIPSE
  5
14D5
330
1F
100
AcDbEntity
  8
0
 62
     3
100
AcDbEllipse
 10
1406.09399348159
 20
167.4321825209131
 30
0.0
 11
0.0
 21
15.58845726811972
 31
0.0
210
0.0
220
0.0
230
1.0
 40
0.5773502691896321
 41
1.403223084552168
 42
1.570796326794896
  0
LINE
  5
14D6
330
1F
100
AcDbEntity
  8
0
 62
     3
100
AcDbLine
 10
1397.253757603647
 20
167.4321825209131
 30
0.0
 11
1400.211797495197
 21
167.4321825209131
 31
0.0
  0
LINE
  5
14D7
330
1F
100
AcDbEntity
  8
0
 62
     3
100
AcDbLine
 10
1403.13595359004
 20
167.4321825209131
 30
0.0
 11
1409.05203337314
 21
167.4321825209131
 31
0.0
  0
LINE
  5
14D8
330
1F
100
AcDbEntity
  8
0
 62
     3
100
AcDbLine
 10
1411.976189467983
 20
167.4321825209131
 30
0.0
 11
1414.934229359533
 21
167.4321825209131
 31
0.0
  0
LINE
  5
14D9
330
1F
100
AcDbEntity
  8
0
 62
     3
100
AcDbLine
 10
1395.09399348159
 20
170.0321825209131
 30
0.0
 11
1417.09399348159
 21
170.0321825209131
 31
0.0
  0
LINE
  5
14DA
330
1F
100
AcDbEntity
  8
0
 62
     3
100
AcDbLine
 10
1395.09399348159
 20
171.6321825209131
 30
0.0
 11
1417.09399348159
 21
171.6321825209131
 31
0.0
  0
LINE
  5
14DB
330
1F
100
AcDbEntity
  8
0
 62
     3
100
AcDbLine
 10
1404.080548980271
 20
189.6321825209131
 30
0.0
 11
1400.607437982909
 21
189.6321825209131
 31
0.0
  0
LINE
  5
14DC
330
1F
100
AcDbEntity
  8
0
 62
     3
100
AcDbLine
 10
1411.580548980271
 20
189.6321825209131
 30
0.0
 11
1408.107437982909
 21
189.6321825209131
 31
0.0
  0
LINE
  5
14DD
330
1F
100
AcDbEntity
  8
0
 62
     3
100
AcDbLine
 10
1411.09399348159
 20
157.6321825209131
 30
0.0
 11
1401.09399348159
 21
157.6321825209131
 31
0.0
  0
SPLINE
  5
14DE
330
1F
100
AcDbEntity
  8
0
 62
     3
100
AcDbSpline
210
0.0
220
0.0
230
1.0
 70
     8
 71
     3
 72
    10
 73
     6
 74
     0
 42
0.0000000001
 43
0.0000000001
 40
0.0
 40
0.0
 40
0.0
 40
0.0
 40
0.4952513202458546
 40
0.7468182045894494
 40
0.9999999999999998
 40
0.9999999999999998
 40
0.9999999999999998
 40
0.9999999999999998
 10
1405.615110926614
 20
226.2156944852144
 30
0.0
 10
1405.3873967458
 20
226.3491220563146
 30
0.0
 10
1405.044013318592
 20
226.5503252334052
 30
0.0
 10
1404.56570072828
 20
226.6988318901007
 30
0.0
 10
1404.320219140423
 20
226.7243866388194
 30
0.0
 10
1404.197085645187
 20
226.7372048935695
 30
0.0
  0
SPLINE
  5
14DF
330
1F
100
AcDbEntity
  8
0
 62
     3
100
AcDbSpline
210
0.0
220
0.0
230
1.0
 70
     8
 71
     3
 72
    10
 73
     6
 74
     0
 42
0.0000000001
 43
0.0000000001
 40
0.0
 40
0.0
 40
0.0
 40
0.0
 40
0.2427341993278691
 40
0.6192999306446807
 40
1.0
 40
1.0
 40
1.0
 40
1.0
 10
1408.521278375521
 20
226.5105835553808
 30
0.0
 10
1408.284222415922
 20
226.5170176633327
 30
0.0
 10
1407.679409662938
 20
226.5334333254824
 30
0.0
 10
1406.703258211348
 20
226.4434820237023
 30
0.0
 10
1405.979144468989
 20
226.2918995226278
 30
0.0
 10
1405.615110926614
 20
226.2156944852144
 30
0.0
  0
LINE
  5
14E0
330
1F
100
AcDbEntity
  8
0
 62
     3
100
AcDbLine
 10
1408.521278375521
 20
226.5105835553808
 30
0.0
 11
1404.197085645187
 21
226.7372048935695
 31
0.0
  0
SPLINE
  5
14E1
330
1F
100
AcDbEntity
  8
0
 62
     3
100
AcDbSpline
210
0.0
220
0.0
230
1.0
 70
     8
 71
     3
 72
    10
 73
     6
 74
     0
 42
0.0000000001
 43
0.0000000001
 40
0.0
 40
0.0
 40
0.0
 40
0.0
 40
0.0700627427124772
 40
0.5307703520768676
 40
1.0
 40
1.0
 40
1.0
 40
1.0
 10
1412.845471105856
 20
226.2839622171922
 30
0.0
 10
1412.811290754242
 20
226.2852199848612
 30
0.0
 10
1412.552352600275
 20
226.2947483841602
 30
0.0
 10
1412.059418343583
 20
226.2229202725067
 30
0.0
 10
1411.608318245902
 20
226.0172900302186
 30
0.0
 10
1411.380701233728
 20
225.9135327009632
 30
0.0
  0
SPLINE
  5
14E2
330
1F
100
AcDbEntity
  8
0
 62
     3
100
AcDbSpline
210
0.0
220
0.0
230
1.0
 70
     8
 71
     3
 72
    10
 73
     6
 74
     0
 42
0.0000000001
 43
0.0000000001
 40
0.0
 40
0.0
 40
0.0
 40
0.0
 40
0.2248262199983419
 40
0.6099193969549443
 40
1.0
 40
1.0
 40
1.0
 40
1.0
 10
1411.380701233728
 20
225.9135327009632
 30
0.0
 10
1411.17227700216
 20
225.9824200938265
 30
0.0
 10
1410.606853709318
 20
226.1693011307146
 30
0.0
 10
1409.65578039797
 20
226.4062577946973
 30
0.0
 10
1408.901064317125
 20
226.475659459636
 30
0.0
 10
1408.521278375521
 20
226.5105835553808
 30
0.0
  0
LINE
  5
14E3
330
1F
100
AcDbEntity
  8
0
 62
     3
100
AcDbLine
 10
1412.845471105856
 20
226.2839622171922
 30
0.0
 11
1408.521278375521
 21
226.5105835553808
 31
0.0
  0
LINE
  5
14E4
330
1F
100
AcDbEntity
  8
0
 62
     3
100
AcDbLine
 10
1414.192663961397
 20
224.410888608571
 30
0.0
 11
1414.077524857662
 21
222.213903632111
 31
0.0
  0
LINE
  5
14E5
330
1F
100
AcDbEntity
  8
0
 62
     3
100
AcDbLine
 10
1411.194729704106
 20
222.3649845242368
 30
0.0
 11
1414.077524857662
 21
222.213903632111
 31
0.0
  0
LINE
  5
14E6
330
1F
100
AcDbEntity
  8
0
 62
     3
100
AcDbLine
 10
1411.380701233728
 20
225.9135327009632
 30
0.0
 11
1411.194729704106
 21
222.3649845242368
 31
0.0
  0
SPLINE
  5
14E7
330
1F
100
AcDbEntity
  8
0
 62
     3
100
AcDbSpline
210
0.0
220
0.0
230
1.0
 70
     8
 71
     3
 72
     9
 73
     5
 74
     0
 42
0.0000000001
 43
0.0000000001
 40
0.0
 40
0.0
 40
0.0
 40
0.0
 40
0.4966552783307662
 40
1.0
 40
1.0
 40
1.0
 40
1.0
 10
1413.983252325041
 20
225.930885477592
 30
0.0
 10
1413.798892097454
 20
226.0237009267997
 30
0.0
 10
1413.427688496825
 20
226.210581955266
 30
0.0
 10
1413.040407135088
 20
226.2593932896649
 30
0.0
 10
1412.845471105856
 20
226.2839622171922
 30
0.0
  0
LINE
  5
14E8
330
1F
100
AcDbEntity
  8
0
 62
     3
100
AcDbLine
 10
1413.904384446041
 20
224.4259966977836
 30
0.0
 11
1413.983252325041
 21
225.930885477592
 31
0.0
  0
LINE
  5
14E9
330
1F
100
AcDbEntity
  8
0
 62
     3
100
AcDbLine
 10
1413.904384446041
 20
224.4259966977836
 30
0.0
 11
1414.192663961397
 21
224.410888608571
 31
0.0
  0
LINE
  5
14EA
330
1F
100
AcDbEntity
  8
0
 62
     3
100
AcDbLine
 10
1405.615110926614
 20
226.2156944852144
 30
0.0
 11
1405.429139396993
 21
222.6671463084884
 31
0.0
  0
LINE
  5
14EB
330
1F
100
AcDbEntity
  8
0
 62
     3
100
AcDbLine
 10
1405.429139396993
 20
222.6671463084884
 30
0.0
 11
1411.194729704106
 21
222.3649845242368
 31
0.0
  0
LINE
  5
14EC
330
1F
100
AcDbEntity
  8
0
 62
     3
100
AcDbLine
 10
1402.661483347172
 20
225.0152121770742
 30
0.0
 11
1402.546344243437
 21
222.8182272006141
 31
0.0
  0
LINE
  5
14ED
330
1F
100
AcDbEntity
  8
0
 62
     3
100
AcDbLine
 10
1402.661483347172
 20
225.0152121770742
 30
0.0
 11
1402.949762862527
 21
225.0001040878617
 31
0.0
  0
LINE
  5
14EE
330
1F
100
AcDbEntity
  8
0
 62
     3
100
AcDbLine
 10
1403.028630741544
 20
226.504992867659
 30
0.0
 11
1402.949762862527
 21
225.0001040878617
 31
0.0
  0
SPLINE
  5
14EF
330
1F
100
AcDbEntity
  8
0
 62
     3
100
AcDbSpline
210
0.0
220
0.0
230
1.0
 70
     8
 71
     3
 72
    10
 73
     6
 74
     0
 42
0.0000000001
 43
0.0000000001
 40
0.0
 40
0.0
 40
0.0
 40
0.0
 40
0.0879824264648413
 40
0.5411921344599192
 40
0.9999999999999998
 40
0.9999999999999998
 40
0.9999999999999998
 40
0.9999999999999998
 10
1404.197085645187
 20
226.7372048935695
 30
0.0
 10
1404.162904970681
 20
226.7384617882299
 30
0.0
 10
1403.952654890792
 20
226.7461931219904
 30
0.0
 10
1403.560943098962
 20
226.7026112748094
 30
0.0
 10
1403.206792810576
 20
226.5711346804614
 30
0.0
 10
1403.028630741544
 20
226.504992867659
 30
0.0
  0
LINE
  5
14F0
330
1F
100
AcDbEntity
  8
0
 62
     3
100
AcDbLine
 10
1402.546344243437
 20
222.8182272006141
 30
0.0
 11
1405.429139396993
 21
222.6671463084884
 31
0.0
  0
LINE
  5
14F1
330
1F
100
AcDbEntity
  8
0
 62
     3
100
AcDbLine
 10
1411.213618433576
 20
220.5615243850755
 30
0.0
 11
1405.221841225048
 21
220.8755401225332
 31
0.0
  0
LINE
  5
14F2
330
1F
100
AcDbEntity
  8
0
 62
     3
100
AcDbLine
 10
1404.086150974577
 20
199.2052792183589
 30
0.0
 11
1410.077928183104
 21
198.8912634809012
 31
0.0
  0
LINE
  5
14F3
330
1F
100
AcDbEntity
  8
0
 62
     3
100
AcDbLine
 10
1408.501479946608
 20
197.4718231131338
 30
0.0
 11
1405.505591342344
 21
197.6288309818626
 31
0.0
  0
SPLINE
  5
14F4
330
1F
100
AcDbEntity
  8
0
 62
     3
100
AcDbSpline
210
0.0
220
0.0
230
1.0
 70
     8
 71
     3
 72
     9
 73
     5
 74
     0
 42
0.0000000001
 43
0.0000000001
 40
0.0
 40
0.0
 40
0.0
 40
0.0
 40
0.0364189202898226
 40
1.0
 40
1.0
 40
1.0
 40
1.0
 10
1403.553159168499
 20
226.7709516502343
 30
0.0
 10
1403.546790947741
 20
226.767724257864
 30
0.0
 10
1403.371930718289
 20
226.6791056951859
 30
0.0
 10
1403.197097104189
 20
226.59043462918
 30
0.0
 10
1403.028630741544
 20
226.504992867659
 30
0.0
  0
LINE
  5
14F5
330
1F
100
AcDbEntity
  8
0
 62
     3
100
AcDbLine
 10
1404.197085645187
 20
226.7372048935695
 30
0.0
 11
1403.553159168499
 21
226.7709516502343
 31
0.0
  0
LINE
  5
14F6
330
1F
100
AcDbEntity
  8
0
 62
     3
100
AcDbLine
 10
1413.983252325041
 20
225.930885477592
 30
0.0
 11
1413.489397582543
 21
226.2502154605274
 31
0.0
  0
LINE
  5
14F7
330
1F
100
AcDbEntity
  8
0
 62
     3
100
AcDbLine
 10
1413.489397582543
 20
226.2502154605274
 30
0.0
 11
1412.845471105856
 21
226.2839622171922
 31
0.0
  0
LINE
  5
14F8
330
1F
100
AcDbEntity
  8
0
 62
     3
100
AcDbLine
 10
1489.226943364244
 20
191.1321825209131
 30
0.0
 11
1488.976943364244
 21
191.1321825209131
 31
0.0
  0
LINE
  5
14F9
330
1F
100
AcDbEntity
  8
0
 62
     3
100
AcDbLine
 10
1455.776943364245
 20
191.1321825209131
 30
0.0
 11
1455.526943364245
 21
191.1321825209131
 31
0.0
  0
LINE
  5
14FA
330
1F
100
AcDbEntity
  8
0
 62
     3
100
AcDbLine
 10
1481.376943364244
 20
167.4321825209131
 30
0.0
 11
1481.376943364244
 21
170.0321825209131
 31
0.0
  0
LINE
  5
14FB
330
1F
100
AcDbEntity
  8
0
 62
     3
100
AcDbLine
 10
1463.376943364244
 20
170.0321825209131
 30
0.0
 11
1463.376943364244
 21
167.4321825209131
 31
0.0
  0
LINE
  5
14FC
330
1F
100
AcDbEntity
  8
0
 62
     3
100
AcDbLine
 10
1483.376943364245
 20
170.0321825209131
 30
0.0
 11
1483.376943364245
 21
171.6321825209131
 31
0.0
  0
LINE
  5
14FD
330
1F
100
AcDbEntity
  8
0
 62
     3
100
AcDbLine
 10
1461.376943364244
 20
171.6321825209131
 30
0.0
 11
1461.376943364244
 21
170.0321825209131
 31
0.0
  0
LINE
  5
14FE
330
1F
100
AcDbEntity
  8
0
 62
     3
100
AcDbLine
 10
1467.376943364245
 20
180.6321825209131
 30
0.0
 11
1467.376943364245
 21
171.6321825209131
 31
0.0
  0
LINE
  5
14FF
330
1F
100
AcDbEntity
  8
0
 62
     3
100
AcDbLine
 10
1467.376943364245
 20
159.6321825209131
 30
0.0
 11
1467.376943364245
 21
157.6321825209131
 31
0.0
  0
LINE
  5
1500
330
1F
100
AcDbEntity
  8
0
 62
     3
100
AcDbLine
 10
1477.376943364244
 20
157.6321825209131
 30
0.0
 11
1477.376943364244
 21
159.6321825209131
 31
0.0
  0
LINE
  5
1501
330
1F
100
AcDbEntity
  8
0
 62
     3
100
AcDbLine
 10
1477.376943364244
 20
171.6321825209131
 30
0.0
 11
1477.376943364244
 21
180.6321825209131
 31
0.0
  0
LINE
  5
1502
330
1F
100
AcDbEntity
  8
0
 62
     3
100
AcDbLine
 10
1469.376943364244
 20
220.7185322538043
 30
0.0
 11
1469.376943364244
 21
217.212633888411
 31
0.0
  0
LINE
  5
1503
330
1F
100
AcDbEntity
  8
0
 62
     3
100
AcDbLine
 10
1469.376943364244
 20
203.4049682851356
 30
0.0
 11
1469.376943364244
 21
199.04827134963
 31
0.0
  0
LINE
  5
1504
330
1F
100
AcDbEntity
  8
0
 62
     3
100
AcDbLine
 10
1475.376943364245
 20
199.04827134963
 30
0.0
 11
1475.376943364245
 21
203.412525363316
 31
0.0
  0
LINE
  5
1505
330
1F
100
AcDbEntity
  8
0
 62
     3
100
AcDbLine
 10
1475.376943364245
 20
217.212633888411
 30
0.0
 11
1475.376943364245
 21
220.7185322538043
 31
0.0
  0
LINE
  5
1506
330
1F
100
AcDbEntity
  8
0
 62
     3
100
AcDbLine
 10
1469.626943364245
 20
222.2969981227802
 30
0.0
 11
1469.626943364245
 21
220.7185322538043
 31
0.0
  0
LINE
  5
1507
330
1F
100
AcDbEntity
  8
0
 62
     3
100
AcDbLine
 10
1475.126943364245
 20
220.7185322538043
 30
0.0
 11
1475.126943364245
 21
222.2969981227802
 31
0.0
  0
LINE
  5
1508
330
1F
100
AcDbEntity
  8
0
 62
     3
100
AcDbLine
 10
1469.381066060009
 20
199.0400429159
 30
0.0
 11
1470.879004712126
 21
197.5462128306332
 31
0.0
  0
LINE
  5
1509
330
1F
100
AcDbEntity
  8
0
 62
     3
100
AcDbLine
 10
1473.874882016362
 20
197.5462128306332
 30
0.0
 11
1475.37282066848
 21
199.0400429159
 31
0.0
  0
LINE
  5
150A
330
1F
100
AcDbEntity
  8
0
 62
     3
100
AcDbLine
 10
1467.397585288117
 20
226.5343369975261
 30
0.0
 11
1467.376943364245
 21
226.5224848430008
 31
0.0
  0
LINE
  5
150B
330
1F
100
AcDbEntity
  8
0
 62
     3
100
AcDbLine
 10
1481.376943364244
 20
189.8222257467862
 30
0.0
 11
1481.376943364244
 21
206.7620125590073
 31
0.0
  0
LINE
  5
150C
330
1F
100
AcDbEntity
  8
0
 62
     3
100
AcDbLine
 10
1463.376943364244
 20
189.8222257467862
 30
0.0
 11
1463.376943364244
 21
206.7620125590073
 31
0.0
  0
ARC
  5
150D
330
1F
100
AcDbEntity
  8
0
 62
     3
100
AcDbCircle
 10
1485.394987817901
 20
180.6321825209131
 30
0.0
 40
2.50000000000004
100
AcDbArc
 50
231.5235278005379
 51
352.8749836510982
  0
ARC
  5
150E
330
1F
100
AcDbEntity
  8
0
 62
     3
100
AcDbCircle
 10
1459.358898910588
 20
180.6321825209131
 30
0.0
 40
2.500000000000017
100
AcDbArc
 50
187.1250163489033
 51
308.4764721994639
  0
LINE
  5
150F
330
1F
100
AcDbEntity
  8
0
 62
     3
100
AcDbLine
 10
1481.376943364244
 20
206.7620125590073
 30
0.0
 11
1481.376943364244
 21
216.547528637001
 31
0.0
  0
LINE
  5
1510
330
1F
100
AcDbEntity
  8
0
 62
     3
100
AcDbLine
 10
1463.376943364244
 20
206.7620125590073
 30
0.0
 11
1463.376943364244
 21
216.547528637001
 31
0.0
  0
LINE
  5
1511
330
1F
100
AcDbEntity
  8
0
 62
     3
100
AcDbLine
 10
1481.376943364244
 20
180.6321825209131
 30
0.0
 11
1481.376943364244
 21
189.8222257467862
 31
0.0
  0
LINE
  5
1512
330
1F
100
AcDbEntity
  8
0
 62
     3
100
AcDbLine
 10
1483.839504778307
 20
178.6750232239897
 30
0.0
 11
1481.376943364244
 21
180.6321825209131
 31
0.0
  0
LINE
  5
1513
330
1F
100
AcDbEntity
  8
0
 62
     3
100
AcDbLine
 10
1463.376943364244
 20
180.6321825209131
 30
0.0
 11
1463.376943364244
 21
189.8222257467862
 31
0.0
  0
LINE
  5
1514
330
1F
100
AcDbEntity
  8
0
 62
     3
100
AcDbLine
 10
1463.376943364244
 20
180.6321825209131
 30
0.0
 11
1460.914381950182
 21
178.6750232239897
 31
0.0
  0
LINE
  5
1515
330
1F
100
AcDbEntity
  8
0
 62
     3
100
AcDbLine
 10
1488.976943364244
 20
192.5359022341994
 30
0.0
 11
1488.976943364244
 21
204.4349123775153
 31
0.0
  0
LINE
  5
1516
330
1F
100
AcDbEntity
  8
0
 62
     3
100
AcDbLine
 10
1455.776943364245
 20
204.4349123775153
 30
0.0
 11
1455.776943364245
 21
192.5359022341994
 31
0.0
  0
SPLINE
  5
1517
330
1F
100
AcDbEntity
  8
0
 62
     3
100
AcDbSpline
210
0.0
220
0.0
230
1.0
 70
    11
 71
     3
 72
    93
 73
    89
 74
     0
 42
0.0000000001
 43
0.0000000001
 40
0.0
 40
0.0
 40
0.0
 40
0.0
 40
0.0312500000000001
 40
0.0312500000000001
 40
0.0468750000000002
 40
0.0468750000000002
 40
0.0625000000000003
 40
0.0625000000000003
 40
0.0937500000000004
 40
0.0937500000000004
 40
0.1093750000000004
 40
0.1093750000000004
 40
0.1250000000000004
 40
0.1250000000000004
 40
0.1562500000000007
 40
0.1562500000000007
 40
0.1875000000000009
 40
0.1875000000000009
 40
0.2031250000000011
 40
0.2031250000000011
 40
0.2187500000000012
 40
0.2187500000000012
 40
0.2500000000000015
 40
0.2500000000000015
 40
0.2812500000000018
 40
0.2812500000000018
 40
0.312500000000002
 40
0.312500000000002
 40
0.3281250000000021
 40
0.3281250000000021
 40
0.3437500000000022
 40
0.3437500000000022
 40
0.3593750000000023
 40
0.3593750000000023
 40
0.3750000000000023
 40
0.3750000000000023
 40
0.4062500000000028
 40
0.4062500000000028
 40
0.4375000000000031
 40
0.4375000000000031
 40
0.4687500000000035
 40
0.4687500000000035
 40
0.4843750000000036
 40
0.4843750000000036
 40
0.5000000000000036
 40
0.5000000000000036
 40
0.5312500000000035
 40
0.5312500000000035
 40
0.5625000000000035
 40
0.5625000000000035
 40
0.5781250000000034
 40
0.5781250000000034
 40
0.5937500000000032
 40
0.5937500000000032
 40
0.6250000000000031
 40
0.6250000000000031
 40
0.6406250000000029
 40
0.6406250000000029
 40
0.6562500000000028
 40
0.6562500000000028
 40
0.6875000000000025
 40
0.6875000000000025
 40
0.7031250000000023
 40
0.7031250000000023
 40
0.7187500000000023
 40
0.7343750000000023
 40
0.7343750000000023
 40
0.7500000000000022
 40
0.7500000000000022
 40
0.7812500000000018
 40
0.7812500000000018
 40
0.8125000000000015
 40
0.8125000000000015
 40
0.8437500000000012
 40
0.8437500000000012
 40
0.859375000000001
 40
0.859375000000001
 40
0.875000000000001
 40
0.875000000000001
 40
0.890625000000001
 40
0.890625000000001
 40
0.9062500000000008
 40
0.9062500000000008
 40
0.9375000000000005
 40
0.9375000000000005
 40
0.9687500000000003
 40
0.9687500000000003
 40
1.0
 40
1.0
 40
1.0
 40
1.0
 10
1465.626943364244
 20
197.3821825209131
 30
0.0
 10
1465.626943364244
 20
197.8294959405013
 30
0.0
 10
1465.670970183811
 20
198.269648209708
 30
0.0
 10
1465.800629290891
 20
198.919513363633
 30
0.0
 10
1465.854530686552
 20
199.1343948303065
 30
0.0
 10
1465.984237717221
 20
199.5605832245984
 30
0.0
 10
1466.06024719083
 20
199.7719693111262
 30
0.0
 10
1466.316113331471
 20
200.386473637539
 30
0.0
 10
1466.524856402519
 20
200.7750732223823
 30
0.0
 10
1466.894958951592
 20
201.3267204126523
 30
0.0
 10
1467.028699376405
 20
201.5062836559415
 30
0.0
 10
1467.31165448814
 20
201.8492590287671
 30
0.0
 10
1467.460581965761
 20
202.0125632387944
 30
0.0
 10
1467.929173396598
 20
202.4786501492792
 30
0.0
 10
1468.270425945657
 20
202.7578459378121
 30
0.0
 10
1469.013085590452
 20
203.251228726102
 30
0.0
 10
1469.404433622681
 20
203.4584346380745
 30
0.0
 10
1470.015800225494
 20
203.7095865357584
 30
0.0
 10
1470.223936115112
 20
203.7834580578447
 30
0.0
 10
1470.649128994874
 20
203.9110741741366
 30
0.0
 10
1470.867270842785
 20
203.9649474175186
 30
0.0
 10
1471.521767120509
 20
204.0925322000489
 30
0.0
 10
1471.961283545199
 20
204.1338998060428
 30
0.0
 10
1472.846622454091
 20
204.1303571582538
 30
0.0
 10
1473.295804299551
 20
204.0839549085163
 30
0.0
 10
1474.162318345566
 20
203.9067893849121
 30
0.0
 10
1474.584018941818
 20
203.7766468519745
 30
0.0
 10
1475.199044405966
 20
203.5179554862287
 30
0.0
 10
1475.400941703161
 20
203.4209672423016
 30
0.0
 10
1475.790039421691
 20
203.2098975248992
 30
0.0
 10
1475.978405594644
 20
203.0953631868882
 30
0.0
 10
1476.343015260457
 20
202.8485558372113
 30
0.0
 10
1476.519258635257
 20
202.7162828117671
 30
0.0
 10
1476.859503484823
 20
202.4337225319143
 30
0.0
 10
1477.02434717441
 20
202.2825413241855
 30
0.0
 10
1477.492695426272
 20
201.8081394956318
 30
0.0
 10
1477.769810951341
 20
201.465588392941
 30
0.0
 10
1478.255537864436
 20
200.7287256672036
 30
0.0
 10
1478.465515372071
 20
200.3296946271352
 30
0.0
 10
1478.798368938261
 20
199.5091123054089
 30
0.0
 10
1478.923490627192
 20
199.0858742607858
 30
0.0
 10
1479.048603109028
 20
198.4313693024051
 30
0.0
 10
1479.07984260107
 20
198.2086896668495
 30
0.0
 10
1479.119712682968
 20
197.7656328512221
 30
0.0
 10
1479.128590336513
 20
197.5446238884149
 30
0.0
 10
1479.122900327077
 20
196.8831226049688
 30
0.0
 10
1479.07609800848
 20
196.4430659244699
 30
0.0
 10
1478.89477671199
 20
195.5715303234677
 30
0.0
 10
1478.763069622217
 20
195.1524189519142
 30
0.0
 10
1478.506700095459
 20
194.5472978750708
 30
0.0
 10
1478.411366257562
 20
194.3495441068265
 30
0.0
 10
1478.200499331429
 20
193.9620434443464
 30
0.0
 10
1478.085100573033
 20
193.7728255021238
 30
0.0
 10
1477.715927628825
 20
193.2288929499955
 30
0.0
 10
1477.437304615158
 20
192.8936115435719
 30
0.0
 10
1476.970188497633
 20
192.4311618688962
 30
0.0
 10
1476.805267089041
 20
192.2830689465587
 30
0.0
 10
1476.463436351874
 20
192.0052330774263
 30
0.0
 10
1476.286806869882
 20
191.8755265174829
 30
0.0
 10
1475.740035126931
 20
191.5133422873529
 30
0.0
 10
1475.353182836581
 20
191.3075212613021
 30
0.0
 10
1474.737365618111
 20
191.0544531108184
 30
0.0
 10
1474.527164089501
 20
190.9800112722504
 30
0.0
 10
1474.10420067555
 20
190.8531829207703
 30
0.0
 10
1473.676604139114
 20
190.7475297922027
 30
0.0
 10
1473.239770010839
 20
190.6838826926183
 30
0.0
 10
1472.798202940038
 20
190.6416906411161
 30
0.0
 10
1472.573689762566
 20
190.6313720587417
 30
0.0
 10
1471.905219341807
 20
190.6339545600096
 30
0.0
 10
1471.465938972607
 20
190.6793555256353
 30
0.0
 10
1470.59974248082
 20
190.8553627938053
 30
0.0
 10
1470.169759921965
 20
190.9880767676733
 30
0.0
 10
1469.358064270046
 20
191.3288680448512
 30
0.0
 10
1468.972068722993
 20
191.5371572245619
 30
0.0
 10
1468.42271276718
 20
191.9072114347208
 30
0.0
 10
1468.245160477668
 20
192.0399985388828
 30
0.0
 10
1467.907229137397
 20
192.3193558154065
 30
0.0
 10
1467.745903044675
 20
192.4665401360118
 30
0.0
 10
1467.438212675842
 20
192.7757724561069
 30
0.0
 10
1467.291848590312
 20
192.9378203568853
 30
0.0
 10
1467.014226537207
 20
193.2770866465249
 30
0.0
 10
1466.882330624583
 20
193.4553316230996
 30
0.0
 10
1466.516173661733
 20
194.004670563248
 30
0.0
 10
1466.310500320717
 20
194.3900791081535
 30
0.0
 10
1465.974640585355
 20
195.1993098355664
 30
0.0
 10
1465.843989599665
 20
195.6276473130708
 30
0.0
 10
1465.670972286393
 20
196.4945843073548
 30
0.0
 10
1465.626943364244
 20
196.9348691013248
 30
0.0
 10
1465.626943364244
 20
197.3821825209131
 30
0.0
  0
LINE
  5
1518
330
1F
100
AcDbEntity
  8
0
 62
     3
100
AcDbLine
 10
1488.976943364244
 20
204.4349123775153
 30
0.0
 11
1488.976943364244
 21
208.0591775915871
 31
0.0
  0
LINE
  5
1519
330
1F
100
AcDbEntity
  8
0
 62
     3
100
AcDbLine
 10
1455.776943364245
 20
208.0591775915871
 30
0.0
 11
1455.776943364245
 21
204.4349123775153
 31
0.0
  0
LINE
  5
151A
330
1F
100
AcDbEntity
  8
0
 62
     3
100
AcDbLine
 10
1488.976943364244
 20
189.1321825209131
 30
0.0
 11
1488.976943364244
 21
192.5359022341994
 31
0.0
  0
LINE
  5
151B
330
1F
100
AcDbEntity
  8
0
 62
     3
100
AcDbLine
 10
1488.976943364244
 20
189.1321825209131
 30
0.0
 11
1487.875682509685
 21
180.32209568444
 31
0.0
  0
LINE
  5
151C
330
1F
100
AcDbEntity
  8
0
 62
     3
100
AcDbLine
 10
1456.878204218804
 20
180.32209568444
 30
0.0
 11
1455.776943364245
 21
189.1321825209131
 31
0.0
  0
LINE
  5
151D
330
1F
100
AcDbEntity
  8
0
 62
     3
100
AcDbLine
 10
1455.776943364245
 20
192.5359022341994
 30
0.0
 11
1455.776943364245
 21
189.1321825209131
 31
0.0
  0
LINE
  5
151E
330
1F
100
AcDbEntity
  8
0
 62
     3
100
AcDbLine
 10
1481.376943364244
 20
180.6321825209131
 30
0.0
 11
1463.376943364244
 21
180.6321825209131
 31
0.0
  0
ELLIPSE
  5
151F
330
1F
100
AcDbEntity
  8
0
 62
     3
100
AcDbEllipse
 10
1485.394987817901
 20
217.6390348471402
 30
0.0
 11
2.500000000000056
 21
0.0
 31
0.0
210
0.0
220
0.0
230
1.0
 40
0.9972590695091298
 41
0.1243549945467689
 42
2.242337451227589
  0
ELLIPSE
  5
1520
330
1F
100
AcDbEntity
  8
0
 62
     3
100
AcDbEllipse
 10
1459.358898910588
 20
217.6390348471402
 30
0.0
 11
2.5
 21
0.0
 31
0.0
210
0.0
220
0.0
230
1.0
 40
0.9972590695091525
 41
0.8992552023621739
 42
3.017237659043024
  0
LINE
  5
1521
330
1F
100
AcDbEntity
  8
0
 62
     3
100
AcDbLine
 10
1481.376943364244
 20
216.547528637001
 30
0.0
 11
1481.376943364244
 21
217.6390348471402
 31
0.0
  0
LINE
  5
1522
330
1F
100
AcDbEntity
  8
0
 62
     3
100
AcDbLine
 10
1483.839504778307
 20
219.5908297064712
 30
0.0
 11
1481.376943364244
 21
217.6390348471402
 31
0.0
  0
LINE
  5
1523
330
1F
100
AcDbEntity
  8
0
 62
     3
100
AcDbLine
 10
1463.376943364244
 20
217.6390348471402
 30
0.0
 11
1460.914381950182
 21
219.5908297064712
 31
0.0
  0
LINE
  5
1524
330
1F
100
AcDbEntity
  8
0
 62
     3
100
AcDbLine
 10
1463.376943364244
 20
216.547528637001
 30
0.0
 11
1463.376943364244
 21
217.6390348471402
 31
0.0
  0
LINE
  5
1525
330
1F
100
AcDbEntity
  8
0
 62
     3
100
AcDbLine
 10
1488.976943364244
 20
209.1623327563124
 30
0.0
 11
1487.875682509685
 21
217.9482717571484
 31
0.0
  0
LINE
  5
1526
330
1F
100
AcDbEntity
  8
0
 62
     3
100
AcDbLine
 10
1488.976943364244
 20
208.0591775915871
 30
0.0
 11
1488.976943364244
 21
209.1623327563124
 31
0.0
  0
LINE
  5
1527
330
1F
100
AcDbEntity
  8
0
 62
     3
100
AcDbLine
 10
1455.776943364245
 20
209.1623327563124
 30
0.0
 11
1455.776943364245
 21
208.0591775915871
 31
0.0
  0
LINE
  5
1528
330
1F
100
AcDbEntity
  8
0
 62
     3
100
AcDbLine
 10
1456.878204218804
 20
217.9482717571484
 30
0.0
 11
1455.776943364245
 21
209.1623327563124
 31
0.0
  0
ARC
  5
1529
330
1F
100
AcDbEntity
  8
0
 62
     3
100
AcDbCircle
 10
1473.215274049434
 20
229.7768590128106
 30
0.0
 40
12.74882611079112
100
AcDbArc
 50
266.2296533637054
 51
279.762138834618
  0
ARC
  5
152A
330
1F
100
AcDbEntity
  8
0
 62
     3
100
AcDbCircle
 10
1471.683276923624
 20
232.5410054038086
 30
0.0
 40
15.50090796699245
100
AcDbArc
 50
261.4433621456409
 51
272.5648456560364
  0
LINE
  5
152B
330
1F
100
AcDbEntity
  8
0
 62
     3
100
AcDbLine
 10
1481.376943364244
 20
217.6390348471402
 30
0.0
 11
1475.376943364245
 21
217.6390348471402
 31
0.0
  0
LINE
  5
152C
330
1F
100
AcDbEntity
  8
0
 62
     3
100
AcDbLine
 10
1469.376943364244
 20
217.6390348471402
 30
0.0
 11
1463.376943364244
 21
217.6390348471402
 31
0.0
  0
LINE
  5
152D
330
1F
100
AcDbEntity
  8
0
 62
     3
100
AcDbLine
 10
1488.976943364244
 20
189.1321825209131
 30
0.0
 11
1489.157739211995
 21
190.57854930292
 31
0.0
  0
LINE
  5
152E
330
1F
100
AcDbEntity
  8
0
 62
     3
100
AcDbLine
 10
1455.596147516494
 20
190.57854930292
 30
0.0
 11
1455.776943364245
 21
189.1321825209131
 31
0.0
  0
LINE
  5
152F
330
1F
100
AcDbEntity
  8
0
 62
     3
100
AcDbLine
 10
1489.157739211995
 20
190.57854930292
 30
0.0
 11
1489.226943364244
 21
191.1321825209131
 31
0.0
  0
LINE
  5
1530
330
1F
100
AcDbEntity
  8
0
 62
     3
100
AcDbLine
 10
1455.526943364245
 20
191.1321825209131
 30
0.0
 11
1455.596147516494
 21
190.57854930292
 31
0.0
  0
LINE
  5
1531
330
1F
100
AcDbEntity
  8
0
 62
     3
100
AcDbLine
 10
1480.876943364244
 20
160.3913718994679
 30
0.0
 11
1480.876943364244
 21
167.4321825209131
 31
0.0
  0
SPLINE
  5
1532
330
1F
100
AcDbEntity
  8
0
 62
     3
100
AcDbSpline
210
0.0
220
0.0
230
1.0
 70
     8
 71
     3
 72
    12
 73
     8
 74
     0
 42
0.0000000001
 43
0.0000000001
 40
0.0
 40
0.0
 40
0.0
 40
0.0
 40
0.0700536154785281
 40
0.2998111133083132
 40
0.5308302540976052
 40
0.765025057385495
 40
1.0
 40
1.0
 40
1.0
 40
1.0
 10
1476.626943364245
 20
159.6321825209131
 30
0.0
 10
1476.727688869952
 20
159.6330422670661
 30
0.0
 10
1477.158853229148
 20
159.6367217552629
 30
0.0
 10
1477.921639407201
 20
159.6936616330778
 30
0.0
 10
1478.912398879002
 20
159.850848103915
 30
0.0
 10
1479.900185520347
 20
160.0818770454545
 30
0.0
 10
1480.550996691549
 20
160.2880926491274
 30
0.0
 10
1480.876943364244
 20
160.3913718994679
 30
0.0
  0
SPLINE
  5
1533
330
1F
100
AcDbEntity
  8
0
 62
     3
100
AcDbSpline
210
0.0
220
0.0
230
1.0
 70
     8
 71
     3
 72
    11
 73
     7
 74
     0
 42
0.0000000001
 43
0.0000000001
 40
0.0
 40
0.0
 40
0.0
 40
0.0
 40
0.2472686137512649
 40
0.4953625653849103
 40
0.7468740051198236
 40
1.0
 40
1.0
 40
1.0
 40
1.0
 10
1472.376943364245
 20
160.3913718994679
 30
0.0
 10
1472.720002354431
 20
160.2828505832869
 30
0.0
 10
1473.407265403627
 20
160.0654457264115
 30
0.0
 10
1474.462034250062
 20
159.8268721051272
 30
0.0
 10
1475.536870637074
 20
159.6633749531408
 30
0.0
 10
1476.262811587998
 20
159.6426021520711
 30
0.0
 10
1476.626943364245
 20
159.6321825209131
 30
0.0
  0
LINE
  5
1534
330
1F
100
AcDbEntity
  8
0
 62
     3
100
AcDbLine
 10
1472.376943364245
 20
160.3913718994679
 30
0.0
 11
1472.376943364245
 21
167.4321825209131
 31
0.0
  0
LINE
  5
1535
330
1F
100
AcDbEntity
  8
0
 62
     3
100
AcDbLine
 10
1472.376943364245
 20
167.4321825209131
 30
0.0
 11
1474.065205672754
 21
167.4321825209131
 31
0.0
  0
LINE
  5
1536
330
1F
100
AcDbEntity
  8
0
 62
     3
100
AcDbLine
 10
1479.188681055734
 20
167.4321825209131
 30
0.0
 11
1480.876943364244
 21
167.4321825209131
 31
0.0
  0
SPLINE
  5
1537
330
1F
100
AcDbEntity
  8
0
 62
     3
100
AcDbSpline
210
0.0
220
0.0
230
1.0
 70
     8
 71
     3
 72
    12
 73
     8
 74
     0
 42
0.0000000001
 43
0.0000000001
 40
0.0
 40
0.0
 40
0.0
 40
0.0
 40
0.0700536154785272
 40
0.2998111133083128
 40
0.5308302540976047
 40
0.7650250573854946
 40
1.0
 40
1.0
 40
1.0
 40
1.0
 10
1468.126943364245
 20
159.6321825209131
 30
0.0
 10
1468.227688869952
 20
159.6330422670661
 30
0.0
 10
1468.658853229148
 20
159.6367217552629
 30
0.0
 10
1469.421639407201
 20
159.6936616330778
 30
0.0
 10
1470.412398879002
 20
159.850848103915
 30
0.0
 10
1471.400185520347
 20
160.0818770454545
 30
0.0
 10
1472.050996691549
 20
160.2880926491274
 30
0.0
 10
1472.376943364245
 20
160.3913718994679
 30
0.0
  0
LINE
  5
1538
330
1F
100
AcDbEntity
  8
0
 62
     3
100
AcDbLine
 10
1468.126943364245
 20
159.6321825209131
 30
0.0
 11
1476.626943364245
 21
159.6321825209131
 31
0.0
  0
SPLINE
  5
1539
330
1F
100
AcDbEntity
  8
0
 62
     3
100
AcDbSpline
210
0.0
220
0.0
230
1.0
 70
     8
 71
     3
 72
    11
 73
     7
 74
     0
 42
0.0000000001
 43
0.0000000001
 40
0.0
 40
0.0
 40
0.0
 40
0.0
 40
0.2472686137512649
 40
0.4953625653849103
 40
0.7468740051198237
 40
1.0
 40
1.0
 40
1.0
 40
1.0
 10
1463.876943364244
 20
160.3913718994679
 30
0.0
 10
1464.220002354431
 20
160.2828505832869
 30
0.0
 10
1464.907265403627
 20
160.0654457264115
 30
0.0
 10
1465.962034250062
 20
159.8268721051272
 30
0.0
 10
1467.036870637074
 20
159.6633749531408
 30
0.0
 10
1467.762811587998
 20
159.6426021520711
 30
0.0
 10
1468.126943364245
 20
159.6321825209131
 30
0.0
  0
LINE
  5
153A
330
1F
100
AcDbEntity
  8
0
 62
     3
100
AcDbLine
 10
1463.876943364244
 20
160.3913718994679
 30
0.0
 11
1463.876943364244
 21
167.4321825209131
 31
0.0
  0
LINE
  5
153B
330
1F
100
AcDbEntity
  8
0
 62
     3
100
AcDbLine
 10
1463.876943364244
 20
167.4321825209131
 30
0.0
 11
1465.565205672755
 21
167.4321825209131
 31
0.0
  0
LINE
  5
153C
330
1F
100
AcDbEntity
  8
0
 62
     3
100
AcDbLine
 10
1470.688681055734
 20
167.4321825209131
 30
0.0
 11
1472.376943364245
 21
167.4321825209131
 31
0.0
  0
SPLINE
  5
153D
330
1F
100
AcDbEntity
  8
0
 62
     3
100
AcDbSpline
210
0.0
220
0.0
230
1.0
 70
    24
 71
     3
 72
    11
 73
     7
 74
     0
 42
0.0000000001
 43
0.0000000001
 40
0.0
 40
0.0
 40
0.0
 40
0.0
 40
0.2114305818571069
 40
0.603009521686319
 40
0.8010923681030373
 40
1.0
 40
1.0
 40
1.0
 40
1.0
 10
1480.876943364244
 20
160.3913718994679
 30
0.0
 10
1480.876943364244
 20
160.2980932457258
 30
0.0
 10
1480.876943364244
 20
160.0320583330726
 30
0.0
 10
1480.876943364244
 20
159.7867984681471
 30
0.0
 10
1480.876943364244
 20
159.6514699022858
 30
0.0
 10
1480.876943364244
 20
159.6386205466235
 30
0.0
 10
1480.876943364244
 20
159.6321825209131
 30
0.0
  0
LINE
  5
153E
330
1F
100
AcDbEntity
  8
0
 62
     3
100
AcDbLine
 10
1476.626943364245
 20
159.6321825209131
 30
0.0
 11
1480.876943364244
 21
159.6321825209131
 31
0.0
  0
SPLINE
  5
153F
330
1F
100
AcDbEntity
  8
0
 62
     3
100
AcDbSpline
210
0.0
220
0.0
230
1.0
 70
    24
 71
     3
 72
    12
 73
     8
 74
     0
 42
0.0000000001
 43
0.0000000001
 40
0.0
 40
0.0
 40
0.0
 40
0.0
 40
0.1957081198591779
 40
0.3914297674115105
 40
0.7885570881138959
 40
0.8942506401528127
 40
1.0
 40
1.0
 40
1.0
 40
1.0
 10
1463.876943364244
 20
159.6321825209131
 30
0.0
 10
1463.876943364244
 20
159.6385350175161
 30
0.0
 10
1463.876943364244
 20
159.6512404498182
 30
0.0
 10
1463.876943364244
 20
159.7834757714448
 30
0.0
 10
1463.876943364244
 20
160.0009770697933
 30
0.0
 10
1463.876943364244
 20
160.2483356341556
 30
0.0
 10
1463.876943364244
 20
160.3436847556133
 30
0.0
 10
1463.876943364244
 20
160.3913718994679
 30
0.0
  0
LINE
  5
1540
330
1F
100
AcDbEntity
  8
0
 62
     3
100
AcDbLine
 10
1463.876943364244
 20
159.6321825209131
 30
0.0
 11
1468.126943364245
 21
159.6321825209131
 31
0.0
  0
LINE
  5
1541
330
1F
100
AcDbEntity
  8
0
 62
     3
100
AcDbLine
 10
1463.376943364244
 20
167.4321825209131
 30
0.0
 11
1463.876943364244
 21
167.4321825209131
 31
0.0
  0
LINE
  5
1542
330
1F
100
AcDbEntity
  8
0
 62
     3
100
AcDbLine
 10
1465.565205672755
 20
167.4321825209131
 30
0.0
 11
1470.688681055734
 21
167.4321825209131
 31
0.0
  0
LINE
  5
1543
330
1F
100
AcDbEntity
  8
0
 62
     3
100
AcDbLine
 10
1474.065205672754
 20
167.4321825209131
 30
0.0
 11
1479.188681055734
 21
167.4321825209131
 31
0.0
  0
LINE
  5
1544
330
1F
100
AcDbEntity
  8
0
 62
     3
100
AcDbLine
 10
1480.876943364244
 20
167.4321825209131
 30
0.0
 11
1481.376943364244
 21
167.4321825209131
 31
0.0
  0
LINE
  5
1545
330
1F
100
AcDbEntity
  8
0
 62
     3
100
AcDbLine
 10
1461.376943364244
 20
170.0321825209131
 30
0.0
 11
1483.376943364245
 21
170.0321825209131
 31
0.0
  0
LINE
  5
1546
330
1F
100
AcDbEntity
  8
0
 62
     3
100
AcDbLine
 10
1461.376943364244
 20
171.6321825209131
 30
0.0
 11
1483.376943364245
 21
171.6321825209131
 31
0.0
  0
LINE
  5
1547
330
1F
100
AcDbEntity
  8
0
 62
     3
100
AcDbLine
 10
1472.376943364245
 20
157.6321825209131
 30
0.0
 11
1467.376943364245
 21
157.6321825209131
 31
0.0
  0
LINE
  5
1548
330
1F
100
AcDbEntity
  8
0
 62
     3
100
AcDbLine
 10
1477.376943364244
 20
157.6321825209131
 30
0.0
 11
1472.376943364245
 21
157.6321825209131
 31
0.0
  0
SPLINE
  5
1549
330
1F
100
AcDbEntity
  8
0
 62
     3
100
AcDbSpline
210
0.0
220
0.0
230
1.0
 70
     8
 71
     3
 72
    10
 73
     6
 74
     0
 42
0.0000000001
 43
0.0000000001
 40
0.0
 40
0.0
 40
0.0
 40
0.0
 40
0.4952513202458577
 40
0.7468182045894488
 40
1.0
 40
1.0
 40
1.0
 40
1.0
 10
1477.376943364244
 20
225.9135327009629
 30
0.0
 10
1476.97097634825
 20
226.0224267284831
 30
0.0
 10
1476.358795127095
 20
226.1866343515597
 30
0.0
 10
1475.518006885844
 20
226.2843301932243
 30
0.0
 10
1475.091086506246
 20
226.2840851372165
 30
0.0
 10
1474.876943364245
 20
226.2839622171922
 30
0.0
  0
LINE
  5
154A
330
1F
100
AcDbEntity
  8
0
 62
     3
100
AcDbLine
 10
1477.376943364244
 20
225.9135327009629
 30
0.0
 11
1477.376943364244
 21
222.3649845242368
 31
0.0
  0
LINE
  5
154B
330
1F
100
AcDbEntity
  8
0
 62
     3
100
AcDbLine
 10
1472.376943364245
 20
222.213903632111
 30
0.0
 11
1477.376943364244
 21
222.3649845242368
 31
0.0
  0
LINE
  5
154C
330
1F
100
AcDbEntity
  8
0
 62
     3
100
AcDbLine
 10
1472.376943364245
 20
224.410888608571
 30
0.0
 11
1472.376943364245
 21
222.213903632111
 31
0.0
  0
LINE
  5
154D
330
1F
100
AcDbEntity
  8
0
 62
     3
100
AcDbLine
 10
1472.376943364245
 20
224.410888608571
 30
0.0
 11
1472.876943364244
 21
224.4259966977836
 31
0.0
  0
LINE
  5
154E
330
1F
100
AcDbEntity
  8
0
 62
     3
100
AcDbLine
 10
1472.876943364244
 20
225.930885477581
 30
0.0
 11
1472.876943364244
 21
224.4259966977836
 31
0.0
  0
SPLINE
  5
154F
330
1F
100
AcDbEntity
  8
0
 62
     3
100
AcDbSpline
210
0.0
220
0.0
230
1.0
 70
     8
 71
     3
 72
    10
 73
     6
 74
     0
 42
0.0000000001
 43
0.0000000001
 40
0.0
 40
0.0
 40
0.0
 40
0.0
 40
0.0879824264648355
 40
0.5411921344599198
 40
0.9999999999999998
 40
0.9999999999999998
 40
0.9999999999999998
 40
0.9999999999999998
 10
1474.876943364245
 20
226.2839622171922
 30
0.0
 10
1474.817707898898
 20
226.2816393730726
 30
0.0
 10
1474.453342318013
 20
226.2673512360249
 30
0.0
 10
1473.779758035577
 20
226.183063103119
 30
0.0
 10
1473.179110555285
 20
226.0152879659008
 30
0.0
 10
1472.876943364244
 20
225.930885477581
 30
0.0
  0
LINE
  5
1550
330
1F
100
AcDbEntity
  8
0
 62
     3
100
AcDbLine
 10
1467.376943364245
 20
222.3649845242368
 30
0.0
 11
1472.376943364245
 21
222.213903632111
 31
0.0
  0
LINE
  5
1551
330
1F
100
AcDbEntity
  8
0
 62
     3
100
AcDbLine
 10
1467.376943364245
 20
225.9135327009632
 30
0.0
 11
1467.376943364245
 21
222.3649845242368
 31
0.0
  0
SPLINE
  5
1552
330
1F
100
AcDbEntity
  8
0
 62
     3
100
AcDbSpline
210
0.0
220
0.0
230
1.0
 70
     8
 71
     3
 72
    10
 73
     6
 74
     0
 42
0.0000000001
 43
0.0000000001
 40
0.0
 40
0.0
 40
0.0
 40
0.0
 40
0.0700627427124771
 40
0.5307703520768678
 40
1.0
 40
1.0
 40
1.0
 40
1.0
 10
1469.876943364244
 20
226.2839622171922
 30
0.0
 10
1469.817708378261
 20
226.2852199848612
 30
0.0
 10
1469.368965249623
 20
226.2947483841602
 30
0.0
 10
1468.522859271009
 20
226.2229202725067
 30
0.0
 10
1467.761241846061
 20
226.0172900302186
 30
0.0
 10
1467.376943364245
 20
225.9135327009632
 30
0.0
  0
SPLINE
  5
1553
330
1F
100
AcDbEntity
  8
0
 62
     3
100
AcDbSpline
210
0.0
220
0.0
230
1.0
 70
     8
 71
     3
 72
     9
 73
     5
 74
     0
 42
0.0000000001
 43
0.0000000001
 40
0.0
 40
0.0
 40
0.0
 40
0.0
 40
0.4966552783307662
 40
1.0
 40
1.0
 40
1.0
 40
1.0
 10
1471.876943364244
 20
225.930885477592
 30
0.0
 10
1471.549646117351
 20
226.0237009267997
 30
0.0
 10
1470.8906432613
 20
226.210581955266
 30
0.0
 10
1470.216346885729
 20
226.2593932896649
 30
0.0
 10
1469.876943364244
 20
226.2839622171922
 30
0.0
  0
LINE
  5
1554
330
1F
100
AcDbEntity
  8
0
 62
     3
100
AcDbLine
 10
1471.876943364244
 20
224.4259966977836
 30
0.0
 11
1471.876943364244
 21
225.930885477592
 31
0.0
  0
LINE
  5
1555
330
1F
100
AcDbEntity
  8
0
 62
     3
100
AcDbLine
 10
1471.876943364244
 20
224.4259966977836
 30
0.0
 11
1472.376943364245
 21
224.410888608571
 31
0.0
  0
LINE
  5
1556
330
1F
100
AcDbEntity
  8
0
 62
     3
100
AcDbLine
 10
1472.876943364244
 20
224.6502472453311
 30
0.0
 11
1471.876943364244
 21
224.6502472453311
 31
0.0
  0
LINE
  5
1557
330
1F
100
AcDbEntity
  8
0
 62
     3
100
AcDbLine
 10
1472.876943364244
 20
226.2502154605274
 30
0.0
 11
1472.876943364244
 21
225.930885477581
 31
0.0
  0
ARC
  5
1558
330
1F
100
AcDbEntity
  8
0
 62
     3
100
AcDbCircle
 10
1472.506245597014
 20
307.5014297178185
 30
0.0
 40
81.25205988231227
100
AcDbArc
 50
270.2614024955325
 51
271.6719607643486
  0
ARC
  5
1559
330
1F
100
AcDbEntity
  8
0
 62
     3
100
AcDbCircle
 10
1472.247641131478
 20
307.5014297179456
 30
0.0
 40
81.25205988243939
100
AcDbArc
 50
268.3280392356514
 51
269.7385975044674
  0
LINE
  5
155A
330
1F
100
AcDbEntity
  8
0
 62
     3
100
AcDbLine
 10
1471.876943364244
 20
225.930885477592
 30
0.0
 11
1471.876943364244
 21
226.2502154605274
 31
0.0
  0
LINE
  5
155B
330
1F
100
AcDbEntity
  8
0
 62
     3
100
AcDbLine
 10
1475.376943364245
 20
226.4844155772594
 30
0.0
 11
1472.876943364244
 21
226.4844155772594
 31
0.0
  0
LINE
  5
155C
330
1F
100
AcDbEntity
  8
0
 62
     3
100
AcDbLine
 10
1475.376943364245
 20
226.5367515335023
 30
0.0
 11
1475.376943364245
 21
226.4844155772594
 31
0.0
  0
LINE
  5
155D
330
1F
100
AcDbEntity
  8
0
 62
     3
100
AcDbLine
 10
1475.376943364245
 20
226.5367515335023
 30
0.0
 11
1472.876943364244
 21
226.5367515335023
 31
0.0
  0
LINE
  5
155E
330
1F
100
AcDbEntity
  8
0
 62
     3
100
AcDbLine
 10
1472.876943364244
 20
226.7709516502343
 30
0.0
 11
1472.876943364244
 21
226.5367515335023
 31
0.0
  0
ARC
  5
155F
330
1F
100
AcDbEntity
  8
0
 62
     3
100
AcDbCircle
 10
1472.506245597017
 20
145.5197373931799
 30
0.0
 40
81.25205988207552
100
AcDbArc
 50
88.32803923565135
 51
89.73859750446743
  0
ARC
  5
1560
330
1F
100
AcDbEntity
  8
0
 62
     3
100
AcDbCircle
 10
1475.331771031505
 20
217.8518569232331
 30
0.0
 40
8.896981328566864
100
AcDbArc
 50
76.71042802575074
 51
92.93032759667644
  0
ARC
  5
1561
330
1F
100
AcDbEntity
  8
0
 62
     3
100
AcDbCircle
 10
1475.259289072528
 20
235.9689034601309
 30
0.0
 40
9.692485497529434
100
AcDbArc
 50
267.7392299451795
 51
282.6200144323903
  0
LINE
  5
1562
330
1F
100
AcDbEntity
  8
0
 62
     3
100
AcDbLine
 10
1472.876943364244
 20
226.2502154605274
 30
0.0
 11
1472.876943364244
 21
226.4844155772594
 31
0.0
  0
LINE
  5
1563
330
1F
100
AcDbEntity
  8
0
 62
     3
100
AcDbLine
 10
1469.376943364244
 20
226.5367515335023
 30
0.0
 11
1471.876943364244
 21
226.5367515335023
 31
0.0
  0
LINE
  5
1564
330
1F
100
AcDbEntity
  8
0
 62
     3
100
AcDbLine
 10
1469.376943364244
 20
226.4844155772594
 30
0.0
 11
1469.376943364244
 21
226.5367515335023
 31
0.0
  0
LINE
  5
1565
330
1F
100
AcDbEntity
  8
0
 62
     3
100
AcDbLine
 10
1469.376943364244
 20
226.4844155772594
 30
0.0
 11
1471.876943364244
 21
226.4844155772594
 31
0.0
  0
ARC
  5
1566
330
1F
100
AcDbEntity
  8
0
 62
     3
100
AcDbCircle
 10
1469.422115696984
 20
235.1693101875288
 30
0.0
 40
8.896981328567058
100
AcDbArc
 50
256.7104280257508
 51
272.9303275966765
  0
ARC
  5
1567
330
1F
100
AcDbEntity
  8
0
 62
     3
100
AcDbCircle
 10
1469.494597655961
 20
217.0522636506369
 30
0.0
 40
9.692485497523415
100
AcDbArc
 50
87.73922994517951
 51
102.6200144323903
  0
ARC
  5
1568
330
1F
100
AcDbEntity
  8
0
 62
     3
100
AcDbCircle
 10
1472.247641131485
 20
145.5197373924844
 30
0.0
 40
81.25205988277105
100
AcDbArc
 50
90.26140249553256
 51
91.67196076434866
  0
LINE
  5
1569
330
1F
100
AcDbEntity
  8
0
 62
     3
100
AcDbLine
 10
1471.876943364244
 20
226.5367515335023
 30
0.0
 11
1471.876943364244
 21
226.7709516502343
 31
0.0
  0
LINE
  5
156A
330
1F
100
AcDbEntity
  8
0
 62
     3
100
AcDbLine
 10
1471.876943364244
 20
226.2502154605274
 30
0.0
 11
1471.876943364244
 21
226.4844155772594
 31
0.0
  0
SPLINE
  5
156B
330
1F
100
AcDbEntity
  8
0
 62
     3
100
AcDbSpline
210
0.0
220
0.0
230
1.0
 70
    24
 71
     3
 72
    10
 73
     6
 74
     0
 42
0.0000000001
 43
0.0000000001
 40
0.0
 40
0.0
 40
0.0
 40
0.0
 40
0.3847699880149336
 40
0.7751742874842737
 40
1.0
 40
1.0
 40
1.0
 40
1.0
 10
1477.376943364244
 20
226.5105835553808
 30
0.0
 10
1477.376943364244
 20
226.4763161621957
 30
0.0
 10
1477.376943364244
 20
226.4072795872976
 30
0.0
 10
1477.376943364244
 20
226.1709289445787
 30
0.0
 10
1477.376943364244
 20
225.9824201475714
 30
0.0
 10
1477.376943364244
 20
225.9135327009629
 30
0.0
  0
SPLINE
  5
156C
330
1F
100
AcDbEntity
  8
0
 62
     3
100
AcDbSpline
210
0.0
220
0.0
230
1.0
 70
    24
 71
     3
 72
    10
 73
     6
 74
     0
 42
0.0000000001
 43
0.0000000001
 40
0.0
 40
0.0
 40
0.0
 40
0.0
 40
0.2248262199983414
 40
0.6099193969549443
 40
1.0
 40
1.0
 40
1.0
 40
1.0
 10
1467.376943364245
 20
225.9135327009632
 30
0.0
 10
1467.376943364245
 20
225.9824200938265
 30
0.0
 10
1467.376943364245
 20
226.1693011307146
 30
0.0
 10
1467.376943364245
 20
226.4062577946973
 30
0.0
 10
1467.376943364245
 20
226.4756594596361
 30
0.0
 10
1467.376943364245
 20
226.5105835553808
 30
0.0
  0
ARC
  5
156F
330
1F
100
AcDbEntity
  8
0
 62
     3
100
AcDbCircle
 10
1473.215274049434
 20
211.6124964740286
 30
0.0
 40
12.74882611079002
100
AcDbArc
 50
266.2296533637054
 51
279.762138834618
  0
ARC
  5
1570
330
1F
100
AcDbEntity
  8
0
 62
     3
100
AcDbCircle
 10
1471.683276923624
 20
214.3766428650276
 30
0.0
 40
15.50090796699243
100
AcDbArc
 50
261.4433621456409
 51
272.5648456560364
  0
ARC
  5
1571
330
1F
100
AcDbEntity
  8
0
 62
     3
100
AcDbCircle
 10
1471.570671839878
 20
231.5134487750022
 30
0.0
 40
10.96851416950446
100
AcDbArc
 50
259.7927180108164
 51
274.2154897908617
  0
ARC
  5
1572
330
1F
100
AcDbEntity
  8
0
 62
     3
100
AcDbCircle
 10
1473.045273185968
 20
234.1491453886753
 30
0.0
 40
13.59097935800413
100
AcDbArc
 50
267.1813710673078
 51
278.8104211310237
  0
ARC
  5
1573
330
1F
100
AcDbEntity
  8
0
 62
     3
100
AcDbCircle
 10
1471.990801885716
 20
204.8150526652584
 30
0.0
 40
7.353375109202335
100
AcDbArc
 50
261.3037865347406
 51
273.0101086052885
  0
ARC
  5
1574
330
1F
100
AcDbEntity
  8
0
 62
     3
100
AcDbCircle
 10
1472.763084842773
 20
204.8150526652612
 30
0.0
 40
7.353375109205083
100
AcDbArc
 50
266.9898913947116
 51
278.6962134652594
  0
LINE
  5
1575
330
1F
100
AcDbEntity
  8
0
 62
     3
100
AcDbLine
 10
1475.324535584961
 20
226.4844155772594
 30
0.0
 11
1475.376943364245
 21
226.5367515335023
 31
0.0
  0
LINE
  5
1576
330
1F
100
AcDbEntity
  8
0
 62
     3
100
AcDbLine
 10
1469.429351143528
 20
226.4844155772594
 30
0.0
 11
1469.376943364244
 21
226.5367515335023
 31
0.0
  0
LINE
  5
1577
330
1F
100
AcDbEntity
  8
0
 62
     3
100
AcDbLine
 10
1472.876943364244
 20
226.4844155772594
 30
0.0
 11
1472.876943364244
 21
226.5367515335023
 31
0.0
  0
LINE
  5
1578
330
1F
100
AcDbEntity
  8
0
 62
     3
100
AcDbLine
 10
1471.876943364244
 20
226.4844155772594
 30
0.0
 11
1471.876943364244
 21
226.5367515335023
 31
0.0
  0
LINE
  5
1579
330
1F
100
AcDbEntity
  8
0
 62
     3
100
AcDbLine
 10
1471.876943364244
 20
224.7758535403142
 30
0.0
 11
1472.876943364244
 21
224.7758535403142
 31
0.0
  0
LINE
  5
157A
330
1F
100
AcDbEntity
  8
0
 62
     3
100
AcDbLine
 10
1472.376943364245
 20
225.0152121770742
 30
0.0
 11
1471.876943364244
 21
225.0001040878617
 31
0.0
  0
LINE
  5
157B
330
1F
100
AcDbEntity
  8
0
 62
     3
100
AcDbLine
 10
1472.876943364244
 20
225.0001040878617
 30
0.0
 11
1472.376943364245
 21
225.0152121770742
 31
0.0
  0
LINE
  5
157C
330
1F
100
AcDbEntity
  8
0
 62
     3
100
AcDbLine
 10
1370.093200084488
 20
191.1321825209131
 30
0.0
 11
1368.077635647413
 21
191.1321825209131
 31
0.0
  0
LINE
  5
157D
330
1F
100
AcDbEntity
  8
0
 62
     3
100
AcDbLine
 10
1338.408764521562
 20
191.1321825209131
 30
0.0
 11
1336.393200084488
 21
191.1321825209131
 31
0.0
  0
LINE
  5
157E
330
1F
100
AcDbEntity
  8
0
 62
     3
100
AcDbLine
 10
1358.243200084488
 20
213.2181157493927
 30
0.0
 11
1358.243200084488
 21
215.2153748189018
 31
0.0
  0
LINE
  5
157F
330
1F
100
AcDbEntity
  8
0
 62
     3
100
AcDbLine
 10
1348.243200084488
 20
215.2153748189018
 30
0.0
 11
1348.243200084488
 21
213.2181157493927
 31
0.0
  0
LINE
  5
1580
330
1F
100
AcDbEntity
  8
0
 62
     3
100
AcDbLine
 10
1362.243200084488
 20
167.4321825209131
 30
0.0
 11
1362.243200084488
 21
170.0321825209131
 31
0.0
  0
LINE
  5
1581
330
1F
100
AcDbEntity
  8
0
 62
     3
100
AcDbLine
 10
1344.243200084488
 20
170.0321825209131
 30
0.0
 11
1344.243200084488
 21
167.4321825209131
 31
0.0
  0
LINE
  5
1582
330
1F
100
AcDbEntity
  8
0
 62
     3
100
AcDbLine
 10
1364.243200084488
 20
170.0321825209131
 30
0.0
 11
1364.243200084488
 21
171.6321825209131
 31
0.0
  0
LINE
  5
1583
330
1F
100
AcDbEntity
  8
0
 62
     3
100
AcDbLine
 10
1342.243200084488
 20
171.6321825209131
 30
0.0
 11
1342.243200084488
 21
170.0321825209131
 31
0.0
  0
LINE
  5
1584
330
1F
100
AcDbEntity
  8
0
 62
     3
100
AcDbLine
 10
1348.243200084488
 20
180.6321825209131
 30
0.0
 11
1348.243200084488
 21
171.6321825209131
 31
0.0
  0
LINE
  5
1585
330
1F
100
AcDbEntity
  8
0
 62
     3
100
AcDbLine
 10
1348.243200084488
 20
159.6321825209131
 30
0.0
 11
1348.243200084488
 21
157.6321825209131
 31
0.0
  0
LINE
  5
1586
330
1F
100
AcDbEntity
  8
0
 62
     3
100
AcDbLine
 10
1358.243200084488
 20
157.6321825209131
 30
0.0
 11
1358.243200084488
 21
159.6321825209131
 31
0.0
  0
LINE
  5
1587
330
1F
100
AcDbEntity
  8
0
 62
     3
100
AcDbLine
 10
1358.243200084488
 20
171.6321825209131
 30
0.0
 11
1358.243200084488
 21
180.6321825209131
 31
0.0
  0
LINE
  5
1588
330
1F
100
AcDbEntity
  8
0
 62
     3
100
AcDbLine
 10
1350.247322780252
 20
199.0400429159
 30
0.0
 11
1351.74526143237
 21
197.5462128306332
 31
0.0
  0
LINE
  5
1589
330
1F
100
AcDbEntity
  8
0
 62
     3
100
AcDbLine
 10
1354.741138736606
 20
197.5462128306332
 30
0.0
 11
1356.239077388724
 21
199.0400429159
 31
0.0
  0
LINE
  5
158A
330
1F
100
AcDbEntity
  8
0
 62
     3
100
AcDbLine
 10
1350.243200084488
 20
220.7185322538043
 30
0.0
 11
1350.243200084488
 21
217.6390348471402
 31
0.0
  0
LINE
  5
158B
330
1F
100
AcDbEntity
  8
0
 62
     3
100
AcDbLine
 10
1350.243200084488
 20
213.2181157493927
 30
0.0
 11
1350.243200084488
 21
199.04827134963
 31
0.0
  0
LINE
  5
158C
330
1F
100
AcDbEntity
  8
0
 62
     3
100
AcDbLine
 10
1356.243200084488
 20
199.04827134963
 30
0.0
 11
1356.243200084488
 21
213.2181157493927
 31
0.0
  0
LINE
  5
158D
330
1F
100
AcDbEntity
  8
0
 62
     3
100
AcDbLine
 10
1356.243200084488
 20
217.6390348471402
 30
0.0
 11
1356.243200084488
 21
220.7185322538043
 31
0.0
  0
LINE
  5
158E
330
1F
100
AcDbEntity
  8
0
 62
     3
100
AcDbLine
 10
1358.243200084488
 20
226.5224848430008
 30
0.0
 11
1358.222558160615
 21
226.5343369975261
 31
0.0
  0
LINE
  5
158F
330
1F
100
AcDbEntity
  8
0
 62
     3
100
AcDbLine
 10
1348.26384200836
 20
226.5343369975261
 30
0.0
 11
1348.243200084488
 21
226.5224848430007
 31
0.0
  0
LINE
  5
1590
330
1F
100
AcDbEntity
  8
0
 62
     3
100
AcDbLine
 10
1350.493200084488
 20
222.5160654163626
 30
0.0
 11
1350.493200084488
 21
220.7812808609925
 31
0.0
  0
LINE
  5
1591
330
1F
100
AcDbEntity
  8
0
 62
     3
100
AcDbLine
 10
1355.993200084488
 20
220.7812808609925
 30
0.0
 11
1355.993200084488
 21
222.5160654163626
 31
0.0
  0
LINE
  5
1592
330
1F
100
AcDbEntity
  8
0
 62
     3
100
AcDbLine
 10
1338.523928355833
 20
190.2108718467463
 30
0.0
 11
1338.658764521562
 21
189.1321825209131
 31
0.0
  0
LINE
  5
1593
330
1F
100
AcDbEntity
  8
0
 62
     3
100
AcDbLine
 10
1336.643200084488
 20
189.1321825209131
 30
0.0
 11
1338.658764521562
 21
189.1321825209131
 31
0.0
  0
LINE
  5
1594
330
1F
100
AcDbEntity
  8
0
 62
     3
100
AcDbLine
 10
1336.508363918759
 20
190.2108718467463
 30
0.0
 11
1336.643200084488
 21
189.1321825209131
 31
0.0
  0
LINE
  5
1595
330
1F
100
AcDbEntity
  8
0
 62
     3
100
AcDbLine
 10
1367.827635647413
 20
189.1321825209131
 30
0.0
 11
1369.843200084488
 21
189.1321825209131
 31
0.0
  0
LINE
  5
1596
330
1F
100
AcDbEntity
  8
0
 62
     3
100
AcDbLine
 10
1367.827635647413
 20
189.1321825209131
 30
0.0
 11
1367.962471813142
 21
190.2108718467463
 31
0.0
  0
LINE
  5
1597
330
1F
100
AcDbEntity
  8
0
 62
     3
100
AcDbLine
 10
1369.843200084488
 20
189.1321825209131
 30
0.0
 11
1369.978036250217
 21
190.2108718467463
 31
0.0
  0
LINE
  5
1598
330
1F
100
AcDbEntity
  8
0
 62
     3
100
AcDbLine
 10
1338.658764521562
 20
189.1321825209131
 30
0.0
 11
1339.729016692474
 21
180.5701651536185
 31
0.0
  0
ARC
  5
1599
330
1F
100
AcDbEntity
  8
0
 62
     3
100
AcDbCircle
 10
1340.225155630831
 20
180.6321825209131
 30
0.0
 40
0.5000000000000299
100
AcDbArc
 50
187.1250163489017
 51
308.4764721994621
  0
LINE
  5
159A
330
1F
100
AcDbEntity
  8
0
 62
     3
100
AcDbLine
 10
1340.53625223875
 20
180.2407506615284
 30
0.0
 11
1343.545229500098
 21
182.6321825209131
 31
0.0
  0
LINE
  5
159B
330
1F
100
AcDbEntity
  8
0
 62
     3
100
AcDbLine
 10
1343.545229500098
 20
182.6321825209131
 30
0.0
 11
1362.941170668877
 21
182.6321825209131
 31
0.0
  0
LINE
  5
159C
330
1F
100
AcDbEntity
  8
0
 62
     3
100
AcDbLine
 10
1362.941170668877
 20
182.6321825209131
 30
0.0
 11
1365.950147930225
 21
180.2407506615284
 31
0.0
  0
ARC
  5
159D
330
1F
100
AcDbEntity
  8
0
 62
     3
100
AcDbCircle
 10
1366.261244538144
 20
180.6321825209131
 30
0.0
 40
0.5000000000000116
100
AcDbArc
 50
231.5235278005379
 51
352.8749836510982
  0
LINE
  5
159E
330
1F
100
AcDbEntity
  8
0
 62
     3
100
AcDbLine
 10
1366.757383476501
 20
180.5701651536185
 30
0.0
 11
1367.827635647413
 21
189.1321825209131
 31
0.0
  0
LINE
  5
159F
330
1F
100
AcDbEntity
  8
0
 62
     3
100
AcDbLine
 10
1368.741939229928
 20
180.32209568444
 30
0.0
 11
1369.843200084488
 21
189.1321825209131
 31
0.0
  0
ARC
  5
15A0
330
1F
100
AcDbEntity
  8
0
 62
     3
100
AcDbCircle
 10
1366.261244538144
 20
180.6321825209131
 30
0.0
 40
2.499999999999984
100
AcDbArc
 50
231.5235278005379
 51
352.8749836510982
  0
LINE
  5
15A1
330
1F
100
AcDbEntity
  8
0
 62
     3
100
AcDbLine
 10
1362.243200084488
 20
180.6321825209131
 30
0.0
 11
1364.70576149855
 21
178.6750232239897
 31
0.0
  0
LINE
  5
15A2
330
1F
100
AcDbEntity
  8
0
 62
     3
100
AcDbLine
 10
1344.243200084488
 20
180.6321825209131
 30
0.0
 11
1362.243200084488
 21
180.6321825209131
 31
0.0
  0
LINE
  5
15A3
330
1F
100
AcDbEntity
  8
0
 62
     3
100
AcDbLine
 10
1341.780638670426
 20
178.6750232239897
 30
0.0
 11
1344.243200084488
 21
180.6321825209131
 31
0.0
  0
ARC
  5
15A4
330
1F
100
AcDbEntity
  8
0
 62
     3
100
AcDbCircle
 10
1340.225155630831
 20
180.6321825209131
 30
0.0
 40
2.500000000000012
100
AcDbArc
 50
187.1250163489033
 51
308.4764721994639
  0
LINE
  5
15A5
330
1F
100
AcDbEntity
  8
0
 62
     3
100
AcDbLine
 10
1336.643200084488
 20
189.1321825209131
 30
0.0
 11
1337.744460939046
 21
180.32209568444
 31
0.0
  0
LINE
  5
15A6
330
1F
100
AcDbEntity
  8
0
 62
     3
100
AcDbLine
 10
1369.978036250217
 20
190.2108718467463
 30
0.0
 11
1370.093200084488
 21
191.1321825209131
 31
0.0
  0
LINE
  5
15A7
330
1F
100
AcDbEntity
  8
0
 62
     3
100
AcDbLine
 10
1367.962471813142
 20
190.2108718467463
 30
0.0
 11
1368.077635647413
 21
191.1321825209131
 31
0.0
  0
LINE
  5
15A8
330
1F
100
AcDbEntity
  8
0
 62
     3
100
AcDbLine
 10
1338.408764521562
 20
191.1321825209131
 30
0.0
 11
1338.523928355833
 21
190.2108718467463
 31
0.0
  0
LINE
  5
15A9
330
1F
100
AcDbEntity
  8
0
 62
     3
100
AcDbLine
 10
1336.393200084488
 20
191.1321825209131
 30
0.0
 11
1336.508363918759
 21
190.2108718467463
 31
0.0
  0
ELLIPSE
  5
15AA
330
1F
100
AcDbEntity
  8
0
 62
     3
100
AcDbEllipse
 10
1340.225155630831
 20
217.6390348471402
 30
0.0
 11
2.5
 21
0.0
 31
0.0
210
0.0
220
0.0
230
1.0
 40
0.9972590695091412
 41
0.8992552023621882
 42
3.017237659043024
  0
LINE
  5
15AB
330
1F
100
AcDbEntity
  8
0
 62
     3
100
AcDbLine
 10
1341.780638670426
 20
219.5908297064712
 30
0.0
 11
1344.243200084488
 21
217.6390348471402
 31
0.0
  0
LINE
  5
15AC
330
1F
100
AcDbEntity
  8
0
 62
     3
100
AcDbLine
 10
1344.243200084488
 20
217.6390348471402
 30
0.0
 11
1362.243200084488
 21
217.6390348471402
 31
0.0
  0
LINE
  5
15AD
330
1F
100
AcDbEntity
  8
0
 62
     3
100
AcDbLine
 10
1362.243200084488
 20
217.6390348471402
 30
0.0
 11
1364.70576149855
 21
219.5908297064712
 31
0.0
  0
ELLIPSE
  5
15AE
330
1F
100
AcDbEntity
  8
0
 62
     3
100
AcDbEllipse
 10
1366.261244538144
 20
217.6390348471402
 30
0.0
 11
2.5
 21
0.0
 31
0.0
210
0.0
220
0.0
230
1.0
 40
0.9972590695091412
 41
0.1243549945467703
 42
2.242337451227595
  0
LINE
  5
15AF
330
1F
100
AcDbEntity
  8
0
 62
     3
100
AcDbLine
 10
1368.741939229928
 20
217.9482717571484
 30
0.0
 11
1369.843200084488
 21
209.1623327563124
 31
0.0
  0
LINE
  5
15B0
330
1F
100
AcDbEntity
  8
0
 62
     3
100
AcDbLine
 10
1367.827635647413
 20
209.1623327563124
 30
0.0
 11
1369.843200084488
 21
209.1623327563124
 31
0.0
  0
LINE
  5
15B1
330
1F
100
AcDbEntity
  8
0
 62
     3
100
AcDbLine
 10
1366.757383476501
 20
217.7008822291419
 30
0.0
 11
1367.827635647413
 21
209.1623327563124
 31
0.0
  0
ELLIPSE
  5
15B2
330
1F
100
AcDbEntity
  8
0
 62
     3
100
AcDbEllipse
 10
1366.261244538144
 20
217.6390348471402
 30
0.0
 11
0.5
 21
0.0
 31
0.0
210
0.0
220
0.0
230
1.0
 40
0.9972590695091412
 41
0.1243549945468028
 42
2.242337451227601
  0
LINE
  5
15B3
330
1F
100
AcDbEntity
  8
0
 62
     3
100
AcDbLine
 10
1362.941170668877
 20
215.6445167081219
 30
0.0
 11
1365.950147930225
 21
218.0293938190065
 31
0.0
  0
LINE
  5
15B4
330
1F
100
AcDbEntity
  8
0
 62
     3
100
AcDbLine
 10
1343.545229500098
 20
215.6445167081219
 30
0.0
 11
1362.941170668877
 21
215.6445167081219
 31
0.0
  0
LINE
  5
15B5
330
1F
100
AcDbEntity
  8
0
 62
     3
100
AcDbLine
 10
1340.53625223875
 20
218.0293938190065
 30
0.0
 11
1343.545229500098
 21
215.6445167081219
 31
0.0
  0
ELLIPSE
  5
15B6
330
1F
100
AcDbEntity
  8
0
 62
     3
100
AcDbEllipse
 10
1340.225155630831
 20
217.6390348471402
 30
0.0
 11
0.5
 21
0.0
 31
0.0
210
0.0
220
0.0
230
1.0
 40
0.9972590695091412
 41
0.8992552023622364
 42
3.017237659042997
  0
LINE
  5
15B7
330
1F
100
AcDbEntity
  8
0
 62
     3
100
AcDbLine
 10
1338.658764521562
 20
209.1623327563124
 30
0.0
 11
1339.729016692474
 21
217.7008822291419
 31
0.0
  0
LINE
  5
15B8
330
1F
100
AcDbEntity
  8
0
 62
     3
100
AcDbLine
 10
1336.643200084488
 20
209.1623327563124
 30
0.0
 11
1338.658764521562
 21
209.1623327563124
 31
0.0
  0
LINE
  5
15B9
330
1F
100
AcDbEntity
  8
0
 62
     3
100
AcDbLine
 10
1336.643200084488
 20
209.1623327563124
 30
0.0
 11
1337.744460939046
 21
217.9482717571484
 31
0.0
  0
LINE
  5
15BA
330
1F
100
AcDbEntity
  8
0
 62
     3
100
AcDbLine
 10
1367.827635647413
 20
209.1623327563124
 30
0.0
 11
1367.827635647413
 21
208.0591775915871
 31
0.0
  0
LINE
  5
15BB
330
1F
100
AcDbEntity
  8
0
 62
     3
100
AcDbLine
 10
1338.658764521562
 20
208.0591775915871
 30
0.0
 11
1338.658764521562
 21
209.1623327563124
 31
0.0
  0
LINE
  5
15BC
330
1F
100
AcDbEntity
  8
0
 62
     3
100
AcDbLine
 10
1336.643200084488
 20
208.0591775915871
 30
0.0
 11
1336.643200084488
 21
209.1623327563124
 31
0.0
  0
LINE
  5
15BD
330
1F
100
AcDbEntity
  8
0
 62
     3
100
AcDbLine
 10
1369.843200084488
 20
209.1623327563124
 30
0.0
 11
1369.843200084488
 21
208.0591775915871
 31
0.0
  0
ARC
  5
15BE
330
1F
100
AcDbEntity
  8
0
 62
     3
100
AcDbCircle
 10
1353.243200084488
 20
176.8797021450275
 30
0.0
 40
38.66036470803701
100
AcDbArc
 50
82.56904044395499
 51
97.43095955604502
  0
LINE
  5
15BF
330
1F
100
AcDbEntity
  8
0
 62
     3
100
AcDbLine
 10
1362.941170668877
 20
214.5502695674918
 30
0.0
 11
1362.941170668877
 21
215.6445167081219
 31
0.0
  0
LINE
  5
15C0
330
1F
100
AcDbEntity
  8
0
 62
     3
100
AcDbLine
 10
1343.545229500098
 20
214.5502695674918
 30
0.0
 11
1343.545229500098
 21
215.6445167081219
 31
0.0
  0
ARC
  5
15C3
330
1F
100
AcDbEntity
  8
0
 62
     3
100
AcDbCircle
 10
1354.081530769677
 20
200.6538906249978
 30
0.0
 40
12.74882611078642
100
AcDbArc
 50
80.23786116538191
 51
93.77034663629457
  0
ARC
  5
15C4
330
1F
100
AcDbEntity
  8
0
 62
     3
100
AcDbCircle
 10
1352.549533643866
 20
197.8897442339997
 30
0.0
 40
15.50090796698784
100
AcDbArc
 50
87.43515434396357
 51
98.55663785435904
  0
LINE
  5
15C5
330
1F
100
AcDbEntity
  8
0
 62
     3
100
AcDbLine
 10
1367.827635647413
 20
192.5359022341994
 30
0.0
 11
1367.827635647413
 21
189.1321825209131
 31
0.0
  0
LINE
  5
15C6
330
1F
100
AcDbEntity
  8
0
 62
     3
100
AcDbLine
 10
1369.843200084488
 20
192.5359022341994
 30
0.0
 11
1369.843200084488
 21
191.1321825209131
 31
0.0
  0
LINE
  5
15C7
330
1F
100
AcDbEntity
  8
0
 62
     3
100
AcDbLine
 10
1336.643200084488
 20
191.1321825209131
 30
0.0
 11
1336.643200084488
 21
192.5359022341994
 31
0.0
  0
LINE
  5
15C8
330
1F
100
AcDbEntity
  8
0
 62
     3
100
AcDbLine
 10
1338.658764521562
 20
189.1321825209131
 30
0.0
 11
1338.658764521562
 21
192.5359022341994
 31
0.0
  0
LINE
  5
15C9
330
1F
100
AcDbEntity
  8
0
 62
     3
100
AcDbLine
 10
1343.545229500098
 20
182.6321825209131
 30
0.0
 11
1343.545229500098
 21
190.4607378614717
 31
0.0
  0
LINE
  5
15CA
330
1F
100
AcDbEntity
  8
0
 62
     3
100
AcDbLine
 10
1362.941170668877
 20
182.6321825209131
 30
0.0
 11
1362.941170668877
 21
190.4607378614717
 31
0.0
  0
LINE
  5
15CB
330
1F
100
AcDbEntity
  8
0
 62
     3
100
AcDbLine
 10
1367.827635647413
 20
208.0591775915871
 30
0.0
 11
1367.827635647413
 21
204.4349123775153
 31
0.0
  0
LINE
  5
15CC
330
1F
100
AcDbEntity
  8
0
 62
     3
100
AcDbLine
 10
1336.643200084488
 20
204.4349123775153
 30
0.0
 11
1336.643200084488
 21
208.0591775915871
 31
0.0
  0
LINE
  5
15CD
330
1F
100
AcDbEntity
  8
0
 62
     3
100
AcDbLine
 10
1338.658764521562
 20
204.4349123775153
 30
0.0
 11
1338.658764521562
 21
208.0591775915871
 31
0.0
  0
LINE
  5
15CE
330
1F
100
AcDbEntity
  8
0
 62
     3
100
AcDbLine
 10
1369.843200084488
 20
208.0591775915871
 30
0.0
 11
1369.843200084488
 21
204.4349123775153
 31
0.0
  0
LINE
  5
15CF
330
1F
100
AcDbEntity
  8
0
 62
     3
100
AcDbLine
 10
1343.545229500098
 20
206.2144595751269
 30
0.0
 11
1343.545229500098
 21
214.5502695674918
 31
0.0
  0
LINE
  5
15D0
330
1F
100
AcDbEntity
  8
0
 62
     3
100
AcDbLine
 10
1362.941170668877
 20
206.2144595751269
 30
0.0
 11
1362.941170668877
 21
214.5502695674918
 31
0.0
  0
LINE
  5
15D1
330
1F
100
AcDbEntity
  8
0
 62
     3
100
AcDbLine
 10
1369.843200084488
 20
204.4349123775153
 30
0.0
 11
1369.843200084488
 21
192.5359022341994
 31
0.0
  0
LINE
  5
15D2
330
1F
100
AcDbEntity
  8
0
 62
     3
100
AcDbLine
 10
1367.827635647413
 20
204.4349123775153
 30
0.0
 11
1367.827635647413
 21
192.5359022341994
 31
0.0
  0
LINE
  5
15D3
330
1F
100
AcDbEntity
  8
0
 62
     3
100
AcDbLine
 10
1336.643200084488
 20
192.5359022341994
 30
0.0
 11
1336.643200084488
 21
204.4349123775153
 31
0.0
  0
LINE
  5
15D4
330
1F
100
AcDbEntity
  8
0
 62
     3
100
AcDbLine
 10
1338.658764521562
 20
192.5359022341994
 30
0.0
 11
1338.658764521562
 21
204.4349123775153
 31
0.0
  0
LINE
  5
15D5
330
1F
100
AcDbEntity
  8
0
 62
     3
100
AcDbLine
 10
1343.545229500098
 20
190.4607378614717
 30
0.0
 11
1343.545229500098
 21
206.2144595751269
 31
0.0
  0
LINE
  5
15D6
330
1F
100
AcDbEntity
  8
0
 62
     3
100
AcDbLine
 10
1362.941170668877
 20
190.4607378614717
 30
0.0
 11
1362.941170668877
 21
206.2144595751269
 31
0.0
  0
SPLINE
  5
15D7
330
1F
100
AcDbEntity
  8
0
 62
     3
100
AcDbSpline
210
0.0
220
0.0
230
1.0
 70
     8
 71
     3
 72
    14
 73
    10
 74
     0
 42
0.0000000001
 43
0.0000000001
 40
0.0
 40
0.0
 40
0.0
 40
0.0
 40
0.1482747820332712
 40
0.2965532677540596
 40
0.4447391152797373
 40
0.5929417816132193
 40
0.7430390943111279
 40
0.8931400113945368
 40
0.9999999999999998
 40
0.9999999999999998
 40
0.9999999999999998
 40
0.9999999999999998
 10
1359.993200084488
 20
197.3821825209131
 30
0.0
 10
1359.975194999695
 20
197.7523509398096
 30
0.0
 10
1359.939184380368
 20
198.4926970238691
 30
0.0
 10
1359.657873376508
 20
199.5751467754218
 30
0.0
 10
1359.212914483429
 20
200.5952759435622
 30
0.0
 10
1358.605879191667
 20
201.5344002243338
 30
0.0
 10
1357.84570793518
 20
202.3549183236409
 30
0.0
 10
1357.054189868407
 20
202.9986780997492
 30
0.0
 10
1356.48140069481
 20
203.2861082004313
 30
0.0
 10
1356.243200084488
 20
203.405639135308
 30
0.0
  0
ARC
  5
15D8
330
1F
100
AcDbEntity
  8
0
 62
     3
100
AcDbCircle
 10
1353.248324611782
 20
197.3727521918809
 30
0.0
 40
6.744882065196595
100
AcDbArc
 50
116.4579857064856
 51
0.0801078838406079
  0
SPLINE
  5
15D9
330
1F
100
AcDbEntity
  8
0
 62
     3
100
AcDbSpline
210
0.0
220
0.0
230
1.0
 70
     8
 71
     3
 72
    11
 73
     7
 74
     0
 42
0.0000000001
 43
0.0000000001
 40
0.0
 40
0.0
 40
0.0
 40
0.0
 40
0.247268613751265
 40
0.4953625653849104
 40
0.7468740051198236
 40
1.0
 40
1.0
 40
1.0
 40
1.0
 10
1353.243200084488
 20
160.3913718994679
 30
0.0
 10
1353.586259074674
 20
160.2828505832869
 30
0.0
 10
1354.27352212387
 20
160.0654457264115
 30
0.0
 10
1355.328290970305
 20
159.8268721051272
 30
0.0
 10
1356.403127357318
 20
159.6633749531408
 30
0.0
 10
1357.129068308241
 20
159.6426021520711
 30
0.0
 10
1357.493200084488
 20
159.6321825209131
 30
0.0
  0
LINE
  5
15DA
330
1F
100
AcDbEntity
  8
0
 62
     3
100
AcDbLine
 10
1348.993200084488
 20
159.6321825209131
 30
0.0
 11
1357.493200084488
 21
159.6321825209131
 31
0.0
  0
SPLINE
  5
15DB
330
1F
100
AcDbEntity
  8
0
 62
     3
100
AcDbSpline
210
0.0
220
0.0
230
1.0
 70
     8
 71
     3
 72
    12
 73
     8
 74
     0
 42
0.0000000001
 43
0.0000000001
 40
0.0
 40
0.0
 40
0.0
 40
0.0
 40
0.0700536154785269
 40
0.2998111133083123
 40
0.5308302540976048
 40
0.7650250573854944
 40
1.0
 40
1.0
 40
1.0
 40
1.0
 10
1348.993200084488
 20
159.6321825209131
 30
0.0
 10
1349.093945590196
 20
159.6330422670661
 30
0.0
 10
1349.525109949391
 20
159.6367217552629
 30
0.0
 10
1350.287896127445
 20
159.6936616330778
 30
0.0
 10
1351.278655599245
 20
159.850848103915
 30
0.0
 10
1352.26644224059
 20
160.0818770454545
 30
0.0
 10
1352.917253411793
 20
160.2880926491274
 30
0.0
 10
1353.243200084488
 20
160.3913718994679
 30
0.0
  0
LINE
  5
15DC
330
1F
100
AcDbEntity
  8
0
 62
     3
100
AcDbLine
 10
1353.243200084488
 20
160.3913718994679
 30
0.0
 11
1353.243200084488
 21
167.4321825209131
 31
0.0
  0
SPLINE
  5
15DD
330
1F
100
AcDbEntity
  8
0
 62
     3
100
AcDbSpline
210
0.0
220
0.0
230
1.0
 70
     8
 71
     3
 72
    11
 73
     7
 74
     0
 42
0.0000000001
 43
0.0000000001
 40
0.0
 40
0.0
 40
0.0
 40
0.0
 40
0.2472686137512647
 40
0.4953625653849103
 40
0.7468740051198237
 40
1.0
 40
1.0
 40
1.0
 40
1.0
 10
1344.743200084488
 20
160.3913718994679
 30
0.0
 10
1345.086259074674
 20
160.2828505832869
 30
0.0
 10
1345.77352212387
 20
160.0654457264115
 30
0.0
 10
1346.828290970305
 20
159.8268721051272
 30
0.0
 10
1347.903127357318
 20
159.6633749531408
 30
0.0
 10
1348.629068308241
 20
159.6426021520711
 30
0.0
 10
1348.993200084488
 20
159.6321825209131
 30
0.0
  0
LINE
  5
15DE
330
1F
100
AcDbEntity
  8
0
 62
     3
100
AcDbLine
 10
1344.743200084488
 20
160.3913718994679
 30
0.0
 11
1344.743200084488
 21
167.4321825209131
 31
0.0
  0
LINE
  5
15DF
330
1F
100
AcDbEntity
  8
0
 62
     3
100
AcDbLine
 10
1344.743200084488
 20
167.4321825209131
 30
0.0
 11
1346.431462392998
 21
167.4321825209131
 31
0.0
  0
LINE
  5
15E0
330
1F
100
AcDbEntity
  8
0
 62
     3
100
AcDbLine
 10
1351.554937775977
 20
167.4321825209131
 30
0.0
 11
1353.243200084488
 21
167.4321825209131
 31
0.0
  0
LINE
  5
15E1
330
1F
100
AcDbEntity
  8
0
 62
     3
100
AcDbLine
 10
1361.743200084488
 20
160.3913718994679
 30
0.0
 11
1361.743200084488
 21
167.4321825209131
 31
0.0
  0
SPLINE
  5
15E2
330
1F
100
AcDbEntity
  8
0
 62
     3
100
AcDbSpline
210
0.0
220
0.0
230
1.0
 70
     8
 71
     3
 72
    12
 73
     8
 74
     0
 42
0.0000000001
 43
0.0000000001
 40
0.0
 40
0.0
 40
0.0
 40
0.0
 40
0.0700536154785269
 40
0.2998111133083125
 40
0.530830254097605
 40
0.7650250573854947
 40
1.0
 40
1.0
 40
1.0
 40
1.0
 10
1357.493200084488
 20
159.6321825209131
 30
0.0
 10
1357.593945590196
 20
159.6330422670661
 30
0.0
 10
1358.025109949391
 20
159.6367217552629
 30
0.0
 10
1358.787896127445
 20
159.6936616330777
 30
0.0
 10
1359.778655599245
 20
159.850848103915
 30
0.0
 10
1360.76644224059
 20
160.0818770454545
 30
0.0
 10
1361.417253411792
 20
160.2880926491274
 30
0.0
 10
1361.743200084488
 20
160.3913718994679
 30
0.0
  0
LINE
  5
15E3
330
1F
100
AcDbEntity
  8
0
 62
     3
100
AcDbLine
 10
1353.243200084488
 20
167.4321825209131
 30
0.0
 11
1361.743200084488
 21
167.4321825209131
 31
0.0
  0
SPLINE
  5
15E4
330
1F
100
AcDbEntity
  8
0
 62
     3
100
AcDbSpline
210
0.0
220
0.0
230
1.0
 70
    24
 71
     3
 72
    11
 73
     7
 74
     0
 42
0.0000000001
 43
0.0000000001
 40
0.0
 40
0.0
 40
0.0
 40
0.0
 40
0.3820492032252858
 40
0.7677441378822172
 40
0.8837849728785698
 40
1.0
 40
1.0
 40
1.0
 40
1.0
 10
1361.743200084488
 20
160.3913718994679
 30
0.0
 10
1361.743200084488
 20
160.2282065584803
 30
0.0
 10
1361.743200084488
 20
159.9003188597461
 30
0.0
 10
1361.743200084488
 20
159.7013138392557
 30
0.0
 10
1361.743200084488
 20
159.6387498387755
 30
0.0
 10
1361.743200084488
 20
159.6343727211481
 30
0.0
 10
1361.743200084488
 20
159.6321825209131
 30
0.0
  0
LINE
  5
15E5
330
1F
100
AcDbEntity
  8
0
 62
     3
100
AcDbLine
 10
1357.493200084488
 20
159.6321825209131
 30
0.0
 11
1361.743200084488
 21
159.6321825209131
 31
0.0
  0
SPLINE
  5
15E6
330
1F
100
AcDbEntity
  8
0
 62
     3
100
AcDbSpline
210
0.0
220
0.0
230
1.0
 70
    24
 71
     3
 72
    10
 73
     6
 74
     0
 42
0.0000000001
 43
0.0000000001
 40
0.0
 40
0.0
 40
0.0
 40
0.0
 40
0.2322217578011379
 40
0.6139406589289342
 40
1.0
 40
1.0
 40
1.0
 40
1.0
 10
1344.743200084488
 20
159.6321825209131
 30
0.0
 10
1344.743200084488
 20
159.6415203823184
 30
0.0
 10
1344.743200084488
 20
159.666207529804
 30
0.0
 10
1344.743200084488
 20
159.9015834293539
 30
0.0
 10
1344.743200084488
 20
160.2274949233856
 30
0.0
 10
1344.743200084488
 20
160.3913718994679
 30
0.0
  0
LINE
  5
15E7
330
1F
100
AcDbEntity
  8
0
 62
     3
100
AcDbLine
 10
1344.743200084488
 20
159.6321825209131
 30
0.0
 11
1348.993200084488
 21
159.6321825209131
 31
0.0
  0
LINE
  5
15E8
330
1F
100
AcDbEntity
  8
0
 62
     3
100
AcDbLine
 10
1353.243200084488
 20
170.0321825209131
 30
0.0
 11
1351.742089384595
 21
167.4321825209131
 31
0.0
  0
LINE
  5
15E9
330
1F
100
AcDbEntity
  8
0
 62
     3
100
AcDbLine
 10
1353.243200084488
 20
167.4321825209131
 30
0.0
 11
1360.054937775977
 21
167.4321825209131
 31
0.0
  0
LINE
  5
15EA
330
1F
100
AcDbEntity
  8
0
 62
     3
100
AcDbLine
 10
1361.743200084488
 20
167.4321825209131
 30
0.0
 11
1362.243200084488
 21
167.4321825209131
 31
0.0
  0
LINE
  5
15EB
330
1F
100
AcDbEntity
  8
0
 62
     3
100
AcDbLine
 10
1344.243200084488
 20
167.4321825209131
 30
0.0
 11
1344.743200084488
 21
167.4321825209131
 31
0.0
  0
LINE
  5
15EC
330
1F
100
AcDbEntity
  8
0
 62
     3
100
AcDbLine
 10
1346.431462392998
 20
167.4321825209131
 30
0.0
 11
1351.554937775977
 21
167.4321825209131
 31
0.0
  0
LINE
  5
15ED
330
1F
100
AcDbEntity
  8
0
 62
     3
100
AcDbLine
 10
1353.243200084488
 20
167.4321825209131
 30
0.0
 11
1354.744310784381
 21
170.0321825209131
 31
0.0
  0
LINE
  5
15EE
330
1F
100
AcDbEntity
  8
0
 62
     3
100
AcDbLine
 10
1353.243200084488
 20
171.6321825209131
 30
0.0
 11
1364.243200084488
 21
171.6321825209131
 31
0.0
  0
LINE
  5
15EF
330
1F
100
AcDbEntity
  8
0
 62
     3
100
AcDbLine
 10
1342.243200084488
 20
171.6321825209131
 30
0.0
 11
1353.243200084488
 21
171.6321825209131
 31
0.0
  0
LINE
  5
15F0
330
1F
100
AcDbEntity
  8
0
 62
     3
100
AcDbLine
 10
1353.243200084488
 20
170.0321825209131
 30
0.0
 11
1364.243200084488
 21
170.0321825209131
 31
0.0
  0
LINE
  5
15F1
330
1F
100
AcDbEntity
  8
0
 62
     3
100
AcDbLine
 10
1342.243200084488
 20
170.0321825209131
 30
0.0
 11
1353.243200084488
 21
170.0321825209131
 31
0.0
  0
SPLINE
  5
15F2
330
1F
100
AcDbEntity
  8
0
 62
     3
100
AcDbSpline
210
0.0
220
0.0
230
1.0
 70
     8
 71
     3
 72
    12
 73
     8
 74
     0
 42
0.0000000001
 43
0.0000000001
 40
0.0
 40
0.0
 40
0.0
 40
0.0
 40
0.1235975254825925
 40
0.3712478223069887
 40
0.6210135478302955
 40
0.8733013878080836
 40
1.0
 40
1.0
 40
1.0
 40
1.0
 10
1353.243200084488
 20
188.8729931423582
 30
0.0
 10
1353.072064956997
 20
188.9284737628875
 30
0.0
 10
1352.558029233766
 20
189.0951199758383
 30
0.0
 10
1351.687182280826
 20
189.3274691148734
 30
0.0
 10
1350.622557318225
 20
189.5289936082467
 30
0.0
 10
1349.72046278869
 20
189.621268558959
 30
0.0
 10
1349.175414632267
 20
189.6294480445946
 30
0.0
 10
1348.993200084488
 20
189.6321825209131
 30
0.0
  0
LINE
  5
15F3
330
1F
100
AcDbEntity
  8
0
 62
     3
100
AcDbLine
 10
1357.493200084488
 20
189.6321825209131
 30
0.0
 11
1348.993200084488
 21
189.6321825209131
 31
0.0
  0
SPLINE
  5
15F4
330
1F
100
AcDbEntity
  8
0
 62
     3
100
AcDbSpline
210
0.0
220
0.0
230
1.0
 70
     8
 71
     3
 72
    12
 73
     8
 74
     0
 42
0.0000000001
 43
0.0000000001
 40
0.0
 40
0.0
 40
0.0
 40
0.0
 40
0.0700600428670077
 40
0.4151858902413654
 40
0.6478295207584358
 40
0.8824530339468706
 40
1.0
 40
1.0
 40
1.0
 40
1.0
 10
1357.493200084488
 20
189.6321825209131
 30
0.0
 10
1357.392456438123
 20
189.6313118918218
 30
0.0
 10
1356.795435100565
 20
189.6261524186112
 30
0.0
 10
1355.864608665133
 20
189.5346855017718
 30
0.0
 10
1354.712875117398
 20
189.3055494722258
 30
0.0
 10
1353.893452957533
 20
189.0841035843106
 30
0.0
 10
1353.405926108738
 20
188.9258236092745
 30
0.0
 10
1353.243200084488
 20
188.8729931423582
 30
0.0
  0
LINE
  5
15F5
330
1F
100
AcDbEntity
  8
0
 62
     3
100
AcDbLine
 10
1353.243200084488
 20
188.8729931423582
 30
0.0
 11
1353.243200084488
 21
182.6321825209131
 31
0.0
  0
SPLINE
  5
15F6
330
1F
100
AcDbEntity
  8
0
 62
     3
100
AcDbSpline
210
0.0
220
0.0
230
1.0
 70
     8
 71
     3
 72
    11
 73
     7
 74
     0
 42
0.0000000001
 43
0.0000000001
 40
0.0
 40
0.0
 40
0.0
 40
0.0
 40
0.2472686137512652
 40
0.4953625653849107
 40
0.7468740051198238
 40
1.0
 40
1.0
 40
1.0
 40
1.0
 10
1361.743200084488
 20
188.8729931423582
 30
0.0
 10
1361.400141094301
 20
188.9815144585392
 30
0.0
 10
1360.712878045105
 20
189.1989193154146
 30
0.0
 10
1359.65810919867
 20
189.4374929366989
 30
0.0
 10
1358.583272811658
 20
189.6009900886853
 30
0.0
 10
1357.857331860734
 20
189.621762889755
 30
0.0
 10
1357.493200084488
 20
189.6321825209131
 30
0.0
  0
LINE
  5
15F7
330
1F
100
AcDbEntity
  8
0
 62
     3
100
AcDbLine
 10
1361.743200084488
 20
188.8729931423582
 30
0.0
 11
1361.743200084488
 21
182.6321825209131
 31
0.0
  0
LINE
  5
15F8
330
1F
100
AcDbEntity
  8
0
 62
     3
100
AcDbLine
 10
1344.743200084488
 20
188.8729931423582
 30
0.0
 11
1344.743200084488
 21
182.6321825209131
 31
0.0
  0
SPLINE
  5
15F9
330
1F
100
AcDbEntity
  8
0
 62
     3
100
AcDbSpline
210
0.0
220
0.0
230
1.0
 70
     8
 71
     3
 72
    12
 73
     8
 74
     0
 42
0.0000000001
 43
0.0000000001
 40
0.0
 40
0.0
 40
0.0
 40
0.0
 40
0.0700538705112406
 40
0.3004232405629051
 40
0.5308285460682299
 40
0.7650242019507444
 40
1.0
 40
1.0
 40
1.0
 40
1.0
 10
1348.993200084488
 20
189.6321825209131
 30
0.0
 10
1348.892454246394
 20
189.6313278745377
 30
0.0
 10
1348.460409722197
 20
189.6276627575107
 30
0.0
 10
1347.697659906052
 20
189.5701619847131
 30
0.0
 10
1346.706866056526
 20
189.413431730641
 30
0.0
 10
1345.719960800288
 20
189.1824582802887
 30
0.0
 10
1345.069147715544
 20
188.9762624763634
 30
0.0
 10
1344.743200084488
 20
188.8729931423582
 30
0.0
  0
SPLINE
  5
15FA
330
1F
100
AcDbEntity
  8
0
 62
     3
100
AcDbSpline
210
0.0
220
0.0
230
1.0
 70
    24
 71
     3
 72
    10
 73
     6
 74
     0
 42
0.0000000001
 43
0.0000000001
 40
0.0
 40
0.0
 40
0.0
 40
0.0
 40
0.2395600743008958
 40
0.6176821323497316
 40
1.0
 40
1.0
 40
1.0
 40
1.0
 10
1361.743200084488
 20
189.6321825209131
 30
0.0
 10
1361.743200084488
 20
189.6222685769811
 30
0.0
 10
1361.743200084488
 20
189.5967064458715
 30
0.0
 10
1361.743200084488
 20
189.3584079716116
 30
0.0
 10
1361.743200084488
 20
189.0353921769796
 30
0.0
 10
1361.743200084488
 20
188.8729931423582
 30
0.0
  0
LINE
  5
15FB
330
1F
100
AcDbEntity
  8
0
 62
     3
100
AcDbLine
 10
1361.743200084488
 20
189.6321825209131
 30
0.0
 11
1357.493200084488
 21
189.6321825209131
 31
0.0
  0
SPLINE
  5
15FC
330
1F
100
AcDbEntity
  8
0
 62
     3
100
AcDbSpline
210
0.0
220
0.0
230
1.0
 70
    24
 71
     3
 72
    10
 73
     6
 74
     0
 42
0.0000000001
 43
0.0000000001
 40
0.0
 40
0.0
 40
0.0
 40
0.0
 40
0.3784560639109751
 40
0.7604395148923243
 40
1.0
 40
1.0
 40
1.0
 40
1.0
 10
1344.743200084488
 20
188.8729931423582
 30
0.0
 10
1344.743200084488
 20
189.0338660213293
 30
0.0
 10
1344.743200084488
 20
189.3571111895528
 30
0.0
 10
1344.743200084488
 20
189.5965330979889
 30
0.0
 10
1344.743200084488
 20
189.6222648003216
 30
0.0
 10
1344.743200084488
 20
189.6321825209131
 30
0.0
  0
LINE
  5
15FD
330
1F
100
AcDbEntity
  8
0
 62
     3
100
AcDbLine
 10
1348.993200084488
 20
189.6321825209131
 30
0.0
 11
1344.743200084488
 21
189.6321825209131
 31
0.0
  0
LINE
  5
15FE
330
1F
100
AcDbEntity
  8
0
 62
     3
100
AcDbLine
 10
1358.243200084488
 20
157.6321825209131
 30
0.0
 11
1348.243200084488
 21
157.6321825209131
 31
0.0
  0
SPLINE
  5
15FF
330
1F
100
AcDbEntity
  8
0
 62
     3
100
AcDbSpline
210
0.0
220
0.0
230
1.0
 70
     8
 71
     3
 72
    10
 73
     6
 74
     0
 42
0.0000000001
 43
0.0000000001
 40
0.0
 40
0.0
 40
0.0
 40
0.0
 40
0.4952513202458549
 40
0.74681820458945
 40
0.9999999999999998
 40
0.9999999999999998
 40
0.9999999999999998
 40
0.9999999999999998
 10
1358.243200084488
 20
226.2156944852144
 30
0.0
 10
1357.837233068494
 20
226.3491220563146
 30
0.0
 10
1357.225051847338
 20
226.5503252334052
 30
0.0
 10
1356.384263606087
 20
226.6988318901007
 30
0.0
 10
1355.95734322649
 20
226.7243866388194
 30
0.0
 10
1355.743200084488
 20
226.7372048935695
 30
0.0
  0
LINE
  5
1600
330
1F
100
AcDbEntity
  8
0
 62
     3
100
AcDbLine
 10
1358.243200084488
 20
226.2156944852144
 30
0.0
 11
1358.243200084488
 21
222.6671463084884
 31
0.0
  0
LINE
  5
1601
330
1F
100
AcDbEntity
  8
0
 62
     3
100
AcDbLine
 10
1353.243200084488
 20
222.8182272006141
 30
0.0
 11
1358.243200084488
 21
222.6671463084884
 31
0.0
  0
LINE
  5
1602
330
1F
100
AcDbEntity
  8
0
 62
     3
100
AcDbLine
 10
1353.243200084488
 20
225.0152121770742
 30
0.0
 11
1353.243200084488
 21
222.8182272006141
 31
0.0
  0
LINE
  5
1603
330
1F
100
AcDbEntity
  8
0
 62
     3
100
AcDbLine
 10
1353.243200084488
 20
225.0152121770742
 30
0.0
 11
1353.743200084488
 21
225.0001040878617
 31
0.0
  0
LINE
  5
1604
330
1F
100
AcDbEntity
  8
0
 62
     3
100
AcDbLine
 10
1353.743200084488
 20
226.504992867659
 30
0.0
 11
1353.743200084488
 21
225.0001040878617
 31
0.0
  0
SPLINE
  5
1605
330
1F
100
AcDbEntity
  8
0
 62
     3
100
AcDbSpline
210
0.0
220
0.0
230
1.0
 70
     8
 71
     3
 72
    10
 73
     6
 74
     0
 42
0.0000000001
 43
0.0000000001
 40
0.0
 40
0.0
 40
0.0
 40
0.0
 40
0.0879824264648422
 40
0.5411921344599194
 40
0.9999999999999998
 40
0.9999999999999998
 40
0.9999999999999998
 40
0.9999999999999998
 10
1355.743200084488
 20
226.7372048935695
 30
0.0
 10
1355.683964619141
 20
226.7384617882299
 30
0.0
 10
1355.319599038256
 20
226.7461931219903
 30
0.0
 10
1354.646014755821
 20
226.7026112748094
 30
0.0
 10
1354.045367275529
 20
226.5711346804614
 30
0.0
 10
1353.743200084488
 20
226.504992867659
 30
0.0
  0
LINE
  5
1606
330
1F
100
AcDbEntity
  8
0
 62
     3
100
AcDbLine
 10
1348.243200084488
 20
222.6671463084884
 30
0.0
 11
1353.243200084488
 21
222.8182272006141
 31
0.0
  0
LINE
  5
1607
330
1F
100
AcDbEntity
  8
0
 62
     3
100
AcDbLine
 10
1348.243200084488
 20
226.2156944852144
 30
0.0
 11
1348.243200084488
 21
222.6671463084884
 31
0.0
  0
SPLINE
  5
1608
330
1F
100
AcDbEntity
  8
0
 62
     3
100
AcDbSpline
210
0.0
220
0.0
230
1.0
 70
     8
 71
     3
 72
    10
 73
     6
 74
     0
 42
0.0000000001
 43
0.0000000001
 40
0.0
 40
0.0
 40
0.0
 40
0.0
 40
0.0700627427124703
 40
0.5307703520768497
 40
1.0
 40
1.0
 40
1.0
 40
1.0
 10
1350.743200084488
 20
226.7372048935695
 30
0.0
 10
1350.683965098504
 20
226.7348829514276
 30
0.0
 10
1350.235221969866
 20
226.7172927458427
 30
0.0
 10
1349.389115991252
 20
226.5943324557564
 30
0.0
 10
1348.627498566304
 20
226.3426758774601
 30
0.0
 10
1348.243200084488
 20
226.2156944852144
 30
0.0
  0
SPLINE
  5
1609
330
1F
100
AcDbEntity
  8
0
 62
     3
100
AcDbSpline
210
0.0
220
0.0
230
1.0
 70
     8
 71
     3
 72
     9
 73
     5
 74
     0
 42
0.0000000001
 43
0.0000000001
 40
0.0
 40
0.0
 40
0.0
 40
0.0
 40
0.4966552783307331
 40
0.9999999999999998
 40
0.9999999999999998
 40
0.9999999999999998
 40
0.9999999999999998
 10
1352.743200084488
 20
226.5049928676644
 30
0.0
 10
1352.415902837595
 20
226.578028972854
 30
0.0
 10
1351.756899981546
 20
226.7250849055624
 30
0.0
 10
1351.082603605973
 20
226.7331469207692
 30
0.0
 10
1350.743200084488
 20
226.7372048935695
 30
0.0
  0
LINE
  5
160A
330
1F
100
AcDbEntity
  8
0
 62
     3
100
AcDbLine
 10
1352.743200084488
 20
225.0001040878617
 30
0.0
 11
1352.743200084488
 21
226.5049928676644
 31
0.0
  0
LINE
  5
160B
330
1F
100
AcDbEntity
  8
0
 62
     3
100
AcDbLine
 10
1352.743200084488
 20
225.0001040878617
 30
0.0
 11
1353.243200084488
 21
225.0152121770742
 31
0.0
  0
ARC
  5
160C
330
1F
100
AcDbEntity
  8
0
 62
     3
100
AcDbCircle
 10
1352.436928560121
 20
211.7211488951683
 30
0.0
 40
10.9685141695009
100
AcDbArc
 50
85.78451020913822
 51
100.2072819891836
  0
ARC
  5
160D
330
1F
100
AcDbEntity
  8
0
 62
     3
100
AcDbCircle
 10
1353.911529906211
 20
209.0854522814947
 30
0.0
 40
13.59097935800114
100
AcDbArc
 50
81.18957886897627
 51
92.8186289326922
  0
LINE
  5
160E
330
1F
100
AcDbEntity
  8
0
 62
     3
100
AcDbLine
 10
1350.493200084488
 20
222.2969981227802
 30
0.0
 11
1348.243200084488
 21
222.3649845242368
 31
0.0
  0
LINE
  5
160F
330
1F
100
AcDbEntity
  8
0
 62
     3
100
AcDbLine
 10
1348.243200084488
 20
222.3649845242368
 30
0.0
 11
1348.243200084488
 21
222.6671463084884
 31
0.0
  0
LINE
  5
1610
330
1F
100
AcDbEntity
  8
0
 62
     3
100
AcDbLine
 10
1358.243200084488
 20
222.6671463084884
 30
0.0
 11
1358.243200084488
 21
222.3649845242368
 31
0.0
  0
LINE
  5
1611
330
1F
100
AcDbEntity
  8
0
 62
     3
100
AcDbLine
 10
1358.243200084488
 20
222.3649845242368
 30
0.0
 11
1355.993200084488
 21
222.2969981227802
 31
0.0
  0
ARC
  5
1612
330
1F
100
AcDbEntity
  8
0
 62
     3
100
AcDbCircle
 10
1353.113897851721
 20
145.519737392918
 30
0.0
 40
81.25205988233743
100
AcDbArc
 50
90.26140249553256
 51
91.67196076434866
  0
LINE
  5
1613
330
1F
100
AcDbEntity
  8
0
 62
     3
100
AcDbLine
 10
1352.743200084488
 20
226.5049928676644
 30
0.0
 11
1352.743200084488
 21
226.7709516502343
 31
0.0
  0
ARC
  5
1614
330
1F
100
AcDbEntity
  8
0
 62
     3
100
AcDbCircle
 10
1353.372502317244
 20
145.5197373923422
 30
0.0
 40
81.2520598829133
100
AcDbArc
 50
88.32803923565135
 51
89.73859750446743
  0
SPLINE
  5
1615
330
1F
100
AcDbEntity
  8
0
 62
     3
100
AcDbSpline
210
0.0
220
0.0
230
1.0
 70
    24
 71
     3
 72
     9
 73
     5
 74
     0
 42
0.0000000001
 43
0.0000000001
 40
0.0
 40
0.0
 40
0.0
 40
0.0
 40
0.0364189202898109
 40
1.0
 40
1.0
 40
1.0
 40
1.0
 10
1353.743200084488
 20
226.7709516502343
 30
0.0
 10
1353.743200084488
 20
226.767724257864
 30
0.0
 10
1353.743200084488
 20
226.6791056951859
 30
0.0
 10
1353.743200084488
 20
226.59043462918
 30
0.0
 10
1353.743200084488
 20
226.504992867659
 30
0.0
  0
ARC
  5
1618
330
1F
100
AcDbEntity
  8
0
 62
     3
100
AcDbCircle
 10
1353.243200084488
 20
199.0600113788294
 30
0.0
 40
21.86530417103149
100
AcDbArc
 50
82.11393312258771
 51
97.88606687741228
  0
SPLINE
  5
1619
330
1F
100
AcDbEntity
  8
0
 62
     3
100
AcDbSpline
210
0.0
220
0.0
230
1.0
 70
    24
 71
     3
 72
    10
 73
     6
 74
     0
 42
0.0000000001
 43
0.0000000001
 40
0.0
 40
0.0
 40
0.0
 40
0.0
 40
0.1032007690731183
 40
0.5491523199534006
 40
1.0
 40
1.0
 40
1.0
 40
1.0
 10
1358.243200084488
 20
226.5158541420024
 30
0.0
 10
1358.243200084488
 20
226.5174917999147
 30
0.0
 10
1358.243200084488
 20
226.5262061113482
 30
0.0
 10
1358.243200084488
 20
226.4409621562192
 30
0.0
 10
1358.243200084488
 20
226.2910565151608
 30
0.0
 10
1358.243200084488
 20
226.2156944852144
 30
0.0
  0
ARC
  5
161A
330
1F
100
AcDbEntity
  8
0
 62
     3
100
AcDbCircle
 10
1356.125545792771
 20
217.0522636506364
 30
0.0
 40
9.692485497523831
100
AcDbArc
 50
77.37998556760969
 51
92.2607700548205
  0
SPLINE
  5
161B
330
1F
100
AcDbEntity
  8
0
 62
     3
100
AcDbSpline
210
0.0
220
0.0
230
1.0
 70
    24
 71
     3
 72
    10
 73
     6
 74
     0
 42
0.0000000001
 43
0.0000000001
 40
0.0
 40
0.0
 40
0.0
 40
0.0
 40
0.4459138598194449
 40
0.8959414577462082
 40
1.0
 40
1.0
 40
1.0
 40
1.0
 10
1348.243200084488
 20
226.2156944852144
 30
0.0
 10
1348.243200084488
 20
226.2903824442562
 30
0.0
 10
1348.243200084488
 20
226.4404473893716
 30
0.0
 10
1348.243200084488
 20
226.5263008555239
 30
0.0
 10
1348.243200084488
 20
226.5174828104083
 30
0.0
 10
1348.243200084488
 20
226.515826762993
 30
0.0
  0
ARC
  5
161C
330
1F
100
AcDbEntity
  8
0
 62
     3
100
AcDbCircle
 10
1350.403540933115
 20
215.6361420330207
 30
0.0
 40
11.10625791943292
100
AcDbArc
 50
88.24746814652115
 51
101.1078875660808
  0
LINE
  5
164D
330
1F
100
AcDbEntity
  8
0
  6
PHANTOM
100
AcDbLine
 10
1381.752284286399
 20
191.1321825209131
 30
0.0
 11
1418.59399348159
 21
191.1321825209131
 31
0.0
  0
LINE
  5
164E
330
1F
100
AcDbEntity
  8
0
  6
PHANTOM
100
AcDbLine
 10
1381.752284286399
 20
207.1321825209131
 30
0.0
 11
1418.59399348159
 21
207.1321825209131
 31
0.0
  0
LINE
  5
1650
330
1F
100
AcDbEntity
  8
0
  6
PHANTOM
100
AcDbLine
 10
1418.59399348159
 20
191.1321825209131
 30
0.0
 11
1418.59399348159
 21
207.1321825209131
 31
0.0
  0
LINE
  5
1651
330
1F
100
AcDbEntity
  8
0
  6
PHANTOM
100
AcDbLine
 10
1381.752284286399
 20
194.1321825209131
 30
0.0
 11
1418.59399348159
 21
194.1321825209131
 31
0.0
  0
TEXT
  5
16D6
330
1F
100
AcDbEntity
  8
0
 62
     4
100
AcDbText
 10
1378.283208728974
 20
117.4558653820023
 30
0.0
 40
4.5
  1
一般形鋼管支持用金具　1型
  7
高4.5
100
AcDbText
  0
LINE
  5
16D8
330
1F
100
AcDbEntity
  8
0
 62
     3
100
AcDbLine
 10
1310.690115004692
 20
157.6654161336664
 30
0.0
 11
1310.202188174692
 21
157.6654161336664
 31
0.0
  0
LINE
  5
16D9
330
1F
100
AcDbEntity
  8
0
 62
     3
100
AcDbLine
 10
1322.202188174692
 20
296.1654161336664
 30
0.0
 11
1322.202188174692
 21
19.16541613366644
 31
0.0
  0
LINE
  5
16DB
330
1F
100
AcDbEntity
  8
0
 62
     3
100
AcDbLine
 10
1502.202188174692
 20
19.16541613366644
 30
0.0
 11
1502.202188174692
 21
296.1654161336664
 31
0.0
  0
LINE
  5
16DC
330
1F
100
AcDbEntity
  8
0
 62
     3
100
AcDbLine
 10
1322.202188174692
 20
19.16541613366644
 30
0.0
 11
1502.202188174692
 21
19.16541613366644
 31
0.0
  0
LINE
  5
16DD
330
1F
100
AcDbEntity
  8
0
 62
     3
100
AcDbLine
 10
1359.286540194692
 20
297.9528602336665
 30
0.0
 11
1359.722288104692
 21
297.7253920936664
 31
0.0
  0
LINE
  5
16DE
330
1F
100
AcDbEntity
  8
0
 62
     3
100
AcDbLine
 10
1359.286540194692
 20
294.2222297536665
 30
0.0
 11
1359.722288104692
 21
294.4496978936665
 31
0.0
  0
LINE
  5
16DF
330
1F
100
AcDbEntity
  8
0
 62
     3
100
AcDbLine
 10
1359.722288104692
 20
297.7253920936664
 30
0.0
 11
1359.722288104692
 21
294.4496978936665
 31
0.0
  0
LINE
  5
16E0
330
1F
100
AcDbEntity
  8
0
 62
     3
100
AcDbLine
 10
1360.825805524692
 20
294.2222297536665
 30
0.0
 11
1360.390057614691
 21
294.4496978936665
 31
0.0
  0
LINE
  5
16E1
330
1F
100
AcDbEntity
  8
0
 62
     3
100
AcDbLine
 10
1360.390057614691
 20
296.4465567036664
 30
0.0
 11
1360.390057614691
 21
294.4496978936665
 31
0.0
  0
LINE
  5
16E2
330
1F
100
AcDbEntity
  8
0
 62
     3
100
AcDbLine
 10
1363.367668304692
 20
297.9528602336665
 30
0.0
 11
1362.931920394692
 21
297.7253920936664
 31
0.0
  0
LINE
  5
16E3
330
1F
100
AcDbEntity
  8
0
 62
     3
100
AcDbLine
 10
1361.828402974692
 20
297.9528602336665
 30
0.0
 11
1362.264150884692
 21
297.7253920936664
 31
0.0
  0
LINE
  5
16E4
330
1F
100
AcDbEntity
  8
0
 62
     3
100
AcDbLine
 10
1362.264150884692
 20
297.7253920936664
 30
0.0
 11
1362.264150884692
 21
296.2830550336664
 31
0.0
  0
LINE
  5
16E5
330
1F
100
AcDbEntity
  8
0
 62
     3
100
AcDbLine
 10
1362.931920394692
 20
297.7253920936664
 30
0.0
 11
1362.931920394692
 21
294.0106686136664
 31
0.0
  0
LINE
  5
16E6
330
1F
100
AcDbEntity
  8
0
 62
     3
100
AcDbLine
 10
1363.582965504692
 20
297.9528576036664
 30
0.0
 11
1364.018711844692
 21
297.7253864636665
 31
0.0
  0
LINE
  5
16E7
330
1F
100
AcDbEntity
  8
0
 62
     3
100
AcDbLine
 10
1363.582887534692
 20
294.2222797336665
 30
0.0
 11
1364.018643384692
 21
294.4497326536664
 31
0.0
  0
LINE
  5
16E8
330
1F
100
AcDbEntity
  8
0
 62
     3
100
AcDbLine
 10
1364.018711844692
 20
297.7253864636665
 30
0.0
 11
1364.018711844692
 21
294.4497326536664
 31
0.0
  0
LINE
  5
16E9
330
1F
100
AcDbEntity
  8
0
 62
     3
100
AcDbLine
 10
1365.512501904692
 20
297.9528339336664
 30
0.0
 11
1365.076750814692
 21
297.7253719036664
 31
0.0
  0
LINE
  5
16EA
330
1F
100
AcDbEntity
  8
0
 62
     3
100
AcDbLine
 10
1365.076750814692
 20
297.7253719036664
 30
0.0
 11
1365.076750814692
 21
294.4497180836664
 31
0.0
  0
LINE
  5
16EB
330
1F
100
AcDbEntity
  8
0
 62
     3
100
AcDbLine
 10
1365.512501904692
 20
294.2222560536665
 30
0.0
 11
1365.076750814692
 21
294.4497180836664
 31
0.0
  0
LINE
  5
16EC
330
1F
100
AcDbEntity
  8
0
 62
     3
100
AcDbLine
 10
1369.202755344692
 20
297.9527929336665
 30
0.0
 11
1369.638502464692
 21
297.7253232936664
 31
0.0
  0
LINE
  5
16ED
330
1F
100
AcDbEntity
  8
0
 62
     3
100
AcDbLine
 10
1369.638502464692
 20
297.7253232936664
 30
0.0
 11
1369.638445294692
 21
294.4496694836664
 31
0.0
  0
LINE
  5
16EE
330
1F
100
AcDbEntity
  8
0
 62
     3
100
AcDbLine
 10
1369.202690234692
 20
294.2222150536665
 30
0.0
 11
1369.638445294692
 21
294.4496694836664
 31
0.0
  0
LINE
  5
16EF
330
1F
100
AcDbEntity
  8
0
 62
     3
100
AcDbLine
 10
1371.155016304692
 20
297.9527929336665
 30
0.0
 11
1370.719269184691
 21
297.7253232936664
 31
0.0
  0
LINE
  5
16F0
330
1F
100
AcDbEntity
  8
0
 62
     3
100
AcDbLine
 10
1371.155081414692
 20
294.2222150536665
 30
0.0
 11
1370.719326354692
 21
294.4496694836664
 31
0.0
  0
LINE
  5
16F1
330
1F
100
AcDbEntity
  8
0
 62
     3
100
AcDbLine
 10
1371.358744164692
 20
297.9527929336665
 30
0.0
 11
1371.794491294692
 21
297.7253232936664
 31
0.0
  0
LINE
  5
16F2
330
1F
100
AcDbEntity
  8
0
 62
     3
100
AcDbLine
 10
1371.358679054692
 20
294.2222150536665
 30
0.0
 11
1371.794434114692
 21
294.4496694836664
 31
0.0
  0
LINE
  5
16F3
330
1F
100
AcDbEntity
  8
0
 62
     3
100
AcDbLine
 10
1373.311005134691
 20
297.9527929336665
 30
0.0
 11
1372.875258014692
 21
297.7253232936664
 31
0.0
  0
LINE
  5
16F4
330
1F
100
AcDbEntity
  8
0
 62
     3
100
AcDbLine
 10
1372.875258014692
 20
297.7253232936664
 30
0.0
 11
1372.875315184692
 21
294.4496694836664
 31
0.0
  0
LINE
  5
16F5
330
1F
100
AcDbEntity
  8
0
 62
     3
100
AcDbLine
 10
1373.311070244692
 20
294.2222150536665
 30
0.0
 11
1372.875315184692
 21
294.4496694836664
 31
0.0
  0
LINE
  5
16F6
330
1F
100
AcDbEntity
  8
0
 62
     3
100
AcDbLine
 10
1371.794466384692
 20
296.2981901736664
 30
0.0
 11
1370.719294094692
 21
296.2981901736664
 31
0.0
  0
LINE
  5
16F7
330
1F
100
AcDbEntity
  8
0
 62
     3
100
AcDbLine
 10
1371.794459024691
 20
295.8768998136664
 30
0.0
 11
1370.719301444691
 21
295.8768998136664
 31
0.0
  0
LINE
  5
16F8
330
1F
100
AcDbEntity
  8
0
 62
     3
100
AcDbLine
 10
1371.794491294692
 20
297.7253232936664
 30
0.0
 11
1371.794466384692
 21
296.2981901736664
 31
0.0
  0
LINE
  5
16F9
330
1F
100
AcDbEntity
  8
0
 62
     3
100
AcDbLine
 10
1371.794459024691
 20
295.8768998136664
 30
0.0
 11
1371.794434114692
 21
294.4496694836664
 31
0.0
  0
LINE
  5
16FA
330
1F
100
AcDbEntity
  8
0
 62
     3
100
AcDbLine
 10
1370.719269184691
 20
297.7253232936664
 30
0.0
 11
1370.719294094692
 21
296.2981901736664
 31
0.0
  0
LINE
  5
16FB
330
1F
100
AcDbEntity
  8
0
 62
     3
100
AcDbLine
 10
1370.719301444691
 20
295.8768998136664
 30
0.0
 11
1370.719326354692
 21
294.4496694836664
 31
0.0
  0
LINE
  5
16FC
330
1F
100
AcDbEntity
  8
0
 62
     3
100
AcDbLine
 10
1373.517964254692
 20
297.9527929336665
 30
0.0
 11
1373.953711374692
 21
297.7253232936664
 31
0.0
  0
LINE
  5
16FD
330
1F
100
AcDbEntity
  8
0
 62
     3
100
AcDbLine
 10
1373.953711374692
 20
297.7253232936664
 30
0.0
 11
1373.953654204691
 21
294.4496694836664
 31
0.0
  0
LINE
  5
16FE
330
1F
100
AcDbEntity
  8
0
 62
     3
100
AcDbLine
 10
1373.517899144691
 20
294.2222150536665
 30
0.0
 11
1373.953654204691
 21
294.4496694836664
 31
0.0
  0
LINE
  5
16FF
330
1F
100
AcDbEntity
  8
0
 62
     3
100
AcDbLine
 10
1375.447474524692
 20
297.9527929336665
 30
0.0
 11
1375.011727404692
 21
297.7253232936664
 31
0.0
  0
LINE
  5
1700
330
1F
100
AcDbEntity
  8
0
 62
     3
100
AcDbLine
 10
1375.011727404692
 20
297.7253232936664
 30
0.0
 11
1375.011784574692
 21
294.4496694836664
 31
0.0
  0
LINE
  5
1701
330
1F
100
AcDbEntity
  8
0
 62
     3
100
AcDbLine
 10
1375.447539634692
 20
294.2222150536665
 30
0.0
 11
1375.011784574692
 21
294.4496694836664
 31
0.0
  0
LINE
  5
1702
330
1F
100
AcDbEntity
  8
0
 62
     3
100
AcDbLine
 10
1375.661834094692
 20
297.9527929336665
 30
0.0
 11
1376.097581214692
 21
297.7253232936664
 31
0.0
  0
LINE
  5
1703
330
1F
100
AcDbEntity
  8
0
 62
     3
100
AcDbLine
 10
1376.097581214692
 20
297.7253232936664
 30
0.0
 11
1376.097524044691
 21
294.4496694836664
 31
0.0
  0
LINE
  5
1704
330
1F
100
AcDbEntity
  8
0
 62
     3
100
AcDbLine
 10
1375.661768984692
 20
294.2222150536665
 30
0.0
 11
1376.097524044691
 21
294.4496694836664
 31
0.0
  0
ARC
  5
1705
330
1F
100
AcDbEntity
  8
0
 62
     3
100
AcDbCircle
 10
1367.810844074692
 20
296.0969347536665
 30
0.0
 40
2.086285909999999
100
AcDbArc
 50
97.70152350999723
 51
270.0
  0
ARC
  5
1706
330
1F
100
AcDbEntity
  8
0
 62
     3
100
AcDbCircle
 10
1380.691444914691
 20
296.0759781236665
 30
0.0
 40
2.108943379999999
100
AcDbArc
 50
0.314250269999259
 51
69.00558244998919
  0
ARC
  5
1707
330
1F
100
AcDbEntity
  8
0
 62
     3
100
AcDbCircle
 10
1381.152120234691
 20
296.0759781236665
 30
0.0
 40
2.108943379999999
100
AcDbArc
 50
110.9944175499969
 51
148.1166110200051
  0
ARC
  5
1708
330
1F
100
AcDbEntity
  8
0
 62
     3
100
AcDbCircle
 10
1380.691444914691
 20
296.0991118636664
 30
0.0
 40
2.108943379999999
100
AcDbArc
 50
290.9944175499969
 51
359.6857497300005
  0
ARC
  5
1709
330
1F
100
AcDbEntity
  8
0
 62
     3
100
AcDbCircle
 10
1381.152120234691
 20
296.0991118636664
 30
0.0
 40
2.108943379999999
100
AcDbArc
 50
211.8833889799947
 51
249.0055824499892
  0
ARC
  5
170A
330
1F
100
AcDbEntity
  8
0
 62
     3
100
AcDbCircle
 10
1380.921782574692
 20
296.9503503836664
 30
0.0
 40
1.214070989999999
100
AcDbArc
 50
64.36517189999968
 51
115.6348281000003
  0
ARC
  5
170B
330
1F
100
AcDbEntity
  8
0
 62
     3
100
AcDbCircle
 10
1380.921782574692
 20
295.2247396036664
 30
0.0
 40
1.214070989999999
100
AcDbArc
 50
244.3651718999997
 51
295.6348281000003
  0
ARC
  5
170C
330
1F
100
AcDbEntity
  8
0
 62
     3
100
AcDbCircle
 10
1380.921782574692
 20
296.9734120636664
 30
0.0
 40
0.59585563
100
AcDbArc
 50
19.48660554000535
 51
160.5133944599946
  0
ARC
  5
170D
330
1F
100
AcDbEntity
  8
0
 62
     3
100
AcDbCircle
 10
1380.921782574692
 20
295.2247396036664
 30
0.0
 40
1.214070989999999
100
AcDbArc
 50
244.3651718999997
 51
295.6348281000003
  0
ARC
  5
170E
330
1F
100
AcDbEntity
  8
0
 62
     3
100
AcDbCircle
 10
1380.921782574692
 20
295.2016779236664
 30
0.0
 40
0.59585563
100
AcDbArc
 50
199.4866055400053
 51
340.5133944599945
  0
ARC
  5
170F
330
1F
100
AcDbEntity
  8
0
 62
     3
100
AcDbCircle
 10
1376.179310074691
 20
273.8594851536665
 30
0.0
 40
26.04
100
AcDbArc
 50
69.5057148000084
 51
81.68998806999736
  0
ARC
  5
1710
330
1F
100
AcDbEntity
  8
0
 62
     3
100
AcDbCircle
 10
1376.179310074691
 20
318.3156048336664
 30
0.0
 40
26.04
100
AcDbArc
 50
278.3100119300026
 51
290.4942851999916
  0
ARC
  5
1711
330
1F
100
AcDbEntity
  8
0
 62
     3
100
AcDbCircle
 10
1384.487514204691
 20
296.0875449936665
 30
0.0
 40
2.31
100
AcDbArc
 50
290.4942851999916
 51
69.5057148000084
  0
ARC
  5
1712
330
1F
100
AcDbEntity
  8
0
 62
     3
100
AcDbCircle
 10
1357.187514204692
 20
296.0875449936665
 30
0.0
 40
2.31
100
AcDbArc
 50
110.4942851999916
 51
249.5057147999945
  0
ARC
  5
1713
330
1F
100
AcDbEntity
  8
0
 62
     3
100
AcDbCircle
 10
1365.495718324692
 20
273.8594851536665
 30
0.0
 40
26.04
100
AcDbArc
 50
98.31001192998947
 51
110.4942851999916
  0
ARC
  5
1714
330
1F
100
AcDbEntity
  8
0
 62
     3
100
AcDbCircle
 10
1365.495718324692
 20
318.3156048336664
 30
0.0
 40
26.04
100
AcDbArc
 50
249.5057147999945
 51
261.6899880699973
  0
ARC
  5
1715
330
1F
100
AcDbEntity
  8
0
 62
     3
100
AcDbCircle
 10
1370.837514204692
 20
237.2875449936664
 30
0.0
 40
62.99999987
100
AcDbArc
 50
81.68998806999736
 51
98.31001192998947
  0
ARC
  5
1716
330
1F
100
AcDbEntity
  8
0
 62
     3
100
AcDbCircle
 10
1370.837514204692
 20
354.8875449936665
 30
0.0
 40
62.99999987
100
AcDbArc
 50
261.6899880699973
 51
278.3100119300026
  0
ARC
  5
1717
330
1F
100
AcDbEntity
  8
0
 62
     3
100
AcDbCircle
 10
1370.837514204692
 20
237.2875449936664
 30
0.0
 40
62.36999987
100
AcDbArc
 50
81.68998806999736
 51
98.31001192998947
  0
ARC
  5
1718
330
1F
100
AcDbEntity
  8
0
 62
     3
100
AcDbCircle
 10
1370.837514204692
 20
354.8875449936665
 30
0.0
 40
62.36999987
100
AcDbArc
 50
261.6899880699973
 51
278.3100119300026
  0
ARC
  5
1719
330
1F
100
AcDbEntity
  8
0
 62
     3
100
AcDbCircle
 10
1376.179310074691
 20
318.3156048336664
 30
0.0
 40
25.41
100
AcDbArc
 50
278.3100119300026
 51
290.4942851999916
  0
ARC
  5
171A
330
1F
100
AcDbEntity
  8
0
 62
     3
100
AcDbCircle
 10
1376.179310074691
 20
273.8594851536665
 30
0.0
 40
25.41
100
AcDbArc
 50
69.5057148000084
 51
81.68998806999736
  0
ARC
  5
171B
330
1F
100
AcDbEntity
  8
0
 62
     3
100
AcDbCircle
 10
1384.487514204691
 20
296.0875449936665
 30
0.0
 40
1.679999999999999
100
AcDbArc
 50
290.4942851999916
 51
69.5057148000084
  0
ARC
  5
171C
330
1F
100
AcDbEntity
  8
0
 62
     3
100
AcDbCircle
 10
1357.187514204692
 20
296.0875449936665
 30
0.0
 40
1.679999999999999
100
AcDbArc
 50
110.4942851999916
 51
249.5057147999945
  0
ARC
  5
171D
330
1F
100
AcDbEntity
  8
0
 62
     3
100
AcDbCircle
 10
1365.495718324692
 20
273.8594851536665
 30
0.0
 40
25.41
100
AcDbArc
 50
98.31001192998947
 51
110.4942851999916
  0
ARC
  5
171E
330
1F
100
AcDbEntity
  8
0
 62
     3
100
AcDbCircle
 10
1365.495718324692
 20
318.3156048336664
 30
0.0
 40
25.41
100
AcDbArc
 50
249.5057147999945
 51
261.6899880699973
  0
LINE
  5
171F
330
1F
100
AcDbEntity
  8
0
 62
     3
100
AcDbLine
 10
1375.447475304692
 20
294.0106686136664
 30
0.0
 11
1373.517963474691
 21
294.0106686136664
 31
0.0
  0
LINE
  5
1720
330
1F
100
AcDbEntity
  8
0
 62
     3
100
AcDbLine
 10
1375.447475304692
 20
294.2222297536665
 30
0.0
 11
1375.447475304692
 21
294.0106686136664
 31
0.0
  0
LINE
  5
1721
330
1F
100
AcDbEntity
  8
0
 62
     3
100
AcDbLine
 10
1373.311005914692
 20
298.1643226536665
 30
0.0
 11
1371.358743384692
 21
298.1643226536665
 31
0.0
  0
LINE
  5
1722
330
1F
100
AcDbEntity
  8
0
 62
     3
100
AcDbLine
 10
1373.311005914692
 20
298.1643226536665
 30
0.0
 11
1373.311005914692
 21
297.9528602336665
 31
0.0
  0
LINE
  5
1723
330
1F
100
AcDbEntity
  8
0
 62
     3
100
AcDbLine
 10
1373.311005914692
 20
294.2222297536665
 30
0.0
 11
1373.311005914692
 21
294.0105699036664
 31
0.0
  0
LINE
  5
1724
330
1F
100
AcDbEntity
  8
0
 62
     3
100
AcDbLine
 10
1373.311005914692
 20
294.0105699036664
 30
0.0
 11
1371.358743384692
 21
294.0105699036664
 31
0.0
  0
LINE
  5
1725
330
1F
100
AcDbEntity
  8
0
 62
     3
100
AcDbLine
 10
1375.447475304692
 20
298.1644213736664
 30
0.0
 11
1375.447475304692
 21
297.9528602336665
 31
0.0
  0
LINE
  5
1726
330
1F
100
AcDbEntity
  8
0
 62
     3
100
AcDbLine
 10
1375.447475304692
 20
298.1644213736664
 30
0.0
 11
1373.517963474691
 21
298.1644213736664
 31
0.0
  0
LINE
  5
1727
330
1F
100
AcDbEntity
  8
0
 62
     3
100
AcDbLine
 10
1373.517963474691
 20
298.1644213736664
 30
0.0
 11
1373.517963474691
 21
297.9528602336665
 31
0.0
  0
LINE
  5
1728
330
1F
100
AcDbEntity
  8
0
 62
     3
100
AcDbLine
 10
1375.661833304692
 20
294.2222297536665
 30
0.0
 11
1375.661833304692
 21
294.0106686136664
 31
0.0
  0
LINE
  5
1729
330
1F
100
AcDbEntity
  8
0
 62
     3
100
AcDbLine
 10
1377.646133864692
 20
294.0106686136664
 30
0.0
 11
1375.661833304692
 21
294.0106686136664
 31
0.0
  0
LINE
  5
172A
330
1F
100
AcDbEntity
  8
0
 62
     3
100
AcDbLine
 10
1377.155597234692
 20
297.4966518536664
 30
0.0
 11
1377.155597234692
 21
294.6784381336664
 31
0.0
  0
LINE
  5
172B
330
1F
100
AcDbEntity
  8
0
 62
     3
100
AcDbLine
 10
1377.155597234692
 20
294.6784381336664
 30
0.0
 11
1377.345646204692
 21
294.6784381336664
 31
0.0
  0
ARC
  5
172C
330
1F
100
AcDbEntity
  8
0
 62
     3
100
AcDbCircle
 10
1376.373860464692
 20
296.0875449936665
 30
0.0
 40
1.71170957
100
AcDbArc
 50
304.5919552700024
 51
55.40804472999759
  0
LINE
  5
172D
330
1F
100
AcDbEntity
  8
0
 62
     3
100
AcDbLine
 10
1377.646133864692
 20
298.1644213736664
 30
0.0
 11
1375.661833304692
 21
298.1644213736664
 31
0.0
  0
LINE
  5
172E
330
1F
100
AcDbEntity
  8
0
 62
     3
100
AcDbLine
 10
1375.661833304692
 20
298.1644213736664
 30
0.0
 11
1375.661833304692
 21
297.9528602336665
 31
0.0
  0
LINE
  5
172F
330
1F
100
AcDbEntity
  8
0
 62
     3
100
AcDbLine
 10
1373.517963474691
 20
294.2222297536665
 30
0.0
 11
1373.517963474691
 21
294.0106686136664
 31
0.0
  0
LINE
  5
1730
330
1F
100
AcDbEntity
  8
0
 62
     3
100
AcDbLine
 10
1377.155597234692
 20
297.4966518536664
 30
0.0
 11
1377.345646204692
 21
297.4966518536664
 31
0.0
  0
LINE
  5
1731
330
1F
100
AcDbEntity
  8
0
 62
     3
100
AcDbLine
 10
1365.512437574692
 20
294.2222297536665
 30
0.0
 11
1365.512433884692
 21
294.0106488436665
 31
0.0
  0
LINE
  5
1732
330
1F
100
AcDbEntity
  8
0
 62
     3
100
AcDbLine
 10
1363.582922044692
 20
294.0106883836664
 30
0.0
 11
1365.512433884692
 21
294.0106547136664
 31
0.0
  0
LINE
  5
1733
330
1F
100
AcDbEntity
  8
0
 62
     3
100
AcDbLine
 10
1359.286540194692
 20
294.0106686136664
 30
0.0
 11
1360.825805524692
 21
294.0106686136664
 31
0.0
  0
ARC
  5
1734
330
1F
100
AcDbEntity
  8
0
 62
     3
100
AcDbCircle
 10
1354.304597514692
 20
296.1364516136665
 30
0.0
 40
14.71356563
100
AcDbArc
 50
353.8660061899985
 51
357.6940342600003
  0
LINE
  5
1735
330
1F
100
AcDbEntity
  8
0
 62
     3
100
AcDbLine
 10
1368.021177374692
 20
295.5480839636664
 30
0.0
 11
1369.006248264692
 21
295.5444390836665
 31
0.0
  0
LINE
  5
1737
330
1F
100
AcDbEntity
  8
0
 62
     3
100
AcDbLine
 10
1368.025155794692
 20
296.6232987036665
 30
0.0
 11
1369.010226674691
 21
296.6196538336665
 31
0.0
  0
ARC
  5
1738
330
1F
100
AcDbEntity
  8
0
 62
     3
100
AcDbCircle
 10
1354.304597514692
 20
296.1364516136665
 30
0.0
 40
14.71356563
100
AcDbArc
 50
1.881965739999166
 51
5.709993809998117
  0
LINE
  5
1739
330
1F
100
AcDbEntity
  8
0
 62
     3
100
AcDbLine
 10
1365.512506374692
 20
298.1644016036664
 30
0.0
 11
1365.512502684692
 21
297.9528602336665
 31
0.0
  0
LINE
  5
173A
330
1F
100
AcDbEntity
  8
0
 62
     3
100
AcDbLine
 10
1363.582994544692
 20
298.1644411436664
 30
0.0
 11
1365.512506374692
 21
298.1644074636664
 31
0.0
  0
LINE
  5
173B
330
1F
100
AcDbEntity
  8
0
 62
     3
100
AcDbLine
 10
1363.582925734692
 20
294.2222297536665
 30
0.0
 11
1363.582922044692
 21
294.0106883836664
 31
0.0
  0
LINE
  5
173C
330
1F
100
AcDbEntity
  8
0
 62
     3
100
AcDbLine
 10
1363.582994544692
 20
298.1644411436664
 30
0.0
 11
1363.582990854691
 21
297.9528602336665
 31
0.0
  0
LINE
  5
173D
330
1F
100
AcDbEntity
  8
0
 62
     3
100
AcDbLine
 10
1360.825805524692
 20
294.2222297536665
 30
0.0
 11
1360.825805524692
 21
294.0106686136664
 31
0.0
  0
LINE
  5
173E
330
1F
100
AcDbEntity
  8
0
 62
     3
100
AcDbLine
 10
1360.390057614691
 20
296.4465567036664
 30
0.0
 11
1361.912487674692
 21
294.0106686136664
 31
0.0
  0
LINE
  5
173F
330
1F
100
AcDbEntity
  8
0
 62
     3
100
AcDbLine
 10
1361.912487674692
 20
294.0106686136664
 30
0.0
 11
1362.931920394692
 21
294.0106686136664
 31
0.0
  0
LINE
  5
1740
330
1F
100
AcDbEntity
  8
0
 62
     3
100
AcDbLine
 10
1363.367668304692
 20
298.1644213736664
 30
0.0
 11
1363.367668304692
 21
297.9528602336665
 31
0.0
  0
LINE
  5
1741
330
1F
100
AcDbEntity
  8
0
 62
     3
100
AcDbLine
 10
1361.828402974692
 20
298.1644213736664
 30
0.0
 11
1363.367668304692
 21
298.1644213736664
 31
0.0
  0
LINE
  5
1742
330
1F
100
AcDbEntity
  8
0
 62
     3
100
AcDbLine
 10
1361.828402974692
 20
298.1644213736664
 30
0.0
 11
1361.828402974692
 21
297.9528602336665
 31
0.0
  0
LINE
  5
1743
330
1F
100
AcDbEntity
  8
0
 62
     3
100
AcDbLine
 10
1362.264150884692
 20
296.2830550336664
 30
0.0
 11
1361.029504214692
 21
298.1644213736664
 31
0.0
  0
LINE
  5
1744
330
1F
100
AcDbEntity
  8
0
 62
     3
100
AcDbLine
 10
1359.286540194692
 20
298.1644213736664
 30
0.0
 11
1361.029504214692
 21
298.1644213736664
 31
0.0
  0
LINE
  5
1745
330
1F
100
AcDbEntity
  8
0
 62
     3
100
AcDbLine
 10
1369.202754554692
 20
298.1643226536665
 30
0.0
 11
1371.155017094692
 21
298.1643226536665
 31
0.0
  0
LINE
  5
1746
330
1F
100
AcDbEntity
  8
0
 62
     3
100
AcDbLine
 10
1369.202754554692
 20
297.9528602336665
 30
0.0
 11
1369.202754554692
 21
298.1643226536665
 31
0.0
  0
LINE
  5
1747
330
1F
100
AcDbEntity
  8
0
 62
     3
100
AcDbLine
 10
1369.202754554692
 20
294.0105699036664
 30
0.0
 11
1369.202754554692
 21
294.2222297536665
 31
0.0
  0
LINE
  5
1748
330
1F
100
AcDbEntity
  8
0
 62
     3
100
AcDbLine
 10
1369.202754554692
 20
294.0105699036664
 30
0.0
 11
1371.155017094692
 21
294.0105699036664
 31
0.0
  0
LINE
  5
1749
330
1F
100
AcDbEntity
  8
0
 62
     3
100
AcDbLine
 10
1371.358743384692
 20
294.2222297536665
 30
0.0
 11
1371.358743384692
 21
294.0105699036664
 31
0.0
  0
LINE
  5
174A
330
1F
100
AcDbEntity
  8
0
 62
     3
100
AcDbLine
 10
1371.155017094692
 20
294.2222297536665
 30
0.0
 11
1371.155017094692
 21
294.0105699036664
 31
0.0
  0
LINE
  5
174B
330
1F
100
AcDbEntity
  8
0
 62
     3
100
AcDbLine
 10
1371.155017094692
 20
297.9528602336665
 30
0.0
 11
1371.155017094692
 21
298.1643226536665
 31
0.0
  0
LINE
  5
174C
330
1F
100
AcDbEntity
  8
0
 62
     3
100
AcDbLine
 10
1371.358743384692
 20
297.9528602336665
 30
0.0
 11
1371.358743384692
 21
298.1643226536665
 31
0.0
  0
LINE
  5
174D
330
1F
100
AcDbEntity
  8
0
 62
     3
100
AcDbLine
 10
1359.286540194692
 20
294.2222297536665
 30
0.0
 11
1359.286540194692
 21
294.0106686136664
 31
0.0
  0
LINE
  5
174E
330
1F
100
AcDbEntity
  8
0
 62
     3
100
AcDbLine
 10
1359.286540194692
 20
298.1644213736664
 30
0.0
 11
1359.286540194692
 21
297.9528602336665
 31
0.0
  0
ARC
  5
174F
330
1F
100
AcDbEntity
  8
0
 62
     3
100
AcDbCircle
 10
1377.856133864692
 20
296.5232929036664
 30
0.0
 40
1.641128469999999
100
AcDbArc
 50
17.30874897999528
 51
23.76507095999465
  0
ARC
  5
1750
330
1F
100
AcDbEntity
  8
0
 62
     3
100
AcDbCircle
 10
1376.457860464691
 20
296.0875449936665
 30
0.0
 40
3.105725599999999
100
AcDbArc
 50
342.6912510200047
 51
17.30856643999909
  0
ARC
  5
1751
330
1F
100
AcDbEntity
  8
0
 62
     3
100
AcDbCircle
 10
1377.856133864692
 20
295.6517970936665
 30
0.0
 40
1.641128469999999
100
AcDbArc
 50
336.2349290400005
 51
342.6912510200047
  0
ARC
  5
1752
330
1F
100
AcDbEntity
  8
0
 62
     3
100
AcDbCircle
 10
1377.646133864692
 20
296.5232929036664
 30
0.0
 40
1.641128469999999
100
AcDbArc
 50
17.30874897999528
 51
90.0
  0
ARC
  5
1753
330
1F
100
AcDbEntity
  8
0
 62
     3
100
AcDbCircle
 10
1376.247860464691
 20
296.0875449936665
 30
0.0
 40
3.105725599999999
100
AcDbArc
 50
342.6912510200047
 51
17.30856643999909
  0
ARC
  5
1754
330
1F
100
AcDbEntity
  8
0
 62
     3
100
AcDbCircle
 10
1377.646133864692
 20
295.6517970936665
 30
0.0
 40
1.641128469999999
100
AcDbArc
 50
270.0
 51
342.6912510200047
  0
ARC
  5
1755
330
1F
100
AcDbEntity
  8
0
 62
     3
100
AcDbCircle
 10
1367.522193494691
 20
296.0875449936665
 30
0.0
 40
2.076876379999999
100
AcDbArc
 50
46.75287960999344
 51
89.74999828999569
  0
ARC
  5
1756
330
1F
100
AcDbEntity
  8
0
 62
     3
100
AcDbCircle
 10
1367.522193494691
 20
296.0875449936665
 30
0.0
 40
2.076876379999999
100
AcDbArc
 50
273.976333149997
 51
312.8231203899985
  0
ARC
  5
1757
330
1F
100
AcDbEntity
  8
0
 62
     3
100
AcDbCircle
 10
1378.964001434691
 20
296.0554834636664
 30
0.0
 40
2.755888999999999
100
AcDbArc
 50
0.6665840599997753
 51
23.90392827000157
  0
ARC
  5
1758
330
1F
100
AcDbEntity
  8
0
 62
     3
100
AcDbCircle
 10
1382.879563714691
 20
296.0554834636664
 30
0.0
 40
2.755888999999999
100
AcDbArc
 50
156.0960717299984
 51
179.3334159400002
  0
ARC
  5
1759
330
1F
100
AcDbEntity
  8
0
 62
     3
100
AcDbCircle
 10
1378.964001434691
 20
296.1196065236665
 30
0.0
 40
2.755888999999999
100
AcDbArc
 50
336.0960717299984
 51
359.3334159400005
  0
ARC
  5
175A
330
1F
100
AcDbEntity
  8
0
 62
     3
100
AcDbCircle
 10
1382.879563714691
 20
296.1196065236665
 30
0.0
 40
2.755888999999999
100
AcDbArc
 50
180.6665840599995
 51
203.9039282700016
  0
LINE
  5
175B
330
1F
100
AcDbEntity
  8
0
 62
     3
100
AcDbLine
 10
1387.529850804692
 20
296.1654161336664
 30
0.0
 11
1502.202188174692
 21
296.1654161336664
 31
0.0
  0
LINE
  5
175D
330
1F
100
AcDbEntity
  8
0
 62
     3
100
AcDbLine
 10
1354.117104284692
 20
296.1654161336664
 30
0.0
 11
1322.202188174692
 21
296.1654161336664
 31
0.0
  0
LINE
  5
175E
330
1F
100
AcDbEntity
  8
0
 62
     3
100
AcDbLine
 10
1450.202188174691
 20
19.16541613366644
 30
0.0
 11
1450.202188174691
 21
59.16541613366645
 31
0.0
  0
LINE
  5
175F
330
1F
100
AcDbEntity
  8
0
 62
     3
100
AcDbLine
 10
1463.202188174692
 20
29.16541613366644
 30
0.0
 11
1463.202188174692
 21
57.16541613366644
 31
0.0
  0
LINE
  5
1760
330
1F
100
AcDbEntity
  8
0
 62
     3
100
AcDbLine
 10
1423.202188174692
 20
29.16541613366644
 30
0.0
 11
1423.202188174692
 21
43.16541613366643
 31
0.0
  0
LINE
  5
1761
330
1F
100
AcDbEntity
  8
0
 62
     3
100
AcDbLine
 10
1433.202188174692
 20
43.16541613366643
 30
0.0
 11
1433.202188174692
 21
19.16541613366644
 31
0.0
  0
LINE
  5
1762
330
1F
100
AcDbEntity
  8
0
 62
     3
100
AcDbLine
 10
1404.202188174692
 20
59.16541613366643
 30
0.0
 11
1404.202188174692
 21
36.16541613366645
 31
0.0
  0
LINE
  5
1763
330
1F
100
AcDbEntity
  8
0
 62
     3
100
AcDbLine
 10
1463.202188174692
 20
57.16541613366644
 30
0.0
 11
1463.202188174692
 21
59.16541613366645
 31
0.0
  0
LINE
  5
1764
330
1F
100
AcDbEntity
  8
0
 62
     3
100
AcDbLine
 10
1476.202188174692
 20
36.16541613366645
 30
0.0
 11
1476.202188174692
 21
59.16541613366645
 31
0.0
  0
LINE
  5
1765
330
1F
100
AcDbEntity
  8
0
 62
     3
100
AcDbLine
 10
1502.202188174692
 20
59.16541613366645
 30
0.0
 11
1390.956753534692
 21
59.16541613366645
 31
0.0
  0
LINE
  5
1766
330
1F
100
AcDbEntity
  8
0
 62
     3
100
AcDbLine
 10
1502.202188174692
 20
50.16541613366644
 30
0.0
 11
1390.956753534692
 21
50.16541613366644
 31
0.0
  0
LINE
  5
1767
330
1F
100
AcDbEntity
  8
0
 62
     3
100
AcDbLine
 10
1502.202188174692
 20
36.16541613366645
 30
0.0
 11
1390.956753534692
 21
36.16541613366645
 31
0.0
  0
LINE
  5
1768
330
1F
100
AcDbEntity
  8
0
 62
     3
100
AcDbLine
 10
1502.202188174692
 20
29.16541613366644
 30
0.0
 11
1390.956753534692
 21
29.16541613366644
 31
0.0
  0
LINE
  5
1769
330
1F
100
AcDbEntity
  8
0
 62
     3
100
AcDbLine
 10
1489.202188174692
 20
36.16541613366645
 30
0.0
 11
1489.202188174692
 21
59.16541613366645
 31
0.0
  0
LINE
  5
176A
330
1F
100
AcDbEntity
  8
0
 62
     3
100
AcDbLine
 10
1390.956753534692
 20
59.16541613366645
 30
0.0
 11
1390.956753534692
 21
19.16541613366644
 31
0.0
  0
LINE
  5
176B
330
1F
100
AcDbEntity
  8
0
 62
     3
100
AcDbLine
 10
1450.202188174691
 20
43.16541613366643
 30
0.0
 11
1390.956753534692
 21
43.16541613366642
 31
0.0
  0
LINE
  5
176C
330
1F
100
AcDbEntity
  8
0
 62
     3
100
AcDbLine
 10
1433.480513104691
 20
23.99827739366643
 30
0.0
 11
1450.202188174691
 21
23.99827739366643
 31
0.0
  0
TEXT
  5
176D
330
1F
100
AcDbEntity
  8
0
 62
     3
100
AcDbText
 10
1434.366513588007
 20
37.32708797656016
 30
0.0
 40
2.5
  1
質量:115g
  7
高2.5
100
AcDbText
  0
TEXT
  5
176E
330
1F
100
AcDbEntity
  8
0
 62
     3
100
AcDbText
 10
1405.398556869944
 20
38.46323053865035
 30
0.0
 40
2.5
  1
スチール
  7
高2.5
100
AcDbText
  0
TEXT
  5
176F
330
1F
100
AcDbEntity
  8
0
 62
     3
100
AcDbText
 10
1405.663464624641
 20
51.47766565742433
 30
0.0
 40
4.5
  1
鉄骨クランプ(ボルト付)
 41
0.7
  7
高4.5
100
AcDbText
1001
ACAD
1000
ACAD_MTEXT_DEFINED_HEIGHT_BEGIN
1070
    46
1040
0.0
1000
ACAD_MTEXT_DEFINED_HEIGHT_END
  0
TEXT
  5
1770
330
1F
100
AcDbEntity
  8
0
 62
     3
100
AcDbText
 10
1492.267777268166
 20
55.67910823237003
 30
0.0
 40
2.0
  1
DEF
  7
高2
100
AcDbText
  0
TEXT
  5
1771
330
1F
100
AcDbEntity
  8
0
 62
     3
100
AcDbText
 10
1478.328678914458
 20
55.67910823236995
 30
0.0
 40
2.0
  1
DESN
  7
高2
100
AcDbText
  0
TEXT
  5
1772
330
1F
100
AcDbEntity
  8
0
 62
     3
100
AcDbText
 10
1452.074311974457
 20
55.67910823237003
 30
0.0
 40
2.0
  1
APPD
  7
高2
100
AcDbText
  0
TEXT
  5
1773
330
1F
100
AcDbEntity
  8
0
 62
     3
100
AcDbText
 10
1465.187048074692
 20
55.67910823237005
 30
0.0
 40
2.0
  1
CHCK
  7
高2
100
AcDbText
  0
TEXT
  5
1774
330
1F
100
AcDbEntity
  8
0
 62
     3
100
AcDbText
 10
1424.129353813844
 20
33.33381495689716
 30
0.0
 40
2.0
  1
SCALE
 41
0.8
  7
高2
100
AcDbText
  0
TEXT
  5
1775
330
1F
100
AcDbEntity
  8
0
 62
     3
100
AcDbText
 10
1392.641332237738
 20
33.33381495689717
 30
0.0
 40
2.0
  1
3AD　ANGLE
 41
1.5
  7
高2
100
AcDbText
  0
TEXT
  5
1776
330
1F
100
AcDbEntity
  8
0
 62
     3
100
AcDbText
 10
1423.398759504693
 20
40.08535302585427
 30
0.0
 40
2.0
  1
REMARKS
 41
0.7
  7
高2
100
AcDbText
  0
TEXT
  5
1777
330
1F
100
AcDbEntity
  8
0
 62
     3
100
AcDbText
 10
1392.424423884692
 20
40.16541613366644
 30
0.0
 40
2.0
  1
MATERIAL
 41
0.7
  7
高2
100
AcDbText
  0
TEXT
  5
1778
330
1F
100
AcDbEntity
  8
0
 62
     3
100
AcDbText
 10
1393.000911087446
 20
47.16541613366643
 30
0.0
 40
2.0
  1
MODEL
  7
高2
100
AcDbText
  0
TEXT
  5
1779
330
1F
100
AcDbEntity
  8
0
 62
     3
100
AcDbText
 10
1392.637831968777
 20
55.87243748426545
 30
0.0
 40
2.0
  1
CONPONENTS
 41
0.5
  7
高2
100
AcDbText
  0
TEXT
  5
177A
330
1F
100
AcDbEntity
  8
0
 62
     3
100
AcDbText
 10
1405.344947439944
 20
44.25289726147838
 30
0.0
 40
4.5
  1
TK-03
  7
高4.5
100
AcDbText
  0
TEXT
  5
177B
330
1F
100
AcDbEntity
  8
0
 62
     3
100
AcDbText
 10
1453.26723390531
 20
20.60331387082442
 30
0.0
 40
6.299999999999999
  1
TK-03
  7
高6.3
100
AcDbText
1001
ACAD
1000
ACAD_MTEXT_DEFINED_HEIGHT_BEGIN
1070
    46
1040
0.0
1000
ACAD_MTEXT_DEFINED_HEIGHT_END
  0
TEXT
  5
177C
330
1F
100
AcDbEntity
  8
0
 62
     3
100
AcDbText
 10
1466.765697925021
 20
30.26630529189945
 30
0.0
 40
3.2
  1
2014.12.17
  7
高3.2
100
AcDbText
1001
ACAD
1000
ACAD_MTEXT_DEFINED_HEIGHT_BEGIN
1070
    46
1040
0.0
1000
ACAD_MTEXT_DEFINED_HEIGHT_END
  0
TEXT
  5
177D
330
1F
100
AcDbEntity
  8
0
 62
     3
100
AcDbText
 10
1436.989786069338
 20
30.26633313623432
 30
0.0
 40
3.2
  1
1/1
  7
高3.2
100
AcDbText
  0
TEXT
  5
177E
330
1F
100
AcDbEntity
  8
0
 62
     3
100
AcDbText
 10
1434.067115044691
 20
19.9822943068024
 30
0.0
 40
3.2
  1
ZK-A4Y
 41
0.8
  7
高3.2
100
AcDbText
  0
TEXT
  5
177F
330
1F
100
AcDbEntity
  8
0
 62
     3
100
AcDbText
 10
1391.787454574691
 20
25.69003655585427
 30
0.0
 40
2.0
  1
NICHIDO IND.CO.LTD
 41
1.3
  7
高2
100
AcDbText
  0
TEXT
  5
1780
330
1F
100
AcDbEntity
  8
0
 62
     3
100
AcDbText
 10
1392.968977839649
 20
51.30594434155137
 30
0.0
 40
3.2
  1
品 名
  7
高3.2
100
AcDbText
1001
ACAD
1000
ACAD_MTEXT_DEFINED_HEIGHT_BEGIN
1070
    46
1040
0.0
1000
ACAD_MTEXT_DEFINED_HEIGHT_END
  0
TEXT
  5
1781
330
1F
100
AcDbEntity
  8
0
 62
     3
100
AcDbText
 10
1392.968977839649
 20
43.66541613366642
 30
0.0
 40
3.2
  1
型 式
  7
高3.2
100
AcDbText
1001
ACAD
1000
ACAD_MTEXT_DEFINED_HEIGHT_BEGIN
1070
    46
1040
3.064735913775955
1000
ACAD_MTEXT_DEFINED_HEIGHT_END
  0
TEXT
  5
1782
330
1F
100
AcDbEntity
  8
0
 62
     3
100
AcDbText
 10
1392.968977839649
 20
36.66541613366645
 30
0.0
 40
3.2
  1
材 質
  7
高3.2
100
AcDbText
1001
ACAD
1000
ACAD_MTEXT_DEFINED_HEIGHT_BEGIN
1070
    46
1040
0.0
1000
ACAD_MTEXT_DEFINED_HEIGHT_END
  0
TEXT
  5
1783
330
1F
100
AcDbEntity
  8
0
 62
     3
100
AcDbText
 10
1392.663942889649
 20
29.63285612591268
 30
0.0
 40
3.2
  1
第 三 角 法
  7
高3.2
100
AcDbText
1001
ACAD
1000
ACAD_MTEXT_DEFINED_HEIGHT_BEGIN
1070
    46
1040
0.0
1000
ACAD_MTEXT_DEFINED_HEIGHT_END
  0
TEXT
  5
1784
330
1F
100
AcDbEntity
  8
0
 62
     3
100
AcDbText
 10
1391.070475497178
 20
20.30594434155137
 30
0.0
 40
3.2
  1
日動工業株式会社
 41
1.199999999999999
  7
高3.2
100
AcDbText
1001
ACAD
1000
ACAD_MTEXT_DEFINED_HEIGHT_BEGIN
1070
    46
1040
0.0
1000
ACAD_MTEXT_DEFINED_HEIGHT_END
  0
TEXT
  5
1785
330
1F
100
AcDbEntity
  8
0
 62
     3
100
AcDbText
 10
1424.706099696656
 20
36.549994666834
 30
0.0
 40
3.2
  1
備考
  7
高3.2
100
AcDbText
1001
ACAD
1000
ACAD_MTEXT_DEFINED_HEIGHT_BEGIN
1070
    46
1040
0.0
1000
ACAD_MTEXT_DEFINED_HEIGHT_END
  0
TEXT
  5
1786
330
1F
100
AcDbEntity
  8
0
 62
     3
100
AcDbText
 10
1434.355157143692
 20
25.31164615923673
 30
0.0
 40
2.5
  1
出図コード
  7
高2.5
100
AcDbText
1001
ACAD
1000
ACAD_MTEXT_DEFINED_HEIGHT_BEGIN
1070
    46
1040
0.0
1000
ACAD_MTEXT_DEFINED_HEIGHT_END
  0
TEXT
  5
1787
330
1F
100
AcDbEntity
  8
0
 62
     3
100
AcDbText
 10
1424.547333578568
 20
29.61865104407936
 30
0.0
 40
3.2
  1
尺度
  7
高3.2
100
AcDbText
1001
ACAD
1000
ACAD_MTEXT_DEFINED_HEIGHT_BEGIN
1070
    46
1040
0.0
1000
ACAD_MTEXT_DEFINED_HEIGHT_END
  0
TEXT
  5
1788
330
1F
100
AcDbEntity
  8
0
 62
     3
100
AcDbText
 10
1451.693595060347
 20
30.75012949219685
 30
0.0
 40
3.2
  1
作成日
  7
高3.2
100
AcDbText
1001
ACAD
1000
ACAD_MTEXT_DEFINED_HEIGHT_BEGIN
1070
    46
1040
0.0
1000
ACAD_MTEXT_DEFINED_HEIGHT_END
  0
TEXT
  5
1789
330
1F
100
AcDbEntity
  8
0
 62
     3
100
AcDbText
 10
1451.588069067211
 20
51.30594434155137
 30
0.0
 40
3.2
  1
承 認
  7
高3.2
100
AcDbText
1001
ACAD
1000
ACAD_MTEXT_DEFINED_HEIGHT_BEGIN
1070
    46
1040
0.0
1000
ACAD_MTEXT_DEFINED_HEIGHT_END
  0
TEXT
  5
178A
330
1F
100
AcDbEntity
  8
0
 62
     3
100
AcDbText
 10
1464.588069067211
 20
51.30594434155137
 30
0.0
 40
3.2
  1
検 図
  7
高3.2
100
AcDbText
1001
ACAD
1000
ACAD_MTEXT_DEFINED_HEIGHT_BEGIN
1070
    46
1040
0.0
1000
ACAD_MTEXT_DEFINED_HEIGHT_END
  0
TEXT
  5
178B
330
1F
100
AcDbEntity
  8
0
 62
     3
100
AcDbText
 10
1477.588069067211
 20
51.30594434155137
 30
0.0
 40
3.2
  1
設 計
  7
高3.2
100
AcDbText
1001
ACAD
1000
ACAD_MTEXT_DEFINED_HEIGHT_BEGIN
1070
    46
1040
0.0
1000
ACAD_MTEXT_DEFINED_HEIGHT_END
  0
TEXT
  5
178C
330
1F
100
AcDbEntity
  8
0
 62
     3
100
AcDbText
 10
1490.888705587211
 20
51.30594434155137
 30
0.0
 40
3.2
  1
製 図
  7
高3.2
100
AcDbText
1001
ACAD
1000
ACAD_MTEXT_DEFINED_HEIGHT_BEGIN
1070
    46
1040
0.0
1000
ACAD_MTEXT_DEFINED_HEIGHT_END
  0
TEXT
  5
178D
330
1F
100
AcDbEntity
  8
0
 62
     3
100
AcDbText
 10
1489.702188174692
 20
286.6654161336665
 30
0.0
 40
3.2
  1
担　当
  7
高3.2
100
AcDbText
  0
TEXT
  5
178E
330
1F
100
AcDbEntity
  8
0
 62
     3
100
AcDbText
 10
1445.702188174692
 20
286.6654161336665
 30
0.0
 40
3.2
  1
変更・追記内容
  7
高3.2
100
AcDbText
  0
TEXT
  5
178F
330
1F
100
AcDbEntity
  8
0
 62
     3
100
AcDbText
 10
1420.815703175031
 20
281.9948776237581
 30
0.0
 40
2.0
  1
1
  7
高2
100
AcDbText
  0
TEXT
  5
1790
330
1F
100
AcDbEntity
  8
0
 62
     3
100
AcDbText
 10
1420.507191698274
 20
276.8250609114852
 30
0.0
 40
2.0
  1
2
  7
高2
100
AcDbText
  0
TEXT
  5
1791
330
1F
100
AcDbEntity
  8
0
 62
     3
100
AcDbText
 10
1427.702188174692
 20
286.6654161336665
 30
0.0
 40
3.2
  1
日　付
  7
高3.2
100
AcDbText
  0
TEXT
  5
1792
330
1F
100
AcDbEntity
  8
0
 62
     3
100
AcDbText
 10
1427.702188174692
 20
291.6654161336664
 30
0.0
 40
3.2
  1
図　　　　面　　　　略　　　　歴
  7
高3.2
100
AcDbText
  0
TEXT
  5
1793
330
1F
100
AcDbEntity
  8
0
 62
     3
100
AcDbText
 10
1417.702188174692
 20
286.6654161336665
 30
0.0
 40
3.2
  1
記号
  7
高3.2
100
AcDbText
  0
LINE
  5
1794
330
1F
100
AcDbEntity
  8
0
 62
     7
100
AcDbLine
 10
1421.202188174692
 20
279.9563121336665
 30
0.0
 11
1419.302188174692
 21
276.6654161336664
 31
0.0
  0
LINE
  5
1795
330
1F
100
AcDbEntity
  8
0
 62
     7
100
AcDbLine
 10
1421.202188174692
 20
279.9563121336665
 30
0.0
 11
1423.102188174692
 21
276.6654161336664
 31
0.0
  0
LINE
  5
1796
330
1F
100
AcDbEntity
  8
0
 62
     7
100
AcDbLine
 10
1419.302188174692
 20
276.6654161336664
 30
0.0
 11
1423.102188174692
 21
276.6654161336664
 31
0.0
  0
LINE
  5
1797
330
1F
100
AcDbEntity
  8
0
 62
     7
100
AcDbLine
 10
1421.202188174692
 20
284.9563131336665
 30
0.0
 11
1419.302188174692
 21
281.6654161336664
 31
0.0
  0
LINE
  5
1798
330
1F
100
AcDbEntity
  8
0
 62
     7
100
AcDbLine
 10
1421.202188174692
 20
284.9563131336665
 30
0.0
 11
1423.102188174692
 21
281.6654161336664
 31
0.0
  0
LINE
  5
1799
330
1F
100
AcDbEntity
  8
0
 62
     7
100
AcDbLine
 10
1419.302188174692
 20
281.6654161336664
 30
0.0
 11
1423.102188174692
 21
281.6654161336664
 31
0.0
  0
LINE
  5
179A
330
1F
100
AcDbEntity
  8
0
 62
     3
100
AcDbLine
 10
1416.202188174692
 20
291.1654161336664
 30
0.0
 11
1502.202188174692
 21
291.1654161336664
 31
0.0
  0
LINE
  5
179B
330
1F
100
AcDbEntity
  8
0
 62
     3
100
AcDbLine
 10
1416.202188174692
 20
286.1654161336664
 30
0.0
 11
1502.202188174692
 21
286.1654161336664
 31
0.0
  0
LINE
  5
179C
330
1F
100
AcDbEntity
  8
0
 62
     7
100
AcDbLine
 10
1416.202188174692
 20
281.1654161336664
 30
0.0
 11
1502.202188174692
 21
281.1654161336664
 31
0.0
  0
LINE
  5
179D
330
1F
100
AcDbEntity
  8
0
 62
     3
100
AcDbLine
 10
1416.202188174692
 20
276.1654161336664
 30
0.0
 11
1502.202188174692
 21
276.1654161336664
 31
0.0
  0
LINE
  5
179E
330
1F
100
AcDbEntity
  8
0
 62
     7
100
AcDbLine
 10
1488.202188174692
 20
276.1654161336664
 30
0.0
 11
1488.202188174692
 21
291.1654161336664
 31
0.0
  0
LINE
  5
179F
330
1F
100
AcDbEntity
  8
0
 62
     7
100
AcDbLine
 10
1444.202188174692
 20
276.1654161336664
 30
0.0
 11
1444.202188174692
 21
291.1654161336664
 31
0.0
  0
LINE
  5
17A0
330
1F
100
AcDbEntity
  8
0
 62
     7
100
AcDbLine
 10
1426.202188174691
 20
276.1654161336664
 30
0.0
 11
1426.202188174691
 21
291.1654161336664
 31
0.0
  0
LINE
  5
17A1
330
1F
100
AcDbEntity
  8
0
 62
     3
100
AcDbLine
 10
1416.202188174692
 20
276.1654161336664
 30
0.0
 11
1416.202188174692
 21
296.1654161336664
 31
0.0
  0
TEXT
  5
17A2
330
1F
100
AcDbEntity
  8
0
 62
     3
100
AcDbText
 10
1434.366513588007
 20
40.31812054259353
 30
0.0
 40
2.5
  1
クロメート
  7
高2.5
100
AcDbText
  0
TEXT
  5
17A3
330
1F
100
AcDbEntity
  8
0
100
AcDbText
 10
1495.295893986445
 20
41.33222190259653
 30
0.0
 40
3.2
  1
I
  7
高3.2
100
AcDbText
  0
LINE
  5
17A4
330
1F
100
AcDbEntity
  8
0
 62
     3
100
AcDbLine
 10
1502.202188174692
 20
65.16541613366644
 30
0.0
 11
1450.202188174692
 21
65.16541613366644
 31
0.0
  0
LINE
  5
17A5
330
1F
100
AcDbEntity
  8
0
 62
     3
100
AcDbLine
 10
1476.202188174692
 20
59.16541613366645
 30
0.0
 11
1476.202188174692
 21
65.16541613366645
 31
0.0
  0
LINE
  5
17A6
330
1F
100
AcDbEntity
  8
0
 62
     3
100
AcDbLine
 10
1450.202188174691
 20
59.16541613366645
 30
0.0
 11
1450.202188174691
 21
65.16541613366644
 31
0.0
  0
TEXT
  5
17A7
330
1F
100
AcDbEntity
  8
0
 62
     3
100
AcDbText
 10
1456.061939854464
 20
59.67512169810172
 30
0.0
 40
4.5
  1
コード
  7
高4.5
100
AcDbText
  0
TEXT
  5
17A8
330
1F
100
AcDbEntity
  8
0
 62
     3
100
AcDbText
 10
1480.467192066777
 20
59.67512169810172
 30
0.0
 40
4.5
  1
8392
  7
高4.5
100
AcDbText
  0
TEXT
  5
1852
330
1F
100
AcDbEntity
  8
0
 62
     4
100
AcDbText
 10
1410.576825264123
 20
148.3956222652091
 30
0.0
 40
3.0
  1
M10x25
100
AcDbText
  0
LINE
  5
1855
330
1F
100
AcDbEntity
  8
0
100
AcDbLine
 10
1381.502284286399
 20
191.1321825209131
 30
0.0
 11
1377.549968231282
 21
191.1321825209131
 31
0.0
  0
LINE
  5
1856
330
1F
100
AcDbEntity
  8
0
100
AcDbLine
 10
1381.502284286399
 20
207.1321825209131
 30
0.0
 11
1377.549968231282
 21
207.1321825209131
 31
0.0
  0
LINE
  5
1857
330
1F
100
AcDbEntity
  8
0
100
AcDbLine
 10
1378.799968231282
 20
193.6321825209131
 30
0.0
 11
1378.799968231282
 21
204.6321825209131
 31
0.0
  0
LINE
  5
185B
330
1F
100
AcDbEntity
  8
0
100
AcDbLine
 10
1417.34399348159
 20
171.6321825209131
 30
0.0
 11
1446.468904289169
 21
171.6321825209131
 31
0.0
  0
LINE
  5
185C
330
1F
100
AcDbEntity
  8
0
100
AcDbLine
 10
1420.055635892731
 20
178.1321825209131
 30
0.0
 11
1446.468904289169
 21
178.1321825209131
 31
0.0
  0
LINE
  5
185D
330
1F
100
AcDbEntity
  8
0
100
AcDbLine
 10
1445.218904289169
 20
180.6321825209131
 30
0.0
 11
1445.218904289169
 21
183.1321825209131
 31
0.0
  0
LINE
  5
185E
330
1F
100
AcDbEntity
  8
0
100
AcDbLine
 10
1445.218904289169
 20
169.1321825209131
 30
0.0
 11
1445.218904289169
 21
159.3821825209131
 31
0.0
  0
LINE
  5
185F
330
1F
100
AcDbEntity
  8
0
100
AcDbLine
 10
1445.218904289169
 20
178.1321825209131
 30
0.0
 11
1445.218904289169
 21
171.6321825209131
 31
0.0
  0
LINE
  5
1863
330
1F
100
AcDbEntity
  8
0
100
AcDbLine
 10
1336.393200084488
 20
190.8821825209131
 30
0.0
 11
1336.393200084488
 21
140.5078212001796
 31
0.0
  0
LINE
  5
1864
330
1F
100
AcDbEntity
  8
0
100
AcDbLine
 10
1370.093200084488
 20
190.8821825209131
 30
0.0
 11
1370.093200084488
 21
140.5078212001796
 31
0.0
  0
LINE
  5
1865
330
1F
100
AcDbEntity
  8
0
100
AcDbLine
 10
1338.893200084487
 20
141.7578212001796
 30
0.0
 11
1367.593200084488
 21
141.7578212001796
 31
0.0
  0
TEXT
  5
1869
330
1F
100
AcDbEntity
  8
0
 62
     4
100
AcDbText
 10
1416.74345403334
 20
235.0003848426441
 30
0.0
 40
3.0
  1
M6x25
100
AcDbText
  0
LINE
  5
186C
330
1F
100
AcDbEntity
  8
0
100
AcDbLine
 10
1420.055635892731
 20
178.1321825209131
 30
0.0
 11
1446.468904289169
 21
178.1321825209131
 31
0.0
  0
LINE
  5
186D
330
1F
100
AcDbEntity
  8
0
100
AcDbLine
 10
1400.34399348159
 20
220.1321825209131
 30
0.0
 11
1446.468904289169
 21
220.1321825209131
 31
0.0
  0
LINE
  5
186E
330
1F
100
AcDbEntity
  8
0
100
AcDbLine
 10
1445.218904289169
 20
180.6321825209131
 30
0.0
 11
1445.218904289169
 21
217.6321825209131
 31
0.0
  0
LINE
  5
1872
330
1F
100
AcDbEntity
  8
0
100
AcDbLine
 10
1389.59399348159
 20
188.8821825209131
 30
0.0
 11
1389.59399348159
 21
141.3075946668609
 31
0.0
  0
LINE
  5
1873
330
1F
100
AcDbEntity
  8
0
100
AcDbLine
 10
1436.59399348159
 20
198.6916738385227
 30
0.0
 11
1436.59399348159
 21
141.3075946668609
 31
0.0
  0
LINE
  5
1874
330
1F
100
AcDbEntity
  8
0
100
AcDbLine
 10
1392.09399348159
 20
142.5575946668609
 30
0.0
 11
1434.09399348159
 21
142.5575946668609
 31
0.0
  0
LINE
  5
1878
330
1F
100
AcDbEntity
  8
0
 62
     3
100
AcDbLine
 10
1350.247322780252
 20
199.0400429159
 30
0.0
 11
1350.245201539377
 21
199.054005594632
 31
0.0
  0
LINE
  5
1879
330
1F
100
AcDbEntity
  8
0
 62
     3
100
AcDbLine
 10
1350.245201539377
 20
199.054005594632
 30
0.0
 11
1350.293103053999
 21
199.0767897644849
 31
0.0
  0
LINE
  5
187A
330
1F
100
AcDbEntity
  8
0
 62
     3
100
AcDbLine
 10
1350.293103053999
 20
199.0767897644849
 30
0.0
 11
1350.403880765015
 21
199.0989661138375
 31
0.0
  0
LINE
  5
187B
330
1F
100
AcDbEntity
  8
0
 62
     3
100
AcDbLine
 10
1350.403880765015
 20
199.0989661138375
 30
0.0
 11
1350.57517363784
 21
199.1200619923047
 31
0.0
  0
LINE
  5
187C
330
1F
100
AcDbEntity
  8
0
 62
     3
100
AcDbLine
 10
1350.57517363784
 20
199.1200619923047
 30
0.0
 11
1350.803330862281
 21
199.1396277778627
 31
0.0
  0
LINE
  5
187D
330
1F
100
AcDbEntity
  8
0
 62
     3
100
AcDbLine
 10
1350.803330862281
 20
199.1396277778627
 30
0.0
 11
1351.083489663214
 21
199.1572464597613
 31
0.0
  0
LINE
  5
187E
330
1F
100
AcDbEntity
  8
0
 62
     3
100
AcDbLine
 10
1351.083489663214
 20
199.1572464597613
 30
0.0
 11
1351.409678942194
 21
199.1725425263847
 31
0.0
  0
LINE
  5
187F
330
1F
100
AcDbEntity
  8
0
 62
     3
100
AcDbLine
 10
1351.409678942194
 20
199.1725425263847
 30
0.0
 11
1351.774946541054
 21
199.185189968629
 31
0.0
  0
LINE
  5
1880
330
1F
100
AcDbEntity
  8
0
 62
     3
100
AcDbLine
 10
1351.774946541054
 20
199.185189968629
 30
0.0
 11
1352.171507415084
 21
199.1949192282205
 31
0.0
  0
LINE
  5
1881
330
1F
100
AcDbEntity
  8
0
 62
     3
100
AcDbLine
 10
1352.171507415084
 20
199.1949192282205
 30
0.0
 11
1352.590909557743
 21
199.2015229428827
 31
0.0
  0
LINE
  5
1882
330
1F
100
AcDbEntity
  8
0
 62
     3
100
AcDbLine
 10
1352.590909557743
 20
199.2015229428827
 30
0.0
 11
1353.024214140505
 21
199.2048603659025
 31
0.0
  0
LINE
  5
1883
330
1F
100
AcDbEntity
  8
0
 62
     3
100
AcDbLine
 10
1353.024214140505
 20
199.2048603659025
 30
0.0
 11
1353.46218602847
 21
199.2048603659025
 31
0.0
  0
LINE
  5
1884
330
1F
100
AcDbEntity
  8
0
 62
     3
100
AcDbLine
 10
1353.46218602847
 20
199.2048603659025
 30
0.0
 11
1353.895490611232
 21
199.2015229428827
 31
0.0
  0
LINE
  5
1885
330
1F
100
AcDbEntity
  8
0
 62
     3
100
AcDbLine
 10
1353.895490611232
 20
199.2015229428827
 30
0.0
 11
1354.314892753891
 21
199.1949192282205
 31
0.0
  0
LINE
  5
1886
330
1F
100
AcDbEntity
  8
0
 62
     3
100
AcDbLine
 10
1354.314892753891
 20
199.1949192282205
 30
0.0
 11
1354.711453627921
 21
199.185189968629
 31
0.0
  0
LINE
  5
1887
330
1F
100
AcDbEntity
  8
0
 62
     3
100
AcDbLine
 10
1354.711453627921
 20
199.185189968629
 30
0.0
 11
1355.076721226781
 21
199.1725425263847
 31
0.0
  0
LINE
  5
1888
330
1F
100
AcDbEntity
  8
0
 62
     3
100
AcDbLine
 10
1355.076721226781
 20
199.1725425263847
 30
0.0
 11
1355.402910505762
 21
199.1572464597613
 31
0.0
  0
LINE
  5
1889
330
1F
100
AcDbEntity
  8
0
 62
     3
100
AcDbLine
 10
1355.402910505762
 20
199.1572464597613
 30
0.0
 11
1355.683069306694
 21
199.1396277778627
 31
0.0
  0
LINE
  5
188A
330
1F
100
AcDbEntity
  8
0
 62
     3
100
AcDbLine
 10
1355.683069306694
 20
199.1396277778627
 30
0.0
 11
1355.911226531135
 21
199.1200619923047
 31
0.0
  0
LINE
  5
188B
330
1F
100
AcDbEntity
  8
0
 62
     3
100
AcDbLine
 10
1355.911226531135
 20
199.1200619923047
 30
0.0
 11
1356.08251940396
 21
199.0989661138375
 31
0.0
  0
LINE
  5
188C
330
1F
100
AcDbEntity
  8
0
 62
     3
100
AcDbLine
 10
1356.08251940396
 20
199.0989661138375
 30
0.0
 11
1356.193297114976
 21
199.0767897644849
 31
0.0
  0
LINE
  5
188D
330
1F
100
AcDbEntity
  8
0
 62
     3
100
AcDbLine
 10
1356.193297114976
 20
199.0767897644849
 30
0.0
 11
1356.241198629599
 21
199.054005594632
 31
0.0
  0
LINE
  5
188E
330
1F
100
AcDbEntity
  8
0
 62
     3
100
AcDbLine
 10
1356.241198629599
 20
199.054005594632
 30
0.0
 11
1356.239077388724
 21
199.0400429159
 31
0.0
  0
LINE
  5
188F
330
1F
100
AcDbEntity
  8
0
 62
     3
100
AcDbLine
 10
1353.243200084488
 20
197.4718231131337
 30
0.0
 11
1353.555067620714
 21
197.4735386124514
 31
0.0
  0
LINE
  5
1890
330
1F
100
AcDbEntity
  8
0
 62
     3
100
AcDbLine
 10
1353.555067620714
 20
197.4735386124514
 30
0.0
 11
1353.853305049101
 21
197.4786101348525
 31
0.0
  0
LINE
  5
1891
330
1F
100
AcDbEntity
  8
0
 62
     3
100
AcDbLine
 10
1353.853305049101
 20
197.4786101348525
 30
0.0
 11
1354.124877962926
 21
197.4868160304721
 31
0.0
  0
LINE
  5
1892
330
1F
100
AcDbEntity
  8
0
 62
     3
100
AcDbLine
 10
1354.124877962926
 20
197.4868160304721
 30
0.0
 11
1354.357917322704
 21
197.4977976622954
 31
0.0
  0
LINE
  5
1893
330
1F
100
AcDbEntity
  8
0
 62
     3
100
AcDbLine
 10
1354.357917322704
 20
197.4977976622954
 30
0.0
 11
1354.542238190164
 21
197.511075080316
 31
0.0
  0
LINE
  5
1894
330
1F
100
AcDbEntity
  8
0
 62
     3
100
AcDbLine
 10
1354.542238190164
 20
197.511075080316
 30
0.0
 11
1354.66978485893
 21
197.5260679976543
 31
0.0
  0
LINE
  5
1895
330
1F
100
AcDbEntity
  8
0
 62
     3
100
AcDbLine
 10
1354.66978485893
 20
197.5260679976543
 30
0.0
 11
1354.73498292754
 21
197.5421211518786
 31
0.0
  0
LINE
  5
1896
330
1F
100
AcDbEntity
  8
0
 62
     3
100
AcDbLine
 10
1354.73498292754
 20
197.5421211518786
 30
0.0
 11
1354.73498292754
 21
197.5585329431178
 31
0.0
  0
LINE
  5
1897
330
1F
100
AcDbEntity
  8
0
 62
     3
100
AcDbLine
 10
1354.73498292754
 20
197.5585329431178
 30
0.0
 11
1354.66978485893
 21
197.5745860973421
 31
0.0
  0
LINE
  5
1898
330
1F
100
AcDbEntity
  8
0
 62
     3
100
AcDbLine
 10
1354.66978485893
 20
197.5745860973421
 30
0.0
 11
1354.542238190164
 21
197.5895790146804
 31
0.0
  0
LINE
  5
1899
330
1F
100
AcDbEntity
  8
0
 62
     3
100
AcDbLine
 10
1354.542238190164
 20
197.5895790146804
 30
0.0
 11
1354.357917322704
 21
197.602856432701
 31
0.0
  0
LINE
  5
189A
330
1F
100
AcDbEntity
  8
0
 62
     3
100
AcDbLine
 10
1354.357917322704
 20
197.602856432701
 30
0.0
 11
1354.124877962926
 21
197.6138380645243
 31
0.0
  0
LINE
  5
189B
330
1F
100
AcDbEntity
  8
0
 62
     3
100
AcDbLine
 10
1354.124877962926
 20
197.6138380645243
 30
0.0
 11
1353.853305049101
 21
197.6220439601439
 31
0.0
  0
LINE
  5
189C
330
1F
100
AcDbEntity
  8
0
 62
     3
100
AcDbLine
 10
1353.853305049101
 20
197.6220439601439
 30
0.0
 11
1353.555067620714
 21
197.6271154825449
 31
0.0
  0
LINE
  5
189D
330
1F
100
AcDbEntity
  8
0
 62
     3
100
AcDbLine
 10
1353.555067620714
 20
197.6271154825449
 30
0.0
 11
1353.243200084488
 21
197.6288309818626
 31
0.0
  0
LINE
  5
189E
330
1F
100
AcDbEntity
  8
0
 62
     3
100
AcDbLine
 10
1353.243200084488
 20
197.6288309818626
 30
0.0
 11
1352.931332548261
 21
197.6271154825449
 31
0.0
  0
LINE
  5
189F
330
1F
100
AcDbEntity
  8
0
 62
     3
100
AcDbLine
 10
1352.931332548261
 20
197.6271154825449
 30
0.0
 11
1352.633095119874
 21
197.6220439601439
 31
0.0
  0
LINE
  5
18A0
330
1F
100
AcDbEntity
  8
0
 62
     3
100
AcDbLine
 10
1352.633095119874
 20
197.6220439601439
 30
0.0
 11
1352.361522206049
 21
197.6138380645243
 31
0.0
  0
LINE
  5
18A1
330
1F
100
AcDbEntity
  8
0
 62
     3
100
AcDbLine
 10
1352.361522206049
 20
197.6138380645243
 30
0.0
 11
1352.128482846272
 21
197.602856432701
 31
0.0
  0
LINE
  5
18A2
330
1F
100
AcDbEntity
  8
0
 62
     3
100
AcDbLine
 10
1352.128482846272
 20
197.602856432701
 30
0.0
 11
1351.944161978811
 21
197.5895790146804
 31
0.0
  0
LINE
  5
18A3
330
1F
100
AcDbEntity
  8
0
 62
     3
100
AcDbLine
 10
1351.944161978811
 20
197.5895790146804
 30
0.0
 11
1351.816615310045
 21
197.5745860973421
 31
0.0
  0
LINE
  5
18A4
330
1F
100
AcDbEntity
  8
0
 62
     3
100
AcDbLine
 10
1351.816615310045
 20
197.5745860973421
 30
0.0
 11
1351.751417241435
 21
197.5585329431178
 31
0.0
  0
LINE
  5
18A5
330
1F
100
AcDbEntity
  8
0
 62
     3
100
AcDbLine
 10
1351.751417241435
 20
197.5585329431178
 30
0.0
 11
1351.751417241435
 21
197.5421211518786
 31
0.0
  0
LINE
  5
18A6
330
1F
100
AcDbEntity
  8
0
 62
     3
100
AcDbLine
 10
1351.751417241435
 20
197.5421211518786
 30
0.0
 11
1351.816615310045
 21
197.5260679976543
 31
0.0
  0
LINE
  5
18A7
330
1F
100
AcDbEntity
  8
0
 62
     3
100
AcDbLine
 10
1351.816615310045
 20
197.5260679976543
 30
0.0
 11
1351.944161978811
 21
197.511075080316
 31
0.0
  0
LINE
  5
18A8
330
1F
100
AcDbEntity
  8
0
 62
     3
100
AcDbLine
 10
1351.944161978811
 20
197.511075080316
 30
0.0
 11
1352.128482846272
 21
197.4977976622954
 31
0.0
  0
LINE
  5
18A9
330
1F
100
AcDbEntity
  8
0
 62
     3
100
AcDbLine
 10
1352.128482846272
 20
197.4977976622954
 30
0.0
 11
1352.361522206049
 21
197.4868160304721
 31
0.0
  0
LINE
  5
18AA
330
1F
100
AcDbEntity
  8
0
 62
     3
100
AcDbLine
 10
1352.361522206049
 20
197.4868160304721
 30
0.0
 11
1352.633095119874
 21
197.4786101348525
 31
0.0
  0
LINE
  5
18AB
330
1F
100
AcDbEntity
  8
0
 62
     3
100
AcDbLine
 10
1352.633095119874
 20
197.4786101348525
 30
0.0
 11
1352.931332548261
 21
197.4735386124514
 31
0.0
  0
LINE
  5
18AC
330
1F
100
AcDbEntity
  8
0
 62
     3
100
AcDbLine
 10
1352.931332548261
 20
197.4735386124514
 30
0.0
 11
1353.243200084488
 21
197.4718231131337
 31
0.0
  0
LINE
  5
18AD
330
1F
100
AcDbEntity
  8
0
 62
     3
100
AcDbLine
 10
1350.243200084488
 20
213.008771924421
 30
0.0
 11
1350.125751075194
 21
213.0135262581137
 31
0.0
  0
LINE
  5
18AE
330
1F
100
AcDbEntity
  8
0
 62
     3
100
AcDbLine
 10
1350.125751075194
 20
213.0135262581137
 30
0.0
 11
1349.707666178555
 21
213.0330802015964
 31
0.0
  0
LINE
  5
18AF
330
1F
100
AcDbEntity
  8
0
 62
     3
100
AcDbLine
 10
1349.707666178555
 20
213.0330802015964
 30
0.0
 11
1349.334042672147
 21
213.0549610744527
 31
0.0
  0
LINE
  5
18B0
330
1F
100
AcDbEntity
  8
0
 62
     3
100
AcDbLine
 10
1349.334042672147
 20
213.0549610744527
 30
0.0
 11
1349.009579088346
 21
213.078893712011
 31
0.0
  0
LINE
  5
18B1
330
1F
100
AcDbEntity
  8
0
 62
     3
100
AcDbLine
 10
1349.009579088346
 20
213.078893712011
 30
0.0
 11
1348.738355744975
 21
213.1045771474678
 31
0.0
  0
LINE
  5
18B2
330
1F
100
AcDbEntity
  8
0
 62
     3
100
AcDbLine
 10
1348.738355744975
 20
213.1045771474678
 30
0.0
 11
1348.523783432946
 21
213.1316883967205
 31
0.0
  0
LINE
  5
18B3
330
1F
100
AcDbEntity
  8
0
 62
     3
100
AcDbLine
 10
1348.523783432946
 20
213.1316883967205
 30
0.0
 11
1348.368560523579
 21
213.1598865200794
 31
0.0
  0
LINE
  5
18B4
330
1F
100
AcDbEntity
  8
0
 62
     3
100
AcDbLine
 10
1348.368560523579
 20
213.1598865200794
 30
0.0
 11
1348.274639035021
 21
213.1888169097822
 31
0.0
  0
LINE
  5
18B5
330
1F
100
AcDbEntity
  8
0
 62
     3
100
AcDbLine
 10
1348.274639035021
 20
213.1888169097822
 30
0.0
 11
1348.243200084488
 21
213.2181157493927
 31
0.0
  0
LINE
  5
18B6
330
1F
100
AcDbEntity
  8
0
 62
     3
100
AcDbLine
 10
1348.243200084488
 20
213.2181157493927
 30
0.0
 11
1348.274639035021
 21
213.2474145890033
 31
0.0
  0
LINE
  5
18B7
330
1F
100
AcDbEntity
  8
0
 62
     3
100
AcDbLine
 10
1348.274639035021
 20
213.2474145890033
 30
0.0
 11
1348.368560523579
 21
213.2763449787061
 31
0.0
  0
LINE
  5
18B8
330
1F
100
AcDbEntity
  8
0
 62
     3
100
AcDbLine
 10
1348.368560523579
 20
213.2763449787061
 30
0.0
 11
1348.523783432946
 21
213.3045431020649
 31
0.0
  0
LINE
  5
18B9
330
1F
100
AcDbEntity
  8
0
 62
     3
100
AcDbLine
 10
1348.523783432946
 20
213.3045431020649
 30
0.0
 11
1348.738355744975
 21
213.3316543513176
 31
0.0
  0
LINE
  5
18BA
330
1F
100
AcDbEntity
  8
0
 62
     3
100
AcDbLine
 10
1348.738355744975
 20
213.3316543513176
 30
0.0
 11
1349.009579088346
 21
213.3573377867744
 31
0.0
  0
LINE
  5
18BB
330
1F
100
AcDbEntity
  8
0
 62
     3
100
AcDbLine
 10
1349.009579088346
 20
213.3573377867744
 30
0.0
 11
1349.334042672148
 21
213.3812704243327
 31
0.0
  0
LINE
  5
18BC
330
1F
100
AcDbEntity
  8
0
 62
     3
100
AcDbLine
 10
1349.334042672148
 20
213.3812704243327
 30
0.0
 11
1349.707666178555
 21
213.403151297189
 31
0.0
  0
LINE
  5
18BD
330
1F
100
AcDbEntity
  8
0
 62
     3
100
AcDbLine
 10
1349.707666178555
 20
213.403151297189
 30
0.0
 11
1350.125751075194
 21
213.4227052406717
 31
0.0
  0
LINE
  5
18BE
330
1F
100
AcDbEntity
  8
0
 62
     3
100
AcDbLine
 10
1350.125751075194
 20
213.4227052406717
 30
0.0
 11
1350.583039701911
 21
213.439686352596
 31
0.0
  0
LINE
  5
18BF
330
1F
100
AcDbEntity
  8
0
 62
     3
100
AcDbLine
 10
1350.583039701911
 20
213.439686352596
 30
0.0
 11
1351.0737813889
 21
213.4538810856267
 31
0.0
  0
LINE
  5
18C0
330
1F
100
AcDbEntity
  8
0
 62
     3
100
AcDbLine
 10
1351.0737813889
 20
213.4538810856267
 30
0.0
 11
1351.591804774712
 21
213.46511093276
 31
0.0
  0
LINE
  5
18C1
330
1F
100
AcDbEntity
  8
0
 62
     3
100
AcDbLine
 10
1351.591804774712
 20
213.46511093276
 30
0.0
 11
1352.130595414706
 21
213.4732346721525
 31
0.0
  0
LINE
  5
18C2
330
1F
100
AcDbEntity
  8
0
 62
     3
100
AcDbLine
 10
1352.130595414706
 20
213.4732346721525
 30
0.0
 11
1352.683377703971
 21
213.4781501430679
 31
0.0
  0
LINE
  5
18C3
330
1F
100
AcDbEntity
  8
0
 62
     3
100
AcDbLine
 10
1352.683377703971
 20
213.4781501430679
 30
0.0
 11
1353.243200084488
 21
213.4797955306074
 31
0.0
  0
LINE
  5
18C4
330
1F
100
AcDbEntity
  8
0
 62
     3
100
AcDbLine
 10
1353.243200084488
 20
213.4797955306074
 30
0.0
 11
1353.803022465004
 21
213.4781501430679
 31
0.0
  0
LINE
  5
18C5
330
1F
100
AcDbEntity
  8
0
 62
     3
100
AcDbLine
 10
1353.803022465004
 20
213.4781501430679
 30
0.0
 11
1354.355804754269
 21
213.4732346721525
 31
0.0
  0
LINE
  5
18C6
330
1F
100
AcDbEntity
  8
0
 62
     3
100
AcDbLine
 10
1354.355804754269
 20
213.4732346721525
 30
0.0
 11
1354.894595394263
 21
213.46511093276
 31
0.0
  0
LINE
  5
18C7
330
1F
100
AcDbEntity
  8
0
 62
     3
100
AcDbLine
 10
1354.894595394263
 20
213.46511093276
 30
0.0
 11
1355.412618780075
 21
213.4538810856267
 31
0.0
  0
LINE
  5
18C8
330
1F
100
AcDbEntity
  8
0
 62
     3
100
AcDbLine
 10
1355.412618780075
 20
213.4538810856267
 30
0.0
 11
1355.903360467064
 21
213.4396863525959
 31
0.0
  0
LINE
  5
18C9
330
1F
100
AcDbEntity
  8
0
 62
     3
100
AcDbLine
 10
1355.903360467064
 20
213.4396863525959
 30
0.0
 11
1356.360649093781
 21
213.4227052406717
 31
0.0
  0
LINE
  5
18CA
330
1F
100
AcDbEntity
  8
0
 62
     3
100
AcDbLine
 10
1356.360649093781
 20
213.4227052406717
 30
0.0
 11
1356.77873399042
 21
213.403151297189
 31
0.0
  0
LINE
  5
18CB
330
1F
100
AcDbEntity
  8
0
 62
     3
100
AcDbLine
 10
1356.77873399042
 20
213.403151297189
 30
0.0
 11
1357.152357496828
 21
213.3812704243327
 31
0.0
  0
LINE
  5
18CC
330
1F
100
AcDbEntity
  8
0
 62
     3
100
AcDbLine
 10
1357.152357496828
 20
213.3812704243327
 30
0.0
 11
1357.476821080629
 21
213.3573377867744
 31
0.0
  0
LINE
  5
18CD
330
1F
100
AcDbEntity
  8
0
 62
     3
100
AcDbLine
 10
1357.476821080629
 20
213.3573377867744
 30
0.0
 11
1357.748044423999
 21
213.3316543513176
 31
0.0
  0
LINE
  5
18CE
330
1F
100
AcDbEntity
  8
0
 62
     3
100
AcDbLine
 10
1357.748044423999
 20
213.3316543513176
 30
0.0
 11
1357.962616736029
 21
213.3045431020649
 31
0.0
  0
LINE
  5
18CF
330
1F
100
AcDbEntity
  8
0
 62
     3
100
AcDbLine
 10
1357.962616736029
 20
213.3045431020649
 30
0.0
 11
1358.117839645397
 21
213.2763449787061
 31
0.0
  0
LINE
  5
18D0
330
1F
100
AcDbEntity
  8
0
 62
     3
100
AcDbLine
 10
1358.117839645397
 20
213.2763449787061
 30
0.0
 11
1358.211761133954
 21
213.2474145890033
 31
0.0
  0
LINE
  5
18D1
330
1F
100
AcDbEntity
  8
0
 62
     3
100
AcDbLine
 10
1358.211761133954
 20
213.2474145890033
 30
0.0
 11
1358.243200084488
 21
213.2181157493927
 31
0.0
  0
LINE
  5
18D2
330
1F
100
AcDbEntity
  8
0
 62
     3
100
AcDbLine
 10
1358.243200084488
 20
213.2181157493927
 30
0.0
 11
1358.211761133954
 21
213.1888169097822
 31
0.0
  0
LINE
  5
18D3
330
1F
100
AcDbEntity
  8
0
 62
     3
100
AcDbLine
 10
1358.211761133954
 20
213.1888169097822
 30
0.0
 11
1358.117839645397
 21
213.1598865200794
 31
0.0
  0
LINE
  5
18D4
330
1F
100
AcDbEntity
  8
0
 62
     3
100
AcDbLine
 10
1358.117839645397
 20
213.1598865200794
 30
0.0
 11
1357.962616736029
 21
213.1316883967205
 31
0.0
  0
LINE
  5
18D5
330
1F
100
AcDbEntity
  8
0
 62
     3
100
AcDbLine
 10
1357.962616736029
 20
213.1316883967205
 30
0.0
 11
1357.748044423999
 21
213.1045771474678
 31
0.0
  0
LINE
  5
18D6
330
1F
100
AcDbEntity
  8
0
 62
     3
100
AcDbLine
 10
1357.748044423999
 20
213.1045771474678
 30
0.0
 11
1357.476821080629
 21
213.078893712011
 31
0.0
  0
LINE
  5
18D7
330
1F
100
AcDbEntity
  8
0
 62
     3
100
AcDbLine
 10
1357.476821080629
 20
213.078893712011
 30
0.0
 11
1357.152357496828
 21
213.0549610744527
 31
0.0
  0
LINE
  5
18D8
330
1F
100
AcDbEntity
  8
0
 62
     3
100
AcDbLine
 10
1357.152357496828
 20
213.0549610744527
 30
0.0
 11
1356.77873399042
 21
213.0330802015964
 31
0.0
  0
LINE
  5
18D9
330
1F
100
AcDbEntity
  8
0
 62
     3
100
AcDbLine
 10
1356.77873399042
 20
213.0330802015964
 30
0.0
 11
1356.360649093781
 21
213.0135262581137
 31
0.0
  0
LINE
  5
18DA
330
1F
100
AcDbEntity
  8
0
 62
     3
100
AcDbLine
 10
1356.360649093781
 20
213.0135262581137
 30
0.0
 11
1356.243200084488
 21
213.008771924421
 31
0.0
  0
LINE
  5
18DB
330
1F
100
AcDbEntity
  8
0
 62
     3
100
AcDbLine
 10
1475.126943364245
 20
220.7812808609925
 30
0.0
 11
1475.216262683717
 21
220.7692270180118
 31
0.0
  0
LINE
  5
18DC
330
1F
100
AcDbEntity
  8
0
 62
     3
100
AcDbLine
 10
1475.216262683717
 20
220.7692270180118
 30
0.0
 11
1475.327040394733
 21
220.7470506686592
 31
0.0
  0
LINE
  5
18DD
330
1F
100
AcDbEntity
  8
0
 62
     3
100
AcDbLine
 10
1475.327040394733
 20
220.7470506686592
 30
0.0
 11
1475.374941909355
 21
220.7242664988063
 31
0.0
  0
LINE
  5
18DE
330
1F
100
AcDbEntity
  8
0
 62
     3
100
AcDbLine
 10
1475.374941909355
 20
220.7242664988063
 30
0.0
 11
1475.358946289964
 21
220.7013601134766
 31
0.0
  0
LINE
  5
18DF
330
1F
100
AcDbEntity
  8
0
 62
     3
100
AcDbLine
 10
1475.358946289964
 20
220.7013601134766
 30
0.0
 11
1475.279394455417
 21
220.6788197225046
 31
0.0
  0
LINE
  5
18E0
330
1F
100
AcDbEntity
  8
0
 62
     3
100
AcDbLine
 10
1475.279394455417
 20
220.6788197225046
 30
0.0
 11
1475.137981914952
 21
220.6571257351904
 31
0.0
  0
LINE
  5
18E1
330
1F
100
AcDbEntity
  8
0
 62
     3
100
AcDbLine
 10
1475.137981914952
 20
220.6571257351904
 30
0.0
 11
1474.937722631357
 21
220.6367405212095
 31
0.0
  0
LINE
  5
18E2
330
1F
100
AcDbEntity
  8
0
 62
     3
100
AcDbLine
 10
1474.937722631357
 20
220.6367405212095
 30
0.0
 11
1474.68288478358
 21
220.618098556006
 31
0.0
  0
LINE
  5
18E3
330
1F
100
AcDbEntity
  8
0
 62
     3
100
AcDbLine
 10
1474.68288478358
 20
220.618098556006
 30
0.0
 11
1474.378899797911
 21
220.6015971607032
 31
0.0
  0
LINE
  5
18E4
330
1F
100
AcDbEntity
  8
0
 62
     3
100
AcDbLine
 10
1474.378899797911
 20
220.6015971607032
 30
0.0
 11
1474.032246586556
 21
220.5875880338929
 31
0.0
  0
LINE
  5
18E5
330
1F
100
AcDbEntity
  8
0
 62
     3
100
AcDbLine
 10
1474.032246586556
 20
220.5875880338929
 30
0.0
 11
1473.650313460872
 21
220.5763697557912
 31
0.0
  0
LINE
  5
18E6
330
1F
100
AcDbEntity
  8
0
 62
     3
100
AcDbLine
 10
1473.650313460872
 20
220.5763697557912
 30
0.0
 11
1473.24124066234
 21
220.5681814245192
 31
0.0
  0
LINE
  5
18E7
330
1F
100
AcDbEntity
  8
0
 62
     3
100
AcDbLine
 10
1473.24124066234
 20
220.5681814245192
 30
0.0
 11
1472.81374686745
 21
220.5631975601419
 31
0.0
  0
LINE
  5
18E8
330
1F
100
AcDbEntity
  8
0
 62
     3
100
AcDbLine
 10
1472.81374686745
 20
220.5631975601419
 30
0.0
 11
1472.376943364245
 21
220.5615243850755
 31
0.0
  0
LINE
  5
18E9
330
1F
100
AcDbEntity
  8
0
 62
     3
100
AcDbLine
 10
1472.376943364245
 20
220.5615243850755
 30
0.0
 11
1471.940139861039
 21
220.5631975601419
 31
0.0
  0
LINE
  5
18EA
330
1F
100
AcDbEntity
  8
0
 62
     3
100
AcDbLine
 10
1471.940139861039
 20
220.5631975601419
 30
0.0
 11
1471.512646066149
 21
220.5681814245192
 31
0.0
  0
LINE
  5
18EB
330
1F
100
AcDbEntity
  8
0
 62
     3
100
AcDbLine
 10
1471.512646066149
 20
220.5681814245192
 30
0.0
 11
1471.103573267617
 21
220.5763697557912
 31
0.0
  0
LINE
  5
18EC
330
1F
100
AcDbEntity
  8
0
 62
     3
100
AcDbLine
 10
1471.103573267617
 20
220.5763697557912
 30
0.0
 11
1470.721640141933
 21
220.5875880338929
 31
0.0
  0
LINE
  5
18ED
330
1F
100
AcDbEntity
  8
0
 62
     3
100
AcDbLine
 10
1470.721640141933
 20
220.5875880338929
 30
0.0
 11
1470.374986930578
 21
220.6015971607032
 31
0.0
  0
LINE
  5
18EE
330
1F
100
AcDbEntity
  8
0
 62
     3
100
AcDbLine
 10
1470.374986930578
 20
220.6015971607032
 30
0.0
 11
1470.071001944909
 21
220.618098556006
 31
0.0
  0
LINE
  5
18EF
330
1F
100
AcDbEntity
  8
0
 62
     3
100
AcDbLine
 10
1470.071001944909
 20
220.618098556006
 30
0.0
 11
1469.816164097132
 21
220.6367405212095
 31
0.0
  0
LINE
  5
18F0
330
1F
100
AcDbEntity
  8
0
 62
     3
100
AcDbLine
 10
1469.816164097132
 20
220.6367405212095
 30
0.0
 11
1469.615904813537
 21
220.6571257351904
 31
0.0
  0
LINE
  5
18F1
330
1F
100
AcDbEntity
  8
0
 62
     3
100
AcDbLine
 10
1469.615904813537
 20
220.6571257351904
 30
0.0
 11
1469.474492273072
 21
220.6788197225046
 31
0.0
  0
LINE
  5
18F2
330
1F
100
AcDbEntity
  8
0
 62
     3
100
AcDbLine
 10
1469.474492273072
 20
220.6788197225046
 30
0.0
 11
1469.394940438525
 21
220.7013601134766
 31
0.0
  0
LINE
  5
18F3
330
1F
100
AcDbEntity
  8
0
 62
     3
100
AcDbLine
 10
1469.394940438525
 20
220.7013601134766
 30
0.0
 11
1469.378944819134
 21
220.7242664988063
 31
0.0
  0
LINE
  5
18F4
330
1F
100
AcDbEntity
  8
0
 62
     3
100
AcDbLine
 10
1469.378944819134
 20
220.7242664988063
 30
0.0
 11
1469.426846333756
 21
220.7470506686592
 31
0.0
  0
LINE
  5
18F5
330
1F
100
AcDbEntity
  8
0
 62
     3
100
AcDbLine
 10
1469.426846333756
 20
220.7470506686592
 30
0.0
 11
1469.537624044772
 21
220.7692270180118
 31
0.0
  0
LINE
  5
18F6
330
1F
100
AcDbEntity
  8
0
 62
     3
100
AcDbLine
 10
1469.537624044772
 20
220.7692270180118
 30
0.0
 11
1469.626943364245
 21
220.7812808609925
 31
0.0
  0
LINE
  5
18F7
330
1F
100
AcDbEntity
  8
0
 62
     3
100
AcDbLine
 10
1368.025155794692
 20
296.6232987036665
 30
0.0
 11
1368.006528264692
 21
296.7425664736664
 31
0.0
  0
LINE
  5
18F8
330
1F
100
AcDbEntity
  8
0
 62
     3
100
AcDbLine
 10
1368.006528264692
 20
296.7425664736664
 30
0.0
 11
1367.984157084692
 21
296.8567712536664
 31
0.0
  0
LINE
  5
18F9
330
1F
100
AcDbEntity
  8
0
 62
     3
100
AcDbLine
 10
1367.984157084692
 20
296.8567712536664
 30
0.0
 11
1367.958215154692
 21
296.9650303136664
 31
0.0
  0
LINE
  5
18FA
330
1F
100
AcDbEntity
  8
0
 62
     3
100
AcDbLine
 10
1367.958215154692
 20
296.9650303136664
 30
0.0
 11
1367.928903014692
 21
297.0665068636664
 31
0.0
  0
LINE
  5
18FB
330
1F
100
AcDbEntity
  8
0
 62
     3
100
AcDbLine
 10
1367.928903014692
 20
297.0665068636664
 30
0.0
 11
1367.896447204692
 21
297.1604165436664
 31
0.0
  0
LINE
  5
18FC
330
1F
100
AcDbEntity
  8
0
 62
     3
100
AcDbLine
 10
1367.896447204692
 20
297.1604165436664
 30
0.0
 11
1367.861098614692
 21
297.2460334836664
 31
0.0
  0
LINE
  5
18FD
330
1F
100
AcDbEntity
  8
0
 62
     3
100
AcDbLine
 10
1367.861098614692
 20
297.2460334836664
 30
0.0
 11
1367.823130464692
 21
297.3226958936664
 31
0.0
  0
LINE
  5
18FE
330
1F
100
AcDbEntity
  8
0
 62
     3
100
AcDbLine
 10
1367.823130464692
 20
297.3226958936664
 30
0.0
 11
1367.782836214692
 21
297.3898112336665
 31
0.0
  0
LINE
  5
18FF
330
1F
100
AcDbEntity
  8
0
 62
     3
100
AcDbLine
 10
1367.782836214692
 20
297.3898112336665
 30
0.0
 11
1367.740527344692
 21
297.4468607236664
 31
0.0
  0
LINE
  5
1900
330
1F
100
AcDbEntity
  8
0
 62
     3
100
AcDbLine
 10
1367.740527344692
 20
297.4468607236664
 30
0.0
 11
1367.696530854692
 21
297.4934033936664
 31
0.0
  0
LINE
  5
1901
330
1F
100
AcDbEntity
  8
0
 62
     3
100
AcDbLine
 10
1367.696530854692
 20
297.4934033936664
 30
0.0
 11
1367.651186834692
 21
297.5290795136664
 31
0.0
  0
LINE
  5
1902
330
1F
100
AcDbEntity
  8
0
 62
     3
100
AcDbLine
 10
1367.651186834692
 20
297.5290795136664
 30
0.0
 11
1367.604845764691
 21
297.5536133036665
 31
0.0
  0
LINE
  5
1903
330
1F
100
AcDbEntity
  8
0
 62
     3
100
AcDbLine
 10
1367.604845764691
 20
297.5536133036665
 30
0.0
 11
1367.557865824692
 21
297.5668151536664
 31
0.0
  0
LINE
  5
1904
330
1F
100
AcDbEntity
  8
0
 62
     3
100
AcDbLine
 10
1367.557865824692
 20
297.5668151536664
 30
0.0
 11
1367.510610164692
 21
297.5685829936665
 31
0.0
  0
LINE
  5
1905
330
1F
100
AcDbEntity
  8
0
 62
     3
100
AcDbLine
 10
1367.510610164692
 20
297.5685829936665
 30
0.0
 11
1367.463444034691
 21
297.5589031836664
 31
0.0
  0
LINE
  5
1906
330
1F
100
AcDbEntity
  8
0
 62
     3
100
AcDbLine
 10
1367.463444034691
 20
297.5589031836664
 30
0.0
 11
1367.416732004692
 21
297.5378505236664
 31
0.0
  0
LINE
  5
1907
330
1F
100
AcDbEntity
  8
0
 62
     3
100
AcDbLine
 10
1367.416732004692
 20
297.5378505236664
 30
0.0
 11
1367.370835144692
 21
297.5055877536664
 31
0.0
  0
LINE
  5
1908
330
1F
100
AcDbEntity
  8
0
 62
     3
100
AcDbLine
 10
1367.370835144692
 20
297.5055877536664
 30
0.0
 11
1367.326108204692
 21
297.4623642436664
 31
0.0
  0
LINE
  5
1909
330
1F
100
AcDbEntity
  8
0
 62
     3
100
AcDbLine
 10
1367.326108204692
 20
297.4623642436664
 30
0.0
 11
1367.282896894691
 21
297.4085140836664
 31
0.0
  0
LINE
  5
190A
330
1F
100
AcDbEntity
  8
0
 62
     3
100
AcDbLine
 10
1367.282896894691
 20
297.4085140836664
 30
0.0
 11
1367.241535234692
 21
297.3444535136664
 31
0.0
  0
LINE
  5
190B
330
1F
100
AcDbEntity
  8
0
 62
     3
100
AcDbLine
 10
1367.241535234692
 20
297.3444535136664
 30
0.0
 11
1367.202342914692
 21
297.2706776936665
 31
0.0
  0
LINE
  5
190C
330
1F
100
AcDbEntity
  8
0
 62
     3
100
AcDbLine
 10
1367.202342914692
 20
297.2706776936665
 30
0.0
 11
1367.165622874692
 21
297.1877568636664
 31
0.0
  0
LINE
  5
190D
330
1F
100
AcDbEntity
  8
0
 62
     3
100
AcDbLine
 10
1367.165622874692
 20
297.1877568636664
 30
0.0
 11
1367.131658944692
 21
297.0963319536664
 31
0.0
  0
LINE
  5
190E
330
1F
100
AcDbEntity
  8
0
 62
     3
100
AcDbLine
 10
1367.131658944692
 20
297.0963319536664
 30
0.0
 11
1367.100713644691
 21
296.9971096536664
 31
0.0
  0
LINE
  5
190F
330
1F
100
AcDbEntity
  8
0
 62
     3
100
AcDbLine
 10
1367.100713644691
 20
296.9971096536664
 30
0.0
 11
1367.073026164692
 21
296.8908568836664
 31
0.0
  0
LINE
  5
1910
330
1F
100
AcDbEntity
  8
0
 62
     3
100
AcDbLine
 10
1367.073026164692
 20
296.8908568836664
 30
0.0
 11
1367.048810514692
 21
296.7783949236665
 31
0.0
  0
LINE
  5
1911
330
1F
100
AcDbEntity
  8
0
 62
     3
100
AcDbLine
 10
1367.048810514692
 20
296.7783949236665
 30
0.0
 11
1367.028253874692
 21
296.6605930436664
 31
0.0
  0
LINE
  5
1912
330
1F
100
AcDbEntity
  8
0
 62
     3
100
AcDbLine
 10
1367.028253874692
 20
296.6605930436664
 30
0.0
 11
1367.011515134692
 21
296.5383618036664
 31
0.0
  0
LINE
  5
1913
330
1F
100
AcDbEntity
  8
0
 62
     3
100
AcDbLine
 10
1367.011515134692
 20
296.5383618036664
 30
0.0
 11
1366.998723674692
 21
296.4126459836665
 31
0.0
  0
LINE
  5
1914
330
1F
100
AcDbEntity
  8
0
 62
     3
100
AcDbLine
 10
1366.998723674692
 20
296.4126459836665
 30
0.0
 11
1366.989978364691
 21
296.2844173036664
 31
0.0
  0
LINE
  5
1915
330
1F
100
AcDbEntity
  8
0
 62
     3
100
AcDbLine
 10
1366.989978364691
 20
296.2844173036664
 30
0.0
 11
1366.985346804692
 21
296.1546668936664
 31
0.0
  0
LINE
  5
1916
330
1F
100
AcDbEntity
  8
0
 62
     3
100
AcDbLine
 10
1366.985346804692
 20
296.1546668936664
 30
0.0
 11
1366.984864794692
 21
296.0243976636665
 31
0.0
  0
LINE
  5
1917
330
1F
100
AcDbEntity
  8
0
 62
     3
100
AcDbLine
 10
1366.984864794692
 20
296.0243976636665
 30
0.0
 11
1366.988536054692
 21
295.8946165436664
 31
0.0
  0
LINE
  5
1918
330
1F
100
AcDbEntity
  8
0
 62
     3
100
AcDbLine
 10
1366.988536054692
 20
295.8946165436664
 30
0.0
 11
1366.996332214692
 21
295.7663266536664
 31
0.0
  0
LINE
  5
1919
330
1F
100
AcDbEntity
  8
0
 62
     3
100
AcDbLine
 10
1366.996332214692
 20
295.7663266536664
 30
0.0
 11
1367.008193014692
 21
295.6405196136665
 31
0.0
  0
LINE
  5
191A
330
1F
100
AcDbEntity
  8
0
 62
     3
100
AcDbLine
 10
1367.008193014692
 20
295.6405196136665
 30
0.0
 11
1367.024026774692
 21
295.5181678436665
 31
0.0
  0
LINE
  5
191B
330
1F
100
AcDbEntity
  8
0
 62
     3
100
AcDbLine
 10
1367.024026774692
 20
295.5181678436665
 30
0.0
 11
1367.043711094692
 21
295.4002170736664
 31
0.0
  0
LINE
  5
191C
330
1F
100
AcDbEntity
  8
0
 62
     3
100
AcDbLine
 10
1367.043711094692
 20
295.4002170736664
 30
0.0
 11
1367.067093854692
 21
295.2875790036665
 31
0.0
  0
LINE
  5
191D
330
1F
100
AcDbEntity
  8
0
 62
     3
100
AcDbLine
 10
1367.067093854692
 20
295.2875790036665
 30
0.0
 11
1367.093994284692
 21
295.1811242436664
 31
0.0
  0
LINE
  5
191E
330
1F
100
AcDbEntity
  8
0
 62
     3
100
AcDbLine
 10
1367.093994284692
 20
295.1811242436664
 30
0.0
 11
1367.124204484692
 21
295.0816756536665
 31
0.0
  0
LINE
  5
191F
330
1F
100
AcDbEntity
  8
0
 62
     3
100
AcDbLine
 10
1367.124204484692
 20
295.0816756536665
 30
0.0
 11
1367.157490934692
 21
294.9900019236665
 31
0.0
  0
LINE
  5
1920
330
1F
100
AcDbEntity
  8
0
 62
     3
100
AcDbLine
 10
1367.157490934692
 20
294.9900019236665
 30
0.0
 11
1367.193596334692
 21
294.9068116236664
 31
0.0
  0
LINE
  5
1921
330
1F
100
AcDbEntity
  8
0
 62
     3
100
AcDbLine
 10
1367.193596334692
 20
294.9068116236664
 30
0.0
 11
1367.232241634692
 21
294.8327477936664
 31
0.0
  0
LINE
  5
1922
330
1F
100
AcDbEntity
  8
0
 62
     3
100
AcDbLine
 10
1367.232241634692
 20
294.8327477936664
 30
0.0
 11
1367.273128114691
 21
294.7683829036664
 31
0.0
  0
LINE
  5
1923
330
1F
100
AcDbEntity
  8
0
 62
     3
100
AcDbLine
 10
1367.273128114691
 20
294.7683829036664
 30
0.0
 11
1367.315939734692
 21
294.7142144536664
 31
0.0
  0
LINE
  5
1924
330
1F
100
AcDbEntity
  8
0
 62
     3
100
AcDbLine
 10
1367.315939734692
 20
294.7142144536664
 30
0.0
 11
1367.360345594692
 21
294.6706611336665
 31
0.0
  0
LINE
  5
1925
330
1F
100
AcDbEntity
  8
0
 62
     3
100
AcDbLine
 10
1367.360345594692
 20
294.6706611336665
 30
0.0
 11
1367.406002444691
 21
294.6380596036664
 31
0.0
  0
LINE
  5
1926
330
1F
100
AcDbEntity
  8
0
 62
     3
100
AcDbLine
 10
1367.406002444691
 20
294.6380596036664
 30
0.0
 11
1367.452557404692
 21
294.6166618436664
 31
0.0
  0
LINE
  5
1927
330
1F
100
AcDbEntity
  8
0
 62
     3
100
AcDbLine
 10
1367.452557404692
 20
294.6166618436664
 30
0.0
 11
1367.499650614692
 21
294.6066332636665
 31
0.0
  0
LINE
  5
1928
330
1F
100
AcDbEntity
  8
0
 62
     3
100
AcDbLine
 10
1367.499650614692
 20
294.6066332636665
 30
0.0
 11
1367.546918064691
 21
294.6080513636665
 31
0.0
  0
LINE
  5
1929
330
1F
100
AcDbEntity
  8
0
 62
     3
100
AcDbLine
 10
1367.546918064691
 20
294.6080513636665
 30
0.0
 11
1367.593994404692
 21
294.6209051836664
 31
0.0
  0
LINE
  5
192A
330
1F
100
AcDbEntity
  8
0
 62
     3
100
AcDbLine
 10
1367.593994404692
 20
294.6209051836664
 30
0.0
 11
1367.640515764692
 21
294.6450953836664
 31
0.0
  0
LINE
  5
192B
330
1F
100
AcDbEntity
  8
0
 62
     3
100
AcDbLine
 10
1367.640515764692
 20
294.6450953836664
 30
0.0
 11
1367.686122554692
 21
294.6804349636665
 31
0.0
  0
LINE
  5
192C
330
1F
100
AcDbEntity
  8
0
 62
     3
100
AcDbLine
 10
1367.686122554692
 20
294.6804349636665
 30
0.0
 11
1367.730462254691
 21
294.7266507836664
 31
0.0
  0
LINE
  5
192D
330
1F
100
AcDbEntity
  8
0
 62
     3
100
AcDbLine
 10
1367.730462254691
 20
294.7266507836664
 30
0.0
 11
1367.773192144692
 21
294.7833856236664
 31
0.0
  0
LINE
  5
192E
330
1F
100
AcDbEntity
  8
0
 62
     3
100
AcDbLine
 10
1367.773192144692
 20
294.7833856236664
 30
0.0
 11
1367.813981944691
 21
294.8502009336664
 31
0.0
  0
LINE
  5
192F
330
1F
100
AcDbEntity
  8
0
 62
     3
100
AcDbLine
 10
1367.813981944691
 20
294.8502009336664
 30
0.0
 11
1367.852516374691
 21
294.9265802836665
 31
0.0
  0
LINE
  5
1930
330
1F
100
AcDbEntity
  8
0
 62
     3
100
AcDbLine
 10
1367.852516374691
 20
294.9265802836665
 30
0.0
 11
1367.888497574692
 21
295.0119332936664
 31
0.0
  0
LINE
  5
1931
330
1F
100
AcDbEntity
  8
0
 62
     3
100
AcDbLine
 10
1367.888497574692
 20
295.0119332936664
 30
0.0
 11
1367.921647434692
 21
295.1056002236665
 31
0.0
  0
LINE
  5
1932
330
1F
100
AcDbEntity
  8
0
 62
     3
100
AcDbLine
 10
1367.921647434692
 20
295.1056002236665
 30
0.0
 11
1367.951709714692
 21
295.2068570836665
 31
0.0
  0
LINE
  5
1933
330
1F
100
AcDbEntity
  8
0
 62
     3
100
AcDbLine
 10
1367.951709714692
 20
295.2068570836665
 30
0.0
 11
1367.978452064692
 21
295.3149212036665
 31
0.0
  0
LINE
  5
1934
330
1F
100
AcDbEntity
  8
0
 62
     3
100
AcDbLine
 10
1367.978452064692
 20
295.3149212036665
 30
0.0
 11
1368.001667764692
 21
295.4289573136664
 31
0.0
  0
LINE
  5
1935
330
1F
100
AcDbEntity
  8
0
 62
     3
100
AcDbLine
 10
1368.001667764692
 20
295.4289573136664
 30
0.0
 11
1368.021177374692
 21
295.5480839636664
 31
0.0
  0
LINE
  5
1936
330
1F
100
AcDbEntity
  8
0
100
AcDbLine
 10
1406.526159070182
 20
155.1698192447012
 30
0.0
 11
1407.451825264123
 21
149.8956222652091
 31
0.0
1001
ACAD
1000
DSTYLE
1002
{
1070
   147
1040
0.625
1070
    77
1070
     0
1002
}
  0
LINE
  5
1937
330
1F
100
AcDbEntity
  8
0
100
AcDbLine
 10
1407.451825264123
 20
149.8956222652091
 30
0.0
 11
1409.951825264124
 21
149.8956222652091
 31
0.0
1001
ACAD
1000
DSTYLE
1002
{
1070
   147
1040
0.625
1070
    77
1070
     0
1002
}
  0
LINE
  5
1938
330
1F
100
AcDbEntity
  8
0
  6
ByBlock
 62
     0
370
    -2
100
AcDbLine
 10
1405.866371292684
 20
155.0540209074035
 30
0.0
 11
1406.09399348159
 21
157.6321825209131
 31
0.0
  0
LINE
  5
1939
330
1F
100
AcDbEntity
  8
0
  6
ByBlock
 62
     0
370
    -2
100
AcDbLine
 10
1406.09399348159
 20
157.6321825209131
 30
0.0
 11
1407.18594684768
 21
155.2856175819988
 31
0.0
  0
LINE
  5
193A
330
1F
100
AcDbEntity
  8
0
  6
ByBlock
 62
     0
370
    -2
100
AcDbLine
 10
1406.09399348159
 20
157.6321825209131
 30
0.0
 11
1406.526159070182
 21
155.1698192447012
 31
0.0
  0
TEXT
  5
193B
330
1F
100
AcDbEntity
  8
0
 62
     4
100
AcDbText
 10
1378.174968231282
 20
193.8321825209131
 30
0.0
 40
3.0
  1
3～16
 50
90.0
100
AcDbText
  0
LINE
  5
193C
330
1F
100
AcDbEntity
  8
0
  6
ByBlock
 62
     0
370
    -2
100
AcDbLine
 10
1378.130095731282
 20
204.6321825209131
 30
0.0
 11
1378.799968231282
 21
207.1321825209131
 31
0.0
  0
LINE
  5
193D
330
1F
100
AcDbEntity
  8
0
  6
ByBlock
 62
     0
370
    -2
100
AcDbLine
 10
1378.799968231282
 20
207.1321825209131
 30
0.0
 11
1379.469840731282
 21
204.6321825209131
 31
0.0
  0
LINE
  5
193E
330
1F
100
AcDbEntity
  8
0
  6
ByBlock
 62
     0
370
    -2
100
AcDbLine
 10
1378.799968231282
 20
207.1321825209131
 30
0.0
 11
1378.799968231282
 21
204.6321825209131
 31
0.0
  0
LINE
  5
193F
330
1F
100
AcDbEntity
  8
0
  6
ByBlock
 62
     0
370
    -2
100
AcDbLine
 10
1379.469840731282
 20
193.6321825209131
 30
0.0
 11
1378.799968231282
 21
191.1321825209131
 31
0.0
  0
LINE
  5
1940
330
1F
100
AcDbEntity
  8
0
  6
ByBlock
 62
     0
370
    -2
100
AcDbLine
 10
1378.799968231282
 20
191.1321825209131
 30
0.0
 11
1378.130095731282
 21
193.6321825209131
 31
0.0
  0
LINE
  5
1941
330
1F
100
AcDbEntity
  8
0
  6
ByBlock
 62
     0
370
    -2
100
AcDbLine
 10
1378.799968231282
 20
191.1321825209131
 30
0.0
 11
1378.799968231282
 21
193.6321825209131
 31
0.0
  0
TEXT
  5
1942
330
1F
100
AcDbEntity
  8
0
 62
     4
100
AcDbText
 10
1444.593904289169
 20
160.0071825209133
 30
0.0
 40
3.0
  1
6.5
 50
90.0
100
AcDbText
  0
LINE
  5
1943
330
1F
100
AcDbEntity
  8
0
  6
ByBlock
 62
     0
370
    -2
100
AcDbLine
 10
1444.549031789169
 20
169.1321825209131
 30
0.0
 11
1445.218904289169
 21
171.6321825209131
 31
0.0
  0
LINE
  5
1944
330
1F
100
AcDbEntity
  8
0
  6
ByBlock
 62
     0
370
    -2
100
AcDbLine
 10
1445.218904289169
 20
171.6321825209131
 30
0.0
 11
1445.888776789169
 21
169.1321825209131
 31
0.0
  0
LINE
  5
1945
330
1F
100
AcDbEntity
  8
0
  6
ByBlock
 62
     0
370
    -2
100
AcDbLine
 10
1445.218904289169
 20
171.6321825209131
 30
0.0
 11
1445.218904289169
 21
169.1321825209131
 31
0.0
  0
LINE
  5
1946
330
1F
100
AcDbEntity
  8
0
  6
ByBlock
 62
     0
370
    -2
100
AcDbLine
 10
1445.888776789169
 20
180.6321825209131
 30
0.0
 11
1445.218904289169
 21
178.1321825209131
 31
0.0
  0
LINE
  5
1947
330
1F
100
AcDbEntity
  8
0
  6
ByBlock
 62
     0
370
    -2
100
AcDbLine
 10
1445.218904289169
 20
178.1321825209131
 30
0.0
 11
1444.549031789169
 21
180.6321825209131
 31
0.0
  0
LINE
  5
1948
330
1F
100
AcDbEntity
  8
0
  6
ByBlock
 62
     0
370
    -2
100
AcDbLine
 10
1445.218904289169
 20
178.1321825209131
 30
0.0
 11
1445.218904289169
 21
180.6321825209131
 31
0.0
  0
TEXT
  5
1949
330
1F
100
AcDbEntity
  8
0
 62
     4
100
AcDbText
 10
1350.903183875397
 20
142.3828212001796
 30
0.0
 40
3.0
  1
33.7
100
AcDbText
  0
LINE
  5
194A
330
1F
100
AcDbEntity
  8
0
  6
ByBlock
 62
     0
370
    -2
100
AcDbLine
 10
1367.593200084488
 20
142.4276937001796
 30
0.0
 11
1370.093200084488
 21
141.7578212001796
 31
0.0
  0
LINE
  5
194B
330
1F
100
AcDbEntity
  8
0
  6
ByBlock
 62
     0
370
    -2
100
AcDbLine
 10
1370.093200084488
 20
141.7578212001796
 30
0.0
 11
1367.593200084488
 21
141.0879487001796
 31
0.0
  0
LINE
  5
194C
330
1F
100
AcDbEntity
  8
0
  6
ByBlock
 62
     0
370
    -2
100
AcDbLine
 10
1370.093200084488
 20
141.7578212001796
 30
0.0
 11
1367.593200084488
 21
141.7578212001796
 31
0.0
  0
LINE
  5
194D
330
1F
100
AcDbEntity
  8
0
  6
ByBlock
 62
     0
370
    -2
100
AcDbLine
 10
1338.893200084487
 20
141.0879487001796
 30
0.0
 11
1336.393200084488
 21
141.7578212001796
 31
0.0
  0
LINE
  5
194E
330
1F
100
AcDbEntity
  8
0
  6
ByBlock
 62
     0
370
    -2
100
AcDbLine
 10
1336.393200084488
 20
141.7578212001796
 30
0.0
 11
1338.893200084487
 21
142.4276937001796
 31
0.0
  0
LINE
  5
194F
330
1F
100
AcDbEntity
  8
0
  6
ByBlock
 62
     0
370
    -2
100
AcDbLine
 10
1336.393200084488
 20
141.7578212001796
 30
0.0
 11
1338.893200084487
 21
141.7578212001796
 31
0.0
  0
LINE
  5
1950
330
1F
100
AcDbEntity
  8
0
100
AcDbLine
 10
1409.657514059588
 20
228.7374577032064
 30
0.0
 11
1413.61845403334
 21
236.500384842644
 31
0.0
1001
ACAD
1000
DSTYLE
1002
{
1070
   147
1040
0.625
1070
    77
1070
     0
1002
}
  0
LINE
  5
1951
330
1F
100
AcDbEntity
  8
0
100
AcDbLine
 10
1413.61845403334
 20
236.500384842644
 30
0.0
 11
1416.11845403334
 21
236.500384842644
 31
0.0
1001
ACAD
1000
DSTYLE
1002
{
1070
   147
1040
0.625
1070
    77
1070
     0
1002
}
  0
LINE
  5
1952
330
1F
100
AcDbEntity
  8
0
  6
ByBlock
 62
     0
370
    -2
100
AcDbLine
 10
1410.254202760624
 20
228.4330044878965
 30
0.0
 11
1408.521278375522
 21
226.5105835553808
 31
0.0
  0
LINE
  5
1953
330
1F
100
AcDbEntity
  8
0
  6
ByBlock
 62
     0
370
    -2
100
AcDbLine
 10
1408.521278375522
 20
226.5105835553808
 30
0.0
 11
1409.060825358552
 21
229.0419109185164
 31
0.0
  0
LINE
  5
1954
330
1F
100
AcDbEntity
  8
0
  6
ByBlock
 62
     0
370
    -2
100
AcDbLine
 10
1408.521278375522
 20
226.5105835553808
 30
0.0
 11
1409.657514059588
 21
228.7374577032064
 31
0.0
  0
TEXT
  5
1955
330
1F
100
AcDbEntity
  8
0
 62
     4
100
AcDbText
 10
1444.593904289169
 20
195.2275923529487
 30
0.0
 40
3.0
  1
42
 50
90.0
100
AcDbText
  0
LINE
  5
1956
330
1F
100
AcDbEntity
  8
0
  6
ByBlock
 62
     0
370
    -2
100
AcDbLine
 10
1444.549031789169
 20
217.6321825209131
 30
0.0
 11
1445.218904289169
 21
220.1321825209131
 31
0.0
  0
LINE
  5
1957
330
1F
100
AcDbEntity
  8
0
  6
ByBlock
 62
     0
370
    -2
100
AcDbLine
 10
1445.218904289169
 20
220.1321825209131
 30
0.0
 11
1445.888776789169
 21
217.6321825209131
 31
0.0
  0
LINE
  5
1958
330
1F
100
AcDbEntity
  8
0
  6
ByBlock
 62
     0
370
    -2
100
AcDbLine
 10
1445.218904289169
 20
220.1321825209131
 30
0.0
 11
1445.218904289169
 21
217.6321825209131
 31
0.0
  0
LINE
  5
1959
330
1F
100
AcDbEntity
  8
0
  6
ByBlock
 62
     0
370
    -2
100
AcDbLine
 10
1445.888776789169
 20
180.6321825209131
 30
0.0
 11
1445.218904289169
 21
178.1321825209131
 31
0.0
  0
LINE
  5
195A
330
1F
100
AcDbEntity
  8
0
  6
ByBlock
 62
     0
370
    -2
100
AcDbLine
 10
1445.218904289169
 20
178.1321825209131
 30
0.0
 11
1444.549031789169
 21
180.6321825209131
 31
0.0
  0
LINE
  5
195B
330
1F
100
AcDbEntity
  8
0
  6
ByBlock
 62
     0
370
    -2
100
AcDbLine
 10
1445.218904289169
 20
178.1321825209131
 30
0.0
 11
1445.218904289169
 21
180.6321825209131
 31
0.0
  0
TEXT
  5
195C
330
1F
100
AcDbEntity
  8
0
 62
     4
100
AcDbText
 10
1408.693216663247
 20
143.1825946668609
 30
0.0
 40
3.0
  1
47
100
AcDbText
  0
LINE
  5
195D
330
1F
100
AcDbEntity
  8
0
  6
ByBlock
 62
     0
370
    -2
100
AcDbLine
 10
1434.09399348159
 20
143.2274671668609
 30
0.0
 11
1436.59399348159
 21
142.5575946668609
 31
0.0
  0
LINE
  5
195E
330
1F
100
AcDbEntity
  8
0
  6
ByBlock
 62
     0
370
    -2
100
AcDbLine
 10
1436.59399348159
 20
142.5575946668609
 30
0.0
 11
1434.09399348159
 21
141.8877221668609
 31
0.0
  0
LINE
  5
195F
330
1F
100
AcDbEntity
  8
0
  6
ByBlock
 62
     0
370
    -2
100
AcDbLine
 10
1436.59399348159
 20
142.5575946668609
 30
0.0
 11
1434.09399348159
 21
142.5575946668609
 31
0.0
  0
LINE
  5
1960
330
1F
100
AcDbEntity
  8
0
  6
ByBlock
 62
     0
370
    -2
100
AcDbLine
 10
1392.09399348159
 20
141.8877221668609
 30
0.0
 11
1389.59399348159
 21
142.5575946668609
 31
0.0
  0
LINE
  5
1961
330
1F
100
AcDbEntity
  8
0
  6
ByBlock
 62
     0
370
    -2
100
AcDbLine
 10
1389.59399348159
 20
142.5575946668609
 30
0.0
 11
1392.09399348159
 21
143.2274671668609
 31
0.0
  0
LINE
  5
1962
330
1F
100
AcDbEntity
  8
0
  6
ByBlock
 62
     0
370
    -2
100
AcDbLine
 10
1389.59399348159
 20
142.5575946668609
 30
0.0
 11
1392.09399348159
 21
142.5575946668609
 31
0.0
  0
ENDSEC
  0
SECTION
  2
OBJECTS
  0
DICTIONARY
  5
C
330
0
100
AcDbDictionary
281
     1
  3
ACAD_2007HEADERVARS_RT
350
1968
  3
ACAD_COLOR
350
73
  3
ACAD_GROUP
350
D
  3
ACAD_LAYOUT
350
1A
  3
ACAD_MATERIAL
350
72
  3
ACAD_MLEADERSTYLE
350
168
  3
ACAD_MLINESTYLE
350
17
  3
ACAD_PLOTSETTINGS
350
19
  3
ACAD_PLOTSTYLENAME
350
E
  3
ACAD_SCALELIST
350
156
  3
ACAD_TABLESTYLE
350
86
  3
ACAD_VISUALSTYLE
350
99
  3
ACDB_RECOMPOSE_DATA
350
1966
  3
AcDbVariableDictionary
350
66
  3
DWGPROPS
350
1967
  0
DICTIONARY
  5
DD
330
2
100
AcDbDictionary
280
     1
281
     1
  3
ACAD_LAYERSTATES
360
DE
  0
DICTIONARY
  5
17A9
330
10
100
AcDbDictionary
280
     1
281
     1
  3
ADSK_XREC_LAYER_RECONCILED
360
17AA
  0
DICTIONARY
  5
31A
330
1F
100
AcDbDictionary
280
     1
281
     1
  3
ACAD_SORTENTS
360
31B
  0
DICTIONARY
  5
CFF
330
C34
100
AcDbDictionary
280
     1
281
     1
  3
ACAD_SORTENTS
360
D00
  0
DICTIONARY
  5
1968
102
{ACAD_REACTORS
330
C
102
}
330
C
100
AcDbDictionary
281
     1
  3
DIMARCSYM
350
196A
  3
DIMFXL
350
1969
  3
DIMJOGANG
350
196B
  0
DICTIONARY
  5
73
102
{ACAD_REACTORS
330
C
102
}
330
C
100
AcDbDictionary
281
     1
  0
DICTIONARY
  5
D
102
{ACAD_REACTORS
330
C
102
}
330
C
100
AcDbDictionary
281
     1
  0
DICTIONARY
  5
1A
102
{ACAD_REACTORS
330
C
102
}
330
C
100
AcDbDictionary
281
     1
  3
Model
350
22
  3
レイアウト1
350
59
  3
レイアウト2
350
5E
  0
DICTIONARY
  5
72
102
{ACAD_REACTORS
330
C
102
}
330
C
100
AcDbDictionary
281
     1
  3
ByBlock
350
97
  3
ByLayer
350
96
  3
Global
350
98
  0
DICTIONARY
  5
168
102
{ACAD_REACTORS
330
C
102
}
330
C
100
AcDbDictionary
281
     1
  3
Standard
350
169
  0
DICTIONARY
  5
17
102
{ACAD_REACTORS
330
C
102
}
330
C
100
AcDbDictionary
281
     1
  3
Standard
350
18
  0
DICTIONARY
  5
19
102
{ACAD_REACTORS
330
C
102
}
330
C
100
AcDbDictionary
281
     1
  0
ACDBDICTIONARYWDFLT
  5
E
102
{ACAD_REACTORS
330
C
102
}
330
C
100
AcDbDictionary
281
     1
  3
Normal
350
F
100
AcDbDictionaryWithDefault
340
F
  0
DICTIONARY
  5
156
102
{ACAD_REACTORS
330
C
102
}
330
C
100
AcDbDictionary
281
     1
  3
A0
350
157
  3
A1
350
158
  3
A2
350
159
  3
A3
350
15A
  3
A4
350
15B
  3
A5
350
15C
  3
A6
350
15D
  3
A7
350
15E
  3
A8
350
15F
  3
A9
350
160
  3
B0
350
161
  3
B1
350
162
  3
B2
350
163
  3
B3
350
164
  3
B4
350
165
  3
B5
350
166
  3
B6
350
167
  0
DICTIONARY
  5
86
102
{ACAD_REACTORS
330
C
102
}
330
C
100
AcDbDictionary
281
     1
  3
Standard
350
87
  3
部品表
350
D97
  0
DICTIONARY
  5
99
102
{ACAD_REACTORS
330
C
102
}
330
C
100
AcDbDictionary
281
     1
  3
2dWireframe
350
9F
  3
3D Hidden
350
A1
  3
3dWireframe
350
A0
  3
Basic
350
9E
  3
Brighten
350
A5
  3
ColorChange
350
A9
  3
Conceptual
350
A2
  3
Dim
350
A4
  3
EdgeColorOff
350
155
  3
Facepattern
350
A8
  3
Flat
350
9A
  3
FlatWithEdges
350
9B
  3
Gouraud
350
9C
  3
GouraudWithEdges
350
9D
  3
Hidden
350
14D
  3
JitterOff
350
153
  3
Linepattern
350
A7
  3
OverhangOff
350
154
  3
Realistic
350
A3
  3
Shaded
350
152
  3
Shaded with edges
350
151
  3
Shades of Gray
350
14E
  3
Sketchy
350
14F
  3
Thicken
350
A6
  3
Wireframe
350
14C
  3
X-Ray
350
150
  0
XRECORD
  5
1966
102
{ACAD_REACTORS
330
C
102
}
330
C
100
AcDbXrecord
280
     1
 90
        1
330
87
330
D97
  0
DICTIONARY
  5
66
102
{ACAD_REACTORS
330
C
102
}
330
C
100
AcDbDictionary
281
     1
  3
CANNOSCALE
350
245
  3
CMLEADERSTYLE
350
243
  3
CTABLESTYLE
350
89
  3
DIMASSOC
350
67
  3
HIDETEXT
350
6B
  3
INDEXCTL
350
17AC
  3
LAYEREVAL
350
247
  3
LAYERNOTIFY
350
248
  3
LIGHTINGUNITS
350
246
  3
MSLTSCALE
350
244
  3
SORTENTS
350
17AB
  3
XCLIPFRAME
350
17AD
  0
XRECORD
  5
1967
102
{ACAD_REACTORS
330
C
102
}
330
C
100
AcDbXrecord
280
     1
  1
DWGPROPS COOKIE
  2

  3

  4

  6

  7

  8
imamura
  9

300
=
301
=
302
=
303
=
304
=
305
=
306
=
307
=
308
=
309
=
 40
0.0493945023148148
 41
2457009.42881765
 42
2457009.47821125
  1

 90
        0
  0
DICTIONARY
  5
DE
102
{ACAD_REACTORS
330
DD
102
}
330
DD
100
AcDbDictionary
281
     1
  0
XRECORD
  5
17AA
102
{ACAD_REACTORS
330
17A9
102
}
330
17A9
100
AcDbXrecord
280
     1
290
     1
  0
SORTENTSTABLE
  5
31B
102
{ACAD_REACTORS
330
31A
102
}
330
31A
100
AcDbSortentsTable
330
1F
331
1547
  5
16FF
331
14CD
  5
15D7
331
1543
  5
16FB
331
14C9
  5
15D3
331
1504
  5
160E
331
157E
  5
1752
331
14C5
  5
15CF
331
15BC
  5
1792
331
153F
  5
16F7
331
1500
  5
160A
331
157A
  5
174E
331
14C1
  5
15CB
331
15F7
  5
18AC
331
153B
  5
16F3
331
15B8
  5
178C
331
15F3
  5
18A8
331
188F
  5
18CB
331
15B4
  5
1788
331
188B
  5
18FC
331
15B0
  5
1784
331
1905
  5
1504
331
1887
  5
18F8
331
18C6
  5
17A3
331
1901
  5
1500
331
193C
  5
1952
331
1883
  5
18F4
331
18C2
  5
1876
331
18FD
  5
14FC
331
1938
  5
1956
331
18F9
  5
14F8
331
179C
  5
159B
331
1798
  5
1597
331
1794
  5
1593
331
1790
  5
158F
331
1724
  5
14E3
331
175F
  5
155D
331
16E5
  5
14A4
331
1720
  5
14DF
331
175B
  5
155A
331
16E1
  5
14A0
331
171C
  5
14DB
331
1718
  5
14D7
331
14FC
  5
1606
331
1576
  5
174A
331
14BD
  5
15C7
331
1537
  5
16EF
331
14F8
  5
1602
331
1572
  5
1746
331
14B9
  5
15C3
331
15EF
  5
18A4
331
1533
  5
16EB
331
14F4
  5
15FE
331
15EB
  5
18A0
331
152F
  5
16E7
331
14B5
  5
15BF
331
15AC
  5
1780
331
14F0
  5
15FA
331
156A
  5
1722
331
14B1
  5
15BB
331
15E7
  5
189C
331
152B
  5
16E1
331
15A8
  5
177C
331
15E3
  5
1898
331
187F
  5
18F0
331
18BE
  5
1872
331
15A4
  5
1778
331
161A
  5
1902
331
15A0
  5
1774
331
187B
  5
18EC
331
18BA
  5
186E
331
18F5
  5
1731
331
1934
  5
1534
331
18B6
  5
186A
331
18F1
  5
172D
331
1930
  5
1530
331
1873
  5
1906
331
18B2
  5
1866
331
18ED
  5
1729
331
192C
  5
152C
331
18E9
  5
1725
331
1928
  5
1528
331
178C
  5
158B
331
1788
  5
1587
331
1784
  5
1583
331
1757
  5
1556
331
16DD
  5
149C
331
1780
  5
157F
331
1753
  5
1552
331
16D9
  5
1498
331
1714
  5
14D3
331
174F
  5
154E
331
1710
  5
14CF
331
174B
  5
154A
331
170C
  5
14CB
331
1708
  5
14C7
331
14EC
  5
15F6
331
1566
  5
171E
331
14AD
  5
15B7
331
1527
  5
16DD
331
14E8
  5
15F2
331
1562
  5
171A
331
14A9
  5
15B3
331
15DF
  5
1894
331
1523
  5
16D9
331
14E4
  5
15EE
331
155E
  5
1716
331
14A5
  5
15AF
331
15DB
  5
1890
331
151F
  5
16D3
331
195F
  5
1913
331
159C
  5
1770
331
14E0
  5
15EA
331
155A
  5
1712
331
14A1
  5
15AB
331
15D7
  5
188C
331
151B
  5
165F
331
1651
  5
1928
331
195B
  5
191F
331
1612
  5
18C7
331
1598
  5
176C
331
15D3
  5
1888
331
164D
  5
1927
331
1594
  5
1768
331
1957
  5
1921
331
160E
  5
18C3
331
18AE
  5
1862
331
1953
  5
1931
331
18AA
  5
18E6
331
160A
  5
18BF
331
1590
  5
1764
331
18E5
  5
173F
331
1924
  5
1524
331
18A6
  5
18E2
331
18E1
  5
173B
331
1920
  5
1520
331
1863
  5
1936
331
18A2
  5
18DE
331
18DD
  5
1735
331
191C
  5
151C
331
18D9
  5
185F
331
1918
  5
1517
331
177C
  5
157B
331
1778
  5
1577
331
1774
  5
1573
331
1747
  5
1546
331
1770
  5
156F
331
1743
  5
1542
331
1704
  5
14C3
331
173F
  5
153E
331
1700
  5
14BF
331
173B
  5
153A
331
16FC
  5
14BB
331
16F8
  5
14B7
331
14DC
  5
15E6
331
1556
  5
170E
331
149D
  5
15A7
331
1517
  5
1650
331
14D8
  5
15E2
331
1552
  5
170A
331
1499
  5
15A3
331
15CF
  5
1884
331
1513
  5
161D
331
154E
  5
1706
331
14D4
  5
15DE
331
15CB
  5
1880
331
150F
  5
1619
331
194F
  5
193B
331
1606
  5
18BB
331
158C
  5
1760
331
154A
  5
1702
331
14D0
  5
15DA
331
15C7
  5
187C
331
150B
  5
1615
331
194B
  5
193D
331
1602
  5
18B7
331
1588
  5
175C
331
15C3
  5
1878
331
1947
  5
1946
331
185F
  5
1944
331
189E
  5
18DA
331
15FE
  5
18B3
331
1584
  5
1758
331
1943
  5
1948
331
185B
  5
1940
331
189A
  5
18D6
331
15FA
  5
18AF
331
1580
  5
1754
331
18D5
  5
185B
331
1914
  5
1513
331
1857
  5
194E
331
1896
  5
18D2
331
18D1
  5
1857
331
1910
  5
150F
331
1892
  5
18CE
331
18CD
  5
1853
331
190C
  5
150B
331
18C9
  5
17A6
331
1908
  5
1507
331
176C
  5
156B
331
17A7
  5
1961
331
1768
  5
1567
331
17A3
  5
195E
331
1764
  5
1562
331
1737
  5
1536
331
1760
  5
155E
331
1733
  5
14F2
331
16F4
  5
14B3
331
172F
  5
14EE
331
16F0
  5
14AF
331
172B
  5
14EA
331
16EC
  5
14AB
331
16E8
  5
14A7
331
1546
  5
16FE
331
14CC
  5
15D6
331
1507
  5
1611
331
15BF
  5
1797
331
1542
  5
16FA
331
14C8
  5
15D2
331
1503
  5
160D
331
157D
  5
1751
331
14C4
  5
15CE
331
15BB
  5
1791
331
153E
  5
16F6
331
1579
  5
174D
331
14C0
  5
15CA
331
15F6
  5
18AB
331
153A
  5
16F2
331
15B7
  5
178B
331
15F2
  5
18A7
331
188E
  5
18FF
331
15B3
  5
1787
331
188A
  5
18FB
331
1904
  5
1503
331
193F
  5
194F
331
1886
  5
18F7
331
18C5
  5
17A2
331
1900
  5
14FF
331
193B
  5
1955
331
1882
  5
18F3
331
18C1
  5
1875
331
18FC
  5
14FB
331
179F
  5
159E
331
18F8
  5
14F7
331
179B
  5
159A
331
1797
  5
1596
331
1793
  5
1592
331
1727
  5
14E6
331
1723
  5
14E2
331
175E
  5
155C
331
16E4
  5
14A3
331
171F
  5
14DE
331
175A
  5
1559
331
16E0
  5
149F
331
171B
  5
14DA
331
14FF
  5
1609
331
14FB
  5
1605
331
1575
  5
1749
331
14BC
  5
15C6
331
1536
  5
16EE
331
14F7
  5
1601
331
1571
  5
1745
331
14B8
  5
15C2
331
15EE
  5
18A3
331
1532
  5
16EA
331
15AF
  5
1783
331
14F3
  5
15FD
331
15EA
  5
189F
331
152E
  5
16E6
331
14B4
  5
15BE
331
15AB
  5
177F
331
1569
  5
1721
331
14B0
  5
15BA
331
15E6
  5
189B
331
152A
  5
16E0
331
15A7
  5
177B
331
15E2
  5
1897
331
1937
  5
195A
331
187E
  5
18EF
331
18BD
  5
1871
331
15A3
  5
1777
331
1962
  5
190D
331
1619
  5
1901
331
187A
  5
18EB
331
18B9
  5
186D
331
18F4
  5
1730
331
1933
  5
1533
331
18B5
  5
1869
331
18F0
  5
172C
331
192F
  5
152F
331
1872
  5
1905
331
18B1
  5
1865
331
18EC
  5
1728
331
192B
  5
152B
331
18E8
  5
1742
331
178F
  5
158E
331
178B
  5
158A
331
1787
  5
1586
331
1783
  5
1582
331
1756
  5
1555
331
16DC
  5
149B
331
1717
  5
14D6
331
1752
  5
1551
331
16D8
  5
1497
331
1713
  5
14D2
331
174E
  5
154D
331
170F
  5
14CE
331
174A
  5
1549
331
170B
  5
14CA
331
14EF
  5
15F9
331
14EB
  5
15F5
331
1565
  5
171D
331
14AC
  5
15B6
331
1526
  5
16DC
331
14E7
  5
15F1
331
1561
  5
1719
331
14A8
  5
15B2
331
15DE
  5
1893
331
1522
  5
16D8
331
159F
  5
1773
331
14E3
  5
15ED
331
155D
  5
1715
331
14A4
  5
15AE
331
15DA
  5
188F
331
151E
  5
16D2
331
195E
  5
1912
331
1615
  5
18CA
331
159B
  5
176F
331
1559
  5
1711
331
14A0
  5
15AA
331
15D6
  5
188B
331
151A
  5
1653
331
1650
  5
192F
331
195A
  5
191E
331
1611
  5
18C6
331
1597
  5
176B
331
15D2
  5
1887
331
1956
  5
1920
331
160D
  5
18C2
331
1593
  5
1767
331
186E
  5
1919
331
18AD
  5
1861
331
1927
  5
1527
331
1952
  5
1930
331
18A9
  5
18E5
331
1609
  5
18BE
331
18E4
  5
173E
331
1923
  5
1523
331
18A5
  5
18E1
331
18E0
  5
173A
331
191F
  5
151F
331
18A1
  5
18DD
331
18DC
  5
1734
331
191B
  5
151A
331
18D8
  5
185E
331
177F
  5
157E
331
177B
  5
157A
331
1777
  5
1576
331
1773
  5
1572
331
1746
  5
1545
331
1707
  5
14C6
331
1742
  5
1541
331
1703
  5
14C2
331
173E
  5
153D
331
16FF
  5
14BE
331
173A
  5
1539
331
16FB
  5
14BA
331
14DF
  5
15E9
331
14DB
  5
15E5
331
1555
  5
170D
331
149C
  5
15A6
331
1516
  5
164E
331
14D7
  5
15E1
331
1551
  5
1709
331
1498
  5
15A2
331
15CE
  5
1883
331
1512
  5
161C
331
158F
  5
1763
331
154D
  5
1705
331
14D3
  5
15DD
331
15CA
  5
187F
331
150E
  5
1618
331
194E
  5
193A
331
1605
  5
18BA
331
158B
  5
175F
331
1549
  5
1701
331
15C6
  5
187B
331
150A
  5
1614
331
194A
  5
193C
331
1601
  5
18B6
331
1587
  5
175B
331
1946
  5
1945
331
185E
  5
1943
331
189D
  5
18D9
331
15FD
  5
18B2
331
1583
  5
1757
331
1917
  5
1516
331
1942
  5
194B
331
1899
  5
18D5
331
15F9
  5
18AE
331
18D4
  5
185A
331
1913
  5
1512
331
1856
  5
194D
331
1895
  5
18D1
331
18D0
  5
1856
331
190F
  5
150E
331
1852
  5
195B
331
1891
  5
18CD
331
18CC
  5
1852
331
190B
  5
150A
331
18C8
  5
17A5
331
176F
  5
156E
331
176B
  5
156A
331
17A6
  5
1960
331
1767
  5
1566
331
17A2
  5
195D
331
1763
  5
1561
331
16F7
  5
14B6
331
1732
  5
14F1
331
16F3
  5
14B2
331
172E
  5
14ED
331
16EF
  5
14AE
331
172A
  5
14E9
331
16EB
  5
14AA
331
14CF
  5
15D9
331
1545
  5
16FD
331
14CB
  5
15D5
331
1506
  5
1610
331
15BE
  5
1796
331
1541
  5
16F9
331
14C7
  5
15D1
331
1502
  5
160C
331
157C
  5
1750
331
14C3
  5
15CD
331
15BA
  5
1790
331
153D
  5
16F5
331
1578
  5
174C
331
15F5
  5
18AA
331
1539
  5
16F1
331
15B6
  5
178A
331
15F1
  5
18A6
331
188D
  5
18FE
331
15B2
  5
1786
331
1907
  5
1506
331
1889
  5
18FA
331
1903
  5
1502
331
193E
  5
1954
331
1885
  5
18F6
331
18C4
  5
1799
331
18FF
  5
14FE
331
193A
  5
1958
331
1881
  5
18F2
331
18C0
  5
1874
331
18FB
  5
14FA
331
179E
  5
159D
331
179A
  5
1599
331
1796
  5
1595
331
1792
  5
1591
331
1726
  5
14E5
331
1722
  5
14E1
331
16E7
  5
14A6
331
175D
  5
155B
331
16E3
  5
14A2
331
171E
  5
14DD
331
1759
  5
1558
331
171A
  5
14D9
331
14FE
  5
1608
331
14BF
  5
15C9
331
14FA
  5
1604
331
1574
  5
1748
331
14BB
  5
15C5
331
1535
  5
16ED
331
14F6
  5
1600
331
1570
  5
1744
331
14B7
  5
15C1
331
15ED
  5
18A2
331
1531
  5
16E9
331
15AE
  5
1782
331
14F2
  5
15FC
331
156C
  5
1724
331
14B3
  5
15BD
331
15E9
  5
189E
331
152D
  5
16E3
331
15AA
  5
177E
331
1568
  5
1720
331
15E5
  5
189A
331
1529
  5
16DF
331
15A6
  5
177A
331
15E1
  5
1896
331
161C
  5
1904
331
15A2
  5
1776
331
1936
  5
1959
331
187D
  5
18EE
331
18BC
  5
1870
331
18F7
  5
14F6
331
1961
  5
190C
331
1618
  5
1900
331
1879
  5
18EA
331
18B8
  5
186C
331
18F3
  5
172F
331
1932
  5
1532
331
18B4
  5
1868
331
18EF
  5
172B
331
192E
  5
152E
331
18B0
  5
1864
331
18EB
  5
1727
331
192A
  5
152A
331
178E
  5
158D
331
178A
  5
1589
331
1786
  5
1585
331
16DF
  5
149E
331
1782
  5
1581
331
1755
  5
1554
331
16DB
  5
149A
331
1716
  5
14D5
331
1751
  5
1550
331
1712
  5
14D1
331
174D
  5
154C
331
170E
  5
14CD
331
1749
  5
1548
331
170A
  5
14C9
331
14EE
  5
15F8
331
14AF
  5
15B9
331
14EA
  5
15F4
331
1564
  5
171C
331
14AB
  5
15B5
331
1525
  5
16DB
331
14E6
  5
15F0
331
1560
  5
1718
331
14A7
  5
15B1
331
15DD
  5
1892
331
1521
  5
16D7
331
159E
  5
1772
331
14E2
  5
15EC
331
155C
  5
1714
331
14A3
  5
15AD
331
15D9
  5
188E
331
151D
  5
16A7
331
195D
  5
1911
331
1614
  5
18C9
331
159A
  5
176E
331
1558
  5
1710
331
15D5
  5
188A
331
1519
  5
1652
331
1959
  5
191A
331
1610
  5
18C5
331
1596
  5
176A
331
15D1
  5
1886
331
1955
  5
1926
331
186D
  5
1918
331
18AC
  5
18E8
331
160C
  5
18C1
331
1592
  5
1766
331
18E7
  5
1741
331
1926
  5
1526
331
1951
  5
1934
331
1869
  5
1935
331
18A8
  5
18E4
331
1608
  5
18BD
331
18E3
  5
173D
331
1922
  5
1522
331
1865
  5
1938
331
18A4
  5
18E0
331
18DF
  5
1737
331
191E
  5
151E
331
18A0
  5
18DC
331
18DB
  5
1733
331
191A
  5
1519
331
177E
  5
157D
331
177A
  5
1579
331
1776
  5
1575
331
1772
  5
1571
331
1745
  5
1544
331
1706
  5
14C5
331
1741
  5
1540
331
1702
  5
14C1
331
173D
  5
153C
331
16FE
  5
14BD
331
1739
  5
1538
331
16FA
  5
14B9
331
14DE
  5
15E8
331
149F
  5
15A9
331
14DA
  5
15E4
331
1554
  5
170C
331
149B
  5
15A5
331
1515
  5
164D
331
14D6
  5
15E0
331
1550
  5
1708
331
1497
  5
15A1
331
15CD
  5
1882
331
1511
  5
161B
331
158E
  5
1762
331
154C
  5
1704
331
14D2
  5
15DC
331
15C9
  5
187E
331
150D
  5
1617
331
194D
  5
1939
331
1604
  5
18B9
331
158A
  5
175E
331
1548
  5
1700
331
15C5
  5
187A
331
1509
  5
1613
331
1949
  5
193F
331
1600
  5
18B5
331
1586
  5
175A
331
1945
  5
194A
331
185D
  5
1942
331
189C
  5
18D8
331
15FC
  5
18B1
331
1582
  5
1756
331
18D7
  5
185D
331
1916
  5
1515
331
1941
  5
1951
331
1898
  5
18D4
331
15F8
  5
18AD
331
18D3
  5
1859
331
1912
  5
1511
331
1855
  5
194C
331
1894
  5
18D0
331
18CF
  5
1855
331
190E
  5
150D
331
1890
  5
18CC
331
18CB
  5
17A8
331
190A
  5
1509
331
176E
  5
156D
331
176A
  5
1569
331
17A5
  5
195F
331
1766
  5
1565
331
17A1
  5
15A0
331
1762
  5
1560
331
1735
  5
14F4
331
16F6
  5
14B5
331
1731
  5
14F0
331
16F2
  5
14B1
331
172D
  5
14EC
331
16EE
  5
14AD
331
1729
  5
14E8
331
16EA
  5
14A9
331
14CE
  5
15D8
331
1544
  5
16FC
331
14CA
  5
15D4
331
1505
  5
160F
331
157F
  5
1753
331
14C6
  5
15D0
331
15BD
  5
1793
331
1540
  5
16F8
331
1501
  5
160B
331
157B
  5
174F
331
14C2
  5
15CC
331
15B9
  5
178F
331
153C
  5
16F4
331
15F4
  5
18A9
331
1538
  5
16F0
331
15B5
  5
1789
331
15F0
  5
18A5
331
188C
  5
18FD
331
15B1
  5
1785
331
1906
  5
1505
331
1888
  5
18F9
331
18C7
  5
17A4
331
1902
  5
1501
331
193D
  5
1953
331
1884
  5
18F5
331
18C3
  5
1877
331
18FE
  5
14FD
331
1939
  5
1957
331
1880
  5
18F1
331
18FA
  5
14F9
331
179D
  5
159C
331
1799
  5
1598
331
1795
  5
1594
331
1791
  5
1590
331
1725
  5
14E4
331
16E6
  5
14A5
331
1721
  5
14E0
331
16E2
  5
14A1
331
171D
  5
14DC
331
1758
  5
1557
331
1719
  5
14D8
331
14FD
  5
1607
331
1577
  5
174B
331
14BE
  5
15C8
331
14F9
  5
1603
331
1573
  5
1747
331
14BA
  5
15C4
331
1534
  5
16EC
331
14F5
  5
15FF
331
156F
  5
1743
331
14B6
  5
15C0
331
15EC
  5
18A1
331
1530
  5
16E8
331
15AD
  5
1781
331
14F1
  5
15FB
331
156B
  5
1723
331
14B2
  5
15BC
331
15E8
  5
189D
331
152C
  5
16E2
331
15A9
  5
177D
331
15E4
  5
1899
331
1528
  5
16DE
331
18BF
  5
1873
331
15A5
  5
1779
331
15E0
  5
1895
331
161B
  5
1903
331
15A1
  5
1775
331
187C
  5
18ED
331
18BB
  5
186F
331
18F6
  5
1732
331
1935
  5
1535
331
1960
  5
190B
331
1878
  5
18E9
331
18B7
  5
186B
331
18F2
  5
172E
331
1931
  5
1531
331
1874
  5
1907
331
18B3
  5
1867
331
18EE
  5
172A
331
192D
  5
152D
331
18EA
  5
1726
331
1929
  5
1529
331
178D
  5
158C
331
1789
  5
1588
331
1785
  5
1584
331
16DE
  5
149D
331
1781
  5
1580
331
1754
  5
1553
331
1715
  5
14D4
331
16D6
  5
195C
331
1750
  5
154F
331
1711
  5
14D0
331
174C
  5
154B
331
170D
  5
14CC
331
1748
  5
1547
331
1709
  5
14C8
331
14ED
  5
15F7
331
1567
  5
171F
331
14AE
  5
15B8
331
14E9
  5
15F3
331
1563
  5
171B
331
14AA
  5
15B4
331
1524
  5
16DA
331
14E5
  5
15EF
331
155F
  5
1717
331
14A6
  5
15B0
331
15DC
  5
1891
331
1520
  5
16D6
331
159D
  5
1771
331
14E1
  5
15EB
331
155B
  5
1713
331
14A2
  5
15AC
331
15D8
  5
188D
331
151C
  5
1680
331
195C
  5
1914
331
1613
  5
18C8
331
1599
  5
176D
331
15D4
  5
1889
331
1518
  5
1651
331
164E
  5
192E
331
1595
  5
1769
331
1958
  5
1922
331
160F
  5
18C4
331
18AF
  5
1863
331
15D0
  5
1885
331
1954
  5
1932
331
186C
  5
1917
331
18AB
  5
18E7
331
160B
  5
18C0
331
1591
  5
1765
331
18E6
  5
1740
331
1925
  5
1525
331
1950
  5
1933
331
18A7
  5
18E3
331
18E2
  5
173C
331
1921
  5
1521
331
1864
  5
1937
331
18A3
  5
18DF
331
18DE
  5
1736
331
191D
  5
151D
331
18DA
  5
1860
331
1919
  5
1518
331
177D
  5
157C
331
1779
  5
1578
331
1775
  5
1574
331
1771
  5
1570
331
1744
  5
1543
331
1705
  5
14C4
331
1740
  5
153F
331
1701
  5
14C0
331
173C
  5
153B
331
16FD
  5
14BC
331
1738
  5
1537
331
16F9
  5
14B8
331
14DD
  5
15E7
331
1557
  5
170F
331
149E
  5
15A8
331
14D9
  5
15E3
331
1553
  5
170B
331
149A
  5
15A4
331
1514
  5
1635
331
154F
  5
1707
331
14D5
  5
15DF
331
15CC
  5
1881
331
1510
  5
161A
331
1607
  5
18BC
331
158D
  5
1761
331
154B
  5
1703
331
14D1
  5
15DB
331
15C8
  5
187D
331
150C
  5
1616
331
194C
  5
193E
331
1603
  5
18B8
331
1589
  5
175D
331
15C4
  5
1879
331
1508
  5
1612
331
1948
  5
1947
331
189F
  5
18DB
331
15FF
  5
18B4
331
1585
  5
1759
331
15C0
  5
1798
331
1944
  5
1949
331
185C
  5
1941
331
189B
  5
18D7
331
15FB
  5
18B0
331
1581
  5
1755
331
18D6
  5
185C
331
1915
  5
1514
331
1940
  5
1950
331
1897
  5
18D3
331
18D2
  5
1858
331
1911
  5
1510
331
1893
  5
18CF
331
18CE
  5
1854
331
190D
  5
150C
331
18CA
  5
17A7
331
1909
  5
1508
331
176D
  5
156C
331
17A8
  5
1962
331
1769
  5
1568
331
17A4
  5
1564
331
1765
  5
1563
331
17A0
  5
159F
331
1761
  5
155F
331
1734
  5
14F3
331
16F5
  5
14B4
331
1730
  5
14EF
331
16F1
  5
14B0
331
172C
  5
14EB
331
16ED
  5
14AC
331
1728
  5
14E7
331
16E9
  5
14A8
  0
SORTENTSTABLE
  5
D00
102
{ACAD_REACTORS
330
CFF
102
}
330
CFF
100
AcDbSortentsTable
330
C34
  0
XRECORD
  5
196A
102
{ACAD_REACTORS
330
1968
102
}
330
1968
100
AcDbXrecord
280
     1
 70
     2
  0
XRECORD
  5
1969
102
{ACAD_REACTORS
330
1968
102
}
330
1968
100
AcDbXrecord
280
     1
 40
1.25
  0
XRECORD
  5
196B
102
{ACAD_REACTORS
330
1968
102
}
330
1968
100
AcDbXrecord
280
     1
 40
1.570796326794896
  0
LAYOUT
  5
22
102
{ACAD_XDICTIONARY
360
196C
102
}
102
{ACAD_REACTORS
330
1A
102
}
330
1A
100
AcDbPlotSettings
  1

  2
none_device
  4
ANSI_A_(8.50_x_11.00_Inches)
  6

 40
6.349999904632568
 41
19.04999923706055
 42
6.350006103515625
 43
19.04998779296875
 44
215.8999938964844
 45
279.3999938964844
 46
0.0
 47
0.0
 48
0.0
 49
0.0
140
0.0
141
0.0
142
1.0
143
2.584895464708373
 70
 11952
 72
     0
 73
     1
 74
     0
  7

 75
     0
147
0.3868628397755418
148
0.0
149
0.0
100
AcDbLayout
  1
Model
 70
     1
 71
     0
 10
0.0
 20
0.0
 11
12.0
 21
9.0
 12
0.0
 22
0.0
 32
0.0
 14
0.0
 24
0.0
 34
0.0
 15
0.0
 25
0.0
 35
0.0
146
0.0
 13
0.0
 23
0.0
 33
0.0
 16
1.0
 26
0.0
 36
0.0
 17
0.0
 27
1.0
 37
0.0
 76
     0
330
1F
331
94
  0
LAYOUT
  5
59
102
{ACAD_XDICTIONARY
360
196E
102
}
102
{ACAD_REACTORS
330
1A
102
}
330
1A
100
AcDbPlotSettings
  1

  2
None
  4

  6

 40
0.0
 41
0.0
 42
0.0
 43
0.0
 44
0.0
 45
0.0
 46
0.0
 47
0.0
 48
0.0
 49
0.0
140
0.0
141
0.0
142
1.0
143
1.0
 70
   688
 72
     0
 73
     0
 74
     5
  7

 75
    16
147
1.0
148
0.0
149
0.0
100
AcDbLayout
  1
レイアウト1
 70
     1
 71
     1
 10
0.0
 20
0.0
 11
12.0
 21
9.0
 12
0.0
 22
0.0
 32
0.0
 14
0.0
 24
0.0
 34
0.0
 15
0.0
 25
0.0
 35
0.0
146
0.0
 13
0.0
 23
0.0
 33
0.0
 16
1.0
 26
0.0
 36
0.0
 17
0.0
 27
1.0
 37
0.0
 76
     0
330
58
  0
LAYOUT
  5
5E
102
{ACAD_XDICTIONARY
360
1970
102
}
102
{ACAD_REACTORS
330
1A
102
}
330
1A
100
AcDbPlotSettings
  1

  2
None
  4

  6

 40
0.0
 41
0.0
 42
0.0
 43
0.0
 44
0.0
 45
0.0
 46
0.0
 47
0.0
 48
0.0
 49
0.0
140
0.0
141
0.0
142
1.0
143
1.0
 70
   688
 72
     0
 73
     0
 74
     5
  7

 75
    16
147
1.0
148
0.0
149
0.0
100
AcDbLayout
  1
レイアウト2
 70
     1
 71
     2
 10
0.0
 20
0.0
 11
12.0
 21
9.0
 12
0.0
 22
0.0
 32
0.0
 14
0.0
 24
0.0
 34
0.0
 15
0.0
 25
0.0
 35
0.0
146
0.0
 13
0.0
 23
0.0
 33
0.0
 16
1.0
 26
0.0
 36
0.0
 17
0.0
 27
1.0
 37
0.0
 76
     0
330
5D
  0
MATERIAL
  5
97
102
{ACAD_XDICTIONARY
360
1975
102
}
102
{ACAD_REACTORS
330
72
102
}
330
72
100
AcDbMaterial
  1
ByBlock
 73
     1
 78
     1
172
     1
176
     1
270
     1
274
     1
  0
MATERIAL
  5
96
102
{ACAD_XDICTIONARY
360
1973
102
}
102
{ACAD_REACTORS
330
72
102
}
330
72
100
AcDbMaterial
  1
ByLayer
 73
     1
 78
     1
172
     1
176
     1
270
     1
274
     1
  0
MATERIAL
  5
98
102
{ACAD_XDICTIONARY
360
1977
102
}
102
{ACAD_REACTORS
330
72
102
}
330
72
100
AcDbMaterial
  1
Global
 73
     1
 78
     1
172
     1
176
     1
270
     1
274
     1
  0
MLEADERSTYLE
  5
169
102
{ACAD_REACTORS
330
168
102
}
330
168
100
AcDbMLeaderStyle
170
     2
171
     1
172
     0
 90
        2
 40
0.0
 41
0.0
173
     1
 91
-1056964608
340
14
 92
       -2
290
     1
 42
2.0
291
     1
 43
0.36
  3
Standard
 44
4.0
300

342
11
174
     1
178
     6
175
     1
176
     0
 93
-1056964608
 45
4.0
292
     0
297
     0
 46
4.0
 94
-1056964608
 47
1.0
 49
1.0
140
1.0
293
     1
141
0.0
294
     1
177
     0
142
1.0
295
     0
296
     0
143
0.125
1001
ACAD_MLEADERVER
1070
     2
  0
MLINESTYLE
  5
18
102
{ACAD_REACTORS
330
17
102
}
330
17
100
AcDbMlineStyle
  2
STANDARD
 70
     0
  3

 62
   256
 51
90.0
 52
90.0
 71
     2
 49
0.5
 62
   256
  6
BYLAYER
 49
-0.5
 62
   256
  6
BYLAYER
  0
ACDBPLACEHOLDER
  5
F
102
{ACAD_REACTORS
330
E
102
}
330
E
  0
SCALE
  5
157
102
{ACAD_REACTORS
330
156
102
}
330
156
100
AcDbScale
 70
     0
300
1:1
140
1.0
141
1.0
290
     1
  0
SCALE
  5
158
102
{ACAD_REACTORS
330
156
102
}
330
156
100
AcDbScale
 70
     0
300
1:2
140
1.0
141
2.0
290
     0
  0
SCALE
  5
159
102
{ACAD_REACTORS
330
156
102
}
330
156
100
AcDbScale
 70
     0
300
1:4
140
1.0
141
4.0
290
     0
  0
SCALE
  5
15A
102
{ACAD_REACTORS
330
156
102
}
330
156
100
AcDbScale
 70
     0
300
1:5
140
1.0
141
5.0
290
     0
  0
SCALE
  5
15B
102
{ACAD_REACTORS
330
156
102
}
330
156
100
AcDbScale
 70
     0
300
1:8
140
1.0
141
8.0
290
     0
  0
SCALE
  5
15C
102
{ACAD_REACTORS
330
156
102
}
330
156
100
AcDbScale
 70
     0
300
1:10
140
1.0
141
10.0
290
     0
  0
SCALE
  5
15D
102
{ACAD_REACTORS
330
156
102
}
330
156
100
AcDbScale
 70
     0
300
1:16
140
1.0
141
16.0
290
     0
  0
SCALE
  5
15E
102
{ACAD_REACTORS
330
156
102
}
330
156
100
AcDbScale
 70
     0
300
1:20
140
1.0
141
20.0
290
     0
  0
SCALE
  5
15F
102
{ACAD_REACTORS
330
156
102
}
330
156
100
AcDbScale
 70
     0
300
1:30
140
1.0
141
30.0
290
     0
  0
SCALE
  5
160
102
{ACAD_REACTORS
330
156
102
}
330
156
100
AcDbScale
 70
     0
300
1:40
140
1.0
141
40.0
290
     0
  0
SCALE
  5
161
102
{ACAD_REACTORS
330
156
102
}
330
156
100
AcDbScale
 70
     0
300
1:50
140
1.0
141
50.0
290
     0
  0
SCALE
  5
162
102
{ACAD_REACTORS
330
156
102
}
330
156
100
AcDbScale
 70
     0
300
1:100
140
1.0
141
100.0
290
     0
  0
SCALE
  5
163
102
{ACAD_REACTORS
330
156
102
}
330
156
100
AcDbScale
 70
     0
300
2:1
140
2.0
141
1.0
290
     0
  0
SCALE
  5
164
102
{ACAD_REACTORS
330
156
102
}
330
156
100
AcDbScale
 70
     0
300
4:1
140
4.0
141
1.0
290
     0
  0
SCALE
  5
165
102
{ACAD_REACTORS
330
156
102
}
330
156
100
AcDbScale
 70
     0
300
8:1
140
8.0
141
1.0
290
     0
  0
SCALE
  5
166
102
{ACAD_REACTORS
330
156
102
}
330
156
100
AcDbScale
 70
     0
300
10:1
140
10.0
141
1.0
290
     0
  0
SCALE
  5
167
102
{ACAD_REACTORS
330
156
102
}
330
156
100
AcDbScale
 70
     0
300
100:1
140
100.0
141
1.0
290
     0
  0
TABLESTYLE
  5
87
102
{ACAD_XDICTIONARY
360
1963
102
}
102
{ACAD_REACTORS
330
86
102
}
330
86
100
AcDbTableStyle
  3
Standard
 70
     0
 71
     0
 40
0.06
 41
0.06
280
     0
281
     0
  7
Standard
140
0.18
170
     2
 62
     0
 63
     7
283
     0
274
    -2
284
     1
 64
     0
275
    -2
285
     1
 65
     0
276
    -2
286
     1
 66
     0
277
    -2
287
     1
 67
     0
278
    -2
288
     1
 68
     0
279
    -2
289
     1
 69
     0
  7
Standard
140
0.25
170
     5
 62
     0
 63
     7
283
     0
274
    -2
284
     1
 64
     0
275
    -2
285
     1
 65
     0
276
    -2
286
     1
 66
     0
277
    -2
287
     1
 67
     0
278
    -2
288
     1
 68
     0
279
    -2
289
     1
 69
     0
  7
Standard
140
0.18
170
     5
 62
     0
 63
     7
283
     0
274
    -2
284
     1
 64
     0
275
    -2
285
     1
 65
     0
276
    -2
286
     1
 66
     0
277
    -2
287
     1
 67
     0
278
    -2
288
     1
 68
     0
279
    -2
289
     1
 69
     0
  0
TABLESTYLE
  5
D97
102
{ACAD_XDICTIONARY
360
D98
102
}
102
{ACAD_REACTORS
330
86
102
}
330
86
100
AcDbTableStyle
  3
Standard
 70
     1
 71
     0
 40
1.5
 41
0.5
280
     0
281
     0
  7
高3.2
140
0.18
170
     7
 62
     3
 63
     7
283
     0
274
    -2
284
     1
 64
     3
275
    -2
285
     1
 65
     7
276
    -2
286
     1
 66
     3
277
    -2
287
     1
 67
     3
278
    -2
288
     1
 68
     7
279
    -2
289
     1
 69
     3
  7
高3.2
140
0.25
170
     8
 62
     3
 63
     7
283
     0
274
    -2
284
     1
 64
     0
275
    -2
285
     1
 65
     0
276
    -2
286
     1
 66
     0
277
    -2
287
     1
 67
     0
278
    -2
288
     1
 68
     0
279
    -2
289
     1
 69
     0
  7
高3.2
140
0.18
170
     7
 62
     3
 63
     7
283
     0
274
    -2
284
     1
 64
     3
275
    -2
285
     1
 65
     7
276
    -2
286
     1
 66
     3
277
    -2
287
     1
 67
     3
278
    -2
288
     1
 68
     7
279
    -2
289
     1
 69
     3
  0
VISUALSTYLE
  5
9F
102
{ACAD_XDICTIONARY
360
1983
102
}
102
{ACAD_REACTORS
330
99
102
}
330
99
100
AcDbVisualStyle
  2
2dWireframe
 70
     4
 71
     0
 72
     2
 73
     1
 90
        0
 40
-0.6
 41
-30.0
 62
     5
 63
     7
 74
     1
 91
        4
 64
     7
 65
   257
 75
     1
175
     1
 42
1.0
 92
        0
 66
   257
 43
1.0
 76
     1
 77
     6
 78
     2
 67
     7
 79
     5
170
     0
171
     0
290
     0
174
     0
 93
        1
 44
0.0
173
     0
291
     0
 45
0.0
1001
ACAD
1000
AcDbSavedByObjectVersion
1070
     0
  0
VISUALSTYLE
  5
A1
102
{ACAD_XDICTIONARY
360
1987
102
}
102
{ACAD_REACTORS
330
99
102
}
330
99
100
AcDbVisualStyle
  2
3D Hidden
 70
     6
 71
     1
 72
     2
 73
     2
 90
        0
 40
-0.6
 41
-30.0
 62
     5
 63
     7
 74
     2
 91
        2
 64
     7
 65
   257
 75
     2
175
     1
 42
40.0
 92
        0
 66
   257
 43
1.0
 76
     1
 77
     6
 78
     2
 67
     7
 79
     3
170
     0
171
     0
290
     0
174
     0
 93
        1
 44
0.0
173
     0
291
     0
 45
0.0
1001
ACAD
1000
AcDbSavedByObjectVersion
1070
     0
  0
VISUALSTYLE
  5
A0
102
{ACAD_XDICTIONARY
360
1985
102
}
102
{ACAD_REACTORS
330
99
102
}
330
99
100
AcDbVisualStyle
  2
3dWireframe
 70
     5
 71
     0
 72
     2
 73
     1
 90
        0
 40
-0.6
 41
-30.0
 62
     5
 63
     7
 74
     1
 91
        4
 64
     7
 65
   257
 75
     1
175
     1
 42
1.0
 92
        0
 66
   257
 43
1.0
 76
     1
 77
     6
 78
     2
 67
     7
 79
     5
170
     0
171
     0
290
     0
174
     0
 93
        1
 44
0.0
173
     0
291
     0
 45
0.0
1001
ACAD
1000
AcDbSavedByObjectVersion
1070
     0
  0
VISUALSTYLE
  5
9E
102
{ACAD_XDICTIONARY
360
1981
102
}
102
{ACAD_REACTORS
330
99
102
}
330
99
100
AcDbVisualStyle
  2
Basic
 70
     7
 71
     1
 72
     0
 73
     1
 90
        0
 40
-0.6
 41
-30.0
 62
     5
 63
     7
 74
     0
 91
        4
 64
     7
 65
   257
 75
     1
175
     1
 42
1.0
 92
        8
 66
     7
 43
1.0
 76
     1
 77
     6
 78
     2
 67
     7
 79
     5
170
     0
171
     0
290
     0
174
     0
 93
        1
 44
0.0
173
     0
291
     1
 45
0.0
1001
ACAD
1000
AcDbSavedByObjectVersion
1070
     0
  0
VISUALSTYLE
  5
A5
102
{ACAD_XDICTIONARY
360
198F
102
}
102
{ACAD_REACTORS
330
99
102
}
330
99
100
AcDbVisualStyle
  2
Brighten
 70
    12
 71
     2
 72
     2
 73
     1
 90
        0
 40
-0.6
 41
-30.0
 62
     5
 63
     7
 74
     1
 91
        4
 64
     7
 65
   257
 75
     1
175
     1
 42
1.0
 92
        8
 66
     7
 43
1.0
 76
     1
 77
     6
 78
     2
 67
     7
 79
     5
170
     0
171
     0
290
     0
174
     0
 93
        1
 44
50.0
173
     0
291
     1
 45
0.0
1001
ACAD
1000
AcDbSavedByObjectVersion
1070
     0
  0
VISUALSTYLE
  5
A9
102
{ACAD_XDICTIONARY
360
1997
102
}
102
{ACAD_REACTORS
330
99
102
}
330
99
100
AcDbVisualStyle
  2
ColorChange
 70
    16
 71
     2
 72
     2
 73
     3
 90
        0
 40
-0.6
 41
-30.0
 62
     5
 63
     8
 74
     1
 91
        4
 64
     7
 65
   257
 75
     1
175
     1
 42
1.0
 92
        8
 66
     8
 43
1.0
 76
     1
 77
     6
 78
     2
 67
     7
 79
     5
170
     0
171
     0
290
     0
174
     0
 93
        1
 44
0.0
173
     0
291
     1
 45
0.0
1001
ACAD
1000
AcDbSavedByObjectVersion
1070
     0
  0
VISUALSTYLE
  5
A2
102
{ACAD_XDICTIONARY
360
1989
102
}
102
{ACAD_REACTORS
330
99
102
}
330
99
100
AcDbVisualStyle
  2
Conceptual
 70
     9
 71
     3
 72
     2
 73
     1
 90
        0
 40
-0.6
 41
-30.0
 62
     5
 63
     7
 74
     2
 91
        2
 64
     7
 65
   257
 75
     1
175
     1
 42
40.0
 92
        8
 66
     7
 43
1.0
 76
     1
 77
     6
 78
     2
 67
     7
 79
     3
170
     0
171
     0
290
     0
174
     0
 93
        1
 44
0.0
173
     0
291
     0
 45
0.0
1001
ACAD
1000
AcDbSavedByObjectVersion
1070
     0
  0
VISUALSTYLE
  5
A4
102
{ACAD_XDICTIONARY
360
198D
102
}
102
{ACAD_REACTORS
330
99
102
}
330
99
100
AcDbVisualStyle
  2
Dim
 70
    11
 71
     2
 72
     2
 73
     1
 90
        0
 40
-0.6
 41
-30.0
 62
     5
 63
     7
 74
     1
 91
        4
 64
     7
 65
   257
 75
     1
175
     1
 42
1.0
 92
        8
 66
     7
 43
1.0
 76
     1
 77
     6
 78
     2
 67
     7
 79
     5
170
     0
171
     0
290
     0
174
     0
 93
        1
 44
-50.0
173
     0
291
     1
 45
0.0
1001
ACAD
1000
AcDbSavedByObjectVersion
1070
     0
  0
VISUALSTYLE
  5
155
102
{ACAD_XDICTIONARY
360
19AD
102
}
102
{ACAD_REACTORS
330
99
102
}
330
99
100
AcDbVisualStyle
  2
EdgeColorOff
 70
    22
 71
     2
 72
     2
 73
     0
 90
        0
 40
-0.6
 41
-30.0
 62
     5
 63
     7
 74
     1
 91
        4
 64
     7
 65
   257
 75
     1
175
     1
 42
1.0
 92
        8
 66
     7
 43
1.0
 76
     1
 77
     6
 78
     2
 67
     7
 79
     5
170
     0
171
     0
290
     0
174
     0
 93
        1
 44
0.0
173
     0
291
     1
 45
0.0
1001
ACAD
1000
AcDbSavedByObjectVersion
1070
     0
  0
VISUALSTYLE
  5
A8
102
{ACAD_XDICTIONARY
360
1995
102
}
102
{ACAD_REACTORS
330
99
102
}
330
99
100
AcDbVisualStyle
  2
Facepattern
 70
    15
 71
     2
 72
     2
 73
     1
 90
        0
 40
-0.6
 41
-30.0
 62
     5
 63
     7
 74
     1
 91
        4
 64
     7
 65
   257
 75
     1
175
     1
 42
1.0
 92
        8
 66
     7
 43
1.0
 76
     1
 77
     6
 78
     2
 67
     7
 79
     5
170
     0
171
     0
290
     0
174
     0
 93
        1
 44
0.0
173
     0
291
     1
 45
0.0
1001
ACAD
1000
AcDbSavedByObjectVersion
1070
     0
  0
VISUALSTYLE
  5
9A
102
{ACAD_XDICTIONARY
360
1979
102
}
102
{ACAD_REACTORS
330
99
102
}
330
99
100
AcDbVisualStyle
  2
Flat
 70
     0
 71
     2
 72
     1
 73
     1
 90
        2
 40
-0.6
 41
30.0
 62
     5
 63
     7
 74
     0
 91
        4
 64
     7
 65
   257
 75
     1
175
     1
 42
1.0
 92
        8
 66
     7
 43
1.0
 76
     1
 77
     6
 78
     2
 67
     7
 79
     5
170
     0
171
     0
290
     0
174
     0
 93
        1
 44
0.0
173
     0
291
     1
 45
0.0
1001
ACAD
1000
AcDbSavedByObjectVersion
1070
     0
  0
VISUALSTYLE
  5
9B
102
{ACAD_XDICTIONARY
360
197B
102
}
102
{ACAD_REACTORS
330
99
102
}
330
99
100
AcDbVisualStyle
  2
FlatWithEdges
 70
     1
 71
     2
 72
     1
 73
     1
 90
        2
 40
-0.6
 41
30.0
 62
     5
 63
     7
 74
     1
 91
        4
 64
     7
 65
   257
 75
     1
175
     1
 42
1.0
 92
        0
 66
   257
 43
1.0
 76
     1
 77
     6
 78
     2
 67
     7
 79
     5
170
     0
171
     0
290
     0
174
     0
 93
        1
 44
0.0
173
     0
291
     1
 45
0.0
1001
ACAD
1000
AcDbSavedByObjectVersion
1070
     0
  0
VISUALSTYLE
  5
9C
102
{ACAD_XDICTIONARY
360
197D
102
}
102
{ACAD_REACTORS
330
99
102
}
330
99
100
AcDbVisualStyle
  2
Gouraud
 70
     2
 71
     2
 72
     2
 73
     1
 90
        2
 40
-0.6
 41
30.0
 62
     5
 63
     7
 74
     0
 91
        4
 64
     7
 65
   257
 75
     1
175
     1
 42
1.0
 92
        0
 66
     7
 43
1.0
 76
     1
 77
     6
 78
     2
 67
     7
 79
     5
170
     0
171
     0
290
     0
174
     0
 93
        1
 44
0.0
173
     0
291
     1
 45
0.0
1001
ACAD
1000
AcDbSavedByObjectVersion
1070
     0
  0
VISUALSTYLE
  5
9D
102
{ACAD_XDICTIONARY
360
197F
102
}
102
{ACAD_REACTORS
330
99
102
}
330
99
100
AcDbVisualStyle
  2
GouraudWithEdges
 70
     3
 71
     2
 72
     2
 73
     1
 90
        2
 40
-0.6
 41
30.0
 62
     5
 63
     7
 74
     1
 91
        4
 64
     7
 65
   257
 75
     1
175
     1
 42
1.0
 92
        0
 66
   257
 43
1.0
 76
     1
 77
     6
 78
     2
 67
     7
 79
     5
170
     0
171
     0
290
     0
174
     0
 93
        1
 44
0.0
173
     0
291
     1
 45
0.0
1001
ACAD
1000
AcDbSavedByObjectVersion
1070
     0
  0
VISUALSTYLE
  5
14D
102
{ACAD_XDICTIONARY
360
199D
102
}
102
{ACAD_REACTORS
330
99
102
}
330
99
100
AcDbVisualStyle
  2
Hidden
 70
     6
 71
     1
 72
     2
 73
     2
 90
        0
 40
-0.6
 41
-30.0
 62
     5
 63
     7
 74
     2
 91
        2
 64
     7
 65
   257
 75
     2
175
     1
 42
40.0
 92
        0
 66
   257
 43
1.0
 76
     1
 77
     6
 78
     2
 67
     7
 79
     3
170
     0
171
     0
290
     0
174
     0
 93
        1
 44
0.0
173
     0
291
     0
 45
0.0
1001
ACAD
1000
AcDbSavedByObjectVersion
1070
     0
  0
VISUALSTYLE
  5
153
102
{ACAD_XDICTIONARY
360
19A9
102
}
102
{ACAD_REACTORS
330
99
102
}
330
99
100
AcDbVisualStyle
  2
JitterOff
 70
    20
 71
     2
 72
     2
 73
     0
 90
        0
 40
-0.6
 41
-30.0
 62
     5
 63
     7
 74
     1
 91
        4
 64
     7
 65
   257
 75
     1
175
     1
 42
1.0
 92
       10
 66
     7
 43
1.0
 76
     1
 77
     6
 78
     2
 67
     7
 79
     5
170
     0
171
     0
290
     0
174
     0
 93
        1
 44
0.0
173
     0
291
     1
 45
0.0
1001
ACAD
1000
AcDbSavedByObjectVersion
1070
     0
  0
VISUALSTYLE
  5
A7
102
{ACAD_XDICTIONARY
360
1993
102
}
102
{ACAD_REACTORS
330
99
102
}
330
99
100
AcDbVisualStyle
  2
Linepattern
 70
    14
 71
     2
 72
     2
 73
     1
 90
        0
 40
-0.6
 41
-30.0
 62
     5
 63
     7
 74
     1
 91
        4
 64
     7
 65
   257
 75
     7
175
     7
 42
1.0
 92
        8
 66
     7
 43
1.0
 76
     1
 77
     6
 78
     2
 67
     7
 79
     5
170
     0
171
     0
290
     0
174
     0
 93
        1
 44
0.0
173
     0
291
     1
 45
0.0
1001
ACAD
1000
AcDbSavedByObjectVersion
1070
     0
  0
VISUALSTYLE
  5
154
102
{ACAD_XDICTIONARY
360
19AB
102
}
102
{ACAD_REACTORS
330
99
102
}
330
99
100
AcDbVisualStyle
  2
OverhangOff
 70
    21
 71
     2
 72
     2
 73
     0
 90
        0
 40
-0.6
 41
-30.0
 62
     5
 63
     7
 74
     1
 91
        4
 64
     7
 65
   257
 75
     1
175
     1
 42
1.0
 92
        9
 66
     7
 43
1.0
 76
     1
 77
     6
 78
     2
 67
     7
 79
     5
170
     0
171
     0
290
     0
174
     0
 93
        1
 44
0.0
173
     0
291
     1
 45
0.0
1001
ACAD
1000
AcDbSavedByObjectVersion
1070
     0
  0
VISUALSTYLE
  5
A3
102
{ACAD_XDICTIONARY
360
198B
102
}
102
{ACAD_REACTORS
330
99
102
}
330
99
100
AcDbVisualStyle
  2
Realistic
 70
     8
 71
     2
 72
     2
 73
     1
 90
        0
 40
-0.6
 41
-30.0
 62
     5
 63
     7
 74
     1
 91
        0
 64
     7
 65
   257
 75
     1
175
     1
 42
1.0
 92
        8
 66
     8
 43
1.0
 76
     1
 77
     6
 78
     2
 67
     7
 79
     5
170
     0
171
     0
290
     0
174
     0
 93
       13
 44
0.0
173
     0
291
     0
 45
0.0
1001
ACAD
1000
AcDbSavedByObjectVersion
1070
     0
  0
VISUALSTYLE
  5
152
102
{ACAD_XDICTIONARY
360
19A7
102
}
102
{ACAD_REACTORS
330
99
102
}
330
99
100
AcDbVisualStyle
  2
Shaded
 70
    27
 71
     2
 72
     2
 73
     1
 90
        2
 40
-0.6
 41
30.0
 62
     5
 63
     7
 74
     0
 91
        4
 64
     7
 65
   257
 75
     1
175
     1
 42
1.0
 92
        8
 66
   257
 43
1.0
 76
     1
 77
     6
 78
     2
 67
     8
 79
     3
170
     0
171
     0
290
     0
174
     0
 93
        5
 44
0.0
173
     0
291
     0
 45
0.0
1001
ACAD
1000
AcDbSavedByObjectVersion
1070
     0
  0
VISUALSTYLE
  5
151
102
{ACAD_XDICTIONARY
360
19A5
102
}
102
{ACAD_REACTORS
330
99
102
}
330
99
100
AcDbVisualStyle
  2
Shaded with edges
 70
    26
 71
     2
 72
     2
 73
     1
 90
        2
 40
-0.6
 41
30.0
 62
     5
 63
     7
 74
     1
 91
       10
 64
     7
 65
   257
 75
     2
175
     1
 42
1.0
 92
        8
 66
   257
 43
1.0
 76
     1
 77
     6
 78
     2
 67
     7
 79
     3
170
     0
171
     0
290
     0
174
     0
 93
        5
 44
0.0
173
     0
291
     0
 45
0.0
1001
ACAD
1000
AcDbSavedByObjectVersion
1070
     0
  0
VISUALSTYLE
  5
14E
102
{ACAD_XDICTIONARY
360
199F
102
}
102
{ACAD_REACTORS
330
99
102
}
330
99
100
AcDbVisualStyle
  2
Shades of Gray
 70
    23
 71
     2
 72
     2
 73
     3
 90
        0
 40
-0.6
 41
-30.0
 62
     5
 63
     7
 74
     2
 91
        2
 64
     7
 65
     7
 75
     1
175
     1
 42
40.0
 92
        8
 66
     7
 43
1.0
 76
     1
 77
     6
 78
     2
 67
     7
 79
     3
170
     0
171
     0
290
     0
174
     0
 93
        1
 44
0.0
173
     0
291
     0
 45
0.0
1001
ACAD
1000
AcDbSavedByObjectVersion
1070
     0
  0
VISUALSTYLE
  5
14F
102
{ACAD_XDICTIONARY
360
19A1
102
}
102
{ACAD_REACTORS
330
99
102
}
330
99
100
AcDbVisualStyle
  2
Sketchy
 70
    24
 71
     1
 72
     2
 73
     2
 90
        0
 40
-0.6
 41
-30.0
 62
     5
 63
     7
 74
     2
 91
        2
 64
     7
 65
     7
 75
     1
175
     1
 42
40.0
 92
       11
 66
     7
 43
1.0
 76
     1
 77
     6
 78
     2
 67
     7
 79
     6
170
     0
171
     0
290
     0
174
     0
 93
        1
 44
0.0
173
     0
291
     0
 45
0.0
1001
ACAD
1000
AcDbSavedByObjectVersion
1070
     0
  0
VISUALSTYLE
  5
A6
102
{ACAD_XDICTIONARY
360
1991
102
}
102
{ACAD_REACTORS
330
99
102
}
330
99
100
AcDbVisualStyle
  2
Thicken
 70
    13
 71
     2
 72
     2
 73
     1
 90
        0
 40
-0.6
 41
-30.0
 62
     5
 63
     7
 74
     1
 91
        4
 64
     7
 65
   257
 75
     1
175
     1
 42
1.0
 92
       12
 66
     7
 43
1.0
 76
     1
 77
     6
 78
     2
 67
     7
 79
     5
170
     0
171
     0
290
     0
174
     0
 93
        1
 44
0.0
173
     0
291
     1
 45
0.0
1001
ACAD
1000
AcDbSavedByObjectVersion
1070
     0
  0
VISUALSTYLE
  5
14C
102
{ACAD_XDICTIONARY
360
199B
102
}
102
{ACAD_REACTORS
330
99
102
}
330
99
100
AcDbVisualStyle
  2
Wireframe
 70
     5
 71
     0
 72
     2
 73
     0
 90
        0
 40
-0.6
 41
-30.0
 62
     5
 63
     7
 74
     1
 91
        4
 64
     7
 65
   257
 75
     1
175
     1
 42
1.0
 92
        0
 66
   257
 43
1.0
 76
     1
 77
     6
 78
     2
 67
     7
 79
     3
170
     0
171
     0
290
     0
174
     0
 93
        1
 44
0.0
173
     0
291
     0
 45
0.0
1001
ACAD
1000
AcDbSavedByObjectVersion
1070
     0
  0
VISUALSTYLE
  5
150
102
{ACAD_XDICTIONARY
360
19A3
102
}
102
{ACAD_REACTORS
330
99
102
}
330
99
100
AcDbVisualStyle
  2
X-Ray
 70
    25
 71
     2
 72
     2
 73
     1
 90
        1
 40
0.5
 41
-30.0
 62
     5
 63
     7
 74
     1
 91
        0
 64
     7
 65
   257
 75
     1
175
     1
 42
1.0
 92
        8
 66
     7
 43
1.0
 76
     1
 77
     6
 78
     2
 67
     7
 79
     3
170
     0
171
     0
290
     0
174
     0
 93
       13
 44
0.0
173
     0
291
     0
 45
0.0
1001
ACAD
1000
AcDbSavedByObjectVersion
1070
     0
  0
DICTIONARYVAR
  5
245
102
{ACAD_REACTORS
330
66
102
}
330
66
100
DictionaryVariables
280
     0
  1
1:1
  0
DICTIONARYVAR
  5
243
102
{ACAD_REACTORS
330
66
102
}
330
66
100
DictionaryVariables
280
     0
  1
STANDARD
  0
DICTIONARYVAR
  5
89
102
{ACAD_REACTORS
330
66
102
}
330
66
100
DictionaryVariables
280
     0
  1
STANDARD
  0
DICTIONARYVAR
  5
67
102
{ACAD_REACTORS
330
66
102
}
330
66
100
DictionaryVariables
280
     0
  1
2
  0
DICTIONARYVAR
  5
6B
102
{ACAD_REACTORS
330
66
102
}
330
66
100
DictionaryVariables
280
     0
  1
1
  0
DICTIONARYVAR
  5
17AC
102
{ACAD_REACTORS
330
66
102
}
330
66
100
DictionaryVariables
280
     0
  1
0
  0
DICTIONARYVAR
  5
247
102
{ACAD_REACTORS
330
66
102
}
330
66
100
DictionaryVariables
280
     0
  1
1
  0
DICTIONARYVAR
  5
248
102
{ACAD_REACTORS
330
66
102
}
330
66
100
DictionaryVariables
280
     0
  1
15
  0
DICTIONARYVAR
  5
246
102
{ACAD_REACTORS
330
66
102
}
330
66
100
DictionaryVariables
280
     0
  1
0
  0
DICTIONARYVAR
  5
244
102
{ACAD_REACTORS
330
66
102
}
330
66
100
DictionaryVariables
280
     0
  1
0
  0
DICTIONARYVAR
  5
17AB
102
{ACAD_REACTORS
330
66
102
}
330
66
100
DictionaryVariables
280
     0
  1
127
  0
DICTIONARYVAR
  5
17AD
102
{ACAD_REACTORS
330
66
102
}
330
66
100
DictionaryVariables
280
     0
  1
0
  0
DICTIONARY
  5
196C
330
22
100
AcDbDictionary
280
     1
281
     1
  3
ACAD_XREC_ROUNDTRIP
360
196D
  0
DICTIONARY
  5
196E
330
59
100
AcDbDictionary
280
     1
281
     1
  3
ACAD_XREC_ROUNDTRIP
360
196F
  0
DICTIONARY
  5
1970
330
5E
100
AcDbDictionary
280
     1
281
     1
  3
ACAD_XREC_ROUNDTRIP
360
1971
  0
DICTIONARY
  5
1975
330
97
100
AcDbDictionary
280
     1
281
     1
  3
ACAD_XREC_ROUNDTRIP
360
1976
  0
DICTIONARY
  5
1973
330
96
100
AcDbDictionary
280
     1
281
     1
  3
ACAD_XREC_ROUNDTRIP
360
1974
  0
DICTIONARY
  5
1977
330
98
100
AcDbDictionary
280
     1
281
     1
  3
ACAD_XREC_ROUNDTRIP
360
1978
  0
DICTIONARY
  5
1963
330
87
100
AcDbDictionary
280
     1
281
     1
  3
ACAD_ROUNDTRIP_2008_TABLESTYLE_CELLSTYLEMAP
360
1964
  3
ACAD_XREC_ROUNDTRIP
360
1972
  0
DICTIONARY
  5
D98
330
D97
100
AcDbDictionary
280
     1
281
     1
  3
ACAD_ROUNDTRIP_2008_TABLESTYLE_CELLSTYLEMAP
360
1965
  3
ACAD_XREC_ROUNDTRIP
360
19B0
  0
DICTIONARY
  5
1983
330
9F
100
AcDbDictionary
280
     1
281
     1
  3
ACAD_XREC_ROUNDTRIP
360
1984
  0
DICTIONARY
  5
1987
330
A1
100
AcDbDictionary
280
     1
281
     1
  3
ACAD_XREC_ROUNDTRIP
360
1988
  0
DICTIONARY
  5
1985
330
A0
100
AcDbDictionary
280
     1
281
     1
  3
ACAD_XREC_ROUNDTRIP
360
1986
  0
DICTIONARY
  5
1981
330
9E
100
AcDbDictionary
280
     1
281
     1
  3
ACAD_XREC_ROUNDTRIP
360
1982
  0
DICTIONARY
  5
198F
330
A5
100
AcDbDictionary
280
     1
281
     1
  3
ACAD_XREC_ROUNDTRIP
360
1990
  0
DICTIONARY
  5
1997
330
A9
100
AcDbDictionary
280
     1
281
     1
  3
ACAD_XREC_ROUNDTRIP
360
1998
  0
DICTIONARY
  5
1989
330
A2
100
AcDbDictionary
280
     1
281
     1
  3
ACAD_XREC_ROUNDTRIP
360
198A
  0
DICTIONARY
  5
198D
330
A4
100
AcDbDictionary
280
     1
281
     1
  3
ACAD_XREC_ROUNDTRIP
360
198E
  0
DICTIONARY
  5
19AD
330
155
100
AcDbDictionary
280
     1
281
     1
  3
ACAD_XREC_ROUNDTRIP
360
19AE
  0
DICTIONARY
  5
1995
330
A8
100
AcDbDictionary
280
     1
281
     1
  3
ACAD_XREC_ROUNDTRIP
360
1996
  0
DICTIONARY
  5
1979
330
9A
100
AcDbDictionary
280
     1
281
     1
  3
ACAD_XREC_ROUNDTRIP
360
197A
  0
DICTIONARY
  5
197B
330
9B
100
AcDbDictionary
280
     1
281
     1
  3
ACAD_XREC_ROUNDTRIP
360
197C
  0
DICTIONARY
  5
197D
330
9C
100
AcDbDictionary
280
     1
281
     1
  3
ACAD_XREC_ROUNDTRIP
360
197E
  0
DICTIONARY
  5
197F
330
9D
100
AcDbDictionary
280
     1
281
     1
  3
ACAD_XREC_ROUNDTRIP
360
1980
  0
DICTIONARY
  5
199D
330
14D
100
AcDbDictionary
280
     1
281
     1
  3
ACAD_XREC_ROUNDTRIP
360
199E
  0
DICTIONARY
  5
19A9
330
153
100
AcDbDictionary
280
     1
281
     1
  3
ACAD_XREC_ROUNDTRIP
360
19AA
  0
DICTIONARY
  5
1993
330
A7
100
AcDbDictionary
280
     1
281
     1
  3
ACAD_XREC_ROUNDTRIP
360
1994
  0
DICTIONARY
  5
19AB
330
154
100
AcDbDictionary
280
     1
281
     1
  3
ACAD_XREC_ROUNDTRIP
360
19AC
  0
DICTIONARY
  5
198B
330
A3
100
AcDbDictionary
280
     1
281
     1
  3
ACAD_XREC_ROUNDTRIP
360
198C
  0
DICTIONARY
  5
19A7
330
152
100
AcDbDictionary
280
     1
281
     1
  3
ACAD_XREC_ROUNDTRIP
360
19A8
  0
DICTIONARY
  5
19A5
330
151
100
AcDbDictionary
280
     1
281
     1
  3
ACAD_XREC_ROUNDTRIP
360
19A6
  0
DICTIONARY
  5
199F
330
14E
100
AcDbDictionary
280
     1
281
     1
  3
ACAD_XREC_ROUNDTRIP
360
19A0
  0
DICTIONARY
  5
19A1
330
14F
100
AcDbDictionary
280
     1
281
     1
  3
ACAD_XREC_ROUNDTRIP
360
19A2
  0
DICTIONARY
  5
1991
330
A6
100
AcDbDictionary
280
     1
281
     1
  3
ACAD_XREC_ROUNDTRIP
360
1992
  0
DICTIONARY
  5
199B
330
14C
100
AcDbDictionary
280
     1
281
     1
  3
ACAD_XREC_ROUNDTRIP
360
199C
  0
DICTIONARY
  5
19A3
330
150
100
AcDbDictionary
280
     1
281
     1
  3
ACAD_XREC_ROUNDTRIP
360
19A4
  0
XRECORD
  5
196D
102
{ACAD_REACTORS
330
196C
102
}
330
196C
100
AcDbXrecord
280
     1
102
SHADEPLOT
 70
     0
102
SHADEPLOTRESLEVEL
 70
     2
102
SHADEPLOTCUSTOMDPI
 70
   300
  0
XRECORD
  5
196F
102
{ACAD_REACTORS
330
196E
102
}
330
196E
100
AcDbXrecord
280
     1
102
SHADEPLOT
 70
     0
102
SHADEPLOTRESLEVEL
 70
     2
102
SHADEPLOTCUSTOMDPI
 70
   300
  0
XRECORD
  5
1971
102
{ACAD_REACTORS
330
1970
102
}
330
1970
100
AcDbXrecord
280
     1
102
SHADEPLOT
 70
     0
102
SHADEPLOTRESLEVEL
 70
     2
102
SHADEPLOTCUSTOMDPI
 70
   300
  0
XRECORD
  5
1976
102
{ACAD_REACTORS
330
1975
102
}
330
1975
100
AcDbXrecord
280
     1
102
MATERIAL
148
0.0
149
0.0
149
0.0
 93
        0
 94
       63
282
     0
 72
     1
 77
     1
171
     1
175
     1
179
     1
273
     0
  0
XRECORD
  5
1974
102
{ACAD_REACTORS
330
1973
102
}
330
1973
100
AcDbXrecord
280
     1
102
MATERIAL
148
0.0
149
0.0
149
0.0
 93
        0
 94
       63
282
     0
 72
     1
 77
     1
171
     1
175
     1
179
     1
273
     0
  0
XRECORD
  5
1978
102
{ACAD_REACTORS
330
1977
102
}
330
1977
100
AcDbXrecord
280
     1
102
MATERIAL
148
0.0
149
0.0
149
0.0
 93
        0
 94
       63
282
     0
 72
     1
 77
     1
171
     1
175
     1
179
     1
273
     0
  0
CELLSTYLEMAP
  5
1964
102
{ACAD_REACTORS
330
1963
102
}
330
1963
100
AcDbCellStyleMap
 90
        3
300
CELLSTYLE
  1
TABLEFORMAT_BEGIN
 90
        5
170
     1
 91
        0
 92
    32768
 62
   257
 93
        1
300
CONTENTFORMAT
  1
CONTENTFORMAT_BEGIN
 90
        0
 91
        0
 92
      512
 93
        0
300

 40
0.0
140
1.0
 94
        5
 62
     0
340
11
144
0.25
309
CONTENTFORMAT_END
171
     0
 94
        6
 95
        1
302
GRIDFORMAT
  1
GRIDFORMAT_BEGIN
 90
        0
 91
        1
 62
     0
 92
       -2
340
0
 93
        0
 40
0.045
309
GRIDFORMAT_END
 95
        2
302
GRIDFORMAT
  1
GRIDFORMAT_BEGIN
 90
        0
 91
        1
 62
     0
 92
       -2
340
0
 93
        0
 40
0.045
309
GRIDFORMAT_END
 95
        4
302
GRIDFORMAT
  1
GRIDFORMAT_BEGIN
 90
        0
 91
        1
 62
     0
 92
       -2
340
0
 93
        0
 40
0.045
309
GRIDFORMAT_END
 95
        8
302
GRIDFORMAT
  1
GRIDFORMAT_BEGIN
 90
        0
 91
        1
 62
     0
 92
       -2
340
0
 93
        0
 40
0.045
309
GRIDFORMAT_END
 95
       16
302
GRIDFORMAT
  1
GRIDFORMAT_BEGIN
 90
        0
 91
        1
 62
     0
 92
       -2
340
0
 93
        0
 40
0.045
309
GRIDFORMAT_END
 95
       32
302
GRIDFORMAT
  1
GRIDFORMAT_BEGIN
 90
        0
 91
        1
 62
     0
 92
       -2
340
0
 93
        0
 40
0.045
309
GRIDFORMAT_END
309
TABLEFORMAT_END
  1
CELLSTYLE_BEGIN
 90
        1
 91
        1
300
_TITLE
309
CELLSTYLE_END
300
CELLSTYLE
  1
TABLEFORMAT_BEGIN
 90
        5
170
     1
 91
        0
 92
        0
 62
   257
 93
        1
300
CONTENTFORMAT
  1
CONTENTFORMAT_BEGIN
 90
        0
 91
        0
 92
      512
 93
        0
300

 40
0.0
140
1.0
 94
        5
 62
     0
340
11
144
0.18
309
CONTENTFORMAT_END
171
     0
 94
        6
 95
        1
302
GRIDFORMAT
  1
GRIDFORMAT_BEGIN
 90
        0
 91
        1
 62
     0
 92
       -2
340
0
 93
        0
 40
0.045
309
GRIDFORMAT_END
 95
        2
302
GRIDFORMAT
  1
GRIDFORMAT_BEGIN
 90
        0
 91
        1
 62
     0
 92
       -2
340
0
 93
        0
 40
0.045
309
GRIDFORMAT_END
 95
        4
302
GRIDFORMAT
  1
GRIDFORMAT_BEGIN
 90
        0
 91
        1
 62
     0
 92
       -2
340
0
 93
        0
 40
0.045
309
GRIDFORMAT_END
 95
        8
302
GRIDFORMAT
  1
GRIDFORMAT_BEGIN
 90
        0
 91
        1
 62
     0
 92
       -2
340
0
 93
        0
 40
0.045
309
GRIDFORMAT_END
 95
       16
302
GRIDFORMAT
  1
GRIDFORMAT_BEGIN
 90
        0
 91
        1
 62
     0
 92
       -2
340
0
 93
        0
 40
0.045
309
GRIDFORMAT_END
 95
       32
302
GRIDFORMAT
  1
GRIDFORMAT_BEGIN
 90
        0
 91
        1
 62
     0
 92
       -2
340
0
 93
        0
 40
0.045
309
GRIDFORMAT_END
309
TABLEFORMAT_END
  1
CELLSTYLE_BEGIN
 90
        2
 91
        1
300
_HEADER
309
CELLSTYLE_END
300
CELLSTYLE
  1
TABLEFORMAT_BEGIN
 90
        5
170
     1
 91
        0
 92
        0
 62
   257
 93
        1
300
CONTENTFORMAT
  1
CONTENTFORMAT_BEGIN
 90
        0
 91
        0
 92
      512
 93
        0
300

 40
0.0
140
1.0
 94
        2
 62
     0
340
11
144
0.18
309
CONTENTFORMAT_END
171
     0
 94
        6
 95
        1
302
GRIDFORMAT
  1
GRIDFORMAT_BEGIN
 90
        0
 91
        1
 62
     0
 92
       -2
340
0
 93
        0
 40
0.045
309
GRIDFORMAT_END
 95
        2
302
GRIDFORMAT
  1
GRIDFORMAT_BEGIN
 90
        0
 91
        1
 62
     0
 92
       -2
340
0
 93
        0
 40
0.045
309
GRIDFORMAT_END
 95
        4
302
GRIDFORMAT
  1
GRIDFORMAT_BEGIN
 90
        0
 91
        1
 62
     0
 92
       -2
340
0
 93
        0
 40
0.045
309
GRIDFORMAT_END
 95
        8
302
GRIDFORMAT
  1
GRIDFORMAT_BEGIN
 90
        0
 91
        1
 62
     0
 92
       -2
340
0
 93
        0
 40
0.045
309
GRIDFORMAT_END
 95
       16
302
GRIDFORMAT
  1
GRIDFORMAT_BEGIN
 90
        0
 91
        1
 62
     0
 92
       -2
340
0
 93
        0
 40
0.045
309
GRIDFORMAT_END
 95
       32
302
GRIDFORMAT
  1
GRIDFORMAT_BEGIN
 90
        0
 91
        1
 62
     0
 92
       -2
340
0
 93
        0
 40
0.045
309
GRIDFORMAT_END
309
TABLEFORMAT_END
  1
CELLSTYLE_BEGIN
 90
        3
 91
        2
300
_DATA
309
CELLSTYLE_END
  0
XRECORD
  5
1972
102
{ACAD_REACTORS
330
1963
102
}
330
1963
100
AcDbXrecord
280
     1
102
ACAD_ROUNDTRIP_PRE2007_TABLESTYLE
 90
      512
 91
        0
  1

 92
      512
 93
        0
  2

 94
      512
 95
        0
  3

  0
CELLSTYLEMAP
  5
1965
102
{ACAD_REACTORS
330
D98
102
}
330
D98
100
AcDbCellStyleMap
 90
        3
300
CELLSTYLE
  1
TABLEFORMAT_BEGIN
 90
        5
170
     1
 91
        0
 92
    32768
 62
   257
 93
        1
300
CONTENTFORMAT
  1
CONTENTFORMAT_BEGIN
 90
        0
 91
        0
 92
      512
 93
        0
300

 40
0.0
140
1.0
 94
        8
 62
     3
340
11D
144
0.25
309
CONTENTFORMAT_END
171
     1
301
MARGIN
  1
CELLMARGIN_BEGIN
 40
0.5
 40
10.0
 40
0.06
 40
0.06
 40
0.18
 40
0.18
309
CELLMARGIN_END
 94
        6
 95
        1
302
GRIDFORMAT
  1
GRIDFORMAT_BEGIN
 90
        0
 91
        1
 62
     0
 92
       -2
340
0
 93
        0
 40
0.045
309
GRIDFORMAT_END
 95
        2
302
GRIDFORMAT
  1
GRIDFORMAT_BEGIN
 90
        0
 91
        1
 62
     0
 92
       -2
340
0
 93
        0
 40
0.045
309
GRIDFORMAT_END
 95
        4
302
GRIDFORMAT
  1
GRIDFORMAT_BEGIN
 90
        0
 91
        1
 62
     0
 92
       -2
340
0
 93
        0
 40
0.045
309
GRIDFORMAT_END
 95
        8
302
GRIDFORMAT
  1
GRIDFORMAT_BEGIN
 90
        0
 91
        1
 62
     0
 92
       -2
340
0
 93
        0
 40
0.045
309
GRIDFORMAT_END
 95
       16
302
GRIDFORMAT
  1
GRIDFORMAT_BEGIN
 90
        0
 91
        1
 62
     0
 92
       -2
340
0
 93
        0
 40
0.045
309
GRIDFORMAT_END
 95
       32
302
GRIDFORMAT
  1
GRIDFORMAT_BEGIN
 90
        0
 91
        1
 62
     0
 92
       -2
340
0
 93
        0
 40
0.045
309
GRIDFORMAT_END
309
TABLEFORMAT_END
  1
CELLSTYLE_BEGIN
 90
        1
 91
        1
300
_TITLE
309
CELLSTYLE_END
300
CELLSTYLE
  1
TABLEFORMAT_BEGIN
 90
        5
170
     1
 91
        0
 92
        0
 62
   257
 93
        1
300
CONTENTFORMAT
  1
CONTENTFORMAT_BEGIN
 90
        0
 91
        0
 92
      512
 93
        0
300

 40
0.0
140
1.0
 94
        7
 62
     3
340
11D
144
0.18
309
CONTENTFORMAT_END
171
     1
301
MARGIN
  1
CELLMARGIN_BEGIN
 40
0.5
 40
1.5
 40
0.06
 40
0.06
 40
0.18
 40
0.18
309
CELLMARGIN_END
 94
        6
 95
        1
302
GRIDFORMAT
  1
GRIDFORMAT_BEGIN
 90
        0
 91
        1
 62
     3
 92
       -2
340
14
 93
        0
 40
0.045
309
GRIDFORMAT_END
 95
        2
302
GRIDFORMAT
  1
GRIDFORMAT_BEGIN
 90
        0
 91
        1
 62
     7
 92
       -2
340
14
 93
        0
 40
0.045
309
GRIDFORMAT_END
 95
        4
302
GRIDFORMAT
  1
GRIDFORMAT_BEGIN
 90
        0
 91
        1
 62
     3
 92
       -2
340
14
 93
        0
 40
0.045
309
GRIDFORMAT_END
 95
        8
302
GRIDFORMAT
  1
GRIDFORMAT_BEGIN
 90
        0
 91
        1
 62
     3
 92
       -2
340
14
 93
        0
 40
0.045
309
GRIDFORMAT_END
 95
       16
302
GRIDFORMAT
  1
GRIDFORMAT_BEGIN
 90
        0
 91
        1
 62
     7
 92
       -2
340
14
 93
        0
 40
0.045
309
GRIDFORMAT_END
 95
       32
302
GRIDFORMAT
  1
GRIDFORMAT_BEGIN
 90
        0
 91
        1
 62
     3
 92
       -2
340
14
 93
        0
 40
0.045
309
GRIDFORMAT_END
309
TABLEFORMAT_END
  1
CELLSTYLE_BEGIN
 90
        2
 91
        1
300
_HEADER
309
CELLSTYLE_END
300
CELLSTYLE
  1
TABLEFORMAT_BEGIN
 90
        5
170
     1
 91
        0
 92
        0
 62
   257
 93
        1
300
CONTENTFORMAT
  1
CONTENTFORMAT_BEGIN
 90
        0
 91
        0
 92
      512
 93
        0
300

 40
0.0
140
1.0
 94
        7
 62
     3
340
11D
144
0.18
309
CONTENTFORMAT_END
171
     1
301
MARGIN
  1
CELLMARGIN_BEGIN
 40
0.5
 40
1.5
 40
0.06
 40
0.06
 40
0.18
 40
0.18
309
CELLMARGIN_END
 94
        6
 95
        1
302
GRIDFORMAT
  1
GRIDFORMAT_BEGIN
 90
        0
 91
        1
 62
     3
 92
       -2
340
14
 93
        0
 40
0.045
309
GRIDFORMAT_END
 95
        2
302
GRIDFORMAT
  1
GRIDFORMAT_BEGIN
 90
        0
 91
        1
 62
     7
 92
       -2
340
14
 93
        0
 40
0.045
309
GRIDFORMAT_END
 95
        4
302
GRIDFORMAT
  1
GRIDFORMAT_BEGIN
 90
        0
 91
        1
 62
     3
 92
       -2
340
14
 93
        0
 40
0.045
309
GRIDFORMAT_END
 95
        8
302
GRIDFORMAT
  1
GRIDFORMAT_BEGIN
 90
        0
 91
        1
 62
     3
 92
       -2
340
14
 93
        0
 40
0.045
309
GRIDFORMAT_END
 95
       16
302
GRIDFORMAT
  1
GRIDFORMAT_BEGIN
 90
        0
 91
        1
 62
     7
 92
       -2
340
14
 93
        0
 40
0.045
309
GRIDFORMAT_END
 95
       32
302
GRIDFORMAT
  1
GRIDFORMAT_BEGIN
 90
        0
 91
        1
 62
     3
 92
       -2
340
14
 93
        0
 40
0.045
309
GRIDFORMAT_END
309
TABLEFORMAT_END
  1
CELLSTYLE_BEGIN
 90
        3
 91
        2
300
_DATA
309
CELLSTYLE_END
  0
XRECORD
  5
19B0
102
{ACAD_REACTORS
330
D98
102
}
330
D98
100
AcDbXrecord
280
     1
102
ACAD_ROUNDTRIP_PRE2007_TABLESTYLE
 90
      512
 91
        0
  1

 92
      512
 93
        0
  2

 94
      512
 95
        0
  3

  0
XRECORD
  5
1984
102
{ACAD_REACTORS
330
1983
102
}
330
1983
100
AcDbXrecord
280
     1
102
RTVSPropertyOp0
 70
     1
102
RTVSPropertyOp1
 70
     1
102
RTVSPropertyOp2
 70
     1
102
RTVSPropertyOp3
 70
     1
102
RTVSPropertyOp4
 70
     1
102
RTVSPropertyOp5
 70
     1
102
RTVSPropertyOp6
 70
     1
102
RTVSPropertyOp7
 70
     1
102
RTVSPropertyOp8
 70
     1
102
RTVSPropertyOp9
 70
     1
102
RTVSPropertyOp10
 70
     1
102
RTVSPropertyOp11
 70
     1
102
RTVSPropertyOp12
 70
     1
102
RTVSPropertyOp13
 70
     1
102
RTVSPropertyOp14
 70
     1
102
RTVSPropertyOp15
 70
     1
102
RTVSPropertyOp16
 70
     1
102
RTVSPropertyOp17
 70
     1
102
RTVSPropertyOp18
 70
     1
102
RTVSPropertyOp19
 70
     1
102
RTVSPropertyOp20
 70
     1
102
RTVSPropertyOp21
 70
     1
102
RTVSPropertyOp22
 70
     1
102
RTVSPropertyOp23
 70
     1
102
RTVSPropertyOp24
 70
     1
102
RTVSPropertyOp25
 70
     1
102
RTVSPropertyOp26
 70
     1
102
RTVSPropertyOp27
 70
     1
102
RTVSPropertyOp28
 70
     1
102
RTVSPropertyOp29
 70
     1
102
RTVSPropertyOp30
 70
     1
102
RTVSPropertyOp31
 70
     1
102
RTVSPropertyOp32
 70
     1
  0
XRECORD
  5
1988
102
{ACAD_REACTORS
330
1987
102
}
330
1987
100
AcDbXrecord
280
     1
102
RTVSPropertyOp0
 70
     1
102
RTVSPropertyOp1
 70
     1
102
RTVSPropertyOp2
 70
     1
102
RTVSPropertyOp3
 70
     1
102
RTVSPropertyOp4
 70
     1
102
RTVSPropertyOp5
 70
     1
102
RTVSPropertyOp6
 70
     1
102
RTVSPropertyOp7
 70
     1
102
RTVSPropertyOp8
 70
     1
102
RTVSPropertyOp9
 70
     1
102
RTVSPropertyOp10
 70
     1
102
RTVSPropertyOp11
 70
     1
102
RTVSPropertyOp12
 70
     1
102
RTVSPropertyOp13
 70
     1
102
RTVSPropertyOp14
 70
     1
102
RTVSPropertyOp15
 70
     1
102
RTVSPropertyOp16
 70
     1
102
RTVSPropertyOp17
 70
     1
102
RTVSPropertyOp18
 70
     1
102
RTVSPropertyOp19
 70
     1
102
RTVSPropertyOp20
 70
     1
102
RTVSPropertyOp21
 70
     1
102
RTVSPropertyOp22
 70
     1
102
RTVSPropertyOp23
 70
     1
102
RTVSPropertyOp24
 70
     1
102
RTVSPropertyOp25
 70
     1
102
RTVSPropertyOp26
 70
     1
102
RTVSPropertyOp27
 70
     1
102
RTVSPropertyOp28
 70
     1
102
RTVSPropertyOp29
 70
     1
102
RTVSPropertyOp30
 70
     1
102
RTVSPropertyOp31
 70
     1
102
RTVSPropertyOp32
 70
     1
  0
XRECORD
  5
1986
102
{ACAD_REACTORS
330
1985
102
}
330
1985
100
AcDbXrecord
280
     1
102
RTVSPropertyOp0
 70
     1
102
RTVSPropertyOp1
 70
     1
102
RTVSPropertyOp2
 70
     1
102
RTVSPropertyOp3
 70
     1
102
RTVSPropertyOp4
 70
     1
102
RTVSPropertyOp5
 70
     1
102
RTVSPropertyOp6
 70
     1
102
RTVSPropertyOp7
 70
     1
102
RTVSPropertyOp8
 70
     1
102
RTVSPropertyOp9
 70
     1
102
RTVSPropertyOp10
 70
     1
102
RTVSPropertyOp11
 70
     1
102
RTVSPropertyOp12
 70
     1
102
RTVSPropertyOp13
 70
     1
102
RTVSPropertyOp14
 70
     1
102
RTVSPropertyOp15
 70
     1
102
RTVSPropertyOp16
 70
     1
102
RTVSPropertyOp17
 70
     1
102
RTVSPropertyOp18
 70
     1
102
RTVSPropertyOp19
 70
     1
102
RTVSPropertyOp20
 70
     1
102
RTVSPropertyOp21
 70
     1
102
RTVSPropertyOp22
 70
     1
102
RTVSPropertyOp23
 70
     1
102
RTVSPropertyOp24
 70
     1
102
RTVSPropertyOp25
 70
     1
102
RTVSPropertyOp26
 70
     1
102
RTVSPropertyOp27
 70
     1
102
RTVSPropertyOp28
 70
     1
102
RTVSPropertyOp29
 70
     1
102
RTVSPropertyOp30
 70
     1
102
RTVSPropertyOp31
 70
     1
102
RTVSPropertyOp32
 70
     1
  0
XRECORD
  5
1982
102
{ACAD_REACTORS
330
1981
102
}
330
1981
100
AcDbXrecord
280
     1
102
RTVSPropertyOp0
 70
     1
102
RTVSPropertyOp1
 70
     1
102
RTVSPropertyOp2
 70
     1
102
RTVSPropertyOp3
 70
     1
102
RTVSPropertyOp4
 70
     1
102
RTVSPropertyOp5
 70
     1
102
RTVSPropertyOp6
 70
     1
102
RTVSPropertyOp7
 70
     1
102
RTVSPropertyOp8
 70
     1
102
RTVSPropertyOp9
 70
     1
102
RTVSPropertyOp10
 70
     1
102
RTVSPropertyOp11
 70
     1
102
RTVSPropertyOp12
 70
     1
102
RTVSPropertyOp13
 70
     1
102
RTVSPropertyOp14
 70
     1
102
RTVSPropertyOp15
 70
     1
102
RTVSPropertyOp16
 70
     1
102
RTVSPropertyOp17
 70
     1
102
RTVSPropertyOp18
 70
     1
102
RTVSPropertyOp19
 70
     1
102
RTVSPropertyOp20
 70
     1
102
RTVSPropertyOp21
 70
     1
102
RTVSPropertyOp22
 70
     1
102
RTVSPropertyOp23
 70
     1
102
RTVSPropertyOp24
 70
     1
102
RTVSPropertyOp25
 70
     1
102
RTVSPropertyOp26
 70
     1
102
RTVSPropertyOp27
 70
     1
102
RTVSPropertyOp28
 70
     1
102
RTVSPropertyOp29
 70
     1
102
RTVSPropertyOp30
 70
     1
102
RTVSPropertyOp31
 70
     1
102
RTVSPropertyOp32
 70
     1
  0
XRECORD
  5
1990
102
{ACAD_REACTORS
330
198F
102
}
330
198F
100
AcDbXrecord
280
     1
102
RTVSPropertyOp0
 70
     1
102
RTVSPropertyOp1
 70
     1
102
RTVSPropertyOp2
 70
     1
102
RTVSPropertyOp3
 70
     1
102
RTVSPropertyOp4
 70
     1
102
RTVSPropertyOp5
 70
     1
102
RTVSPropertyOp6
 70
     1
102
RTVSPropertyOp7
 70
     1
102
RTVSPropertyOp8
 70
     1
102
RTVSPropertyOp9
 70
     1
102
RTVSPropertyOp10
 70
     1
102
RTVSPropertyOp11
 70
     1
102
RTVSPropertyOp12
 70
     1
102
RTVSPropertyOp13
 70
     1
102
RTVSPropertyOp14
 70
     1
102
RTVSPropertyOp15
 70
     1
102
RTVSPropertyOp16
 70
     1
102
RTVSPropertyOp17
 70
     1
102
RTVSPropertyOp18
 70
     1
102
RTVSPropertyOp19
 70
     1
102
RTVSPropertyOp20
 70
     1
102
RTVSPropertyOp21
 70
     1
102
RTVSPropertyOp22
 70
     1
102
RTVSPropertyOp23
 70
     1
102
RTVSPropertyOp24
 70
     1
102
RTVSPropertyOp25
 70
     1
102
RTVSPropertyOp26
 70
     1
102
RTVSPropertyOp27
 70
     1
102
RTVSPropertyOp28
 70
     1
102
RTVSPropertyOp29
 70
     1
102
RTVSPropertyOp30
 70
     1
102
RTVSPropertyOp31
 70
     1
102
RTVSPropertyOp32
 70
     1
  0
XRECORD
  5
1998
102
{ACAD_REACTORS
330
1997
102
}
330
1997
100
AcDbXrecord
280
     1
102
RTVSPropertyOp0
 70
     1
102
RTVSPropertyOp1
 70
     1
102
RTVSPropertyOp2
 70
     1
102
RTVSPropertyOp3
 70
     1
102
RTVSPropertyOp4
 70
     1
102
RTVSPropertyOp5
 70
     1
102
RTVSPropertyOp6
 70
     1
102
RTVSPropertyOp7
 70
     1
102
RTVSPropertyOp8
 70
     1
102
RTVSPropertyOp9
 70
     1
102
RTVSPropertyOp10
 70
     1
102
RTVSPropertyOp11
 70
     1
102
RTVSPropertyOp12
 70
     1
102
RTVSPropertyOp13
 70
     1
102
RTVSPropertyOp14
 70
     1
102
RTVSPropertyOp15
 70
     1
102
RTVSPropertyOp16
 70
     1
102
RTVSPropertyOp17
 70
     1
102
RTVSPropertyOp18
 70
     1
102
RTVSPropertyOp19
 70
     1
102
RTVSPropertyOp20
 70
     1
102
RTVSPropertyOp21
 70
     1
102
RTVSPropertyOp22
 70
     1
102
RTVSPropertyOp23
 70
     1
102
RTVSPropertyOp24
 70
     1
102
RTVSPropertyOp25
 70
     1
102
RTVSPropertyOp26
 70
     1
102
RTVSPropertyOp27
 70
     1
102
RTVSPropertyOp28
 70
     1
102
RTVSPropertyOp29
 70
     1
102
RTVSPropertyOp30
 70
     1
102
RTVSPropertyOp31
 70
     1
102
RTVSPropertyOp32
 70
     1
  0
XRECORD
  5
198A
102
{ACAD_REACTORS
330
1989
102
}
330
1989
100
AcDbXrecord
280
     1
102
RTVSPropertyOp0
 70
     1
102
RTVSPropertyOp1
 70
     1
102
RTVSPropertyOp2
 70
     1
102
RTVSPropertyOp3
 70
     1
102
RTVSPropertyOp4
 70
     1
102
RTVSPropertyOp5
 70
     1
102
RTVSPropertyOp6
 70
     1
102
RTVSPropertyOp7
 70
     1
102
RTVSPropertyOp8
 70
     1
102
RTVSPropertyOp9
 70
     1
102
RTVSPropertyOp10
 70
     1
102
RTVSPropertyOp11
 70
     1
102
RTVSPropertyOp12
 70
     1
102
RTVSPropertyOp13
 70
     1
102
RTVSPropertyOp14
 70
     1
102
RTVSPropertyOp15
 70
     1
102
RTVSPropertyOp16
 70
     1
102
RTVSPropertyOp17
 70
     1
102
RTVSPropertyOp18
 70
     1
102
RTVSPropertyOp19
 70
     1
102
RTVSPropertyOp20
 70
     1
102
RTVSPropertyOp21
 70
     1
102
RTVSPropertyOp22
 70
     1
102
RTVSPropertyOp23
 70
     1
102
RTVSPropertyOp24
 70
     1
102
RTVSPropertyOp25
 70
     1
102
RTVSPropertyOp26
 70
     1
102
RTVSPropertyOp27
 70
     1
102
RTVSPropertyOp28
 70
     1
102
RTVSPropertyOp29
 70
     1
102
RTVSPropertyOp30
 70
     1
102
RTVSPropertyOp31
 70
     1
102
RTVSPropertyOp32
 70
     1
  0
XRECORD
  5
198E
102
{ACAD_REACTORS
330
198D
102
}
330
198D
100
AcDbXrecord
280
     1
102
RTVSPropertyOp0
 70
     1
102
RTVSPropertyOp1
 70
     1
102
RTVSPropertyOp2
 70
     1
102
RTVSPropertyOp3
 70
     1
102
RTVSPropertyOp4
 70
     1
102
RTVSPropertyOp5
 70
     1
102
RTVSPropertyOp6
 70
     1
102
RTVSPropertyOp7
 70
     1
102
RTVSPropertyOp8
 70
     1
102
RTVSPropertyOp9
 70
     1
102
RTVSPropertyOp10
 70
     1
102
RTVSPropertyOp11
 70
     1
102
RTVSPropertyOp12
 70
     1
102
RTVSPropertyOp13
 70
     1
102
RTVSPropertyOp14
 70
     1
102
RTVSPropertyOp15
 70
     1
102
RTVSPropertyOp16
 70
     1
102
RTVSPropertyOp17
 70
     1
102
RTVSPropertyOp18
 70
     1
102
RTVSPropertyOp19
 70
     1
102
RTVSPropertyOp20
 70
     1
102
RTVSPropertyOp21
 70
     1
102
RTVSPropertyOp22
 70
     1
102
RTVSPropertyOp23
 70
     1
102
RTVSPropertyOp24
 70
     1
102
RTVSPropertyOp25
 70
     1
102
RTVSPropertyOp26
 70
     1
102
RTVSPropertyOp27
 70
     1
102
RTVSPropertyOp28
 70
     1
102
RTVSPropertyOp29
 70
     1
102
RTVSPropertyOp30
 70
     1
102
RTVSPropertyOp31
 70
     1
102
RTVSPropertyOp32
 70
     1
  0
XRECORD
  5
19AE
102
{ACAD_REACTORS
330
19AD
102
}
330
19AD
100
AcDbXrecord
280
     1
102
RTVSPropertyOp0
 70
     0
102
RTVSPropertyOp1
 70
     0
102
RTVSPropertyOp2
 70
     0
102
RTVSPropertyOp3
 70
     0
102
RTVSPropertyOp4
 70
     0
102
RTVSPropertyOp5
 70
     0
102
RTVSPropertyOp6
 70
     0
102
RTVSPropertyOp7
 70
     0
102
RTVSPropertyOp8
 70
     0
102
RTVSPropertyOp9
 70
     0
102
RTVSPropertyOp10
 70
     0
102
RTVSPropertyOp11
 70
     0
102
RTVSPropertyOp12
 70
     0
102
RTVSPropertyOp13
 70
     0
102
RTVSPropertyOp14
 70
     2
102
RTVSPropertyOp15
 70
     0
102
RTVSPropertyOp16
 70
     0
102
RTVSPropertyOp17
 70
     0
102
RTVSPropertyOp18
 70
     0
102
RTVSPropertyOp19
 70
     0
102
RTVSPropertyOp20
 70
     0
102
RTVSPropertyOp21
 70
     0
102
RTVSPropertyOp22
 70
     0
102
RTVSPropertyOp23
 70
     0
102
RTVSPropertyOp24
 70
     0
102
RTVSPropertyOp25
 70
     0
102
RTVSPropertyOp26
 70
     0
102
RTVSPropertyOp27
 70
     0
102
RTVSPropertyOp28
 70
     1
102
RTVSPropertyOp29
 70
     1
102
RTVSPropertyOp30
 70
     1
102
RTVSPropertyOp31
 70
     1
102
RTVSPropertyOp32
 70
     1
  0
XRECORD
  5
1996
102
{ACAD_REACTORS
330
1995
102
}
330
1995
100
AcDbXrecord
280
     1
102
RTVSPropertyOp0
 70
     1
102
RTVSPropertyOp1
 70
     1
102
RTVSPropertyOp2
 70
     1
102
RTVSPropertyOp3
 70
     1
102
RTVSPropertyOp4
 70
     1
102
RTVSPropertyOp5
 70
     1
102
RTVSPropertyOp6
 70
     1
102
RTVSPropertyOp7
 70
     1
102
RTVSPropertyOp8
 70
     1
102
RTVSPropertyOp9
 70
     1
102
RTVSPropertyOp10
 70
     1
102
RTVSPropertyOp11
 70
     1
102
RTVSPropertyOp12
 70
     1
102
RTVSPropertyOp13
 70
     1
102
RTVSPropertyOp14
 70
     1
102
RTVSPropertyOp15
 70
     1
102
RTVSPropertyOp16
 70
     1
102
RTVSPropertyOp17
 70
     1
102
RTVSPropertyOp18
 70
     1
102
RTVSPropertyOp19
 70
     1
102
RTVSPropertyOp20
 70
     1
102
RTVSPropertyOp21
 70
     1
102
RTVSPropertyOp22
 70
     1
102
RTVSPropertyOp23
 70
     1
102
RTVSPropertyOp24
 70
     1
102
RTVSPropertyOp25
 70
     1
102
RTVSPropertyOp26
 70
     1
102
RTVSPropertyOp27
 70
     1
102
RTVSPropertyOp28
 70
     1
102
RTVSPropertyOp29
 70
     1
102
RTVSPropertyOp30
 70
     1
102
RTVSPropertyOp31
 70
     1
102
RTVSPropertyOp32
 70
     1
  0
XRECORD
  5
197A
102
{ACAD_REACTORS
330
1979
102
}
330
1979
100
AcDbXrecord
280
     1
102
RTVSPropertyOp0
 70
     1
102
RTVSPropertyOp1
 70
     1
102
RTVSPropertyOp2
 70
     1
102
RTVSPropertyOp3
 70
     1
102
RTVSPropertyOp4
 70
     1
102
RTVSPropertyOp5
 70
     1
102
RTVSPropertyOp6
 70
     1
102
RTVSPropertyOp7
 70
     1
102
RTVSPropertyOp8
 70
     1
102
RTVSPropertyOp9
 70
     1
102
RTVSPropertyOp10
 70
     1
102
RTVSPropertyOp11
 70
     1
102
RTVSPropertyOp12
 70
     1
102
RTVSPropertyOp13
 70
     1
102
RTVSPropertyOp14
 70
     1
102
RTVSPropertyOp15
 70
     1
102
RTVSPropertyOp16
 70
     1
102
RTVSPropertyOp17
 70
     1
102
RTVSPropertyOp18
 70
     1
102
RTVSPropertyOp19
 70
     1
102
RTVSPropertyOp20
 70
     1
102
RTVSPropertyOp21
 70
     1
102
RTVSPropertyOp22
 70
     1
102
RTVSPropertyOp23
 70
     1
102
RTVSPropertyOp24
 70
     1
102
RTVSPropertyOp25
 70
     1
102
RTVSPropertyOp26
 70
     1
102
RTVSPropertyOp27
 70
     1
102
RTVSPropertyOp28
 70
     1
102
RTVSPropertyOp29
 70
     1
102
RTVSPropertyOp30
 70
     1
102
RTVSPropertyOp31
 70
     1
102
RTVSPropertyOp32
 70
     1
  0
XRECORD
  5
197C
102
{ACAD_REACTORS
330
197B
102
}
330
197B
100
AcDbXrecord
280
     1
102
RTVSPropertyOp0
 70
     1
102
RTVSPropertyOp1
 70
     1
102
RTVSPropertyOp2
 70
     1
102
RTVSPropertyOp3
 70
     1
102
RTVSPropertyOp4
 70
     1
102
RTVSPropertyOp5
 70
     1
102
RTVSPropertyOp6
 70
     1
102
RTVSPropertyOp7
 70
     1
102
RTVSPropertyOp8
 70
     1
102
RTVSPropertyOp9
 70
     1
102
RTVSPropertyOp10
 70
     1
102
RTVSPropertyOp11
 70
     1
102
RTVSPropertyOp12
 70
     1
102
RTVSPropertyOp13
 70
     1
102
RTVSPropertyOp14
 70
     1
102
RTVSPropertyOp15
 70
     1
102
RTVSPropertyOp16
 70
     1
102
RTVSPropertyOp17
 70
     1
102
RTVSPropertyOp18
 70
     1
102
RTVSPropertyOp19
 70
     1
102
RTVSPropertyOp20
 70
     1
102
RTVSPropertyOp21
 70
     1
102
RTVSPropertyOp22
 70
     1
102
RTVSPropertyOp23
 70
     1
102
RTVSPropertyOp24
 70
     1
102
RTVSPropertyOp25
 70
     1
102
RTVSPropertyOp26
 70
     1
102
RTVSPropertyOp27
 70
     1
102
RTVSPropertyOp28
 70
     1
102
RTVSPropertyOp29
 70
     1
102
RTVSPropertyOp30
 70
     1
102
RTVSPropertyOp31
 70
     1
102
RTVSPropertyOp32
 70
     1
  0
XRECORD
  5
197E
102
{ACAD_REACTORS
330
197D
102
}
330
197D
100
AcDbXrecord
280
     1
102
RTVSPropertyOp0
 70
     1
102
RTVSPropertyOp1
 70
     1
102
RTVSPropertyOp2
 70
     1
102
RTVSPropertyOp3
 70
     1
102
RTVSPropertyOp4
 70
     1
102
RTVSPropertyOp5
 70
     1
102
RTVSPropertyOp6
 70
     1
102
RTVSPropertyOp7
 70
     1
102
RTVSPropertyOp8
 70
     1
102
RTVSPropertyOp9
 70
     1
102
RTVSPropertyOp10
 70
     1
102
RTVSPropertyOp11
 70
     1
102
RTVSPropertyOp12
 70
     1
102
RTVSPropertyOp13
 70
     1
102
RTVSPropertyOp14
 70
     1
102
RTVSPropertyOp15
 70
     1
102
RTVSPropertyOp16
 70
     1
102
RTVSPropertyOp17
 70
     1
102
RTVSPropertyOp18
 70
     1
102
RTVSPropertyOp19
 70
     1
102
RTVSPropertyOp20
 70
     1
102
RTVSPropertyOp21
 70
     1
102
RTVSPropertyOp22
 70
     1
102
RTVSPropertyOp23
 70
     1
102
RTVSPropertyOp24
 70
     1
102
RTVSPropertyOp25
 70
     1
102
RTVSPropertyOp26
 70
     1
102
RTVSPropertyOp27
 70
     1
102
RTVSPropertyOp28
 70
     1
102
RTVSPropertyOp29
 70
     1
102
RTVSPropertyOp30
 70
     1
102
RTVSPropertyOp31
 70
     1
102
RTVSPropertyOp32
 70
     1
  0
XRECORD
  5
1980
102
{ACAD_REACTORS
330
197F
102
}
330
197F
100
AcDbXrecord
280
     1
102
RTVSPropertyOp0
 70
     1
102
RTVSPropertyOp1
 70
     1
102
RTVSPropertyOp2
 70
     1
102
RTVSPropertyOp3
 70
     1
102
RTVSPropertyOp4
 70
     1
102
RTVSPropertyOp5
 70
     1
102
RTVSPropertyOp6
 70
     1
102
RTVSPropertyOp7
 70
     1
102
RTVSPropertyOp8
 70
     1
102
RTVSPropertyOp9
 70
     1
102
RTVSPropertyOp10
 70
     1
102
RTVSPropertyOp11
 70
     1
102
RTVSPropertyOp12
 70
     1
102
RTVSPropertyOp13
 70
     1
102
RTVSPropertyOp14
 70
     1
102
RTVSPropertyOp15
 70
     1
102
RTVSPropertyOp16
 70
     1
102
RTVSPropertyOp17
 70
     1
102
RTVSPropertyOp18
 70
     1
102
RTVSPropertyOp19
 70
     1
102
RTVSPropertyOp20
 70
     1
102
RTVSPropertyOp21
 70
     1
102
RTVSPropertyOp22
 70
     1
102
RTVSPropertyOp23
 70
     1
102
RTVSPropertyOp24
 70
     1
102
RTVSPropertyOp25
 70
     1
102
RTVSPropertyOp26
 70
     1
102
RTVSPropertyOp27
 70
     1
102
RTVSPropertyOp28
 70
     1
102
RTVSPropertyOp29
 70
     1
102
RTVSPropertyOp30
 70
     1
102
RTVSPropertyOp31
 70
     1
102
RTVSPropertyOp32
 70
     1
  0
XRECORD
  5
199E
102
{ACAD_REACTORS
330
199D
102
}
330
199D
100
AcDbXrecord
280
     1
102
RTVSPropertyOp0
 70
     1
102
RTVSPropertyOp1
 70
     1
102
RTVSPropertyOp2
 70
     1
102
RTVSPropertyOp3
 70
     1
102
RTVSPropertyOp4
 70
     1
102
RTVSPropertyOp5
 70
     1
102
RTVSPropertyOp6
 70
     1
102
RTVSPropertyOp7
 70
     1
102
RTVSPropertyOp8
 70
     1
102
RTVSPropertyOp9
 70
     1
102
RTVSPropertyOp10
 70
     1
102
RTVSPropertyOp11
 70
     1
102
RTVSPropertyOp12
 70
     1
102
RTVSPropertyOp13
 70
     1
102
RTVSPropertyOp14
 70
     1
102
RTVSPropertyOp15
 70
     1
102
RTVSPropertyOp16
 70
     1
102
RTVSPropertyOp17
 70
     1
102
RTVSPropertyOp18
 70
     1
102
RTVSPropertyOp19
 70
     1
102
RTVSPropertyOp20
 70
     1
102
RTVSPropertyOp21
 70
     1
102
RTVSPropertyOp22
 70
     1
102
RTVSPropertyOp23
 70
     1
102
RTVSPropertyOp24
 70
     1
102
RTVSPropertyOp25
 70
     1
102
RTVSPropertyOp26
 70
     1
102
RTVSPropertyOp27
 70
     1
102
RTVSPropertyOp28
 70
     1
102
RTVSPropertyOp29
 70
     1
102
RTVSPropertyOp30
 70
     1
102
RTVSPropertyOp31
 70
     1
102
RTVSPropertyOp32
 70
     1
  0
XRECORD
  5
19AA
102
{ACAD_REACTORS
330
19A9
102
}
330
19A9
100
AcDbXrecord
280
     1
102
RTVSPropertyOp0
 70
     0
102
RTVSPropertyOp1
 70
     0
102
RTVSPropertyOp2
 70
     0
102
RTVSPropertyOp3
 70
     0
102
RTVSPropertyOp4
 70
     0
102
RTVSPropertyOp5
 70
     0
102
RTVSPropertyOp6
 70
     0
102
RTVSPropertyOp7
 70
     0
102
RTVSPropertyOp8
 70
     0
102
RTVSPropertyOp9
 70
     0
102
RTVSPropertyOp10
 70
     0
102
RTVSPropertyOp11
 70
     0
102
RTVSPropertyOp12
 70
     0
102
RTVSPropertyOp13
 70
     0
102
RTVSPropertyOp14
 70
     2
102
RTVSPropertyOp15
 70
     0
102
RTVSPropertyOp16
 70
     0
102
RTVSPropertyOp17
 70
     0
102
RTVSPropertyOp18
 70
     0
102
RTVSPropertyOp19
 70
     0
102
RTVSPropertyOp20
 70
     0
102
RTVSPropertyOp21
 70
     0
102
RTVSPropertyOp22
 70
     0
102
RTVSPropertyOp23
 70
     0
102
RTVSPropertyOp24
 70
     0
102
RTVSPropertyOp25
 70
     0
102
RTVSPropertyOp26
 70
     0
102
RTVSPropertyOp27
 70
     0
102
RTVSPropertyOp28
 70
     1
102
RTVSPropertyOp29
 70
     1
102
RTVSPropertyOp30
 70
     1
102
RTVSPropertyOp31
 70
     1
102
RTVSPropertyOp32
 70
     1
  0
XRECORD
  5
1994
102
{ACAD_REACTORS
330
1993
102
}
330
1993
100
AcDbXrecord
280
     1
102
RTVSPropertyOp0
 70
     1
102
RTVSPropertyOp1
 70
     1
102
RTVSPropertyOp2
 70
     1
102
RTVSPropertyOp3
 70
     1
102
RTVSPropertyOp4
 70
     1
102
RTVSPropertyOp5
 70
     1
102
RTVSPropertyOp6
 70
     1
102
RTVSPropertyOp7
 70
     1
102
RTVSPropertyOp8
 70
     1
102
RTVSPropertyOp9
 70
     1
102
RTVSPropertyOp10
 70
     1
102
RTVSPropertyOp11
 70
     1
102
RTVSPropertyOp12
 70
     1
102
RTVSPropertyOp13
 70
     1
102
RTVSPropertyOp14
 70
     1
102
RTVSPropertyOp15
 70
     1
102
RTVSPropertyOp16
 70
     1
102
RTVSPropertyOp17
 70
     1
102
RTVSPropertyOp18
 70
     1
102
RTVSPropertyOp19
 70
     1
102
RTVSPropertyOp20
 70
     1
102
RTVSPropertyOp21
 70
     1
102
RTVSPropertyOp22
 70
     1
102
RTVSPropertyOp23
 70
     1
102
RTVSPropertyOp24
 70
     1
102
RTVSPropertyOp25
 70
     1
102
RTVSPropertyOp26
 70
     1
102
RTVSPropertyOp27
 70
     1
102
RTVSPropertyOp28
 70
     1
102
RTVSPropertyOp29
 70
     1
102
RTVSPropertyOp30
 70
     1
102
RTVSPropertyOp31
 70
     1
102
RTVSPropertyOp32
 70
     1
  0
XRECORD
  5
19AC
102
{ACAD_REACTORS
330
19AB
102
}
330
19AB
100
AcDbXrecord
280
     1
102
RTVSPropertyOp0
 70
     0
102
RTVSPropertyOp1
 70
     0
102
RTVSPropertyOp2
 70
     0
102
RTVSPropertyOp3
 70
     0
102
RTVSPropertyOp4
 70
     0
102
RTVSPropertyOp5
 70
     0
102
RTVSPropertyOp6
 70
     0
102
RTVSPropertyOp7
 70
     0
102
RTVSPropertyOp8
 70
     0
102
RTVSPropertyOp9
 70
     0
102
RTVSPropertyOp10
 70
     0
102
RTVSPropertyOp11
 70
     0
102
RTVSPropertyOp12
 70
     0
102
RTVSPropertyOp13
 70
     0
102
RTVSPropertyOp14
 70
     2
102
RTVSPropertyOp15
 70
     0
102
RTVSPropertyOp16
 70
     0
102
RTVSPropertyOp17
 70
     0
102
RTVSPropertyOp18
 70
     0
102
RTVSPropertyOp19
 70
     0
102
RTVSPropertyOp20
 70
     0
102
RTVSPropertyOp21
 70
     0
102
RTVSPropertyOp22
 70
     0
102
RTVSPropertyOp23
 70
     0
102
RTVSPropertyOp24
 70
     0
102
RTVSPropertyOp25
 70
     0
102
RTVSPropertyOp26
 70
     0
102
RTVSPropertyOp27
 70
     0
102
RTVSPropertyOp28
 70
     1
102
RTVSPropertyOp29
 70
     1
102
RTVSPropertyOp30
 70
     1
102
RTVSPropertyOp31
 70
     1
102
RTVSPropertyOp32
 70
     1
  0
XRECORD
  5
198C
102
{ACAD_REACTORS
330
198B
102
}
330
198B
100
AcDbXrecord
280
     1
102
RTVSPropertyOp0
 70
     1
102
RTVSPropertyOp1
 70
     1
102
RTVSPropertyOp2
 70
     1
102
RTVSPropertyOp3
 70
     1
102
RTVSPropertyOp4
 70
     1
102
RTVSPropertyOp5
 70
     1
102
RTVSPropertyOp6
 70
     1
102
RTVSPropertyOp7
 70
     1
102
RTVSPropertyOp8
 70
     1
102
RTVSPropertyOp9
 70
     1
102
RTVSPropertyOp10
 70
     1
102
RTVSPropertyOp11
 70
     1
102
RTVSPropertyOp12
 70
     1
102
RTVSPropertyOp13
 70
     1
102
RTVSPropertyOp14
 70
     1
102
RTVSPropertyOp15
 70
     1
102
RTVSPropertyOp16
 70
     1
102
RTVSPropertyOp17
 70
     1
102
RTVSPropertyOp18
 70
     1
102
RTVSPropertyOp19
 70
     1
102
RTVSPropertyOp20
 70
     1
102
RTVSPropertyOp21
 70
     1
102
RTVSPropertyOp22
 70
     1
102
RTVSPropertyOp23
 70
     1
102
RTVSPropertyOp24
 70
     1
102
RTVSPropertyOp25
 70
     1
102
RTVSPropertyOp26
 70
     1
102
RTVSPropertyOp27
 70
     1
102
RTVSPropertyOp28
 70
     1
102
RTVSPropertyOp29
 70
     1
102
RTVSPropertyOp30
 70
     1
102
RTVSPropertyOp31
 70
     1
102
RTVSPropertyOp32
 70
     1
  0
XRECORD
  5
19A8
102
{ACAD_REACTORS
330
19A7
102
}
330
19A7
100
AcDbXrecord
280
     1
102
RTVSPropertyOp0
 70
     1
102
RTVSPropertyOp1
 70
     1
102
RTVSPropertyOp2
 70
     1
102
RTVSPropertyOp3
 70
     1
102
RTVSPropertyOp4
 70
     1
102
RTVSPropertyOp5
 70
     1
102
RTVSPropertyOp6
 70
     1
102
RTVSPropertyOp7
 70
     1
102
RTVSPropertyOp8
 70
     1
102
RTVSPropertyOp9
 70
     1
102
RTVSPropertyOp10
 70
     1
102
RTVSPropertyOp11
 70
     1
102
RTVSPropertyOp12
 70
     1
102
RTVSPropertyOp13
 70
     1
102
RTVSPropertyOp14
 70
     1
102
RTVSPropertyOp15
 70
     1
102
RTVSPropertyOp16
 70
     1
102
RTVSPropertyOp17
 70
     1
102
RTVSPropertyOp18
 70
     1
102
RTVSPropertyOp19
 70
     1
102
RTVSPropertyOp20
 70
     1
102
RTVSPropertyOp21
 70
     1
102
RTVSPropertyOp22
 70
     1
102
RTVSPropertyOp23
 70
     1
102
RTVSPropertyOp24
 70
     1
102
RTVSPropertyOp25
 70
     1
102
RTVSPropertyOp26
 70
     1
102
RTVSPropertyOp27
 70
     1
102
RTVSPropertyOp28
 70
     1
102
RTVSPropertyOp29
 70
     1
102
RTVSPropertyOp30
 70
     1
102
RTVSPropertyOp31
 70
     1
102
RTVSPropertyOp32
 70
     1
  0
XRECORD
  5
19A6
102
{ACAD_REACTORS
330
19A5
102
}
330
19A5
100
AcDbXrecord
280
     1
102
RTVSPropertyOp0
 70
     1
102
RTVSPropertyOp1
 70
     1
102
RTVSPropertyOp2
 70
     1
102
RTVSPropertyOp3
 70
     1
102
RTVSPropertyOp4
 70
     1
102
RTVSPropertyOp5
 70
     1
102
RTVSPropertyOp6
 70
     1
102
RTVSPropertyOp7
 70
     1
102
RTVSPropertyOp8
 70
     1
102
RTVSPropertyOp9
 70
     1
102
RTVSPropertyOp10
 70
     1
102
RTVSPropertyOp11
 70
     1
102
RTVSPropertyOp12
 70
     1
102
RTVSPropertyOp13
 70
     1
102
RTVSPropertyOp14
 70
     1
102
RTVSPropertyOp15
 70
     1
102
RTVSPropertyOp16
 70
     1
102
RTVSPropertyOp17
 70
     1
102
RTVSPropertyOp18
 70
     1
102
RTVSPropertyOp19
 70
     1
102
RTVSPropertyOp20
 70
     1
102
RTVSPropertyOp21
 70
     1
102
RTVSPropertyOp22
 70
     1
102
RTVSPropertyOp23
 70
     1
102
RTVSPropertyOp24
 70
     1
102
RTVSPropertyOp25
 70
     1
102
RTVSPropertyOp26
 70
     1
102
RTVSPropertyOp27
 70
     1
102
RTVSPropertyOp28
 70
     1
102
RTVSPropertyOp29
 70
     1
102
RTVSPropertyOp30
 70
     1
102
RTVSPropertyOp31
 70
     1
102
RTVSPropertyOp32
 70
     1
  0
XRECORD
  5
19A0
102
{ACAD_REACTORS
330
199F
102
}
330
199F
100
AcDbXrecord
280
     1
102
RTVSPropertyOp0
 70
     1
102
RTVSPropertyOp1
 70
     1
102
RTVSPropertyOp2
 70
     1
102
RTVSPropertyOp3
 70
     1
102
RTVSPropertyOp4
 70
     1
102
RTVSPropertyOp5
 70
     1
102
RTVSPropertyOp6
 70
     1
102
RTVSPropertyOp7
 70
     1
102
RTVSPropertyOp8
 70
     1
102
RTVSPropertyOp9
 70
     1
102
RTVSPropertyOp10
 70
     1
102
RTVSPropertyOp11
 70
     1
102
RTVSPropertyOp12
 70
     1
102
RTVSPropertyOp13
 70
     1
102
RTVSPropertyOp14
 70
     1
102
RTVSPropertyOp15
 70
     1
102
RTVSPropertyOp16
 70
     1
102
RTVSPropertyOp17
 70
     1
102
RTVSPropertyOp18
 70
     1
102
RTVSPropertyOp19
 70
     1
102
RTVSPropertyOp20
 70
     1
102
RTVSPropertyOp21
 70
     1
102
RTVSPropertyOp22
 70
     1
102
RTVSPropertyOp23
 70
     1
102
RTVSPropertyOp24
 70
     1
102
RTVSPropertyOp25
 70
     1
102
RTVSPropertyOp26
 70
     1
102
RTVSPropertyOp27
 70
     1
102
RTVSPropertyOp28
 70
     1
102
RTVSPropertyOp29
 70
     1
102
RTVSPropertyOp30
 70
     1
102
RTVSPropertyOp31
 70
     1
102
RTVSPropertyOp32
 70
     1
  0
XRECORD
  5
19A2
102
{ACAD_REACTORS
330
19A1
102
}
330
19A1
100
AcDbXrecord
280
     1
102
RTVSPropertyOp0
 70
     1
102
RTVSPropertyOp1
 70
     1
102
RTVSPropertyOp2
 70
     1
102
RTVSPropertyOp3
 70
     1
102
RTVSPropertyOp4
 70
     1
102
RTVSPropertyOp5
 70
     1
102
RTVSPropertyOp6
 70
     1
102
RTVSPropertyOp7
 70
     1
102
RTVSPropertyOp8
 70
     1
102
RTVSPropertyOp9
 70
     1
102
RTVSPropertyOp10
 70
     1
102
RTVSPropertyOp11
 70
     1
102
RTVSPropertyOp12
 70
     1
102
RTVSPropertyOp13
 70
     1
102
RTVSPropertyOp14
 70
     1
102
RTVSPropertyOp15
 70
     1
102
RTVSPropertyOp16
 70
     1
102
RTVSPropertyOp17
 70
     1
102
RTVSPropertyOp18
 70
     1
102
RTVSPropertyOp19
 70
     1
102
RTVSPropertyOp20
 70
     1
102
RTVSPropertyOp21
 70
     1
102
RTVSPropertyOp22
 70
     1
102
RTVSPropertyOp23
 70
     1
102
RTVSPropertyOp24
 70
     1
102
RTVSPropertyOp25
 70
     1
102
RTVSPropertyOp26
 70
     1
102
RTVSPropertyOp27
 70
     1
102
RTVSPropertyOp28
 70
     1
102
RTVSPropertyOp29
 70
     1
102
RTVSPropertyOp30
 70
     1
102
RTVSPropertyOp31
 70
     1
102
RTVSPropertyOp32
 70
     1
  0
XRECORD
  5
1992
102
{ACAD_REACTORS
330
1991
102
}
330
1991
100
AcDbXrecord
280
     1
102
RTVSPropertyOp0
 70
     1
102
RTVSPropertyOp1
 70
     1
102
RTVSPropertyOp2
 70
     1
102
RTVSPropertyOp3
 70
     1
102
RTVSPropertyOp4
 70
     1
102
RTVSPropertyOp5
 70
     1
102
RTVSPropertyOp6
 70
     1
102
RTVSPropertyOp7
 70
     1
102
RTVSPropertyOp8
 70
     1
102
RTVSPropertyOp9
 70
     1
102
RTVSPropertyOp10
 70
     1
102
RTVSPropertyOp11
 70
     1
102
RTVSPropertyOp12
 70
     1
102
RTVSPropertyOp13
 70
     1
102
RTVSPropertyOp14
 70
     1
102
RTVSPropertyOp15
 70
     1
102
RTVSPropertyOp16
 70
     1
102
RTVSPropertyOp17
 70
     1
102
RTVSPropertyOp18
 70
     1
102
RTVSPropertyOp19
 70
     1
102
RTVSPropertyOp20
 70
     1
102
RTVSPropertyOp21
 70
     1
102
RTVSPropertyOp22
 70
     1
102
RTVSPropertyOp23
 70
     1
102
RTVSPropertyOp24
 70
     1
102
RTVSPropertyOp25
 70
     1
102
RTVSPropertyOp26
 70
     1
102
RTVSPropertyOp27
 70
     1
102
RTVSPropertyOp28
 70
     1
102
RTVSPropertyOp29
 70
     1
102
RTVSPropertyOp30
 70
     1
102
RTVSPropertyOp31
 70
     1
102
RTVSPropertyOp32
 70
     1
  0
XRECORD
  5
199C
102
{ACAD_REACTORS
330
199B
102
}
330
199B
100
AcDbXrecord
280
     1
102
RTVSPropertyOp0
 70
     1
102
RTVSPropertyOp1
 70
     1
102
RTVSPropertyOp2
 70
     1
102
RTVSPropertyOp3
 70
     1
102
RTVSPropertyOp4
 70
     1
102
RTVSPropertyOp5
 70
     1
102
RTVSPropertyOp6
 70
     1
102
RTVSPropertyOp7
 70
     1
102
RTVSPropertyOp8
 70
     1
102
RTVSPropertyOp9
 70
     1
102
RTVSPropertyOp10
 70
     1
102
RTVSPropertyOp11
 70
     1
102
RTVSPropertyOp12
 70
     1
102
RTVSPropertyOp13
 70
     1
102
RTVSPropertyOp14
 70
     1
102
RTVSPropertyOp15
 70
     1
102
RTVSPropertyOp16
 70
     1
102
RTVSPropertyOp17
 70
     1
102
RTVSPropertyOp18
 70
     1
102
RTVSPropertyOp19
 70
     1
102
RTVSPropertyOp20
 70
     1
102
RTVSPropertyOp21
 70
     1
102
RTVSPropertyOp22
 70
     1
102
RTVSPropertyOp23
 70
     1
102
RTVSPropertyOp24
 70
     1
102
RTVSPropertyOp25
 70
     1
102
RTVSPropertyOp26
 70
     1
102
RTVSPropertyOp27
 70
     1
102
RTVSPropertyOp28
 70
     1
102
RTVSPropertyOp29
 70
     1
102
RTVSPropertyOp30
 70
     1
102
RTVSPropertyOp31
 70
     1
102
RTVSPropertyOp32
 70
     1
  0
XRECORD
  5
19A4
102
{ACAD_REACTORS
330
19A3
102
}
330
19A3
100
AcDbXrecord
280
     1
102
RTVSPropertyOp0
 70
     1
102
RTVSPropertyOp1
 70
     1
102
RTVSPropertyOp2
 70
     1
102
RTVSPropertyOp3
 70
     1
102
RTVSPropertyOp4
 70
     1
102
RTVSPropertyOp5
 70
     1
102
RTVSPropertyOp6
 70
     1
102
RTVSPropertyOp7
 70
     1
102
RTVSPropertyOp8
 70
     1
102
RTVSPropertyOp9
 70
     1
102
RTVSPropertyOp10
 70
     1
102
RTVSPropertyOp11
 70
     1
102
RTVSPropertyOp12
 70
     1
102
RTVSPropertyOp13
 70
     1
102
RTVSPropertyOp14
 70
     1
102
RTVSPropertyOp15
 70
     1
102
RTVSPropertyOp16
 70
     1
102
RTVSPropertyOp17
 70
     1
102
RTVSPropertyOp18
 70
     1
102
RTVSPropertyOp19
 70
     1
102
RTVSPropertyOp20
 70
     1
102
RTVSPropertyOp21
 70
     1
102
RTVSPropertyOp22
 70
     1
102
RTVSPropertyOp23
 70
     1
102
RTVSPropertyOp24
 70
     1
102
RTVSPropertyOp25
 70
     1
102
RTVSPropertyOp26
 70
     1
102
RTVSPropertyOp27
 70
     1
102
RTVSPropertyOp28
 70
     1
102
RTVSPropertyOp29
 70
     1
102
RTVSPropertyOp30
 70
     1
102
RTVSPropertyOp31
 70
     1
102
RTVSPropertyOp32
 70
     1
  0
ENDSEC
  0
EOF
