  0
SECTION
  2
HEADER
  9
$ACADVER
  1
AC1015
  9
$ACADMAINTVER
 70
    20
  9
$DWGCODEPAGE
  3
ANSI_932
  9
$INSBASE
 10
0.0
 20
0.0
 30
0.0
  9
$EXTMIN
 10
0.0
 20
0.0
 30
0.0
  9
$EXTMAX
 10
277.0
 20
188.4726172999999
 30
0.0
  9
$LIMMIN
 10
-138.501
 20
-90.00100000000001
  9
$LIMMAX
 10
138.51041467
 20
98.4736181
  9
$ORTHOMODE
 70
     1
  9
$REGENMODE
 70
     1
  9
$FILLMODE
 70
     1
  9
$QTEXTMODE
 70
     0
  9
$MIRRTEXT
 70
     0
  9
$LTSCALE
 40
5.0
  9
$ATTMODE
 70
     1
  9
$TEXTSIZE
 40
3.2
  9
$TRACEWID
 40
0.05
  9
$TEXTSTYLE
  7
高3.2
  9
$CLAYER
  8
0
  9
$CELTYPE
  6
ByLayer
  9
$CECOLOR
 62
   256
  9
$CELTSCALE
 40
1.0
  9
$DISPSILH
 70
     0
  9
$DIMSCALE
 40
1.0
  9
$DIMASZ
 40
2.5
  9
$DIMEXO
 40
0.25
  9
$DIMDLI
 40
0.2
  9
$DIMRND
 40
0.0
  9
$DIMDLE
 40
0.0
  9
$DIMEXE
 40
1.25
  9
$DIMTP
 40
0.0
  9
$DIMTM
 40
0.0
  9
$DIMTXT
 40
2.5
  9
$DIMCEN
 40
0.0
  9
$DIMTSZ
 40
0.0
  9
$DIMTOL
 70
     0
  9
$DIMLIM
 70
     0
  9
$DIMTIH
 70
     0
  9
$DIMTOH
 70
     0
  9
$DIMSE1
 70
     0
  9
$DIMSE2
 70
     0
  9
$DIMTAD
 70
     3
  9
$DIMZIN
 70
     8
  9
$DIMBLK
  1
Open30
  9
$DIMASO
 70
     1
  9
$DIMSHO
 70
     1
  9
$DIMPOST
  1

  9
$DIMAPOST
  1

  9
$DIMALT
 70
     0
  9
$DIMALTD
 70
     3
  9
$DIMALTF
 40
0.03937007874016
  9
$DIMLFAC
 40
1.0
  9
$DIMTOFL
 70
     1
  9
$DIMTVP
 40
0.0
  9
$DIMTIX
 70
     0
  9
$DIMSOXD
 70
     0
  9
$DIMSAH
 70
     0
  9
$DIMBLK1
  1

  9
$DIMBLK2
  1

  9
$DIMSTYLE
  2
1：1
  9
$DIMCLRD
 70
     0
  9
$DIMCLRE
 70
     0
  9
$DIMCLRT
 70
     4
  9
$DIMTFAC
 40
1.0
  9
$DIMGAP
 40
0.625
  9
$DIMJUST
 70
     0
  9
$DIMSD1
 70
     0
  9
$DIMSD2
 70
     0
  9
$DIMTOLJ
 70
     0
  9
$DIMTZIN
 70
     8
  9
$DIMALTZ
 70
     0
  9
$DIMALTTZ
 70
     0
  9
$DIMUPT
 70
     1
  9
$DIMDEC
 70
     2
  9
$DIMTDEC
 70
     2
  9
$DIMALTU
 70
     2
  9
$DIMALTTD
 70
     3
  9
$DIMTXSTY
  7
STANDARD
  9
$DIMAUNIT
 70
     0
  9
$DIMADEC
 70
     1
  9
$DIMALTRND
 40
0.0
  9
$DIMAZIN
 70
     2
  9
$DIMDSEP
 70
    46
  9
$DIMATFIT
 70
     0
  9
$DIMFRAC
 70
     0
  9
$DIMLDRBLK
  1
Open30
  9
$DIMLUNIT
 70
     2
  9
$DIMLWD
 70
    -2
  9
$DIMLWE
 70
    -2
  9
$DIMTMOVE
 70
     0
  9
$LUNITS
 70
     2
  9
$LUPREC
 70
     4
  9
$SKETCHINC
 40
0.1
  9
$FILLETRAD
 40
0.6
  9
$AUNITS
 70
     0
  9
$AUPREC
 70
     0
  9
$MENU
  1
.
  9
$ELEVATION
 40
0.0
  9
$PELEVATION
 40
0.0
  9
$THICKNESS
 40
0.0
  9
$LIMCHECK
 70
     0
  9
$CHAMFERA
 40
0.5
  9
$CHAMFERB
 40
0.5
  9
$CHAMFERC
 40
0.0
  9
$CHAMFERD
 40
0.0
  9
$SKPOLY
 70
     0
  9
$TDCREATE
 40
2455464.498380347
  9
$TDUCREATE
 40
2455464.123380347
  9
$TDUPDATE
 40
2458338.590309885
  9
$TDUUPDATE
 40
2458338.215309884
  9
$TDINDWG
 40
0.2408497454
  9
$TDUSRTIMER
 40
0.2408478009
  9
$USRTIMER
 70
     1
  9
$ANGBASE
 50
0.0
  9
$ANGDIR
 70
     0
  9
$PDMODE
 70
     0
  9
$PDSIZE
 40
0.0
  9
$PLINEWID
 40
0.0
  9
$SPLFRAME
 70
     0
  9
$SPLINETYPE
 70
     6
  9
$SPLINESEGS
 70
     8
  9
$HANDSEED
  5
145B
  9
$SURFTAB1
 70
     6
  9
$SURFTAB2
 70
     6
  9
$SURFTYPE
 70
     6
  9
$SURFU
 70
     6
  9
$SURFV
 70
     6
  9
$UCSBASE
  2

  9
$UCSNAME
  2

  9
$UCSORG
 10
0.0
 20
0.0
 30
0.0
  9
$UCSXDIR
 10
1.0
 20
0.0
 30
0.0
  9
$UCSYDIR
 10
0.0
 20
1.0
 30
0.0
  9
$UCSORTHOREF
  2

  9
$UCSORTHOVIEW
 70
     0
  9
$UCSORGTOP
 10
0.0
 20
0.0
 30
0.0
  9
$UCSORGBOTTOM
 10
0.0
 20
0.0
 30
0.0
  9
$UCSORGLEFT
 10
0.0
 20
0.0
 30
0.0
  9
$UCSORGRIGHT
 10
0.0
 20
0.0
 30
0.0
  9
$UCSORGFRONT
 10
0.0
 20
0.0
 30
0.0
  9
$UCSORGBACK
 10
0.0
 20
0.0
 30
0.0
  9
$PUCSBASE
  2

  9
$PUCSNAME
  2

  9
$PUCSORG
 10
0.0
 20
0.0
 30
0.0
  9
$PUCSXDIR
 10
1.0
 20
0.0
 30
0.0
  9
$PUCSYDIR
 10
0.0
 20
1.0
 30
0.0
  9
$PUCSORTHOREF
  2

  9
$PUCSORTHOVIEW
 70
     0
  9
$PUCSORGTOP
 10
0.0
 20
0.0
 30
0.0
  9
$PUCSORGBOTTOM
 10
0.0
 20
0.0
 30
0.0
  9
$PUCSORGLEFT
 10
0.0
 20
0.0
 30
0.0
  9
$PUCSORGRIGHT
 10
0.0
 20
0.0
 30
0.0
  9
$PUCSORGFRONT
 10
0.0
 20
0.0
 30
0.0
  9
$PUCSORGBACK
 10
0.0
 20
0.0
 30
0.0
  9
$USERI1
 70
     0
  9
$USERI2
 70
     0
  9
$USERI3
 70
     0
  9
$USERI4
 70
     0
  9
$USERI5
 70
     0
  9
$USERR1
 40
0.0
  9
$USERR2
 40
0.0
  9
$USERR3
 40
0.0
  9
$USERR4
 40
0.0
  9
$USERR5
 40
0.0
  9
$WORLDVIEW
 70
     1
  9
$SHADEDGE
 70
     3
  9
$SHADEDIF
 70
    70
  9
$TILEMODE
 70
     1
  9
$MAXACTVP
 70
    64
  9
$PINSBASE
 10
0.0
 20
0.0
 30
0.0
  9
$PLIMCHECK
 70
     0
  9
$PEXTMIN
 10
1.000000000000000E+20
 20
1.000000000000000E+20
 30
1.000000000000000E+20
  9
$PEXTMAX
 10
-1.000000000000000E+20
 20
-1.000000000000000E+20
 30
-1.000000000000000E+20
  9
$PLIMMIN
 10
0.0
 20
0.0
  9
$PLIMMAX
 10
12.0
 20
9.0
  9
$UNITMODE
 70
     0
  9
$VISRETAIN
 70
     1
  9
$PLINEGEN
 70
     0
  9
$PSLTSCALE
 70
     1
  9
$TREEDEPTH
 70
  3020
  9
$CMLSTYLE
  2
Standard
  9
$CMLJUST
 70
     0
  9
$CMLSCALE
 40
1.0
  9
$PROXYGRAPHICS
 70
     1
  9
$MEASUREMENT
 70
     0
  9
$CELWEIGHT
370
    -1
  9
$ENDCAPS
280
     0
  9
$JOINSTYLE
280
     0
  9
$LWDISPLAY
290
     0
  9
$INSUNITS
 70
     0
  9
$HYPERLINKBASE
  1

  9
$STYLESHEET
  1
N-PLOT.CTB
  9
$XEDIT
290
     1
  9
$CEPSNTYPE
380
     0
  9
$PSTYLEMODE
290
     1
  9
$FINGERPRINTGUID
  2
{BEE6D704-24D2-4BB8-BA18-CC684B91C43B}
  9
$VERSIONGUID
  2
{7452CE11-DE42-4A24-90E6-EC1BD0B6371A}
  9
$EXTNAMES
290
     1
  9
$PSVPSCALE
 40
0.0
  9
$OLESTARTUP
290
     0
  0
ENDSEC
  0
SECTION
  2
CLASSES
  0
CLASS
  1
ACDBDICTIONARYWDFLT
  2
AcDbDictionaryWithDefault
  3
ObjectDBX Classes
 90
        0
280
     0
281
     0
  0
CLASS
  1
TABLESTYLE
  2
AcDbTableStyle
  3
ObjectDBX Classes
 90
     4095
280
     0
281
     0
  0
CLASS
  1
DICTIONARYVAR
  2
AcDbDictionaryVar
  3
ObjectDBX Classes
 90
        0
280
     0
281
     0
  0
CLASS
  1
MATERIAL
  2
AcDbMaterial
  3
ObjectDBX Classes
 90
     1153
280
     0
281
     0
  0
CLASS
  1
VISUALSTYLE
  2
AcDbVisualStyle
  3
ObjectDBX Classes
 90
     4095
280
     0
281
     0
  0
CLASS
  1
SORTENTSTABLE
  2
AcDbSortentsTable
  3
ObjectDBX Classes
 90
        0
280
     0
281
     0
  0
CLASS
  1
ACDBPLACEHOLDER
  2
AcDbPlaceHolder
  3
ObjectDBX Classes
 90
        0
280
     0
281
     0
  0
CLASS
  1
LAYOUT
  2
AcDbLayout
  3
ObjectDBX Classes
 90
        0
280
     0
281
     0
  0
CLASS
  1
SCALE
  2
AcDbScale
  3
ObjectDBX Classes
 90
     1153
280
     0
281
     0
  0
CLASS
  1
MLEADERSTYLE
  2
AcDbMLeaderStyle
  3
ACDB_MLEADERSTYLE_CLASS
 90
     4095
280
     0
281
     0
  0
CLASS
  1
CELLSTYLEMAP
  2
AcDbCellStyleMap
  3
ObjectDBX Classes
 90
     1152
280
     0
281
     0
  0
ENDSEC
  0
SECTION
  2
TABLES
  0
TABLE
  2
VPORT
  5
8
330
0
100
AcDbSymbolTable
 70
     1
  0
VPORT
  5
1A3
330
8
100
AcDbSymbolTableRecord
100
AcDbViewportTableRecord
  2
*Active
 70
     0
 10
0.0
 20
0.0
 11
1.0
 21
1.0
 12
285.076006804121
 22
73.92006895051991
 13
0.0
 23
0.0
 14
1.0
 24
1.0
 15
0.0
 25
0.0
 16
0.0
 26
0.0
 36
1.0
 17
0.0
 27
0.0
 37
0.0
 40
369.235399914137
 41
2.104516129032258
 42
50.0
 43
0.0
 44
0.0
 50
0.0
 51
0.0
 71
     0
 72
  1000
 73
     1
 74
     1
 75
     0
 76
     0
 77
     0
 78
     0
281
     0
 65
     1
110
0.0
120
0.0
130
0.0
111
1.0
121
0.0
131
0.0
112
0.0
122
1.0
132
0.0
 79
     0
146
0.0
  0
ENDTAB
  0
TABLE
  2
LTYPE
  5
5
330
0
100
AcDbSymbolTable
 70
     3
  0
LTYPE
  5
13
330
5
100
AcDbSymbolTableRecord
100
AcDbLinetypeTableRecord
  2
ByBlock
 70
     0
  3

 72
    65
 73
     0
 40
0.0
  0
LTYPE
  5
14
330
5
100
AcDbSymbolTableRecord
100
AcDbLinetypeTableRecord
  2
ByLayer
 70
     0
  3

 72
    65
 73
     0
 40
0.0
  0
LTYPE
  5
15
330
5
100
AcDbSymbolTableRecord
100
AcDbLinetypeTableRecord
  2
CONTINUOUS
 70
     0
  3
Solid-line
 72
    65
 73
     0
 40
0.0
  0
LTYPE
  5
29
330
5
100
AcDbSymbolTableRecord
100
AcDbLinetypeTableRecord
  2
CENTER
 70
     0
  3
CENTER
 72
    65
 73
     4
 40
2.0
 49
1.25
 74
     0
 49
-0.25
 74
     0
 49
0.25
 74
     0
 49
-0.25
 74
     0
  0
ENDTAB
  0
TABLE
  2
LAYER
  5
2
102
{ACAD_XDICTIONARY
360
BF
102
}
330
0
100
AcDbSymbolTable
 70
     2
  0
LAYER
  5
10
102
{ACAD_XDICTIONARY
360
1199
102
}
330
2
100
AcDbSymbolTableRecord
100
AcDbLayerTableRecord
  2
0
 70
     0
 62
     7
  6
CONTINUOUS
370
    -3
390
F
  0
LAYER
  5
1E8
330
2
100
AcDbSymbolTableRecord
100
AcDbLayerTableRecord
  2
Defpoints
 70
     0
 62
     7
  6
CONTINUOUS
290
     0
370
    -3
390
F
  0
ENDTAB
  0
TABLE
  2
STYLE
  5
3
330
0
100
AcDbSymbolTable
 70
     6
  0
STYLE
  5
11
330
3
100
AcDbSymbolTableRecord
100
AcDbTextStyleTableRecord
  2
STANDARD
 70
     0
 40
0.0
 41
1.0
 50
0.0
 71
     0
 42
0.2
  3
TXT
  4
BIGFONT
  0
STYLE
  5
25D
330
3
100
AcDbSymbolTableRecord
100
AcDbTextStyleTableRecord
  2
高3.2
 70
     0
 40
3.2
 41
1.0
 50
0.0
 71
     0
 42
3.2
  3
txt.shx
  4
bigfont.shx
  0
STYLE
  5
25E
330
3
100
AcDbSymbolTableRecord
100
AcDbTextStyleTableRecord
  2
高6.3
 70
     0
 40
6.299999999999998
 41
1.0
 50
0.0
 71
     0
 42
6.299999999999998
  3
txt.shx
  4
bigfont.shx
  0
STYLE
  5
25F
330
3
100
AcDbSymbolTableRecord
100
AcDbTextStyleTableRecord
  2
高2.5
 70
     0
 40
2.5
 41
1.0
 50
0.0
 71
     0
 42
0.2
  3
txt.shx
  4
bigfont.shx
  0
STYLE
  5
260
330
3
100
AcDbSymbolTableRecord
100
AcDbTextStyleTableRecord
  2
高2
 70
     0
 40
2.0
 41
1.0
 50
0.0
 71
     0
 42
6.299999999999998
  3
txt.shx
  4
bigfont.shx
  0
STYLE
  5
261
330
3
100
AcDbSymbolTableRecord
100
AcDbTextStyleTableRecord
  2
高4.5
 70
     0
 40
4.5
 41
1.0
 50
0.0
 71
     0
 42
6.299999999999998
  3
txt.shx
  4
bigfont.shx
  0
ENDTAB
  0
TABLE
  2
VIEW
  5
6
330
0
100
AcDbSymbolTable
 70
     0
  0
ENDTAB
  0
TABLE
  2
UCS
  5
7
330
0
100
AcDbSymbolTable
 70
     0
  0
ENDTAB
  0
TABLE
  2
APPID
  5
9
330
0
100
AcDbSymbolTable
 70
    11
  0
APPID
  5
12
330
9
100
AcDbSymbolTableRecord
100
AcDbRegAppTableRecord
  2
ACAD
 70
     0
  0
APPID
  5
E5
330
9
100
AcDbSymbolTableRecord
100
AcDbRegAppTableRecord
  2
ACAD_PSEXT
 70
     0
  0
APPID
  5
19D
330
9
100
AcDbSymbolTableRecord
100
AcDbRegAppTableRecord
  2
ACAD_EXEMPT_FROM_CAD_STANDARDS
 70
     0
  0
APPID
  5
1EC
330
9
100
AcDbSymbolTableRecord
100
AcDbRegAppTableRecord
  2
ACAD_DSTYLE_DIMJOGGED_JOGANGLE_SYMBOL
 70
     0
  0
APPID
  5
523
330
9
100
AcDbSymbolTableRecord
100
AcDbRegAppTableRecord
  2
AcAecLayerStandard
 70
     0
  0
APPID
  5
F64
330
9
100
AcDbSymbolTableRecord
100
AcDbRegAppTableRecord
  2
ACAD_DSTYLE_DIMARC_LENGTH_SYMBOL
 70
     0
  0
APPID
  5
F65
330
9
100
AcDbSymbolTableRecord
100
AcDbRegAppTableRecord
  2
ACAD_DSTYLE_DIMEXT_LENGTH
 70
     0
  0
APPID
  5
1029
330
9
100
AcDbSymbolTableRecord
100
AcDbRegAppTableRecord
  2
ACAD_DSTYLE_DIMJAG
 70
     0
  0
APPID
  5
102A
330
9
100
AcDbSymbolTableRecord
100
AcDbRegAppTableRecord
  2
ACAD_DSTYLE_DIMBREAK
 70
     0
  0
APPID
  5
102B
330
9
100
AcDbSymbolTableRecord
100
AcDbRegAppTableRecord
  2
ACAD_DSTYLE_DIMTALN
 70
     0
  0
APPID
  5
11DF
330
9
100
AcDbSymbolTableRecord
100
AcDbRegAppTableRecord
  2
ACAD_MLEADERVER
 70
     0
  0
ENDTAB
  0
TABLE
  2
DIMSTYLE
  5
A
330
0
100
AcDbSymbolTable
 70
    11
100
AcDbDimStyleTable
 71
     5
340
1E9
340
53C
340
1EB
340
53D
340
53B
  0
DIMSTYLE
105
1E9
330
A
100
AcDbSymbolTableRecord
100
AcDbDimStyleTableRecord
  2
1：1
 70
     0
 41
2.5
 42
0.25
 43
0.2
 44
1.25
 73
     0
 74
     0
 77
     3
 78
     8
 79
     2
140
2.5
141
0.0
143
0.03937007874016
147
0.625
171
     3
172
     1
178
     4
179
     1
271
     2
272
     2
274
     3
283
     0
284
     8
288
     1
289
     0
340
11
341
1BD
342
1BD
1001
ACAD_DSTYLE_DIMARC_LENGTH_SYMBOL
1070
   379
1070
     2
1001
ACAD_DSTYLE_DIMEXT_LENGTH
1070
   378
1040
1.25
1001
ACAD_DSTYLE_DIMJOGGED_JOGANGLE_SYMBOL
1070
   384
1040
1.570796326794896
  0
DIMSTYLE
105
1EA
330
A
100
AcDbSymbolTableRecord
100
AcDbDimStyleTableRecord
  2
2：1
 70
     0
 41
2.5
 42
0.25
 43
0.2
 44
1.25
 73
     0
 74
     0
 77
     3
 78
     8
 79
     2
140
2.5
141
0.0
143
0.03937007874016
144
0.5
147
0.625
171
     3
172
     1
178
     4
179
     1
271
     2
272
     2
274
     3
283
     0
284
     8
288
     1
289
     0
340
11
341
1BD
342
1BD
1001
ACAD_DSTYLE_DIMARC_LENGTH_SYMBOL
1070
   379
1070
     2
1001
ACAD_DSTYLE_DIMEXT_LENGTH
1070
   378
1040
1.25
1001
ACAD_DSTYLE_DIMJOGGED_JOGANGLE_SYMBOL
1070
   384
1040
1.570796326794896
  0
DIMSTYLE
105
1EB
330
A
100
AcDbSymbolTableRecord
100
AcDbDimStyleTableRecord
  2
5：1
 70
     0
 41
2.5
 42
0.25
 43
0.2
 44
1.25
 73
     0
 74
     0
 77
     3
 78
     8
 79
     2
140
2.5
141
0.0
143
0.03937007874016
144
0.2
147
0.625
171
     3
178
     4
179
     1
271
     2
272
     2
274
     3
283
     0
284
     8
288
     1
289
     0
340
11
341
1BD
342
1BD
1001
ACAD_DSTYLE_DIMARC_LENGTH_SYMBOL
1070
   379
1070
     2
1001
ACAD_DSTYLE_DIMEXT_LENGTH
1070
   378
1040
1.25
1001
ACAD_DSTYLE_DIMJOGGED_JOGANGLE_SYMBOL
1070
   384
1040
1.570796326794896
  0
DIMSTYLE
105
53B
330
A
100
AcDbSymbolTableRecord
100
AcDbDimStyleTableRecord
  2
1／2
 70
     0
 41
2.5
 42
0.25
 43
0.2
 44
1.25
 73
     0
 74
     0
 77
     3
 78
     8
 79
     2
140
2.5
141
0.0
143
0.03937007874016
144
2.0
147
0.625
171
     3
172
     1
178
     4
179
     1
271
     2
272
     2
274
     3
283
     0
284
     8
288
     1
289
     0
340
11
341
1BD
342
1BD
1001
ACAD_DSTYLE_DIMARC_LENGTH_SYMBOL
1070
   379
1070
     2
1001
ACAD_DSTYLE_DIMEXT_LENGTH
1070
   378
1040
1.25
1001
ACAD_DSTYLE_DIMJOGGED_JOGANGLE_SYMBOL
1070
   384
1040
1.570796326794896
  0
DIMSTYLE
105
53C
330
A
100
AcDbSymbolTableRecord
100
AcDbDimStyleTableRecord
  2
1／5
 70
     0
 41
2.5
 42
0.25
 43
0.2
 44
1.25
 73
     0
 74
     0
 77
     3
 78
     8
 79
     2
140
2.5
141
0.0
143
0.03937007874016
144
5.0
147
0.625
171
     3
172
     1
178
     4
179
     1
271
     2
272
     2
274
     3
283
     0
284
     8
288
     1
289
     0
340
11
341
1BD
342
1BD
1001
ACAD_DSTYLE_DIMARC_LENGTH_SYMBOL
1070
   379
1070
     2
1001
ACAD_DSTYLE_DIMEXT_LENGTH
1070
   378
1040
1.25
1001
ACAD_DSTYLE_DIMJOGGED_JOGANGLE_SYMBOL
1070
   384
1040
1.570796326794896
  0
DIMSTYLE
105
53D
330
A
100
AcDbSymbolTableRecord
100
AcDbDimStyleTableRecord
  2
1／10
 70
     0
 41
2.5
 42
0.25
 43
0.2
 44
1.25
 73
     0
 74
     0
 77
     3
 78
     8
 79
     2
140
2.5
141
0.0
143
0.03937007874016
144
10.0
147
0.625
171
     3
172
     1
178
     4
179
     1
271
     2
272
     2
274
     3
283
     0
284
     8
288
     1
289
     0
340
11
341
1BD
342
1BD
1001
ACAD_DSTYLE_DIMARC_LENGTH_SYMBOL
1070
   379
1070
     2
1001
ACAD_DSTYLE_DIMEXT_LENGTH
1070
   378
1040
1.25
1001
ACAD_DSTYLE_DIMJOGGED_JOGANGLE_SYMBOL
1070
   384
1040
1.570796326794896
  0
DIMSTYLE
105
6F2
330
A
100
AcDbSymbolTableRecord
100
AcDbDimStyleTableRecord
  2
Standard
 70
     0
340
11
  0
DIMSTYLE
105
1025
330
A
100
AcDbSymbolTableRecord
100
AcDbDimStyleTableRecord
  2
10：1
 70
     0
 41
2.5
 42
0.25
 43
0.2
 44
1.25
 73
     0
 74
     0
 77
     3
 78
     8
 79
     2
140
3.0
141
0.0
143
0.03937007874016
144
0.1
147
0.625
171
     3
172
     1
178
     4
179
     1
271
     2
272
     2
274
     3
283
     0
284
     8
288
     1
289
     0
340
11
341
1BD
342
1BD
1001
ACAD_DSTYLE_DIMARC_LENGTH_SYMBOL
1070
   379
1070
     2
1001
ACAD_DSTYLE_DIMEXT_LENGTH
1070
   378
1040
1.25
1001
ACAD_DSTYLE_DIMJOGGED_JOGANGLE_SYMBOL
1070
   384
1040
1.570796326794896
  0
DIMSTYLE
105
1026
330
A
100
AcDbSymbolTableRecord
100
AcDbDimStyleTableRecord
  2
1／4
 70
     0
 41
2.5
 42
0.25
 43
0.2
 44
1.25
 73
     0
 74
     0
 77
     3
 78
     8
 79
     2
140
3.0
141
0.0
143
0.03937007874016
144
4.0
147
0.625
171
     3
172
     1
178
     4
179
     1
271
     2
272
     2
274
     3
283
     0
284
     8
288
     1
289
     0
340
11
341
1BD
342
1BD
1001
ACAD_DSTYLE_DIMARC_LENGTH_SYMBOL
1070
   379
1070
     2
1001
ACAD_DSTYLE_DIMEXT_LENGTH
1070
   378
1040
1.25
1001
ACAD_DSTYLE_DIMJOGGED_JOGANGLE_SYMBOL
1070
   384
1040
1.570796326794896
  0
DIMSTYLE
105
1027
330
A
100
AcDbSymbolTableRecord
100
AcDbDimStyleTableRecord
  2
1／3
 70
     0
 41
2.5
 42
0.25
 43
0.2
 44
1.25
 73
     0
 74
     0
 77
     3
 78
     8
 79
     2
140
3.0
141
0.0
143
0.03937007874016
144
3.0
147
0.625
171
     3
172
     1
178
     4
179
     1
271
     2
272
     2
274
     3
283
     0
284
     8
288
     1
289
     0
340
11
341
1BD
342
1BD
1001
ACAD_DSTYLE_DIMARC_LENGTH_SYMBOL
1070
   379
1070
     2
1001
ACAD_DSTYLE_DIMEXT_LENGTH
1070
   378
1040
1.25
1001
ACAD_DSTYLE_DIMJOGGED_JOGANGLE_SYMBOL
1070
   384
1040
1.570796326794896
  0
DIMSTYLE
105
1028
330
A
100
AcDbSymbolTableRecord
100
AcDbDimStyleTableRecord
  2
FREE
 70
     0
 41
2.5
 42
0.25
 43
0.2
 44
1.25
 73
     0
 74
     0
 77
     3
 78
     8
 79
     2
140
3.0
141
0.0
143
0.03937007874016
147
0.625
171
     3
172
     1
178
     4
179
     1
271
     2
272
     2
274
     3
283
     0
284
     8
288
     1
289
     0
340
11
341
1BD
342
1BD
1001
ACAD_DSTYLE_DIMBREAK
1070
   391
1040
3.75
1001
ACAD_DSTYLE_DIMJAG
1070
   388
1040
1.5
1001
ACAD_DSTYLE_DIMTALN
1070
   392
1070
     0
1001
ACAD_DSTYLE_DIMARC_LENGTH_SYMBOL
1070
   379
1070
     2
1001
ACAD_DSTYLE_DIMEXT_LENGTH
1070
   378
1040
1.25
1001
ACAD_DSTYLE_DIMJOGGED_JOGANGLE_SYMBOL
1070
   384
1040
1.570796326794896
  0
ENDTAB
  0
TABLE
  2
BLOCK_RECORD
  5
1
330
0
100
AcDbSymbolTable
 70
    12
  0
BLOCK_RECORD
  5
22
102
{ACAD_XDICTIONARY
360
50A
102
}
330
1
100
AcDbSymbolTableRecord
100
AcDbBlockTableRecord
  2
*Model_Space
340
25
  0
BLOCK_RECORD
  5
1E
330
1
100
AcDbSymbolTableRecord
100
AcDbBlockTableRecord
  2
*Paper_Space
340
21
  0
BLOCK_RECORD
  5
1BD
330
1
100
AcDbSymbolTableRecord
100
AcDbBlockTableRecord
  2
_Open30
340
0
102
{BLKREFS
331
1266
331
1267
331
1271
331
1272
331
127C
331
127D
331
1287
331
1288
331
1292
331
1293
331
129D
331
129E
331
12A7
331
12A8
331
12B2
331
12B3
331
12BD
331
12BE
331
12C6
331
12C7
331
1378
331
1379
102
}
  0
BLOCK_RECORD
  5
8AA
330
1
100
AcDbSymbolTableRecord
100
AcDbBlockTableRecord
  2
*D1
340
0
  0
BLOCK_RECORD
  5
1076
330
1
100
AcDbSymbolTableRecord
100
AcDbBlockTableRecord
  2
*D2
340
0
  0
BLOCK_RECORD
  5
1084
330
1
100
AcDbSymbolTableRecord
100
AcDbBlockTableRecord
  2
*D3
340
0
  0
BLOCK_RECORD
  5
1092
330
1
100
AcDbSymbolTableRecord
100
AcDbBlockTableRecord
  2
*D4
340
0
  0
BLOCK_RECORD
  5
10A0
330
1
100
AcDbSymbolTableRecord
100
AcDbBlockTableRecord
  2
*D5
340
0
  0
BLOCK_RECORD
  5
10AE
330
1
100
AcDbSymbolTableRecord
100
AcDbBlockTableRecord
  2
*D6
340
0
  0
BLOCK_RECORD
  5
10BC
330
1
100
AcDbSymbolTableRecord
100
AcDbBlockTableRecord
  2
*D7
340
0
  0
BLOCK_RECORD
  5
10C9
330
1
100
AcDbSymbolTableRecord
100
AcDbBlockTableRecord
  2
*D8
340
0
  0
BLOCK_RECORD
  5
10D7
330
1
100
AcDbSymbolTableRecord
100
AcDbBlockTableRecord
  2
*D9
340
0
  0
BLOCK_RECORD
  5
10E5
330
1
100
AcDbSymbolTableRecord
100
AcDbBlockTableRecord
  2
*D10
340
0
  0
BLOCK_RECORD
  5
10F1
330
1
100
AcDbSymbolTableRecord
100
AcDbBlockTableRecord
  2
*D11
340
0
  0
ENDTAB
  0
ENDSEC
  0
SECTION
  2
BLOCKS
  0
BLOCK
  5
23
330
22
100
AcDbEntity
  8
0
100
AcDbBlockBegin
  2
*Model_Space
 70
     0
 10
0.0
 20
0.0
 30
0.0
  3
*Model_Space
  1

  0
ENDBLK
  5
24
330
22
100
AcDbEntity
  8
0
100
AcDbBlockEnd
  0
BLOCK
  5
1F
330
1E
100
AcDbEntity
 67
     1
  8
0
100
AcDbBlockBegin
  2
*Paper_Space
 70
     0
 10
0.0
 20
0.0
 30
0.0
  3
*Paper_Space
  1

  0
ENDBLK
  5
20
330
1E
100
AcDbEntity
 67
     1
  8
0
100
AcDbBlockEnd
  0
BLOCK
  5
1BE
330
1BD
100
AcDbEntity
  8
0
100
AcDbBlockBegin
  2
_Open30
 70
     0
 10
0.0
 20
0.0
 30
0.0
  3
_Open30
  1

  0
LINE
  5
1BF
330
1BD
100
AcDbEntity
  8
0
  6
ByBlock
 62
     0
370
    -2
100
AcDbLine
 10
-1.0
 20
0.267949
 30
0.0
 11
0.0
 21
0.0
 31
0.0
  0
LINE
  5
1C0
330
1BD
100
AcDbEntity
  8
0
  6
ByBlock
 62
     0
370
    -2
100
AcDbLine
 10
0.0
 20
0.0
 30
0.0
 11
-1.0
 21
-0.267949
 31
0.0
  0
LINE
  5
1C1
330
1BD
100
AcDbEntity
  8
0
  6
ByBlock
 62
     0
370
    -2
100
AcDbLine
 10
0.0
 20
0.0
 30
0.0
 11
-1.0
 21
0.0
 31
0.0
  0
ENDBLK
  5
1C2
330
1BD
100
AcDbEntity
  8
0
100
AcDbBlockEnd
  0
BLOCK
  5
8B4
330
8AA
100
AcDbEntity
  8
0
100
AcDbBlockBegin
  2
*D1
 70
     1
 10
0.0
 20
0.0
 30
0.0
  3
*D1
  1

  0
LINE
  5
1375
330
8AA
100
AcDbEntity
  8
0
 62
     0
370
    -2
100
AcDbLine
 10
170.3736873295207
 20
98.97249997503596
 30
0.0
 11
181.2241762903776
 21
98.97249997503596
 31
0.0
  0
LINE
  5
1376
330
8AA
100
AcDbEntity
  8
0
 62
     0
370
    -2
100
AcDbLine
 10
171.1216132842725
 20
123.2724999750359
 30
0.0
 11
181.2241762903776
 21
123.2724999750359
 31
0.0
  0
LINE
  5
1377
330
8AA
100
AcDbEntity
  8
0
 62
     0
370
    -2
100
AcDbLine
 10
179.9741762903776
 20
101.4724999750359
 30
0.0
 11
179.9741762903776
 21
120.7724999750359
 31
0.0
  0
INSERT
  5
1378
330
8AA
100
AcDbEntity
  8
0
 62
     0
370
    -2
100
AcDbBlockReference
  2
_Open30
 10
179.9741762903776
 20
98.97249997503596
 30
0.0
 41
2.5
 42
2.5
 43
2.5
 50
270.0
  0
INSERT
  5
1379
330
8AA
100
AcDbEntity
  8
0
 62
     0
370
    -2
100
AcDbBlockReference
  2
_Open30
 10
179.9741762903776
 20
123.2724999750359
 30
0.0
 41
2.5
 42
2.5
 43
2.5
 50
90.0
  0
MTEXT
  5
137A
330
8AA
100
AcDbEntity
  8
0
 62
     4
100
AcDbMText
 10
178.0991762903776
 20
111.122499975036
 30
0.0
 40
2.5
 41
0.0
 71
     5
 72
     1
  1
パイプ
 11
0.0000000000000001
 21
1.0
 31
0.0
 73
     1
 44
1.0
1001
ACAD
1000
MTEXTBEGIN
1070
    73
1070
     1
1070
    44
1040
1.0
1070
    74
1070
     0
1000
MTEXTEND
  0
POINT
  5
137B
330
8AA
100
AcDbEntity
  8
Defpoints
 62
     0
100
AcDbPoint
 10
170.1236873295207
 20
98.97249997503596
 30
0.0
  0
POINT
  5
137C
330
8AA
100
AcDbEntity
  8
Defpoints
 62
     0
100
AcDbPoint
 10
170.8716132842725
 20
123.2724999750359
 30
0.0
  0
POINT
  5
137D
330
8AA
100
AcDbEntity
  8
Defpoints
 62
     0
100
AcDbPoint
 10
179.9741762903776
 20
123.2724999750359
 30
0.0
  0
ENDBLK
  5
8B5
330
8AA
100
AcDbEntity
  8
0
100
AcDbBlockEnd
  0
BLOCK
  5
1077
330
1076
100
AcDbEntity
  8
0
100
AcDbBlockBegin
  2
*D2
 70
     1
 10
0.0
 20
0.0
 30
0.0
  3
*D2
  1

  0
LINE
  5
126C
330
1076
100
AcDbEntity
  8
0
 62
     0
370
    -2
100
AcDbLine
 10
460.1567076722257
 20
119.2270544685606
 30
0.0
 11
460.1567076722257
 21
116.6811623990972
 31
0.0
  0
LINE
  5
126D
330
1076
100
AcDbEntity
  8
0
 62
     0
370
    -2
100
AcDbLine
 10
457.0624718740828
 20
119.2270544685606
 30
0.0
 11
457.0624718740828
 21
116.6811623990972
 31
0.0
  0
LINE
  5
126E
330
1076
100
AcDbEntity
  8
0
 62
     0
370
    -2
100
AcDbLine
 10
462.6567076722257
 20
117.9311623990972
 30
0.0
 11
465.1567076722256
 21
117.9311623990972
 31
0.0
  0
LINE
  5
126F
330
1076
100
AcDbEntity
  8
0
 62
     0
370
    -2
100
AcDbLine
 10
454.5624718740827
 20
117.9311623990972
 30
0.0
 11
440.7291385407494
 21
117.9311623990972
 31
0.0
  0
LINE
  5
1270
330
1076
100
AcDbEntity
  8
0
 62
     0
370
    -2
100
AcDbLine
 10
460.1567076722257
 20
117.9311623990972
 30
0.0
 11
457.0624718740828
 21
117.9311623990972
 31
0.0
  0
INSERT
  5
1271
330
1076
100
AcDbEntity
  8
0
 62
     0
370
    -2
100
AcDbBlockReference
  2
_Open30
 10
460.1567076722257
 20
117.9311623990972
 30
0.0
 41
2.5
 42
2.5
 43
2.5
 50
180.0
  0
INSERT
  5
1272
330
1076
100
AcDbEntity
  8
0
 62
     0
370
    -2
100
AcDbBlockReference
  2
_Open30
 10
457.0624718740828
 20
117.9311623990972
 30
0.0
 41
2.5
 42
2.5
 43
2.5
  0
MTEXT
  5
1273
330
1076
100
AcDbEntity
  8
0
 62
     4
100
AcDbMText
 10
445.9374718740828
 20
119.8061623990972
 30
0.0
 40
2.5
 41
0.0
 71
     5
 72
     1
  1
15.47
  7
高2.5
 73
     1
 44
1.0
1001
ACAD
1000
MTEXTBEGIN
1070
    73
1070
     1
1070
    44
1040
1.0
1070
    74
1070
     0
1000
MTEXTEND
  0
POINT
  5
1274
330
1076
100
AcDbEntity
  8
Defpoints
 62
     0
100
AcDbPoint
 10
460.1567076722257
 20
119.4770544685606
 30
0.0
  0
POINT
  5
1275
330
1076
100
AcDbEntity
  8
Defpoints
 62
     0
100
AcDbPoint
 10
457.0624718740828
 20
119.4770544685606
 30
0.0
  0
POINT
  5
1276
330
1076
100
AcDbEntity
  8
Defpoints
 62
     0
100
AcDbPoint
 10
457.0624718740828
 20
117.9311623990972
 30
0.0
  0
ENDBLK
  5
1078
330
1076
100
AcDbEntity
  8
0
100
AcDbBlockEnd
  0
BLOCK
  5
1085
330
1084
100
AcDbEntity
  8
0
100
AcDbBlockBegin
  2
*D3
 70
     1
 10
0.0
 20
0.0
 30
0.0
  3
*D3
  1

  0
LINE
  5
1277
330
1084
100
AcDbEntity
  8
0
 62
     0
370
    -2
100
AcDbLine
 10
461.8858392803112
 20
113.7709647527141
 30
0.0
 11
461.8858392803112
 21
111.4978770903468
 31
0.0
  0
LINE
  5
1278
330
1084
100
AcDbEntity
  8
0
 62
     0
370
    -2
100
AcDbLine
 10
457.8815343271193
 20
113.7709647527141
 30
0.0
 11
457.8815343271193
 21
111.4978770903468
 31
0.0
  0
LINE
  5
1279
330
1084
100
AcDbEntity
  8
0
 62
     0
370
    -2
100
AcDbLine
 10
464.3858392803111
 20
112.7478770903468
 30
0.0
 11
466.8858392803111
 21
112.7478770903468
 31
0.0
  0
LINE
  5
127A
330
1084
100
AcDbEntity
  8
0
 62
     0
370
    -2
100
AcDbLine
 10
455.3815343271192
 20
112.7478770903468
 30
0.0
 11
443.6315343271192
 21
112.7478770903468
 31
0.0
  0
LINE
  5
127B
330
1084
100
AcDbEntity
  8
0
 62
     0
370
    -2
100
AcDbLine
 10
461.8858392803112
 20
112.7478770903468
 30
0.0
 11
457.8815343271193
 21
112.7478770903468
 31
0.0
  0
INSERT
  5
127C
330
1084
100
AcDbEntity
  8
0
 62
     0
370
    -2
100
AcDbBlockReference
  2
_Open30
 10
461.8858392803112
 20
112.7478770903468
 30
0.0
 41
2.5
 42
2.5
 43
2.5
 50
180.0
  0
INSERT
  5
127D
330
1084
100
AcDbEntity
  8
0
 62
     0
370
    -2
100
AcDbBlockReference
  2
_Open30
 10
457.8815343271193
 20
112.7478770903468
 30
0.0
 41
2.5
 42
2.5
 43
2.5
  0
MTEXT
  5
127E
330
1084
100
AcDbEntity
  8
0
 62
     4
100
AcDbMText
 10
448.2565343271192
 20
114.9728770903468
 30
0.0
 40
3.2
 41
0.0
 71
     5
 72
     1
  1
8.01
  7
高3.2
 73
     1
 44
1.0
1001
ACAD
1000
MTEXTBEGIN
1070
    73
1070
     1
1070
    44
1040
1.0
1070
    74
1070
     0
1000
MTEXTEND
  0
POINT
  5
127F
330
1084
100
AcDbEntity
  8
Defpoints
 62
     0
100
AcDbPoint
 10
461.8858392803112
 20
114.0209647527141
 30
0.0
  0
POINT
  5
1280
330
1084
100
AcDbEntity
  8
Defpoints
 62
     0
100
AcDbPoint
 10
457.8815343271193
 20
114.0209647527141
 30
0.0
  0
POINT
  5
1281
330
1084
100
AcDbEntity
  8
Defpoints
 62
     0
100
AcDbPoint
 10
457.8815343271193
 20
112.7478770903468
 30
0.0
  0
ENDBLK
  5
1086
330
1084
100
AcDbEntity
  8
0
100
AcDbBlockEnd
  0
BLOCK
  5
1093
330
1092
100
AcDbEntity
  8
0
100
AcDbBlockBegin
  2
*D4
 70
     1
 10
0.0
 20
0.0
 30
0.0
  3
*D4
  1

  0
LINE
  5
1282
330
1092
100
AcDbEntity
  8
0
 62
     0
370
    -2
100
AcDbLine
 10
461.7948325782989
 20
108.4967447846825
 30
0.0
 11
461.7948325782989
 21
106.6783312772261
 31
0.0
  0
LINE
  5
1283
330
1092
100
AcDbEntity
  8
0
 62
     0
370
    -2
100
AcDbLine
 10
457.0624718740828
 20
108.4967447846825
 30
0.0
 11
457.0624718740828
 21
106.6783312772261
 31
0.0
  0
LINE
  5
1284
330
1092
100
AcDbEntity
  8
0
 62
     0
370
    -2
100
AcDbLine
 10
464.2948325782987
 20
107.9283312772261
 30
0.0
 11
466.7948325782989
 21
107.9283312772261
 31
0.0
  0
LINE
  5
1285
330
1092
100
AcDbEntity
  8
0
 62
     0
370
    -2
100
AcDbLine
 10
454.5624718740827
 20
107.9283312772261
 30
0.0
 11
432.8124718740827
 21
107.9283312772261
 31
0.0
  0
LINE
  5
1286
330
1092
100
AcDbEntity
  8
0
 62
     0
370
    -2
100
AcDbLine
 10
461.7948325782989
 20
107.9283312772261
 30
0.0
 11
457.0624718740828
 21
107.9283312772261
 31
0.0
  0
INSERT
  5
1287
330
1092
100
AcDbEntity
  8
0
 62
     0
370
    -2
100
AcDbBlockReference
  2
_Open30
 10
461.7948325782989
 20
107.9283312772261
 30
0.0
 41
2.5
 42
2.5
 43
2.5
 50
180.0
  0
INSERT
  5
1288
330
1092
100
AcDbEntity
  8
0
 62
     0
370
    -2
100
AcDbBlockReference
  2
_Open30
 10
457.0624718740828
 20
107.9283312772261
 30
0.0
 41
2.5
 42
2.5
 43
2.5
  0
MTEXT
  5
1289
330
1092
100
AcDbEntity
  8
0
 62
     4
100
AcDbMText
 10
442.4374718740827
 20
110.8033312772261
 30
0.0
 40
4.5
 41
0.0
 71
     5
 72
     1
  1
47.32
  7
高4.5
 73
     1
 44
1.0
1001
ACAD
1000
MTEXTBEGIN
1070
    73
1070
     1
1070
    44
1040
1.0
1070
    74
1070
     0
1000
MTEXTEND
  0
POINT
  5
128A
330
1092
100
AcDbEntity
  8
Defpoints
 62
     0
100
AcDbPoint
 10
461.7948325782989
 20
108.7467447846825
 30
0.0
  0
POINT
  5
128B
330
1092
100
AcDbEntity
  8
Defpoints
 62
     0
100
AcDbPoint
 10
457.0624718740828
 20
108.7467447846825
 30
0.0
  0
POINT
  5
128C
330
1092
100
AcDbEntity
  8
Defpoints
 62
     0
100
AcDbPoint
 10
457.0624718740828
 20
107.9283312772261
 30
0.0
  0
ENDBLK
  5
1094
330
1092
100
AcDbEntity
  8
0
100
AcDbBlockEnd
  0
BLOCK
  5
10A1
330
10A0
100
AcDbEntity
  8
0
100
AcDbBlockBegin
  2
*D5
 70
     1
 10
0.0
 20
0.0
 30
0.0
  3
*D5
  1

  0
LINE
  5
128D
330
10A0
100
AcDbEntity
  8
0
 62
     0
370
    -2
100
AcDbLine
 10
483.2724688463064
 20
124.683144041323
 30
0.0
 11
483.2724688463064
 21
121.7735126193141
 31
0.0
  0
LINE
  5
128E
330
10A0
100
AcDbEntity
  8
0
 62
     0
370
    -2
100
AcDbLine
 10
480.8152817921858
 20
124.683144041323
 30
0.0
 11
480.8152817921858
 21
121.7735126193141
 31
0.0
  0
LINE
  5
128F
330
10A0
100
AcDbEntity
  8
0
 62
     0
370
    -2
100
AcDbLine
 10
485.7724688463063
 20
123.0235126193141
 30
0.0
 11
488.2724688463063
 21
123.0235126193141
 31
0.0
  0
LINE
  5
1290
330
10A0
100
AcDbEntity
  8
0
 62
     0
370
    -2
100
AcDbLine
 10
478.315281792186
 20
123.0235126193141
 30
0.0
 11
456.715281792186
 21
123.0235126193141
 31
0.0
  0
LINE
  5
1291
330
10A0
100
AcDbEntity
  8
0
 62
     0
370
    -2
100
AcDbLine
 10
483.2724688463064
 20
123.0235126193141
 30
0.0
 11
480.8152817921858
 21
123.0235126193141
 31
0.0
  0
INSERT
  5
1292
330
10A0
100
AcDbEntity
  8
0
 62
     0
370
    -2
100
AcDbBlockReference
  2
_Open30
 10
483.2724688463064
 20
123.0235126193141
 30
0.0
 41
2.5
 42
2.5
 43
2.5
 50
180.0
  0
INSERT
  5
1293
330
10A0
100
AcDbEntity
  8
0
 62
     0
370
    -2
100
AcDbBlockReference
  2
_Open30
 10
480.8152817921858
 20
123.0235126193141
 30
0.0
 41
2.5
 42
2.5
 43
2.5
  0
MTEXT
  5
1294
330
10A0
100
AcDbEntity
  8
0
 62
     4
100
AcDbMText
 10
466.2652817921858
 20
126.7985126193141
 30
0.0
 40
6.299999999999998
 41
0.0
 71
     5
 72
     1
  1
0.25
  7
高6.3
 73
     1
 44
1.0
1001
ACAD
1000
MTEXTBEGIN
1070
    73
1070
     1
1070
    44
1040
1.0
1070
    74
1070
     0
1000
MTEXTEND
  0
POINT
  5
1295
330
10A0
100
AcDbEntity
  8
Defpoints
 62
     0
100
AcDbPoint
 10
483.2724688463064
 20
124.933144041323
 30
0.0
  0
POINT
  5
1296
330
10A0
100
AcDbEntity
  8
Defpoints
 62
     0
100
AcDbPoint
 10
480.8152817921858
 20
124.933144041323
 30
0.0
  0
POINT
  5
1297
330
10A0
100
AcDbEntity
  8
Defpoints
 62
     0
100
AcDbPoint
 10
480.8152817921858
 20
123.0235126193141
 30
0.0
  0
ENDBLK
  5
10A2
330
10A0
100
AcDbEntity
  8
0
100
AcDbBlockEnd
  0
BLOCK
  5
10AF
330
10AE
100
AcDbEntity
  8
0
100
AcDbBlockBegin
  2
*D6
 70
     1
 10
0.0
 20
0.0
 30
0.0
  3
*D6
  1

  0
LINE
  5
1298
330
10AE
100
AcDbEntity
  8
0
 62
     0
370
    -2
100
AcDbLine
 10
484.9105937523795
 20
119.2270544685606
 30
0.0
 11
484.9105937523795
 21
116.6811623990972
 31
0.0
  0
LINE
  5
1299
330
10AE
100
AcDbEntity
  8
0
 62
     0
370
    -2
100
AcDbLine
 10
481.8163579542366
 20
119.2270544685606
 30
0.0
 11
481.8163579542366
 21
116.6811623990972
 31
0.0
  0
LINE
  5
129A
330
10AE
100
AcDbEntity
  8
0
 62
     0
370
    -2
100
AcDbLine
 10
487.4105937523795
 20
117.9311623990972
 30
0.0
 11
489.9105937523795
 21
117.9311623990972
 31
0.0
  0
LINE
  5
129B
330
10AE
100
AcDbEntity
  8
0
 62
     0
370
    -2
100
AcDbLine
 10
479.3163579542365
 20
117.9311623990972
 30
0.0
 11
467.983024620903
 21
117.9311623990972
 31
0.0
  0
LINE
  5
129C
330
10AE
100
AcDbEntity
  8
0
 62
     0
370
    -2
100
AcDbLine
 10
484.9105937523795
 20
117.9311623990972
 30
0.0
 11
481.8163579542366
 21
117.9311623990972
 31
0.0
  0
INSERT
  5
129D
330
10AE
100
AcDbEntity
  8
0
 62
     0
370
    -2
100
AcDbBlockReference
  2
_Open30
 10
484.9105937523795
 20
117.9311623990972
 30
0.0
 41
2.5
 42
2.5
 43
2.5
 50
180.0
  0
INSERT
  5
129E
330
10AE
100
AcDbEntity
  8
0
 62
     0
370
    -2
100
AcDbBlockReference
  2
_Open30
 10
481.8163579542366
 20
117.9311623990972
 30
0.0
 41
2.5
 42
2.5
 43
2.5
  0
MTEXT
  5
129F
330
10AE
100
AcDbEntity
  8
0
 62
     4
100
AcDbMText
 10
471.9413579542366
 20
119.8061623990972
 30
0.0
 40
2.5
 41
0.0
 71
     5
 72
     1
  1
1.55
 73
     1
 44
1.0
1001
ACAD
1000
MTEXTBEGIN
1070
    73
1070
     1
1070
    44
1040
1.0
1070
    74
1070
     0
1000
MTEXTEND
  0
POINT
  5
12A0
330
10AE
100
AcDbEntity
  8
Defpoints
 62
     0
100
AcDbPoint
 10
484.9105937523795
 20
119.4770544685606
 30
0.0
  0
POINT
  5
12A1
330
10AE
100
AcDbEntity
  8
Defpoints
 62
     0
100
AcDbPoint
 10
481.8163579542366
 20
119.4770544685606
 30
0.0
  0
POINT
  5
12A2
330
10AE
100
AcDbEntity
  8
Defpoints
 62
     0
100
AcDbPoint
 10
481.8163579542366
 20
117.9311623990972
 30
0.0
  0
ENDBLK
  5
10B0
330
10AE
100
AcDbEntity
  8
0
100
AcDbBlockEnd
  0
BLOCK
  5
10BD
330
10BC
100
AcDbEntity
  8
0
100
AcDbBlockBegin
  2
*D7
 70
     1
 10
0.0
 20
0.0
 30
0.0
  3
*D7
  1

  0
LINE
  5
12A3
330
10BC
100
AcDbEntity
  8
0
 62
     0
370
    -2
100
AcDbLine
 10
486.639725360465
 20
113.7709647527141
 30
0.0
 11
486.639725360465
 21
111.4978770903468
 31
0.0
  0
LINE
  5
12A4
330
10BC
100
AcDbEntity
  8
0
 62
     0
370
    -2
100
AcDbLine
 10
482.6354204072733
 20
113.7709647527141
 30
0.0
 11
482.6354204072733
 21
111.4978770903468
 31
0.0
  0
LINE
  5
12A5
330
10BC
100
AcDbEntity
  8
0
 62
     0
370
    -2
100
AcDbLine
 10
489.139725360465
 20
112.7478770903468
 30
0.0
 11
491.639725360465
 21
112.7478770903468
 31
0.0
  0
LINE
  5
12A6
330
10BC
100
AcDbEntity
  8
0
 62
     0
370
    -2
100
AcDbLine
 10
480.1354204072733
 20
112.7478770903468
 30
0.0
 11
471.8020870739398
 21
112.7478770903468
 31
0.0
  0
INSERT
  5
12A7
330
10BC
100
AcDbEntity
  8
0
 62
     0
370
    -2
100
AcDbBlockReference
  2
_Open30
 10
486.639725360465
 20
112.7478770903468
 30
0.0
 41
2.5
 42
2.5
 43
2.5
 50
180.0
  0
INSERT
  5
12A8
330
10BC
100
AcDbEntity
  8
0
 62
     0
370
    -2
100
AcDbBlockReference
  2
_Open30
 10
482.6354204072733
 20
112.7478770903468
 30
0.0
 41
2.5
 42
2.5
 43
2.5
  0
MTEXT
  5
12A9
330
10BC
100
AcDbEntity
  8
0
 62
     4
100
AcDbMText
 10
474.2604204072732
 20
114.3728770903468
 30
0.0
 40
2.0
 41
0.0
 71
     5
 72
     1
  1
0.8
  7
高2
 73
     1
 44
1.0
1001
ACAD
1000
MTEXTBEGIN
1070
    73
1070
     1
1070
    44
1040
1.0
1070
    74
1070
     0
1000
MTEXTEND
  0
POINT
  5
12AA
330
10BC
100
AcDbEntity
  8
Defpoints
 62
     0
100
AcDbPoint
 10
486.639725360465
 20
114.0209647527141
 30
0.0
  0
POINT
  5
12AB
330
10BC
100
AcDbEntity
  8
Defpoints
 62
     0
100
AcDbPoint
 10
482.6354204072733
 20
114.0209647527141
 30
0.0
  0
POINT
  5
12AC
330
10BC
100
AcDbEntity
  8
Defpoints
 62
     0
100
AcDbPoint
 10
482.6354204072733
 20
112.7478770903468
 30
0.0
  0
ENDBLK
  5
10BE
330
10BC
100
AcDbEntity
  8
0
100
AcDbBlockEnd
  0
BLOCK
  5
10CA
330
10C9
100
AcDbEntity
  8
0
100
AcDbBlockBegin
  2
*D8
 70
     1
 10
0.0
 20
0.0
 30
0.0
  3
*D8
  1

  0
LINE
  5
12AD
330
10C9
100
AcDbEntity
  8
0
 62
     0
370
    -2
100
AcDbLine
 10
486.5487186584527
 20
108.4967447846825
 30
0.0
 11
486.5487186584527
 21
106.6783312772261
 31
0.0
  0
LINE
  5
12AE
330
10C9
100
AcDbEntity
  8
0
 62
     0
370
    -2
100
AcDbLine
 10
481.8163579542366
 20
108.4967447846825
 30
0.0
 11
481.8163579542366
 21
106.6783312772261
 31
0.0
  0
LINE
  5
12AF
330
10C9
100
AcDbEntity
  8
0
 62
     0
370
    -2
100
AcDbLine
 10
489.0487186584526
 20
107.9283312772261
 30
0.0
 11
491.5487186584527
 21
107.9283312772261
 31
0.0
  0
LINE
  5
12B0
330
10C9
100
AcDbEntity
  8
0
 62
     0
370
    -2
100
AcDbLine
 10
479.3163579542365
 20
107.9283312772261
 30
0.0
 11
464.5663579542365
 21
107.9283312772261
 31
0.0
  0
LINE
  5
12B1
330
10C9
100
AcDbEntity
  8
0
 62
     0
370
    -2
100
AcDbLine
 10
486.5487186584527
 20
107.9283312772261
 30
0.0
 11
481.8163579542366
 21
107.9283312772261
 31
0.0
  0
INSERT
  5
12B2
330
10C9
100
AcDbEntity
  8
0
 62
     0
370
    -2
100
AcDbBlockReference
  2
_Open30
 10
486.5487186584527
 20
107.9283312772261
 30
0.0
 41
2.5
 42
2.5
 43
2.5
 50
180.0
  0
INSERT
  5
12B3
330
10C9
100
AcDbEntity
  8
0
 62
     0
370
    -2
100
AcDbBlockReference
  2
_Open30
 10
481.8163579542366
 20
107.9283312772261
 30
0.0
 41
2.5
 42
2.5
 43
2.5
  0
MTEXT
  5
12B4
330
10C9
100
AcDbEntity
  8
0
 62
     4
100
AcDbMText
 10
470.6913579542366
 20
110.0533312772261
 30
0.0
 40
3.0
 41
0.0
 71
     5
 72
     1
  1
18.93
 73
     1
 44
1.0
1001
ACAD
1000
MTEXTBEGIN
1070
    73
1070
     1
1070
    44
1040
1.0
1070
    74
1070
     0
1000
MTEXTEND
  0
POINT
  5
12B5
330
10C9
100
AcDbEntity
  8
Defpoints
 62
     0
100
AcDbPoint
 10
486.5487186584527
 20
108.7467447846825
 30
0.0
  0
POINT
  5
12B6
330
10C9
100
AcDbEntity
  8
Defpoints
 62
     0
100
AcDbPoint
 10
481.8163579542366
 20
108.7467447846825
 30
0.0
  0
POINT
  5
12B7
330
10C9
100
AcDbEntity
  8
Defpoints
 62
     0
100
AcDbPoint
 10
481.8163579542366
 20
107.9283312772261
 30
0.0
  0
ENDBLK
  5
10CB
330
10C9
100
AcDbEntity
  8
0
100
AcDbBlockEnd
  0
BLOCK
  5
10D8
330
10D7
100
AcDbEntity
  8
0
100
AcDbBlockBegin
  2
*D9
 70
     1
 10
0.0
 20
0.0
 30
0.0
  3
*D9
  1

  0
LINE
  5
12B8
330
10D7
100
AcDbEntity
  8
0
 62
     0
370
    -2
100
AcDbLine
 10
483.7442918073143
 20
103.4409045780927
 30
0.0
 11
483.7442918073143
 21
101.1309835012172
 31
0.0
  0
LINE
  5
12B9
330
10D7
100
AcDbEntity
  8
0
 62
     0
370
    -2
100
AcDbLine
 10
479.1556166051663
 20
103.4409045780927
 30
0.0
 11
479.1556166051663
 21
101.1309835012172
 31
0.0
  0
LINE
  5
12BA
330
10D7
100
AcDbEntity
  8
0
 62
     0
370
    -2
100
AcDbLine
 10
486.2442918073143
 20
102.3809835012172
 30
0.0
 11
488.7442918073142
 21
102.3809835012172
 31
0.0
  0
LINE
  5
12BB
330
10D7
100
AcDbEntity
  8
0
 62
     0
370
    -2
100
AcDbLine
 10
476.6556166051664
 20
102.3809835012172
 30
0.0
 11
461.9056166051664
 21
102.3809835012172
 31
0.0
  0
LINE
  5
12BC
330
10D7
100
AcDbEntity
  8
0
 62
     0
370
    -2
100
AcDbLine
 10
483.7442918073143
 20
102.3809835012172
 30
0.0
 11
479.1556166051663
 21
102.3809835012172
 31
0.0
  0
INSERT
  5
12BD
330
10D7
100
AcDbEntity
  8
0
 62
     0
370
    -2
100
AcDbBlockReference
  2
_Open30
 10
483.7442918073143
 20
102.3809835012172
 30
0.0
 41
2.5
 42
2.5
 43
2.5
 50
180.0
  0
INSERT
  5
12BE
330
10D7
100
AcDbEntity
  8
0
 62
     0
370
    -2
100
AcDbBlockReference
  2
_Open30
 10
479.1556166051663
 20
102.3809835012172
 30
0.0
 41
2.5
 42
2.5
 43
2.5
  0
MTEXT
  5
12BF
330
10D7
100
AcDbEntity
  8
0
 62
     4
100
AcDbMText
 10
468.0306166051662
 20
104.5059835012172
 30
0.0
 40
3.0
 41
0.0
 71
     5
 72
     1
  1
13.77
 73
     1
 44
1.0
1001
ACAD
1000
MTEXTBEGIN
1070
    73
1070
     1
1070
    44
1040
1.0
1070
    74
1070
     0
1000
MTEXTEND
  0
POINT
  5
12C0
330
10D7
100
AcDbEntity
  8
Defpoints
 62
     0
100
AcDbPoint
 10
483.7442918073143
 20
103.6909045780927
 30
0.0
  0
POINT
  5
12C1
330
10D7
100
AcDbEntity
  8
Defpoints
 62
     0
100
AcDbPoint
 10
479.1556166051663
 20
103.6909045780927
 30
0.0
  0
POINT
  5
12C2
330
10D7
100
AcDbEntity
  8
Defpoints
 62
     0
100
AcDbPoint
 10
479.1556166051663
 20
102.3809835012172
 30
0.0
  0
ENDBLK
  5
10D9
330
10D7
100
AcDbEntity
  8
0
100
AcDbBlockEnd
  0
BLOCK
  5
10E6
330
10E5
100
AcDbEntity
  8
0
100
AcDbBlockBegin
  2
*D10
 70
     1
 10
0.0
 20
0.0
 30
0.0
  3
*D10
  1

  0
LINE
  5
12C3
330
10E5
100
AcDbEntity
  8
0
 62
     0
370
    -2
100
AcDbLine
 10
476.6480089741641
 20
134.3703958963671
 30
0.0
 11
476.6480089741641
 21
141.7669293743048
 31
0.0
  0
LINE
  5
12C4
330
10E5
100
AcDbEntity
  8
0
 62
     0
370
    -2
100
AcDbLine
 10
466.7095346046742
 20
134.3703958963671
 30
0.0
 11
466.7095346046742
 21
141.7669293743048
 31
0.0
  0
LINE
  5
12C5
330
10E5
100
AcDbEntity
  8
0
 62
     0
370
    -2
100
AcDbLine
 10
474.148008974164
 20
140.5169293743048
 30
0.0
 11
469.2095346046741
 21
140.5169293743048
 31
0.0
  0
INSERT
  5
12C6
330
10E5
100
AcDbEntity
  8
0
 62
     0
370
    -2
100
AcDbBlockReference
  2
_Open30
 10
476.6480089741641
 20
140.5169293743048
 30
0.0
 41
2.5
 42
2.5
 43
2.5
  0
INSERT
  5
12C7
330
10E5
100
AcDbEntity
  8
0
 62
     0
370
    -2
100
AcDbBlockReference
  2
_Open30
 10
466.7095346046742
 20
140.5169293743048
 30
0.0
 41
2.5
 42
2.5
 43
2.5
 50
180.0
  0
MTEXT
  5
12C8
330
10E5
100
AcDbEntity
  8
0
 62
     4
100
AcDbMText
 10
469.5731621357539
 20
142.6419293743048
 30
0.0
 40
3.0
 41
0.0
 71
     5
 72
     1
  1
9.94
 73
     1
 44
1.0
1001
ACAD
1000
MTEXTBEGIN
1070
    73
1070
     1
1070
    44
1040
1.0
1070
    74
1070
     0
1000
MTEXTEND
  0
POINT
  5
12C9
330
10E5
100
AcDbEntity
  8
Defpoints
 62
     0
100
AcDbPoint
 10
476.6480089741641
 20
134.1203958963671
 30
0.0
  0
POINT
  5
12CA
330
10E5
100
AcDbEntity
  8
Defpoints
 62
     0
100
AcDbPoint
 10
466.7095346046742
 20
134.1203958963671
 30
0.0
  0
POINT
  5
12CB
330
10E5
100
AcDbEntity
  8
Defpoints
 62
     0
100
AcDbPoint
 10
466.7095346046742
 20
140.5169293743048
 30
0.0
  0
ENDBLK
  5
10E7
330
10E5
100
AcDbEntity
  8
0
100
AcDbBlockEnd
  0
BLOCK
  5
10F2
330
10F1
100
AcDbEntity
  8
0
100
AcDbBlockBegin
  2
*D11
 70
     1
 10
0.0
 20
0.0
 30
0.0
  3
*D11
  1

  0
LINE
  5
1261
330
10F1
100
AcDbEntity
  8
0
 62
     0
370
    -2
100
AcDbLine
 10
458.5185827661525
 20
124.683144041323
 30
0.0
 11
458.5185827661525
 21
121.7735126193141
 31
0.0
  0
LINE
  5
1262
330
10F1
100
AcDbEntity
  8
0
 62
     0
370
    -2
100
AcDbLine
 10
456.061395712032
 20
124.683144041323
 30
0.0
 11
456.061395712032
 21
121.7735126193141
 31
0.0
  0
LINE
  5
1263
330
10F1
100
AcDbEntity
  8
0
 62
     0
370
    -2
100
AcDbLine
 10
461.0185827661525
 20
123.0235126193141
 30
0.0
 11
463.5185827661523
 21
123.0235126193141
 31
0.0
  0
LINE
  5
1264
330
10F1
100
AcDbEntity
  8
0
 62
     0
370
    -2
100
AcDbLine
 10
453.5613957120321
 20
123.0235126193141
 30
0.0
 11
441.5613957120321
 21
123.0235126193141
 31
0.0
  0
LINE
  5
1265
330
10F1
100
AcDbEntity
  8
0
 62
     0
370
    -2
100
AcDbLine
 10
458.5185827661525
 20
123.0235126193141
 30
0.0
 11
456.061395712032
 21
123.0235126193141
 31
0.0
  0
INSERT
  5
1266
330
10F1
100
AcDbEntity
  8
0
 62
     0
370
    -2
100
AcDbBlockReference
  2
_Open30
 10
458.5185827661525
 20
123.0235126193141
 30
0.0
 41
2.5
 42
2.5
 43
2.5
 50
180.0
  0
INSERT
  5
1267
330
10F1
100
AcDbEntity
  8
0
 62
     0
370
    -2
100
AcDbBlockReference
  2
_Open30
 10
456.061395712032
 20
123.0235126193141
 30
0.0
 41
2.5
 42
2.5
 43
2.5
  0
MTEXT
  5
1268
330
10F1
100
AcDbEntity
  8
0
 62
     4
100
AcDbMText
 10
445.9363957120321
 20
124.8985126193141
 30
0.0
 40
2.5
 41
0.0
 71
     5
 72
     1
  1
2.46
 73
     1
 44
1.0
1001
ACAD
1000
MTEXTBEGIN
1070
    73
1070
     1
1070
    44
1040
1.0
1070
    74
1070
     0
1000
MTEXTEND
  0
POINT
  5
1269
330
10F1
100
AcDbEntity
  8
Defpoints
 62
     0
100
AcDbPoint
 10
458.5185827661525
 20
124.933144041323
 30
0.0
  0
POINT
  5
126A
330
10F1
100
AcDbEntity
  8
Defpoints
 62
     0
100
AcDbPoint
 10
456.061395712032
 20
124.933144041323
 30
0.0
  0
POINT
  5
126B
330
10F1
100
AcDbEntity
  8
Defpoints
 62
     0
100
AcDbPoint
 10
456.061395712032
 20
123.0235126193141
 30
0.0
  0
ENDBLK
  5
10F3
330
10F1
100
AcDbEntity
  8
0
100
AcDbBlockEnd
  0
ENDSEC
  0
SECTION
  2
ENTITIES
  0
LINE
  5
622
330
22
100
AcDbEntity
  8
0
 62
     3
100
AcDbLine
 10
0.0
 20
180.0
 30
0.0
 11
0.0
 21
0.0
 31
0.0
  0
LINE
  5
623
330
22
100
AcDbEntity
  8
0
 62
     3
100
AcDbLine
 10
277.0
 20
0.0
 30
0.0
 11
277.0
 21
180.0
 31
0.0
  0
LINE
  5
624
330
22
100
AcDbEntity
  8
0
 62
     3
100
AcDbLine
 10
0.0
 20
0.0
 30
0.0
 11
277.0
 21
0.0
 31
0.0
  0
LINE
  5
625
330
22
100
AcDbEntity
  8
0
 62
     3
100
AcDbLine
 10
225.30063652
 20
0.0
 30
0.0
 11
225.30063652
 21
39.66572252999998
 31
0.0
  0
LINE
  5
626
330
22
100
AcDbEntity
  8
0
 62
     3
100
AcDbLine
 10
238.3006365199999
 20
9.665722529999982
 30
0.0
 11
238.3006365199999
 21
37.66572252999997
 31
0.0
  0
LINE
  5
627
330
22
100
AcDbEntity
  8
0
 62
     3
100
AcDbLine
 10
198.24702709
 20
9.665722529999982
 30
0.0
 11
198.24702709
 21
23.66572252999997
 31
0.0
  0
LINE
  5
628
330
22
100
AcDbEntity
  8
0
 62
     3
100
AcDbLine
 10
208.5789614499999
 20
23.66572252999997
 30
0.0
 11
208.5789614499999
 21
0.0
 31
0.0
  0
LINE
  5
629
330
22
100
AcDbEntity
  8
0
 62
     3
100
AcDbLine
 10
178.9419921399999
 20
39.66572252999997
 30
0.0
 11
178.9419921399999
 21
16.66572252999998
 31
0.0
  0
LINE
  5
62A
330
22
100
AcDbEntity
  8
0
 62
     3
100
AcDbLine
 10
238.3006365199999
 20
37.66572252999997
 30
0.0
 11
238.3006365199999
 21
39.66572252999998
 31
0.0
  0
LINE
  5
62B
330
22
100
AcDbEntity
  8
0
 62
     3
100
AcDbLine
 10
251.3006365199999
 20
16.66572252999998
 30
0.0
 11
251.3006365199999
 21
39.66572252999998
 31
0.0
  0
LINE
  5
62C
330
22
100
AcDbEntity
  8
0
 62
     3
100
AcDbLine
 10
277.0
 20
39.66572252999998
 30
0.0
 11
165.6965575
 21
39.66572252999998
 31
0.0
  0
LINE
  5
62D
330
22
100
AcDbEntity
  8
0
 62
     3
100
AcDbLine
 10
277.0
 20
30.66572252999999
 30
0.0
 11
165.6965575
 21
30.66572252999999
 31
0.0
  0
LINE
  5
62E
330
22
100
AcDbEntity
  8
0
 62
     3
100
AcDbLine
 10
277.0
 20
16.66572252999998
 30
0.0
 11
165.6965575
 21
16.66572252999998
 31
0.0
  0
LINE
  5
62F
330
22
100
AcDbEntity
  8
0
 62
     3
100
AcDbLine
 10
277.0
 20
9.665722529999982
 30
0.0
 11
165.6965575
 21
9.665722529999982
 31
0.0
  0
LINE
  5
630
330
22
100
AcDbEntity
  8
0
 62
     3
100
AcDbLine
 10
264.30063652
 20
16.66572252999998
 30
0.0
 11
264.30063652
 21
39.66572252999998
 31
0.0
  0
LINE
  5
631
330
22
100
AcDbEntity
  8
0
 62
     3
100
AcDbLine
 10
165.6965575
 20
39.66572252999998
 30
0.0
 11
165.6965575
 21
0.0
 31
0.0
  0
LINE
  5
632
330
22
100
AcDbEntity
  8
0
 62
     3
100
AcDbLine
 10
225.30063652
 20
23.66572252999997
 30
0.0
 11
165.6965575
 21
23.66572252999997
 31
0.0
  0
LINE
  5
633
330
22
100
AcDbEntity
  8
0
 62
     3
100
AcDbLine
 10
208.5789614499999
 20
4.832861259999987
 30
0.0
 11
225.30063652
 21
4.832861259999987
 31
0.0
  0
LINE
  5
634
330
22
100
AcDbEntity
  8
0
 62
     3
100
AcDbLine
 10
212.30063652
 20
30.66572252999999
 30
0.0
 11
220.30063652
 21
30.66572252999999
 31
0.0
  0
LINE
  5
66C
330
22
100
AcDbEntity
  8
0
 62
     3
100
AcDbLine
 10
138.5
 20
188.4726172999999
 30
0.0
 11
138.5
 21
187.22405819
 31
0.0
  0
LINE
  5
66D
330
22
100
AcDbEntity
  8
0
 62
     3
100
AcDbLine
 10
126.58666128
 20
181.83332772
 30
0.0
 11
127.02240919
 21
181.60585958
 31
0.0
  0
LINE
  5
66E
330
22
100
AcDbEntity
  8
0
 62
     3
100
AcDbLine
 10
126.58666128
 20
178.10269725
 30
0.0
 11
127.02240919
 21
178.33016538
 31
0.0
  0
LINE
  5
66F
330
22
100
AcDbEntity
  8
0
 62
     3
100
AcDbLine
 10
127.02240919
 20
181.60585958
 30
0.0
 11
127.02240919
 21
178.33016538
 31
0.0
  0
LINE
  5
670
330
22
100
AcDbEntity
  8
0
 62
     3
100
AcDbLine
 10
128.12592661
 20
178.10269725
 30
0.0
 11
127.6901787
 21
178.33016538
 31
0.0
  0
LINE
  5
671
330
22
100
AcDbEntity
  8
0
 62
     3
100
AcDbLine
 10
127.6901787
 20
180.3270242
 30
0.0
 11
127.6901787
 21
178.33016538
 31
0.0
  0
LINE
  5
672
330
22
100
AcDbEntity
  8
0
 62
     3
100
AcDbLine
 10
130.66778939
 20
181.83332772
 30
0.0
 11
130.23204148
 21
181.60585958
 31
0.0
  0
LINE
  5
673
330
22
100
AcDbEntity
  8
0
 62
     3
100
AcDbLine
 10
129.12852406
 20
181.83332772
 30
0.0
 11
129.56427197
 21
181.60585958
 31
0.0
  0
LINE
  5
674
330
22
100
AcDbEntity
  8
0
 62
     3
100
AcDbLine
 10
129.56427197
 20
181.60585958
 30
0.0
 11
129.56427197
 21
180.16352252
 31
0.0
  0
LINE
  5
675
330
22
100
AcDbEntity
  8
0
 62
     3
100
AcDbLine
 10
130.23204148
 20
181.60585958
 30
0.0
 11
130.23204148
 21
177.8911361
 31
0.0
  0
LINE
  5
676
330
22
100
AcDbEntity
  8
0
 62
     3
100
AcDbLine
 10
130.88308659
 20
181.83332509
 30
0.0
 11
131.31883293
 21
181.60585396
 31
0.0
  0
LINE
  5
677
330
22
100
AcDbEntity
  8
0
 62
     3
100
AcDbLine
 10
130.88300862
 20
178.1027472199999
 30
0.0
 11
131.31876447
 21
178.33020015
 31
0.0
  0
LINE
  5
678
330
22
100
AcDbEntity
  8
0
 62
     3
100
AcDbLine
 10
131.31883293
 20
181.60585396
 30
0.0
 11
131.31883293
 21
178.33020015
 31
0.0
  0
LINE
  5
679
330
22
100
AcDbEntity
  8
0
 62
     3
100
AcDbLine
 10
132.81262299
 20
181.83330142
 30
0.0
 11
132.37687189
 21
181.6058393899999
 31
0.0
  0
LINE
  5
67A
330
22
100
AcDbEntity
  8
0
 62
     3
100
AcDbLine
 10
132.37687189
 20
181.6058393899999
 30
0.0
 11
132.37687189
 21
178.33018558
 31
0.0
  0
LINE
  5
67B
330
22
100
AcDbEntity
  8
0
 62
     3
100
AcDbLine
 10
132.81262299
 20
178.10272354
 30
0.0
 11
132.37687189
 21
178.33018558
 31
0.0
  0
LINE
  5
67C
330
22
100
AcDbEntity
  8
0
 62
     3
100
AcDbLine
 10
136.50287643
 20
181.83326042
 30
0.0
 11
136.93862355
 21
181.60579078
 31
0.0
  0
LINE
  5
67D
330
22
100
AcDbEntity
  8
0
 62
     3
100
AcDbLine
 10
136.93862355
 20
181.60579078
 30
0.0
 11
136.93856638
 21
178.33013697
 31
0.0
  0
LINE
  5
67E
330
22
100
AcDbEntity
  8
0
 62
     3
100
AcDbLine
 10
136.50281131
 20
178.10268254
 30
0.0
 11
136.93856638
 21
178.33013697
 31
0.0
  0
LINE
  5
67F
330
22
100
AcDbEntity
  8
0
 62
     3
100
AcDbLine
 10
138.45513739
 20
181.83326042
 30
0.0
 11
138.01939027
 21
181.60579078
 31
0.0
  0
LINE
  5
680
330
22
100
AcDbEntity
  8
0
 62
     3
100
AcDbLine
 10
138.4552025
 20
178.10268254
 30
0.0
 11
138.01944744
 21
178.33013697
 31
0.0
  0
LINE
  5
681
330
22
100
AcDbEntity
  8
0
 62
     3
100
AcDbLine
 10
138.65886525
 20
181.83326042
 30
0.0
 11
139.09461237
 21
181.60579078
 31
0.0
  0
LINE
  5
682
330
22
100
AcDbEntity
  8
0
 62
     3
100
AcDbLine
 10
138.65880014
 20
178.10268254
 30
0.0
 11
139.0945552
 21
178.33013697
 31
0.0
  0
LINE
  5
683
330
22
100
AcDbEntity
  8
0
 62
     3
100
AcDbLine
 10
140.61112622
 20
181.83326042
 30
0.0
 11
140.1753791
 21
181.60579078
 31
0.0
  0
LINE
  5
684
330
22
100
AcDbEntity
  8
0
 62
     3
100
AcDbLine
 10
140.1753791
 20
181.60579078
 30
0.0
 11
140.17543627
 21
178.33013697
 31
0.0
  0
LINE
  5
685
330
22
100
AcDbEntity
  8
0
 62
     3
100
AcDbLine
 10
140.61119133
 20
178.10268254
 30
0.0
 11
140.17543627
 21
178.33013697
 31
0.0
  0
LINE
  5
686
330
22
100
AcDbEntity
  8
0
 62
     3
100
AcDbLine
 10
139.09458747
 20
180.17865766
 30
0.0
 11
138.01941518
 21
180.17865766
 31
0.0
  0
LINE
  5
687
330
22
100
AcDbEntity
  8
0
 62
     3
100
AcDbLine
 10
139.09458011
 20
179.7573673
 30
0.0
 11
138.01942253
 21
179.7573673
 31
0.0
  0
LINE
  5
688
330
22
100
AcDbEntity
  8
0
 62
     3
100
AcDbLine
 10
139.09461237
 20
181.60579078
 30
0.0
 11
139.09458747
 21
180.17865766
 31
0.0
  0
LINE
  5
689
330
22
100
AcDbEntity
  8
0
 62
     3
100
AcDbLine
 10
139.09458011
 20
179.7573673
 30
0.0
 11
139.0945552
 21
178.33013697
 31
0.0
  0
LINE
  5
68A
330
22
100
AcDbEntity
  8
0
 62
     3
100
AcDbLine
 10
138.01939027
 20
181.60579078
 30
0.0
 11
138.01941518
 21
180.17865766
 31
0.0
  0
LINE
  5
68B
330
22
100
AcDbEntity
  8
0
 62
     3
100
AcDbLine
 10
138.01942253
 20
179.7573673
 30
0.0
 11
138.01944744
 21
178.33013697
 31
0.0
  0
LINE
  5
68C
330
22
100
AcDbEntity
  8
0
 62
     3
100
AcDbLine
 10
140.81808534
 20
181.83326042
 30
0.0
 11
141.25383246
 21
181.60579078
 31
0.0
  0
LINE
  5
68D
330
22
100
AcDbEntity
  8
0
 62
     3
100
AcDbLine
 10
141.25383246
 20
181.60579078
 30
0.0
 11
141.25377529
 21
178.33013697
 31
0.0
  0
LINE
  5
68E
330
22
100
AcDbEntity
  8
0
 62
     3
100
AcDbLine
 10
140.81802023
 20
178.10268254
 30
0.0
 11
141.25377529
 21
178.33013697
 31
0.0
  0
LINE
  5
68F
330
22
100
AcDbEntity
  8
0
 62
     3
100
AcDbLine
 10
142.74759561
 20
181.83326042
 30
0.0
 11
142.3118484899999
 21
181.60579078
 31
0.0
  0
LINE
  5
690
330
22
100
AcDbEntity
  8
0
 62
     3
100
AcDbLine
 10
142.3118484899999
 20
181.60579078
 30
0.0
 11
142.31190566
 21
178.33013697
 31
0.0
  0
LINE
  5
691
330
22
100
AcDbEntity
  8
0
 62
     3
100
AcDbLine
 10
142.74766072
 20
178.10268254
 30
0.0
 11
142.31190566
 21
178.33013697
 31
0.0
  0
LINE
  5
692
330
22
100
AcDbEntity
  8
0
 62
     3
100
AcDbLine
 10
142.96195517
 20
181.83326042
 30
0.0
 11
143.3977023
 21
181.60579078
 31
0.0
  0
LINE
  5
693
330
22
100
AcDbEntity
  8
0
 62
     3
100
AcDbLine
 10
143.3977023
 20
181.60579078
 30
0.0
 11
143.39764513
 21
178.33013697
 31
0.0
  0
LINE
  5
694
330
22
100
AcDbEntity
  8
0
 62
     3
100
AcDbLine
 10
142.96189006
 20
178.10268254
 30
0.0
 11
143.39764513
 21
178.33013697
 31
0.0
  0
ARC
  5
695
330
22
100
AcDbEntity
  8
0
 62
     3
100
AcDbCircle
 10
135.11096516
 20
179.97740224
 30
0.0
 40
2.086285909999999
100
AcDbArc
 50
97.70152351000048
 51
270.0
  0
ARC
  5
696
330
22
100
AcDbEntity
  8
0
 62
     3
100
AcDbCircle
 10
147.991566
 20
179.95644561
 30
0.0
 40
2.108943379999999
100
AcDbArc
 50
0.3142502700000961
 51
69.00558244999962
  0
ARC
  5
697
330
22
100
AcDbEntity
  8
0
 62
     3
100
AcDbCircle
 10
148.45224132
 20
179.95644561
 30
0.0
 40
2.108943379999999
100
AcDbArc
 50
110.9944175500004
 51
148.1166110199997
  0
ARC
  5
698
330
22
100
AcDbEntity
  8
0
 62
     3
100
AcDbCircle
 10
147.991566
 20
179.97957935
 30
0.0
 40
2.108943379999999
100
AcDbArc
 50
290.9944175500003
 51
359.6857497299998
  0
ARC
  5
699
330
22
100
AcDbEntity
  8
0
 62
     3
100
AcDbCircle
 10
148.45224132
 20
179.97957935
 30
0.0
 40
2.108943379999999
100
AcDbArc
 50
211.8833889800002
 51
249.0055824499996
  0
ARC
  5
69A
330
22
100
AcDbEntity
  8
0
 62
     3
100
AcDbCircle
 10
148.22190366
 20
180.83081788
 30
0.0
 40
1.214070989999997
100
AcDbArc
 50
64.36517189999965
 51
115.6348281000003
  0
ARC
  5
69B
330
22
100
AcDbEntity
  8
0
 62
     3
100
AcDbCircle
 10
148.22190366
 20
179.10520709
 30
0.0
 40
1.214070989999997
100
AcDbArc
 50
244.3651718999997
 51
295.6348281000003
  0
ARC
  5
69C
330
22
100
AcDbEntity
  8
0
 62
     3
100
AcDbCircle
 10
148.22190366
 20
180.85387956
 30
0.0
 40
0.59585563
100
AcDbArc
 50
19.48660554000013
 51
160.5133944599998
  0
ARC
  5
69D
330
22
100
AcDbEntity
  8
0
 62
     3
100
AcDbCircle
 10
148.22190366
 20
179.10520709
 30
0.0
 40
1.214070989999997
100
AcDbArc
 50
244.3651718999997
 51
295.6348281000003
  0
ARC
  5
69E
330
22
100
AcDbEntity
  8
0
 62
     3
100
AcDbCircle
 10
148.22190366
 20
179.08214541
 30
0.0
 40
0.59585563
100
AcDbArc
 50
199.4866055400001
 51
340.5133944599999
  0
ARC
  5
69F
330
22
100
AcDbEntity
  8
0
 62
     3
100
AcDbCircle
 10
143.47943116
 20
157.7399526399999
 30
0.0
 40
26.04
100
AcDbArc
 50
69.50571479999805
 51
81.68998807000065
  0
ARC
  5
6A0
330
22
100
AcDbEntity
  8
0
 62
     3
100
AcDbCircle
 10
143.47943116
 20
202.19607232
 30
0.0
 40
26.04
100
AcDbArc
 50
278.3100119299994
 51
290.4942851999986
  0
ARC
  5
6A1
330
22
100
AcDbEntity
  8
0
 62
     3
100
AcDbCircle
 10
151.78763528
 20
179.96801248
 30
0.0
 40
2.31
100
AcDbArc
 50
290.4942851999986
 51
69.50571479999805
  0
ARC
  5
6A2
330
22
100
AcDbEntity
  8
0
 62
     3
100
AcDbCircle
 10
124.48763528
 20
179.96801248
 30
0.0
 40
2.31
100
AcDbArc
 50
110.494285200002
 51
249.5057147999979
  0
ARC
  5
6A3
330
22
100
AcDbEntity
  8
0
 62
     3
100
AcDbCircle
 10
132.79583941
 20
157.7399526399999
 30
0.0
 40
26.04
100
AcDbArc
 50
98.31001192999934
 51
110.494285200002
  0
ARC
  5
6A4
330
22
100
AcDbEntity
  8
0
 62
     3
100
AcDbCircle
 10
132.79583941
 20
202.19607232
 30
0.0
 40
26.04
100
AcDbArc
 50
249.5057147999979
 51
261.6899880700007
  0
ARC
  5
6A5
330
22
100
AcDbEntity
  8
0
 62
     3
100
AcDbCircle
 10
138.13763528
 20
121.16801248
 30
0.0
 40
62.99999987
100
AcDbArc
 50
81.68998807000065
 51
98.31001192999934
  0
ARC
  5
6A6
330
22
100
AcDbEntity
  8
0
 62
     3
100
AcDbCircle
 10
138.13763528
 20
238.76801248
 30
0.0
 40
62.99999987
100
AcDbArc
 50
261.6899880700007
 51
278.3100119299994
  0
ARC
  5
6A7
330
22
100
AcDbEntity
  8
0
 62
     3
100
AcDbCircle
 10
138.13763528
 20
121.16801248
 30
0.0
 40
62.36999987
100
AcDbArc
 50
81.68998807000065
 51
98.31001192999934
  0
ARC
  5
6A8
330
22
100
AcDbEntity
  8
0
 62
     3
100
AcDbCircle
 10
138.13763528
 20
238.76801248
 30
0.0
 40
62.36999987
100
AcDbArc
 50
261.6899880700007
 51
278.3100119299994
  0
ARC
  5
6A9
330
22
100
AcDbEntity
  8
0
 62
     3
100
AcDbCircle
 10
143.47943116
 20
202.19607232
 30
0.0
 40
25.41
100
AcDbArc
 50
278.3100119299994
 51
290.4942851999986
  0
ARC
  5
6AA
330
22
100
AcDbEntity
  8
0
 62
     3
100
AcDbCircle
 10
143.47943116
 20
157.7399526399999
 30
0.0
 40
25.41
100
AcDbArc
 50
69.50571479999805
 51
81.68998807000065
  0
ARC
  5
6AB
330
22
100
AcDbEntity
  8
0
 62
     3
100
AcDbCircle
 10
151.78763528
 20
179.96801248
 30
0.0
 40
1.679999999999999
100
AcDbArc
 50
290.4942851999986
 51
69.50571479999805
  0
ARC
  5
6AC
330
22
100
AcDbEntity
  8
0
 62
     3
100
AcDbCircle
 10
124.48763528
 20
179.96801248
 30
0.0
 40
1.679999999999999
100
AcDbArc
 50
110.494285200002
 51
249.5057147999979
  0
ARC
  5
6AD
330
22
100
AcDbEntity
  8
0
 62
     3
100
AcDbCircle
 10
132.79583941
 20
157.7399526399999
 30
0.0
 40
25.41
100
AcDbArc
 50
98.31001192999934
 51
110.494285200002
  0
ARC
  5
6AE
330
22
100
AcDbEntity
  8
0
 62
     3
100
AcDbCircle
 10
132.79583941
 20
202.19607232
 30
0.0
 40
25.41
100
AcDbArc
 50
249.5057147999979
 51
261.6899880700007
  0
LINE
  5
6AF
330
22
100
AcDbEntity
  8
0
 62
     3
100
AcDbLine
 10
142.74759639
 20
177.8911361
 30
0.0
 11
140.81808456
 21
177.8911361
 31
0.0
  0
LINE
  5
6B0
330
22
100
AcDbEntity
  8
0
 62
     3
100
AcDbLine
 10
142.74759639
 20
178.10269725
 30
0.0
 11
142.74759639
 21
177.8911361
 31
0.0
  0
LINE
  5
6B1
330
22
100
AcDbEntity
  8
0
 62
     3
100
AcDbLine
 10
140.611127
 20
182.04479015
 30
0.0
 11
138.65886447
 21
182.04479015
 31
0.0
  0
LINE
  5
6B2
330
22
100
AcDbEntity
  8
0
 62
     3
100
AcDbLine
 10
140.611127
 20
182.04479015
 30
0.0
 11
140.611127
 21
181.83332772
 31
0.0
  0
LINE
  5
6B3
330
22
100
AcDbEntity
  8
0
 62
     3
100
AcDbLine
 10
140.611127
 20
178.10269725
 30
0.0
 11
140.611127
 21
177.89103739
 31
0.0
  0
LINE
  5
6B4
330
22
100
AcDbEntity
  8
0
 62
     3
100
AcDbLine
 10
140.611127
 20
177.89103739
 30
0.0
 11
138.65886447
 21
177.89103739
 31
0.0
  0
LINE
  5
6B5
330
22
100
AcDbEntity
  8
0
 62
     3
100
AcDbLine
 10
142.74759639
 20
182.04488886
 30
0.0
 11
142.74759639
 21
181.83332772
 31
0.0
  0
LINE
  5
6B6
330
22
100
AcDbEntity
  8
0
 62
     3
100
AcDbLine
 10
142.74759639
 20
182.04488886
 30
0.0
 11
140.81808456
 21
182.04488886
 31
0.0
  0
LINE
  5
6B7
330
22
100
AcDbEntity
  8
0
 62
     3
100
AcDbLine
 10
140.81808456
 20
182.04488886
 30
0.0
 11
140.81808456
 21
181.83332772
 31
0.0
  0
LINE
  5
6B8
330
22
100
AcDbEntity
  8
0
 62
     3
100
AcDbLine
 10
142.96195439
 20
178.10269725
 30
0.0
 11
142.96195439
 21
177.8911361
 31
0.0
  0
LINE
  5
6B9
330
22
100
AcDbEntity
  8
0
 62
     3
100
AcDbLine
 10
144.94625495
 20
177.8911361
 30
0.0
 11
142.96195439
 21
177.8911361
 31
0.0
  0
LINE
  5
6BA
330
22
100
AcDbEntity
  8
0
 62
     3
100
AcDbLine
 10
144.45571832
 20
181.37711934
 30
0.0
 11
144.45571832
 21
178.55890562
 31
0.0
  0
LINE
  5
6BB
330
22
100
AcDbEntity
  8
0
 62
     3
100
AcDbLine
 10
144.45571832
 20
178.55890562
 30
0.0
 11
144.64576729
 21
178.55890562
 31
0.0
  0
ARC
  5
6BC
330
22
100
AcDbEntity
  8
0
 62
     3
100
AcDbCircle
 10
143.67398155
 20
179.96801248
 30
0.0
 40
1.71170957
100
AcDbArc
 50
304.5919552700022
 51
55.40804472999777
  0
LINE
  5
6BD
330
22
100
AcDbEntity
  8
0
 62
     3
100
AcDbLine
 10
144.94625495
 20
182.04488886
 30
0.0
 11
142.96195439
 21
182.04488886
 31
0.0
  0
LINE
  5
6BE
330
22
100
AcDbEntity
  8
0
 62
     3
100
AcDbLine
 10
142.96195439
 20
182.04488886
 30
0.0
 11
142.96195439
 21
181.83332772
 31
0.0
  0
LINE
  5
6BF
330
22
100
AcDbEntity
  8
0
 62
     3
100
AcDbLine
 10
140.81808456
 20
178.10269725
 30
0.0
 11
140.81808456
 21
177.8911361
 31
0.0
  0
LINE
  5
6C0
330
22
100
AcDbEntity
  8
0
 62
     3
100
AcDbLine
 10
144.45571832
 20
181.37711934
 30
0.0
 11
144.64576729
 21
181.37711934
 31
0.0
  0
LINE
  5
6C1
330
22
100
AcDbEntity
  8
0
 62
     3
100
AcDbLine
 10
132.81255866
 20
178.10269725
 30
0.0
 11
132.81255497
 21
177.89111633
 31
0.0
  0
LINE
  5
6C2
330
22
100
AcDbEntity
  8
0
 62
     3
100
AcDbLine
 10
130.88304313
 20
177.8911558699999
 30
0.0
 11
132.81255497
 21
177.8911222
 31
0.0
  0
LINE
  5
6C3
330
22
100
AcDbEntity
  8
0
 62
     3
100
AcDbLine
 10
126.58666128
 20
177.8911361
 30
0.0
 11
128.12592661
 21
177.8911361
 31
0.0
  0
ARC
  5
6C4
330
22
100
AcDbEntity
  8
0
 62
     3
100
AcDbCircle
 10
121.6047186
 20
180.01691911
 30
0.0
 40
14.71356563
100
AcDbArc
 50
353.8660061900003
 51
357.69403426
  0
LINE
  5
6C5
330
22
100
AcDbEntity
  8
0
 62
     3
100
AcDbLine
 10
135.32129846
 20
179.42855145
 30
0.0
 11
136.30636935
 21
179.4249065799999
 31
0.0
  0
LINE
  5
6C7
330
22
100
AcDbEntity
  8
0
 62
     3
100
AcDbLine
 10
135.32527688
 20
180.5037661999999
 30
0.0
 11
136.31034776
 21
180.5001213199999
 31
0.0
  0
ARC
  5
6C8
330
22
100
AcDbEntity
  8
0
 62
     3
100
AcDbCircle
 10
121.6047186
 20
180.01691911
 30
0.0
 40
14.71356563
100
AcDbArc
 50
1.88196573999969
 51
5.709993810000494
  0
LINE
  5
6C9
330
22
100
AcDbEntity
  8
0
 62
     3
100
AcDbLine
 10
132.81262746
 20
182.0448690899999
 30
0.0
 11
132.81262377
 21
181.83332772
 31
0.0
  0
LINE
  5
6CA
330
22
100
AcDbEntity
  8
0
 62
     3
100
AcDbLine
 10
130.88311563
 20
182.04490863
 30
0.0
 11
132.81262746
 21
182.04487496
 31
0.0
  0
LINE
  5
6CB
330
22
100
AcDbEntity
  8
0
 62
     3
100
AcDbLine
 10
130.88304682
 20
178.10269725
 30
0.0
 11
130.88304313
 21
177.8911558699999
 31
0.0
  0
LINE
  5
6CC
330
22
100
AcDbEntity
  8
0
 62
     3
100
AcDbLine
 10
130.88311563
 20
182.04490863
 30
0.0
 11
130.88311193
 21
181.83332772
 31
0.0
  0
LINE
  5
6CD
330
22
100
AcDbEntity
  8
0
 62
     3
100
AcDbLine
 10
128.12592661
 20
178.10269725
 30
0.0
 11
128.12592661
 21
177.8911361
 31
0.0
  0
LINE
  5
6CE
330
22
100
AcDbEntity
  8
0
 62
     3
100
AcDbLine
 10
127.6901787
 20
180.3270242
 30
0.0
 11
129.21260876
 21
177.8911361
 31
0.0
  0
LINE
  5
6CF
330
22
100
AcDbEntity
  8
0
 62
     3
100
AcDbLine
 10
129.21260876
 20
177.8911361
 30
0.0
 11
130.23204148
 21
177.8911361
 31
0.0
  0
LINE
  5
6D0
330
22
100
AcDbEntity
  8
0
 62
     3
100
AcDbLine
 10
130.66778939
 20
182.04488886
 30
0.0
 11
130.66778939
 21
181.83332772
 31
0.0
  0
LINE
  5
6D1
330
22
100
AcDbEntity
  8
0
 62
     3
100
AcDbLine
 10
129.12852406
 20
182.04488886
 30
0.0
 11
130.66778939
 21
182.04488886
 31
0.0
  0
LINE
  5
6D2
330
22
100
AcDbEntity
  8
0
 62
     3
100
AcDbLine
 10
129.12852406
 20
182.04488886
 30
0.0
 11
129.12852406
 21
181.83332772
 31
0.0
  0
LINE
  5
6D3
330
22
100
AcDbEntity
  8
0
 62
     3
100
AcDbLine
 10
129.56427197
 20
180.16352252
 30
0.0
 11
128.3296253
 21
182.04488886
 31
0.0
  0
LINE
  5
6D4
330
22
100
AcDbEntity
  8
0
 62
     3
100
AcDbLine
 10
126.58666128
 20
182.04488886
 30
0.0
 11
128.3296253
 21
182.04488886
 31
0.0
  0
LINE
  5
6D5
330
22
100
AcDbEntity
  8
0
 62
     3
100
AcDbLine
 10
136.50287564
 20
182.04479015
 30
0.0
 11
138.45513818
 21
182.04479015
 31
0.0
  0
LINE
  5
6D6
330
22
100
AcDbEntity
  8
0
 62
     3
100
AcDbLine
 10
136.50287564
 20
181.83332772
 30
0.0
 11
136.50287564
 21
182.04479015
 31
0.0
  0
LINE
  5
6D7
330
22
100
AcDbEntity
  8
0
 62
     3
100
AcDbLine
 10
136.50287564
 20
177.89103739
 30
0.0
 11
136.50287564
 21
178.10269725
 31
0.0
  0
LINE
  5
6D8
330
22
100
AcDbEntity
  8
0
 62
     3
100
AcDbLine
 10
136.50287564
 20
177.89103739
 30
0.0
 11
138.45513818
 21
177.89103739
 31
0.0
  0
LINE
  5
6D9
330
22
100
AcDbEntity
  8
0
 62
     3
100
AcDbLine
 10
138.65886447
 20
178.10269725
 30
0.0
 11
138.65886447
 21
177.89103739
 31
0.0
  0
LINE
  5
6DA
330
22
100
AcDbEntity
  8
0
 62
     3
100
AcDbLine
 10
138.45513818
 20
178.10269725
 30
0.0
 11
138.45513818
 21
177.89103739
 31
0.0
  0
LINE
  5
6DB
330
22
100
AcDbEntity
  8
0
 62
     3
100
AcDbLine
 10
138.45513818
 20
181.83332772
 30
0.0
 11
138.45513818
 21
182.04479015
 31
0.0
  0
LINE
  5
6DC
330
22
100
AcDbEntity
  8
0
 62
     3
100
AcDbLine
 10
138.65886447
 20
181.83332772
 30
0.0
 11
138.65886447
 21
182.04479015
 31
0.0
  0
LINE
  5
6DD
330
22
100
AcDbEntity
  8
0
 62
     3
100
AcDbLine
 10
126.58666128
 20
178.10269725
 30
0.0
 11
126.58666128
 21
177.8911361
 31
0.0
  0
LINE
  5
6DE
330
22
100
AcDbEntity
  8
0
 62
     3
100
AcDbLine
 10
126.58666128
 20
182.04488886
 30
0.0
 11
126.58666128
 21
181.83332772
 31
0.0
  0
ARC
  5
6DF
330
22
100
AcDbEntity
  8
0
 62
     3
100
AcDbCircle
 10
145.15625495
 20
180.40376039
 30
0.0
 40
1.641128469999999
100
AcDbArc
 50
17.30874898000046
 51
23.76507096000027
  0
ARC
  5
6E0
330
22
100
AcDbEntity
  8
0
 62
     3
100
AcDbCircle
 10
143.75798155
 20
179.96801248
 30
0.0
 40
3.105725599999998
100
AcDbArc
 50
342.6912510199994
 51
17.30856643999926
  0
ARC
  5
6E1
330
22
100
AcDbEntity
  8
0
 62
     3
100
AcDbCircle
 10
145.15625495
 20
179.53226458
 30
0.0
 40
1.641128469999999
100
AcDbArc
 50
336.2349290399996
 51
342.6912510199994
  0
ARC
  5
6E2
330
22
100
AcDbEntity
  8
0
 62
     3
100
AcDbCircle
 10
144.94625495
 20
180.40376039
 30
0.0
 40
1.641128469999999
100
AcDbArc
 50
17.30874898000046
 51
90.0
  0
ARC
  5
6E3
330
22
100
AcDbEntity
  8
0
 62
     3
100
AcDbCircle
 10
143.54798155
 20
179.96801248
 30
0.0
 40
3.105725599999998
100
AcDbArc
 50
342.6912510199994
 51
17.30856643999926
  0
ARC
  5
6E4
330
22
100
AcDbEntity
  8
0
 62
     3
100
AcDbCircle
 10
144.94625495
 20
179.53226458
 30
0.0
 40
1.641128469999999
100
AcDbArc
 50
270.0
 51
342.6912510199994
  0
ARC
  5
6E5
330
22
100
AcDbEntity
  8
0
 62
     3
100
AcDbCircle
 10
134.82231458
 20
179.96801248
 30
0.0
 40
2.076876379999998
100
AcDbArc
 50
46.752879610001
 51
89.74999828999893
  0
ARC
  5
6E6
330
22
100
AcDbEntity
  8
0
 62
     3
100
AcDbCircle
 10
134.82231458
 20
179.96801248
 30
0.0
 40
2.076876379999998
100
AcDbArc
 50
273.9763331500004
 51
312.8231203899989
  0
ARC
  5
6E7
330
22
100
AcDbEntity
  8
0
 62
     3
100
AcDbCircle
 10
146.26412252
 20
179.93595095
 30
0.0
 40
2.755888999999998
100
AcDbArc
 50
0.6665840599998254
 51
23.90392827000075
  0
ARC
  5
6E8
330
22
100
AcDbEntity
  8
0
 62
     3
100
AcDbCircle
 10
150.1796848
 20
179.93595095
 30
0.0
 40
2.755888999999998
100
AcDbArc
 50
156.0960717299991
 51
179.3334159400002
  0
ARC
  5
6E9
330
22
100
AcDbEntity
  8
0
 62
     3
100
AcDbCircle
 10
146.26412252
 20
180.00007401
 30
0.0
 40
2.755888999999998
100
AcDbArc
 50
336.0960717299992
 51
359.3334159400002
  0
ARC
  5
6EA
330
22
100
AcDbEntity
  8
0
 62
     3
100
AcDbCircle
 10
150.1796848
 20
180.00007401
 30
0.0
 40
2.755888999999998
100
AcDbArc
 50
180.6665840599998
 51
203.9039282700007
  0
LINE
  5
6EB
330
22
100
AcDbEntity
  8
0
 62
     3
100
AcDbLine
 10
120.75644482
 20
180.0
 30
0.0
 11
0.0
 21
180.0
 31
0.0
  0
LINE
  5
6EC
330
22
100
AcDbEntity
  8
0
 62
     3
100
AcDbLine
 10
277.0
 20
180.0
 30
0.0
 11
155.56153806
 21
180.0
 31
0.0
  0
ARC
  5
74A
330
22
100
AcDbEntity
  8
0
100
AcDbCircle
 10
57.55044300671801
 20
110.5728014825105
 30
0.0
 40
14.39118252
100
AcDbArc
 50
20.47885299999978
 51
133.8077879999986
  0
CIRCLE
  5
74B
330
22
100
AcDbEntity
  8
0
100
AcDbCircle
 10
42.34746938641606
 20
116.9324637042545
 30
0.0
 40
2.354920775999997
  0
CIRCLE
  5
74C
330
22
100
AcDbEntity
  8
0
100
AcDbCircle
 10
70.91903509835201
 20
99.37971282318649
 30
0.0
 40
2.354920775999997
  0
LINE
  5
74E
330
22
100
AcDbEntity
  8
0
 62
     3
100
AcDbLine
 10
152.3935187980917
 20
93.1263092744699
 30
0.0
 11
133.0308368620919
 21
93.1263092744698
 31
0.0
  0
LINE
  5
754
330
22
100
AcDbEntity
  8
0
 62
     3
100
AcDbLine
 10
130.4142582220917
 20
121.1453722927797
 30
0.0
 11
130.4142582220919
 21
95.74288791446972
 31
0.0
  0
ARC
  5
756
330
22
100
AcDbEntity
  8
0
 62
     3
100
AcDbCircle
 10
133.0308368620919
 20
95.74288791446976
 30
0.0
 40
2.616578639999999
100
AcDbArc
 50
180.0
 51
270.0000000000003
  0
ARC
  5
757
330
22
100
AcDbEntity
  8
0
 62
     3
100
AcDbCircle
 10
152.3935187980917
 20
95.74288791446987
 30
0.0
 40
2.616578639999999
100
AcDbArc
 50
270.0000000000003
 51
0.0
  0
LINE
  5
758
330
22
100
AcDbEntity
  8
0
 62
     3
100
AcDbLine
 10
128.8443110380917
 20
115.9122150127797
 30
0.0
 11
128.8443110380917
 21
119.0521093807797
 31
0.0
  0
ARC
  5
759
330
22
100
AcDbEntity
  8
0
 62
     3
100
AcDbCircle
 10
129.6292846300917
 20
115.9122150127797
 30
0.0
 40
0.7849735920000001
100
AcDbArc
 50
180.0
 51
0.0
  0
ARC
  5
75A
330
22
100
AcDbEntity
  8
0
 62
     3
100
AcDbCircle
 10
129.6292846300917
 20
119.0521093807797
 30
0.0
 40
0.7849735920000001
100
AcDbArc
 50
0.0
 51
180.0
  0
LINE
  5
75B
330
22
100
AcDbEntity
  8
0
 62
     3
100
AcDbLine
 10
155.5334131660917
 20
119.8370829727798
 30
0.0
 11
155.0100974380917
 21
119.8370829727798
 31
0.0
  0
LINE
  5
75C
330
22
100
AcDbEntity
  8
0
 62
     3
100
AcDbLine
 10
155.5334131660917
 20
115.1272414207799
 30
0.0
 11
155.5334131660917
 21
119.8370829727798
 31
0.0
  0
LINE
  5
75D
330
22
100
AcDbEntity
  8
0
 62
     3
100
AcDbLine
 10
155.5334131660917
 20
115.1272414207799
 30
0.0
 11
155.0100974380917
 21
115.1272414207799
 31
0.0
  0
LINE
  5
76C
330
22
100
AcDbEntity
  8
0
 62
     3
100
AcDbLine
 10
75.27821634846401
 20
97.59641272419049
 30
0.0
 11
73.22466001732606
 21
92.57660835918644
 31
0.0
  0
ARC
  5
76D
330
22
100
AcDbEntity
  8
0
 62
     3
100
AcDbCircle
 10
70.91903509835201
 20
99.37971282318649
 30
0.0
 40
4.709841551999999
100
AcDbArc
 50
337.7509759999987
 51
125.7072219999999
  0
LINE
  5
76E
330
22
100
AcDbEntity
  8
0
 62
     3
100
AcDbLine
 10
63.128763350704
 20
99.58057399793451
 30
0.0
 11
68.17016660327812
 21
103.2041526185704
 31
0.0
  0
ARC
  5
76F
330
22
100
AcDbEntity
  8
0
 62
     3
100
AcDbCircle
 10
57.63102636055613
 20
107.2294487431865
 30
0.0
 40
9.419683103999998
100
AcDbArc
 50
270.0
 51
305.7072219999999
  0
ARC
  5
770
330
22
100
AcDbEntity
  8
0
 62
     3
100
AcDbCircle
 10
55.87189084985215
 20
107.2294487431865
 30
0.0
 40
9.419683103999998
100
AcDbArc
 50
199.8768740000009
 51
270.0
  0
LINE
  5
771
330
22
100
AcDbEntity
  8
0
 62
     3
100
AcDbLine
 10
45.68568345602214
 20
107.6991100725184
 30
0.0
 11
47.01337906760204
 21
104.0267564878265
 31
0.0
  0
ARC
  5
772
330
22
100
AcDbEntity
  8
0
 62
     3
100
AcDbCircle
 10
54.54419281551405
 20
110.9018023278785
 30
0.0
 40
9.419683103999998
100
AcDbArc
 50
153.6899360000011
 51
199.8768740000009
  0
ARC
  5
773
330
22
100
AcDbEntity
  8
0
 62
     3
100
AcDbCircle
 10
42.34746938641606
 20
116.9324637042545
 30
0.0
 40
4.186525823999995
100
AcDbArc
 50
333.6899359999993
 51
122.8714910000006
  0
ARC
  5
774
330
22
100
AcDbEntity
  8
0
 62
     3
100
AcDbCircle
 10
50.89707467815006
 20
102.5196071911864
 30
0.0
 40
9.942998831999998
100
AcDbArc
 50
199.8768740000009
 51
270.0
  0
LINE
  5
775
330
22
100
AcDbEntity
  8
0
 62
     3
100
AcDbLine
 10
57.63102636055613
 20
97.80976563918649
 30
0.0
 11
55.87189084985215
 21
97.80976563918649
 31
0.0
  0
LINE
  5
776
330
22
100
AcDbEntity
  8
0
 62
     3
100
AcDbLine
 10
70.85970175493199
 20
115.6183113098945
 30
0.0
 11
68.73189515936809
 21
103.5509268166264
 31
0.0
  0
LINE
  5
777
330
22
100
AcDbEntity
  8
0
 62
     3
100
AcDbLine
 10
77.13660256339608
 20
118.0661811965645
 30
0.0
 11
74.40091387184208
 21
102.5513259389224
 31
0.0
  0
LINE
  5
778
330
22
100
AcDbEntity
  8
0
 62
     3
100
AcDbLine
 10
78.59855288678812
 20
126.3573193965845
 30
0.0
 11
78.55556831435212
 21
126.1135463321405
 31
0.0
  0
LINE
  5
779
330
22
100
AcDbEntity
  8
0
 62
     3
100
AcDbLine
 10
72.92953417431397
 20
127.3569202742885
 30
0.0
 11
72.8140776418241
 21
126.7021311606604
 31
0.0
  0
LINE
  5
77A
330
22
100
AcDbEntity
  8
0
 62
     3
100
AcDbLine
 10
41.54642564060202
 20
99.13898758830647
 30
0.0
 11
35.02261187332602
 21
117.1835801481965
 31
0.0
  0
LINE
  5
77B
330
22
100
AcDbEntity
  8
0
 62
     3
100
AcDbLine
 10
40.07520584510205
 20
120.4486850723945
 30
0.0
 11
35.02261187332602
 21
117.1835801481965
 31
0.0
  0
ARC
  5
77C
330
22
100
AcDbEntity
  8
0
 62
     3
100
AcDbCircle
 10
61.2044175492221
 20
101.4007969288504
 30
0.0
 40
27.26497959081
100
AcDbArc
 50
69.15002700000147
 51
129.3835070203811
  0
LINE
  5
77D
330
22
100
AcDbEntity
  8
0
 62
     3
100
AcDbLine
 10
70.90862935274214
 20
126.8803443936245
 30
0.0
 11
83.6442153479261
 21
125.6892075367145
 31
0.0
  0
ARC
  5
77F
330
22
100
AcDbEntity
  8
0
 62
     7
100
AcDbCircle
 10
48.31279382504807
 20
120.2031118987565
 30
0.0
 40
1.046631455999997
100
AcDbArc
 50
133.8077879999986
 51
208.7349319999979
  0
ARC
  5
780
330
22
100
AcDbEntity
  8
0
 62
     3
100
AcDbCircle
 10
57.55044300671801
 20
110.5728014825105
 30
0.0
 40
12.7165721904
100
AcDbArc
 50
31.02672200000105
 51
139.9922639999989
  0
ARC
  5
781
330
22
100
AcDbEntity
  8
0
 62
     3
100
AcDbCircle
 10
71.13827773804612
 20
118.7458229617565
 30
0.0
 40
3.139894368
100
AcDbArc
 50
211.026722000001
 51
294.8768740000002
  0
LINE
  5
782
330
22
100
AcDbEntity
  8
0
 62
     3
100
AcDbLine
 10
72.45913632655009
 20
115.8972676660145
 30
0.0
 11
85.57145392246004
 21
121.9773702648965
 31
0.0
  0
ARC
  5
783
330
22
100
AcDbEntity
  8
0
 62
     3
100
AcDbCircle
 10
84.690880722538
 20
123.8764079363104
 30
0.0
 40
2.093262911999997
100
AcDbArc
 50
294.8768740000002
 51
120.0010740000012
  0
LINE
  5
784
330
22
100
AcDbEntity
  8
0
100
AcDbLine
 10
81.47163133900608
 20
129.9955508576044
 30
0.0
 11
80.99000400791217
 21
127.2641141063405
 31
0.0
  0
ARC
  5
785
330
22
100
AcDbEntity
  8
0
100
AcDbCircle
 10
80.19678819319606
 20
129.2543007792304
 30
0.0
 40
1.474677071165998
100
AcDbArc
 50
79.99999999999815
 51
153.1262170000004
  0
LINE
  5
786
330
22
100
AcDbEntity
  8
0
100
AcDbLine
 10
81.47163133900608
 20
129.9955508576044
 30
0.0
 11
81.04713748706803
 21
130.6017879009125
 31
0.0
  0
LINE
  5
788
330
22
100
AcDbEntity
  8
0
100
AcDbLine
 10
72.08031146291211
 20
132.1828821944705
 30
0.0
 11
81.04713748706803
 21
130.6017879009125
 31
0.0
  0
ARC
  5
78A
330
22
100
AcDbEntity
  8
0
100
AcDbCircle
 10
75.93851965930011
 20
127.8466202350385
 30
0.0
 40
3.600412208639997
100
AcDbArc
 50
35.17817900000178
 51
124.8218209999995
  0
ARC
  5
78C
330
22
100
AcDbEntity
  8
0
100
AcDbCircle
 10
72.41851152040613
 20
130.6258192375144
 30
0.0
 40
1.474677071165998
100
AcDbArc
 50
6.873782999999294
 51
79.99999999999815
  0
LINE
  5
78D
330
22
100
AcDbEntity
  8
0
100
AcDbLine
 10
71.47407199684606
 20
131.7583883425324
 30
0.0
 11
71.00332042641401
 21
129.0886180506425
 31
0.0
  0
LINE
  5
78E
330
22
100
AcDbEntity
  8
0
100
AcDbLine
 10
72.08031146291211
 20
132.1828821944705
 30
0.0
 11
71.47407199684606
 21
131.7583883425324
 31
0.0
  0
LINE
  5
78F
330
22
100
AcDbEntity
  8
0
100
AcDbLine
 10
73.88258902532212
 20
130.8023147350564
 30
0.0
 11
73.49183692405006
 21
128.5862422200364
 31
0.0
  0
LINE
  5
790
330
22
100
AcDbEntity
  8
0
100
AcDbLine
 10
78.88136869640203
 20
129.9208935698344
 30
0.0
 11
78.49061417237209
 21
127.7048234775725
 31
0.0
  0
ARC
  5
791
330
22
100
AcDbEntity
  8
0
100
AcDbCircle
 10
73.87661450409405
 20
116.1529800818825
 30
0.0
 40
12.43921485456
100
AcDbArc
 50
68.22740299999894
 51
91.77259699999959
  0
LINE
  5
792
330
22
100
AcDbEntity
  8
0
100
AcDbLine
 10
80.99000400791217
 20
127.2641141063405
 30
0.0
 11
70.9284935455841
 21
129.0382295297585
 31
0.0
  0
ARC
  5
793
330
22
100
AcDbEntity
  8
0
100
AcDbCircle
 10
71.061851836936
 20
122.9639415500765
 30
0.0
 40
6.124957540493997
100
AcDbArc
 50
66.62577900000086
 51
90.54754200000003
  0
ARC
  5
794
330
22
100
AcDbEntity
  8
0
100
AcDbCircle
 10
71.40055098257805
 20
128.4179889452104
 30
0.0
 40
0.7794448582440002
100
AcDbArc
 50
120.6394339999999
 51
259.9999999999982
  0
LINE
  5
795
330
22
100
AcDbEntity
  8
0
100
AcDbLine
 10
71.26520360690811
 20
127.6503865280705
 30
0.0
 11
80.262883454194
 21
126.0638531428025
 31
0.0
  0
ARC
  5
796
330
22
100
AcDbEntity
  8
0
100
AcDbCircle
 10
78.85111329449809
 20
121.5904848853925
 30
0.0
 40
6.124957540493997
100
AcDbArc
 50
69.45245799999921
 51
93.37422100000114
  0
ARC
  5
797
330
22
100
AcDbEntity
  8
0
100
AcDbCircle
 10
80.3982332526221
 20
126.8314555599425
 30
0.0
 40
0.7794448582440002
100
AcDbArc
 50
259.9999999999982
 51
39.36056599999861
  0
LINE
  5
798
330
22
100
AcDbEntity
  8
0
100
AcDbLine
 10
79.86928703503014
 20
133.5640044654665
 30
0.0
 11
79.39823504260608
 21
130.8925333974604
 31
0.0
  0
LINE
  5
799
330
22
100
AcDbEntity
  8
0
100
AcDbLine
 10
79.86928703503014
 20
133.5640044654665
 30
0.0
 11
79.4447931830921
 21
134.1702415087744
 31
0.0
  0
LINE
  5
79A
330
22
100
AcDbEntity
  8
0
100
AcDbLine
 10
74.80650536586399
 20
134.9880967723505
 30
0.0
 11
79.4447931830921
 21
134.1702415087744
 31
0.0
  0
LINE
  5
79B
330
22
100
AcDbEntity
  8
0
100
AcDbLine
 10
74.80650536586399
 20
134.9880967723505
 30
0.0
 11
74.20026589979801
 21
134.5636053431705
 31
0.0
  0
LINE
  5
79C
330
22
100
AcDbEntity
  8
0
100
AcDbLine
 10
74.20026589979801
 20
134.5636053431705
 30
0.0
 11
73.72921390737413
 21
131.8921342751644
 31
0.0
  0
ARC
  5
831
330
22
100
AcDbEntity
  8
0
 62
     3
100
AcDbCircle
 10
42.34746938641606
 20
116.9324637042545
 30
0.0
 40
5.756473007999999
100
AcDbArc
 50
74.30625543795905
 51
166.2132593928346
  0
LINE
  5
832
330
22
100
AcDbEntity
  8
0
100
AcDbLine
 10
47.81008728357895
 20
118.7481717285829
 30
0.0
 11
46.51371124657798
 21
117.3440791044201
 31
0.0
  0
LINE
  5
833
330
22
100
AcDbEntity
  8
0
100
AcDbLine
 10
47.3950516639547
 20
119.6999352593539
 30
0.0
 11
47.49119997957526
 21
118.4027879057481
 31
0.0
  0
CIRCLE
  5
841
330
22
100
AcDbEntity
  8
0
100
AcDbCircle
 10
57.66555471732757
 20
110.8972388236989
 30
0.0
 40
12.1536844923897
  0
LINE
  5
87B
330
22
100
AcDbEntity
  8
0
  6
CENTER
100
AcDbLine
 10
172.5411743260917
 20
111.122499975036
 30
0.0
 11
109.5537440267671
 21
111.1224999750356
 31
0.0
  0
SPLINE
  5
880
330
22
100
AcDbEntity
  8
0
100
AcDbSpline
210
0.0
220
0.0
230
1.0
 70
    40
 71
     3
 72
    10
 73
     6
 74
     4
 42
0.0000000001
 43
0.0000000001
 44
0.0000000001
 40
0.0
 40
0.0
 40
0.0
 40
0.0
 40
12.05188643700223
 40
22.89543385270606
 40
33.99124372211542
 40
33.99124372211542
 40
33.99124372211542
 40
33.99124372211542
 10
171.9299127333136
 20
96.146289779644
 30
0.0
 10
169.4116328660959
 20
99.9820809336637
 30
0.0
 10
164.6275593997659
 20
107.2690814458838
 30
0.0
 10
175.9239072327839
 20
117.1128119345338
 30
0.0
 10
170.6590020827996
 20
123.7637611990381
 30
0.0
 10
167.9962811213091
 20
127.1274727030256
 30
0.0
 11
171.9299127333136
 21
96.146289779644
 31
0.0
 11
167.8089648763957
 21
107.4717370313406
 31
0.0
 11
172.7728342468943
 21
117.1124072066574
 31
0.0
 11
167.9962811213091
 21
127.1274727030256
 31
0.0
  0
SPLINE
  5
881
330
22
100
AcDbEntity
  8
0
100
AcDbSpline
210
0.0
220
0.0
230
1.0
 70
    40
 71
     3
 72
    10
 73
     6
 74
     4
 42
0.0000000001
 43
0.0000000001
 44
0.0000000001
 40
0.0
 40
0.0
 40
0.0
 40
0.0
 40
12.05188643700227
 40
22.89543385270606
 40
33.99124372211556
 40
33.99124372211556
 40
33.99124372211556
 40
33.99124372211556
 10
114.8922448280727
 20
95.30390155284564
 30
0.0
 10
112.373964960855
 20
99.13969270686539
 30
0.0
 10
107.589891494525
 20
106.4266932190855
 30
0.0
 10
118.8862393275431
 20
116.2704237077355
 30
0.0
 10
113.6213341775587
 20
122.9213729722397
 30
0.0
 10
110.9586132160682
 20
126.2850844762273
 30
0.0
 11
114.8922448280727
 21
95.30390155284564
 31
0.0
 11
110.7712969711548
 21
106.6293488045423
 31
0.0
 11
115.7351663416535
 21
116.270018979859
 31
0.0
 11
110.9586132160682
 21
126.2850844762273
 31
0.0
  0
CIRCLE
  5
958
330
22
100
AcDbEntity
  8
0
100
AcDbCircle
 10
70.91903509835201
 20
99.37971282318649
 30
0.0
 40
1.25
  0
CIRCLE
  5
959
330
22
100
AcDbEntity
  8
0
100
AcDbCircle
 10
42.34746938641606
 20
116.9324637042545
 30
0.0
 40
1.25
  0
LINE
  5
CE4
330
22
100
AcDbEntity
  8
0
100
AcDbLine
 10
173.8479960683283
 20
63.99145295290782
 30
0.0
 11
251.2297388905464
 21
63.99145295290782
 31
0.0
  0
LINE
  5
CE5
330
22
100
AcDbEntity
  8
0
100
AcDbLine
 10
173.7465779207274
 20
53.65337749314766
 30
0.0
 11
220.7029968351782
 21
53.65337749314766
 31
0.0
  0
TEXT
  5
D12
330
22
100
AcDbEntity
  8
0
 62
     3
100
AcDbText
 10
88.02475769000347
 20
141.6654867914835
 30
0.0
 40
3.2
  1
インチねじ7/16
  7
高3.2
100
AcDbText
  0
LINE
  5
D26
330
22
100
AcDbEntity
  8
0
 62
     3
100
AcDbLine
 10
147.7880716236471
 20
131.3438626300882
 30
0.0
 11
147.7880703081928
 21
128.5702888322219
 31
0.0
  0
ARC
  5
D27
330
22
100
AcDbEntity
  8
0
 62
     3
100
AcDbCircle
 10
146.6613129350842
 20
130.3924996169035
 30
0.0
 40
1.474677071165998
100
AcDbArc
 50
89.99999999999872
 51
163.1262170000009
  0
LINE
  5
D28
330
22
100
AcDbEntity
  8
0
 62
     3
100
AcDbLine
 10
147.7880716236471
 20
131.3438626300882
 30
0.0
 11
147.264754829348
 21
131.8671769866813
 31
0.0
  0
LINE
  5
D29
330
22
100
AcDbEntity
  8
0
 62
     3
100
AcDbLine
 10
138.1596008980517
 20
131.8671779066694
 30
0.0
 11
147.264754829348
 21
131.8671769866813
 31
0.0
  0
ARC
  5
D2A
330
22
100
AcDbEntity
  8
0
 62
     3
100
AcDbCircle
 10
142.7121782297317
 20
128.2667643322913
 30
0.0
 40
3.600412208639997
100
AcDbArc
 50
45.17817900000181
 51
134.8218210000002
  0
ARC
  5
D2B
330
22
100
AcDbEntity
  8
0
 62
     3
100
AcDbCircle
 10
138.763044081729
 20
130.3924980584017
 30
0.0
 40
1.474677071165998
100
AcDbArc
 50
16.87378299999914
 51
89.99999999999872
  0
LINE
  5
D2C
330
22
100
AcDbEntity
  8
0
 62
     3
100
AcDbLine
 10
137.6362841555078
 20
131.3438606916627
 30
0.0
 11
137.6362851051796
 21
128.6329050571084
 31
0.0
  0
LINE
  5
D2D
330
22
100
AcDbEntity
  8
0
 62
     3
100
AcDbLine
 10
138.1596008980517
 20
131.8671779066694
 30
0.0
 11
137.6362841555078
 21
131.3438606916627
 31
0.0
  0
LINE
  5
D2E
330
22
100
AcDbEntity
  8
0
 62
     3
100
AcDbLine
 10
140.1742308380665
 20
130.8205465834445
 30
0.0
 11
140.174232093039
 21
128.5702877991103
 31
0.0
  0
LINE
  5
D2F
330
22
100
AcDbEntity
  8
0
 62
     3
100
AcDbLine
 10
145.2501249928437
 20
130.8205451667064
 30
0.0
 11
145.2501234411579
 21
128.5702883476155
 31
0.0
  0
ARC
  5
D30
330
22
100
AcDbEntity
  8
0
 62
     3
100
AcDbCircle
 10
142.7121773497974
 20
116.3927307758048
 30
0.0
 40
12.43921485456
100
AcDbArc
 50
78.22740299999965
 51
101.7725970000001
  0
LINE
  5
D31
330
22
100
AcDbEntity
  8
0
 62
     3
100
AcDbLine
 10
147.7880703081928
 20
128.5702888322219
 30
0.0
 11
137.5713448876314
 21
128.5702884995824
 31
0.0
  0
ARC
  5
D32
330
22
100
AcDbEntity
  8
0
 62
     3
100
AcDbCircle
 10
138.7574662051792
 20
122.6114400274327
 30
0.0
 40
6.124957540493997
100
AcDbArc
 50
76.62577900000103
 51
100.5475420000006
  0
ARC
  5
D33
330
22
100
AcDbEntity
  8
0
 62
     3
100
AcDbCircle
 10
138.143934358672
 20
128.0414426768748
 30
0.0
 40
0.779444858244
100
AcDbArc
 50
130.6394340000005
 51
237.3076766414381
  0
ARC
  5
D35
330
22
100
AcDbEntity
  8
0
 62
     3
100
AcDbCircle
 10
146.6668895257524
 20
122.6114403131026
 30
0.0
 40
6.124957540493997
100
AcDbArc
 50
79.45245800000008
 51
103.374221000002
  0
ARC
  5
D36
330
22
100
AcDbEntity
  8
0
 62
     3
100
AcDbCircle
 10
147.2804202485114
 20
128.0414434280694
 30
0.0
 40
0.779444858244
100
AcDbArc
 50
302.6922211248983
 51
49.3605659999994
  0
LINE
  5
D39
330
22
100
AcDbEntity
  8
0
 62
     3
100
AcDbLine
 10
141.102357424049
 20
135.1031735786094
 30
0.0
 11
144.3219982361342
 21
135.1031735940211
 31
0.0
  0
LINE
  5
D90
330
22
100
AcDbEntity
  8
0
 62
     3
100
AcDbLine
 10
50.89707467815006
 20
92.57660835918647
 30
0.0
 11
73.22466001732606
 21
92.57660835918644
 31
0.0
  0
LINE
  5
DA8
330
22
100
AcDbEntity
  8
0
 62
     3
100
AcDbLine
 10
61.50201342575472
 20
86.50888929701256
 30
0.0
 11
61.50201237339121
 21
88.72774833530561
 31
0.0
  0
ARC
  5
DA9
330
22
100
AcDbEntity
  8
0
 62
     3
100
AcDbCircle
 10
60.60060647490438
 20
87.26997970756029
 30
0.0
 40
1.179741656932797
100
AcDbArc
 50
196.8737829999998
 51
270.0000000000027
  0
LINE
  5
DAA
330
22
100
AcDbEntity
  8
0
 62
     3
100
AcDbLine
 10
61.50201342575472
 20
86.50888929701256
 30
0.0
 11
61.08335999031542
 21
86.09023781173805
 31
0.0
  0
LINE
  5
DAB
330
22
100
AcDbEntity
  8
0
 62
     3
100
AcDbLine
 10
53.79923684527834
 20
86.09023707574745
 30
0.0
 11
61.08335999031542
 21
86.09023781173805
 31
0.0
  0
ARC
  5
DAC
330
22
100
AcDbEntity
  8
0
 62
     3
100
AcDbCircle
 10
57.44129871062227
 20
88.97056793524997
 30
0.0
 40
2.880329766911997
100
AcDbArc
 50
225.1781790000006
 51
314.8218209999994
  0
ARC
  5
DAD
330
22
100
AcDbEntity
  8
0
 62
     3
100
AcDbCircle
 10
54.28199139222016
 20
87.26998095436156
 30
0.0
 40
1.179741656932797
100
AcDbArc
 50
270.0000000000027
 51
343.1262170000018
  0
LINE
  5
DAE
330
22
100
AcDbEntity
  8
0
 62
     3
100
AcDbLine
 10
53.38058345124321
 20
86.50889084775283
 30
0.0
 11
53.38058421098065
 21
88.6776553553962
 31
0.0
  0
LINE
  5
DAF
330
22
100
AcDbEntity
  8
0
 62
     3
100
AcDbLine
 10
53.79923684527834
 20
86.09023707574745
 30
0.0
 11
53.38058345124321
 21
86.50889084775283
 31
0.0
  0
LINE
  5
DB0
330
22
100
AcDbEntity
  8
0
 62
     3
100
AcDbLine
 10
55.4109407972902
 20
86.92754213432728
 30
0.0
 11
55.41094180126815
 21
88.72774916179478
 31
0.0
  0
LINE
  5
DB1
330
22
100
AcDbEntity
  8
0
 62
     3
100
AcDbLine
 10
59.47165612111195
 20
86.9275432677179
 30
0.0
 11
59.47165487976326
 21
88.72774872299066
 31
0.0
  0
LINE
  5
DB3
330
22
100
AcDbEntity
  8
0
 62
     3
100
AcDbLine
 10
61.50201237339121
 20
88.72774833530561
 30
0.0
 11
53.32863203694206
 21
88.72774860141701
 31
0.0
  0
ARC
  5
DB5
330
22
100
AcDbEntity
  8
0
 62
     3
100
AcDbCircle
 10
53.78670361377452
 20
89.15082525958313
 30
0.0
 40
0.6235558865952
100
AcDbArc
 50
122.6923233585626
 51
229.3605660000007
  0
ARC
  5
DB7
330
22
100
AcDbEntity
  8
0
 62
     3
100
AcDbCircle
 10
61.09589232564601
 20
89.15082465862758
 30
0.0
 40
0.6235558865952
100
AcDbArc
 50
310.6394340000016
 51
57.30777887510275
  0
LINE
  5
DB8
330
22
100
AcDbEntity
  8
0
 62
     3
100
AcDbLine
 10
59.74388817803907
 20
83.92009200828734
 30
0.0
 11
59.74388852078952
 21
86.09023820012009
 31
0.0
  0
LINE
  5
DB9
330
22
100
AcDbEntity
  8
0
100
AcDbLine
 10
59.74388817803907
 20
83.92009200828734
 30
0.0
 11
59.32523474259975
 21
83.50144052301287
 31
0.0
  0
LINE
  5
DBA
330
22
100
AcDbEntity
  8
0
 62
     3
100
AcDbLine
 10
55.5573620392208
 20
83.50144054104875
 30
0.0
 11
59.32523474259975
 21
83.50144052301287
 31
0.0
  0
LINE
  5
DBB
330
22
100
AcDbEntity
  8
0
100
AcDbLine
 10
55.5573620392208
 20
83.50144054104875
 30
0.0
 11
55.13870830861967
 21
83.92009240429343
 31
0.0
  0
LINE
  5
DBC
330
22
100
AcDbEntity
  8
0
 62
     3
100
AcDbLine
 10
55.13870830861967
 20
83.92009240429343
 30
0.0
 11
55.13870865137032
 21
86.0902385961261
 31
0.0
  0
LINE
  5
DBE
330
22
100
AcDbEntity
  8
0
 62
     3
100
AcDbLine
 10
53.44990388937997
 20
89.67559939133435
 30
0.0
 11
61.43269111367821
 21
89.67559939133444
 31
0.0
  0
LINE
  5
DC0
330
22
100
AcDbEntity
  8
0
 62
     3
100
AcDbLine
 10
55.13870865137011
 20
89.67559939133439
 30
0.0
 11
55.13870865137011
 21
92.57660835918644
 31
0.0
  0
LINE
  5
DC1
330
22
100
AcDbEntity
  8
0
 62
     3
100
AcDbLine
 10
59.74388852078944
 20
89.67559939133444
 30
0.0
 11
59.74388852078945
 21
92.57660835918644
 31
0.0
  0
LINE
  5
DC4
330
22
100
AcDbEntity
  8
0
100
AcDbLine
 10
55.5573620392208
 20
89.67559939133439
 30
0.0
 11
55.5573620392208
 21
92.57660835918644
 31
0.0
  0
LINE
  5
DC5
330
22
100
AcDbEntity
  8
0
100
AcDbLine
 10
59.32523474259975
 20
89.67559939133442
 30
0.0
 11
59.32523474259975
 21
92.57660835918644
 31
0.0
  0
LINE
  5
DC9
330
22
100
AcDbEntity
  8
0
100
AcDbLine
 10
59.32523474259975
 20
83.50144052301287
 30
0.0
 11
59.32523448102671
 21
86.09023763409636
 31
0.0
  0
LINE
  5
DCA
330
22
100
AcDbEntity
  8
0
100
AcDbLine
 10
55.5573620392208
 20
83.50144054104875
 30
0.0
 11
55.55736177764779
 21
86.09023725338905
 31
0.0
  0
LINE
  5
DCB
330
22
100
AcDbEntity
  8
0
100
AcDbLine
 10
59.74388817803907
 20
83.92009200828734
 30
0.0
 11
55.13870830861967
 21
83.92009240429343
 31
0.0
  0
LINE
  5
DD0
330
22
100
AcDbEntity
  8
0
 62
     3
100
AcDbLine
 10
138.6514630175925
 20
86.61882948006924
 30
0.0
 11
138.651464069956
 21
88.83768851836228
 31
0.0
  0
ARC
  5
DD1
330
22
100
AcDbEntity
  8
0
 62
     3
100
AcDbCircle
 10
139.5528699684428
 20
87.37991989061697
 30
0.0
 40
1.179741656932797
100
AcDbArc
 50
269.9999999999967
 51
343.1262170000002
  0
LINE
  5
DD2
330
22
100
AcDbEntity
  8
0
 62
     3
100
AcDbLine
 10
138.6514630175925
 20
86.61882948006924
 30
0.0
 11
139.0701164530318
 21
86.20017799479473
 31
0.0
  0
LINE
  5
DD3
330
22
100
AcDbEntity
  8
0
 62
     3
100
AcDbLine
 10
146.3542395980689
 20
86.20017725880414
 30
0.0
 11
139.0701164530318
 21
86.20017799479473
 31
0.0
  0
ARC
  5
DD4
330
22
100
AcDbEntity
  8
0
 62
     3
100
AcDbCircle
 10
142.712177732725
 20
89.08050811830667
 30
0.0
 40
2.880329766911997
100
AcDbArc
 50
225.1781790000001
 51
314.8218209999999
  0
ARC
  5
DD5
330
22
100
AcDbEntity
  8
0
 62
     3
100
AcDbCircle
 10
145.871485051127
 20
87.3799211374183
 30
0.0
 40
1.179741656932797
100
AcDbArc
 50
196.8737829999981
 51
269.9999999999967
  0
LINE
  5
DD6
330
22
100
AcDbEntity
  8
0
 62
     3
100
AcDbLine
 10
146.772892992104
 20
86.61883103080951
 30
0.0
 11
146.7728922323666
 21
88.7875955384529
 31
0.0
  0
LINE
  5
DD7
330
22
100
AcDbEntity
  8
0
 62
     3
100
AcDbLine
 10
146.3542395980689
 20
86.20017725880414
 30
0.0
 11
146.772892992104
 21
86.61883103080951
 31
0.0
  0
LINE
  5
DD8
330
22
100
AcDbEntity
  8
0
 62
     3
100
AcDbLine
 10
144.742535646057
 20
87.03748231738396
 30
0.0
 11
144.7425346420791
 21
88.83768934485145
 31
0.0
  0
LINE
  5
DD9
330
22
100
AcDbEntity
  8
0
 62
     3
100
AcDbLine
 10
140.6818203222353
 20
87.03748345077459
 30
0.0
 11
140.681821563584
 21
88.83768890604731
 31
0.0
  0
LINE
  5
DDB
330
22
100
AcDbEntity
  8
0
 62
     3
100
AcDbLine
 10
138.651464069956
 20
88.83768851836228
 30
0.0
 11
146.8248444064052
 21
88.83768878447368
 31
0.0
  0
ARC
  5
DDD
330
22
100
AcDbEntity
  8
0
 62
     3
100
AcDbCircle
 10
146.3667728295727
 20
89.26076544263981
 30
0.0
 40
0.6235558865952
100
AcDbArc
 50
310.6394339999986
 51
57.30767664143762
  0
ARC
  5
DDF
330
22
100
AcDbEntity
  8
0
 62
     3
100
AcDbCircle
 10
139.0575841177012
 20
89.26076484168422
 30
0.0
 40
0.6235558865952
100
AcDbArc
 50
122.692221124898
 51
229.360565999998
  0
LINE
  5
DE0
330
22
100
AcDbEntity
  8
0
 62
     3
100
AcDbLine
 10
140.4095882653082
 20
84.03003219134403
 30
0.0
 11
140.4095879225577
 21
86.20017838317677
 31
0.0
  0
LINE
  5
DE1
330
22
100
AcDbEntity
  8
0
100
AcDbLine
 10
140.4095882653082
 20
84.03003219134403
 30
0.0
 11
140.8282417007475
 21
83.61138070606957
 31
0.0
  0
LINE
  5
DE2
330
22
100
AcDbEntity
  8
0
 62
     3
100
AcDbLine
 10
144.5961144041264
 20
83.61138072410543
 30
0.0
 11
140.8282417007475
 21
83.61138070606957
 31
0.0
  0
LINE
  5
DE3
330
22
100
AcDbEntity
  8
0
100
AcDbLine
 10
144.5961144041264
 20
83.61138072410543
 30
0.0
 11
145.0147681347275
 21
84.0300325873501
 31
0.0
  0
LINE
  5
DE4
330
22
100
AcDbEntity
  8
0
 62
     3
100
AcDbLine
 10
145.0147681347275
 20
84.0300325873501
 30
0.0
 11
145.0147677919769
 21
86.20017877918282
 31
0.0
  0
LINE
  5
DE5
330
22
100
AcDbEntity
  8
0
 62
     3
100
AcDbLine
 10
146.7035725539673
 20
89.78553957439102
 30
0.0
 11
138.720785329669
 21
89.78553957439112
 31
0.0
  0
LINE
  5
DE6
330
22
100
AcDbEntity
  8
0
 62
     3
100
AcDbLine
 10
145.0147677919771
 20
89.78553957439107
 30
0.0
 11
145.0147677919771
 21
93.12630927446985
 31
0.0
  0
LINE
  5
DE7
330
22
100
AcDbEntity
  8
0
 62
     3
100
AcDbLine
 10
140.4095879225578
 20
89.78553957439112
 30
0.0
 11
140.4095879225578
 21
93.12630927446985
 31
0.0
  0
LINE
  5
DE9
330
22
100
AcDbEntity
  8
0
 62
     7
100
AcDbLine
 10
144.5961144041264
 20
89.78553957439107
 30
0.0
 11
144.5961144041264
 21
93.12630927446985
 31
0.0
  0
LINE
  5
DEA
330
22
100
AcDbEntity
  8
0
 62
     7
100
AcDbLine
 10
140.8282417007475
 20
89.78553957439109
 30
0.0
 11
140.8282417007475
 21
93.12630927446985
 31
0.0
  0
LINE
  5
DEE
330
22
100
AcDbEntity
  8
0
100
AcDbLine
 10
140.8282417007475
 20
83.61138070606957
 30
0.0
 11
140.8282419623205
 21
86.20017781715304
 31
0.0
  0
LINE
  5
DEF
330
22
100
AcDbEntity
  8
0
100
AcDbLine
 10
144.5961144041264
 20
83.61138072410543
 30
0.0
 11
144.5961146656994
 21
86.20017743644575
 31
0.0
  0
LINE
  5
DF0
330
22
100
AcDbEntity
  8
0
100
AcDbLine
 10
140.4095882653082
 20
84.03003219134403
 30
0.0
 11
145.0147681347275
 21
84.0300325873501
 31
0.0
  0
LINE
  5
DF2
330
22
100
AcDbEntity
  8
0
 62
     3
100
AcDbLine
 10
132.0888685516917
 20
115.6449579752516
 30
0.0
 11
132.0888685516917
 21
100.0119213890543
 31
0.0
  0
LINE
  5
DF3
330
22
100
AcDbEntity
  8
0
 62
     3
100
AcDbLine
 10
153.3354871084918
 20
115.6449579752517
 30
0.0
 11
153.3354871084918
 21
100.1018662294101
 31
0.0
  0
LINE
  5
E04
330
22
100
AcDbEntity
  8
0
 62
     3
100
AcDbLine
 10
144.4621778300918
 20
94.79630927446985
 30
0.0
 11
140.9621778300917
 21
94.79630927446985
 31
0.0
  0
LINE
  5
E2B
330
22
100
AcDbEntity
  8
0
100
AcDbLine
 10
107.553029581516
 20
140.371939056345
 30
0.0
 11
119.5834034299288
 21
140.371939056345
 31
0.0
  0
TEXT
  5
E3D
330
22
100
AcDbEntity
  8
0
 62
     4
100
AcDbText
 10
64.36057063005273
 20
77.56111654473551
 30
0.0
 40
3.2
  1
M10ボルト
  7
高3.2
100
AcDbText
  0
LINE
  5
E41
330
22
100
AcDbEntity
  8
0
 62
     3
100
AcDbLine
 10
137.5318503809937
 20
103.2847747794868
 30
0.0
 11
139.2059297235383
 21
103.2847747794868
 31
0.0
  0
ARC
  5
E56
330
22
100
AcDbEntity
  8
0
 62
     3
100
AcDbCircle
 10
144.4621778300918
 20
96.04630927446985
 30
0.0
 40
1.25
100
AcDbArc
 50
270.0000000000004
 51
0.0
  0
ARC
  5
E57
330
22
100
AcDbEntity
  8
0
 62
     3
100
AcDbCircle
 10
140.9621778300917
 20
96.04630927446985
 30
0.0
 40
1.25
100
AcDbArc
 50
180.0
 51
270.0000000000003
  0
LINE
  5
E58
330
22
100
AcDbEntity
  8
0
 62
     3
100
AcDbLine
 10
139.7121778300918
 20
96.04630927446985
 30
0.0
 11
139.2059297235383
 21
103.2847747794869
 31
0.0
  0
LINE
  5
E59
330
22
100
AcDbEntity
  8
0
 62
     3
100
AcDbLine
 10
145.7121778300918
 20
96.04630927446985
 30
0.0
 11
146.218425936645
 21
103.2847747794869
 31
0.0
  0
ARC
  5
E69
330
22
100
AcDbEntity
  8
0
 62
     3
100
AcDbCircle
 10
144.4621778300918
 20
96.04630927446985
 30
0.0
 40
2.919999999999998
100
AcDbArc
 50
270.0000000000004
 51
0.0
  0
LINE
  5
E6A
330
22
100
AcDbEntity
  8
0
 62
     3
100
AcDbLine
 10
147.3781084279574
 20
95.92979642927714
 30
0.0
 11
147.8925052791898
 21
103.2847747794869
 31
0.0
  0
ARC
  5
E6B
330
22
100
AcDbEntity
  8
0
 62
     3
100
AcDbCircle
 10
140.9621778300917
 20
96.04630927446985
 30
0.0
 40
2.919999999999998
100
AcDbArc
 50
180.0
 51
270.0000000000003
  0
LINE
  5
E6C
330
22
100
AcDbEntity
  8
0
 62
     3
100
AcDbLine
 10
138.046247232226
 20
95.92979642927707
 30
0.0
 11
137.5318503809937
 21
103.2847747794869
 31
0.0
  0
LINE
  5
E6E
330
22
100
AcDbEntity
  8
0
 62
     3
100
AcDbLine
 10
146.218425936645
 20
103.2847747794869
 30
0.0
 11
147.8925052791898
 21
103.2847747794869
 31
0.0
  0
CIRCLE
  5
E75
330
22
100
AcDbEntity
  8
0
 62
     3
100
AcDbCircle
 10
147.7940466187485
 20
101.8769875541153
 30
0.0
 40
0.0
  0
ARC
  5
E77
330
22
100
AcDbEntity
  8
0
 62
     3
100
AcDbCircle
 10
149.8091191430817
 20
103.8905677024438
 30
0.0
 40
2.61364410415046
100
AcDbArc
 50
220.3271823053988
 51
249.3383033841298
  0
LINE
  5
E7D
330
22
100
AcDbEntity
  8
0
 62
     3
100
AcDbLine
 10
148.1427064610224
 20
101.7346335991865
 30
0.0
 11
147.7840905831643
 21
101.7346335991865
 31
0.0
  0
LINE
  5
E7E
330
22
100
AcDbEntity
  8
0
 62
     3
100
AcDbLine
 10
148.1427064610224
 20
97.02479204718651
 30
0.0
 11
148.1427064610224
 21
101.7346335991865
 31
0.0
  0
LINE
  5
E7F
330
22
100
AcDbEntity
  8
0
 62
     3
100
AcDbLine
 10
148.1427064610224
 20
97.02479204718651
 30
0.0
 11
147.6193907330225
 21
97.02479204718651
 31
0.0
  0
LINE
  5
E81
330
22
100
AcDbEntity
  8
0
 62
     3
100
AcDbLine
 10
136.2350177431611
 20
97.80976563918649
 30
0.0
 11
136.2350177431611
 21
100.9496600071865
 31
0.0
  0
ARC
  5
E82
330
22
100
AcDbEntity
  8
0
 62
     3
100
AcDbCircle
 10
137.019991335161
 20
97.80976563918649
 30
0.0
 40
0.7849735920000001
100
AcDbArc
 50
180.0
 51
0.0
  0
ARC
  5
E83
330
22
100
AcDbEntity
  8
0
 62
     3
100
AcDbCircle
 10
137.019991335161
 20
100.9496600071865
 30
0.0
 40
0.7849735920000001
100
AcDbArc
 50
34.90491289909898
 51
180.0
  0
LINE
  5
E86
330
22
100
AcDbEntity
  8
0
 62
     3
100
AcDbLine
 10
145.3219982361344
 20
102.2508574701318
 30
0.0
 11
145.3219982361343
 21
96.10428315617772
 31
0.0
  0
LINE
  5
E87
330
22
100
AcDbEntity
  8
0
 62
     3
100
AcDbLine
 10
144.8219982361344
 20
95.60428315617771
 30
0.0
 11
142.7121778300918
 21
95.60428315617768
 31
0.0
  0
ARC
  5
E8A
330
22
100
AcDbEntity
  8
0
 62
     3
100
AcDbCircle
 10
144.8219982361344
 20
102.2508574701318
 30
0.0
 40
0.5
100
AcDbArc
 50
0.0
 51
90.0000000000003
  0
ARC
  5
E8B
330
22
100
AcDbEntity
  8
0
 62
     3
100
AcDbCircle
 10
144.8219982361344
 20
96.10428315617772
 30
0.0
 40
0.5
100
AcDbArc
 50
270.0000000000003
 51
0.0
  0
LINE
  5
E8D
330
22
100
AcDbEntity
  8
0
 62
     3
100
AcDbLine
 10
144.8219982361344
 20
102.7508574701318
 30
0.0
 11
142.7121778300918
 21
102.2651995192235
 31
0.0
  0
LINE
  5
E8E
330
22
100
AcDbEntity
  8
0
 62
     3
100
AcDbLine
 10
140.1023574240491
 20
102.2508574701318
 30
0.0
 11
140.1023574240492
 21
96.10428315617772
 31
0.0
  0
ARC
  5
E8F
330
22
100
AcDbEntity
  8
0
 62
     3
100
AcDbCircle
 10
140.6023574240491
 20
102.2508574701318
 30
0.0
 40
0.5
100
AcDbArc
 50
90.0
 51
180.0
  0
LINE
  5
E90
330
22
100
AcDbEntity
  8
0
 62
     3
100
AcDbLine
 10
140.6023574240492
 20
95.60428315617771
 30
0.0
 11
142.7121778300918
 21
95.60428315617768
 31
0.0
  0
ARC
  5
E91
330
22
100
AcDbEntity
  8
0
 62
     3
100
AcDbCircle
 10
140.6023574240492
 20
96.10428315617772
 30
0.0
 40
0.5
100
AcDbArc
 50
180.0
 51
270.0
  0
LINE
  5
E92
330
22
100
AcDbEntity
  8
0
 62
     3
100
AcDbLine
 10
140.6023574240491
 20
102.7508574701318
 30
0.0
 11
142.7121778300918
 21
102.2651995192235
 31
0.0
  0
LINE
  5
E95
330
22
100
AcDbEntity
  8
0
 62
     3
100
AcDbLine
 10
140.1023574240491
 20
100.6766770540096
 30
0.0
 11
139.3883364137842
 21
100.6766770540096
 31
0.0
  0
LINE
  5
E96
330
22
100
AcDbEntity
  8
0
 62
     3
100
AcDbLine
 10
145.3219982361344
 20
100.6766770540096
 30
0.0
 11
146.0360192463993
 21
100.6766770540096
 31
0.0
  0
LINE
  5
E97
330
22
100
AcDbEntity
  8
0
 62
     3
100
AcDbLine
 10
140.1023574240491
 20
98.08274859236341
 30
0.0
 11
139.5697521256272
 21
98.08274859236341
 31
0.0
  0
LINE
  5
E98
330
22
100
AcDbEntity
  8
0
 62
     3
100
AcDbLine
 10
145.3219982361344
 20
98.08274859236341
 30
0.0
 11
145.8546035345563
 21
98.08274859236341
 31
0.0
  0
LINE
  5
E9A
330
22
100
AcDbEntity
  8
0
 62
     3
100
AcDbLine
 10
140.6023574240492
 20
102.7508574701318
 30
0.0
 11
140.602357424049
 21
127.3805561314664
 31
0.0
  0
LINE
  5
E9B
330
22
100
AcDbEntity
  8
0
 62
     3
100
AcDbLine
 10
144.8219982361344
 20
102.7508574701318
 30
0.0
 11
144.8219982361341
 21
127.3805561314664
 31
0.0
  0
LINE
  5
E9C
330
22
100
AcDbEntity
  8
0
 62
     3
100
AcDbLine
 10
144.8219982361342
 20
131.8671772334984
 30
0.0
 11
144.8219982361342
 21
134.6031735964145
 31
0.0
  0
LINE
  5
E9D
330
22
100
AcDbEntity
  8
0
 62
     3
100
AcDbLine
 10
140.602357424049
 20
131.8671776598524
 30
0.0
 11
140.602357424049
 21
134.603173576216
 31
0.0
  0
LINE
  5
E9E
330
22
100
AcDbEntity
  8
0
 62
     3
100
AcDbLine
 10
144.3219982361342
 20
135.1031735940211
 30
0.0
 11
144.8219982361342
 21
134.6031735964145
 31
0.0
  0
LINE
  5
E9F
330
22
100
AcDbEntity
  8
0
 62
     3
100
AcDbLine
 10
141.102357424049
 20
135.1031735786094
 30
0.0
 11
140.602357424049
 21
134.603173576216
 31
0.0
  0
ARC
  5
EA4
330
22
100
AcDbEntity
  8
0
 62
     3
100
AcDbCircle
 10
152.4163365854344
 20
95.4561835344686
 30
0.0
 40
4.64753537735257
100
AcDbArc
 50
57.02716122653296
 51
78.60331321917906
  0
LINE
  5
EA6
330
22
100
AcDbEntity
  8
0
 62
     3
100
AcDbLine
 10
148.8868963848372
 20
101.4450328555572
 30
0.0
 11
153.3346926169548
 21
100.012081610931
 31
0.0
  0
ARC
  5
EA7
330
22
100
AcDbEntity
  8
0
 62
     3
100
AcDbCircle
 10
135.6152365171018
 20
103.8905677024436
 30
0.0
 40
2.61364410415046
100
AcDbArc
 50
290.661696615872
 51
319.672817694602
  0
ARC
  5
EA8
330
22
100
AcDbEntity
  8
0
 62
     3
100
AcDbCircle
 10
133.0080190747492
 20
95.45618353446844
 30
0.0
 40
4.64753537735257
100
AcDbArc
 50
101.3966867808216
 51
122.9728387734682
  0
LINE
  5
EA9
330
22
100
AcDbEntity
  8
0
 62
     3
100
AcDbLine
 10
136.5374592753463
 20
101.4450328555571
 30
0.0
 11
132.0896630432287
 21
100.0120816109308
 31
0.0
  0
LINE
  5
EAC
330
22
100
AcDbEntity
  8
0
 62
     3
100
AcDbLine
 10
146.0904150640025
 20
126.0176940982214
 30
0.0
 11
147.7002270569322
 21
116.6970573865318
 31
0.0
  0
LINE
  5
EAD
330
22
100
AcDbEntity
  8
0
 62
     3
100
AcDbLine
 10
144.8219982361342
 20
126.0176940982214
 30
0.0
 11
146.396224446798
 21
116.7017061402595
 31
0.0
  0
ARC
  5
EB8
330
22
100
AcDbEntity
  8
0
 62
     3
100
AcDbCircle
 10
147.6780522044799
 20
116.91831084851
 30
0.0
 40
1.3
100
AcDbArc
 50
189.591298767211
 51
270.0000000000001
  0
ARC
  5
EB9
330
22
100
AcDbEntity
  8
0
 62
     3
100
AcDbCircle
 10
148.9812605871579
 20
116.91831084851
 30
0.0
 40
1.3
100
AcDbArc
 50
189.7991552577141
 51
270.0
  0
ARC
  5
EBA
330
22
100
AcDbEntity
  8
0
 62
     3
100
AcDbCircle
 10
153.0100974380917
 20
117.61831084851
 30
0.0
 40
2.0
100
AcDbArc
 50
270.0000000000002
 51
0.0000000000003817
  0
LINE
  5
EBB
330
22
100
AcDbEntity
  8
0
 62
     3
100
AcDbLine
 10
155.0100974380917
 20
117.61831084851
 30
0.0
 11
155.0100974380917
 21
95.74288791446987
 31
0.0
  0
LINE
  5
EBC
330
22
100
AcDbEntity
  8
0
 62
     3
100
AcDbLine
 10
155.0100974380917
 20
117.4821621967798
 30
0.0
 11
155.0100974380916
 21
127.1805561314663
 31
0.0
  0
LINE
  5
EBD
330
22
100
AcDbEntity
  8
0
 62
     3
100
AcDbLine
 10
153.0100974380917
 20
115.61831084851
 30
0.0
 11
151.8278869363556
 21
115.6183108485101
 31
0.0
  0
LINE
  5
EBE
330
22
100
AcDbEntity
  8
0
 62
     3
100
AcDbLine
 10
151.2278869363555
 20
127.3805561314663
 30
0.0
 11
154.8100974380916
 21
127.3805561314663
 31
0.0
  0
ARC
  5
EBF
330
22
100
AcDbEntity
  8
0
 62
     3
100
AcDbCircle
 10
154.8100974380916
 20
127.1805561314663
 30
0.0
 40
0.2
100
AcDbArc
 50
0.0000000000006107
 51
90.0
  0
LINE
  5
EC4
330
22
100
AcDbEntity
  8
0
 62
     3
100
AcDbLine
 10
148.2690153231621
 20
127.8360392055891
 30
0.0
 11
148.269015323162
 21
127.3805561314664
 31
0.0
  0
ARC
  5
EC5
330
22
100
AcDbEntity
  8
0
 62
     3
100
AcDbCircle
 10
149.6484511297588
 20
127.8360392055891
 30
0.0
 40
1.37943580659673
100
AcDbArc
 50
0.0
 51
180.0
  0
ARC
  5
EC6
330
22
100
AcDbEntity
  8
0
 62
     3
100
AcDbCircle
 10
151.2278869363555
 20
127.5805561314664
 30
0.0
 40
0.2
100
AcDbArc
 50
180.0
 51
269.9999999999999
  0
LINE
  5
EC7
330
22
100
AcDbEntity
  8
0
 62
     3
100
AcDbLine
 10
151.0278869363555
 20
127.8360392055891
 30
0.0
 11
151.0278869363555
 21
127.5805561314664
 31
0.0
  0
LINE
  5
EC8
330
22
100
AcDbEntity
  8
0
 62
     3
100
AcDbLine
 10
151.2278869363555
 20
127.3805561314664
 30
0.0
 11
135.0190440384932
 21
127.3805561314664
 31
0.0
  0
LINE
  5
EC9
330
22
100
AcDbEntity
  8
0
 62
     3
100
AcDbLine
 10
146.0904150640025
 20
126.0176940982214
 30
0.0
 11
145.3161331020356
 21
127.3805561314664
 31
0.0
  0
LINE
  5
ECA
330
22
100
AcDbEntity
  8
0
 62
     3
100
AcDbLine
 10
151.2278869363555
 20
127.3805561314663
 30
0.0
 11
151.2278869363556
 21
116.21831084851
 31
0.0
  0
LINE
  5
ECC
330
22
100
AcDbEntity
  8
0
 62
     3
100
AcDbLine
 10
147.6780522044799
 20
115.61831084851
 30
0.0
 11
152.2278869363556
 21
115.61831084851
 31
0.0
  0
LINE
  5
ECD
330
22
100
AcDbEntity
  8
0
 62
     3
100
AcDbLine
 10
148.2690153231621
 20
127.3805561314664
 30
0.0
 11
146.0904150640025
 21
126.0176940982214
 31
0.0
  0
ARC
  5
EED
330
22
100
AcDbEntity
  8
0
 62
     3
100
AcDbCircle
 10
132.4142582220914
 20
117.61831084851
 30
0.0
 40
2.0
100
AcDbArc
 50
179.9999999999996
 51
270.0
  0
ARC
  5
EEE
330
22
100
AcDbEntity
  8
0
 62
     3
100
AcDbCircle
 10
136.4430950730253
 20
116.91831084851
 30
0.0
 40
1.3
100
AcDbArc
 50
270.0
 51
350.200844742286
  0
ARC
  5
EEF
330
22
100
AcDbEntity
  8
0
 62
     3
100
AcDbCircle
 10
137.7463034557032
 20
116.91831084851
 30
0.0
 40
1.3
100
AcDbArc
 50
270.0
 51
350.4087012327887
  0
LINE
  5
EF0
330
22
100
AcDbEntity
  8
0
 62
     3
100
AcDbLine
 10
139.3339405961806
 20
126.0176940982214
 30
0.0
 11
137.724128603251
 21
116.6970573865318
 31
0.0
  0
LINE
  5
EF1
330
22
100
AcDbEntity
  8
0
 62
     3
100
AcDbLine
 10
140.602357424049
 20
126.0176940982214
 30
0.0
 11
139.0281312133851
 21
116.7017061402595
 31
0.0
  0
LINE
  5
EF2
330
22
100
AcDbEntity
  8
0
 62
     3
100
AcDbLine
 10
130.4142582220914
 20
117.4821621967798
 30
0.0
 11
130.4142582220916
 21
127.1805561314663
 31
0.0
  0
ARC
  5
EF3
330
22
100
AcDbEntity
  8
0
 62
     3
100
AcDbCircle
 10
130.6142582220915
 20
127.1805561314663
 30
0.0
 40
0.2
100
AcDbArc
 50
90.0
 51
179.9999999999994
  0
LINE
  5
EF4
330
22
100
AcDbEntity
  8
0
 62
     3
100
AcDbLine
 10
132.4142582220914
 20
115.61831084851
 30
0.0
 11
133.5964687238276
 21
115.6183108485101
 31
0.0
  0
LINE
  5
EF6
330
22
100
AcDbEntity
  8
0
 62
     3
100
AcDbLine
 10
134.1964687238277
 20
127.3805561314663
 30
0.0
 11
130.6142582220915
 21
127.3805561314663
 31
0.0
  0
ARC
  5
EF7
330
22
100
AcDbEntity
  8
0
 62
     3
100
AcDbCircle
 10
134.1964687238277
 20
127.5805561314664
 30
0.0
 40
0.2
100
AcDbArc
 50
270.0
 51
0.000000000000007
  0
LINE
  5
EF8
330
22
100
AcDbEntity
  8
0
 62
     3
100
AcDbLine
 10
137.1553403370211
 20
127.8360392055891
 30
0.0
 11
137.1553403370211
 21
127.3805561314664
 31
0.0
  0
ARC
  5
EF9
330
22
100
AcDbEntity
  8
0
 62
     3
100
AcDbCircle
 10
135.7759045304244
 20
127.8360392055891
 30
0.0
 40
1.37943580659673
100
AcDbArc
 50
0.000000000000007
 51
180.0
  0
LINE
  5
EFA
330
22
100
AcDbEntity
  8
0
 62
     3
100
AcDbLine
 10
134.3964687238276
 20
127.8360392055891
 30
0.0
 11
134.3964687238276
 21
127.5805561314664
 31
0.0
  0
LINE
  5
EFB
330
22
100
AcDbEntity
  8
0
 62
     3
100
AcDbLine
 10
134.1964687238277
 20
127.3805561314664
 30
0.0
 11
150.4053116216899
 21
127.3805561314664
 31
0.0
  0
LINE
  5
EFC
330
22
100
AcDbEntity
  8
0
 62
     3
100
AcDbLine
 10
139.3339405961806
 20
126.0176940982214
 30
0.0
 11
140.1082225581476
 21
127.3805561314664
 31
0.0
  0
LINE
  5
EFD
330
22
100
AcDbEntity
  8
0
 62
     3
100
AcDbLine
 10
134.1964687238277
 20
127.3805561314663
 30
0.0
 11
134.1964687238276
 21
116.2183108485101
 31
0.0
  0
LINE
  5
EFE
330
22
100
AcDbEntity
  8
0
 62
     3
100
AcDbLine
 10
137.7463034557032
 20
115.61831084851
 30
0.0
 11
133.1964687238276
 21
115.61831084851
 31
0.0
  0
LINE
  5
EFF
330
22
100
AcDbEntity
  8
0
 62
     3
100
AcDbLine
 10
137.1553403370211
 20
127.3805561314664
 30
0.0
 11
139.3339405961806
 21
126.0176940982214
 31
0.0
  0
LINE
  5
F06
330
22
100
AcDbEntity
  8
0
 62
     3
100
AcDbLine
 10
149.6484511297588
 20
129.2154750121859
 30
0.0
 11
147.788070614193
 21
129.2154758945297
 31
0.0
  0
LINE
  5
F07
330
22
100
AcDbEntity
  8
0
 62
     3
100
AcDbLine
 10
135.7759045304244
 20
129.2154750121859
 30
0.0
 11
137.6362849011
 21
129.2154756638936
 31
0.0
  0
ARC
  5
F08
330
22
100
AcDbEntity
  8
0
 62
     3
100
AcDbCircle
 10
151.8278869363556
 20
116.21831084851
 30
0.0
 40
0.6
100
AcDbArc
 50
180.0000000000004
 51
269.999999999999
  0
ARC
  5
F09
330
22
100
AcDbEntity
  8
0
 62
     3
100
AcDbCircle
 10
133.5964687238276
 20
116.2183108485101
 30
0.0
 40
0.6
100
AcDbArc
 50
270.0000000000009
 51
359.9999999999996
  0
LINE
  5
F4B
330
22
100
AcDbEntity
  8
0
100
AcDbLine
 10
113.2750354665012
 20
123.2503378589115
 30
0.0
 11
130.4142582220915
 21
123.2503378589115
 31
0.0
  0
LINE
  5
F4C
330
22
100
AcDbEntity
  8
0
  6
CENTER
100
AcDbLine
 10
57.44129861325543
 20
106.4108027502135
 30
0.0
 11
57.44129861325543
 21
80.01556240448042
 31
0.0
  0
LINE
  5
F4D
330
22
100
AcDbEntity
  8
0
100
AcDbLine
 10
112.7217352353493
 20
98.74562346028566
 30
0.0
 11
130.4142582220919
 21
98.74562346028566
 31
0.0
  0
LINE
  5
F4E
330
22
100
AcDbEntity
  8
0
100
AcDbLine
 10
155.0100974380917
 20
123.2503378589115
 30
0.0
 11
170.8860923374284
 21
123.2503378589115
 31
0.0
  0
LINE
  5
F4F
330
22
100
AcDbEntity
  8
0
100
AcDbLine
 10
155.0100974380917
 20
98.74562346028566
 30
0.0
 11
170.2616872169263
 21
98.74562346028566
 31
0.0
  0
TEXT
  5
1061
330
22
100
AcDbEntity
  8
0
 62
     3
100
AcDbText
 10
264.5
 20
170.5
 30
0.0
 40
3.2
  1
担　当
  7
高3.2
100
AcDbText
  0
TEXT
  5
1062
330
22
100
AcDbEntity
  8
0
 62
     3
100
AcDbText
 10
220.5
 20
170.5
 30
0.0
 40
3.2
  1
変更・追記内容
  7
高3.2
100
AcDbText
  0
TEXT
  5
1063
330
22
100
AcDbEntity
  8
0
 62
     3
100
AcDbText
 10
195.6135150003392
 20
165.8294614900917
 30
0.0
 40
2.0
  1
1
  7
高2
100
AcDbText
  0
TEXT
  5
1064
330
22
100
AcDbEntity
  8
0
 62
     3
100
AcDbText
 10
195.3050035235819
 20
160.6596447778188
 30
0.0
 40
2.0
  1
2
  7
高2
100
AcDbText
  0
TEXT
  5
1065
330
22
100
AcDbEntity
  8
0
 62
     3
100
AcDbText
 10
202.5
 20
170.5
 30
0.0
 40
3.2
  1
日　付
  7
高3.2
100
AcDbText
  0
TEXT
  5
1066
330
22
100
AcDbEntity
  8
0
 62
     3
100
AcDbText
 10
202.5
 20
175.5
 30
0.0
 40
3.2
  1
図　　　　面　　　　略　　　　歴
  7
高3.2
100
AcDbText
  0
TEXT
  5
1067
330
22
100
AcDbEntity
  8
0
 62
     3
100
AcDbText
 10
192.5
 20
170.5
 30
0.0
 40
3.2
  1
記号
  7
高3.2
100
AcDbText
  0
LINE
  5
1068
330
22
100
AcDbEntity
  8
0
100
AcDbLine
 10
196.0
 20
163.7908960000001
 30
0.0
 11
194.1
 21
160.5
 31
0.0
  0
LINE
  5
1069
330
22
100
AcDbEntity
  8
0
100
AcDbLine
 10
196.0
 20
163.7908960000001
 30
0.0
 11
197.9
 21
160.5
 31
0.0
  0
LINE
  5
106A
330
22
100
AcDbEntity
  8
0
100
AcDbLine
 10
194.1
 20
160.5
 30
0.0
 11
197.9
 21
160.5
 31
0.0
  0
LINE
  5
106B
330
22
100
AcDbEntity
  8
0
100
AcDbLine
 10
196.0
 20
168.7908970000001
 30
0.0
 11
194.1
 21
165.5
 31
0.0
  0
LINE
  5
106C
330
22
100
AcDbEntity
  8
0
100
AcDbLine
 10
196.0
 20
168.7908970000001
 30
0.0
 11
197.9
 21
165.5
 31
0.0
  0
LINE
  5
106D
330
22
100
AcDbEntity
  8
0
100
AcDbLine
 10
194.1
 20
165.5
 30
0.0
 11
197.9
 21
165.5
 31
0.0
  0
LINE
  5
106E
330
22
100
AcDbEntity
  8
0
 62
     3
100
AcDbLine
 10
191.0
 20
175.0
 30
0.0
 11
277.0
 21
175.0
 31
0.0
  0
LINE
  5
106F
330
22
100
AcDbEntity
  8
0
 62
     3
100
AcDbLine
 10
191.0
 20
170.0
 30
0.0
 11
277.0
 21
170.0
 31
0.0
  0
LINE
  5
1070
330
22
100
AcDbEntity
  8
0
 62
     7
100
AcDbLine
 10
191.0
 20
165.0
 30
0.0
 11
277.0
 21
165.0
 31
0.0
  0
LINE
  5
1071
330
22
100
AcDbEntity
  8
0
 62
     3
100
AcDbLine
 10
191.0
 20
160.0
 30
0.0
 11
277.0
 21
160.0
 31
0.0
  0
LINE
  5
1072
330
22
100
AcDbEntity
  8
0
 62
     7
100
AcDbLine
 10
262.9999999999999
 20
160.0
 30
0.0
 11
263.0
 21
175.0
 31
0.0
  0
LINE
  5
1073
330
22
100
AcDbEntity
  8
0
 62
     7
100
AcDbLine
 10
219.0
 20
160.0
 30
0.0
 11
219.0
 21
175.0
 31
0.0
  0
LINE
  5
1074
330
22
100
AcDbEntity
  8
0
 62
     7
100
AcDbLine
 10
201.0
 20
160.0
 30
0.0
 11
201.0
 21
175.0
 31
0.0
  0
LINE
  5
1075
330
22
100
AcDbEntity
  8
0
 62
     3
100
AcDbLine
 10
191.0
 20
160.0
 30
0.0
 11
191.0
 21
180.0
 31
0.0
  0
TEXT
  5
1172
330
22
100
AcDbEntity
  8
0
 62
     3
100
AcDbText
 10
256.0197593045734
 20
40.22023637872917
 30
0.0
 40
4.5
  1
8391
  7
高4.5
100
AcDbText
1001
ACAD
1000
MTEXTBEGIN
1070
    73
1070
     1
1070
    44
1040
1.0
1070
    74
1070
     0
1000
MTEXTEND
  0
TEXT
  5
1173
330
22
100
AcDbEntity
  8
0
 62
     3
100
AcDbText
 10
231.3086230772873
 20
40.22023637872917
 30
0.0
 40
4.5
  1
コード
  7
高4.5
100
AcDbText
1001
ACAD
1000
MTEXTBEGIN
1070
    73
1070
     1
1070
    44
1040
1.0
1070
    74
1070
     0
1000
MTEXTEND
  0
TEXT
  5
1174
330
22
100
AcDbEntity
  8
0
 62
     3
100
AcDbText
 10
175.674349383241
 20
65.14590570110033
 30
0.0
 40
4.5
  1
適応単管径：%%C42.7、\U+220548.6
  7
高4.5
100
AcDbText
1001
ACAD
1000
MTEXTBEGIN
1070
    73
1070
     1
1070
    44
1040
1.0
1070
    74
1070
     0
1000
MTEXTEND
  0
TEXT
  5
1175
330
22
100
AcDbEntity
  8
0
 62
     3
100
AcDbText
 10
175.9786023930377
 20
55.11189242441992
 30
0.0
 40
4.5
  1
耐荷重：350kg
  7
高4.5
100
AcDbText
1001
ACAD
1000
MTEXTBEGIN
1070
    73
1070
     1
1070
    44
1040
1.0
1070
    74
1070
     0
1000
MTEXTEND
  0
TEXT
  5
1176
330
22
100
AcDbEntity
  8
0
 62
     3
100
AcDbText
 10
266.3128608249571
 20
32.00625073788491
 30
0.0
 40
3.0
  1
製 図
100
AcDbText
1001
ACAD
1000
MTEXTBEGIN
1070
    73
1070
     1
1070
    44
1040
1.0
1070
    74
1070
     0
1000
MTEXTEND
  0
TEXT
  5
1177
330
22
100
AcDbEntity
  8
0
 62
     3
100
AcDbText
 10
253.3128608249571
 20
32.00625073788491
 30
0.0
 40
3.0
  1
設 計
100
AcDbText
1001
ACAD
1000
MTEXTBEGIN
1070
    73
1070
     1
1070
    44
1040
1.0
1070
    74
1070
     0
1000
MTEXTEND
  0
TEXT
  5
1178
330
22
100
AcDbEntity
  8
0
 62
     3
100
AcDbText
 10
240.3128608249571
 20
32.00625073788491
 30
0.0
 40
3.0
  1
検 図
100
AcDbText
1001
ACAD
1000
MTEXTBEGIN
1070
    73
1070
     1
1070
    44
1040
1.0
1070
    74
1070
     0
1000
MTEXTEND
  0
TEXT
  5
1179
330
22
100
AcDbEntity
  8
0
 62
     3
100
AcDbText
 10
227.3128608249572
 20
32.00625073788491
 30
0.0
 40
3.0
  1
承 認
100
AcDbText
1001
ACAD
1000
MTEXTBEGIN
1070
    73
1070
     1
1070
    44
1040
1.0
1070
    74
1070
     0
1000
MTEXTEND
  0
TEXT
  5
117A
330
22
100
AcDbEntity
  8
0
 62
     3
100
AcDbText
 10
226.7920434056559
 20
11.45043588853038
 30
0.0
 40
3.0
  1
作成日
100
AcDbText
1001
ACAD
1000
MTEXTBEGIN
1070
    73
1070
     1
1070
    44
1040
1.0
1070
    74
1070
     0
1000
MTEXTEND
  0
TEXT
  5
117B
330
22
100
AcDbEntity
  8
0
 62
     3
100
AcDbText
 10
198.875212874587
 20
10.31895744041289
 30
0.0
 40
3.0
  1
尺 度
100
AcDbText
1001
ACAD
1000
MTEXTBEGIN
1070
    73
1070
     1
1070
    44
1040
1.0
1070
    74
1070
     0
1000
MTEXTEND
  0
TEXT
  5
117C
330
22
100
AcDbEntity
  8
0
 62
     3
100
AcDbText
 10
209.453605489
 20
6.146230025570287
 30
0.0
 40
2.5
  1
出図コード
100
AcDbText
1001
ACAD
1000
MTEXTBEGIN
1070
    73
1070
     1
1070
    44
1040
1.0
1070
    74
1070
     0
1000
MTEXTEND
  0
TEXT
  5
117D
330
22
100
AcDbEntity
  8
0
 62
     3
100
AcDbText
 10
199.0339789926744
 20
17.25030106316753
 30
0.0
 40
3.0
  1
備 考
100
AcDbText
1001
ACAD
1000
MTEXTBEGIN
1070
    73
1070
     1
1070
    44
1040
1.0
1070
    74
1070
     0
1000
MTEXTEND
  0
TEXT
  5
117E
330
22
100
AcDbEntity
  8
0
 62
     3
100
AcDbText
 10
166.399248772486
 20
0.8405282078849285
 30
0.0
 40
3.5
  1
日動工業株式会社
 41
1.199999999999999
100
AcDbText
1001
ACAD
1000
MTEXTBEGIN
1070
    73
1070
     1
1070
    44
1040
1.0
1070
    74
1070
     0
1000
MTEXTEND
  0
TEXT
  5
117F
330
22
100
AcDbEntity
  8
0
 62
     3
100
AcDbText
 10
167.7087818049571
 20
10.33316252224621
 30
0.0
 40
3.0
  1
第 三 角 法
100
AcDbText
1001
ACAD
1000
MTEXTBEGIN
1070
    73
1070
     1
1070
    44
1040
1.0
1070
    74
1070
     0
1000
MTEXTEND
  0
TEXT
  5
1180
330
22
100
AcDbEntity
  8
0
 62
     3
100
AcDbText
 10
167.7087818049571
 20
17.11373911523016
 30
0.0
 40
3.0
  1
材 質
100
AcDbText
1001
ACAD
1000
MTEXTBEGIN
1070
    73
1070
     1
1070
    44
1040
1.0
1070
    74
1070
     0
1000
MTEXTEND
  0
TEXT
  5
1181
330
22
100
AcDbEntity
  8
0
 62
     3
100
AcDbText
 10
167.7087818049571
 20
24.47577874274261
 30
0.0
 40
3.0
  1
型 式
100
AcDbText
1001
ACAD
1000
MTEXTBEGIN
1070
    73
1070
     1
1070
    44
1040
1.0
1070
    74
1070
     0
1000
MTEXTEND
1000
ACAD_MTEXT_DEFINED_HEIGHT_BEGIN
1070
    46
1040
3.064735913775952
1000
ACAD_MTEXT_DEFINED_HEIGHT_END
  0
TEXT
  5
1182
330
22
100
AcDbEntity
  8
0
 62
     3
100
AcDbText
 10
167.7087818049571
 20
32.00625073788491
 30
0.0
 40
3.0
  1
品 名
100
AcDbText
1001
ACAD
1000
MTEXTBEGIN
1070
    73
1070
     1
1070
    44
1040
1.0
1070
    74
1070
     0
1000
MTEXTEND
  0
TEXT
  5
1183
330
22
100
AcDbEntity
  8
0
 62
     3
100
AcDbText
 10
167.1642278499999
 20
6.524620422187822
 30
0.0
 40
2.0
  1
NICHIDO IND.CO.LTD
 41
1.3
  7
高2
100
AcDbText
1001
ACAD
1000
MTEXTBEGIN
1070
    73
1070
     1
1070
    44
1040
1.0
1070
    74
1070
     0
1000
MTEXTEND
  0
TEXT
  5
1184
330
22
100
AcDbEntity
  8
0
 62
     3
100
AcDbText
 10
209.16556339
 20
0.8168781731359633
 30
0.0
 40
3.2
  1
ZK-A4X
 41
0.8
  7
高3.2
100
AcDbText
1001
ACAD
1000
MTEXTBEGIN
1070
    73
1070
     1
1070
    44
1040
1.0
1070
    74
1070
     0
1000
MTEXTEND
  0
TEXT
  5
1185
330
22
100
AcDbEntity
  8
0
 62
     3
100
AcDbText
 10
210.0160101320121
 20
10.88169015773802
 30
0.0
 40
3.2
  1
FREE
  7
高3.2
100
AcDbText
1001
ACAD
1000
MTEXTBEGIN
1070
    73
1070
     1
1070
    44
1040
1.0
1070
    74
1070
     0
1000
MTEXTEND
  0
TEXT
  5
1186
330
22
100
AcDbEntity
  8
0
 62
     3
100
AcDbText
 10
241.8641462703296
 20
10.96661168823297
 30
0.0
 40
3.2
  1
2010.9.24
  7
高3.2
100
AcDbText
1001
ACAD
1000
MTEXTBEGIN
1070
    73
1070
     1
1070
    44
1040
1.0
1070
    74
1070
     0
1000
MTEXTEND
  0
TEXT
  5
1187
330
22
100
AcDbEntity
  8
0
 62
     3
100
AcDbText
 10
234.4048295092656
 20
1.34815515320879
 30
0.0
 40
6.299999999999998
  1
TK-02
  7
高6.3
100
AcDbText
1001
ACAD
1000
MTEXTBEGIN
1070
    73
1070
     1
1070
    44
1040
1.0
1070
    74
1070
     0
1000
MTEXTEND
  0
TEXT
  5
1188
330
22
100
AcDbEntity
  8
0
 62
     3
100
AcDbText
 10
189.8950513043394
 20
24.75320365781193
 30
0.0
 40
4.5
  1
TK－02
  7
高4.5
100
AcDbText
1001
ACAD
1000
MTEXTBEGIN
1070
    73
1070
     1
1070
    44
1040
1.0
1070
    74
1070
     0
1000
MTEXTEND
  0
TEXT
  5
1189
330
22
100
AcDbEntity
  8
0
 62
     3
100
AcDbText
 10
167.3776359340853
 20
36.372743880599
 30
0.0
 40
2.0
  1
CONPONENTS
 41
0.5
  7
高2
100
AcDbText
1001
ACAD
1000
MTEXTBEGIN
1070
    73
1070
     1
1070
    44
1040
1.0
1070
    74
1070
     0
1000
MTEXTEND
  0
TEXT
  5
118A
330
22
100
AcDbEntity
  8
0
 62
     3
100
AcDbText
 10
167.1197837397554
 20
27.92146206432915
 30
0.0
 40
2.0
  1
MODEL
  7
高2
100
AcDbText
1001
ACAD
1000
MTEXTBEGIN
1070
    73
1070
     1
1070
    44
1040
1.0
1070
    74
1070
     0
1000
MTEXTEND
  0
TEXT
  5
118B
330
22
100
AcDbEntity
  8
0
 62
     3
100
AcDbText
 10
167.1642278499999
 20
20.5856594221878
 30
0.0
 40
2.0
  1
MATERIAL
 41
0.7
  7
高2
100
AcDbText
1001
ACAD
1000
MTEXTBEGIN
1070
    73
1070
     1
1070
    44
1040
1.0
1070
    74
1070
     0
1000
MTEXTEND
  0
TEXT
  5
118C
330
22
100
AcDbEntity
  8
0
 62
     3
100
AcDbText
 10
198.7755327800013
 20
20.5856594221878
 30
0.0
 40
2.0
  1
REMARKS
 41
0.7
  7
高2
100
AcDbText
1001
ACAD
1000
MTEXTBEGIN
1070
    73
1070
     1
1070
    44
1040
1.0
1070
    74
1070
     0
1000
MTEXTEND
  0
TEXT
  5
118D
330
22
100
AcDbEntity
  8
0
 62
     3
100
AcDbText
 10
167.381136203046
 20
13.8341213532307
 30
0.0
 40
2.0
  1
3AD
 41
1.5
  7
高2
100
AcDbText
1001
ACAD
1000
MTEXTBEGIN
1070
    73
1070
     1
1070
    44
1040
1.0
1070
    74
1070
     0
1000
MTEXTEND
  0
TEXT
  5
118E
330
22
100
AcDbEntity
  8
0
 62
     3
100
AcDbText
 10
177.8933339428806
 20
13.83412135323061
 30
0.0
 40
2.0
  1
ANGLE
 41
1.5
  7
高2
100
AcDbText
1001
ACAD
1000
MTEXTBEGIN
1070
    73
1070
     1
1070
    44
1040
1.0
1070
    74
1070
     0
1000
MTEXTEND
  0
TEXT
  5
118F
330
22
100
AcDbEntity
  8
0
 62
     3
100
AcDbText
 10
199.5061270891526
 20
13.8341213532307
 30
0.0
 40
2.0
  1
SCALE
 41
0.8
  7
高2
100
AcDbText
1001
ACAD
1000
MTEXTBEGIN
1070
    73
1070
     1
1070
    44
1040
1.0
1070
    74
1070
     0
1000
MTEXTEND
  0
TEXT
  5
1190
330
22
100
AcDbEntity
  8
0
 62
     3
100
AcDbText
 10
240.28549642
 20
36.17941462870361
 30
0.0
 40
2.0
  1
CHCK
  7
高2
100
AcDbText
1001
ACAD
1000
MTEXTBEGIN
1070
    73
1070
     1
1070
    44
1040
1.0
1070
    74
1070
     0
1000
MTEXTEND
  0
TEXT
  5
1191
330
22
100
AcDbEntity
  8
0
 62
     3
100
AcDbText
 10
227.1727603197656
 20
36.17941462870357
 30
0.0
 40
2.0
  1
APPD
  7
高2
100
AcDbText
1001
ACAD
1000
MTEXTBEGIN
1070
    73
1070
     1
1070
    44
1040
1.0
1070
    74
1070
     0
1000
MTEXTEND
  0
TEXT
  5
1192
330
22
100
AcDbEntity
  8
0
 62
     3
100
AcDbText
 10
253.4271272597658
 20
36.17941462870349
 30
0.0
 40
2.0
  1
DESN
  7
高2
100
AcDbText
1001
ACAD
1000
MTEXTBEGIN
1070
    73
1070
     1
1070
    44
1040
1.0
1070
    74
1070
     0
1000
MTEXTEND
  0
TEXT
  5
1193
330
22
100
AcDbEntity
  8
0
 62
     3
100
AcDbText
 10
267.0655890934741
 20
36.17941462870357
 30
0.0
 40
2.0
  1
DEF
  7
高2
100
AcDbText
1001
ACAD
1000
MTEXTBEGIN
1070
    73
1070
     1
1070
    44
1040
1.0
1070
    74
1070
     0
1000
MTEXTEND
  0
TEXT
  5
1194
330
22
100
AcDbEntity
  8
0
 62
     3
100
AcDbText
 10
180.7198300899324
 20
32.33073255860398
 30
0.0
 40
4.5
  1
シングルクランプ
  7
高4.5
100
AcDbText
1001
ACAD
1000
MTEXTBEGIN
1070
    73
1070
     1
1070
    44
1040
1.0
1070
    74
1070
     0
1000
MTEXTEND
  0
TEXT
  5
1195
330
22
100
AcDbEntity
  8
0
 62
     3
100
AcDbText
 10
180.1100624519186
 20
18.96353693498388
 30
0.0
 40
3.2
  1
SS400
  7
高3.2
100
AcDbText
1001
ACAD
1000
MTEXTBEGIN
1070
    73
1070
     1
1070
    44
1040
1.0
1070
    74
1070
     0
1000
MTEXTEND
  0
TEXT
  5
1196
330
22
100
AcDbEntity
  8
0
 62
     3
100
AcDbText
 10
209.16556339
 20
18.73881938336532
 30
0.0
 40
3.2
  1
-
  7
高3.2
100
AcDbText
1001
ACAD
1000
MTEXTBEGIN
1070
    73
1070
     1
1070
    44
1040
1.0
1070
    74
1070
     0
1000
MTEXTEND
  0
LINE
  5
1198
330
22
100
AcDbEntity
  8
0
 62
     3
100
AcDbLine
 10
277.0
 20
45.66572252999995
 30
0.0
 11
225.30063652
 21
45.66572252999995
 31
0.0
  0
LINE
  5
1325
330
22
100
AcDbEntity
  8
0
 62
     3
100
AcDbLine
 10
225.30063652
 20
39.66572252999998
 30
0.0
 11
225.30063652
 21
45.66572252999995
 31
0.0
  0
LINE
  5
1326
330
22
100
AcDbEntity
  8
0
 62
     3
100
AcDbLine
 10
251.3006365199999
 20
39.66572252999998
 30
0.0
 11
251.3006365199999
 21
45.66572252999995
 31
0.0
  0
LINE
  5
13C5
330
22
100
AcDbEntity
  8
0
100
AcDbLine
 10
170.3736873295207
 20
98.97249997503596
 30
0.0
 11
181.2241762903776
 21
98.97249997503596
 31
0.0
  0
LINE
  5
13C6
330
22
100
AcDbEntity
  8
0
100
AcDbLine
 10
171.1216132842725
 20
123.2724999750359
 30
0.0
 11
181.2241762903776
 21
123.2724999750359
 31
0.0
  0
LINE
  5
13C7
330
22
100
AcDbEntity
  8
0
100
AcDbLine
 10
179.9741762903776
 20
101.4724999750359
 30
0.0
 11
179.9741762903776
 21
120.7724999750359
 31
0.0
  0
LINE
  5
13CB
330
22
100
AcDbEntity
  8
0
 62
     3
100
AcDbLine
 10
135.32527688
 20
180.5037661999999
 30
0.0
 11
135.30664935
 21
180.62303396
 31
0.0
  0
LINE
  5
13CC
330
22
100
AcDbEntity
  8
0
 62
     3
100
AcDbLine
 10
135.30664935
 20
180.62303396
 30
0.0
 11
135.28427817
 21
180.73723874
 31
0.0
  0
LINE
  5
13CD
330
22
100
AcDbEntity
  8
0
 62
     3
100
AcDbLine
 10
135.28427817
 20
180.73723874
 30
0.0
 11
135.25833624
 21
180.8454978
 31
0.0
  0
LINE
  5
13CE
330
22
100
AcDbEntity
  8
0
 62
     3
100
AcDbLine
 10
135.25833624
 20
180.8454978
 30
0.0
 11
135.2290241
 21
180.94697435
 31
0.0
  0
LINE
  5
13CF
330
22
100
AcDbEntity
  8
0
 62
     3
100
AcDbLine
 10
135.2290241
 20
180.94697435
 30
0.0
 11
135.19656829
 21
181.04088403
 31
0.0
  0
LINE
  5
13D0
330
22
100
AcDbEntity
  8
0
 62
     3
100
AcDbLine
 10
135.19656829
 20
181.04088403
 30
0.0
 11
135.1612197
 21
181.12650097
 31
0.0
  0
LINE
  5
13D1
330
22
100
AcDbEntity
  8
0
 62
     3
100
AcDbLine
 10
135.1612197
 20
181.12650097
 30
0.0
 11
135.12325155
 21
181.20316339
 31
0.0
  0
LINE
  5
13D2
330
22
100
AcDbEntity
  8
0
 62
     3
100
AcDbLine
 10
135.12325155
 20
181.20316339
 30
0.0
 11
135.0829573
 21
181.2702787199999
 31
0.0
  0
LINE
  5
13D3
330
22
100
AcDbEntity
  8
0
 62
     3
100
AcDbLine
 10
135.0829573
 20
181.2702787199999
 30
0.0
 11
135.04064843
 21
181.32732821
 31
0.0
  0
LINE
  5
13D4
330
22
100
AcDbEntity
  8
0
 62
     3
100
AcDbLine
 10
135.04064843
 20
181.32732821
 30
0.0
 11
134.99665194
 21
181.37387089
 31
0.0
  0
LINE
  5
13D5
330
22
100
AcDbEntity
  8
0
 62
     3
100
AcDbLine
 10
134.99665194
 20
181.37387089
 30
0.0
 11
134.95130792
 21
181.4095469999999
 31
0.0
  0
LINE
  5
13D6
330
22
100
AcDbEntity
  8
0
 62
     3
100
AcDbLine
 10
134.95130792
 20
181.4095469999999
 30
0.0
 11
134.90496685
 21
181.4340808
 31
0.0
  0
LINE
  5
13D7
330
22
100
AcDbEntity
  8
0
 62
     3
100
AcDbLine
 10
134.90496685
 20
181.4340808
 30
0.0
 11
134.85798691
 21
181.4472826399999
 31
0.0
  0
LINE
  5
13D8
330
22
100
AcDbEntity
  8
0
 62
     3
100
AcDbLine
 10
134.85798691
 20
181.4472826399999
 30
0.0
 11
134.81073125
 21
181.44905048
 31
0.0
  0
LINE
  5
13D9
330
22
100
AcDbEntity
  8
0
 62
     3
100
AcDbLine
 10
134.81073125
 20
181.44905048
 30
0.0
 11
134.76356512
 21
181.43937067
 31
0.0
  0
LINE
  5
13DA
330
22
100
AcDbEntity
  8
0
 62
     3
100
AcDbLine
 10
134.76356512
 20
181.43937067
 30
0.0
 11
134.71685309
 21
181.41831801
 31
0.0
  0
LINE
  5
13DB
330
22
100
AcDbEntity
  8
0
 62
     3
100
AcDbLine
 10
134.71685309
 20
181.41831801
 30
0.0
 11
134.67095623
 21
181.38605524
 31
0.0
  0
LINE
  5
13DC
330
22
100
AcDbEntity
  8
0
 62
     3
100
AcDbLine
 10
134.67095623
 20
181.38605524
 30
0.0
 11
134.62622929
 21
181.34283173
 31
0.0
  0
LINE
  5
13DD
330
22
100
AcDbEntity
  8
0
 62
     3
100
AcDbLine
 10
134.62622929
 20
181.34283173
 30
0.0
 11
134.58301798
 21
181.28898157
 31
0.0
  0
LINE
  5
13DE
330
22
100
AcDbEntity
  8
0
 62
     3
100
AcDbLine
 10
134.58301798
 20
181.28898157
 30
0.0
 11
134.54165632
 21
181.224921
 31
0.0
  0
LINE
  5
13DF
330
22
100
AcDbEntity
  8
0
 62
     3
100
AcDbLine
 10
134.54165632
 20
181.224921
 30
0.0
 11
134.502464
 21
181.15114518
 31
0.0
  0
LINE
  5
13E0
330
22
100
AcDbEntity
  8
0
 62
     3
100
AcDbLine
 10
134.502464
 20
181.15114518
 30
0.0
 11
134.46574396
 21
181.06822435
 31
0.0
  0
LINE
  5
13E1
330
22
100
AcDbEntity
  8
0
 62
     3
100
AcDbLine
 10
134.46574396
 20
181.06822435
 30
0.0
 11
134.43178003
 21
180.9767994499999
 31
0.0
  0
LINE
  5
13E2
330
22
100
AcDbEntity
  8
0
 62
     3
100
AcDbLine
 10
134.43178003
 20
180.9767994499999
 30
0.0
 11
134.40083473
 21
180.8775771399999
 31
0.0
  0
LINE
  5
13E3
330
22
100
AcDbEntity
  8
0
 62
     3
100
AcDbLine
 10
134.40083473
 20
180.8775771399999
 30
0.0
 11
134.37314725
 21
180.77132437
 31
0.0
  0
LINE
  5
13E4
330
22
100
AcDbEntity
  8
0
 62
     3
100
AcDbLine
 10
134.37314725
 20
180.77132437
 30
0.0
 11
134.3489316
 21
180.6588624099999
 31
0.0
  0
LINE
  5
13E5
330
22
100
AcDbEntity
  8
0
 62
     3
100
AcDbLine
 10
134.3489316
 20
180.6588624099999
 30
0.0
 11
134.32837496
 21
180.54106053
 31
0.0
  0
LINE
  5
13E6
330
22
100
AcDbEntity
  8
0
 62
     3
100
AcDbLine
 10
134.32837496
 20
180.54106053
 30
0.0
 11
134.31163622
 21
180.41882929
 31
0.0
  0
LINE
  5
13E7
330
22
100
AcDbEntity
  8
0
 62
     3
100
AcDbLine
 10
134.31163622
 20
180.41882929
 30
0.0
 11
134.29884476
 21
180.29311347
 31
0.0
  0
LINE
  5
13E8
330
22
100
AcDbEntity
  8
0
 62
     3
100
AcDbLine
 10
134.29884476
 20
180.29311347
 30
0.0
 11
134.29009945
 21
180.1648847899999
 31
0.0
  0
LINE
  5
13E9
330
22
100
AcDbEntity
  8
0
 62
     3
100
AcDbLine
 10
134.29009945
 20
180.1648847899999
 30
0.0
 11
134.28546789
 21
180.03513438
 31
0.0
  0
LINE
  5
13EA
330
22
100
AcDbEntity
  8
0
 62
     3
100
AcDbLine
 10
134.28546789
 20
180.03513438
 30
0.0
 11
134.28498588
 21
179.90486516
 31
0.0
  0
LINE
  5
13EB
330
22
100
AcDbEntity
  8
0
 62
     3
100
AcDbLine
 10
134.28498588
 20
179.90486516
 30
0.0
 11
134.28865714
 21
179.77508403
 31
0.0
  0
LINE
  5
13EC
330
22
100
AcDbEntity
  8
0
 62
     3
100
AcDbLine
 10
134.28865714
 20
179.77508403
 30
0.0
 11
134.2964533
 21
179.64679414
 31
0.0
  0
LINE
  5
13ED
330
22
100
AcDbEntity
  8
0
 62
     3
100
AcDbLine
 10
134.2964533
 20
179.64679414
 30
0.0
 11
134.3083141
 21
179.5209871
 31
0.0
  0
LINE
  5
13EE
330
22
100
AcDbEntity
  8
0
 62
     3
100
AcDbLine
 10
134.3083141
 20
179.5209871
 30
0.0
 11
134.32414785
 21
179.39863534
 31
0.0
  0
LINE
  5
13EF
330
22
100
AcDbEntity
  8
0
 62
     3
100
AcDbLine
 10
134.32414785
 20
179.39863534
 30
0.0
 11
134.34383218
 21
179.2806845699999
 31
0.0
  0
LINE
  5
13F0
330
22
100
AcDbEntity
  8
0
 62
     3
100
AcDbLine
 10
134.34383218
 20
179.2806845699999
 30
0.0
 11
134.36721493
 21
179.16804649
 31
0.0
  0
LINE
  5
13F1
330
22
100
AcDbEntity
  8
0
 62
     3
100
AcDbLine
 10
134.36721493
 20
179.16804649
 30
0.0
 11
134.3941153700001
 21
179.06159173
 31
0.0
  0
LINE
  5
13F2
330
22
100
AcDbEntity
  8
0
 62
     3
100
AcDbLine
 10
134.3941153700001
 20
179.06159173
 30
0.0
 11
134.42432557
 21
178.96214315
 31
0.0
  0
LINE
  5
13F3
330
22
100
AcDbEntity
  8
0
 62
     3
100
AcDbLine
 10
134.42432557
 20
178.96214315
 30
0.0
 11
134.45761201
 21
178.87046941
 31
0.0
  0
LINE
  5
13F4
330
22
100
AcDbEntity
  8
0
 62
     3
100
AcDbLine
 10
134.45761201
 20
178.87046941
 30
0.0
 11
134.49371742
 21
178.78727912
 31
0.0
  0
LINE
  5
13F5
330
22
100
AcDbEntity
  8
0
 62
     3
100
AcDbLine
 10
134.49371742
 20
178.78727912
 30
0.0
 11
134.53236272
 21
178.71321528
 31
0.0
  0
LINE
  5
13F6
330
22
100
AcDbEntity
  8
0
 62
     3
100
AcDbLine
 10
134.53236272
 20
178.71321528
 30
0.0
 11
134.5732492
 21
178.64885039
 31
0.0
  0
LINE
  5
13F7
330
22
100
AcDbEntity
  8
0
 62
     3
100
AcDbLine
 10
134.5732492
 20
178.64885039
 30
0.0
 11
134.61606082
 21
178.59468194
 31
0.0
  0
LINE
  5
13F8
330
22
100
AcDbEntity
  8
0
 62
     3
100
AcDbLine
 10
134.61606082
 20
178.59468194
 30
0.0
 11
134.66046667
 21
178.55112862
 31
0.0
  0
LINE
  5
13F9
330
22
100
AcDbEntity
  8
0
 62
     3
100
AcDbLine
 10
134.66046667
 20
178.55112862
 30
0.0
 11
134.70612353
 21
178.5185270899999
 31
0.0
  0
LINE
  5
13FA
330
22
100
AcDbEntity
  8
0
 62
     3
100
AcDbLine
 10
134.70612353
 20
178.5185270899999
 30
0.0
 11
134.75267849
 21
178.49712934
 31
0.0
  0
LINE
  5
13FB
330
22
100
AcDbEntity
  8
0
 62
     3
100
AcDbLine
 10
134.75267849
 20
178.49712934
 30
0.0
 11
134.79977169
 21
178.4871007499999
 31
0.0
  0
LINE
  5
13FC
330
22
100
AcDbEntity
  8
0
 62
     3
100
AcDbLine
 10
134.79977169
 20
178.4871007499999
 30
0.0
 11
134.84703915
 21
178.48851885
 31
0.0
  0
LINE
  5
13FD
330
22
100
AcDbEntity
  8
0
 62
     3
100
AcDbLine
 10
134.84703915
 20
178.48851885
 30
0.0
 11
134.89411549
 21
178.5013726699999
 31
0.0
  0
LINE
  5
13FE
330
22
100
AcDbEntity
  8
0
 62
     3
100
AcDbLine
 10
134.89411549
 20
178.5013726699999
 30
0.0
 11
134.94063685
 21
178.52556287
 31
0.0
  0
LINE
  5
13FF
330
22
100
AcDbEntity
  8
0
 62
     3
100
AcDbLine
 10
134.94063685
 20
178.52556287
 30
0.0
 11
134.98624364
 21
178.56090245
 31
0.0
  0
LINE
  5
1400
330
22
100
AcDbEntity
  8
0
 62
     3
100
AcDbLine
 10
134.98624364
 20
178.56090245
 30
0.0
 11
135.03058334
 21
178.6071182799999
 31
0.0
  0
LINE
  5
1401
330
22
100
AcDbEntity
  8
0
 62
     3
100
AcDbLine
 10
135.03058334
 20
178.6071182799999
 30
0.0
 11
135.07331323
 21
178.66385311
 31
0.0
  0
LINE
  5
1402
330
22
100
AcDbEntity
  8
0
 62
     3
100
AcDbLine
 10
135.07331323
 20
178.66385311
 30
0.0
 11
135.11410303
 21
178.73066843
 31
0.0
  0
LINE
  5
1403
330
22
100
AcDbEntity
  8
0
 62
     3
100
AcDbLine
 10
135.11410303
 20
178.73066843
 30
0.0
 11
135.15263746
 21
178.80704777
 31
0.0
  0
LINE
  5
1404
330
22
100
AcDbEntity
  8
0
 62
     3
100
AcDbLine
 10
135.15263746
 20
178.80704777
 30
0.0
 11
135.18861866
 21
178.89240078
 31
0.0
  0
LINE
  5
1405
330
22
100
AcDbEntity
  8
0
 62
     3
100
AcDbLine
 10
135.18861866
 20
178.89240078
 30
0.0
 11
135.22176852
 21
178.98606771
 31
0.0
  0
LINE
  5
1406
330
22
100
AcDbEntity
  8
0
 62
     3
100
AcDbLine
 10
135.22176852
 20
178.98606771
 30
0.0
 11
135.2518308
 21
179.0873245699999
 31
0.0
  0
LINE
  5
1407
330
22
100
AcDbEntity
  8
0
 62
     3
100
AcDbLine
 10
135.2518308
 20
179.0873245699999
 30
0.0
 11
135.27857315
 21
179.19538869
 31
0.0
  0
LINE
  5
1408
330
22
100
AcDbEntity
  8
0
 62
     3
100
AcDbLine
 10
135.27857315
 20
179.19538869
 30
0.0
 11
135.30178885
 21
179.3094248
 31
0.0
  0
LINE
  5
1409
330
22
100
AcDbEntity
  8
0
 62
     3
100
AcDbLine
 10
135.30178885
 20
179.3094248
 30
0.0
 11
135.32129846
 21
179.42855145
 31
0.0
  0
LINE
  5
140A
330
22
100
AcDbEntity
  8
0
100
AcDbLine
 10
58.83605810507217
 20
81.57507637878143
 30
0.0
 11
62.20184488019675
 21
76.69815689854465
 31
0.0
1001
ACAD
1000
DSTYLE
1002
{
1070
   147
1040
0.625
1070
    77
1070
     0
1002
}
  0
LINE
  5
140B
330
22
100
AcDbEntity
  8
0
100
AcDbLine
 10
62.20184488019675
 20
76.69815689854465
 30
0.0
 11
82.80225868899639
 21
76.69815689854465
 31
0.0
1001
ACAD
1000
DSTYLE
1002
{
1070
   147
1040
0.625
1070
    77
1070
     0
1002
}
  0
LINE
  5
140C
330
22
100
AcDbEntity
  8
0
  6
ByBlock
 62
     0
370
    -2
100
AcDbLine
 10
58.28473701533362
 20
81.19458429967103
 30
0.0
 11
57.41604131415154
 21
83.63263617463267
 31
0.0
  0
LINE
  5
140D
330
22
100
AcDbEntity
  8
0
  6
ByBlock
 62
     0
370
    -2
100
AcDbLine
 10
57.41604131415154
 20
83.63263617463267
 30
0.0
 11
59.38737919481072
 21
81.95556845789182
 31
0.0
  0
LINE
  5
140E
330
22
100
AcDbEntity
  8
0
  6
ByBlock
 62
     0
370
    -2
100
AcDbLine
 10
57.41604131415154
 20
83.63263617463267
 30
0.0
 11
58.83605810507217
 21
81.57507637878143
 31
0.0
  0
LINE
  5
140F
330
22
100
AcDbEntity
  8
0
100
AcDbLine
 10
81.43098291728042
 20
135.6884807322846
 30
0.0
 11
87.55797311730992
 21
140.371939056345
 31
0.0
1001
ACAD
1000
DSTYLE
1002
{
1070
   147
1040
0.625
1070
    77
1070
     0
1002
}
  0
LINE
  5
1410
330
22
100
AcDbEntity
  8
0
100
AcDbLine
 10
87.55797311730992
 20
140.371939056345
 30
0.0
 11
107.553029581516
 21
140.371939056345
 31
0.0
1001
ACAD
1000
DSTYLE
1002
{
1070
   147
1040
0.625
1070
    77
1070
     0
1002
}
  0
LINE
  5
1411
330
22
100
AcDbEntity
  8
0
  6
ByBlock
 62
     0
370
    -2
100
AcDbLine
 10
81.83779359898077
 20
135.1562831791986
 30
0.0
 11
79.4447931830921
 21
134.1702415087744
 31
0.0
  0
LINE
  5
1412
330
22
100
AcDbEntity
  8
0
  6
ByBlock
 62
     0
370
    -2
100
AcDbLine
 10
79.4447931830921
 20
134.1702415087744
 30
0.0
 11
81.02417223558008
 21
136.2206782853706
 31
0.0
  0
LINE
  5
1413
330
22
100
AcDbEntity
  8
0
  6
ByBlock
 62
     0
370
    -2
100
AcDbLine
 10
79.4447931830921
 20
134.1702415087744
 30
0.0
 11
81.43098291728042
 21
135.6884807322846
 31
0.0
  0
TEXT
  5
1414
330
22
100
AcDbEntity
  8
0
 62
     4
100
AcDbText
 10
179.3491762903776
 20
106.9558333083693
 30
0.0
 40
2.5
  1
パイプ
 50
90.0
100
AcDbText
  0
LINE
  5
1415
330
22
100
AcDbEntity
  8
0
  6
ByBlock
 62
     0
370
    -2
100
AcDbLine
 10
179.3043037903776
 20
120.7724999750359
 30
0.0
 11
179.9741762903776
 21
123.2724999750359
 31
0.0
  0
LINE
  5
1416
330
22
100
AcDbEntity
  8
0
  6
ByBlock
 62
     0
370
    -2
100
AcDbLine
 10
179.9741762903776
 20
123.2724999750359
 30
0.0
 11
180.6440487903776
 21
120.7724999750359
 31
0.0
  0
LINE
  5
1417
330
22
100
AcDbEntity
  8
0
  6
ByBlock
 62
     0
370
    -2
100
AcDbLine
 10
179.9741762903776
 20
123.2724999750359
 30
0.0
 11
179.9741762903776
 21
120.7724999750359
 31
0.0
  0
LINE
  5
1418
330
22
100
AcDbEntity
  8
0
  6
ByBlock
 62
     0
370
    -2
100
AcDbLine
 10
180.6440487903776
 20
101.4724999750359
 30
0.0
 11
179.9741762903776
 21
98.97249997503596
 31
0.0
  0
LINE
  5
1419
330
22
100
AcDbEntity
  8
0
  6
ByBlock
 62
     0
370
    -2
100
AcDbLine
 10
179.9741762903776
 20
98.97249997503596
 30
0.0
 11
179.3043037903776
 21
101.4724999750359
 31
0.0
  0
LINE
  5
141A
330
22
100
AcDbEntity
  8
0
  6
ByBlock
 62
     0
370
    -2
100
AcDbLine
 10
179.9741762903776
 20
98.97249997503596
 30
0.0
 11
179.9741762903776
 21
101.4724999750359
 31
0.0
  0
ENDSEC
  0
SECTION
  2
OBJECTS
  0
DICTIONARY
  5
C
330
0
100
AcDbDictionary
281
     1
  3
ACAD_2007HEADERVARS_RT
350
141E
  3
ACAD_COLOR
350
1B
  3
ACAD_GROUP
350
D
  3
ACAD_LAYOUT
350
19
  3
ACAD_MATERIAL
350
1A
  3
ACAD_MLEADERSTYLE
350
F86
  3
ACAD_MLINESTYLE
350
16
  3
ACAD_PLOTSETTINGS
350
18
  3
ACAD_PLOTSTYLENAME
350
E
  3
ACAD_SCALELIST
350
F74
  3
ACAD_TABLESTYLE
350
1C
  3
ACAD_VISUALSTYLE
350
1A8
  3
AcadDim
350
E3B
  3
ACDB_RECOMPOSE_DATA
350
141C
  3
AcDbVariableDictionary
350
C4
  3
DWGPROPS
350
141D
  0
DICTIONARY
  5
BF
330
2
100
AcDbDictionary
280
     1
281
     1
  3
ACAD_LAYERFILTERS
360
508
  3
ACAD_LAYERSTATES
360
CE
  3
ACLYDICTIONARY
360
507
  0
DICTIONARY
  5
1199
330
10
100
AcDbDictionary
280
     1
281
     1
  3
ADSK_XREC_LAYER_RECONCILED
360
119A
  0
DICTIONARY
  5
50A
330
22
100
AcDbDictionary
280
     1
281
     1
  3
ACAD_SORTENTS
360
50B
  0
DICTIONARY
  5
141E
102
{ACAD_REACTORS
330
C
102
}
330
C
100
AcDbDictionary
281
     1
  3
DIMARCSYM
350
1420
  3
DIMFXL
350
141F
  3
DIMJOGANG
350
1421
  0
DICTIONARY
  5
1B
102
{ACAD_REACTORS
330
C
102
}
330
C
100
AcDbDictionary
281
     1
  0
DICTIONARY
  5
D
102
{ACAD_REACTORS
330
C
102
}
330
C
100
AcDbDictionary
281
     1
  0
DICTIONARY
  5
19
102
{ACAD_REACTORS
330
C
102
}
330
C
100
AcDbDictionary
281
     1
  3
Layout1
350
21
  3
Model
350
25
  0
DICTIONARY
  5
1A
102
{ACAD_REACTORS
330
C
102
}
330
C
100
AcDbDictionary
281
     1
  3
ByBlock
350
1A6
  3
ByLayer
350
1A5
  3
Global
350
1A7
  0
DICTIONARY
  5
F86
102
{ACAD_REACTORS
330
C
102
}
330
C
100
AcDbDictionary
281
     1
  3
Standard
350
F87
  0
DICTIONARY
  5
16
102
{ACAD_REACTORS
330
C
102
}
330
C
100
AcDbDictionary
281
     1
  3
Standard
350
17
  0
DICTIONARY
  5
18
102
{ACAD_REACTORS
330
C
102
}
330
C
100
AcDbDictionary
281
     1
  0
ACDBDICTIONARYWDFLT
  5
E
102
{ACAD_REACTORS
330
C
102
}
330
C
100
AcDbDictionary
281
     1
  3
Normal
350
F
100
AcDbDictionaryWithDefault
340
F
  0
DICTIONARY
  5
F74
102
{ACAD_REACTORS
330
C
102
}
330
C
100
AcDbDictionary
281
     1
  3
A0
350
F75
  3
A1
350
F76
  3
A2
350
F77
  3
A3
350
F78
  3
A4
350
F79
  3
A5
350
F7A
  3
A6
350
F7B
  3
A7
350
F7C
  3
A8
350
F7D
  3
A9
350
F7E
  3
B0
350
F7F
  3
B1
350
F80
  3
B2
350
F81
  3
B3
350
F82
  3
B4
350
F83
  3
B5
350
F84
  3
B6
350
F85
  0
DICTIONARY
  5
1C
102
{ACAD_REACTORS
330
C
102
}
330
C
100
AcDbDictionary
281
     1
  3
Standard
350
1D
  0
DICTIONARY
  5
1A8
102
{ACAD_REACTORS
330
C
102
}
330
C
100
AcDbDictionary
281
     1
  3
2dWireframe
350
1AE
  3
3D Hidden
350
1B0
  3
3dWireframe
350
1AF
  3
Basic
350
1AD
  3
Brighten
350
1B4
  3
ColorChange
350
1B8
  3
Conceptual
350
1B1
  3
Dim
350
1B3
  3
EdgeColorOff
350
F73
  3
Facepattern
350
1B7
  3
Flat
350
1A9
  3
FlatWithEdges
350
1AA
  3
Gouraud
350
1AB
  3
GouraudWithEdges
350
1AC
  3
Hidden
350
F6B
  3
JitterOff
350
F71
  3
Linepattern
350
1B6
  3
OverhangOff
350
F72
  3
Realistic
350
1B2
  3
Shaded
350
F70
  3
Shaded with edges
350
F6F
  3
Shades of Gray
350
F6C
  3
Sketchy
350
F6D
  3
Thicken
350
1B5
  3
Wireframe
350
F6A
  3
X-Ray
350
F6E
  0
XRECORD
  5
E3B
102
{ACAD_REACTORS
330
C
102
}
330
C
100
AcDbXrecord
280
     1
 90
   990106
  3

 60
     0
 61
     0
 62
     1
 63
     3
 64
     0
 65
     0
 66
     0
 67
     3
 68
     1
 69
     0
 70
     0
 71
     0
 72
     0
 40
0.0
170
     0
  0
XRECORD
  5
141C
102
{ACAD_REACTORS
330
C
102
}
330
C
100
AcDbXrecord
280
     1
 90
        1
330
1D
  0
DICTIONARY
  5
C4
102
{ACAD_REACTORS
330
C
102
}
330
C
100
AcDbDictionary
281
     1
  3
CANNOSCALE
350
119C
  3
CMLEADERSTYLE
350
119B
  3
CTABLESTYLE
350
C5
  3
DIMASSOC
350
F52
  3
INDEXCTL
350
F51
  3
SORTENTS
350
F50
  3
XCLIPFRAME
350
1380
  0
XRECORD
  5
141D
102
{ACAD_REACTORS
330
C
102
}
330
C
100
AcDbXrecord
280
     1
  1
DWGPROPS COOKIE
  2

  3

  4

  6

  7

  8
kaiha
  9

300
=
301
=
302
=
303
=
304
=
305
=
306
=
307
=
308
=
309
=
 40
0.2408496527777778
 41
2455464.498380347
 42
2458338.590309885
  1

 90
        0
  0
DICTIONARY
  5
508
102
{ACAD_REACTORS
330
BF
102
}
330
BF
100
AcDbDictionary
281
     1
  0
DICTIONARY
  5
CE
102
{ACAD_REACTORS
330
BF
102
}
330
BF
100
AcDbDictionary
281
     1
  0
DICTIONARY
  5
507
102
{ACAD_REACTORS
330
BF
102
}
330
BF
100
AcDbDictionary
281
     1
1001
ACAD
1000
<All
  0
XRECORD
  5
119A
102
{ACAD_REACTORS
330
1199
102
}
330
1199
100
AcDbXrecord
280
     1
290
     1
  0
SORTENTSTABLE
  5
50B
102
{ACAD_REACTORS
330
50A
102
}
330
50A
100
AcDbSortentsTable
330
22
331
13D7
  5
75E
331
1406
  5
833
331
13D3
  5
753
331
1402
  5
79B
331
13CF
  5
74C
331
EFE
  5
13FD
331
EA7
  5
13D8
331
1185
  5
680
331
13FE
  5
797
331
13CB
  5
6EB
331
EFA
  5
13F9
331
1181
  5
684
331
13FA
  5
793
331
EF6
  5
13F5
331
E9F
  5
13D5
331
E58
  5
118E
331
DAD
  5
EFC
331
78F
  5
E21
331
117D
  5
688
331
EF2
  5
13F1
331
E9B
  5
13D1
331
DA9
  5
EF8
331
1179
  5
68C
331
DE4
  5
1070
331
DE0
  5
106C
331
783
  5
DF4
331
74C
  5
DB4
331
6B5
  5
6D9
331
67E
  5
6A2
331
67A
  5
69E
331
6B1
  5
6D5
331
6EC
  5
DB1
331
676
  5
69A
331
6AD
  5
6D1
331
6E8
  5
DA9
331
672
  5
696
331
6A9
  5
6CD
331
1194
  5
671
331
1190
  5
675
331
13C7
  5
E90
331
13F6
  5
78F
331
EEE
  5
13ED
331
1175
  5
EA7
331
E97
  5
13CE
331
13F2
  5
78A
331
13EE
  5
784
331
106D
  5
1412
331
E8F
  5
13C8
331
13EA
  5
780
331
77F
  5
DEB
331
1069
  5
140E
331
ECA
  5
13E9
331
E8B
  5
13C5
331
DD8
  5
1067
331
D39
  5
EF4
331
77B
  5
DE8
331
DD4
  5
1063
331
D35
  5
EF2
331
777
  5
DE1
331
DD0
  5
105D
331
D31
  5
EEF
331
773
  5
DDD
331
6E4
  5
D39
331
6A5
  5
6C9
331
66E
  5
692
331
6E0
  5
D35
331
6A1
  5
6C5
331
6DC
  5
D30
331
69D
  5
6C1
331
6D8
  5
D2C
331
632
  5
66C
331
699
  5
6BD
331
1075
  5
141A
331
1071
  5
1416
331
13E6
  5
77B
331
1065
  5
140A
331
EC6
  5
13E3
331
E87
  5
13C4
331
13E2
  5
777
331
1061
  5
1406
331
E83
  5
13C1
331
F4D
  5
1404
331
1419
  5
E97
331
EBE
  5
13E2
331
E7F
  5
1198
331
D2D
  5
ECC
331
76F
  5
DD9
331
EBA
  5
1183
331
D29
  5
EC8
331
E04
  5
DB6
331
DC4
  5
1058
331
DC0
  5
1056
331
832
  5
E83
331
75B
  5
DD3
331
6D4
  5
D26
331
695
  5
6B9
331
62E
  5
631
331
6D0
  5
D0C
331
62A
  5
62B
331
691
  5
6B5
331
6CC
  5
959
331
626
  5
627
331
68D
  5
6B1
331
6C8
  5
87E
331
622
  5
622
331
689
  5
6AD
331
1415
  5
E99
331
E77
  5
1194
331
1411
  5
EBA
331
13DE
  5
76F
331
F09
  5
13F4
331
140D
  5
1188
331
13DA
  5
766
331
1409
  5
87C
331
DBC
  5
F4F
331
118C
  5
679
331
DB8
  5
F4B
331
E6B
  5
DB8
331
1188
  5
67D
331
79A
  5
E7C
331
DF3
  5
1178
331
796
  5
E6E
331
DB0
  5
EFF
331
792
  5
E59
331
6C4
  5
6E8
331
757
  5
DC5
331
6C0
  5
6E4
331
685
  5
6A9
331
6BC
  5
6E0
331
6B8
  5
6DC
331
681
  5
6A5
331
13D6
  5
75C
331
1405
  5
832
331
13D2
  5
752
331
1401
  5
79A
331
13CE
  5
74B
331
EFD
  5
13FC
331
EA6
  5
13D7
331
1184
  5
681
331
13FD
  5
796
331
EF9
  5
13F8
331
DEF
  5
1175
331
1180
  5
685
331
13F9
  5
792
331
E9E
  5
13D3
331
DAC
  5
EFB
331
CE5
  5
EAA
331
E57
  5
DB7
331
117C
  5
689
331
78E
  5
E20
331
EF1
  5
13F0
331
E9A
  5
13D0
331
DE7
  5
1075
331
DA8
  5
EF7
331
78A
  5
E0F
331
1178
  5
68D
331
DE3
  5
106F
331
786
  5
E08
331
D90
  5
EF6
331
959
  5
EA6
331
782
  5
DF3
331
74B
  5
DB3
331
6B4
  5
6D8
331
67D
  5
6A1
331
679
  5
69D
331
6B0
  5
6D4
331
6EB
  5
DB0
331
675
  5
699
331
6AC
  5
6D0
331
671
  5
695
331
6A8
  5
6CC
331
1193
  5
672
331
13C6
  5
E8F
331
13F5
  5
78E
331
1198
  5
62F
331
EED
  5
13EC
331
1174
  5
EA8
331
E96
  5
13CD
331
13F1
  5
788
331
E92
  5
13CB
331
DDF
  5
106B
331
13ED
  5
783
331
106C
  5
1411
331
ECD
  5
13EB
331
E8E
  5
13C7
331
DDB
  5
1069
331
13E9
  5
77F
331
1068
  5
140D
331
EC9
  5
13E8
331
E8A
  5
13C3
331
DD7
  5
1066
331
881
  5
E8D
331
77A
  5
DE7
331
DD3
  5
1062
331
776
  5
DE0
331
D30
  5
EEE
331
772
  5
DDC
331
6E7
  5
D90
331
6E3
  5
D38
331
6A4
  5
6C8
331
66D
  5
691
331
6DF
  5
D33
331
6A0
  5
6C4
331
6DB
  5
D2F
331
1326
  5
62D
331
69C
  5
6C0
331
631
  5
634
331
698
  5
6BC
331
1074
  5
1419
331
1070
  5
1415
331
13E5
  5
77A
331
1064
  5
1409
331
EC5
  5
13E5
331
E86
  5
13C2
331
13E1
  5
776
331
E82
  5
1326
331
E2B
  5
1186
331
F4C
  5
1403
331
1418
  5
E96
331
EBD
  5
13E0
331
E7E
  5
1196
331
DCB
  5
105C
331
D2C
  5
ECB
331
76E
  5
DD8
331
EB9
  5
1184
331
D28
  5
EC7
331
841
  5
E87
331
831
  5
E82
331
75A
  5
DD1
331
6D7
  5
D2B
331
6D3
  5
D12
331
694
  5
6B8
331
62D
  5
630
331
6CF
  5
CE4
331
629
  5
62A
331
690
  5
6B4
331
6CB
  5
958
331
625
  5
625
331
68C
  5
6B0
331
688
  5
6AC
331
1414
  5
E9D
331
1410
  5
EBE
331
13DD
  5
76E
331
140C
  5
1187
331
13D9
  5
760
331
F08
  5
13E1
331
118F
  5
676
331
1408
  5
87B
331
EAD
  5
13DC
331
E6E
  5
1192
331
DBB
  5
F4E
331
118B
  5
67A
331
EA9
  5
13DA
331
E6A
  5
1191
331
DB7
  5
F09
331
799
  5
E7B
331
DF2
  5
1177
331
DB3
  5
F07
331
795
  5
E6C
331
791
  5
E58
331
6C7
  5
87D
331
6C3
  5
6E7
331
756
  5
DC4
331
6BF
  5
6E3
331
684
  5
6A8
331
6BB
  5
6DF
331
680
  5
6A4
331
13D5
  5
755
331
1404
  5
831
331
13D1
  5
74F
331
1187
  5
67E
331
1400
  5
799
331
13CD
  5
74A
331
EFC
  5
13FB
331
1183
  5
682
331
13FC
  5
795
331
EF8
  5
13F7
331
DEE
  5
1174
331
DAF
  5
EFE
331
117F
  5
686
331
13F8
  5
791
331
EF4
  5
13F3
331
E9D
  5
13D4
331
DEA
  5
1173
331
DAB
  5
EFA
331
CE4
  5
EA9
331
E56
  5
DBA
331
117B
  5
68A
331
78D
  5
E11
331
EF0
  5
13EF
331
DE6
  5
1072
331
DE2
  5
106E
331
785
  5
E07
331
958
  5
E9E
331
781
  5
DEE
331
74E
  5
DB5
331
6B7
  5
6DB
331
74A
  5
DB2
331
67C
  5
6A0
331
6B3
  5
6D7
331
678
  5
69C
331
6AF
  5
6D3
331
6EA
  5
DAD
331
674
  5
698
331
6AB
  5
6CF
331
670
  5
694
331
1196
  5
66F
331
1192
  5
673
331
13C5
  5
E8E
331
13F4
  5
78D
331
1177
  5
68E
331
E95
  5
13CC
331
1173
  5
EAB
331
13F0
  5
786
331
106F
  5
1414
331
E91
  5
13CA
331
13EC
  5
782
331
106B
  5
1410
331
ECC
  5
13EA
331
E8D
  5
13C6
331
13E8
  5
77D
331
77D
  5
DEA
331
EC8
  5
13E7
331
DD6
  5
1065
331
880
  5
E8A
331
779
  5
DE5
331
DD2
  5
1061
331
D33
  5
EF1
331
775
  5
DDF
331
771
  5
DDB
331
6E6
  5
D3B
331
6A7
  5
6CB
331
6E2
  5
D37
331
6A3
  5
6C7
331
66C
  5
690
331
6DE
  5
D32
331
69F
  5
6C3
331
6DA
  5
D2E
331
1325
  5
626
331
634
  5
66E
331
69B
  5
6BF
331
630
  5
633
331
1073
  5
1418
331
1067
  5
140C
331
13E4
  5
779
331
1063
  5
1408
331
EC4
  5
13E4
331
13E0
  5
775
331
F4F
  5
1405
331
E81
  5
1325
331
D2F
  5
EEC
331
F4B
  5
1401
331
EBC
  5
13DE
331
E7D
  5
1195
331
DCA
  5
105B
331
D2B
  5
ECA
331
76D
  5
DD7
331
EB8
  5
1185
331
D27
  5
EC6
331
75D
  5
DD5
331
759
  5
DC9
331
6D6
  5
D28
331
697
  5
6BB
331
6D2
  5
D0F
331
693
  5
6B7
331
62C
  5
62E
331
6CE
  5
CE3
331
628
  5
629
331
68F
  5
6B3
331
6CA
  5
8A9
331
624
  5
624
331
68B
  5
6AF
331
1417
  5
E9B
331
1413
  5
EBC
331
E75
  5
1193
331
140F
  5
EBD
331
13DC
  5
76D
331
140B
  5
118B
331
13D8
  5
75F
331
F07
  5
1400
331
DBE
  5
1055
331
118E
  5
677
331
EAC
  5
13DB
331
DBA
  5
F4D
331
79C
  5
E81
331
118A
  5
67B
331
EA8
  5
13D9
331
798
  5
E77
331
E69
  5
DBC
331
794
  5
E6A
331
790
  5
E22
331
6C2
  5
6E6
331
687
  5
6AB
331
6BE
  5
6E2
331
683
  5
6A7
331
6BA
  5
6DE
331
1407
  5
841
331
13D4
  5
754
331
1403
  5
79C
331
13D0
  5
74E
331
EFF
  5
13FE
331
1186
  5
67F
331
13FF
  5
798
331
13CC
  5
6EC
331
EFB
  5
13FA
331
EA4
  5
13D6
331
1182
  5
683
331
13FB
  5
794
331
EF7
  5
13F6
331
E59
  5
1190
331
DAE
  5
EFD
331
117E
  5
687
331
EF3
  5
13F2
331
E9C
  5
13D2
331
DE9
  5
1172
331
DAA
  5
EF9
331
78C
  5
E10
331
117A
  5
68B
331
E98
  5
13CF
331
DE5
  5
1071
331
788
  5
E0E
331
DE1
  5
106D
331
784
  5
E06
331
780
  5
DED
331
6B6
  5
6DA
331
67F
  5
6A3
331
67B
  5
69F
331
6B2
  5
6D6
331
677
  5
69B
331
6AE
  5
6D2
331
6E9
  5
DAA
331
673
  5
697
331
6AA
  5
6CE
331
1195
  5
670
331
1191
  5
674
331
13F7
  5
790
331
13F3
  5
78C
331
EEF
  5
13EE
331
1176
  5
68F
331
1172
  5
EB9
331
13EF
  5
785
331
106E
  5
1413
331
E90
  5
13C9
331
E41
  5
118D
331
DDD
  5
106A
331
13EB
  5
781
331
106A
  5
140F
331
E3D
  5
118C
331
DD9
  5
1068
331
77C
  5
DE9
331
DD5
  5
1064
331
D36
  5
EF3
331
778
  5
DE3
331
DD1
  5
105E
331
D32
  5
EF0
331
87B
  5
E88
331
774
  5
DDE
331
770
  5
DDA
331
6E5
  5
D3A
331
6A6
  5
6CA
331
66F
  5
693
331
6E1
  5
D36
331
6A2
  5
6C6
331
6DD
  5
D31
331
69E
  5
6C2
331
6D9
  5
D2D
331
633
  5
66D
331
69A
  5
6BE
331
1072
  5
1417
331
13E7
  5
77C
331
1066
  5
140B
331
EC7
  5
13E6
331
13E3
  5
778
331
1062
  5
1407
331
F4E
  5
1402
331
141A
  5
E98
331
EBF
  5
13DF
331
D2E
  5
ECD
331
EBB
  5
13DD
331
DC9
  5
105A
331
D2A
  5
EC9
331
76C
  5
DD6
331
DC5
  5
1059
331
D26
  5
EC5
331
DC1
  5
1057
331
833
  5
E86
331
75C
  5
DD4
331
758
  5
DC8
331
6D5
  5
D27
331
696
  5
6BA
331
62F
  5
632
331
6D1
  5
D0E
331
692
  5
6B6
331
62B
  5
62C
331
6CD
  5
B1A
331
627
  5
628
331
68E
  5
6B2
331
6C9
  5
87F
331
623
  5
623
331
68A
  5
6AE
331
1416
  5
E9A
331
1412
  5
EBB
331
13DF
  5
774
331
140E
  5
1189
331
13DB
  5
767
331
140A
  5
118A
331
F06
  5
13FF
331
118D
  5
678
331
E6C
  5
118F
331
DB9
  5
F4C
331
79B
  5
E7D
331
1189
  5
67C
331
DB5
  5
F08
331
797
  5
E75
331
DF0
  5
1176
331
DB1
  5
F06
331
D12
  5
EC1
331
793
  5
E69
331
6C5
  5
6E9
331
6C1
  5
6E5
331
754
  5
DBF
331
686
  5
6AA
331
6BD
  5
6E1
331
682
  5
6A6
331
6B9
  5
6DD
  0
XRECORD
  5
1420
102
{ACAD_REACTORS
330
141E
102
}
330
141E
100
AcDbXrecord
280
     1
 70
     2
  0
XRECORD
  5
141F
102
{ACAD_REACTORS
330
141E
102
}
330
141E
100
AcDbXrecord
280
     1
 40
1.25
  0
XRECORD
  5
1421
102
{ACAD_REACTORS
330
141E
102
}
330
141E
100
AcDbXrecord
280
     1
 40
1.570796326794896
  0
LAYOUT
  5
21
102
{ACAD_XDICTIONARY
360
1423
102
}
102
{ACAD_REACTORS
330
19
102
}
330
19
100
AcDbPlotSettings
  1

  2
RICOH imagio MP C2500 RPCS
  4

  6

 40
0.0
 41
0.0
 42
0.0
 43
0.0
 44
0.0
 45
0.0
 46
0.0
 47
0.0
 48
0.0
 49
0.0
140
0.0
141
0.0
142
1.0
143
1.0
 70
   688
 72
     0
 73
     0
 74
     5
  7
ima-plot.ctb
 75
    16
147
1.0
148
0.0
149
0.0
100
AcDbLayout
  1
Layout1
 70
     1
 71
     1
 10
0.0
 20
0.0
 11
12.0
 21
9.0
 12
0.0
 22
0.0
 32
0.0
 14
1.000000000000000E+20
 24
1.000000000000000E+20
 34
1.000000000000000E+20
 15
-1.000000000000000E+20
 25
-1.000000000000000E+20
 35
-1.000000000000000E+20
146
0.0
 13
0.0
 23
0.0
 33
0.0
 16
1.0
 26
0.0
 36
0.0
 17
0.0
 27
1.0
 37
0.0
 76
     0
330
1E
  0
LAYOUT
  5
25
102
{ACAD_XDICTIONARY
360
1425
102
}
102
{ACAD_REACTORS
330
19
102
}
330
19
100
AcDbPlotSettings
  1

  2
none_device
  4
Letter_(8.50_x_11.00_Inches)
  6

 40
6.349999904632567
 41
6.349999904632567
 42
6.350006103515625
 43
6.350006103515625
 44
215.8999938964844
 45
279.3999938964844
 46
0.0
 47
0.0
 48
0.0
 49
0.0
140
0.0
141
0.0
142
1.0
143
31.38132511257002
 70
 11952
 72
     0
 73
     1
 74
     0
  7
ima-plot.ctb
 75
     0
147
0.0318660858460513
148
613.9408908125233
149
41.18208278961057
100
AcDbLayout
  1
Model
 70
     1
 71
     0
 10
0.0
 20
0.0
 11
12.0
 21
9.0
 12
0.0
 22
0.0
 32
0.0
 14
0.0
 24
0.0
 34
0.0
 15
0.0
 25
0.0
 35
0.0
146
0.0
 13
0.0
 23
0.0
 33
0.0
 16
1.0
 26
0.0
 36
0.0
 17
0.0
 27
1.0
 37
0.0
 76
     0
330
22
331
1A3
1001
ACAD_PSEXT
1000
なし
1000
なし
1000
適切ではありません
1000
新しいプロッタ環境設定名を選択しない限り、レイアウトは印刷されません。
1070
     0
  0
MATERIAL
  5
1A6
102
{ACAD_XDICTIONARY
360
F60
102
}
102
{ACAD_REACTORS
330
1A
102
}
330
1A
100
AcDbMaterial
  1
ByBlock
  0
MATERIAL
  5
1A5
102
{ACAD_XDICTIONARY
360
F5E
102
}
102
{ACAD_REACTORS
330
1A
102
}
330
1A
100
AcDbMaterial
  1
ByLayer
  0
MATERIAL
  5
1A7
102
{ACAD_XDICTIONARY
360
F62
102
}
102
{ACAD_REACTORS
330
1A
102
}
330
1A
100
AcDbMaterial
  1
Global
  0
MLEADERSTYLE
  5
F87
102
{ACAD_REACTORS
330
F86
102
}
330
F86
100
AcDbMLeaderStyle
170
     2
171
     1
172
     0
 90
        2
 40
0.0
 41
0.0
173
     1
 91
-1056964608
340
13
 92
       -2
290
     1
 42
0.09
291
     1
 43
0.36
  3
Standard
 44
0.18
300

342
11
174
     1
178
     6
175
     1
176
     0
 93
-1056964608
 45
0.18
292
     0
297
     0
 46
0.18
 94
-1056964608
 47
1.0
 49
1.0
140
1.0
293
     1
141
0.0
294
     1
177
     0
142
1.0
295
     0
296
     0
143
0.125
1001
ACAD_MLEADERVER
1070
     2
  0
MLINESTYLE
  5
17
102
{ACAD_REACTORS
330
16
102
}
330
16
100
AcDbMlineStyle
  2
STANDARD
 70
     0
  3

 62
   256
 51
90.0
 52
90.0
 71
     2
 49
0.5
 62
   256
  6
BYLAYER
 49
-0.5
 62
   256
  6
BYLAYER
  0
ACDBPLACEHOLDER
  5
F
102
{ACAD_REACTORS
330
E
102
}
330
E
  0
SCALE
  5
F75
102
{ACAD_REACTORS
330
F74
102
}
330
F74
100
AcDbScale
 70
     0
300
1:1
140
1.0
141
1.0
290
     1
  0
SCALE
  5
F76
102
{ACAD_REACTORS
330
F74
102
}
330
F74
100
AcDbScale
 70
     0
300
1/128" = 1'-0"
140
0.0078125
141
12.0
290
     0
  0
SCALE
  5
F77
102
{ACAD_REACTORS
330
F74
102
}
330
F74
100
AcDbScale
 70
     0
300
1/64" = 1'-0"
140
0.015625
141
12.0
290
     0
  0
SCALE
  5
F78
102
{ACAD_REACTORS
330
F74
102
}
330
F74
100
AcDbScale
 70
     0
300
1/32" = 1'-0"
140
0.03125
141
12.0
290
     0
  0
SCALE
  5
F79
102
{ACAD_REACTORS
330
F74
102
}
330
F74
100
AcDbScale
 70
     0
300
1/16" = 1'-0"
140
0.0625
141
12.0
290
     0
  0
SCALE
  5
F7A
102
{ACAD_REACTORS
330
F74
102
}
330
F74
100
AcDbScale
 70
     0
300
3/32" = 1'-0"
140
0.09375
141
12.0
290
     0
  0
SCALE
  5
F7B
102
{ACAD_REACTORS
330
F74
102
}
330
F74
100
AcDbScale
 70
     0
300
1/8" = 1'-0"
140
0.125
141
12.0
290
     0
  0
SCALE
  5
F7C
102
{ACAD_REACTORS
330
F74
102
}
330
F74
100
AcDbScale
 70
     0
300
3/16" = 1'-0"
140
0.1875
141
12.0
290
     0
  0
SCALE
  5
F7D
102
{ACAD_REACTORS
330
F74
102
}
330
F74
100
AcDbScale
 70
     0
300
1/4" = 1'-0"
140
0.25
141
12.0
290
     0
  0
SCALE
  5
F7E
102
{ACAD_REACTORS
330
F74
102
}
330
F74
100
AcDbScale
 70
     0
300
3/8" = 1'-0"
140
0.375
141
12.0
290
     0
  0
SCALE
  5
F7F
102
{ACAD_REACTORS
330
F74
102
}
330
F74
100
AcDbScale
 70
     0
300
1/2" = 1'-0"
140
0.5
141
12.0
290
     0
  0
SCALE
  5
F80
102
{ACAD_REACTORS
330
F74
102
}
330
F74
100
AcDbScale
 70
     0
300
3/4" = 1'-0"
140
0.75
141
12.0
290
     0
  0
SCALE
  5
F81
102
{ACAD_REACTORS
330
F74
102
}
330
F74
100
AcDbScale
 70
     0
300
1" = 1'-0"
140
1.0
141
12.0
290
     0
  0
SCALE
  5
F82
102
{ACAD_REACTORS
330
F74
102
}
330
F74
100
AcDbScale
 70
     0
300
1-1/2" = 1'-0"
140
1.5
141
12.0
290
     0
  0
SCALE
  5
F83
102
{ACAD_REACTORS
330
F74
102
}
330
F74
100
AcDbScale
 70
     0
300
3" = 1'-0"
140
3.0
141
12.0
290
     0
  0
SCALE
  5
F84
102
{ACAD_REACTORS
330
F74
102
}
330
F74
100
AcDbScale
 70
     0
300
6" = 1'-0"
140
6.0
141
12.0
290
     0
  0
SCALE
  5
F85
102
{ACAD_REACTORS
330
F74
102
}
330
F74
100
AcDbScale
 70
     0
300
1'-0" = 1'-0"
140
12.0
141
12.0
290
     0
  0
TABLESTYLE
  5
1D
102
{ACAD_XDICTIONARY
360
119E
102
}
102
{ACAD_REACTORS
330
1C
102
}
330
1C
100
AcDbTableStyle
  3
Standard
 70
     0
 71
     0
 40
0.06
 41
0.06
280
     0
281
     0
  7
STANDARD
140
0.18
170
     2
 62
     0
 63
     7
283
     0
274
    -2
284
     1
 64
     0
275
    -2
285
     1
 65
     0
276
    -2
286
     1
 66
     0
277
    -2
287
     1
 67
     0
278
    -2
288
     1
 68
     0
279
    -2
289
     1
 69
     0
  7
STANDARD
140
0.25
170
     5
 62
     0
 63
     7
283
     0
274
    -2
284
     1
 64
     0
275
    -2
285
     1
 65
     0
276
    -2
286
     1
 66
     0
277
    -2
287
     1
 67
     0
278
    -2
288
     1
 68
     0
279
    -2
289
     1
 69
     0
  7
STANDARD
140
0.18
170
     5
 62
     0
 63
     7
283
     0
274
    -2
284
     1
 64
     0
275
    -2
285
     1
 65
     0
276
    -2
286
     1
 66
     0
277
    -2
287
     1
 67
     0
278
    -2
288
     1
 68
     0
279
    -2
289
     1
 69
     0
  0
VISUALSTYLE
  5
1AE
102
{ACAD_XDICTIONARY
360
1431
102
}
102
{ACAD_REACTORS
330
1A8
102
}
330
1A8
100
AcDbVisualStyle
  2

 70
     4
 71
     0
 72
     2
 73
     0
 90
        0
 40
-0.6
 41
-30.0
 62
     5
 63
     7
 74
     1
 91
        4
 64
     7
 65
   257
 75
     1
175
     1
 42
1.0
 92
        0
 66
   257
 43
1.0
 76
     1
 77
     6
 78
     2
 67
     7
 79
     5
170
     0
171
     0
290
     0
174
     0
 93
        1
 44
0.0
173
     0
291
     0
 45
0.0
1001
ACAD
1000
AcDbSavedByObjectVersion
1070
     0
  0
VISUALSTYLE
  5
1B0
102
{ACAD_XDICTIONARY
360
1435
102
}
102
{ACAD_REACTORS
330
1A8
102
}
330
1A8
100
AcDbVisualStyle
  2

 70
     6
 71
     1
 72
     2
 73
     2
 90
        0
 40
-0.6
 41
-30.0
 62
     5
 63
     7
 74
     2
 91
        2
 64
     7
 65
   257
 75
     2
175
     1
 42
40.0
 92
        0
 66
   257
 43
1.0
 76
     1
 77
     6
 78
     2
 67
     7
 79
     3
170
     0
171
     0
290
     0
174
     0
 93
        1
 44
0.0
173
     0
291
     0
 45
0.0
1001
ACAD
1000
AcDbSavedByObjectVersion
1070
     0
  0
VISUALSTYLE
  5
1AF
102
{ACAD_XDICTIONARY
360
1433
102
}
102
{ACAD_REACTORS
330
1A8
102
}
330
1A8
100
AcDbVisualStyle
  2

 70
     5
 71
     0
 72
     2
 73
     0
 90
        0
 40
-0.6
 41
-30.0
 62
     5
 63
     7
 74
     1
 91
        4
 64
     7
 65
   257
 75
     1
175
     1
 42
1.0
 92
        0
 66
   257
 43
1.0
 76
     1
 77
     6
 78
     2
 67
     7
 79
     5
170
     0
171
     0
290
     0
174
     0
 93
        1
 44
0.0
173
     0
291
     0
 45
0.0
1001
ACAD
1000
AcDbSavedByObjectVersion
1070
     0
  0
VISUALSTYLE
  5
1AD
102
{ACAD_XDICTIONARY
360
142F
102
}
102
{ACAD_REACTORS
330
1A8
102
}
330
1A8
100
AcDbVisualStyle
  2

 70
     7
 71
     1
 72
     0
 73
     1
 90
        0
 40
-0.6
 41
-30.0
 62
     5
 63
     7
 74
     0
 91
        4
 64
     7
 65
   257
 75
     1
175
     1
 42
1.0
 92
        8
 66
     7
 43
1.0
 76
     1
 77
     6
 78
     2
 67
     7
 79
     5
170
     0
171
     0
290
     0
174
     0
 93
        1
 44
0.0
173
     0
291
     1
 45
0.0
1001
ACAD
1000
AcDbSavedByObjectVersion
1070
     0
  0
VISUALSTYLE
  5
1B4
102
{ACAD_XDICTIONARY
360
143D
102
}
102
{ACAD_REACTORS
330
1A8
102
}
330
1A8
100
AcDbVisualStyle
  2

 70
    12
 71
     2
 72
     2
 73
     0
 90
        0
 40
-0.6
 41
-30.0
 62
     5
 63
     7
 74
     1
 91
        4
 64
     7
 65
   257
 75
     1
175
     1
 42
1.0
 92
        8
 66
     7
 43
1.0
 76
     1
 77
     6
 78
     2
 67
     7
 79
     5
170
     0
171
     0
290
     0
174
     0
 93
        1
 44
50.0
173
     0
291
     1
 45
0.0
1001
ACAD
1000
AcDbSavedByObjectVersion
1070
     0
  0
VISUALSTYLE
  5
1B8
102
{ACAD_XDICTIONARY
360
1445
102
}
102
{ACAD_REACTORS
330
1A8
102
}
330
1A8
100
AcDbVisualStyle
  2

 70
    16
 71
     2
 72
     2
 73
     3
 90
        0
 40
-0.6
 41
-30.0
 62
     5
 63
     8
 74
     1
 91
        4
 64
     7
 65
   257
 75
     1
175
     1
 42
1.0
 92
        8
 66
     8
 43
1.0
 76
     1
 77
     6
 78
     2
 67
     7
 79
     5
170
     0
171
     0
290
     0
174
     0
 93
        1
 44
0.0
173
     0
291
     1
 45
0.0
1001
ACAD
1000
AcDbSavedByObjectVersion
1070
     0
  0
VISUALSTYLE
  5
1B1
102
{ACAD_XDICTIONARY
360
1437
102
}
102
{ACAD_REACTORS
330
1A8
102
}
330
1A8
100
AcDbVisualStyle
  2

 70
     9
 71
     3
 72
     2
 73
     0
 90
        0
 40
-0.6
 41
-30.0
 62
     5
 63
     7
 74
     2
 91
        2
 64
     7
 65
   257
 75
     1
175
     1
 42
40.0
 92
        8
 66
     7
 43
1.0
 76
     1
 77
     6
 78
     2
 67
     7
 79
     3
170
     0
171
     0
290
     0
174
     0
 93
        1
 44
0.0
173
     0
291
     0
 45
0.0
1001
ACAD
1000
AcDbSavedByObjectVersion
1070
     0
  0
VISUALSTYLE
  5
1B3
102
{ACAD_XDICTIONARY
360
143B
102
}
102
{ACAD_REACTORS
330
1A8
102
}
330
1A8
100
AcDbVisualStyle
  2

 70
    11
 71
     2
 72
     2
 73
     0
 90
        0
 40
-0.6
 41
-30.0
 62
     5
 63
     7
 74
     1
 91
        4
 64
     7
 65
   257
 75
     1
175
     1
 42
1.0
 92
        8
 66
     7
 43
1.0
 76
     1
 77
     6
 78
     2
 67
     7
 79
     5
170
     0
171
     0
290
     0
174
     0
 93
        1
 44
-50.0
173
     0
291
     1
 45
0.0
1001
ACAD
1000
AcDbSavedByObjectVersion
1070
     0
  0
VISUALSTYLE
  5
F73
102
{ACAD_XDICTIONARY
360
1459
102
}
102
{ACAD_REACTORS
330
1A8
102
}
330
1A8
100
AcDbVisualStyle
  2

 70
    22
 71
     2
 72
     2
 73
     0
 90
        0
 40
-0.6
 41
-30.0
 62
     5
 63
     7
 74
     1
 91
        4
 64
     7
 65
   257
 75
     1
175
     1
 42
1.0
 92
        8
 66
     7
 43
1.0
 76
     1
 77
     6
 78
     2
 67
     7
 79
     5
170
     0
171
     0
290
     0
174
     0
 93
        1
 44
0.0
173
     0
291
     1
 45
0.0
1001
ACAD
1000
AcDbSavedByObjectVersion
1070
     0
  0
VISUALSTYLE
  5
1B7
102
{ACAD_XDICTIONARY
360
1443
102
}
102
{ACAD_REACTORS
330
1A8
102
}
330
1A8
100
AcDbVisualStyle
  2

 70
    15
 71
     2
 72
     2
 73
     0
 90
        0
 40
-0.6
 41
-30.0
 62
     5
 63
     7
 74
     1
 91
        4
 64
     7
 65
   257
 75
     1
175
     1
 42
1.0
 92
        8
 66
     7
 43
1.0
 76
     1
 77
     6
 78
     2
 67
     7
 79
     5
170
     0
171
     0
290
     0
174
     0
 93
        1
 44
0.0
173
     0
291
     1
 45
0.0
1001
ACAD
1000
AcDbSavedByObjectVersion
1070
     0
  0
VISUALSTYLE
  5
1A9
102
{ACAD_XDICTIONARY
360
1427
102
}
102
{ACAD_REACTORS
330
1A8
102
}
330
1A8
100
AcDbVisualStyle
  2

 70
     0
 71
     2
 72
     1
 73
     1
 90
        2
 40
-0.6
 41
30.0
 62
     5
 63
     7
 74
     0
 91
        4
 64
     7
 65
   257
 75
     1
175
     1
 42
1.0
 92
        8
 66
     7
 43
1.0
 76
     1
 77
     6
 78
     2
 67
     7
 79
     5
170
     0
171
     0
290
     0
174
     0
 93
       13
 44
0.0
173
     0
291
     1
 45
0.0
1001
ACAD
1000
AcDbSavedByObjectVersion
1070
     0
  0
VISUALSTYLE
  5
1AA
102
{ACAD_XDICTIONARY
360
1429
102
}
102
{ACAD_REACTORS
330
1A8
102
}
330
1A8
100
AcDbVisualStyle
  2

 70
     1
 71
     2
 72
     1
 73
     1
 90
        2
 40
-0.6
 41
30.0
 62
     5
 63
     7
 74
     1
 91
        4
 64
     7
 65
   257
 75
     1
175
     1
 42
1.0
 92
        0
 66
   257
 43
1.0
 76
     1
 77
     6
 78
     2
 67
     7
 79
     5
170
     0
171
     0
290
     0
174
     0
 93
       13
 44
0.0
173
     0
291
     1
 45
0.0
1001
ACAD
1000
AcDbSavedByObjectVersion
1070
     0
  0
VISUALSTYLE
  5
1AB
102
{ACAD_XDICTIONARY
360
142B
102
}
102
{ACAD_REACTORS
330
1A8
102
}
330
1A8
100
AcDbVisualStyle
  2

 70
     2
 71
     2
 72
     2
 73
     1
 90
        2
 40
-0.6
 41
30.0
 62
     5
 63
     7
 74
     0
 91
        4
 64
     7
 65
   257
 75
     1
175
     1
 42
1.0
 92
        0
 66
     7
 43
1.0
 76
     1
 77
     6
 78
     2
 67
     7
 79
     5
170
     0
171
     0
290
     0
174
     0
 93
       13
 44
0.0
173
     0
291
     1
 45
0.0
1001
ACAD
1000
AcDbSavedByObjectVersion
1070
     0
  0
VISUALSTYLE
  5
1AC
102
{ACAD_XDICTIONARY
360
142D
102
}
102
{ACAD_REACTORS
330
1A8
102
}
330
1A8
100
AcDbVisualStyle
  2

 70
     3
 71
     2
 72
     2
 73
     1
 90
        2
 40
-0.6
 41
30.0
 62
     5
 63
     7
 74
     1
 91
        4
 64
     7
 65
   257
 75
     1
175
     1
 42
1.0
 92
        0
 66
   257
 43
1.0
 76
     1
 77
     6
 78
     2
 67
     7
 79
     5
170
     0
171
     0
290
     0
174
     0
 93
       13
 44
0.0
173
     0
291
     1
 45
0.0
1001
ACAD
1000
AcDbSavedByObjectVersion
1070
     0
  0
VISUALSTYLE
  5
F6B
102
{ACAD_XDICTIONARY
360
1449
102
}
102
{ACAD_REACTORS
330
1A8
102
}
330
1A8
100
AcDbVisualStyle
  2

 70
     6
 71
     1
 72
     2
 73
     2
 90
        0
 40
-0.6
 41
-30.0
 62
     5
 63
     7
 74
     2
 91
        2
 64
     7
 65
   257
 75
     2
175
     1
 42
40.0
 92
        0
 66
   257
 43
1.0
 76
     1
 77
     6
 78
     2
 67
     7
 79
     3
170
     0
171
     0
290
     0
174
     0
 93
        1
 44
0.0
173
     0
291
     0
 45
0.0
1001
ACAD
1000
AcDbSavedByObjectVersion
1070
     0
  0
VISUALSTYLE
  5
F71
102
{ACAD_XDICTIONARY
360
1455
102
}
102
{ACAD_REACTORS
330
1A8
102
}
330
1A8
100
AcDbVisualStyle
  2

 70
    20
 71
     2
 72
     2
 73
     0
 90
        0
 40
-0.6
 41
-30.0
 62
     5
 63
     7
 74
     1
 91
        4
 64
     7
 65
   257
 75
     1
175
     1
 42
1.0
 92
       10
 66
     7
 43
1.0
 76
     1
 77
     6
 78
     2
 67
     7
 79
     5
170
     0
171
     0
290
     0
174
     0
 93
        1
 44
0.0
173
     0
291
     1
 45
0.0
1001
ACAD
1000
AcDbSavedByObjectVersion
1070
     0
  0
VISUALSTYLE
  5
1B6
102
{ACAD_XDICTIONARY
360
1441
102
}
102
{ACAD_REACTORS
330
1A8
102
}
330
1A8
100
AcDbVisualStyle
  2

 70
    14
 71
     2
 72
     2
 73
     0
 90
        0
 40
-0.6
 41
-30.0
 62
     5
 63
     7
 74
     1
 91
        4
 64
     7
 65
   257
 75
     7
175
     7
 42
1.0
 92
        8
 66
     7
 43
1.0
 76
     1
 77
     6
 78
     2
 67
     7
 79
     5
170
     0
171
     0
290
     0
174
     0
 93
        1
 44
0.0
173
     0
291
     1
 45
0.0
1001
ACAD
1000
AcDbSavedByObjectVersion
1070
     0
  0
VISUALSTYLE
  5
F72
102
{ACAD_XDICTIONARY
360
1457
102
}
102
{ACAD_REACTORS
330
1A8
102
}
330
1A8
100
AcDbVisualStyle
  2

 70
    21
 71
     2
 72
     2
 73
     0
 90
        0
 40
-0.6
 41
-30.0
 62
     5
 63
     7
 74
     1
 91
        4
 64
     7
 65
   257
 75
     1
175
     1
 42
1.0
 92
        9
 66
     7
 43
1.0
 76
     1
 77
     6
 78
     2
 67
     7
 79
     5
170
     0
171
     0
290
     0
174
     0
 93
        1
 44
0.0
173
     0
291
     1
 45
0.0
1001
ACAD
1000
AcDbSavedByObjectVersion
1070
     0
  0
VISUALSTYLE
  5
1B2
102
{ACAD_XDICTIONARY
360
1439
102
}
102
{ACAD_REACTORS
330
1A8
102
}
330
1A8
100
AcDbVisualStyle
  2

 70
     8
 71
     2
 72
     2
 73
     0
 90
        0
 40
-0.6
 41
-30.0
 62
     5
 63
     7
 74
     1
 91
        0
 64
     7
 65
   257
 75
     1
175
     1
 42
1.0
 92
        8
 66
     8
 43
1.0
 76
     1
 77
     6
 78
     2
 67
     7
 79
     5
170
     0
171
     0
290
     0
174
     0
 93
       13
 44
0.0
173
     0
291
     0
 45
0.0
1001
ACAD
1000
AcDbSavedByObjectVersion
1070
     0
  0
VISUALSTYLE
  5
F70
102
{ACAD_XDICTIONARY
360
1453
102
}
102
{ACAD_REACTORS
330
1A8
102
}
330
1A8
100
AcDbVisualStyle
  2

 70
    27
 71
     2
 72
     2
 73
     1
 90
        2
 40
-0.6
 41
30.0
 62
     5
 63
     7
 74
     0
 91
        4
 64
     7
 65
   257
 75
     1
175
     1
 42
1.0
 92
        8
 66
   257
 43
1.0
 76
     1
 77
     6
 78
     2
 67
     8
 79
     3
170
     0
171
     0
290
     0
174
     0
 93
        5
 44
0.0
173
     0
291
     0
 45
0.0
1001
ACAD
1000
AcDbSavedByObjectVersion
1070
     0
  0
VISUALSTYLE
  5
F6F
102
{ACAD_XDICTIONARY
360
1451
102
}
102
{ACAD_REACTORS
330
1A8
102
}
330
1A8
100
AcDbVisualStyle
  2

 70
    26
 71
     2
 72
     2
 73
     1
 90
        2
 40
-0.6
 41
30.0
 62
     5
 63
     7
 74
     1
 91
       10
 64
     7
 65
   257
 75
     2
175
     1
 42
1.0
 92
        8
 66
   257
 43
1.0
 76
     1
 77
     6
 78
     2
 67
     7
 79
     3
170
     0
171
     0
290
     0
174
     0
 93
        5
 44
0.0
173
     0
291
     0
 45
0.0
1001
ACAD
1000
AcDbSavedByObjectVersion
1070
     0
  0
VISUALSTYLE
  5
F6C
102
{ACAD_XDICTIONARY
360
144B
102
}
102
{ACAD_REACTORS
330
1A8
102
}
330
1A8
100
AcDbVisualStyle
  2

 70
    23
 71
     2
 72
     2
 73
     3
 90
        0
 40
-0.6
 41
-30.0
 62
     5
 63
     7
 74
     2
 91
        2
 64
     7
 65
     7
 75
     1
175
     1
 42
40.0
 92
        8
 66
     7
 43
1.0
 76
     1
 77
     6
 78
     2
 67
     7
 79
     3
170
     0
171
     0
290
     0
174
     0
 93
        1
 44
0.0
173
     0
291
     0
 45
0.0
1001
ACAD
1000
AcDbSavedByObjectVersion
1070
     0
  0
VISUALSTYLE
  5
F6D
102
{ACAD_XDICTIONARY
360
144D
102
}
102
{ACAD_REACTORS
330
1A8
102
}
330
1A8
100
AcDbVisualStyle
  2

 70
    24
 71
     1
 72
     2
 73
     2
 90
        0
 40
-0.6
 41
-30.0
 62
     5
 63
     7
 74
     2
 91
        2
 64
     7
 65
     7
 75
     1
175
     1
 42
40.0
 92
       11
 66
     7
 43
1.0
 76
     1
 77
     6
 78
     2
 67
     7
 79
     6
170
     0
171
     0
290
     0
174
     0
 93
        1
 44
0.0
173
     0
291
     0
 45
0.0
1001
ACAD
1000
AcDbSavedByObjectVersion
1070
     0
  0
VISUALSTYLE
  5
1B5
102
{ACAD_XDICTIONARY
360
143F
102
}
102
{ACAD_REACTORS
330
1A8
102
}
330
1A8
100
AcDbVisualStyle
  2

 70
    13
 71
     2
 72
     2
 73
     0
 90
        0
 40
-0.6
 41
-30.0
 62
     5
 63
     7
 74
     1
 91
        4
 64
     7
 65
   257
 75
     1
175
     1
 42
1.0
 92
       12
 66
     7
 43
1.0
 76
     1
 77
     6
 78
     2
 67
     7
 79
     5
170
     0
171
     0
290
     0
174
     0
 93
        1
 44
0.0
173
     0
291
     1
 45
0.0
1001
ACAD
1000
AcDbSavedByObjectVersion
1070
     0
  0
VISUALSTYLE
  5
F6A
102
{ACAD_XDICTIONARY
360
1447
102
}
102
{ACAD_REACTORS
330
1A8
102
}
330
1A8
100
AcDbVisualStyle
  2

 70
     5
 71
     0
 72
     2
 73
     0
 90
        0
 40
-0.6
 41
-30.0
 62
     5
 63
     7
 74
     1
 91
        4
 64
     7
 65
   257
 75
     1
175
     1
 42
1.0
 92
        0
 66
   257
 43
1.0
 76
     1
 77
     6
 78
     2
 67
     7
 79
     3
170
     0
171
     0
290
     0
174
     0
 93
        1
 44
0.0
173
     0
291
     0
 45
0.0
1001
ACAD
1000
AcDbSavedByObjectVersion
1070
     0
  0
VISUALSTYLE
  5
F6E
102
{ACAD_XDICTIONARY
360
144F
102
}
102
{ACAD_REACTORS
330
1A8
102
}
330
1A8
100
AcDbVisualStyle
  2

 70
    25
 71
     2
 72
     2
 73
     1
 90
        1
 40
0.5
 41
-30.0
 62
     5
 63
     7
 74
     1
 91
        0
 64
     7
 65
   257
 75
     1
175
     1
 42
1.0
 92
        8
 66
     7
 43
1.0
 76
     1
 77
     6
 78
     2
 67
     7
 79
     3
170
     0
171
     0
290
     0
174
     0
 93
       13
 44
0.0
173
     0
291
     0
 45
0.0
1001
ACAD
1000
AcDbSavedByObjectVersion
1070
     0
  0
DICTIONARYVAR
  5
119C
102
{ACAD_REACTORS
330
C4
102
}
330
C4
100
DictionaryVariables
280
     0
  1
1:1
  0
DICTIONARYVAR
  5
119B
102
{ACAD_REACTORS
330
C4
102
}
330
C4
100
DictionaryVariables
280
     0
  1
STANDARD
  0
DICTIONARYVAR
  5
C5
102
{ACAD_REACTORS
330
C4
102
}
330
C4
100
DictionaryVariables
280
     0
  1
STANDARD
  0
DICTIONARYVAR
  5
F52
102
{ACAD_REACTORS
330
C4
102
}
330
C4
100
DictionaryVariables
280
     0
  1
1
  0
DICTIONARYVAR
  5
F51
102
{ACAD_REACTORS
330
C4
102
}
330
C4
100
DictionaryVariables
280
     0
  1
0
  0
DICTIONARYVAR
  5
F50
102
{ACAD_REACTORS
330
C4
102
}
330
C4
100
DictionaryVariables
280
     0
  1
127
  0
DICTIONARYVAR
  5
1380
102
{ACAD_REACTORS
330
C4
102
}
330
C4
100
DictionaryVariables
280
     0
  1
2
  0
DICTIONARY
  5
1423
330
21
100
AcDbDictionary
280
     1
281
     1
  3
ACAD_XREC_ROUNDTRIP
360
1424
  0
DICTIONARY
  5
1425
330
25
100
AcDbDictionary
280
     1
281
     1
  3
ACAD_XREC_ROUNDTRIP
360
1426
  0
DICTIONARY
  5
F60
330
1A6
100
AcDbDictionary
280
     1
281
     1
  3
ACAD_XREC_ROUNDTRIP
360
F61
  0
DICTIONARY
  5
F5E
330
1A5
100
AcDbDictionary
280
     1
281
     1
  3
ACAD_XREC_ROUNDTRIP
360
F5F
  0
DICTIONARY
  5
F62
330
1A7
100
AcDbDictionary
280
     1
281
     1
  3
ACAD_XREC_ROUNDTRIP
360
F63
  0
DICTIONARY
  5
119E
330
1D
100
AcDbDictionary
280
     1
281
     1
  3
ACAD_ROUNDTRIP_2008_TABLESTYLE_CELLSTYLEMAP
360
141B
  3
ACAD_XREC_ROUNDTRIP
360
1422
  0
DICTIONARY
  5
1431
330
1AE
100
AcDbDictionary
280
     1
281
     1
  3
ACAD_XREC_ROUNDTRIP
360
1432
  0
DICTIONARY
  5
1435
330
1B0
100
AcDbDictionary
280
     1
281
     1
  3
ACAD_XREC_ROUNDTRIP
360
1436
  0
DICTIONARY
  5
1433
330
1AF
100
AcDbDictionary
280
     1
281
     1
  3
ACAD_XREC_ROUNDTRIP
360
1434
  0
DICTIONARY
  5
142F
330
1AD
100
AcDbDictionary
280
     1
281
     1
  3
ACAD_XREC_ROUNDTRIP
360
1430
  0
DICTIONARY
  5
143D
330
1B4
100
AcDbDictionary
280
     1
281
     1
  3
ACAD_XREC_ROUNDTRIP
360
143E
  0
DICTIONARY
  5
1445
330
1B8
100
AcDbDictionary
280
     1
281
     1
  3
ACAD_XREC_ROUNDTRIP
360
1446
  0
DICTIONARY
  5
1437
330
1B1
100
AcDbDictionary
280
     1
281
     1
  3
ACAD_XREC_ROUNDTRIP
360
1438
  0
DICTIONARY
  5
143B
330
1B3
100
AcDbDictionary
280
     1
281
     1
  3
ACAD_XREC_ROUNDTRIP
360
143C
  0
DICTIONARY
  5
1459
330
F73
100
AcDbDictionary
280
     1
281
     1
  3
ACAD_XREC_ROUNDTRIP
360
145A
  0
DICTIONARY
  5
1443
330
1B7
100
AcDbDictionary
280
     1
281
     1
  3
ACAD_XREC_ROUNDTRIP
360
1444
  0
DICTIONARY
  5
1427
330
1A9
100
AcDbDictionary
280
     1
281
     1
  3
ACAD_XREC_ROUNDTRIP
360
1428
  0
DICTIONARY
  5
1429
330
1AA
100
AcDbDictionary
280
     1
281
     1
  3
ACAD_XREC_ROUNDTRIP
360
142A
  0
DICTIONARY
  5
142B
330
1AB
100
AcDbDictionary
280
     1
281
     1
  3
ACAD_XREC_ROUNDTRIP
360
142C
  0
DICTIONARY
  5
142D
330
1AC
100
AcDbDictionary
280
     1
281
     1
  3
ACAD_XREC_ROUNDTRIP
360
142E
  0
DICTIONARY
  5
1449
330
F6B
100
AcDbDictionary
280
     1
281
     1
  3
ACAD_XREC_ROUNDTRIP
360
144A
  0
DICTIONARY
  5
1455
330
F71
100
AcDbDictionary
280
     1
281
     1
  3
ACAD_XREC_ROUNDTRIP
360
1456
  0
DICTIONARY
  5
1441
330
1B6
100
AcDbDictionary
280
     1
281
     1
  3
ACAD_XREC_ROUNDTRIP
360
1442
  0
DICTIONARY
  5
1457
330
F72
100
AcDbDictionary
280
     1
281
     1
  3
ACAD_XREC_ROUNDTRIP
360
1458
  0
DICTIONARY
  5
1439
330
1B2
100
AcDbDictionary
280
     1
281
     1
  3
ACAD_XREC_ROUNDTRIP
360
143A
  0
DICTIONARY
  5
1453
330
F70
100
AcDbDictionary
280
     1
281
     1
  3
ACAD_XREC_ROUNDTRIP
360
1454
  0
DICTIONARY
  5
1451
330
F6F
100
AcDbDictionary
280
     1
281
     1
  3
ACAD_XREC_ROUNDTRIP
360
1452
  0
DICTIONARY
  5
144B
330
F6C
100
AcDbDictionary
280
     1
281
     1
  3
ACAD_XREC_ROUNDTRIP
360
144C
  0
DICTIONARY
  5
144D
330
F6D
100
AcDbDictionary
280
     1
281
     1
  3
ACAD_XREC_ROUNDTRIP
360
144E
  0
DICTIONARY
  5
143F
330
1B5
100
AcDbDictionary
280
     1
281
     1
  3
ACAD_XREC_ROUNDTRIP
360
1440
  0
DICTIONARY
  5
1447
330
F6A
100
AcDbDictionary
280
     1
281
     1
  3
ACAD_XREC_ROUNDTRIP
360
1448
  0
DICTIONARY
  5
144F
330
F6E
100
AcDbDictionary
280
     1
281
     1
  3
ACAD_XREC_ROUNDTRIP
360
1450
  0
XRECORD
  5
1424
102
{ACAD_REACTORS
330
1423
102
}
330
1423
100
AcDbXrecord
280
     1
102
SHADEPLOT
 70
     0
102
SHADEPLOTRESLEVEL
 70
     2
102
SHADEPLOTCUSTOMDPI
 70
   300
  0
XRECORD
  5
1426
102
{ACAD_REACTORS
330
1425
102
}
330
1425
100
AcDbXrecord
280
     1
102
SHADEPLOT
 70
     0
102
SHADEPLOTRESLEVEL
 70
     2
102
SHADEPLOTCUSTOMDPI
 70
   300
  0
XRECORD
  5
F61
102
{ACAD_REACTORS
330
F60
102
}
330
F60
100
AcDbXrecord
280
     1
102
MATERIAL
148
0.0
149
0.0
149
0.0
 93
        0
 94
      127
282
     0
 72
     1
 77
     1
171
     1
175
     1
179
     1
273
     0
  0
XRECORD
  5
F5F
102
{ACAD_REACTORS
330
F5E
102
}
330
F5E
100
AcDbXrecord
280
     1
102
MATERIAL
148
0.0
149
0.0
149
0.0
 93
        0
 94
      127
282
     0
 72
     1
 77
     1
171
     1
175
     1
179
     1
273
     0
  0
XRECORD
  5
F63
102
{ACAD_REACTORS
330
F62
102
}
330
F62
100
AcDbXrecord
280
     1
102
MATERIAL
148
0.0
149
0.0
149
0.0
 93
        0
 94
      127
282
     0
 72
     1
 77
     1
171
     1
175
     1
179
     1
273
     0
  0
CELLSTYLEMAP
  5
141B
102
{ACAD_REACTORS
330
119E
102
}
330
119E
100
AcDbCellStyleMap
 90
        3
300
CELLSTYLE
  1
TABLEFORMAT_BEGIN
 90
        5
170
     1
 91
        0
 92
    32768
 62
   257
 93
        1
300
CONTENTFORMAT
  1
CONTENTFORMAT_BEGIN
 90
        0
 91
        0
 92
        4
 93
        0
300

 40
0.0
140
1.0
 94
        5
 62
     0
340
11
144
0.25
309
CONTENTFORMAT_END
171
     1
301
MARGIN
  1
CELLMARGIN_BEGIN
 40
0.06
 40
0.06
 40
0.06
 40
0.06
 40
0.18
 40
0.18
309
CELLMARGIN_END
 94
        6
 95
        1
302
GRIDFORMAT
  1
GRIDFORMAT_BEGIN
 90
        0
 91
        1
 62
     0
 92
       -2
340
0
 93
        0
 40
0.045
309
GRIDFORMAT_END
 95
        2
302
GRIDFORMAT
  1
GRIDFORMAT_BEGIN
 90
        0
 91
        1
 62
     0
 92
       -2
340
0
 93
        0
 40
0.045
309
GRIDFORMAT_END
 95
        4
302
GRIDFORMAT
  1
GRIDFORMAT_BEGIN
 90
        0
 91
        1
 62
     0
 92
       -2
340
0
 93
        0
 40
0.045
309
GRIDFORMAT_END
 95
        8
302
GRIDFORMAT
  1
GRIDFORMAT_BEGIN
 90
        0
 91
        1
 62
     0
 92
       -2
340
0
 93
        0
 40
0.045
309
GRIDFORMAT_END
 95
       16
302
GRIDFORMAT
  1
GRIDFORMAT_BEGIN
 90
        0
 91
        1
 62
     0
 92
       -2
340
0
 93
        0
 40
0.045
309
GRIDFORMAT_END
 95
       32
302
GRIDFORMAT
  1
GRIDFORMAT_BEGIN
 90
        0
 91
        1
 62
     0
 92
       -2
340
0
 93
        0
 40
0.045
309
GRIDFORMAT_END
309
TABLEFORMAT_END
  1
CELLSTYLE_BEGIN
 90
        1
 91
        1
300
_TITLE
309
CELLSTYLE_END
300
CELLSTYLE
  1
TABLEFORMAT_BEGIN
 90
        5
170
     1
 91
        0
 92
        0
 62
   257
 93
        1
300
CONTENTFORMAT
  1
CONTENTFORMAT_BEGIN
 90
        0
 91
        0
 92
        4
 93
        0
300

 40
0.0
140
1.0
 94
        5
 62
     0
340
11
144
0.18
309
CONTENTFORMAT_END
171
     1
301
MARGIN
  1
CELLMARGIN_BEGIN
 40
0.06
 40
0.06
 40
0.06
 40
0.06
 40
0.18
 40
0.18
309
CELLMARGIN_END
 94
        6
 95
        1
302
GRIDFORMAT
  1
GRIDFORMAT_BEGIN
 90
        0
 91
        1
 62
     0
 92
       -2
340
0
 93
        0
 40
0.045
309
GRIDFORMAT_END
 95
        2
302
GRIDFORMAT
  1
GRIDFORMAT_BEGIN
 90
        0
 91
        1
 62
     0
 92
       -2
340
0
 93
        0
 40
0.045
309
GRIDFORMAT_END
 95
        4
302
GRIDFORMAT
  1
GRIDFORMAT_BEGIN
 90
        0
 91
        1
 62
     0
 92
       -2
340
0
 93
        0
 40
0.045
309
GRIDFORMAT_END
 95
        8
302
GRIDFORMAT
  1
GRIDFORMAT_BEGIN
 90
        0
 91
        1
 62
     0
 92
       -2
340
0
 93
        0
 40
0.045
309
GRIDFORMAT_END
 95
       16
302
GRIDFORMAT
  1
GRIDFORMAT_BEGIN
 90
        0
 91
        1
 62
     0
 92
       -2
340
0
 93
        0
 40
0.045
309
GRIDFORMAT_END
 95
       32
302
GRIDFORMAT
  1
GRIDFORMAT_BEGIN
 90
        0
 91
        1
 62
     0
 92
       -2
340
0
 93
        0
 40
0.045
309
GRIDFORMAT_END
309
TABLEFORMAT_END
  1
CELLSTYLE_BEGIN
 90
        2
 91
        1
300
_HEADER
309
CELLSTYLE_END
300
CELLSTYLE
  1
TABLEFORMAT_BEGIN
 90
        5
170
     1
 91
        0
 92
        0
 62
   257
 93
        1
300
CONTENTFORMAT
  1
CONTENTFORMAT_BEGIN
 90
        0
 91
        0
 92
        4
 93
        0
300

 40
0.0
140
1.0
 94
        2
 62
     0
340
11
144
0.18
309
CONTENTFORMAT_END
171
     1
301
MARGIN
  1
CELLMARGIN_BEGIN
 40
0.06
 40
0.06
 40
0.06
 40
0.06
 40
0.18
 40
0.18
309
CELLMARGIN_END
 94
        6
 95
        1
302
GRIDFORMAT
  1
GRIDFORMAT_BEGIN
 90
        0
 91
        1
 62
     0
 92
       -2
340
0
 93
        0
 40
0.045
309
GRIDFORMAT_END
 95
        2
302
GRIDFORMAT
  1
GRIDFORMAT_BEGIN
 90
        0
 91
        1
 62
     0
 92
       -2
340
0
 93
        0
 40
0.045
309
GRIDFORMAT_END
 95
        4
302
GRIDFORMAT
  1
GRIDFORMAT_BEGIN
 90
        0
 91
        1
 62
     0
 92
       -2
340
0
 93
        0
 40
0.045
309
GRIDFORMAT_END
 95
        8
302
GRIDFORMAT
  1
GRIDFORMAT_BEGIN
 90
        0
 91
        1
 62
     0
 92
       -2
340
0
 93
        0
 40
0.045
309
GRIDFORMAT_END
 95
       16
302
GRIDFORMAT
  1
GRIDFORMAT_BEGIN
 90
        0
 91
        1
 62
     0
 92
       -2
340
0
 93
        0
 40
0.045
309
GRIDFORMAT_END
 95
       32
302
GRIDFORMAT
  1
GRIDFORMAT_BEGIN
 90
        0
 91
        1
 62
     0
 92
       -2
340
0
 93
        0
 40
0.045
309
GRIDFORMAT_END
309
TABLEFORMAT_END
  1
CELLSTYLE_BEGIN
 90
        3
 91
        2
300
_DATA
309
CELLSTYLE_END
  0
XRECORD
  5
1422
102
{ACAD_REACTORS
330
119E
102
}
330
119E
100
AcDbXrecord
280
     1
102
ACAD_ROUNDTRIP_PRE2007_TABLESTYLE
 90
        4
 91
        0
  1

 92
        4
 93
        0
  2

 94
        4
 95
        0
  3

  0
XRECORD
  5
1432
102
{ACAD_REACTORS
330
1431
102
}
330
1431
100
AcDbXrecord
280
     1
102
RTVSPropertyOp0
 70
     1
102
RTVSPropertyOp1
 70
     1
102
RTVSPropertyOp2
 70
     1
102
RTVSPropertyOp3
 70
     1
102
RTVSPropertyOp4
 70
     1
102
RTVSPropertyOp5
 70
     1
102
RTVSPropertyOp6
 70
     1
102
RTVSPropertyOp7
 70
     1
102
RTVSPropertyOp8
 70
     1
102
RTVSPropertyOp9
 70
     1
102
RTVSPropertyOp10
 70
     1
102
RTVSPropertyOp11
 70
     1
102
RTVSPropertyOp12
 70
     1
102
RTVSPropertyOp13
 70
     1
102
RTVSPropertyOp14
 70
     1
102
RTVSPropertyOp15
 70
     1
102
RTVSPropertyOp16
 70
     1
102
RTVSPropertyOp17
 70
     1
102
RTVSPropertyOp18
 70
     1
102
RTVSPropertyOp19
 70
     1
102
RTVSPropertyOp20
 70
     1
102
RTVSPropertyOp21
 70
     1
102
RTVSPropertyOp22
 70
     1
102
RTVSPropertyOp23
 70
     1
102
RTVSPropertyOp24
 70
     1
102
RTVSPropertyOp25
 70
     1
102
RTVSPropertyOp26
 70
     1
102
RTVSPropertyOp27
 70
     1
102
RTVSPropertyOp28
 70
     1
102
RTVSPropertyOp29
 70
     1
102
RTVSPropertyOp30
 70
     1
102
RTVSPropertyOp31
 70
     1
102
RTVSPropertyOp32
 70
     1
  0
XRECORD
  5
1436
102
{ACAD_REACTORS
330
1435
102
}
330
1435
100
AcDbXrecord
280
     1
102
RTVSPropertyOp0
 70
     1
102
RTVSPropertyOp1
 70
     1
102
RTVSPropertyOp2
 70
     1
102
RTVSPropertyOp3
 70
     1
102
RTVSPropertyOp4
 70
     1
102
RTVSPropertyOp5
 70
     1
102
RTVSPropertyOp6
 70
     1
102
RTVSPropertyOp7
 70
     1
102
RTVSPropertyOp8
 70
     1
102
RTVSPropertyOp9
 70
     1
102
RTVSPropertyOp10
 70
     1
102
RTVSPropertyOp11
 70
     1
102
RTVSPropertyOp12
 70
     1
102
RTVSPropertyOp13
 70
     1
102
RTVSPropertyOp14
 70
     1
102
RTVSPropertyOp15
 70
     1
102
RTVSPropertyOp16
 70
     1
102
RTVSPropertyOp17
 70
     1
102
RTVSPropertyOp18
 70
     1
102
RTVSPropertyOp19
 70
     1
102
RTVSPropertyOp20
 70
     1
102
RTVSPropertyOp21
 70
     1
102
RTVSPropertyOp22
 70
     1
102
RTVSPropertyOp23
 70
     1
102
RTVSPropertyOp24
 70
     1
102
RTVSPropertyOp25
 70
     1
102
RTVSPropertyOp26
 70
     1
102
RTVSPropertyOp27
 70
     1
102
RTVSPropertyOp28
 70
     1
102
RTVSPropertyOp29
 70
     1
102
RTVSPropertyOp30
 70
     1
102
RTVSPropertyOp31
 70
     1
102
RTVSPropertyOp32
 70
     1
  0
XRECORD
  5
1434
102
{ACAD_REACTORS
330
1433
102
}
330
1433
100
AcDbXrecord
280
     1
102
RTVSPropertyOp0
 70
     1
102
RTVSPropertyOp1
 70
     1
102
RTVSPropertyOp2
 70
     1
102
RTVSPropertyOp3
 70
     1
102
RTVSPropertyOp4
 70
     1
102
RTVSPropertyOp5
 70
     1
102
RTVSPropertyOp6
 70
     1
102
RTVSPropertyOp7
 70
     1
102
RTVSPropertyOp8
 70
     1
102
RTVSPropertyOp9
 70
     1
102
RTVSPropertyOp10
 70
     1
102
RTVSPropertyOp11
 70
     1
102
RTVSPropertyOp12
 70
     1
102
RTVSPropertyOp13
 70
     1
102
RTVSPropertyOp14
 70
     1
102
RTVSPropertyOp15
 70
     1
102
RTVSPropertyOp16
 70
     1
102
RTVSPropertyOp17
 70
     1
102
RTVSPropertyOp18
 70
     1
102
RTVSPropertyOp19
 70
     1
102
RTVSPropertyOp20
 70
     1
102
RTVSPropertyOp21
 70
     1
102
RTVSPropertyOp22
 70
     1
102
RTVSPropertyOp23
 70
     1
102
RTVSPropertyOp24
 70
     1
102
RTVSPropertyOp25
 70
     1
102
RTVSPropertyOp26
 70
     1
102
RTVSPropertyOp27
 70
     1
102
RTVSPropertyOp28
 70
     1
102
RTVSPropertyOp29
 70
     1
102
RTVSPropertyOp30
 70
     1
102
RTVSPropertyOp31
 70
     1
102
RTVSPropertyOp32
 70
     1
  0
XRECORD
  5
1430
102
{ACAD_REACTORS
330
142F
102
}
330
142F
100
AcDbXrecord
280
     1
102
RTVSPropertyOp0
 70
     1
102
RTVSPropertyOp1
 70
     1
102
RTVSPropertyOp2
 70
     1
102
RTVSPropertyOp3
 70
     1
102
RTVSPropertyOp4
 70
     1
102
RTVSPropertyOp5
 70
     1
102
RTVSPropertyOp6
 70
     1
102
RTVSPropertyOp7
 70
     1
102
RTVSPropertyOp8
 70
     1
102
RTVSPropertyOp9
 70
     1
102
RTVSPropertyOp10
 70
     1
102
RTVSPropertyOp11
 70
     1
102
RTVSPropertyOp12
 70
     1
102
RTVSPropertyOp13
 70
     1
102
RTVSPropertyOp14
 70
     1
102
RTVSPropertyOp15
 70
     1
102
RTVSPropertyOp16
 70
     1
102
RTVSPropertyOp17
 70
     1
102
RTVSPropertyOp18
 70
     1
102
RTVSPropertyOp19
 70
     1
102
RTVSPropertyOp20
 70
     1
102
RTVSPropertyOp21
 70
     1
102
RTVSPropertyOp22
 70
     1
102
RTVSPropertyOp23
 70
     1
102
RTVSPropertyOp24
 70
     1
102
RTVSPropertyOp25
 70
     1
102
RTVSPropertyOp26
 70
     1
102
RTVSPropertyOp27
 70
     1
102
RTVSPropertyOp28
 70
     1
102
RTVSPropertyOp29
 70
     1
102
RTVSPropertyOp30
 70
     1
102
RTVSPropertyOp31
 70
     1
102
RTVSPropertyOp32
 70
     1
  0
XRECORD
  5
143E
102
{ACAD_REACTORS
330
143D
102
}
330
143D
100
AcDbXrecord
280
     1
102
RTVSPropertyOp0
 70
     1
102
RTVSPropertyOp1
 70
     1
102
RTVSPropertyOp2
 70
     1
102
RTVSPropertyOp3
 70
     1
102
RTVSPropertyOp4
 70
     1
102
RTVSPropertyOp5
 70
     1
102
RTVSPropertyOp6
 70
     1
102
RTVSPropertyOp7
 70
     1
102
RTVSPropertyOp8
 70
     1
102
RTVSPropertyOp9
 70
     1
102
RTVSPropertyOp10
 70
     1
102
RTVSPropertyOp11
 70
     1
102
RTVSPropertyOp12
 70
     1
102
RTVSPropertyOp13
 70
     1
102
RTVSPropertyOp14
 70
     1
102
RTVSPropertyOp15
 70
     1
102
RTVSPropertyOp16
 70
     1
102
RTVSPropertyOp17
 70
     1
102
RTVSPropertyOp18
 70
     1
102
RTVSPropertyOp19
 70
     1
102
RTVSPropertyOp20
 70
     1
102
RTVSPropertyOp21
 70
     1
102
RTVSPropertyOp22
 70
     1
102
RTVSPropertyOp23
 70
     1
102
RTVSPropertyOp24
 70
     1
102
RTVSPropertyOp25
 70
     1
102
RTVSPropertyOp26
 70
     1
102
RTVSPropertyOp27
 70
     1
102
RTVSPropertyOp28
 70
     1
102
RTVSPropertyOp29
 70
     1
102
RTVSPropertyOp30
 70
     1
102
RTVSPropertyOp31
 70
     1
102
RTVSPropertyOp32
 70
     1
  0
XRECORD
  5
1446
102
{ACAD_REACTORS
330
1445
102
}
330
1445
100
AcDbXrecord
280
     1
102
RTVSPropertyOp0
 70
     1
102
RTVSPropertyOp1
 70
     1
102
RTVSPropertyOp2
 70
     1
102
RTVSPropertyOp3
 70
     1
102
RTVSPropertyOp4
 70
     1
102
RTVSPropertyOp5
 70
     1
102
RTVSPropertyOp6
 70
     1
102
RTVSPropertyOp7
 70
     1
102
RTVSPropertyOp8
 70
     1
102
RTVSPropertyOp9
 70
     1
102
RTVSPropertyOp10
 70
     1
102
RTVSPropertyOp11
 70
     1
102
RTVSPropertyOp12
 70
     1
102
RTVSPropertyOp13
 70
     1
102
RTVSPropertyOp14
 70
     1
102
RTVSPropertyOp15
 70
     1
102
RTVSPropertyOp16
 70
     1
102
RTVSPropertyOp17
 70
     1
102
RTVSPropertyOp18
 70
     1
102
RTVSPropertyOp19
 70
     1
102
RTVSPropertyOp20
 70
     1
102
RTVSPropertyOp21
 70
     1
102
RTVSPropertyOp22
 70
     1
102
RTVSPropertyOp23
 70
     1
102
RTVSPropertyOp24
 70
     1
102
RTVSPropertyOp25
 70
     1
102
RTVSPropertyOp26
 70
     1
102
RTVSPropertyOp27
 70
     1
102
RTVSPropertyOp28
 70
     1
102
RTVSPropertyOp29
 70
     1
102
RTVSPropertyOp30
 70
     1
102
RTVSPropertyOp31
 70
     1
102
RTVSPropertyOp32
 70
     1
  0
XRECORD
  5
1438
102
{ACAD_REACTORS
330
1437
102
}
330
1437
100
AcDbXrecord
280
     1
102
RTVSPropertyOp0
 70
     1
102
RTVSPropertyOp1
 70
     1
102
RTVSPropertyOp2
 70
     1
102
RTVSPropertyOp3
 70
     1
102
RTVSPropertyOp4
 70
     1
102
RTVSPropertyOp5
 70
     1
102
RTVSPropertyOp6
 70
     1
102
RTVSPropertyOp7
 70
     1
102
RTVSPropertyOp8
 70
     1
102
RTVSPropertyOp9
 70
     1
102
RTVSPropertyOp10
 70
     1
102
RTVSPropertyOp11
 70
     1
102
RTVSPropertyOp12
 70
     1
102
RTVSPropertyOp13
 70
     1
102
RTVSPropertyOp14
 70
     1
102
RTVSPropertyOp15
 70
     1
102
RTVSPropertyOp16
 70
     1
102
RTVSPropertyOp17
 70
     1
102
RTVSPropertyOp18
 70
     1
102
RTVSPropertyOp19
 70
     1
102
RTVSPropertyOp20
 70
     1
102
RTVSPropertyOp21
 70
     1
102
RTVSPropertyOp22
 70
     1
102
RTVSPropertyOp23
 70
     1
102
RTVSPropertyOp24
 70
     1
102
RTVSPropertyOp25
 70
     1
102
RTVSPropertyOp26
 70
     1
102
RTVSPropertyOp27
 70
     1
102
RTVSPropertyOp28
 70
     1
102
RTVSPropertyOp29
 70
     1
102
RTVSPropertyOp30
 70
     1
102
RTVSPropertyOp31
 70
     1
102
RTVSPropertyOp32
 70
     1
  0
XRECORD
  5
143C
102
{ACAD_REACTORS
330
143B
102
}
330
143B
100
AcDbXrecord
280
     1
102
RTVSPropertyOp0
 70
     1
102
RTVSPropertyOp1
 70
     1
102
RTVSPropertyOp2
 70
     1
102
RTVSPropertyOp3
 70
     1
102
RTVSPropertyOp4
 70
     1
102
RTVSPropertyOp5
 70
     1
102
RTVSPropertyOp6
 70
     1
102
RTVSPropertyOp7
 70
     1
102
RTVSPropertyOp8
 70
     1
102
RTVSPropertyOp9
 70
     1
102
RTVSPropertyOp10
 70
     1
102
RTVSPropertyOp11
 70
     1
102
RTVSPropertyOp12
 70
     1
102
RTVSPropertyOp13
 70
     1
102
RTVSPropertyOp14
 70
     1
102
RTVSPropertyOp15
 70
     1
102
RTVSPropertyOp16
 70
     1
102
RTVSPropertyOp17
 70
     1
102
RTVSPropertyOp18
 70
     1
102
RTVSPropertyOp19
 70
     1
102
RTVSPropertyOp20
 70
     1
102
RTVSPropertyOp21
 70
     1
102
RTVSPropertyOp22
 70
     1
102
RTVSPropertyOp23
 70
     1
102
RTVSPropertyOp24
 70
     1
102
RTVSPropertyOp25
 70
     1
102
RTVSPropertyOp26
 70
     1
102
RTVSPropertyOp27
 70
     1
102
RTVSPropertyOp28
 70
     1
102
RTVSPropertyOp29
 70
     1
102
RTVSPropertyOp30
 70
     1
102
RTVSPropertyOp31
 70
     1
102
RTVSPropertyOp32
 70
     1
  0
XRECORD
  5
145A
102
{ACAD_REACTORS
330
1459
102
}
330
1459
100
AcDbXrecord
280
     1
102
RTVSPropertyOp0
 70
     0
102
RTVSPropertyOp1
 70
     0
102
RTVSPropertyOp2
 70
     0
102
RTVSPropertyOp3
 70
     0
102
RTVSPropertyOp4
 70
     0
102
RTVSPropertyOp5
 70
     0
102
RTVSPropertyOp6
 70
     0
102
RTVSPropertyOp7
 70
     0
102
RTVSPropertyOp8
 70
     0
102
RTVSPropertyOp9
 70
     0
102
RTVSPropertyOp10
 70
     0
102
RTVSPropertyOp11
 70
     0
102
RTVSPropertyOp12
 70
     0
102
RTVSPropertyOp13
 70
     0
102
RTVSPropertyOp14
 70
     2
102
RTVSPropertyOp15
 70
     0
102
RTVSPropertyOp16
 70
     0
102
RTVSPropertyOp17
 70
     0
102
RTVSPropertyOp18
 70
     0
102
RTVSPropertyOp19
 70
     0
102
RTVSPropertyOp20
 70
     0
102
RTVSPropertyOp21
 70
     0
102
RTVSPropertyOp22
 70
     0
102
RTVSPropertyOp23
 70
     0
102
RTVSPropertyOp24
 70
     0
102
RTVSPropertyOp25
 70
     0
102
RTVSPropertyOp26
 70
     0
102
RTVSPropertyOp27
 70
     0
102
RTVSPropertyOp28
 70
     0
102
RTVSPropertyOp29
 70
     0
102
RTVSPropertyOp30
 70
     0
102
RTVSPropertyOp31
 70
     0
102
RTVSPropertyOp32
 70
     0
  0
XRECORD
  5
1444
102
{ACAD_REACTORS
330
1443
102
}
330
1443
100
AcDbXrecord
280
     1
102
RTVSPropertyOp0
 70
     1
102
RTVSPropertyOp1
 70
     1
102
RTVSPropertyOp2
 70
     1
102
RTVSPropertyOp3
 70
     1
102
RTVSPropertyOp4
 70
     1
102
RTVSPropertyOp5
 70
     1
102
RTVSPropertyOp6
 70
     1
102
RTVSPropertyOp7
 70
     1
102
RTVSPropertyOp8
 70
     1
102
RTVSPropertyOp9
 70
     1
102
RTVSPropertyOp10
 70
     1
102
RTVSPropertyOp11
 70
     1
102
RTVSPropertyOp12
 70
     1
102
RTVSPropertyOp13
 70
     1
102
RTVSPropertyOp14
 70
     1
102
RTVSPropertyOp15
 70
     1
102
RTVSPropertyOp16
 70
     1
102
RTVSPropertyOp17
 70
     1
102
RTVSPropertyOp18
 70
     1
102
RTVSPropertyOp19
 70
     1
102
RTVSPropertyOp20
 70
     1
102
RTVSPropertyOp21
 70
     1
102
RTVSPropertyOp22
 70
     1
102
RTVSPropertyOp23
 70
     1
102
RTVSPropertyOp24
 70
     1
102
RTVSPropertyOp25
 70
     1
102
RTVSPropertyOp26
 70
     1
102
RTVSPropertyOp27
 70
     1
102
RTVSPropertyOp28
 70
     1
102
RTVSPropertyOp29
 70
     1
102
RTVSPropertyOp30
 70
     1
102
RTVSPropertyOp31
 70
     1
102
RTVSPropertyOp32
 70
     1
  0
XRECORD
  5
1428
102
{ACAD_REACTORS
330
1427
102
}
330
1427
100
AcDbXrecord
280
     1
102
RTVSPropertyOp0
 70
     1
102
RTVSPropertyOp1
 70
     1
102
RTVSPropertyOp2
 70
     1
102
RTVSPropertyOp3
 70
     1
102
RTVSPropertyOp4
 70
     1
102
RTVSPropertyOp5
 70
     1
102
RTVSPropertyOp6
 70
     1
102
RTVSPropertyOp7
 70
     1
102
RTVSPropertyOp8
 70
     1
102
RTVSPropertyOp9
 70
     1
102
RTVSPropertyOp10
 70
     1
102
RTVSPropertyOp11
 70
     1
102
RTVSPropertyOp12
 70
     1
102
RTVSPropertyOp13
 70
     1
102
RTVSPropertyOp14
 70
     1
102
RTVSPropertyOp15
 70
     1
102
RTVSPropertyOp16
 70
     1
102
RTVSPropertyOp17
 70
     1
102
RTVSPropertyOp18
 70
     1
102
RTVSPropertyOp19
 70
     1
102
RTVSPropertyOp20
 70
     1
102
RTVSPropertyOp21
 70
     1
102
RTVSPropertyOp22
 70
     1
102
RTVSPropertyOp23
 70
     1
102
RTVSPropertyOp24
 70
     1
102
RTVSPropertyOp25
 70
     1
102
RTVSPropertyOp26
 70
     1
102
RTVSPropertyOp27
 70
     1
102
RTVSPropertyOp28
 70
     1
102
RTVSPropertyOp29
 70
     1
102
RTVSPropertyOp30
 70
     1
102
RTVSPropertyOp31
 70
     1
102
RTVSPropertyOp32
 70
     1
  0
XRECORD
  5
142A
102
{ACAD_REACTORS
330
1429
102
}
330
1429
100
AcDbXrecord
280
     1
102
RTVSPropertyOp0
 70
     1
102
RTVSPropertyOp1
 70
     1
102
RTVSPropertyOp2
 70
     1
102
RTVSPropertyOp3
 70
     1
102
RTVSPropertyOp4
 70
     1
102
RTVSPropertyOp5
 70
     1
102
RTVSPropertyOp6
 70
     1
102
RTVSPropertyOp7
 70
     1
102
RTVSPropertyOp8
 70
     1
102
RTVSPropertyOp9
 70
     1
102
RTVSPropertyOp10
 70
     1
102
RTVSPropertyOp11
 70
     1
102
RTVSPropertyOp12
 70
     1
102
RTVSPropertyOp13
 70
     1
102
RTVSPropertyOp14
 70
     1
102
RTVSPropertyOp15
 70
     1
102
RTVSPropertyOp16
 70
     1
102
RTVSPropertyOp17
 70
     1
102
RTVSPropertyOp18
 70
     1
102
RTVSPropertyOp19
 70
     1
102
RTVSPropertyOp20
 70
     1
102
RTVSPropertyOp21
 70
     1
102
RTVSPropertyOp22
 70
     1
102
RTVSPropertyOp23
 70
     1
102
RTVSPropertyOp24
 70
     1
102
RTVSPropertyOp25
 70
     1
102
RTVSPropertyOp26
 70
     1
102
RTVSPropertyOp27
 70
     1
102
RTVSPropertyOp28
 70
     1
102
RTVSPropertyOp29
 70
     1
102
RTVSPropertyOp30
 70
     1
102
RTVSPropertyOp31
 70
     1
102
RTVSPropertyOp32
 70
     1
  0
XRECORD
  5
142C
102
{ACAD_REACTORS
330
142B
102
}
330
142B
100
AcDbXrecord
280
     1
102
RTVSPropertyOp0
 70
     1
102
RTVSPropertyOp1
 70
     1
102
RTVSPropertyOp2
 70
     1
102
RTVSPropertyOp3
 70
     1
102
RTVSPropertyOp4
 70
     1
102
RTVSPropertyOp5
 70
     1
102
RTVSPropertyOp6
 70
     1
102
RTVSPropertyOp7
 70
     1
102
RTVSPropertyOp8
 70
     1
102
RTVSPropertyOp9
 70
     1
102
RTVSPropertyOp10
 70
     1
102
RTVSPropertyOp11
 70
     1
102
RTVSPropertyOp12
 70
     1
102
RTVSPropertyOp13
 70
     1
102
RTVSPropertyOp14
 70
     1
102
RTVSPropertyOp15
 70
     1
102
RTVSPropertyOp16
 70
     1
102
RTVSPropertyOp17
 70
     1
102
RTVSPropertyOp18
 70
     1
102
RTVSPropertyOp19
 70
     1
102
RTVSPropertyOp20
 70
     1
102
RTVSPropertyOp21
 70
     1
102
RTVSPropertyOp22
 70
     1
102
RTVSPropertyOp23
 70
     1
102
RTVSPropertyOp24
 70
     1
102
RTVSPropertyOp25
 70
     1
102
RTVSPropertyOp26
 70
     1
102
RTVSPropertyOp27
 70
     1
102
RTVSPropertyOp28
 70
     1
102
RTVSPropertyOp29
 70
     1
102
RTVSPropertyOp30
 70
     1
102
RTVSPropertyOp31
 70
     1
102
RTVSPropertyOp32
 70
     1
  0
XRECORD
  5
142E
102
{ACAD_REACTORS
330
142D
102
}
330
142D
100
AcDbXrecord
280
     1
102
RTVSPropertyOp0
 70
     1
102
RTVSPropertyOp1
 70
     1
102
RTVSPropertyOp2
 70
     1
102
RTVSPropertyOp3
 70
     1
102
RTVSPropertyOp4
 70
     1
102
RTVSPropertyOp5
 70
     1
102
RTVSPropertyOp6
 70
     1
102
RTVSPropertyOp7
 70
     1
102
RTVSPropertyOp8
 70
     1
102
RTVSPropertyOp9
 70
     1
102
RTVSPropertyOp10
 70
     1
102
RTVSPropertyOp11
 70
     1
102
RTVSPropertyOp12
 70
     1
102
RTVSPropertyOp13
 70
     1
102
RTVSPropertyOp14
 70
     1
102
RTVSPropertyOp15
 70
     1
102
RTVSPropertyOp16
 70
     1
102
RTVSPropertyOp17
 70
     1
102
RTVSPropertyOp18
 70
     1
102
RTVSPropertyOp19
 70
     1
102
RTVSPropertyOp20
 70
     1
102
RTVSPropertyOp21
 70
     1
102
RTVSPropertyOp22
 70
     1
102
RTVSPropertyOp23
 70
     1
102
RTVSPropertyOp24
 70
     1
102
RTVSPropertyOp25
 70
     1
102
RTVSPropertyOp26
 70
     1
102
RTVSPropertyOp27
 70
     1
102
RTVSPropertyOp28
 70
     1
102
RTVSPropertyOp29
 70
     1
102
RTVSPropertyOp30
 70
     1
102
RTVSPropertyOp31
 70
     1
102
RTVSPropertyOp32
 70
     1
  0
XRECORD
  5
144A
102
{ACAD_REACTORS
330
1449
102
}
330
1449
100
AcDbXrecord
280
     1
102
RTVSPropertyOp0
 70
     1
102
RTVSPropertyOp1
 70
     1
102
RTVSPropertyOp2
 70
     1
102
RTVSPropertyOp3
 70
     1
102
RTVSPropertyOp4
 70
     1
102
RTVSPropertyOp5
 70
     1
102
RTVSPropertyOp6
 70
     1
102
RTVSPropertyOp7
 70
     1
102
RTVSPropertyOp8
 70
     1
102
RTVSPropertyOp9
 70
     1
102
RTVSPropertyOp10
 70
     1
102
RTVSPropertyOp11
 70
     1
102
RTVSPropertyOp12
 70
     1
102
RTVSPropertyOp13
 70
     1
102
RTVSPropertyOp14
 70
     1
102
RTVSPropertyOp15
 70
     1
102
RTVSPropertyOp16
 70
     1
102
RTVSPropertyOp17
 70
     1
102
RTVSPropertyOp18
 70
     1
102
RTVSPropertyOp19
 70
     1
102
RTVSPropertyOp20
 70
     1
102
RTVSPropertyOp21
 70
     1
102
RTVSPropertyOp22
 70
     1
102
RTVSPropertyOp23
 70
     1
102
RTVSPropertyOp24
 70
     1
102
RTVSPropertyOp25
 70
     1
102
RTVSPropertyOp26
 70
     1
102
RTVSPropertyOp27
 70
     1
102
RTVSPropertyOp28
 70
     1
102
RTVSPropertyOp29
 70
     1
102
RTVSPropertyOp30
 70
     1
102
RTVSPropertyOp31
 70
     1
102
RTVSPropertyOp32
 70
     1
  0
XRECORD
  5
1456
102
{ACAD_REACTORS
330
1455
102
}
330
1455
100
AcDbXrecord
280
     1
102
RTVSPropertyOp0
 70
     0
102
RTVSPropertyOp1
 70
     0
102
RTVSPropertyOp2
 70
     0
102
RTVSPropertyOp3
 70
     0
102
RTVSPropertyOp4
 70
     0
102
RTVSPropertyOp5
 70
     0
102
RTVSPropertyOp6
 70
     0
102
RTVSPropertyOp7
 70
     0
102
RTVSPropertyOp8
 70
     0
102
RTVSPropertyOp9
 70
     0
102
RTVSPropertyOp10
 70
     0
102
RTVSPropertyOp11
 70
     0
102
RTVSPropertyOp12
 70
     0
102
RTVSPropertyOp13
 70
     0
102
RTVSPropertyOp14
 70
     2
102
RTVSPropertyOp15
 70
     0
102
RTVSPropertyOp16
 70
     0
102
RTVSPropertyOp17
 70
     0
102
RTVSPropertyOp18
 70
     0
102
RTVSPropertyOp19
 70
     0
102
RTVSPropertyOp20
 70
     0
102
RTVSPropertyOp21
 70
     0
102
RTVSPropertyOp22
 70
     0
102
RTVSPropertyOp23
 70
     0
102
RTVSPropertyOp24
 70
     0
102
RTVSPropertyOp25
 70
     0
102
RTVSPropertyOp26
 70
     0
102
RTVSPropertyOp27
 70
     0
102
RTVSPropertyOp28
 70
     0
102
RTVSPropertyOp29
 70
     0
102
RTVSPropertyOp30
 70
     0
102
RTVSPropertyOp31
 70
     0
102
RTVSPropertyOp32
 70
     0
  0
XRECORD
  5
1442
102
{ACAD_REACTORS
330
1441
102
}
330
1441
100
AcDbXrecord
280
     1
102
RTVSPropertyOp0
 70
     1
102
RTVSPropertyOp1
 70
     1
102
RTVSPropertyOp2
 70
     1
102
RTVSPropertyOp3
 70
     1
102
RTVSPropertyOp4
 70
     1
102
RTVSPropertyOp5
 70
     1
102
RTVSPropertyOp6
 70
     1
102
RTVSPropertyOp7
 70
     1
102
RTVSPropertyOp8
 70
     1
102
RTVSPropertyOp9
 70
     1
102
RTVSPropertyOp10
 70
     1
102
RTVSPropertyOp11
 70
     1
102
RTVSPropertyOp12
 70
     1
102
RTVSPropertyOp13
 70
     1
102
RTVSPropertyOp14
 70
     1
102
RTVSPropertyOp15
 70
     1
102
RTVSPropertyOp16
 70
     1
102
RTVSPropertyOp17
 70
     1
102
RTVSPropertyOp18
 70
     1
102
RTVSPropertyOp19
 70
     1
102
RTVSPropertyOp20
 70
     1
102
RTVSPropertyOp21
 70
     1
102
RTVSPropertyOp22
 70
     1
102
RTVSPropertyOp23
 70
     1
102
RTVSPropertyOp24
 70
     1
102
RTVSPropertyOp25
 70
     1
102
RTVSPropertyOp26
 70
     1
102
RTVSPropertyOp27
 70
     1
102
RTVSPropertyOp28
 70
     1
102
RTVSPropertyOp29
 70
     1
102
RTVSPropertyOp30
 70
     1
102
RTVSPropertyOp31
 70
     1
102
RTVSPropertyOp32
 70
     1
  0
XRECORD
  5
1458
102
{ACAD_REACTORS
330
1457
102
}
330
1457
100
AcDbXrecord
280
     1
102
RTVSPropertyOp0
 70
     0
102
RTVSPropertyOp1
 70
     0
102
RTVSPropertyOp2
 70
     0
102
RTVSPropertyOp3
 70
     0
102
RTVSPropertyOp4
 70
     0
102
RTVSPropertyOp5
 70
     0
102
RTVSPropertyOp6
 70
     0
102
RTVSPropertyOp7
 70
     0
102
RTVSPropertyOp8
 70
     0
102
RTVSPropertyOp9
 70
     0
102
RTVSPropertyOp10
 70
     0
102
RTVSPropertyOp11
 70
     0
102
RTVSPropertyOp12
 70
     0
102
RTVSPropertyOp13
 70
     0
102
RTVSPropertyOp14
 70
     2
102
RTVSPropertyOp15
 70
     0
102
RTVSPropertyOp16
 70
     0
102
RTVSPropertyOp17
 70
     0
102
RTVSPropertyOp18
 70
     0
102
RTVSPropertyOp19
 70
     0
102
RTVSPropertyOp20
 70
     0
102
RTVSPropertyOp21
 70
     0
102
RTVSPropertyOp22
 70
     0
102
RTVSPropertyOp23
 70
     0
102
RTVSPropertyOp24
 70
     0
102
RTVSPropertyOp25
 70
     0
102
RTVSPropertyOp26
 70
     0
102
RTVSPropertyOp27
 70
     0
102
RTVSPropertyOp28
 70
     0
102
RTVSPropertyOp29
 70
     0
102
RTVSPropertyOp30
 70
     0
102
RTVSPropertyOp31
 70
     0
102
RTVSPropertyOp32
 70
     0
  0
XRECORD
  5
143A
102
{ACAD_REACTORS
330
1439
102
}
330
1439
100
AcDbXrecord
280
     1
102
RTVSPropertyOp0
 70
     1
102
RTVSPropertyOp1
 70
     1
102
RTVSPropertyOp2
 70
     1
102
RTVSPropertyOp3
 70
     1
102
RTVSPropertyOp4
 70
     1
102
RTVSPropertyOp5
 70
     1
102
RTVSPropertyOp6
 70
     1
102
RTVSPropertyOp7
 70
     1
102
RTVSPropertyOp8
 70
     1
102
RTVSPropertyOp9
 70
     1
102
RTVSPropertyOp10
 70
     1
102
RTVSPropertyOp11
 70
     1
102
RTVSPropertyOp12
 70
     1
102
RTVSPropertyOp13
 70
     1
102
RTVSPropertyOp14
 70
     1
102
RTVSPropertyOp15
 70
     1
102
RTVSPropertyOp16
 70
     1
102
RTVSPropertyOp17
 70
     1
102
RTVSPropertyOp18
 70
     1
102
RTVSPropertyOp19
 70
     1
102
RTVSPropertyOp20
 70
     1
102
RTVSPropertyOp21
 70
     1
102
RTVSPropertyOp22
 70
     1
102
RTVSPropertyOp23
 70
     1
102
RTVSPropertyOp24
 70
     1
102
RTVSPropertyOp25
 70
     1
102
RTVSPropertyOp26
 70
     1
102
RTVSPropertyOp27
 70
     1
102
RTVSPropertyOp28
 70
     1
102
RTVSPropertyOp29
 70
     1
102
RTVSPropertyOp30
 70
     1
102
RTVSPropertyOp31
 70
     1
102
RTVSPropertyOp32
 70
     1
  0
XRECORD
  5
1454
102
{ACAD_REACTORS
330
1453
102
}
330
1453
100
AcDbXrecord
280
     1
102
RTVSPropertyOp0
 70
     1
102
RTVSPropertyOp1
 70
     1
102
RTVSPropertyOp2
 70
     1
102
RTVSPropertyOp3
 70
     1
102
RTVSPropertyOp4
 70
     1
102
RTVSPropertyOp5
 70
     1
102
RTVSPropertyOp6
 70
     1
102
RTVSPropertyOp7
 70
     1
102
RTVSPropertyOp8
 70
     1
102
RTVSPropertyOp9
 70
     1
102
RTVSPropertyOp10
 70
     1
102
RTVSPropertyOp11
 70
     1
102
RTVSPropertyOp12
 70
     1
102
RTVSPropertyOp13
 70
     1
102
RTVSPropertyOp14
 70
     1
102
RTVSPropertyOp15
 70
     1
102
RTVSPropertyOp16
 70
     1
102
RTVSPropertyOp17
 70
     1
102
RTVSPropertyOp18
 70
     1
102
RTVSPropertyOp19
 70
     1
102
RTVSPropertyOp20
 70
     1
102
RTVSPropertyOp21
 70
     1
102
RTVSPropertyOp22
 70
     1
102
RTVSPropertyOp23
 70
     1
102
RTVSPropertyOp24
 70
     1
102
RTVSPropertyOp25
 70
     1
102
RTVSPropertyOp26
 70
     1
102
RTVSPropertyOp27
 70
     1
102
RTVSPropertyOp28
 70
     1
102
RTVSPropertyOp29
 70
     1
102
RTVSPropertyOp30
 70
     1
102
RTVSPropertyOp31
 70
     1
102
RTVSPropertyOp32
 70
     1
  0
XRECORD
  5
1452
102
{ACAD_REACTORS
330
1451
102
}
330
1451
100
AcDbXrecord
280
     1
102
RTVSPropertyOp0
 70
     1
102
RTVSPropertyOp1
 70
     1
102
RTVSPropertyOp2
 70
     1
102
RTVSPropertyOp3
 70
     1
102
RTVSPropertyOp4
 70
     1
102
RTVSPropertyOp5
 70
     1
102
RTVSPropertyOp6
 70
     1
102
RTVSPropertyOp7
 70
     1
102
RTVSPropertyOp8
 70
     1
102
RTVSPropertyOp9
 70
     1
102
RTVSPropertyOp10
 70
     1
102
RTVSPropertyOp11
 70
     1
102
RTVSPropertyOp12
 70
     1
102
RTVSPropertyOp13
 70
     1
102
RTVSPropertyOp14
 70
     1
102
RTVSPropertyOp15
 70
     1
102
RTVSPropertyOp16
 70
     1
102
RTVSPropertyOp17
 70
     1
102
RTVSPropertyOp18
 70
     1
102
RTVSPropertyOp19
 70
     1
102
RTVSPropertyOp20
 70
     1
102
RTVSPropertyOp21
 70
     1
102
RTVSPropertyOp22
 70
     1
102
RTVSPropertyOp23
 70
     1
102
RTVSPropertyOp24
 70
     1
102
RTVSPropertyOp25
 70
     1
102
RTVSPropertyOp26
 70
     1
102
RTVSPropertyOp27
 70
     1
102
RTVSPropertyOp28
 70
     1
102
RTVSPropertyOp29
 70
     1
102
RTVSPropertyOp30
 70
     1
102
RTVSPropertyOp31
 70
     1
102
RTVSPropertyOp32
 70
     1
  0
XRECORD
  5
144C
102
{ACAD_REACTORS
330
144B
102
}
330
144B
100
AcDbXrecord
280
     1
102
RTVSPropertyOp0
 70
     1
102
RTVSPropertyOp1
 70
     1
102
RTVSPropertyOp2
 70
     1
102
RTVSPropertyOp3
 70
     1
102
RTVSPropertyOp4
 70
     1
102
RTVSPropertyOp5
 70
     1
102
RTVSPropertyOp6
 70
     1
102
RTVSPropertyOp7
 70
     1
102
RTVSPropertyOp8
 70
     1
102
RTVSPropertyOp9
 70
     1
102
RTVSPropertyOp10
 70
     1
102
RTVSPropertyOp11
 70
     1
102
RTVSPropertyOp12
 70
     1
102
RTVSPropertyOp13
 70
     1
102
RTVSPropertyOp14
 70
     1
102
RTVSPropertyOp15
 70
     1
102
RTVSPropertyOp16
 70
     1
102
RTVSPropertyOp17
 70
     1
102
RTVSPropertyOp18
 70
     1
102
RTVSPropertyOp19
 70
     1
102
RTVSPropertyOp20
 70
     1
102
RTVSPropertyOp21
 70
     1
102
RTVSPropertyOp22
 70
     1
102
RTVSPropertyOp23
 70
     1
102
RTVSPropertyOp24
 70
     1
102
RTVSPropertyOp25
 70
     1
102
RTVSPropertyOp26
 70
     1
102
RTVSPropertyOp27
 70
     1
102
RTVSPropertyOp28
 70
     1
102
RTVSPropertyOp29
 70
     1
102
RTVSPropertyOp30
 70
     1
102
RTVSPropertyOp31
 70
     1
102
RTVSPropertyOp32
 70
     1
  0
XRECORD
  5
144E
102
{ACAD_REACTORS
330
144D
102
}
330
144D
100
AcDbXrecord
280
     1
102
RTVSPropertyOp0
 70
     1
102
RTVSPropertyOp1
 70
     1
102
RTVSPropertyOp2
 70
     1
102
RTVSPropertyOp3
 70
     1
102
RTVSPropertyOp4
 70
     1
102
RTVSPropertyOp5
 70
     1
102
RTVSPropertyOp6
 70
     1
102
RTVSPropertyOp7
 70
     1
102
RTVSPropertyOp8
 70
     1
102
RTVSPropertyOp9
 70
     1
102
RTVSPropertyOp10
 70
     1
102
RTVSPropertyOp11
 70
     1
102
RTVSPropertyOp12
 70
     1
102
RTVSPropertyOp13
 70
     1
102
RTVSPropertyOp14
 70
     1
102
RTVSPropertyOp15
 70
     1
102
RTVSPropertyOp16
 70
     1
102
RTVSPropertyOp17
 70
     1
102
RTVSPropertyOp18
 70
     1
102
RTVSPropertyOp19
 70
     1
102
RTVSPropertyOp20
 70
     1
102
RTVSPropertyOp21
 70
     1
102
RTVSPropertyOp22
 70
     1
102
RTVSPropertyOp23
 70
     1
102
RTVSPropertyOp24
 70
     1
102
RTVSPropertyOp25
 70
     1
102
RTVSPropertyOp26
 70
     1
102
RTVSPropertyOp27
 70
     1
102
RTVSPropertyOp28
 70
     1
102
RTVSPropertyOp29
 70
     1
102
RTVSPropertyOp30
 70
     1
102
RTVSPropertyOp31
 70
     1
102
RTVSPropertyOp32
 70
     1
  0
XRECORD
  5
1440
102
{ACAD_REACTORS
330
143F
102
}
330
143F
100
AcDbXrecord
280
     1
102
RTVSPropertyOp0
 70
     1
102
RTVSPropertyOp1
 70
     1
102
RTVSPropertyOp2
 70
     1
102
RTVSPropertyOp3
 70
     1
102
RTVSPropertyOp4
 70
     1
102
RTVSPropertyOp5
 70
     1
102
RTVSPropertyOp6
 70
     1
102
RTVSPropertyOp7
 70
     1
102
RTVSPropertyOp8
 70
     1
102
RTVSPropertyOp9
 70
     1
102
RTVSPropertyOp10
 70
     1
102
RTVSPropertyOp11
 70
     1
102
RTVSPropertyOp12
 70
     1
102
RTVSPropertyOp13
 70
     1
102
RTVSPropertyOp14
 70
     1
102
RTVSPropertyOp15
 70
     1
102
RTVSPropertyOp16
 70
     1
102
RTVSPropertyOp17
 70
     1
102
RTVSPropertyOp18
 70
     1
102
RTVSPropertyOp19
 70
     1
102
RTVSPropertyOp20
 70
     1
102
RTVSPropertyOp21
 70
     1
102
RTVSPropertyOp22
 70
     1
102
RTVSPropertyOp23
 70
     1
102
RTVSPropertyOp24
 70
     1
102
RTVSPropertyOp25
 70
     1
102
RTVSPropertyOp26
 70
     1
102
RTVSPropertyOp27
 70
     1
102
RTVSPropertyOp28
 70
     1
102
RTVSPropertyOp29
 70
     1
102
RTVSPropertyOp30
 70
     1
102
RTVSPropertyOp31
 70
     1
102
RTVSPropertyOp32
 70
     1
  0
XRECORD
  5
1448
102
{ACAD_REACTORS
330
1447
102
}
330
1447
100
AcDbXrecord
280
     1
102
RTVSPropertyOp0
 70
     1
102
RTVSPropertyOp1
 70
     1
102
RTVSPropertyOp2
 70
     1
102
RTVSPropertyOp3
 70
     1
102
RTVSPropertyOp4
 70
     1
102
RTVSPropertyOp5
 70
     1
102
RTVSPropertyOp6
 70
     1
102
RTVSPropertyOp7
 70
     1
102
RTVSPropertyOp8
 70
     1
102
RTVSPropertyOp9
 70
     1
102
RTVSPropertyOp10
 70
     1
102
RTVSPropertyOp11
 70
     1
102
RTVSPropertyOp12
 70
     1
102
RTVSPropertyOp13
 70
     1
102
RTVSPropertyOp14
 70
     1
102
RTVSPropertyOp15
 70
     1
102
RTVSPropertyOp16
 70
     1
102
RTVSPropertyOp17
 70
     1
102
RTVSPropertyOp18
 70
     1
102
RTVSPropertyOp19
 70
     1
102
RTVSPropertyOp20
 70
     1
102
RTVSPropertyOp21
 70
     1
102
RTVSPropertyOp22
 70
     1
102
RTVSPropertyOp23
 70
     1
102
RTVSPropertyOp24
 70
     1
102
RTVSPropertyOp25
 70
     1
102
RTVSPropertyOp26
 70
     1
102
RTVSPropertyOp27
 70
     1
102
RTVSPropertyOp28
 70
     1
102
RTVSPropertyOp29
 70
     1
102
RTVSPropertyOp30
 70
     1
102
RTVSPropertyOp31
 70
     1
102
RTVSPropertyOp32
 70
     1
  0
XRECORD
  5
1450
102
{ACAD_REACTORS
330
144F
102
}
330
144F
100
AcDbXrecord
280
     1
102
RTVSPropertyOp0
 70
     1
102
RTVSPropertyOp1
 70
     1
102
RTVSPropertyOp2
 70
     1
102
RTVSPropertyOp3
 70
     1
102
RTVSPropertyOp4
 70
     1
102
RTVSPropertyOp5
 70
     1
102
RTVSPropertyOp6
 70
     1
102
RTVSPropertyOp7
 70
     1
102
RTVSPropertyOp8
 70
     1
102
RTVSPropertyOp9
 70
     1
102
RTVSPropertyOp10
 70
     1
102
RTVSPropertyOp11
 70
     1
102
RTVSPropertyOp12
 70
     1
102
RTVSPropertyOp13
 70
     1
102
RTVSPropertyOp14
 70
     1
102
RTVSPropertyOp15
 70
     1
102
RTVSPropertyOp16
 70
     1
102
RTVSPropertyOp17
 70
     1
102
RTVSPropertyOp18
 70
     1
102
RTVSPropertyOp19
 70
     1
102
RTVSPropertyOp20
 70
     1
102
RTVSPropertyOp21
 70
     1
102
RTVSPropertyOp22
 70
     1
102
RTVSPropertyOp23
 70
     1
102
RTVSPropertyOp24
 70
     1
102
RTVSPropertyOp25
 70
     1
102
RTVSPropertyOp26
 70
     1
102
RTVSPropertyOp27
 70
     1
102
RTVSPropertyOp28
 70
     1
102
RTVSPropertyOp29
 70
     1
102
RTVSPropertyOp30
 70
     1
102
RTVSPropertyOp31
 70
     1
102
RTVSPropertyOp32
 70
     1
  0
ENDSEC
  0
EOF
