  0
SECTION
  2
HEADER
  9
$ACADVER
  1
AC1015
  9
$ACADMAINTVER
 70
    20
  9
$DWGCODEPAGE
  3
ANSI_932
  9
$INSBASE
 10
0.0
 20
0.0
 30
0.0
  9
$EXTMIN
 10
-191.611198
 20
-143.124634
 30
0.0
  9
$EXTMAX
 10
213.388802
 20
133.875366
 30
0.0
  9
$LIMMIN
 10
-191.612206
 20
-143.125634
  9
$LIMMAX
 10
213.415658
 20
133.876366
  9
$ORTHOMODE
 70
     1
  9
$REGENMODE
 70
     1
  9
$FILLMODE
 70
     1
  9
$QTEXTMODE
 70
     0
  9
$MIRRTEXT
 70
     0
  9
$LTSCALE
 40
6.750430999999997
  9
$ATTMODE
 70
     1
  9
$TEXTSIZE
 40
3.2
  9
$TRACEWID
 40
0.05
  9
$TEXTSTYLE
  7
高3.2
  9
$CLAYER
  8
0
  9
$CELTYPE
  6
ByLayer
  9
$CECOLOR
 62
   256
  9
$CELTSCALE
 40
1.0
  9
$DISPSILH
 70
     0
  9
$DIMSCALE
 40
1.0
  9
$DIMASZ
 40
2.5
  9
$DIMEXO
 40
0.25
  9
$DIMDLI
 40
0.2
  9
$DIMRND
 40
0.0
  9
$DIMDLE
 40
0.0
  9
$DIMEXE
 40
1.25
  9
$DIMTP
 40
0.0
  9
$DIMTM
 40
0.0
  9
$DIMTXT
 40
3.0
  9
$DIMCEN
 40
0.0
  9
$DIMTSZ
 40
0.0
  9
$DIMTOL
 70
     0
  9
$DIMLIM
 70
     0
  9
$DIMTIH
 70
     0
  9
$DIMTOH
 70
     0
  9
$DIMSE1
 70
     0
  9
$DIMSE2
 70
     0
  9
$DIMTAD
 70
     3
  9
$DIMZIN
 70
     8
  9
$DIMBLK
  1
Open30
  9
$DIMASO
 70
     1
  9
$DIMSHO
 70
     1
  9
$DIMPOST
  1

  9
$DIMAPOST
  1

  9
$DIMALT
 70
     0
  9
$DIMALTD
 70
     3
  9
$DIMALTF
 40
0.03937007874016
  9
$DIMLFAC
 40
1.0
  9
$DIMTOFL
 70
     1
  9
$DIMTVP
 40
0.0
  9
$DIMTIX
 70
     0
  9
$DIMSOXD
 70
     0
  9
$DIMSAH
 70
     0
  9
$DIMBLK1
  1

  9
$DIMBLK2
  1

  9
$DIMSTYLE
  2
FREE
  9
$DIMCLRD
 70
     0
  9
$DIMCLRE
 70
     0
  9
$DIMCLRT
 70
     4
  9
$DIMTFAC
 40
1.0
  9
$DIMGAP
 40
0.625
  9
$DIMJUST
 70
     0
  9
$DIMSD1
 70
     0
  9
$DIMSD2
 70
     0
  9
$DIMTOLJ
 70
     0
  9
$DIMTZIN
 70
     8
  9
$DIMALTZ
 70
     0
  9
$DIMALTTZ
 70
     0
  9
$DIMUPT
 70
     1
  9
$DIMDEC
 70
     2
  9
$DIMTDEC
 70
     2
  9
$DIMALTU
 70
     2
  9
$DIMALTTD
 70
     3
  9
$DIMTXSTY
  7
STANDARD
  9
$DIMAUNIT
 70
     0
  9
$DIMADEC
 70
     1
  9
$DIMALTRND
 40
0.0
  9
$DIMAZIN
 70
     2
  9
$DIMDSEP
 70
    46
  9
$DIMATFIT
 70
     0
  9
$DIMFRAC
 70
     0
  9
$DIMLDRBLK
  1
Open30
  9
$DIMLUNIT
 70
     2
  9
$DIMLWD
 70
    -2
  9
$DIMLWE
 70
    -2
  9
$DIMTMOVE
 70
     0
  9
$LUNITS
 70
     2
  9
$LUPREC
 70
     4
  9
$SKETCHINC
 40
0.1
  9
$FILLETRAD
 40
0.0
  9
$AUNITS
 70
     0
  9
$AUPREC
 70
     0
  9
$MENU
  1
.
  9
$ELEVATION
 40
0.0
  9
$PELEVATION
 40
0.0
  9
$THICKNESS
 40
0.0
  9
$LIMCHECK
 70
     0
  9
$CHAMFERA
 40
0.0
  9
$CHAMFERB
 40
0.0
  9
$CHAMFERC
 40
0.0
  9
$CHAMFERD
 40
0.0
  9
$SKPOLY
 70
     0
  9
$TDCREATE
 40
2455825.671952581
  9
$TDUCREATE
 40
2455825.296952581
  9
$TDUPDATE
 40
2460291.754933808
  9
$TDUUPDATE
 40
2460291.379933808
  9
$TDINDWG
 40
0.2061878588
  9
$TDUSRTIMER
 40
0.2061867361
  9
$USRTIMER
 70
     1
  9
$ANGBASE
 50
0.0
  9
$ANGDIR
 70
     0
  9
$PDMODE
 70
     0
  9
$PDSIZE
 40
0.0
  9
$PLINEWID
 40
0.0
  9
$SPLFRAME
 70
     0
  9
$SPLINETYPE
 70
     6
  9
$SPLINESEGS
 70
     8
  9
$HANDSEED
  5
12A2
  9
$SURFTAB1
 70
     6
  9
$SURFTAB2
 70
     6
  9
$SURFTYPE
 70
     6
  9
$SURFU
 70
     6
  9
$SURFV
 70
     6
  9
$UCSBASE
  2

  9
$UCSNAME
  2

  9
$UCSORG
 10
0.0
 20
0.0
 30
0.0
  9
$UCSXDIR
 10
1.0
 20
0.0
 30
0.0
  9
$UCSYDIR
 10
0.0
 20
1.0
 30
0.0
  9
$UCSORTHOREF
  2

  9
$UCSORTHOVIEW
 70
     0
  9
$UCSORGTOP
 10
0.0
 20
0.0
 30
0.0
  9
$UCSORGBOTTOM
 10
0.0
 20
0.0
 30
0.0
  9
$UCSORGLEFT
 10
0.0
 20
0.0
 30
0.0
  9
$UCSORGRIGHT
 10
0.0
 20
0.0
 30
0.0
  9
$UCSORGFRONT
 10
0.0
 20
0.0
 30
0.0
  9
$UCSORGBACK
 10
0.0
 20
0.0
 30
0.0
  9
$PUCSBASE
  2

  9
$PUCSNAME
  2

  9
$PUCSORG
 10
0.0
 20
0.0
 30
0.0
  9
$PUCSXDIR
 10
1.0
 20
0.0
 30
0.0
  9
$PUCSYDIR
 10
0.0
 20
1.0
 30
0.0
  9
$PUCSORTHOREF
  2

  9
$PUCSORTHOVIEW
 70
     0
  9
$PUCSORGTOP
 10
0.0
 20
0.0
 30
0.0
  9
$PUCSORGBOTTOM
 10
0.0
 20
0.0
 30
0.0
  9
$PUCSORGLEFT
 10
0.0
 20
0.0
 30
0.0
  9
$PUCSORGRIGHT
 10
0.0
 20
0.0
 30
0.0
  9
$PUCSORGFRONT
 10
0.0
 20
0.0
 30
0.0
  9
$PUCSORGBACK
 10
0.0
 20
0.0
 30
0.0
  9
$USERI1
 70
     0
  9
$USERI2
 70
     0
  9
$USERI3
 70
     0
  9
$USERI4
 70
     0
  9
$USERI5
 70
     0
  9
$USERR1
 40
0.0
  9
$USERR2
 40
0.0
  9
$USERR3
 40
0.0
  9
$USERR4
 40
0.0
  9
$USERR5
 40
0.0
  9
$WORLDVIEW
 70
     1
  9
$SHADEDGE
 70
     3
  9
$SHADEDIF
 70
    70
  9
$TILEMODE
 70
     1
  9
$MAXACTVP
 70
    64
  9
$PINSBASE
 10
0.0
 20
0.0
 30
0.0
  9
$PLIMCHECK
 70
     0
  9
$PEXTMIN
 10
1.000000000000000E+20
 20
1.000000000000000E+20
 30
1.000000000000000E+20
  9
$PEXTMAX
 10
-1.000000000000000E+20
 20
-1.000000000000000E+20
 30
-1.000000000000000E+20
  9
$PLIMMIN
 10
0.0
 20
0.0
  9
$PLIMMAX
 10
12.0
 20
9.0
  9
$UNITMODE
 70
     0
  9
$VISRETAIN
 70
     1
  9
$PLINEGEN
 70
     0
  9
$PSLTSCALE
 70
     1
  9
$TREEDEPTH
 70
  3020
  9
$CMLSTYLE
  2
Standard
  9
$CMLJUST
 70
     0
  9
$CMLSCALE
 40
1.0
  9
$PROXYGRAPHICS
 70
     1
  9
$MEASUREMENT
 70
     0
  9
$CELWEIGHT
370
    -1
  9
$ENDCAPS
280
     0
  9
$JOINSTYLE
280
     0
  9
$LWDISPLAY
290
     0
  9
$INSUNITS
 70
     0
  9
$HYPERLINKBASE
  1

  9
$STYLESHEET
  1

  9
$XEDIT
290
     1
  9
$CEPSNTYPE
380
     0
  9
$PSTYLEMODE
290
     1
  9
$FINGERPRINTGUID
  2
{0E9BEFA7-FD9B-4F74-BB1F-25CD3CEA7713}
  9
$VERSIONGUID
  2
{3E0585A5-09EB-4F56-A0F5-953B80240A6C}
  9
$EXTNAMES
290
     1
  9
$PSVPSCALE
 40
0.0
  9
$OLESTARTUP
290
     0
  0
ENDSEC
  0
SECTION
  2
CLASSES
  0
CLASS
  1
ACDBDICTIONARYWDFLT
  2
AcDbDictionaryWithDefault
  3
ObjectDBX Classes
 90
        0
280
     0
281
     0
  0
CLASS
  1
MATERIAL
  2
AcDbMaterial
  3
ObjectDBX Classes
 90
     1153
280
     0
281
     0
  0
CLASS
  1
VISUALSTYLE
  2
AcDbVisualStyle
  3
ObjectDBX Classes
 90
     4095
280
     0
281
     0
  0
CLASS
  1
TABLESTYLE
  2
AcDbTableStyle
  3
ObjectDBX Classes
 90
     4095
280
     0
281
     0
  0
CLASS
  1
DICTIONARYVAR
  2
AcDbDictionaryVar
  3
ObjectDBX Classes
 90
        0
280
     0
281
     0
  0
CLASS
  1
ACDBPLACEHOLDER
  2
AcDbPlaceHolder
  3
ObjectDBX Classes
 90
        0
280
     0
281
     0
  0
CLASS
  1
LAYOUT
  2
AcDbLayout
  3
ObjectDBX Classes
 90
        0
280
     0
281
     0
  0
CLASS
  1
SCALE
  2
AcDbScale
  3
ObjectDBX Classes
 90
     1153
280
     0
281
     0
  0
CLASS
  1
MLEADERSTYLE
  2
AcDbMLeaderStyle
  3
ACDB_MLEADERSTYLE_CLASS
 90
     4095
280
     0
281
     0
  0
CLASS
  1
SORTENTSTABLE
  2
AcDbSortentsTable
  3
ObjectDBX Classes
 90
        0
280
     0
281
     0
  0
CLASS
  1
CELLSTYLEMAP
  2
AcDbCellStyleMap
  3
ObjectDBX Classes
 90
     1152
280
     0
281
     0
  0
CLASS
  1
AEC_REFEDIT_STATUS_TRACKER
  2
AecDbRefEditStatusTracker
  3
AecArchBase60|Product Desc: Autodesk Architectural Desktop 2007 |Company: Autodesk,Inc. |WEB Address: www.autodesk.com
 90
      129
280
     0
281
     0
  0
CLASS
  1
NPOCOLLECTION
  2
AcDbImpNonPersistentObjectsCollection
  3
ObjectDBX Classes
 90
     1153
280
     0
281
     0
  0
ENDSEC
  0
SECTION
  2
TABLES
  0
TABLE
  2
VPORT
  5
8
330
0
100
AcDbSymbolTable
 70
     1
  0
VPORT
  5
56
330
8
100
AcDbSymbolTableRecord
100
AcDbViewportTableRecord
  2
*Active
 70
     0
 10
0.0
 20
0.0
 11
1.0
 21
1.0
 12
-11.83955571420483
 22
-15.62286098229134
 13
0.0
 23
0.0
 14
1.0
 24
1.0
 15
0.0
 25
0.0
 16
0.0
 26
0.0
 36
1.0
 17
0.0
 27
0.0
 37
0.0
 40
556.3375720092571
 41
1.273716951788491
 42
50.0
 43
0.0
 44
0.0
 50
0.0
 51
0.0
 71
     0
 72
   100
 73
     1
 74
     1
 75
     0
 76
     0
 77
     0
 78
     0
281
     0
 65
     1
110
0.0
120
0.0
130
0.0
111
1.0
121
0.0
131
0.0
112
0.0
122
1.0
132
0.0
 79
     0
146
0.0
  0
ENDTAB
  0
TABLE
  2
LTYPE
  5
5
330
0
100
AcDbSymbolTable
 70
     2
  0
LTYPE
  5
28
330
5
100
AcDbSymbolTableRecord
100
AcDbLinetypeTableRecord
  2
ByBlock
 70
     0
  3

 72
    65
 73
     0
 40
0.0
  0
LTYPE
  5
29
330
5
100
AcDbSymbolTableRecord
100
AcDbLinetypeTableRecord
  2
ByLayer
 70
     0
  3

 72
    65
 73
     0
 40
0.0
  0
LTYPE
  5
2A
330
5
100
AcDbSymbolTableRecord
100
AcDbLinetypeTableRecord
  2
CONTINUOUS
 70
     0
  3
Solid-line
 72
    65
 73
     0
 40
0.0
  0
ENDTAB
  0
TABLE
  2
LAYER
  5
2
102
{ACAD_XDICTIONARY
360
5A5
102
}
330
0
100
AcDbSymbolTable
 70
     2
  0
LAYER
  5
25
102
{ACAD_XDICTIONARY
360
78D
102
}
330
2
100
AcDbSymbolTableRecord
100
AcDbLayerTableRecord
  2
0
 70
     0
 62
     7
  6
CONTINUOUS
370
    -3
390
F
  0
LAYER
  5
591
330
2
100
AcDbSymbolTableRecord
100
AcDbLayerTableRecord
  2
Defpoints
 70
     0
 62
     7
  6
CONTINUOUS
290
     0
370
    -3
390
F
  0
ENDTAB
  0
TABLE
  2
STYLE
  5
3
330
0
100
AcDbSymbolTable
 70
     6
  0
STYLE
  5
26
330
3
100
AcDbSymbolTableRecord
100
AcDbTextStyleTableRecord
  2
STANDARD
 70
     0
 40
0.0
 41
1.0
 50
0.0
 71
     0
 42
0.2
  3
TXT
  4
BIGFONT
  0
STYLE
  5
592
330
3
100
AcDbSymbolTableRecord
100
AcDbTextStyleTableRecord
  2
高3.2
 70
     0
 40
3.2
 41
1.0
 50
0.0
 71
     0
 42
3.2
  3
txt.shx
  4
bigfont.shx
  0
STYLE
  5
593
330
3
100
AcDbSymbolTableRecord
100
AcDbTextStyleTableRecord
  2
高6.3
 70
     0
 40
6.299999999999998
 41
1.0
 50
0.0
 71
     0
 42
6.299999999999998
  3
txt.shx
  4
bigfont.shx
  0
STYLE
  5
594
330
3
100
AcDbSymbolTableRecord
100
AcDbTextStyleTableRecord
  2
高2.5
 70
     0
 40
2.5
 41
1.0
 50
0.0
 71
     0
 42
0.2
  3
txt.shx
  4
bigfont.shx
  0
STYLE
  5
595
330
3
100
AcDbSymbolTableRecord
100
AcDbTextStyleTableRecord
  2
高4.5
 70
     0
 40
4.5
 41
1.0
 50
0.0
 71
     0
 42
6.299999999999998
  3
txt.shx
  4
bigfont.shx
  0
STYLE
  5
596
330
3
100
AcDbSymbolTableRecord
100
AcDbTextStyleTableRecord
  2
高2
 70
     0
 40
2.0
 41
1.0
 50
0.0
 71
     0
 42
2.0
  3
txt.shx
  4
bigfont.shx
  0
ENDTAB
  0
TABLE
  2
VIEW
  5
6
330
0
100
AcDbSymbolTable
 70
     0
  0
ENDTAB
  0
TABLE
  2
UCS
  5
7
330
0
100
AcDbSymbolTable
 70
     0
  0
ENDTAB
  0
TABLE
  2
APPID
  5
9
330
0
100
AcDbSymbolTable
 70
    10
  0
APPID
  5
27
330
9
100
AcDbSymbolTableRecord
100
AcDbRegAppTableRecord
  2
ACAD
 70
     0
  0
APPID
  5
4FF
330
9
100
AcDbSymbolTableRecord
100
AcDbRegAppTableRecord
  2
ACAD_EXEMPT_FROM_CAD_STANDARDS
 70
     0
  0
APPID
  5
5A1
330
9
100
AcDbSymbolTableRecord
100
AcDbRegAppTableRecord
  2
ACAD_DSTYLE_DIMJOGGED_JOGANGLE_SYMBOL
 70
     0
  0
APPID
  5
5A2
330
9
100
AcDbSymbolTableRecord
100
AcDbRegAppTableRecord
  2
ACAD_DSTYLE_DIMJAG
 70
     0
  0
APPID
  5
5A3
330
9
100
AcDbSymbolTableRecord
100
AcDbRegAppTableRecord
  2
ACAD_DSTYLE_DIMBREAK
 70
     0
  0
APPID
  5
5A4
330
9
100
AcDbSymbolTableRecord
100
AcDbRegAppTableRecord
  2
ACAD_DSTYLE_DIMTALN
 70
     0
  0
APPID
  5
7D5
330
9
100
AcDbSymbolTableRecord
100
AcDbRegAppTableRecord
  2
ACAD_MLEADERVER
 70
     0
  0
APPID
  5
7D6
330
9
100
AcDbSymbolTableRecord
100
AcDbRegAppTableRecord
  2
ACAD_DSTYLE_DIMARC_LENGTH_SYMBOL
 70
     0
  0
APPID
  5
7D7
330
9
100
AcDbSymbolTableRecord
100
AcDbRegAppTableRecord
  2
ACAD_DSTYLE_DIMEXT_LENGTH
 70
     0
  0
APPID
  5
EC2
330
9
100
AcDbSymbolTableRecord
100
AcDbRegAppTableRecord
  2
ACAD_PSEXT
 70
     0
  0
ENDTAB
  0
TABLE
  2
DIMSTYLE
  5
A
330
0
100
AcDbSymbolTable
 70
    11
100
AcDbDimStyleTable
 71
     2
340
5A0
340
4BE
  0
DIMSTYLE
105
4BE
330
A
100
AcDbSymbolTableRecord
100
AcDbDimStyleTableRecord
  2
Standard
 70
     0
340
26
  0
DIMSTYLE
105
597
330
A
100
AcDbSymbolTableRecord
100
AcDbDimStyleTableRecord
  2
1：1
 70
     0
 41
2.5
 42
0.25
 43
0.2
 44
1.25
 73
     0
 74
     0
 77
     3
 78
     8
 79
     2
140
3.0
141
0.0
143
0.03937007874016
147
0.625
171
     3
172
     1
178
     4
179
     1
271
     2
272
     2
274
     3
283
     0
284
     8
288
     1
289
     0
340
26
341
501
342
501
1001
ACAD_DSTYLE_DIMARC_LENGTH_SYMBOL
1070
   379
1070
     2
1001
ACAD_DSTYLE_DIMEXT_LENGTH
1070
   378
1040
1.25
1001
ACAD_DSTYLE_DIMJOGGED_JOGANGLE_SYMBOL
1070
   384
1040
1.570796326794896
  0
DIMSTYLE
105
598
330
A
100
AcDbSymbolTableRecord
100
AcDbDimStyleTableRecord
  2
2：1
 70
     0
 41
2.5
 42
0.25
 43
0.2
 44
1.25
 73
     0
 74
     0
 77
     3
 78
     8
 79
     2
140
3.0
141
0.0
143
0.03937007874016
144
0.5
147
0.625
171
     3
172
     1
178
     4
179
     1
271
     2
272
     2
274
     3
283
     0
284
     8
288
     1
289
     0
340
26
341
501
342
501
1001
ACAD_DSTYLE_DIMARC_LENGTH_SYMBOL
1070
   379
1070
     2
1001
ACAD_DSTYLE_DIMEXT_LENGTH
1070
   378
1040
1.25
1001
ACAD_DSTYLE_DIMJOGGED_JOGANGLE_SYMBOL
1070
   384
1040
1.570796326794896
  0
DIMSTYLE
105
599
330
A
100
AcDbSymbolTableRecord
100
AcDbDimStyleTableRecord
  2
5：1
 70
     0
 41
2.5
 42
0.25
 43
0.2
 44
1.25
 73
     0
 74
     0
 77
     3
 78
     8
 79
     2
140
3.0
141
0.0
143
0.03937007874016
144
0.2
147
0.625
171
     3
172
     1
178
     4
179
     1
271
     2
272
     2
274
     3
283
     0
284
     8
288
     1
289
     0
340
26
341
501
342
501
1001
ACAD_DSTYLE_DIMARC_LENGTH_SYMBOL
1070
   379
1070
     2
1001
ACAD_DSTYLE_DIMEXT_LENGTH
1070
   378
1040
1.25
1001
ACAD_DSTYLE_DIMJOGGED_JOGANGLE_SYMBOL
1070
   384
1040
1.570796326794896
  0
DIMSTYLE
105
59A
330
A
100
AcDbSymbolTableRecord
100
AcDbDimStyleTableRecord
  2
10：1
 70
     0
 41
2.5
 42
0.25
 43
0.2
 44
1.25
 73
     0
 74
     0
 77
     3
 78
     8
 79
     2
140
3.0
141
0.0
143
0.03937007874016
144
0.1
147
0.625
171
     3
172
     1
178
     4
179
     1
271
     2
272
     2
274
     3
283
     0
284
     8
288
     1
289
     0
340
26
341
501
342
501
1001
ACAD_DSTYLE_DIMARC_LENGTH_SYMBOL
1070
   379
1070
     2
1001
ACAD_DSTYLE_DIMEXT_LENGTH
1070
   378
1040
1.25
1001
ACAD_DSTYLE_DIMJOGGED_JOGANGLE_SYMBOL
1070
   384
1040
1.570796326794896
  0
DIMSTYLE
105
59B
330
A
100
AcDbSymbolTableRecord
100
AcDbDimStyleTableRecord
  2
1／2
 70
     0
 41
2.5
 42
0.25
 43
0.2
 44
1.25
 73
     0
 74
     0
 77
     3
 78
     8
 79
     2
140
3.0
141
0.0
143
0.03937007874016
144
2.0
147
0.625
171
     3
172
     1
178
     4
179
     1
271
     2
272
     2
274
     3
283
     0
284
     8
288
     1
289
     0
340
26
341
501
342
501
1001
ACAD_DSTYLE_DIMARC_LENGTH_SYMBOL
1070
   379
1070
     2
1001
ACAD_DSTYLE_DIMEXT_LENGTH
1070
   378
1040
1.25
1001
ACAD_DSTYLE_DIMJOGGED_JOGANGLE_SYMBOL
1070
   384
1040
1.570796326794896
  0
DIMSTYLE
105
59C
330
A
100
AcDbSymbolTableRecord
100
AcDbDimStyleTableRecord
  2
1／5
 70
     0
 41
2.5
 42
0.25
 43
0.2
 44
1.25
 73
     0
 74
     0
 77
     3
 78
     8
 79
     2
140
3.0
141
0.0
143
0.03937007874016
144
5.0
147
0.625
171
     3
172
     1
178
     4
179
     1
271
     2
272
     2
274
     3
283
     0
284
     8
288
     1
289
     0
340
26
341
501
342
501
1001
ACAD_DSTYLE_DIMARC_LENGTH_SYMBOL
1070
   379
1070
     2
1001
ACAD_DSTYLE_DIMEXT_LENGTH
1070
   378
1040
1.25
1001
ACAD_DSTYLE_DIMJOGGED_JOGANGLE_SYMBOL
1070
   384
1040
1.570796326794896
  0
DIMSTYLE
105
59D
330
A
100
AcDbSymbolTableRecord
100
AcDbDimStyleTableRecord
  2
1／10
 70
     0
 41
2.5
 42
0.25
 43
0.2
 44
1.25
 73
     0
 74
     0
 77
     3
 78
     8
 79
     2
140
3.0
141
0.0
143
0.03937007874016
144
10.0
147
0.625
171
     3
172
     1
178
     4
179
     1
271
     2
272
     2
274
     3
283
     0
284
     8
288
     1
289
     0
340
26
341
501
342
501
1001
ACAD_DSTYLE_DIMARC_LENGTH_SYMBOL
1070
   379
1070
     2
1001
ACAD_DSTYLE_DIMEXT_LENGTH
1070
   378
1040
1.25
1001
ACAD_DSTYLE_DIMJOGGED_JOGANGLE_SYMBOL
1070
   384
1040
1.570796326794896
  0
DIMSTYLE
105
59E
330
A
100
AcDbSymbolTableRecord
100
AcDbDimStyleTableRecord
  2
1／4
 70
     0
 41
2.5
 42
0.25
 43
0.2
 44
1.25
 73
     0
 74
     0
 77
     3
 78
     8
 79
     2
140
3.0
141
0.0
143
0.03937007874016
144
4.0
147
0.625
171
     3
172
     1
178
     4
179
     1
271
     2
272
     2
274
     3
283
     0
284
     8
288
     1
289
     0
340
26
341
501
342
501
1001
ACAD_DSTYLE_DIMARC_LENGTH_SYMBOL
1070
   379
1070
     2
1001
ACAD_DSTYLE_DIMEXT_LENGTH
1070
   378
1040
1.25
1001
ACAD_DSTYLE_DIMJOGGED_JOGANGLE_SYMBOL
1070
   384
1040
1.570796326794896
  0
DIMSTYLE
105
59F
330
A
100
AcDbSymbolTableRecord
100
AcDbDimStyleTableRecord
  2
1／3
 70
     0
 41
2.5
 42
0.25
 43
0.2
 44
1.25
 73
     0
 74
     0
 77
     3
 78
     8
 79
     2
140
3.0
141
0.0
143
0.03937007874016
144
3.0
147
0.625
171
     3
172
     1
178
     4
179
     1
271
     2
272
     2
274
     3
283
     0
284
     8
288
     1
289
     0
340
26
341
501
342
501
1001
ACAD_DSTYLE_DIMARC_LENGTH_SYMBOL
1070
   379
1070
     2
1001
ACAD_DSTYLE_DIMEXT_LENGTH
1070
   378
1040
1.25
1001
ACAD_DSTYLE_DIMJOGGED_JOGANGLE_SYMBOL
1070
   384
1040
1.570796326794896
  0
DIMSTYLE
105
5A0
330
A
100
AcDbSymbolTableRecord
100
AcDbDimStyleTableRecord
  2
FREE
 70
     0
 41
2.5
 42
0.25
 43
0.2
 44
1.25
 73
     0
 74
     0
 77
     3
 78
     8
 79
     2
140
3.0
141
0.0
143
0.03937007874016
147
0.625
171
     3
172
     1
178
     4
179
     1
271
     2
272
     2
274
     3
283
     0
284
     8
288
     1
289
     0
340
26
341
501
342
501
1001
ACAD_DSTYLE_DIMBREAK
1070
   391
1040
3.75
1001
ACAD_DSTYLE_DIMJAG
1070
   388
1040
1.5
1001
ACAD_DSTYLE_DIMTALN
1070
   392
1070
     0
1001
ACAD_DSTYLE_DIMARC_LENGTH_SYMBOL
1070
   379
1070
     2
1001
ACAD_DSTYLE_DIMEXT_LENGTH
1070
   378
1040
1.25
1001
ACAD_DSTYLE_DIMJOGGED_JOGANGLE_SYMBOL
1070
   384
1040
1.570796326794896
  0
ENDTAB
  0
TABLE
  2
BLOCK_RECORD
  5
1
330
0
100
AcDbSymbolTable
 70
     5
  0
BLOCK_RECORD
  5
36
102
{ACAD_XDICTIONARY
360
6FB
102
}
330
1
100
AcDbSymbolTableRecord
100
AcDbBlockTableRecord
  2
*Model_Space
340
39
  0
BLOCK_RECORD
  5
32
330
1
100
AcDbSymbolTableRecord
100
AcDbBlockTableRecord
  2
*Paper_Space
340
35
  0
BLOCK_RECORD
  5
501
330
1
100
AcDbSymbolTableRecord
100
AcDbBlockTableRecord
  2
_Open30
340
0
102
{BLKREFS
331
113E
331
113F
331
1147
331
1148
331
1150
331
1151
102
}
  0
BLOCK_RECORD
  5
6B9
330
1
100
AcDbSymbolTableRecord
100
AcDbBlockTableRecord
  2
*D1
340
0
  0
BLOCK_RECORD
  5
6CF
330
1
100
AcDbSymbolTableRecord
100
AcDbBlockTableRecord
  2
*D2
340
0
  0
BLOCK_RECORD
  5
6DB
330
1
100
AcDbSymbolTableRecord
100
AcDbBlockTableRecord
  2
*D3
340
0
  0
BLOCK_RECORD
  5
801
330
1
100
AcDbSymbolTableRecord
100
AcDbBlockTableRecord
  2
_DotSmall
340
0
  0
ENDTAB
  0
ENDSEC
  0
SECTION
  2
BLOCKS
  0
BLOCK
  5
37
330
36
100
AcDbEntity
  8
0
100
AcDbBlockBegin
  2
*Model_Space
 70
     0
 10
0.0
 20
0.0
 30
0.0
  3
*Model_Space
  1

  0
ENDBLK
  5
38
330
36
100
AcDbEntity
  8
0
100
AcDbBlockEnd
  0
BLOCK
  5
33
330
32
100
AcDbEntity
 67
     1
  8
0
100
AcDbBlockBegin
  2
*Paper_Space
 70
     0
 10
0.0
 20
0.0
 30
0.0
  3
*Paper_Space
  1

  0
ENDBLK
  5
34
330
32
100
AcDbEntity
 67
     1
  8
0
100
AcDbBlockEnd
  0
BLOCK
  5
502
330
501
100
AcDbEntity
  8
0
100
AcDbBlockBegin
  2
_Open30
 70
     0
 10
0.0
 20
0.0
 30
0.0
  3
_Open30
  1

  0
LINE
  5
503
330
501
100
AcDbEntity
  8
0
  6
ByBlock
 62
     0
370
    -2
100
AcDbLine
 10
-1.0
 20
0.267949
 30
0.0
 11
0.0
 21
0.0
 31
0.0
  0
LINE
  5
504
330
501
100
AcDbEntity
  8
0
  6
ByBlock
 62
     0
370
    -2
100
AcDbLine
 10
0.0
 20
0.0
 30
0.0
 11
-1.0
 21
-0.267949
 31
0.0
  0
LINE
  5
505
330
501
100
AcDbEntity
  8
0
  6
ByBlock
 62
     0
370
    -2
100
AcDbLine
 10
0.0
 20
0.0
 30
0.0
 11
-1.0
 21
0.0
 31
0.0
  0
ENDBLK
  5
506
330
501
100
AcDbEntity
  8
0
100
AcDbBlockEnd
  0
BLOCK
  5
6BA
330
6B9
100
AcDbEntity
  8
0
100
AcDbBlockBegin
  2
*D1
 70
     1
 10
0.0
 20
0.0
 30
0.0
  3
*D1
  1

  0
LINE
  5
113B
330
6B9
100
AcDbEntity
  8
0
 62
     0
370
    -2
100
AcDbLine
 10
-140.657428
 20
1.561318999999999
 30
0.0
 11
-140.657428
 21
-21.795557
 31
0.0
  0
LINE
  5
113C
330
6B9
100
AcDbEntity
  8
0
 62
     0
370
    -2
100
AcDbLine
 10
-10.157428
 20
1.561318999999999
 30
0.0
 11
-10.157428
 21
-21.795557
 31
0.0
  0
LINE
  5
113D
330
6B9
100
AcDbEntity
  8
0
 62
     0
370
    -2
100
AcDbLine
 10
-138.157428
 20
-20.545557
 30
0.0
 11
-12.657428
 21
-20.545557
 31
0.0
  0
INSERT
  5
113E
330
6B9
100
AcDbEntity
  8
0
 62
     0
370
    -2
100
AcDbBlockReference
  2
_Open30
 10
-140.657428
 20
-20.545557
 30
0.0
 41
2.5
 42
2.5
 43
2.5
 50
180.0
  0
INSERT
  5
113F
330
6B9
100
AcDbEntity
  8
0
 62
     0
370
    -2
100
AcDbBlockReference
  2
_Open30
 10
-10.157428
 20
-20.545557
 30
0.0
 41
2.5
 42
2.5
 43
2.5
  0
MTEXT
  5
1140
330
6B9
100
AcDbEntity
  8
0
 62
     4
100
AcDbMText
 10
-75.40742800000001
 20
-18.420557
 30
0.0
 40
3.0
 41
0.0
 71
     5
 72
     1
  1
260
 73
     1
 44
1.0
1001
ACAD
1000
MTEXTBEGIN
1070
    73
1070
     1
1070
    44
1040
1.0
1070
    74
1070
     0
1000
MTEXTEND
  0
POINT
  5
1141
330
6B9
100
AcDbEntity
  8
Defpoints
 62
     0
100
AcDbPoint
 10
-140.657428
 20
1.811318999999999
 30
0.0
  0
POINT
  5
1142
330
6B9
100
AcDbEntity
  8
Defpoints
 62
     0
100
AcDbPoint
 10
-10.157428
 20
1.811318999999999
 30
0.0
  0
POINT
  5
1143
330
6B9
100
AcDbEntity
  8
Defpoints
 62
     0
100
AcDbPoint
 10
-10.157428
 20
-20.545557
 30
0.0
  0
ENDBLK
  5
6BB
330
6B9
100
AcDbEntity
  8
0
100
AcDbBlockEnd
  0
BLOCK
  5
6D0
330
6CF
100
AcDbEntity
  8
0
100
AcDbBlockBegin
  2
*D2
 70
     1
 10
0.0
 20
0.0
 30
0.0
  3
*D2
  1

  0
LINE
  5
1144
330
6CF
100
AcDbEntity
  8
0
 62
     0
370
    -2
100
AcDbLine
 10
58.83043
 20
-13.237981
 30
0.0
 11
17.65697199999998
 21
-13.23798099999999
 31
0.0
  0
LINE
  5
1145
330
6CF
100
AcDbEntity
  8
0
 62
     0
370
    -2
100
AcDbLine
 10
85.383107
 20
101.411419
 30
0.0
 11
17.656972
 21
101.411419
 31
0.0
  0
LINE
  5
1146
330
6CF
100
AcDbEntity
  8
0
 62
     0
370
    -2
100
AcDbLine
 10
18.90697199999997
 20
-10.73798099999999
 30
0.0
 11
18.906972
 21
98.911419
 31
0.0
  0
INSERT
  5
1147
330
6CF
100
AcDbEntity
  8
0
 62
     0
370
    -2
100
AcDbBlockReference
  2
_Open30
 10
18.90697199999997
 20
-13.23798099999999
 30
0.0
 41
2.5
 42
2.5
 43
2.5
 50
270.0
  0
INSERT
  5
1148
330
6CF
100
AcDbEntity
  8
0
 62
     0
370
    -2
100
AcDbBlockReference
  2
_Open30
 10
18.906972
 20
101.411419
 30
0.0
 41
2.5
 42
2.5
 43
2.5
 50
90.0
  0
MTEXT
  5
1149
330
6CF
100
AcDbEntity
  8
0
 62
     4
100
AcDbMText
 10
16.78197199999998
 20
44.086719
 30
0.0
 40
3.0
 41
0.0
 71
     5
 72
     1
  1
230
 11
0.0000000000000001
 21
1.0
 31
0.0
 73
     1
 44
1.0
1001
ACAD
1000
MTEXTBEGIN
1070
    73
1070
     1
1070
    44
1040
1.0
1070
    74
1070
     0
1000
MTEXTEND
  0
POINT
  5
114A
330
6CF
100
AcDbEntity
  8
Defpoints
 62
     0
100
AcDbPoint
 10
59.08043000000001
 20
-13.237981
 30
0.0
  0
POINT
  5
114B
330
6CF
100
AcDbEntity
  8
Defpoints
 62
     0
100
AcDbPoint
 10
85.633107
 20
101.411419
 30
0.0
  0
POINT
  5
114C
330
6CF
100
AcDbEntity
  8
Defpoints
 62
     0
100
AcDbPoint
 10
18.906972
 20
101.411419
 30
0.0
  0
ENDBLK
  5
6D1
330
6CF
100
AcDbEntity
  8
0
100
AcDbBlockEnd
  0
BLOCK
  5
6DC
330
6DB
100
AcDbEntity
  8
0
100
AcDbBlockBegin
  2
*D3
 70
     1
 10
0.0
 20
0.0
 30
0.0
  3
*D3
  1

  0
LINE
  5
114D
330
6DB
100
AcDbEntity
  8
0
 62
     0
370
    -2
100
AcDbLine
 10
30.392672
 20
-5.587981
 30
0.0
 11
30.392672
 21
-21.795557
 31
0.0
  0
LINE
  5
114E
330
6DB
100
AcDbEntity
  8
0
 62
     0
370
    -2
100
AcDbLine
 10
147.892672
 20
-5.987980999999997
 30
0.0
 11
147.892672
 21
-21.795557
 31
0.0
  0
LINE
  5
114F
330
6DB
100
AcDbEntity
  8
0
 62
     0
370
    -2
100
AcDbLine
 10
32.892672
 20
-20.545557
 30
0.0
 11
145.392672
 21
-20.545557
 31
0.0
  0
INSERT
  5
1150
330
6DB
100
AcDbEntity
  8
0
 62
     0
370
    -2
100
AcDbBlockReference
  2
_Open30
 10
30.392672
 20
-20.545557
 30
0.0
 41
2.5
 42
2.5
 43
2.5
 50
180.0
  0
INSERT
  5
1151
330
6DB
100
AcDbEntity
  8
0
 62
     0
370
    -2
100
AcDbBlockReference
  2
_Open30
 10
147.892672
 20
-20.545557
 30
0.0
 41
2.5
 42
2.5
 43
2.5
  0
MTEXT
  5
1152
330
6DB
100
AcDbEntity
  8
0
 62
     4
100
AcDbMText
 10
89.14267200000001
 20
-18.420557
 30
0.0
 40
3.0
 41
0.0
 71
     5
 72
     1
  1
235
 73
     1
 44
1.0
1001
ACAD
1000
MTEXTBEGIN
1070
    73
1070
     1
1070
    44
1040
1.0
1070
    74
1070
     0
1000
MTEXTEND
  0
POINT
  5
1153
330
6DB
100
AcDbEntity
  8
Defpoints
 62
     0
100
AcDbPoint
 10
30.392672
 20
-5.337981
 30
0.0
  0
POINT
  5
1154
330
6DB
100
AcDbEntity
  8
Defpoints
 62
     0
100
AcDbPoint
 10
147.892672
 20
-5.737980999999997
 30
0.0
  0
POINT
  5
1155
330
6DB
100
AcDbEntity
  8
Defpoints
 62
     0
100
AcDbPoint
 10
147.892672
 20
-20.545557
 30
0.0
  0
ENDBLK
  5
6DD
330
6DB
100
AcDbEntity
  8
0
100
AcDbBlockEnd
  0
BLOCK
  5
803
330
801
100
AcDbEntity
  8
0
100
AcDbBlockBegin
  2
_DotSmall
 70
     0
 10
0.0
 20
0.0
 30
0.0
  3
_DotSmall
  1

  0
LWPOLYLINE
  5
802
330
801
100
AcDbEntity
  8
0
  6
ByBlock
 62
     0
100
AcDbPolyline
 90
        2
 70
     1
 43
0.5
 10
-0.0625
 20
0.0
 42
1.0
 10
0.0625
 20
0.0
 42
1.0
  0
ENDBLK
  5
804
330
801
100
AcDbEntity
  8
0
100
AcDbBlockEnd
  0
ENDSEC
  0
SECTION
  2
ENTITIES
  0
CIRCLE
  5
86
330
36
100
AcDbEntity
  8
0
 62
     3
100
AcDbCircle
 10
32.39336157885141
 20
-63.40160400000001
 30
0.0
 40
11.2
  0
CIRCLE
  5
87
330
36
100
AcDbEntity
  8
0
 62
     3
100
AcDbCircle
 10
136.869466
 20
-81.62330414801175
 30
0.0
 40
4.375
  0
TEXT
  5
88
330
36
100
AcDbEntity
  8
0
 62
     3
100
AcDbText
 10
147.430882
 20
-132.066416
 30
0.0
 40
3.2
  1
FREE
  7
高3.2
100
AcDbText
  0
TEXT
  5
89
330
36
100
AcDbEntity
  8
0
 62
     3
100
AcDbText
 10
33.45513457885142
 20
-50.731504
 30
0.0
 40
3.2
  1
Y(S)
  7
高3.2
100
AcDbText
  0
TEXT
  5
8A
330
36
100
AcDbEntity
  8
0
 62
     3
100
AcDbText
 10
44.52405057885139
 20
-68.36767399999999
 30
0.0
 40
3.2
  1
X(R)
  7
高3.2
100
AcDbText
  0
TEXT
  5
8B
330
36
100
AcDbEntity
  8
0
 62
     3
100
AcDbText
 10
177.870728
 20
-132.736447
 30
0.0
 40
3.2
  1
1998.12.28
  7
高3.2
100
AcDbText
  0
LINE
  5
92
330
36
100
AcDbEntity
  8
0
 62
     3
100
AcDbLine
 10
72.39267199999997
 20
75.86201899999998
 30
0.0
 11
62.29139899999999
 21
75.86201899999998
 31
0.0
  0
ARC
  5
93
330
36
100
AcDbEntity
  8
0
 62
     3
100
AcDbCircle
 10
57.392672
 20
94.36201899999998
 30
0.0
 40
7.5
100
AcDbArc
 50
6.836022999999999
 51
90.0
  0
ARC
  5
94
330
36
100
AcDbEntity
  8
0
 62
     3
100
AcDbCircle
 10
53.921943
 20
93.90931
 30
0.0
 40
11.0
100
AcDbArc
 50
340.655671
 51
7.048843999999997
  0
ARC
  5
95
330
36
100
AcDbEntity
  8
0
 62
     3
100
AcDbCircle
 10
100.043664
 20
77.93697399999998
 30
0.0
 40
37.809244
100
AcDbArc
 50
160.82461
 51
183.145949
  0
ARC
  5
96
330
36
100
AcDbEntity
  8
0
 62
     3
100
AcDbCircle
 10
56.89267199999999
 20
94.36201899999998
 30
0.0
 40
5.0
100
AcDbArc
 50
339.714362
 51
90.0
  0
ARC
  5
97
330
36
100
AcDbEntity
  8
0
 62
     3
100
AcDbCircle
 10
100.892672
 20
72.86201899999998
 30
0.0
 40
44.0
100
AcDbArc
 50
153.305158
 51
177.707557
  0
LINE
  5
98
330
36
100
AcDbEntity
  8
0
 62
     3
100
AcDbLine
 10
71.89267199999997
 20
74.61201899999998
 30
0.0
 11
71.89267199999997
 21
75.61201899999997
 31
0.0
  0
LINE
  5
99
330
36
100
AcDbEntity
  8
0
 62
     3
100
AcDbLine
 10
50.14267199999999
 20
99.362019
 30
0.0
 11
56.89267199999999
 21
99.362019
 31
0.0
  0
ARC
  5
9A
330
36
100
AcDbEntity
  8
0
 62
     3
100
AcDbCircle
 10
50.14267199999999
 20
100.112019
 30
0.0
 40
0.75
100
AcDbArc
 50
180.0
 51
270.0
  0
LINE
  5
9B
330
36
100
AcDbEntity
  8
0
 62
     3
100
AcDbLine
 10
50.14267199999999
 20
101.862019
 30
0.0
 11
57.392672
 21
101.862019
 31
0.0
  0
LINE
  5
9C
330
36
100
AcDbEntity
  8
0
 62
     3
100
AcDbLine
 10
49.39267199999999
 20
101.112019
 30
0.0
 11
49.39267199999999
 21
100.112019
 31
0.0
  0
LINE
  5
9D
330
36
100
AcDbEntity
  8
0
 62
     3
100
AcDbLine
 10
123.892672
 20
74.61201899999998
 30
0.0
 11
123.892672
 21
75.61201899999997
 31
0.0
  0
LINE
  5
9E
330
36
100
AcDbEntity
  8
0
 62
     3
100
AcDbLine
 10
133.493945
 20
75.86201899999998
 30
0.0
 11
123.392672
 21
75.86201899999998
 31
0.0
  0
ARC
  5
9F
330
36
100
AcDbEntity
  8
0
 62
     3
100
AcDbCircle
 10
95.74168
 20
77.93697399999998
 30
0.0
 40
37.809244
100
AcDbArc
 50
356.854051
 51
19.17539
  0
ARC
  5
A0
330
36
100
AcDbEntity
  8
0
 62
     3
100
AcDbCircle
 10
94.89267199999998
 20
72.86201899999998
 30
0.0
 40
44.0
100
AcDbArc
 50
2.292443
 51
26.694842
  0
ARC
  5
A1
330
36
100
AcDbEntity
  8
0
 62
     3
100
AcDbCircle
 10
138.392672
 20
94.36201899999998
 30
0.0
 40
7.5
100
AcDbArc
 50
90.0
 51
173.163977
  0
LINE
  5
A2
330
36
100
AcDbEntity
  8
0
 62
     3
100
AcDbLine
 10
145.642672
 20
101.862019
 30
0.0
 11
138.392672
 21
101.862019
 31
0.0
  0
ARC
  5
A3
330
36
100
AcDbEntity
  8
0
 62
     3
100
AcDbCircle
 10
145.642672
 20
101.112019
 30
0.0
 40
0.75
100
AcDbArc
 50
0.0
 51
90.0
  0
LINE
  5
A4
330
36
100
AcDbEntity
  8
0
 62
     3
100
AcDbLine
 10
146.392672
 20
101.112019
 30
0.0
 11
146.392672
 21
100.112019
 31
0.0
  0
LINE
  5
A5
330
36
100
AcDbEntity
  8
0
 62
     3
100
AcDbLine
 10
145.642672
 20
99.362019
 30
0.0
 11
138.892672
 21
99.362019
 31
0.0
  0
ARC
  5
A6
330
36
100
AcDbEntity
  8
0
 62
     3
100
AcDbCircle
 10
145.642672
 20
100.112019
 30
0.0
 40
0.75
100
AcDbArc
 50
270.0
 51
0.0
  0
ARC
  5
A7
330
36
100
AcDbEntity
  8
0
 62
     3
100
AcDbCircle
 10
141.863401
 20
93.90931
 30
0.0
 40
11.0
100
AcDbArc
 50
172.951156
 51
199.344329
  0
ARC
  5
A8
330
36
100
AcDbEntity
  8
0
 62
     3
100
AcDbCircle
 10
138.892672
 20
94.36201899999998
 30
0.0
 40
5.0
100
AcDbArc
 50
90.0
 51
200.285638
  0
ARC
  5
A9
330
36
100
AcDbEntity
  8
0
 62
     3
100
AcDbCircle
 10
-39.800905
 20
102.432177
 30
0.0
 40
31.5
100
AcDbArc
 50
183.545661
 51
221.721501
  0
ARC
  5
AA
330
36
100
AcDbEntity
  8
0
 62
     3
100
AcDbCircle
 10
-114.522951
 20
102.432177
 30
0.0
 40
31.5
100
AcDbArc
 50
318.278499
 51
356.454339
  0
ARC
  5
AB
330
36
100
AcDbEntity
  8
0
 62
     3
100
AcDbCircle
 10
-39.661928
 20
101.861319
 30
0.0
 40
31.599051
100
AcDbArc
 50
181.328499
 51
182.282375
  0
ARC
  5
AC
330
36
100
AcDbEntity
  8
0
 62
     3
100
AcDbCircle
 10
-72.00228299999998
 20
101.111319
 30
0.0
 40
0.75
100
AcDbArc
 50
1.328498999999998
 51
90.0
  0
LINE
  5
AD
330
36
100
AcDbEntity
  8
0
 62
     3
100
AcDbLine
 10
-72.00228299999998
 20
101.861319
 30
0.0
 11
-82.321573
 21
101.861319
 31
0.0
  0
ARC
  5
AE
330
36
100
AcDbEntity
  8
0
 62
     3
100
AcDbCircle
 10
-82.321573
 20
101.111319
 30
0.0
 40
0.75
100
AcDbArc
 50
90.0
 51
178.671501
  0
ARC
  5
AF
330
36
100
AcDbEntity
  8
0
 62
     3
100
AcDbCircle
 10
-114.661928
 20
101.861319
 30
0.0
 40
31.599051
100
AcDbArc
 50
357.717625
 51
358.671501
  0
ARC
  5
B0
330
36
100
AcDbEntity
  8
0
 62
     3
100
AcDbCircle
 10
-86.160188
 20
77.14277800000002
 30
0.0
 40
6.5
100
AcDbArc
 50
138.278499
 51
180.0
  0
ARC
  5
B1
330
36
100
AcDbEntity
  8
0
 62
     3
100
AcDbCircle
 10
-68.163668
 20
77.14277800000002
 30
0.0
 40
6.5
100
AcDbArc
 50
0.0
 51
41.721501
  0
LINE
  5
B2
330
36
100
AcDbEntity
  8
0
 62
     3
100
AcDbLine
 10
-92.66018800000001
 20
77.14277800000002
 30
0.0
 11
-92.66018800000001
 21
76.31131899999998
 31
0.0
  0
LINE
  5
B3
330
36
100
AcDbEntity
  8
0
 62
     3
100
AcDbLine
 10
-108.782428
 20
44.93631899999999
 30
0.0
 11
-108.782428
 21
63.18631899999999
 31
0.0
  0
LINE
  5
B4
330
36
100
AcDbEntity
  8
0
 62
     3
100
AcDbLine
 10
-108.782428
 20
63.18631899999999
 30
0.0
 11
-93.03242799999999
 21
63.18631899999999
 31
0.0
  0
LINE
  5
B5
330
36
100
AcDbEntity
  8
0
 62
     3
100
AcDbLine
 10
-93.03242799999999
 20
44.93631899999999
 30
0.0
 11
-93.03242799999999
 21
63.18631899999999
 31
0.0
  0
LINE
  5
B6
330
36
100
AcDbEntity
  8
0
 62
     3
100
AcDbLine
 10
-93.03242799999999
 20
44.93631899999999
 30
0.0
 11
-108.782428
 21
44.93631899999999
 31
0.0
  0
CIRCLE
  5
F1
330
36
100
AcDbEntity
  8
0
100
AcDbCircle
 10
-126.7065689999999
 20
117.0386870689281
 30
0.0
 40
5.0
  0
TEXT
  5
F2
330
36
100
AcDbEntity
  8
0
 62
     4
100
AcDbText
 10
-129.6891175985657
 20
114.818913145612
 30
0.0
 40
4.5
  1
16
  7
高4.5
100
AcDbText
  0
CIRCLE
  5
F9
330
36
100
AcDbEntity
  8
0
100
AcDbCircle
 10
-108.838721
 20
117.0386870689281
 30
0.0
 40
5.0
  0
TEXT
  5
FA
330
36
100
AcDbEntity
  8
0
 62
     4
100
AcDbText
 10
-111.8212695985657
 20
114.818913145612
 30
0.0
 40
4.5
  1
13
  7
高4.5
100
AcDbText
  0
CIRCLE
  5
101
330
36
100
AcDbEntity
  8
0
100
AcDbCircle
 10
-92.93905700000001
 20
117.0386870689281
 30
0.0
 40
5.0
  0
TEXT
  5
102
330
36
100
AcDbEntity
  8
0
 62
     4
100
AcDbText
 10
-95.92160559856569
 20
114.818913145612
 30
0.0
 40
4.5
  1
14
  7
高4.5
100
AcDbText
  0
CIRCLE
  5
109
330
36
100
AcDbEntity
  8
0
100
AcDbCircle
 10
-153.899236
 20
76.759282
 30
0.0
 40
5.0
  0
TEXT
  5
10A
330
36
100
AcDbEntity
  8
0
 62
     4
100
AcDbText
 10
-157.1317845985657
 20
74.39405407668394
 30
0.0
 40
4.5
  1
15
  7
高4.5
100
AcDbText
  0
CIRCLE
  5
111
330
36
100
AcDbEntity
  8
0
100
AcDbCircle
 10
-153.899236
 20
54.95274499999999
 30
0.0
 40
5.0
  0
TEXT
  5
112
330
36
100
AcDbEntity
  8
0
 62
     4
100
AcDbText
 10
-156.1320403032535
 20
51.84521343311774
 30
0.0
 40
6.299999999999998
  1
5
  7
高6.3
100
AcDbText
  0
CIRCLE
  5
119
330
36
100
AcDbEntity
  8
0
100
AcDbCircle
 10
-153.899236
 20
35.413191
 30
0.0
 40
5.0
  0
TEXT
  5
11A
330
36
100
AcDbEntity
  8
0
 62
     4
100
AcDbText
 10
-156.1320403032535
 20
32.30565943311774
 30
0.0
 40
6.299999999999998
  1
8
  7
高6.3
100
AcDbText
  0
CIRCLE
  5
121
330
36
100
AcDbEntity
  8
0
100
AcDbCircle
 10
-153.899236
 20
6.034665
 30
0.0
 40
5.0
  0
TEXT
  5
122
330
36
100
AcDbEntity
  8
0
 62
     4
100
AcDbText
 10
-156.1320403032535
 20
2.927133433117742
 30
0.0
 40
6.299999999999998
  1
9
  7
高6.3
100
AcDbText
  0
CIRCLE
  5
129
330
36
100
AcDbEntity
  8
0
100
AcDbCircle
 10
-153.899236
 20
-8.876799
 30
0.0
 40
5.0
  0
TEXT
  5
12A
330
36
100
AcDbEntity
  8
0
 62
     4
100
AcDbText
 10
-156.1320403032535
 20
-11.98433056688225
 30
0.0
 40
6.299999999999998
  1
7
  7
高6.3
100
AcDbText
  0
CIRCLE
  5
131
330
36
100
AcDbEntity
  8
0
100
AcDbCircle
 10
25.57772300000001
 20
117.0386870689281
 30
0.0
 40
5.0
  0
TEXT
  5
132
330
36
100
AcDbEntity
  8
0
 62
     4
100
AcDbText
 10
23.34491869674653
 20
113.9311555020458
 30
0.0
 40
6.299999999999998
  1
6
  7
高6.3
100
AcDbText
  0
CIRCLE
  5
139
330
36
100
AcDbEntity
  8
0
100
AcDbCircle
 10
95.61532251745347
 20
117.0386870689281
 30
0.0
 40
5.0
  0
TEXT
  5
13A
330
36
100
AcDbEntity
  8
0
 62
     4
100
AcDbText
 10
94.56644229894346
 20
113.9888520950048
 30
0.0
 40
6.299999999999998
  1
1
  7
高6.3
100
AcDbText
  0
LINE
  5
13B
330
36
100
AcDbEntity
  8
0
 62
     3
100
AcDbLine
 10
94.006261
 20
-69.31716
 30
0.0
 11
192.5160301513831
 21
-69.31716
 31
0.0
  0
LINE
  5
13C
330
36
100
AcDbEntity
  8
0
 62
     3
100
AcDbLine
 10
94.006261
 20
-69.31716
 30
0.0
 11
94.006261
 21
-33.31716
 31
0.0
  0
LINE
  5
13D
330
36
100
AcDbEntity
  8
0
100
AcDbLine
 10
94.006261
 20
-39.31716
 30
0.0
 11
192.5160301513831
 21
-39.31716
 31
0.0
  0
LINE
  5
13E
330
36
100
AcDbEntity
  8
0
100
AcDbLine
 10
94.006261
 20
-45.31716
 30
0.0
 11
192.5160301513831
 21
-45.31716
 31
0.0
  0
LINE
  5
13F
330
36
100
AcDbEntity
  8
0
100
AcDbLine
 10
94.006261
 20
-51.31716
 30
0.0
 11
192.5160301513831
 21
-51.31716
 31
0.0
  0
LINE
  5
140
330
36
100
AcDbEntity
  8
0
100
AcDbLine
 10
94.006261
 20
-57.31716
 30
0.0
 11
192.5160301513831
 21
-57.31716
 31
0.0
  0
LINE
  5
141
330
36
100
AcDbEntity
  8
0
100
AcDbLine
 10
94.006261
 20
-63.31716
 30
0.0
 11
192.5160301513831
 21
-63.31716000000001
 31
0.0
  0
LINE
  5
142
330
36
100
AcDbEntity
  8
0
100
AcDbLine
 10
114.4465837163029
 20
-69.31716
 30
0.0
 11
114.4465837163029
 21
-33.31716
 31
0.0
  0
LINE
  5
143
330
36
100
AcDbEntity
  8
0
 62
     3
100
AcDbLine
 10
192.5160301513831
 20
-33.31716
 30
0.0
 11
192.5160301513831
 21
-69.31716
 31
0.0
  0
LINE
  5
144
330
36
100
AcDbEntity
  8
0
 62
     3
100
AcDbLine
 10
94.006261
 20
-33.31716
 30
0.0
 11
192.5160301513831
 21
-33.31716
 31
0.0
  0
CIRCLE
  5
14D
330
36
100
AcDbEntity
  8
0
100
AcDbCircle
 10
114.3481904497298
 20
117.0386870689281
 30
0.0
 40
5.0
  0
TEXT
  5
14E
330
36
100
AcDbEntity
  8
0
 62
     4
100
AcDbText
 10
112.1153861464763
 20
113.9311555020458
 30
0.0
 40
6.299999999999998
  1
2
  7
高6.3
100
AcDbText
  0
TEXT
  5
14F
330
36
100
AcDbEntity
  8
0
 62
     3
100
AcDbText
 10
166.4880993921358
 20
-142.340675
 30
0.0
 40
6.299999999999998
  1
TBO-300
 41
0.8
  7
高6.3
100
AcDbText
  0
ARC
  5
150
330
36
100
AcDbEntity
  8
0
 62
     3
100
AcDbCircle
 10
50.14267199999999
 20
101.112019
 30
0.0
 40
0.75
100
AcDbArc
 50
90.0
 51
180.0
  0
LINE
  5
151
330
36
100
AcDbEntity
  8
0
 62
     3
100
AcDbLine
 10
-61.66366800000001
 20
77.14277800000002
 30
0.0
 11
-61.66366800000001
 21
76.31131899999998
 31
0.0
  0
LINE
  5
178
330
36
100
AcDbEntity
  8
0
100
AcDbLine
 10
-52.92279399999999
 20
1.274852
 30
0.0
 11
-52.92279399999999
 21
-1.681948
 31
0.0
  0
LINE
  5
179
330
36
100
AcDbEntity
  8
0
100
AcDbLine
 10
-52.92279399999999
 20
-1.681948
 30
0.0
 11
-50.985373
 21
1.014162
 31
0.0
  0
LINE
  5
17A
330
36
100
AcDbEntity
  8
0
100
AcDbLine
 10
-52.92279399999999
 20
1.274852
 30
0.0
 11
-54.719285
 21
-1.229322999999999
 31
0.0
  0
ARC
  5
17B
330
36
100
AcDbEntity
  8
0
100
AcDbCircle
 10
-71.98531599999999
 20
100.573037
 30
0.0
 40
0.75
100
AcDbArc
 50
280.193797
 51
2.282375
  0
ARC
  5
17C
330
36
100
AcDbEntity
  8
0
100
AcDbCircle
 10
-77.161928
 20
129.361319
 30
0.0
 40
30.0
100
AcDbArc
 50
259.806203
 51
280.193797
  0
ARC
  5
17D
330
36
100
AcDbEntity
  8
0
100
AcDbCircle
 10
-82.33854
 20
100.573037
 30
0.0
 40
0.75
100
AcDbArc
 50
177.717625
 51
259.806203
  0
LINE
  5
17E
330
36
100
AcDbEntity
  8
0
100
AcDbLine
 10
84.37596957885141
 20
-45.437208
 30
0.0
 11
48.81585557885141
 21
-45.437208
 31
0.0
  0
LINE
  5
17F
330
36
100
AcDbEntity
  8
0
100
AcDbLine
 10
48.81585557885141
 20
-45.437208
 30
0.0
 11
32.39336157885141
 21
-45.437208
 31
0.0
  0
LINE
  5
180
330
36
100
AcDbEntity
  8
0
100
AcDbLine
 10
35.43336157885141
 20
-55.561604
 30
0.0
 11
35.43336157885141
 21
-57.801604
 31
0.0
  0
LINE
  5
181
330
36
100
AcDbEntity
  8
0
100
AcDbLine
 10
29.35336157885141
 20
-55.561604
 30
0.0
 11
35.43336157885141
 21
-55.561604
 31
0.0
  0
LINE
  5
182
330
36
100
AcDbEntity
  8
0
100
AcDbLine
 10
29.35336157885141
 20
-57.801604
 30
0.0
 11
35.43336157885141
 21
-57.801604
 31
0.0
  0
LINE
  5
183
330
36
100
AcDbEntity
  8
0
100
AcDbLine
 10
29.35336157885141
 20
-55.561604
 30
0.0
 11
29.35336157885141
 21
-57.801604
 31
0.0
  0
LINE
  5
184
330
36
100
AcDbEntity
  8
0
100
AcDbLine
 10
26.79336157885141
 20
-60.361604
 30
0.0
 11
26.79336157885141
 21
-66.441604
 31
0.0
  0
LINE
  5
185
330
36
100
AcDbEntity
  8
0
100
AcDbLine
 10
24.71336157885141
 20
-60.361604
 30
0.0
 11
26.79336157885141
 21
-60.361604
 31
0.0
  0
LINE
  5
186
330
36
100
AcDbEntity
  8
0
100
AcDbLine
 10
37.99336157885141
 20
-60.361604
 30
0.0
 11
40.0733615788514
 21
-60.361604
 31
0.0
  0
LINE
  5
187
330
36
100
AcDbEntity
  8
0
100
AcDbLine
 10
37.99336157885141
 20
-60.361604
 30
0.0
 11
37.99336157885141
 21
-66.441604
 31
0.0
  0
LINE
  5
188
330
36
100
AcDbEntity
  8
0
100
AcDbLine
 10
40.0733615788514
 20
-60.361604
 30
0.0
 11
40.0733615788514
 21
-66.441604
 31
0.0
  0
LINE
  5
189
330
36
100
AcDbEntity
  8
0
100
AcDbLine
 10
37.99336157885141
 20
-66.441604
 30
0.0
 11
40.0733615788514
 21
-66.441604
 31
0.0
  0
LINE
  5
18A
330
36
100
AcDbEntity
  8
0
100
AcDbLine
 10
33.43336157885141
 20
-66.441604
 30
0.0
 11
33.43336157885141
 21
-72.52160400000002
 31
0.0
  0
LINE
  5
18B
330
36
100
AcDbEntity
  8
0
100
AcDbLine
 10
31.35336157885141
 20
-66.441604
 30
0.0
 11
33.43336157885141
 21
-66.441604
 31
0.0
  0
LINE
  5
18C
330
36
100
AcDbEntity
  8
0
100
AcDbLine
 10
31.35336157885141
 20
-66.441604
 30
0.0
 11
31.35336157885141
 21
-72.52160400000002
 31
0.0
  0
LINE
  5
18D
330
36
100
AcDbEntity
  8
0
100
AcDbLine
 10
24.71336157885141
 20
-66.441604
 30
0.0
 11
26.79336157885141
 21
-66.441604
 31
0.0
  0
LINE
  5
18E
330
36
100
AcDbEntity
  8
0
100
AcDbLine
 10
24.71336157885141
 20
-60.361604
 30
0.0
 11
24.71336157885141
 21
-66.441604
 31
0.0
  0
LINE
  5
18F
330
36
100
AcDbEntity
  8
0
100
AcDbLine
 10
31.43336157885141
 20
-72.52160400000002
 30
0.0
 11
33.43336157885141
 21
-72.52160400000002
 31
0.0
  0
LINE
  5
190
330
36
100
AcDbEntity
  8
0
100
AcDbLine
 10
84.37596957885141
 20
-63.40160400000001
 30
0.0
 11
40.0733615788514
 21
-63.40160400000001
 31
0.0
  0
LINE
  5
191
330
36
100
AcDbEntity
  8
0
100
AcDbLine
 10
32.39336157885141
 20
-45.437208
 30
0.0
 11
32.39336157885141
 21
-55.561604
 31
0.0
  0
LINE
  5
192
330
36
100
AcDbEntity
  8
0
100
AcDbLine
 10
119.996739
 20
-31.95849519754393
 30
0.0
 11
156.8052707812476
 21
-31.95849519754393
 31
0.0
  0
LINE
  5
193
330
36
100
AcDbEntity
  8
0
100
AcDbLine
 10
137.275716
 20
-82.81080414801175
 30
0.0
 11
137.275716
 21
-85.18580414801176
 31
0.0
  0
LINE
  5
194
330
36
100
AcDbEntity
  8
0
100
AcDbLine
 10
136.463216
 20
-82.81080414801175
 30
0.0
 11
137.275716
 21
-82.81080414801175
 31
0.0
  0
LINE
  5
195
330
36
100
AcDbEntity
  8
0
100
AcDbLine
 10
136.463216
 20
-82.81080414801175
 30
0.0
 11
136.463216
 21
-85.18580414801176
 31
0.0
  0
LINE
  5
196
330
36
100
AcDbEntity
  8
0
100
AcDbLine
 10
139.056966
 20
-82.81080414801175
 30
0.0
 11
139.869466
 21
-82.81080414801175
 31
0.0
  0
LINE
  5
197
330
36
100
AcDbEntity
  8
0
100
AcDbLine
 10
139.056966
 20
-80.43580414801175
 30
0.0
 11
139.056966
 21
-82.81080414801175
 31
0.0
  0
LINE
  5
198
330
36
100
AcDbEntity
  8
0
100
AcDbLine
 10
139.869466
 20
-80.43580414801175
 30
0.0
 11
139.869466
 21
-82.81080414801175
 31
0.0
  0
LINE
  5
199
330
36
100
AcDbEntity
  8
0
100
AcDbLine
 10
139.056966
 20
-80.43580414801175
 30
0.0
 11
139.869466
 21
-80.43580414801175
 31
0.0
  0
LINE
  5
19A
330
36
100
AcDbEntity
  8
0
100
AcDbLine
 10
135.681966
 20
-79.43580414801175
 30
0.0
 11
138.056966
 21
-79.43580414801175
 31
0.0
  0
LINE
  5
19B
330
36
100
AcDbEntity
  8
0
100
AcDbLine
 10
138.056966
 20
-78.56080414801176
 30
0.0
 11
138.056966
 21
-79.43580414801175
 31
0.0
  0
LINE
  5
19C
330
36
100
AcDbEntity
  8
0
100
AcDbLine
 10
135.681966
 20
-78.56080414801176
 30
0.0
 11
135.681966
 21
-79.43580414801175
 31
0.0
  0
LINE
  5
19D
330
36
100
AcDbEntity
  8
0
100
AcDbLine
 10
134.681966
 20
-80.43580414801175
 30
0.0
 11
134.681966
 21
-82.81080414801175
 31
0.0
  0
LINE
  5
19E
330
36
100
AcDbEntity
  8
0
100
AcDbLine
 10
133.869466
 20
-80.43580414801175
 30
0.0
 11
134.681966
 21
-80.43580414801175
 31
0.0
  0
LINE
  5
19F
330
36
100
AcDbEntity
  8
0
100
AcDbLine
 10
133.869466
 20
-82.81080414801175
 30
0.0
 11
134.681966
 21
-82.81080414801175
 31
0.0
  0
LINE
  5
1A0
330
36
100
AcDbEntity
  8
0
100
AcDbLine
 10
133.869466
 20
-80.43580414801175
 30
0.0
 11
133.869466
 21
-82.81080414801175
 31
0.0
  0
LINE
  5
1A1
330
36
100
AcDbEntity
  8
0
100
AcDbLine
 10
135.681966
 20
-78.56080414801176
 30
0.0
 11
138.056966
 21
-78.56080414801176
 31
0.0
  0
LINE
  5
1A2
330
36
100
AcDbEntity
  8
0
100
AcDbLine
 10
136.494466
 20
-85.18580414801176
 30
0.0
 11
137.275716
 21
-85.18580414801176
 31
0.0
  0
TEXT
  5
1A3
330
36
100
AcDbEntity
  8
0
 62
     3
100
AcDbText
 10
95.66319
 20
-74.80588514801178
 30
0.0
 40
3.2
  1
※100V入力時、付属品のトランス用アダプターを使用
  7
高3.2
100
AcDbText
  0
LINE
  5
1A4
330
36
100
AcDbEntity
  8
0
 62
     3
100
AcDbLine
 10
128.976571
 20
-85.02054714801177
 30
0.0
 11
130.874108
 21
-82.34447714801175
 31
0.0
  0
LINE
  5
1A5
330
36
100
AcDbEntity
  8
0
 62
     3
100
AcDbLine
 10
128.976571
 20
-83.59447714801175
 30
0.0
 11
128.976571
 21
-85.02054714801177
 31
0.0
  0
LINE
  5
1A6
330
36
100
AcDbEntity
  8
0
 62
     3
100
AcDbLine
 10
126.954381
 20
-81.09447714801175
 30
0.0
 11
128.976571
 21
-81.09447714801175
 31
0.0
  0
LINE
  5
1A7
330
36
100
AcDbEntity
  8
0
 62
     3
100
AcDbLine
 10
128.976571
 20
-81.09447714801175
 30
0.0
 11
128.976571
 21
-79.66840814801177
 31
0.0
  0
LINE
  5
1A8
330
36
100
AcDbEntity
  8
0
 62
     3
100
AcDbLine
 10
128.976571
 20
-79.66840814801177
 30
0.0
 11
130.874108
 21
-82.34447714801175
 31
0.0
  0
LINE
  5
1A9
330
36
100
AcDbEntity
  8
0
 62
     3
100
AcDbLine
 10
126.954381
 20
-83.59447714801175
 30
0.0
 11
128.976571
 21
-83.59447714801175
 31
0.0
  0
LINE
  5
1C6
330
36
100
AcDbEntity
  8
0
 62
     3
100
AcDbLine
 10
187.689438
 20
-126.458911
 30
0.0
 11
187.689438
 21
-103.458911
 31
0.0
  0
LINE
  5
1C8
330
36
100
AcDbEntity
  8
0
 62
     3
100
AcDbLine
 10
134.635829
 20
-133.458911
 30
0.0
 11
134.635829
 21
-119.458911
 31
0.0
  0
TEXT
  5
1CA
330
36
100
AcDbEntity
  8
0
 62
     3
100
AcDbText
 10
163.699756
 20
-107.253795
 30
0.0
 40
2.0
  1
A
 41
0.7
100
AcDbText
  0
TEXT
  5
1CB
330
36
100
AcDbEntity
  8
0
 62
     3
100
AcDbText
 10
166.235042
 20
-107.253795
 30
0.0
 40
2.0
  1
P
 41
0.7
100
AcDbText
  0
TEXT
  5
1CC
330
36
100
AcDbEntity
  8
0
 62
     3
100
AcDbText
 10
168.770329
 20
-107.253795
 30
0.0
 40
2.0
  1
P
 41
0.7
100
AcDbText
  0
TEXT
  5
1CD
330
36
100
AcDbEntity
  8
0
 62
     3
100
AcDbText
 10
171.305615
 20
-107.253795
 30
0.0
 40
2.0
  1
D
 41
0.7
100
AcDbText
  0
TEXT
  5
1CE
330
36
100
AcDbEntity
  8
0
 62
     3
100
AcDbText
 10
176.674298
 20
-107.253795
 30
0.0
 40
2.0
  1
C
 41
0.7
100
AcDbText
  0
TEXT
  5
1CF
330
36
100
AcDbEntity
  8
0
 62
     3
100
AcDbText
 10
179.209584
 20
-107.253795
 30
0.0
 40
2.0
  1
H
 41
0.7
100
AcDbText
  0
TEXT
  5
1D0
330
36
100
AcDbEntity
  8
0
 62
     3
100
AcDbText
 10
181.74487
 20
-107.253795
 30
0.0
 40
2.0
  1
C
 41
0.7
100
AcDbText
  0
TEXT
  5
1D1
330
36
100
AcDbEntity
  8
0
 62
     3
100
AcDbText
 10
184.280157
 20
-107.253795
 30
0.0
 40
2.0
  1
K
 41
0.7
100
AcDbText
  0
TEXT
  5
1D2
330
36
100
AcDbEntity
  8
0
 62
     3
100
AcDbText
 10
189.954123
 20
-107.253795
 30
0.0
 40
2.0
  1
DESN
 41
1.216762999999998
100
AcDbText
  0
TEXT
  5
1D3
330
36
100
AcDbEntity
  8
0
 62
     3
100
AcDbText
 10
104.947764
 20
-136.600293
 30
0.0
 40
2.0
  1
NICHIDO IND.CO.LTD
 41
1.274876
100
AcDbText
  0
LINE
  5
1D4
330
36
100
AcDbEntity
  8
0
 62
     3
100
AcDbLine
 10
115.330794
 20
-103.458911
 30
0.0
 11
115.330794
 21
-126.458911
 31
0.0
  0
LINE
  5
1D5
330
36
100
AcDbEntity
  8
0
 62
     3
100
AcDbLine
 10
161.689438
 20
-103.458911
 30
0.0
 11
161.689438
 21
-143.124634
 31
0.0
  0
LINE
  5
1DA
330
36
100
AcDbEntity
  8
0
 62
     3
100
AcDbLine
 10
174.689438
 20
-103.458911
 30
0.0
 11
174.689438
 21
-133.458911
 31
0.0
  0
TEXT
  5
1DB
330
36
100
AcDbEntity
  8
0
 62
     3
100
AcDbText
 10
162.801883
 20
-132.594224
 30
0.0
 40
3.2
  1
作成日
 41
1.017225999999997
100
AcDbText
  0
LINE
  5
1DC
330
36
100
AcDbEntity
  8
0
 62
     3
100
AcDbLine
 10
213.388802
 20
-103.458911
 30
0.0
 11
102.085359
 21
-103.458911
 31
0.0
  0
LINE
  5
1DD
330
36
100
AcDbEntity
  8
0
 62
     3
100
AcDbLine
 10
200.689438
 20
-126.458911
 30
0.0
 11
200.689438
 21
-103.458911
 31
0.0
  0
TEXT
  5
1DE
330
36
100
AcDbEntity
  8
0
 62
     3
100
AcDbText
 10
204.013241
 20
-107.167977
 30
0.0
 40
1.8
  1
D
 41
0.666667
100
AcDbText
  0
TEXT
  5
1DF
330
36
100
AcDbEntity
  8
0
 62
     3
100
AcDbText
 10
206.82987
 20
-107.167977
 30
0.0
 40
1.8
  1
E
 41
0.666667
100
AcDbText
  0
TEXT
  5
1E0
330
36
100
AcDbEntity
  8
0
 62
     3
100
AcDbText
 10
209.646498
 20
-107.167977
 30
0.0
 40
1.8
  1
F
 41
0.666667
100
AcDbText
  0
TEXT
  5
1E1
330
36
100
AcDbEntity
  8
0
 62
     3
100
AcDbText
 10
204.013241
 20
-111.16053
 30
0.0
 40
3.2
  1
製図
 41
1.076369
100
AcDbText
  0
LINE
  5
1E2
330
36
100
AcDbEntity
  8
0
 62
     3
100
AcDbLine
 10
102.085359
 20
-103.458911
 30
0.0
 11
102.085359
 21
-143.124634
 31
0.0
  0
TEXT
  5
1E3
330
36
100
AcDbEntity
  8
0
 62
     3
100
AcDbText
 10
103.462012
 20
-142.792168
 30
0.0
 40
5.0
  1
日動工業株式会社
 41
0.833333
100
AcDbText
  0
LINE
  5
1E4
330
36
100
AcDbEntity
  8
0
 62
     3
100
AcDbLine
 10
144.967763
 20
-119.458911
 30
0.0
 11
144.967763
 21
-143.124634
 31
0.0
  0
LINE
  5
1E5
330
36
100
AcDbEntity
  8
0
 62
     3
100
AcDbLine
 10
144.967763
 20
-138.291773
 30
0.0
 11
161.689438
 21
-138.291773
 31
0.0
  0
TEXT
  5
1E6
330
36
100
AcDbEntity
  8
0
 62
     3
100
AcDbText
 10
145.554365
 20
-137.475342
 30
0.0
 40
3.2
  1
出図コード
 41
0.8356860000000001
100
AcDbText
  0
LINE
  5
1E8
330
36
100
AcDbEntity
  8
0
 62
     3
100
AcDbLine
 10
102.085359
 20
-133.458911
 30
0.0
 11
213.388802
 21
-133.458911
 31
0.0
  0
LINE
  5
1EA
330
36
100
AcDbEntity
  8
0
 62
     3
100
AcDbLine
 10
102.0853589999999
 20
-112.458911
 30
0.0
 11
213.388802
 21
-112.458911
 31
0.0
  0
LINE
  5
1F0
330
36
100
AcDbEntity
  8
0
 62
     3
100
AcDbLine
 10
102.085359
 20
-119.458911
 30
0.0
 11
161.689438
 21
-119.458911
 31
0.0
  0
LINE
  5
1F6
330
36
100
AcDbEntity
  8
0
 62
     3
100
AcDbLine
 10
102.085359
 20
-126.458911
 30
0.0
 11
213.388802
 21
-126.458911
 31
0.0
  0
TEXT
  5
1F7
330
36
100
AcDbEntity
  8
0
 62
     3
100
AcDbText
 10
145.421817
 20
-142.5930897250982
 30
0.0
 40
3.2
  1
ZK-A3X
 41
0.8112849999999999
100
AcDbText
  0
TEXT
  5
1F8
330
36
100
AcDbEntity
  8
0
 62
     3
100
AcDbText
 10
103.902756
 20
-107.289385
 30
0.0
 40
2.0
  1
CONPONENTS
 41
0.5331600000000001
100
AcDbText
  0
TEXT
  5
1F9
330
36
100
AcDbEntity
  8
0
 62
     3
100
AcDbText
 10
103.553029
 20
-126.221562
 30
0.0
 40
3.0
  1
材
 41
0.833333
100
AcDbText
  0
TEXT
  5
1FA
330
36
100
AcDbEntity
  8
0
 62
     3
100
AcDbText
 10
111.088672
 20
-126.221562
 30
0.0
 40
3.0
  1
質
 41
0.833333
100
AcDbText
  0
TEXT
  5
1FB
330
36
100
AcDbEntity
  8
0
 62
     3
100
AcDbText
 10
103.6411
 20
-115.597038
 30
0.0
 40
2.0
  1
MODEL
 41
1.031072999999999
100
AcDbText
  0
TEXT
  5
1FC
330
36
100
AcDbEntity
  8
0
 62
     3
100
AcDbText
 10
103.553029
 20
-122.539254
 30
0.0
 40
2.0
  1
MATERIAL
 41
0.659278
100
AcDbText
  0
TEXT
  5
1FD
330
36
100
AcDbEntity
  8
0
 62
     3
100
AcDbText
 10
134.86031
 20
-126.221562
 30
0.0
 40
3.0
  1
備
 41
0.833333
100
AcDbText
  0
TEXT
  5
1FE
330
36
100
AcDbEntity
  8
0
 62
     3
100
AcDbText
 10
141.593311
 20
-126.221562
 30
0.0
 40
3.0
  1
考
 41
0.833333
100
AcDbText
  0
TEXT
  5
1FF
330
36
100
AcDbEntity
  8
0
 62
     3
100
AcDbText
 10
135.1506427214374
 20
-122.539254
 30
0.0
 40
2.0
  1
REMARKS
 41
0.675794
100
AcDbText
  0
TEXT
  5
200
330
36
100
AcDbEntity
  8
0
 62
     3
100
AcDbText
 10
105.142758
 20
-129.459375
 30
0.0
 40
2.0
  1
3AD
 41
1.42614
100
AcDbText
  0
TEXT
  5
201
330
36
100
AcDbEntity
  8
0
 62
     3
100
AcDbText
 10
114.453738
 20
-129.293641
 30
0.0
 40
2.0
  1
ANGLE
 41
1.669883999999995
100
AcDbText
  0
TEXT
  5
202
330
36
100
AcDbEntity
  8
0
 62
     3
100
AcDbText
 10
135.387625
 20
-129.670482
 30
0.0
 40
2.0
  1
SCALE
 41
0.7719630000000001
100
AcDbText
  0
TEXT
  5
203
330
36
100
AcDbEntity
  8
0
 62
     3
100
AcDbText
 10
104.828888
 20
-133.458911
 30
0.0
 40
3.0
  1
第
 41
0.833333
100
AcDbText
  0
TEXT
  5
204
330
36
100
AcDbEntity
  8
0
 62
     3
100
AcDbText
 10
112.615738
 20
-133.458911
 30
0.0
 40
3.0
  1
三
 41
0.833333
100
AcDbText
  0
TEXT
  5
205
330
36
100
AcDbEntity
  8
0
 62
     3
100
AcDbText
 10
120.402588
 20
-133.458911
 30
0.0
 40
3.0
  1
角
 41
0.833333
100
AcDbText
  0
TEXT
  5
206
330
36
100
AcDbEntity
  8
0
 62
     3
100
AcDbText
 10
128.189438
 20
-133.458911
 30
0.0
 40
3.0
  1
法
 41
0.833333
100
AcDbText
  0
TEXT
  5
207
330
36
100
AcDbEntity
  8
0
 62
     3
100
AcDbText
 10
135.25083
 20
-133.170482
 30
0.0
 40
3.0
  1
尺
 41
0.833333
100
AcDbText
  0
TEXT
  5
208
330
36
100
AcDbEntity
  8
0
 62
     3
100
AcDbText
 10
141.983832
 20
-133.170482
 30
0.0
 40
3.0
  1
度
 41
0.833333
100
AcDbText
  0
TEXT
  5
209
330
36
100
AcDbEntity
  8
0
 62
     3
100
AcDbText
 10
164.567102
 20
-111.001182
 30
0.0
 40
3.0
  1
承認
 41
1.089472999999999
100
AcDbText
  0
TEXT
  5
20A
330
36
100
AcDbEntity
  8
0
 62
     3
100
AcDbText
 10
177.809983
 20
-111.058911
 30
0.0
 40
3.0
  1
検図
 41
0.931761
100
AcDbText
  0
TEXT
  5
20B
330
36
100
AcDbEntity
  8
0
 62
     3
100
AcDbText
 10
190.810379
 20
-111.058911
 30
0.0
 40
3.0
  1
設
 41
0.833333
100
AcDbText
  0
TEXT
  5
20C
330
36
100
AcDbEntity
  8
0
 62
     3
100
AcDbText
 10
195.300247
 20
-111.058911
 30
0.0
 40
3.0
  1
計
 41
0.833333
100
AcDbText
  0
TEXT
  5
20D
330
36
100
AcDbEntity
  8
0
 62
     3
100
AcDbText
 10
103.972863
 20
-110.886359
 30
0.0
 40
3.0
  1
品
 41
0.833333
100
AcDbText
  0
TEXT
  5
20E
330
36
100
AcDbEntity
  8
0
 62
     3
100
AcDbText
 10
111.508505
 20
-110.886359
 30
0.0
 40
3.0
  1
名
 41
0.833333
100
AcDbText
  0
TEXT
  5
20F
330
36
100
AcDbEntity
  8
0
 62
     3
100
AcDbText
 10
103.6411
 20
-119.0973766990705
 30
0.0
 40
3.0
  1
型
 41
0.833333
100
AcDbText
  0
TEXT
  5
210
330
36
100
AcDbEntity
  8
0
 62
     3
100
AcDbText
 10
111.189191
 20
-119.0973766990705
 30
0.0
 40
3.0
  1
式
 41
0.833333
100
AcDbText
  0
LINE
  5
217
330
36
100
AcDbEntity
  8
0
 62
     3
100
AcDbLine
 10
-189.013122
 20
-2.624633999999999
 30
0.0
 11
-191.611198
 21
-4.124633999999998
 31
0.0
  0
LINE
  5
218
330
36
100
AcDbEntity
  8
0
 62
     3
100
AcDbLine
 10
-189.013122
 20
-2.624633999999999
 30
0.0
 11
-191.611198
 21
-1.124633999999999
 31
0.0
  0
LINE
  5
219
330
36
100
AcDbEntity
  8
0
 62
     3
100
AcDbLine
 10
-191.611198
 20
-4.124633999999998
 30
0.0
 11
-191.611198
 21
-1.124633999999999
 31
0.0
  0
LINE
  5
21A
330
36
100
AcDbEntity
  8
0
 62
     3
100
AcDbLine
 10
-176.611198
 20
133.875366
 30
0.0
 11
-176.611198
 21
-143.124634
 31
0.0
  0
LINE
  5
21B
330
36
100
AcDbEntity
  8
0
 62
     3
100
AcDbLine
 10
213.388802
 20
-143.124634
 30
0.0
 11
213.388802
 21
133.875366
 31
0.0
  0
LINE
  5
21C
330
36
100
AcDbEntity
  8
0
 62
     3
100
AcDbLine
 10
-176.611198
 20
133.875366
 30
0.0
 11
213.388802
 21
133.875366
 31
0.0
  0
LINE
  5
21D
330
36
100
AcDbEntity
  8
0
 62
     3
100
AcDbLine
 10
-176.611198
 20
-143.124634
 30
0.0
 11
213.388802
 21
-143.124634
 31
0.0
  0
ARC
  5
21F
330
36
100
AcDbEntity
  8
0
 62
     3
100
AcDbCircle
 10
97.89267200000001
 20
-198.337981
 30
0.0
 40
300.0
100
AcDbArc
 50
87.65794300000001
 51
87.831778
  0
CIRCLE
  5
220
330
36
100
AcDbEntity
  8
0
 62
     3
100
AcDbCircle
 10
-123.907449
 20
50.461369
 30
0.0
 40
0.5
  0
TEXT
  5
221
330
36
100
AcDbEntity
  8
0
 62
     3
100
AcDbText
 10
-109.516811
 20
14.872736
 30
0.0
 40
4.724999999999996
  1
200V
100
AcDbText
  0
TEXT
  5
222
330
36
100
AcDbEntity
  8
0
 62
     3
100
AcDbText
 10
-60.253835
 20
56.69177099999998
 30
0.0
 40
4.799999999999998
  1
ＴＢＯー３００
 41
0.833333
100
AcDbText
  0
LINE
  5
225
330
36
100
AcDbEntity
  8
0
 62
     3
100
AcDbLine
 10
43.392672
 20
19.312019
 30
0.0
 11
147.892672
 21
19.312019
 31
0.0
  0
LINE
  5
226
330
36
100
AcDbEntity
  8
0
 62
     3
100
AcDbLine
 10
147.892672
 20
74.36201899999997
 30
0.0
 11
147.892672
 21
-5.737980999999997
 31
0.0
  0
LINE
  5
229
330
36
100
AcDbEntity
  8
0
 62
     3
100
AcDbLine
 10
127.902672
 20
-7.687980999999997
 30
0.0
 11
127.642672
 21
-5.737980999999997
 31
0.0
  0
LINE
  5
22A
330
36
100
AcDbEntity
  8
0
 62
     3
100
AcDbLine
 10
127.902672
 20
-7.687980999999997
 30
0.0
 11
128.584816
 21
-12.804063
 31
0.0
  0
ARC
  5
22B
330
36
100
AcDbEntity
  8
0
 62
     3
100
AcDbCircle
 10
129.08043
 20
-12.737981
 30
0.0
 40
0.5
100
AcDbArc
 50
187.594643
 51
270.0
  0
LINE
  5
22C
330
36
100
AcDbEntity
  8
0
 62
     3
100
AcDbLine
 10
138.704914
 20
-13.237981
 30
0.0
 11
129.08043
 21
-13.237981
 31
0.0
  0
LINE
  5
22D
330
36
100
AcDbEntity
  8
0
 62
     3
100
AcDbLine
 10
139.882672
 20
-7.687980999999997
 30
0.0
 11
139.200528
 21
-12.804063
 31
0.0
  0
ARC
  5
22E
330
36
100
AcDbEntity
  8
0
 62
     3
100
AcDbCircle
 10
138.704914
 20
-12.737981
 30
0.0
 40
0.5
100
AcDbArc
 50
270.0
 51
352.405357
  0
LINE
  5
22F
330
36
100
AcDbEntity
  8
0
 62
     3
100
AcDbLine
 10
139.882672
 20
-7.687980999999997
 30
0.0
 11
140.142672
 21
-5.737980999999997
 31
0.0
  0
LINE
  5
230
330
36
100
AcDbEntity
  8
0
 62
     3
100
AcDbLine
 10
43.392672
 20
74.36201899999997
 30
0.0
 11
147.892672
 21
74.36201899999997
 31
0.0
  0
LINE
  5
231
330
36
100
AcDbEntity
  8
0
 62
     3
100
AcDbLine
 10
74.62366299999998
 20
83.106813
 30
0.0
 11
72.39267199999997
 21
75.86201899999998
 31
0.0
  0
ARC
  5
232
330
36
100
AcDbEntity
  8
0
 62
     3
100
AcDbCircle
 10
86.450411
 20
81.428126
 30
0.0
 40
20.0
100
AcDbArc
 50
92.342057
 51
134.150915
  0
LINE
  5
233
330
36
100
AcDbEntity
  8
0
 62
     3
100
AcDbLine
 10
72.51939799999998
 20
95.77827799999999
 30
0.0
 11
66.86053199999999
 21
90.28469599999999
 31
0.0
  0
ARC
  5
234
330
36
100
AcDbEntity
  8
0
 62
     3
100
AcDbCircle
 10
81.79149800000002
 20
80.89952
 30
0.0
 40
7.5
100
AcDbArc
 50
93.29068300000001
 51
162.884095
  0
ARC
  5
235
330
36
100
AcDbEntity
  8
0
 62
     3
100
AcDbCircle
 10
97.89267200000001
 20
-199.137981
 30
0.0
 40
288.0
100
AcDbArc
 50
86.709317
 51
93.29068300000001
  0
ARC
  5
236
330
36
100
AcDbEntity
  8
0
 62
     3
100
AcDbCircle
 10
94.72255899999998
 20
61.584392
 30
0.0
 40
40.0
100
AcDbArc
 50
134.150915
 51
142.167557
  0
ARC
  5
237
330
36
100
AcDbEntity
  8
0
 62
     3
100
AcDbCircle
 10
97.89267200000001
 20
-198.337981
 30
0.0
 40
300.0
100
AcDbArc
 50
87.831778
 51
92.34961099999999
  0
ARC
  5
238
330
36
100
AcDbEntity
  8
0
 62
     3
100
AcDbCircle
 10
109.334933
 20
81.428126
 30
0.0
 40
20.0
100
AcDbArc
 50
45.849085
 51
87.65794300000001
  0
ARC
  5
239
330
36
100
AcDbEntity
  8
0
 62
     3
100
AcDbCircle
 10
86.621535
 20
68.504473
 30
0.0
 40
37.5
100
AcDbArc
 50
11.314904
 51
22.916905
  0
ARC
  5
23A
330
36
100
AcDbEntity
  8
0
 62
     3
100
AcDbCircle
 10
113.993846
 20
80.89952
 30
0.0
 40
7.5
100
AcDbArc
 50
17.11590499999999
 51
86.709317
  0
ARC
  5
23B
330
36
100
AcDbEntity
  8
0
 62
     3
100
AcDbCircle
 10
32.892672
 20
73.962019
 30
0.0
 40
2.5
100
AcDbArc
 50
90.0
 51
180.0
  0
LINE
  5
23C
330
36
100
AcDbEntity
  8
0
 62
     3
100
AcDbLine
 10
42.892672
 20
76.462019
 30
0.0
 11
32.892672
 21
76.462019
 31
0.0
  0
ARC
  5
23D
330
36
100
AcDbEntity
  8
0
 62
     3
100
AcDbCircle
 10
42.892672
 20
75.962019
 30
0.0
 40
0.5
100
AcDbArc
 50
0.0
 51
90.0
  0
ARC
  5
23E
330
36
100
AcDbEntity
  8
0
 62
     3
100
AcDbCircle
 10
42.892672
 20
-7.337981
 30
0.0
 40
0.5
100
AcDbArc
 50
270.0
 51
0.0
  0
LINE
  5
23F
330
36
100
AcDbEntity
  8
0
 62
     3
100
AcDbLine
 10
42.892672
 20
-7.837981
 30
0.0
 11
32.892672
 21
-7.837981
 31
0.0
  0
LINE
  5
240
330
36
100
AcDbEntity
  8
0
 62
     3
100
AcDbLine
 10
57.90267199999998
 20
-7.687980999999997
 30
0.0
 11
58.58481600000001
 21
-12.804063
 31
0.0
  0
LINE
  5
241
330
36
100
AcDbEntity
  8
0
 62
     3
100
AcDbLine
 10
57.90267199999998
 20
-7.687980999999997
 30
0.0
 11
57.64267199999999
 21
-5.737980999999997
 31
0.0
  0
LINE
  5
242
330
36
100
AcDbEntity
  8
0
 62
     3
100
AcDbLine
 10
43.392672
 20
-7.337981
 30
0.0
 11
43.392672
 21
75.962019
 31
0.0
  0
LINE
  5
243
330
36
100
AcDbEntity
  8
0
 62
     3
100
AcDbLine
 10
68.704914
 20
-13.237981
 30
0.0
 11
59.08043000000001
 21
-13.237981
 31
0.0
  0
ARC
  5
244
330
36
100
AcDbEntity
  8
0
 62
     3
100
AcDbCircle
 10
68.704914
 20
-12.737981
 30
0.0
 40
0.5
100
AcDbArc
 50
270.0
 51
352.405357
  0
LINE
  5
245
330
36
100
AcDbEntity
  8
0
 62
     3
100
AcDbLine
 10
69.882672
 20
-7.687980999999997
 30
0.0
 11
69.200528
 21
-12.804063
 31
0.0
  0
LINE
  5
246
330
36
100
AcDbEntity
  8
0
 62
     3
100
AcDbLine
 10
69.882672
 20
-7.687980999999997
 30
0.0
 11
70.14267199999999
 21
-5.737980999999997
 31
0.0
  0
LINE
  5
247
330
36
100
AcDbEntity
  8
0
 62
     3
100
AcDbLine
 10
43.392672
 20
-5.737980999999997
 30
0.0
 11
147.892672
 21
-5.737980999999997
 31
0.0
  0
ARC
  5
248
330
36
100
AcDbEntity
  8
0
 62
     3
100
AcDbCircle
 10
32.892672
 20
-5.337981
 30
0.0
 40
2.5
100
AcDbArc
 50
180.0
 51
270.0
  0
LINE
  5
249
330
36
100
AcDbEntity
  8
0
 62
     3
100
AcDbLine
 10
30.392672
 20
-5.337981
 30
0.0
 11
30.392672
 21
73.962019
 31
0.0
  0
LINE
  5
24A
330
36
100
AcDbEntity
  8
0
 62
     3
100
AcDbLine
 10
-33.897428
 20
-7.688680999999997
 30
0.0
 11
-33.215284
 21
-12.804763
 31
0.0
  0
ARC
  5
24B
330
36
100
AcDbEntity
  8
0
 62
     3
100
AcDbCircle
 10
-32.71967
 20
-12.738681
 30
0.0
 40
0.5
100
AcDbArc
 50
187.594643
 51
270.0
  0
LINE
  5
24C
330
36
100
AcDbEntity
  8
0
 62
     3
100
AcDbLine
 10
-23.095186
 20
-13.238681
 30
0.0
 11
-32.71967
 21
-13.238681
 31
0.0
  0
ARC
  5
24D
330
36
100
AcDbEntity
  8
0
 62
     3
100
AcDbCircle
 10
-23.095186
 20
-12.738681
 30
0.0
 40
0.5
100
AcDbArc
 50
270.0
 51
352.405357
  0
LINE
  5
24E
330
36
100
AcDbEntity
  8
0
 62
     3
100
AcDbLine
 10
-21.917428
 20
-7.688680999999997
 30
0.0
 11
-22.599572
 21
-12.804763
 31
0.0
  0
LINE
  5
24F
330
36
100
AcDbEntity
  8
0
 62
     3
100
AcDbLine
 10
-128.897428
 20
-7.688680999999997
 30
0.0
 11
-128.215284
 21
-12.804763
 31
0.0
  0
LINE
  5
250
330
36
100
AcDbEntity
  8
0
 62
     3
100
AcDbLine
 10
-127.71967
 20
-13.238681
 30
0.0
 11
-118.095186
 21
-13.238681
 31
0.0
  0
ARC
  5
251
330
36
100
AcDbEntity
  8
0
 62
     3
100
AcDbCircle
 10
-127.71967
 20
-12.738681
 30
0.0
 40
0.5
100
AcDbArc
 50
187.594643
 51
270.0
  0
ARC
  5
252
330
36
100
AcDbEntity
  8
0
 62
     3
100
AcDbCircle
 10
-118.095186
 20
-12.738681
 30
0.0
 40
0.5
100
AcDbArc
 50
270.0
 51
352.405357
  0
LINE
  5
253
330
36
100
AcDbEntity
  8
0
 62
     3
100
AcDbLine
 10
-116.917428
 20
-7.688680999999997
 30
0.0
 11
-117.599572
 21
-12.804763
 31
0.0
  0
ARC
  5
254
330
36
100
AcDbEntity
  8
0
 62
     3
100
AcDbCircle
 10
-113.307449
 20
64.66131899999999
 30
0.0
 40
0.5
100
AcDbArc
 50
0.0
 51
90.0
  0
LINE
  5
255
330
36
100
AcDbEntity
  8
0
 62
     3
100
AcDbLine
 10
-112.807449
 20
43.461319
 30
0.0
 11
-112.807449
 21
64.66131899999999
 31
0.0
  0
ARC
  5
256
330
36
100
AcDbEntity
  8
0
 62
     3
100
AcDbCircle
 10
-113.307449
 20
43.461319
 30
0.0
 40
0.5
100
AcDbArc
 50
270.0
 51
0.0
  0
LINE
  5
257
330
36
100
AcDbEntity
  8
0
 62
     3
100
AcDbLine
 10
-113.307449
 20
42.961319
 30
0.0
 11
-134.507449
 21
42.961319
 31
0.0
  0
ARC
  5
258
330
36
100
AcDbEntity
  8
0
 62
     3
100
AcDbCircle
 10
-134.507449
 20
43.461319
 30
0.0
 40
0.5
100
AcDbArc
 50
180.0
 51
270.0
  0
LINE
  5
259
330
36
100
AcDbEntity
  8
0
 62
     3
100
AcDbLine
 10
-135.007449
 20
43.461319
 30
0.0
 11
-135.007449
 21
64.66131899999999
 31
0.0
  0
ARC
  5
25A
330
36
100
AcDbEntity
  8
0
 62
     3
100
AcDbCircle
 10
-134.507449
 20
64.66131899999999
 30
0.0
 40
0.5
100
AcDbArc
 50
90.0
 51
180.0
  0
LINE
  5
25B
330
36
100
AcDbEntity
  8
0
 62
     3
100
AcDbLine
 10
-134.507449
 20
65.16131899999999
 30
0.0
 11
-113.307449
 21
65.16131899999999
 31
0.0
  0
LINE
  5
25C
330
36
100
AcDbEntity
  8
0
100
AcDbLine
 10
149.142672
 20
4.512019
 30
0.0
 11
149.142672
 21
14.012019
 31
0.0
  0
TEXT
  5
25D
330
36
100
AcDbEntity
  8
0
100
AcDbText
 10
-79.30375699999998
 20
54.668707
 30
0.0
 40
2.399999999999999
  1
アースチェック
 41
0.833333
100
AcDbText
  0
TEXT
  5
25E
330
36
100
AcDbEntity
  8
0
100
AcDbText
 10
-77.194276
 20
51.862206
 30
0.0
 40
2.399999999999999
  1
ランプ
 41
0.833333
100
AcDbText
  0
TEXT
  5
25F
330
36
100
AcDbEntity
  8
0
100
AcDbText
 10
-87.95428299999995
 20
51.757833
 30
0.0
 40
2.399999999999999
  1
ランプ
 41
0.833333
100
AcDbText
  0
TEXT
  5
260
330
36
100
AcDbEntity
  8
0
100
AcDbText
 10
-90.491155
 20
54.48141800000001
 30
0.0
 40
2.399999999999999
  1
電源表示
 41
0.833333
100
AcDbText
  0
TEXT
  5
261
330
36
100
AcDbEntity
  8
0
100
AcDbText
 10
-105.442595
 20
63.791179
 30
0.0
 40
2.399999999999999
  1
ブレーカー
 41
0.833333
100
AcDbText
  0
TEXT
  5
262
330
36
100
AcDbEntity
  8
0
100
AcDbText
 10
-129.538427
 20
65.706749
 30
0.0
 40
2.399999999999999
  1
入力電圧計
 41
0.833333
100
AcDbText
  0
TEXT
  5
263
330
36
100
AcDbEntity
  8
0
100
AcDbText
 10
-87.12080099999999
 20
40.086162
 30
0.0
 40
2.399999999999999
  1
テストボタン
 41
0.833333
100
AcDbText
  0
LINE
  5
264
330
36
100
AcDbEntity
  8
0
 62
     3
100
AcDbLine
 10
123.265946
 20
95.77827799999999
 30
0.0
 11
128.924812
 21
90.28469599999999
 31
0.0
  0
ARC
  5
265
330
36
100
AcDbEntity
  8
0
 62
     3
100
AcDbCircle
 10
59.08043000000001
 20
-12.737981
 30
0.0
 40
0.5
100
AcDbArc
 50
187.594643
 51
270.0
  0
ARC
  5
266
330
36
100
AcDbEntity
  8
0
 62
     3
100
AcDbCircle
 10
101.062785
 20
61.584392
 30
0.0
 40
40.0
100
AcDbArc
 50
37.832443
 51
45.849085
  0
LINE
  5
267
330
36
100
AcDbEntity
  8
0
100
AcDbLine
 10
149.142672
 20
14.012019
 30
0.0
 11
147.892672
 21
14.012019
 31
0.0
  0
LINE
  5
268
330
36
100
AcDbEntity
  8
0
100
AcDbLine
 10
149.142672
 20
4.512019
 30
0.0
 11
147.892672
 21
4.512019
 31
0.0
  0
CIRCLE
  5
269
330
36
100
AcDbEntity
  8
0
100
AcDbCircle
 10
144.142672
 20
11.812019
 30
0.0
 40
2.25
  0
CIRCLE
  5
26A
330
36
100
AcDbEntity
  8
0
100
AcDbCircle
 10
144.142672
 20
34.312019
 30
0.0
 40
2.25
  0
CIRCLE
  5
26B
330
36
100
AcDbEntity
  8
0
100
AcDbCircle
 10
144.142672
 20
56.81201899999999
 30
0.0
 40
2.25
  0
CIRCLE
  5
26C
330
36
100
AcDbEntity
  8
0
100
AcDbCircle
 10
51.642672
 20
56.81201899999999
 30
0.0
 40
2.25
  0
CIRCLE
  5
26D
330
36
100
AcDbEntity
  8
0
100
AcDbCircle
 10
51.642672
 20
34.312019
 30
0.0
 40
2.25
  0
CIRCLE
  5
26E
330
36
100
AcDbEntity
  8
0
100
AcDbCircle
 10
51.642672
 20
11.812019
 30
0.0
 40
2.25
  0
ARC
  5
26F
330
36
100
AcDbEntity
  8
0
100
AcDbCircle
 10
85.39267199999997
 20
34.312019
 30
0.0
 40
5.0
100
AcDbArc
 50
0.0
 51
90.0
  0
LINE
  5
270
330
36
100
AcDbEntity
  8
0
100
AcDbLine
 10
85.39267199999997
 20
39.312019
 30
0.0
 11
65.39267199999999
 21
39.312019
 31
0.0
  0
ARC
  5
271
330
36
100
AcDbEntity
  8
0
100
AcDbCircle
 10
65.39267199999999
 20
34.312019
 30
0.0
 40
5.0
100
AcDbArc
 50
90.0
 51
180.0
  0
ARC
  5
272
330
36
100
AcDbEntity
  8
0
100
AcDbCircle
 10
65.39267199999999
 20
40.81201899999999
 30
0.0
 40
5.0
100
AcDbArc
 50
90.0
 51
180.0
  0
LINE
  5
273
330
36
100
AcDbEntity
  8
0
100
AcDbLine
 10
85.39267199999997
 20
45.81201899999999
 30
0.0
 11
65.39267199999999
 21
45.81201899999999
 31
0.0
  0
ARC
  5
274
330
36
100
AcDbEntity
  8
0
100
AcDbCircle
 10
85.39267199999997
 20
40.81201899999999
 30
0.0
 40
5.0
100
AcDbArc
 50
0.0
 51
90.0
  0
ARC
  5
275
330
36
100
AcDbEntity
  8
0
100
AcDbCircle
 10
85.39267199999997
 20
47.312019
 30
0.0
 40
5.0
100
AcDbArc
 50
0.0
 51
90.0
  0
LINE
  5
276
330
36
100
AcDbEntity
  8
0
100
AcDbLine
 10
85.39267199999997
 20
52.312019
 30
0.0
 11
65.39267199999999
 21
52.312019
 31
0.0
  0
ARC
  5
277
330
36
100
AcDbEntity
  8
0
100
AcDbCircle
 10
65.39267199999999
 20
47.312019
 30
0.0
 40
5.0
100
AcDbArc
 50
90.0
 51
180.0
  0
ARC
  5
278
330
36
100
AcDbEntity
  8
0
100
AcDbCircle
 10
65.39267199999999
 20
53.81201899999999
 30
0.0
 40
5.0
100
AcDbArc
 50
90.0
 51
180.0
  0
LINE
  5
279
330
36
100
AcDbEntity
  8
0
100
AcDbLine
 10
85.39267199999997
 20
58.81201899999999
 30
0.0
 11
65.39267199999999
 21
58.81201899999999
 31
0.0
  0
ARC
  5
27A
330
36
100
AcDbEntity
  8
0
100
AcDbCircle
 10
85.39267199999997
 20
53.81201899999999
 30
0.0
 40
5.0
100
AcDbArc
 50
0.0
 51
90.0
  0
ARC
  5
27B
330
36
100
AcDbEntity
  8
0
100
AcDbCircle
 10
110.392672
 20
34.312019
 30
0.0
 40
5.0
100
AcDbArc
 50
90.0
 51
180.0
  0
LINE
  5
27C
330
36
100
AcDbEntity
  8
0
100
AcDbLine
 10
110.392672
 20
39.312019
 30
0.0
 11
130.392672
 21
39.312019
 31
0.0
  0
ARC
  5
27D
330
36
100
AcDbEntity
  8
0
100
AcDbCircle
 10
130.392672
 20
34.312019
 30
0.0
 40
5.0
100
AcDbArc
 50
0.0
 51
90.0
  0
ARC
  5
27E
330
36
100
AcDbEntity
  8
0
100
AcDbCircle
 10
130.392672
 20
40.81201899999999
 30
0.0
 40
5.0
100
AcDbArc
 50
0.0
 51
90.0
  0
LINE
  5
27F
330
36
100
AcDbEntity
  8
0
100
AcDbLine
 10
110.392672
 20
45.81201899999999
 30
0.0
 11
130.392672
 21
45.81201899999999
 31
0.0
  0
ARC
  5
280
330
36
100
AcDbEntity
  8
0
100
AcDbCircle
 10
110.392672
 20
40.81201899999999
 30
0.0
 40
5.0
100
AcDbArc
 50
90.0
 51
180.0
  0
ARC
  5
281
330
36
100
AcDbEntity
  8
0
100
AcDbCircle
 10
110.392672
 20
47.312019
 30
0.0
 40
5.0
100
AcDbArc
 50
90.0
 51
180.0
  0
LINE
  5
282
330
36
100
AcDbEntity
  8
0
100
AcDbLine
 10
110.392672
 20
52.312019
 30
0.0
 11
130.392672
 21
52.312019
 31
0.0
  0
ARC
  5
283
330
36
100
AcDbEntity
  8
0
100
AcDbCircle
 10
130.392672
 20
47.312019
 30
0.0
 40
5.0
100
AcDbArc
 50
0.0
 51
90.0
  0
ARC
  5
284
330
36
100
AcDbEntity
  8
0
100
AcDbCircle
 10
130.392672
 20
53.81201899999999
 30
0.0
 40
5.0
100
AcDbArc
 50
0.0
 51
90.0
  0
LINE
  5
285
330
36
100
AcDbEntity
  8
0
100
AcDbLine
 10
110.392672
 20
58.81201899999999
 30
0.0
 11
130.392672
 21
58.81201899999999
 31
0.0
  0
ARC
  5
286
330
36
100
AcDbEntity
  8
0
100
AcDbCircle
 10
110.392672
 20
53.81201899999999
 30
0.0
 40
5.0
100
AcDbArc
 50
90.0
 51
180.0
  0
LINE
  5
287
330
36
100
AcDbEntity
  8
0
 62
     3
100
AcDbLine
 10
105.392672
 20
53.81201899999999
 30
0.0
 11
135.392672
 21
53.81201899999999
 31
0.0
  0
LINE
  5
288
330
36
100
AcDbEntity
  8
0
 62
     3
100
AcDbLine
 10
90.39267200000001
 20
53.81201899999999
 30
0.0
 11
60.392672
 21
53.81201899999999
 31
0.0
  0
LINE
  5
289
330
36
100
AcDbEntity
  8
0
 62
     3
100
AcDbLine
 10
90.39267200000001
 20
47.312019
 30
0.0
 11
60.392672
 21
47.312019
 31
0.0
  0
LINE
  5
28A
330
36
100
AcDbEntity
  8
0
 62
     3
100
AcDbLine
 10
105.392672
 20
47.312019
 30
0.0
 11
135.392672
 21
47.312019
 31
0.0
  0
LINE
  5
28B
330
36
100
AcDbEntity
  8
0
 62
     3
100
AcDbLine
 10
105.392672
 20
40.81201899999999
 30
0.0
 11
135.392672
 21
40.81201899999999
 31
0.0
  0
LINE
  5
28C
330
36
100
AcDbEntity
  8
0
 62
     3
100
AcDbLine
 10
90.39267200000001
 20
40.81201899999999
 30
0.0
 11
60.392672
 21
40.81201899999999
 31
0.0
  0
LINE
  5
28D
330
36
100
AcDbEntity
  8
0
 62
     3
100
AcDbLine
 10
90.39267200000001
 20
34.312019
 30
0.0
 11
60.392672
 21
34.312019
 31
0.0
  0
LINE
  5
28E
330
36
100
AcDbEntity
  8
0
 62
     3
100
AcDbLine
 10
105.392672
 20
34.312019
 30
0.0
 11
135.392672
 21
34.312019
 31
0.0
  0
LINE
  5
28F
330
36
100
AcDbEntity
  8
0
100
AcDbLine
 10
-113.807449
 20
64.16131899999999
 30
0.0
 11
-134.007449
 21
64.16131899999999
 31
0.0
  0
LINE
  5
290
330
36
100
AcDbEntity
  8
0
100
AcDbLine
 10
-113.807449
 20
64.16131899999999
 30
0.0
 11
-113.807449
 21
43.961319
 31
0.0
  0
LINE
  5
291
330
36
100
AcDbEntity
  8
0
100
AcDbLine
 10
-134.007449
 20
43.961319
 30
0.0
 11
-134.007449
 21
64.16131899999999
 31
0.0
  0
LINE
  5
292
330
36
100
AcDbEntity
  8
0
100
AcDbLine
 10
-113.807449
 20
51.461319
 30
0.0
 11
-134.007449
 21
51.461319
 31
0.0
  0
LINE
  5
293
330
36
100
AcDbEntity
  8
0
100
AcDbLine
 10
-113.807449
 20
50.71131900000001
 30
0.0
 11
-134.007449
 21
50.71131900000001
 31
0.0
  0
LINE
  5
294
330
36
100
AcDbEntity
  8
0
100
AcDbLine
 10
-113.807449
 20
49.961319
 30
0.0
 11
-134.007449
 21
49.961319
 31
0.0
  0
LINE
  5
295
330
36
100
AcDbEntity
  8
0
100
AcDbLine
 10
-113.807449
 20
49.211319
 30
0.0
 11
-134.007449
 21
49.211319
 31
0.0
  0
LINE
  5
296
330
36
100
AcDbEntity
  8
0
100
AcDbLine
 10
-113.807449
 20
48.461319
 30
0.0
 11
-134.007449
 21
48.461319
 31
0.0
  0
LINE
  5
297
330
36
100
AcDbEntity
  8
0
100
AcDbLine
 10
-113.807449
 20
47.711319
 30
0.0
 11
-134.007449
 21
47.711319
 31
0.0
  0
LINE
  5
298
330
36
100
AcDbEntity
  8
0
100
AcDbLine
 10
-113.807449
 20
46.961319
 30
0.0
 11
-134.007449
 21
46.961319
 31
0.0
  0
LINE
  5
299
330
36
100
AcDbEntity
  8
0
100
AcDbLine
 10
-113.807449
 20
46.211319
 30
0.0
 11
-134.007449
 21
46.211319
 31
0.0
  0
LINE
  5
29A
330
36
100
AcDbEntity
  8
0
100
AcDbLine
 10
-113.807449
 20
45.461319
 30
0.0
 11
-134.007449
 21
45.461319
 31
0.0
  0
LINE
  5
29B
330
36
100
AcDbEntity
  8
0
100
AcDbLine
 10
-113.807449
 20
44.711319
 30
0.0
 11
-134.007449
 21
44.711319
 31
0.0
  0
LINE
  5
29C
330
36
100
AcDbEntity
  8
0
100
AcDbLine
 10
-113.807449
 20
43.961319
 30
0.0
 11
-134.007449
 21
43.961319
 31
0.0
  0
LINE
  5
29D
330
36
100
AcDbEntity
  8
0
100
AcDbLine
 10
-97.907428
 20
46.061319
 30
0.0
 11
-97.907428
 21
62.06131899999999
 31
0.0
  0
LINE
  5
29E
330
36
100
AcDbEntity
  8
0
100
AcDbLine
 10
-103.907428
 20
46.061319
 30
0.0
 11
-103.907428
 21
62.06131899999999
 31
0.0
  0
LINE
  5
29F
330
36
100
AcDbEntity
  8
0
100
AcDbLine
 10
-103.907428
 20
62.06131899999999
 30
0.0
 11
-97.907428
 21
62.06131899999999
 31
0.0
  0
LINE
  5
2A0
330
36
100
AcDbEntity
  8
0
100
AcDbLine
 10
-99.03242800000001
 20
61.061319
 30
0.0
 11
-99.03242800000001
 21
53.561319
 31
0.0
  0
LINE
  5
2A1
330
36
100
AcDbEntity
  8
0
100
AcDbLine
 10
-102.782428
 20
61.061319
 30
0.0
 11
-102.782428
 21
53.561319
 31
0.0
  0
LINE
  5
2A2
330
36
100
AcDbEntity
  8
0
100
AcDbLine
 10
-102.782428
 20
61.061319
 30
0.0
 11
-99.03242800000001
 21
61.061319
 31
0.0
  0
LINE
  5
2A3
330
36
100
AcDbEntity
  8
0
100
AcDbLine
 10
-99.03242800000001
 20
59.56131899999999
 30
0.0
 11
-102.782428
 21
59.56131899999999
 31
0.0
  0
LINE
  5
2A4
330
36
100
AcDbEntity
  8
0
100
AcDbLine
 10
-99.03242800000001
 20
56.561319
 30
0.0
 11
-102.782428
 21
56.561319
 31
0.0
  0
LINE
  5
2A5
330
36
100
AcDbEntity
  8
0
100
AcDbLine
 10
-99.03242800000001
 20
53.561319
 30
0.0
 11
-102.782428
 21
53.561319
 31
0.0
  0
TEXT
  5
2A6
330
36
100
AcDbEntity
  8
0
100
AcDbText
 10
-101.665717
 20
54.62417900000001
 30
0.0
 40
1.6
  1
入
 41
0.833333
100
AcDbText
  0
TEXT
  5
2A7
330
36
100
AcDbEntity
  8
0
100
AcDbText
 10
-102.186473
 20
59.693022
 30
0.0
 40
1.28
  1
30
 41
1.090908999999999
100
AcDbText
  0
CIRCLE
  5
2A8
330
36
100
AcDbEntity
  8
0
100
AcDbCircle
 10
-100.907428
 20
50.06131899999999
 30
0.0
 40
1.0
  0
CIRCLE
  5
2A9
330
36
100
AcDbEntity
  8
0
100
AcDbCircle
 10
-100.907428
 20
69.061319
 30
0.0
 40
2.0
  0
CIRCLE
  5
2AA
330
36
100
AcDbEntity
  8
0
100
AcDbCircle
 10
-100.907428
 20
39.061319
 30
0.0
 40
2.0
  0
TEXT
  5
2AB
330
36
100
AcDbEntity
  8
0
100
AcDbText
 10
-57.559629
 20
25.928033
 30
0.0
 40
3.149999999999999
  1
100V
 41
1.090908999999999
100
AcDbText
  0
TEXT
  5
2AC
330
36
100
AcDbEntity
  8
0
100
AcDbText
 10
-33.993488
 20
25.971628
 30
0.0
 40
3.149999999999999
  1
115V
 41
1.090908999999999
100
AcDbText
  0
LINE
  5
2AD
330
36
100
AcDbEntity
  8
0
100
AcDbLine
 10
-131.366809
 20
59.351088
 30
0.0
 11
-130.721004
 21
58.581449
 31
0.0
  0
LINE
  5
2AE
330
36
100
AcDbEntity
  8
0
100
AcDbLine
 10
-115.415517
 20
58.9533
 30
0.0
 11
-116.837836
 21
57.530981
 31
0.0
  0
LINE
  5
2AF
330
36
100
AcDbEntity
  8
0
100
AcDbLine
 10
-130.614518
 20
60.04005799999998
 30
0.0
 11
-130.038801
 21
59.21784999999999
 31
0.0
  0
LINE
  5
2B0
330
36
100
AcDbEntity
  8
0
100
AcDbLine
 10
-129.793556
 20
60.65641
 30
0.0
 11
-129.29214
 21
59.78793299999999
 31
0.0
  0
LINE
  5
2B1
330
36
100
AcDbEntity
  8
0
100
AcDbLine
 10
-128.911375
 20
61.19233399999998
 30
0.0
 11
-128.487903
 21
60.284195
 31
0.0
  0
LINE
  5
2B2
330
36
100
AcDbEntity
  8
0
100
AcDbLine
 10
-128.147661
 20
62.11127499999999
 30
0.0
 11
-127.633983
 21
60.699958
 31
0.0
  0
LINE
  5
2B3
330
36
100
AcDbEntity
  8
0
100
AcDbLine
 10
-126.998181
 20
61.99617700000001
 30
0.0
 11
-126.739167
 21
61.02952099999999
 31
0.0
  0
LINE
  5
2B4
330
36
100
AcDbEntity
  8
0
100
AcDbLine
 10
-125.986696
 20
62.25344
 30
0.0
 11
-125.812989
 21
61.268297
 31
0.0
  0
LINE
  5
2B5
330
36
100
AcDbEntity
  8
0
100
AcDbLine
 10
-124.952733
 20
62.40921
 30
0.0
 11
-124.86557
 21
61.41293000000001
 31
0.0
  0
LINE
  5
2B6
330
36
100
AcDbEntity
  8
0
100
AcDbLine
 10
-122.862123
 20
62.409206
 30
0.0
 11
-122.949286
 21
61.41292599999999
 31
0.0
  0
LINE
  5
2B7
330
36
100
AcDbEntity
  8
0
100
AcDbLine
 10
-121.828159
 20
62.253432
 30
0.0
 11
-122.001867
 21
61.268289
 31
0.0
  0
LINE
  5
2B8
330
36
100
AcDbEntity
  8
0
100
AcDbLine
 10
-120.816673
 20
61.996164
 30
0.0
 11
-121.075688
 21
61.029507
 31
0.0
  0
LINE
  5
2B9
330
36
100
AcDbEntity
  8
0
100
AcDbLine
 10
-119.667193
 20
62.111257
 30
0.0
 11
-123.907428
 21
50.461306
 31
0.0
  0
LINE
  5
2BA
330
36
100
AcDbEntity
  8
0
100
AcDbLine
 10
-118.903477
 20
61.19231
 30
0.0
 11
-119.32695
 21
60.28417099999999
 31
0.0
  0
LINE
  5
2BB
330
36
100
AcDbEntity
  8
0
100
AcDbLine
 10
-118.021296
 20
60.656379
 30
0.0
 11
-118.522712
 21
59.787901
 31
0.0
  0
LINE
  5
2BC
330
36
100
AcDbEntity
  8
0
100
AcDbLine
 10
-117.200334
 20
60.04001999999999
 30
0.0
 11
-117.77605
 21
59.217811
 31
0.0
  0
LINE
  5
2BD
330
36
100
AcDbEntity
  8
0
100
AcDbLine
 10
-116.448043
 20
59.35104200000001
 30
0.0
 11
-117.093848
 21
58.58140200000001
 31
0.0
  0
LINE
  5
2BE
330
36
100
AcDbEntity
  8
0
100
AcDbLine
 10
-132.399425
 20
58.953245
 30
0.0
 11
-131.333008
 21
57.886828
 31
0.0
  0
ARC
  5
2BF
330
36
100
AcDbEntity
  8
0
100
AcDbCircle
 10
-123.907449
 20
50.461369
 30
0.0
 40
2.5
100
AcDbArc
 50
23.576928
 51
156.423072
  0
LINE
  5
2C0
330
36
100
AcDbEntity
  8
0
 62
     7
100
AcDbLine
 10
-73.65742799999998
 20
64.061319
 30
0.0
 11
-74.657428
 21
63.061319
 31
0.0
  0
LINE
  5
2C1
330
36
100
AcDbEntity
  8
0
 62
     7
100
AcDbLine
 10
-74.657428
 20
59.061319
 30
0.0
 11
-73.65742799999998
 21
58.061319
 31
0.0
  0
LINE
  5
2C2
330
36
100
AcDbEntity
  8
0
 62
     3
100
AcDbLine
 10
-10.157428
 20
66.811319
 30
0.0
 11
-10.157428
 21
1.811318999999999
 31
0.0
  0
ARC
  5
2C3
330
36
100
AcDbEntity
  8
0
 62
     3
100
AcDbCircle
 10
-19.657428
 20
66.811319
 30
0.0
 40
9.5
100
AcDbArc
 50
0.0
 51
90.0
  0
ARC
  5
2C4
330
36
100
AcDbEntity
  8
0
 62
     3
100
AcDbCircle
 10
-27.907428
 20
17.787919
 30
0.0
 40
8.5204
100
AcDbArc
 50
304.560322
 51
55.439678
  0
ARC
  5
2C5
330
36
100
AcDbEntity
  8
0
 62
     3
100
AcDbCircle
 10
-27.907428
 20
37.334719
 30
0.0
 40
8.5204
100
AcDbArc
 50
304.560322
 51
55.439678
  0
ARC
  5
2C6
330
36
100
AcDbEntity
  8
0
 62
     3
100
AcDbCircle
 10
-19.657428
 20
66.811319
 30
0.0
 40
4.5
100
AcDbArc
 50
0.0
 51
90.0
  0
LINE
  5
2C7
330
36
100
AcDbEntity
  8
0
 62
     3
100
AcDbLine
 10
-15.157428
 20
1.811318999999999
 30
0.0
 11
-15.157428
 21
66.811319
 31
0.0
  0
ARC
  5
2C8
330
36
100
AcDbEntity
  8
0
 62
     3
100
AcDbCircle
 10
-19.657428
 20
1.811318999999999
 30
0.0
 40
4.5
100
AcDbArc
 50
270.0
 51
0.0
  0
ARC
  5
2C9
330
36
100
AcDbEntity
  8
0
 62
     3
100
AcDbCircle
 10
-19.657428
 20
1.811318999999999
 30
0.0
 40
9.5
100
AcDbArc
 50
270.0
 51
0.0
  0
LINE
  5
2CA
330
36
100
AcDbEntity
  8
0
 62
     3
100
AcDbLine
 10
-19.657428
 20
-2.688681
 30
0.0
 11
-131.157428
 21
-2.688681
 31
0.0
  0
LINE
  5
2CB
330
36
100
AcDbEntity
  8
0
 62
     3
100
AcDbLine
 10
-23.07403
 20
10.771119
 30
0.0
 11
-32.740826
 21
10.771119
 31
0.0
  0
ARC
  5
2CC
330
36
100
AcDbEntity
  8
0
 62
     3
100
AcDbCircle
 10
-27.907428
 20
17.787919
 30
0.0
 40
8.5204
100
AcDbArc
 50
124.560322
 51
235.439678
  0
LINE
  5
2CD
330
36
100
AcDbEntity
  8
0
 62
     3
100
AcDbLine
 10
-23.07403
 20
24.804719
 30
0.0
 11
-32.740826
 21
24.804719
 31
0.0
  0
LINE
  5
2CE
330
36
100
AcDbEntity
  8
0
 62
     3
100
AcDbLine
 10
-23.07403
 20
30.317919
 30
0.0
 11
-32.740826
 21
30.317919
 31
0.0
  0
ARC
  5
2CF
330
36
100
AcDbEntity
  8
0
 62
     3
100
AcDbCircle
 10
-27.907428
 20
37.334719
 30
0.0
 40
8.5204
100
AcDbArc
 50
124.560322
 51
235.439678
  0
LINE
  5
2D0
330
36
100
AcDbEntity
  8
0
 62
     3
100
AcDbLine
 10
-23.07403
 20
44.351519
 30
0.0
 11
-32.740826
 21
44.351519
 31
0.0
  0
LINE
  5
2D1
330
36
100
AcDbEntity
  8
0
 62
     3
100
AcDbLine
 10
-56.240826
 20
44.351519
 30
0.0
 11
-46.57403
 21
44.351519
 31
0.0
  0
ARC
  5
2D2
330
36
100
AcDbEntity
  8
0
 62
     3
100
AcDbCircle
 10
-51.407428
 20
37.334719
 30
0.0
 40
8.5204
100
AcDbArc
 50
304.560322
 51
55.439678
  0
ARC
  5
2D3
330
36
100
AcDbEntity
  8
0
 62
     3
100
AcDbCircle
 10
-51.407428
 20
37.334719
 30
0.0
 40
8.5204
100
AcDbArc
 50
124.560322
 51
235.439678
  0
LINE
  5
2D4
330
36
100
AcDbEntity
  8
0
 62
     3
100
AcDbLine
 10
-56.240826
 20
30.317919
 30
0.0
 11
-46.57403
 21
30.317919
 31
0.0
  0
ARC
  5
2D5
330
36
100
AcDbEntity
  8
0
 62
     3
100
AcDbCircle
 10
-51.407428
 20
17.787919
 30
0.0
 40
8.5204
100
AcDbArc
 50
124.560322
 51
235.439678
  0
LINE
  5
2D6
330
36
100
AcDbEntity
  8
0
 62
     3
100
AcDbLine
 10
-56.240826
 20
24.804719
 30
0.0
 11
-46.57403
 21
24.804719
 31
0.0
  0
ARC
  5
2D7
330
36
100
AcDbEntity
  8
0
 62
     3
100
AcDbCircle
 10
-51.407428
 20
17.787919
 30
0.0
 40
8.5204
100
AcDbArc
 50
304.560322
 51
55.439678
  0
LINE
  5
2D8
330
36
100
AcDbEntity
  8
0
 62
     3
100
AcDbLine
 10
-56.240826
 20
10.771119
 30
0.0
 11
-46.57403
 21
10.771119
 31
0.0
  0
CIRCLE
  5
2D9
330
36
100
AcDbEntity
  8
0
 62
     3
100
AcDbCircle
 10
-81.907428
 20
17.561319
 30
0.0
 40
8.75
  0
CIRCLE
  5
2DA
330
36
100
AcDbEntity
  8
0
 62
     3
100
AcDbCircle
 10
-119.907428
 20
17.561319
 30
0.0
 40
8.75
  0
LINE
  5
2DB
330
36
100
AcDbEntity
  8
0
 62
     3
100
AcDbLine
 10
-131.157428
 20
-7.688680999999997
 30
0.0
 11
-19.657428
 21
-7.688680999999997
 31
0.0
  0
ARC
  5
2DC
330
36
100
AcDbEntity
  8
0
 62
     3
100
AcDbCircle
 10
-131.157428
 20
1.811318999999999
 30
0.0
 40
4.5
100
AcDbArc
 50
180.0
 51
270.0
  0
ARC
  5
2DD
330
36
100
AcDbEntity
  8
0
 62
     3
100
AcDbCircle
 10
-131.157428
 20
1.811318999999999
 30
0.0
 40
9.5
100
AcDbArc
 50
180.0
 51
270.0
  0
LINE
  5
2DE
330
36
100
AcDbEntity
  8
0
 62
     3
100
AcDbLine
 10
-140.657428
 20
66.811319
 30
0.0
 11
-140.657428
 21
1.811318999999999
 31
0.0
  0
ARC
  5
2DF
330
36
100
AcDbEntity
  8
0
 62
     3
100
AcDbCircle
 10
-131.157428
 20
66.811319
 30
0.0
 40
9.5
100
AcDbArc
 50
90.0
 51
180.0
  0
ARC
  5
2E0
330
36
100
AcDbEntity
  8
0
 62
     3
100
AcDbCircle
 10
-131.157428
 20
66.811319
 30
0.0
 40
4.5
100
AcDbArc
 50
90.0
 51
180.0
  0
LINE
  5
2E1
330
36
100
AcDbEntity
  8
0
 62
     3
100
AcDbLine
 10
-131.157428
 20
71.31131899999998
 30
0.0
 11
-19.657428
 21
71.31131899999998
 31
0.0
  0
LINE
  5
2E2
330
36
100
AcDbEntity
  8
0
 62
     3
100
AcDbLine
 10
-131.157428
 20
76.31131899999998
 30
0.0
 11
-19.657428
 21
76.31131899999998
 31
0.0
  0
LINE
  5
2E3
330
36
100
AcDbEntity
  8
0
 62
     3
100
AcDbLine
 10
-135.657428
 20
1.811318999999999
 30
0.0
 11
-135.657428
 21
66.811319
 31
0.0
  0
LINE
  5
2E4
330
36
100
AcDbEntity
  8
0
 62
     7
100
AcDbLine
 10
-86.15742799999997
 20
64.061319
 30
0.0
 11
-73.65742799999998
 21
64.061319
 31
0.0
  0
LINE
  5
2E5
330
36
100
AcDbEntity
  8
0
 62
     7
100
AcDbLine
 10
-73.65742799999998
 20
58.061319
 30
0.0
 11
-86.15742799999997
 21
58.061319
 31
0.0
  0
LINE
  5
2E6
330
36
100
AcDbEntity
  8
0
 62
     7
100
AcDbLine
 10
-86.15742799999997
 20
58.061319
 30
0.0
 11
-86.15742799999997
 21
64.061319
 31
0.0
  0
LINE
  5
2E7
330
36
100
AcDbEntity
  8
0
 62
     7
100
AcDbLine
 10
-73.65742799999998
 20
58.061319
 30
0.0
 11
-73.65742799999998
 21
64.061319
 31
0.0
  0
LINE
  5
2E8
330
36
100
AcDbEntity
  8
0
 62
     3
100
AcDbLine
 10
-83.40742799999999
 20
50.561319
 30
0.0
 11
-76.40742799999998
 21
50.561319
 31
0.0
  0
LINE
  5
2E9
330
36
100
AcDbEntity
  8
0
 62
     3
100
AcDbLine
 10
-83.40742799999999
 20
43.561319
 30
0.0
 11
-83.40742799999999
 21
50.561319
 31
0.0
  0
LINE
  5
2EA
330
36
100
AcDbEntity
  8
0
 62
     3
100
AcDbLine
 10
-83.40742799999999
 20
43.561319
 30
0.0
 11
-76.40742799999998
 21
43.561319
 31
0.0
  0
LINE
  5
2EB
330
36
100
AcDbEntity
  8
0
 62
     3
100
AcDbLine
 10
-76.40742799999998
 20
43.561319
 30
0.0
 11
-76.40742799999998
 21
50.561319
 31
0.0
  0
ARC
  5
2EC
330
36
100
AcDbEntity
  8
0
100
AcDbCircle
 10
-81.907428
 20
11.761319
 30
0.0
 40
1.85
100
AcDbArc
 50
0.0
 51
180.000009
  0
LINE
  5
2ED
330
36
100
AcDbEntity
  8
0
100
AcDbLine
 10
-83.75742800000002
 20
10.911319
 30
0.0
 11
-83.75742800000002
 21
11.761319
 31
0.0
  0
LINE
  5
2EE
330
36
100
AcDbEntity
  8
0
100
AcDbLine
 10
-83.75742800000002
 20
10.911319
 30
0.0
 11
-80.057428
 21
10.911319
 31
0.0
  0
LINE
  5
2EF
330
36
100
AcDbEntity
  8
0
100
AcDbLine
 10
-80.057428
 20
10.911319
 30
0.0
 11
-80.057428
 21
11.761319
 31
0.0
  0
LINE
  5
2F0
330
36
100
AcDbEntity
  8
0
100
AcDbLine
 10
-56.46954799999999
 20
41.995879
 30
0.0
 11
-56.46954799999999
 21
35.831119
 31
0.0
  0
ARC
  5
2F1
330
36
100
AcDbEntity
  8
0
100
AcDbCircle
 10
-55.96834799999999
 20
35.831119
 30
0.0
 40
0.5012
100
AcDbArc
 50
180.0
 51
270.0
  0
ARC
  5
2F2
330
36
100
AcDbEntity
  8
0
100
AcDbCircle
 10
-50.05418800000001
 20
31.395499
 30
0.0
 40
0.5012
100
AcDbArc
 50
270.0
 51
0.0
  0
ARC
  5
2F3
330
36
100
AcDbEntity
  8
0
100
AcDbCircle
 10
-52.760668
 20
31.395499
 30
0.0
 40
0.5012
100
AcDbArc
 50
180.0
 51
270.0
  0
LINE
  5
2F4
330
36
100
AcDbEntity
  8
0
100
AcDbLine
 10
-52.15922800000001
 20
30.894299
 30
0.0
 11
-50.655628
 21
30.894299
 31
0.0
  0
LINE
  5
2F5
330
36
100
AcDbEntity
  8
0
100
AcDbLine
 10
-50.05418800000001
 20
30.894299
 30
0.0
 11
-50.655628
 21
30.894299
 31
0.0
  0
LINE
  5
2F6
330
36
100
AcDbEntity
  8
0
100
AcDbLine
 10
-52.15922800000001
 20
30.894299
 30
0.0
 11
-52.760668
 21
30.894299
 31
0.0
  0
LINE
  5
2F7
330
36
100
AcDbEntity
  8
0
100
AcDbLine
 10
-46.846508
 20
42.07105900000001
 30
0.0
 11
-49.101908
 21
42.07105900000001
 31
0.0
  0
ARC
  5
2F8
330
36
100
AcDbEntity
  8
0
100
AcDbCircle
 10
-49.101908
 20
41.569859
 30
0.0
 40
0.5012
100
AcDbArc
 50
90.0
 51
180.0
  0
ARC
  5
2F9
330
36
100
AcDbEntity
  8
0
100
AcDbCircle
 10
-46.846508
 20
41.569859
 30
0.0
 40
0.5012
100
AcDbArc
 50
0.0
 51
90.0
  0
LINE
  5
2FA
330
36
100
AcDbEntity
  8
0
100
AcDbLine
 10
-53.712948
 20
42.49707899999999
 30
0.0
 11
-55.96834799999999
 21
42.49707899999999
 31
0.0
  0
ARC
  5
2FB
330
36
100
AcDbEntity
  8
0
100
AcDbCircle
 10
-53.712948
 20
41.995879
 30
0.0
 40
0.5012
100
AcDbArc
 50
0.0
 51
90.0
  0
ARC
  5
2FC
330
36
100
AcDbEntity
  8
0
100
AcDbCircle
 10
-55.96834799999999
 20
41.995879
 30
0.0
 40
0.5012
100
AcDbArc
 50
90.0
 51
180.0
  0
ARC
  5
2FD
330
36
100
AcDbEntity
  8
0
100
AcDbCircle
 10
-30.212948
 20
41.569859
 30
0.0
 40
0.5012
100
AcDbArc
 50
0.0
 51
90.0
  0
ARC
  5
2FE
330
36
100
AcDbEntity
  8
0
100
AcDbCircle
 10
-32.468348
 20
41.569859
 30
0.0
 40
0.5012
100
AcDbArc
 50
90.0
 51
180.0
  0
LINE
  5
2FF
330
36
100
AcDbEntity
  8
0
100
AcDbLine
 10
-32.969548
 20
41.569859
 30
0.0
 11
-32.969548
 21
36.257139
 31
0.0
  0
LINE
  5
300
330
36
100
AcDbEntity
  8
0
100
AcDbLine
 10
-25.601908
 20
42.49707899999999
 30
0.0
 11
-23.346508
 21
42.49707899999999
 31
0.0
  0
ARC
  5
301
330
36
100
AcDbEntity
  8
0
100
AcDbCircle
 10
-25.601908
 20
41.995879
 30
0.0
 40
0.5012
100
AcDbArc
 50
90.0
 51
180.0
  0
ARC
  5
302
330
36
100
AcDbEntity
  8
0
100
AcDbCircle
 10
-23.346508
 20
41.995879
 30
0.0
 40
0.5012
100
AcDbArc
 50
0.0
 51
90.0
  0
LINE
  5
303
330
36
100
AcDbEntity
  8
0
100
AcDbLine
 10
-32.468348
 20
42.07105900000001
 30
0.0
 11
-30.212948
 21
42.07105900000001
 31
0.0
  0
ARC
  5
304
330
36
100
AcDbEntity
  8
0
100
AcDbCircle
 10
-26.554188
 20
31.395499
 30
0.0
 40
0.5012
100
AcDbArc
 50
270.0
 51
0.0
  0
LINE
  5
305
330
36
100
AcDbEntity
  8
0
100
AcDbLine
 10
-27.15562800000001
 20
30.894299
 30
0.0
 11
-28.659228
 21
30.894299
 31
0.0
  0
LINE
  5
306
330
36
100
AcDbEntity
  8
0
100
AcDbLine
 10
-29.260668
 20
30.894299
 30
0.0
 11
-28.659228
 21
30.894299
 31
0.0
  0
LINE
  5
307
330
36
100
AcDbEntity
  8
0
100
AcDbLine
 10
-27.15562800000001
 20
30.894299
 30
0.0
 11
-26.554188
 21
30.894299
 31
0.0
  0
ARC
  5
308
330
36
100
AcDbEntity
  8
0
100
AcDbCircle
 10
-29.260668
 20
31.395499
 30
0.0
 40
0.5012
100
AcDbArc
 50
180.0
 51
270.0
  0
LINE
  5
309
330
36
100
AcDbEntity
  8
0
100
AcDbLine
 10
-46.345308
 20
22.023059
 30
0.0
 11
-46.345308
 21
16.710339
 31
0.0
  0
ARC
  5
30A
330
36
100
AcDbEntity
  8
0
100
AcDbCircle
 10
-46.846508
 20
16.710339
 30
0.0
 40
0.5012
100
AcDbArc
 50
270.0
 51
0.0
  0
LINE
  5
30B
330
36
100
AcDbEntity
  8
0
100
AcDbLine
 10
-56.46954799999999
 20
22.449079
 30
0.0
 11
-56.46954799999999
 21
16.284319
 31
0.0
  0
ARC
  5
30C
330
36
100
AcDbEntity
  8
0
100
AcDbCircle
 10
-52.760668
 20
11.848699
 30
0.0
 40
0.5012
100
AcDbArc
 50
180.0
 51
270.0
  0
LINE
  5
30D
330
36
100
AcDbEntity
  8
0
100
AcDbLine
 10
-52.15922800000001
 20
11.347499
 30
0.0
 11
-52.760668
 21
11.347499
 31
0.0
  0
LINE
  5
30E
330
36
100
AcDbEntity
  8
0
100
AcDbLine
 10
-50.05418800000001
 20
11.347499
 30
0.0
 11
-50.655628
 21
11.347499
 31
0.0
  0
LINE
  5
30F
330
36
100
AcDbEntity
  8
0
100
AcDbLine
 10
-52.15922800000001
 20
11.347499
 30
0.0
 11
-50.655628
 21
11.347499
 31
0.0
  0
ARC
  5
310
330
36
100
AcDbEntity
  8
0
100
AcDbCircle
 10
-50.05418800000001
 20
11.848699
 30
0.0
 40
0.5012
100
AcDbArc
 50
270.0
 51
0.0
  0
ARC
  5
311
330
36
100
AcDbEntity
  8
0
100
AcDbCircle
 10
-25.601908
 20
22.449079
 30
0.0
 40
0.5012
100
AcDbArc
 50
90.0
 51
180.0
  0
ARC
  5
312
330
36
100
AcDbEntity
  8
0
100
AcDbCircle
 10
-23.346508
 20
22.449079
 30
0.0
 40
0.5012
100
AcDbArc
 50
0.0
 51
90.0
  0
ARC
  5
313
330
36
100
AcDbEntity
  8
0
100
AcDbCircle
 10
-30.212948
 20
22.023059
 30
0.0
 40
0.5012
100
AcDbArc
 50
0.0
 51
90.0
  0
LINE
  5
314
330
36
100
AcDbEntity
  8
0
100
AcDbLine
 10
-32.468348
 20
22.524259
 30
0.0
 11
-30.212948
 21
22.524259
 31
0.0
  0
ARC
  5
315
330
36
100
AcDbEntity
  8
0
100
AcDbCircle
 10
-32.468348
 20
22.023059
 30
0.0
 40
0.5012
100
AcDbArc
 50
90.0
 51
180.0
  0
LINE
  5
316
330
36
100
AcDbEntity
  8
0
100
AcDbLine
 10
-32.969548
 20
22.023059
 30
0.0
 11
-32.969548
 21
16.710339
 31
0.0
  0
ARC
  5
317
330
36
100
AcDbEntity
  8
0
100
AcDbCircle
 10
-32.468348
 20
16.710339
 30
0.0
 40
0.5012
100
AcDbArc
 50
180.0
 51
270.0
  0
LINE
  5
318
330
36
100
AcDbEntity
  8
0
100
AcDbLine
 10
-25.601908
 20
22.950279
 30
0.0
 11
-23.346508
 21
22.950279
 31
0.0
  0
ARC
  5
319
330
36
100
AcDbEntity
  8
0
100
AcDbCircle
 10
-29.260668
 20
11.848699
 30
0.0
 40
0.5012
100
AcDbArc
 50
180.0
 51
270.0
  0
ARC
  5
31A
330
36
100
AcDbEntity
  8
0
100
AcDbCircle
 10
-26.554188
 20
11.848699
 30
0.0
 40
0.5012
100
AcDbArc
 50
270.0
 51
0.0
  0
LINE
  5
31B
330
36
100
AcDbEntity
  8
0
100
AcDbLine
 10
-27.15562800000001
 20
11.347499
 30
0.0
 11
-26.554188
 21
11.347499
 31
0.0
  0
LINE
  5
31C
330
36
100
AcDbEntity
  8
0
100
AcDbLine
 10
-27.15562800000001
 20
11.347499
 30
0.0
 11
-28.659228
 21
11.347499
 31
0.0
  0
LINE
  5
31D
330
36
100
AcDbEntity
  8
0
100
AcDbLine
 10
-29.260668
 20
11.347499
 30
0.0
 11
-28.659228
 21
11.347499
 31
0.0
  0
LINE
  5
31E
330
36
100
AcDbEntity
  8
0
100
AcDbLine
 10
-82.03242799999998
 20
44.93631899999999
 30
0.0
 11
-82.03242799999998
 21
49.186319
 31
0.0
  0
LINE
  5
31F
330
36
100
AcDbEntity
  8
0
100
AcDbLine
 10
-82.03242799999998
 20
49.186319
 30
0.0
 11
-77.782428
 21
49.186319
 31
0.0
  0
LINE
  5
320
330
36
100
AcDbEntity
  8
0
100
AcDbLine
 10
-77.782428
 20
44.93631899999999
 30
0.0
 11
-77.782428
 21
49.186319
 31
0.0
  0
LINE
  5
321
330
36
100
AcDbEntity
  8
0
100
AcDbLine
 10
-82.03242799999998
 20
44.93631899999999
 30
0.0
 11
-77.782428
 21
44.93631899999999
 31
0.0
  0
LINE
  5
322
330
36
100
AcDbEntity
  8
0
 62
     3
100
AcDbLine
 10
-74.657428
 20
59.061319
 30
0.0
 11
-85.15742799999998
 21
59.061319
 31
0.0
  0
LINE
  5
323
330
36
100
AcDbEntity
  8
0
 62
     3
100
AcDbLine
 10
-85.15742799999998
 20
59.061319
 30
0.0
 11
-85.15742799999998
 21
63.061319
 31
0.0
  0
LINE
  5
324
330
36
100
AcDbEntity
  8
0
 62
     7
100
AcDbLine
 10
-85.15742799999998
 20
59.061319
 30
0.0
 11
-86.15742799999997
 21
58.061319
 31
0.0
  0
LINE
  5
325
330
36
100
AcDbEntity
  8
0
 62
     7
100
AcDbLine
 10
-86.15742799999997
 20
64.061319
 30
0.0
 11
-85.15742799999998
 21
63.061319
 31
0.0
  0
LINE
  5
326
330
36
100
AcDbEntity
  8
0
 62
     3
100
AcDbLine
 10
-85.15742799999998
 20
63.061319
 30
0.0
 11
-74.657428
 21
63.061319
 31
0.0
  0
LINE
  5
327
330
36
100
AcDbEntity
  8
0
 62
     3
100
AcDbLine
 10
-74.657428
 20
59.061319
 30
0.0
 11
-74.657428
 21
63.061319
 31
0.0
  0
CIRCLE
  5
328
330
36
100
AcDbEntity
  8
0
100
AcDbCircle
 10
-119.907428
 20
32.686319
 30
0.0
 40
2.0
  0
CIRCLE
  5
329
330
36
100
AcDbEntity
  8
0
100
AcDbCircle
 10
-81.907428
 20
32.686319
 30
0.0
 40
2.0
  0
CIRCLE
  5
32A
330
36
100
AcDbEntity
  8
0
100
AcDbCircle
 10
-81.907428
 20
2.436318999999999
 30
0.0
 40
2.0
  0
CIRCLE
  5
32B
330
36
100
AcDbEntity
  8
0
100
AcDbCircle
 10
-119.907428
 20
2.436318999999999
 30
0.0
 40
2.0
  0
LINE
  5
32C
330
36
100
AcDbEntity
  8
0
100
AcDbLine
 10
-120.657428
 20
10.061319
 30
0.0
 11
-120.657428
 21
14.561319
 31
0.0
  0
LINE
  5
32D
330
36
100
AcDbEntity
  8
0
100
AcDbLine
 10
-119.157428
 20
14.561319
 30
0.0
 11
-120.657428
 21
14.561319
 31
0.0
  0
LINE
  5
32E
330
36
100
AcDbEntity
  8
0
100
AcDbLine
 10
-119.157428
 20
14.561319
 30
0.0
 11
-119.157428
 21
10.061319
 31
0.0
  0
LINE
  5
32F
330
36
100
AcDbEntity
  8
0
100
AcDbLine
 10
-119.157428
 20
10.061319
 30
0.0
 11
-120.657428
 21
10.061319
 31
0.0
  0
LINE
  5
330
330
36
100
AcDbEntity
  8
0
100
AcDbLine
 10
-117.657428
 20
22.311319
 30
0.0
 11
-122.157428
 21
22.311319
 31
0.0
  0
LINE
  5
331
330
36
100
AcDbEntity
  8
0
100
AcDbLine
 10
-122.157428
 20
22.311319
 30
0.0
 11
-122.157428
 21
23.811319
 31
0.0
  0
LINE
  5
332
330
36
100
AcDbEntity
  8
0
100
AcDbLine
 10
-117.657428
 20
23.811319
 30
0.0
 11
-122.157428
 21
23.811319
 31
0.0
  0
LINE
  5
333
330
36
100
AcDbEntity
  8
0
100
AcDbLine
 10
-117.657428
 20
23.811319
 30
0.0
 11
-117.657428
 21
22.311319
 31
0.0
  0
LINE
  5
334
330
36
100
AcDbEntity
  8
0
100
AcDbLine
 10
-88.20742800000003
 20
19.611319
 30
0.0
 11
-84.70742800000001
 21
19.611319
 31
0.0
  0
LINE
  5
335
330
36
100
AcDbEntity
  8
0
100
AcDbLine
 10
-88.20742800000003
 20
19.611319
 30
0.0
 11
-88.20742800000003
 21
18.511319
 31
0.0
  0
LINE
  5
336
330
36
100
AcDbEntity
  8
0
100
AcDbLine
 10
-88.20742800000003
 20
18.511319
 30
0.0
 11
-84.70742800000001
 21
18.511319
 31
0.0
  0
LINE
  5
337
330
36
100
AcDbEntity
  8
0
100
AcDbLine
 10
-84.70742800000001
 20
18.511319
 30
0.0
 11
-84.70742800000001
 21
19.611319
 31
0.0
  0
LINE
  5
338
330
36
100
AcDbEntity
  8
0
100
AcDbLine
 10
-75.60742799999998
 20
19.611319
 30
0.0
 11
-79.107428
 21
19.611319
 31
0.0
  0
LINE
  5
339
330
36
100
AcDbEntity
  8
0
100
AcDbLine
 10
-79.107428
 20
18.511319
 30
0.0
 11
-79.107428
 21
19.611319
 31
0.0
  0
LINE
  5
33A
330
36
100
AcDbEntity
  8
0
100
AcDbLine
 10
-75.60742799999998
 20
18.511319
 30
0.0
 11
-79.107428
 21
18.511319
 31
0.0
  0
LINE
  5
33B
330
36
100
AcDbEntity
  8
0
100
AcDbLine
 10
-75.60742799999998
 20
19.611319
 30
0.0
 11
-75.60742799999998
 21
18.511319
 31
0.0
  0
ARC
  5
33C
330
36
100
AcDbEntity
  8
0
100
AcDbCircle
 10
-46.846508
 20
22.023059
 30
0.0
 40
0.5012
100
AcDbArc
 50
0.0
 51
90.0
  0
LINE
  5
33D
330
36
100
AcDbEntity
  8
0
100
AcDbLine
 10
-54.11390799999999
 20
21.546919
 30
0.0
 11
-54.11390799999999
 21
17.186479
 31
0.0
  0
LINE
  5
33E
330
36
100
AcDbEntity
  8
0
100
AcDbLine
 10
-55.066188
 20
21.546919
 30
0.0
 11
-55.066188
 21
17.186479
 31
0.0
  0
LINE
  5
33F
330
36
100
AcDbEntity
  8
0
100
AcDbLine
 10
-54.11390799999999
 20
21.546919
 30
0.0
 11
-55.066188
 21
21.546919
 31
0.0
  0
LINE
  5
340
330
36
100
AcDbEntity
  8
0
100
AcDbLine
 10
-54.11390799999999
 20
17.186479
 30
0.0
 11
-55.066188
 21
17.186479
 31
0.0
  0
LINE
  5
341
330
36
100
AcDbEntity
  8
0
100
AcDbLine
 10
-50.655628
 20
12.450139
 30
0.0
 11
-50.655628
 21
13.738214
 31
0.0
  0
ARC
  5
342
330
36
100
AcDbEntity
  8
0
100
AcDbCircle
 10
-51.407428
 20
13.588049
 30
0.0
 40
0.7666500000000001
100
AcDbArc
 50
11.295648
 51
168.704352
  0
LINE
  5
343
330
36
100
AcDbEntity
  8
0
100
AcDbLine
 10
-52.15922800000001
 20
12.450139
 30
0.0
 11
-52.15922800000001
 21
13.738214
 31
0.0
  0
LINE
  5
344
330
36
100
AcDbEntity
  8
0
100
AcDbLine
 10
-50.655628
 20
12.450139
 30
0.0
 11
-52.15922800000001
 21
12.450139
 31
0.0
  0
LINE
  5
345
330
36
100
AcDbEntity
  8
0
100
AcDbLine
 10
-47.748668
 20
21.120899
 30
0.0
 11
-48.700948
 21
21.120899
 31
0.0
  0
LINE
  5
346
330
36
100
AcDbEntity
  8
0
100
AcDbLine
 10
-47.748668
 20
21.120899
 30
0.0
 11
-47.748668
 21
17.612499
 31
0.0
  0
LINE
  5
347
330
36
100
AcDbEntity
  8
0
100
AcDbLine
 10
-48.700948
 20
21.120899
 30
0.0
 11
-48.700948
 21
17.612499
 31
0.0
  0
LINE
  5
348
330
36
100
AcDbEntity
  8
0
100
AcDbLine
 10
-47.748668
 20
17.612499
 30
0.0
 11
-48.700948
 21
17.612499
 31
0.0
  0
LINE
  5
349
330
36
100
AcDbEntity
  8
0
100
AcDbLine
 10
-46.846508
 20
22.524259
 30
0.0
 11
-49.101908
 21
22.524259
 31
0.0
  0
ARC
  5
34A
330
36
100
AcDbEntity
  8
0
100
AcDbCircle
 10
-49.101908
 20
22.023059
 30
0.0
 40
0.5012
100
AcDbArc
 50
90.0
 51
180.0
  0
LINE
  5
34B
330
36
100
AcDbEntity
  8
0
100
AcDbLine
 10
-49.603108
 20
22.023059
 30
0.0
 11
-49.603108
 21
16.710339
 31
0.0
  0
ARC
  5
34C
330
36
100
AcDbEntity
  8
0
100
AcDbCircle
 10
-49.101908
 20
16.710339
 30
0.0
 40
0.5012
100
AcDbArc
 50
180.0
 51
270.0
  0
LINE
  5
34D
330
36
100
AcDbEntity
  8
0
100
AcDbLine
 10
-46.846508
 20
16.209139
 30
0.0
 11
-49.101908
 21
16.209139
 31
0.0
  0
ARC
  5
34E
330
36
100
AcDbEntity
  8
0
100
AcDbCircle
 10
-53.712948
 20
22.449079
 30
0.0
 40
0.5012
100
AcDbArc
 50
0.0
 51
90.0
  0
LINE
  5
34F
330
36
100
AcDbEntity
  8
0
100
AcDbLine
 10
-53.211748
 20
22.449079
 30
0.0
 11
-53.211748
 21
16.284319
 31
0.0
  0
LINE
  5
350
330
36
100
AcDbEntity
  8
0
100
AcDbLine
 10
-53.712948
 20
22.950279
 30
0.0
 11
-55.96834799999999
 21
22.950279
 31
0.0
  0
ARC
  5
351
330
36
100
AcDbEntity
  8
0
100
AcDbCircle
 10
-55.96834799999999
 20
22.449079
 30
0.0
 40
0.5012
100
AcDbArc
 50
90.0
 51
180.0
  0
ARC
  5
352
330
36
100
AcDbEntity
  8
0
100
AcDbCircle
 10
-55.96834799999999
 20
16.284319
 30
0.0
 40
0.5012
100
AcDbArc
 50
180.0
 51
270.0
  0
LINE
  5
353
330
36
100
AcDbEntity
  8
0
100
AcDbLine
 10
-53.712948
 20
15.783119
 30
0.0
 11
-55.96834799999999
 21
15.783119
 31
0.0
  0
ARC
  5
354
330
36
100
AcDbEntity
  8
0
100
AcDbCircle
 10
-53.712948
 20
16.284319
 30
0.0
 40
0.5012
100
AcDbArc
 50
270.0
 51
0.0
  0
ARC
  5
355
330
36
100
AcDbEntity
  8
0
100
AcDbCircle
 10
-51.407428
 20
13.588049
 30
0.0
 40
1.86929
100
AcDbArc
 50
8.449723999999998
 51
170.852157
  0
LINE
  5
356
330
36
100
AcDbEntity
  8
0
100
AcDbLine
 10
-53.26186800000001
 20
11.848699
 30
0.0
 11
-53.26186800000001
 21
13.773678
 31
0.0
  0
LINE
  5
357
330
36
100
AcDbEntity
  8
0
100
AcDbLine
 10
-49.552988
 20
11.848699
 30
0.0
 11
-49.552988
 21
13.789078
 31
0.0
  0
CIRCLE
  5
358
330
36
100
AcDbEntity
  8
0
100
AcDbCircle
 10
-51.407428
 20
6.510919
 30
0.0
 40
2.004799999999999
  0
LINE
  5
359
330
36
100
AcDbEntity
  8
0
100
AcDbLine
 10
-54.414628
 20
3.904679
 30
0.0
 11
-48.400228
 21
3.904679
 31
0.0
  0
LINE
  5
35A
330
36
100
AcDbEntity
  8
0
100
AcDbLine
 10
-54.414628
 20
3.002518999999998
 30
0.0
 11
-48.400228
 21
3.002518999999998
 31
0.0
  0
LINE
  5
35B
330
36
100
AcDbEntity
  8
0
100
AcDbLine
 10
-54.414628
 20
3.002518999999998
 30
0.0
 11
-54.414628
 21
10.771119
 31
0.0
  0
LINE
  5
35C
330
36
100
AcDbEntity
  8
0
100
AcDbLine
 10
-48.400228
 20
3.002518999999998
 30
0.0
 11
-48.400228
 21
10.771119
 31
0.0
  0
ARC
  5
35D
330
36
100
AcDbEntity
  8
0
100
AcDbCircle
 10
-51.407428
 20
33.134849
 30
0.0
 40
0.7666500000000001
100
AcDbArc
 50
11.295648
 51
168.704352
  0
LINE
  5
35E
330
36
100
AcDbEntity
  8
0
100
AcDbLine
 10
-47.748668
 20
40.66769899999999
 30
0.0
 11
-48.700948
 21
40.66769899999999
 31
0.0
  0
LINE
  5
35F
330
36
100
AcDbEntity
  8
0
100
AcDbLine
 10
-47.748668
 20
40.66769899999999
 30
0.0
 11
-47.748668
 21
37.159299
 31
0.0
  0
LINE
  5
360
330
36
100
AcDbEntity
  8
0
100
AcDbLine
 10
-48.700948
 20
40.66769899999999
 30
0.0
 11
-48.700948
 21
37.159299
 31
0.0
  0
LINE
  5
361
330
36
100
AcDbEntity
  8
0
100
AcDbLine
 10
-47.748668
 20
37.159299
 30
0.0
 11
-48.700948
 21
37.159299
 31
0.0
  0
LINE
  5
362
330
36
100
AcDbEntity
  8
0
100
AcDbLine
 10
-54.11390799999999
 20
36.733279
 30
0.0
 11
-55.066188
 21
36.733279
 31
0.0
  0
LINE
  5
363
330
36
100
AcDbEntity
  8
0
100
AcDbLine
 10
-54.11390799999999
 20
41.093719
 30
0.0
 11
-54.11390799999999
 21
36.733279
 31
0.0
  0
LINE
  5
364
330
36
100
AcDbEntity
  8
0
100
AcDbLine
 10
-55.066188
 20
41.093719
 30
0.0
 11
-55.066188
 21
36.733279
 31
0.0
  0
LINE
  5
365
330
36
100
AcDbEntity
  8
0
100
AcDbLine
 10
-54.11390799999999
 20
41.093719
 30
0.0
 11
-55.066188
 21
41.093719
 31
0.0
  0
LINE
  5
366
330
36
100
AcDbEntity
  8
0
100
AcDbLine
 10
-52.15922800000001
 20
31.996939
 30
0.0
 11
-52.15922800000001
 21
33.285014
 31
0.0
  0
LINE
  5
367
330
36
100
AcDbEntity
  8
0
100
AcDbLine
 10
-50.655628
 20
31.996939
 30
0.0
 11
-50.655628
 21
33.285014
 31
0.0
  0
LINE
  5
368
330
36
100
AcDbEntity
  8
0
100
AcDbLine
 10
-50.655628
 20
31.996939
 30
0.0
 11
-52.15922800000001
 21
31.996939
 31
0.0
  0
LINE
  5
369
330
36
100
AcDbEntity
  8
0
100
AcDbLine
 10
-46.345308
 20
41.569859
 30
0.0
 11
-46.345308
 21
36.257139
 31
0.0
  0
LINE
  5
36A
330
36
100
AcDbEntity
  8
0
100
AcDbLine
 10
-49.603108
 20
41.569859
 30
0.0
 11
-49.603108
 21
36.257139
 31
0.0
  0
ARC
  5
36B
330
36
100
AcDbEntity
  8
0
100
AcDbCircle
 10
-49.101908
 20
36.257139
 30
0.0
 40
0.5012
100
AcDbArc
 50
180.0
 51
270.0
  0
LINE
  5
36C
330
36
100
AcDbEntity
  8
0
100
AcDbLine
 10
-46.846508
 20
35.755939
 30
0.0
 11
-49.101908
 21
35.755939
 31
0.0
  0
ARC
  5
36D
330
36
100
AcDbEntity
  8
0
100
AcDbCircle
 10
-46.846508
 20
36.257139
 30
0.0
 40
0.5012
100
AcDbArc
 50
270.0
 51
0.0
  0
LINE
  5
36E
330
36
100
AcDbEntity
  8
0
100
AcDbLine
 10
-53.712948
 20
35.329919
 30
0.0
 11
-55.96834799999999
 21
35.329919
 31
0.0
  0
ARC
  5
36F
330
36
100
AcDbEntity
  8
0
100
AcDbCircle
 10
-53.712948
 20
35.831119
 30
0.0
 40
0.5012
100
AcDbArc
 50
270.0
 51
0.0
  0
LINE
  5
370
330
36
100
AcDbEntity
  8
0
100
AcDbLine
 10
-53.211748
 20
41.995879
 30
0.0
 11
-53.211748
 21
35.831119
 31
0.0
  0
ARC
  5
371
330
36
100
AcDbEntity
  8
0
100
AcDbCircle
 10
-51.407428
 20
33.134849
 30
0.0
 40
1.86929
100
AcDbArc
 50
8.449723999999998
 51
170.852157
  0
LINE
  5
372
330
36
100
AcDbEntity
  8
0
100
AcDbLine
 10
-49.552988
 20
31.395499
 30
0.0
 11
-49.552988
 21
33.335878
 31
0.0
  0
LINE
  5
373
330
36
100
AcDbEntity
  8
0
100
AcDbLine
 10
-53.26186800000001
 20
31.395499
 30
0.0
 11
-53.26186800000001
 21
33.320478
 31
0.0
  0
ARC
  5
374
330
36
100
AcDbEntity
  8
0
100
AcDbCircle
 10
-27.907428
 20
33.134849
 30
0.0
 40
0.7666500000000001
100
AcDbArc
 50
11.295648
 51
168.704352
  0
LINE
  5
375
330
36
100
AcDbEntity
  8
0
100
AcDbLine
 10
-24.248668
 20
40.66769899999999
 30
0.0
 11
-25.200948
 21
40.66769899999999
 31
0.0
  0
LINE
  5
376
330
36
100
AcDbEntity
  8
0
100
AcDbLine
 10
-24.248668
 20
40.66769899999999
 30
0.0
 11
-24.248668
 21
37.159299
 31
0.0
  0
LINE
  5
377
330
36
100
AcDbEntity
  8
0
100
AcDbLine
 10
-25.200948
 20
40.66769899999999
 30
0.0
 11
-25.200948
 21
37.159299
 31
0.0
  0
LINE
  5
378
330
36
100
AcDbEntity
  8
0
100
AcDbLine
 10
-24.248668
 20
37.159299
 30
0.0
 11
-25.200948
 21
37.159299
 31
0.0
  0
LINE
  5
379
330
36
100
AcDbEntity
  8
0
100
AcDbLine
 10
-30.613908
 20
36.733279
 30
0.0
 11
-31.566188
 21
36.733279
 31
0.0
  0
LINE
  5
37A
330
36
100
AcDbEntity
  8
0
100
AcDbLine
 10
-30.613908
 20
41.093719
 30
0.0
 11
-30.613908
 21
36.733279
 31
0.0
  0
LINE
  5
37B
330
36
100
AcDbEntity
  8
0
100
AcDbLine
 10
-31.566188
 20
41.093719
 30
0.0
 11
-31.566188
 21
36.733279
 31
0.0
  0
LINE
  5
37C
330
36
100
AcDbEntity
  8
0
100
AcDbLine
 10
-27.15562800000001
 20
31.996939
 30
0.0
 11
-27.15562800000001
 21
33.285014
 31
0.0
  0
LINE
  5
37D
330
36
100
AcDbEntity
  8
0
100
AcDbLine
 10
-28.659228
 20
31.996939
 30
0.0
 11
-28.659228
 21
33.285014
 31
0.0
  0
LINE
  5
37E
330
36
100
AcDbEntity
  8
0
100
AcDbLine
 10
-28.659228
 20
31.996939
 30
0.0
 11
-27.15562800000001
 21
31.996939
 31
0.0
  0
LINE
  5
37F
330
36
100
AcDbEntity
  8
0
100
AcDbLine
 10
-22.845308
 20
41.995879
 30
0.0
 11
-22.845308
 21
35.831119
 31
0.0
  0
ARC
  5
380
330
36
100
AcDbEntity
  8
0
100
AcDbCircle
 10
-23.346508
 20
35.831119
 30
0.0
 40
0.5012
100
AcDbArc
 50
270.0
 51
0.0
  0
LINE
  5
381
330
36
100
AcDbEntity
  8
0
100
AcDbLine
 10
-25.601908
 20
35.329919
 30
0.0
 11
-23.346508
 21
35.329919
 31
0.0
  0
ARC
  5
382
330
36
100
AcDbEntity
  8
0
100
AcDbCircle
 10
-25.601908
 20
35.831119
 30
0.0
 40
0.5012
100
AcDbArc
 50
180.0
 51
270.0
  0
LINE
  5
383
330
36
100
AcDbEntity
  8
0
100
AcDbLine
 10
-26.103108
 20
41.995879
 30
0.0
 11
-26.103108
 21
35.831119
 31
0.0
  0
ARC
  5
384
330
36
100
AcDbEntity
  8
0
100
AcDbCircle
 10
-27.907428
 20
33.134849
 30
0.0
 40
1.86929
100
AcDbArc
 50
9.147842999999999
 51
171.550276
  0
ARC
  5
385
330
36
100
AcDbEntity
  8
0
100
AcDbCircle
 10
-32.468348
 20
36.257139
 30
0.0
 40
0.5012
100
AcDbArc
 50
180.0
 51
270.0
  0
LINE
  5
386
330
36
100
AcDbEntity
  8
0
100
AcDbLine
 10
-32.468348
 20
35.755939
 30
0.0
 11
-30.212948
 21
35.755939
 31
0.0
  0
ARC
  5
387
330
36
100
AcDbEntity
  8
0
100
AcDbCircle
 10
-30.212948
 20
36.257139
 30
0.0
 40
0.5012
100
AcDbArc
 50
270.0
 51
0.0
  0
LINE
  5
388
330
36
100
AcDbEntity
  8
0
100
AcDbLine
 10
-29.711748
 20
41.569859
 30
0.0
 11
-29.711748
 21
36.257139
 31
0.0
  0
LINE
  5
389
330
36
100
AcDbEntity
  8
0
100
AcDbLine
 10
-26.052988
 20
31.395499
 30
0.0
 11
-26.052988
 21
33.320478
 31
0.0
  0
LINE
  5
38A
330
36
100
AcDbEntity
  8
0
100
AcDbLine
 10
-29.761868
 20
31.395499
 30
0.0
 11
-29.761868
 21
33.335878
 31
0.0
  0
LINE
  5
38B
330
36
100
AcDbEntity
  8
0
100
AcDbLine
 10
-30.613908
 20
41.093719
 30
0.0
 11
-31.566188
 21
41.093719
 31
0.0
  0
LINE
  5
38C
330
36
100
AcDbEntity
  8
0
100
AcDbLine
 10
-30.613908
 20
21.546919
 30
0.0
 11
-30.613908
 21
17.186479
 31
0.0
  0
LINE
  5
38D
330
36
100
AcDbEntity
  8
0
100
AcDbLine
 10
-31.566188
 20
21.546919
 30
0.0
 11
-31.566188
 21
17.186479
 31
0.0
  0
LINE
  5
38E
330
36
100
AcDbEntity
  8
0
100
AcDbLine
 10
-30.613908
 20
21.546919
 30
0.0
 11
-31.566188
 21
21.546919
 31
0.0
  0
LINE
  5
38F
330
36
100
AcDbEntity
  8
0
100
AcDbLine
 10
-30.613908
 20
17.186479
 30
0.0
 11
-31.566188
 21
17.186479
 31
0.0
  0
LINE
  5
390
330
36
100
AcDbEntity
  8
0
100
AcDbLine
 10
-28.659228
 20
12.450139
 30
0.0
 11
-28.659228
 21
13.738214
 31
0.0
  0
ARC
  5
391
330
36
100
AcDbEntity
  8
0
100
AcDbCircle
 10
-27.907428
 20
13.588049
 30
0.0
 40
0.7666500000000001
100
AcDbArc
 50
11.295648
 51
168.704352
  0
LINE
  5
392
330
36
100
AcDbEntity
  8
0
100
AcDbLine
 10
-27.15562800000001
 20
12.450139
 30
0.0
 11
-27.15562800000001
 21
13.738214
 31
0.0
  0
LINE
  5
393
330
36
100
AcDbEntity
  8
0
100
AcDbLine
 10
-28.659228
 20
12.450139
 30
0.0
 11
-27.15562800000001
 21
12.450139
 31
0.0
  0
LINE
  5
394
330
36
100
AcDbEntity
  8
0
100
AcDbLine
 10
-24.248668
 20
21.120899
 30
0.0
 11
-25.200948
 21
21.120899
 31
0.0
  0
LINE
  5
395
330
36
100
AcDbEntity
  8
0
100
AcDbLine
 10
-24.248668
 20
21.120899
 30
0.0
 11
-24.248668
 21
17.612499
 31
0.0
  0
LINE
  5
396
330
36
100
AcDbEntity
  8
0
100
AcDbLine
 10
-25.200948
 20
21.120899
 30
0.0
 11
-25.200948
 21
17.612499
 31
0.0
  0
LINE
  5
397
330
36
100
AcDbEntity
  8
0
100
AcDbLine
 10
-24.248668
 20
17.612499
 30
0.0
 11
-25.200948
 21
17.612499
 31
0.0
  0
ARC
  5
398
330
36
100
AcDbEntity
  8
0
100
AcDbCircle
 10
-27.907428
 20
13.588049
 30
0.0
 40
1.86929
100
AcDbArc
 50
9.147842999999999
 51
171.550276
  0
LINE
  5
399
330
36
100
AcDbEntity
  8
0
100
AcDbLine
 10
-26.103108
 20
22.449079
 30
0.0
 11
-26.103108
 21
16.284319
 31
0.0
  0
LINE
  5
39A
330
36
100
AcDbEntity
  8
0
100
AcDbLine
 10
-22.845308
 20
22.449079
 30
0.0
 11
-22.845308
 21
16.284319
 31
0.0
  0
ARC
  5
39B
330
36
100
AcDbEntity
  8
0
100
AcDbCircle
 10
-23.346508
 20
16.284319
 30
0.0
 40
0.5012
100
AcDbArc
 50
270.0
 51
0.0
  0
LINE
  5
39C
330
36
100
AcDbEntity
  8
0
100
AcDbLine
 10
-25.601908
 20
15.783119
 30
0.0
 11
-23.346508
 21
15.783119
 31
0.0
  0
ARC
  5
39D
330
36
100
AcDbEntity
  8
0
100
AcDbCircle
 10
-25.601908
 20
16.284319
 30
0.0
 40
0.5012
100
AcDbArc
 50
180.0
 51
270.0
  0
LINE
  5
39E
330
36
100
AcDbEntity
  8
0
100
AcDbLine
 10
-32.468348
 20
16.209139
 30
0.0
 11
-30.212948
 21
16.209139
 31
0.0
  0
ARC
  5
39F
330
36
100
AcDbEntity
  8
0
100
AcDbCircle
 10
-30.212948
 20
16.710339
 30
0.0
 40
0.5012
100
AcDbArc
 50
270.0
 51
0.0
  0
LINE
  5
3A0
330
36
100
AcDbEntity
  8
0
100
AcDbLine
 10
-29.711748
 20
22.023059
 30
0.0
 11
-29.711748
 21
16.710339
 31
0.0
  0
LINE
  5
3A1
330
36
100
AcDbEntity
  8
0
100
AcDbLine
 10
-29.761868
 20
11.848699
 30
0.0
 11
-29.761868
 21
13.789078
 31
0.0
  0
LINE
  5
3A2
330
36
100
AcDbEntity
  8
0
100
AcDbLine
 10
-26.052988
 20
11.848699
 30
0.0
 11
-26.052988
 21
13.773678
 31
0.0
  0
CIRCLE
  5
3A3
330
36
100
AcDbEntity
  8
0
100
AcDbCircle
 10
-27.907428
 20
48.611719
 30
0.0
 40
2.004799999999999
  0
CIRCLE
  5
3A4
330
36
100
AcDbEntity
  8
0
100
AcDbCircle
 10
-51.407428
 20
48.611719
 30
0.0
 40
2.004799999999999
  0
CIRCLE
  5
3A5
330
36
100
AcDbEntity
  8
0
100
AcDbCircle
 10
-27.907428
 20
6.510919
 30
0.0
 40
2.004799999999999
  0
LINE
  5
3A6
330
36
100
AcDbEntity
  8
0
100
AcDbLine
 10
-24.900228
 20
3.904679
 30
0.0
 11
-30.914628
 21
3.904679
 31
0.0
  0
LINE
  5
3A7
330
36
100
AcDbEntity
  8
0
100
AcDbLine
 10
-24.900228
 20
3.002518999999998
 30
0.0
 11
-30.914628
 21
3.002518999999998
 31
0.0
  0
LINE
  5
3A8
330
36
100
AcDbEntity
  8
0
100
AcDbLine
 10
-30.914628
 20
3.002518999999998
 30
0.0
 11
-30.914628
 21
10.771119
 31
0.0
  0
LINE
  5
3A9
330
36
100
AcDbEntity
  8
0
100
AcDbLine
 10
-24.900228
 20
3.002518999999998
 30
0.0
 11
-24.900228
 21
10.771119
 31
0.0
  0
LINE
  5
3AA
330
36
100
AcDbEntity
  8
0
100
AcDbLine
 10
119.582191
 20
-84.08453214801175
 30
0.0
 11
119.281471
 21
-84.08453214801175
 31
0.0
  0
LINE
  5
3AB
330
36
100
AcDbEntity
  8
0
100
AcDbLine
 10
119.281471
 20
-84.08453214801175
 30
0.0
 11
119.281471
 21
-83.12204214801175
 31
0.0
  0
ARC
  5
3AC
330
36
100
AcDbEntity
  8
0
100
AcDbCircle
 10
119.958091
 20
-83.21485714801175
 30
0.0
 40
0.6840450000000004
100
AcDbArc
 50
8.449723999999967
 51
170.852157
  0
LINE
  5
3AD
330
36
100
AcDbEntity
  8
0
100
AcDbLine
 10
120.634711
 20
-84.08453214801175
 30
0.0
 11
120.634711
 21
-83.11434314801175
 31
0.0
  0
LINE
  5
3AE
330
36
100
AcDbEntity
  8
0
100
AcDbLine
 10
120.634711
 20
-84.08453214801175
 30
0.0
 11
120.333991
 21
-84.08453214801175
 31
0.0
  0
LINE
  5
3AF
330
36
100
AcDbEntity
  8
0
100
AcDbLine
 10
119.582191
 20
-84.08453214801175
 30
0.0
 11
120.333991
 21
-84.08453214801175
 31
0.0
  0
LINE
  5
3B0
330
36
100
AcDbEntity
  8
0
100
AcDbLine
 10
118.805331
 20
-79.03494214801177
 30
0.0
 11
118.805331
 21
-81.61612214801177
 31
0.0
  0
LINE
  5
3B1
330
36
100
AcDbEntity
  8
0
100
AcDbLine
 10
117.928231
 20
-79.03494214801177
 30
0.0
 11
117.928231
 21
-81.61612214801177
 31
0.0
  0
LINE
  5
3B2
330
36
100
AcDbEntity
  8
0
100
AcDbLine
 10
118.805331
 20
-79.03494214801177
 30
0.0
 11
117.928231
 21
-79.03494214801177
 31
0.0
  0
LINE
  5
3B3
330
36
100
AcDbEntity
  8
0
100
AcDbLine
 10
118.805331
 20
-81.61612214801177
 30
0.0
 11
117.928231
 21
-81.61612214801177
 31
0.0
  0
LINE
  5
3B4
330
36
100
AcDbEntity
  8
0
100
AcDbLine
 10
121.110851
 20
-79.24795214801178
 30
0.0
 11
121.110851
 21
-81.40311214801178
 31
0.0
  0
LINE
  5
3B5
330
36
100
AcDbEntity
  8
0
100
AcDbLine
 10
121.987951
 20
-79.24795214801178
 30
0.0
 11
121.987951
 21
-81.40311214801178
 31
0.0
  0
LINE
  5
3B6
330
36
100
AcDbEntity
  8
0
100
AcDbLine
 10
121.97848
 20
-79.24795214801178
 30
0.0
 11
121.110851
 21
-79.24795214801178
 31
0.0
  0
LINE
  5
3B7
330
36
100
AcDbEntity
  8
0
100
AcDbLine
 10
121.987951
 20
-81.40311214801178
 30
0.0
 11
121.110851
 21
-81.40311214801178
 31
0.0
  0
CIRCLE
  5
3B8
330
36
100
AcDbEntity
  8
0
 62
     3
100
AcDbCircle
 10
85.57596957885143
 20
-63.40160400000001
 30
0.0
 40
1.199999999999999
  0
CIRCLE
  5
3B9
330
36
100
AcDbEntity
  8
0
 62
     3
100
AcDbCircle
 10
85.57596957885143
 20
-45.437208
 30
0.0
 40
1.199999999999999
  0
LINE
  5
3BA
330
36
100
AcDbEntity
  8
0
 62
     3
100
AcDbLine
 10
81.8003415788514
 20
-82.54399000000002
 30
0.0
 11
89.80034157885139
 21
-82.54399000000002
 31
0.0
  0
LINE
  5
3BB
330
36
100
AcDbEntity
  8
0
 62
     3
100
AcDbLine
 10
82.60034157885142
 20
-83.34399000000002
 30
0.0
 11
89.00034157885139
 21
-83.34399000000002
 31
0.0
  0
LINE
  5
3BC
330
36
100
AcDbEntity
  8
0
 62
     3
100
AcDbLine
 10
83.4003415788514
 20
-84.14399000000001
 30
0.0
 11
88.20034157885139
 21
-84.14399000000001
 31
0.0
  0
LINE
  5
3BD
330
36
100
AcDbEntity
  8
0
 62
     3
100
AcDbLine
 10
84.2003415788514
 20
-84.94398999999999
 30
0.0
 11
87.40034157885141
 21
-84.94398999999999
 31
0.0
  0
CIRCLE
  5
3BE
330
36
100
AcDbEntity
  8
0
 62
     3
100
AcDbCircle
 10
85.57596957885143
 20
-79.401604
 30
0.0
 40
1.199999999999999
  0
CIRCLE
  5
3C8
330
36
100
AcDbEntity
  8
0
 62
     3
100
AcDbCircle
 10
119.957978
 20
-81.57553214801177
 30
0.0
 40
4.375
  0
TEXT
  5
3C9
330
36
100
AcDbEntity
  8
0
 62
     3
100
AcDbText
 10
122.128037
 20
-118.319604
 30
0.0
 40
4.5
  1
TBO-300
  7
高4.5
100
AcDbText
  0
TEXT
  5
3CA
330
36
100
AcDbEntity
  8
0
 62
     3
100
AcDbText
 10
116.620467
 20
-110.881024
 30
0.0
 40
4.5
  1
昇降圧自在型トランス
 41
0.8
  7
高4.5
100
AcDbText
  0
TEXT
  5
3CB
330
36
100
AcDbEntity
  8
0
 62
     4
100
AcDbText
 10
119.996739
 20
-31.22663
 30
0.0
 40
4.5
  1
主　　仕　　様
  7
高4.5
100
AcDbText
  0
TEXT
  5
3E2
330
36
100
AcDbEntity
  8
0
 62
     3
100
AcDbText
 10
95.986261
 20
-38.32716
 30
0.0
 40
3.2
  1
型　　式
  7
高3.2
100
AcDbText
  0
TEXT
  5
3E3
330
36
100
AcDbEntity
  8
0
 62
     3
100
AcDbText
 10
95.622422
 20
-44.40025239000635
 30
0.0
 40
3.2
  1
入力電圧
  7
高3.2
100
AcDbText
  0
TEXT
  5
3E4
330
36
100
AcDbEntity
  8
0
 62
     3
100
AcDbText
 10
95.986261
 20
-50.32716
 30
0.0
 40
3.2
  1
出力電圧
  7
高3.2
100
AcDbText
  0
TEXT
  5
3E5
330
36
100
AcDbEntity
  8
0
 62
     3
100
AcDbText
 10
95.986261
 20
-56.32716
 30
0.0
 40
3.2
  1
容　　量
  7
高3.2
100
AcDbText
  0
TEXT
  5
3E6
330
36
100
AcDbEntity
  8
0
 62
     3
100
AcDbText
 10
95.986261
 20
-62.32715999999999
 30
0.0
 40
3.2
  1
質　　量
  7
高3.2
100
AcDbText
  0
TEXT
  5
3E7
330
36
100
AcDbEntity
  8
0
 62
     3
100
AcDbText
 10
95.986261
 20
-68.32716000000002
 30
0.0
 40
3.2
  1
絶縁種類
  7
高3.2
100
AcDbText
  0
TEXT
  5
3E8
330
36
100
AcDbEntity
  8
0
 62
     3
100
AcDbText
 10
142.7459093935722
 20
-38.32686300000001
 30
0.0
 40
3.2
  1
TBO-300
  7
高3.2
100
AcDbText
  0
TEXT
  5
3E9
330
36
100
AcDbEntity
  8
0
 62
     3
100
AcDbText
 10
118.8905747634906
 20
-44.50833730326587
 30
0.0
 40
3.2
  1
AC100V/AC200V (50/60HZ)
  7
高3.2
100
AcDbText
  0
TEXT
  5
3EB
330
36
100
AcDbEntity
  8
0
 62
     3
100
AcDbText
 10
123.3527243891255
 20
-49.98729100000002
 30
0.0
 40
3.2
  1
AC100V、AC115V、200V
  7
高3.2
100
AcDbText
  0
TEXT
  5
3EC
330
36
100
AcDbEntity
  8
0
 62
     3
100
AcDbText
 10
140.2445245983926
 20
-56.061689
 30
0.0
 40
3.2
  1
3KVA　連続
  7
高3.2
100
AcDbText
  0
TEXT
  5
3EE
330
36
100
AcDbEntity
  8
0
 62
     3
100
AcDbText
 10
142.2310458120505
 20
-62.023098
 30
0.0
 40
3.2
  1
約17.5kg
  7
高3.2
100
AcDbText
  0
TEXT
  5
3EF
330
36
100
AcDbEntity
  8
0
 62
     3
100
AcDbText
 10
143.7756351423959
 20
-68.35559300000003
 30
0.0
 40
3.2
  1
B種絶縁
  7
高3.2
100
AcDbText
  0
TEXT
  5
3F0
330
36
100
AcDbEntity
  8
0
 62
     3
100
AcDbText
 10
31.63428957885141
 20
-36.74686400000001
 30
0.0
 40
3.2
  1
入力プラグ結線
  7
高3.2
100
AcDbText
  0
CIRCLE
  5
3FF
330
36
100
AcDbEntity
  8
0
100
AcDbCircle
 10
163.9856072962625
 20
74.17713891846165
 30
0.0
 40
5.0
  0
TEXT
  5
400
330
36
100
AcDbEntity
  8
0
 62
     4
100
AcDbText
 10
161.752802993009
 20
71.06960735157939
 30
0.0
 40
6.299999999999998
  1
3
  7
高6.3
100
AcDbText
  0
LINE
  5
41F
330
36
100
AcDbEntity
  8
0
100
AcDbLine
 10
31.63428957885141
 20
-37.28991914925972
 30
0.0
 11
57.7703805371027
 21
-37.28991914925972
 31
0.0
  0
LINE
  5
420
330
36
100
AcDbEntity
  8
0
100
AcDbLine
 10
33.9959875788514
 20
-70.76447299999998
 30
0.0
 11
37.99598757885141
 21
-70.76447299999998
 31
0.0
  0
LINE
  5
421
330
36
100
AcDbEntity
  8
0
100
AcDbLine
 10
34.39598757885141
 20
-71.164473
 30
0.0
 11
37.59598757885141
 21
-71.164473
 31
0.0
  0
LINE
  5
422
330
36
100
AcDbEntity
  8
0
100
AcDbLine
 10
34.79598757885141
 20
-71.56447299999998
 30
0.0
 11
37.19598757885143
 21
-71.56447299999998
 31
0.0
  0
LINE
  5
423
330
36
100
AcDbEntity
  8
0
100
AcDbLine
 10
35.1959875788514
 20
-71.96447299999999
 30
0.0
 11
36.7959875788514
 21
-71.96447299999999
 31
0.0
  0
LINE
  5
424
330
36
100
AcDbEntity
  8
0
100
AcDbLine
 10
35.99598757885143
 20
-69.59365699999999
 30
0.0
 11
35.99598757885143
 21
-70.76447299999998
 31
0.0
  0
TEXT
  5
425
330
36
100
AcDbEntity
  8
0
100
AcDbText
 10
60.97106357885142
 20
-62.583408
 30
0.0
 40
3.2
  1
黒線
  7
高3.2
100
AcDbText
  0
TEXT
  5
426
330
36
100
AcDbEntity
  8
0
100
AcDbText
 10
54.9269085788514
 20
-77.82958
 30
0.0
 40
3.2
  1
緑線（アース）
  7
高3.2
100
AcDbText
  0
TEXT
  5
427
330
36
100
AcDbEntity
  8
0
100
AcDbText
 10
60.41872657885139
 20
-44.987852
 30
0.0
 40
3.2
  1
白線
  7
高3.2
100
AcDbText
  0
LINE
  5
428
330
36
100
AcDbEntity
  8
0
100
AcDbLine
 10
84.37596957885141
 20
-79.401604
 30
0.0
 11
32.39336157885141
 21
-79.401604
 31
0.0
  0
LINE
  5
429
330
36
100
AcDbEntity
  8
0
100
AcDbLine
 10
85.79994157885137
 20
-80.711139
 30
0.0
 11
85.79994157885137
 21
-82.54399000000002
 31
0.0
  0
LINE
  5
42A
330
36
100
AcDbEntity
  8
0
100
AcDbLine
 10
32.39336157885141
 20
-79.401604
 30
0.0
 11
32.39336157885141
 21
-72.52160400000002
 31
0.0
  0
TEXT
  5
42B
330
36
100
AcDbEntity
  8
0
 62
     4
100
AcDbText
 10
98.227682
 20
-84.50922314801175
 30
0.0
 40
4.0
  1
100V
 41
1.090908999999999
100
AcDbText
  0
TEXT
  5
42C
330
36
100
AcDbEntity
  8
0
 62
     3
100
AcDbText
 10
-33.74570900000001
 20
65.320231
 30
0.0
 40
2.399999999999999
  1
3KVA
 41
1.274038999999999
100
AcDbText
  0
LINE
  5
42D
330
36
100
AcDbEntity
  8
0
100
AcDbLine
 10
-20.245859
 20
65.320231
 30
0.0
 11
-20.245859
 21
67.57023100000001
 31
0.0
  0
LINE
  5
42E
330
36
100
AcDbEntity
  8
0
100
AcDbLine
 10
-35.245859
 20
65.320231
 30
0.0
 11
-35.245859
 21
67.57023100000001
 31
0.0
  0
LINE
  5
42F
330
36
100
AcDbEntity
  8
0
100
AcDbLine
 10
-34.870859
 20
67.94523100000001
 30
0.0
 11
-20.620859
 21
67.94523100000001
 31
0.0
  0
LINE
  5
430
330
36
100
AcDbEntity
  8
0
100
AcDbLine
 10
-20.620859
 20
64.94523100000001
 30
0.0
 11
-34.870859
 21
64.94523100000001
 31
0.0
  0
ARC
  5
431
330
36
100
AcDbEntity
  8
0
100
AcDbCircle
 10
-20.620859
 20
67.57023100000001
 30
0.0
 40
0.375
100
AcDbArc
 50
0.0
 51
90.0
  0
ARC
  5
432
330
36
100
AcDbEntity
  8
0
100
AcDbCircle
 10
-34.870859
 20
67.57023100000001
 30
0.0
 40
0.375
100
AcDbArc
 50
90.0
 51
180.0
  0
ARC
  5
433
330
36
100
AcDbEntity
  8
0
100
AcDbCircle
 10
-34.870859
 20
65.320231
 30
0.0
 40
0.375
100
AcDbArc
 50
180.0
 51
270.0
  0
ARC
  5
434
330
36
100
AcDbEntity
  8
0
100
AcDbCircle
 10
-20.620859
 20
65.320231
 30
0.0
 40
0.375
100
AcDbArc
 50
270.0
 51
0.0
  0
TEXT
  5
435
330
36
100
AcDbEntity
  8
0
100
AcDbText
 10
-50.05131200000001
 20
-2.249340999999998
 30
0.0
 40
3.779999999999998
  1
日動工業株式会社
 41
0.833333
100
AcDbText
  0
CIRCLE
  5
436
330
36
100
AcDbEntity
  8
0
100
AcDbCircle
 10
-52.92279399999999
 20
-0.203548
 30
0.0
 40
1.478399999999999
  0
LINE
  5
438
330
36
100
AcDbEntity
  8
0
100
AcDbLine
 10
-97.907428
 20
46.061319
 30
0.0
 11
-103.907428
 21
46.061319
 31
0.0
  0
LINE
  5
439
330
36
100
AcDbEntity
  8
0
 62
     3
100
AcDbLine
 10
-79.90742799999998
 20
59.061319
 30
0.0
 11
-79.90742799999998
 21
63.061319
 31
0.0
  0
TEXT
  5
4A0
330
36
100
AcDbEntity
  8
0
 62
     3
100
AcDbText
 10
119.337333
 20
-125.981777
 30
0.0
 40
3.2
  1
別　掲
  7
高3.2
100
AcDbText
  0
CIRCLE
  5
4A7
330
36
100
AcDbEntity
  8
0
100
AcDbCircle
 10
-36.61086399999999
 20
117.0386870689281
 30
0.0
 40
5.0
  0
TEXT
  5
4A8
330
36
100
AcDbEntity
  8
0
 62
     4
100
AcDbText
 10
-39.20212033617735
 20
114.7917107323666
 30
0.0
 40
4.5
  1
10
  7
高4.5
100
AcDbText
  0
CIRCLE
  5
4AF
330
36
100
AcDbEntity
  8
0
100
AcDbCircle
 10
-13.278171
 20
117.0386870689281
 30
0.0
 40
5.0
  0
TEXT
  5
4B0
330
36
100
AcDbEntity
  8
0
 62
     4
100
AcDbText
 10
-15.67149757559946
 20
114.8434819402024
 30
0.0
 40
4.5
  1
11
  7
高4.5
100
AcDbText
  0
CIRCLE
  5
4B7
330
36
100
AcDbEntity
  8
0
100
AcDbCircle
 10
0.3396510000000035
 20
117.0386870689281
 30
0.0
 40
5.0
  0
TEXT
  5
4B8
330
36
100
AcDbEntity
  8
0
 62
     4
100
AcDbText
 10
-2.642897598565693
 20
114.818913145612
 30
0.0
 40
4.5
  1
12
  7
高4.5
100
AcDbText
  0
LINE
  5
4B9
330
36
100
AcDbEntity
  8
0
 62
     3
100
AcDbLine
 10
187.689438
 20
-103.458911
 30
0.0
 11
187.689438
 21
-97.45891100000001
 31
0.0
  0
LINE
  5
4BA
330
36
100
AcDbEntity
  8
0
 62
     3
100
AcDbLine
 10
161.689438
 20
-103.458911
 30
0.0
 11
161.689438
 21
-97.45891100000001
 31
0.0
  0
LINE
  5
4BB
330
36
100
AcDbEntity
  8
0
 62
     3
100
AcDbLine
 10
213.388802
 20
-97.45891100000001
 30
0.0
 11
161.689438
 21
-97.45891100000001
 31
0.0
  0
TEXT
  5
4BC
330
36
100
AcDbEntity
  8
0
 62
     3
100
AcDbText
 10
167.685036
 20
-102.662562
 30
0.0
 40
4.5
  1
コード
  7
高4.5
100
AcDbText
  0
TEXT
  5
4BD
330
36
100
AcDbEntity
  8
0
 62
     3
100
AcDbText
 10
189.676585
 20
-102.814774
 30
0.0
 40
4.5
  1
5655
  7
高4.5
100
AcDbText
  0
LINE
  5
71E
330
36
100
AcDbEntity
  8
0
100
AcDbLine
 10
-77.20264638761405
 20
-143.124634
 30
0.0
 11
-77.20264638761405
 21
-43.12463399999999
 31
0.0
  0
TEXT
  5
721
330
36
100
AcDbEntity
  8
0
 62
     3
100
AcDbText
 10
-166.7207147804097
 20
-142.624634
 30
0.0
 40
3.2
  1
部　　品　　名
 41
0.8
  7
高3.2
100
AcDbText
  0
TEXT
  5
722
330
36
100
AcDbEntity
  8
0
 62
     3
100
AcDbText
 10
-166.7207147804097
 20
-137.624634
 30
0.0
 40
3.2
  1
取手ハンドル
 41
0.8
  7
高3.2
100
AcDbText
  0
TEXT
  5
723
330
36
100
AcDbEntity
  8
0
 62
     3
100
AcDbText
 10
-166.7207147804097
 20
-127.624634
 30
0.0
 40
3.2
  1
ケース本体
 41
0.8
  7
高3.2
100
AcDbText
  0
TEXT
  5
724
330
36
100
AcDbEntity
  8
0
 62
     3
100
AcDbText
 10
-166.7207147804097
 20
-122.624634
 30
0.0
 40
3.2
  1
4Pプラグ
 41
0.8
  7
高3.2
100
AcDbText
  0
TEXT
  5
725
330
36
100
AcDbEntity
  8
0
 62
     3
100
AcDbText
 10
-166.7207147804097
 20
-117.624634
 30
0.0
 40
3.2
  1
電線
 41
0.8
  7
高3.2
100
AcDbText
  0
TEXT
  5
726
330
36
100
AcDbEntity
  8
0
 62
     3
100
AcDbText
 10
-166.7207147804097
 20
-112.624634
 30
0.0
 40
3.2
  1
パネル
 41
0.8
  7
高3.2
100
AcDbText
  0
TEXT
  5
727
330
36
100
AcDbEntity
  8
0
 62
     3
100
AcDbText
 10
-166.7207147804097
 20
-107.624634
 30
0.0
 40
3.2
  1
プロテクター
 41
0.8
  7
高3.2
100
AcDbText
  0
TEXT
  5
728
330
36
100
AcDbEntity
  8
0
 62
     3
100
AcDbText
 10
-166.7207147804097
 20
-102.624634
 30
0.0
 40
3.2
  1
ゴム脚
 41
0.8
  7
高3.2
100
AcDbText
  0
TEXT
  5
729
330
36
100
AcDbEntity
  8
0
 62
     3
100
AcDbText
 10
-166.7207147804097
 20
-97.62463400000001
 30
0.0
 40
3.2
  1
コンセント（白）
 41
0.8
  7
高3.2
100
AcDbText
  0
TEXT
  5
72A
330
36
100
AcDbEntity
  8
0
 62
     3
100
AcDbText
 10
-166.7207147804097
 20
-92.62463399999999
 30
0.0
 40
3.2
  1
コンセント（白色）
 41
0.8
  7
高3.2
100
AcDbText
  0
TEXT
  5
72B
330
36
100
AcDbEntity
  8
0
 62
     3
100
AcDbText
 10
-166.7207147804097
 20
-87.62463399999999
 30
0.0
 40
3.2
  1
Wコンセント（白色）
 41
0.8
  7
高3.2
100
AcDbText
  0
TEXT
  5
72C
330
36
100
AcDbEntity
  8
0
 62
     3
100
AcDbText
 10
-166.7207147804097
 20
-77.624634
 30
0.0
 40
3.2
  1
アース金具
 41
0.8
  7
高3.2
100
AcDbText
  0
TEXT
  5
72D
330
36
100
AcDbEntity
  8
0
 62
     3
100
AcDbText
 10
-166.7207147804097
 20
-72.62463399999998
 30
0.0
 40
3.2
  1
押しボタンスイッチ
 41
0.8
  7
高3.2
100
AcDbText
  0
TEXT
  5
72E
330
36
100
AcDbEntity
  8
0
 62
     3
100
AcDbText
 10
-166.7207147804097
 20
-62.62463399999999
 30
0.0
 40
3.2
  1
入力電圧計
 41
0.8
  7
高3.2
100
AcDbText
  0
TEXT
  5
72F
330
36
100
AcDbEntity
  8
0
 62
     3
100
AcDbText
 10
-166.7207147804097
 20
-57.62463399999999
 30
0.0
 40
3.2
  1
安全ブレーカー
 41
0.8
  7
高3.2
100
AcDbText
  0
TEXT
  5
730
330
36
100
AcDbEntity
  8
0
 62
     3
100
AcDbText
 10
-175.6197310769231
 20
-57.62463399999999
 30
0.0
 40
3.2
  1
16
 41
0.8
  7
高3.2
100
AcDbText
  0
TEXT
  5
731
330
36
100
AcDbEntity
  8
0
 62
     3
100
AcDbText
 10
-175.5632887692307
 20
-62.62463400000001
 30
0.0
 40
3.2
  1
15
 41
0.8
  7
高3.2
100
AcDbText
  0
TEXT
  5
732
330
36
100
AcDbEntity
  8
0
 62
     3
100
AcDbText
 10
-175.5673841538461
 20
-67.624634
 30
0.0
 40
3.2
  1
14
 41
0.8
  7
高3.2
100
AcDbText
  0
TEXT
  5
733
330
36
100
AcDbEntity
  8
0
 62
     3
100
AcDbText
 10
-175.562678
 20
-72.62463399999998
 30
0.0
 40
3.2
  1
13
 41
0.8
  7
高3.2
100
AcDbText
  0
TEXT
  5
734
330
36
100
AcDbEntity
  8
0
 62
     3
100
AcDbText
 10
-175.7178856923077
 20
-77.624634
 30
0.0
 40
3.2
  1
12
 41
0.8
  7
高3.2
100
AcDbText
  0
TEXT
  5
735
330
36
100
AcDbEntity
  8
0
 62
     3
100
AcDbText
 10
-175.6481403076923
 20
-82.62463399999999
 30
0.0
 40
3.2
  1
11
 41
0.8
  7
高3.2
100
AcDbText
  0
TEXT
  5
736
330
36
100
AcDbEntity
  8
0
 62
     3
100
AcDbText
 10
-175.6144141538461
 20
-87.62463399999999
 30
0.0
 40
3.2
  1
10
 41
0.8
  7
高3.2
100
AcDbText
  0
TEXT
  5
737
330
36
100
AcDbEntity
  8
0
 62
     3
100
AcDbText
 10
-174.1861846711429
 20
-92.62463399999999
 30
0.0
 40
3.2
  1
9
 41
0.8
  7
高3.2
100
AcDbText
  0
TEXT
  5
738
330
36
100
AcDbEntity
  8
0
 62
     3
100
AcDbText
 10
-174.2018523634506
 20
-97.62463400000001
 30
0.0
 40
3.2
  1
8
 41
0.8
  7
高3.2
100
AcDbText
  0
TEXT
  5
739
330
36
100
AcDbEntity
  8
0
 62
     3
100
AcDbText
 10
-174.1596846711429
 20
-107.624634
 30
0.0
 40
3.2
  1
6
 41
0.8
  7
高3.2
100
AcDbText
  0
TEXT
  5
73A
330
36
100
AcDbEntity
  8
0
 62
     3
100
AcDbText
 10
-174.1596846711429
 20
-102.624634
 30
0.0
 40
3.2
  1
7
 41
0.8
  7
高3.2
100
AcDbText
  0
TEXT
  5
73B
330
36
100
AcDbEntity
  8
0
 62
     3
100
AcDbText
 10
-174.1596846711429
 20
-112.624634
 30
0.0
 40
3.2
  1
5
 41
0.8
  7
高3.2
100
AcDbText
  0
TEXT
  5
73D
330
36
100
AcDbEntity
  8
0
 62
     3
100
AcDbText
 10
-174.1596846711429
 20
-122.624634
 30
0.0
 40
3.2
  1
4
 41
0.8
  7
高3.2
100
AcDbText
  0
TEXT
  5
73E
330
36
100
AcDbEntity
  8
0
 62
     3
100
AcDbText
 10
-174.1596846711429
 20
-127.624634
 30
0.0
 40
3.2
  1
3
 41
0.8
  7
高3.2
100
AcDbText
  0
TEXT
  5
73F
330
36
100
AcDbEntity
  8
0
 62
     3
100
AcDbText
 10
-174.1596846711429
 20
-137.624634
 30
0.0
 40
3.2
  1
1
 41
0.8
  7
高3.2
100
AcDbText
  0
TEXT
  5
740
330
36
100
AcDbEntity
  8
0
 62
     3
100
AcDbText
 10
-175.4671995384615
 20
-142.624634
 30
0.0
 40
3.2
  1
NO
 41
0.8
  7
高3.2
100
AcDbText
  0
TEXT
  5
741
330
36
100
AcDbEntity
  8
0
 62
     3
100
AcDbText
 10
-134.1154180766184
 20
-142.624634
 30
0.0
 40
3.2
  1
個数　
 41
0.8
  7
高3.2
100
AcDbText
  0
TEXT
  5
742
330
36
100
AcDbEntity
  8
0
 62
     3
100
AcDbText
 10
-132.6752850378761
 20
-137.624634
 30
0.0
 40
3.2
  1
1
 41
0.8
  7
高3.2
100
AcDbText
  0
TEXT
  5
743
330
36
100
AcDbEntity
  8
0
 62
     3
100
AcDbText
 10
-133.8971253289364
 20
-127.624634
 30
0.0
 40
3.2
  1
1式
 41
0.8
  7
高3.2
100
AcDbText
  0
TEXT
  5
744
330
36
100
AcDbEntity
  8
0
 62
     3
100
AcDbText
 10
-132.6752850378761
 20
-122.624634
 30
0.0
 40
3.2
  1
1
 41
0.8
  7
高3.2
100
AcDbText
  0
TEXT
  5
745
330
36
100
AcDbEntity
  8
0
 62
     3
100
AcDbText
 10
-132.6752850378761
 20
-117.624634
 30
0.0
 40
3.2
  1
1
 41
0.8
  7
高3.2
100
AcDbText
  0
TEXT
  5
746
330
36
100
AcDbEntity
  8
0
 62
     3
100
AcDbText
 10
-132.6752850378761
 20
-112.624634
 30
0.0
 40
3.2
  1
2
 41
0.8
  7
高3.2
100
AcDbText
  0
TEXT
  5
747
330
36
100
AcDbEntity
  8
0
 62
     3
100
AcDbText
 10
-132.6752850378761
 20
-107.624634
 30
0.0
 40
3.2
  1
1
 41
0.8
  7
高3.2
100
AcDbText
  0
TEXT
  5
748
330
36
100
AcDbEntity
  8
0
 62
     3
100
AcDbText
 10
-132.6752850378761
 20
-102.624634
 30
0.0
 40
3.2
  1
4
 41
0.8
  7
高3.2
100
AcDbText
  0
TEXT
  5
749
330
36
100
AcDbEntity
  8
0
 62
     3
100
AcDbText
 10
-132.675361960953
 20
-97.62463400000001
 30
0.0
 40
3.2
  1
1
 41
0.8
  7
高3.2
100
AcDbText
  0
TEXT
  5
74A
330
36
100
AcDbEntity
  8
0
 62
     3
100
AcDbText
 10
-132.675361960953
 20
-92.62463400000005
 30
0.0
 40
3.2
  1
1
 41
0.8
  7
高3.2
100
AcDbText
  0
TEXT
  5
74B
330
36
100
AcDbEntity
  8
0
 62
     3
100
AcDbText
 10
-132.675361960953
 20
-87.62463399999999
 30
0.0
 40
3.2
  1
1
 41
0.8
  7
高3.2
100
AcDbText
  0
TEXT
  5
74C
330
36
100
AcDbEntity
  8
0
 62
     3
100
AcDbText
 10
-166.7207147804097
 20
-82.62463399999999
 30
0.0
 40
3.2
  1
Wコンセント（黒色）
 41
0.8
  7
高3.2
100
AcDbText
  0
TEXT
  5
74D
330
36
100
AcDbEntity
  8
0
 62
     3
100
AcDbText
 10
-132.675361960953
 20
-77.624634
 30
0.0
 40
3.2
  1
3
 41
0.8
  7
高3.2
100
AcDbText
  0
TEXT
  5
74E
330
36
100
AcDbEntity
  8
0
 62
     3
100
AcDbText
 10
-132.675361960953
 20
-72.62463399999998
 30
0.0
 40
3.2
  1
1
 41
0.8
  7
高3.2
100
AcDbText
  0
TEXT
  5
74F
330
36
100
AcDbEntity
  8
0
 62
     3
100
AcDbText
 10
-166.7207147804097
 20
-67.624634
 30
0.0
 40
3.2
  1
電源、チェックランプ
 41
0.8
  7
高3.2
100
AcDbText
  0
TEXT
  5
750
330
36
100
AcDbEntity
  8
0
 62
     3
100
AcDbText
 10
-132.675361960953
 20
-67.624634
 30
0.0
 40
3.2
  1
1
 41
0.8
  7
高3.2
100
AcDbText
  0
TEXT
  5
751
330
36
100
AcDbEntity
  8
0
 62
     3
100
AcDbText
 10
-132.675361960953
 20
-62.62463400000001
 30
0.0
 40
3.2
  1
1
 41
0.8
  7
高3.2
100
AcDbText
  0
TEXT
  5
752
330
36
100
AcDbEntity
  8
0
 62
     3
100
AcDbText
 10
-132.675361960953
 20
-57.62463399999999
 30
0.0
 40
3.2
  1
1
 41
0.8
  7
高3.2
100
AcDbText
  0
TEXT
  5
753
330
36
100
AcDbEntity
  8
0
 62
     3
100
AcDbText
 10
-125.7907465763375
 20
-57.62463399999999
 30
0.0
 40
3.2
  1
PF樹脂
 41
0.8
  7
高3.2
100
AcDbText
  0
TEXT
  5
754
330
36
100
AcDbEntity
  8
0
 62
     3
100
AcDbText
 10
-125.7907465763375
 20
-62.62463399999999
 30
0.0
 40
3.2
  1
PF樹脂
 41
0.8
  7
高3.2
100
AcDbText
  0
TEXT
  5
755
330
36
100
AcDbEntity
  8
0
 62
     3
100
AcDbText
 10
-125.7907465763375
 20
-67.624634
 30
0.0
 40
3.2
  1
ABS樹脂
 41
0.8
  7
高3.2
100
AcDbText
  0
TEXT
  5
756
330
36
100
AcDbEntity
  8
0
 62
     3
100
AcDbText
 10
-125.7907465763375
 20
-72.62463399999998
 30
0.0
 40
3.2
  1
PF樹脂
 41
0.8
  7
高3.2
100
AcDbText
  0
TEXT
  5
757
330
36
100
AcDbEntity
  8
0
 62
     3
100
AcDbText
 10
-125.7907465763375
 20
-77.624634
 30
0.0
 40
3.2
  1
SPCC
 41
0.8
  7
高3.2
100
AcDbText
  0
TEXT
  5
758
330
36
100
AcDbEntity
  8
0
 62
     3
100
AcDbText
 10
-125.7907465763375
 20
-82.62463399999999
 30
0.0
 40
3.2
  1
ABS樹脂
 41
0.8
  7
高3.2
100
AcDbText
  0
TEXT
  5
759
330
36
100
AcDbEntity
  8
0
 62
     3
100
AcDbText
 10
-125.7907465763375
 20
-87.62463399999999
 30
0.0
 40
3.2
  1
ABS樹脂
 41
0.8
  7
高3.2
100
AcDbText
  0
TEXT
  5
75A
330
36
100
AcDbEntity
  8
0
 62
     3
100
AcDbText
 10
-125.7907465763375
 20
-92.62463400000005
 30
0.0
 40
3.2
  1
PF樹脂
 41
0.8
  7
高3.2
100
AcDbText
  0
TEXT
  5
75B
330
36
100
AcDbEntity
  8
0
 62
     3
100
AcDbText
 10
-125.7907465763375
 20
-97.62463400000001
 30
0.0
 40
3.2
  1
PF樹脂
 41
0.8
  7
高3.2
100
AcDbText
  0
TEXT
  5
75C
330
36
100
AcDbEntity
  8
0
 62
     3
100
AcDbText
 10
-125.7907465763375
 20
-107.624634
 30
0.0
 40
3.2
  1
PA樹脂
 41
0.8
  7
高3.2
100
AcDbText
  0
TEXT
  5
75D
330
36
100
AcDbEntity
  8
0
 62
     3
100
AcDbText
 10
-125.7907465763375
 20
-112.624634
 30
0.0
 40
3.2
  1
SPCC
 41
0.8
  7
高3.2
100
AcDbText
  0
TEXT
  5
75E
330
36
100
AcDbEntity
  8
0
 62
     3
100
AcDbText
 10
-125.7907465763375
 20
-117.624634
 30
0.0
 40
3.2
  1
SVCT
 41
0.8
  7
高3.2
100
AcDbText
  0
TEXT
  5
75F
330
36
100
AcDbEntity
  8
0
 62
     3
100
AcDbText
 10
-125.7907465763375
 20
-122.624634
 30
0.0
 40
3.2
  1
PVC樹脂
 41
0.8
  7
高3.2
100
AcDbText
  0
TEXT
  5
760
330
36
100
AcDbEntity
  8
0
 62
     3
100
AcDbText
 10
-125.7907465763375
 20
-127.624634
 30
0.0
 40
3.2
  1
SPCC
 41
0.8
  7
高3.2
100
AcDbText
  0
TEXT
  5
761
330
36
100
AcDbEntity
  8
0
 62
     3
100
AcDbText
 10
-125.7907465763375
 20
-137.624634
 30
0.0
 40
3.2
  1
PF樹脂
 41
0.8
  7
高3.2
100
AcDbText
  0
TEXT
  5
762
330
36
100
AcDbEntity
  8
0
 62
     3
100
AcDbText
 10
-125.7907465763375
 20
-142.624634
 30
0.0
 40
3.2
  1
材　　質
 41
0.8
  7
高3.2
100
AcDbText
  0
TEXT
  5
763
330
36
100
AcDbEntity
  8
0
 62
     3
100
AcDbText
 10
-108.279040308032
 20
-137.624634
 30
0.0
 40
3.2
  1
コードハンガー付き
 41
0.8
  7
高3.2
100
AcDbText
  0
TEXT
  5
764
330
36
100
AcDbEntity
  8
0
 62
     3
100
AcDbText
 10
-108.279040308032
 20
-127.624634
 30
0.0
 40
3.2
  1
上部カバー、ベース
 41
0.8
  7
高3.2
100
AcDbText
  0
TEXT
  5
765
330
36
100
AcDbEntity
  8
0
 62
     3
100
AcDbText
 10
-108.279040308032
 20
-122.624634
 30
0.0
 40
3.2
  1
3PE 20A 250V
 41
0.8
  7
高3.2
100
AcDbText
  0
TEXT
  5
766
330
36
100
AcDbEntity
  8
0
 62
     3
100
AcDbText
 10
-108.279040308032
 20
-117.624634
 30
0.0
 40
3.2
  1
3.5sqx3cx2m
 41
0.8
  7
高3.2
100
AcDbText
  0
TEXT
  5
767
330
36
100
AcDbEntity
  8
0
 62
     3
100
AcDbText
 10
-108.279040308032
 20
-107.624634
 30
0.0
 40
3.2
  1
黒色
 41
0.8
  7
高3.2
100
AcDbText
  0
TEXT
  5
768
330
36
100
AcDbEntity
  8
0
 62
     3
100
AcDbText
 10
-108.279040308032
 20
-97.62463400000001
 30
0.0
 40
3.2
  1
2P 20A 250V
 41
0.8
  7
高3.2
100
AcDbText
  0
TEXT
  5
769
330
36
100
AcDbEntity
  8
0
 62
     3
100
AcDbText
 10
-108.279040308032
 20
-92.62463400000005
 30
0.0
 40
3.2
  1
2PE 15A 250V
 41
0.8
  7
高3.2
100
AcDbText
  0
TEXT
  5
76A
330
36
100
AcDbEntity
  8
0
 62
     3
100
AcDbText
 10
-108.279040308032
 20
-87.62463399999999
 30
0.0
 40
3.2
  1
2PE 15A 125V
 41
0.8
  7
高3.2
100
AcDbText
  0
TEXT
  5
76B
330
36
100
AcDbEntity
  8
0
 62
     3
100
AcDbText
 10
-108.279040308032
 20
-82.62463399999999
 30
0.0
 40
3.2
  1
2PE 15A 125V
 41
0.8
  7
高3.2
100
AcDbText
  0
TEXT
  5
76C
330
36
100
AcDbEntity
  8
0
 62
     3
100
AcDbText
 10
-108.279040308032
 20
-72.624634
 30
0.0
 40
3.2
  1
アースチェック用
 41
0.8
  7
高3.2
100
AcDbText
  0
TEXT
  5
76D
330
36
100
AcDbEntity
  8
0
 62
     3
100
AcDbText
 10
-108.279040308032
 20
-67.62463400000001
 30
0.0
 40
3.2
  1
ネオン球
 41
0.8
  7
高3.2
100
AcDbText
  0
TEXT
  5
76E
330
36
100
AcDbEntity
  8
0
 62
     3
100
AcDbText
 10
-108.279040308032
 20
-62.62463399999999
 30
0.0
 40
3.2
  1
交流電圧計
 41
0.8
  7
高3.2
100
AcDbText
  0
TEXT
  5
76F
330
36
100
AcDbEntity
  8
0
 62
     3
100
AcDbText
 10
-108.279040308032
 20
-57.62463400000001
 30
0.0
 40
3.2
  1
100V/200V 30A
 41
0.8
  7
高3.2
100
AcDbText
  0
LINE
  5
770
330
36
100
AcDbEntity
  8
0
 62
     7
100
AcDbLine
 10
12.31601789824981
 20
-53.12463400000002
 30
0.0
 11
-176.611198
 21
-53.12463399999999
 31
0.0
  0
TEXT
  5
771
330
36
100
AcDbEntity
  8
0
 62
     3
100
AcDbText
 10
-125.7907465763375
 20
-102.624634
 30
0.0
 40
3.2
  1
合成ゴム
 41
0.8
  7
高3.2
100
AcDbText
  0
TEXT
  5
772
330
36
100
AcDbEntity
  8
0
 62
     3
100
AcDbText
 10
-108.279040308032
 20
-142.624634
 30
0.0
 40
3.2
  1
備　　　考　
 41
0.8
  7
高3.2
100
AcDbText
  0
LINE
  5
773
330
36
100
AcDbEntity
  8
0
100
AcDbLine
 10
12.31601789824981
 20
-58.12463400000002
 30
0.0
 11
-176.611198
 21
-58.12463399999999
 31
0.0
  0
LINE
  5
774
330
36
100
AcDbEntity
  8
0
100
AcDbLine
 10
12.31601789824981
 20
-63.12463399999998
 30
0.0
 11
-176.611198
 21
-63.12463399999999
 31
0.0
  0
LINE
  5
775
330
36
100
AcDbEntity
  8
0
100
AcDbLine
 10
12.31601789824981
 20
-68.12463400000002
 30
0.0
 11
-176.611198
 21
-68.124634
 31
0.0
  0
LINE
  5
776
330
36
100
AcDbEntity
  8
0
100
AcDbLine
 10
12.31601789824981
 20
-73.124634
 30
0.0
 11
-176.611198
 21
-73.12463399999998
 31
0.0
  0
LINE
  5
777
330
36
100
AcDbEntity
  8
0
100
AcDbLine
 10
12.31601789824981
 20
-78.124634
 30
0.0
 11
-176.611198
 21
-78.124634
 31
0.0
  0
LINE
  5
778
330
36
100
AcDbEntity
  8
0
100
AcDbLine
 10
12.31601789824981
 20
-83.124634
 30
0.0
 11
-176.611198
 21
-83.124634
 31
0.0
  0
LINE
  5
779
330
36
100
AcDbEntity
  8
0
100
AcDbLine
 10
12.31601789824981
 20
-88.12463399999998
 30
0.0
 11
-176.611198
 21
-88.124634
 31
0.0
  0
LINE
  5
77A
330
36
100
AcDbEntity
  8
0
100
AcDbLine
 10
12.31601789824981
 20
-93.12463400000003
 30
0.0
 11
-176.611198
 21
-93.12463400000002
 31
0.0
  0
LINE
  5
77B
330
36
100
AcDbEntity
  8
0
100
AcDbLine
 10
12.31601789824981
 20
-98.124634
 30
0.0
 11
-176.611198
 21
-98.124634
 31
0.0
  0
LINE
  5
77C
330
36
100
AcDbEntity
  8
0
100
AcDbLine
 10
12.31601789824981
 20
-103.124634
 30
0.0
 11
-176.611198
 21
-103.124634
 31
0.0
  0
LINE
  5
77D
330
36
100
AcDbEntity
  8
0
100
AcDbLine
 10
12.31601789824981
 20
-108.124634
 30
0.0
 11
-176.611198
 21
-108.124634
 31
0.0
  0
LINE
  5
77E
330
36
100
AcDbEntity
  8
0
100
AcDbLine
 10
12.31601789824981
 20
-113.124634
 30
0.0
 11
-176.611198
 21
-113.124634
 31
0.0
  0
LINE
  5
77F
330
36
100
AcDbEntity
  8
0
100
AcDbLine
 10
-77.20264638761405
 20
-118.124634
 30
0.0
 11
-168.2207147804096
 21
-118.124634
 31
0.0
  0
LINE
  5
780
330
36
100
AcDbEntity
  8
0
100
AcDbLine
 10
12.31601789824981
 20
-123.124634
 30
0.0
 11
-176.611198
 21
-123.124634
 31
0.0
  0
LINE
  5
781
330
36
100
AcDbEntity
  8
0
100
AcDbLine
 10
12.31601789824981
 20
-128.124634
 30
0.0
 11
-176.611198
 21
-128.124634
 31
0.0
  0
LINE
  5
782
330
36
100
AcDbEntity
  8
0
100
AcDbLine
 10
12.31601789824981
 20
-138.1246339999999
 30
0.0
 11
-176.611198
 21
-138.124634
 31
0.0
  0
LINE
  5
783
330
36
100
AcDbEntity
  8
0
100
AcDbLine
 10
-109.779040308032
 20
-143.124634
 30
0.0
 11
-109.779040308032
 21
-43.12463399999999
 31
0.0
  0
LINE
  5
784
330
36
100
AcDbEntity
  8
0
100
AcDbLine
 10
-134.9830542686454
 20
-143.124634
 30
0.0
 11
-134.9830542686454
 21
-43.12463399999997
 31
0.0
  0
LINE
  5
785
330
36
100
AcDbEntity
  8
0
100
AcDbLine
 10
-127.2907465763376
 20
-143.124634
 30
0.0
 11
-127.2907465763376
 21
-43.12463399999997
 31
0.0
  0
LINE
  5
786
330
36
100
AcDbEntity
  8
0
100
AcDbLine
 10
-168.2207147804096
 20
-143.124634
 30
0.0
 11
-168.2207147804096
 21
-43.12463399999997
 31
0.0
  0
TEXT
  5
817
330
36
100
AcDbEntity
  8
0
 62
     3
100
AcDbText
 10
-166.7207147804097
 20
-132.624634
 30
0.0
 40
3.2
  1
コードフック
 41
0.8
  7
高3.2
100
AcDbText
  0
TEXT
  5
818
330
36
100
AcDbEntity
  8
0
 62
     3
100
AcDbText
 10
-174.1596846711429
 20
-132.624634
 30
0.0
 40
3.2
  1
2
 41
0.8
  7
高3.2
100
AcDbText
  0
TEXT
  5
81A
330
36
100
AcDbEntity
  8
0
 62
     3
100
AcDbText
 10
-125.7907465763375
 20
-132.624634
 30
0.0
 40
3.2
  1
SPCC
 41
0.8
  7
高3.2
100
AcDbText
  0
TEXT
  5
81B
330
36
100
AcDbEntity
  8
0
 62
     3
100
AcDbText
 10
-108.279040308032
 20
-132.624634
 30
0.0
 40
3.2
  1
上部カバー、ベース
 41
0.8
  7
高3.2
100
AcDbText
  0
LINE
  5
81C
330
36
100
AcDbEntity
  8
0
100
AcDbLine
 10
12.31601789824981
 20
-133.124634
 30
0.0
 11
-176.611198
 21
-133.124634
 31
0.0
  0
TEXT
  5
81E
330
36
100
AcDbEntity
  8
0
 62
     3
100
AcDbText
 10
-132.675361960953
 20
-82.62463399999999
 30
0.0
 40
3.2
  1
1
 41
0.8
  7
高3.2
100
AcDbText
  0
TEXT
  5
81F
330
36
100
AcDbEntity
  8
0
 62
     3
100
AcDbText
 10
-132.6752850378761
 20
-132.624634
 30
0.0
 40
3.2
  1
2
 41
0.8
  7
高3.2
100
AcDbText
  0
TEXT
  5
820
330
36
100
AcDbEntity
  8
0
 62
     3
100
AcDbText
 10
-75.70264638761405
 20
-57.62463399999999
 30
0.0
 40
3.2
  1
51764
 41
0.8
  7
高3.2
100
AcDbText
  0
TEXT
  5
821
330
36
100
AcDbEntity
  8
0
 62
     3
100
AcDbText
 10
-75.70264638761405
 20
-62.62463399999999
 30
0.0
 40
3.2
  1
55738
 41
0.8
  7
高3.2
100
AcDbText
  0
TEXT
  5
822
330
36
100
AcDbEntity
  8
0
 62
     3
100
AcDbText
 10
-75.70264638761405
 20
-67.624634
 30
0.0
 40
3.2
  1
51786
 41
0.8
  7
高3.2
100
AcDbText
  0
TEXT
  5
823
330
36
100
AcDbEntity
  8
0
 62
     3
100
AcDbText
 10
-75.70264638761405
 20
-72.62463399999998
 30
0.0
 40
3.2
  1
50080
 41
0.8
  7
高3.2
100
AcDbText
  0
TEXT
  5
824
330
36
100
AcDbEntity
  8
0
 62
     3
100
AcDbText
 10
-75.70264638761405
 20
-77.624634
 30
0.0
 40
3.2
  1
50091
 41
0.8
  7
高3.2
100
AcDbText
  0
TEXT
  5
825
330
36
100
AcDbEntity
  8
0
 62
     3
100
AcDbText
 10
-75.70264638761405
 20
-82.62463399999999
 30
0.0
 40
3.2
  1
51355
 41
0.8
  7
高3.2
100
AcDbText
  0
TEXT
  5
826
330
36
100
AcDbEntity
  8
0
 62
     3
100
AcDbText
 10
-75.70264638761405
 20
-87.62463399999999
 30
0.0
 40
3.2
  1
51356
 41
0.8
  7
高3.2
100
AcDbText
  0
TEXT
  5
827
330
36
100
AcDbEntity
  8
0
 62
     3
100
AcDbText
 10
-75.70264638761405
 20
-92.62463400000005
 30
0.0
 40
3.2
  1
54497
 41
0.8
  7
高3.2
100
AcDbText
  0
TEXT
  5
828
330
36
100
AcDbEntity
  8
0
 62
     3
100
AcDbText
 10
-75.70264638761405
 20
-97.62463400000001
 30
0.0
 40
3.2
  1
54496
 41
0.8
  7
高3.2
100
AcDbText
  0
TEXT
  5
829
330
36
100
AcDbEntity
  8
0
 62
     3
100
AcDbText
 10
-75.70264638761405
 20
-107.624634
 30
0.0
 40
3.2
  1
50105
 41
0.8
  7
高3.2
100
AcDbText
  0
TEXT
  5
82A
330
36
100
AcDbEntity
  8
0
 62
     3
100
AcDbText
 10
-75.70264638761405
 20
-112.624634
 30
0.0
 40
3.2
  1
-
 41
0.8
  7
高3.2
100
AcDbText
  0
TEXT
  5
82C
330
36
100
AcDbEntity
  8
0
 62
     3
100
AcDbText
 10
-75.70264638761405
 20
-122.624634
 30
0.0
 40
3.2
  1
51326
 41
0.8
  7
高3.2
100
AcDbText
  0
TEXT
  5
82D
330
36
100
AcDbEntity
  8
0
 62
     3
100
AcDbText
 10
-75.70264638761405
 20
-127.624634
 30
0.0
 40
3.2
  1
-
 41
0.8
  7
高3.2
100
AcDbText
  0
TEXT
  5
82E
330
36
100
AcDbEntity
  8
0
 62
     3
100
AcDbText
 10
-75.70264638761405
 20
-137.624634
 30
0.0
 40
3.2
  1
50101
 41
0.8
  7
高3.2
100
AcDbText
  0
TEXT
  5
82F
330
36
100
AcDbEntity
  8
0
 62
     3
100
AcDbText
 10
-75.70264638761405
 20
-142.624634
 30
0.0
 40
3.2
  1
コード
 41
0.8
  7
高3.2
100
AcDbText
  0
TEXT
  5
830
330
36
100
AcDbEntity
  8
0
 62
     3
100
AcDbText
 10
-75.70264638761405
 20
-102.624634
 30
0.0
 40
3.2
  1
53819
 41
0.8
  7
高3.2
100
AcDbText
  0
LINE
  5
831
330
36
100
AcDbEntity
  8
0
100
AcDbLine
 10
-62.03496002051547
 20
-143.124634
 30
0.0
 11
-62.03496002051547
 21
-43.124634
 31
0.0
  0
TEXT
  5
832
330
36
100
AcDbEntity
  8
0
 62
     3
100
AcDbText
 10
-75.70264638761405
 20
-132.624634
 30
0.0
 40
3.2
  1
50519
 41
0.8
  7
高3.2
100
AcDbText
  0
TEXT
  5
833
330
36
100
AcDbEntity
  8
0
 62
     3
100
AcDbText
 10
-60.53496002051547
 20
-57.62463399999999
 30
0.0
 40
3.2
  1
B-2F-A　30A
 41
0.6
  7
高3.2
100
AcDbText
  0
TEXT
  5
834
330
36
100
AcDbEntity
  8
0
 62
     3
100
AcDbText
 10
-60.53496002051547
 20
-62.62463399999999
 30
0.0
 40
3.2
  1
300V　電圧メーター
 41
0.6
  7
高3.2
100
AcDbText
  0
TEXT
  5
835
330
36
100
AcDbEntity
  8
0
 62
     3
100
AcDbText
 10
-60.53496002051547
 20
-67.624634
 30
0.0
 40
3.2
  1
二重ランプ　びっく用
 41
0.6
  7
高3.2
100
AcDbText
  0
TEXT
  5
836
330
36
100
AcDbEntity
  8
0
 62
     3
100
AcDbText
 10
-60.53496002051547
 20
-72.62463399999998
 30
0.0
 40
3.2
  1
押しボタンスイッチリード線付
 41
0.6
  7
高3.2
100
AcDbText
  0
TEXT
  5
837
330
36
100
AcDbEntity
  8
0
 62
     3
100
AcDbText
 10
-60.53496002051547
 20
-77.624634
 30
0.0
 40
3.2
  1
アース金具黒メッキ
 41
0.6
  7
高3.2
100
AcDbText
  0
TEXT
  5
838
330
36
100
AcDbEntity
  8
0
 62
     3
100
AcDbText
 10
-60.53496002051547
 20
-82.62463399999999
 30
0.0
 40
3.2
  1
2PE-B
 41
0.6
  7
高3.2
100
AcDbText
  0
TEXT
  5
839
330
36
100
AcDbEntity
  8
0
 62
     3
100
AcDbText
 10
-60.53496002051547
 20
-87.62463399999999
 30
0.0
 40
3.2
  1
2PE-W(アース付コンセント白)
 41
0.6
  7
高3.2
100
AcDbText
  0
TEXT
  5
83A
330
36
100
AcDbEntity
  8
0
 62
     3
100
AcDbText
 10
-60.53496002051547
 20
-92.62463400000005
 30
0.0
 40
3.2
  1
ME2829T09W
 41
0.6
  7
高3.2
100
AcDbText
  0
TEXT
  5
83B
330
36
100
AcDbEntity
  8
0
 62
     3
100
AcDbText
 10
-60.53496002051547
 20
-97.62463400000001
 30
0.0
 40
3.2
  1
MU2804W
 41
0.6
  7
高3.2
100
AcDbText
  0
TEXT
  5
83C
330
36
100
AcDbEntity
  8
0
 62
     3
100
AcDbText
 10
-60.53496002051547
 20
-107.624634
 30
0.0
 40
3.2
  1
トラパックプロテクター
 41
0.6
  7
高3.2
100
AcDbText
  0
TEXT
  5
83D
330
36
100
AcDbEntity
  8
0
 62
     3
100
AcDbText
 10
-60.53496002051547
 20
-112.624634
 30
0.0
 40
3.2
  1
-
 41
0.6
  7
高3.2
100
AcDbText
  0
TEXT
  5
83F
330
36
100
AcDbEntity
  8
0
 62
     3
100
AcDbText
 10
-60.53496002051547
 20
-122.624634
 30
0.0
 40
3.2
  1
SVCT3.5x3x2.5M　防雨4P付
 41
0.6
  7
高3.2
100
AcDbText
  0
TEXT
  5
840
330
36
100
AcDbEntity
  8
0
 62
     3
100
AcDbText
 10
-60.53496002051547
 20
-127.624634
 30
0.0
 40
3.2
  1
-
 41
0.6
  7
高3.2
100
AcDbText
  0
TEXT
  5
841
330
36
100
AcDbEntity
  8
0
 62
     3
100
AcDbText
 10
-60.53496002051547
 20
-137.624634
 30
0.0
 40
3.2
  1
トラパック取手
 41
0.6
  7
高3.2
100
AcDbText
  0
TEXT
  5
842
330
36
100
AcDbEntity
  8
0
 62
     3
100
AcDbText
 10
-60.53496002051547
 20
-142.624634
 30
0.0
 40
3.2
  1
コード番号名称
 41
0.6
  7
高3.2
100
AcDbText
  0
TEXT
  5
843
330
36
100
AcDbEntity
  8
0
 62
     3
100
AcDbText
 10
-60.53496002051547
 20
-102.624634
 30
0.0
 40
3.2
  1
NTB/TBO/NTBO兼用　脚ゴム(ビス付)(1/5個)
 41
0.6
  7
高3.2
100
AcDbText
  0
LINE
  5
844
330
36
100
AcDbEntity
  8
0
 62
     3
100
AcDbLine
 10
12.31601789824981
 20
-143.124634
 30
0.0
 11
12.31601789824981
 21
-43.12463400000001
 31
0.0
  0
TEXT
  5
845
330
36
100
AcDbEntity
  8
0
 62
     3
100
AcDbText
 10
-60.53496002051547
 20
-132.624634
 30
0.0
 40
3.2
  1
トラパック用コードフック
 41
0.6
  7
高3.2
100
AcDbText
  0
TEXT
  5
A15
330
36
100
AcDbEntity
  8
0
 62
     3
100
AcDbText
 10
200.8888019999999
 20
124.375366
 30
0.0
 40
3.2
  1
担　当
  7
高3.2
100
AcDbText
  0
TEXT
  5
A16
330
36
100
AcDbEntity
  8
0
 62
     3
100
AcDbText
 10
156.8888019999999
 20
124.375366
 30
0.0
 40
3.2
  1
変更・追記内容
  7
高3.2
100
AcDbText
  0
TEXT
  5
A17
330
36
100
AcDbEntity
  8
0
 62
     3
100
AcDbText
 10
132.0023170003391
 20
119.7048274900917
 30
0.0
 40
2.0
  1
1
  7
高2
100
AcDbText
  0
TEXT
  5
A18
330
36
100
AcDbEntity
  8
0
 62
     3
100
AcDbText
 10
131.6938055235818
 20
114.5350107778188
 30
0.0
 40
2.0
  1
2
  7
高2
100
AcDbText
  0
TEXT
  5
A19
330
36
100
AcDbEntity
  8
0
 62
     3
100
AcDbText
 10
138.8888019999999
 20
124.375366
 30
0.0
 40
3.2
  1
日　付
  7
高3.2
100
AcDbText
  0
TEXT
  5
A1A
330
36
100
AcDbEntity
  8
0
 62
     3
100
AcDbText
 10
138.8888019999999
 20
129.375366
 30
0.0
 40
3.2
  1
図　　　　面　　　　略　　　　歴
  7
高3.2
100
AcDbText
  0
TEXT
  5
A1B
330
36
100
AcDbEntity
  8
0
 62
     3
100
AcDbText
 10
128.8888019999999
 20
124.375366
 30
0.0
 40
3.2
  1
記号
  7
高3.2
100
AcDbText
  0
LINE
  5
A1C
330
36
100
AcDbEntity
  8
0
 62
     7
100
AcDbLine
 10
132.3888019999999
 20
117.666262
 30
0.0
 11
130.4888019999999
 21
114.375366
 31
0.0
  0
LINE
  5
A1D
330
36
100
AcDbEntity
  8
0
 62
     7
100
AcDbLine
 10
132.3888019999999
 20
117.666262
 30
0.0
 11
134.2888019999997
 21
114.375366
 31
0.0
  0
LINE
  5
A1E
330
36
100
AcDbEntity
  8
0
 62
     7
100
AcDbLine
 10
130.4888019999999
 20
114.375366
 30
0.0
 11
134.2888019999997
 21
114.375366
 31
0.0
  0
LINE
  5
A1F
330
36
100
AcDbEntity
  8
0
 62
     7
100
AcDbLine
 10
132.3888019999999
 20
122.666263
 30
0.0
 11
130.4888019999999
 21
119.375366
 31
0.0
  0
LINE
  5
A20
330
36
100
AcDbEntity
  8
0
 62
     7
100
AcDbLine
 10
132.3888019999999
 20
122.666263
 30
0.0
 11
134.2888019999997
 21
119.375366
 31
0.0
  0
LINE
  5
A21
330
36
100
AcDbEntity
  8
0
 62
     7
100
AcDbLine
 10
130.4888019999999
 20
119.375366
 30
0.0
 11
134.2888019999997
 21
119.375366
 31
0.0
  0
LINE
  5
A22
330
36
100
AcDbEntity
  8
0
 62
     3
100
AcDbLine
 10
127.3888019999999
 20
128.875366
 30
0.0
 11
213.3888019999999
 21
128.875366
 31
0.0
  0
LINE
  5
A23
330
36
100
AcDbEntity
  8
0
 62
     3
100
AcDbLine
 10
127.3888019999999
 20
123.875366
 30
0.0
 11
213.3888019999999
 21
123.875366
 31
0.0
  0
LINE
  5
A24
330
36
100
AcDbEntity
  8
0
 62
     7
100
AcDbLine
 10
127.3888019999999
 20
118.875366
 30
0.0
 11
213.3888019999999
 21
118.875366
 31
0.0
  0
LINE
  5
A25
330
36
100
AcDbEntity
  8
0
 62
     3
100
AcDbLine
 10
127.3888019999999
 20
113.875366
 30
0.0
 11
213.3888019999999
 21
113.875366
 31
0.0
  0
LINE
  5
A26
330
36
100
AcDbEntity
  8
0
 62
     7
100
AcDbLine
 10
199.3888019999998
 20
113.875366
 30
0.0
 11
199.3888019999999
 21
128.875366
 31
0.0
  0
LINE
  5
A27
330
36
100
AcDbEntity
  8
0
 62
     7
100
AcDbLine
 10
155.3888019999999
 20
113.875366
 30
0.0
 11
155.3888019999999
 21
128.875366
 31
0.0
  0
LINE
  5
A28
330
36
100
AcDbEntity
  8
0
 62
     7
100
AcDbLine
 10
137.3888019999998
 20
113.875366
 30
0.0
 11
137.3888019999998
 21
128.875366
 31
0.0
  0
LINE
  5
A29
330
36
100
AcDbEntity
  8
0
 62
     3
100
AcDbLine
 10
127.3888019999999
 20
113.875366
 30
0.0
 11
127.3888019999999
 21
133.875366
 31
0.0
  0
TEXT
  5
B9C
330
36
100
AcDbEntity
  8
0
 62
     3
100
AcDbText
 10
-166.7207147804097
 20
-52.62463400000001
 30
0.0
 40
3.2
  1
トランス用アダプター
 41
0.8
  7
高3.2
100
AcDbText
  0
TEXT
  5
B9D
330
36
100
AcDbEntity
  8
0
 62
     3
100
AcDbText
 10
-175.6197310769231
 20
-52.62463400000001
 30
0.0
 40
3.2
  1
付属
 41
0.8
  7
高3.2
100
AcDbText
  0
TEXT
  5
B9E
330
36
100
AcDbEntity
  8
0
 62
     3
100
AcDbText
 10
-132.675361960953
 20
-52.62463400000001
 30
0.0
 40
3.2
  1
1
 41
0.8
  7
高3.2
100
AcDbText
  0
TEXT
  5
B9F
330
36
100
AcDbEntity
  8
0
 62
     3
100
AcDbText
 10
-125.7907465763375
 20
-52.62463400000001
 30
0.0
 40
3.2
  1
-
 41
0.8
  7
高3.2
100
AcDbText
  0
TEXT
  5
BA0
330
36
100
AcDbEntity
  8
0
 62
     3
100
AcDbText
 10
-108.279040308032
 20
-52.62463400000002
 30
0.0
 40
3.2
  1
PA-4同等品
 41
0.8
  7
高3.2
100
AcDbText
  0
LINE
  5
BA1
330
36
100
AcDbEntity
  8
0
 62
     7
100
AcDbLine
 10
12.31601789824981
 20
-48.12463400000003
 30
0.0
 11
-176.611198
 21
-48.12463400000001
 31
0.0
  0
TEXT
  5
BA2
330
36
100
AcDbEntity
  8
0
 62
     3
100
AcDbText
 10
-75.70264638761405
 20
-52.62463400000001
 30
0.0
 40
3.2
  1
-
 41
0.8
  7
高3.2
100
AcDbText
  0
TEXT
  5
BA3
330
36
100
AcDbEntity
  8
0
 62
     3
100
AcDbText
 10
-60.53496002051547
 20
-52.62463400000001
 30
0.0
 40
3.2
  1
-
 41
0.6
  7
高3.2
100
AcDbText
  0
TEXT
  5
BA4
330
36
100
AcDbEntity
  8
0
 62
     3
100
AcDbText
 10
-166.7207147804097
 20
-47.62463399999997
 30
0.0
 40
3.2
  1
PA-4
 41
0.8
  7
高3.2
100
AcDbText
  0
TEXT
  5
BA5
330
36
100
AcDbEntity
  8
0
 62
     3
100
AcDbText
 10
-175.6197310769231
 20
-47.62463399999997
 30
0.0
 40
3.2
  1
OP
 41
0.8
  7
高3.2
100
AcDbText
  0
TEXT
  5
BA6
330
36
100
AcDbEntity
  8
0
 62
     3
100
AcDbText
 10
-132.675361960953
 20
-47.62463399999997
 30
0.0
 40
3.2
  1
1
 41
0.8
  7
高3.2
100
AcDbText
  0
TEXT
  5
BA7
330
36
100
AcDbEntity
  8
0
 62
     3
100
AcDbText
 10
-125.7907465763375
 20
-47.62463399999997
 30
0.0
 40
3.2
  1
-
 41
0.8
  7
高3.2
100
AcDbText
  0
TEXT
  5
BA8
330
36
100
AcDbEntity
  8
0
 62
     3
100
AcDbText
 10
-108.279040308032
 20
-47.62463399999999
 30
0.0
 40
3.2
  1
-
 41
0.8
  7
高3.2
100
AcDbText
  0
LINE
  5
BA9
330
36
100
AcDbEntity
  8
0
 62
     3
100
AcDbLine
 10
12.31601789824981
 20
-43.12463400000001
 30
0.0
 11
-176.611198
 21
-43.12463399999997
 31
0.0
  0
TEXT
  5
BAA
330
36
100
AcDbEntity
  8
0
 62
     3
100
AcDbText
 10
-75.70264638761405
 20
-47.62463399999997
 30
0.0
 40
3.2
  1
5760
 41
0.8
  7
高3.2
100
AcDbText
  0
TEXT
  5
BAB
330
36
100
AcDbEntity
  8
0
 62
     3
100
AcDbText
 10
-60.53496002051547
 20
-47.62463399999997
 30
0.0
 40
3.2
  1
PA-4（トラパックアダプター）三相200Vコン.E付100Vプラグ
 41
0.6
  7
高3.2
100
AcDbText
  0
LINE
  5
C70
330
36
100
AcDbEntity
  8
0
 62
     7
100
AcDbLine
 10
-122.914628
 20
6.696518999999997
 30
0.0
 11
-116.900228
 21
6.696518999999997
 31
0.0
  0
LINE
  5
C71
330
36
100
AcDbEntity
  8
0
100
AcDbLine
 10
-122.914628
 20
-0.1699210000000009
 30
0.0
 11
-116.900228
 21
-0.1699210000000009
 31
0.0
  0
LINE
  5
C72
330
36
100
AcDbEntity
  8
0
100
AcDbLine
 10
-122.914628
 20
-1.072081000000002
 30
0.0
 11
-116.900228
 21
-1.072081000000002
 31
0.0
  0
LINE
  5
C73
330
36
100
AcDbEntity
  8
0
100
AcDbLine
 10
-122.914628
 20
-1.072081000000002
 30
0.0
 11
-122.914628
 21
6.696518999999997
 31
0.0
  0
LINE
  5
C74
330
36
100
AcDbEntity
  8
0
100
AcDbLine
 10
-116.900228
 20
-1.072081000000002
 30
0.0
 11
-116.900228
 21
6.696518999999997
 31
0.0
  0
CIRCLE
  5
F7D
330
36
100
AcDbEntity
  8
0
100
AcDbCircle
 10
173.1746509921063
 20
24.25976415562674
 30
0.0
 40
5.0
  0
TEXT
  5
F7E
330
36
100
AcDbEntity
  8
0
 62
     4
100
AcDbText
 10
170.9801893016068
 20
21.36406936552076
 30
0.0
 40
6.299999999999998
  1
4
  7
高6.3
100
AcDbText
  0
ARC
  5
F80
330
36
100
AcDbEntity
  8
0
 62
     3
100
AcDbCircle
 10
180.3928756084029
 20
51.80838459164778
 30
0.0
 40
2.0
100
AcDbArc
 50
90.0
 51
270.0
  0
ARC
  5
F81
330
36
100
AcDbEntity
  8
0
 62
     3
100
AcDbCircle
 10
206.8928756084029
 20
51.80838459164778
 30
0.0
 40
2.0
100
AcDbArc
 50
270.0
 51
90.0
  0
LINE
  5
F82
330
36
100
AcDbEntity
  8
0
 62
     3
100
AcDbLine
 10
180.3928756084029
 20
49.80838459164778
 30
0.0
 11
180.3928756084029
 21
47.30838459164778
 31
0.0
  0
LINE
  5
F83
330
36
100
AcDbEntity
  8
0
 62
     3
100
AcDbLine
 10
206.8928756084029
 20
47.30838459164778
 30
0.0
 11
206.8928756084029
 21
49.80838459164778
 31
0.0
  0
LINE
  5
F84
330
36
100
AcDbEntity
  8
0
 62
     3
100
AcDbLine
 10
180.3928756084029
 20
47.30838459164778
 30
0.0
 11
181.1428756084029
 21
45.80838459164789
 31
0.0
  0
LINE
  5
F85
330
36
100
AcDbEntity
  8
0
 62
     3
100
AcDbLine
 10
206.1428756084029
 20
45.80838459164789
 30
0.0
 11
206.8928756084029
 21
47.30838459164778
 31
0.0
  0
LINE
  5
F86
330
36
100
AcDbEntity
  8
0
 62
     3
100
AcDbLine
 10
180.3928756084029
 20
55.30838459164778
 30
0.0
 11
180.3928756084029
 21
53.80838459164777
 31
0.0
  0
LINE
  5
F87
330
36
100
AcDbEntity
  8
0
 62
     3
100
AcDbLine
 10
206.8928756084029
 20
53.80838459164777
 30
0.0
 11
206.8928756084029
 21
55.30838459164778
 31
0.0
  0
ARC
  5
F88
330
36
100
AcDbEntity
  8
0
 62
     3
100
AcDbCircle
 10
193.6428756084029
 20
41.80838459164789
 30
0.0
 40
12.50000000000002
100
AcDbArc
 50
306.6531750701011
 51
334.1582287284891
  0
ARC
  5
F89
330
36
100
AcDbEntity
  8
0
 62
     3
100
AcDbCircle
 10
193.6428756084029
 20
41.80838459164789
 30
0.0
 40
12.50000000000001
100
AcDbArc
 50
205.8417712364031
 51
233.3468249299153
  0
ARC
  5
F8A
330
36
100
AcDbEntity
  8
0
 62
     3
100
AcDbCircle
 10
183.792875608403
 20
28.57103213732381
 30
0.0
 40
4.0
100
AcDbArc
 50
0.0
 51
53.34682492991523
  0
ARC
  5
F8B
330
36
100
AcDbEntity
  8
0
 62
     3
100
AcDbCircle
 10
203.4928756084028
 20
28.57103213732381
 30
0.0
 40
4.0
100
AcDbArc
 50
126.6531750700847
 51
180.0
  0
ARC
  5
F8C
330
36
100
AcDbEntity
  8
0
 62
     3
100
AcDbCircle
 10
188.5673151088263
 20
20.27653061038193
 30
0.0
 40
2.174439500423603
100
AcDbArc
 50
110.8643046745889
 51
244.8405244688164
  0
ARC
  5
F8D
330
36
100
AcDbEntity
  8
0
 62
     3
100
AcDbCircle
 10
198.7184361079792
 20
20.27653061038193
 30
0.0
 40
2.174439500423596
100
AcDbArc
 50
295.1594755311836
 51
69.13569532541105
  0
LINE
  5
F8E
330
36
100
AcDbEntity
  8
0
 62
     3
100
AcDbLine
 10
187.6428756084029
 20
18.30838459164777
 30
0.0
 11
187.6428756084029
 21
16.80838459164789
 31
0.0
  0
LINE
  5
F8F
330
36
100
AcDbEntity
  8
0
 62
     3
100
AcDbLine
 10
199.6428756084029
 20
16.80838459164789
 30
0.0
 11
199.6428756084029
 21
18.30838459164777
 31
0.0
  0
LINE
  5
F90
330
36
100
AcDbEntity
  8
0
 62
     3
100
AcDbLine
 10
187.792875608403
 20
28.57103213732381
 30
0.0
 11
187.792875608403
 21
22.30838459164778
 31
0.0
  0
LINE
  5
F91
330
36
100
AcDbEntity
  8
0
 62
     3
100
AcDbLine
 10
199.4928756084028
 20
22.30838459164778
 30
0.0
 11
199.4928756084028
 21
28.57103213732381
 31
0.0
  0
LINE
  5
F92
330
36
100
AcDbEntity
  8
0
 62
     3
100
AcDbLine
 10
188.7678756084029
 20
16.80838459164789
 30
0.0
 11
189.1298413598816
 21
3.294996536437846
 31
0.0
  0
LINE
  5
F93
330
36
100
AcDbEntity
  8
0
 62
     3
100
AcDbLine
 10
198.155909856924
 20
3.294996536437846
 30
0.0
 11
198.5178756084029
 21
16.80838459164789
 31
0.0
  0
ARC
  5
F94
330
36
100
AcDbEntity
  8
0
 62
     3
100
AcDbCircle
 10
197.6560891290847
 20
3.308384591647776
 30
0.0
 40
0.5
100
AcDbArc
 50
270.0
 51
358.4656585003048
  0
ARC
  5
F95
330
36
100
AcDbEntity
  8
0
 62
     3
100
AcDbCircle
 10
189.6296620877208
 20
3.308384591647776
 30
0.0
 40
0.5
100
AcDbArc
 50
181.5343414996952
 51
270.0
  0
LINE
  5
F96
330
36
100
AcDbEntity
  8
0
 62
     3
100
AcDbLine
 10
206.8928756084029
 20
53.80838459164777
 30
0.0
 11
180.3928756084029
 21
53.80838459164777
 31
0.0
  0
LINE
  5
F97
330
36
100
AcDbEntity
  8
0
 62
     3
100
AcDbLine
 10
180.3928756084029
 20
49.80838459164778
 30
0.0
 11
206.8928756084029
 21
49.80838459164778
 31
0.0
  0
LINE
  5
F98
330
36
100
AcDbEntity
  8
0
 62
     3
100
AcDbLine
 10
180.3928756084029
 20
47.30838459164778
 30
0.0
 11
206.8928756084029
 21
47.30838459164778
 31
0.0
  0
LINE
  5
F99
330
36
100
AcDbEntity
  8
0
 62
     3
100
AcDbLine
 10
181.1428756084029
 20
45.80838459164789
 30
0.0
 11
206.1428756084029
 21
45.80838459164789
 31
0.0
  0
LINE
  5
F9A
330
36
100
AcDbEntity
  8
0
 62
     3
100
AcDbLine
 10
206.8928756084029
 20
55.30838459164778
 30
0.0
 11
180.3928756084029
 21
55.30838459164778
 31
0.0
  0
LINE
  5
F9B
330
36
100
AcDbEntity
  8
0
 62
     3
100
AcDbLine
 10
187.792875608403
 20
22.30838459164778
 30
0.0
 11
199.4928756084026
 21
22.30838459164778
 31
0.0
  0
LINE
  5
F9C
330
36
100
AcDbEntity
  8
0
 62
     3
100
AcDbLine
 10
187.6428756084029
 20
18.30838459164777
 30
0.0
 11
199.6428756084027
 21
18.30838459164772
 31
0.0
  0
LINE
  5
F9D
330
36
100
AcDbEntity
  8
0
 62
     3
100
AcDbLine
 10
194.1428756084029
 20
65.80838459164778
 30
0.0
 11
193.9928756084028
 21
66.80838459164778
 31
0.0
  0
LINE
  5
F9E
330
36
100
AcDbEntity
  8
0
 62
     3
100
AcDbLine
 10
193.292875608403
 20
66.80838459164778
 30
0.0
 11
193.1428756084029
 21
65.80838459164778
 31
0.0
  0
LINE
  5
F9F
330
36
100
AcDbEntity
  8
0
 62
     3
100
AcDbLine
 10
193.292875608403
 20
66.80838459164778
 30
0.0
 11
193.9928756084028
 21
66.80838459164778
 31
0.0
  0
LINE
  5
FA0
330
36
100
AcDbEntity
  8
0
 62
     3
100
AcDbLine
 10
193.1428756084029
 20
55.30838459164778
 30
0.0
 11
193.1428756084029
 21
65.80838459164778
 31
0.0
  0
LINE
  5
FA1
330
36
100
AcDbEntity
  8
0
 62
     3
100
AcDbLine
 10
194.1428756084029
 20
65.80838459164778
 30
0.0
 11
194.1428756084029
 21
55.30838459164778
 31
0.0
  0
LINE
  5
FA2
330
36
100
AcDbEntity
  8
0
 62
     3
100
AcDbLine
 10
187.6428756084029
 20
16.80838459164789
 30
0.0
 11
199.6428756084029
 21
16.80838459164789
 31
0.0
  0
LINE
  5
FA3
330
36
100
AcDbEntity
  8
0
 62
     3
100
AcDbLine
 10
192.8928756084029
 20
7.508384591647821
 30
0.0
 11
189.0781867114718
 21
7.508384591647821
 31
0.0
  0
LINE
  5
FA4
330
36
100
AcDbEntity
  8
0
 62
     3
100
AcDbLine
 10
189.1216239721389
 20
5.908384591647799
 30
0.0
 11
189.0781867114718
 21
7.508384591647821
 31
0.0
  0
LINE
  5
FA5
330
36
100
AcDbEntity
  8
0
 62
     3
100
AcDbLine
 10
189.1216239721389
 20
5.908384591647799
 30
0.0
 11
192.8928756084029
 21
5.908384591647911
 31
0.0
  0
LINE
  5
FA6
330
36
100
AcDbEntity
  8
0
 62
     3
100
AcDbLine
 10
192.8928756084029
 20
5.908384591647911
 30
0.0
 11
192.8928756084029
 21
7.508384591647821
 31
0.0
  0
LINE
  5
FA7
330
36
100
AcDbEntity
  8
0
 62
     3
100
AcDbLine
 10
194.3928756084029
 20
9.00838459164782
 30
0.0
 11
198.2482770650113
 21
9.00838459164782
 31
0.0
  0
LINE
  5
FA8
330
36
100
AcDbEntity
  8
0
 62
     3
100
AcDbLine
 10
198.2916935539475
 20
10.60838459164784
 30
0.0
 11
198.2482770650113
 21
9.00838459164782
 31
0.0
  0
LINE
  5
FA9
330
36
100
AcDbEntity
  8
0
 62
     3
100
AcDbLine
 10
198.2916935539475
 20
10.60838459164784
 30
0.0
 11
194.3928756084029
 21
10.60838459164784
 31
0.0
  0
LINE
  5
FAA
330
36
100
AcDbEntity
  8
0
 62
     3
100
AcDbLine
 10
194.3928756084029
 20
10.60838459164784
 30
0.0
 11
194.3928756084029
 21
9.00838459164782
 31
0.0
  0
LINE
  5
FAB
330
36
100
AcDbEntity
  8
0
 62
     3
100
AcDbLine
 10
194.3928756084029
 20
5.908384591647911
 30
0.0
 11
198.1641272446666
 21
5.908384591647799
 31
0.0
  0
LINE
  5
FAC
330
36
100
AcDbEntity
  8
0
 62
     3
100
AcDbLine
 10
198.2075645053338
 20
7.508384591647821
 30
0.0
 11
198.1641272446666
 21
5.908384591647799
 31
0.0
  0
LINE
  5
FAD
330
36
100
AcDbEntity
  8
0
 62
     3
100
AcDbLine
 10
198.2075645053338
 20
7.508384591647821
 30
0.0
 11
194.3928756084029
 21
7.508384591647821
 31
0.0
  0
LINE
  5
FAE
330
36
100
AcDbEntity
  8
0
 62
     3
100
AcDbLine
 10
194.3928756084029
 20
7.508384591647821
 30
0.0
 11
194.3928756084029
 21
5.908384591647911
 31
0.0
  0
LINE
  5
FAF
330
36
100
AcDbEntity
  8
0
 62
     3
100
AcDbLine
 10
194.3928756084029
 20
16.80838459164789
 30
0.0
 11
194.3928756084029
 21
15.20838459164786
 31
0.0
  0
LINE
  5
FB0
330
36
100
AcDbEntity
  8
0
 62
     3
100
AcDbLine
 10
194.3928756084029
 20
15.20838459164786
 30
0.0
 11
198.4164596489154
 21
15.20838459164786
 31
0.0
  0
LINE
  5
FB1
330
36
100
AcDbEntity
  8
0
 62
     3
100
AcDbLine
 10
198.4164596489154
 20
15.20838459164786
 30
0.0
 11
198.4598378254023
 21
16.80838459164789
 31
0.0
  0
LINE
  5
FB2
330
36
100
AcDbEntity
  8
0
 62
     3
100
AcDbLine
 10
188.8692915678903
 20
15.20838459164786
 30
0.0
 11
188.8259133914035
 21
16.80838459164789
 31
0.0
  0
LINE
  5
FB3
330
36
100
AcDbEntity
  8
0
 62
     3
100
AcDbLine
 10
188.8692915678903
 20
15.20838459164786
 30
0.0
 11
192.8928756084029
 21
15.20838459164786
 31
0.0
  0
LINE
  5
FB4
330
36
100
AcDbEntity
  8
0
 62
     3
100
AcDbLine
 10
192.8928756084029
 20
15.20838459164786
 30
0.0
 11
192.8928756084029
 21
16.80838459164789
 31
0.0
  0
LINE
  5
FB5
330
36
100
AcDbEntity
  8
0
 62
     3
100
AcDbLine
 10
192.8928756084029
 20
12.10838459164784
 30
0.0
 11
192.8928756084029
 21
13.70838459164787
 31
0.0
  0
LINE
  5
FB6
330
36
100
AcDbEntity
  8
0
 62
     3
100
AcDbLine
 10
192.8928756084029
 20
13.70838459164787
 30
0.0
 11
188.9099672302951
 21
13.70838459164787
 31
0.0
  0
LINE
  5
FB7
330
36
100
AcDbEntity
  8
0
 62
     3
100
AcDbLine
 10
188.9533640502193
 20
12.10838459164784
 30
0.0
 11
188.9099672302951
 21
13.70838459164787
 31
0.0
  0
LINE
  5
FB8
330
36
100
AcDbEntity
  8
0
 62
     3
100
AcDbLine
 10
188.9533640502193
 20
12.10838459164784
 30
0.0
 11
192.8928756084029
 21
12.10838459164784
 31
0.0
  0
LINE
  5
FB9
330
36
100
AcDbEntity
  8
0
 62
     3
100
AcDbLine
 10
194.3928756084029
 20
12.10838459164784
 30
0.0
 11
198.3323871665862
 21
12.10838459164784
 31
0.0
  0
LINE
  5
FBA
330
36
100
AcDbEntity
  8
0
 62
     3
100
AcDbLine
 10
198.3757839865105
 20
13.70838459164787
 30
0.0
 11
198.3323871665862
 21
12.10838459164784
 31
0.0
  0
LINE
  5
FBB
330
36
100
AcDbEntity
  8
0
 62
     3
100
AcDbLine
 10
198.3757839865105
 20
13.70838459164787
 30
0.0
 11
194.3928756084029
 21
13.70838459164787
 31
0.0
  0
LINE
  5
FBC
330
36
100
AcDbEntity
  8
0
 62
     3
100
AcDbLine
 10
194.3928756084029
 20
13.70838459164787
 30
0.0
 11
194.3928756084029
 21
12.10838459164784
 31
0.0
  0
LINE
  5
FBD
330
36
100
AcDbEntity
  8
0
 62
     3
100
AcDbLine
 10
192.8928756084029
 20
10.60838459164784
 30
0.0
 11
188.9940576628583
 21
10.60838459164784
 31
0.0
  0
LINE
  5
FBE
330
36
100
AcDbEntity
  8
0
 62
     3
100
AcDbLine
 10
189.0374741517945
 20
9.00838459164782
 30
0.0
 11
188.9940576628583
 21
10.60838459164784
 31
0.0
  0
LINE
  5
FBF
330
36
100
AcDbEntity
  8
0
 62
     3
100
AcDbLine
 10
189.0374741517945
 20
9.00838459164782
 30
0.0
 11
192.8928756084029
 21
9.00838459164782
 31
0.0
  0
LINE
  5
FC0
330
36
100
AcDbEntity
  8
0
 62
     3
100
AcDbLine
 10
192.8928756084029
 20
9.00838459164782
 30
0.0
 11
192.8928756084029
 21
10.60838459164784
 31
0.0
  0
LINE
  5
FC1
330
36
100
AcDbEntity
  8
0
 62
     3
100
AcDbLine
 10
197.6560891290847
 20
2.808384591647775
 30
0.0
 11
189.6296620877208
 21
2.808384591647775
 31
0.0
  0
LINE
  5
FC2
330
36
100
AcDbEntity
  8
0
 62
     3
100
AcDbLine
 10
190.7898070848655
 20
7.508384591647821
 30
0.0
 11
190.7898070848655
 21
5.908384591647799
 31
0.0
  0
LINE
  5
FC3
330
36
100
AcDbEntity
  8
0
 62
     3
100
AcDbLine
 10
196.4959441319402
 20
9.00838459164782
 30
0.0
 11
196.4959441319402
 21
10.60838459164784
 31
0.0
  0
LINE
  5
FC4
330
36
100
AcDbEntity
  8
0
 62
     3
100
AcDbLine
 10
196.4959441319402
 20
5.908384591647799
 30
0.0
 11
196.4959441319402
 21
7.508384591647821
 31
0.0
  0
LINE
  5
FC5
330
36
100
AcDbEntity
  8
0
 62
     3
100
AcDbLine
 10
190.7898070848655
 20
16.80838459164789
 30
0.0
 11
190.7898070848655
 21
15.20838459164786
 31
0.0
  0
LINE
  5
FC6
330
36
100
AcDbEntity
  8
0
 62
     3
100
AcDbLine
 10
190.7898070848655
 20
13.70838459164787
 30
0.0
 11
190.7898070848655
 21
12.10838459164784
 31
0.0
  0
LINE
  5
FC7
330
36
100
AcDbEntity
  8
0
 62
     3
100
AcDbLine
 10
196.4959441319402
 20
12.10838459164784
 30
0.0
 11
196.4959441319402
 21
13.70838459164787
 31
0.0
  0
LINE
  5
FC8
330
36
100
AcDbEntity
  8
0
 62
     3
100
AcDbLine
 10
190.7898070848655
 20
10.60838459164784
 30
0.0
 11
190.7898070848655
 21
9.00838459164782
 31
0.0
  0
LINE
  5
FC9
330
36
100
AcDbEntity
  8
0
 62
     3
100
AcDbLine
 10
196.4959441319402
 20
16.80838459164789
 30
0.0
 11
196.4959441319402
 21
15.20838459164786
 31
0.0
  0
LINE
  5
FCA
330
36
100
AcDbEntity
  8
0
 62
     3
100
AcDbLine
 10
198.292875608403
 20
63.80838459164777
 30
0.0
 11
198.292875608403
 21
55.35838459164772
 31
0.0
  0
LINE
  5
FCB
330
36
100
AcDbEntity
  8
0
 62
     3
100
AcDbLine
 10
199.292875608403
 20
63.80838459164777
 30
0.0
 11
198.292875608403
 21
63.80838459164777
 31
0.0
  0
LINE
  5
FCC
330
36
100
AcDbEntity
  8
0
 62
     3
100
AcDbLine
 10
199.292875608403
 20
63.80838459164777
 30
0.0
 11
199.292875608403
 21
55.30838459164789
 31
0.0
  0
LINE
  5
FCD
330
36
100
AcDbEntity
  8
0
 62
     3
100
AcDbLine
 10
199.292875608403
 20
64.30838459164778
 30
0.0
 11
199.1428756084029
 21
65.30838459164778
 31
0.0
  0
LINE
  5
FCE
330
36
100
AcDbEntity
  8
0
 62
     3
100
AcDbLine
 10
198.4428756084028
 20
65.30838459164778
 30
0.0
 11
198.292875608403
 21
64.30838459164778
 31
0.0
  0
LINE
  5
FCF
330
36
100
AcDbEntity
  8
0
 62
     3
100
AcDbLine
 10
198.4428756084028
 20
65.30838459164778
 30
0.0
 11
199.1428756084029
 21
65.30838459164778
 31
0.0
  0
LINE
  5
FD0
330
36
100
AcDbEntity
  8
0
 62
     3
100
AcDbLine
 10
198.292875608403
 20
63.80838459164777
 30
0.0
 11
198.292875608403
 21
64.30838459164778
 31
0.0
  0
LINE
  5
FD1
330
36
100
AcDbEntity
  8
0
 62
     3
100
AcDbLine
 10
199.292875608403
 20
64.30838459164778
 30
0.0
 11
199.292875608403
 21
63.80838459164777
 31
0.0
  0
LINE
  5
FD2
330
36
100
AcDbEntity
  8
0
 62
     3
100
AcDbLine
 10
187.9928756084028
 20
63.80838459164777
 30
0.0
 11
187.9928756084028
 21
55.30838459164789
 31
0.0
  0
LINE
  5
FD3
330
36
100
AcDbEntity
  8
0
 62
     3
100
AcDbLine
 10
188.9928756084028
 20
63.80838459164777
 30
0.0
 11
187.9928756084028
 21
63.80838459164777
 31
0.0
  0
LINE
  5
FD4
330
36
100
AcDbEntity
  8
0
 62
     3
100
AcDbLine
 10
188.9928756084028
 20
63.80838459164777
 30
0.0
 11
188.9928756084028
 21
55.35838459164772
 31
0.0
  0
LINE
  5
FD5
330
36
100
AcDbEntity
  8
0
 62
     3
100
AcDbLine
 10
188.9928756084028
 20
64.30838459164778
 30
0.0
 11
188.8428756084026
 21
65.30838459164778
 31
0.0
  0
LINE
  5
FD6
330
36
100
AcDbEntity
  8
0
 62
     3
100
AcDbLine
 10
188.1428756084029
 20
65.30838459164778
 30
0.0
 11
187.9928756084028
 21
64.30838459164778
 31
0.0
  0
LINE
  5
FD7
330
36
100
AcDbEntity
  8
0
 62
     3
100
AcDbLine
 10
188.1428756084029
 20
65.30838459164778
 30
0.0
 11
188.8428756084026
 21
65.30838459164778
 31
0.0
  0
LINE
  5
FD8
330
36
100
AcDbEntity
  8
0
 62
     3
100
AcDbLine
 10
187.9928756084028
 20
63.80838459164777
 30
0.0
 11
187.9928756084028
 21
64.30838459164778
 31
0.0
  0
LINE
  5
FD9
330
36
100
AcDbEntity
  8
0
 62
     3
100
AcDbLine
 10
188.9928756084028
 20
64.30838459164778
 30
0.0
 11
188.9928756084028
 21
63.80838459164777
 31
0.0
  0
LINE
  5
FDA
330
36
100
AcDbEntity
  8
0
 62
     3
100
AcDbLine
 10
195.6428756084029
 20
63.80838459164777
 30
0.0
 11
195.6428756084029
 21
55.35838459164796
 31
0.0
  0
LINE
  5
FDB
330
36
100
AcDbEntity
  8
0
 62
     3
100
AcDbLine
 10
191.6428756084029
 20
63.80838459164777
 30
0.0
 11
191.6428756084029
 21
55.35838459164796
 31
0.0
  0
LINE
  5
FDC
330
36
100
AcDbEntity
  8
0
 62
     3
100
AcDbLine
 10
191.8928756084029
 20
64.30838459164778
 30
0.0
 11
191.6428756084029
 21
63.80838459164777
 31
0.0
  0
LINE
  5
FDD
330
36
100
AcDbEntity
  8
0
 62
     3
100
AcDbLine
 10
195.3928756084029
 20
64.30838459164778
 30
0.0
 11
194.1428756084029
 21
64.30838459164778
 31
0.0
  0
LINE
  5
FDE
330
36
100
AcDbEntity
  8
0
 62
     3
100
AcDbLine
 10
193.1428756084029
 20
64.30838459164778
 30
0.0
 11
191.8928756084029
 21
64.30838459164778
 31
0.0
  0
LINE
  5
FDF
330
36
100
AcDbEntity
  8
0
 62
     3
100
AcDbLine
 10
195.6428756084029
 20
63.80838459164777
 30
0.0
 11
195.3928756084029
 21
64.30838459164778
 31
0.0
  0
LINE
  5
FE0
330
36
100
AcDbEntity
  8
0
 62
     3
100
AcDbLine
 10
192.3928756084029
 20
65.30838459164778
 30
0.0
 11
193.1428756084029
 21
65.30838459164778
 31
0.0
  0
LINE
  5
FE1
330
36
100
AcDbEntity
  8
0
 62
     3
100
AcDbLine
 10
194.1428756084029
 20
65.30838459164778
 30
0.0
 11
194.8928756084029
 21
65.30838459164778
 31
0.0
  0
LINE
  5
FE2
330
36
100
AcDbEntity
  8
0
 62
     3
100
AcDbLine
 10
191.8928756084029
 20
64.30838459164778
 30
0.0
 11
192.3928756084029
 21
65.30838459164778
 31
0.0
  0
LINE
  5
FE3
330
36
100
AcDbEntity
  8
0
 62
     3
100
AcDbLine
 10
194.8928756084029
 20
65.30838459164778
 30
0.0
 11
195.3928756084029
 21
64.30838459164778
 31
0.0
  0
LINE
  5
FE4
330
36
100
AcDbEntity
  8
0
 62
     3
100
AcDbLine
 10
182.3928602478307
 20
36.35979262794908
 30
0.0
 11
182.3928602478307
 21
45.80838459164789
 31
0.0
  0
LINE
  5
FE5
330
36
100
AcDbEntity
  8
0
 62
     3
100
AcDbLine
 10
204.8928909656364
 20
36.3597926210563
 30
0.0
 11
204.8928909656368
 21
45.80838459164789
 31
0.0
  0
LINE
  5
FE6
330
36
100
AcDbEntity
  8
0
 62
     7
100
AcDbLine
 10
199.2928756084026
 20
82.05311306217533
 30
0.0
 11
198.2928756084027
 21
82.05311306217533
 31
0.0
  0
LINE
  5
FE7
330
36
100
AcDbEntity
  8
0
 62
     7
100
AcDbLine
 10
199.1428756084038
 20
82.20311306217533
 30
0.0
 11
198.4428756084037
 21
82.20311306217533
 31
0.0
  0
LINE
  5
FE8
330
36
100
AcDbEntity
  8
0
 62
     7
100
AcDbLine
 10
188.9928756084028
 20
82.05311306217533
 30
0.0
 11
187.9928756084028
 21
82.05311306217533
 31
0.0
  0
LINE
  5
FE9
330
36
100
AcDbEntity
  8
0
 62
     7
100
AcDbLine
 10
188.8428756084026
 20
82.20311306217533
 30
0.0
 11
188.1428756084029
 21
82.20311306217533
 31
0.0
  0
LINE
  5
FEA
330
36
100
AcDbEntity
  8
0
 62
     7
100
AcDbLine
 10
199.2928756084026
 20
86.05311306217533
 30
0.0
 11
198.2928756084027
 21
86.05311306217533
 31
0.0
  0
LINE
  5
FEB
330
36
100
AcDbEntity
  8
0
 62
     7
100
AcDbLine
 10
199.1428756084038
 20
85.90311306217534
 30
0.0
 11
198.4428756084037
 21
85.90311306217534
 31
0.0
  0
LINE
  5
FEC
330
36
100
AcDbEntity
  8
0
 62
     7
100
AcDbLine
 10
188.9928756084028
 20
86.05311306217533
 30
0.0
 11
187.9928756084028
 21
86.05311306217533
 31
0.0
  0
LINE
  5
FED
330
36
100
AcDbEntity
  8
0
 62
     7
100
AcDbLine
 10
188.8428756084026
 20
85.90311306217534
 30
0.0
 11
188.1428756084029
 21
85.90311306217534
 31
0.0
  0
LINE
  5
FEE
330
36
100
AcDbEntity
  8
0
 62
     7
100
AcDbLine
 10
195.6428756084029
 20
88.70311306217535
 30
0.0
 11
191.6428756084029
 21
88.70311306217535
 31
0.0
  0
LINE
  5
FEF
330
36
100
AcDbEntity
  8
0
 62
     7
100
AcDbLine
 10
195.4928756084028
 20
88.85311306217525
 30
0.0
 11
191.7928756084027
 21
88.85311306217525
 31
0.0
  0
LINE
  5
FF0
330
36
100
AcDbEntity
  8
0
 62
     7
100
AcDbLine
 10
195.6428756084029
 20
89.70311306217528
 30
0.0
 11
191.6428756084029
 21
89.70311306217528
 31
0.0
  0
LINE
  5
FF1
330
36
100
AcDbEntity
  8
0
 62
     7
100
AcDbLine
 10
195.4928756084028
 20
89.55311306217527
 30
0.0
 11
191.7928756084027
 21
89.55311306217527
 31
0.0
  0
LINE
  5
FF2
330
36
100
AcDbEntity
  8
0
 62
     7
100
AcDbLine
 10
194.1428756084029
 20
77.30311306217527
 30
0.0
 11
193.1428756084029
 21
77.30311306217527
 31
0.0
  0
LINE
  5
FF3
330
36
100
AcDbEntity
  8
0
 62
     7
100
AcDbLine
 10
193.9928756084028
 20
77.45311306217526
 30
0.0
 11
193.2928756084027
 21
77.45311306217526
 31
0.0
  0
LINE
  5
FF4
330
36
100
AcDbEntity
  8
0
 62
     7
100
AcDbLine
 10
194.1428756084029
 20
81.30311306217526
 30
0.0
 11
193.1428756084029
 21
81.30311306217526
 31
0.0
  0
LINE
  5
FF5
330
36
100
AcDbEntity
  8
0
 62
     7
100
AcDbLine
 10
193.9928756084028
 20
81.15311306217526
 30
0.0
 11
193.2928756084027
 21
81.15311306217526
 31
0.0
  0
LINE
  5
FF6
330
36
100
AcDbEntity
  8
0
 62
     7
100
AcDbLine
 10
191.6428756084029
 20
88.70311306217535
 30
0.0
 11
191.6428756084029
 21
89.70311306217528
 31
0.0
  0
LINE
  5
FF7
330
36
100
AcDbEntity
  8
0
 62
     7
100
AcDbLine
 10
191.7928756084027
 20
88.85311306217525
 30
0.0
 11
191.7928756084027
 21
89.55311306217527
 31
0.0
  0
LINE
  5
FF8
330
36
100
AcDbEntity
  8
0
 62
     7
100
AcDbLine
 10
195.6428756084029
 20
88.70311306217535
 30
0.0
 11
195.6428756084029
 21
89.70311306217528
 31
0.0
  0
LINE
  5
FF9
330
36
100
AcDbEntity
  8
0
 62
     7
100
AcDbLine
 10
195.4928756084028
 20
88.85311306217525
 30
0.0
 11
195.4928756084028
 21
89.55311306217527
 31
0.0
  0
LINE
  5
FFA
330
36
100
AcDbEntity
  8
0
 62
     7
100
AcDbLine
 10
193.1428756084029
 20
77.30311306217527
 30
0.0
 11
193.1428756084029
 21
81.30311306217526
 31
0.0
  0
LINE
  5
FFB
330
36
100
AcDbEntity
  8
0
 62
     7
100
AcDbLine
 10
193.2928756084027
 20
77.45311306217526
 30
0.0
 11
193.2928756084027
 21
81.15311306217526
 31
0.0
  0
LINE
  5
FFC
330
36
100
AcDbEntity
  8
0
 62
     7
100
AcDbLine
 10
194.1428756084029
 20
77.30311306217527
 30
0.0
 11
194.1428756084029
 21
81.30311306217526
 31
0.0
  0
LINE
  5
FFD
330
36
100
AcDbEntity
  8
0
 62
     7
100
AcDbLine
 10
193.9928756084028
 20
77.45311306217526
 30
0.0
 11
193.9928756084028
 21
81.15311306217526
 31
0.0
  0
LINE
  5
FFE
330
36
100
AcDbEntity
  8
0
 62
     7
100
AcDbLine
 10
187.9928756084028
 20
82.05311306217533
 30
0.0
 11
187.9928756084028
 21
86.05311306217533
 31
0.0
  0
LINE
  5
FFF
330
36
100
AcDbEntity
  8
0
 62
     7
100
AcDbLine
 10
188.1428756084029
 20
82.20311306217533
 30
0.0
 11
188.1428756084029
 21
85.90311306217534
 31
0.0
  0
LINE
  5
1000
330
36
100
AcDbEntity
  8
0
 62
     7
100
AcDbLine
 10
188.9928756084028
 20
82.05311306217533
 30
0.0
 11
188.9928756084028
 21
86.05311306217533
 31
0.0
  0
LINE
  5
1001
330
36
100
AcDbEntity
  8
0
 62
     7
100
AcDbLine
 10
188.8428756084026
 20
82.20311306217533
 30
0.0
 11
188.8428756084026
 21
85.90311306217534
 31
0.0
  0
LINE
  5
1002
330
36
100
AcDbEntity
  8
0
 62
     7
100
AcDbLine
 10
198.2928756084027
 20
82.05311306217533
 30
0.0
 11
198.2928756084027
 21
86.05311306217533
 31
0.0
  0
LINE
  5
1003
330
36
100
AcDbEntity
  8
0
 62
     7
100
AcDbLine
 10
198.4428756084037
 20
82.20311306217533
 30
0.0
 11
198.4428756084037
 21
85.90311306217534
 31
0.0
  0
LINE
  5
1004
330
36
100
AcDbEntity
  8
0
 62
     7
100
AcDbLine
 10
199.2928756084026
 20
82.05311306217533
 30
0.0
 11
199.2928756084026
 21
86.05311306217533
 31
0.0
  0
LINE
  5
1005
330
36
100
AcDbEntity
  8
0
 62
     7
100
AcDbLine
 10
199.1428756084038
 20
82.20311306217533
 30
0.0
 11
199.1428756084029
 21
85.90311306217534
 31
0.0
  0
LINE
  5
1006
330
36
100
AcDbEntity
  8
0
 62
     7
100
AcDbLine
 10
188.8428756084026
 20
85.90311306217534
 30
0.0
 11
188.9928756084028
 21
86.05311306217533
 31
0.0
  0
LINE
  5
1007
330
36
100
AcDbEntity
  8
0
 62
     7
100
AcDbLine
 10
188.1428756084029
 20
85.90311306217534
 30
0.0
 11
187.9928756084028
 21
86.05311306217533
 31
0.0
  0
LINE
  5
1008
330
36
100
AcDbEntity
  8
0
 62
     7
100
AcDbLine
 10
188.1428756084029
 20
82.20311306217533
 30
0.0
 11
187.9928756084028
 21
82.05311306217533
 31
0.0
  0
LINE
  5
1009
330
36
100
AcDbEntity
  8
0
 62
     7
100
AcDbLine
 10
188.8428756084026
 20
82.20311306217533
 30
0.0
 11
188.9928756084028
 21
82.05311306217533
 31
0.0
  0
LINE
  5
100A
330
36
100
AcDbEntity
  8
0
 62
     7
100
AcDbLine
 10
193.2928756084027
 20
81.15311306217526
 30
0.0
 11
193.1428756084029
 21
81.30311306217526
 31
0.0
  0
LINE
  5
100B
330
36
100
AcDbEntity
  8
0
 62
     7
100
AcDbLine
 10
193.9928756084028
 20
81.15311306217526
 30
0.0
 11
194.1428756084029
 21
81.30311306217526
 31
0.0
  0
LINE
  5
100C
330
36
100
AcDbEntity
  8
0
 62
     7
100
AcDbLine
 10
193.2928756084027
 20
77.45311306217526
 30
0.0
 11
193.1428756084029
 21
77.30311306217527
 31
0.0
  0
LINE
  5
100D
330
36
100
AcDbEntity
  8
0
 62
     7
100
AcDbLine
 10
193.9928756084028
 20
77.45311306217526
 30
0.0
 11
194.1428756084029
 21
77.30311306217527
 31
0.0
  0
LINE
  5
100E
330
36
100
AcDbEntity
  8
0
 62
     7
100
AcDbLine
 10
198.4428756084037
 20
82.20311306217533
 30
0.0
 11
198.2928756084027
 21
82.05311306217533
 31
0.0
  0
LINE
  5
100F
330
36
100
AcDbEntity
  8
0
 62
     7
100
AcDbLine
 10
199.1428756084038
 20
82.20311306217533
 30
0.0
 11
199.2928756084026
 21
82.05311306217533
 31
0.0
  0
LINE
  5
1010
330
36
100
AcDbEntity
  8
0
 62
     7
100
AcDbLine
 10
199.1428756084038
 20
85.90311306217534
 30
0.0
 11
199.2928756084026
 21
86.05311306217533
 31
0.0
  0
LINE
  5
1011
330
36
100
AcDbEntity
  8
0
 62
     7
100
AcDbLine
 10
198.4428756084037
 20
85.90311306217534
 30
0.0
 11
198.2928756084027
 21
86.05311306217533
 31
0.0
  0
LINE
  5
1012
330
36
100
AcDbEntity
  8
0
 62
     7
100
AcDbLine
 10
195.4928756084028
 20
89.55311306217527
 30
0.0
 11
195.6428756084029
 21
89.70311306217528
 31
0.0
  0
LINE
  5
1013
330
36
100
AcDbEntity
  8
0
 62
     7
100
AcDbLine
 10
195.4928756084028
 20
88.85311306217525
 30
0.0
 11
195.6428756084029
 21
88.70311306217535
 31
0.0
  0
LINE
  5
1014
330
36
100
AcDbEntity
  8
0
 62
     7
100
AcDbLine
 10
191.7928756084027
 20
89.55311306217527
 30
0.0
 11
191.6428756084029
 21
89.70311306217528
 31
0.0
  0
LINE
  5
1015
330
36
100
AcDbEntity
  8
0
 62
     7
100
AcDbLine
 10
191.7928756084027
 20
88.85311306217525
 30
0.0
 11
191.6428756084029
 21
88.70311306217535
 31
0.0
  0
CIRCLE
  5
1016
330
36
100
AcDbEntity
  8
0
 62
     3
100
AcDbCircle
 10
193.6428756084029
 20
84.05311306217532
 30
0.0
 40
13.25
  0
CIRCLE
  5
1017
330
36
100
AcDbEntity
  8
0
 62
     3
100
AcDbCircle
 10
193.6428756084029
 20
84.05311306217532
 30
0.0
 40
15.25
  0
TEXT
  5
1018
330
36
100
AcDbEntity
  8
0
 62
     4
100
AcDbText
 10
200.8961744021708
 20
82.34361747967275
 30
0.0
 40
3.2
  1
X
  7
高3.2
100
AcDbText
  0
TEXT
  5
1019
330
36
100
AcDbEntity
  8
0
 62
     4
100
AcDbText
 10
184.3420566638666
 20
82.29506072287511
 30
0.0
 40
3.2
  1
Z
  7
高3.2
100
AcDbText
  0
TEXT
  5
101A
330
36
100
AcDbEntity
  8
0
 62
     4
100
AcDbText
 10
192.6738831503776
 20
90.74266759702112
 30
0.0
 40
3.2
  1
Y
  7
高3.2
100
AcDbText
  0
LINE
  5
101B
330
36
100
AcDbEntity
  8
0
 62
     3
100
AcDbLine
 10
190.9178756084027
 20
-3.61283470930461
 30
0.0
 11
190.9178756084027
 21
2.808384591647775
 31
0.0
  0
LINE
  5
101C
330
36
100
AcDbEntity
  8
0
 62
     3
100
AcDbLine
 10
196.3678756084028
 20
-3.61283470930461
 30
0.0
 11
196.3678756084028
 21
2.808384591647775
 31
0.0
  0
ARC
  5
101D
330
36
100
AcDbEntity
  8
0
100
AcDbCircle
 10
195.0053756084026
 20
-2.182209709304636
 30
0.0
 40
1.975625000000007
100
AcDbArc
 50
226.3971810272972
 51
313.6028189727065
  0
ARC
  5
101E
330
36
100
AcDbEntity
  8
0
100
AcDbCircle
 10
195.0053756084026
 20
-5.04345970930461
 30
0.0
 40
1.975625000000007
100
AcDbArc
 50
46.3971810272972
 51
133.6028189727065
  0
ARC
  5
101F
330
36
100
AcDbEntity
  8
0
100
AcDbCircle
 10
192.2803756084027
 20
-2.182209709304661
 30
0.0
 40
1.975625000000007
100
AcDbArc
 50
226.3971810272972
 51
313.6028189727028
  0
LINE
  5
1020
330
36
100
AcDbEntity
  8
0
 62
     3
100
AcDbLine
 10
149.142672
 20
11.987019
 30
0.0
 11
157.1045936335389
 21
11.987019
 31
0.0
  0
LINE
  5
1021
330
36
100
AcDbEntity
  8
0
 62
     3
100
AcDbLine
 10
149.142672
 20
6.537018999999997
 30
0.0
 11
157.1045936335389
 21
6.537018999999997
 31
0.0
  0
LINE
  5
1022
330
36
100
AcDbEntity
  8
0
 62
     3
100
AcDbLine
 10
169.829593633539
 20
-0.7379810000000015
 30
0.0
 11
169.829593633539
 21
-10.51738668232705
 31
0.0
  0
LINE
  5
1023
330
36
100
AcDbEntity
  8
0
 62
     3
100
AcDbLine
 10
164.3795936335389
 20
-0.7379810000000015
 30
0.0
 11
164.3795936335389
 21
-10.51738668232705
 31
0.0
  0
ARC
  5
1024
330
36
100
AcDbEntity
  8
0
 62
     3
100
AcDbCircle
 10
157.1045936335389
 20
-0.7379810000000015
 30
0.0
 40
7.275
100
AcDbArc
 50
0.0
 51
90.0
  0
ARC
  5
1025
330
36
100
AcDbEntity
  8
0
 62
     3
100
AcDbCircle
 10
157.1045936335389
 20
-0.7379810000000015
 30
0.0
 40
12.725
100
AcDbArc
 50
0.0
 51
90.0
  0
LINE
  5
1026
330
36
100
AcDbEntity
  8
0
 62
     3
100
AcDbLine
 10
177.1045936335388
 20
-23.24238668232704
 30
0.0
 11
183.6428756084028
 21
-23.24238668232704
 31
0.0
  0
LINE
  5
1027
330
36
100
AcDbEntity
  8
0
 62
     3
100
AcDbLine
 10
177.1045936335388
 20
-17.79238668232704
 30
0.0
 11
183.6428756084028
 21
-17.79238668232704
 31
0.0
  0
ARC
  5
1028
330
36
100
AcDbEntity
  8
0
 62
     3
100
AcDbCircle
 10
183.6428756084028
 20
-10.51738668232705
 30
0.0
 40
7.275
100
AcDbArc
 50
270.0
 51
0.0
  0
ARC
  5
1029
330
36
100
AcDbEntity
  8
0
 62
     3
100
AcDbCircle
 10
183.6428756084028
 20
-10.51738668232705
 30
0.0
 40
12.725
100
AcDbArc
 50
270.0
 51
0.0
  0
ARC
  5
102A
330
36
100
AcDbEntity
  8
0
 62
     3
100
AcDbCircle
 10
177.1045936335388
 20
-10.51738668232705
 30
0.0
 40
7.275
100
AcDbArc
 50
180.0
 51
270.0
  0
ARC
  5
102B
330
36
100
AcDbEntity
  8
0
 62
     3
100
AcDbCircle
 10
177.1045936335388
 20
-10.51738668232705
 30
0.0
 40
12.725
100
AcDbArc
 50
180.0
 51
270.0
  0
LINE
  5
102C
330
36
100
AcDbEntity
  8
0
 62
     3
100
AcDbLine
 10
196.3678756084028
 20
-6.851315794036994
 30
0.0
 11
196.3678756084028
 21
-10.51738668232705
 31
0.0
  0
LINE
  5
102D
330
36
100
AcDbEntity
  8
0
 62
     3
100
AcDbLine
 10
190.9178756084027
 20
-6.851315794036994
 30
0.0
 11
190.9178756084027
 21
-10.51738668232705
 31
0.0
  0
ARC
  5
102E
330
36
100
AcDbEntity
  8
0
100
AcDbCircle
 10
192.2803756084028
 20
-8.281940794037012
 30
0.0
 40
1.97562500000002
100
AcDbArc
 50
46.39718102729728
 51
133.6028189727028
  0
ARC
  5
102F
330
36
100
AcDbEntity
  8
0
100
AcDbCircle
 10
192.2803756084028
 20
-5.420690794036978
 30
0.0
 40
1.97562500000002
100
AcDbArc
 50
226.3971810272972
 51
313.6028189727027
  0
ARC
  5
1030
330
36
100
AcDbEntity
  8
0
100
AcDbCircle
 10
195.0053756084028
 20
-8.281940794037012
 30
0.0
 40
1.97562500000002
100
AcDbArc
 50
46.3971810272974
 51
133.6028189727026
  0
LINE
  5
11FB
330
36
100
AcDbEntity
  8
0
100
AcDbLine
 10
-140.657428
 20
1.561318999999999
 30
0.0
 11
-140.657428
 21
-21.795557
 31
0.0
  0
LINE
  5
11FC
330
36
100
AcDbEntity
  8
0
100
AcDbLine
 10
-10.157428
 20
1.561318999999999
 30
0.0
 11
-10.157428
 21
-21.795557
 31
0.0
  0
LINE
  5
11FD
330
36
100
AcDbEntity
  8
0
100
AcDbLine
 10
-138.157428
 20
-20.545557
 30
0.0
 11
-12.657428
 21
-20.545557
 31
0.0
  0
LINE
  5
1201
330
36
100
AcDbEntity
  8
0
100
AcDbLine
 10
58.83043
 20
-13.237981
 30
0.0
 11
17.65697199999998
 21
-13.23798099999999
 31
0.0
  0
LINE
  5
1202
330
36
100
AcDbEntity
  8
0
100
AcDbLine
 10
85.383107
 20
101.411419
 30
0.0
 11
17.656972
 21
101.411419
 31
0.0
  0
LINE
  5
1203
330
36
100
AcDbEntity
  8
0
100
AcDbLine
 10
18.90697199999997
 20
-10.73798099999999
 30
0.0
 11
18.906972
 21
98.911419
 31
0.0
  0
LINE
  5
1207
330
36
100
AcDbEntity
  8
0
100
AcDbLine
 10
30.392672
 20
-5.587981
 30
0.0
 11
30.392672
 21
-21.795557
 31
0.0
  0
LINE
  5
1208
330
36
100
AcDbEntity
  8
0
100
AcDbLine
 10
147.892672
 20
-5.987980999999997
 30
0.0
 11
147.892672
 21
-21.795557
 31
0.0
  0
LINE
  5
1209
330
36
100
AcDbEntity
  8
0
100
AcDbLine
 10
32.892672
 20
-20.545557
 30
0.0
 11
145.392672
 21
-20.545557
 31
0.0
  0
LINE
  5
120D
330
36
100
AcDbEntity
  8
0
100
AcDbLine
 10
159.0914496537051
 20
13.50438617874393
 30
0.0
 11
169.2009389517739
 21
21.22502979813889
 31
0.0
1001
ACAD
1000
DSTYLE
1002
{
1070
   147
1040
0.625
1070
    77
1070
     0
1002
}
  0
LINE
  5
120E
330
36
100
AcDbEntity
  8
0
  6
ByBlock
 62
     0
370
    -2
100
AcDbLine
 10
159.4980266718823
 20
12.97201009499642
 30
0.0
 11
157.1045936335389
 21
11.987019
 31
0.0
  0
LINE
  5
120F
330
36
100
AcDbEntity
  8
0
  6
ByBlock
 62
     0
370
    -2
100
AcDbLine
 10
157.1045936335389
 20
11.987019
 30
0.0
 11
158.6848726355278
 21
14.03676226249144
 31
0.0
  0
LINE
  5
1210
330
36
100
AcDbEntity
  8
0
  6
ByBlock
 62
     0
370
    -2
100
AcDbLine
 10
157.1045936335389
 20
11.987019
 30
0.0
 11
159.0914496537051
 21
13.50438617874393
 31
0.0
  0
LINE
  5
1211
330
36
100
AcDbEntity
  8
0
100
AcDbLine
 10
-130.742899082506
 20
54.37908268115506
 30
0.0
 11
-150.303963643538
 21
73.28451342024393
 31
0.0
1001
ACAD
1000
DSTYLE
1002
{
1070
   341
1005
801
1070
   147
1040
0.625
1070
    77
1070
     0
1002
}
  0
LINE
  5
1213
330
36
100
AcDbEntity
  8
0
100
AcDbLine
 10
-104.7584313944535
 20
56.41201958123712
 30
0.0
 11
-125.0045622110929
 21
112.3372859064538
 31
0.0
1001
ACAD
1000
DSTYLE
1002
{
1070
   147
1040
0.625
1070
    77
1070
     0
1002
}
  0
LINE
  5
1214
330
36
100
AcDbEntity
  8
0
  6
ByBlock
 62
     0
370
    -2
100
AcDbLine
 10
-104.1285635244116
 20
56.64004508977755
 30
0.0
 11
-103.907428
 21
54.061319
 31
0.0
  0
LINE
  5
1215
330
36
100
AcDbEntity
  8
0
  6
ByBlock
 62
     0
370
    -2
100
AcDbLine
 10
-103.907428
 20
54.061319
 30
0.0
 11
-105.3882992644954
 21
56.1839940726967
 31
0.0
  0
LINE
  5
1216
330
36
100
AcDbEntity
  8
0
  6
ByBlock
 62
     0
370
    -2
100
AcDbLine
 10
-103.907428
 20
54.061319
 30
0.0
 11
-104.7584313944535
 21
56.41201958123712
 31
0.0
  0
LINE
  5
1217
330
36
100
AcDbEntity
  8
0
100
AcDbLine
 10
-84.26134013341487
 20
49.41096451973415
 30
0.0
 11
-107.1308967331702
 21
112.3393960294597
 31
0.0
1001
ACAD
1000
DSTYLE
1002
{
1070
   147
1040
0.625
1070
    77
1070
     0
1002
}
  0
LINE
  5
1218
330
36
100
AcDbEntity
  8
0
  6
ByBlock
 62
     0
370
    -2
100
AcDbLine
 10
-83.6317549660476
 20
49.63976942197054
 30
0.0
 11
-83.40742799999999
 21
47.06131899999999
 31
0.0
  0
LINE
  5
1219
330
36
100
AcDbEntity
  8
0
  6
ByBlock
 62
     0
370
    -2
100
AcDbLine
 10
-83.40742799999999
 20
47.06131899999999
 30
0.0
 11
-84.89092530078211
 21
49.18215961749777
 31
0.0
  0
LINE
  5
121A
330
36
100
AcDbEntity
  8
0
  6
ByBlock
 62
     0
370
    -2
100
AcDbLine
 10
-83.40742799999999
 20
47.06131899999999
 30
0.0
 11
-84.26134013341487
 21
49.41096451973415
 31
0.0
  0
LINE
  5
121B
330
36
100
AcDbEntity
  8
0
100
AcDbLine
 10
-80.49414033311638
 20
65.49149772556096
 30
0.0
 11
-91.7656323337672
 21
112.1783296178061
 31
0.0
1001
ACAD
1000
DSTYLE
1002
{
1070
   147
1040
0.625
1070
    77
1070
     0
1002
}
  0
LINE
  5
121C
330
36
100
AcDbEntity
  8
0
  6
ByBlock
 62
     0
370
    -2
100
AcDbLine
 10
-79.84297637378104
 20
65.64870670850716
 30
0.0
 11
-79.90742799999998
 21
63.061319
 31
0.0
  0
LINE
  5
121D
330
36
100
AcDbEntity
  8
0
  6
ByBlock
 62
     0
370
    -2
100
AcDbLine
 10
-79.90742799999998
 20
63.061319
 30
0.0
 11
-81.14530429245171
 21
65.33428874261476
 31
0.0
  0
LINE
  5
121E
330
36
100
AcDbEntity
  8
0
  6
ByBlock
 62
     0
370
    -2
100
AcDbLine
 10
-79.90742799999998
 20
63.061319
 30
0.0
 11
-80.49414033311638
 21
65.49149772556096
 31
0.0
  0
LINE
  5
121F
330
36
100
AcDbEntity
  8
0
100
AcDbLine
 10
-50.90874303117692
 20
46.80127680473701
 30
0.0
 11
-37.60823393764614
 21
112.139171459454
 31
0.0
1001
ACAD
1000
DSTYLE
1002
{
1070
   147
1040
0.625
1070
    77
1070
     0
1002
}
  0
LINE
  5
1220
330
36
100
AcDbEntity
  8
0
  6
ByBlock
 62
     0
370
    -2
100
AcDbLine
 10
-50.25233287715543
 20
46.66765466602584
 30
0.0
 11
-51.40742799999999
 21
44.351519
 31
0.0
  0
LINE
  5
1221
330
36
100
AcDbEntity
  8
0
  6
ByBlock
 62
     0
370
    -2
100
AcDbLine
 10
-51.40742799999999
 20
44.351519
 30
0.0
 11
-51.5651531851984
 21
46.9348989434482
 31
0.0
  0
LINE
  5
1222
330
36
100
AcDbEntity
  8
0
  6
ByBlock
 62
     0
370
    -2
100
AcDbLine
 10
-51.40742799999999
 20
44.351519
 30
0.0
 11
-50.90874303117692
 21
46.80127680473701
 31
0.0
  0
LINE
  5
1223
330
36
100
AcDbEntity
  8
0
100
AcDbLine
 10
-27.41416101745795
 20
46.80237348036676
 30
0.0
 11
-14.2647049650841
 21
112.1369781081945
 31
0.0
1001
ACAD
1000
DSTYLE
1002
{
1070
   147
1040
0.625
1070
    77
1070
     0
1002
}
  0
LINE
  5
1224
330
36
100
AcDbEntity
  8
0
  6
ByBlock
 62
     0
370
    -2
100
AcDbLine
 10
-26.75745701029816
 20
46.67020308566161
 30
0.0
 11
-27.907428
 21
44.351519
 31
0.0
  0
LINE
  5
1225
330
36
100
AcDbEntity
  8
0
  6
ByBlock
 62
     0
370
    -2
100
AcDbLine
 10
-27.907428
 20
44.351519
 30
0.0
 11
-28.07086502461775
 21
46.93454387507193
 31
0.0
  0
LINE
  5
1226
330
36
100
AcDbEntity
  8
0
  6
ByBlock
 62
     0
370
    -2
100
AcDbLine
 10
-27.907428
 20
44.351519
 30
0.0
 11
-27.41416101745795
 21
46.80237348036676
 31
0.0
  0
LINE
  5
1227
330
36
100
AcDbEntity
  8
0
100
AcDbLine
 10
-24.35586758318601
 20
6.34469370007992
 30
0.0
 11
-0.7490698336279678
 21
112.1586576687682
 31
0.0
1001
ACAD
1000
DSTYLE
1002
{
1070
   147
1040
0.625
1070
    77
1070
     0
1002
}
  0
LINE
  5
1228
330
36
100
AcDbEntity
  8
0
  6
ByBlock
 62
     0
370
    -2
100
AcDbLine
 10
-23.7020680843143
 20
6.19883287075503
 30
0.0
 11
-24.900228
 21
3.904679
 31
0.0
  0
LINE
  5
1229
330
36
100
AcDbEntity
  8
0
  6
ByBlock
 62
     0
370
    -2
100
AcDbLine
 10
-24.900228
 20
3.904679
 30
0.0
 11
-25.00966708205773
 21
6.490554529404811
 31
0.0
  0
LINE
  5
122A
330
36
100
AcDbEntity
  8
0
  6
ByBlock
 62
     0
370
    -2
100
AcDbLine
 10
-24.900228
 20
3.904679
 30
0.0
 11
-24.35586758318601
 21
6.34469370007992
 31
0.0
  0
LINE
  5
122B
330
36
100
AcDbEntity
  8
0
100
AcDbLine
 10
-129.0545114425063
 20
34.20341084961638
 30
0.0
 11
-150.0615804927707
 21
51.74768646577117
 31
0.0
1001
ACAD
1000
DSTYLE
1002
{
1070
   341
1005
801
1070
   147
1040
0.625
1070
    77
1070
     0
1002
}
  0
LINE
  5
122D
330
36
100
AcDbEntity
  8
0
100
AcDbLine
 10
-93.01594331648589
 20
15.78272757322497
 30
0.0
 11
-148.9621180815618
 21
6.825150078566677
 31
0.0
1001
ACAD
1000
DSTYLE
1002
{
1070
   147
1040
0.625
1070
    77
1070
     0
1002
}
  0
LINE
  5
122E
330
36
100
AcDbEntity
  8
0
  6
ByBlock
 62
     0
370
    -2
100
AcDbLine
 10
-93.12184815964432
 20
16.44417547778877
 30
0.0
 11
-90.5473843572668
 21
16.17797011250831
 31
0.0
  0
LINE
  5
122F
330
36
100
AcDbEntity
  8
0
  6
ByBlock
 62
     0
370
    -2
100
AcDbLine
 10
-90.5473843572668
 20
16.17797011250831
 30
0.0
 11
-92.91003847332746
 21
15.12127966866117
 31
0.0
  0
LINE
  5
1230
330
36
100
AcDbEntity
  8
0
  6
ByBlock
 62
     0
370
    -2
100
AcDbLine
 10
-90.5473843572668
 20
16.17797011250831
 30
0.0
 11
-93.01594331648589
 21
15.78272757322497
 31
0.0
  0
LINE
  5
1231
330
36
100
AcDbEntity
  8
0
100
AcDbLine
 10
-129.867409912167
 20
22.79211820368817
 30
0.0
 11
-149.4725773723702
 21
33.08839135391636
 31
0.0
1001
ACAD
1000
DSTYLE
1002
{
1070
   147
1040
0.625
1070
    77
1070
     0
1002
}
  0
LINE
  5
1232
330
36
100
AcDbEntity
  8
0
  6
ByBlock
 62
     0
370
    -2
100
AcDbLine
 10
-129.5559460419827
 20
23.38517757999556
 30
0.0
 11
-127.6540805983521
 21
21.62971838064636
 31
0.0
  0
LINE
  5
1233
330
36
100
AcDbEntity
  8
0
  6
ByBlock
 62
     0
370
    -2
100
AcDbLine
 10
-127.6540805983521
 20
21.62971838064636
 30
0.0
 11
-130.1788737823512
 21
22.19905882738078
 31
0.0
  0
LINE
  5
1234
330
36
100
AcDbEntity
  8
0
  6
ByBlock
 62
     0
370
    -2
100
AcDbLine
 10
-127.6540805983521
 20
21.62971838064636
 30
0.0
 11
-129.867409912167
 21
22.79211820368817
 31
0.0
  0
LINE
  5
1235
330
36
100
AcDbEntity
  8
0
100
AcDbLine
 10
-131.0527114836018
 20
-10.11178016256233
 30
0.0
 11
-148.9065250327963
 21
-9.146682674875334
 31
0.0
1001
ACAD
1000
DSTYLE
1002
{
1070
   147
1040
0.625
1070
    77
1070
     0
1002
}
  0
LINE
  5
1236
330
36
100
AcDbEntity
  8
0
  6
ByBlock
 62
     0
370
    -2
100
AcDbLine
 10
-131.0165539532022
 20
-9.442884207086704
 30
0.0
 11
-128.556356
 21
-10.246722
 31
0.0
  0
LINE
  5
1237
330
36
100
AcDbEntity
  8
0
  6
ByBlock
 62
     0
370
    -2
100
AcDbLine
 10
-128.556356
 20
-10.246722
 30
0.0
 11
-131.0888690140014
 21
-10.78067611803796
 31
0.0
  0
LINE
  5
1238
330
36
100
AcDbEntity
  8
0
  6
ByBlock
 62
     0
370
    -2
100
AcDbLine
 10
-128.556356
 20
-10.246722
 30
0.0
 11
-131.0527114836018
 21
-10.11178016256233
 31
0.0
  0
LINE
  5
1239
330
36
100
AcDbEntity
  8
0
100
AcDbLine
 10
37.16662821491425
 20
78.85426907516738
 30
0.0
 11
27.0298105701715
 21
112.2541869185933
 31
0.0
1001
ACAD
1000
DSTYLE
1002
{
1070
   147
1040
0.625
1070
    77
1070
     0
1002
}
  0
LINE
  5
123A
330
36
100
AcDbEntity
  8
0
  6
ByBlock
 62
     0
370
    -2
100
AcDbLine
 10
37.80762923030528
 20
79.04881178133732
 30
0.0
 11
37.892672
 21
76.462019
 31
0.0
  0
LINE
  5
123B
330
36
100
AcDbEntity
  8
0
  6
ByBlock
 62
     0
370
    -2
100
AcDbLine
 10
37.892672
 20
76.462019
 30
0.0
 11
36.52562719952323
 21
78.65972636899744
 31
0.0
  0
LINE
  5
123C
330
36
100
AcDbEntity
  8
0
  6
ByBlock
 62
     0
370
    -2
100
AcDbLine
 10
37.892672
 20
76.462019
 30
0.0
 11
37.16662821491425
 21
78.85426907516738
 31
0.0
  0
LINE
  5
123D
330
36
100
AcDbEntity
  8
0
100
AcDbLine
 10
139.5401267535872
 20
67.127902353571
 30
0.0
 11
159.1813666644683
 21
72.79176100907445
 31
0.0
1001
ACAD
1000
DSTYLE
1002
{
1070
   341
1005
801
1070
   147
1040
0.625
1070
    77
1070
     0
1002
}
  0
LINE
  5
123F
330
36
100
AcDbEntity
  8
0
100
AcDbLine
 10
131.5522180626607
 20
101.639428557106
 30
0.0
 11
118.0737317935181
 21
113.7039694353458
 31
0.0
1001
ACAD
1000
DSTYLE
1002
{
1070
   147
1040
0.625
1070
    77
1070
     0
1002
}
  0
LINE
  5
1240
330
36
100
AcDbEntity
  8
0
  6
ByBlock
 62
     0
370
    -2
100
AcDbLine
 10
131.9989851902611
 20
102.1385560958693
 30
0.0
 11
133.4149887345549
 21
99.97206974031488
 31
0.0
  0
LINE
  5
1241
330
36
100
AcDbEntity
  8
0
  6
ByBlock
 62
     0
370
    -2
100
AcDbLine
 10
133.4149887345549
 20
99.97206974031488
 30
0.0
 11
131.1054509350604
 21
101.1403010183426
 31
0.0
  0
LINE
  5
1242
330
36
100
AcDbEntity
  8
0
  6
ByBlock
 62
     0
370
    -2
100
AcDbLine
 10
133.4149887345549
 20
99.97206974031488
 30
0.0
 11
131.5522180626607
 21
101.639428557106
 31
0.0
  0
LINE
  5
1243
330
36
100
AcDbEntity
  8
0
100
AcDbLine
 10
97.12674333977629
 20
104.1446429184542
 30
0.0
 11
96.19742965145121
 21
112.0726875437016
 31
0.0
1001
ACAD
1000
DSTYLE
1002
{
1070
   147
1040
0.625
1070
    77
1070
     0
1002
}
  0
LINE
  5
1244
330
36
100
AcDbEntity
  8
0
  6
ByBlock
 62
     0
370
    -2
100
AcDbLine
 10
97.79206064316873
 20
104.222630430678
 30
0.0
 11
97.41779690677514
 21
101.661643155841
 31
0.0
  0
LINE
  5
1245
330
36
100
AcDbEntity
  8
0
  6
ByBlock
 62
     0
370
    -2
100
AcDbLine
 10
97.41779690677514
 20
101.661643155841
 30
0.0
 11
96.46142603638384
 21
104.0666554062304
 31
0.0
  0
LINE
  5
1246
330
36
100
AcDbEntity
  8
0
  6
ByBlock
 62
     0
370
    -2
100
AcDbLine
 10
97.41779690677514
 20
101.661643155841
 30
0.0
 11
97.12674333977629
 21
104.1446429184542
 31
0.0
  0
TEXT
  5
1247
330
36
100
AcDbEntity
  8
0
 62
     4
100
AcDbText
 10
-79.15742800000001
 20
-19.920557
 30
0.0
 40
3.0
  1
260
100
AcDbText
  0
LINE
  5
1248
330
36
100
AcDbEntity
  8
0
  6
ByBlock
 62
     0
370
    -2
100
AcDbLine
 10
-12.657428
 20
-19.8756845
 30
0.0
 11
-10.157428
 21
-20.545557
 31
0.0
  0
LINE
  5
1249
330
36
100
AcDbEntity
  8
0
  6
ByBlock
 62
     0
370
    -2
100
AcDbLine
 10
-10.157428
 20
-20.545557
 30
0.0
 11
-12.657428
 21
-21.2154295
 31
0.0
  0
LINE
  5
124A
330
36
100
AcDbEntity
  8
0
  6
ByBlock
 62
     0
370
    -2
100
AcDbLine
 10
-10.157428
 20
-20.545557
 30
0.0
 11
-12.657428
 21
-20.545557
 31
0.0
  0
LINE
  5
124B
330
36
100
AcDbEntity
  8
0
  6
ByBlock
 62
     0
370
    -2
100
AcDbLine
 10
-138.157428
 20
-21.2154295
 30
0.0
 11
-140.657428
 21
-20.545557
 31
0.0
  0
LINE
  5
124C
330
36
100
AcDbEntity
  8
0
  6
ByBlock
 62
     0
370
    -2
100
AcDbLine
 10
-140.657428
 20
-20.545557
 30
0.0
 11
-138.157428
 21
-19.8756845
 31
0.0
  0
LINE
  5
124D
330
36
100
AcDbEntity
  8
0
  6
ByBlock
 62
     0
370
    -2
100
AcDbLine
 10
-140.657428
 20
-20.545557
 30
0.0
 11
-138.157428
 21
-20.545557
 31
0.0
  0
TEXT
  5
124E
330
36
100
AcDbEntity
  8
0
 62
     4
100
AcDbText
 10
18.28197199999998
 20
40.336719
 30
0.0
 40
3.0
  1
230
 50
90.0
100
AcDbText
  0
LINE
  5
124F
330
36
100
AcDbEntity
  8
0
  6
ByBlock
 62
     0
370
    -2
100
AcDbLine
 10
18.2370995
 20
98.911419
 30
0.0
 11
18.906972
 21
101.411419
 31
0.0
  0
LINE
  5
1250
330
36
100
AcDbEntity
  8
0
  6
ByBlock
 62
     0
370
    -2
100
AcDbLine
 10
18.906972
 20
101.411419
 30
0.0
 11
19.5768445
 21
98.911419
 31
0.0
  0
LINE
  5
1251
330
36
100
AcDbEntity
  8
0
  6
ByBlock
 62
     0
370
    -2
100
AcDbLine
 10
18.906972
 20
101.411419
 30
0.0
 11
18.906972
 21
98.911419
 31
0.0
  0
LINE
  5
1252
330
36
100
AcDbEntity
  8
0
  6
ByBlock
 62
     0
370
    -2
100
AcDbLine
 10
19.57684449999997
 20
-10.73798099999999
 30
0.0
 11
18.90697199999997
 21
-13.23798099999999
 31
0.0
  0
LINE
  5
1253
330
36
100
AcDbEntity
  8
0
  6
ByBlock
 62
     0
370
    -2
100
AcDbLine
 10
18.90697199999997
 20
-13.23798099999999
 30
0.0
 11
18.23709949999997
 21
-10.73798099999999
 31
0.0
  0
LINE
  5
1254
330
36
100
AcDbEntity
  8
0
  6
ByBlock
 62
     0
370
    -2
100
AcDbLine
 10
18.90697199999997
 20
-13.23798099999999
 30
0.0
 11
18.90697199999997
 21
-10.73798099999999
 31
0.0
  0
TEXT
  5
1255
330
36
100
AcDbEntity
  8
0
 62
     4
100
AcDbText
 10
85.142672
 20
-19.920557
 30
0.0
 40
3.0
  1
235
100
AcDbText
  0
LINE
  5
1256
330
36
100
AcDbEntity
  8
0
  6
ByBlock
 62
     0
370
    -2
100
AcDbLine
 10
145.392672
 20
-19.8756845
 30
0.0
 11
147.892672
 21
-20.545557
 31
0.0
  0
LINE
  5
1257
330
36
100
AcDbEntity
  8
0
  6
ByBlock
 62
     0
370
    -2
100
AcDbLine
 10
147.892672
 20
-20.545557
 30
0.0
 11
145.392672
 21
-21.2154295
 31
0.0
  0
LINE
  5
1258
330
36
100
AcDbEntity
  8
0
  6
ByBlock
 62
     0
370
    -2
100
AcDbLine
 10
147.892672
 20
-20.545557
 30
0.0
 11
145.392672
 21
-20.545557
 31
0.0
  0
LINE
  5
1259
330
36
100
AcDbEntity
  8
0
  6
ByBlock
 62
     0
370
    -2
100
AcDbLine
 10
32.892672
 20
-21.2154295
 30
0.0
 11
30.392672
 21
-20.545557
 31
0.0
  0
LINE
  5
125A
330
36
100
AcDbEntity
  8
0
  6
ByBlock
 62
     0
370
    -2
100
AcDbLine
 10
30.392672
 20
-20.545557
 30
0.0
 11
32.892672
 21
-19.8756845
 31
0.0
  0
LINE
  5
125B
330
36
100
AcDbEntity
  8
0
  6
ByBlock
 62
     0
370
    -2
100
AcDbLine
 10
30.392672
 20
-20.545557
 30
0.0
 11
32.892672
 21
-20.545557
 31
0.0
  0
ARC
  5
125C
330
36
100
AcDbEntity
  8
0
  6
ByBlock
 62
     0
100
AcDbCircle
 10
-130.742899082506
 20
54.37908268115506
 30
0.0
 40
0.156250000000008
100
AcDbArc
 50
135.9764709158035
 51
315.9764709158036
  0
ARC
  5
125D
330
36
100
AcDbEntity
  8
0
  6
ByBlock
 62
     0
100
AcDbCircle
 10
-130.742899082506
 20
54.37908268115506
 30
0.0
 40
0.156250000000008
100
AcDbArc
 50
315.9764709158036
 51
135.9764709158035
  0
ARC
  5
125E
330
36
100
AcDbEntity
  8
0
  6
ByBlock
 62
     0
100
AcDbCircle
 10
-129.0545114425063
 20
34.20341084961638
 30
0.0
 40
0.1562499999999956
100
AcDbArc
 50
140.1326986368279
 51
320.1326986368279
  0
ARC
  5
125F
330
36
100
AcDbEntity
  8
0
  6
ByBlock
 62
     0
100
AcDbCircle
 10
-129.0545114425063
 20
34.20341084961638
 30
0.0
 40
0.1562499999999956
100
AcDbArc
 50
320.1326986368279
 51
140.1326986368279
  0
ARC
  5
1260
330
36
100
AcDbEntity
  8
0
  6
ByBlock
 62
     0
100
AcDbCircle
 10
139.5401267535872
 20
67.127902353571
 30
0.0
 40
0.1562500000000092
100
AcDbArc
 50
16.08574355836568
 51
196.0857435583657
  0
ARC
  5
1261
330
36
100
AcDbEntity
  8
0
  6
ByBlock
 62
     0
100
AcDbCircle
 10
139.5401267535872
 20
67.127902353571
 30
0.0
 40
0.1562500000000092
100
AcDbArc
 50
196.0857435583657
 51
16.08574355836568
  0
ENDSEC
  0
SECTION
  2
OBJECTS
  0
DICTIONARY
  5
C
330
0
100
AcDbDictionary
281
     1
  3
ACAD_2007HEADERVARS_RT
350
1265
  3
ACAD_COLOR
350
2F
  3
ACAD_GROUP
350
D
  3
ACAD_LAYOUT
350
2E
  3
ACAD_MATERIAL
350
10
  3
ACAD_MLEADERSTYLE
350
4FC
  3
ACAD_MLINESTYLE
350
2B
  3
ACAD_PLOTSETTINGS
350
2D
  3
ACAD_PLOTSTYLENAME
350
E
  3
ACAD_SCALELIST
350
4EA
  3
ACAD_TABLESTYLE
350
30
  3
ACAD_VISUALSTYLE
350
14
  3
ACDB_RECOMPOSE_DATA
350
1263
  3
AcDbVariableDictionary
350
4CA
  3
AEC_PROPERTY_SET_DEFS
350
E23
  3
DWGPROPS
350
1264
  0
DICTIONARY
  5
5A5
330
2
100
AcDbDictionary
280
     1
281
     1
  3
ACAD_LAYERSTATES
360
5A6
  0
DICTIONARY
  5
78D
330
25
100
AcDbDictionary
280
     1
281
     1
  3
ADSK_XREC_LAYER_RECONCILED
360
78E
  0
DICTIONARY
  5
6FB
330
36
100
AcDbDictionary
280
     1
281
     1
  3
ACAD_SORTENTS
360
6FC
  0
DICTIONARY
  5
1265
102
{ACAD_REACTORS
330
C
102
}
330
C
100
AcDbDictionary
281
     1
  3
DIMARCSYM
350
1267
  3
DIMFXL
350
1266
  3
DIMJOGANG
350
1268
  0
DICTIONARY
  5
2F
102
{ACAD_REACTORS
330
C
102
}
330
C
100
AcDbDictionary
281
     1
  0
DICTIONARY
  5
D
102
{ACAD_REACTORS
330
C
102
}
330
C
100
AcDbDictionary
281
     1
  0
DICTIONARY
  5
2E
102
{ACAD_REACTORS
330
C
102
}
330
C
100
AcDbDictionary
281
     1
  3
Model
350
39
  3
レイアウト1
350
35
  0
DICTIONARY
  5
10
102
{ACAD_REACTORS
330
C
102
}
330
C
100
AcDbDictionary
281
     1
  3
ByBlock
350
12
  3
ByLayer
350
11
  3
Global
350
13
  0
DICTIONARY
  5
4FC
102
{ACAD_REACTORS
330
C
102
}
330
C
100
AcDbDictionary
281
     1
  3
Standard
350
4FD
  0
DICTIONARY
  5
2B
102
{ACAD_REACTORS
330
C
102
}
330
C
100
AcDbDictionary
281
     1
  3
Standard
350
2C
  0
DICTIONARY
  5
2D
102
{ACAD_REACTORS
330
C
102
}
330
C
100
AcDbDictionary
281
     1
  0
ACDBDICTIONARYWDFLT
  5
E
102
{ACAD_REACTORS
330
C
102
}
330
C
100
AcDbDictionary
281
     1
  3
Normal
350
F
100
AcDbDictionaryWithDefault
340
F
  0
DICTIONARY
  5
4EA
102
{ACAD_REACTORS
330
C
102
}
330
C
100
AcDbDictionary
281
     1
  3
A0
350
4EB
  3
A1
350
4EC
  3
A2
350
4ED
  3
A3
350
4EE
  3
A4
350
4EF
  3
A5
350
4F0
  3
A6
350
4F1
  3
A7
350
4F2
  3
A8
350
4F3
  3
A9
350
4F4
  3
B0
350
4F5
  3
B1
350
4F6
  3
B2
350
4F7
  3
B3
350
4F8
  3
B4
350
4F9
  3
B5
350
4FA
  3
B6
350
4FB
  0
DICTIONARY
  5
30
102
{ACAD_REACTORS
330
C
102
}
330
C
100
AcDbDictionary
281
     1
  3
Standard
350
31
  0
DICTIONARY
  5
14
102
{ACAD_REACTORS
330
C
102
}
330
C
100
AcDbDictionary
281
     1
  3
2dWireframe
350
1A
  3
3D Hidden
350
1C
  3
3dWireframe
350
1B
  3
Basic
350
19
  3
Brighten
350
20
  3
ColorChange
350
24
  3
Conceptual
350
1D
  3
Dim
350
1F
  3
EdgeColorOff
350
4E9
  3
Facepattern
350
23
  3
Flat
350
15
  3
FlatWithEdges
350
16
  3
Gouraud
350
17
  3
GouraudWithEdges
350
18
  3
Hidden
350
4E1
  3
JitterOff
350
4E7
  3
Linepattern
350
22
  3
OverhangOff
350
4E8
  3
Realistic
350
1E
  3
Shaded
350
4E6
  3
Shaded with edges
350
4E5
  3
Shades of Gray
350
4E2
  3
Sketchy
350
4E3
  3
Thicken
350
21
  3
Wireframe
350
4E0
  3
X-Ray
350
4E4
  0
XRECORD
  5
1263
102
{ACAD_REACTORS
330
C
102
}
330
C
100
AcDbXrecord
280
     1
 90
        1
330
31
  0
DICTIONARY
  5
4CA
102
{ACAD_REACTORS
330
C
102
}
330
C
100
AcDbDictionary
281
     1
  3
CANNOSCALE
350
792
  3
CMLEADERSTYLE
350
791
  3
CTABLESTYLE
350
4CB
  3
DIMASSOC
350
4CE
  3
INDEXCTL
350
4CD
  3
SORTENTS
350
4CC
  3
XCLIPFRAME
350
1158
  0
DICTIONARY
  5
E23
102
{ACAD_REACTORS
330
C
102
}
330
C
100
AcDbDictionary
281
     1
  0
XRECORD
  5
1264
102
{ACAD_REACTORS
330
C
102
}
330
C
100
AcDbXrecord
280
     1
  1
DWGPROPS COOKIE
  2

  3

  4

  6

  7

  8
imamura
  9

300
=
301
=
302
=
303
=
304
=
305
=
306
=
307
=
308
=
309
=
 40
0.2061876736111111
 41
2455825.671952581
 42
2460291.754933808
  1

 90
        0
  0
DICTIONARY
  5
5A6
102
{ACAD_REACTORS
330
5A5
102
}
330
5A5
100
AcDbDictionary
281
     1
  0
XRECORD
  5
78E
102
{ACAD_REACTORS
330
78D
102
}
330
78D
100
AcDbXrecord
280
     1
290
     1
  0
SORTENTSTABLE
  5
6FC
102
{ACAD_REACTORS
330
6FB
102
}
330
6FB
100
AcDbSortentsTable
330
36
331
87
  5
B4
331
81F
  5
FAC
331
95
  5
102
331
81B
  5
FA9
331
764
  5
81C
331
72D
  5
755
331
42E
  5
730
331
817
  5
FA6
331
760
  5
817
331
729
  5
751
331
42A
  5
72C
331
75C
  5
783
331
89
  5
B6
331
725
  5
74D
331
426
  5
728
331
19D
  5
1E6
331
758
  5
77F
331
721
  5
749
331
422
  5
724
331
1E8
  5
221
331
199
  5
1E2
331
142
  5
197
331
1E4
  5
21D
331
195
  5
1DE
331
13E
  5
193
331
1E0
  5
219
331
191
  5
1DA
331
1244
  5
B9F
331
13A
  5
18F
331
1240
  5
BA3
331
3E7
  5
4AF
331
2DF
  5
306
331
1201
  5
9F
331
123C
  5
C71
331
3E3
  5
439
331
2DB
  5
302
331
11FD
  5
AB
331
38C
  5
3B3
331
29C
  5
2C3
331
355
  5
37C
331
265
  5
28C
331
316
  5
33D
331
226
  5
24F
331
1238
  5
F7D
331
2D7
  5
2FE
331
388
  5
3AF
331
298
  5
2BF
331
351
  5
378
331
261
  5
288
331
102E
  5
125F
331
312
  5
339
331
222
  5
24D
331
3CB
  5
436
331
2D3
  5
2FA
331
384
  5
3AB
331
294
  5
2BB
331
34D
  5
374
331
25D
  5
284
331
102A
  5
125B
331
30E
  5
335
331
380
  5
3A7
331
290
  5
2B7
331
349
  5
370
331
259
  5
280
331
1026
  5
1257
331
FF7
  5
1228
331
30A
  5
331
331
21A
  5
246
331
1022
  5
1253
331
FF3
  5
1224
331
FB4
  5
11E5
331
F7D
  5
1001
331
A16
  5
FD8
331
FEF
  5
1220
331
FB0
  5
11E1
331
FEB
  5
121C
331
FAC
  5
11DD
331
FA8
  5
102F
331
C71
  5
FFD
331
754
  5
77B
331
750
  5
777
331
4BB
  5
745
331
74C
  5
773
331
1DC
  5
20F
331
18D
  5
1D2
331
748
  5
76F
331
189
  5
1CE
331
132
  5
18D
331
1D4
  5
20B
331
185
  5
1CA
331
1D0
  5
207
331
181
  5
1A8
331
12A
  5
18B
331
1234
  5
F84
331
B3
  5
178
331
1230
  5
F89
331
2CF
  5
2F6
331
3BB
  5
42F
331
2CB
  5
2F2
331
37C
  5
3A3
331
28C
  5
2B3
331
345
  5
36C
331
255
  5
27C
331
306
  5
32D
331
1228
  5
F8E
331
3B7
  5
42B
331
2C7
  5
2EE
331
378
  5
39F
331
288
  5
2AF
331
341
  5
368
331
251
  5
278
331
101E
  5
124F
331
302
  5
329
331
3B3
  5
427
331
2C3
  5
2EA
331
374
  5
39B
331
284
  5
2AB
331
33D
  5
364
331
24D
  5
274
331
101A
  5
124B
331
2FE
  5
325
331
20E
  5
240
331
370
  5
397
331
280
  5
2A7
331
339
  5
360
331
249
  5
270
331
1016
  5
1247
331
FE7
  5
1218
331
2FA
  5
321
331
20A
  5
23C
331
1012
  5
1243
331
FE3
  5
1214
331
FA4
  5
102B
331
FDF
  5
1210
331
FA0
  5
1027
331
BA9
  5
FF9
331
842
  5
FD0
331
FDB
  5
120C
331
F9C
  5
1023
331
BA5
  5
FF5
331
F98
  5
101F
331
BA1
  5
FF1
331
83A
  5
FC8
331
783
  5
A29
331
744
  5
76B
331
77F
  5
A25
331
740
  5
767
331
77B
  5
A21
331
1CC
  5
203
331
17D
  5
1A4
331
AF
  5
14E
331
738
  5
760
331
1C8
  5
200
331
179
  5
1A0
331
122
  5
189
331
AB
  5
142
331
125F
  5
F8C
331
A7
  5
13E
331
151
  5
19E
331
11A
  5
187
331
A3
  5
13A
331
1224
  5
F92
331
125B
  5
94
331
1220
  5
F96
331
1257
  5
99
331
3AF
  5
423
331
2BF
  5
2E6
331
121C
  5
F9A
331
1253
  5
A3
331
3AB
  5
41F
331
2BB
  5
2E2
331
36C
  5
393
331
27C
  5
2A3
331
335
  5
35C
331
245
  5
26C
331
2F6
  5
31D
331
206
  5
238
331
1218
  5
F9E
331
3A7
  5
3EF
331
2B7
  5
2DE
331
368
  5
38F
331
278
  5
29F
331
331
  5
358
331
241
  5
268
331
100E
  5
123F
331
2F2
  5
319
331
202
  5
234
331
3A3
  5
3E9
331
2B3
  5
2DA
331
364
  5
38B
331
274
  5
29B
331
32D
  5
354
331
23D
  5
264
331
100A
  5
123B
331
2EE
  5
315
331
1FE
  5
230
331
360
  5
387
331
270
  5
297
331
329
  5
350
331
239
  5
260
331
1006
  5
1237
331
FD7
  5
1208
331
2EA
  5
311
331
1FA
  5
22C
331
1002
  5
1233
331
FD3
  5
1204
331
F94
  5
101B
331
B9D
  5
FED
331
836
  5
FC4
331
FCF
  5
1200
331
F90
  5
1017
331
832
  5
FC0
331
FCB
  5
11FC
331
F8C
  5
1013
331
82E
  5
FBC
331
F88
  5
100F
331
A29
  5
FEB
331
82A
  5
FB9
331
777
  5
A1D
331
773
  5
A19
331
826
  5
FB5
331
9C
  5
121
331
76F
  5
828
331
439
  5
73A
331
822
  5
FAF
331
98
  5
111
331
76B
  5
824
331
734
  5
75C
331
435
  5
737
331
730
  5
758
331
431
  5
733
331
1F7
  5
229
331
1A8
  5
1FD
331
112
  5
185
331
1A4
  5
1F9
331
14D
  5
19A
331
1A0
  5
1F0
331
1214
  5
FA2
331
10A
  5
183
331
1210
  5
1005
331
124F
  5
A5
331
39F
  5
3E5
331
2AF
  5
2D6
331
39B
  5
3CB
331
2AB
  5
2D2
331
124B
  5
AC
331
325
  5
34C
331
235
  5
25C
331
3EE
  5
4BA
331
2E6
  5
30D
331
397
  5
3BE
331
2A7
  5
2CE
331
321
  5
348
331
231
  5
258
331
1208
  5
87
331
2E2
  5
309
331
393
  5
3BA
331
2A3
  5
2CA
331
35C
  5
383
331
26C
  5
293
331
31D
  5
344
331
22D
  5
254
331
358
  5
37F
331
268
  5
28F
331
FC7
  5
11F8
331
319
  5
340
331
229
  5
250
331
FC3
  5
11F4
331
A25
  5
FE7
331
FFE
  5
122F
331
FBF
  5
11F0
331
A21
  5
FE3
331
FFA
  5
122B
331
FBB
  5
11EC
331
F84
  5
100B
331
A1D
  5
FDF
331
F80
  5
1007
331
A19
  5
FDB
331
86
  5
B3
331
81E
  5
FAB
331
94
  5
101
331
767
  5
820
331
81A
  5
FA8
331
763
  5
81B
331
72C
  5
754
331
42D
  5
72F
331
75F
  5
786
331
728
  5
750
331
429
  5
72B
331
75B
  5
782
331
88
  5
B5
331
724
  5
74C
331
425
  5
727
331
19C
  5
1E5
331
421
  5
723
331
198
  5
1E1
331
141
  5
196
331
102
  5
181
331
1E3
  5
21C
331
194
  5
1DD
331
13D
  5
192
331
1247
  5
B2
331
190
  5
1D5
331
139
  5
18E
331
1243
  5
BA2
331
FA
  5
17F
331
123F
  5
BA6
331
3E6
  5
4A8
331
2DE
  5
305
331
38F
  5
3B6
331
29F
  5
2C6
331
123B
  5
C70
331
3E2
  5
438
331
2DA
  5
301
331
11FC
  5
AA
331
38B
  5
3B2
331
29B
  5
2C2
331
354
  5
37B
331
264
  5
28B
331
315
  5
33C
331
225
  5
24E
331
2D6
  5
2FD
331
387
  5
3AE
331
297
  5
2BE
331
350
  5
377
331
260
  5
287
331
102D
  5
125E
331
311
  5
338
331
221
  5
24C
331
3CA
  5
435
331
2D2
  5
2F9
331
383
  5
3AA
331
293
  5
2BA
331
34C
  5
373
331
25C
  5
283
331
1029
  5
125A
331
30D
  5
334
331
21D
  5
249
331
348
  5
36F
331
258
  5
27F
331
1025
  5
1256
331
FF6
  5
1227
331
FB7
  5
11E8
331
309
  5
330
331
219
  5
245
331
1021
  5
1252
331
FF2
  5
1223
331
FB3
  5
11E4
331
A15
  5
FD7
331
FEE
  5
121F
331
FAF
  5
11E0
331
FEA
  5
121B
331
FAB
  5
11DC
331
C74
  5
1000
331
C70
  5
FFC
331
757
  5
77E
331
753
  5
77A
331
74F
  5
776
331
4BA
  5
744
331
1DF
  5
218
331
74B
  5
772
331
1DB
  5
20E
331
18C
  5
1D1
331
4B0
  5
740
331
188
  5
1CD
331
131
  5
18C
331
F2
  5
17D
331
1D3
  5
20A
331
184
  5
1C8
331
1237
  5
C74
331
B6
  5
17B
331
180
  5
1A7
331
129
  5
18A
331
1233
  5
F81
331
B2
  5
151
331
122F
  5
F87
331
3BE
  5
432
331
2CE
  5
2F5
331
37F
  5
3A6
331
28F
  5
2B6
331
122B
  5
F8D
331
3BA
  5
42E
331
2CA
  5
2F1
331
37B
  5
3A2
331
28B
  5
2B2
331
344
  5
36B
331
254
  5
27B
331
305
  5
32C
331
3B6
  5
42A
331
2C6
  5
2ED
331
377
  5
39E
331
287
  5
2AE
331
340
  5
367
331
250
  5
277
331
101D
  5
124E
331
301
  5
328
331
3B2
  5
426
331
2C2
  5
2E9
331
373
  5
39A
331
283
  5
2AA
331
33C
  5
363
331
24C
  5
273
331
1019
  5
124A
331
2FD
  5
324
331
20D
  5
23F
331
338
  5
35F
331
248
  5
26F
331
1015
  5
1246
331
FE6
  5
1217
331
FA7
  5
102E
331
2F9
  5
320
331
209
  5
23B
331
1011
  5
1242
331
FE2
  5
1213
331
FA3
  5
102A
331
845
  5
FD3
331
FDE
  5
120F
331
F9F
  5
1026
331
BA8
  5
FF8
331
841
  5
FCE
331
FDA
  5
120B
331
F9B
  5
1022
331
BA4
  5
FF4
331
83D
  5
FCB
331
BA0
  5
FF0
331
839
  5
FC7
331
786
  5
B9E
331
747
  5
76E
331
782
  5
A28
331
743
  5
76A
331
77E
  5
A24
331
73F
  5
766
331
4A8
  5
73E
331
1CF
  5
206
331
77A
  5
A20
331
73B
  5
763
331
1CB
  5
202
331
17C
  5
1A3
331
AE
  5
14D
331
4A0
  5
73B
331
178
  5
19F
331
121
  5
188
331
AA
  5
141
331
1227
  5
F91
331
125E
  5
F8B
331
A6
  5
13D
331
150
  5
19D
331
119
  5
186
331
A2
  5
139
331
1223
  5
F95
331
125A
  5
93
331
121F
  5
F99
331
1256
  5
98
331
3AE
  5
422
331
2BE
  5
2E5
331
36F
  5
396
331
27F
  5
2A6
331
121B
  5
F9D
331
1252
  5
A2
331
3AA
  5
400
331
2BA
  5
2E1
331
36B
  5
392
331
27B
  5
2A2
331
334
  5
35B
331
244
  5
26B
331
2F5
  5
31C
331
205
  5
237
331
3A6
  5
3EE
331
2B6
  5
2DD
331
367
  5
38E
331
277
  5
29E
331
330
  5
357
331
240
  5
267
331
100D
  5
123E
331
2F1
  5
318
331
201
  5
233
331
3A2
  5
3E8
331
2B2
  5
2D9
331
363
  5
38A
331
273
  5
29A
331
32C
  5
353
331
23C
  5
263
331
1009
  5
123A
331
2ED
  5
314
331
1FD
  5
22F
331
328
  5
34F
331
238
  5
25F
331
1005
  5
1236
331
FD6
  5
1207
331
F97
  5
101E
331
2E9
  5
310
331
1F9
  5
22B
331
1001
  5
1232
331
FD2
  5
1203
331
F93
  5
101A
331
B9C
  5
FEC
331
835
  5
FC3
331
FCE
  5
11FF
331
F8F
  5
1016
331
831
  5
FBF
331
FCA
  5
11FB
331
F8B
  5
1012
331
82D
  5
FBB
331
A28
  5
FEA
331
829
  5
FB8
331
776
  5
A1C
331
772
  5
A18
331
9F
  5
12A
331
825
  5
FB4
331
9B
  5
11A
331
76E
  5
827
331
737
  5
75F
331
438
  5
739
331
821
  5
FAE
331
76A
  5
823
331
733
  5
75B
331
434
  5
736
331
430
  5
732
331
1F6
  5
226
331
1A7
  5
1FC
331
111
  5
184
331
1217
  5
FA1
331
1A3
  5
1F8
331
1213
  5
FA5
331
109
  5
182
331
120F
  5
1004
331
124E
  5
A8
331
39E
  5
3E4
331
2AE
  5
2D5
331
39A
  5
3CA
331
2AA
  5
2D1
331
124A
  5
B1
331
324
  5
34B
331
234
  5
25B
331
2E5
  5
30C
331
396
  5
3BD
331
2A6
  5
2CD
331
35F
  5
386
331
26F
  5
296
331
320
  5
347
331
230
  5
257
331
3E9
  5
4B7
331
2E1
  5
308
331
392
  5
3B9
331
2A2
  5
2C9
331
35B
  5
382
331
26B
  5
292
331
31C
  5
343
331
22C
  5
253
331
FC6
  5
11F7
331
318
  5
33F
331
1030
  5
1261
331
FC2
  5
11F3
331
A24
  5
FE6
331
FFD
  5
122E
331
FBE
  5
11EF
331
F87
  5
100E
331
A20
  5
FE2
331
FF9
  5
122A
331
FBA
  5
11EB
331
F83
  5
100A
331
A1C
  5
FDE
331
A18
  5
FDA
331
97
  5
10A
331
766
  5
81F
331
93
  5
FA
331
72F
  5
757
331
762
  5
81A
331
72B
  5
753
331
42C
  5
72E
331
75E
  5
785
331
8B
  5
F2
331
727
  5
74F
331
428
  5
72A
331
19F
  5
1EA
331
75A
  5
781
331
723
  5
74B
331
424
  5
726
331
1EA
  5
222
331
19B
  5
1E4
331
144
  5
199
331
420
  5
722
331
1E6
  5
220
331
197
  5
1E0
331
140
  5
195
331
101
  5
180
331
1E2
  5
21B
331
193
  5
1DC
331
1246
  5
BA1
331
13C
  5
191
331
1207
  5
86
331
1242
  5
BA5
331
F9
  5
17E
331
1203
  5
A1
331
3E5
  5
4A7
331
2DD
  5
304
331
38E
  5
3B5
331
29E
  5
2C5
331
357
  5
37E
331
267
  5
28E
331
123A
  5
BAB
331
2D9
  5
300
331
11FB
  5
A9
331
38A
  5
3B1
331
29A
  5
2C1
331
353
  5
37A
331
263
  5
28A
331
314
  5
33B
331
2D5
  5
2FC
331
386
  5
3AD
331
296
  5
2BD
331
34F
  5
376
331
25F
  5
286
331
102C
  5
125D
331
310
  5
337
331
220
  5
24B
331
3C9
  5
434
331
2D1
  5
2F8
331
382
  5
3A9
331
292
  5
2B9
331
34B
  5
372
331
25B
  5
282
331
1028
  5
1259
331
30C
  5
333
331
21C
  5
248
331
1024
  5
1255
331
FF5
  5
1226
331
FB6
  5
11E7
331
308
  5
32F
331
218
  5
244
331
1020
  5
1251
331
FF1
  5
1222
331
FB2
  5
11E3
331
FED
  5
121E
331
FAE
  5
11DF
331
FE9
  5
121A
331
FAA
  5
11D9
331
C73
  5
FFF
331
756
  5
77D
331
752
  5
779
331
4BD
  5
747
331
74E
  5
775
331
4B9
  5
743
331
4B7
  5
741
331
1DE
  5
217
331
18F
  5
1D4
331
74A
  5
771
331
1DA
  5
20D
331
18B
  5
1D0
331
400
  5
71E
331
187
  5
1CC
331
F1
  5
17C
331
1D2
  5
209
331
183
  5
1C6
331
1236
  5
C73
331
B5
  5
17A
331
1232
  5
F80
331
B1
  5
150
331
122E
  5
F86
331
3BD
  5
431
331
2CD
  5
2F4
331
37E
  5
3A5
331
28E
  5
2B5
331
347
  5
36E
331
257
  5
27E
331
122A
  5
F90
331
1261
  5
BA9
331
3B9
  5
42D
331
2C9
  5
2F0
331
37A
  5
3A1
331
28A
  5
2B1
331
343
  5
36A
331
253
  5
27A
331
304
  5
32B
331
3B5
  5
429
331
2C5
  5
2EC
331
376
  5
39D
331
286
  5
2AD
331
33F
  5
366
331
24F
  5
276
331
101C
  5
124D
331
300
  5
327
331
210
  5
242
331
3B1
  5
425
331
2C1
  5
2E8
331
372
  5
399
331
282
  5
2A9
331
33B
  5
362
331
24B
  5
272
331
1018
  5
1249
331
2FC
  5
323
331
20C
  5
23E
331
1014
  5
1245
331
FE5
  5
1216
331
FA6
  5
102D
331
2F8
  5
31F
331
208
  5
23A
331
1010
  5
1241
331
FE1
  5
1212
331
FA2
  5
1029
331
BAB
  5
FFB
331
844
  5
FD2
331
FDD
  5
120E
331
F9E
  5
1025
331
BA7
  5
FF7
331
840
  5
FCD
331
FD9
  5
120A
331
F9A
  5
1021
331
BA3
  5
FF3
331
83C
  5
FCA
331
838
  5
FC6
331
785
  5
B9D
331
746
  5
76D
331
4AF
  5
73F
331
781
  5
A27
331
742
  5
769
331
77D
  5
A23
331
73E
  5
765
331
4A7
  5
73D
331
1CE
  5
205
331
17F
  5
1A6
331
779
  5
A1F
331
73A
  5
762
331
1CA
  5
201
331
17B
  5
1A2
331
AD
  5
144
331
3F0
  5
4BC
331
1C6
  5
1FF
331
A9
  5
140
331
125D
  5
FD5
331
1226
  5
F94
331
A5
  5
13C
331
A1
  5
132
331
1222
  5
F98
331
1259
  5
92
331
121E
  5
F9C
331
1255
  5
9E
331
3AD
  5
421
331
2BD
  5
2E4
331
36E
  5
395
331
27E
  5
2A5
331
337
  5
35E
331
247
  5
26E
331
121A
  5
FA0
331
1251
  5
A7
331
3A9
  5
3FF
331
2B9
  5
2E0
331
36A
  5
391
331
27A
  5
2A1
331
333
  5
35A
331
243
  5
26A
331
2F4
  5
31B
331
204
  5
236
331
3A5
  5
3EC
331
2B5
  5
2DC
331
366
  5
38D
331
276
  5
29D
331
32F
  5
356
331
23F
  5
266
331
100C
  5
123D
331
2F0
  5
317
331
200
  5
232
331
3A1
  5
3E7
331
2B1
  5
2D8
331
362
  5
389
331
272
  5
299
331
32B
  5
352
331
23B
  5
262
331
1008
  5
1239
331
2EC
  5
313
331
1FC
  5
22E
331
1004
  5
1235
331
FD5
  5
1206
331
F96
  5
101D
331
B9F
  5
FEF
331
2E8
  5
30F
331
1F8
  5
22A
331
1000
  5
1231
331
FD1
  5
1202
331
F92
  5
1019
331
834
  5
FC2
331
FCD
  5
11FE
331
F8E
  5
1015
331
830
  5
FBE
331
FC9
  5
11FA
331
F8A
  5
1011
331
82C
  5
FBA
331
828
  5
FB7
331
775
  5
A1B
331
771
  5
82A
331
9E
  5
129
331
824
  5
FB3
331
9A
  5
119
331
76D
  5
826
331
736
  5
75E
331
820
  5
FAD
331
769
  5
822
331
732
  5
75A
331
433
  5
735
331
1A6
  5
1FB
331
14F
  5
19C
331
1216
  5
FA4
331
1A2
  5
1F7
331
120E
  5
1003
331
124D
  5
AE
331
39D
  5
3E3
331
2AD
  5
2D4
331
327
  5
34E
331
237
  5
25E
331
1249
  5
B0
331
399
  5
3C9
331
323
  5
34A
331
233
  5
25A
331
2A9
  5
2D0
331
3EC
  5
4B9
331
2E4
  5
30B
331
395
  5
3BC
331
2A5
  5
2CC
331
35E
  5
385
331
26E
  5
295
331
31F
  5
346
331
22F
  5
256
331
3E8
  5
4B0
331
2E0
  5
307
331
391
  5
3B8
331
2A1
  5
2C8
331
35A
  5
381
331
26A
  5
291
331
31B
  5
342
331
22B
  5
252
331
FC5
  5
11F6
331
A27
  5
FE9
331
FC1
  5
11F2
331
A23
  5
FE5
331
FFC
  5
122D
331
FBD
  5
11EE
331
F86
  5
100D
331
A1F
  5
FE1
331
FF8
  5
1229
331
FB9
  5
11EA
331
F82
  5
1009
331
A1B
  5
FDD
331
96
  5
109
331
81C
  5
FAA
331
92
  5
F9
331
765
  5
81E
331
72E
  5
756
331
42F
  5
731
331
818
  5
FA7
331
761
  5
818
331
72A
  5
752
331
42B
  5
72D
331
75D
  5
784
331
8A
  5
F1
331
726
  5
74E
331
427
  5
729
331
19E
  5
1E8
331
759
  5
780
331
722
  5
74A
331
423
  5
725
331
19A
  5
1E3
331
143
  5
198
331
1E5
  5
21F
331
196
  5
1DF
331
13F
  5
194
331
1E1
  5
21A
331
192
  5
1DB
331
1245
  5
BA0
331
13B
  5
190
331
1241
  5
BA4
331
1202
  5
A0
331
123D
  5
BAA
331
3E4
  5
4A0
331
2DC
  5
303
331
38D
  5
3B4
331
29D
  5
2C4
331
356
  5
37D
331
266
  5
28D
331
317
  5
33E
331
1239
  5
C72
331
2D8
  5
2FF
331
389
  5
3B0
331
299
  5
2C0
331
352
  5
379
331
262
  5
289
331
102F
  5
1260
331
313
  5
33A
331
2D4
  5
2FB
331
385
  5
3AC
331
295
  5
2BC
331
34E
  5
375
331
25E
  5
285
331
102B
  5
125C
331
30F
  5
336
331
21F
  5
24A
331
3C8
  5
433
331
2D0
  5
2F7
331
381
  5
3A8
331
291
  5
2B8
331
34A
  5
371
331
25A
  5
281
331
1027
  5
1258
331
30B
  5
332
331
21B
  5
247
331
1023
  5
1254
331
FF4
  5
1225
331
FB5
  5
11E6
331
F7E
  5
1002
331
A17
  5
FD9
331
FF0
  5
1221
331
FB1
  5
11E2
331
FEC
  5
121D
331
FAD
  5
11DE
331
FE8
  5
1219
331
FA9
  5
1030
331
C72
  5
FFE
331
755
  5
77C
331
71E
  5
748
331
41F
  5
721
331
751
  5
778
331
4BC
  5
746
331
74D
  5
774
331
4B8
  5
742
331
1DD
  5
210
331
18E
  5
1D3
331
749
  5
770
331
18A
  5
1CF
331
1D5
  5
20C
331
186
  5
1CB
331
1D1
  5
208
331
182
  5
1A9
331
1235
  5
F7E
331
B4
  5
179
331
1231
  5
F85
331
B0
  5
14F
331
122D
  5
F8A
331
3BC
  5
430
331
2CC
  5
2F3
331
37D
  5
3A4
331
28D
  5
2B4
331
346
  5
36D
331
256
  5
27D
331
307
  5
32E
331
217
  5
243
331
1229
  5
F8F
331
1260
  5
BA8
331
3B8
  5
42C
331
2C8
  5
2EF
331
379
  5
3A0
331
289
  5
2B0
331
342
  5
369
331
252
  5
279
331
101F
  5
1250
331
303
  5
32A
331
3B4
  5
428
331
2C4
  5
2EB
331
375
  5
39C
331
285
  5
2AC
331
33E
  5
365
331
24E
  5
275
331
101B
  5
124C
331
2FF
  5
326
331
20F
  5
241
331
3B0
  5
424
331
2C0
  5
2E7
331
371
  5
398
331
281
  5
2A8
331
33A
  5
361
331
24A
  5
271
331
1017
  5
1248
331
2FB
  5
322
331
20B
  5
23D
331
1013
  5
1244
331
FE4
  5
1215
331
FA5
  5
102C
331
FE0
  5
1211
331
FA1
  5
1028
331
BAA
  5
FFA
331
843
  5
FD1
331
FDC
  5
120D
331
F9D
  5
1024
331
BA6
  5
FF6
331
83F
  5
FCC
331
FD8
  5
1209
331
F99
  5
1020
331
BA2
  5
FF2
331
83B
  5
FC9
331
784
  5
B9C
331
745
  5
76C
331
3FF
  5
4BD
331
780
  5
A26
331
741
  5
768
331
77C
  5
A22
331
73D
  5
764
331
1CD
  5
204
331
17E
  5
1A5
331
778
  5
A1E
331
739
  5
761
331
17A
  5
1A1
331
AC
  5
143
331
A8
  5
13F
331
125C
  5
FD4
331
1225
  5
F93
331
A4
  5
13B
331
A0
  5
131
331
1221
  5
F97
331
1258
  5
9A
331
121D
  5
F9B
331
1254
  5
A4
331
3AC
  5
420
331
2BC
  5
2E3
331
36D
  5
394
331
27D
  5
2A4
331
336
  5
35D
331
246
  5
26D
331
2F7
  5
31E
331
207
  5
239
331
1219
  5
F9F
331
1250
  5
A6
331
3A8
  5
3F0
331
2B8
  5
2DF
331
369
  5
390
331
279
  5
2A0
331
332
  5
359
331
242
  5
269
331
100F
  5
1240
331
2F3
  5
31A
331
203
  5
235
331
3A4
  5
3EB
331
2B4
  5
2DB
331
365
  5
38C
331
275
  5
29C
331
32E
  5
355
331
23E
  5
265
331
100B
  5
123C
331
2EF
  5
316
331
1FF
  5
231
331
3A0
  5
3E6
331
2B0
  5
2D7
331
361
  5
388
331
271
  5
298
331
32A
  5
351
331
23A
  5
261
331
1007
  5
1238
331
2EB
  5
312
331
1FB
  5
22D
331
1003
  5
1234
331
FD4
  5
1205
331
F95
  5
101C
331
B9E
  5
FEE
331
837
  5
FC5
331
FD0
  5
1201
331
F91
  5
1018
331
833
  5
FC1
331
FCC
  5
11FD
331
F8D
  5
1014
331
82F
  5
FBD
331
FC8
  5
11F9
331
F89
  5
1010
331
774
  5
A1A
331
827
  5
FB6
331
9D
  5
122
331
770
  5
829
331
823
  5
FB2
331
99
  5
112
331
76C
  5
825
331
735
  5
75D
331
436
  5
738
331
768
  5
821
331
731
  5
759
331
432
  5
734
331
1A9
  5
1FE
331
1A5
  5
1FA
331
14E
  5
19B
331
1F0
  5
225
331
1215
  5
FA3
331
1A1
  5
1F6
331
1211
  5
FD6
331
120D
  5
1006
331
124C
  5
AD
331
39C
  5
3E2
331
2AC
  5
2D3
331
326
  5
34D
331
236
  5
25D
331
1248
  5
AF
331
3EF
  5
4BB
331
2E7
  5
30E
331
398
  5
3C8
331
2A8
  5
2CF
331
322
  5
349
331
232
  5
259
331
1209
  5
88
331
3EB
  5
4B8
331
2E3
  5
30A
331
394
  5
3BB
331
2A4
  5
2CB
331
35D
  5
384
331
26D
  5
294
331
31E
  5
345
331
22E
  5
255
331
390
  5
3B7
331
2A0
  5
2C7
331
359
  5
380
331
269
  5
290
331
31A
  5
341
331
22A
  5
251
331
FC4
  5
11F5
331
A26
  5
FE8
331
FFF
  5
1230
331
FC0
  5
11F1
331
A22
  5
FE4
331
FFB
  5
122C
331
FBC
  5
11ED
331
F85
  5
100C
331
A1E
  5
FE0
331
FB8
  5
11E9
331
F81
  5
1008
331
A1A
  5
FDC
  0
XRECORD
  5
1267
102
{ACAD_REACTORS
330
1265
102
}
330
1265
100
AcDbXrecord
280
     1
 70
     2
  0
XRECORD
  5
1266
102
{ACAD_REACTORS
330
1265
102
}
330
1265
100
AcDbXrecord
280
     1
 40
1.25
  0
XRECORD
  5
1268
102
{ACAD_REACTORS
330
1265
102
}
330
1265
100
AcDbXrecord
280
     1
 40
1.570796326794896
  0
LAYOUT
  5
39
102
{ACAD_XDICTIONARY
360
128C
102
}
102
{ACAD_REACTORS
330
2E
102
}
330
2E
100
AcDbPlotSettings
  1

  2
PDF Complete
  4

  6

 40
0.0
 41
0.0
 42
0.0
 43
0.0
 44
0.0
 45
0.0
 46
0.0
 47
0.0
 48
0.0
 49
0.0
140
0.0
141
0.0
142
1.0
143
1.0
 70
  1712
 72
     0
 73
     0
 74
     0
  7

 75
     0
147
1.0
148
0.0
149
0.0
100
AcDbLayout
  1
Model
 70
     1
 71
     0
 10
0.0
 20
0.0
 11
12.0
 21
9.0
 12
0.0
 22
0.0
 32
0.0
 14
0.0
 24
0.0
 34
0.0
 15
0.0
 25
0.0
 35
0.0
146
0.0
 13
0.0
 23
0.0
 33
0.0
 16
1.0
 26
0.0
 36
0.0
 17
0.0
 27
1.0
 37
0.0
 76
     0
330
36
331
56
  0
LAYOUT
  5
35
102
{ACAD_XDICTIONARY
360
128A
102
}
102
{ACAD_REACTORS
330
2E
102
}
330
2E
100
AcDbPlotSettings
  1

  2
PDF Complete
  4

  6

 40
0.0
 41
0.0
 42
0.0
 43
0.0
 44
0.0
 45
0.0
 46
0.0
 47
0.0
 48
0.0
 49
0.0
140
0.0
141
0.0
142
1.0
143
1.0
 70
   688
 72
     0
 73
     0
 74
     5
  7

 75
    16
147
1.0
148
0.0
149
0.0
100
AcDbLayout
  1
レイアウト1
 70
     1
 71
     1
 10
0.0
 20
0.0
 11
12.0
 21
9.0
 12
0.0
 22
0.0
 32
0.0
 14
1.000000000000000E+20
 24
1.000000000000000E+20
 34
1.000000000000000E+20
 15
-1.000000000000000E+20
 25
-1.000000000000000E+20
 35
-1.000000000000000E+20
146
0.0
 13
0.0
 23
0.0
 33
0.0
 16
1.0
 26
0.0
 36
0.0
 17
0.0
 27
1.0
 37
0.0
 76
     0
330
32
  0
MATERIAL
  5
12
102
{ACAD_XDICTIONARY
360
4D2
102
}
102
{ACAD_REACTORS
330
10
102
}
330
10
100
AcDbMaterial
  1
ByBlock
  0
MATERIAL
  5
11
102
{ACAD_XDICTIONARY
360
4D0
102
}
102
{ACAD_REACTORS
330
10
102
}
330
10
100
AcDbMaterial
  1
ByLayer
  0
MATERIAL
  5
13
102
{ACAD_XDICTIONARY
360
4D4
102
}
102
{ACAD_REACTORS
330
10
102
}
330
10
100
AcDbMaterial
  1
Global
  0
MLEADERSTYLE
  5
4FD
102
{ACAD_REACTORS
330
4FC
102
}
330
4FC
100
AcDbMLeaderStyle
170
     2
171
     1
172
     0
 90
        2
 40
0.0
 41
0.0
173
     1
 91
-1056964608
340
28
 92
       -2
290
     1
 42
0.09
291
     1
 43
0.36
  3
Standard
 44
0.18
300

342
26
174
     1
178
     6
175
     1
176
     0
 93
-1056964608
 45
0.18
292
     0
297
     0
 46
0.18
 94
-1056964608
 47
1.0
 49
1.0
140
1.0
293
     1
141
0.0
294
     1
177
     0
142
1.0
295
     0
296
     0
143
0.125
1001
ACAD_MLEADERVER
1070
     2
  0
MLINESTYLE
  5
2C
102
{ACAD_REACTORS
330
2B
102
}
330
2B
100
AcDbMlineStyle
  2
STANDARD
 70
     0
  3

 62
   256
 51
90.0
 52
90.0
 71
     2
 49
0.5
 62
   256
  6
BYLAYER
 49
-0.5
 62
   256
  6
BYLAYER
  0
ACDBPLACEHOLDER
  5
F
102
{ACAD_REACTORS
330
E
102
}
330
E
  0
SCALE
  5
4EB
102
{ACAD_REACTORS
330
4EA
102
}
330
4EA
100
AcDbScale
 70
     0
300
1:1
140
1.0
141
1.0
290
     1
  0
SCALE
  5
4EC
102
{ACAD_REACTORS
330
4EA
102
}
330
4EA
100
AcDbScale
 70
     0
300
1/128" = 1'-0"
140
0.0078125
141
12.0
290
     0
  0
SCALE
  5
4ED
102
{ACAD_REACTORS
330
4EA
102
}
330
4EA
100
AcDbScale
 70
     0
300
1/64" = 1'-0"
140
0.015625
141
12.0
290
     0
  0
SCALE
  5
4EE
102
{ACAD_REACTORS
330
4EA
102
}
330
4EA
100
AcDbScale
 70
     0
300
1/32" = 1'-0"
140
0.03125
141
12.0
290
     0
  0
SCALE
  5
4EF
102
{ACAD_REACTORS
330
4EA
102
}
330
4EA
100
AcDbScale
 70
     0
300
1/16" = 1'-0"
140
0.0625
141
12.0
290
     0
  0
SCALE
  5
4F0
102
{ACAD_REACTORS
330
4EA
102
}
330
4EA
100
AcDbScale
 70
     0
300
3/32" = 1'-0"
140
0.09375
141
12.0
290
     0
  0
SCALE
  5
4F1
102
{ACAD_REACTORS
330
4EA
102
}
330
4EA
100
AcDbScale
 70
     0
300
1/8" = 1'-0"
140
0.125
141
12.0
290
     0
  0
SCALE
  5
4F2
102
{ACAD_REACTORS
330
4EA
102
}
330
4EA
100
AcDbScale
 70
     0
300
3/16" = 1'-0"
140
0.1875
141
12.0
290
     0
  0
SCALE
  5
4F3
102
{ACAD_REACTORS
330
4EA
102
}
330
4EA
100
AcDbScale
 70
     0
300
1/4" = 1'-0"
140
0.25
141
12.0
290
     0
  0
SCALE
  5
4F4
102
{ACAD_REACTORS
330
4EA
102
}
330
4EA
100
AcDbScale
 70
     0
300
3/8" = 1'-0"
140
0.375
141
12.0
290
     0
  0
SCALE
  5
4F5
102
{ACAD_REACTORS
330
4EA
102
}
330
4EA
100
AcDbScale
 70
     0
300
1/2" = 1'-0"
140
0.5
141
12.0
290
     0
  0
SCALE
  5
4F6
102
{ACAD_REACTORS
330
4EA
102
}
330
4EA
100
AcDbScale
 70
     0
300
3/4" = 1'-0"
140
0.75
141
12.0
290
     0
  0
SCALE
  5
4F7
102
{ACAD_REACTORS
330
4EA
102
}
330
4EA
100
AcDbScale
 70
     0
300
1" = 1'-0"
140
1.0
141
12.0
290
     0
  0
SCALE
  5
4F8
102
{ACAD_REACTORS
330
4EA
102
}
330
4EA
100
AcDbScale
 70
     0
300
1-1/2" = 1'-0"
140
1.5
141
12.0
290
     0
  0
SCALE
  5
4F9
102
{ACAD_REACTORS
330
4EA
102
}
330
4EA
100
AcDbScale
 70
     0
300
3" = 1'-0"
140
3.0
141
12.0
290
     0
  0
SCALE
  5
4FA
102
{ACAD_REACTORS
330
4EA
102
}
330
4EA
100
AcDbScale
 70
     0
300
6" = 1'-0"
140
6.0
141
12.0
290
     0
  0
SCALE
  5
4FB
102
{ACAD_REACTORS
330
4EA
102
}
330
4EA
100
AcDbScale
 70
     0
300
1'-0" = 1'-0"
140
12.0
141
12.0
290
     0
  0
TABLESTYLE
  5
31
102
{ACAD_XDICTIONARY
360
794
102
}
102
{ACAD_REACTORS
330
30
102
}
330
30
100
AcDbTableStyle
  3
Standard
 70
     0
 71
     0
 40
0.06
 41
0.06
280
     0
281
     0
  7
STANDARD
140
0.18
170
     2
 62
     0
 63
     7
283
     0
274
    -2
284
     1
 64
     0
275
    -2
285
     1
 65
     0
276
    -2
286
     1
 66
     0
277
    -2
287
     1
 67
     0
278
    -2
288
     1
 68
     0
279
    -2
289
     1
 69
     0
  7
STANDARD
140
0.25
170
     5
 62
     0
 63
     7
283
     0
274
    -2
284
     1
 64
     0
275
    -2
285
     1
 65
     0
276
    -2
286
     1
 66
     0
277
    -2
287
     1
 67
     0
278
    -2
288
     1
 68
     0
279
    -2
289
     1
 69
     0
  7
STANDARD
140
0.18
170
     5
 62
     0
 63
     7
283
     0
274
    -2
284
     1
 64
     0
275
    -2
285
     1
 65
     0
276
    -2
286
     1
 66
     0
277
    -2
287
     1
 67
     0
278
    -2
288
     1
 68
     0
279
    -2
289
     1
 69
     0
  0
VISUALSTYLE
  5
1A
102
{ACAD_XDICTIONARY
360
1273
102
}
102
{ACAD_REACTORS
330
14
102
}
330
14
100
AcDbVisualStyle
  2

 70
     4
 71
     0
 72
     2
 73
     0
 90
        0
 40
-0.6
 41
-30.0
 62
     5
 63
     7
 74
     1
 91
        4
 64
     7
 65
   257
 75
     1
175
     1
 42
1.0
 92
        0
 66
   257
 43
1.0
 76
     1
 77
     6
 78
     2
 67
     7
 79
     5
170
     0
171
     0
290
     0
174
     0
 93
        1
 44
0.0
173
     0
291
     0
 45
0.0
1001
ACAD
1000
AcDbSavedByObjectVersion
1070
     0
  0
VISUALSTYLE
  5
1C
102
{ACAD_XDICTIONARY
360
1277
102
}
102
{ACAD_REACTORS
330
14
102
}
330
14
100
AcDbVisualStyle
  2

 70
     6
 71
     1
 72
     2
 73
     2
 90
        0
 40
-0.6
 41
-30.0
 62
     5
 63
     7
 74
     2
 91
        2
 64
     7
 65
   257
 75
     2
175
     1
 42
40.0
 92
        0
 66
   257
 43
1.0
 76
     1
 77
     6
 78
     2
 67
     7
 79
     3
170
     0
171
     0
290
     0
174
     0
 93
        1
 44
0.0
173
     0
291
     0
 45
0.0
1001
ACAD
1000
AcDbSavedByObjectVersion
1070
     0
  0
VISUALSTYLE
  5
1B
102
{ACAD_XDICTIONARY
360
1275
102
}
102
{ACAD_REACTORS
330
14
102
}
330
14
100
AcDbVisualStyle
  2

 70
     5
 71
     0
 72
     2
 73
     0
 90
        0
 40
-0.6
 41
-30.0
 62
     5
 63
     7
 74
     1
 91
        4
 64
     7
 65
   257
 75
     1
175
     1
 42
1.0
 92
        0
 66
   257
 43
1.0
 76
     1
 77
     6
 78
     2
 67
     7
 79
     5
170
     0
171
     0
290
     0
174
     0
 93
        1
 44
0.0
173
     0
291
     0
 45
0.0
1001
ACAD
1000
AcDbSavedByObjectVersion
1070
     0
  0
VISUALSTYLE
  5
19
102
{ACAD_XDICTIONARY
360
1271
102
}
102
{ACAD_REACTORS
330
14
102
}
330
14
100
AcDbVisualStyle
  2

 70
     7
 71
     1
 72
     0
 73
     1
 90
        0
 40
-0.6
 41
-30.0
 62
     5
 63
     7
 74
     0
 91
        4
 64
     7
 65
   257
 75
     1
175
     1
 42
1.0
 92
        8
 66
     7
 43
1.0
 76
     1
 77
     6
 78
     2
 67
     7
 79
     5
170
     0
171
     0
290
     0
174
     0
 93
        1
 44
0.0
173
     0
291
     1
 45
0.0
1001
ACAD
1000
AcDbSavedByObjectVersion
1070
     0
  0
VISUALSTYLE
  5
20
102
{ACAD_XDICTIONARY
360
127F
102
}
102
{ACAD_REACTORS
330
14
102
}
330
14
100
AcDbVisualStyle
  2

 70
    12
 71
     2
 72
     2
 73
     0
 90
        0
 40
-0.6
 41
-30.0
 62
     5
 63
     7
 74
     1
 91
        4
 64
     7
 65
   257
 75
     1
175
     1
 42
1.0
 92
        8
 66
     7
 43
1.0
 76
     1
 77
     6
 78
     2
 67
     7
 79
     5
170
     0
171
     0
290
     0
174
     0
 93
        1
 44
50.0
173
     0
291
     1
 45
0.0
1001
ACAD
1000
AcDbSavedByObjectVersion
1070
     0
  0
VISUALSTYLE
  5
24
102
{ACAD_XDICTIONARY
360
1287
102
}
102
{ACAD_REACTORS
330
14
102
}
330
14
100
AcDbVisualStyle
  2

 70
    16
 71
     2
 72
     2
 73
     3
 90
        0
 40
-0.6
 41
-30.0
 62
     5
 63
     8
 74
     1
 91
        4
 64
     7
 65
   257
 75
     1
175
     1
 42
1.0
 92
        8
 66
     8
 43
1.0
 76
     1
 77
     6
 78
     2
 67
     7
 79
     5
170
     0
171
     0
290
     0
174
     0
 93
        1
 44
0.0
173
     0
291
     1
 45
0.0
1001
ACAD
1000
AcDbSavedByObjectVersion
1070
     0
  0
VISUALSTYLE
  5
1D
102
{ACAD_XDICTIONARY
360
1279
102
}
102
{ACAD_REACTORS
330
14
102
}
330
14
100
AcDbVisualStyle
  2

 70
     9
 71
     3
 72
     2
 73
     0
 90
        0
 40
-0.6
 41
-30.0
 62
     5
 63
     7
 74
     2
 91
        2
 64
     7
 65
   257
 75
     1
175
     1
 42
40.0
 92
        8
 66
     7
 43
1.0
 76
     1
 77
     6
 78
     2
 67
     7
 79
     3
170
     0
171
     0
290
     0
174
     0
 93
        1
 44
0.0
173
     0
291
     0
 45
0.0
1001
ACAD
1000
AcDbSavedByObjectVersion
1070
     0
  0
VISUALSTYLE
  5
1F
102
{ACAD_XDICTIONARY
360
127D
102
}
102
{ACAD_REACTORS
330
14
102
}
330
14
100
AcDbVisualStyle
  2

 70
    11
 71
     2
 72
     2
 73
     0
 90
        0
 40
-0.6
 41
-30.0
 62
     5
 63
     7
 74
     1
 91
        4
 64
     7
 65
   257
 75
     1
175
     1
 42
1.0
 92
        8
 66
     7
 43
1.0
 76
     1
 77
     6
 78
     2
 67
     7
 79
     5
170
     0
171
     0
290
     0
174
     0
 93
        1
 44
-50.0
173
     0
291
     1
 45
0.0
1001
ACAD
1000
AcDbSavedByObjectVersion
1070
     0
  0
VISUALSTYLE
  5
4E9
102
{ACAD_XDICTIONARY
360
12A0
102
}
102
{ACAD_REACTORS
330
14
102
}
330
14
100
AcDbVisualStyle
  2

 70
    22
 71
     2
 72
     2
 73
     0
 90
        0
 40
-0.6
 41
-30.0
 62
     5
 63
     7
 74
     1
 91
        4
 64
     7
 65
   257
 75
     1
175
     1
 42
1.0
 92
        8
 66
     7
 43
1.0
 76
     1
 77
     6
 78
     2
 67
     7
 79
     5
170
     0
171
     0
290
     0
174
     0
 93
        1
 44
0.0
173
     0
291
     1
 45
0.0
1001
ACAD
1000
AcDbSavedByObjectVersion
1070
     0
  0
VISUALSTYLE
  5
23
102
{ACAD_XDICTIONARY
360
1285
102
}
102
{ACAD_REACTORS
330
14
102
}
330
14
100
AcDbVisualStyle
  2

 70
    15
 71
     2
 72
     2
 73
     0
 90
        0
 40
-0.6
 41
-30.0
 62
     5
 63
     7
 74
     1
 91
        4
 64
     7
 65
   257
 75
     1
175
     1
 42
1.0
 92
        8
 66
     7
 43
1.0
 76
     1
 77
     6
 78
     2
 67
     7
 79
     5
170
     0
171
     0
290
     0
174
     0
 93
        1
 44
0.0
173
     0
291
     1
 45
0.0
1001
ACAD
1000
AcDbSavedByObjectVersion
1070
     0
  0
VISUALSTYLE
  5
15
102
{ACAD_XDICTIONARY
360
1269
102
}
102
{ACAD_REACTORS
330
14
102
}
330
14
100
AcDbVisualStyle
  2

 70
     0
 71
     2
 72
     1
 73
     1
 90
        2
 40
-0.6
 41
30.0
 62
     5
 63
     7
 74
     0
 91
        4
 64
     7
 65
   257
 75
     1
175
     1
 42
1.0
 92
        8
 66
     7
 43
1.0
 76
     1
 77
     6
 78
     2
 67
     7
 79
     5
170
     0
171
     0
290
     0
174
     0
 93
       13
 44
0.0
173
     0
291
     1
 45
0.0
1001
ACAD
1000
AcDbSavedByObjectVersion
1070
     0
  0
VISUALSTYLE
  5
16
102
{ACAD_XDICTIONARY
360
126B
102
}
102
{ACAD_REACTORS
330
14
102
}
330
14
100
AcDbVisualStyle
  2

 70
     1
 71
     2
 72
     1
 73
     1
 90
        2
 40
-0.6
 41
30.0
 62
     5
 63
     7
 74
     1
 91
        4
 64
     7
 65
   257
 75
     1
175
     1
 42
1.0
 92
        0
 66
   257
 43
1.0
 76
     1
 77
     6
 78
     2
 67
     7
 79
     5
170
     0
171
     0
290
     0
174
     0
 93
       13
 44
0.0
173
     0
291
     1
 45
0.0
1001
ACAD
1000
AcDbSavedByObjectVersion
1070
     0
  0
VISUALSTYLE
  5
17
102
{ACAD_XDICTIONARY
360
126D
102
}
102
{ACAD_REACTORS
330
14
102
}
330
14
100
AcDbVisualStyle
  2

 70
     2
 71
     2
 72
     2
 73
     1
 90
        2
 40
-0.6
 41
30.0
 62
     5
 63
     7
 74
     0
 91
        4
 64
     7
 65
   257
 75
     1
175
     1
 42
1.0
 92
        0
 66
     7
 43
1.0
 76
     1
 77
     6
 78
     2
 67
     7
 79
     5
170
     0
171
     0
290
     0
174
     0
 93
       13
 44
0.0
173
     0
291
     1
 45
0.0
1001
ACAD
1000
AcDbSavedByObjectVersion
1070
     0
  0
VISUALSTYLE
  5
18
102
{ACAD_XDICTIONARY
360
126F
102
}
102
{ACAD_REACTORS
330
14
102
}
330
14
100
AcDbVisualStyle
  2

 70
     3
 71
     2
 72
     2
 73
     1
 90
        2
 40
-0.6
 41
30.0
 62
     5
 63
     7
 74
     1
 91
        4
 64
     7
 65
   257
 75
     1
175
     1
 42
1.0
 92
        0
 66
   257
 43
1.0
 76
     1
 77
     6
 78
     2
 67
     7
 79
     5
170
     0
171
     0
290
     0
174
     0
 93
       13
 44
0.0
173
     0
291
     1
 45
0.0
1001
ACAD
1000
AcDbSavedByObjectVersion
1070
     0
  0
VISUALSTYLE
  5
4E1
102
{ACAD_XDICTIONARY
360
1290
102
}
102
{ACAD_REACTORS
330
14
102
}
330
14
100
AcDbVisualStyle
  2

 70
     6
 71
     1
 72
     2
 73
     2
 90
        0
 40
-0.6
 41
-30.0
 62
     5
 63
     7
 74
     2
 91
        2
 64
     7
 65
   257
 75
     2
175
     1
 42
40.0
 92
        0
 66
   257
 43
1.0
 76
     1
 77
     6
 78
     2
 67
     7
 79
     3
170
     0
171
     0
290
     0
174
     0
 93
        1
 44
0.0
173
     0
291
     0
 45
0.0
1001
ACAD
1000
AcDbSavedByObjectVersion
1070
     0
  0
VISUALSTYLE
  5
4E7
102
{ACAD_XDICTIONARY
360
129C
102
}
102
{ACAD_REACTORS
330
14
102
}
330
14
100
AcDbVisualStyle
  2

 70
    20
 71
     2
 72
     2
 73
     0
 90
        0
 40
-0.6
 41
-30.0
 62
     5
 63
     7
 74
     1
 91
        4
 64
     7
 65
   257
 75
     1
175
     1
 42
1.0
 92
       10
 66
     7
 43
1.0
 76
     1
 77
     6
 78
     2
 67
     7
 79
     5
170
     0
171
     0
290
     0
174
     0
 93
        1
 44
0.0
173
     0
291
     1
 45
0.0
1001
ACAD
1000
AcDbSavedByObjectVersion
1070
     0
  0
VISUALSTYLE
  5
22
102
{ACAD_XDICTIONARY
360
1283
102
}
102
{ACAD_REACTORS
330
14
102
}
330
14
100
AcDbVisualStyle
  2

 70
    14
 71
     2
 72
     2
 73
     0
 90
        0
 40
-0.6
 41
-30.0
 62
     5
 63
     7
 74
     1
 91
        4
 64
     7
 65
   257
 75
     7
175
     7
 42
1.0
 92
        8
 66
     7
 43
1.0
 76
     1
 77
     6
 78
     2
 67
     7
 79
     5
170
     0
171
     0
290
     0
174
     0
 93
        1
 44
0.0
173
     0
291
     1
 45
0.0
1001
ACAD
1000
AcDbSavedByObjectVersion
1070
     0
  0
VISUALSTYLE
  5
4E8
102
{ACAD_XDICTIONARY
360
129E
102
}
102
{ACAD_REACTORS
330
14
102
}
330
14
100
AcDbVisualStyle
  2

 70
    21
 71
     2
 72
     2
 73
     0
 90
        0
 40
-0.6
 41
-30.0
 62
     5
 63
     7
 74
     1
 91
        4
 64
     7
 65
   257
 75
     1
175
     1
 42
1.0
 92
        9
 66
     7
 43
1.0
 76
     1
 77
     6
 78
     2
 67
     7
 79
     5
170
     0
171
     0
290
     0
174
     0
 93
        1
 44
0.0
173
     0
291
     1
 45
0.0
1001
ACAD
1000
AcDbSavedByObjectVersion
1070
     0
  0
VISUALSTYLE
  5
1E
102
{ACAD_XDICTIONARY
360
127B
102
}
102
{ACAD_REACTORS
330
14
102
}
330
14
100
AcDbVisualStyle
  2

 70
     8
 71
     2
 72
     2
 73
     0
 90
        0
 40
-0.6
 41
-30.0
 62
     5
 63
     7
 74
     1
 91
        0
 64
     7
 65
   257
 75
     1
175
     1
 42
1.0
 92
        8
 66
     8
 43
1.0
 76
     1
 77
     6
 78
     2
 67
     7
 79
     5
170
     0
171
     0
290
     0
174
     0
 93
       13
 44
0.0
173
     0
291
     0
 45
0.0
1001
ACAD
1000
AcDbSavedByObjectVersion
1070
     0
  0
VISUALSTYLE
  5
4E6
102
{ACAD_XDICTIONARY
360
129A
102
}
102
{ACAD_REACTORS
330
14
102
}
330
14
100
AcDbVisualStyle
  2

 70
    27
 71
     2
 72
     2
 73
     1
 90
        2
 40
-0.6
 41
30.0
 62
     5
 63
     7
 74
     0
 91
        4
 64
     7
 65
   257
 75
     1
175
     1
 42
1.0
 92
        8
 66
   257
 43
1.0
 76
     1
 77
     6
 78
     2
 67
     8
 79
     3
170
     0
171
     0
290
     0
174
     0
 93
        5
 44
0.0
173
     0
291
     0
 45
0.0
1001
ACAD
1000
AcDbSavedByObjectVersion
1070
     0
  0
VISUALSTYLE
  5
4E5
102
{ACAD_XDICTIONARY
360
1298
102
}
102
{ACAD_REACTORS
330
14
102
}
330
14
100
AcDbVisualStyle
  2

 70
    26
 71
     2
 72
     2
 73
     1
 90
        2
 40
-0.6
 41
30.0
 62
     5
 63
     7
 74
     1
 91
       10
 64
     7
 65
   257
 75
     2
175
     1
 42
1.0
 92
        8
 66
   257
 43
1.0
 76
     1
 77
     6
 78
     2
 67
     7
 79
     3
170
     0
171
     0
290
     0
174
     0
 93
        5
 44
0.0
173
     0
291
     0
 45
0.0
1001
ACAD
1000
AcDbSavedByObjectVersion
1070
     0
  0
VISUALSTYLE
  5
4E2
102
{ACAD_XDICTIONARY
360
1292
102
}
102
{ACAD_REACTORS
330
14
102
}
330
14
100
AcDbVisualStyle
  2

 70
    23
 71
     2
 72
     2
 73
     3
 90
        0
 40
-0.6
 41
-30.0
 62
     5
 63
     7
 74
     2
 91
        2
 64
     7
 65
     7
 75
     1
175
     1
 42
40.0
 92
        8
 66
     7
 43
1.0
 76
     1
 77
     6
 78
     2
 67
     7
 79
     3
170
     0
171
     0
290
     0
174
     0
 93
        1
 44
0.0
173
     0
291
     0
 45
0.0
1001
ACAD
1000
AcDbSavedByObjectVersion
1070
     0
  0
VISUALSTYLE
  5
4E3
102
{ACAD_XDICTIONARY
360
1294
102
}
102
{ACAD_REACTORS
330
14
102
}
330
14
100
AcDbVisualStyle
  2

 70
    24
 71
     1
 72
     2
 73
     2
 90
        0
 40
-0.6
 41
-30.0
 62
     5
 63
     7
 74
     2
 91
        2
 64
     7
 65
     7
 75
     1
175
     1
 42
40.0
 92
       11
 66
     7
 43
1.0
 76
     1
 77
     6
 78
     2
 67
     7
 79
     6
170
     0
171
     0
290
     0
174
     0
 93
        1
 44
0.0
173
     0
291
     0
 45
0.0
1001
ACAD
1000
AcDbSavedByObjectVersion
1070
     0
  0
VISUALSTYLE
  5
21
102
{ACAD_XDICTIONARY
360
1281
102
}
102
{ACAD_REACTORS
330
14
102
}
330
14
100
AcDbVisualStyle
  2

 70
    13
 71
     2
 72
     2
 73
     0
 90
        0
 40
-0.6
 41
-30.0
 62
     5
 63
     7
 74
     1
 91
        4
 64
     7
 65
   257
 75
     1
175
     1
 42
1.0
 92
       12
 66
     7
 43
1.0
 76
     1
 77
     6
 78
     2
 67
     7
 79
     5
170
     0
171
     0
290
     0
174
     0
 93
        1
 44
0.0
173
     0
291
     1
 45
0.0
1001
ACAD
1000
AcDbSavedByObjectVersion
1070
     0
  0
VISUALSTYLE
  5
4E0
102
{ACAD_XDICTIONARY
360
128E
102
}
102
{ACAD_REACTORS
330
14
102
}
330
14
100
AcDbVisualStyle
  2

 70
     5
 71
     0
 72
     2
 73
     0
 90
        0
 40
-0.6
 41
-30.0
 62
     5
 63
     7
 74
     1
 91
        4
 64
     7
 65
   257
 75
     1
175
     1
 42
1.0
 92
        0
 66
   257
 43
1.0
 76
     1
 77
     6
 78
     2
 67
     7
 79
     3
170
     0
171
     0
290
     0
174
     0
 93
        1
 44
0.0
173
     0
291
     0
 45
0.0
1001
ACAD
1000
AcDbSavedByObjectVersion
1070
     0
  0
VISUALSTYLE
  5
4E4
102
{ACAD_XDICTIONARY
360
1296
102
}
102
{ACAD_REACTORS
330
14
102
}
330
14
100
AcDbVisualStyle
  2

 70
    25
 71
     2
 72
     2
 73
     1
 90
        1
 40
0.5
 41
-30.0
 62
     5
 63
     7
 74
     1
 91
        0
 64
     7
 65
   257
 75
     1
175
     1
 42
1.0
 92
        8
 66
     7
 43
1.0
 76
     1
 77
     6
 78
     2
 67
     7
 79
     3
170
     0
171
     0
290
     0
174
     0
 93
       13
 44
0.0
173
     0
291
     0
 45
0.0
1001
ACAD
1000
AcDbSavedByObjectVersion
1070
     0
  0
DICTIONARYVAR
  5
792
102
{ACAD_REACTORS
330
4CA
102
}
330
4CA
100
DictionaryVariables
280
     0
  1
1:1
  0
DICTIONARYVAR
  5
791
102
{ACAD_REACTORS
330
4CA
102
}
330
4CA
100
DictionaryVariables
280
     0
  1
STANDARD
  0
DICTIONARYVAR
  5
4CB
102
{ACAD_REACTORS
330
4CA
102
}
330
4CA
100
DictionaryVariables
280
     0
  1
STANDARD
  0
DICTIONARYVAR
  5
4CE
102
{ACAD_REACTORS
330
4CA
102
}
330
4CA
100
DictionaryVariables
280
     0
  1
1
  0
DICTIONARYVAR
  5
4CD
102
{ACAD_REACTORS
330
4CA
102
}
330
4CA
100
DictionaryVariables
280
     0
  1
0
  0
DICTIONARYVAR
  5
4CC
102
{ACAD_REACTORS
330
4CA
102
}
330
4CA
100
DictionaryVariables
280
     0
  1
127
  0
DICTIONARYVAR
  5
1158
102
{ACAD_REACTORS
330
4CA
102
}
330
4CA
100
DictionaryVariables
280
     0
  1
2
  0
DICTIONARY
  5
128C
330
39
100
AcDbDictionary
280
     1
281
     1
  3
ACAD_XREC_ROUNDTRIP
360
128D
  0
DICTIONARY
  5
128A
330
35
100
AcDbDictionary
280
     1
281
     1
  3
ACAD_XREC_ROUNDTRIP
360
128B
  0
DICTIONARY
  5
4D2
330
12
100
AcDbDictionary
280
     1
281
     1
  3
ACAD_XREC_ROUNDTRIP
360
4D3
  0
DICTIONARY
  5
4D0
330
11
100
AcDbDictionary
280
     1
281
     1
  3
ACAD_XREC_ROUNDTRIP
360
4D1
  0
DICTIONARY
  5
4D4
330
13
100
AcDbDictionary
280
     1
281
     1
  3
ACAD_XREC_ROUNDTRIP
360
4D5
  0
DICTIONARY
  5
794
330
31
100
AcDbDictionary
280
     1
281
     1
  3
ACAD_ROUNDTRIP_2008_TABLESTYLE_CELLSTYLEMAP
360
1262
  3
ACAD_XREC_ROUNDTRIP
360
1289
  0
DICTIONARY
  5
1273
330
1A
100
AcDbDictionary
280
     1
281
     1
  3
ACAD_XREC_ROUNDTRIP
360
1274
  0
DICTIONARY
  5
1277
330
1C
100
AcDbDictionary
280
     1
281
     1
  3
ACAD_XREC_ROUNDTRIP
360
1278
  0
DICTIONARY
  5
1275
330
1B
100
AcDbDictionary
280
     1
281
     1
  3
ACAD_XREC_ROUNDTRIP
360
1276
  0
DICTIONARY
  5
1271
330
19
100
AcDbDictionary
280
     1
281
     1
  3
ACAD_XREC_ROUNDTRIP
360
1272
  0
DICTIONARY
  5
127F
330
20
100
AcDbDictionary
280
     1
281
     1
  3
ACAD_XREC_ROUNDTRIP
360
1280
  0
DICTIONARY
  5
1287
330
24
100
AcDbDictionary
280
     1
281
     1
  3
ACAD_XREC_ROUNDTRIP
360
1288
  0
DICTIONARY
  5
1279
330
1D
100
AcDbDictionary
280
     1
281
     1
  3
ACAD_XREC_ROUNDTRIP
360
127A
  0
DICTIONARY
  5
127D
330
1F
100
AcDbDictionary
280
     1
281
     1
  3
ACAD_XREC_ROUNDTRIP
360
127E
  0
DICTIONARY
  5
12A0
330
4E9
100
AcDbDictionary
280
     1
281
     1
  3
ACAD_XREC_ROUNDTRIP
360
12A1
  0
DICTIONARY
  5
1285
330
23
100
AcDbDictionary
280
     1
281
     1
  3
ACAD_XREC_ROUNDTRIP
360
1286
  0
DICTIONARY
  5
1269
330
15
100
AcDbDictionary
280
     1
281
     1
  3
ACAD_XREC_ROUNDTRIP
360
126A
  0
DICTIONARY
  5
126B
330
16
100
AcDbDictionary
280
     1
281
     1
  3
ACAD_XREC_ROUNDTRIP
360
126C
  0
DICTIONARY
  5
126D
330
17
100
AcDbDictionary
280
     1
281
     1
  3
ACAD_XREC_ROUNDTRIP
360
126E
  0
DICTIONARY
  5
126F
330
18
100
AcDbDictionary
280
     1
281
     1
  3
ACAD_XREC_ROUNDTRIP
360
1270
  0
DICTIONARY
  5
1290
330
4E1
100
AcDbDictionary
280
     1
281
     1
  3
ACAD_XREC_ROUNDTRIP
360
1291
  0
DICTIONARY
  5
129C
330
4E7
100
AcDbDictionary
280
     1
281
     1
  3
ACAD_XREC_ROUNDTRIP
360
129D
  0
DICTIONARY
  5
1283
330
22
100
AcDbDictionary
280
     1
281
     1
  3
ACAD_XREC_ROUNDTRIP
360
1284
  0
DICTIONARY
  5
129E
330
4E8
100
AcDbDictionary
280
     1
281
     1
  3
ACAD_XREC_ROUNDTRIP
360
129F
  0
DICTIONARY
  5
127B
330
1E
100
AcDbDictionary
280
     1
281
     1
  3
ACAD_XREC_ROUNDTRIP
360
127C
  0
DICTIONARY
  5
129A
330
4E6
100
AcDbDictionary
280
     1
281
     1
  3
ACAD_XREC_ROUNDTRIP
360
129B
  0
DICTIONARY
  5
1298
330
4E5
100
AcDbDictionary
280
     1
281
     1
  3
ACAD_XREC_ROUNDTRIP
360
1299
  0
DICTIONARY
  5
1292
330
4E2
100
AcDbDictionary
280
     1
281
     1
  3
ACAD_XREC_ROUNDTRIP
360
1293
  0
DICTIONARY
  5
1294
330
4E3
100
AcDbDictionary
280
     1
281
     1
  3
ACAD_XREC_ROUNDTRIP
360
1295
  0
DICTIONARY
  5
1281
330
21
100
AcDbDictionary
280
     1
281
     1
  3
ACAD_XREC_ROUNDTRIP
360
1282
  0
DICTIONARY
  5
128E
330
4E0
100
AcDbDictionary
280
     1
281
     1
  3
ACAD_XREC_ROUNDTRIP
360
128F
  0
DICTIONARY
  5
1296
330
4E4
100
AcDbDictionary
280
     1
281
     1
  3
ACAD_XREC_ROUNDTRIP
360
1297
  0
XRECORD
  5
128D
102
{ACAD_REACTORS
330
128C
102
}
330
128C
100
AcDbXrecord
280
     1
102
SHADEPLOT
 70
     0
102
SHADEPLOTRESLEVEL
 70
     2
102
SHADEPLOTCUSTOMDPI
 70
   300
  0
XRECORD
  5
128B
102
{ACAD_REACTORS
330
128A
102
}
330
128A
100
AcDbXrecord
280
     1
102
SHADEPLOT
 70
     0
102
SHADEPLOTRESLEVEL
 70
     2
102
SHADEPLOTCUSTOMDPI
 70
   300
  0
XRECORD
  5
4D3
102
{ACAD_REACTORS
330
4D2
102
}
330
4D2
100
AcDbXrecord
280
     1
102
MATERIAL
148
0.0
149
0.0
149
0.0
 93
        0
 94
      127
282
     0
 72
     1
 77
     1
171
     1
175
     1
179
     1
273
     0
  0
XRECORD
  5
4D1
102
{ACAD_REACTORS
330
4D0
102
}
330
4D0
100
AcDbXrecord
280
     1
102
MATERIAL
148
0.0
149
0.0
149
0.0
 93
        0
 94
      127
282
     0
 72
     1
 77
     1
171
     1
175
     1
179
     1
273
     0
  0
XRECORD
  5
4D5
102
{ACAD_REACTORS
330
4D4
102
}
330
4D4
100
AcDbXrecord
280
     1
102
MATERIAL
148
0.0
149
0.0
149
0.0
 93
        0
 94
      127
282
     0
 72
     1
 77
     1
171
     1
175
     1
179
     1
273
     0
  0
CELLSTYLEMAP
  5
1262
102
{ACAD_REACTORS
330
794
102
}
330
794
100
AcDbCellStyleMap
 90
        3
300
CELLSTYLE
  1
TABLEFORMAT_BEGIN
 90
        5
170
     1
 91
        0
 92
    32768
 62
   257
 93
        1
300
CONTENTFORMAT
  1
CONTENTFORMAT_BEGIN
 90
        0
 91
        0
 92
      512
 93
        0
300

 40
0.0
140
1.0
 94
        5
 62
     0
340
26
144
0.25
309
CONTENTFORMAT_END
171
     1
301
MARGIN
  1
CELLMARGIN_BEGIN
 40
0.06
 40
0.06
 40
0.06
 40
0.06
 40
0.18
 40
0.18
309
CELLMARGIN_END
 94
        6
 95
        1
302
GRIDFORMAT
  1
GRIDFORMAT_BEGIN
 90
        0
 91
        1
 62
     0
 92
       -2
340
0
 93
        0
 40
0.045
309
GRIDFORMAT_END
 95
        2
302
GRIDFORMAT
  1
GRIDFORMAT_BEGIN
 90
        0
 91
        1
 62
     0
 92
       -2
340
0
 93
        0
 40
0.045
309
GRIDFORMAT_END
 95
        4
302
GRIDFORMAT
  1
GRIDFORMAT_BEGIN
 90
        0
 91
        1
 62
     0
 92
       -2
340
0
 93
        0
 40
0.045
309
GRIDFORMAT_END
 95
        8
302
GRIDFORMAT
  1
GRIDFORMAT_BEGIN
 90
        0
 91
        1
 62
     0
 92
       -2
340
0
 93
        0
 40
0.045
309
GRIDFORMAT_END
 95
       16
302
GRIDFORMAT
  1
GRIDFORMAT_BEGIN
 90
        0
 91
        1
 62
     0
 92
       -2
340
0
 93
        0
 40
0.045
309
GRIDFORMAT_END
 95
       32
302
GRIDFORMAT
  1
GRIDFORMAT_BEGIN
 90
        0
 91
        1
 62
     0
 92
       -2
340
0
 93
        0
 40
0.045
309
GRIDFORMAT_END
309
TABLEFORMAT_END
  1
CELLSTYLE_BEGIN
 90
        1
 91
        1
300
_TITLE
309
CELLSTYLE_END
300
CELLSTYLE
  1
TABLEFORMAT_BEGIN
 90
        5
170
     1
 91
        0
 92
        0
 62
   257
 93
        1
300
CONTENTFORMAT
  1
CONTENTFORMAT_BEGIN
 90
        0
 91
        0
 92
      512
 93
        0
300

 40
0.0
140
1.0
 94
        5
 62
     0
340
26
144
0.18
309
CONTENTFORMAT_END
171
     1
301
MARGIN
  1
CELLMARGIN_BEGIN
 40
0.06
 40
0.06
 40
0.06
 40
0.06
 40
0.18
 40
0.18
309
CELLMARGIN_END
 94
        6
 95
        1
302
GRIDFORMAT
  1
GRIDFORMAT_BEGIN
 90
        0
 91
        1
 62
     0
 92
       -2
340
0
 93
        0
 40
0.045
309
GRIDFORMAT_END
 95
        2
302
GRIDFORMAT
  1
GRIDFORMAT_BEGIN
 90
        0
 91
        1
 62
     0
 92
       -2
340
0
 93
        0
 40
0.045
309
GRIDFORMAT_END
 95
        4
302
GRIDFORMAT
  1
GRIDFORMAT_BEGIN
 90
        0
 91
        1
 62
     0
 92
       -2
340
0
 93
        0
 40
0.045
309
GRIDFORMAT_END
 95
        8
302
GRIDFORMAT
  1
GRIDFORMAT_BEGIN
 90
        0
 91
        1
 62
     0
 92
       -2
340
0
 93
        0
 40
0.045
309
GRIDFORMAT_END
 95
       16
302
GRIDFORMAT
  1
GRIDFORMAT_BEGIN
 90
        0
 91
        1
 62
     0
 92
       -2
340
0
 93
        0
 40
0.045
309
GRIDFORMAT_END
 95
       32
302
GRIDFORMAT
  1
GRIDFORMAT_BEGIN
 90
        0
 91
        1
 62
     0
 92
       -2
340
0
 93
        0
 40
0.045
309
GRIDFORMAT_END
309
TABLEFORMAT_END
  1
CELLSTYLE_BEGIN
 90
        2
 91
        1
300
_HEADER
309
CELLSTYLE_END
300
CELLSTYLE
  1
TABLEFORMAT_BEGIN
 90
        5
170
     1
 91
        0
 92
        0
 62
   257
 93
        1
300
CONTENTFORMAT
  1
CONTENTFORMAT_BEGIN
 90
        0
 91
        0
 92
      512
 93
        0
300

 40
0.0
140
1.0
 94
        2
 62
     0
340
26
144
0.18
309
CONTENTFORMAT_END
171
     1
301
MARGIN
  1
CELLMARGIN_BEGIN
 40
0.06
 40
0.06
 40
0.06
 40
0.06
 40
0.18
 40
0.18
309
CELLMARGIN_END
 94
        6
 95
        1
302
GRIDFORMAT
  1
GRIDFORMAT_BEGIN
 90
        0
 91
        1
 62
     0
 92
       -2
340
0
 93
        0
 40
0.045
309
GRIDFORMAT_END
 95
        2
302
GRIDFORMAT
  1
GRIDFORMAT_BEGIN
 90
        0
 91
        1
 62
     0
 92
       -2
340
0
 93
        0
 40
0.045
309
GRIDFORMAT_END
 95
        4
302
GRIDFORMAT
  1
GRIDFORMAT_BEGIN
 90
        0
 91
        1
 62
     0
 92
       -2
340
0
 93
        0
 40
0.045
309
GRIDFORMAT_END
 95
        8
302
GRIDFORMAT
  1
GRIDFORMAT_BEGIN
 90
        0
 91
        1
 62
     0
 92
       -2
340
0
 93
        0
 40
0.045
309
GRIDFORMAT_END
 95
       16
302
GRIDFORMAT
  1
GRIDFORMAT_BEGIN
 90
        0
 91
        1
 62
     0
 92
       -2
340
0
 93
        0
 40
0.045
309
GRIDFORMAT_END
 95
       32
302
GRIDFORMAT
  1
GRIDFORMAT_BEGIN
 90
        0
 91
        1
 62
     0
 92
       -2
340
0
 93
        0
 40
0.045
309
GRIDFORMAT_END
309
TABLEFORMAT_END
  1
CELLSTYLE_BEGIN
 90
        3
 91
        2
300
_DATA
309
CELLSTYLE_END
  0
XRECORD
  5
1289
102
{ACAD_REACTORS
330
794
102
}
330
794
100
AcDbXrecord
280
     1
102
ACAD_ROUNDTRIP_PRE2007_TABLESTYLE
 90
      512
 91
        0
  1

 92
      512
 93
        0
  2

 94
      512
 95
        0
  3

  0
XRECORD
  5
1274
102
{ACAD_REACTORS
330
1273
102
}
330
1273
100
AcDbXrecord
280
     1
102
RTVSPropertyOp0
 70
     1
102
RTVSPropertyOp1
 70
     1
102
RTVSPropertyOp2
 70
     1
102
RTVSPropertyOp3
 70
     1
102
RTVSPropertyOp4
 70
     1
102
RTVSPropertyOp5
 70
     1
102
RTVSPropertyOp6
 70
     1
102
RTVSPropertyOp7
 70
     1
102
RTVSPropertyOp8
 70
     1
102
RTVSPropertyOp9
 70
     1
102
RTVSPropertyOp10
 70
     1
102
RTVSPropertyOp11
 70
     1
102
RTVSPropertyOp12
 70
     1
102
RTVSPropertyOp13
 70
     1
102
RTVSPropertyOp14
 70
     1
102
RTVSPropertyOp15
 70
     1
102
RTVSPropertyOp16
 70
     1
102
RTVSPropertyOp17
 70
     1
102
RTVSPropertyOp18
 70
     1
102
RTVSPropertyOp19
 70
     1
102
RTVSPropertyOp20
 70
     1
102
RTVSPropertyOp21
 70
     1
102
RTVSPropertyOp22
 70
     1
102
RTVSPropertyOp23
 70
     1
102
RTVSPropertyOp24
 70
     1
102
RTVSPropertyOp25
 70
     1
102
RTVSPropertyOp26
 70
     1
102
RTVSPropertyOp27
 70
     1
102
RTVSPropertyOp28
 70
     1
102
RTVSPropertyOp29
 70
     1
102
RTVSPropertyOp30
 70
     1
102
RTVSPropertyOp31
 70
     1
102
RTVSPropertyOp32
 70
     1
  0
XRECORD
  5
1278
102
{ACAD_REACTORS
330
1277
102
}
330
1277
100
AcDbXrecord
280
     1
102
RTVSPropertyOp0
 70
     1
102
RTVSPropertyOp1
 70
     1
102
RTVSPropertyOp2
 70
     1
102
RTVSPropertyOp3
 70
     1
102
RTVSPropertyOp4
 70
     1
102
RTVSPropertyOp5
 70
     1
102
RTVSPropertyOp6
 70
     1
102
RTVSPropertyOp7
 70
     1
102
RTVSPropertyOp8
 70
     1
102
RTVSPropertyOp9
 70
     1
102
RTVSPropertyOp10
 70
     1
102
RTVSPropertyOp11
 70
     1
102
RTVSPropertyOp12
 70
     1
102
RTVSPropertyOp13
 70
     1
102
RTVSPropertyOp14
 70
     1
102
RTVSPropertyOp15
 70
     1
102
RTVSPropertyOp16
 70
     1
102
RTVSPropertyOp17
 70
     1
102
RTVSPropertyOp18
 70
     1
102
RTVSPropertyOp19
 70
     1
102
RTVSPropertyOp20
 70
     1
102
RTVSPropertyOp21
 70
     1
102
RTVSPropertyOp22
 70
     1
102
RTVSPropertyOp23
 70
     1
102
RTVSPropertyOp24
 70
     1
102
RTVSPropertyOp25
 70
     1
102
RTVSPropertyOp26
 70
     1
102
RTVSPropertyOp27
 70
     1
102
RTVSPropertyOp28
 70
     1
102
RTVSPropertyOp29
 70
     1
102
RTVSPropertyOp30
 70
     1
102
RTVSPropertyOp31
 70
     1
102
RTVSPropertyOp32
 70
     1
  0
XRECORD
  5
1276
102
{ACAD_REACTORS
330
1275
102
}
330
1275
100
AcDbXrecord
280
     1
102
RTVSPropertyOp0
 70
     1
102
RTVSPropertyOp1
 70
     1
102
RTVSPropertyOp2
 70
     1
102
RTVSPropertyOp3
 70
     1
102
RTVSPropertyOp4
 70
     1
102
RTVSPropertyOp5
 70
     1
102
RTVSPropertyOp6
 70
     1
102
RTVSPropertyOp7
 70
     1
102
RTVSPropertyOp8
 70
     1
102
RTVSPropertyOp9
 70
     1
102
RTVSPropertyOp10
 70
     1
102
RTVSPropertyOp11
 70
     1
102
RTVSPropertyOp12
 70
     1
102
RTVSPropertyOp13
 70
     1
102
RTVSPropertyOp14
 70
     1
102
RTVSPropertyOp15
 70
     1
102
RTVSPropertyOp16
 70
     1
102
RTVSPropertyOp17
 70
     1
102
RTVSPropertyOp18
 70
     1
102
RTVSPropertyOp19
 70
     1
102
RTVSPropertyOp20
 70
     1
102
RTVSPropertyOp21
 70
     1
102
RTVSPropertyOp22
 70
     1
102
RTVSPropertyOp23
 70
     1
102
RTVSPropertyOp24
 70
     1
102
RTVSPropertyOp25
 70
     1
102
RTVSPropertyOp26
 70
     1
102
RTVSPropertyOp27
 70
     1
102
RTVSPropertyOp28
 70
     1
102
RTVSPropertyOp29
 70
     1
102
RTVSPropertyOp30
 70
     1
102
RTVSPropertyOp31
 70
     1
102
RTVSPropertyOp32
 70
     1
  0
XRECORD
  5
1272
102
{ACAD_REACTORS
330
1271
102
}
330
1271
100
AcDbXrecord
280
     1
102
RTVSPropertyOp0
 70
     1
102
RTVSPropertyOp1
 70
     1
102
RTVSPropertyOp2
 70
     1
102
RTVSPropertyOp3
 70
     1
102
RTVSPropertyOp4
 70
     1
102
RTVSPropertyOp5
 70
     1
102
RTVSPropertyOp6
 70
     1
102
RTVSPropertyOp7
 70
     1
102
RTVSPropertyOp8
 70
     1
102
RTVSPropertyOp9
 70
     1
102
RTVSPropertyOp10
 70
     1
102
RTVSPropertyOp11
 70
     1
102
RTVSPropertyOp12
 70
     1
102
RTVSPropertyOp13
 70
     1
102
RTVSPropertyOp14
 70
     1
102
RTVSPropertyOp15
 70
     1
102
RTVSPropertyOp16
 70
     1
102
RTVSPropertyOp17
 70
     1
102
RTVSPropertyOp18
 70
     1
102
RTVSPropertyOp19
 70
     1
102
RTVSPropertyOp20
 70
     1
102
RTVSPropertyOp21
 70
     1
102
RTVSPropertyOp22
 70
     1
102
RTVSPropertyOp23
 70
     1
102
RTVSPropertyOp24
 70
     1
102
RTVSPropertyOp25
 70
     1
102
RTVSPropertyOp26
 70
     1
102
RTVSPropertyOp27
 70
     1
102
RTVSPropertyOp28
 70
     1
102
RTVSPropertyOp29
 70
     1
102
RTVSPropertyOp30
 70
     1
102
RTVSPropertyOp31
 70
     1
102
RTVSPropertyOp32
 70
     1
  0
XRECORD
  5
1280
102
{ACAD_REACTORS
330
127F
102
}
330
127F
100
AcDbXrecord
280
     1
102
RTVSPropertyOp0
 70
     1
102
RTVSPropertyOp1
 70
     1
102
RTVSPropertyOp2
 70
     1
102
RTVSPropertyOp3
 70
     1
102
RTVSPropertyOp4
 70
     1
102
RTVSPropertyOp5
 70
     1
102
RTVSPropertyOp6
 70
     1
102
RTVSPropertyOp7
 70
     1
102
RTVSPropertyOp8
 70
     1
102
RTVSPropertyOp9
 70
     1
102
RTVSPropertyOp10
 70
     1
102
RTVSPropertyOp11
 70
     1
102
RTVSPropertyOp12
 70
     1
102
RTVSPropertyOp13
 70
     1
102
RTVSPropertyOp14
 70
     1
102
RTVSPropertyOp15
 70
     1
102
RTVSPropertyOp16
 70
     1
102
RTVSPropertyOp17
 70
     1
102
RTVSPropertyOp18
 70
     1
102
RTVSPropertyOp19
 70
     1
102
RTVSPropertyOp20
 70
     1
102
RTVSPropertyOp21
 70
     1
102
RTVSPropertyOp22
 70
     1
102
RTVSPropertyOp23
 70
     1
102
RTVSPropertyOp24
 70
     1
102
RTVSPropertyOp25
 70
     1
102
RTVSPropertyOp26
 70
     1
102
RTVSPropertyOp27
 70
     1
102
RTVSPropertyOp28
 70
     1
102
RTVSPropertyOp29
 70
     1
102
RTVSPropertyOp30
 70
     1
102
RTVSPropertyOp31
 70
     1
102
RTVSPropertyOp32
 70
     1
  0
XRECORD
  5
1288
102
{ACAD_REACTORS
330
1287
102
}
330
1287
100
AcDbXrecord
280
     1
102
RTVSPropertyOp0
 70
     1
102
RTVSPropertyOp1
 70
     1
102
RTVSPropertyOp2
 70
     1
102
RTVSPropertyOp3
 70
     1
102
RTVSPropertyOp4
 70
     1
102
RTVSPropertyOp5
 70
     1
102
RTVSPropertyOp6
 70
     1
102
RTVSPropertyOp7
 70
     1
102
RTVSPropertyOp8
 70
     1
102
RTVSPropertyOp9
 70
     1
102
RTVSPropertyOp10
 70
     1
102
RTVSPropertyOp11
 70
     1
102
RTVSPropertyOp12
 70
     1
102
RTVSPropertyOp13
 70
     1
102
RTVSPropertyOp14
 70
     1
102
RTVSPropertyOp15
 70
     1
102
RTVSPropertyOp16
 70
     1
102
RTVSPropertyOp17
 70
     1
102
RTVSPropertyOp18
 70
     1
102
RTVSPropertyOp19
 70
     1
102
RTVSPropertyOp20
 70
     1
102
RTVSPropertyOp21
 70
     1
102
RTVSPropertyOp22
 70
     1
102
RTVSPropertyOp23
 70
     1
102
RTVSPropertyOp24
 70
     1
102
RTVSPropertyOp25
 70
     1
102
RTVSPropertyOp26
 70
     1
102
RTVSPropertyOp27
 70
     1
102
RTVSPropertyOp28
 70
     1
102
RTVSPropertyOp29
 70
     1
102
RTVSPropertyOp30
 70
     1
102
RTVSPropertyOp31
 70
     1
102
RTVSPropertyOp32
 70
     1
  0
XRECORD
  5
127A
102
{ACAD_REACTORS
330
1279
102
}
330
1279
100
AcDbXrecord
280
     1
102
RTVSPropertyOp0
 70
     1
102
RTVSPropertyOp1
 70
     1
102
RTVSPropertyOp2
 70
     1
102
RTVSPropertyOp3
 70
     1
102
RTVSPropertyOp4
 70
     1
102
RTVSPropertyOp5
 70
     1
102
RTVSPropertyOp6
 70
     1
102
RTVSPropertyOp7
 70
     1
102
RTVSPropertyOp8
 70
     1
102
RTVSPropertyOp9
 70
     1
102
RTVSPropertyOp10
 70
     1
102
RTVSPropertyOp11
 70
     1
102
RTVSPropertyOp12
 70
     1
102
RTVSPropertyOp13
 70
     1
102
RTVSPropertyOp14
 70
     1
102
RTVSPropertyOp15
 70
     1
102
RTVSPropertyOp16
 70
     1
102
RTVSPropertyOp17
 70
     1
102
RTVSPropertyOp18
 70
     1
102
RTVSPropertyOp19
 70
     1
102
RTVSPropertyOp20
 70
     1
102
RTVSPropertyOp21
 70
     1
102
RTVSPropertyOp22
 70
     1
102
RTVSPropertyOp23
 70
     1
102
RTVSPropertyOp24
 70
     1
102
RTVSPropertyOp25
 70
     1
102
RTVSPropertyOp26
 70
     1
102
RTVSPropertyOp27
 70
     1
102
RTVSPropertyOp28
 70
     1
102
RTVSPropertyOp29
 70
     1
102
RTVSPropertyOp30
 70
     1
102
RTVSPropertyOp31
 70
     1
102
RTVSPropertyOp32
 70
     1
  0
XRECORD
  5
127E
102
{ACAD_REACTORS
330
127D
102
}
330
127D
100
AcDbXrecord
280
     1
102
RTVSPropertyOp0
 70
     1
102
RTVSPropertyOp1
 70
     1
102
RTVSPropertyOp2
 70
     1
102
RTVSPropertyOp3
 70
     1
102
RTVSPropertyOp4
 70
     1
102
RTVSPropertyOp5
 70
     1
102
RTVSPropertyOp6
 70
     1
102
RTVSPropertyOp7
 70
     1
102
RTVSPropertyOp8
 70
     1
102
RTVSPropertyOp9
 70
     1
102
RTVSPropertyOp10
 70
     1
102
RTVSPropertyOp11
 70
     1
102
RTVSPropertyOp12
 70
     1
102
RTVSPropertyOp13
 70
     1
102
RTVSPropertyOp14
 70
     1
102
RTVSPropertyOp15
 70
     1
102
RTVSPropertyOp16
 70
     1
102
RTVSPropertyOp17
 70
     1
102
RTVSPropertyOp18
 70
     1
102
RTVSPropertyOp19
 70
     1
102
RTVSPropertyOp20
 70
     1
102
RTVSPropertyOp21
 70
     1
102
RTVSPropertyOp22
 70
     1
102
RTVSPropertyOp23
 70
     1
102
RTVSPropertyOp24
 70
     1
102
RTVSPropertyOp25
 70
     1
102
RTVSPropertyOp26
 70
     1
102
RTVSPropertyOp27
 70
     1
102
RTVSPropertyOp28
 70
     1
102
RTVSPropertyOp29
 70
     1
102
RTVSPropertyOp30
 70
     1
102
RTVSPropertyOp31
 70
     1
102
RTVSPropertyOp32
 70
     1
  0
XRECORD
  5
12A1
102
{ACAD_REACTORS
330
12A0
102
}
330
12A0
100
AcDbXrecord
280
     1
102
RTVSPropertyOp0
 70
     0
102
RTVSPropertyOp1
 70
     0
102
RTVSPropertyOp2
 70
     0
102
RTVSPropertyOp3
 70
     0
102
RTVSPropertyOp4
 70
     0
102
RTVSPropertyOp5
 70
     0
102
RTVSPropertyOp6
 70
     0
102
RTVSPropertyOp7
 70
     0
102
RTVSPropertyOp8
 70
     0
102
RTVSPropertyOp9
 70
     0
102
RTVSPropertyOp10
 70
     0
102
RTVSPropertyOp11
 70
     0
102
RTVSPropertyOp12
 70
     0
102
RTVSPropertyOp13
 70
     0
102
RTVSPropertyOp14
 70
     2
102
RTVSPropertyOp15
 70
     0
102
RTVSPropertyOp16
 70
     0
102
RTVSPropertyOp17
 70
     0
102
RTVSPropertyOp18
 70
     0
102
RTVSPropertyOp19
 70
     0
102
RTVSPropertyOp20
 70
     0
102
RTVSPropertyOp21
 70
     0
102
RTVSPropertyOp22
 70
     0
102
RTVSPropertyOp23
 70
     0
102
RTVSPropertyOp24
 70
     0
102
RTVSPropertyOp25
 70
     0
102
RTVSPropertyOp26
 70
     0
102
RTVSPropertyOp27
 70
     0
102
RTVSPropertyOp28
 70
     0
102
RTVSPropertyOp29
 70
     0
102
RTVSPropertyOp30
 70
     0
102
RTVSPropertyOp31
 70
     0
102
RTVSPropertyOp32
 70
     0
  0
XRECORD
  5
1286
102
{ACAD_REACTORS
330
1285
102
}
330
1285
100
AcDbXrecord
280
     1
102
RTVSPropertyOp0
 70
     1
102
RTVSPropertyOp1
 70
     1
102
RTVSPropertyOp2
 70
     1
102
RTVSPropertyOp3
 70
     1
102
RTVSPropertyOp4
 70
     1
102
RTVSPropertyOp5
 70
     1
102
RTVSPropertyOp6
 70
     1
102
RTVSPropertyOp7
 70
     1
102
RTVSPropertyOp8
 70
     1
102
RTVSPropertyOp9
 70
     1
102
RTVSPropertyOp10
 70
     1
102
RTVSPropertyOp11
 70
     1
102
RTVSPropertyOp12
 70
     1
102
RTVSPropertyOp13
 70
     1
102
RTVSPropertyOp14
 70
     1
102
RTVSPropertyOp15
 70
     1
102
RTVSPropertyOp16
 70
     1
102
RTVSPropertyOp17
 70
     1
102
RTVSPropertyOp18
 70
     1
102
RTVSPropertyOp19
 70
     1
102
RTVSPropertyOp20
 70
     1
102
RTVSPropertyOp21
 70
     1
102
RTVSPropertyOp22
 70
     1
102
RTVSPropertyOp23
 70
     1
102
RTVSPropertyOp24
 70
     1
102
RTVSPropertyOp25
 70
     1
102
RTVSPropertyOp26
 70
     1
102
RTVSPropertyOp27
 70
     1
102
RTVSPropertyOp28
 70
     1
102
RTVSPropertyOp29
 70
     1
102
RTVSPropertyOp30
 70
     1
102
RTVSPropertyOp31
 70
     1
102
RTVSPropertyOp32
 70
     1
  0
XRECORD
  5
126A
102
{ACAD_REACTORS
330
1269
102
}
330
1269
100
AcDbXrecord
280
     1
102
RTVSPropertyOp0
 70
     1
102
RTVSPropertyOp1
 70
     1
102
RTVSPropertyOp2
 70
     1
102
RTVSPropertyOp3
 70
     1
102
RTVSPropertyOp4
 70
     1
102
RTVSPropertyOp5
 70
     1
102
RTVSPropertyOp6
 70
     1
102
RTVSPropertyOp7
 70
     1
102
RTVSPropertyOp8
 70
     1
102
RTVSPropertyOp9
 70
     1
102
RTVSPropertyOp10
 70
     1
102
RTVSPropertyOp11
 70
     1
102
RTVSPropertyOp12
 70
     1
102
RTVSPropertyOp13
 70
     1
102
RTVSPropertyOp14
 70
     1
102
RTVSPropertyOp15
 70
     1
102
RTVSPropertyOp16
 70
     1
102
RTVSPropertyOp17
 70
     1
102
RTVSPropertyOp18
 70
     1
102
RTVSPropertyOp19
 70
     1
102
RTVSPropertyOp20
 70
     1
102
RTVSPropertyOp21
 70
     1
102
RTVSPropertyOp22
 70
     1
102
RTVSPropertyOp23
 70
     1
102
RTVSPropertyOp24
 70
     1
102
RTVSPropertyOp25
 70
     1
102
RTVSPropertyOp26
 70
     1
102
RTVSPropertyOp27
 70
     1
102
RTVSPropertyOp28
 70
     1
102
RTVSPropertyOp29
 70
     1
102
RTVSPropertyOp30
 70
     1
102
RTVSPropertyOp31
 70
     1
102
RTVSPropertyOp32
 70
     1
  0
XRECORD
  5
126C
102
{ACAD_REACTORS
330
126B
102
}
330
126B
100
AcDbXrecord
280
     1
102
RTVSPropertyOp0
 70
     1
102
RTVSPropertyOp1
 70
     1
102
RTVSPropertyOp2
 70
     1
102
RTVSPropertyOp3
 70
     1
102
RTVSPropertyOp4
 70
     1
102
RTVSPropertyOp5
 70
     1
102
RTVSPropertyOp6
 70
     1
102
RTVSPropertyOp7
 70
     1
102
RTVSPropertyOp8
 70
     1
102
RTVSPropertyOp9
 70
     1
102
RTVSPropertyOp10
 70
     1
102
RTVSPropertyOp11
 70
     1
102
RTVSPropertyOp12
 70
     1
102
RTVSPropertyOp13
 70
     1
102
RTVSPropertyOp14
 70
     1
102
RTVSPropertyOp15
 70
     1
102
RTVSPropertyOp16
 70
     1
102
RTVSPropertyOp17
 70
     1
102
RTVSPropertyOp18
 70
     1
102
RTVSPropertyOp19
 70
     1
102
RTVSPropertyOp20
 70
     1
102
RTVSPropertyOp21
 70
     1
102
RTVSPropertyOp22
 70
     1
102
RTVSPropertyOp23
 70
     1
102
RTVSPropertyOp24
 70
     1
102
RTVSPropertyOp25
 70
     1
102
RTVSPropertyOp26
 70
     1
102
RTVSPropertyOp27
 70
     1
102
RTVSPropertyOp28
 70
     1
102
RTVSPropertyOp29
 70
     1
102
RTVSPropertyOp30
 70
     1
102
RTVSPropertyOp31
 70
     1
102
RTVSPropertyOp32
 70
     1
  0
XRECORD
  5
126E
102
{ACAD_REACTORS
330
126D
102
}
330
126D
100
AcDbXrecord
280
     1
102
RTVSPropertyOp0
 70
     1
102
RTVSPropertyOp1
 70
     1
102
RTVSPropertyOp2
 70
     1
102
RTVSPropertyOp3
 70
     1
102
RTVSPropertyOp4
 70
     1
102
RTVSPropertyOp5
 70
     1
102
RTVSPropertyOp6
 70
     1
102
RTVSPropertyOp7
 70
     1
102
RTVSPropertyOp8
 70
     1
102
RTVSPropertyOp9
 70
     1
102
RTVSPropertyOp10
 70
     1
102
RTVSPropertyOp11
 70
     1
102
RTVSPropertyOp12
 70
     1
102
RTVSPropertyOp13
 70
     1
102
RTVSPropertyOp14
 70
     1
102
RTVSPropertyOp15
 70
     1
102
RTVSPropertyOp16
 70
     1
102
RTVSPropertyOp17
 70
     1
102
RTVSPropertyOp18
 70
     1
102
RTVSPropertyOp19
 70
     1
102
RTVSPropertyOp20
 70
     1
102
RTVSPropertyOp21
 70
     1
102
RTVSPropertyOp22
 70
     1
102
RTVSPropertyOp23
 70
     1
102
RTVSPropertyOp24
 70
     1
102
RTVSPropertyOp25
 70
     1
102
RTVSPropertyOp26
 70
     1
102
RTVSPropertyOp27
 70
     1
102
RTVSPropertyOp28
 70
     1
102
RTVSPropertyOp29
 70
     1
102
RTVSPropertyOp30
 70
     1
102
RTVSPropertyOp31
 70
     1
102
RTVSPropertyOp32
 70
     1
  0
XRECORD
  5
1270
102
{ACAD_REACTORS
330
126F
102
}
330
126F
100
AcDbXrecord
280
     1
102
RTVSPropertyOp0
 70
     1
102
RTVSPropertyOp1
 70
     1
102
RTVSPropertyOp2
 70
     1
102
RTVSPropertyOp3
 70
     1
102
RTVSPropertyOp4
 70
     1
102
RTVSPropertyOp5
 70
     1
102
RTVSPropertyOp6
 70
     1
102
RTVSPropertyOp7
 70
     1
102
RTVSPropertyOp8
 70
     1
102
RTVSPropertyOp9
 70
     1
102
RTVSPropertyOp10
 70
     1
102
RTVSPropertyOp11
 70
     1
102
RTVSPropertyOp12
 70
     1
102
RTVSPropertyOp13
 70
     1
102
RTVSPropertyOp14
 70
     1
102
RTVSPropertyOp15
 70
     1
102
RTVSPropertyOp16
 70
     1
102
RTVSPropertyOp17
 70
     1
102
RTVSPropertyOp18
 70
     1
102
RTVSPropertyOp19
 70
     1
102
RTVSPropertyOp20
 70
     1
102
RTVSPropertyOp21
 70
     1
102
RTVSPropertyOp22
 70
     1
102
RTVSPropertyOp23
 70
     1
102
RTVSPropertyOp24
 70
     1
102
RTVSPropertyOp25
 70
     1
102
RTVSPropertyOp26
 70
     1
102
RTVSPropertyOp27
 70
     1
102
RTVSPropertyOp28
 70
     1
102
RTVSPropertyOp29
 70
     1
102
RTVSPropertyOp30
 70
     1
102
RTVSPropertyOp31
 70
     1
102
RTVSPropertyOp32
 70
     1
  0
XRECORD
  5
1291
102
{ACAD_REACTORS
330
1290
102
}
330
1290
100
AcDbXrecord
280
     1
102
RTVSPropertyOp0
 70
     1
102
RTVSPropertyOp1
 70
     1
102
RTVSPropertyOp2
 70
     1
102
RTVSPropertyOp3
 70
     1
102
RTVSPropertyOp4
 70
     1
102
RTVSPropertyOp5
 70
     1
102
RTVSPropertyOp6
 70
     1
102
RTVSPropertyOp7
 70
     1
102
RTVSPropertyOp8
 70
     1
102
RTVSPropertyOp9
 70
     1
102
RTVSPropertyOp10
 70
     1
102
RTVSPropertyOp11
 70
     1
102
RTVSPropertyOp12
 70
     1
102
RTVSPropertyOp13
 70
     1
102
RTVSPropertyOp14
 70
     1
102
RTVSPropertyOp15
 70
     1
102
RTVSPropertyOp16
 70
     1
102
RTVSPropertyOp17
 70
     1
102
RTVSPropertyOp18
 70
     1
102
RTVSPropertyOp19
 70
     1
102
RTVSPropertyOp20
 70
     1
102
RTVSPropertyOp21
 70
     1
102
RTVSPropertyOp22
 70
     1
102
RTVSPropertyOp23
 70
     1
102
RTVSPropertyOp24
 70
     1
102
RTVSPropertyOp25
 70
     1
102
RTVSPropertyOp26
 70
     1
102
RTVSPropertyOp27
 70
     1
102
RTVSPropertyOp28
 70
     1
102
RTVSPropertyOp29
 70
     1
102
RTVSPropertyOp30
 70
     1
102
RTVSPropertyOp31
 70
     1
102
RTVSPropertyOp32
 70
     1
  0
XRECORD
  5
129D
102
{ACAD_REACTORS
330
129C
102
}
330
129C
100
AcDbXrecord
280
     1
102
RTVSPropertyOp0
 70
     0
102
RTVSPropertyOp1
 70
     0
102
RTVSPropertyOp2
 70
     0
102
RTVSPropertyOp3
 70
     0
102
RTVSPropertyOp4
 70
     0
102
RTVSPropertyOp5
 70
     0
102
RTVSPropertyOp6
 70
     0
102
RTVSPropertyOp7
 70
     0
102
RTVSPropertyOp8
 70
     0
102
RTVSPropertyOp9
 70
     0
102
RTVSPropertyOp10
 70
     0
102
RTVSPropertyOp11
 70
     0
102
RTVSPropertyOp12
 70
     0
102
RTVSPropertyOp13
 70
     0
102
RTVSPropertyOp14
 70
     2
102
RTVSPropertyOp15
 70
     0
102
RTVSPropertyOp16
 70
     0
102
RTVSPropertyOp17
 70
     0
102
RTVSPropertyOp18
 70
     0
102
RTVSPropertyOp19
 70
     0
102
RTVSPropertyOp20
 70
     0
102
RTVSPropertyOp21
 70
     0
102
RTVSPropertyOp22
 70
     0
102
RTVSPropertyOp23
 70
     0
102
RTVSPropertyOp24
 70
     0
102
RTVSPropertyOp25
 70
     0
102
RTVSPropertyOp26
 70
     0
102
RTVSPropertyOp27
 70
     0
102
RTVSPropertyOp28
 70
     0
102
RTVSPropertyOp29
 70
     0
102
RTVSPropertyOp30
 70
     0
102
RTVSPropertyOp31
 70
     0
102
RTVSPropertyOp32
 70
     0
  0
XRECORD
  5
1284
102
{ACAD_REACTORS
330
1283
102
}
330
1283
100
AcDbXrecord
280
     1
102
RTVSPropertyOp0
 70
     1
102
RTVSPropertyOp1
 70
     1
102
RTVSPropertyOp2
 70
     1
102
RTVSPropertyOp3
 70
     1
102
RTVSPropertyOp4
 70
     1
102
RTVSPropertyOp5
 70
     1
102
RTVSPropertyOp6
 70
     1
102
RTVSPropertyOp7
 70
     1
102
RTVSPropertyOp8
 70
     1
102
RTVSPropertyOp9
 70
     1
102
RTVSPropertyOp10
 70
     1
102
RTVSPropertyOp11
 70
     1
102
RTVSPropertyOp12
 70
     1
102
RTVSPropertyOp13
 70
     1
102
RTVSPropertyOp14
 70
     1
102
RTVSPropertyOp15
 70
     1
102
RTVSPropertyOp16
 70
     1
102
RTVSPropertyOp17
 70
     1
102
RTVSPropertyOp18
 70
     1
102
RTVSPropertyOp19
 70
     1
102
RTVSPropertyOp20
 70
     1
102
RTVSPropertyOp21
 70
     1
102
RTVSPropertyOp22
 70
     1
102
RTVSPropertyOp23
 70
     1
102
RTVSPropertyOp24
 70
     1
102
RTVSPropertyOp25
 70
     1
102
RTVSPropertyOp26
 70
     1
102
RTVSPropertyOp27
 70
     1
102
RTVSPropertyOp28
 70
     1
102
RTVSPropertyOp29
 70
     1
102
RTVSPropertyOp30
 70
     1
102
RTVSPropertyOp31
 70
     1
102
RTVSPropertyOp32
 70
     1
  0
XRECORD
  5
129F
102
{ACAD_REACTORS
330
129E
102
}
330
129E
100
AcDbXrecord
280
     1
102
RTVSPropertyOp0
 70
     0
102
RTVSPropertyOp1
 70
     0
102
RTVSPropertyOp2
 70
     0
102
RTVSPropertyOp3
 70
     0
102
RTVSPropertyOp4
 70
     0
102
RTVSPropertyOp5
 70
     0
102
RTVSPropertyOp6
 70
     0
102
RTVSPropertyOp7
 70
     0
102
RTVSPropertyOp8
 70
     0
102
RTVSPropertyOp9
 70
     0
102
RTVSPropertyOp10
 70
     0
102
RTVSPropertyOp11
 70
     0
102
RTVSPropertyOp12
 70
     0
102
RTVSPropertyOp13
 70
     0
102
RTVSPropertyOp14
 70
     2
102
RTVSPropertyOp15
 70
     0
102
RTVSPropertyOp16
 70
     0
102
RTVSPropertyOp17
 70
     0
102
RTVSPropertyOp18
 70
     0
102
RTVSPropertyOp19
 70
     0
102
RTVSPropertyOp20
 70
     0
102
RTVSPropertyOp21
 70
     0
102
RTVSPropertyOp22
 70
     0
102
RTVSPropertyOp23
 70
     0
102
RTVSPropertyOp24
 70
     0
102
RTVSPropertyOp25
 70
     0
102
RTVSPropertyOp26
 70
     0
102
RTVSPropertyOp27
 70
     0
102
RTVSPropertyOp28
 70
     0
102
RTVSPropertyOp29
 70
     0
102
RTVSPropertyOp30
 70
     0
102
RTVSPropertyOp31
 70
     0
102
RTVSPropertyOp32
 70
     0
  0
XRECORD
  5
127C
102
{ACAD_REACTORS
330
127B
102
}
330
127B
100
AcDbXrecord
280
     1
102
RTVSPropertyOp0
 70
     1
102
RTVSPropertyOp1
 70
     1
102
RTVSPropertyOp2
 70
     1
102
RTVSPropertyOp3
 70
     1
102
RTVSPropertyOp4
 70
     1
102
RTVSPropertyOp5
 70
     1
102
RTVSPropertyOp6
 70
     1
102
RTVSPropertyOp7
 70
     1
102
RTVSPropertyOp8
 70
     1
102
RTVSPropertyOp9
 70
     1
102
RTVSPropertyOp10
 70
     1
102
RTVSPropertyOp11
 70
     1
102
RTVSPropertyOp12
 70
     1
102
RTVSPropertyOp13
 70
     1
102
RTVSPropertyOp14
 70
     1
102
RTVSPropertyOp15
 70
     1
102
RTVSPropertyOp16
 70
     1
102
RTVSPropertyOp17
 70
     1
102
RTVSPropertyOp18
 70
     1
102
RTVSPropertyOp19
 70
     1
102
RTVSPropertyOp20
 70
     1
102
RTVSPropertyOp21
 70
     1
102
RTVSPropertyOp22
 70
     1
102
RTVSPropertyOp23
 70
     1
102
RTVSPropertyOp24
 70
     1
102
RTVSPropertyOp25
 70
     1
102
RTVSPropertyOp26
 70
     1
102
RTVSPropertyOp27
 70
     1
102
RTVSPropertyOp28
 70
     1
102
RTVSPropertyOp29
 70
     1
102
RTVSPropertyOp30
 70
     1
102
RTVSPropertyOp31
 70
     1
102
RTVSPropertyOp32
 70
     1
  0
XRECORD
  5
129B
102
{ACAD_REACTORS
330
129A
102
}
330
129A
100
AcDbXrecord
280
     1
102
RTVSPropertyOp0
 70
     1
102
RTVSPropertyOp1
 70
     1
102
RTVSPropertyOp2
 70
     1
102
RTVSPropertyOp3
 70
     1
102
RTVSPropertyOp4
 70
     1
102
RTVSPropertyOp5
 70
     1
102
RTVSPropertyOp6
 70
     1
102
RTVSPropertyOp7
 70
     1
102
RTVSPropertyOp8
 70
     1
102
RTVSPropertyOp9
 70
     1
102
RTVSPropertyOp10
 70
     1
102
RTVSPropertyOp11
 70
     1
102
RTVSPropertyOp12
 70
     1
102
RTVSPropertyOp13
 70
     1
102
RTVSPropertyOp14
 70
     1
102
RTVSPropertyOp15
 70
     1
102
RTVSPropertyOp16
 70
     1
102
RTVSPropertyOp17
 70
     1
102
RTVSPropertyOp18
 70
     1
102
RTVSPropertyOp19
 70
     1
102
RTVSPropertyOp20
 70
     1
102
RTVSPropertyOp21
 70
     1
102
RTVSPropertyOp22
 70
     1
102
RTVSPropertyOp23
 70
     1
102
RTVSPropertyOp24
 70
     1
102
RTVSPropertyOp25
 70
     1
102
RTVSPropertyOp26
 70
     1
102
RTVSPropertyOp27
 70
     1
102
RTVSPropertyOp28
 70
     1
102
RTVSPropertyOp29
 70
     1
102
RTVSPropertyOp30
 70
     1
102
RTVSPropertyOp31
 70
     1
102
RTVSPropertyOp32
 70
     1
  0
XRECORD
  5
1299
102
{ACAD_REACTORS
330
1298
102
}
330
1298
100
AcDbXrecord
280
     1
102
RTVSPropertyOp0
 70
     1
102
RTVSPropertyOp1
 70
     1
102
RTVSPropertyOp2
 70
     1
102
RTVSPropertyOp3
 70
     1
102
RTVSPropertyOp4
 70
     1
102
RTVSPropertyOp5
 70
     1
102
RTVSPropertyOp6
 70
     1
102
RTVSPropertyOp7
 70
     1
102
RTVSPropertyOp8
 70
     1
102
RTVSPropertyOp9
 70
     1
102
RTVSPropertyOp10
 70
     1
102
RTVSPropertyOp11
 70
     1
102
RTVSPropertyOp12
 70
     1
102
RTVSPropertyOp13
 70
     1
102
RTVSPropertyOp14
 70
     1
102
RTVSPropertyOp15
 70
     1
102
RTVSPropertyOp16
 70
     1
102
RTVSPropertyOp17
 70
     1
102
RTVSPropertyOp18
 70
     1
102
RTVSPropertyOp19
 70
     1
102
RTVSPropertyOp20
 70
     1
102
RTVSPropertyOp21
 70
     1
102
RTVSPropertyOp22
 70
     1
102
RTVSPropertyOp23
 70
     1
102
RTVSPropertyOp24
 70
     1
102
RTVSPropertyOp25
 70
     1
102
RTVSPropertyOp26
 70
     1
102
RTVSPropertyOp27
 70
     1
102
RTVSPropertyOp28
 70
     1
102
RTVSPropertyOp29
 70
     1
102
RTVSPropertyOp30
 70
     1
102
RTVSPropertyOp31
 70
     1
102
RTVSPropertyOp32
 70
     1
  0
XRECORD
  5
1293
102
{ACAD_REACTORS
330
1292
102
}
330
1292
100
AcDbXrecord
280
     1
102
RTVSPropertyOp0
 70
     1
102
RTVSPropertyOp1
 70
     1
102
RTVSPropertyOp2
 70
     1
102
RTVSPropertyOp3
 70
     1
102
RTVSPropertyOp4
 70
     1
102
RTVSPropertyOp5
 70
     1
102
RTVSPropertyOp6
 70
     1
102
RTVSPropertyOp7
 70
     1
102
RTVSPropertyOp8
 70
     1
102
RTVSPropertyOp9
 70
     1
102
RTVSPropertyOp10
 70
     1
102
RTVSPropertyOp11
 70
     1
102
RTVSPropertyOp12
 70
     1
102
RTVSPropertyOp13
 70
     1
102
RTVSPropertyOp14
 70
     1
102
RTVSPropertyOp15
 70
     1
102
RTVSPropertyOp16
 70
     1
102
RTVSPropertyOp17
 70
     1
102
RTVSPropertyOp18
 70
     1
102
RTVSPropertyOp19
 70
     1
102
RTVSPropertyOp20
 70
     1
102
RTVSPropertyOp21
 70
     1
102
RTVSPropertyOp22
 70
     1
102
RTVSPropertyOp23
 70
     1
102
RTVSPropertyOp24
 70
     1
102
RTVSPropertyOp25
 70
     1
102
RTVSPropertyOp26
 70
     1
102
RTVSPropertyOp27
 70
     1
102
RTVSPropertyOp28
 70
     1
102
RTVSPropertyOp29
 70
     1
102
RTVSPropertyOp30
 70
     1
102
RTVSPropertyOp31
 70
     1
102
RTVSPropertyOp32
 70
     1
  0
XRECORD
  5
1295
102
{ACAD_REACTORS
330
1294
102
}
330
1294
100
AcDbXrecord
280
     1
102
RTVSPropertyOp0
 70
     1
102
RTVSPropertyOp1
 70
     1
102
RTVSPropertyOp2
 70
     1
102
RTVSPropertyOp3
 70
     1
102
RTVSPropertyOp4
 70
     1
102
RTVSPropertyOp5
 70
     1
102
RTVSPropertyOp6
 70
     1
102
RTVSPropertyOp7
 70
     1
102
RTVSPropertyOp8
 70
     1
102
RTVSPropertyOp9
 70
     1
102
RTVSPropertyOp10
 70
     1
102
RTVSPropertyOp11
 70
     1
102
RTVSPropertyOp12
 70
     1
102
RTVSPropertyOp13
 70
     1
102
RTVSPropertyOp14
 70
     1
102
RTVSPropertyOp15
 70
     1
102
RTVSPropertyOp16
 70
     1
102
RTVSPropertyOp17
 70
     1
102
RTVSPropertyOp18
 70
     1
102
RTVSPropertyOp19
 70
     1
102
RTVSPropertyOp20
 70
     1
102
RTVSPropertyOp21
 70
     1
102
RTVSPropertyOp22
 70
     1
102
RTVSPropertyOp23
 70
     1
102
RTVSPropertyOp24
 70
     1
102
RTVSPropertyOp25
 70
     1
102
RTVSPropertyOp26
 70
     1
102
RTVSPropertyOp27
 70
     1
102
RTVSPropertyOp28
 70
     1
102
RTVSPropertyOp29
 70
     1
102
RTVSPropertyOp30
 70
     1
102
RTVSPropertyOp31
 70
     1
102
RTVSPropertyOp32
 70
     1
  0
XRECORD
  5
1282
102
{ACAD_REACTORS
330
1281
102
}
330
1281
100
AcDbXrecord
280
     1
102
RTVSPropertyOp0
 70
     1
102
RTVSPropertyOp1
 70
     1
102
RTVSPropertyOp2
 70
     1
102
RTVSPropertyOp3
 70
     1
102
RTVSPropertyOp4
 70
     1
102
RTVSPropertyOp5
 70
     1
102
RTVSPropertyOp6
 70
     1
102
RTVSPropertyOp7
 70
     1
102
RTVSPropertyOp8
 70
     1
102
RTVSPropertyOp9
 70
     1
102
RTVSPropertyOp10
 70
     1
102
RTVSPropertyOp11
 70
     1
102
RTVSPropertyOp12
 70
     1
102
RTVSPropertyOp13
 70
     1
102
RTVSPropertyOp14
 70
     1
102
RTVSPropertyOp15
 70
     1
102
RTVSPropertyOp16
 70
     1
102
RTVSPropertyOp17
 70
     1
102
RTVSPropertyOp18
 70
     1
102
RTVSPropertyOp19
 70
     1
102
RTVSPropertyOp20
 70
     1
102
RTVSPropertyOp21
 70
     1
102
RTVSPropertyOp22
 70
     1
102
RTVSPropertyOp23
 70
     1
102
RTVSPropertyOp24
 70
     1
102
RTVSPropertyOp25
 70
     1
102
RTVSPropertyOp26
 70
     1
102
RTVSPropertyOp27
 70
     1
102
RTVSPropertyOp28
 70
     1
102
RTVSPropertyOp29
 70
     1
102
RTVSPropertyOp30
 70
     1
102
RTVSPropertyOp31
 70
     1
102
RTVSPropertyOp32
 70
     1
  0
XRECORD
  5
128F
102
{ACAD_REACTORS
330
128E
102
}
330
128E
100
AcDbXrecord
280
     1
102
RTVSPropertyOp0
 70
     1
102
RTVSPropertyOp1
 70
     1
102
RTVSPropertyOp2
 70
     1
102
RTVSPropertyOp3
 70
     1
102
RTVSPropertyOp4
 70
     1
102
RTVSPropertyOp5
 70
     1
102
RTVSPropertyOp6
 70
     1
102
RTVSPropertyOp7
 70
     1
102
RTVSPropertyOp8
 70
     1
102
RTVSPropertyOp9
 70
     1
102
RTVSPropertyOp10
 70
     1
102
RTVSPropertyOp11
 70
     1
102
RTVSPropertyOp12
 70
     1
102
RTVSPropertyOp13
 70
     1
102
RTVSPropertyOp14
 70
     1
102
RTVSPropertyOp15
 70
     1
102
RTVSPropertyOp16
 70
     1
102
RTVSPropertyOp17
 70
     1
102
RTVSPropertyOp18
 70
     1
102
RTVSPropertyOp19
 70
     1
102
RTVSPropertyOp20
 70
     1
102
RTVSPropertyOp21
 70
     1
102
RTVSPropertyOp22
 70
     1
102
RTVSPropertyOp23
 70
     1
102
RTVSPropertyOp24
 70
     1
102
RTVSPropertyOp25
 70
     1
102
RTVSPropertyOp26
 70
     1
102
RTVSPropertyOp27
 70
     1
102
RTVSPropertyOp28
 70
     1
102
RTVSPropertyOp29
 70
     1
102
RTVSPropertyOp30
 70
     1
102
RTVSPropertyOp31
 70
     1
102
RTVSPropertyOp32
 70
     1
  0
XRECORD
  5
1297
102
{ACAD_REACTORS
330
1296
102
}
330
1296
100
AcDbXrecord
280
     1
102
RTVSPropertyOp0
 70
     1
102
RTVSPropertyOp1
 70
     1
102
RTVSPropertyOp2
 70
     1
102
RTVSPropertyOp3
 70
     1
102
RTVSPropertyOp4
 70
     1
102
RTVSPropertyOp5
 70
     1
102
RTVSPropertyOp6
 70
     1
102
RTVSPropertyOp7
 70
     1
102
RTVSPropertyOp8
 70
     1
102
RTVSPropertyOp9
 70
     1
102
RTVSPropertyOp10
 70
     1
102
RTVSPropertyOp11
 70
     1
102
RTVSPropertyOp12
 70
     1
102
RTVSPropertyOp13
 70
     1
102
RTVSPropertyOp14
 70
     1
102
RTVSPropertyOp15
 70
     1
102
RTVSPropertyOp16
 70
     1
102
RTVSPropertyOp17
 70
     1
102
RTVSPropertyOp18
 70
     1
102
RTVSPropertyOp19
 70
     1
102
RTVSPropertyOp20
 70
     1
102
RTVSPropertyOp21
 70
     1
102
RTVSPropertyOp22
 70
     1
102
RTVSPropertyOp23
 70
     1
102
RTVSPropertyOp24
 70
     1
102
RTVSPropertyOp25
 70
     1
102
RTVSPropertyOp26
 70
     1
102
RTVSPropertyOp27
 70
     1
102
RTVSPropertyOp28
 70
     1
102
RTVSPropertyOp29
 70
     1
102
RTVSPropertyOp30
 70
     1
102
RTVSPropertyOp31
 70
     1
102
RTVSPropertyOp32
 70
     1
  0
ENDSEC
  0
EOF
