  0
SECTION
  2
HEADER
  9
$ACADVER
  1
AC1015
  9
$ACADMAINTVER
 70
    20
  9
$DWGCODEPAGE
  3
ANSI_932
  9
$INSBASE
 10
0.0
 20
0.0
 30
0.0
  9
$EXTMIN
 10
18.340733
 20
-628.3216499999999
 30
0.0
  9
$EXTMAX
 10
423.340733
 20
-354.266289
 30
0.0
  9
$LIMMIN
 10
18.339733
 20
-628.3226549999998
  9
$LIMMAX
 10
423.367608
 20
-354.265296
  9
$ORTHOMODE
 70
     0
  9
$REGENMODE
 70
     1
  9
$FILLMODE
 70
     1
  9
$QTEXTMODE
 70
     0
  9
$MIRRTEXT
 70
     0
  9
$LTSCALE
 40
6.750430999999997
  9
$ATTMODE
 70
     1
  9
$TEXTSIZE
 40
3.2
  9
$TRACEWID
 40
0.05
  9
$TEXTSTYLE
  7
高3.2
  9
$CLAYER
  8
0
  9
$CELTYPE
  6
CONTINUOUS
  9
$CECOLOR
 62
   256
  9
$CELTSCALE
 40
1.0
  9
$DISPSILH
 70
     0
  9
$DIMSCALE
 40
1.0
  9
$DIMASZ
 40
2.5
  9
$DIMEXO
 40
0.25
  9
$DIMDLI
 40
0.2
  9
$DIMRND
 40
0.0
  9
$DIMDLE
 40
0.0
  9
$DIMEXE
 40
1.25
  9
$DIMTP
 40
0.0
  9
$DIMTM
 40
0.0
  9
$DIMTXT
 40
3.0
  9
$DIMCEN
 40
0.0
  9
$DIMTSZ
 40
0.0
  9
$DIMTOL
 70
     0
  9
$DIMLIM
 70
     0
  9
$DIMTIH
 70
     0
  9
$DIMTOH
 70
     0
  9
$DIMSE1
 70
     0
  9
$DIMSE2
 70
     0
  9
$DIMTAD
 70
     3
  9
$DIMZIN
 70
     8
  9
$DIMBLK
  1
Open30
  9
$DIMASO
 70
     1
  9
$DIMSHO
 70
     1
  9
$DIMPOST
  1

  9
$DIMAPOST
  1

  9
$DIMALT
 70
     0
  9
$DIMALTD
 70
     3
  9
$DIMALTF
 40
0.03937007874016
  9
$DIMLFAC
 40
1.0
  9
$DIMTOFL
 70
     1
  9
$DIMTVP
 40
0.0
  9
$DIMTIX
 70
     0
  9
$DIMSOXD
 70
     0
  9
$DIMSAH
 70
     0
  9
$DIMBLK1
  1

  9
$DIMBLK2
  1

  9
$DIMSTYLE
  2
FREE
  9
$DIMCLRD
 70
     0
  9
$DIMCLRE
 70
     0
  9
$DIMCLRT
 70
     4
  9
$DIMTFAC
 40
1.0
  9
$DIMGAP
 40
0.625
  9
$DIMJUST
 70
     0
  9
$DIMSD1
 70
     0
  9
$DIMSD2
 70
     0
  9
$DIMTOLJ
 70
     0
  9
$DIMTZIN
 70
     8
  9
$DIMALTZ
 70
     0
  9
$DIMALTTZ
 70
     0
  9
$DIMUPT
 70
     1
  9
$DIMDEC
 70
     2
  9
$DIMTDEC
 70
     2
  9
$DIMALTU
 70
     2
  9
$DIMALTTD
 70
     3
  9
$DIMTXSTY
  7
STANDARD
  9
$DIMAUNIT
 70
     0
  9
$DIMADEC
 70
     1
  9
$DIMALTRND
 40
0.0
  9
$DIMAZIN
 70
     2
  9
$DIMDSEP
 70
    46
  9
$DIMATFIT
 70
     0
  9
$DIMFRAC
 70
     0
  9
$DIMLDRBLK
  1
Open30
  9
$DIMLUNIT
 70
     2
  9
$DIMLWD
 70
    -2
  9
$DIMLWE
 70
    -2
  9
$DIMTMOVE
 70
     0
  9
$LUNITS
 70
     2
  9
$LUPREC
 70
     4
  9
$SKETCHINC
 40
0.1
  9
$FILLETRAD
 40
0.0
  9
$AUNITS
 70
     0
  9
$AUPREC
 70
     0
  9
$MENU
  1
.
  9
$ELEVATION
 40
0.0
  9
$PELEVATION
 40
0.0
  9
$THICKNESS
 40
0.0
  9
$LIMCHECK
 70
     0
  9
$CHAMFERA
 40
0.0
  9
$CHAMFERB
 40
0.0
  9
$CHAMFERC
 40
0.0
  9
$CHAMFERD
 40
0.0
  9
$SKPOLY
 70
     0
  9
$TDCREATE
 40
2455439.603096968
  9
$TDUCREATE
 40
2455439.228096968
  9
$TDUPDATE
 40
2459181.689570371
  9
$TDUUPDATE
 40
2459181.314570371
  9
$TDINDWG
 40
0.2061132986
  9
$TDUSRTIMER
 40
0.2061123495
  9
$USRTIMER
 70
     1
  9
$ANGBASE
 50
0.0
  9
$ANGDIR
 70
     0
  9
$PDMODE
 70
     0
  9
$PDSIZE
 40
0.0
  9
$PLINEWID
 40
0.0
  9
$SPLFRAME
 70
     0
  9
$SPLINETYPE
 70
     6
  9
$SPLINESEGS
 70
     8
  9
$HANDSEED
  5
17FA
  9
$SURFTAB1
 70
     6
  9
$SURFTAB2
 70
     6
  9
$SURFTYPE
 70
     6
  9
$SURFU
 70
     6
  9
$SURFV
 70
     6
  9
$UCSBASE
  2

  9
$UCSNAME
  2

  9
$UCSORG
 10
0.0
 20
0.0
 30
0.0
  9
$UCSXDIR
 10
1.0
 20
0.0
 30
0.0
  9
$UCSYDIR
 10
0.0
 20
1.0
 30
0.0
  9
$UCSORTHOREF
  2

  9
$UCSORTHOVIEW
 70
     0
  9
$UCSORGTOP
 10
0.0
 20
0.0
 30
0.0
  9
$UCSORGBOTTOM
 10
0.0
 20
0.0
 30
0.0
  9
$UCSORGLEFT
 10
0.0
 20
0.0
 30
0.0
  9
$UCSORGRIGHT
 10
0.0
 20
0.0
 30
0.0
  9
$UCSORGFRONT
 10
0.0
 20
0.0
 30
0.0
  9
$UCSORGBACK
 10
0.0
 20
0.0
 30
0.0
  9
$PUCSBASE
  2

  9
$PUCSNAME
  2

  9
$PUCSORG
 10
0.0
 20
0.0
 30
0.0
  9
$PUCSXDIR
 10
1.0
 20
0.0
 30
0.0
  9
$PUCSYDIR
 10
0.0
 20
1.0
 30
0.0
  9
$PUCSORTHOREF
  2

  9
$PUCSORTHOVIEW
 70
     0
  9
$PUCSORGTOP
 10
0.0
 20
0.0
 30
0.0
  9
$PUCSORGBOTTOM
 10
0.0
 20
0.0
 30
0.0
  9
$PUCSORGLEFT
 10
0.0
 20
0.0
 30
0.0
  9
$PUCSORGRIGHT
 10
0.0
 20
0.0
 30
0.0
  9
$PUCSORGFRONT
 10
0.0
 20
0.0
 30
0.0
  9
$PUCSORGBACK
 10
0.0
 20
0.0
 30
0.0
  9
$USERI1
 70
     0
  9
$USERI2
 70
     0
  9
$USERI3
 70
     0
  9
$USERI4
 70
     0
  9
$USERI5
 70
     0
  9
$USERR1
 40
0.0
  9
$USERR2
 40
0.0
  9
$USERR3
 40
0.0
  9
$USERR4
 40
0.0
  9
$USERR5
 40
0.0
  9
$WORLDVIEW
 70
     1
  9
$SHADEDGE
 70
     3
  9
$SHADEDIF
 70
    70
  9
$TILEMODE
 70
     1
  9
$MAXACTVP
 70
    64
  9
$PINSBASE
 10
0.0
 20
0.0
 30
0.0
  9
$PLIMCHECK
 70
     0
  9
$PEXTMIN
 10
1.000000000000000E+20
 20
1.000000000000000E+20
 30
1.000000000000000E+20
  9
$PEXTMAX
 10
-1.000000000000000E+20
 20
-1.000000000000000E+20
 30
-1.000000000000000E+20
  9
$PLIMMIN
 10
0.0
 20
0.0
  9
$PLIMMAX
 10
12.0
 20
9.0
  9
$UNITMODE
 70
     0
  9
$VISRETAIN
 70
     1
  9
$PLINEGEN
 70
     0
  9
$PSLTSCALE
 70
     1
  9
$TREEDEPTH
 70
  3020
  9
$CMLSTYLE
  2
Standard
  9
$CMLJUST
 70
     0
  9
$CMLSCALE
 40
1.0
  9
$PROXYGRAPHICS
 70
     1
  9
$MEASUREMENT
 70
     0
  9
$CELWEIGHT
370
    -1
  9
$ENDCAPS
280
     0
  9
$JOINSTYLE
280
     0
  9
$LWDISPLAY
290
     0
  9
$INSUNITS
 70
     0
  9
$HYPERLINKBASE
  1

  9
$STYLESHEET
  1

  9
$XEDIT
290
     1
  9
$CEPSNTYPE
380
     0
  9
$PSTYLEMODE
290
     1
  9
$FINGERPRINTGUID
  2
{7D2CB315-F17B-4766-B448-9369E6E2F87F}
  9
$VERSIONGUID
  2
{81AC8656-C49B-4CE8-8A19-9BA063C1346E}
  9
$EXTNAMES
290
     1
  9
$PSVPSCALE
 40
0.0
  9
$OLESTARTUP
290
     0
  0
ENDSEC
  0
SECTION
  2
CLASSES
  0
CLASS
  1
ACDBDICTIONARYWDFLT
  2
AcDbDictionaryWithDefault
  3
ObjectDBX Classes
 90
        0
280
     0
281
     0
  0
CLASS
  1
MATERIAL
  2
AcDbMaterial
  3
ObjectDBX Classes
 90
     1153
280
     0
281
     0
  0
CLASS
  1
VISUALSTYLE
  2
AcDbVisualStyle
  3
ObjectDBX Classes
 90
     4095
280
     0
281
     0
  0
CLASS
  1
TABLESTYLE
  2
AcDbTableStyle
  3
ObjectDBX Classes
 90
     4095
280
     0
281
     0
  0
CLASS
  1
SORTENTSTABLE
  2
AcDbSortentsTable
  3
ObjectDBX Classes
 90
        0
280
     0
281
     0
  0
CLASS
  1
DICTIONARYVAR
  2
AcDbDictionaryVar
  3
ObjectDBX Classes
 90
        0
280
     0
281
     0
  0
CLASS
  1
ACDBPLACEHOLDER
  2
AcDbPlaceHolder
  3
ObjectDBX Classes
 90
        0
280
     0
281
     0
  0
CLASS
  1
LAYOUT
  2
AcDbLayout
  3
ObjectDBX Classes
 90
        0
280
     0
281
     0
  0
CLASS
  1
SCALE
  2
AcDbScale
  3
ObjectDBX Classes
 90
     1153
280
     0
281
     0
  0
CLASS
  1
MLEADERSTYLE
  2
AcDbMLeaderStyle
  3
ACDB_MLEADERSTYLE_CLASS
 90
     4095
280
     0
281
     0
  0
CLASS
  1
CELLSTYLEMAP
  2
AcDbCellStyleMap
  3
ObjectDBX Classes
 90
     1152
280
     0
281
     0
  0
CLASS
  1
AEC_REFEDIT_STATUS_TRACKER
  2
AecDbRefEditStatusTracker
  3
AecArchBase60|Product Desc: Autodesk Architectural Desktop 2007 |Company: Autodesk,Inc. |WEB Address: www.autodesk.com
 90
      129
280
     0
281
     0
  0
CLASS
  1
NPOCOLLECTION
  2
AcDbImpNonPersistentObjectsCollection
  3
ObjectDBX Classes
 90
     1153
280
     0
281
     0
  0
ENDSEC
  0
SECTION
  2
TABLES
  0
TABLE
  2
VPORT
  5
8
330
0
100
AcDbSymbolTable
 70
     1
  0
VPORT
  5
57
330
8
100
AcDbSymbolTableRecord
100
AcDbViewportTableRecord
  2
*Active
 70
     0
 10
0.0
 20
0.0
 11
1.0
 21
1.0
 12
391.7328134806568
 22
-448.8985210405998
 13
0.0
 23
0.0
 14
1.0
 24
1.0
 15
0.0
 25
0.0
 16
0.0
 26
0.0
 36
1.0
 17
0.0
 27
0.0
 37
0.0
 40
531.095219501284
 41
1.755208333333333
 42
50.0
 43
0.0
 44
0.0
 50
0.0
 51
0.0
 71
     0
 72
   100
 73
     1
 74
     1
 75
     0
 76
     0
 77
     0
 78
     0
281
     0
 65
     1
110
0.0
120
0.0
130
0.0
111
1.0
121
0.0
131
0.0
112
0.0
122
1.0
132
0.0
 79
     0
146
0.0
  0
ENDTAB
  0
TABLE
  2
LTYPE
  5
5
330
0
100
AcDbSymbolTable
 70
     3
  0
LTYPE
  5
28
330
5
100
AcDbSymbolTableRecord
100
AcDbLinetypeTableRecord
  2
ByBlock
 70
     0
  3

 72
    65
 73
     0
 40
0.0
  0
LTYPE
  5
29
330
5
100
AcDbSymbolTableRecord
100
AcDbLinetypeTableRecord
  2
ByLayer
 70
     0
  3

 72
    65
 73
     0
 40
0.0
  0
LTYPE
  5
2A
330
5
100
AcDbSymbolTableRecord
100
AcDbLinetypeTableRecord
  2
CONTINUOUS
 70
     0
  3
Solid-line
 72
    65
 73
     0
 40
0.0
  0
LTYPE
  5
9B2
330
5
100
AcDbSymbolTableRecord
100
AcDbLinetypeTableRecord
  2
CENTER
 70
     0
  3
CENTER
 72
    65
 73
     4
 40
2.0
 49
1.25
 74
     0
 49
-0.25
 74
     0
 49
0.25
 74
     0
 49
-0.25
 74
     0
  0
ENDTAB
  0
TABLE
  2
LAYER
  5
2
102
{ACAD_XDICTIONARY
360
36B
102
}
330
0
100
AcDbSymbolTable
 70
     2
  0
LAYER
  5
25
102
{ACAD_XDICTIONARY
360
75E
102
}
330
2
100
AcDbSymbolTableRecord
100
AcDbLayerTableRecord
  2
0
 70
     0
 62
     7
  6
CONTINUOUS
370
    -3
390
F
  0
LAYER
  5
35D
330
2
100
AcDbSymbolTableRecord
100
AcDbLayerTableRecord
  2
Defpoints
 70
     0
 62
     7
  6
CONTINUOUS
290
     0
370
    -3
390
F
  0
ENDTAB
  0
TABLE
  2
STYLE
  5
3
330
0
100
AcDbSymbolTable
 70
     6
  0
STYLE
  5
26
330
3
100
AcDbSymbolTableRecord
100
AcDbTextStyleTableRecord
  2
STANDARD
 70
     0
 40
0.0
 41
1.0
 50
0.0
 71
     0
 42
0.2
  3
TXT
  4
BIGFONT
  0
STYLE
  5
35E
330
3
100
AcDbSymbolTableRecord
100
AcDbTextStyleTableRecord
  2
高3.2
 70
     0
 40
3.2
 41
1.0
 50
0.0
 71
     0
 42
3.2
  3
txt.shx
  4
bigfont.shx
  0
STYLE
  5
35F
330
3
100
AcDbSymbolTableRecord
100
AcDbTextStyleTableRecord
  2
高6.3
 70
     0
 40
6.299999999999998
 41
1.0
 50
0.0
 71
     0
 42
6.299999999999998
  3
txt.shx
  4
bigfont.shx
  0
STYLE
  5
361
330
3
100
AcDbSymbolTableRecord
100
AcDbTextStyleTableRecord
  2
高4.5
 70
     0
 40
4.5
 41
1.0
 50
0.0
 71
     0
 42
6.299999999999998
  3
txt.shx
  4
bigfont.shx
  0
STYLE
  5
5C6
330
3
100
AcDbSymbolTableRecord
100
AcDbTextStyleTableRecord
  2
高2
 70
     0
 40
2.0
 41
1.0
 50
0.0
 71
     0
 42
2.0
  3
txt.shx
  4
bigfont.shx
  0
STYLE
  5
9B3
330
3
100
AcDbSymbolTableRecord
100
AcDbTextStyleTableRecord
  2
高2.5
 70
     0
 40
2.5
 41
1.0
 50
0.0
 71
     0
 42
0.2
  3
txt.shx
  4
bigfont.shx
  0
ENDTAB
  0
TABLE
  2
VIEW
  5
6
330
0
100
AcDbSymbolTable
 70
     0
  0
ENDTAB
  0
TABLE
  2
UCS
  5
7
330
0
100
AcDbSymbolTable
 70
     0
  0
ENDTAB
  0
TABLE
  2
APPID
  5
9
330
0
100
AcDbSymbolTable
 70
    10
  0
APPID
  5
27
330
9
100
AcDbSymbolTableRecord
100
AcDbRegAppTableRecord
  2
ACAD
 70
     0
  0
APPID
  5
36A
330
9
100
AcDbSymbolTableRecord
100
AcDbRegAppTableRecord
  2
ACAD_DSTYLE_DIMJOGGED_JOGANGLE_SYMBOL
 70
     0
  0
APPID
  5
4FC
330
9
100
AcDbSymbolTableRecord
100
AcDbRegAppTableRecord
  2
ACAD_DSTYLE_DIMARC_LENGTH_SYMBOL
 70
     0
  0
APPID
  5
4FD
330
9
100
AcDbSymbolTableRecord
100
AcDbRegAppTableRecord
  2
ACAD_DSTYLE_DIMEXT_LENGTH
 70
     0
  0
APPID
  5
5C9
330
9
100
AcDbSymbolTableRecord
100
AcDbRegAppTableRecord
  2
ACAD_DSTYLE_DIMJAG
 70
     0
  0
APPID
  5
5CA
330
9
100
AcDbSymbolTableRecord
100
AcDbRegAppTableRecord
  2
ACAD_DSTYLE_DIMBREAK
 70
     0
  0
APPID
  5
5CB
330
9
100
AcDbSymbolTableRecord
100
AcDbRegAppTableRecord
  2
ACAD_DSTYLE_DIMTALN
 70
     0
  0
APPID
  5
70C
330
9
100
AcDbSymbolTableRecord
100
AcDbRegAppTableRecord
  2
ACAD_EXEMPT_FROM_CAD_STANDARDS
 70
     0
  0
APPID
  5
7A4
330
9
100
AcDbSymbolTableRecord
100
AcDbRegAppTableRecord
  2
ACAD_MLEADERVER
 70
     0
  0
APPID
  5
895
330
9
100
AcDbSymbolTableRecord
100
AcDbRegAppTableRecord
  2
ACAD_PSEXT
 70
     0
  0
ENDTAB
  0
TABLE
  2
DIMSTYLE
  5
A
330
0
100
AcDbSymbolTable
 70
     4
100
AcDbDimStyleTable
 71
     3
340
5C8
340
9B4
340
1145
  0
DIMSTYLE
105
2E5
330
A
100
AcDbSymbolTableRecord
100
AcDbDimStyleTableRecord
  2
Standard
 70
     0
340
26
  0
DIMSTYLE
105
5C8
330
A
100
AcDbSymbolTableRecord
100
AcDbDimStyleTableRecord
  2
FREE
 70
     0
 41
2.5
 42
0.25
 43
0.2
 44
1.25
 73
     0
 74
     0
 77
     3
 78
     8
 79
     2
140
3.0
141
0.0
143
0.03937007874016
147
0.625
171
     3
172
     1
178
     4
179
     1
271
     2
272
     2
274
     3
283
     0
284
     8
288
     1
289
     0
340
26
341
2E7
342
2E7
1001
ACAD_DSTYLE_DIMBREAK
1070
   391
1040
3.75
1001
ACAD_DSTYLE_DIMJAG
1070
   388
1040
1.5
1001
ACAD_DSTYLE_DIMTALN
1070
   392
1070
     0
1001
ACAD_DSTYLE_DIMARC_LENGTH_SYMBOL
1070
   379
1070
     2
1001
ACAD_DSTYLE_DIMEXT_LENGTH
1070
   378
1040
1.25
1001
ACAD_DSTYLE_DIMJOGGED_JOGANGLE_SYMBOL
1070
   384
1040
1.570796326794896
  0
DIMSTYLE
105
9B4
330
A
100
AcDbSymbolTableRecord
100
AcDbDimStyleTableRecord
  2
1／2
 70
     0
 41
2.5
 42
0.25
 43
0.2
 44
1.25
 73
     0
 74
     0
 77
     3
 78
     8
 79
     2
140
3.0
141
0.0
143
0.03937007874016
144
2.0
147
0.625
171
     3
172
     1
178
     4
179
     1
271
     2
272
     2
274
     3
283
     0
284
     8
288
     1
289
     0
340
26
341
2E7
342
2E7
1001
ACAD_DSTYLE_DIMARC_LENGTH_SYMBOL
1070
   379
1070
     2
1001
ACAD_DSTYLE_DIMEXT_LENGTH
1070
   378
1040
1.25
1001
ACAD_DSTYLE_DIMJOGGED_JOGANGLE_SYMBOL
1070
   384
1040
1.570796326794896
  0
DIMSTYLE
105
1145
330
A
100
AcDbSymbolTableRecord
100
AcDbDimStyleTableRecord
  2
1：1
 70
     0
 41
2.5
 42
0.25
 43
0.2
 44
1.25
 73
     0
 74
     0
 77
     3
 78
     8
 79
     2
140
2.5
141
0.0
143
0.03937007874016
147
0.625
171
     3
172
     1
178
     4
179
     1
271
     2
272
     2
274
     3
283
     0
284
     8
288
     1
289
     0
340
26
341
2E7
342
2E7
1001
ACAD_DSTYLE_DIMARC_LENGTH_SYMBOL
1070
   379
1070
     2
1001
ACAD_DSTYLE_DIMEXT_LENGTH
1070
   378
1040
1.25
1001
ACAD_DSTYLE_DIMJOGGED_JOGANGLE_SYMBOL
1070
   384
1040
1.570796326794896
  0
ENDTAB
  0
TABLE
  2
BLOCK_RECORD
  5
1
330
0
100
AcDbSymbolTable
 70
    26
  0
BLOCK_RECORD
  5
36
102
{ACAD_XDICTIONARY
360
4BE
102
}
330
1
100
AcDbSymbolTableRecord
100
AcDbBlockTableRecord
  2
*Model_Space
340
39
  0
BLOCK_RECORD
  5
32
330
1
100
AcDbSymbolTableRecord
100
AcDbBlockTableRecord
  2
*Paper_Space
340
35
  0
BLOCK_RECORD
  5
2E7
330
1
100
AcDbSymbolTableRecord
100
AcDbBlockTableRecord
  2
_Open30
340
0
102
{BLKREFS
331
975
331
976
331
98D
331
98E
331
981
331
982
331
99B
331
99C
331
9A7
331
9A8
331
EDB
331
EDC
331
EE4
331
EE5
331
EED
331
EEE
331
EF6
331
EF7
331
EFF
331
F00
331
10BC
331
10BD
331
10C5
331
10C6
331
10CE
331
10CF
331
10D9
331
10DA
331
113E
331
113F
331
1317
331
1318
331
1552
331
1553
331
155B
331
155C
331
1564
331
1565
331
156D
331
156E
331
1578
331
1579
331
16F2
331
16F3
331
16FB
331
16FC
331
1704
331
1705
102
}
  0
BLOCK_RECORD
  5
463
330
1
100
AcDbSymbolTableRecord
100
AcDbBlockTableRecord
  2
*D1
340
0
  0
BLOCK_RECORD
  5
481
330
1
100
AcDbSymbolTableRecord
100
AcDbBlockTableRecord
  2
*D2
340
0
  0
BLOCK_RECORD
  5
49F
330
1
100
AcDbSymbolTableRecord
100
AcDbBlockTableRecord
  2
*D3
340
0
  0
BLOCK_RECORD
  5
970
330
1
100
AcDbSymbolTableRecord
100
AcDbBlockTableRecord
  2
*D4
340
0
  0
BLOCK_RECORD
  5
97C
330
1
100
AcDbSymbolTableRecord
100
AcDbBlockTableRecord
  2
*D5
340
0
  0
BLOCK_RECORD
  5
988
330
1
100
AcDbSymbolTableRecord
100
AcDbBlockTableRecord
  2
*D6
340
0
  0
BLOCK_RECORD
  5
994
330
1
100
AcDbSymbolTableRecord
100
AcDbBlockTableRecord
  2
*D7
340
0
  0
BLOCK_RECORD
  5
9A2
330
1
100
AcDbSymbolTableRecord
100
AcDbBlockTableRecord
  2
*D8
340
0
  0
BLOCK_RECORD
  5
9AE
330
1
100
AcDbSymbolTableRecord
100
AcDbBlockTableRecord
  2
_DotSmall
340
0
  0
BLOCK_RECORD
  5
E98
330
1
100
AcDbSymbolTableRecord
100
AcDbBlockTableRecord
  2
*D10
340
0
  0
BLOCK_RECORD
  5
EA6
330
1
100
AcDbSymbolTableRecord
100
AcDbBlockTableRecord
  2
*D11
340
0
  0
BLOCK_RECORD
  5
EB2
330
1
100
AcDbSymbolTableRecord
100
AcDbBlockTableRecord
  2
*D12
340
0
  0
BLOCK_RECORD
  5
EBE
330
1
100
AcDbSymbolTableRecord
100
AcDbBlockTableRecord
  2
*D13
340
0
  0
BLOCK_RECORD
  5
ECA
330
1
100
AcDbSymbolTableRecord
100
AcDbBlockTableRecord
  2
*D14
340
0
  0
BLOCK_RECORD
  5
F65
330
1
100
AcDbSymbolTableRecord
100
AcDbBlockTableRecord
  2
*D15
340
0
  0
BLOCK_RECORD
  5
F72
330
1
100
AcDbSymbolTableRecord
100
AcDbBlockTableRecord
  2
*D16
340
0
  0
BLOCK_RECORD
  5
105F
330
1
100
AcDbSymbolTableRecord
100
AcDbBlockTableRecord
  2
*D17
340
0
  0
BLOCK_RECORD
  5
106B
330
1
100
AcDbSymbolTableRecord
100
AcDbBlockTableRecord
  2
*D18
340
0
  0
BLOCK_RECORD
  5
1079
330
1
100
AcDbSymbolTableRecord
100
AcDbBlockTableRecord
  2
*D19
340
0
  0
BLOCK_RECORD
  5
1085
330
1
100
AcDbSymbolTableRecord
100
AcDbBlockTableRecord
  2
*D20
340
0
  0
BLOCK_RECORD
  5
1137
330
1
100
AcDbSymbolTableRecord
100
AcDbBlockTableRecord
  2
*D21
340
0
  0
BLOCK_RECORD
  5
1304
330
1
100
AcDbSymbolTableRecord
100
AcDbBlockTableRecord
  2
*D22
340
0
  0
BLOCK_RECORD
  5
1500
330
1
100
AcDbSymbolTableRecord
100
AcDbBlockTableRecord
  2
*D23
340
0
  0
BLOCK_RECORD
  5
150D
330
1
100
AcDbSymbolTableRecord
100
AcDbBlockTableRecord
  2
*D24
340
0
  0
BLOCK_RECORD
  5
151A
330
1
100
AcDbSymbolTableRecord
100
AcDbBlockTableRecord
  2
*D25
340
0
  0
ENDTAB
  0
ENDSEC
  0
SECTION
  2
BLOCKS
  0
BLOCK
  5
37
330
36
100
AcDbEntity
  8
0
100
AcDbBlockBegin
  2
*Model_Space
 70
     0
 10
0.0
 20
0.0
 30
0.0
  3
*Model_Space
  1

  0
ENDBLK
  5
38
330
36
100
AcDbEntity
  8
0
100
AcDbBlockEnd
  0
BLOCK
  5
33
330
32
100
AcDbEntity
 67
     1
  8
0
100
AcDbBlockBegin
  2
*Paper_Space
 70
     0
 10
0.0
 20
0.0
 30
0.0
  3
*Paper_Space
  1

  0
ENDBLK
  5
34
330
32
100
AcDbEntity
 67
     1
  8
0
100
AcDbBlockEnd
  0
BLOCK
  5
2E8
330
2E7
100
AcDbEntity
  8
0
100
AcDbBlockBegin
  2
_Open30
 70
     0
 10
0.0
 20
0.0
 30
0.0
  3
_Open30
  1

  0
LINE
  5
2E9
330
2E7
100
AcDbEntity
  8
0
  6
ByBlock
 62
     0
370
    -2
100
AcDbLine
 10
-1.0
 20
0.267949
 30
0.0
 11
0.0
 21
0.0
 31
0.0
  0
LINE
  5
2EA
330
2E7
100
AcDbEntity
  8
0
  6
ByBlock
 62
     0
370
    -2
100
AcDbLine
 10
0.0
 20
0.0
 30
0.0
 11
-1.0
 21
-0.267949
 31
0.0
  0
LINE
  5
2EB
330
2E7
100
AcDbEntity
  8
0
  6
ByBlock
 62
     0
370
    -2
100
AcDbLine
 10
0.0
 20
0.0
 30
0.0
 11
-1.0
 21
0.0
 31
0.0
  0
ENDBLK
  5
2EC
330
2E7
100
AcDbEntity
  8
0
100
AcDbBlockEnd
  0
BLOCK
  5
46D
330
463
100
AcDbEntity
  8
0
100
AcDbBlockBegin
  2
*D1
 70
     1
 10
0.0
 20
0.0
 30
0.0
  3
*D1
  1

  0
LINE
  5
1561
330
463
100
AcDbEntity
  8
0
 62
     0
370
    -2
100
AcDbLine
 10
-327.273156
 20
-492.551365
 30
0.0
 11
-327.273156
 21
-505.412709
 31
0.0
  0
LINE
  5
1562
330
463
100
AcDbEntity
  8
0
 62
     0
370
    -2
100
AcDbLine
 10
-211.273156
 20
-492.551365
 30
0.0
 11
-211.273156
 21
-505.412709
 31
0.0
  0
LINE
  5
1563
330
463
100
AcDbEntity
  8
0
 62
     0
370
    -2
100
AcDbLine
 10
-324.773156
 20
-504.162709
 30
0.0
 11
-213.773156
 21
-504.162709
 31
0.0
  0
INSERT
  5
1564
330
463
100
AcDbEntity
  8
0
 62
     0
370
    -2
100
AcDbBlockReference
  2
_Open30
 10
-327.273156
 20
-504.162709
 30
0.0
 41
2.5
 42
2.5
 43
2.5
 50
180.0
  0
INSERT
  5
1565
330
463
100
AcDbEntity
  8
0
 62
     0
370
    -2
100
AcDbBlockReference
  2
_Open30
 10
-211.273156
 20
-504.162709
 30
0.0
 41
2.5
 42
2.5
 43
2.5
  0
MTEXT
  5
1566
330
463
100
AcDbEntity
  8
0
 62
     4
100
AcDbMText
 10
-269.273156
 20
-502.037709
 30
0.0
 40
3.0
 41
0.0
 71
     5
 72
     1
  1
250
 73
     1
 44
1.0
1001
ACAD
1000
MTEXTBEGIN
1070
    73
1070
     1
1070
    44
1040
1.0
1070
    74
1070
     0
1000
MTEXTEND
  0
POINT
  5
1567
330
463
100
AcDbEntity
  8
Defpoints
 62
     0
100
AcDbPoint
 10
-327.273156
 20
-492.301365
 30
0.0
  0
POINT
  5
1568
330
463
100
AcDbEntity
  8
Defpoints
 62
     0
100
AcDbPoint
 10
-211.273156
 20
-492.301365
 30
0.0
  0
POINT
  5
1569
330
463
100
AcDbEntity
  8
Defpoints
 62
     0
100
AcDbPoint
 10
-211.273156
 20
-504.162709
 30
0.0
  0
ENDBLK
  5
46E
330
463
100
AcDbEntity
  8
0
100
AcDbBlockEnd
  0
BLOCK
  5
48B
330
481
100
AcDbEntity
  8
0
100
AcDbBlockBegin
  2
*D2
 70
     1
 10
0.0
 20
0.0
 30
0.0
  3
*D2
  1

  0
LINE
  5
1558
330
481
100
AcDbEntity
  8
0
 62
     0
370
    -2
100
AcDbLine
 10
-223.648156
 20
-497.551365
 30
0.0
 11
-198.603206
 21
-497.551365
 31
0.0
  0
LINE
  5
1559
330
481
100
AcDbEntity
  8
0
 62
     0
370
    -2
100
AcDbLine
 10
-269.023156
 20
-400.051365
 30
0.0
 11
-198.603206
 21
-400.051365
 31
0.0
  0
LINE
  5
155A
330
481
100
AcDbEntity
  8
0
 62
     0
370
    -2
100
AcDbLine
 10
-199.853206
 20
-495.051365
 30
0.0
 11
-199.853206
 21
-402.5513649999998
 31
0.0
  0
INSERT
  5
155B
330
481
100
AcDbEntity
  8
0
 62
     0
370
    -2
100
AcDbBlockReference
  2
_Open30
 10
-199.853206
 20
-497.551365
 30
0.0
 41
2.5
 42
2.5
 43
2.5
 50
270.0
  0
INSERT
  5
155C
330
481
100
AcDbEntity
  8
0
 62
     0
370
    -2
100
AcDbBlockReference
  2
_Open30
 10
-199.853206
 20
-400.051365
 30
0.0
 41
2.5
 42
2.5
 43
2.5
 50
90.0
  0
MTEXT
  5
155D
330
481
100
AcDbEntity
  8
0
 62
     4
100
AcDbMText
 10
-201.9782059999999
 20
-448.801365
 30
0.0
 40
3.0
 41
0.0
 71
     5
 72
     1
  1
240
 11
0.0000000000000001
 21
1.0
 31
0.0
 73
     1
 44
1.0
1001
ACAD
1000
MTEXTBEGIN
1070
    73
1070
     1
1070
    44
1040
1.0
1070
    74
1070
     0
1000
MTEXTEND
  0
POINT
  5
155E
330
481
100
AcDbEntity
  8
Defpoints
 62
     0
100
AcDbPoint
 10
-223.898156
 20
-497.551365
 30
0.0
  0
POINT
  5
155F
330
481
100
AcDbEntity
  8
Defpoints
 62
     0
100
AcDbPoint
 10
-269.273156
 20
-400.051365
 30
0.0
  0
POINT
  5
1560
330
481
100
AcDbEntity
  8
Defpoints
 62
     0
100
AcDbPoint
 10
-199.853206
 20
-400.051365
 30
0.0
  0
ENDBLK
  5
48C
330
481
100
AcDbEntity
  8
0
100
AcDbBlockEnd
  0
BLOCK
  5
4A9
330
49F
100
AcDbEntity
  8
0
100
AcDbBlockBegin
  2
*D3
 70
     1
 10
0.0
 20
0.0
 30
0.0
  3
*D3
  1

  0
LINE
  5
154F
330
49F
100
AcDbEntity
  8
0
 62
     0
370
    -2
100
AcDbLine
 10
-178.179656
 20
-486.551365
 30
0.0
 11
-178.179656
 21
-505.412709
 31
0.0
  0
LINE
  5
1550
330
49F
100
AcDbEntity
  8
0
 62
     0
370
    -2
100
AcDbLine
 10
-33.24215600000002
 20
-492.551365
 30
0.0
 11
-33.24215600000002
 21
-505.412709
 31
0.0
  0
LINE
  5
1551
330
49F
100
AcDbEntity
  8
0
 62
     0
370
    -2
100
AcDbLine
 10
-175.679656
 20
-504.162709
 30
0.0
 11
-35.74215600000002
 21
-504.162709
 31
0.0
  0
INSERT
  5
1552
330
49F
100
AcDbEntity
  8
0
 62
     0
370
    -2
100
AcDbBlockReference
  2
_Open30
 10
-178.179656
 20
-504.162709
 30
0.0
 41
2.5
 42
2.5
 43
2.5
 50
180.0
  0
INSERT
  5
1553
330
49F
100
AcDbEntity
  8
0
 62
     0
370
    -2
100
AcDbBlockReference
  2
_Open30
 10
-33.24215600000002
 20
-504.162709
 30
0.0
 41
2.5
 42
2.5
 43
2.5
  0
MTEXT
  5
1554
330
49F
100
AcDbEntity
  8
0
 62
     4
100
AcDbMText
 10
-105.710906
 20
-502.037709
 30
0.0
 40
3.0
 41
0.0
 71
     5
 72
     1
  1
290
 73
     1
 44
1.0
1001
ACAD
1000
MTEXTBEGIN
1070
    73
1070
     1
1070
    44
1040
1.0
1070
    74
1070
     0
1000
MTEXTEND
  0
POINT
  5
1555
330
49F
100
AcDbEntity
  8
Defpoints
 62
     0
100
AcDbPoint
 10
-178.179656
 20
-486.301365
 30
0.0
  0
POINT
  5
1556
330
49F
100
AcDbEntity
  8
Defpoints
 62
     0
100
AcDbPoint
 10
-33.24215600000002
 20
-492.301365
 30
0.0
  0
POINT
  5
1557
330
49F
100
AcDbEntity
  8
Defpoints
 62
     0
100
AcDbPoint
 10
-33.24215600000002
 20
-504.162709
 30
0.0
  0
ENDBLK
  5
4AA
330
49F
100
AcDbEntity
  8
0
100
AcDbBlockEnd
  0
BLOCK
  5
971
330
970
100
AcDbEntity
  8
0
100
AcDbBlockBegin
  2
*D4
 70
     1
 10
0.0
 20
0.0
 30
0.0
  3
*D4
  1

  0
LINE
  5
972
330
970
100
AcDbEntity
  8
0
 62
     0
370
    -2
100
AcDbLine
 10
197.423779
 20
-475.3326849999998
 30
0.0
 11
197.423779
 21
-494.1940289999998
 31
0.0
  0
LINE
  5
973
330
970
100
AcDbEntity
  8
0
 62
     0
370
    -2
100
AcDbLine
 10
342.361279
 20
-481.3326849999998
 30
0.0
 11
342.361279
 21
-494.1940289999998
 31
0.0
  0
LINE
  5
974
330
970
100
AcDbEntity
  8
0
 62
     0
370
    -2
100
AcDbLine
 10
199.923779
 20
-492.944029
 30
0.0
 11
339.861279
 21
-492.944029
 31
0.0
  0
INSERT
  5
975
330
970
100
AcDbEntity
  8
0
 62
     0
370
    -2
100
AcDbBlockReference
  2
_Open30
 10
197.423779
 20
-492.944029
 30
0.0
 41
2.5
 42
2.5
 43
2.5
 50
180.0
  0
INSERT
  5
976
330
970
100
AcDbEntity
  8
0
 62
     0
370
    -2
100
AcDbBlockReference
  2
_Open30
 10
342.361279
 20
-492.944029
 30
0.0
 41
2.5
 42
2.5
 43
2.5
  0
MTEXT
  5
977
330
970
100
AcDbEntity
  8
0
 62
     4
100
AcDbMText
 10
269.892529
 20
-490.819029
 30
0.0
 40
3.0
 41
0.0
 71
     5
 72
     1
  1
290
 73
     1
 44
1.0
1001
ACAD
1000
MTEXTBEGIN
1070
    73
1070
     1
1070
    44
1040
1.0
1070
    74
1070
     0
1000
MTEXTEND
  0
POINT
  5
978
330
970
100
AcDbEntity
  8
Defpoints
 62
     0
100
AcDbPoint
 10
197.423779
 20
-475.082685
 30
0.0
  0
POINT
  5
979
330
970
100
AcDbEntity
  8
Defpoints
 62
     0
100
AcDbPoint
 10
342.361279
 20
-481.0826849999998
 30
0.0
  0
POINT
  5
97A
330
970
100
AcDbEntity
  8
Defpoints
 62
     0
100
AcDbPoint
 10
342.361279
 20
-492.944029
 30
0.0
  0
ENDBLK
  5
97B
330
970
100
AcDbEntity
  8
0
100
AcDbBlockEnd
  0
BLOCK
  5
97D
330
97C
100
AcDbEntity
  8
0
100
AcDbBlockBegin
  2
*D5
 70
     1
 10
0.0
 20
0.0
 30
0.0
  3
*D5
  1

  0
LINE
  5
97E
330
97C
100
AcDbEntity
  8
0
 62
     0
370
    -2
100
AcDbLine
 10
75.330279
 20
-481.3326849999998
 30
0.0
 11
75.330279
 21
-494.704599
 31
0.0
  0
LINE
  5
97F
330
97C
100
AcDbEntity
  8
0
 62
     0
370
    -2
100
AcDbLine
 10
165.330279
 20
-481.3326849999998
 30
0.0
 11
165.330279
 21
-494.704599
 31
0.0
  0
LINE
  5
980
330
97C
100
AcDbEntity
  8
0
 62
     0
370
    -2
100
AcDbLine
 10
77.830279
 20
-493.454599
 30
0.0
 11
162.830279
 21
-493.454599
 31
0.0
  0
INSERT
  5
981
330
97C
100
AcDbEntity
  8
0
 62
     0
370
    -2
100
AcDbBlockReference
  2
_Open30
 10
75.330279
 20
-493.454599
 30
0.0
 41
2.5
 42
2.5
 43
2.5
 50
180.0
  0
INSERT
  5
982
330
97C
100
AcDbEntity
  8
0
 62
     0
370
    -2
100
AcDbBlockReference
  2
_Open30
 10
165.330279
 20
-493.454599
 30
0.0
 41
2.5
 42
2.5
 43
2.5
  0
MTEXT
  5
983
330
97C
100
AcDbEntity
  8
0
 62
     4
100
AcDbMText
 10
120.330279
 20
-491.329599
 30
0.0
 40
3.0
 41
0.0
 71
     5
 72
     1
  1
190
 73
     1
 44
1.0
1001
ACAD
1000
MTEXTBEGIN
1070
    73
1070
     1
1070
    44
1040
1.0
1070
    74
1070
     0
1000
MTEXTEND
  0
POINT
  5
984
330
97C
100
AcDbEntity
  8
Defpoints
 62
     0
100
AcDbPoint
 10
75.330279
 20
-481.0826849999998
 30
0.0
  0
POINT
  5
985
330
97C
100
AcDbEntity
  8
Defpoints
 62
     0
100
AcDbPoint
 10
165.330279
 20
-481.0826849999998
 30
0.0
  0
POINT
  5
986
330
97C
100
AcDbEntity
  8
Defpoints
 62
     0
100
AcDbPoint
 10
165.330279
 20
-493.454599
 30
0.0
  0
ENDBLK
  5
987
330
97C
100
AcDbEntity
  8
0
100
AcDbBlockEnd
  0
BLOCK
  5
989
330
988
100
AcDbEntity
  8
0
100
AcDbBlockBegin
  2
*D6
 70
     1
 10
0.0
 20
0.0
 30
0.0
  3
*D6
  1

  0
LINE
  5
98A
330
988
100
AcDbEntity
  8
0
 62
     0
370
    -2
100
AcDbLine
 10
150.955279
 20
-486.3326849999999
 30
0.0
 11
179.4226129999999
 21
-486.3326849999999
 31
0.0
  0
LINE
  5
98B
330
988
100
AcDbEntity
  8
0
 62
     0
370
    -2
100
AcDbLine
 10
117.793907
 20
-388.832685
 30
0.0
 11
179.422613
 21
-388.8326850000002
 31
0.0
  0
LINE
  5
98C
330
988
100
AcDbEntity
  8
0
 62
     0
370
    -2
100
AcDbLine
 10
178.1726129999999
 20
-483.8326849999998
 30
0.0
 11
178.172613
 21
-391.3326850000002
 31
0.0
  0
INSERT
  5
98D
330
988
100
AcDbEntity
  8
0
 62
     0
370
    -2
100
AcDbBlockReference
  2
_Open30
 10
178.1726129999999
 20
-486.3326849999999
 30
0.0
 41
2.5
 42
2.5
 43
2.5
 50
270.0
  0
INSERT
  5
98E
330
988
100
AcDbEntity
  8
0
 62
     0
370
    -2
100
AcDbBlockReference
  2
_Open30
 10
178.172613
 20
-388.8326850000002
 30
0.0
 41
2.5
 42
2.5
 43
2.5
 50
90.0
  0
MTEXT
  5
98F
330
988
100
AcDbEntity
  8
0
 62
     4
100
AcDbMText
 10
176.0476129999999
 20
-437.5826849999998
 30
0.0
 40
3.0
 41
0.0
 71
     5
 72
     1
  1
195
 11
0.0000000000000001
 21
1.0
 31
0.0
 73
     1
 44
1.0
1001
ACAD
1000
MTEXTBEGIN
1070
    73
1070
     1
1070
    44
1040
1.0
1070
    74
1070
     0
1000
MTEXTEND
  0
POINT
  5
990
330
988
100
AcDbEntity
  8
Defpoints
 62
     0
100
AcDbPoint
 10
150.705279
 20
-486.3326849999999
 30
0.0
  0
POINT
  5
991
330
988
100
AcDbEntity
  8
Defpoints
 62
     0
100
AcDbPoint
 10
117.543907
 20
-388.832685
 30
0.0
  0
POINT
  5
992
330
988
100
AcDbEntity
  8
Defpoints
 62
     0
100
AcDbPoint
 10
178.172613
 20
-388.8326850000002
 30
0.0
  0
ENDBLK
  5
993
330
988
100
AcDbEntity
  8
0
100
AcDbBlockEnd
  0
BLOCK
  5
995
330
994
100
AcDbEntity
  8
0
100
AcDbBlockBegin
  2
*D7
 70
     1
 10
0.0
 20
0.0
 30
0.0
  3
*D7
  1

  0
LINE
  5
996
330
994
100
AcDbEntity
  8
0
  6
Continuous
 62
     0
370
    -2
100
AcDbLine
 10
397.5974603196843
 20
-437.271485861734
 30
0.0
 11
397.5974603196843
 21
-451.6815125691196
 31
0.0
  0
LINE
  5
997
330
994
100
AcDbEntity
  8
0
  6
Continuous
 62
     0
370
    -2
100
AcDbLine
 10
375.8974603196842
 20
-437.271485861734
 30
0.0
 11
375.8974603196842
 21
-451.6815125691196
 31
0.0
  0
LINE
  5
998
330
994
100
AcDbEntity
  8
0
  6
Continuous
 62
     0
370
    -2
100
AcDbLine
 10
400.0974603196842
 20
-450.4315125691197
 30
0.0
 11
402.5974603196842
 21
-450.4315125691197
 31
0.0
  0
LINE
  5
999
330
994
100
AcDbEntity
  8
0
  6
Continuous
 62
     0
370
    -2
100
AcDbLine
 10
373.3974603196842
 20
-450.4315125691197
 30
0.0
 11
357.6474603196842
 21
-450.4315125691197
 31
0.0
  0
LINE
  5
99A
330
994
100
AcDbEntity
  8
0
  6
Continuous
 62
     0
370
    -2
100
AcDbLine
 10
397.5974603196843
 20
-450.4315125691197
 30
0.0
 11
375.8974603196842
 21
-450.4315125691197
 31
0.0
  0
INSERT
  5
99B
330
994
100
AcDbEntity
  8
0
  6
Continuous
 62
     0
370
    -2
100
AcDbBlockReference
  2
_Open30
 10
397.5974603196843
 20
-450.4315125691197
 30
0.0
 41
2.5
 42
2.5
 43
2.5
 50
180.0
  0
INSERT
  5
99C
330
994
100
AcDbEntity
  8
0
  6
Continuous
 62
     0
370
    -2
100
AcDbBlockReference
  2
_Open30
 10
375.8974603196842
 20
-450.4315125691197
 30
0.0
 41
2.5
 42
2.5
 43
2.5
  0
MTEXT
  5
99D
330
994
100
AcDbEntity
  8
0
  6
Continuous
 62
     4
100
AcDbMText
 10
364.2724603196842
 20
-448.3065125691195
 30
0.0
 40
3.0
 41
0.0
 71
     5
 72
     1
  1
%%C43.4
 73
     1
 44
1.0
1001
ACAD
1000
MTEXTBEGIN
1070
    73
1070
     1
1070
    44
1040
1.0
1070
    74
1070
     0
1000
MTEXTEND
  0
POINT
  5
99E
330
994
100
AcDbEntity
  8
Defpoints
  6
Continuous
 62
     0
100
AcDbPoint
 10
397.5974603196843
 20
-437.0214858617338
 30
0.0
  0
POINT
  5
99F
330
994
100
AcDbEntity
  8
Defpoints
  6
Continuous
 62
     0
100
AcDbPoint
 10
375.8974603196842
 20
-437.0214858617338
 30
0.0
  0
POINT
  5
9A0
330
994
100
AcDbEntity
  8
Defpoints
  6
Continuous
 62
     0
100
AcDbPoint
 10
375.8974603196842
 20
-450.4315125691197
 30
0.0
  0
ENDBLK
  5
9A1
330
994
100
AcDbEntity
  8
0
100
AcDbBlockEnd
  0
BLOCK
  5
9A3
330
9A2
100
AcDbEntity
  8
0
100
AcDbBlockBegin
  2
*D8
 70
     1
 10
0.0
 20
0.0
 30
0.0
  3
*D8
  1

  0
LINE
  5
9A4
330
9A2
100
AcDbEntity
  8
0
  6
Continuous
 62
     0
370
    -2
100
AcDbLine
 10
397.8474603196843
 20
-437.0214858617338
 30
0.0
 11
407.7108240913315
 21
-437.0214858617338
 31
0.0
  0
LINE
  5
9A5
330
9A2
100
AcDbEntity
  8
0
  6
Continuous
 62
     0
370
    -2
100
AcDbLine
 10
392.7474603196842
 20
-414.021485861734
 30
0.0
 11
407.7108240913315
 21
-414.021485861734
 31
0.0
  0
LINE
  5
9A6
330
9A2
100
AcDbEntity
  8
0
  6
Continuous
 62
     0
370
    -2
100
AcDbLine
 10
406.4608240913313
 20
-434.521485861734
 30
0.0
 11
406.4608240913313
 21
-416.5214858617338
 31
0.0
  0
INSERT
  5
9A7
330
9A2
100
AcDbEntity
  8
0
  6
Continuous
 62
     0
370
    -2
100
AcDbBlockReference
  2
_Open30
 10
406.4608240913313
 20
-437.0214858617338
 30
0.0
 41
2.5
 42
2.5
 43
2.5
 50
270.0
  0
INSERT
  5
9A8
330
9A2
100
AcDbEntity
  8
0
  6
Continuous
 62
     0
370
    -2
100
AcDbBlockReference
  2
_Open30
 10
406.4608240913313
 20
-414.021485861734
 30
0.0
 41
2.5
 42
2.5
 43
2.5
 50
90.0
  0
MTEXT
  5
9A9
330
9A2
100
AcDbEntity
  8
0
  6
Continuous
 62
     4
100
AcDbMText
 10
404.3358240913313
 20
-425.0981228287023
 30
0.0
 40
3.0
 41
0.0
 71
     5
 72
     1
  1
46
 11
0.0000000000000001
 21
1.0
 31
0.0
 73
     1
 44
1.0
1001
ACAD
1000
MTEXTBEGIN
1070
    73
1070
     1
1070
    44
1040
1.0
1070
    74
1070
     0
1000
MTEXTEND
  0
POINT
  5
9AA
330
9A2
100
AcDbEntity
  8
Defpoints
  6
Continuous
 62
     0
100
AcDbPoint
 10
397.5974603196843
 20
-437.0214858617338
 30
0.0
  0
POINT
  5
9AB
330
9A2
100
AcDbEntity
  8
Defpoints
  6
Continuous
 62
     0
100
AcDbPoint
 10
392.4974603196842
 20
-414.021485861734
 30
0.0
  0
POINT
  5
9AC
330
9A2
100
AcDbEntity
  8
Defpoints
  6
Continuous
 62
     0
100
AcDbPoint
 10
406.4608240913313
 20
-414.021485861734
 30
0.0
  0
ENDBLK
  5
9AD
330
9A2
100
AcDbEntity
  8
0
100
AcDbBlockEnd
  0
BLOCK
  5
9AF
330
9AE
100
AcDbEntity
  8
0
100
AcDbBlockBegin
  2
_DotSmall
 70
     0
 10
0.0
 20
0.0
 30
0.0
  3
_DotSmall
  1

  0
LWPOLYLINE
  5
9B0
330
9AE
100
AcDbEntity
  8
0
  6
ByBlock
 62
     0
100
AcDbPolyline
 90
        2
 70
     1
 43
0.5
 10
-0.0625
 20
0.0
 42
1.0
 10
0.0625
 20
0.0
 42
1.0
  0
ENDBLK
  5
9B1
330
9AE
100
AcDbEntity
  8
0
100
AcDbBlockEnd
  0
BLOCK
  5
E99
330
E98
100
AcDbEntity
  8
0
100
AcDbBlockBegin
  2
*D10
 70
     1
 10
0.0
 20
0.0
 30
0.0
  3
*D10
  1

  0
LINE
  5
ED6
330
E98
100
AcDbEntity
  8
0
  6
Continuous
 62
     0
370
    -2
100
AcDbLine
 10
881.6379570735076
 20
-438.6837661947366
 30
0.0
 11
881.6379570735076
 21
-453.0937929021221
 31
0.0
  0
LINE
  5
ED7
330
E98
100
AcDbEntity
  8
0
  6
Continuous
 62
     0
370
    -2
100
AcDbLine
 10
859.9379570735075
 20
-438.6837661947366
 30
0.0
 11
859.9379570735075
 21
-453.0937929021221
 31
0.0
  0
LINE
  5
ED8
330
E98
100
AcDbEntity
  8
0
  6
Continuous
 62
     0
370
    -2
100
AcDbLine
 10
884.1379570735076
 20
-451.8437929021221
 30
0.0
 11
886.6379570735077
 21
-451.8437929021221
 31
0.0
  0
LINE
  5
ED9
330
E98
100
AcDbEntity
  8
0
  6
Continuous
 62
     0
370
    -2
100
AcDbLine
 10
857.4379570735075
 20
-451.8437929021221
 30
0.0
 11
841.6879570735076
 21
-451.8437929021221
 31
0.0
  0
LINE
  5
EDA
330
E98
100
AcDbEntity
  8
0
  6
Continuous
 62
     0
370
    -2
100
AcDbLine
 10
881.6379570735076
 20
-451.8437929021221
 30
0.0
 11
859.9379570735075
 21
-451.8437929021221
 31
0.0
  0
INSERT
  5
EDB
330
E98
100
AcDbEntity
  8
0
  6
Continuous
 62
     0
370
    -2
100
AcDbBlockReference
  2
_Open30
 10
881.6379570735076
 20
-451.8437929021221
 30
0.0
 41
2.5
 42
2.5
 43
2.5
 50
180.0
  0
INSERT
  5
EDC
330
E98
100
AcDbEntity
  8
0
  6
Continuous
 62
     0
370
    -2
100
AcDbBlockReference
  2
_Open30
 10
859.9379570735075
 20
-451.8437929021221
 30
0.0
 41
2.5
 42
2.5
 43
2.5
  0
MTEXT
  5
EDD
330
E98
100
AcDbEntity
  8
0
  6
Continuous
 62
     4
100
AcDbMText
 10
848.3129570735076
 20
-449.7187929021221
 30
0.0
 40
3.0
 41
0.0
 71
     5
 72
     1
  1
%%C43.4
 73
     1
 44
1.0
1001
ACAD
1000
MTEXTBEGIN
1070
    73
1070
     1
1070
    44
1040
1.0
1070
    74
1070
     0
1000
MTEXTEND
  0
POINT
  5
EDE
330
E98
100
AcDbEntity
  8
Defpoints
  6
Continuous
 62
     0
100
AcDbPoint
 10
881.6379570735076
 20
-438.4337661947363
 30
0.0
  0
POINT
  5
EDF
330
E98
100
AcDbEntity
  8
Defpoints
  6
Continuous
 62
     0
100
AcDbPoint
 10
859.9379570735075
 20
-438.4337661947363
 30
0.0
  0
POINT
  5
EE0
330
E98
100
AcDbEntity
  8
Defpoints
  6
Continuous
 62
     0
100
AcDbPoint
 10
859.9379570735075
 20
-451.8437929021221
 30
0.0
  0
ENDBLK
  5
E9A
330
E98
100
AcDbEntity
  8
0
100
AcDbBlockEnd
  0
BLOCK
  5
EA7
330
EA6
100
AcDbEntity
  8
0
100
AcDbBlockBegin
  2
*D11
 70
     1
 10
0.0
 20
0.0
 30
0.0
  3
*D11
  1

  0
LINE
  5
EE1
330
EA6
100
AcDbEntity
  8
0
  6
Continuous
 62
     0
370
    -2
100
AcDbLine
 10
881.8879570735076
 20
-438.4337661947363
 30
0.0
 11
891.7513208451547
 21
-438.4337661947363
 31
0.0
  0
LINE
  5
EE2
330
EA6
100
AcDbEntity
  8
0
  6
Continuous
 62
     0
370
    -2
100
AcDbLine
 10
876.7879570735075
 20
-415.4337661947365
 30
0.0
 11
891.7513208451547
 21
-415.4337661947365
 31
0.0
  0
LINE
  5
EE3
330
EA6
100
AcDbEntity
  8
0
  6
Continuous
 62
     0
370
    -2
100
AcDbLine
 10
890.5013208451547
 20
-435.9337661947365
 30
0.0
 11
890.5013208451547
 21
-417.9337661947363
 31
0.0
  0
INSERT
  5
EE4
330
EA6
100
AcDbEntity
  8
0
  6
Continuous
 62
     0
370
    -2
100
AcDbBlockReference
  2
_Open30
 10
890.5013208451547
 20
-438.4337661947363
 30
0.0
 41
2.5
 42
2.5
 43
2.5
 50
270.0
  0
INSERT
  5
EE5
330
EA6
100
AcDbEntity
  8
0
  6
Continuous
 62
     0
370
    -2
100
AcDbBlockReference
  2
_Open30
 10
890.5013208451547
 20
-415.4337661947365
 30
0.0
 41
2.5
 42
2.5
 43
2.5
 50
90.0
  0
MTEXT
  5
EE6
330
EA6
100
AcDbEntity
  8
0
  6
Continuous
 62
     4
100
AcDbMText
 10
888.3763208451549
 20
-426.5104031617046
 30
0.0
 40
3.0
 41
0.0
 71
     5
 72
     1
  1
46
 11
0.0000000000000001
 21
1.0
 31
0.0
 73
     1
 44
1.0
1001
ACAD
1000
MTEXTBEGIN
1070
    73
1070
     1
1070
    44
1040
1.0
1070
    74
1070
     0
1000
MTEXTEND
  0
POINT
  5
EE7
330
EA6
100
AcDbEntity
  8
Defpoints
  6
Continuous
 62
     0
100
AcDbPoint
 10
881.6379570735076
 20
-438.4337661947363
 30
0.0
  0
POINT
  5
EE8
330
EA6
100
AcDbEntity
  8
Defpoints
  6
Continuous
 62
     0
100
AcDbPoint
 10
876.5379570735076
 20
-415.4337661947365
 30
0.0
  0
POINT
  5
EE9
330
EA6
100
AcDbEntity
  8
Defpoints
  6
Continuous
 62
     0
100
AcDbPoint
 10
890.5013208451547
 20
-415.4337661947365
 30
0.0
  0
ENDBLK
  5
EA8
330
EA6
100
AcDbEntity
  8
0
100
AcDbBlockEnd
  0
BLOCK
  5
EB3
330
EB2
100
AcDbEntity
  8
0
100
AcDbBlockBegin
  2
*D12
 70
     1
 10
0.0
 20
0.0
 30
0.0
  3
*D12
  1

  0
LINE
  5
EEA
330
EB2
100
AcDbEntity
  8
0
 62
     0
370
    -2
100
AcDbLine
 10
681.4642757538234
 20
-476.7449653330023
 30
0.0
 11
681.4642757538234
 21
-495.6063093330024
 31
0.0
  0
LINE
  5
EEB
330
EB2
100
AcDbEntity
  8
0
 62
     0
370
    -2
100
AcDbLine
 10
826.4017757538232
 20
-482.7449653330023
 30
0.0
 11
826.4017757538232
 21
-495.6063093330024
 31
0.0
  0
LINE
  5
EEC
330
EB2
100
AcDbEntity
  8
0
 62
     0
370
    -2
100
AcDbLine
 10
683.9642757538232
 20
-494.3563093330023
 30
0.0
 11
823.9017757538231
 21
-494.3563093330023
 31
0.0
  0
INSERT
  5
EED
330
EB2
100
AcDbEntity
  8
0
 62
     0
370
    -2
100
AcDbBlockReference
  2
_Open30
 10
681.4642757538234
 20
-494.3563093330023
 30
0.0
 41
2.5
 42
2.5
 43
2.5
 50
180.0
  0
INSERT
  5
EEE
330
EB2
100
AcDbEntity
  8
0
 62
     0
370
    -2
100
AcDbBlockReference
  2
_Open30
 10
826.4017757538232
 20
-494.3563093330023
 30
0.0
 41
2.5
 42
2.5
 43
2.5
  0
MTEXT
  5
EEF
330
EB2
100
AcDbEntity
  8
0
 62
     4
100
AcDbMText
 10
753.9330257538232
 20
-492.2313093330024
 30
0.0
 40
3.0
 41
0.0
 71
     5
 72
     1
  1
290
 73
     1
 44
1.0
1001
ACAD
1000
MTEXTBEGIN
1070
    73
1070
     1
1070
    44
1040
1.0
1070
    74
1070
     0
1000
MTEXTEND
  0
POINT
  5
EF0
330
EB2
100
AcDbEntity
  8
Defpoints
 62
     0
100
AcDbPoint
 10
681.4642757538234
 20
-476.4949653330025
 30
0.0
  0
POINT
  5
EF1
330
EB2
100
AcDbEntity
  8
Defpoints
 62
     0
100
AcDbPoint
 10
826.4017757538232
 20
-482.4949653330024
 30
0.0
  0
POINT
  5
EF2
330
EB2
100
AcDbEntity
  8
Defpoints
 62
     0
100
AcDbPoint
 10
826.4017757538232
 20
-494.3563093330023
 30
0.0
  0
ENDBLK
  5
EB4
330
EB2
100
AcDbEntity
  8
0
100
AcDbBlockEnd
  0
BLOCK
  5
EBF
330
EBE
100
AcDbEntity
  8
0
100
AcDbBlockBegin
  2
*D13
 70
     1
 10
0.0
 20
0.0
 30
0.0
  3
*D13
  1

  0
LINE
  5
EF3
330
EBE
100
AcDbEntity
  8
0
 62
     0
370
    -2
100
AcDbLine
 10
634.9957757538234
 20
-487.7449653330024
 30
0.0
 11
663.4631097538232
 21
-487.7449653330024
 31
0.0
  0
LINE
  5
EF4
330
EBE
100
AcDbEntity
  8
0
 62
     0
370
    -2
100
AcDbLine
 10
601.8344037538232
 20
-390.2449653330025
 30
0.0
 11
663.4631097538232
 21
-390.2449653330026
 31
0.0
  0
LINE
  5
EF5
330
EBE
100
AcDbEntity
  8
0
 62
     0
370
    -2
100
AcDbLine
 10
662.2131097538232
 20
-485.2449653330022
 30
0.0
 11
662.2131097538232
 21
-392.7449653330026
 31
0.0
  0
INSERT
  5
EF6
330
EBE
100
AcDbEntity
  8
0
 62
     0
370
    -2
100
AcDbBlockReference
  2
_Open30
 10
662.2131097538232
 20
-487.7449653330024
 30
0.0
 41
2.5
 42
2.5
 43
2.5
 50
270.0
  0
INSERT
  5
EF7
330
EBE
100
AcDbEntity
  8
0
 62
     0
370
    -2
100
AcDbBlockReference
  2
_Open30
 10
662.2131097538232
 20
-390.2449653330026
 30
0.0
 41
2.5
 42
2.5
 43
2.5
 50
90.0
  0
MTEXT
  5
EF8
330
EBE
100
AcDbEntity
  8
0
 62
     4
100
AcDbMText
 10
660.0881097538232
 20
-438.9949653330023
 30
0.0
 40
3.0
 41
0.0
 71
     5
 72
     1
  1
195
 11
0.0000000000000001
 21
1.0
 31
0.0
 73
     1
 44
1.0
1001
ACAD
1000
MTEXTBEGIN
1070
    73
1070
     1
1070
    44
1040
1.0
1070
    74
1070
     0
1000
MTEXTEND
  0
POINT
  5
EF9
330
EBE
100
AcDbEntity
  8
Defpoints
 62
     0
100
AcDbPoint
 10
634.7457757538234
 20
-487.7449653330024
 30
0.0
  0
POINT
  5
EFA
330
EBE
100
AcDbEntity
  8
Defpoints
 62
     0
100
AcDbPoint
 10
601.5844037538234
 20
-390.2449653330025
 30
0.0
  0
POINT
  5
EFB
330
EBE
100
AcDbEntity
  8
Defpoints
 62
     0
100
AcDbPoint
 10
662.2131097538232
 20
-390.2449653330026
 30
0.0
  0
ENDBLK
  5
EC0
330
EBE
100
AcDbEntity
  8
0
100
AcDbBlockEnd
  0
BLOCK
  5
ECB
330
ECA
100
AcDbEntity
  8
0
100
AcDbBlockBegin
  2
*D14
 70
     1
 10
0.0
 20
0.0
 30
0.0
  3
*D14
  1

  0
LINE
  5
EFC
330
ECA
100
AcDbEntity
  8
0
 62
     0
370
    -2
100
AcDbLine
 10
559.3707757538234
 20
-482.7449653330023
 30
0.0
 11
559.3707757538234
 21
-496.1168793330023
 31
0.0
  0
LINE
  5
EFD
330
ECA
100
AcDbEntity
  8
0
 62
     0
370
    -2
100
AcDbLine
 10
649.3707757538234
 20
-482.7449653330023
 30
0.0
 11
649.3707757538234
 21
-496.1168793330023
 31
0.0
  0
LINE
  5
EFE
330
ECA
100
AcDbEntity
  8
0
 62
     0
370
    -2
100
AcDbLine
 10
561.8707757538234
 20
-494.8668793330025
 30
0.0
 11
646.8707757538234
 21
-494.8668793330025
 31
0.0
  0
INSERT
  5
EFF
330
ECA
100
AcDbEntity
  8
0
 62
     0
370
    -2
100
AcDbBlockReference
  2
_Open30
 10
559.3707757538234
 20
-494.8668793330025
 30
0.0
 41
2.5
 42
2.5
 43
2.5
 50
180.0
  0
INSERT
  5
F00
330
ECA
100
AcDbEntity
  8
0
 62
     0
370
    -2
100
AcDbBlockReference
  2
_Open30
 10
649.3707757538234
 20
-494.8668793330025
 30
0.0
 41
2.5
 42
2.5
 43
2.5
  0
MTEXT
  5
F01
330
ECA
100
AcDbEntity
  8
0
 62
     4
100
AcDbMText
 10
604.3707757538234
 20
-492.7418793330025
 30
0.0
 40
3.0
 41
0.0
 71
     5
 72
     1
  1
190
 73
     1
 44
1.0
1001
ACAD
1000
MTEXTBEGIN
1070
    73
1070
     1
1070
    44
1040
1.0
1070
    74
1070
     0
1000
MTEXTEND
  0
POINT
  5
F02
330
ECA
100
AcDbEntity
  8
Defpoints
 62
     0
100
AcDbPoint
 10
559.3707757538234
 20
-482.4949653330024
 30
0.0
  0
POINT
  5
F03
330
ECA
100
AcDbEntity
  8
Defpoints
 62
     0
100
AcDbPoint
 10
649.3707757538234
 20
-482.4949653330024
 30
0.0
  0
POINT
  5
F04
330
ECA
100
AcDbEntity
  8
Defpoints
 62
     0
100
AcDbPoint
 10
649.3707757538234
 20
-494.8668793330025
 30
0.0
  0
ENDBLK
  5
ECC
330
ECA
100
AcDbEntity
  8
0
100
AcDbBlockEnd
  0
BLOCK
  5
F66
330
F65
100
AcDbEntity
  8
0
100
AcDbBlockBegin
  2
*D15
 70
     1
 10
0.0
 20
0.0
 30
0.0
  3
*D15
  1

  0
LINE
  5
156A
330
F65
100
AcDbEntity
  8
0
  6
Continuous
 62
     0
370
    -2
100
AcDbLine
 10
-327.523156
 20
-492.301365
 30
0.0
 11
-339.0486909137429
 21
-492.301365
 31
0.0
  0
LINE
  5
156B
330
F65
100
AcDbEntity
  8
0
  6
Continuous
 62
     0
370
    -2
100
AcDbLine
 10
-323.148156
 20
-413.1763649999999
 30
0.0
 11
-339.0486909137429
 21
-413.1763649999999
 31
0.0
  0
LINE
  5
156C
330
F65
100
AcDbEntity
  8
0
  6
Continuous
 62
     0
370
    -2
100
AcDbLine
 10
-337.7986909137429
 20
-489.801365
 30
0.0
 11
-337.7986909137429
 21
-415.6763649999998
 31
0.0
  0
INSERT
  5
156D
330
F65
100
AcDbEntity
  8
0
  6
Continuous
 62
     0
370
    -2
100
AcDbBlockReference
  2
_Open30
 10
-337.7986909137429
 20
-492.301365
 30
0.0
 41
2.5
 42
2.5
 43
2.5
 50
270.0
  0
INSERT
  5
156E
330
F65
100
AcDbEntity
  8
0
  6
Continuous
 62
     0
370
    -2
100
AcDbBlockReference
  2
_Open30
 10
-337.7986909137429
 20
-413.1763649999999
 30
0.0
 41
2.5
 42
2.5
 43
2.5
 50
90.0
  0
MTEXT
  5
156F
330
F65
100
AcDbEntity
  8
0
  6
Continuous
 62
     4
100
AcDbMText
 10
-339.9236909137428
 20
-446.2344937687142
 30
0.0
 40
3.0
 41
0.0
 71
     5
 72
     1
  1
79.13
 11
0.0000000000000001
 21
1.0
 31
0.0
 73
     1
 44
1.0
1001
ACAD
1000
MTEXTBEGIN
1070
    73
1070
     1
1070
    44
1040
1.0
1070
    74
1070
     0
1000
MTEXTEND
  0
POINT
  5
1570
330
F65
100
AcDbEntity
  8
Defpoints
  6
Continuous
 62
     0
100
AcDbPoint
 10
-327.273156
 20
-492.301365
 30
0.0
  0
POINT
  5
1571
330
F65
100
AcDbEntity
  8
Defpoints
  6
Continuous
 62
     0
100
AcDbPoint
 10
-322.898156
 20
-413.1763649999999
 30
0.0
  0
POINT
  5
1572
330
F65
100
AcDbEntity
  8
Defpoints
  6
Continuous
 62
     0
100
AcDbPoint
 10
-337.7986909137429
 20
-413.1763649999999
 30
0.0
  0
ENDBLK
  5
F67
330
F65
100
AcDbEntity
  8
0
100
AcDbBlockEnd
  0
BLOCK
  5
F73
330
F72
100
AcDbEntity
  8
0
100
AcDbBlockBegin
  2
*D16
 70
     1
 10
0.0
 20
0.0
 30
0.0
  3
*D16
  1

  0
LINE
  5
1573
330
F72
100
AcDbEntity
  8
0
  6
Continuous
 62
     0
370
    -2
100
AcDbLine
 10
-211.023156
 20
-492.301365
 30
0.0
 11
-204.0079039645126
 21
-492.301365
 31
0.0
  0
LINE
  5
1574
330
F72
100
AcDbEntity
  8
0
  6
Continuous
 62
     0
370
    -2
100
AcDbLine
 10
-210.875681
 20
-497.551365
 30
0.0
 11
-204.0079039645126
 21
-497.551365
 31
0.0
  0
LINE
  5
1575
330
F72
100
AcDbEntity
  8
0
  6
Continuous
 62
     0
370
    -2
100
AcDbLine
 10
-205.2579039645126
 20
-489.801365
 30
0.0
 11
-205.2579039645126
 21
-487.301365
 31
0.0
  0
LINE
  5
1576
330
F72
100
AcDbEntity
  8
0
  6
Continuous
 62
     0
370
    -2
100
AcDbLine
 10
-205.2579039645126
 20
-500.051365
 30
0.0
 11
-205.2579039645126
 21
-512.801365
 31
0.0
  0
LINE
  5
1577
330
F72
100
AcDbEntity
  8
0
  6
Continuous
 62
     0
370
    -2
100
AcDbLine
 10
-205.2579039645126
 20
-492.301365
 30
0.0
 11
-205.2579039645126
 21
-497.551365
 31
0.0
  0
INSERT
  5
1578
330
F72
100
AcDbEntity
  8
0
  6
Continuous
 62
     0
370
    -2
100
AcDbBlockReference
  2
_Open30
 10
-205.2579039645126
 20
-492.301365
 30
0.0
 41
2.5
 42
2.5
 43
2.5
 50
270.0
  0
INSERT
  5
1579
330
F72
100
AcDbEntity
  8
0
  6
Continuous
 62
     0
370
    -2
100
AcDbBlockReference
  2
_Open30
 10
-205.2579039645126
 20
-497.551365
 30
0.0
 41
2.5
 42
2.5
 43
2.5
 50
90.0
  0
MTEXT
  5
157A
330
F72
100
AcDbEntity
  8
0
  6
Continuous
 62
     4
100
AcDbMText
 10
-207.3829039645125
 20
-507.6763650000001
 30
0.0
 40
3.0
 41
0.0
 71
     5
 72
     1
  1
5.25
 11
0.0000000000000001
 21
1.0
 31
0.0
 73
     1
 44
1.0
1001
ACAD
1000
MTEXTBEGIN
1070
    73
1070
     1
1070
    44
1040
1.0
1070
    74
1070
     0
1000
MTEXTEND
  0
POINT
  5
157B
330
F72
100
AcDbEntity
  8
Defpoints
  6
Continuous
 62
     0
100
AcDbPoint
 10
-211.273156
 20
-492.301365
 30
0.0
  0
POINT
  5
157C
330
F72
100
AcDbEntity
  8
Defpoints
  6
Continuous
 62
     0
100
AcDbPoint
 10
-211.125681
 20
-497.551365
 30
0.0
  0
POINT
  5
157D
330
F72
100
AcDbEntity
  8
Defpoints
  6
Continuous
 62
     0
100
AcDbPoint
 10
-205.2579039645126
 20
-497.551365
 30
0.0
  0
ENDBLK
  5
F74
330
F72
100
AcDbEntity
  8
0
100
AcDbBlockEnd
  0
BLOCK
  5
1060
330
105F
100
AcDbEntity
  8
0
100
AcDbBlockBegin
  2
*D17
 70
     1
 10
0.0
 20
0.0
 30
0.0
  3
*D17
  1

  0
LINE
  5
10CB
330
105F
100
AcDbEntity
  8
0
  6
Continuous
 62
     0
370
    -2
100
AcDbLine
 10
-513.5030911894126
 20
-661.8455441936667
 30
0.0
 11
-541.1079187754925
 21
-661.8455441936667
 31
0.0
  0
LINE
  5
10CC
330
105F
100
AcDbEntity
  8
0
  6
Continuous
 62
     0
370
    -2
100
AcDbLine
 10
-502.4446393726669
 20
-461.8455441936665
 30
0.0
 11
-541.1079187754925
 21
-461.8455441936665
 31
0.0
  0
LINE
  5
10CD
330
105F
100
AcDbEntity
  8
0
  6
Continuous
 62
     0
370
    -2
100
AcDbLine
 10
-539.8579187754925
 20
-659.3455441936668
 30
0.0
 11
-539.8579187754925
 21
-464.3455441936665
 31
0.0
  0
INSERT
  5
10CE
330
105F
100
AcDbEntity
  8
0
  6
Continuous
 62
     0
370
    -2
100
AcDbBlockReference
  2
_Open30
 10
-539.8579187754925
 20
-661.8455441936667
 30
0.0
 41
2.5
 42
2.5
 43
2.5
 50
270.0
  0
INSERT
  5
10CF
330
105F
100
AcDbEntity
  8
0
  6
Continuous
 62
     0
370
    -2
100
AcDbBlockReference
  2
_Open30
 10
-539.8579187754925
 20
-461.8455441936665
 30
0.0
 41
2.5
 42
2.5
 43
2.5
 50
90.0
  0
MTEXT
  5
10D0
330
105F
100
AcDbEntity
  8
0
  6
Continuous
 62
     4
100
AcDbMText
 10
-541.9829187754924
 20
-545.4047954258045
 30
0.0
 40
3.0
 41
0.0
 71
     5
 72
     1
  1
200
 11
0.0000000000000001
 21
1.0
 31
0.0
 73
     1
 44
1.0
1001
ACAD
1000
MTEXTBEGIN
1070
    73
1070
     1
1070
    44
1040
1.0
1070
    74
1070
     0
1000
MTEXTEND
  0
POINT
  5
10D1
330
105F
100
AcDbEntity
  8
Defpoints
  6
Continuous
 62
     0
100
AcDbPoint
 10
-513.2530911894129
 20
-661.8455441936667
 30
0.0
  0
POINT
  5
10D2
330
105F
100
AcDbEntity
  8
Defpoints
  6
Continuous
 62
     0
100
AcDbPoint
 10
-502.1946393726667
 20
-461.8455441936665
 30
0.0
  0
POINT
  5
10D3
330
105F
100
AcDbEntity
  8
Defpoints
  6
Continuous
 62
     0
100
AcDbPoint
 10
-539.8579187754925
 20
-461.8455441936665
 30
0.0
  0
ENDBLK
  5
1061
330
105F
100
AcDbEntity
  8
0
100
AcDbBlockEnd
  0
BLOCK
  5
106C
330
106B
100
AcDbEntity
  8
0
100
AcDbBlockBegin
  2
*D18
 70
     1
 10
0.0
 20
0.0
 30
0.0
  3
*D18
  1

  0
LINE
  5
10D4
330
106B
100
AcDbEntity
  8
0
  6
Continuous
 62
     0
370
    -2
100
AcDbLine
 10
-219.7961401625572
 20
-661.8455441936667
 30
0.0
 11
-203.5917116368386
 21
-661.8455441936667
 31
0.0
  0
LINE
  5
10D5
330
106B
100
AcDbEntity
  8
0
  6
Continuous
 62
     0
370
    -2
100
AcDbLine
 10
-219.4233755496031
 20
-675.1156863737612
 30
0.0
 11
-203.5917116368386
 21
-675.1156863737612
 31
0.0
  0
LINE
  5
10D6
330
106B
100
AcDbEntity
  8
0
  6
Continuous
 62
     0
370
    -2
100
AcDbLine
 10
-204.8417116368385
 20
-659.3455441936668
 30
0.0
 11
-204.8417116368385
 21
-656.8455441936667
 31
0.0
  0
LINE
  5
10D7
330
106B
100
AcDbEntity
  8
0
  6
Continuous
 62
     0
370
    -2
100
AcDbLine
 10
-204.8417116368385
 20
-677.6156863737614
 30
0.0
 11
-204.8417116368386
 21
-706.8331034353731
 31
0.0
  0
LINE
  5
10D8
330
106B
100
AcDbEntity
  8
0
  6
Continuous
 62
     0
370
    -2
100
AcDbLine
 10
-204.8417116368385
 20
-661.8455441936667
 30
0.0
 11
-204.8417116368385
 21
-675.1156863737612
 31
0.0
  0
INSERT
  5
10D9
330
106B
100
AcDbEntity
  8
0
  6
Continuous
 62
     0
370
    -2
100
AcDbBlockReference
  2
_Open30
 10
-204.8417116368385
 20
-661.8455441936667
 30
0.0
 41
2.5
 42
2.5
 43
2.5
 50
270.0
  0
INSERT
  5
10DA
330
106B
100
AcDbEntity
  8
0
  6
Continuous
 62
     0
370
    -2
100
AcDbBlockReference
  2
_Open30
 10
-204.8417116368385
 20
-675.1156863737612
 30
0.0
 41
2.5
 42
2.5
 43
2.5
 50
90.0
  0
MTEXT
  5
10DB
330
106B
100
AcDbEntity
  8
0
  6
Continuous
 62
     4
100
AcDbMText
 10
-206.9667116368385
 20
-700.7081034353731
 30
0.0
 40
3.0
 41
0.0
 71
     5
 72
     1
  1
13.27
 11
0.0000000000000001
 21
1.0
 31
0.0
 73
     1
 44
1.0
1001
ACAD
1000
MTEXTBEGIN
1070
    73
1070
     1
1070
    44
1040
1.0
1070
    74
1070
     0
1000
MTEXTEND
  0
POINT
  5
10DC
330
106B
100
AcDbEntity
  8
Defpoints
  6
Continuous
 62
     0
100
AcDbPoint
 10
-220.0461401625572
 20
-661.8455441936667
 30
0.0
  0
POINT
  5
10DD
330
106B
100
AcDbEntity
  8
Defpoints
  6
Continuous
 62
     0
100
AcDbPoint
 10
-219.6733755496031
 20
-675.1156863737612
 30
0.0
  0
POINT
  5
10DE
330
106B
100
AcDbEntity
  8
Defpoints
  6
Continuous
 62
     0
100
AcDbPoint
 10
-204.8417116368385
 20
-675.1156863737612
 30
0.0
  0
ENDBLK
  5
106D
330
106B
100
AcDbEntity
  8
0
100
AcDbBlockEnd
  0
BLOCK
  5
107A
330
1079
100
AcDbEntity
  8
0
100
AcDbBlockBegin
  2
*D19
 70
     1
 10
0.0
 20
0.0
 30
0.0
  3
*D19
  1

  0
LINE
  5
10B9
330
1079
100
AcDbEntity
  8
0
 62
     0
370
    -2
100
AcDbLine
 10
-251.7076725480231
 20
-675.1156863737612
 30
0.0
 11
-189.9305477454957
 21
-675.1156863737612
 31
0.0
  0
LINE
  5
10BA
330
1079
100
AcDbEntity
  8
0
 62
     0
370
    -2
100
AcDbLine
 10
-366.399615675985
 20
-428.6701887434303
 30
0.0
 11
-189.9305477454957
 21
-428.6701887434303
 31
0.0
  0
LINE
  5
10BB
330
1079
100
AcDbEntity
  8
0
 62
     0
370
    -2
100
AcDbLine
 10
-191.1805477454957
 20
-672.6156863737614
 30
0.0
 11
-191.1805477454957
 21
-431.1701887434304
 31
0.0
  0
INSERT
  5
10BC
330
1079
100
AcDbEntity
  8
0
 62
     0
370
    -2
100
AcDbBlockReference
  2
_Open30
 10
-191.1805477454957
 20
-675.1156863737612
 30
0.0
 41
2.5
 42
2.5
 43
2.5
 50
270.0
  0
INSERT
  5
10BD
330
1079
100
AcDbEntity
  8
0
 62
     0
370
    -2
100
AcDbBlockReference
  2
_Open30
 10
-191.1805477454957
 20
-428.6701887434303
 30
0.0
 41
2.5
 42
2.5
 43
2.5
 50
90.0
  0
MTEXT
  5
10BE
330
1079
100
AcDbEntity
  8
0
 62
     4
100
AcDbMText
 10
-193.3055477454956
 20
-551.8929375585959
 30
0.0
 40
3.0
 41
0.0
 71
     5
 72
     1
  1
240
 11
0.0000000000000001
 21
1.0
 31
0.0
 73
     1
 44
1.0
1001
ACAD
1000
MTEXTBEGIN
1070
    73
1070
     1
1070
    44
1040
1.0
1070
    74
1070
     0
1000
MTEXTEND
  0
POINT
  5
10BF
330
1079
100
AcDbEntity
  8
Defpoints
 62
     0
100
AcDbPoint
 10
-251.9576725480231
 20
-675.1156863737612
 30
0.0
  0
POINT
  5
10C0
330
1079
100
AcDbEntity
  8
Defpoints
 62
     0
100
AcDbPoint
 10
-366.6496156759849
 20
-428.6701887434303
 30
0.0
  0
POINT
  5
10C1
330
1079
100
AcDbEntity
  8
Defpoints
 62
     0
100
AcDbPoint
 10
-191.1805477454957
 20
-428.6701887434303
 30
0.0
  0
ENDBLK
  5
107B
330
1079
100
AcDbEntity
  8
0
100
AcDbBlockEnd
  0
BLOCK
  5
1086
330
1085
100
AcDbEntity
  8
0
100
AcDbBlockBegin
  2
*D20
 70
     1
 10
0.0
 20
0.0
 30
0.0
  3
*D20
  1

  0
LINE
  5
10C2
330
1085
100
AcDbEntity
  8
0
 62
     0
370
    -2
100
AcDbLine
 10
-513.2530911894129
 20
-662.0955441936668
 30
0.0
 11
-513.2530911894129
 21
-693.0768244464307
 31
0.0
  0
LINE
  5
10C3
330
1085
100
AcDbEntity
  8
0
 62
     0
370
    -2
100
AcDbLine
 10
-220.0461401625572
 20
-662.0955441936668
 30
0.0
 11
-220.0461401625572
 21
-693.0768244464307
 31
0.0
  0
LINE
  5
10C4
330
1085
100
AcDbEntity
  8
0
 62
     0
370
    -2
100
AcDbLine
 10
-510.7530911894127
 20
-691.8268244464307
 30
0.0
 11
-222.5461401625572
 21
-691.8268244464307
 31
0.0
  0
INSERT
  5
10C5
330
1085
100
AcDbEntity
  8
0
 62
     0
370
    -2
100
AcDbBlockReference
  2
_Open30
 10
-513.2530911894129
 20
-691.8268244464307
 30
0.0
 41
2.5
 42
2.5
 43
2.5
 50
180.0
  0
INSERT
  5
10C6
330
1085
100
AcDbEntity
  8
0
 62
     0
370
    -2
100
AcDbBlockReference
  2
_Open30
 10
-220.0461401625572
 20
-691.8268244464307
 30
0.0
 41
2.5
 42
2.5
 43
2.5
  0
MTEXT
  5
10C7
330
1085
100
AcDbEntity
  8
0
 62
     4
100
AcDbMText
 10
-366.649615675985
 20
-689.7018244464308
 30
0.0
 40
3.0
 41
0.0
 71
     5
 72
     1
  1
250
 73
     1
 44
1.0
1001
ACAD
1000
MTEXTBEGIN
1070
    73
1070
     1
1070
    44
1040
1.0
1070
    74
1070
     0
1000
MTEXTEND
  0
POINT
  5
10C8
330
1085
100
AcDbEntity
  8
Defpoints
 62
     0
100
AcDbPoint
 10
-513.2530911894129
 20
-661.8455441936667
 30
0.0
  0
POINT
  5
10C9
330
1085
100
AcDbEntity
  8
Defpoints
 62
     0
100
AcDbPoint
 10
-220.0461401625572
 20
-661.8455441936667
 30
0.0
  0
POINT
  5
10CA
330
1085
100
AcDbEntity
  8
Defpoints
 62
     0
100
AcDbPoint
 10
-220.0461401625572
 20
-691.8268244464307
 30
0.0
  0
ENDBLK
  5
1087
330
1085
100
AcDbEntity
  8
0
100
AcDbBlockEnd
  0
BLOCK
  5
1138
330
1137
100
AcDbEntity
  8
0
100
AcDbBlockBegin
  2
*D21
 70
     1
 10
0.0
 20
0.0
 30
0.0
  3
*D21
  1

  0
LINE
  5
1139
330
1137
100
AcDbEntity
  8
0
 62
     0
370
    -2
100
AcDbLine
 10
-638.3552723587181
 20
62.31738564389869
 30
0.0
 11
-655.4801233587181
 21
62.31738564389869
 31
0.0
  0
LINE
  5
113A
330
1137
100
AcDbEntity
  8
0
 62
     0
370
    -2
100
AcDbLine
 10
-638.3552723587181
 20
71.01738564389869
 30
0.0
 11
-655.4801233587181
 21
71.01738564389869
 31
0.0
  0
LINE
  5
113B
330
1137
100
AcDbEntity
  8
0
 62
     0
370
    -2
100
AcDbLine
 10
-654.230123358718
 20
73.51738564389869
 30
0.0
 11
-654.230123358718
 21
76.01738564389869
 31
0.0
  0
LINE
  5
113C
330
1137
100
AcDbEntity
  8
0
 62
     0
370
    -2
100
AcDbLine
 10
-654.230123358718
 20
59.81738564389869
 30
0.0
 11
-654.230123358718
 21
45.27571897723202
 31
0.0
  0
LINE
  5
113D
330
1137
100
AcDbEntity
  8
0
 62
     0
370
    -2
100
AcDbLine
 10
-654.230123358718
 20
71.01738564389869
 30
0.0
 11
-654.230123358718
 21
62.31738564389869
 31
0.0
  0
INSERT
  5
113E
330
1137
100
AcDbEntity
  8
0
 62
     0
370
    -2
100
AcDbBlockReference
  2
_Open30
 10
-654.230123358718
 20
71.01738564389869
 30
0.0
 41
2.5
 42
2.5
 43
2.5
 50
270.0
  0
INSERT
  5
113F
330
1137
100
AcDbEntity
  8
0
 62
     0
370
    -2
100
AcDbBlockReference
  2
_Open30
 10
-654.230123358718
 20
62.31738564389869
 30
0.0
 41
2.5
 42
2.5
 43
2.5
 50
90.0
  0
MTEXT
  5
1140
330
1137
100
AcDbEntity
  8
0
 62
     4
100
AcDbMText
 10
-656.105123358718
 20
51.29655231056526
 30
0.0
 40
2.5
 41
0.0
 71
     5
 72
     1
  1
8.7{\H1.750000;\U+00B10.4}
 11
0.0000000000000001
 21
1.0
 31
0.0
 73
     1
 44
1.0
1001
ACAD
1000
MTEXTBEGIN
1070
    73
1070
     1
1070
    44
1040
1.0
1070
    74
1070
     0
1000
MTEXTEND
  0
POINT
  5
1141
330
1137
100
AcDbEntity
  8
Defpoints
 62
     0
100
AcDbPoint
 10
-638.1052723587181
 20
62.31738564389869
 30
0.0
  0
POINT
  5
1142
330
1137
100
AcDbEntity
  8
Defpoints
 62
     0
100
AcDbPoint
 10
-638.1052723587181
 20
71.01738564389869
 30
0.0
  0
POINT
  5
1143
330
1137
100
AcDbEntity
  8
Defpoints
 62
     0
100
AcDbPoint
 10
-654.230123358718
 20
71.01738564389869
 30
0.0
  0
ENDBLK
  5
1144
330
1137
100
AcDbEntity
  8
0
100
AcDbBlockEnd
  0
BLOCK
  5
1305
330
1304
100
AcDbEntity
  8
0
100
AcDbBlockBegin
  2
*D22
 70
     1
 10
0.0
 20
0.0
 30
0.0
  3
*D22
  1

  0
LINE
  5
1312
330
1304
100
AcDbEntity
  8
0
 62
     0
370
    -2
100
AcDbLine
 10
-388.040366280377
 20
-140.912125947693
 30
0.0
 11
-405.1652172803769
 21
-140.912125947693
 31
0.0
  0
LINE
  5
1313
330
1304
100
AcDbEntity
  8
0
 62
     0
370
    -2
100
AcDbLine
 10
-388.040366280377
 20
-132.212125947693
 30
0.0
 11
-405.1652172803769
 21
-132.212125947693
 31
0.0
  0
LINE
  5
1314
330
1304
100
AcDbEntity
  8
0
 62
     0
370
    -2
100
AcDbLine
 10
-403.9152172803769
 20
-129.712125947693
 30
0.0
 11
-403.9152172803768
 21
-127.212125947693
 31
0.0
  0
LINE
  5
1315
330
1304
100
AcDbEntity
  8
0
 62
     0
370
    -2
100
AcDbLine
 10
-403.9152172803769
 20
-143.412125947693
 30
0.0
 11
-403.9152172803769
 21
-157.9537926143597
 31
0.0
  0
LINE
  5
1316
330
1304
100
AcDbEntity
  8
0
 62
     0
370
    -2
100
AcDbLine
 10
-403.9152172803769
 20
-132.212125947693
 30
0.0
 11
-403.9152172803769
 21
-140.912125947693
 31
0.0
  0
INSERT
  5
1317
330
1304
100
AcDbEntity
  8
0
 62
     0
370
    -2
100
AcDbBlockReference
  2
_Open30
 10
-403.9152172803769
 20
-132.212125947693
 30
0.0
 41
2.5
 42
2.5
 43
2.5
 50
270.0
  0
INSERT
  5
1318
330
1304
100
AcDbEntity
  8
0
 62
     0
370
    -2
100
AcDbBlockReference
  2
_Open30
 10
-403.9152172803769
 20
-140.912125947693
 30
0.0
 41
2.5
 42
2.5
 43
2.5
 50
90.0
  0
MTEXT
  5
1319
330
1304
100
AcDbEntity
  8
0
 62
     4
100
AcDbMText
 10
-405.7902172803768
 20
-151.9329592810264
 30
0.0
 40
2.5
 41
0.0
 71
     5
 72
     1
  1
8.7{\H1.750000;\U+00B10.4}
 11
0.0000000000000001
 21
1.0
 31
0.0
 73
     1
 44
1.0
1001
ACAD
1000
MTEXTBEGIN
1070
    73
1070
     1
1070
    44
1040
1.0
1070
    74
1070
     0
1000
MTEXTEND
  0
POINT
  5
131A
330
1304
100
AcDbEntity
  8
Defpoints
 62
     0
100
AcDbPoint
 10
-387.7903662803769
 20
-140.912125947693
 30
0.0
  0
POINT
  5
131B
330
1304
100
AcDbEntity
  8
Defpoints
 62
     0
100
AcDbPoint
 10
-387.7903662803769
 20
-132.212125947693
 30
0.0
  0
POINT
  5
131C
330
1304
100
AcDbEntity
  8
Defpoints
 62
     0
100
AcDbPoint
 10
-403.9152172803769
 20
-132.212125947693
 30
0.0
  0
ENDBLK
  5
1306
330
1304
100
AcDbEntity
  8
0
100
AcDbBlockEnd
  0
BLOCK
  5
1501
330
1500
100
AcDbEntity
  8
0
100
AcDbBlockBegin
  2
*D23
 70
     1
 10
0.0
 20
0.0
 30
0.0
  3
*D23
  1

  0
LINE
  5
16EF
330
1500
100
AcDbEntity
  8
0
  6
Continuous
 62
     0
370
    -2
100
AcDbLine
 10
162.996430049548
 20
-502.2616856222374
 30
0.0
 11
186.4219130819005
 21
-502.2616856222374
 31
0.0
  0
LINE
  5
16F0
330
1500
100
AcDbEntity
  8
0
  6
Continuous
 62
     0
370
    -2
100
AcDbLine
 10
114.496430049548
 20
-372.2616856222376
 30
0.0
 11
186.4219130819005
 21
-372.2616856222377
 31
0.0
  0
LINE
  5
16F1
330
1500
100
AcDbEntity
  8
0
  6
Continuous
 62
     0
370
    -2
100
AcDbLine
 10
185.1719130819005
 20
-499.7616856222373
 30
0.0
 11
185.1719130819005
 21
-374.7616856222377
 31
0.0
  0
INSERT
  5
16F2
330
1500
100
AcDbEntity
  8
0
  6
Continuous
 62
     0
370
    -2
100
AcDbBlockReference
  2
_Open30
 10
185.1719130819005
 20
-502.2616856222374
 30
0.0
 41
2.5
 42
2.5
 43
2.5
 50
270.0
  0
INSERT
  5
16F3
330
1500
100
AcDbEntity
  8
0
  6
Continuous
 62
     0
370
    -2
100
AcDbBlockReference
  2
_Open30
 10
185.1719130819005
 20
-372.2616856222377
 30
0.0
 41
2.5
 42
2.5
 43
2.5
 50
90.0
  0
MTEXT
  5
16F4
330
1500
100
AcDbEntity
  8
0
  6
Continuous
 62
     4
100
AcDbMText
 10
183.0469130819006
 20
-444.6351714946381
 30
0.0
 40
3.0
 41
0.0
 71
     5
 72
     1
  1
260
 11
0.0000000000000001
 21
1.0
 31
0.0
 73
     1
 44
1.0
1001
ACAD
1000
MTEXTBEGIN
1070
    73
1070
     1
1070
    44
1040
1.0
1070
    74
1070
     0
1000
MTEXTEND
  0
POINT
  5
16F5
330
1500
100
AcDbEntity
  8
Defpoints
  6
Continuous
 62
     0
100
AcDbPoint
 10
162.746430049548
 20
-502.2616856222374
 30
0.0
  0
POINT
  5
16F6
330
1500
100
AcDbEntity
  8
Defpoints
  6
Continuous
 62
     0
100
AcDbPoint
 10
114.246430049548
 20
-372.2616856222376
 30
0.0
  0
POINT
  5
16F7
330
1500
100
AcDbEntity
  8
Defpoints
  6
Continuous
 62
     0
100
AcDbPoint
 10
185.1719130819005
 20
-372.2616856222377
 30
0.0
  0
ENDBLK
  5
1502
330
1500
100
AcDbEntity
  8
0
100
AcDbBlockEnd
  0
BLOCK
  5
150E
330
150D
100
AcDbEntity
  8
0
100
AcDbBlockBegin
  2
*D24
 70
     1
 10
0.0
 20
0.0
 30
0.0
  3
*D24
  1

  0
LINE
  5
16F8
330
150D
100
AcDbEntity
  8
0
  6
Continuous
 62
     0
370
    -2
100
AcDbLine
 10
364.9947874266984
 20
-495.0116856222374
 30
0.0
 11
364.9947874266984
 21
-514.87974629989
 31
0.0
  0
LINE
  5
16F9
330
150D
100
AcDbEntity
  8
0
  6
Continuous
 62
     0
370
    -2
100
AcDbLine
 10
197.4947874266984
 20
-490.0116856222374
 30
0.0
 11
197.4947874266984
 21
-514.87974629989
 31
0.0
  0
LINE
  5
16FA
330
150D
100
AcDbEntity
  8
0
  6
Continuous
 62
     0
370
    -2
100
AcDbLine
 10
362.4947874266984
 20
-513.62974629989
 30
0.0
 11
199.9947874266984
 21
-513.62974629989
 31
0.0
  0
INSERT
  5
16FB
330
150D
100
AcDbEntity
  8
0
  6
Continuous
 62
     0
370
    -2
100
AcDbBlockReference
  2
_Open30
 10
364.9947874266984
 20
-513.62974629989
 30
0.0
 41
2.5
 42
2.5
 43
2.5
  0
INSERT
  5
16FC
330
150D
100
AcDbEntity
  8
0
  6
Continuous
 62
     0
370
    -2
100
AcDbBlockReference
  2
_Open30
 10
197.4947874266984
 20
-513.62974629989
 30
0.0
 41
2.5
 42
2.5
 43
2.5
 50
180.0
  0
MTEXT
  5
16FD
330
150D
100
AcDbEntity
  8
0
  6
Continuous
 62
     4
100
AcDbMText
 10
276.6000879668959
 20
-511.50474629989
 30
0.0
 40
3.0
 41
0.0
 71
     5
 72
     1
  1
335
 73
     1
 44
1.0
1001
ACAD
1000
MTEXTBEGIN
1070
    73
1070
     1
1070
    44
1040
1.0
1070
    74
1070
     0
1000
MTEXTEND
  0
POINT
  5
16FE
330
150D
100
AcDbEntity
  8
Defpoints
  6
Continuous
 62
     0
100
AcDbPoint
 10
364.9947874266984
 20
-494.7616856222373
 30
0.0
  0
POINT
  5
16FF
330
150D
100
AcDbEntity
  8
Defpoints
  6
Continuous
 62
     0
100
AcDbPoint
 10
197.4947874266984
 20
-489.7616856222374
 30
0.0
  0
POINT
  5
1700
330
150D
100
AcDbEntity
  8
Defpoints
  6
Continuous
 62
     0
100
AcDbPoint
 10
197.4947874266984
 20
-513.62974629989
 30
0.0
  0
ENDBLK
  5
150F
330
150D
100
AcDbEntity
  8
0
100
AcDbBlockEnd
  0
BLOCK
  5
151B
330
151A
100
AcDbEntity
  8
0
100
AcDbBlockBegin
  2
*D25
 70
     1
 10
0.0
 20
0.0
 30
0.0
  3
*D25
  1

  0
LINE
  5
1701
330
151A
100
AcDbEntity
  8
0
  6
Continuous
 62
     0
370
    -2
100
AcDbLine
 10
173.996430049548
 20
-495.0116856222374
 30
0.0
 11
173.996430049548
 21
-514.5170719767843
 31
0.0
  0
LINE
  5
1702
330
151A
100
AcDbEntity
  8
0
  6
Continuous
 62
     0
370
    -2
100
AcDbLine
 10
47.99643004954805
 20
-495.0116856222374
 30
0.0
 11
47.99643004954805
 21
-514.5170719767843
 31
0.0
  0
LINE
  5
1703
330
151A
100
AcDbEntity
  8
0
  6
Continuous
 62
     0
370
    -2
100
AcDbLine
 10
171.496430049548
 20
-513.2670719767843
 30
0.0
 11
50.49643004954805
 21
-513.2670719767843
 31
0.0
  0
INSERT
  5
1704
330
151A
100
AcDbEntity
  8
0
  6
Continuous
 62
     0
370
    -2
100
AcDbBlockReference
  2
_Open30
 10
173.996430049548
 20
-513.2670719767843
 30
0.0
 41
2.5
 42
2.5
 43
2.5
  0
INSERT
  5
1705
330
151A
100
AcDbEntity
  8
0
  6
Continuous
 62
     0
370
    -2
100
AcDbBlockReference
  2
_Open30
 10
47.99643004954805
 20
-513.2670719767843
 30
0.0
 41
2.5
 42
2.5
 43
2.5
 50
180.0
  0
MTEXT
  5
1706
330
151A
100
AcDbEntity
  8
0
  6
Continuous
 62
     4
100
AcDbMText
 10
111.1628130324068
 20
-511.1420719767843
 30
0.0
 40
3.0
 41
0.0
 71
     5
 72
     1
  1
252
 73
     1
 44
1.0
1001
ACAD
1000
MTEXTBEGIN
1070
    73
1070
     1
1070
    44
1040
1.0
1070
    74
1070
     0
1000
MTEXTEND
  0
POINT
  5
1707
330
151A
100
AcDbEntity
  8
Defpoints
  6
Continuous
 62
     0
100
AcDbPoint
 10
173.996430049548
 20
-494.7616856222373
 30
0.0
  0
POINT
  5
1708
330
151A
100
AcDbEntity
  8
Defpoints
  6
Continuous
 62
     0
100
AcDbPoint
 10
47.99643004954805
 20
-494.7616856222373
 30
0.0
  0
POINT
  5
1709
330
151A
100
AcDbEntity
  8
Defpoints
  6
Continuous
 62
     0
100
AcDbPoint
 10
47.99643004954805
 20
-513.2670719767843
 30
0.0
  0
ENDBLK
  5
151C
330
151A
100
AcDbEntity
  8
0
100
AcDbBlockEnd
  0
ENDSEC
  0
SECTION
  2
ENTITIES
  0
LINE
  5
9A
330
36
100
AcDbEntity
  8
0
 62
     3
100
AcDbLine
 10
423.340733
 20
-354.266289
 30
0.0
 11
423.340733
 21
-628.3216499999999
 31
0.0
  0
LINE
  5
9B
330
36
100
AcDbEntity
  8
0
 62
     3
100
AcDbLine
 10
33.340733
 20
-354.266289
 30
0.0
 11
33.340733
 21
-628.3216499999999
 31
0.0
  0
LINE
  5
9C
330
36
100
AcDbEntity
  8
0
 62
     3
100
AcDbLine
 10
33.340733
 20
-354.266289
 30
0.0
 11
423.340733
 21
-354.266289
 31
0.0
  0
LINE
  5
9D
330
36
100
AcDbEntity
  8
0
 62
     3
100
AcDbLine
 10
423.340733
 20
-628.3216499999999
 30
0.0
 11
33.340733
 21
-628.3216499999999
 31
0.0
  0
TEXT
  5
A6
330
36
100
AcDbEntity
  8
0
 62
     3
100
AcDbText
 10
327.4016052685762
 20
-596.362241
 30
0.0
 40
4.5
  1
降圧専用トランス
  7
高4.5
100
AcDbText
  0
TEXT
  5
A7
330
36
100
AcDbEntity
  8
0
 62
     3
100
AcDbText
 10
389.411621
 20
-617.5528839999997
 30
0.0
 40
3.2
  1
2007.11.1
  7
高3.2
100
AcDbText
  0
TEXT
  5
A8
330
36
100
AcDbEntity
  8
0
 62
     3
100
AcDbText
 10
315.0662718904382
 20
-583.8892599999998
 30
0.0
 40
4.5
  1
リングトランス仕様
  7
高4.5
100
AcDbText
  0
LINE
  5
A9
330
36
100
AcDbEntity
  8
0
100
AcDbLine
 10
315.8986379210469
 20
-584.6329262374322
 30
0.0
 11
362.5363770297395
 21
-584.6329262374322
 31
0.0
  0
ARC
  5
E9
330
36
100
AcDbEntity
  8
0
100
AcDbCircle
 10
392.94526
 20
-415.3083099999998
 30
0.0
 40
1.52979
100
AcDbArc
 50
207.0455889999999
 51
332.954411
  0
ARC
  5
EA
330
36
100
AcDbEntity
  8
0
100
AcDbCircle
 10
390.22026
 20
-416.6995
 30
0.0
 40
1.52979
100
AcDbArc
 50
27.045589
 51
152.954411
  0
ARC
  5
EB
330
36
100
AcDbEntity
  8
0
100
AcDbCircle
 10
392.94526
 20
-416.6995
 30
0.0
 40
1.52979
100
AcDbArc
 50
27.045589
 51
152.954411
  0
TEXT
  5
149
330
36
100
AcDbEntity
  8
0
 62
     3
100
AcDbText
 10
331.799281
 20
-603.8432384447693
 30
0.0
 40
4.5
  1
TB-500D
  7
高4.5
100
AcDbText
  0
LINE
  5
19C
330
36
100
AcDbEntity
  8
0
 62
     3
100
AcDbLine
 10
394.30776
 20
-416.0039049999999
 30
0.0
 11
394.30776
 21
-433.843295
 31
0.0
  0
LINE
  5
19D
330
36
100
AcDbEntity
  8
0
 62
     3
100
AcDbLine
 10
388.85776
 20
-416.0039049999999
 30
0.0
 11
388.85776
 21
-433.971624
 31
0.0
  0
LINE
  5
19E
330
36
100
AcDbEntity
  8
0
 62
     3
100
AcDbLine
 10
394.30776
 20
-433.843295
 30
0.0
 11
388.85776
 21
-433.843295
 31
0.0
  0
TEXT
  5
19F
330
36
100
AcDbEntity
  8
0
 62
     3
100
AcDbText
 10
379.4994524627077
 20
-461.5925075519982
 30
0.0
 40
3.2
  1
3.5-6　端子
  7
高3.2
100
AcDbText
  0
TEXT
  5
1A0
330
36
100
AcDbEntity
  8
0
 62
     3
100
AcDbText
 10
376.3111038055385
 20
-627.2944881340491
 30
0.0
 40
6.299999999999998
  1
TB-500D
  7
高6.3
100
AcDbText
  0
LINE
  5
1A8
330
36
100
AcDbEntity
  8
0
100
AcDbLine
 10
392.399624
 20
-433.843295
 30
0.0
 11
392.399624
 21
-445.6606139999998
 31
0.0
  0
LINE
  5
1A9
330
36
100
AcDbEntity
  8
0
100
AcDbLine
 10
390.765896
 20
-433.843295
 30
0.0
 11
390.765896
 21
-445.6606139999998
 31
0.0
  0
LINE
  5
1AA
330
36
100
AcDbEntity
  8
0
100
AcDbLine
 10
390.217398
 20
-448.305736
 30
0.0
 11
392.948122
 21
-448.305736
 31
0.0
  0
CIRCLE
  5
1AB
330
36
100
AcDbEntity
  8
0
100
AcDbCircle
 10
391.58276
 20
-452.3395459999998
 30
0.0
 40
1.474399999999999
  0
LINE
  5
1AC
330
36
100
AcDbEntity
  8
0
100
AcDbLine
 10
390.217398
 20
-445.6606139999998
 30
0.0
 11
390.217398
 21
-448.305736
 31
0.0
  0
LINE
  5
1AD
330
36
100
AcDbEntity
  8
0
100
AcDbLine
 10
390.217398
 20
-448.305736
 30
0.0
 11
389.375082
 21
-451.808691
 31
0.0
  0
LINE
  5
1AE
330
36
100
AcDbEntity
  8
0
100
AcDbLine
 10
392.948122
 20
-448.305736
 30
0.0
 11
393.790438
 21
-451.808691
 31
0.0
  0
LINE
  5
1AF
330
36
100
AcDbEntity
  8
0
100
AcDbLine
 10
392.948122
 20
-445.6606139999998
 30
0.0
 11
392.948122
 21
-448.305736
 31
0.0
  0
LINE
  5
1B0
330
36
100
AcDbEntity
  8
0
100
AcDbLine
 10
392.948122
 20
-445.6606139999998
 30
0.0
 11
390.217398
 21
-445.6606139999998
 31
0.0
  0
ARC
  5
1B1
330
36
100
AcDbEntity
  8
0
100
AcDbCircle
 10
391.58276
 20
-452.3395459999998
 30
0.0
 40
2.270604999999999
100
AcDbArc
 50
166.479415
 51
13.520585
  0
LINE
  5
1B2
330
36
100
AcDbEntity
  8
0
100
AcDbLine
 10
392.6491
 20
-433.843295
 30
0.0
 11
399.80454
 21
-442.370817
 31
0.0
  0
LINE
  5
1B3
330
36
100
AcDbEntity
  8
0
100
AcDbLine
 10
392.399624
 20
-436.0876089999998
 30
0.0
 11
398.553033
 21
-443.420957
 31
0.0
  0
LINE
  5
1B4
330
36
100
AcDbEntity
  8
0
100
AcDbLine
 10
399.8331100000001
 20
-445.7998049999998
 30
0.0
 11
401.924966
 21
-444.04453
 31
0.0
  0
CIRCLE
  5
1B5
330
36
100
AcDbEntity
  8
0
100
AcDbCircle
 10
403.471921
 20
-448.012245
 30
0.0
 40
1.474399999999999
  0
LINE
  5
1B6
330
36
100
AcDbEntity
  8
0
100
AcDbLine
 10
398.132859
 20
-443.773524
 30
0.0
 11
399.8331100000001
 21
-445.7998049999998
 31
0.0
  0
LINE
  5
1B7
330
36
100
AcDbEntity
  8
0
100
AcDbLine
 10
399.8331100000001
 20
-445.7998049999998
 30
0.0
 11
401.439514
 21
-449.024654
 31
0.0
  0
LINE
  5
1B8
330
36
100
AcDbEntity
  8
0
100
AcDbLine
 10
401.924966
 20
-444.04453
 30
0.0
 11
404.821873
 21
-446.186518
 31
0.0
  0
LINE
  5
1B9
330
36
100
AcDbEntity
  8
0
100
AcDbLine
 10
400.2247139999998
 20
-442.018249
 30
0.0
 11
401.924966
 21
-444.04453
 31
0.0
  0
LINE
  5
1BA
330
36
100
AcDbEntity
  8
0
100
AcDbLine
 10
400.2247139999998
 20
-442.018249
 30
0.0
 11
398.132859
 21
-443.773524
 31
0.0
  0
ARC
  5
1BB
330
36
100
AcDbEntity
  8
0
100
AcDbCircle
 10
403.471921
 20
-448.012245
 30
0.0
 40
2.270604999999999
100
AcDbArc
 50
206.479415
 51
53.520585
  0
LINE
  5
1BC
330
36
100
AcDbEntity
  8
0
100
AcDbLine
 10
390.5164200000001
 20
-433.843295
 30
0.0
 11
383.36098
 21
-442.370817
 31
0.0
  0
LINE
  5
1BD
330
36
100
AcDbEntity
  8
0
100
AcDbLine
 10
390.765896
 20
-436.0876089999998
 30
0.0
 11
384.612487
 21
-443.420957
 31
0.0
  0
LINE
  5
1BE
330
36
100
AcDbEntity
  8
0
100
AcDbLine
 10
383.33241
 20
-445.7998049999998
 30
0.0
 11
381.240554
 21
-444.04453
 31
0.0
  0
CIRCLE
  5
1BF
330
36
100
AcDbEntity
  8
0
100
AcDbCircle
 10
379.693599
 20
-448.012245
 30
0.0
 40
1.474399999999999
  0
LINE
  5
1C0
330
36
100
AcDbEntity
  8
0
100
AcDbLine
 10
385.032661
 20
-443.773524
 30
0.0
 11
383.33241
 21
-445.7998049999998
 31
0.0
  0
LINE
  5
1C1
330
36
100
AcDbEntity
  8
0
100
AcDbLine
 10
383.33241
 20
-445.7998049999998
 30
0.0
 11
381.726005
 21
-449.024654
 31
0.0
  0
LINE
  5
1C2
330
36
100
AcDbEntity
  8
0
100
AcDbLine
 10
381.240554
 20
-444.04453
 30
0.0
 11
378.343647
 21
-446.186518
 31
0.0
  0
LINE
  5
1C3
330
36
100
AcDbEntity
  8
0
100
AcDbLine
 10
382.940806
 20
-442.018249
 30
0.0
 11
381.240554
 21
-444.04453
 31
0.0
  0
LINE
  5
1C4
330
36
100
AcDbEntity
  8
0
100
AcDbLine
 10
382.940806
 20
-442.018249
 30
0.0
 11
385.032661
 21
-443.773524
 31
0.0
  0
ARC
  5
1C5
330
36
100
AcDbEntity
  8
0
100
AcDbCircle
 10
379.693599
 20
-448.012245
 30
0.0
 40
2.270604999999999
100
AcDbArc
 50
126.479415
 51
333.520585
  0
LINE
  5
1C6
330
36
100
AcDbEntity
  8
0
 62
     7
100
AcDbLine
 10
379.1598857929957
 20
-462.6106699661072
 30
0.0
 11
404.2029961615607
 21
-462.6106699661072
 31
0.0
  0
LINE
  5
1F0
330
36
100
AcDbEntity
  8
0
 62
     3
100
AcDbLine
 10
397.641369
 20
-611.655928
 30
0.0
 11
397.6413690000001
 21
-588.655928
 31
0.0
  0
LINE
  5
1F2
330
36
100
AcDbEntity
  8
0
 62
     3
100
AcDbLine
 10
344.58776
 20
-618.6559279999999
 30
0.0
 11
344.58776
 21
-604.655928
 31
0.0
  0
TEXT
  5
1F4
330
36
100
AcDbEntity
  8
0
 62
     3
100
AcDbText
 10
373.651688
 20
-592.450812
 30
0.0
 40
2.0
  1
A
 41
0.7
100
AcDbText
  0
TEXT
  5
1F5
330
36
100
AcDbEntity
  8
0
 62
     3
100
AcDbText
 10
376.186974
 20
-592.450812
 30
0.0
 40
2.0
  1
P
 41
0.7
100
AcDbText
  0
TEXT
  5
1F6
330
36
100
AcDbEntity
  8
0
 62
     3
100
AcDbText
 10
378.72226
 20
-592.450812
 30
0.0
 40
2.0
  1
P
 41
0.7
100
AcDbText
  0
TEXT
  5
1F7
330
36
100
AcDbEntity
  8
0
 62
     3
100
AcDbText
 10
381.257546
 20
-592.450812
 30
0.0
 40
2.0
  1
D
 41
0.7
100
AcDbText
  0
TEXT
  5
1F8
330
36
100
AcDbEntity
  8
0
 62
     3
100
AcDbText
 10
386.626229
 20
-592.450812
 30
0.0
 40
2.0
  1
C
 41
0.7
100
AcDbText
  0
TEXT
  5
1F9
330
36
100
AcDbEntity
  8
0
 62
     3
100
AcDbText
 10
389.161516
 20
-592.450812
 30
0.0
 40
2.0
  1
H
 41
0.7
100
AcDbText
  0
TEXT
  5
1FA
330
36
100
AcDbEntity
  8
0
 62
     3
100
AcDbText
 10
391.696802
 20
-592.450812
 30
0.0
 40
2.0
  1
C
 41
0.7
100
AcDbText
  0
TEXT
  5
1FB
330
36
100
AcDbEntity
  8
0
 62
     3
100
AcDbText
 10
394.232088
 20
-592.450812
 30
0.0
 40
2.0
  1
K
 41
0.7
100
AcDbText
  0
TEXT
  5
1FC
330
36
100
AcDbEntity
  8
0
 62
     3
100
AcDbText
 10
399.906055
 20
-592.450812
 30
0.0
 40
2.0
  1
DESN
 41
1.216762999999998
100
AcDbText
  0
TEXT
  5
1FD
330
36
100
AcDbEntity
  8
0
 62
     3
100
AcDbText
 10
314.899696
 20
-621.7973099999998
 30
0.0
 40
2.0
  1
NICHIDO IND.CO.LTD
 41
1.274876
100
AcDbText
  0
LINE
  5
1FE
330
36
100
AcDbEntity
  8
0
 62
     3
100
AcDbLine
 10
325.282725
 20
-588.655928
 30
0.0
 11
325.282725
 21
-611.655928
 31
0.0
  0
LINE
  5
1FF
330
36
100
AcDbEntity
  8
0
 62
     3
100
AcDbLine
 10
371.641369
 20
-588.655928
 30
0.0
 11
371.641369
 21
-628.3216499999999
 31
0.0
  0
LINE
  5
204
330
36
100
AcDbEntity
  8
0
 62
     3
100
AcDbLine
 10
384.641369
 20
-588.6559279999999
 30
0.0
 11
384.641369
 21
-618.6559279999999
 31
0.0
  0
TEXT
  5
205
330
36
100
AcDbEntity
  8
0
 62
     3
100
AcDbText
 10
372.753814
 20
-617.791241
 30
0.0
 40
3.2
  1
作成日
 41
1.017225999999997
100
AcDbText
  0
LINE
  5
206
330
36
100
AcDbEntity
  8
0
 62
     3
100
AcDbLine
 10
423.340733
 20
-588.655928
 30
0.0
 11
312.03729
 21
-588.655928
 31
0.0
  0
LINE
  5
207
330
36
100
AcDbEntity
  8
0
 62
     3
100
AcDbLine
 10
410.641369
 20
-611.655928
 30
0.0
 11
410.641369
 21
-588.655928
 31
0.0
  0
TEXT
  5
208
330
36
100
AcDbEntity
  8
0
 62
     3
100
AcDbText
 10
413.9651729999997
 20
-592.364993
 30
0.0
 40
1.8
  1
D
 41
0.666667
100
AcDbText
  0
TEXT
  5
209
330
36
100
AcDbEntity
  8
0
 62
     3
100
AcDbText
 10
416.7818009999998
 20
-592.364993
 30
0.0
 40
1.8
  1
E
 41
0.666667
100
AcDbText
  0
TEXT
  5
20A
330
36
100
AcDbEntity
  8
0
 62
     3
100
AcDbText
 10
419.598429
 20
-592.364993
 30
0.0
 40
1.8
  1
F
 41
0.666667
100
AcDbText
  0
TEXT
  5
20B
330
36
100
AcDbEntity
  8
0
 62
     3
100
AcDbText
 10
413.9651729999997
 20
-596.3575469999997
 30
0.0
 40
3.2
  1
製図
 41
1.076369
100
AcDbText
  0
LINE
  5
20C
330
36
100
AcDbEntity
  8
0
 62
     3
100
AcDbLine
 10
312.03729
 20
-588.655928
 30
0.0
 11
312.03729
 21
-628.3216499999999
 31
0.0
  0
TEXT
  5
20D
330
36
100
AcDbEntity
  8
0
 62
     3
100
AcDbText
 10
313.413943
 20
-627.9891849999998
 30
0.0
 40
5.0
  1
日動工業株式会社
 41
0.833333
100
AcDbText
  0
LINE
  5
20E
330
36
100
AcDbEntity
  8
0
 62
     3
100
AcDbLine
 10
354.9196940000002
 20
-604.6559279999999
 30
0.0
 11
354.919694
 21
-628.3216499999999
 31
0.0
  0
LINE
  5
20F
330
36
100
AcDbEntity
  8
0
 62
     3
100
AcDbLine
 10
354.919694
 20
-623.488789
 30
0.0
 11
371.641369
 21
-623.488789
 31
0.0
  0
TEXT
  5
210
330
36
100
AcDbEntity
  8
0
 62
     3
100
AcDbText
 10
355.506296
 20
-622.672359
 30
0.0
 40
3.2
  1
出図コード
 41
0.8356860000000001
100
AcDbText
  0
LINE
  5
212
330
36
100
AcDbEntity
  8
0
 62
     3
100
AcDbLine
 10
312.03729
 20
-618.6559279999999
 30
0.0
 11
423.340733
 21
-618.6559279999999
 31
0.0
  0
LINE
  5
214
330
36
100
AcDbEntity
  8
0
 62
     3
100
AcDbLine
 10
312.03729
 20
-597.655928
 30
0.0
 11
423.340733
 21
-597.655928
 31
0.0
  0
LINE
  5
21A
330
36
100
AcDbEntity
  8
0
 62
     3
100
AcDbLine
 10
312.03729
 20
-604.6559279999999
 30
0.0
 11
371.641369
 21
-604.655928
 31
0.0
  0
LINE
  5
220
330
36
100
AcDbEntity
  8
0
 62
     3
100
AcDbLine
 10
312.03729
 20
-611.655928
 30
0.0
 11
423.340733
 21
-611.655928
 31
0.0
  0
TEXT
  5
221
330
36
100
AcDbEntity
  8
0
 62
     3
100
AcDbText
 10
355.373748
 20
-628.017455953282
 30
0.0
 40
3.2
  1
ZK-A3X
 41
0.8112849999999999
100
AcDbText
  0
TEXT
  5
222
330
36
100
AcDbEntity
  8
0
 62
     3
100
AcDbText
 10
313.854687
 20
-592.486402
 30
0.0
 40
2.0
  1
CONPONENTS
 41
0.5331600000000001
100
AcDbText
  0
TEXT
  5
223
330
36
100
AcDbEntity
  8
0
 62
     3
100
AcDbText
 10
313.504961
 20
-611.418579
 30
0.0
 40
3.0
  1
材
 41
0.833333
100
AcDbText
  0
TEXT
  5
224
330
36
100
AcDbEntity
  8
0
 62
     3
100
AcDbText
 10
321.040603
 20
-611.418579
 30
0.0
 40
3.0
  1
質
 41
0.833333
100
AcDbText
  0
TEXT
  5
225
330
36
100
AcDbEntity
  8
0
 62
     3
100
AcDbText
 10
313.593031
 20
-600.7940539999997
 30
0.0
 40
2.0
  1
MODEL
 41
1.031072999999999
100
AcDbText
  0
TEXT
  5
226
330
36
100
AcDbEntity
  8
0
 62
     3
100
AcDbText
 10
313.504961
 20
-607.736271
 30
0.0
 40
2.0
  1
MATERIAL
 41
0.659278
100
AcDbText
  0
TEXT
  5
227
330
36
100
AcDbEntity
  8
0
 62
     3
100
AcDbText
 10
344.812241
 20
-611.418579
 30
0.0
 40
3.0
  1
備
 41
0.833333
100
AcDbText
  0
TEXT
  5
228
330
36
100
AcDbEntity
  8
0
 62
     3
100
AcDbText
 10
351.545243
 20
-611.418579
 30
0.0
 40
3.0
  1
考
 41
0.833333
100
AcDbText
  0
TEXT
  5
229
330
36
100
AcDbEntity
  8
0
 62
     3
100
AcDbText
 10
345.1114748566173
 20
-607.736271
 30
0.0
 40
2.0
  1
REMARKS
 41
0.675794
100
AcDbText
  0
TEXT
  5
22A
330
36
100
AcDbEntity
  8
0
 62
     3
100
AcDbText
 10
315.09469
 20
-614.656391
 30
0.0
 40
2.0
  1
3AD
 41
1.42614
100
AcDbText
  0
TEXT
  5
22B
330
36
100
AcDbEntity
  8
0
 62
     3
100
AcDbText
 10
324.405669
 20
-614.490658
 30
0.0
 40
2.0
  1
ANGLE
 41
1.669883999999995
100
AcDbText
  0
TEXT
  5
22C
330
36
100
AcDbEntity
  8
0
 62
     3
100
AcDbText
 10
345.339557
 20
-614.867499
 30
0.0
 40
2.0
  1
SCALE
 41
0.7719630000000001
100
AcDbText
  0
TEXT
  5
22D
330
36
100
AcDbEntity
  8
0
 62
     3
100
AcDbText
 10
314.78082
 20
-618.6559279999999
 30
0.0
 40
3.0
  1
第
 41
0.833333
100
AcDbText
  0
TEXT
  5
22E
330
36
100
AcDbEntity
  8
0
 62
     3
100
AcDbText
 10
322.56767
 20
-618.6559279999999
 30
0.0
 40
3.0
  1
三
 41
0.833333
100
AcDbText
  0
TEXT
  5
22F
330
36
100
AcDbEntity
  8
0
 62
     3
100
AcDbText
 10
330.354519
 20
-618.6559279999999
 30
0.0
 40
3.0
  1
角
 41
0.833333
100
AcDbText
  0
TEXT
  5
230
330
36
100
AcDbEntity
  8
0
 62
     3
100
AcDbText
 10
338.141369
 20
-618.6559279999999
 30
0.0
 40
3.0
  1
法
 41
0.833333
100
AcDbText
  0
TEXT
  5
231
330
36
100
AcDbEntity
  8
0
 62
     3
100
AcDbText
 10
345.202762
 20
-618.367499
 30
0.0
 40
3.0
  1
尺
 41
0.833333
100
AcDbText
  0
TEXT
  5
232
330
36
100
AcDbEntity
  8
0
 62
     3
100
AcDbText
 10
351.935763
 20
-618.367499
 30
0.0
 40
3.0
  1
度
 41
0.833333
100
AcDbText
  0
TEXT
  5
233
330
36
100
AcDbEntity
  8
0
 62
     3
100
AcDbText
 10
374.519034
 20
-596.198199
 30
0.0
 40
3.0
  1
承認
 41
1.089472999999999
100
AcDbText
  0
TEXT
  5
234
330
36
100
AcDbEntity
  8
0
 62
     3
100
AcDbText
 10
387.761914
 20
-596.255928
 30
0.0
 40
3.0
  1
検図
 41
0.931761
100
AcDbText
  0
TEXT
  5
235
330
36
100
AcDbEntity
  8
0
 62
     3
100
AcDbText
 10
400.7623109999998
 20
-596.255928
 30
0.0
 40
3.0
  1
設
 41
0.833333
100
AcDbText
  0
TEXT
  5
236
330
36
100
AcDbEntity
  8
0
 62
     3
100
AcDbText
 10
405.252179
 20
-596.255928
 30
0.0
 40
3.0
  1
計
 41
0.833333
100
AcDbText
  0
TEXT
  5
237
330
36
100
AcDbEntity
  8
0
 62
     3
100
AcDbText
 10
313.924794
 20
-596.083375
 30
0.0
 40
3.0
  1
品
 41
0.833333
100
AcDbText
  0
TEXT
  5
238
330
36
100
AcDbEntity
  8
0
 62
     3
100
AcDbText
 10
321.460436
 20
-596.083375
 30
0.0
 40
3.0
  1
名
 41
0.833333
100
AcDbText
  0
TEXT
  5
239
330
36
100
AcDbEntity
  8
0
 62
     3
100
AcDbText
 10
313.593031
 20
-604.2680854758932
 30
0.0
 40
3.0
  1
型
 41
0.833333
100
AcDbText
  0
TEXT
  5
23A
330
36
100
AcDbEntity
  8
0
 62
     3
100
AcDbText
 10
321.141122
 20
-604.2680854758932
 30
0.0
 40
3.0
  1
式
 41
0.833333
100
AcDbText
  0
LINE
  5
23B
330
36
100
AcDbEntity
  8
0
 62
     3
100
AcDbLine
 10
20.938809
 20
-487.8216499999998
 30
0.0
 11
18.340733
 21
-489.32165
 31
0.0
  0
LINE
  5
23C
330
36
100
AcDbEntity
  8
0
 62
     3
100
AcDbLine
 10
20.938809
 20
-487.8216499999998
 30
0.0
 11
18.340733
 21
-486.32165
 31
0.0
  0
LINE
  5
23D
330
36
100
AcDbEntity
  8
0
 62
     3
100
AcDbLine
 10
18.340733
 20
-489.32165
 30
0.0
 11
18.340733
 21
-486.32165
 31
0.0
  0
LINE
  5
240
330
36
100
AcDbEntity
  8
0
100
AcDbLine
 10
337.5524003459515
 20
-526.430702
 30
0.0
 11
337.5524003459515
 21
-568.0107019999998
 31
0.0
  0
LINE
  5
241
330
36
100
AcDbEntity
  8
0
 62
     7
100
AcDbLine
 10
340.0280384423748
 20
-523.978724
 30
0.0
 11
376.744472673235
 21
-523.978724
 31
0.0
  0
LINE
  5
242
330
36
100
AcDbEntity
  8
0
 62
     3
100
AcDbLine
 10
400.3434450831758
 20
-526.430702
 30
0.0
 11
400.3434450831758
 21
-568.0107019999998
 31
0.0
  0
LINE
  5
243
330
36
100
AcDbEntity
  8
0
100
AcDbLine
 10
156.340733
 20
-628.3216499999999
 30
0.0
 11
156.340733
 21
-573.3216499999992
 31
0.0
  0
TEXT
  5
244
330
36
100
AcDbEntity
  8
0
 62
     3
100
AcDbText
 10
34.840733
 20
-627.8216499999999
 30
0.0
 40
3.2
  1
NO
 41
0.8
  7
高3.2
100
AcDbText
  0
TEXT
  5
245
330
36
100
AcDbEntity
  8
0
 62
     3
100
AcDbText
 10
43.840733
 20
-627.8216499999999
 30
0.0
 40
3.2
  1
部品名
 41
0.8
  7
高3.2
100
AcDbText
  0
TEXT
  5
246
330
36
100
AcDbEntity
  8
0
 62
     3
100
AcDbText
 10
148.8407330000001
 20
-627.8216499999999
 30
0.0
 40
3.2
  1
個数
 41
0.8
  7
高3.2
100
AcDbText
  0
TEXT
  5
247
330
36
100
AcDbEntity
  8
0
 62
     3
100
AcDbText
 10
93.840733
 20
-627.8216499999999
 30
0.0
 40
3.2
  1
備考　
 41
0.8
  7
高3.2
100
AcDbText
  0
TEXT
  5
248
330
36
100
AcDbEntity
  8
0
 62
     3
100
AcDbText
 10
68.840733
 20
-627.8216499999999
 30
0.0
 40
3.2
  1
材質
 41
0.8
  7
高3.2
100
AcDbText
  0
TEXT
  5
249
330
36
100
AcDbEntity
  8
0
 62
     3
100
AcDbText
 10
352.0915263459515
 20
-560.0967749999998
 30
0.0
 40
4.5
  1
19.0kg
  7
高4.5
100
AcDbText
  0
CIRCLE
  5
260
330
36
100
AcDbEntity
  8
0
100
AcDbCircle
 10
375.53449
 20
-403.479579
 30
0.0
 40
5.0
  0
TEXT
  5
261
330
36
100
AcDbEntity
  8
0
 62
     4
100
AcDbText
 10
374.4811207037709
 20
-406.6999066867451
 30
0.0
 40
6.299999999999998
  1
1
  7
高6.3
100
AcDbText
  0
TEXT
  5
292
330
36
100
AcDbEntity
  8
0
 62
     3
100
AcDbText
 10
357.154816
 20
-617.8637
 30
0.0
 40
3.2
  1
FREE
  7
高3.2
100
AcDbText
  0
TEXT
  5
293
330
36
100
AcDbEntity
  8
0
 62
     3
100
AcDbText
 10
329.906872
 20
-611.4028549999998
 30
0.0
 40
3.2
  1
別　掲
  7
高3.2
100
AcDbText
  0
LINE
  5
294
330
36
100
AcDbEntity
  8
0
100
AcDbLine
 10
92.340733
 20
-628.3216499999999
 30
0.0
 11
92.340733
 21
-573.3216499999992
 31
0.0
  0
LINE
  5
295
330
36
100
AcDbEntity
  8
0
100
AcDbLine
 10
67.340733
 20
-628.3216499999999
 30
0.0
 11
67.34073299999997
 21
-573.3216499999992
 31
0.0
  0
LINE
  5
296
330
36
100
AcDbEntity
  8
0
100
AcDbLine
 10
147.340733
 20
-628.3216499999999
 30
0.0
 11
147.340733
 21
-573.3216499999992
 31
0.0
  0
LINE
  5
297
330
36
100
AcDbEntity
  8
0
100
AcDbLine
 10
42.340733
 20
-628.3216499999999
 30
0.0
 11
42.340733
 21
-573.3216499999992
 31
0.0
  0
LINE
  5
298
330
36
100
AcDbEntity
  8
0
 62
     3
100
AcDbLine
 10
423.2406969999998
 20
-582.655928
 30
0.0
 11
371.641333
 21
-582.655928
 31
0.0
  0
TEXT
  5
299
330
36
100
AcDbEntity
  8
0
 62
     3
100
AcDbText
 10
376.6976393994041
 20
-588.0998429999997
 30
0.0
 40
4.5
  1
コード
  7
高4.5
100
AcDbText
  0
LINE
  5
29A
330
36
100
AcDbEntity
  8
0
 62
     3
100
AcDbLine
 10
397.641333
 20
-588.655928
 30
0.0
 11
397.641333
 21
-582.655928
 31
0.0
  0
LINE
  5
29B
330
36
100
AcDbEntity
  8
0
 62
     3
100
AcDbLine
 10
371.641333
 20
-588.655928
 30
0.0
 11
371.641333
 21
-582.655928
 31
0.0
  0
TEXT
  5
2A6
330
36
100
AcDbEntity
  8
0
 62
     3
100
AcDbText
 10
401.7111753890111
 20
-588.1575719999997
 30
0.0
 40
4.5
  1
5598
  7
高4.5
100
AcDbText
  0
LINE
  5
2A7
330
36
100
AcDbEntity
  8
0
 62
     3
100
AcDbLine
 10
312.662651
 20
-568.0107019999998
 30
0.0
 11
400.3434450831758
 21
-568.0107019999998
 31
0.0
  0
LINE
  5
2A8
330
36
100
AcDbEntity
  8
0
 62
     3
100
AcDbLine
 10
312.662651
 20
-526.430702
 30
0.0
 11
312.662651
 21
-568.0107019999998
 31
0.0
  0
LINE
  5
2A9
330
36
100
AcDbEntity
  8
0
 62
     3
100
AcDbLine
 10
312.662651
 20
-526.430702
 30
0.0
 11
400.3434450831758
 21
-526.430702
 31
0.0
  0
TEXT
  5
2AA
330
36
100
AcDbEntity
  8
0
 62
     3
100
AcDbText
 10
314.642651
 20
-539.3007019999998
 30
0.0
 40
4.5
  1
入力電圧
  7
高4.5
100
AcDbText
  0
TEXT
  5
2AB
330
36
100
AcDbEntity
  8
0
 62
     3
100
AcDbText
 10
314.642651
 20
-546.2307019999998
 30
0.0
 40
4.5
  1
出力電圧
  7
高4.5
100
AcDbText
  0
TEXT
  5
2AC
330
36
100
AcDbEntity
  8
0
 62
     3
100
AcDbText
 10
314.642651
 20
-553.1607019999999
 30
0.0
 40
4.5
  1
容　　量
  7
高4.5
100
AcDbText
  0
TEXT
  5
2AD
330
36
100
AcDbEntity
  8
0
 62
     3
100
AcDbText
 10
314.642651
 20
-560.090702
 30
0.0
 40
4.5
  1
質　　量
  7
高4.5
100
AcDbText
  0
TEXT
  5
2AE
330
36
100
AcDbEntity
  8
0
 62
     3
100
AcDbText
 10
314.642651
 20
-567.0207019999998
 30
0.0
 40
4.5
  1
絶縁種類
  7
高4.5
100
AcDbText
  0
TEXT
  5
2AF
330
36
100
AcDbEntity
  8
0
 62
     3
100
AcDbText
 10
314.642651
 20
-532.3707019999998
 30
0.0
 40
4.5
  1
型　　式
  7
高4.5
100
AcDbText
  0
LINE
  5
2B0
330
36
100
AcDbEntity
  8
0
100
AcDbLine
 10
312.662651
 20
-533.3607019999998
 30
0.0
 11
400.3434450831758
 21
-533.3607019999998
 31
0.0
  0
LINE
  5
2B1
330
36
100
AcDbEntity
  8
0
100
AcDbLine
 10
312.662651
 20
-540.2907019999998
 30
0.0
 11
400.3434450831758
 21
-540.2907019999998
 31
0.0
  0
LINE
  5
2B2
330
36
100
AcDbEntity
  8
0
100
AcDbLine
 10
312.662651
 20
-547.2207019999998
 30
0.0
 11
400.3434450831758
 21
-547.2207019999998
 31
0.0
  0
LINE
  5
2B3
330
36
100
AcDbEntity
  8
0
100
AcDbLine
 10
312.662651
 20
-554.1507019999998
 30
0.0
 11
400.3434450831758
 21
-554.1507019999998
 31
0.0
  0
LINE
  5
2B4
330
36
100
AcDbEntity
  8
0
100
AcDbLine
 10
312.662651
 20
-561.080702
 30
0.0
 11
400.3434450831758
 21
-561.080702
 31
0.0
  0
TEXT
  5
2B5
330
36
100
AcDbEntity
  8
0
 62
     3
100
AcDbText
 10
340.0280384423748
 20
-522.8315459708238
 30
0.0
 40
4.5
  1
主　　仕　　様
  7
高4.5
100
AcDbText
  0
TEXT
  5
2B6
330
36
100
AcDbEntity
  8
0
 62
     3
100
AcDbText
 10
339.3512483459514
 20
-539.5054009999999
 30
0.0
 40
4.5
  1
AC200V 50/60Hz
  7
高4.5
100
AcDbText
  0
TEXT
  5
2B7
330
36
100
AcDbEntity
  8
0
 62
     3
100
AcDbText
 10
357.0263443459514
 20
-566.815113
 30
0.0
 40
4.5
  1
B種絶縁
  7
高4.5
100
AcDbText
  0
TEXT
  5
2B8
330
36
100
AcDbEntity
  8
0
 62
     3
100
AcDbText
 10
343.6730593459515
 20
-546.091607
 30
0.0
 40
4.5
  1
AC100V/115V
  7
高4.5
100
AcDbText
  0
TEXT
  5
2B9
330
36
100
AcDbEntity
  8
0
 62
     3
100
AcDbText
 10
351.0298263459514
 20
-532.5754009999998
 30
0.0
 40
4.5
  1
TB-500D
  7
高4.5
100
AcDbText
  0
TEXT
  5
2BA
330
36
100
AcDbEntity
  8
0
 62
     3
100
AcDbText
 10
348.9261233459515
 20
-552.747089
 30
0.0
 40
4.5
  1
5.0KVA　連続
  7
高4.5
100
AcDbText
  0
TEXT
  5
2BB
330
36
100
AcDbEntity
  8
0
 62
     3
100
AcDbText
 10
34.840733
 20
-577.8216499999992
 30
0.0
 40
3.2
  1
10
 41
0.8
  7
高3.2
100
AcDbText
  0
TEXT
  5
2BC
330
36
100
AcDbEntity
  8
0
 62
     3
100
AcDbText
 10
34.840733
 20
-587.8216499999997
 30
0.0
 40
3.2
  1
8
 41
0.8
  7
高3.2
100
AcDbText
  0
TEXT
  5
2BD
330
36
100
AcDbEntity
  8
0
 62
     3
100
AcDbText
 10
34.840733
 20
-592.8216499999997
 30
0.0
 40
3.2
  1
7
 41
0.8
  7
高3.2
100
AcDbText
  0
TEXT
  5
2BE
330
36
100
AcDbEntity
  8
0
 62
     3
100
AcDbText
 10
34.840733
 20
-597.8216499999997
 30
0.0
 40
3.2
  1
6
 41
0.8
  7
高3.2
100
AcDbText
  0
TEXT
  5
2BF
330
36
100
AcDbEntity
  8
0
 62
     3
100
AcDbText
 10
34.840733
 20
-602.82165
 30
0.0
 40
3.2
  1
5
 41
0.8
  7
高3.2
100
AcDbText
  0
TEXT
  5
2C0
330
36
100
AcDbEntity
  8
0
 62
     3
100
AcDbText
 10
34.840733
 20
-607.8216499999999
 30
0.0
 40
3.2
  1
4
 41
0.8
  7
高3.2
100
AcDbText
  0
TEXT
  5
2C1
330
36
100
AcDbEntity
  8
0
 62
     3
100
AcDbText
 10
34.840733
 20
-612.8216499999997
 30
0.0
 40
3.2
  1
3
 41
0.8
  7
高3.2
100
AcDbText
  0
TEXT
  5
2C2
330
36
100
AcDbEntity
  8
0
 62
     3
100
AcDbText
 10
34.840733
 20
-617.8216499999997
 30
0.0
 40
3.2
  1
2
 41
0.8
  7
高3.2
100
AcDbText
  0
TEXT
  5
2C3
330
36
100
AcDbEntity
  8
0
 62
     3
100
AcDbText
 10
34.840733
 20
-622.8216499999997
 30
0.0
 40
3.2
  1
1
 41
0.8
  7
高3.2
100
AcDbText
  0
TEXT
  5
2C4
330
36
100
AcDbEntity
  8
0
 62
     3
100
AcDbText
 10
43.840733
 20
-622.8216499999997
 30
0.0
 40
3.2
  1
電線
 41
0.8
  7
高3.2
100
AcDbText
  0
TEXT
  5
2C5
330
36
100
AcDbEntity
  8
0
 62
     3
100
AcDbText
 10
43.840733
 20
-617.8216499999997
 30
0.0
 40
3.2
  1
取手ハンドル
 41
0.8
  7
高3.2
100
AcDbText
  0
TEXT
  5
2C6
330
36
100
AcDbEntity
  8
0
 62
     3
100
AcDbText
 10
43.840733
 20
-612.8216499999997
 30
0.0
 40
3.2
  1
上カバー
 41
0.8
  7
高3.2
100
AcDbText
  0
TEXT
  5
2C7
330
36
100
AcDbEntity
  8
0
 62
     3
100
AcDbText
 10
43.840733
 20
-607.8216499999999
 30
0.0
 40
3.2
  1
シャーシ
 41
0.8
  7
高3.2
100
AcDbText
  0
TEXT
  5
2C8
330
36
100
AcDbEntity
  8
0
 62
     3
100
AcDbText
 10
43.840733
 20
-602.82165
 30
0.0
 40
3.2
  1
電源ランプ
 41
0.8
  7
高3.2
100
AcDbText
  0
TEXT
  5
2C9
330
36
100
AcDbEntity
  8
0
 62
     3
100
AcDbText
 10
43.840733
 20
-597.8216499999997
 30
0.0
 40
3.2
  1
交流電圧計
 41
0.8
  7
高3.2
100
AcDbText
  0
TEXT
  5
2CA
330
36
100
AcDbEntity
  8
0
 62
     3
100
AcDbText
 10
43.840733
 20
-592.8216499999997
 30
0.0
 40
3.2
  1
安全ブレーカー
 41
0.8
  7
高3.2
100
AcDbText
  0
TEXT
  5
2CB
330
36
100
AcDbEntity
  8
0
 62
     3
100
AcDbText
 10
43.84073299999999
 20
-587.8216499999997
 30
0.0
 40
3.2
  1
Wコンセント白
 41
0.8
  7
高3.2
100
AcDbText
  0
TEXT
  5
2CC
330
36
100
AcDbEntity
  8
0
 62
     3
100
AcDbText
 10
43.84073299999999
 20
-577.8216499999992
 30
0.0
 40
3.2
  1
ゴム脚
 41
0.8
  7
高3.2
100
AcDbText
  0
TEXT
  5
2CD
330
36
100
AcDbEntity
  8
0
 62
     3
100
AcDbText
 10
148.8407330000001
 20
-577.8216499999992
 30
0.0
 40
3.2
  1
4
 41
0.8
  7
高3.2
100
AcDbText
  0
TEXT
  5
2CE
330
36
100
AcDbEntity
  8
0
 62
     3
100
AcDbText
 10
148.8407330000001
 20
-587.8216499999997
 30
0.0
 40
3.2
  1
2
 41
0.8
  7
高3.2
100
AcDbText
  0
TEXT
  5
2CF
330
36
100
AcDbEntity
  8
0
 62
     3
100
AcDbText
 10
148.8407330000001
 20
-592.8216499999997
 30
0.0
 40
3.2
  1
1
 41
0.8
  7
高3.2
100
AcDbText
  0
TEXT
  5
2D0
330
36
100
AcDbEntity
  8
0
 62
     3
100
AcDbText
 10
148.8407330000001
 20
-597.8216499999997
 30
0.0
 40
3.2
  1
1
 41
0.8
  7
高3.2
100
AcDbText
  0
TEXT
  5
2D1
330
36
100
AcDbEntity
  8
0
 62
     3
100
AcDbText
 10
148.8407330000001
 20
-602.82165
 30
0.0
 40
3.2
  1
1
 41
0.8
  7
高3.2
100
AcDbText
  0
TEXT
  5
2D2
330
36
100
AcDbEntity
  8
0
 62
     3
100
AcDbText
 10
148.8407330000001
 20
-607.8216499999999
 30
0.0
 40
3.2
  1
1
 41
0.8
  7
高3.2
100
AcDbText
  0
TEXT
  5
2D3
330
36
100
AcDbEntity
  8
0
 62
     3
100
AcDbText
 10
148.8407330000001
 20
-612.8216499999997
 30
0.0
 40
3.2
  1
1
 41
0.8
  7
高3.2
100
AcDbText
  0
TEXT
  5
2D4
330
36
100
AcDbEntity
  8
0
 62
     3
100
AcDbText
 10
148.8407330000001
 20
-617.8216499999997
 30
0.0
 40
3.2
  1
1式
 41
0.8
  7
高3.2
100
AcDbText
  0
TEXT
  5
2D5
330
36
100
AcDbEntity
  8
0
 62
     3
100
AcDbText
 10
68.840733
 20
-617.8216499999997
 30
0.0
 40
3.2
  1
PF樹脂
 41
0.8
  7
高3.2
100
AcDbText
  0
TEXT
  5
2D6
330
36
100
AcDbEntity
  8
0
 62
     3
100
AcDbText
 10
68.84073299999998
 20
-612.8216499999997
 30
0.0
 40
3.2
  1
SPCC
 41
0.8
  7
高3.2
100
AcDbText
  0
TEXT
  5
2D7
330
36
100
AcDbEntity
  8
0
 62
     3
100
AcDbText
 10
68.84073299999998
 20
-607.8216499999999
 30
0.0
 40
3.2
  1
SPCC
 41
0.8
  7
高3.2
100
AcDbText
  0
TEXT
  5
2D8
330
36
100
AcDbEntity
  8
0
 62
     3
100
AcDbText
 10
68.84073299999998
 20
-602.82165
 30
0.0
 40
3.2
  1
ネオン球
 41
0.8
  7
高3.2
100
AcDbText
  0
TEXT
  5
2D9
330
36
100
AcDbEntity
  8
0
 62
     3
100
AcDbText
 10
68.84073299999998
 20
-592.8216499999997
 30
0.0
 40
3.2
  1
PF樹脂
 41
0.8
  7
高3.2
100
AcDbText
  0
TEXT
  5
2DA
330
36
100
AcDbEntity
  8
0
 62
     3
100
AcDbText
 10
68.84073299999997
 20
-587.8216499999997
 30
0.0
 40
3.2
  1
耐熱ABS樹脂
 41
0.8
  7
高3.2
100
AcDbText
  0
TEXT
  5
2DB
330
36
100
AcDbEntity
  8
0
 62
     3
100
AcDbText
 10
68.84073299999997
 20
-577.8216499999992
 30
0.0
 40
3.2
  1
合成ゴム
 41
0.8
  7
高3.2
100
AcDbText
  0
TEXT
  5
2DC
330
36
100
AcDbEntity
  8
0
 62
     3
100
AcDbText
 10
93.840733
 20
-577.8216499999992
 30
0.0
 40
3.2
  1
M4ねじ
 41
0.8
  7
高3.2
100
AcDbText
  0
TEXT
  5
2DD
330
36
100
AcDbEntity
  8
0
 62
     3
100
AcDbText
 10
93.840733
 20
-587.8216499999997
 30
0.0
 40
3.2
  1
2PE、15A、125V　アース付き
 41
0.8
  7
高3.2
100
AcDbText
  0
TEXT
  5
2DE
330
36
100
AcDbEntity
  8
0
 62
     3
100
AcDbText
 10
93.840733
 20
-597.8216499999997
 30
0.0
 40
3.2
  1
AC150V用
 41
0.8
  7
高3.2
100
AcDbText
  0
TEXT
  5
2DF
330
36
100
AcDbEntity
  8
0
 62
     3
100
AcDbText
 10
93.840733
 20
-602.82165
 30
0.0
 40
3.2
  1
（赤）
 41
0.8
  7
高3.2
100
AcDbText
  0
TEXT
  5
2E0
330
36
100
AcDbEntity
  8
0
 62
     3
100
AcDbText
 10
93.840733
 20
-612.8216499999997
 30
0.0
 40
3.2
  1
上部カバー、ベース
 41
0.8
  7
高3.2
100
AcDbText
  0
TEXT
  5
2E1
330
36
100
AcDbEntity
  8
0
 62
     3
100
AcDbText
 10
148.8407330000001
 20
-622.8216499999997
 30
0.0
 40
3.2
  1
1
 41
0.8
  7
高3.2
100
AcDbText
  0
TEXT
  5
2E2
330
36
100
AcDbEntity
  8
0
 62
     3
100
AcDbText
 10
93.840733
 20
-592.8216499999997
 30
0.0
 40
3.2
  1
200V/100V 30A
 41
0.8
  7
高3.2
100
AcDbText
  0
TEXT
  5
2E3
330
36
100
AcDbEntity
  8
0
 62
     3
100
AcDbText
 10
68.840733
 20
-622.8216499999997
 30
0.0
 40
3.2
  1
VCT
 41
0.8
  7
高3.2
100
AcDbText
  0
TEXT
  5
2E4
330
36
100
AcDbEntity
  8
0
 62
     3
100
AcDbText
 10
93.840733
 20
-622.8216499999997
 30
0.0
 40
3.2
  1
3.5sqx3芯x3m
 41
0.8
  7
高3.2
100
AcDbText
  0
TEXT
  5
4C3
330
36
100
AcDbEntity
  8
0
 62
     3
100
AcDbText
 10
93.840733
 20
-617.8216499999997
 30
0.0
 40
3.2
  1
-
 41
0.8
  7
高3.2
100
AcDbText
  0
TEXT
  5
4C4
330
36
100
AcDbEntity
  8
0
 62
     3
100
AcDbText
 10
93.840733
 20
-607.8216499999999
 30
0.0
 40
3.2
  1
前面/後面パネル一体型
 41
0.8
  7
高3.2
100
AcDbText
  0
TEXT
  5
4C5
330
36
100
AcDbEntity
  8
0
 62
     3
100
AcDbText
 10
68.84073299999998
 20
-597.8216499999997
 30
0.0
 40
3.2
  1
-
 41
0.8
  7
高3.2
100
AcDbText
  0
LINE
  5
4D1
330
36
100
AcDbEntity
  8
0
 62
     3
100
AcDbLine
 10
254.340733
 20
-623.3216499999997
 30
0.0
 11
33.340733
 21
-623.3216499999997
 31
0.0
  0
LINE
  5
4D2
330
36
100
AcDbEntity
  8
0
100
AcDbLine
 10
254.340733
 20
-618.3216499999997
 30
0.0
 11
33.340733
 21
-618.3216499999997
 31
0.0
  0
LINE
  5
4D3
330
36
100
AcDbEntity
  8
0
100
AcDbLine
 10
254.340733
 20
-613.3216499999997
 30
0.0
 11
33.340733
 21
-613.3216499999997
 31
0.0
  0
LINE
  5
4D4
330
36
100
AcDbEntity
  8
0
100
AcDbLine
 10
254.340733
 20
-608.3216499999998
 30
0.0
 11
33.340733
 21
-608.3216499999998
 31
0.0
  0
LINE
  5
4D5
330
36
100
AcDbEntity
  8
0
100
AcDbLine
 10
254.340733
 20
-603.3216499999999
 30
0.0
 11
33.340733
 21
-603.3216499999999
 31
0.0
  0
LINE
  5
4D6
330
36
100
AcDbEntity
  8
0
100
AcDbLine
 10
254.340733
 20
-598.3216499999997
 30
0.0
 11
33.340733
 21
-598.3216499999997
 31
0.0
  0
LINE
  5
4D7
330
36
100
AcDbEntity
  8
0
100
AcDbLine
 10
254.340733
 20
-593.3216499999997
 30
0.0
 11
33.340733
 21
-593.3216499999997
 31
0.0
  0
LINE
  5
4D8
330
36
100
AcDbEntity
  8
0
100
AcDbLine
 10
254.340733
 20
-588.3216500000002
 30
0.0
 11
33.340733
 21
-588.3216499999997
 31
0.0
  0
LINE
  5
4D9
330
36
100
AcDbEntity
  8
0
100
AcDbLine
 10
254.340733
 20
-583.3216499999998
 30
0.0
 11
33.340733
 21
-583.3216499999998
 31
0.0
  0
LINE
  5
4DA
330
36
100
AcDbEntity
  8
0
 62
     3
100
AcDbLine
 10
254.340733
 20
-573.3216499999992
 30
0.0
 11
33.340733
 21
-573.3216499999992
 31
0.0
  0
TEXT
  5
4DD
330
36
100
AcDbEntity
  8
0
 62
     3
100
AcDbText
 10
157.840733
 20
-627.8216499999999
 30
0.0
 40
3.2
  1
コード
 41
0.8
  7
高3.2
100
AcDbText
  0
TEXT
  5
4DE
330
36
100
AcDbEntity
  8
0
 62
     3
100
AcDbText
 10
157.840733
 20
-622.8216499999997
 30
0.0
 40
3.2
  1
-
 41
0.8
  7
高3.2
100
AcDbText
  0
LINE
  5
4DF
330
36
100
AcDbEntity
  8
0
 62
     3
100
AcDbLine
 10
254.340733
 20
-628.3216499999999
 30
0.0
 11
254.340733
 21
-573.3216499999992
 31
0.0
  0
TEXT
  5
4E0
330
36
100
AcDbEntity
  8
0
 62
     3
100
AcDbText
 10
157.840733
 20
-617.8216499999997
 30
0.0
 40
3.2
  1
53814
 41
0.8
  7
高3.2
100
AcDbText
  0
TEXT
  5
4E1
330
36
100
AcDbEntity
  8
0
 62
     3
100
AcDbText
 10
157.840733
 20
-612.8216499999997
 30
0.0
 40
3.2
  1
57355●
 41
0.8
  7
高3.2
100
AcDbText
  0
TEXT
  5
4E2
330
36
100
AcDbEntity
  8
0
 62
     3
100
AcDbText
 10
157.840733
 20
-607.8216499999999
 30
0.0
 40
3.2
  1
57356
 41
0.8
  7
高3.2
100
AcDbText
  0
TEXT
  5
4E3
330
36
100
AcDbEntity
  8
0
 62
     3
100
AcDbText
 10
157.840733
 20
-602.82165
 30
0.0
 40
3.2
  1
53816
 41
0.8
  7
高3.2
100
AcDbText
  0
TEXT
  5
4E4
330
36
100
AcDbEntity
  8
0
 62
     3
100
AcDbText
 10
157.840733
 20
-597.8216499999997
 30
0.0
 40
3.2
  1
53817
 41
0.8
  7
高3.2
100
AcDbText
  0
TEXT
  5
4E5
330
36
100
AcDbEntity
  8
0
 62
     3
100
AcDbText
 10
157.840733
 20
-592.8216499999997
 30
0.0
 40
3.2
  1
51764
 41
0.8
  7
高3.2
100
AcDbText
  0
TEXT
  5
4E6
330
36
100
AcDbEntity
  8
0
 62
     3
100
AcDbText
 10
157.840733
 20
-587.8216499999997
 30
0.0
 40
3.2
  1
51356
 41
0.8
  7
高3.2
100
AcDbText
  0
TEXT
  5
4E7
330
36
100
AcDbEntity
  8
0
 62
     3
100
AcDbText
 10
157.840733
 20
-577.8216499999992
 30
0.0
 40
3.2
  1
53815
 41
0.8
  7
高3.2
100
AcDbText
  0
TEXT
  5
601
330
36
100
AcDbEntity
  8
0
 62
     3
100
AcDbText
 10
410.840733
 20
-363.766289
 30
0.0
 40
3.2
  1
担　当
  7
高3.2
100
AcDbText
  0
TEXT
  5
602
330
36
100
AcDbEntity
  8
0
 62
     3
100
AcDbText
 10
366.840733
 20
-363.766289
 30
0.0
 40
3.2
  1
変更・追記内容
  7
高3.2
100
AcDbText
  0
TEXT
  5
603
330
36
100
AcDbEntity
  8
0
 62
     3
100
AcDbText
 10
341.9542480003392
 20
-368.4368275099083
 30
0.0
 40
2.0
  1
1
  7
高2
100
AcDbText
  0
TEXT
  5
604
330
36
100
AcDbEntity
  8
0
 62
     3
100
AcDbText
 10
341.645736523582
 20
-373.6066442221812
 30
0.0
 40
2.0
  1
2
  7
高2
100
AcDbText
  0
TEXT
  5
605
330
36
100
AcDbEntity
  8
0
 62
     3
100
AcDbText
 10
348.840733
 20
-363.766289
 30
0.0
 40
3.2
  1
日　付
  7
高3.2
100
AcDbText
  0
TEXT
  5
606
330
36
100
AcDbEntity
  8
0
 62
     3
100
AcDbText
 10
348.840733
 20
-358.766289
 30
0.0
 40
3.2
  1
図　　　　面　　　　略　　　　歴
  7
高3.2
100
AcDbText
  0
TEXT
  5
607
330
36
100
AcDbEntity
  8
0
 62
     3
100
AcDbText
 10
338.840733
 20
-363.766289
 30
0.0
 40
3.2
  1
記号
  7
高3.2
100
AcDbText
  0
LINE
  5
608
330
36
100
AcDbEntity
  8
0
100
AcDbLine
 10
342.340733
 20
-370.4753929999998
 30
0.0
 11
340.440733
 21
-373.766289
 31
0.0
  0
LINE
  5
609
330
36
100
AcDbEntity
  8
0
100
AcDbLine
 10
342.340733
 20
-370.4753929999998
 30
0.0
 11
344.240733
 21
-373.766289
 31
0.0
  0
LINE
  5
60A
330
36
100
AcDbEntity
  8
0
100
AcDbLine
 10
340.440733
 20
-373.766289
 30
0.0
 11
344.240733
 21
-373.766289
 31
0.0
  0
LINE
  5
60B
330
36
100
AcDbEntity
  8
0
100
AcDbLine
 10
342.340733
 20
-365.475392
 30
0.0
 11
340.440733
 21
-368.766289
 31
0.0
  0
LINE
  5
60C
330
36
100
AcDbEntity
  8
0
100
AcDbLine
 10
342.340733
 20
-365.475392
 30
0.0
 11
344.240733
 21
-368.766289
 31
0.0
  0
LINE
  5
60D
330
36
100
AcDbEntity
  8
0
100
AcDbLine
 10
340.440733
 20
-368.766289
 30
0.0
 11
344.240733
 21
-368.766289
 31
0.0
  0
LINE
  5
60E
330
36
100
AcDbEntity
  8
0
 62
     3
100
AcDbLine
 10
337.340733
 20
-359.266289
 30
0.0
 11
423.340733
 21
-359.266289
 31
0.0
  0
LINE
  5
60F
330
36
100
AcDbEntity
  8
0
 62
     3
100
AcDbLine
 10
337.340733
 20
-364.266289
 30
0.0
 11
423.340733
 21
-364.266289
 31
0.0
  0
LINE
  5
610
330
36
100
AcDbEntity
  8
0
 62
     7
100
AcDbLine
 10
337.340733
 20
-369.266289
 30
0.0
 11
423.340733
 21
-369.266289
 31
0.0
  0
LINE
  5
611
330
36
100
AcDbEntity
  8
0
 62
     3
100
AcDbLine
 10
337.340733
 20
-374.266289
 30
0.0
 11
423.340733
 21
-374.266289
 31
0.0
  0
LINE
  5
612
330
36
100
AcDbEntity
  8
0
 62
     7
100
AcDbLine
 10
409.3407329999998
 20
-374.266289
 30
0.0
 11
409.3407329999998
 21
-359.266289
 31
0.0
  0
LINE
  5
613
330
36
100
AcDbEntity
  8
0
 62
     7
100
AcDbLine
 10
365.340733
 20
-374.266289
 30
0.0
 11
365.340733
 21
-359.266289
 31
0.0
  0
LINE
  5
614
330
36
100
AcDbEntity
  8
0
 62
     7
100
AcDbLine
 10
347.340733
 20
-374.266289
 30
0.0
 11
347.340733
 21
-359.266289
 31
0.0
  0
LINE
  5
615
330
36
100
AcDbEntity
  8
0
 62
     3
100
AcDbLine
 10
337.340733
 20
-374.266289
 30
0.0
 11
337.340733
 21
-354.266289
 31
0.0
  0
LINE
  5
738
330
36
100
AcDbEntity
  8
0
100
AcDbLine
 10
174.340733
 20
-628.3216499999999
 30
0.0
 11
174.340733
 21
-573.3216499999992
 31
0.0
  0
TEXT
  5
739
330
36
100
AcDbEntity
  8
0
 62
     3
100
AcDbText
 10
175.840733
 20
-627.8216499999999
 30
0.0
 40
3.2
  1
コード番号名称
 41
0.6
  7
高3.2
100
AcDbText
  0
TEXT
  5
73A
330
36
100
AcDbEntity
  8
0
 62
     3
100
AcDbText
 10
175.840733
 20
-622.8216499999997
 30
0.0
 40
3.2
  1
-
 41
0.6
  7
高3.2
100
AcDbText
  0
TEXT
  5
73B
330
36
100
AcDbEntity
  8
0
 62
     3
100
AcDbText
 10
175.840733
 20
-617.8216499999997
 30
0.0
 40
3.2
  1
TB,FB(200,300,500)兼用　取っ手
 41
0.6
  7
高3.2
100
AcDbText
  0
TEXT
  5
73C
330
36
100
AcDbEntity
  8
0
 62
     3
100
AcDbText
 10
175.840733
 20
-612.8216499999997
 30
0.0
 40
3.2
  1
-
 41
0.6
  7
高3.2
100
AcDbText
  0
TEXT
  5
73D
330
36
100
AcDbEntity
  8
0
 62
     3
100
AcDbText
 10
175.840733
 20
-607.8216499999999
 30
0.0
 40
3.2
  1
-
 41
0.6
  7
高3.2
100
AcDbText
  0
TEXT
  5
73E
330
36
100
AcDbEntity
  8
0
 62
     3
100
AcDbText
 10
175.840733
 20
-602.82165
 30
0.0
 40
3.2
  1
TB,FB(200,300,500)兼用　電源ランプ
 41
0.6
  7
高3.2
100
AcDbText
  0
TEXT
  5
73F
330
36
100
AcDbEntity
  8
0
 62
     3
100
AcDbText
 10
175.840733
 20
-597.8216499999997
 30
0.0
 40
3.2
  1
TB,FB(200,300,500)兼用　電圧計
 41
0.6
  7
高3.2
100
AcDbText
  0
TEXT
  5
740
330
36
100
AcDbEntity
  8
0
 62
     3
100
AcDbText
 10
175.840733
 20
-592.8216499999997
 30
0.0
 40
3.2
  1
B-2EA-30A
 41
0.6
  7
高3.2
100
AcDbText
  0
TEXT
  5
741
330
36
100
AcDbEntity
  8
0
 62
     3
100
AcDbText
 10
175.840733
 20
-587.8216499999997
 30
0.0
 40
3.2
  1
2PE-W(アース付コンセント白)
 41
0.6
  7
高3.2
100
AcDbText
  0
TEXT
  5
742
330
36
100
AcDbEntity
  8
0
 62
     3
100
AcDbText
 10
175.840733
 20
-577.8216499999992
 30
0.0
 40
3.2
  1
TB,FB(200,300,500),Fタイプ,NA-180DS兼用　脚ゴム(1/4)
 41
0.6
  7
高3.2
100
AcDbText
  0
LINE
  5
82B
330
36
100
AcDbEntity
  8
0
100
AcDbLine
 10
254.340733
 20
-578.3216499999997
 30
0.0
 11
33.34073300000001
 21
-578.3216499999997
 31
0.0
  0
TEXT
  5
82C
330
36
100
AcDbEntity
  8
0
 62
     3
100
AcDbText
 10
34.84073300000001
 20
-582.8216499999997
 30
0.0
 40
3.2
  1
9
 41
0.8
  7
高3.2
100
AcDbText
  0
TEXT
  5
82D
330
36
100
AcDbEntity
  8
0
 62
     3
100
AcDbText
 10
43.840733
 20
-582.8216499999997
 30
0.0
 40
3.2
  1
Wコンセント黒
 41
0.8
  7
高3.2
100
AcDbText
  0
TEXT
  5
82E
330
36
100
AcDbEntity
  8
0
 62
     3
100
AcDbText
 10
148.8407330000001
 20
-582.8216499999999
 30
0.0
 40
3.2
  1
2
 41
0.8
  7
高3.2
100
AcDbText
  0
TEXT
  5
82F
330
36
100
AcDbEntity
  8
0
 62
     3
100
AcDbText
 10
68.84073299999998
 20
-582.8216499999997
 30
0.0
 40
3.2
  1
耐熱ABS樹脂
 41
0.8
  7
高3.2
100
AcDbText
  0
TEXT
  5
830
330
36
100
AcDbEntity
  8
0
 62
     3
100
AcDbText
 10
93.84073300000002
 20
-582.8216499999997
 30
0.0
 40
3.2
  1
2PE、15A、125V　アース付き
 41
0.8
  7
高3.2
100
AcDbText
  0
TEXT
  5
831
330
36
100
AcDbEntity
  8
0
 62
     3
100
AcDbText
 10
157.840733
 20
-582.8216499999999
 30
0.0
 40
3.2
  1
51355
 41
0.8
  7
高3.2
100
AcDbText
  0
TEXT
  5
832
330
36
100
AcDbEntity
  8
0
 62
     3
100
AcDbText
 10
175.840733
 20
-582.8216499999999
 30
0.0
 40
3.2
  1
2PE-B(アース付コンセント黒)
 41
0.6
  7
高3.2
100
AcDbText
  0
LINE
  5
F06
330
36
100
AcDbEntity
  8
0
  6
Continuous
 62
     3
100
AcDbLine
 10
165.996430049548
 20
-394.7616856222376
 30
0.0
 11
55.99643004954803
 21
-394.7616856222376
 31
0.0
  0
LINE
  5
F07
330
36
100
AcDbEntity
  8
0
  6
Continuous
 62
     3
100
AcDbLine
 10
364.9947874266984
 20
-394.7616856222376
 30
0.0
 11
364.9947874266984
 21
-494.7616856222373
 31
0.0
  0
LINE
  5
F08
330
36
100
AcDbEntity
  8
0
  6
Continuous
 62
     3
100
AcDbLine
 10
197.4947874266984
 20
-489.7616856222374
 30
0.0
 11
197.4947874266984
 21
-394.7616856222376
 31
0.0
  0
LINE
  5
F09
330
36
100
AcDbEntity
  8
0
  6
Continuous
 62
     3
100
AcDbLine
 10
173.996430049548
 20
-402.7616856222373
 30
0.0
 11
173.996430049548
 21
-494.7616856222373
 31
0.0
  0
LINE
  5
F0A
330
36
100
AcDbEntity
  8
0
  6
Continuous
 62
     3
100
AcDbLine
 10
47.99643004954805
 20
-402.7616856222373
 30
0.0
 11
47.99643004954805
 21
-494.7616856222373
 31
0.0
  0
LINE
  5
F0B
330
36
100
AcDbEntity
  8
0
  6
Continuous
 62
     3
100
AcDbLine
 10
197.4947874266984
 20
-394.7616856222376
 30
0.0
 11
364.9947874266984
 21
-394.7616856222376
 31
0.0
  0
LINE
  5
F0F
330
36
100
AcDbEntity
  8
0
  6
Continuous
 62
     3
100
AcDbLine
 10
202.4947874266984
 20
-494.7616856222373
 30
0.0
 11
364.9947874266984
 21
-494.7616856222373
 31
0.0
  0
LINE
  5
F10
330
36
100
AcDbEntity
  8
0
  6
Continuous
 62
     3
100
AcDbLine
 10
173.996430049548
 20
-494.7616856222373
 30
0.0
 11
47.99643004954805
 21
-494.7616856222373
 31
0.0
  0
ARC
  5
F11
330
36
100
AcDbEntity
  8
0
  6
Continuous
 62
     3
100
AcDbCircle
 10
202.4947874266984
 20
-489.7616856222374
 30
0.0
 40
5.0
100
AcDbArc
 50
180.0
 51
270.0
  0
ARC
  5
F12
330
36
100
AcDbEntity
  8
0
  6
Continuous
 62
     3
100
AcDbCircle
 10
165.996430049548
 20
-402.7616856222373
 30
0.0
 40
8.0
100
AcDbArc
 50
0.0
 51
90.0
  0
ARC
  5
F13
330
36
100
AcDbEntity
  8
0
  6
Continuous
 62
     3
100
AcDbCircle
 10
55.99643004954808
 20
-402.7616856222373
 30
0.0
 40
8.0
100
AcDbArc
 50
90.0
 51
180.0
  0
LINE
  5
F14
330
36
100
AcDbEntity
  8
0
  6
Continuous
 62
     3
100
AcDbLine
 10
173.496430049548
 20
-402.7616856222373
 30
0.0
 11
173.496430049548
 21
-494.7616856222373
 31
0.0
  0
ARC
  5
F15
330
36
100
AcDbEntity
  8
0
  6
Continuous
 62
     3
100
AcDbCircle
 10
165.996430049548
 20
-402.7616856222373
 30
0.0
 40
7.5
100
AcDbArc
 50
0.0
 51
90.0
  0
LINE
  5
F16
330
36
100
AcDbEntity
  8
0
  6
Continuous
 62
     3
100
AcDbLine
 10
165.996430049548
 20
-395.2616856222375
 30
0.0
 11
55.99643004954803
 21
-395.2616856222375
 31
0.0
  0
ARC
  5
F17
330
36
100
AcDbEntity
  8
0
  6
Continuous
 62
     3
100
AcDbCircle
 10
55.99643004954808
 20
-402.7616856222373
 30
0.0
 40
7.5
100
AcDbArc
 50
90.0
 51
180.0
  0
LINE
  5
F18
330
36
100
AcDbEntity
  8
0
  6
Continuous
 62
     3
100
AcDbLine
 10
48.49643004954803
 20
-402.7616856222373
 30
0.0
 11
48.49643004954803
 21
-494.7616856222373
 31
0.0
  0
LINE
  5
F19
330
36
100
AcDbEntity
  8
0
  6
Continuous
100
AcDbLine
 10
306.4947874266984
 20
-472.2616856222376
 30
0.0
 11
333.9947874266984
 21
-472.2616856222376
 31
0.0
  0
LINE
  5
F24
330
36
100
AcDbEntity
  8
0
  6
Continuous
100
AcDbLine
 10
311.4947874266984
 20
-467.2616856222374
 30
0.0
 11
328.9947874266984
 21
-467.2616856222374
 31
0.0
  0
ARC
  5
F29
330
36
100
AcDbEntity
  8
0
  6
Continuous
100
AcDbCircle
 10
328.9947874266984
 20
-472.2616856222376
 30
0.0
 40
5.0
100
AcDbArc
 50
0.0
 51
90.0
  0
ARC
  5
F2A
330
36
100
AcDbEntity
  8
0
  6
Continuous
100
AcDbCircle
 10
311.4947874266984
 20
-472.2616856222376
 30
0.0
 40
5.0
100
AcDbArc
 50
90.0
 51
180.0
  0
LINE
  5
F2B
330
36
100
AcDbEntity
  8
0
  6
Continuous
100
AcDbLine
 10
241.4947874266984
 20
-472.2616856222376
 30
0.0
 11
268.9947874266984
 21
-472.2616856222376
 31
0.0
  0
LINE
  5
F2C
330
36
100
AcDbEntity
  8
0
  6
Continuous
100
AcDbLine
 10
246.4947874266984
 20
-467.2616856222374
 30
0.0
 11
263.9947874266984
 21
-467.2616856222374
 31
0.0
  0
ARC
  5
F2D
330
36
100
AcDbEntity
  8
0
  6
Continuous
100
AcDbCircle
 10
246.4947874266984
 20
-472.2616856222376
 30
0.0
 40
5.0
100
AcDbArc
 50
90.0
 51
180.0
  0
ARC
  5
F2E
330
36
100
AcDbEntity
  8
0
  6
Continuous
100
AcDbCircle
 10
263.9947874266984
 20
-472.2616856222376
 30
0.0
 40
5.0
100
AcDbArc
 50
0.0
 51
90.0
  0
LINE
  5
F2F
330
36
100
AcDbEntity
  8
0
  6
Continuous
100
AcDbLine
 10
306.4947874266984
 20
-462.2616856222373
 30
0.0
 11
333.9947874266984
 21
-462.2616856222373
 31
0.0
  0
LINE
  5
F30
330
36
100
AcDbEntity
  8
0
  6
Continuous
100
AcDbLine
 10
311.4947874266984
 20
-457.2616856222373
 30
0.0
 11
328.9947874266984
 21
-457.2616856222373
 31
0.0
  0
ARC
  5
F31
330
36
100
AcDbEntity
  8
0
  6
Continuous
100
AcDbCircle
 10
311.4947874266984
 20
-462.2616856222373
 30
0.0
 40
5.0
100
AcDbArc
 50
90.0
 51
180.0
  0
ARC
  5
F32
330
36
100
AcDbEntity
  8
0
  6
Continuous
100
AcDbCircle
 10
328.9947874266984
 20
-462.2616856222373
 30
0.0
 40
5.0
100
AcDbArc
 50
0.0
 51
90.0
  0
LINE
  5
F33
330
36
100
AcDbEntity
  8
0
  6
Continuous
100
AcDbLine
 10
241.4947874266984
 20
-462.2616856222373
 30
0.0
 11
268.9947874266984
 21
-462.2616856222373
 31
0.0
  0
LINE
  5
F34
330
36
100
AcDbEntity
  8
0
  6
Continuous
100
AcDbLine
 10
246.4947874266984
 20
-457.2616856222373
 30
0.0
 11
263.9947874266984
 21
-457.2616856222373
 31
0.0
  0
ARC
  5
F35
330
36
100
AcDbEntity
  8
0
  6
Continuous
100
AcDbCircle
 10
246.4947874266984
 20
-462.2616856222373
 30
0.0
 40
5.0
100
AcDbArc
 50
90.0
 51
180.0
  0
ARC
  5
F36
330
36
100
AcDbEntity
  8
0
  6
Continuous
100
AcDbCircle
 10
263.9947874266984
 20
-462.2616856222373
 30
0.0
 40
5.0
100
AcDbArc
 50
0.0
 51
90.0
  0
LINE
  5
F37
330
36
100
AcDbEntity
  8
0
  6
Continuous
100
AcDbLine
 10
306.4947874266984
 20
-452.2616856222374
 30
0.0
 11
333.9947874266984
 21
-452.2616856222374
 31
0.0
  0
LINE
  5
F38
330
36
100
AcDbEntity
  8
0
  6
Continuous
100
AcDbLine
 10
311.4947874266984
 20
-447.2616856222376
 30
0.0
 11
328.9947874266984
 21
-447.2616856222376
 31
0.0
  0
ARC
  5
F39
330
36
100
AcDbEntity
  8
0
  6
Continuous
100
AcDbCircle
 10
311.4947874266984
 20
-452.2616856222374
 30
0.0
 40
5.0
100
AcDbArc
 50
90.0
 51
180.0
  0
ARC
  5
F3A
330
36
100
AcDbEntity
  8
0
  6
Continuous
100
AcDbCircle
 10
328.9947874266984
 20
-452.2616856222374
 30
0.0
 40
5.0
100
AcDbArc
 50
0.0
 51
90.0
  0
LINE
  5
F3B
330
36
100
AcDbEntity
  8
0
  6
Continuous
100
AcDbLine
 10
241.4947874266984
 20
-452.2616856222374
 30
0.0
 11
268.9947874266984
 21
-452.2616856222374
 31
0.0
  0
LINE
  5
F3C
330
36
100
AcDbEntity
  8
0
  6
Continuous
100
AcDbLine
 10
246.4947874266984
 20
-447.2616856222376
 30
0.0
 11
263.9947874266984
 21
-447.2616856222376
 31
0.0
  0
ARC
  5
F3D
330
36
100
AcDbEntity
  8
0
  6
Continuous
100
AcDbCircle
 10
246.4947874266984
 20
-452.2616856222374
 30
0.0
 40
5.0
100
AcDbArc
 50
90.0
 51
180.0
  0
ARC
  5
F3E
330
36
100
AcDbEntity
  8
0
  6
Continuous
100
AcDbCircle
 10
263.9947874266984
 20
-452.2616856222374
 30
0.0
 40
5.0
100
AcDbArc
 50
0.0
 51
90.0
  0
LINE
  5
F3F
330
36
100
AcDbEntity
  8
0
  6
Continuous
100
AcDbLine
 10
306.4947874266984
 20
-442.2616856222374
 30
0.0
 11
333.9947874266984
 21
-442.2616856222374
 31
0.0
  0
LINE
  5
F40
330
36
100
AcDbEntity
  8
0
  6
Continuous
100
AcDbLine
 10
311.4947874266984
 20
-437.2616856222373
 30
0.0
 11
328.9947874266984
 21
-437.2616856222373
 31
0.0
  0
ARC
  5
F41
330
36
100
AcDbEntity
  8
0
  6
Continuous
100
AcDbCircle
 10
311.4947874266984
 20
-442.2616856222374
 30
0.0
 40
5.0
100
AcDbArc
 50
90.0
 51
180.0
  0
ARC
  5
F42
330
36
100
AcDbEntity
  8
0
  6
Continuous
100
AcDbCircle
 10
328.9947874266984
 20
-442.2616856222374
 30
0.0
 40
5.0
100
AcDbArc
 50
0.0
 51
90.0
  0
LINE
  5
F43
330
36
100
AcDbEntity
  8
0
  6
Continuous
100
AcDbLine
 10
241.4947874266984
 20
-442.2616856222374
 30
0.0
 11
268.9947874266984
 21
-442.2616856222374
 31
0.0
  0
LINE
  5
F44
330
36
100
AcDbEntity
  8
0
  6
Continuous
100
AcDbLine
 10
246.4947874266984
 20
-437.2616856222373
 30
0.0
 11
263.9947874266984
 21
-437.2616856222373
 31
0.0
  0
ARC
  5
F45
330
36
100
AcDbEntity
  8
0
  6
Continuous
100
AcDbCircle
 10
246.4947874266984
 20
-442.2616856222374
 30
0.0
 40
5.0
100
AcDbArc
 50
90.0
 51
180.0
  0
ARC
  5
F46
330
36
100
AcDbEntity
  8
0
  6
Continuous
100
AcDbCircle
 10
263.9947874266984
 20
-442.2616856222374
 30
0.0
 40
5.0
100
AcDbArc
 50
0.0
 51
90.0
  0
LINE
  5
F47
330
36
100
AcDbEntity
  8
0
  6
Continuous
100
AcDbLine
 10
306.4947874266984
 20
-432.2616856222373
 30
0.0
 11
333.9947874266984
 21
-432.2616856222373
 31
0.0
  0
LINE
  5
F48
330
36
100
AcDbEntity
  8
0
  6
Continuous
100
AcDbLine
 10
311.4947874266984
 20
-427.2616856222374
 30
0.0
 11
328.9947874266984
 21
-427.2616856222374
 31
0.0
  0
ARC
  5
F49
330
36
100
AcDbEntity
  8
0
  6
Continuous
100
AcDbCircle
 10
311.4947874266984
 20
-432.2616856222373
 30
0.0
 40
5.0
100
AcDbArc
 50
90.0
 51
180.0
  0
ARC
  5
F4A
330
36
100
AcDbEntity
  8
0
  6
Continuous
100
AcDbCircle
 10
328.9947874266984
 20
-432.2616856222373
 30
0.0
 40
5.0
100
AcDbArc
 50
0.0
 51
90.0
  0
LINE
  5
F4B
330
36
100
AcDbEntity
  8
0
  6
Continuous
100
AcDbLine
 10
241.4947874266984
 20
-432.2616856222373
 30
0.0
 11
268.9947874266984
 21
-432.2616856222373
 31
0.0
  0
LINE
  5
F4C
330
36
100
AcDbEntity
  8
0
  6
Continuous
100
AcDbLine
 10
246.4947874266984
 20
-427.2616856222374
 30
0.0
 11
263.9947874266984
 21
-427.2616856222374
 31
0.0
  0
ARC
  5
F4D
330
36
100
AcDbEntity
  8
0
  6
Continuous
100
AcDbCircle
 10
246.4947874266984
 20
-432.2616856222373
 30
0.0
 40
5.0
100
AcDbArc
 50
90.0
 51
180.0
  0
ARC
  5
F4E
330
36
100
AcDbEntity
  8
0
  6
Continuous
100
AcDbCircle
 10
263.9947874266984
 20
-432.2616856222373
 30
0.0
 40
5.0
100
AcDbArc
 50
0.0
 51
90.0
  0
LINE
  5
F4F
330
36
100
AcDbEntity
  8
0
  6
Continuous
100
AcDbLine
 10
306.4947874266984
 20
-422.2616856222376
 30
0.0
 11
333.9947874266984
 21
-422.2616856222376
 31
0.0
  0
LINE
  5
F50
330
36
100
AcDbEntity
  8
0
  6
Continuous
100
AcDbLine
 10
311.4947874266984
 20
-417.2616856222374
 30
0.0
 11
328.9947874266984
 21
-417.2616856222374
 31
0.0
  0
ARC
  5
F51
330
36
100
AcDbEntity
  8
0
  6
Continuous
100
AcDbCircle
 10
311.4947874266984
 20
-422.2616856222376
 30
0.0
 40
5.0
100
AcDbArc
 50
90.0
 51
180.0
  0
ARC
  5
F52
330
36
100
AcDbEntity
  8
0
  6
Continuous
100
AcDbCircle
 10
328.9947874266984
 20
-422.2616856222376
 30
0.0
 40
5.0
100
AcDbArc
 50
0.0
 51
90.0
  0
LINE
  5
F53
330
36
100
AcDbEntity
  8
0
  6
Continuous
100
AcDbLine
 10
241.4947874266984
 20
-422.2616856222376
 30
0.0
 11
268.9947874266984
 21
-422.2616856222376
 31
0.0
  0
LINE
  5
F54
330
36
100
AcDbEntity
  8
0
  6
Continuous
100
AcDbLine
 10
246.4947874266984
 20
-417.2616856222374
 30
0.0
 11
263.9947874266984
 21
-417.2616856222374
 31
0.0
  0
ARC
  5
F55
330
36
100
AcDbEntity
  8
0
  6
Continuous
100
AcDbCircle
 10
246.4947874266984
 20
-422.2616856222376
 30
0.0
 40
5.0
100
AcDbArc
 50
90.0
 51
180.0
  0
ARC
  5
F56
330
36
100
AcDbEntity
  8
0
  6
Continuous
100
AcDbCircle
 10
263.9947874266984
 20
-422.2616856222376
 30
0.0
 40
5.0
100
AcDbArc
 50
0.0
 51
90.0
  0
LINE
  5
F57
330
36
100
AcDbEntity
  8
0
  6
Continuous
100
AcDbLine
 10
306.4947874266984
 20
-412.2616856222373
 30
0.0
 11
333.9947874266984
 21
-412.2616856222373
 31
0.0
  0
LINE
  5
F58
330
36
100
AcDbEntity
  8
0
  6
Continuous
100
AcDbLine
 10
311.4947874266984
 20
-407.2616856222373
 30
0.0
 11
328.9947874266984
 21
-407.2616856222373
 31
0.0
  0
ARC
  5
F59
330
36
100
AcDbEntity
  8
0
  6
Continuous
100
AcDbCircle
 10
311.4947874266984
 20
-412.2616856222373
 30
0.0
 40
5.0
100
AcDbArc
 50
90.0
 51
180.0
  0
ARC
  5
F5A
330
36
100
AcDbEntity
  8
0
  6
Continuous
100
AcDbCircle
 10
328.9947874266984
 20
-412.2616856222373
 30
0.0
 40
5.0
100
AcDbArc
 50
0.0
 51
90.0
  0
LINE
  5
F5B
330
36
100
AcDbEntity
  8
0
  6
Continuous
100
AcDbLine
 10
241.4947874266984
 20
-412.2616856222373
 30
0.0
 11
268.9947874266984
 21
-412.2616856222373
 31
0.0
  0
LINE
  5
F5C
330
36
100
AcDbEntity
  8
0
  6
Continuous
100
AcDbLine
 10
246.4947874266984
 20
-407.2616856222373
 30
0.0
 11
263.9947874266984
 21
-407.2616856222373
 31
0.0
  0
ARC
  5
F5D
330
36
100
AcDbEntity
  8
0
  6
Continuous
100
AcDbCircle
 10
246.4947874266984
 20
-412.2616856222373
 30
0.0
 40
5.0
100
AcDbArc
 50
90.0
 51
180.0
  0
ARC
  5
F5E
330
36
100
AcDbEntity
  8
0
  6
Continuous
100
AcDbCircle
 10
263.9947874266984
 20
-412.2616856222373
 30
0.0
 40
5.0
100
AcDbArc
 50
0.0
 51
90.0
  0
CIRCLE
  5
F61
330
36
100
AcDbEntity
  8
0
  6
Continuous
100
AcDbCircle
 10
361.2447874266984
 20
-444.7616856222373
 30
0.0
 40
1.75
  0
CIRCLE
  5
F63
330
36
100
AcDbEntity
  8
0
  6
Continuous
100
AcDbCircle
 10
214.2447874266984
 20
-444.7616856222373
 30
0.0
 40
1.75
  0
CIRCLE
  5
10E1
330
36
100
AcDbEntity
  8
0
  6
Continuous
100
AcDbCircle
 10
352.9947874266984
 20
-491.0116856222376
 30
0.0
 40
1.75
  0
CIRCLE
  5
10EA
330
36
100
AcDbEntity
  8
0
  6
Continuous
100
AcDbCircle
 10
309.4947874266984
 20
-491.0116856222376
 30
0.0
 40
1.75
  0
CIRCLE
  5
10EB
330
36
100
AcDbEntity
  8
0
  6
Continuous
100
AcDbCircle
 10
266.9947874266984
 20
-491.0116856222376
 30
0.0
 40
1.75
  0
CIRCLE
  5
10EC
330
36
100
AcDbEntity
  8
0
  6
Continuous
100
AcDbCircle
 10
223.4947874266984
 20
-491.0116856222376
 30
0.0
 40
1.75
  0
LINE
  5
10ED
330
36
100
AcDbEntity
  8
0
  6
Continuous
 62
     3
100
AcDbLine
 10
239.9947874266984
 20
-394.7616856222376
 30
0.0
 11
239.9947874266984
 21
-392.2616856222376
 31
0.0
  0
LINE
  5
10EE
330
36
100
AcDbEntity
  8
0
  6
Continuous
 62
     3
100
AcDbLine
 10
335.9947874266984
 20
-394.7616856222376
 30
0.0
 11
335.9947874266984
 21
-392.2616856222376
 31
0.0
  0
LINE
  5
10EF
330
36
100
AcDbEntity
  8
0
  6
Continuous
 62
     3
100
AcDbLine
 10
270.3501264860258
 20
-372.2616856222376
 30
0.0
 11
305.639448367371
 21
-372.2616856222376
 31
0.0
  0
LINE
  5
10F7
330
36
100
AcDbEntity
  8
0
  6
Continuous
 62
     3
100
AcDbLine
 10
252.6724569563622
 20
-379.5840160925737
 30
0.0
 11
239.9947874266984
 21
-392.2616856222376
 31
0.0
  0
LINE
  5
10F8
330
36
100
AcDbEntity
  8
0
  6
Continuous
 62
     3
100
AcDbLine
 10
323.3171178970346
 20
-379.5840160925738
 30
0.0
 11
335.9947874266984
 21
-392.2616856222376
 31
0.0
  0
LINE
  5
10F9
330
36
100
AcDbEntity
  8
0
  6
Continuous
 62
     3
100
AcDbLine
 10
317.9947874266984
 20
-394.7616856222376
 30
0.0
 11
314.5666199431354
 21
-381.9675903967251
 31
0.0
  0
LINE
  5
10FA
330
36
100
AcDbEntity
  8
0
  6
Continuous
 62
     3
100
AcDbLine
 10
257.9947874266984
 20
-394.7616856222376
 30
0.0
 11
261.4229549102614
 21
-381.9675903967251
 31
0.0
  0
LINE
  5
10FF
330
36
100
AcDbEntity
  8
0
  6
Continuous
 62
     3
100
AcDbLine
 10
266.2525840417067
 20
-378.2616856222376
 30
0.0
 11
309.7369908116901
 21
-378.2616856222376
 31
0.0
  0
ARC
  5
1100
330
36
100
AcDbEntity
  8
0
  6
Continuous
 62
     3
100
AcDbCircle
 10
309.7369908116901
 20
-383.2616856222376
 30
0.0
 40
5.0
100
AcDbArc
 50
15.0000000000011
 51
90.0
  0
ARC
  5
1101
330
36
100
AcDbEntity
  8
0
  6
Continuous
 62
     3
100
AcDbCircle
 10
266.2525840417067
 20
-383.2616856222376
 30
0.0
 40
5.0
100
AcDbArc
 50
90.0
 51
164.9999999999989
  0
ARC
  5
1102
330
36
100
AcDbEntity
  8
0
  6
Continuous
 62
     3
100
AcDbCircle
 10
305.639448367371
 20
-397.2616856222376
 30
0.0
 40
25.0
100
AcDbArc
 50
45.00000000000027
 51
90.0
  0
ARC
  5
1103
330
36
100
AcDbEntity
  8
0
  6
Continuous
 62
     3
100
AcDbCircle
 10
270.3501264860258
 20
-397.2616856222375
 30
0.0
 40
25.0
100
AcDbArc
 50
90.0
 51
134.9999999999997
  0
LINE
  5
1104
330
36
100
AcDbEntity
  8
0
  6
Continuous
 62
     3
100
AcDbLine
 10
114.246430049548
 20
-372.2616856222376
 30
0.0
 11
107.746430049548
 21
-372.2616856222376
 31
0.0
  0
LINE
  5
1106
330
36
100
AcDbEntity
  8
0
  6
Continuous
 62
     3
100
AcDbLine
 10
116.746430049548
 20
-374.7616856222375
 30
0.0
 11
116.746430049548
 21
-394.7616856222376
 31
0.0
  0
LINE
  5
1107
330
36
100
AcDbEntity
  8
0
  6
Continuous
 62
     3
100
AcDbLine
 10
105.246430049548
 20
-374.7616856222375
 30
0.0
 11
105.246430049548
 21
-394.7616856222376
 31
0.0
  0
ARC
  5
1108
330
36
100
AcDbEntity
  8
0
  6
Continuous
 62
     3
100
AcDbCircle
 10
114.246430049548
 20
-374.7616856222375
 30
0.0
 40
2.5
100
AcDbArc
 50
0.0
 51
90.0
  0
ARC
  5
1109
330
36
100
AcDbEntity
  8
0
  6
Continuous
 62
     3
100
AcDbCircle
 10
107.746430049548
 20
-374.7616856222375
 30
0.0
 40
2.5
100
AcDbArc
 50
90.0
 51
180.0
  0
LINE
  5
1110
330
36
100
AcDbEntity
  8
0
  6
Continuous
 62
     3
100
AcDbLine
 10
357.4947874266984
 20
-494.7616856222373
 30
0.0
 11
356.7447874266984
 21
-502.2616856222374
 31
0.0
  0
LINE
  5
1111
330
36
100
AcDbEntity
  8
0
  6
Continuous
 62
     3
100
AcDbLine
 10
356.7447874266984
 20
-502.2616856222374
 30
0.0
 11
348.2447874266984
 21
-502.2616856222374
 31
0.0
  0
LINE
  5
1112
330
36
100
AcDbEntity
  8
0
  6
Continuous
 62
     3
100
AcDbLine
 10
348.2447874266984
 20
-502.2616856222374
 30
0.0
 11
347.4947874266984
 21
-494.7616856222373
 31
0.0
  0
LINE
  5
1113
330
36
100
AcDbEntity
  8
0
  6
Continuous
 62
     3
100
AcDbLine
 10
227.4947874266984
 20
-494.7616856222373
 30
0.0
 11
226.7447874266984
 21
-502.2616856222374
 31
0.0
  0
LINE
  5
1114
330
36
100
AcDbEntity
  8
0
  6
Continuous
 62
     3
100
AcDbLine
 10
226.7447874266984
 20
-502.2616856222374
 30
0.0
 11
218.2447874266984
 21
-502.2616856222374
 31
0.0
  0
LINE
  5
1115
330
36
100
AcDbEntity
  8
0
  6
Continuous
 62
     3
100
AcDbLine
 10
218.2447874266984
 20
-502.2616856222374
 30
0.0
 11
217.4947874266984
 21
-494.7616856222373
 31
0.0
  0
LINE
  5
1118
330
36
100
AcDbEntity
  8
0
  6
Continuous
 62
     3
100
AcDbLine
 10
163.496430049548
 20
-494.7616856222373
 30
0.0
 11
162.746430049548
 21
-502.2616856222374
 31
0.0
  0
LINE
  5
1119
330
36
100
AcDbEntity
  8
0
  6
Continuous
 62
     3
100
AcDbLine
 10
162.746430049548
 20
-502.2616856222374
 30
0.0
 11
154.246430049548
 21
-502.2616856222374
 31
0.0
  0
LINE
  5
111A
330
36
100
AcDbEntity
  8
0
  6
Continuous
 62
     3
100
AcDbLine
 10
154.246430049548
 20
-502.2616856222374
 30
0.0
 11
153.496430049548
 21
-494.7616856222373
 31
0.0
  0
LINE
  5
111B
330
36
100
AcDbEntity
  8
0
  6
Continuous
 62
     3
100
AcDbLine
 10
68.49643004954804
 20
-494.7616856222373
 30
0.0
 11
67.74643004954803
 21
-502.2616856222374
 31
0.0
  0
LINE
  5
111C
330
36
100
AcDbEntity
  8
0
  6
Continuous
 62
     3
100
AcDbLine
 10
67.74643004954803
 20
-502.2616856222374
 30
0.0
 11
59.24643004954806
 21
-502.2616856222374
 31
0.0
  0
LINE
  5
111D
330
36
100
AcDbEntity
  8
0
  6
Continuous
 62
     3
100
AcDbLine
 10
59.24643004954806
 20
-502.2616856222374
 30
0.0
 11
58.49643004954803
 21
-494.7616856222373
 31
0.0
  0
LINE
  5
111F
330
36
100
AcDbEntity
  8
0
  6
Continuous
 62
     3
100
AcDbLine
 10
364.9947874266984
 20
-482.7616856222373
 30
0.0
 11
365.4947874266984
 21
-482.7616856222373
 31
0.0
  0
LINE
  5
1120
330
36
100
AcDbEntity
  8
0
  6
Continuous
 62
     3
100
AcDbLine
 10
364.9947874266984
 20
-472.7616856222375
 30
0.0
 11
365.4947874266984
 21
-472.7616856222375
 31
0.0
  0
LINE
  5
1121
330
36
100
AcDbEntity
  8
0
  6
Continuous
 62
     3
100
AcDbLine
 10
365.4947874266984
 20
-472.7616856222375
 30
0.0
 11
365.4947874266984
 21
-482.7616856222373
 31
0.0
  0
LINE
  5
1126
330
36
100
AcDbEntity
  8
0
  6
Continuous
 62
     3
100
AcDbLine
 10
376.3572965564263
 20
-474.6116856222376
 30
0.0
 11
365.4947874266984
 21
-474.6116856222376
 31
0.0
  0
LINE
  5
1127
330
36
100
AcDbEntity
  8
0
  6
Continuous
 62
     3
100
AcDbLine
 10
376.3572965564263
 20
-480.9116856222375
 30
0.0
 11
365.4947874266984
 21
-480.9116856222375
 31
0.0
  0
LINE
  5
1129
330
36
100
AcDbEntity
  8
0
  6
Continuous
100
AcDbLine
 10
362.9947874266984
 20
-394.2616856222376
 30
0.0
 11
362.9947874266984
 21
-394.7616856222376
 31
0.0
  0
LINE
  5
112A
330
36
100
AcDbEntity
  8
0
  6
Continuous
100
AcDbLine
 10
359.4947874266984
 20
-394.2616856222376
 30
0.0
 11
359.4947874266984
 21
-394.7616856222376
 31
0.0
  0
LINE
  5
112B
330
36
100
AcDbEntity
  8
0
  6
Continuous
100
AcDbLine
 10
359.4947874266984
 20
-394.2616856222376
 30
0.0
 11
362.9947874266984
 21
-394.2616856222376
 31
0.0
  0
ARC
  5
112D
330
36
100
AcDbEntity
  8
0
  6
Continuous
100
AcDbCircle
 10
361.2447874266984
 20
-397.0741856222375
 30
0.0
 40
3.312500000000001
100
AcDbArc
 50
58.10920819815414
 51
121.8907918018458
  0
LINE
  5
112F
330
36
100
AcDbEntity
  8
0
  6
Continuous
100
AcDbLine
 10
212.4947874266984
 20
-394.2616856222376
 30
0.0
 11
215.9947874266984
 21
-394.2616856222376
 31
0.0
  0
LINE
  5
1130
330
36
100
AcDbEntity
  8
0
  6
Continuous
100
AcDbLine
 10
212.4947874266984
 20
-394.2616856222376
 30
0.0
 11
212.4947874266984
 21
-394.7616856222376
 31
0.0
  0
LINE
  5
1131
330
36
100
AcDbEntity
  8
0
  6
Continuous
100
AcDbLine
 10
215.9947874266984
 20
-394.2616856222376
 30
0.0
 11
215.9947874266984
 21
-394.7616856222376
 31
0.0
  0
ARC
  5
1132
330
36
100
AcDbEntity
  8
0
  6
Continuous
100
AcDbCircle
 10
214.2447874266984
 20
-397.0741856222375
 30
0.0
 40
3.312500000000001
100
AcDbArc
 50
58.10920819815414
 51
121.8907918018458
  0
CIRCLE
  5
1322
330
36
100
AcDbEntity
  8
0
 62
     7
100
AcDbCircle
 10
63.49643004954803
 20
-442.5116856222373
 30
0.0
 40
1.375
  0
CIRCLE
  5
1323
330
36
100
AcDbEntity
  8
0
 62
     7
100
AcDbCircle
 10
63.49643004954803
 20
-482.7616856222373
 30
0.0
 40
1.375
  0
LINE
  5
1324
330
36
100
AcDbEntity
  8
0
 62
     3
100
AcDbLine
 10
64.84643004954808
 20
-477.8616856222376
 30
0.0
 11
63.49643004954803
 21
-477.8616856222376
 31
0.0
  0
LINE
  5
1325
330
36
100
AcDbEntity
  8
0
 62
     3
100
AcDbLine
 10
64.84643004954808
 20
-476.5116856222373
 30
0.0
 11
64.84643004954808
 21
-477.8616856222376
 31
0.0
  0
ARC
  5
1326
330
36
100
AcDbEntity
  8
0
 62
     3
100
AcDbCircle
 10
63.49643004954803
 20
-476.5116856222373
 30
0.0
 40
1.35
100
AcDbArc
 50
0.0
 51
180.0
  0
LINE
  5
1327
330
36
100
AcDbEntity
  8
0
 62
     3
100
AcDbLine
 10
62.14643004954804
 20
-477.8616856222376
 30
0.0
 11
63.49643004954803
 21
-477.8616856222376
 31
0.0
  0
LINE
  5
1328
330
36
100
AcDbEntity
  8
0
 62
     3
100
AcDbLine
 10
62.14643004954804
 20
-476.5116856222373
 30
0.0
 11
62.14643004954804
 21
-477.8616856222376
 31
0.0
  0
LINE
  5
1329
330
36
100
AcDbEntity
  8
0
 62
     3
100
AcDbLine
 10
68.27921163170069
 20
-446.0116855976978
 30
0.0
 11
58.71364843212081
 21
-446.0116856222374
 31
0.0
  0
LINE
  5
132A
330
36
100
AcDbEntity
  8
0
 62
     3
100
AcDbLine
 10
68.27921163170069
 20
-479.2616856467772
 30
0.0
 11
58.71364846739542
 21
-479.2616856467772
 31
0.0
  0
ARC
  5
132B
330
36
100
AcDbEntity
  8
0
 62
     3
100
AcDbCircle
 10
63.49643004954803
 20
-452.8866856222373
 30
0.0
 40
8.375
100
AcDbArc
 50
124.8254599999996
 51
235.1745400000004
  0
LINE
  5
132C
330
36
100
AcDbEntity
  8
0
 62
     3
100
AcDbLine
 10
58.71364854954811
 20
-459.7616856222376
 30
0.0
 11
68.27921204954811
 21
-459.7616856222376
 31
0.0
  0
ARC
  5
132D
330
36
100
AcDbEntity
  8
0
 62
     3
100
AcDbCircle
 10
63.49643004954803
 20
-452.8866856222373
 30
0.0
 40
8.375
100
AcDbArc
 50
304.8254599999996
 51
55.17454000000043
  0
LINE
  5
132E
330
36
100
AcDbEntity
  8
0
 62
     3
100
AcDbLine
 10
58.71364854954811
 20
-465.5116856222376
 30
0.0
 11
68.27921204954811
 21
-465.5116856222376
 31
0.0
  0
ARC
  5
132F
330
36
100
AcDbEntity
  8
0
 62
     3
100
AcDbCircle
 10
63.49643004954803
 20
-472.3866856222374
 30
0.0
 40
8.375
100
AcDbArc
 50
124.8254599999996
 51
235.1745400000004
  0
ARC
  5
1330
330
36
100
AcDbEntity
  8
0
 62
     3
100
AcDbCircle
 10
63.49643004954803
 20
-472.3866856222374
 30
0.0
 40
8.375
100
AcDbArc
 50
304.8254599999996
 51
55.17454000000043
  0
LINE
  5
1331
330
36
100
AcDbEntity
  8
0
 62
     3
100
AcDbLine
 10
67.22143004954808
 20
-449.3116856222376
 30
0.0
 11
66.12143004954806
 21
-449.3116856222376
 31
0.0
  0
LINE
  5
1332
330
36
100
AcDbEntity
  8
0
 62
     3
100
AcDbLine
 10
67.22143004954808
 20
-449.3116856222376
 30
0.0
 11
67.22143004954808
 21
-452.8116856222374
 31
0.0
  0
LINE
  5
1333
330
36
100
AcDbEntity
  8
0
 62
     3
100
AcDbLine
 10
66.12143004954806
 20
-452.8116856222374
 30
0.0
 11
66.12143004954806
 21
-449.3116856222376
 31
0.0
  0
LINE
  5
1334
330
36
100
AcDbEntity
  8
0
 62
     3
100
AcDbLine
 10
67.22143004954808
 20
-452.8116856222374
 30
0.0
 11
66.12143004954806
 21
-452.8116856222374
 31
0.0
  0
LINE
  5
1335
330
36
100
AcDbEntity
  8
0
 62
     3
100
AcDbLine
 10
60.87143004954803
 20
-448.8866856222373
 30
0.0
 11
59.77143004954804
 21
-448.8866856222373
 31
0.0
  0
LINE
  5
1336
330
36
100
AcDbEntity
  8
0
 62
     3
100
AcDbLine
 10
60.87143004954803
 20
-448.8866856222373
 30
0.0
 11
60.87143004954803
 21
-453.2366856222376
 31
0.0
  0
LINE
  5
1337
330
36
100
AcDbEntity
  8
0
 62
     3
100
AcDbLine
 10
59.77143004954804
 20
-453.2366856222376
 30
0.0
 11
59.77143004954804
 21
-448.8866856222373
 31
0.0
  0
LINE
  5
1338
330
36
100
AcDbEntity
  8
0
 62
     3
100
AcDbLine
 10
60.87143004954803
 20
-453.2366856222376
 30
0.0
 11
59.77143004954804
 21
-453.2366856222376
 31
0.0
  0
ARC
  5
1339
330
36
100
AcDbEntity
  8
0
 62
     3
100
AcDbCircle
 10
63.49643004954803
 20
-457.0116856222376
 30
0.0
 40
1.35
100
AcDbArc
 50
0.0
 51
180.0
  0
LINE
  5
133A
330
36
100
AcDbEntity
  8
0
 62
     3
100
AcDbLine
 10
62.14643004954804
 20
-457.0116856222376
 30
0.0
 11
62.14643004954804
 21
-458.3616856222374
 31
0.0
  0
LINE
  5
133B
330
36
100
AcDbEntity
  8
0
 62
     3
100
AcDbLine
 10
62.14643004954804
 20
-458.3616856222374
 30
0.0
 11
63.49643004954803
 21
-458.3616856222374
 31
0.0
  0
LINE
  5
133C
330
36
100
AcDbEntity
  8
0
 62
     3
100
AcDbLine
 10
64.84643004954808
 20
-458.3616856222374
 30
0.0
 11
63.49643004954803
 21
-458.3616856222374
 31
0.0
  0
LINE
  5
133D
330
36
100
AcDbEntity
  8
0
 62
     3
100
AcDbLine
 10
64.84643004954808
 20
-457.0116856222376
 30
0.0
 11
64.84643004954808
 21
-458.3616856222374
 31
0.0
  0
LINE
  5
133E
330
36
100
AcDbEntity
  8
0
 62
     3
100
AcDbLine
 10
60.87143004954803
 20
-468.3866856222373
 30
0.0
 11
59.77143004954804
 21
-468.3866856222373
 31
0.0
  0
LINE
  5
133F
330
36
100
AcDbEntity
  8
0
 62
     3
100
AcDbLine
 10
60.87143004954803
 20
-468.3866856222373
 30
0.0
 11
60.87143004954803
 21
-472.7366856222373
 31
0.0
  0
LINE
  5
1340
330
36
100
AcDbEntity
  8
0
 62
     3
100
AcDbLine
 10
59.77143004954804
 20
-472.7366856222373
 30
0.0
 11
59.77143004954804
 21
-468.3866856222373
 31
0.0
  0
LINE
  5
1341
330
36
100
AcDbEntity
  8
0
 62
     3
100
AcDbLine
 10
60.87143004954803
 20
-472.7366856222373
 30
0.0
 11
59.77143004954804
 21
-472.7366856222373
 31
0.0
  0
LINE
  5
1342
330
36
100
AcDbEntity
  8
0
 62
     3
100
AcDbLine
 10
67.22143004954808
 20
-468.8116856222373
 30
0.0
 11
67.22143004954808
 21
-472.3116856222373
 31
0.0
  0
LINE
  5
1343
330
36
100
AcDbEntity
  8
0
 62
     3
100
AcDbLine
 10
67.22143004954808
 20
-472.3116856222373
 30
0.0
 11
66.12143004954806
 21
-472.3116856222373
 31
0.0
  0
LINE
  5
1344
330
36
100
AcDbEntity
  8
0
 62
     3
100
AcDbLine
 10
66.12143004954806
 20
-472.3116856222373
 30
0.0
 11
66.12143004954806
 21
-468.8116856222373
 31
0.0
  0
LINE
  5
1345
330
36
100
AcDbEntity
  8
0
 62
     3
100
AcDbLine
 10
67.22143004954808
 20
-468.8116856222373
 30
0.0
 11
66.12143004954806
 21
-468.8116856222373
 31
0.0
  0
LINE
  5
1346
330
36
100
AcDbEntity
  8
0
 62
     7
100
AcDbLine
 10
67.47143004954807
 20
-449.0616856222374
 30
0.0
 11
67.47143004954807
 21
-453.0616856222374
 31
0.0
  0
LINE
  5
1347
330
36
100
AcDbEntity
  8
0
 62
     7
100
AcDbLine
 10
67.22143004954808
 20
-449.3116856222376
 30
0.0
 11
67.47143004954807
 21
-449.0616856222374
 31
0.0
  0
LINE
  5
1348
330
36
100
AcDbEntity
  8
0
 62
     7
100
AcDbLine
 10
67.47143004954807
 20
-449.0616856222374
 30
0.0
 11
65.8714300495481
 21
-449.0616856222374
 31
0.0
  0
LINE
  5
1349
330
36
100
AcDbEntity
  8
0
 62
     7
100
AcDbLine
 10
66.12143004954806
 20
-449.3116856222376
 30
0.0
 11
65.8714300495481
 21
-449.0616856222374
 31
0.0
  0
LINE
  5
134A
330
36
100
AcDbEntity
  8
0
 62
     7
100
AcDbLine
 10
65.8714300495481
 20
-453.0616856222374
 30
0.0
 11
65.8714300495481
 21
-449.0616856222374
 31
0.0
  0
LINE
  5
134B
330
36
100
AcDbEntity
  8
0
 62
     7
100
AcDbLine
 10
67.47143004954807
 20
-453.0616856222374
 30
0.0
 11
65.8714300495481
 21
-453.0616856222374
 31
0.0
  0
LINE
  5
134C
330
36
100
AcDbEntity
  8
0
 62
     7
100
AcDbLine
 10
66.12143004954806
 20
-452.8116856222374
 30
0.0
 11
65.8714300495481
 21
-453.0616856222374
 31
0.0
  0
LINE
  5
134D
330
36
100
AcDbEntity
  8
0
 62
     7
100
AcDbLine
 10
67.22143004954808
 20
-452.8116856222374
 30
0.0
 11
67.47143004954807
 21
-453.0616856222374
 31
0.0
  0
LINE
  5
134E
330
36
100
AcDbEntity
  8
0
 62
     7
100
AcDbLine
 10
61.12143004954811
 20
-453.4866856222373
 30
0.0
 11
59.52143004954804
 21
-453.4866856222373
 31
0.0
  0
LINE
  5
134F
330
36
100
AcDbEntity
  8
0
 62
     7
100
AcDbLine
 10
61.12143004954811
 20
-448.6366856222374
 30
0.0
 11
61.12143004954811
 21
-453.4866856222373
 31
0.0
  0
LINE
  5
1350
330
36
100
AcDbEntity
  8
0
 62
     7
100
AcDbLine
 10
60.87143004954803
 20
-453.2366856222376
 30
0.0
 11
61.12143004954811
 21
-453.4866856222373
 31
0.0
  0
LINE
  5
1351
330
36
100
AcDbEntity
  8
0
 62
     7
100
AcDbLine
 10
59.77143004954804
 20
-453.2366856222376
 30
0.0
 11
59.52143004954804
 21
-453.4866856222373
 31
0.0
  0
LINE
  5
1352
330
36
100
AcDbEntity
  8
0
 62
     7
100
AcDbLine
 10
59.52143004954804
 20
-453.4866856222373
 30
0.0
 11
59.52143004954804
 21
-448.6366856222374
 31
0.0
  0
LINE
  5
1353
330
36
100
AcDbEntity
  8
0
 62
     7
100
AcDbLine
 10
61.12143004954811
 20
-448.6366856222374
 30
0.0
 11
59.52143004954804
 21
-448.6366856222374
 31
0.0
  0
LINE
  5
1354
330
36
100
AcDbEntity
  8
0
 62
     7
100
AcDbLine
 10
59.77143004954804
 20
-448.8866856222373
 30
0.0
 11
59.52143004954804
 21
-448.6366856222374
 31
0.0
  0
LINE
  5
1355
330
36
100
AcDbEntity
  8
0
 62
     7
100
AcDbLine
 10
60.87143004954803
 20
-448.8866856222373
 30
0.0
 11
61.12143004954811
 21
-448.6366856222374
 31
0.0
  0
ARC
  5
1356
330
36
100
AcDbEntity
  8
0
 62
     7
100
AcDbCircle
 10
63.49643004954803
 20
-457.0116856222376
 30
0.0
 40
1.6
100
AcDbArc
 50
0.0
 51
180.0
  0
LINE
  5
1357
330
36
100
AcDbEntity
  8
0
 62
     7
100
AcDbLine
 10
65.09643004954807
 20
-457.0116856222376
 30
0.0
 11
65.09643004954807
 21
-458.6116856222376
 31
0.0
  0
LINE
  5
1358
330
36
100
AcDbEntity
  8
0
 62
     7
100
AcDbLine
 10
65.09643004954807
 20
-458.6116856222376
 30
0.0
 11
63.49643004954803
 21
-458.6116856222376
 31
0.0
  0
LINE
  5
1359
330
36
100
AcDbEntity
  8
0
 62
     7
100
AcDbLine
 10
64.84643004954808
 20
-458.3616856222374
 30
0.0
 11
65.09643004954807
 21
-458.6116856222376
 31
0.0
  0
LINE
  5
135A
330
36
100
AcDbEntity
  8
0
 62
     7
100
AcDbLine
 10
61.89643004954803
 20
-458.6116856222376
 30
0.0
 11
63.49643004954803
 21
-458.6116856222376
 31
0.0
  0
LINE
  5
135B
330
36
100
AcDbEntity
  8
0
 62
     7
100
AcDbLine
 10
62.14643004954804
 20
-458.3616856222374
 30
0.0
 11
61.89643004954803
 21
-458.6116856222376
 31
0.0
  0
LINE
  5
135C
330
36
100
AcDbEntity
  8
0
 62
     7
100
AcDbLine
 10
61.89643004954803
 20
-457.0116856222376
 30
0.0
 11
61.89643004954803
 21
-458.6116856222376
 31
0.0
  0
LINE
  5
135D
330
36
100
AcDbEntity
  8
0
 62
     7
100
AcDbLine
 10
61.12143004954811
 20
-472.9866856222376
 30
0.0
 11
59.52143004954804
 21
-472.9866856222376
 31
0.0
  0
LINE
  5
135E
330
36
100
AcDbEntity
  8
0
 62
     7
100
AcDbLine
 10
61.12143004954811
 20
-468.1366856222374
 30
0.0
 11
61.12143004954811
 21
-472.9866856222376
 31
0.0
  0
LINE
  5
135F
330
36
100
AcDbEntity
  8
0
 62
     7
100
AcDbLine
 10
60.87143004954803
 20
-472.7366856222373
 30
0.0
 11
61.12143004954811
 21
-472.9866856222376
 31
0.0
  0
LINE
  5
1360
330
36
100
AcDbEntity
  8
0
 62
     7
100
AcDbLine
 10
59.77143004954804
 20
-472.7366856222373
 30
0.0
 11
59.52143004954804
 21
-472.9866856222376
 31
0.0
  0
LINE
  5
1361
330
36
100
AcDbEntity
  8
0
 62
     7
100
AcDbLine
 10
59.52143004954804
 20
-472.9866856222376
 30
0.0
 11
59.52143004954804
 21
-468.1366856222374
 31
0.0
  0
LINE
  5
1362
330
36
100
AcDbEntity
  8
0
 62
     7
100
AcDbLine
 10
59.77143004954804
 20
-468.3866856222373
 30
0.0
 11
59.52143004954804
 21
-468.1366856222374
 31
0.0
  0
LINE
  5
1363
330
36
100
AcDbEntity
  8
0
 62
     7
100
AcDbLine
 10
61.12143004954811
 20
-468.1366856222374
 30
0.0
 11
59.52143004954804
 21
-468.1366856222374
 31
0.0
  0
LINE
  5
1364
330
36
100
AcDbEntity
  8
0
 62
     7
100
AcDbLine
 10
60.87143004954803
 20
-468.3866856222373
 30
0.0
 11
61.12143004954811
 21
-468.1366856222374
 31
0.0
  0
LINE
  5
1365
330
36
100
AcDbEntity
  8
0
 62
     7
100
AcDbLine
 10
67.47143004954807
 20
-468.5616856222376
 30
0.0
 11
65.8714300495481
 21
-468.5616856222376
 31
0.0
  0
LINE
  5
1366
330
36
100
AcDbEntity
  8
0
 62
     7
100
AcDbLine
 10
66.12143004954806
 20
-468.8116856222373
 30
0.0
 11
65.8714300495481
 21
-468.5616856222376
 31
0.0
  0
LINE
  5
1367
330
36
100
AcDbEntity
  8
0
 62
     7
100
AcDbLine
 10
67.22143004954808
 20
-468.8116856222373
 30
0.0
 11
67.47143004954807
 21
-468.5616856222376
 31
0.0
  0
LINE
  5
1368
330
36
100
AcDbEntity
  8
0
 62
     7
100
AcDbLine
 10
67.47143004954807
 20
-468.5616856222376
 30
0.0
 11
67.47143004954807
 21
-472.5616856222376
 31
0.0
  0
LINE
  5
1369
330
36
100
AcDbEntity
  8
0
 62
     7
100
AcDbLine
 10
67.22143004954808
 20
-472.3116856222373
 30
0.0
 11
67.47143004954807
 21
-472.5616856222376
 31
0.0
  0
LINE
  5
136A
330
36
100
AcDbEntity
  8
0
 62
     7
100
AcDbLine
 10
67.47143004954807
 20
-472.5616856222376
 30
0.0
 11
65.8714300495481
 21
-472.5616856222376
 31
0.0
  0
LINE
  5
136B
330
36
100
AcDbEntity
  8
0
 62
     7
100
AcDbLine
 10
66.12143004954806
 20
-472.3116856222373
 30
0.0
 11
65.8714300495481
 21
-472.5616856222376
 31
0.0
  0
LINE
  5
136C
330
36
100
AcDbEntity
  8
0
 62
     7
100
AcDbLine
 10
65.8714300495481
 20
-472.5616856222376
 30
0.0
 11
65.8714300495481
 21
-468.5616856222376
 31
0.0
  0
LINE
  5
136D
330
36
100
AcDbEntity
  8
0
 62
     7
100
AcDbLine
 10
65.09643004954807
 20
-476.5116856222373
 30
0.0
 11
65.09643004954807
 21
-478.1116856222374
 31
0.0
  0
ARC
  5
136E
330
36
100
AcDbEntity
  8
0
 62
     7
100
AcDbCircle
 10
63.49643004954803
 20
-476.5116856222373
 30
0.0
 40
1.6
100
AcDbArc
 50
0.0
 51
180.0
  0
LINE
  5
136F
330
36
100
AcDbEntity
  8
0
 62
     7
100
AcDbLine
 10
65.09643004954807
 20
-478.1116856222374
 30
0.0
 11
63.49643004954803
 21
-478.1116856222374
 31
0.0
  0
LINE
  5
1370
330
36
100
AcDbEntity
  8
0
 62
     7
100
AcDbLine
 10
64.84643004954808
 20
-477.8616856222376
 30
0.0
 11
65.09643004954807
 21
-478.1116856222374
 31
0.0
  0
LINE
  5
1371
330
36
100
AcDbEntity
  8
0
 62
     7
100
AcDbLine
 10
61.89643004954803
 20
-478.1116856222374
 30
0.0
 11
63.49643004954803
 21
-478.1116856222374
 31
0.0
  0
LINE
  5
1372
330
36
100
AcDbEntity
  8
0
 62
     7
100
AcDbLine
 10
61.89643004954803
 20
-476.5116856222373
 30
0.0
 11
61.89643004954803
 21
-478.1116856222374
 31
0.0
  0
LINE
  5
1373
330
36
100
AcDbEntity
  8
0
 62
     7
100
AcDbLine
 10
62.14643004954804
 20
-477.8616856222376
 30
0.0
 11
61.89643004954803
 21
-478.1116856222374
 31
0.0
  0
CIRCLE
  5
1374
330
36
100
AcDbEntity
  8
0
 62
     7
100
AcDbCircle
 10
85.99643004954804
 20
-442.5116856222373
 30
0.0
 40
1.375
  0
CIRCLE
  5
1375
330
36
100
AcDbEntity
  8
0
 62
     7
100
AcDbCircle
 10
85.99643004954804
 20
-482.7616856222373
 30
0.0
 40
1.375
  0
LINE
  5
1376
330
36
100
AcDbEntity
  8
0
 62
     3
100
AcDbLine
 10
87.34643004954808
 20
-477.8616856222376
 30
0.0
 11
85.99643004954804
 21
-477.8616856222376
 31
0.0
  0
LINE
  5
1377
330
36
100
AcDbEntity
  8
0
 62
     3
100
AcDbLine
 10
87.34643004954808
 20
-476.5116856222373
 30
0.0
 11
87.34643004954808
 21
-477.8616856222376
 31
0.0
  0
ARC
  5
1378
330
36
100
AcDbEntity
  8
0
 62
     3
100
AcDbCircle
 10
85.99643004954804
 20
-476.5116856222373
 30
0.0
 40
1.35
100
AcDbArc
 50
0.0
 51
180.0
  0
LINE
  5
1379
330
36
100
AcDbEntity
  8
0
 62
     3
100
AcDbLine
 10
84.64643004954803
 20
-477.8616856222376
 30
0.0
 11
85.99643004954804
 21
-477.8616856222376
 31
0.0
  0
LINE
  5
137A
330
36
100
AcDbEntity
  8
0
 62
     3
100
AcDbLine
 10
84.64643004954803
 20
-476.5116856222373
 30
0.0
 11
84.64643004954803
 21
-477.8616856222376
 31
0.0
  0
LINE
  5
137B
330
36
100
AcDbEntity
  8
0
 62
     3
100
AcDbLine
 10
90.77921163170069
 20
-446.0116855976978
 30
0.0
 11
81.21364843212081
 21
-446.0116856222374
 31
0.0
  0
LINE
  5
137C
330
36
100
AcDbEntity
  8
0
 62
     3
100
AcDbLine
 10
90.77921163170069
 20
-479.2616856467772
 30
0.0
 11
81.21364846739542
 21
-479.2616856467772
 31
0.0
  0
ARC
  5
137D
330
36
100
AcDbEntity
  8
0
 62
     3
100
AcDbCircle
 10
85.99643004954804
 20
-452.8866856222373
 30
0.0
 40
8.375
100
AcDbArc
 50
124.8254599999996
 51
235.1745400000004
  0
LINE
  5
137E
330
36
100
AcDbEntity
  8
0
 62
     3
100
AcDbLine
 10
81.2136485495481
 20
-459.7616856222376
 30
0.0
 11
90.7792120495481
 21
-459.7616856222376
 31
0.0
  0
ARC
  5
137F
330
36
100
AcDbEntity
  8
0
 62
     3
100
AcDbCircle
 10
85.99643004954804
 20
-452.8866856222373
 30
0.0
 40
8.375
100
AcDbArc
 50
304.8254599999996
 51
55.17454000000043
  0
LINE
  5
1380
330
36
100
AcDbEntity
  8
0
 62
     3
100
AcDbLine
 10
81.2136485495481
 20
-465.5116856222376
 30
0.0
 11
90.7792120495481
 21
-465.5116856222376
 31
0.0
  0
ARC
  5
1381
330
36
100
AcDbEntity
  8
0
 62
     3
100
AcDbCircle
 10
85.99643004954804
 20
-472.3866856222374
 30
0.0
 40
8.375
100
AcDbArc
 50
124.8254599999996
 51
235.1745400000004
  0
ARC
  5
1382
330
36
100
AcDbEntity
  8
0
 62
     3
100
AcDbCircle
 10
85.99643004954804
 20
-472.3866856222374
 30
0.0
 40
8.375
100
AcDbArc
 50
304.8254599999996
 51
55.17454000000043
  0
LINE
  5
1383
330
36
100
AcDbEntity
  8
0
 62
     3
100
AcDbLine
 10
89.72143004954805
 20
-449.3116856222376
 30
0.0
 11
88.62143004954806
 21
-449.3116856222376
 31
0.0
  0
LINE
  5
1384
330
36
100
AcDbEntity
  8
0
 62
     3
100
AcDbLine
 10
89.72143004954805
 20
-449.3116856222376
 30
0.0
 11
89.72143004954805
 21
-452.8116856222374
 31
0.0
  0
LINE
  5
1385
330
36
100
AcDbEntity
  8
0
 62
     3
100
AcDbLine
 10
88.62143004954806
 20
-452.8116856222374
 30
0.0
 11
88.62143004954806
 21
-449.3116856222376
 31
0.0
  0
LINE
  5
1386
330
36
100
AcDbEntity
  8
0
 62
     3
100
AcDbLine
 10
89.72143004954805
 20
-452.8116856222374
 30
0.0
 11
88.62143004954806
 21
-452.8116856222374
 31
0.0
  0
LINE
  5
1387
330
36
100
AcDbEntity
  8
0
 62
     3
100
AcDbLine
 10
83.37143004954803
 20
-448.8866856222373
 30
0.0
 11
82.27143004954802
 21
-448.8866856222373
 31
0.0
  0
LINE
  5
1388
330
36
100
AcDbEntity
  8
0
 62
     3
100
AcDbLine
 10
83.37143004954803
 20
-448.8866856222373
 30
0.0
 11
83.37143004954803
 21
-453.2366856222376
 31
0.0
  0
LINE
  5
1389
330
36
100
AcDbEntity
  8
0
 62
     3
100
AcDbLine
 10
82.27143004954802
 20
-453.2366856222376
 30
0.0
 11
82.27143004954802
 21
-448.8866856222373
 31
0.0
  0
LINE
  5
138A
330
36
100
AcDbEntity
  8
0
 62
     3
100
AcDbLine
 10
83.37143004954803
 20
-453.2366856222376
 30
0.0
 11
82.27143004954802
 21
-453.2366856222376
 31
0.0
  0
ARC
  5
138B
330
36
100
AcDbEntity
  8
0
 62
     3
100
AcDbCircle
 10
85.99643004954804
 20
-457.0116856222376
 30
0.0
 40
1.35
100
AcDbArc
 50
0.0
 51
180.0
  0
LINE
  5
138C
330
36
100
AcDbEntity
  8
0
 62
     3
100
AcDbLine
 10
84.64643004954803
 20
-457.0116856222376
 30
0.0
 11
84.64643004954803
 21
-458.3616856222374
 31
0.0
  0
LINE
  5
138D
330
36
100
AcDbEntity
  8
0
 62
     3
100
AcDbLine
 10
84.64643004954803
 20
-458.3616856222374
 30
0.0
 11
85.99643004954804
 21
-458.3616856222374
 31
0.0
  0
LINE
  5
138E
330
36
100
AcDbEntity
  8
0
 62
     3
100
AcDbLine
 10
87.34643004954808
 20
-458.3616856222374
 30
0.0
 11
85.99643004954804
 21
-458.3616856222374
 31
0.0
  0
LINE
  5
138F
330
36
100
AcDbEntity
  8
0
 62
     3
100
AcDbLine
 10
87.34643004954808
 20
-457.0116856222376
 30
0.0
 11
87.34643004954808
 21
-458.3616856222374
 31
0.0
  0
LINE
  5
1390
330
36
100
AcDbEntity
  8
0
 62
     3
100
AcDbLine
 10
83.37143004954803
 20
-468.3866856222373
 30
0.0
 11
82.27143004954802
 21
-468.3866856222373
 31
0.0
  0
LINE
  5
1391
330
36
100
AcDbEntity
  8
0
 62
     3
100
AcDbLine
 10
83.37143004954803
 20
-468.3866856222373
 30
0.0
 11
83.37143004954803
 21
-472.7366856222373
 31
0.0
  0
LINE
  5
1392
330
36
100
AcDbEntity
  8
0
 62
     3
100
AcDbLine
 10
82.27143004954802
 20
-472.7366856222373
 30
0.0
 11
82.27143004954802
 21
-468.3866856222373
 31
0.0
  0
LINE
  5
1393
330
36
100
AcDbEntity
  8
0
 62
     3
100
AcDbLine
 10
83.37143004954803
 20
-472.7366856222373
 30
0.0
 11
82.27143004954802
 21
-472.7366856222373
 31
0.0
  0
LINE
  5
1394
330
36
100
AcDbEntity
  8
0
 62
     3
100
AcDbLine
 10
89.72143004954805
 20
-468.8116856222373
 30
0.0
 11
89.72143004954805
 21
-472.3116856222373
 31
0.0
  0
LINE
  5
1395
330
36
100
AcDbEntity
  8
0
 62
     3
100
AcDbLine
 10
89.72143004954805
 20
-472.3116856222373
 30
0.0
 11
88.62143004954806
 21
-472.3116856222373
 31
0.0
  0
LINE
  5
1396
330
36
100
AcDbEntity
  8
0
 62
     3
100
AcDbLine
 10
88.62143004954806
 20
-472.3116856222373
 30
0.0
 11
88.62143004954806
 21
-468.8116856222373
 31
0.0
  0
LINE
  5
1397
330
36
100
AcDbEntity
  8
0
 62
     3
100
AcDbLine
 10
89.72143004954805
 20
-468.8116856222373
 30
0.0
 11
88.62143004954806
 21
-468.8116856222373
 31
0.0
  0
LINE
  5
1398
330
36
100
AcDbEntity
  8
0
 62
     7
100
AcDbLine
 10
89.97143004954805
 20
-449.0616856222374
 30
0.0
 11
89.97143004954805
 21
-453.0616856222374
 31
0.0
  0
LINE
  5
1399
330
36
100
AcDbEntity
  8
0
 62
     7
100
AcDbLine
 10
89.72143004954805
 20
-449.3116856222376
 30
0.0
 11
89.97143004954805
 21
-449.0616856222374
 31
0.0
  0
LINE
  5
139A
330
36
100
AcDbEntity
  8
0
 62
     7
100
AcDbLine
 10
89.97143004954805
 20
-449.0616856222374
 30
0.0
 11
88.37143004954809
 21
-449.0616856222374
 31
0.0
  0
LINE
  5
139B
330
36
100
AcDbEntity
  8
0
 62
     7
100
AcDbLine
 10
88.62143004954806
 20
-449.3116856222376
 30
0.0
 11
88.37143004954809
 21
-449.0616856222374
 31
0.0
  0
LINE
  5
139C
330
36
100
AcDbEntity
  8
0
 62
     7
100
AcDbLine
 10
88.37143004954809
 20
-453.0616856222374
 30
0.0
 11
88.37143004954809
 21
-449.0616856222374
 31
0.0
  0
LINE
  5
139D
330
36
100
AcDbEntity
  8
0
 62
     7
100
AcDbLine
 10
89.97143004954805
 20
-453.0616856222374
 30
0.0
 11
88.37143004954809
 21
-453.0616856222374
 31
0.0
  0
LINE
  5
139E
330
36
100
AcDbEntity
  8
0
 62
     7
100
AcDbLine
 10
88.62143004954806
 20
-452.8116856222374
 30
0.0
 11
88.37143004954809
 21
-453.0616856222374
 31
0.0
  0
LINE
  5
139F
330
36
100
AcDbEntity
  8
0
 62
     7
100
AcDbLine
 10
89.72143004954805
 20
-452.8116856222374
 30
0.0
 11
89.97143004954805
 21
-453.0616856222374
 31
0.0
  0
LINE
  5
13A0
330
36
100
AcDbEntity
  8
0
 62
     7
100
AcDbLine
 10
83.62143004954811
 20
-453.4866856222373
 30
0.0
 11
82.02143004954804
 21
-453.4866856222373
 31
0.0
  0
LINE
  5
13A1
330
36
100
AcDbEntity
  8
0
 62
     7
100
AcDbLine
 10
83.62143004954811
 20
-448.6366856222374
 30
0.0
 11
83.62143004954811
 21
-453.4866856222373
 31
0.0
  0
LINE
  5
13A2
330
36
100
AcDbEntity
  8
0
 62
     7
100
AcDbLine
 10
83.37143004954803
 20
-453.2366856222376
 30
0.0
 11
83.62143004954811
 21
-453.4866856222373
 31
0.0
  0
LINE
  5
13A3
330
36
100
AcDbEntity
  8
0
 62
     7
100
AcDbLine
 10
82.27143004954802
 20
-453.2366856222376
 30
0.0
 11
82.02143004954804
 21
-453.4866856222373
 31
0.0
  0
LINE
  5
13A4
330
36
100
AcDbEntity
  8
0
 62
     7
100
AcDbLine
 10
82.02143004954804
 20
-453.4866856222373
 30
0.0
 11
82.02143004954804
 21
-448.6366856222374
 31
0.0
  0
LINE
  5
13A5
330
36
100
AcDbEntity
  8
0
 62
     7
100
AcDbLine
 10
83.62143004954811
 20
-448.6366856222374
 30
0.0
 11
82.02143004954804
 21
-448.6366856222374
 31
0.0
  0
LINE
  5
13A6
330
36
100
AcDbEntity
  8
0
 62
     7
100
AcDbLine
 10
82.27143004954802
 20
-448.8866856222373
 30
0.0
 11
82.02143004954804
 21
-448.6366856222374
 31
0.0
  0
LINE
  5
13A7
330
36
100
AcDbEntity
  8
0
 62
     7
100
AcDbLine
 10
83.37143004954803
 20
-448.8866856222373
 30
0.0
 11
83.62143004954811
 21
-448.6366856222374
 31
0.0
  0
ARC
  5
13A8
330
36
100
AcDbEntity
  8
0
 62
     7
100
AcDbCircle
 10
85.99643004954804
 20
-457.0116856222376
 30
0.0
 40
1.6
100
AcDbArc
 50
0.0
 51
180.0
  0
LINE
  5
13A9
330
36
100
AcDbEntity
  8
0
 62
     7
100
AcDbLine
 10
87.59643004954808
 20
-457.0116856222376
 30
0.0
 11
87.59643004954808
 21
-458.6116856222376
 31
0.0
  0
LINE
  5
13AA
330
36
100
AcDbEntity
  8
0
 62
     7
100
AcDbLine
 10
87.59643004954808
 20
-458.6116856222376
 30
0.0
 11
85.99643004954804
 21
-458.6116856222376
 31
0.0
  0
LINE
  5
13AB
330
36
100
AcDbEntity
  8
0
 62
     7
100
AcDbLine
 10
87.34643004954808
 20
-458.3616856222374
 30
0.0
 11
87.59643004954808
 21
-458.6116856222376
 31
0.0
  0
LINE
  5
13AC
330
36
100
AcDbEntity
  8
0
 62
     7
100
AcDbLine
 10
84.39643004954803
 20
-458.6116856222376
 30
0.0
 11
85.99643004954804
 21
-458.6116856222376
 31
0.0
  0
LINE
  5
13AD
330
36
100
AcDbEntity
  8
0
 62
     7
100
AcDbLine
 10
84.64643004954803
 20
-458.3616856222374
 30
0.0
 11
84.39643004954803
 21
-458.6116856222376
 31
0.0
  0
LINE
  5
13AE
330
36
100
AcDbEntity
  8
0
 62
     7
100
AcDbLine
 10
84.39643004954803
 20
-457.0116856222376
 30
0.0
 11
84.39643004954803
 21
-458.6116856222376
 31
0.0
  0
LINE
  5
13AF
330
36
100
AcDbEntity
  8
0
 62
     7
100
AcDbLine
 10
83.62143004954811
 20
-472.9866856222376
 30
0.0
 11
82.02143004954804
 21
-472.9866856222376
 31
0.0
  0
LINE
  5
13B0
330
36
100
AcDbEntity
  8
0
 62
     7
100
AcDbLine
 10
83.62143004954811
 20
-468.1366856222374
 30
0.0
 11
83.62143004954811
 21
-472.9866856222376
 31
0.0
  0
LINE
  5
13B1
330
36
100
AcDbEntity
  8
0
 62
     7
100
AcDbLine
 10
83.37143004954803
 20
-472.7366856222373
 30
0.0
 11
83.62143004954811
 21
-472.9866856222376
 31
0.0
  0
LINE
  5
13B2
330
36
100
AcDbEntity
  8
0
 62
     7
100
AcDbLine
 10
82.27143004954802
 20
-472.7366856222373
 30
0.0
 11
82.02143004954804
 21
-472.9866856222376
 31
0.0
  0
LINE
  5
13B3
330
36
100
AcDbEntity
  8
0
 62
     7
100
AcDbLine
 10
82.02143004954804
 20
-472.9866856222376
 30
0.0
 11
82.02143004954804
 21
-468.1366856222374
 31
0.0
  0
LINE
  5
13B4
330
36
100
AcDbEntity
  8
0
 62
     7
100
AcDbLine
 10
82.27143004954802
 20
-468.3866856222373
 30
0.0
 11
82.02143004954804
 21
-468.1366856222374
 31
0.0
  0
LINE
  5
13B5
330
36
100
AcDbEntity
  8
0
 62
     7
100
AcDbLine
 10
83.62143004954811
 20
-468.1366856222374
 30
0.0
 11
82.02143004954804
 21
-468.1366856222374
 31
0.0
  0
LINE
  5
13B6
330
36
100
AcDbEntity
  8
0
 62
     7
100
AcDbLine
 10
83.37143004954803
 20
-468.3866856222373
 30
0.0
 11
83.62143004954811
 21
-468.1366856222374
 31
0.0
  0
LINE
  5
13B7
330
36
100
AcDbEntity
  8
0
 62
     7
100
AcDbLine
 10
89.97143004954805
 20
-468.5616856222376
 30
0.0
 11
88.37143004954809
 21
-468.5616856222376
 31
0.0
  0
LINE
  5
13B8
330
36
100
AcDbEntity
  8
0
 62
     7
100
AcDbLine
 10
88.62143004954806
 20
-468.8116856222373
 30
0.0
 11
88.37143004954809
 21
-468.5616856222376
 31
0.0
  0
LINE
  5
13B9
330
36
100
AcDbEntity
  8
0
 62
     7
100
AcDbLine
 10
89.72143004954805
 20
-468.8116856222373
 30
0.0
 11
89.97143004954805
 21
-468.5616856222376
 31
0.0
  0
LINE
  5
13BA
330
36
100
AcDbEntity
  8
0
 62
     7
100
AcDbLine
 10
89.97143004954805
 20
-468.5616856222376
 30
0.0
 11
89.97143004954805
 21
-472.5616856222376
 31
0.0
  0
LINE
  5
13BB
330
36
100
AcDbEntity
  8
0
 62
     7
100
AcDbLine
 10
89.72143004954805
 20
-472.3116856222373
 30
0.0
 11
89.97143004954805
 21
-472.5616856222376
 31
0.0
  0
LINE
  5
13BC
330
36
100
AcDbEntity
  8
0
 62
     7
100
AcDbLine
 10
89.97143004954805
 20
-472.5616856222376
 30
0.0
 11
88.37143004954809
 21
-472.5616856222376
 31
0.0
  0
LINE
  5
13BD
330
36
100
AcDbEntity
  8
0
 62
     7
100
AcDbLine
 10
88.62143004954806
 20
-472.3116856222373
 30
0.0
 11
88.37143004954809
 21
-472.5616856222376
 31
0.0
  0
LINE
  5
13BE
330
36
100
AcDbEntity
  8
0
 62
     7
100
AcDbLine
 10
88.37143004954809
 20
-472.5616856222376
 30
0.0
 11
88.37143004954809
 21
-468.5616856222376
 31
0.0
  0
LINE
  5
13BF
330
36
100
AcDbEntity
  8
0
 62
     7
100
AcDbLine
 10
87.59643004954808
 20
-476.5116856222373
 30
0.0
 11
87.59643004954808
 21
-478.1116856222374
 31
0.0
  0
ARC
  5
13C0
330
36
100
AcDbEntity
  8
0
 62
     7
100
AcDbCircle
 10
85.99643004954804
 20
-476.5116856222373
 30
0.0
 40
1.6
100
AcDbArc
 50
0.0
 51
180.0
  0
LINE
  5
13C1
330
36
100
AcDbEntity
  8
0
 62
     7
100
AcDbLine
 10
87.59643004954808
 20
-478.1116856222374
 30
0.0
 11
85.99643004954804
 21
-478.1116856222374
 31
0.0
  0
LINE
  5
13C2
330
36
100
AcDbEntity
  8
0
 62
     7
100
AcDbLine
 10
87.34643004954808
 20
-477.8616856222376
 30
0.0
 11
87.59643004954808
 21
-478.1116856222374
 31
0.0
  0
LINE
  5
13C3
330
36
100
AcDbEntity
  8
0
 62
     7
100
AcDbLine
 10
84.39643004954803
 20
-478.1116856222374
 30
0.0
 11
85.99643004954804
 21
-478.1116856222374
 31
0.0
  0
LINE
  5
13C4
330
36
100
AcDbEntity
  8
0
 62
     7
100
AcDbLine
 10
84.39643004954803
 20
-476.5116856222373
 30
0.0
 11
84.39643004954803
 21
-478.1116856222374
 31
0.0
  0
LINE
  5
13C5
330
36
100
AcDbEntity
  8
0
 62
     7
100
AcDbLine
 10
84.64643004954803
 20
-477.8616856222376
 30
0.0
 11
84.39643004954803
 21
-478.1116856222374
 31
0.0
  0
CIRCLE
  5
13C6
330
36
100
AcDbEntity
  8
0
 62
     7
100
AcDbCircle
 10
135.996430049548
 20
-442.5116856222373
 30
0.0
 40
1.375
  0
CIRCLE
  5
13C7
330
36
100
AcDbEntity
  8
0
 62
     7
100
AcDbCircle
 10
135.996430049548
 20
-482.7616856222373
 30
0.0
 40
1.375
  0
LINE
  5
13C8
330
36
100
AcDbEntity
  8
0
 62
     3
100
AcDbLine
 10
137.346430049548
 20
-477.8616856222376
 30
0.0
 11
135.996430049548
 21
-477.8616856222376
 31
0.0
  0
LINE
  5
13C9
330
36
100
AcDbEntity
  8
0
 62
     3
100
AcDbLine
 10
137.346430049548
 20
-476.5116856222373
 30
0.0
 11
137.346430049548
 21
-477.8616856222376
 31
0.0
  0
ARC
  5
13CA
330
36
100
AcDbEntity
  8
0
 62
     3
100
AcDbCircle
 10
135.996430049548
 20
-476.5116856222373
 30
0.0
 40
1.35
100
AcDbArc
 50
0.0
 51
180.0
  0
LINE
  5
13CB
330
36
100
AcDbEntity
  8
0
 62
     3
100
AcDbLine
 10
134.646430049548
 20
-477.8616856222376
 30
0.0
 11
135.996430049548
 21
-477.8616856222376
 31
0.0
  0
LINE
  5
13CC
330
36
100
AcDbEntity
  8
0
 62
     3
100
AcDbLine
 10
134.646430049548
 20
-476.5116856222373
 30
0.0
 11
134.646430049548
 21
-477.8616856222376
 31
0.0
  0
LINE
  5
13CD
330
36
100
AcDbEntity
  8
0
 62
     3
100
AcDbLine
 10
140.7792116317007
 20
-446.0116855976978
 30
0.0
 11
131.2136484321208
 21
-446.0116856222374
 31
0.0
  0
LINE
  5
13CE
330
36
100
AcDbEntity
  8
0
 62
     3
100
AcDbLine
 10
140.7792116317007
 20
-479.2616856467772
 30
0.0
 11
131.2136484673954
 21
-479.2616856467772
 31
0.0
  0
ARC
  5
13CF
330
36
100
AcDbEntity
  8
0
 62
     3
100
AcDbCircle
 10
135.996430049548
 20
-452.8866856222373
 30
0.0
 40
8.375
100
AcDbArc
 50
124.8254599999996
 51
235.1745400000004
  0
LINE
  5
13D0
330
36
100
AcDbEntity
  8
0
 62
     3
100
AcDbLine
 10
131.2136485495481
 20
-459.7616856222376
 30
0.0
 11
140.7792120495481
 21
-459.7616856222376
 31
0.0
  0
ARC
  5
13D1
330
36
100
AcDbEntity
  8
0
 62
     3
100
AcDbCircle
 10
135.996430049548
 20
-452.8866856222373
 30
0.0
 40
8.375
100
AcDbArc
 50
304.8254599999996
 51
55.17454000000043
  0
LINE
  5
13D2
330
36
100
AcDbEntity
  8
0
 62
     3
100
AcDbLine
 10
131.2136485495481
 20
-465.5116856222376
 30
0.0
 11
140.7792120495481
 21
-465.5116856222376
 31
0.0
  0
ARC
  5
13D3
330
36
100
AcDbEntity
  8
0
 62
     3
100
AcDbCircle
 10
135.996430049548
 20
-472.3866856222374
 30
0.0
 40
8.375
100
AcDbArc
 50
124.8254599999996
 51
235.1745400000004
  0
ARC
  5
13D4
330
36
100
AcDbEntity
  8
0
 62
     3
100
AcDbCircle
 10
135.996430049548
 20
-472.3866856222374
 30
0.0
 40
8.375
100
AcDbArc
 50
304.8254599999996
 51
55.17454000000043
  0
LINE
  5
13D5
330
36
100
AcDbEntity
  8
0
 62
     3
100
AcDbLine
 10
139.721430049548
 20
-449.3116856222376
 30
0.0
 11
138.621430049548
 21
-449.3116856222376
 31
0.0
  0
LINE
  5
13D6
330
36
100
AcDbEntity
  8
0
 62
     3
100
AcDbLine
 10
139.721430049548
 20
-449.3116856222376
 30
0.0
 11
139.721430049548
 21
-452.8116856222374
 31
0.0
  0
LINE
  5
13D7
330
36
100
AcDbEntity
  8
0
 62
     3
100
AcDbLine
 10
138.621430049548
 20
-452.8116856222374
 30
0.0
 11
138.621430049548
 21
-449.3116856222376
 31
0.0
  0
LINE
  5
13D8
330
36
100
AcDbEntity
  8
0
 62
     3
100
AcDbLine
 10
139.721430049548
 20
-452.8116856222374
 30
0.0
 11
138.621430049548
 21
-452.8116856222374
 31
0.0
  0
LINE
  5
13D9
330
36
100
AcDbEntity
  8
0
 62
     3
100
AcDbLine
 10
133.371430049548
 20
-448.8866856222373
 30
0.0
 11
132.271430049548
 21
-448.8866856222373
 31
0.0
  0
LINE
  5
13DA
330
36
100
AcDbEntity
  8
0
 62
     3
100
AcDbLine
 10
133.371430049548
 20
-448.8866856222373
 30
0.0
 11
133.371430049548
 21
-453.2366856222376
 31
0.0
  0
LINE
  5
13DB
330
36
100
AcDbEntity
  8
0
 62
     3
100
AcDbLine
 10
132.271430049548
 20
-453.2366856222376
 30
0.0
 11
132.271430049548
 21
-448.8866856222373
 31
0.0
  0
LINE
  5
13DC
330
36
100
AcDbEntity
  8
0
 62
     3
100
AcDbLine
 10
133.371430049548
 20
-453.2366856222376
 30
0.0
 11
132.271430049548
 21
-453.2366856222376
 31
0.0
  0
ARC
  5
13DD
330
36
100
AcDbEntity
  8
0
 62
     3
100
AcDbCircle
 10
135.996430049548
 20
-457.0116856222376
 30
0.0
 40
1.35
100
AcDbArc
 50
0.0
 51
180.0
  0
LINE
  5
13DE
330
36
100
AcDbEntity
  8
0
 62
     3
100
AcDbLine
 10
134.646430049548
 20
-457.0116856222376
 30
0.0
 11
134.646430049548
 21
-458.3616856222374
 31
0.0
  0
LINE
  5
13DF
330
36
100
AcDbEntity
  8
0
 62
     3
100
AcDbLine
 10
134.646430049548
 20
-458.3616856222374
 30
0.0
 11
135.996430049548
 21
-458.3616856222374
 31
0.0
  0
LINE
  5
13E0
330
36
100
AcDbEntity
  8
0
 62
     3
100
AcDbLine
 10
137.346430049548
 20
-458.3616856222374
 30
0.0
 11
135.996430049548
 21
-458.3616856222374
 31
0.0
  0
LINE
  5
13E1
330
36
100
AcDbEntity
  8
0
 62
     3
100
AcDbLine
 10
137.346430049548
 20
-457.0116856222376
 30
0.0
 11
137.346430049548
 21
-458.3616856222374
 31
0.0
  0
LINE
  5
13E2
330
36
100
AcDbEntity
  8
0
 62
     3
100
AcDbLine
 10
133.371430049548
 20
-468.3866856222373
 30
0.0
 11
132.271430049548
 21
-468.3866856222373
 31
0.0
  0
LINE
  5
13E3
330
36
100
AcDbEntity
  8
0
 62
     3
100
AcDbLine
 10
133.371430049548
 20
-468.3866856222373
 30
0.0
 11
133.371430049548
 21
-472.7366856222373
 31
0.0
  0
LINE
  5
13E4
330
36
100
AcDbEntity
  8
0
 62
     3
100
AcDbLine
 10
132.271430049548
 20
-472.7366856222373
 30
0.0
 11
132.271430049548
 21
-468.3866856222373
 31
0.0
  0
LINE
  5
13E5
330
36
100
AcDbEntity
  8
0
 62
     3
100
AcDbLine
 10
133.371430049548
 20
-472.7366856222373
 30
0.0
 11
132.271430049548
 21
-472.7366856222373
 31
0.0
  0
LINE
  5
13E6
330
36
100
AcDbEntity
  8
0
 62
     3
100
AcDbLine
 10
139.721430049548
 20
-468.8116856222373
 30
0.0
 11
139.721430049548
 21
-472.3116856222373
 31
0.0
  0
LINE
  5
13E7
330
36
100
AcDbEntity
  8
0
 62
     3
100
AcDbLine
 10
139.721430049548
 20
-472.3116856222373
 30
0.0
 11
138.621430049548
 21
-472.3116856222373
 31
0.0
  0
LINE
  5
13E8
330
36
100
AcDbEntity
  8
0
 62
     3
100
AcDbLine
 10
138.621430049548
 20
-472.3116856222373
 30
0.0
 11
138.621430049548
 21
-468.8116856222373
 31
0.0
  0
LINE
  5
13E9
330
36
100
AcDbEntity
  8
0
 62
     3
100
AcDbLine
 10
139.721430049548
 20
-468.8116856222373
 30
0.0
 11
138.621430049548
 21
-468.8116856222373
 31
0.0
  0
LINE
  5
13EA
330
36
100
AcDbEntity
  8
0
 62
     7
100
AcDbLine
 10
139.9714300495481
 20
-449.0616856222374
 30
0.0
 11
139.9714300495481
 21
-453.0616856222374
 31
0.0
  0
LINE
  5
13EB
330
36
100
AcDbEntity
  8
0
 62
     7
100
AcDbLine
 10
139.721430049548
 20
-449.3116856222376
 30
0.0
 11
139.9714300495481
 21
-449.0616856222374
 31
0.0
  0
LINE
  5
13EC
330
36
100
AcDbEntity
  8
0
 62
     7
100
AcDbLine
 10
139.9714300495481
 20
-449.0616856222374
 30
0.0
 11
138.3714300495481
 21
-449.0616856222374
 31
0.0
  0
LINE
  5
13ED
330
36
100
AcDbEntity
  8
0
 62
     7
100
AcDbLine
 10
138.621430049548
 20
-449.3116856222376
 30
0.0
 11
138.3714300495481
 21
-449.0616856222374
 31
0.0
  0
LINE
  5
13EE
330
36
100
AcDbEntity
  8
0
 62
     7
100
AcDbLine
 10
138.3714300495481
 20
-453.0616856222374
 30
0.0
 11
138.3714300495481
 21
-449.0616856222374
 31
0.0
  0
LINE
  5
13EF
330
36
100
AcDbEntity
  8
0
 62
     7
100
AcDbLine
 10
139.9714300495481
 20
-453.0616856222374
 30
0.0
 11
138.3714300495481
 21
-453.0616856222374
 31
0.0
  0
LINE
  5
13F0
330
36
100
AcDbEntity
  8
0
 62
     7
100
AcDbLine
 10
138.621430049548
 20
-452.8116856222374
 30
0.0
 11
138.3714300495481
 21
-453.0616856222374
 31
0.0
  0
LINE
  5
13F1
330
36
100
AcDbEntity
  8
0
 62
     7
100
AcDbLine
 10
139.721430049548
 20
-452.8116856222374
 30
0.0
 11
139.9714300495481
 21
-453.0616856222374
 31
0.0
  0
LINE
  5
13F2
330
36
100
AcDbEntity
  8
0
 62
     7
100
AcDbLine
 10
133.621430049548
 20
-453.4866856222373
 30
0.0
 11
132.021430049548
 21
-453.4866856222373
 31
0.0
  0
LINE
  5
13F3
330
36
100
AcDbEntity
  8
0
 62
     7
100
AcDbLine
 10
133.621430049548
 20
-448.6366856222374
 30
0.0
 11
133.621430049548
 21
-453.4866856222373
 31
0.0
  0
LINE
  5
13F4
330
36
100
AcDbEntity
  8
0
 62
     7
100
AcDbLine
 10
133.371430049548
 20
-453.2366856222376
 30
0.0
 11
133.621430049548
 21
-453.4866856222373
 31
0.0
  0
LINE
  5
13F5
330
36
100
AcDbEntity
  8
0
 62
     7
100
AcDbLine
 10
132.271430049548
 20
-453.2366856222376
 30
0.0
 11
132.021430049548
 21
-453.4866856222373
 31
0.0
  0
LINE
  5
13F6
330
36
100
AcDbEntity
  8
0
 62
     7
100
AcDbLine
 10
132.021430049548
 20
-453.4866856222373
 30
0.0
 11
132.021430049548
 21
-448.6366856222374
 31
0.0
  0
LINE
  5
13F7
330
36
100
AcDbEntity
  8
0
 62
     7
100
AcDbLine
 10
133.621430049548
 20
-448.6366856222374
 30
0.0
 11
132.021430049548
 21
-448.6366856222374
 31
0.0
  0
LINE
  5
13F8
330
36
100
AcDbEntity
  8
0
 62
     7
100
AcDbLine
 10
132.271430049548
 20
-448.8866856222373
 30
0.0
 11
132.021430049548
 21
-448.6366856222374
 31
0.0
  0
LINE
  5
13F9
330
36
100
AcDbEntity
  8
0
 62
     7
100
AcDbLine
 10
133.371430049548
 20
-448.8866856222373
 30
0.0
 11
133.621430049548
 21
-448.6366856222374
 31
0.0
  0
ARC
  5
13FA
330
36
100
AcDbEntity
  8
0
 62
     7
100
AcDbCircle
 10
135.996430049548
 20
-457.0116856222376
 30
0.0
 40
1.6
100
AcDbArc
 50
0.0
 51
180.0
  0
LINE
  5
13FB
330
36
100
AcDbEntity
  8
0
 62
     7
100
AcDbLine
 10
137.596430049548
 20
-457.0116856222376
 30
0.0
 11
137.596430049548
 21
-458.6116856222376
 31
0.0
  0
LINE
  5
13FC
330
36
100
AcDbEntity
  8
0
 62
     7
100
AcDbLine
 10
137.596430049548
 20
-458.6116856222376
 30
0.0
 11
135.996430049548
 21
-458.6116856222376
 31
0.0
  0
LINE
  5
13FD
330
36
100
AcDbEntity
  8
0
 62
     7
100
AcDbLine
 10
137.346430049548
 20
-458.3616856222374
 30
0.0
 11
137.596430049548
 21
-458.6116856222376
 31
0.0
  0
LINE
  5
13FE
330
36
100
AcDbEntity
  8
0
 62
     7
100
AcDbLine
 10
134.396430049548
 20
-458.6116856222376
 30
0.0
 11
135.996430049548
 21
-458.6116856222376
 31
0.0
  0
LINE
  5
13FF
330
36
100
AcDbEntity
  8
0
 62
     7
100
AcDbLine
 10
134.646430049548
 20
-458.3616856222374
 30
0.0
 11
134.396430049548
 21
-458.6116856222376
 31
0.0
  0
LINE
  5
1400
330
36
100
AcDbEntity
  8
0
 62
     7
100
AcDbLine
 10
134.396430049548
 20
-457.0116856222376
 30
0.0
 11
134.396430049548
 21
-458.6116856222376
 31
0.0
  0
LINE
  5
1401
330
36
100
AcDbEntity
  8
0
 62
     7
100
AcDbLine
 10
133.621430049548
 20
-472.9866856222376
 30
0.0
 11
132.021430049548
 21
-472.9866856222376
 31
0.0
  0
LINE
  5
1402
330
36
100
AcDbEntity
  8
0
 62
     7
100
AcDbLine
 10
133.621430049548
 20
-468.1366856222374
 30
0.0
 11
133.621430049548
 21
-472.9866856222376
 31
0.0
  0
LINE
  5
1403
330
36
100
AcDbEntity
  8
0
 62
     7
100
AcDbLine
 10
133.371430049548
 20
-472.7366856222373
 30
0.0
 11
133.621430049548
 21
-472.9866856222376
 31
0.0
  0
LINE
  5
1404
330
36
100
AcDbEntity
  8
0
 62
     7
100
AcDbLine
 10
132.271430049548
 20
-472.7366856222373
 30
0.0
 11
132.021430049548
 21
-472.9866856222376
 31
0.0
  0
LINE
  5
1405
330
36
100
AcDbEntity
  8
0
 62
     7
100
AcDbLine
 10
132.021430049548
 20
-472.9866856222376
 30
0.0
 11
132.021430049548
 21
-468.1366856222374
 31
0.0
  0
LINE
  5
1406
330
36
100
AcDbEntity
  8
0
 62
     7
100
AcDbLine
 10
132.271430049548
 20
-468.3866856222373
 30
0.0
 11
132.021430049548
 21
-468.1366856222374
 31
0.0
  0
LINE
  5
1407
330
36
100
AcDbEntity
  8
0
 62
     7
100
AcDbLine
 10
133.621430049548
 20
-468.1366856222374
 30
0.0
 11
132.021430049548
 21
-468.1366856222374
 31
0.0
  0
LINE
  5
1408
330
36
100
AcDbEntity
  8
0
 62
     7
100
AcDbLine
 10
133.371430049548
 20
-468.3866856222373
 30
0.0
 11
133.621430049548
 21
-468.1366856222374
 31
0.0
  0
LINE
  5
1409
330
36
100
AcDbEntity
  8
0
 62
     7
100
AcDbLine
 10
139.9714300495481
 20
-468.5616856222376
 30
0.0
 11
138.3714300495481
 21
-468.5616856222376
 31
0.0
  0
LINE
  5
140A
330
36
100
AcDbEntity
  8
0
 62
     7
100
AcDbLine
 10
138.621430049548
 20
-468.8116856222373
 30
0.0
 11
138.3714300495481
 21
-468.5616856222376
 31
0.0
  0
LINE
  5
140B
330
36
100
AcDbEntity
  8
0
 62
     7
100
AcDbLine
 10
139.721430049548
 20
-468.8116856222373
 30
0.0
 11
139.9714300495481
 21
-468.5616856222376
 31
0.0
  0
LINE
  5
140C
330
36
100
AcDbEntity
  8
0
 62
     7
100
AcDbLine
 10
139.9714300495481
 20
-468.5616856222376
 30
0.0
 11
139.9714300495481
 21
-472.5616856222376
 31
0.0
  0
LINE
  5
140D
330
36
100
AcDbEntity
  8
0
 62
     7
100
AcDbLine
 10
139.721430049548
 20
-472.3116856222373
 30
0.0
 11
139.9714300495481
 21
-472.5616856222376
 31
0.0
  0
LINE
  5
140E
330
36
100
AcDbEntity
  8
0
 62
     7
100
AcDbLine
 10
139.9714300495481
 20
-472.5616856222376
 30
0.0
 11
138.3714300495481
 21
-472.5616856222376
 31
0.0
  0
LINE
  5
140F
330
36
100
AcDbEntity
  8
0
 62
     7
100
AcDbLine
 10
138.621430049548
 20
-472.3116856222373
 30
0.0
 11
138.3714300495481
 21
-472.5616856222376
 31
0.0
  0
LINE
  5
1410
330
36
100
AcDbEntity
  8
0
 62
     7
100
AcDbLine
 10
138.3714300495481
 20
-472.5616856222376
 30
0.0
 11
138.3714300495481
 21
-468.5616856222376
 31
0.0
  0
LINE
  5
1411
330
36
100
AcDbEntity
  8
0
 62
     7
100
AcDbLine
 10
137.596430049548
 20
-476.5116856222373
 30
0.0
 11
137.596430049548
 21
-478.1116856222374
 31
0.0
  0
ARC
  5
1412
330
36
100
AcDbEntity
  8
0
 62
     7
100
AcDbCircle
 10
135.996430049548
 20
-476.5116856222373
 30
0.0
 40
1.6
100
AcDbArc
 50
0.0
 51
180.0
  0
LINE
  5
1413
330
36
100
AcDbEntity
  8
0
 62
     7
100
AcDbLine
 10
137.596430049548
 20
-478.1116856222374
 30
0.0
 11
135.996430049548
 21
-478.1116856222374
 31
0.0
  0
LINE
  5
1414
330
36
100
AcDbEntity
  8
0
 62
     7
100
AcDbLine
 10
137.346430049548
 20
-477.8616856222376
 30
0.0
 11
137.596430049548
 21
-478.1116856222374
 31
0.0
  0
LINE
  5
1415
330
36
100
AcDbEntity
  8
0
 62
     7
100
AcDbLine
 10
134.396430049548
 20
-478.1116856222374
 30
0.0
 11
135.996430049548
 21
-478.1116856222374
 31
0.0
  0
LINE
  5
1416
330
36
100
AcDbEntity
  8
0
 62
     7
100
AcDbLine
 10
134.396430049548
 20
-476.5116856222373
 30
0.0
 11
134.396430049548
 21
-478.1116856222374
 31
0.0
  0
LINE
  5
1417
330
36
100
AcDbEntity
  8
0
 62
     7
100
AcDbLine
 10
134.646430049548
 20
-477.8616856222376
 30
0.0
 11
134.396430049548
 21
-478.1116856222374
 31
0.0
  0
CIRCLE
  5
1418
330
36
100
AcDbEntity
  8
0
 62
     7
100
AcDbCircle
 10
158.496430049548
 20
-442.5116856222373
 30
0.0
 40
1.375
  0
CIRCLE
  5
1419
330
36
100
AcDbEntity
  8
0
 62
     7
100
AcDbCircle
 10
158.496430049548
 20
-482.7616856222373
 30
0.0
 40
1.375
  0
LINE
  5
141A
330
36
100
AcDbEntity
  8
0
 62
     3
100
AcDbLine
 10
159.8464300495481
 20
-477.8616856222376
 30
0.0
 11
158.496430049548
 21
-477.8616856222376
 31
0.0
  0
LINE
  5
141B
330
36
100
AcDbEntity
  8
0
 62
     3
100
AcDbLine
 10
159.8464300495481
 20
-476.5116856222373
 30
0.0
 11
159.8464300495481
 21
-477.8616856222376
 31
0.0
  0
ARC
  5
141C
330
36
100
AcDbEntity
  8
0
 62
     3
100
AcDbCircle
 10
158.496430049548
 20
-476.5116856222373
 30
0.0
 40
1.35
100
AcDbArc
 50
0.0
 51
180.0
  0
LINE
  5
141D
330
36
100
AcDbEntity
  8
0
 62
     3
100
AcDbLine
 10
157.146430049548
 20
-477.8616856222376
 30
0.0
 11
158.496430049548
 21
-477.8616856222376
 31
0.0
  0
LINE
  5
141E
330
36
100
AcDbEntity
  8
0
 62
     3
100
AcDbLine
 10
157.146430049548
 20
-476.5116856222373
 30
0.0
 11
157.146430049548
 21
-477.8616856222376
 31
0.0
  0
LINE
  5
141F
330
36
100
AcDbEntity
  8
0
 62
     3
100
AcDbLine
 10
163.2792116317007
 20
-446.0116855976978
 30
0.0
 11
153.7136484321208
 21
-446.0116856222374
 31
0.0
  0
LINE
  5
1420
330
36
100
AcDbEntity
  8
0
 62
     3
100
AcDbLine
 10
163.2792116317007
 20
-479.2616856467772
 30
0.0
 11
153.7136484673954
 21
-479.2616856467772
 31
0.0
  0
ARC
  5
1421
330
36
100
AcDbEntity
  8
0
 62
     3
100
AcDbCircle
 10
158.496430049548
 20
-452.8866856222373
 30
0.0
 40
8.375
100
AcDbArc
 50
124.8254599999996
 51
235.1745400000004
  0
LINE
  5
1422
330
36
100
AcDbEntity
  8
0
 62
     3
100
AcDbLine
 10
153.713648549548
 20
-459.7616856222376
 30
0.0
 11
163.279212049548
 21
-459.7616856222376
 31
0.0
  0
ARC
  5
1423
330
36
100
AcDbEntity
  8
0
 62
     3
100
AcDbCircle
 10
158.496430049548
 20
-452.8866856222373
 30
0.0
 40
8.375
100
AcDbArc
 50
304.8254599999996
 51
55.17454000000043
  0
LINE
  5
1424
330
36
100
AcDbEntity
  8
0
 62
     3
100
AcDbLine
 10
153.713648549548
 20
-465.5116856222376
 30
0.0
 11
163.279212049548
 21
-465.5116856222376
 31
0.0
  0
ARC
  5
1425
330
36
100
AcDbEntity
  8
0
 62
     3
100
AcDbCircle
 10
158.496430049548
 20
-472.3866856222374
 30
0.0
 40
8.375
100
AcDbArc
 50
124.8254599999996
 51
235.1745400000004
  0
ARC
  5
1426
330
36
100
AcDbEntity
  8
0
 62
     3
100
AcDbCircle
 10
158.496430049548
 20
-472.3866856222374
 30
0.0
 40
8.375
100
AcDbArc
 50
304.8254599999996
 51
55.17454000000043
  0
LINE
  5
1427
330
36
100
AcDbEntity
  8
0
 62
     3
100
AcDbLine
 10
162.221430049548
 20
-449.3116856222376
 30
0.0
 11
161.121430049548
 21
-449.3116856222376
 31
0.0
  0
LINE
  5
1428
330
36
100
AcDbEntity
  8
0
 62
     3
100
AcDbLine
 10
162.221430049548
 20
-449.3116856222376
 30
0.0
 11
162.221430049548
 21
-452.8116856222374
 31
0.0
  0
LINE
  5
1429
330
36
100
AcDbEntity
  8
0
 62
     3
100
AcDbLine
 10
161.121430049548
 20
-452.8116856222374
 30
0.0
 11
161.121430049548
 21
-449.3116856222376
 31
0.0
  0
LINE
  5
142A
330
36
100
AcDbEntity
  8
0
 62
     3
100
AcDbLine
 10
162.221430049548
 20
-452.8116856222374
 30
0.0
 11
161.121430049548
 21
-452.8116856222374
 31
0.0
  0
LINE
  5
142B
330
36
100
AcDbEntity
  8
0
 62
     3
100
AcDbLine
 10
155.871430049548
 20
-448.8866856222373
 30
0.0
 11
154.771430049548
 21
-448.8866856222373
 31
0.0
  0
LINE
  5
142C
330
36
100
AcDbEntity
  8
0
 62
     3
100
AcDbLine
 10
155.871430049548
 20
-448.8866856222373
 30
0.0
 11
155.871430049548
 21
-453.2366856222376
 31
0.0
  0
LINE
  5
142D
330
36
100
AcDbEntity
  8
0
 62
     3
100
AcDbLine
 10
154.771430049548
 20
-453.2366856222376
 30
0.0
 11
154.771430049548
 21
-448.8866856222373
 31
0.0
  0
LINE
  5
142E
330
36
100
AcDbEntity
  8
0
 62
     3
100
AcDbLine
 10
155.871430049548
 20
-453.2366856222376
 30
0.0
 11
154.771430049548
 21
-453.2366856222376
 31
0.0
  0
ARC
  5
142F
330
36
100
AcDbEntity
  8
0
 62
     3
100
AcDbCircle
 10
158.496430049548
 20
-457.0116856222376
 30
0.0
 40
1.35
100
AcDbArc
 50
0.0
 51
180.0
  0
LINE
  5
1430
330
36
100
AcDbEntity
  8
0
 62
     3
100
AcDbLine
 10
157.146430049548
 20
-457.0116856222376
 30
0.0
 11
157.146430049548
 21
-458.3616856222374
 31
0.0
  0
LINE
  5
1431
330
36
100
AcDbEntity
  8
0
 62
     3
100
AcDbLine
 10
157.146430049548
 20
-458.3616856222374
 30
0.0
 11
158.496430049548
 21
-458.3616856222374
 31
0.0
  0
LINE
  5
1432
330
36
100
AcDbEntity
  8
0
 62
     3
100
AcDbLine
 10
159.8464300495481
 20
-458.3616856222374
 30
0.0
 11
158.496430049548
 21
-458.3616856222374
 31
0.0
  0
LINE
  5
1433
330
36
100
AcDbEntity
  8
0
 62
     3
100
AcDbLine
 10
159.8464300495481
 20
-457.0116856222376
 30
0.0
 11
159.8464300495481
 21
-458.3616856222374
 31
0.0
  0
LINE
  5
1434
330
36
100
AcDbEntity
  8
0
 62
     3
100
AcDbLine
 10
155.871430049548
 20
-468.3866856222373
 30
0.0
 11
154.771430049548
 21
-468.3866856222373
 31
0.0
  0
LINE
  5
1435
330
36
100
AcDbEntity
  8
0
 62
     3
100
AcDbLine
 10
155.871430049548
 20
-468.3866856222373
 30
0.0
 11
155.871430049548
 21
-472.7366856222373
 31
0.0
  0
LINE
  5
1436
330
36
100
AcDbEntity
  8
0
 62
     3
100
AcDbLine
 10
154.771430049548
 20
-472.7366856222373
 30
0.0
 11
154.771430049548
 21
-468.3866856222373
 31
0.0
  0
LINE
  5
1437
330
36
100
AcDbEntity
  8
0
 62
     3
100
AcDbLine
 10
155.871430049548
 20
-472.7366856222373
 30
0.0
 11
154.771430049548
 21
-472.7366856222373
 31
0.0
  0
LINE
  5
1438
330
36
100
AcDbEntity
  8
0
 62
     3
100
AcDbLine
 10
162.221430049548
 20
-468.8116856222373
 30
0.0
 11
162.221430049548
 21
-472.3116856222373
 31
0.0
  0
LINE
  5
1439
330
36
100
AcDbEntity
  8
0
 62
     3
100
AcDbLine
 10
162.221430049548
 20
-472.3116856222373
 30
0.0
 11
161.121430049548
 21
-472.3116856222373
 31
0.0
  0
LINE
  5
143A
330
36
100
AcDbEntity
  8
0
 62
     3
100
AcDbLine
 10
161.121430049548
 20
-472.3116856222373
 30
0.0
 11
161.121430049548
 21
-468.8116856222373
 31
0.0
  0
LINE
  5
143B
330
36
100
AcDbEntity
  8
0
 62
     3
100
AcDbLine
 10
162.221430049548
 20
-468.8116856222373
 30
0.0
 11
161.121430049548
 21
-468.8116856222373
 31
0.0
  0
LINE
  5
143C
330
36
100
AcDbEntity
  8
0
 62
     7
100
AcDbLine
 10
162.471430049548
 20
-449.0616856222374
 30
0.0
 11
162.471430049548
 21
-453.0616856222374
 31
0.0
  0
LINE
  5
143D
330
36
100
AcDbEntity
  8
0
 62
     7
100
AcDbLine
 10
162.221430049548
 20
-449.3116856222376
 30
0.0
 11
162.471430049548
 21
-449.0616856222374
 31
0.0
  0
LINE
  5
143E
330
36
100
AcDbEntity
  8
0
 62
     7
100
AcDbLine
 10
162.471430049548
 20
-449.0616856222374
 30
0.0
 11
160.8714300495481
 21
-449.0616856222374
 31
0.0
  0
LINE
  5
143F
330
36
100
AcDbEntity
  8
0
 62
     7
100
AcDbLine
 10
161.121430049548
 20
-449.3116856222376
 30
0.0
 11
160.8714300495481
 21
-449.0616856222374
 31
0.0
  0
LINE
  5
1440
330
36
100
AcDbEntity
  8
0
 62
     7
100
AcDbLine
 10
160.8714300495481
 20
-453.0616856222374
 30
0.0
 11
160.8714300495481
 21
-449.0616856222374
 31
0.0
  0
LINE
  5
1441
330
36
100
AcDbEntity
  8
0
 62
     7
100
AcDbLine
 10
162.471430049548
 20
-453.0616856222374
 30
0.0
 11
160.8714300495481
 21
-453.0616856222374
 31
0.0
  0
LINE
  5
1442
330
36
100
AcDbEntity
  8
0
 62
     7
100
AcDbLine
 10
161.121430049548
 20
-452.8116856222374
 30
0.0
 11
160.8714300495481
 21
-453.0616856222374
 31
0.0
  0
LINE
  5
1443
330
36
100
AcDbEntity
  8
0
 62
     7
100
AcDbLine
 10
162.221430049548
 20
-452.8116856222374
 30
0.0
 11
162.471430049548
 21
-453.0616856222374
 31
0.0
  0
LINE
  5
1444
330
36
100
AcDbEntity
  8
0
 62
     7
100
AcDbLine
 10
156.1214300495481
 20
-453.4866856222373
 30
0.0
 11
154.521430049548
 21
-453.4866856222373
 31
0.0
  0
LINE
  5
1445
330
36
100
AcDbEntity
  8
0
 62
     7
100
AcDbLine
 10
156.1214300495481
 20
-448.6366856222374
 30
0.0
 11
156.1214300495481
 21
-453.4866856222373
 31
0.0
  0
LINE
  5
1446
330
36
100
AcDbEntity
  8
0
 62
     7
100
AcDbLine
 10
155.871430049548
 20
-453.2366856222376
 30
0.0
 11
156.1214300495481
 21
-453.4866856222373
 31
0.0
  0
LINE
  5
1447
330
36
100
AcDbEntity
  8
0
 62
     7
100
AcDbLine
 10
154.771430049548
 20
-453.2366856222376
 30
0.0
 11
154.521430049548
 21
-453.4866856222373
 31
0.0
  0
LINE
  5
1448
330
36
100
AcDbEntity
  8
0
 62
     7
100
AcDbLine
 10
154.521430049548
 20
-453.4866856222373
 30
0.0
 11
154.521430049548
 21
-448.6366856222374
 31
0.0
  0
LINE
  5
1449
330
36
100
AcDbEntity
  8
0
 62
     7
100
AcDbLine
 10
156.1214300495481
 20
-448.6366856222374
 30
0.0
 11
154.521430049548
 21
-448.6366856222374
 31
0.0
  0
LINE
  5
144A
330
36
100
AcDbEntity
  8
0
 62
     7
100
AcDbLine
 10
154.771430049548
 20
-448.8866856222373
 30
0.0
 11
154.521430049548
 21
-448.6366856222374
 31
0.0
  0
LINE
  5
144B
330
36
100
AcDbEntity
  8
0
 62
     7
100
AcDbLine
 10
155.871430049548
 20
-448.8866856222373
 30
0.0
 11
156.1214300495481
 21
-448.6366856222374
 31
0.0
  0
ARC
  5
144C
330
36
100
AcDbEntity
  8
0
 62
     7
100
AcDbCircle
 10
158.496430049548
 20
-457.0116856222376
 30
0.0
 40
1.6
100
AcDbArc
 50
0.0
 51
180.0
  0
LINE
  5
144D
330
36
100
AcDbEntity
  8
0
 62
     7
100
AcDbLine
 10
160.0964300495481
 20
-457.0116856222376
 30
0.0
 11
160.0964300495481
 21
-458.6116856222376
 31
0.0
  0
LINE
  5
144E
330
36
100
AcDbEntity
  8
0
 62
     7
100
AcDbLine
 10
160.0964300495481
 20
-458.6116856222376
 30
0.0
 11
158.496430049548
 21
-458.6116856222376
 31
0.0
  0
LINE
  5
144F
330
36
100
AcDbEntity
  8
0
 62
     7
100
AcDbLine
 10
159.8464300495481
 20
-458.3616856222374
 30
0.0
 11
160.0964300495481
 21
-458.6116856222376
 31
0.0
  0
LINE
  5
1450
330
36
100
AcDbEntity
  8
0
 62
     7
100
AcDbLine
 10
156.896430049548
 20
-458.6116856222376
 30
0.0
 11
158.496430049548
 21
-458.6116856222376
 31
0.0
  0
LINE
  5
1451
330
36
100
AcDbEntity
  8
0
 62
     7
100
AcDbLine
 10
157.146430049548
 20
-458.3616856222374
 30
0.0
 11
156.896430049548
 21
-458.6116856222376
 31
0.0
  0
LINE
  5
1452
330
36
100
AcDbEntity
  8
0
 62
     7
100
AcDbLine
 10
156.896430049548
 20
-457.0116856222376
 30
0.0
 11
156.896430049548
 21
-458.6116856222376
 31
0.0
  0
LINE
  5
1453
330
36
100
AcDbEntity
  8
0
 62
     7
100
AcDbLine
 10
156.1214300495481
 20
-472.9866856222376
 30
0.0
 11
154.521430049548
 21
-472.9866856222376
 31
0.0
  0
LINE
  5
1454
330
36
100
AcDbEntity
  8
0
 62
     7
100
AcDbLine
 10
156.1214300495481
 20
-468.1366856222374
 30
0.0
 11
156.1214300495481
 21
-472.9866856222376
 31
0.0
  0
LINE
  5
1455
330
36
100
AcDbEntity
  8
0
 62
     7
100
AcDbLine
 10
155.871430049548
 20
-472.7366856222373
 30
0.0
 11
156.1214300495481
 21
-472.9866856222376
 31
0.0
  0
LINE
  5
1456
330
36
100
AcDbEntity
  8
0
 62
     7
100
AcDbLine
 10
154.771430049548
 20
-472.7366856222373
 30
0.0
 11
154.521430049548
 21
-472.9866856222376
 31
0.0
  0
LINE
  5
1457
330
36
100
AcDbEntity
  8
0
 62
     7
100
AcDbLine
 10
154.521430049548
 20
-472.9866856222376
 30
0.0
 11
154.521430049548
 21
-468.1366856222374
 31
0.0
  0
LINE
  5
1458
330
36
100
AcDbEntity
  8
0
 62
     7
100
AcDbLine
 10
154.771430049548
 20
-468.3866856222373
 30
0.0
 11
154.521430049548
 21
-468.1366856222374
 31
0.0
  0
LINE
  5
1459
330
36
100
AcDbEntity
  8
0
 62
     7
100
AcDbLine
 10
156.1214300495481
 20
-468.1366856222374
 30
0.0
 11
154.521430049548
 21
-468.1366856222374
 31
0.0
  0
LINE
  5
145A
330
36
100
AcDbEntity
  8
0
 62
     7
100
AcDbLine
 10
155.871430049548
 20
-468.3866856222373
 30
0.0
 11
156.1214300495481
 21
-468.1366856222374
 31
0.0
  0
LINE
  5
145B
330
36
100
AcDbEntity
  8
0
 62
     7
100
AcDbLine
 10
162.471430049548
 20
-468.5616856222376
 30
0.0
 11
160.8714300495481
 21
-468.5616856222376
 31
0.0
  0
LINE
  5
145C
330
36
100
AcDbEntity
  8
0
 62
     7
100
AcDbLine
 10
161.121430049548
 20
-468.8116856222373
 30
0.0
 11
160.8714300495481
 21
-468.5616856222376
 31
0.0
  0
LINE
  5
145D
330
36
100
AcDbEntity
  8
0
 62
     7
100
AcDbLine
 10
162.221430049548
 20
-468.8116856222373
 30
0.0
 11
162.471430049548
 21
-468.5616856222376
 31
0.0
  0
LINE
  5
145E
330
36
100
AcDbEntity
  8
0
 62
     7
100
AcDbLine
 10
162.471430049548
 20
-468.5616856222376
 30
0.0
 11
162.471430049548
 21
-472.5616856222376
 31
0.0
  0
LINE
  5
145F
330
36
100
AcDbEntity
  8
0
 62
     7
100
AcDbLine
 10
162.221430049548
 20
-472.3116856222373
 30
0.0
 11
162.471430049548
 21
-472.5616856222376
 31
0.0
  0
LINE
  5
1460
330
36
100
AcDbEntity
  8
0
 62
     7
100
AcDbLine
 10
162.471430049548
 20
-472.5616856222376
 30
0.0
 11
160.8714300495481
 21
-472.5616856222376
 31
0.0
  0
LINE
  5
1461
330
36
100
AcDbEntity
  8
0
 62
     7
100
AcDbLine
 10
161.121430049548
 20
-472.3116856222373
 30
0.0
 11
160.8714300495481
 21
-472.5616856222376
 31
0.0
  0
LINE
  5
1462
330
36
100
AcDbEntity
  8
0
 62
     7
100
AcDbLine
 10
160.8714300495481
 20
-472.5616856222376
 30
0.0
 11
160.8714300495481
 21
-468.5616856222376
 31
0.0
  0
LINE
  5
1463
330
36
100
AcDbEntity
  8
0
 62
     7
100
AcDbLine
 10
160.0964300495481
 20
-476.5116856222373
 30
0.0
 11
160.0964300495481
 21
-478.1116856222374
 31
0.0
  0
ARC
  5
1464
330
36
100
AcDbEntity
  8
0
 62
     7
100
AcDbCircle
 10
158.496430049548
 20
-476.5116856222373
 30
0.0
 40
1.6
100
AcDbArc
 50
0.0
 51
180.0
  0
LINE
  5
1465
330
36
100
AcDbEntity
  8
0
 62
     7
100
AcDbLine
 10
160.0964300495481
 20
-478.1116856222374
 30
0.0
 11
158.496430049548
 21
-478.1116856222374
 31
0.0
  0
LINE
  5
1466
330
36
100
AcDbEntity
  8
0
 62
     7
100
AcDbLine
 10
159.8464300495481
 20
-477.8616856222376
 30
0.0
 11
160.0964300495481
 21
-478.1116856222374
 31
0.0
  0
LINE
  5
1467
330
36
100
AcDbEntity
  8
0
 62
     7
100
AcDbLine
 10
156.896430049548
 20
-478.1116856222374
 30
0.0
 11
158.496430049548
 21
-478.1116856222374
 31
0.0
  0
LINE
  5
1468
330
36
100
AcDbEntity
  8
0
 62
     7
100
AcDbLine
 10
156.896430049548
 20
-476.5116856222373
 30
0.0
 11
156.896430049548
 21
-478.1116856222374
 31
0.0
  0
LINE
  5
1469
330
36
100
AcDbEntity
  8
0
 62
     7
100
AcDbLine
 10
157.146430049548
 20
-477.8616856222376
 30
0.0
 11
156.896430049548
 21
-478.1116856222374
 31
0.0
  0
CIRCLE
  5
146D
330
36
100
AcDbEntity
  8
0
 62
     7
100
AcDbCircle
 10
110.996430049548
 20
-433.2616856222373
 30
0.0
 40
1.375
  0
CIRCLE
  5
146E
330
36
100
AcDbEntity
  8
0
 62
     7
100
AcDbCircle
 10
110.996430049548
 20
-463.7616856222376
 30
0.0
 40
1.375
  0
LINE
  5
146F
330
36
100
AcDbEntity
  8
0
  6
Continuous
 62
     3
100
AcDbLine
 10
114.246430049548
 20
-439.5116856222373
 30
0.0
 11
107.746430049548
 21
-439.5116856222373
 31
0.0
  0
LINE
  5
1470
330
36
100
AcDbEntity
  8
0
  6
Continuous
 62
     3
100
AcDbLine
 10
114.246430049548
 20
-457.5116856222376
 30
0.0
 11
107.746430049548
 21
-457.5116856222376
 31
0.0
  0
LINE
  5
1471
330
36
100
AcDbEntity
  8
0
  6
Continuous
 62
     3
100
AcDbLine
 10
114.246430049548
 20
-457.5116856222376
 30
0.0
 11
114.246430049548
 21
-439.5116856222373
 31
0.0
  0
LINE
  5
1472
330
36
100
AcDbEntity
  8
0
  6
Continuous
 62
     3
100
AcDbLine
 10
107.746430049548
 20
-457.5116856222376
 30
0.0
 11
107.746430049548
 21
-439.5116856222373
 31
0.0
  0
LINE
  5
1473
330
36
100
AcDbEntity
  8
0
  6
Continuous
 62
     3
100
AcDbLine
 10
113.496430049548
 20
-444.0116856222373
 30
0.0
 11
108.496430049548
 21
-444.0116856222373
 31
0.0
  0
LINE
  5
1474
330
36
100
AcDbEntity
  8
0
  6
Continuous
 62
     3
100
AcDbLine
 10
113.496430049548
 20
-453.0116856222376
 30
0.0
 11
112.496430049548
 21
-453.0116856222376
 31
0.0
  0
LINE
  5
1475
330
36
100
AcDbEntity
  8
0
  6
Continuous
 62
     3
100
AcDbLine
 10
113.496430049548
 20
-444.0116856222373
 30
0.0
 11
113.496430049548
 21
-453.0116856222376
 31
0.0
  0
LINE
  5
1476
330
36
100
AcDbEntity
  8
0
  6
Continuous
 62
     3
100
AcDbLine
 10
108.496430049548
 20
-444.0116856222373
 30
0.0
 11
108.496430049548
 21
-453.0116856222376
 31
0.0
  0
LINE
  5
147B
330
36
100
AcDbEntity
  8
0
  6
Continuous
 62
     3
100
AcDbLine
 10
112.496430049548
 20
-448.0116856222373
 30
0.0
 11
109.496430049548
 21
-448.0116856222373
 31
0.0
  0
LINE
  5
147C
330
36
100
AcDbEntity
  8
0
  6
Continuous
 62
     3
100
AcDbLine
 10
112.496430049548
 20
-444.0116856222373
 30
0.0
 11
112.496430049548
 21
-453.5116856222376
 31
0.0
  0
LINE
  5
147D
330
36
100
AcDbEntity
  8
0
  6
Continuous
 62
     3
100
AcDbLine
 10
109.496430049548
 20
-444.0116856222373
 30
0.0
 11
109.496430049548
 21
-453.5116856222376
 31
0.0
  0
LINE
  5
147E
330
36
100
AcDbEntity
  8
0
  6
Continuous
 62
     3
100
AcDbLine
 10
112.496430049548
 20
-453.5116856222376
 30
0.0
 11
109.496430049548
 21
-453.5116856222376
 31
0.0
  0
LINE
  5
147F
330
36
100
AcDbEntity
  8
0
  6
Continuous
 62
     3
100
AcDbLine
 10
112.496430049548
 20
-452.0116856222373
 30
0.0
 11
109.496430049548
 21
-452.0116856222373
 31
0.0
  0
LINE
  5
1480
330
36
100
AcDbEntity
  8
0
  6
Continuous
 62
     3
100
AcDbLine
 10
109.496430049548
 20
-453.0116856222376
 30
0.0
 11
108.496430049548
 21
-453.0116856222376
 31
0.0
  0
LINE
  5
1481
330
36
100
AcDbEntity
  8
0
  6
Continuous
 62
     3
100
AcDbLine
 10
123.496430049548
 20
-402.7616856222373
 30
0.0
 11
98.49643004954806
 21
-402.7616856222373
 31
0.0
  0
LINE
  5
1482
330
36
100
AcDbEntity
  8
0
  6
Continuous
 62
     3
100
AcDbLine
 10
123.496430049548
 20
-417.7616856222376
 30
0.0
 11
98.49643004954806
 21
-417.7616856222376
 31
0.0
  0
LINE
  5
1483
330
36
100
AcDbEntity
  8
0
  6
Continuous
 62
     3
100
AcDbLine
 10
123.496430049548
 20
-417.7616856222376
 30
0.0
 11
123.496430049548
 21
-402.7616856222373
 31
0.0
  0
LINE
  5
1484
330
36
100
AcDbEntity
  8
0
  6
Continuous
 62
     3
100
AcDbLine
 10
98.49643004954806
 20
-402.7616856222373
 30
0.0
 11
98.49643004954806
 21
-417.7616856222376
 31
0.0
  0
ARC
  5
1489
330
36
100
AcDbEntity
  8
0
  6
Continuous
100
AcDbCircle
 10
110.996430049548
 20
-422.2616856222376
 30
0.0
 40
15.0
100
AcDbArc
 50
53.13010235415671
 51
126.8698976458433
  0
LINE
  5
148A
330
36
100
AcDbEntity
  8
0
  6
Continuous
100
AcDbLine
 10
119.996430049548
 20
-410.2616856222374
 30
0.0
 11
120.896430049548
 21
-409.0616856222373
 31
0.0
  0
LINE
  5
148C
330
36
100
AcDbEntity
  8
0
  6
Continuous
100
AcDbLine
 10
107.621430049548
 20
-417.7616856222376
 30
0.0
 11
101.096430049548
 21
-409.0616856222373
 31
0.0
  0
LINE
  5
1494
330
36
100
AcDbEntity
  8
0
  6
Continuous
100
AcDbLine
 10
114.5086080801718
 20
-406.13981831472
 30
0.0
 11
114.1893191682969
 21
-407.6054426154033
 31
0.0
  0
LINE
  5
1495
330
36
100
AcDbEntity
  8
0
  6
Continuous
100
AcDbLine
 10
107.4842520189243
 20
-406.13981831472
 30
0.0
 11
107.8035409307992
 21
-407.6054426154033
 31
0.0
  0
TEXT
  5
1497
330
36
100
AcDbEntity
  8
0
  6
Continuous
100
AcDbText
 10
110.9087311507619
 20
-414.8936152518781
 30
0.0
 40
1.6
  1
V
  7
高3.2
100
AcDbText
  0
TEXT
  5
1498
330
36
100
AcDbEntity
  8
0
  6
Continuous
100
AcDbText
 10
110.9087311507619
 20
-416.8136152518782
 30
0.0
 40
1.6
  1
～
  7
高3.2
100
AcDbText
  0
TEXT
  5
1499
330
36
100
AcDbEntity
  8
0
  6
Continuous
100
AcDbText
 10
100.4562980327458
 20
-408.8529238121496
 30
0.0
 40
1.6
  1
0
 50
34.82158503614608
  7
高3.2
100
AcDbText
  0
TEXT
  5
149A
330
36
100
AcDbEntity
  8
0
  6
Continuous
100
AcDbText
 10
119.4183164732675
 20
-407.5286184982312
 30
0.0
 40
1.6
  1
150
 50
322.2869252646485
  7
高3.2
100
AcDbText
  0
CIRCLE
  5
14A1
330
36
100
AcDbEntity
  8
0
  6
Continuous
 62
     3
100
AcDbCircle
 10
147.496430049548
 20
-409.7616856222376
 30
0.0
 40
2.5
  0
LINE
  5
14A2
330
36
100
AcDbEntity
  8
0
  6
Continuous
100
AcDbLine
 10
215.9947874266984
 20
-394.7616856222376
 30
0.0
 11
212.4947874266984
 21
-394.7616856222378
 31
0.0
  0
LINE
  5
14AA
330
36
100
AcDbEntity
  8
0
  6
Continuous
100
AcDbLine
 10
174.4964300495482
 20
-443.0116856222373
 30
0.0
 11
174.4964300495482
 21
-446.5116856222373
 31
0.0
  0
LINE
  5
14AB
330
36
100
AcDbEntity
  8
0
  6
Continuous
100
AcDbLine
 10
174.4964300495482
 20
-443.0116856222373
 30
0.0
 11
173.9964300495481
 21
-443.0116856222373
 31
0.0
  0
LINE
  5
14AC
330
36
100
AcDbEntity
  8
0
  6
Continuous
100
AcDbLine
 10
174.4964300495482
 20
-446.5116856222373
 30
0.0
 11
173.9964300495481
 21
-446.5116856222373
 31
0.0
  0
ARC
  5
14AD
330
36
100
AcDbEntity
  8
0
  6
Continuous
100
AcDbCircle
 10
171.6839300495481
 20
-444.7616856222373
 30
0.0
 40
3.312500000000001
100
AcDbArc
 50
328.1092081981537
 51
31.89079180184632
  0
LINE
  5
14AF
330
36
100
AcDbEntity
  8
0
  6
Continuous
100
AcDbLine
 10
174.4964300495482
 20
-489.2616856222374
 30
0.0
 11
174.4964300495482
 21
-492.7616856222376
 31
0.0
  0
LINE
  5
14B0
330
36
100
AcDbEntity
  8
0
  6
Continuous
100
AcDbLine
 10
174.4964300495482
 20
-489.2616856222374
 30
0.0
 11
173.9964300495481
 21
-489.2616856222374
 31
0.0
  0
LINE
  5
14B1
330
36
100
AcDbEntity
  8
0
  6
Continuous
100
AcDbLine
 10
174.4964300495482
 20
-492.7616856222376
 30
0.0
 11
173.9964300495481
 21
-492.7616856222376
 31
0.0
  0
ARC
  5
14B2
330
36
100
AcDbEntity
  8
0
  6
Continuous
100
AcDbCircle
 10
171.6839300495481
 20
-491.0116856222376
 30
0.0
 40
3.312500000000001
100
AcDbArc
 50
328.1092081981537
 51
31.89079180184632
  0
LINE
  5
14B4
330
36
100
AcDbEntity
  8
0
  6
Continuous
100
AcDbLine
 10
47.49643004954793
 20
-443.0116856222373
 30
0.0
 11
47.49643004954793
 21
-446.5116856222373
 31
0.0
  0
LINE
  5
14B5
330
36
100
AcDbEntity
  8
0
  6
Continuous
100
AcDbLine
 10
47.49643004954793
 20
-443.0116856222373
 30
0.0
 11
47.99643004954794
 21
-443.0116856222373
 31
0.0
  0
LINE
  5
14B6
330
36
100
AcDbEntity
  8
0
  6
Continuous
100
AcDbLine
 10
47.49643004954793
 20
-446.5116856222373
 30
0.0
 11
47.99643004954794
 21
-446.5116856222373
 31
0.0
  0
ARC
  5
14B7
330
36
100
AcDbEntity
  8
0
  6
Continuous
100
AcDbCircle
 10
50.30893004954794
 20
-444.7616856222373
 30
0.0
 40
3.312500000000001
100
AcDbArc
 50
148.1092081981536
 51
211.8907918018463
  0
LINE
  5
14B8
330
36
100
AcDbEntity
  8
0
  6
Continuous
100
AcDbLine
 10
47.49643004954793
 20
-489.2616856222374
 30
0.0
 11
47.49643004954793
 21
-492.7616856222376
 31
0.0
  0
LINE
  5
14B9
330
36
100
AcDbEntity
  8
0
  6
Continuous
100
AcDbLine
 10
47.49643004954793
 20
-489.2616856222374
 30
0.0
 11
47.99643004954794
 21
-489.2616856222374
 31
0.0
  0
LINE
  5
14BA
330
36
100
AcDbEntity
  8
0
  6
Continuous
100
AcDbLine
 10
47.49643004954793
 20
-492.7616856222376
 30
0.0
 11
47.99643004954794
 21
-492.7616856222376
 31
0.0
  0
ARC
  5
14BB
330
36
100
AcDbEntity
  8
0
  6
Continuous
100
AcDbCircle
 10
50.30893004954794
 20
-491.0116856222376
 30
0.0
 40
3.312500000000001
100
AcDbArc
 50
148.1092081981536
 51
211.8907918018463
  0
LINE
  5
14BF
330
36
100
AcDbEntity
  8
0
  6
Continuous
100
AcDbLine
 10
130.246430049548
 20
-394.2616856222374
 30
0.0
 11
133.746430049548
 21
-394.2616856222374
 31
0.0
  0
LINE
  5
14C0
330
36
100
AcDbEntity
  8
0
  6
Continuous
100
AcDbLine
 10
130.246430049548
 20
-394.2616856222374
 30
0.0
 11
130.246430049548
 21
-394.7616856222375
 31
0.0
  0
LINE
  5
14C1
330
36
100
AcDbEntity
  8
0
  6
Continuous
100
AcDbLine
 10
133.746430049548
 20
-394.2616856222374
 30
0.0
 11
133.746430049548
 21
-394.7616856222375
 31
0.0
  0
ARC
  5
14C2
330
36
100
AcDbEntity
  8
0
  6
Continuous
100
AcDbCircle
 10
131.996430049548
 20
-397.0741856222375
 30
0.0
 40
3.312500000000001
100
AcDbArc
 50
58.10920819815405
 51
121.8907918018459
  0
LINE
  5
14C4
330
36
100
AcDbEntity
  8
0
  6
Continuous
100
AcDbLine
 10
88.24643004954801
 20
-394.2616856222374
 30
0.0
 11
91.74643004954806
 21
-394.2616856222374
 31
0.0
  0
LINE
  5
14C5
330
36
100
AcDbEntity
  8
0
  6
Continuous
100
AcDbLine
 10
88.24643004954801
 20
-394.2616856222374
 30
0.0
 11
88.24643004954806
 21
-394.7616856222375
 31
0.0
  0
LINE
  5
14C6
330
36
100
AcDbEntity
  8
0
  6
Continuous
100
AcDbLine
 10
91.746430049548
 20
-394.2616856222374
 30
0.0
 11
91.74643004954806
 21
-394.7616856222375
 31
0.0
  0
ARC
  5
14C7
330
36
100
AcDbEntity
  8
0
  6
Continuous
100
AcDbCircle
 10
89.99643004954803
 20
-397.0741856222375
 30
0.0
 40
3.312500000000001
100
AcDbArc
 50
58.10920819815405
 51
121.8907918018459
  0
LINE
  5
14CA
330
36
100
AcDbEntity
  8
0
  6
Continuous
 62
     3
100
AcDbLine
 10
173.996430049548
 20
-472.2616856222376
 30
0.0
 11
175.496430049548
 21
-472.2616856222376
 31
0.0
  0
ARC
  5
14CE
330
36
100
AcDbEntity
  8
0
  6
Continuous
 62
     3
100
AcDbCircle
 10
166.4130967162148
 20
-472.2616856222376
 30
0.0
 40
9.083333333333197
100
AcDbArc
 50
0.0
 51
33.39848846798773
  0
LINE
  5
14CF
330
36
100
AcDbEntity
  8
0
  6
Continuous
 62
     3
100
AcDbLine
 10
173.996430049548
 20
-462.2616856222373
 30
0.0
 11
175.496430049548
 21
-462.2616856222373
 31
0.0
  0
ARC
  5
14D0
330
36
100
AcDbEntity
  8
0
  6
Continuous
 62
     3
100
AcDbCircle
 10
166.4130967162148
 20
-462.2616856222373
 30
0.0
 40
9.083333333333197
100
AcDbArc
 50
0.0
 51
33.39848846798773
  0
LINE
  5
14D1
330
36
100
AcDbEntity
  8
0
  6
Continuous
 62
     3
100
AcDbLine
 10
173.996430049548
 20
-452.2616856222374
 30
0.0
 11
175.496430049548
 21
-452.2616856222374
 31
0.0
  0
ARC
  5
14D2
330
36
100
AcDbEntity
  8
0
  6
Continuous
 62
     3
100
AcDbCircle
 10
166.4130967162148
 20
-452.2616856222374
 30
0.0
 40
9.083333333333197
100
AcDbArc
 50
0.0
 51
33.39848846798773
  0
LINE
  5
14D3
330
36
100
AcDbEntity
  8
0
  6
Continuous
 62
     3
100
AcDbLine
 10
173.996430049548
 20
-442.2616856222374
 30
0.0
 11
175.496430049548
 21
-442.2616856222374
 31
0.0
  0
ARC
  5
14D4
330
36
100
AcDbEntity
  8
0
  6
Continuous
 62
     3
100
AcDbCircle
 10
166.4130967162148
 20
-442.2616856222374
 30
0.0
 40
9.083333333333197
100
AcDbArc
 50
0.0
 51
33.39848846798773
  0
LINE
  5
14D5
330
36
100
AcDbEntity
  8
0
  6
Continuous
 62
     3
100
AcDbLine
 10
173.996430049548
 20
-432.2616856222373
 30
0.0
 11
175.496430049548
 21
-432.2616856222373
 31
0.0
  0
ARC
  5
14D6
330
36
100
AcDbEntity
  8
0
  6
Continuous
 62
     3
100
AcDbCircle
 10
166.4130967162148
 20
-432.2616856222373
 30
0.0
 40
9.083333333333197
100
AcDbArc
 50
0.0
 51
33.39848846798773
  0
LINE
  5
14D7
330
36
100
AcDbEntity
  8
0
  6
Continuous
 62
     3
100
AcDbLine
 10
173.996430049548
 20
-422.2616856222376
 30
0.0
 11
175.496430049548
 21
-422.2616856222376
 31
0.0
  0
ARC
  5
14D8
330
36
100
AcDbEntity
  8
0
  6
Continuous
 62
     3
100
AcDbCircle
 10
166.4130967162148
 20
-422.2616856222376
 30
0.0
 40
9.083333333333197
100
AcDbArc
 50
0.0
 51
33.39848846798773
  0
LINE
  5
14D9
330
36
100
AcDbEntity
  8
0
  6
Continuous
 62
     3
100
AcDbLine
 10
173.996430049548
 20
-412.2616856222373
 30
0.0
 11
175.496430049548
 21
-412.2616856222373
 31
0.0
  0
ARC
  5
14DA
330
36
100
AcDbEntity
  8
0
  6
Continuous
 62
     3
100
AcDbCircle
 10
166.4130967162148
 20
-412.2616856222373
 30
0.0
 40
9.083333333333197
100
AcDbArc
 50
0.0
 51
33.39848846798773
  0
LINE
  5
14DB
330
36
100
AcDbEntity
  8
0
  6
Continuous
 62
     3
100
AcDbLine
 10
47.99643004954805
 20
-472.2616856222376
 30
0.0
 11
46.49643004954802
 21
-472.2616856222376
 31
0.0
  0
ARC
  5
14DC
330
36
100
AcDbEntity
  8
0
  6
Continuous
 62
     3
100
AcDbCircle
 10
55.57976338288125
 20
-472.2616856222376
 30
0.0
 40
9.083333333333197
100
AcDbArc
 50
146.6015115320125
 51
180.0
  0
LINE
  5
14DD
330
36
100
AcDbEntity
  8
0
  6
Continuous
 62
     3
100
AcDbLine
 10
47.99643004954805
 20
-462.2616856222373
 30
0.0
 11
46.49643004954802
 21
-462.2616856222373
 31
0.0
  0
ARC
  5
14DE
330
36
100
AcDbEntity
  8
0
  6
Continuous
 62
     3
100
AcDbCircle
 10
55.57976338288125
 20
-462.2616856222373
 30
0.0
 40
9.083333333333197
100
AcDbArc
 50
146.6015115320125
 51
180.0
  0
LINE
  5
14DF
330
36
100
AcDbEntity
  8
0
  6
Continuous
 62
     3
100
AcDbLine
 10
47.99643004954805
 20
-452.2616856222374
 30
0.0
 11
46.49643004954802
 21
-452.2616856222374
 31
0.0
  0
ARC
  5
14E0
330
36
100
AcDbEntity
  8
0
  6
Continuous
 62
     3
100
AcDbCircle
 10
55.57976338288125
 20
-452.2616856222374
 30
0.0
 40
9.083333333333197
100
AcDbArc
 50
146.6015115320125
 51
180.0
  0
LINE
  5
14E1
330
36
100
AcDbEntity
  8
0
  6
Continuous
 62
     3
100
AcDbLine
 10
47.99643004954805
 20
-442.2616856222374
 30
0.0
 11
46.49643004954802
 21
-442.2616856222374
 31
0.0
  0
ARC
  5
14E2
330
36
100
AcDbEntity
  8
0
  6
Continuous
 62
     3
100
AcDbCircle
 10
55.57976338288125
 20
-442.2616856222374
 30
0.0
 40
9.083333333333197
100
AcDbArc
 50
146.6015115320125
 51
180.0
  0
LINE
  5
14E3
330
36
100
AcDbEntity
  8
0
  6
Continuous
 62
     3
100
AcDbLine
 10
47.99643004954805
 20
-432.2616856222373
 30
0.0
 11
46.49643004954802
 21
-432.2616856222373
 31
0.0
  0
ARC
  5
14E4
330
36
100
AcDbEntity
  8
0
  6
Continuous
 62
     3
100
AcDbCircle
 10
55.57976338288125
 20
-432.2616856222373
 30
0.0
 40
9.083333333333197
100
AcDbArc
 50
146.6015115320125
 51
180.0
  0
LINE
  5
14E5
330
36
100
AcDbEntity
  8
0
  6
Continuous
 62
     3
100
AcDbLine
 10
47.99643004954805
 20
-422.2616856222376
 30
0.0
 11
46.49643004954802
 21
-422.2616856222376
 31
0.0
  0
ARC
  5
14E6
330
36
100
AcDbEntity
  8
0
  6
Continuous
 62
     3
100
AcDbCircle
 10
55.57976338288125
 20
-422.2616856222376
 30
0.0
 40
9.083333333333197
100
AcDbArc
 50
146.6015115320125
 51
180.0
  0
LINE
  5
14E7
330
36
100
AcDbEntity
  8
0
  6
Continuous
 62
     3
100
AcDbLine
 10
47.99643004954805
 20
-412.2616856222373
 30
0.0
 11
46.49643004954802
 21
-412.2616856222373
 31
0.0
  0
ARC
  5
14E8
330
36
100
AcDbEntity
  8
0
  6
Continuous
 62
     3
100
AcDbCircle
 10
55.57976338288125
 20
-412.2616856222373
 30
0.0
 40
9.083333333333197
100
AcDbArc
 50
146.6015115320125
 51
180.0
  0
LINE
  5
14E9
330
36
100
AcDbEntity
  8
0
  6
Continuous
100
AcDbLine
 10
124.996430049548
 20
-490.7616856222373
 30
0.0
 11
96.99643004954806
 21
-490.7616856222373
 31
0.0
  0
LINE
  5
14EA
330
36
100
AcDbEntity
  8
0
  6
Continuous
100
AcDbLine
 10
124.996430049548
 20
-468.2616856222376
 30
0.0
 11
96.99643004954806
 21
-468.2616856222376
 31
0.0
  0
LINE
  5
14EB
330
36
100
AcDbEntity
  8
0
  6
Continuous
100
AcDbLine
 10
124.996430049548
 20
-468.2616856222376
 30
0.0
 11
124.996430049548
 21
-490.7616856222373
 31
0.0
  0
LINE
  5
14EC
330
36
100
AcDbEntity
  8
0
  6
Continuous
100
AcDbLine
 10
96.99643004954806
 20
-468.2616856222376
 30
0.0
 11
96.99643004954806
 21
-490.7616856222373
 31
0.0
  0
LINE
  5
14ED
330
36
100
AcDbEntity
  8
0
  6
Continuous
 62
     3
100
AcDbLine
 10
59.49643004954803
 20
-413.2616856222374
 30
0.0
 11
59.49643004954803
 21
-419.2616856222374
 31
0.0
  0
LINE
  5
14EE
330
36
100
AcDbEntity
  8
0
  6
Continuous
 62
     3
100
AcDbLine
 10
89.49643004954806
 20
-413.2616856222374
 30
0.0
 11
89.49643004954806
 21
-419.2616856222374
 31
0.0
  0
LINE
  5
14EF
330
36
100
AcDbEntity
  8
0
  6
Continuous
 62
     3
100
AcDbLine
 10
87.99643004954806
 20
-411.7616856222373
 30
0.0
 11
60.99643004954803
 21
-411.7616856222373
 31
0.0
  0
LINE
  5
14F0
330
36
100
AcDbEntity
  8
0
  6
Continuous
 62
     3
100
AcDbLine
 10
87.99643004954806
 20
-420.7616856222373
 30
0.0
 11
60.99643004954803
 21
-420.7616856222373
 31
0.0
  0
ARC
  5
14F1
330
36
100
AcDbEntity
  8
0
  6
Continuous
 62
     3
100
AcDbCircle
 10
87.99643004954806
 20
-413.2616856222374
 30
0.0
 40
1.5
100
AcDbArc
 50
0.0
 51
90.0
  0
ARC
  5
14F2
330
36
100
AcDbEntity
  8
0
  6
Continuous
 62
     3
100
AcDbCircle
 10
87.99643004954806
 20
-419.2616856222374
 30
0.0
 40
1.5
100
AcDbArc
 50
270.0
 51
0.0
  0
ARC
  5
14F3
330
36
100
AcDbEntity
  8
0
  6
Continuous
 62
     3
100
AcDbCircle
 10
60.99643004954803
 20
-413.2616856222374
 30
0.0
 40
1.5
100
AcDbArc
 50
90.0
 51
180.0
  0
ARC
  5
14F4
330
36
100
AcDbEntity
  8
0
  6
Continuous
 62
     3
100
AcDbCircle
 10
60.99643004954803
 20
-419.2616856222374
 30
0.0
 40
1.5
100
AcDbArc
 50
180.0
 51
270.0
  0
ARC
  5
14F6
330
36
100
AcDbEntity
  8
0
  6
Continuous
100
AcDbCircle
 10
374.7035465564262
 20
-476.1866856222376
 30
0.0
 40
2.283750000000063
100
AcDbArc
 50
316.3971810272976
 51
43.60281897270231
  0
ARC
  5
14F7
330
36
100
AcDbEntity
  8
0
  6
Continuous
100
AcDbCircle
 10
378.0110465564263
 20
-476.1866856222376
 30
0.0
 40
2.283750000000063
100
AcDbArc
 50
136.3971810272982
 51
223.6028189727018
  0
ARC
  5
14F8
330
36
100
AcDbEntity
  8
0
  6
Continuous
100
AcDbCircle
 10
374.7035465564262
 20
-479.3366856222375
 30
0.0
 40
2.283750000000063
100
AcDbArc
 50
316.3971810272983
 51
43.60281897270176
  0
TEXT
  5
1526
330
36
100
AcDbEntity
  8
0
  6
Continuous
100
AcDbText
 10
103.2579720164065
 20
-401.5250481740809
 30
0.0
 40
2.5
  1
出力電圧計
  7
高2.5
100
AcDbText
  0
TEXT
  5
1527
330
36
100
AcDbEntity
  8
0
  6
Continuous
100
AcDbText
 10
62.23526082969602
 20
-405.4649692898497
 30
0.0
 40
4.5
  1
フルパワー
  7
高4.5
100
AcDbText
  0
TEXT
  5
1528
330
36
100
AcDbEntity
  8
0
  6
Continuous
100
AcDbText
 10
57.70445262271142
 20
-410.5265843071945
 30
0.0
 40
3.2
  1
軽量リングトランス
  7
高3.2
100
AcDbText
  0
TEXT
  5
1529
330
36
100
AcDbEntity
  8
0
  6
Continuous
100
AcDbText
 10
64.28704760491064
 20
-418.6281600002179
 30
0.0
 40
4.5
  1
連続定格
  7
高4.5
100
AcDbText
  0
TEXT
  5
152A
330
36
100
AcDbEntity
  8
0
  6
Continuous
100
AcDbText
 10
144.472331489558
 20
-405.7470756819439
 30
0.0
 40
2.5
  1
電源
  7
高2.5
100
AcDbText
  0
TEXT
  5
152B
330
36
100
AcDbEntity
  8
0
  6
Continuous
100
AcDbText
 10
108.5942507178304
 20
-438.3288364306109
 30
0.0
 40
2.5
  1
ON
  7
高2.5
100
AcDbText
  0
TEXT
  5
152C
330
36
100
AcDbEntity
  8
0
  6
Continuous
100
AcDbText
 10
108.0924326468771
 20
-460.9626634435744
 30
0.0
 40
2.5
  1
OFF
  7
高2.5
100
AcDbText
  0
TEXT
  5
152D
330
36
100
AcDbEntity
  8
0
  6
Continuous
100
AcDbText
 10
66.89168846529423
 20
-443.7564307129041
 30
0.0
 40
2.5
  1
出力 100V
  7
高2.5
100
AcDbText
  0
TEXT
  5
152E
330
36
100
AcDbEntity
  8
0
  6
Continuous
100
AcDbText
 10
139.1432193881896
 20
-443.7564307129041
 30
0.0
 40
2.5
  1
出力 115V
  7
高2.5
100
AcDbText
  0
CIRCLE
  5
1533
330
36
100
AcDbEntity
  8
0
100
AcDbCircle
 10
268.444657
 20
-364.1254807811143
 30
0.0
 40
5.0
  0
TEXT
  5
1534
330
36
100
AcDbEntity
  8
0
 62
     4
100
AcDbText
 10
266.2568346105013
 20
-367.3458084678594
 30
0.0
 40
6.299999999999998
  1
2
  7
高6.3
100
AcDbText
  0
CIRCLE
  5
1535
330
36
100
AcDbEntity
  8
0
100
AcDbCircle
 10
237.306656
 20
-364.0063307811142
 30
0.0
 40
5.0
  0
TEXT
  5
1536
330
36
100
AcDbEntity
  8
0
 62
     4
100
AcDbText
 10
235.1188336105013
 20
-367.2266584678595
 30
0.0
 40
6.299999999999998
  1
3
  7
高6.3
100
AcDbText
  0
CIRCLE
  5
1538
330
36
100
AcDbEntity
  8
0
100
AcDbCircle
 10
142.5150025362186
 20
-364.1403144208167
 30
0.0
 40
5.0
  0
TEXT
  5
1539
330
36
100
AcDbEntity
  8
0
 62
     4
100
AcDbText
 10
140.32718014672
 20
-367.360642107562
 30
0.0
 40
6.299999999999998
  1
5
  7
高6.3
100
AcDbText
  0
CIRCLE
  5
153A
330
36
100
AcDbEntity
  8
0
100
AcDbCircle
 10
158.1634365362187
 20
-364.1403144208167
 30
0.0
 40
5.0
  0
TEXT
  5
153B
330
36
100
AcDbEntity
  8
0
 62
     4
100
AcDbText
 10
155.97561414672
 20
-367.360642107562
 30
0.0
 40
6.299999999999998
  1
4
  7
高6.3
100
AcDbText
  0
CIRCLE
  5
153C
330
36
100
AcDbEntity
  8
0
100
AcDbCircle
 10
128.7045432219637
 20
-364.1403144208167
 30
0.0
 40
5.0
  0
TEXT
  5
153D
330
36
100
AcDbEntity
  8
0
 62
     4
100
AcDbText
 10
126.516720832465
 20
-367.360642107562
 30
0.0
 40
6.299999999999998
  1
6
  7
高6.3
100
AcDbText
  0
CIRCLE
  5
153E
330
36
100
AcDbEntity
  8
0
100
AcDbCircle
 10
84.72363492313339
 20
-364.1403144208167
 30
0.0
 40
5.0
  0
TEXT
  5
153F
330
36
100
AcDbEntity
  8
0
 62
     4
100
AcDbText
 10
82.53581253363469
 20
-367.360642107562
 30
0.0
 40
6.299999999999998
  1
7
  7
高6.3
100
AcDbText
  0
CIRCLE
  5
1540
330
36
100
AcDbEntity
  8
0
100
AcDbCircle
 10
67.914343
 20
-364.1403144208167
 30
0.0
 40
5.0
  0
TEXT
  5
1541
330
36
100
AcDbEntity
  8
0
 62
     4
100
AcDbText
 10
65.7265206105013
 20
-367.360642107562
 30
0.0
 40
6.299999999999998
  1
8
  7
高6.3
100
AcDbText
  0
CIRCLE
  5
1542
330
36
100
AcDbEntity
  8
0
100
AcDbCircle
 10
173.1529972563866
 20
-364.0063307811142
 30
0.0
 40
5.0
  0
TEXT
  5
1543
330
36
100
AcDbEntity
  8
0
 62
     4
100
AcDbText
 10
170.9651748668879
 20
-367.2266584678594
 30
0.0
 40
6.299999999999998
  1
9
  7
高6.3
100
AcDbText
  0
CIRCLE
  5
1544
330
36
100
AcDbEntity
  8
0
100
AcDbCircle
 10
90.51436521298438
 20
-505.7686022670933
 30
0.0
 40
5.0
  0
TEXT
  5
1545
330
36
100
AcDbEntity
  8
0
 62
     4
100
AcDbText
 10
87.80181178339853
 20
-508.0342693937896
 30
0.0
 40
4.5
  1
10
  7
高4.5
100
AcDbText
  0
TEXT
  5
159A
330
36
100
AcDbEntity
  8
0
  6
Continuous
100
AcDbText
 10
348.840733
 20
-368.766289
 30
0.0
 40
2.5
  1
'19.02.26
  7
高2.5
100
AcDbText
  0
TEXT
  5
159B
330
36
100
AcDbEntity
  8
0
  6
Continuous
100
AcDbText
 10
366.840733
 20
-368.766289
 30
0.0
 40
2.5
  1
ケース本体固定位置変更(18年11月頃から)
 41
0.6
  7
高2.5
100
AcDbText
  0
TEXT
  5
159C
330
36
100
AcDbEntity
  8
0
  6
Continuous
100
AcDbText
 10
410.8407329999995
 20
-368.766289
 30
0.0
 40
2.5
  1
今村
  7
高2.5
100
AcDbText
  0
LINE
  5
176B
330
36
100
AcDbEntity
  8
0
  6
Continuous
100
AcDbLine
 10
173.996430049548
 20
-495.0116856222374
 30
0.0
 11
173.996430049548
 21
-514.5170719767843
 31
0.0
  0
LINE
  5
176C
330
36
100
AcDbEntity
  8
0
  6
Continuous
100
AcDbLine
 10
47.99643004954805
 20
-495.0116856222374
 30
0.0
 11
47.99643004954805
 21
-514.5170719767843
 31
0.0
  0
LINE
  5
176D
330
36
100
AcDbEntity
  8
0
  6
Continuous
100
AcDbLine
 10
171.496430049548
 20
-513.2670719767843
 30
0.0
 11
50.49643004954805
 21
-513.2670719767843
 31
0.0
  0
LINE
  5
1771
330
36
100
AcDbEntity
  8
0
  6
Continuous
100
AcDbLine
 10
364.9947874266984
 20
-495.0116856222374
 30
0.0
 11
364.9947874266984
 21
-514.87974629989
 31
0.0
  0
LINE
  5
1772
330
36
100
AcDbEntity
  8
0
  6
Continuous
100
AcDbLine
 10
197.4947874266984
 20
-490.0116856222374
 30
0.0
 11
197.4947874266984
 21
-514.87974629989
 31
0.0
  0
LINE
  5
1773
330
36
100
AcDbEntity
  8
0
  6
Continuous
100
AcDbLine
 10
362.4947874266984
 20
-513.62974629989
 30
0.0
 11
199.9947874266984
 21
-513.62974629989
 31
0.0
  0
LINE
  5
1777
330
36
100
AcDbEntity
  8
0
  6
Continuous
100
AcDbLine
 10
162.996430049548
 20
-502.2616856222374
 30
0.0
 11
186.4219130819005
 21
-502.2616856222374
 31
0.0
  0
LINE
  5
1778
330
36
100
AcDbEntity
  8
0
  6
Continuous
100
AcDbLine
 10
114.496430049548
 20
-372.2616856222376
 30
0.0
 11
186.4219130819005
 21
-372.2616856222377
 31
0.0
  0
LINE
  5
1779
330
36
100
AcDbEntity
  8
0
  6
Continuous
100
AcDbLine
 10
185.1719130819005
 20
-499.7616856222373
 30
0.0
 11
185.1719130819005
 21
-374.7616856222377
 31
0.0
  0
LINE
  5
177D
330
36
100
AcDbEntity
  8
0
  6
Continuous
100
AcDbLine
 10
387.253661921103
 20
-417.4885135454998
 30
0.0
 11
378.7426861577941
 21
-407.3146119090003
 31
0.0
1001
ACAD
1000
DSTYLE
1002
{
1070
   147
1040
0.625
1070
    77
1070
     0
1002
}
  0
LINE
  5
177E
330
36
100
AcDbEntity
  8
0
  6
ByBlock
 62
     0
370
    -2
100
AcDbLine
 10
387.7674585375698
 20
-417.0586970693574
 30
0.0
 11
388.85776
 21
-419.40603
 31
0.0
  0
LINE
  5
177F
330
36
100
AcDbEntity
  8
0
  6
ByBlock
 62
     0
370
    -2
100
AcDbLine
 10
388.85776
 20
-419.40603
 30
0.0
 11
386.7398653046361
 21
-417.9183300216422
 31
0.0
  0
LINE
  5
1780
330
36
100
AcDbEntity
  8
0
  6
ByBlock
 62
     0
370
    -2
100
AcDbLine
 10
388.85776
 20
-419.40603
 30
0.0
 11
387.253661921103
 21
-417.4885135454998
 31
0.0
  0
LINE
  5
1781
330
36
100
AcDbEntity
  8
0
  6
Continuous
100
AcDbLine
 10
70.4996633410084
 20
-499.2824037363294
 30
0.0
 11
85.75789863006367
 21
-504.2271660389094
 31
0.0
1001
ACAD
1000
DSTYLE
1002
{
1070
   147
1040
0.625
1070
    77
1070
     0
1002
}
  0
LINE
  5
1782
330
36
100
AcDbEntity
  8
0
  6
ByBlock
 62
     0
370
    -2
100
AcDbLine
 10
70.29315019305554
 20
-499.9196489685429
 30
0.0
 11
68.12143004954804
 21
-498.5116856222374
 31
0.0
  0
LINE
  5
1783
330
36
100
AcDbEntity
  8
0
  6
ByBlock
 62
     0
370
    -2
100
AcDbLine
 10
68.12143004954804
 20
-498.5116856222374
 30
0.0
 11
70.70617648896124
 21
-498.6451585041159
 31
0.0
  0
LINE
  5
1784
330
36
100
AcDbEntity
  8
0
  6
ByBlock
 62
     0
370
    -2
100
AcDbLine
 10
68.12143004954804
 20
-498.5116856222374
 30
0.0
 11
70.4996633410084
 21
-499.2824037363294
 31
0.0
  0
LINE
  5
1785
330
36
100
AcDbEntity
  8
0
  6
Continuous
100
AcDbLine
 10
285.6866894688007
 20
-371.301121300212
 30
0.0
 11
273.0608529157954
 21
-366.0466094251656
 31
0.0
1001
ACAD
1000
DSTYLE
1002
{
1070
   147
1040
0.625
1070
    77
1070
     0
1002
}
  0
LINE
  5
1786
330
36
100
AcDbEntity
  8
0
  6
ByBlock
 62
     0
370
    -2
100
AcDbLine
 10
285.9440717183231
 20
-370.6826687604913
 30
0.0
 11
287.9947874266984
 21
-372.2616856222376
 31
0.0
  0
LINE
  5
1787
330
36
100
AcDbEntity
  8
0
  6
ByBlock
 62
     0
370
    -2
100
AcDbLine
 10
287.9947874266984
 20
-372.2616856222376
 30
0.0
 11
285.4293072192783
 21
-371.9195738399327
 31
0.0
  0
LINE
  5
1788
330
36
100
AcDbEntity
  8
0
  6
ByBlock
 62
     0
370
    -2
100
AcDbLine
 10
287.9947874266984
 20
-372.2616856222376
 30
0.0
 11
285.6866894688007
 21
-371.301121300212
 31
0.0
  0
LINE
  5
1789
330
36
100
AcDbEntity
  8
0
  6
Continuous
100
AcDbLine
 10
230.5606093201886
 20
-392.3297162067724
 30
0.0
 11
236.1481660134365
 21
-368.8702696120445
 31
0.0
1001
ACAD
1000
DSTYLE
1002
{
1070
   147
1040
0.625
1070
    77
1070
     0
1002
}
  0
LINE
  5
178A
330
36
100
AcDbEntity
  8
0
  6
ByBlock
 62
     0
370
    -2
100
AcDbLine
 10
231.2122530930931
 20
-392.4849243234773
 30
0.0
 11
229.9813643269069
 21
-394.7616856222376
 31
0.0
  0
LINE
  5
178B
330
36
100
AcDbEntity
  8
0
  6
ByBlock
 62
     0
370
    -2
100
AcDbLine
 10
229.9813643269069
 20
-394.7616856222376
 30
0.0
 11
229.9089655472841
 21
-392.1745080900676
 31
0.0
  0
LINE
  5
178C
330
36
100
AcDbEntity
  8
0
  6
ByBlock
 62
     0
370
    -2
100
AcDbLine
 10
229.9813643269069
 20
-394.7616856222376
 30
0.0
 11
230.5606093201886
 21
-392.3297162067724
 31
0.0
  0
LINE
  5
178D
330
36
100
AcDbEntity
  8
0
  6
Continuous
100
AcDbLine
 10
163.5780635668714
 20
-443.5296123673428
 30
0.0
 11
172.5552933860452
 21
-368.9704772418241
 31
0.0
1001
ACAD
1000
DSTYLE
1002
{
1070
   147
1040
0.625
1070
    77
1070
     0
1002
}
  0
LINE
  5
178E
330
36
100
AcDbEntity
  8
0
  6
ByBlock
 62
     0
370
    -2
100
AcDbLine
 10
164.2431326068718
 20
-443.6096894445198
 30
0.0
 11
163.2792116317007
 21
-446.0116855976978
 31
0.0
  0
LINE
  5
178F
330
36
100
AcDbEntity
  8
0
  6
ByBlock
 62
     0
370
    -2
100
AcDbLine
 10
163.2792116317007
 20
-446.0116855976978
 30
0.0
 11
162.912994526871
 21
-443.4495352901658
 31
0.0
  0
LINE
  5
1790
330
36
100
AcDbEntity
  8
0
  6
ByBlock
 62
     0
370
    -2
100
AcDbLine
 10
163.2792116317007
 20
-446.0116855976978
 30
0.0
 11
163.5780635668714
 21
-443.5296123673428
 31
0.0
  0
LINE
  5
1791
330
36
100
AcDbEntity
  8
0
  6
Continuous
100
AcDbLine
 10
153.4818402287342
 20
-401.3355431448249
 30
0.0
 11
157.5390354882133
 21
-369.1011735531898
 31
0.0
1001
ACAD
1000
DSTYLE
1002
{
1070
   341
1005
9AE
1070
   147
1040
0.625
1070
    77
1070
     0
1002
}
  0
LINE
  5
1793
330
36
100
AcDbEntity
  8
0
  6
Continuous
100
AcDbLine
 10
146.9537025375186
 20
-404.7912282139412
 30
0.0
 11
143.0577300482481
 21
-369.1107718291129
 31
0.0
1001
ACAD
1000
DSTYLE
1002
{
1070
   147
1040
0.625
1070
    77
1070
     0
1002
}
  0
LINE
  5
1794
330
36
100
AcDbEntity
  8
0
  6
ByBlock
 62
     0
370
    -2
100
AcDbLine
 10
147.6196170835663
 20
-404.7185165668808
 30
0.0
 11
147.2250662935333
 21
-407.2764569180892
 31
0.0
  0
LINE
  5
1795
330
36
100
AcDbEntity
  8
0
  6
ByBlock
 62
     0
370
    -2
100
AcDbLine
 10
147.2250662935333
 20
-407.2764569180892
 30
0.0
 11
146.2877879914708
 21
-404.8639398610015
 31
0.0
  0
LINE
  5
1796
330
36
100
AcDbEntity
  8
0
  6
ByBlock
 62
     0
370
    -2
100
AcDbLine
 10
147.2250662935333
 20
-407.2764569180892
 30
0.0
 11
146.9537025375186
 21
-404.7912282139412
 31
0.0
  0
LINE
  5
1797
330
36
100
AcDbEntity
  8
0
  6
Continuous
100
AcDbLine
 10
123.8305323420307
 20
-400.2841110707541
 30
0.0
 11
128.0363386369982
 21
-369.0954635237833
 31
0.0
1001
ACAD
1000
DSTYLE
1002
{
1070
   147
1040
0.625
1070
    77
1070
     0
1002
}
  0
LINE
  5
1798
330
36
100
AcDbEntity
  8
0
  6
ByBlock
 62
     0
370
    -2
100
AcDbLine
 10
124.4943959655261
 20
-400.3736334459225
 30
0.0
 11
123.496430049548
 21
-402.7616856222373
 31
0.0
  0
LINE
  5
1799
330
36
100
AcDbEntity
  8
0
  6
ByBlock
 62
     0
370
    -2
100
AcDbLine
 10
123.496430049548
 20
-402.7616856222373
 30
0.0
 11
123.1666687185353
 21
-400.1945886955856
 31
0.0
  0
LINE
  5
179A
330
36
100
AcDbEntity
  8
0
  6
ByBlock
 62
     0
370
    -2
100
AcDbLine
 10
123.496430049548
 20
-402.7616856222373
 30
0.0
 11
123.8305323420307
 21
-400.2841110707541
 31
0.0
  0
LINE
  5
179B
330
36
100
AcDbEntity
  8
0
  6
Continuous
100
AcDbLine
 10
107.818420533771
 20
-446.1053807586518
 30
0.0
 11
86.07965395468736
 21
-368.952924147988
 31
0.0
1001
ACAD
1000
DSTYLE
1002
{
1070
   147
1040
0.625
1070
    77
1070
     0
1002
}
  0
LINE
  5
179C
330
36
100
AcDbEntity
  8
0
  6
ByBlock
 62
     0
370
    -2
100
AcDbLine
 10
108.4631875156639
 20
-445.9237087869088
 30
0.0
 11
108.496430049548
 21
-448.5116856222374
 31
0.0
  0
LINE
  5
179D
330
36
100
AcDbEntity
  8
0
  6
ByBlock
 62
     0
370
    -2
100
AcDbLine
 10
108.496430049548
 20
-448.5116856222374
 30
0.0
 11
107.1736535518781
 21
-446.2870527303946
 31
0.0
  0
LINE
  5
179E
330
36
100
AcDbEntity
  8
0
  6
ByBlock
 62
     0
370
    -2
100
AcDbLine
 10
108.496430049548
 20
-448.5116856222374
 30
0.0
 11
107.818420533771
 21
-446.1053807586518
 31
0.0
  0
LINE
  5
179F
330
36
100
AcDbEntity
  8
0
  6
Continuous
100
AcDbLine
 10
58.9928406619379
 20
-443.52732419547
 30
0.0
 11
67.35595854036581
 21
-369.1090372743515
 31
0.0
1001
ACAD
1000
DSTYLE
1002
{
1070
   147
1040
0.625
1070
    77
1070
     0
1002
}
  0
LINE
  5
17A0
330
36
100
AcDbEntity
  8
0
  6
ByBlock
 62
     0
370
    -2
100
AcDbLine
 10
59.6585228218788
 20
-443.6021334742572
 30
0.0
 11
58.71364843212081
 21
-446.0116856222374
 31
0.0
  0
LINE
  5
17A1
330
36
100
AcDbEntity
  8
0
  6
ByBlock
 62
     0
370
    -2
100
AcDbLine
 10
58.71364843212081
 20
-446.0116856222374
 30
0.0
 11
58.32715850199701
 21
-443.4525149166827
 31
0.0
  0
LINE
  5
17A2
330
36
100
AcDbEntity
  8
0
  6
ByBlock
 62
     0
370
    -2
100
AcDbLine
 10
58.71364843212081
 20
-446.0116856222374
 30
0.0
 11
58.9928406619379
 21
-443.52732419547
 31
0.0
  0
TEXT
  5
17A3
330
36
100
AcDbEntity
  8
0
  6
Continuous
 62
     4
100
AcDbText
 10
107.1628130324068
 20
-512.6420719767843
 30
0.0
 40
3.0
  1
252
100
AcDbText
  0
LINE
  5
17A4
330
36
100
AcDbEntity
  8
0
  6
ByBlock
 62
     0
370
    -2
100
AcDbLine
 10
50.49643004954805
 20
-513.9369444767843
 30
0.0
 11
47.99643004954805
 21
-513.2670719767843
 31
0.0
  0
LINE
  5
17A5
330
36
100
AcDbEntity
  8
0
  6
ByBlock
 62
     0
370
    -2
100
AcDbLine
 10
47.99643004954805
 20
-513.2670719767843
 30
0.0
 11
50.49643004954805
 21
-512.5971994767843
 31
0.0
  0
LINE
  5
17A6
330
36
100
AcDbEntity
  8
0
  6
ByBlock
 62
     0
370
    -2
100
AcDbLine
 10
47.99643004954805
 20
-513.2670719767843
 30
0.0
 11
50.49643004954805
 21
-513.2670719767843
 31
0.0
  0
LINE
  5
17A7
330
36
100
AcDbEntity
  8
0
  6
ByBlock
 62
     0
370
    -2
100
AcDbLine
 10
171.496430049548
 20
-512.5971994767843
 30
0.0
 11
173.996430049548
 21
-513.2670719767843
 31
0.0
  0
LINE
  5
17A8
330
36
100
AcDbEntity
  8
0
  6
ByBlock
 62
     0
370
    -2
100
AcDbLine
 10
173.996430049548
 20
-513.2670719767843
 30
0.0
 11
171.496430049548
 21
-513.9369444767843
 31
0.0
  0
LINE
  5
17A9
330
36
100
AcDbEntity
  8
0
  6
ByBlock
 62
     0
370
    -2
100
AcDbLine
 10
173.996430049548
 20
-513.2670719767843
 30
0.0
 11
171.496430049548
 21
-513.2670719767843
 31
0.0
  0
TEXT
  5
17AA
330
36
100
AcDbEntity
  8
0
  6
Continuous
 62
     4
100
AcDbText
 10
272.6000879668959
 20
-513.00474629989
 30
0.0
 40
3.0
  1
335
100
AcDbText
  0
LINE
  5
17AB
330
36
100
AcDbEntity
  8
0
  6
ByBlock
 62
     0
370
    -2
100
AcDbLine
 10
199.9947874266984
 20
-514.29961879989
 30
0.0
 11
197.4947874266984
 21
-513.62974629989
 31
0.0
  0
LINE
  5
17AC
330
36
100
AcDbEntity
  8
0
  6
ByBlock
 62
     0
370
    -2
100
AcDbLine
 10
197.4947874266984
 20
-513.62974629989
 30
0.0
 11
199.9947874266984
 21
-512.95987379989
 31
0.0
  0
LINE
  5
17AD
330
36
100
AcDbEntity
  8
0
  6
ByBlock
 62
     0
370
    -2
100
AcDbLine
 10
197.4947874266984
 20
-513.62974629989
 30
0.0
 11
199.9947874266984
 21
-513.62974629989
 31
0.0
  0
LINE
  5
17AE
330
36
100
AcDbEntity
  8
0
  6
ByBlock
 62
     0
370
    -2
100
AcDbLine
 10
362.4947874266984
 20
-512.95987379989
 30
0.0
 11
364.9947874266984
 21
-513.62974629989
 31
0.0
  0
LINE
  5
17AF
330
36
100
AcDbEntity
  8
0
  6
ByBlock
 62
     0
370
    -2
100
AcDbLine
 10
364.9947874266984
 20
-513.62974629989
 30
0.0
 11
362.4947874266984
 21
-514.29961879989
 31
0.0
  0
LINE
  5
17B0
330
36
100
AcDbEntity
  8
0
  6
ByBlock
 62
     0
370
    -2
100
AcDbLine
 10
364.9947874266984
 20
-513.62974629989
 30
0.0
 11
362.4947874266984
 21
-513.62974629989
 31
0.0
  0
TEXT
  5
17B1
330
36
100
AcDbEntity
  8
0
  6
Continuous
 62
     4
100
AcDbText
 10
184.5469130819006
 20
-448.3851714946381
 30
0.0
 40
3.0
  1
260
 50
90.0
100
AcDbText
  0
LINE
  5
17B2
330
36
100
AcDbEntity
  8
0
  6
ByBlock
 62
     0
370
    -2
100
AcDbLine
 10
184.5020405819005
 20
-374.7616856222377
 30
0.0
 11
185.1719130819005
 21
-372.2616856222377
 31
0.0
  0
LINE
  5
17B3
330
36
100
AcDbEntity
  8
0
  6
ByBlock
 62
     0
370
    -2
100
AcDbLine
 10
185.1719130819005
 20
-372.2616856222377
 30
0.0
 11
185.8417855819005
 21
-374.7616856222377
 31
0.0
  0
LINE
  5
17B4
330
36
100
AcDbEntity
  8
0
  6
ByBlock
 62
     0
370
    -2
100
AcDbLine
 10
185.1719130819005
 20
-372.2616856222377
 30
0.0
 11
185.1719130819005
 21
-374.7616856222377
 31
0.0
  0
LINE
  5
17B5
330
36
100
AcDbEntity
  8
0
  6
ByBlock
 62
     0
370
    -2
100
AcDbLine
 10
185.8417855819005
 20
-499.7616856222373
 30
0.0
 11
185.1719130819005
 21
-502.2616856222374
 31
0.0
  0
LINE
  5
17B6
330
36
100
AcDbEntity
  8
0
  6
ByBlock
 62
     0
370
    -2
100
AcDbLine
 10
185.1719130819005
 20
-502.2616856222374
 30
0.0
 11
184.5020405819005
 21
-499.7616856222373
 31
0.0
  0
LINE
  5
17B7
330
36
100
AcDbEntity
  8
0
  6
ByBlock
 62
     0
370
    -2
100
AcDbLine
 10
185.1719130819005
 20
-502.2616856222374
 30
0.0
 11
185.1719130819005
 21
-499.7616856222373
 31
0.0
  0
ARC
  5
17B8
330
36
100
AcDbEntity
  8
0
  6
ByBlock
 62
     0
100
AcDbCircle
 10
153.4818402287342
 20
-401.3355431448249
 30
0.0
 40
0.1562500000000265
100
AcDbArc
 50
82.82616190787221
 51
262.8261619078722
  0
ARC
  5
17B9
330
36
100
AcDbEntity
  8
0
  6
ByBlock
 62
     0
100
AcDbCircle
 10
153.4818402287342
 20
-401.3355431448249
 30
0.0
 40
0.1562500000000265
100
AcDbArc
 50
262.8261619078722
 51
82.82616190787221
  0
ENDSEC
  0
SECTION
  2
OBJECTS
  0
DICTIONARY
  5
C
330
0
100
AcDbDictionary
281
     1
  3
ACAD_2007HEADERVARS_RT
350
17BD
  3
ACAD_COLOR
350
2F
  3
ACAD_GROUP
350
D
  3
ACAD_LAYOUT
350
2E
  3
ACAD_MATERIAL
350
10
  3
ACAD_MLEADERSTYLE
350
51E
  3
ACAD_MLINESTYLE
350
2B
  3
ACAD_PLOTSETTINGS
350
2D
  3
ACAD_PLOTSTYLENAME
350
E
  3
ACAD_SCALELIST
350
50C
  3
ACAD_TABLESTYLE
350
30
  3
ACAD_VISUALSTYLE
350
14
  3
ACDB_RECOMPOSE_DATA
350
17BB
  3
AcDbVariableDictionary
350
4DB
  3
AEC_PROPERTY_SET_DEFS
350
C27
  3
DWGPROPS
350
17BC
  0
DICTIONARY
  5
36B
330
2
100
AcDbDictionary
280
     1
281
     1
  3
ACAD_LAYERSTATES
360
36C
  0
DICTIONARY
  5
75E
330
25
100
AcDbDictionary
280
     1
281
     1
  3
ADSK_XREC_LAYER_RECONCILED
360
75F
  0
DICTIONARY
  5
4BE
330
36
100
AcDbDictionary
280
     1
281
     1
  3
ACAD_SORTENTS
360
4BF
  0
DICTIONARY
  5
17BD
102
{ACAD_REACTORS
330
C
102
}
330
C
100
AcDbDictionary
281
     1
  3
DIMARCSYM
350
17BF
  3
DIMFXL
350
17BE
  3
DIMJOGANG
350
17C0
  0
DICTIONARY
  5
2F
102
{ACAD_REACTORS
330
C
102
}
330
C
100
AcDbDictionary
281
     1
  0
DICTIONARY
  5
D
102
{ACAD_REACTORS
330
C
102
}
330
C
100
AcDbDictionary
281
     1
  0
DICTIONARY
  5
2E
102
{ACAD_REACTORS
330
C
102
}
330
C
100
AcDbDictionary
281
     1
  3
Model
350
39
  3
レイアウト1
350
35
  0
DICTIONARY
  5
10
102
{ACAD_REACTORS
330
C
102
}
330
C
100
AcDbDictionary
281
     1
  3
ByBlock
350
12
  3
ByLayer
350
11
  3
Global
350
13
  0
DICTIONARY
  5
51E
102
{ACAD_REACTORS
330
C
102
}
330
C
100
AcDbDictionary
281
     1
  3
Standard
350
51F
  0
DICTIONARY
  5
2B
102
{ACAD_REACTORS
330
C
102
}
330
C
100
AcDbDictionary
281
     1
  3
Standard
350
2C
  0
DICTIONARY
  5
2D
102
{ACAD_REACTORS
330
C
102
}
330
C
100
AcDbDictionary
281
     1
  0
ACDBDICTIONARYWDFLT
  5
E
102
{ACAD_REACTORS
330
C
102
}
330
C
100
AcDbDictionary
281
     1
  3
Normal
350
F
100
AcDbDictionaryWithDefault
340
F
  0
DICTIONARY
  5
50C
102
{ACAD_REACTORS
330
C
102
}
330
C
100
AcDbDictionary
281
     1
  3
A0
350
50D
  3
A1
350
50E
  3
A2
350
50F
  3
A3
350
510
  3
A4
350
511
  3
A5
350
512
  3
A6
350
513
  3
A7
350
514
  3
A8
350
515
  3
A9
350
516
  3
B0
350
517
  3
B1
350
518
  3
B2
350
519
  3
B3
350
51A
  3
B4
350
51B
  3
B5
350
51C
  3
B6
350
51D
  0
DICTIONARY
  5
30
102
{ACAD_REACTORS
330
C
102
}
330
C
100
AcDbDictionary
281
     1
  3
Standard
350
31
  0
DICTIONARY
  5
14
102
{ACAD_REACTORS
330
C
102
}
330
C
100
AcDbDictionary
281
     1
  3
2dWireframe
350
1A
  3
3D Hidden
350
1C
  3
3dWireframe
350
1B
  3
Basic
350
19
  3
Brighten
350
20
  3
ColorChange
350
24
  3
Conceptual
350
1D
  3
Dim
350
1F
  3
EdgeColorOff
350
50B
  3
Facepattern
350
23
  3
Flat
350
15
  3
FlatWithEdges
350
16
  3
Gouraud
350
17
  3
GouraudWithEdges
350
18
  3
Hidden
350
503
  3
JitterOff
350
509
  3
Linepattern
350
22
  3
OverhangOff
350
50A
  3
Realistic
350
1E
  3
Shaded
350
508
  3
Shaded with edges
350
507
  3
Shades of Gray
350
504
  3
Sketchy
350
505
  3
Thicken
350
21
  3
Wireframe
350
502
  3
X-Ray
350
506
  0
XRECORD
  5
17BB
102
{ACAD_REACTORS
330
C
102
}
330
C
100
AcDbXrecord
280
     1
 90
        1
330
31
  0
DICTIONARY
  5
4DB
102
{ACAD_REACTORS
330
C
102
}
330
C
100
AcDbDictionary
281
     1
  3
CANNOSCALE
350
761
  3
CMLEADERSTYLE
350
760
  3
CTABLESTYLE
350
4DC
  3
DIMASSOC
350
4EA
  3
INDEXCTL
350
4E9
  3
SORTENTS
350
4E8
  3
XCLIPFRAME
350
1714
  0
DICTIONARY
  5
C27
102
{ACAD_REACTORS
330
C
102
}
330
C
100
AcDbDictionary
281
     1
  0
XRECORD
  5
17BC
102
{ACAD_REACTORS
330
C
102
}
330
C
100
AcDbXrecord
280
     1
  1
DWGPROPS COOKIE
  2

  3

  4

  6

  7

  8
imamura
  9

300
=
301
=
302
=
303
=
304
=
305
=
306
=
307
=
308
=
309
=
 40
0.2061131481481481
 41
2455439.603096968
 42
2459181.689570371
  1

 90
        0
  0
DICTIONARY
  5
36C
102
{ACAD_REACTORS
330
36B
102
}
330
36B
100
AcDbDictionary
281
     1
  0
XRECORD
  5
75F
102
{ACAD_REACTORS
330
75E
102
}
330
75E
100
AcDbXrecord
280
     1
290
     1
  0
SORTENTSTABLE
  5
4BF
102
{ACAD_REACTORS
330
4BE
102
}
330
4BE
100
AcDbSortentsTable
330
36
331
140F
  5
1434
331
144E
  5
1473
331
14C4
  5
14D5
331
14C0
  5
14D2
331
140B
  5
1430
331
144A
  5
146F
331
1481
  5
F49
331
147D
  5
128E
331
1407
  5
142C
331
1446
  5
146B
331
1396
  5
13BB
331
13D5
  5
13FA
331
1442
  5
1467
331
14B8
  5
14C6
331
13D1
  5
13F6
331
1403
  5
1428
331
F54
  5
111D
331
1113
  5
129B
331
1392
  5
13B7
331
138E
  5
13B3
331
13CD
  5
13F2
331
F50
  5
1117
331
138A
  5
13AF
331
13C9
  5
13EE
331
F4C
  5
1113
331
F48
  5
110F
331
112F
  5
1343
331
135E
  5
1383
331
112B
  5
F4C
331
135A
  5
137F
331
1526
  5
1760
331
4D6
  5
B2
331
82D
  5
82D
331
1127
  5
F3D
331
2B7
  5
2D0
331
1356
  5
137B
331
14F8
  5
14F8
331
1352
  5
1377
331
4D2
  5
AE
331
23C
  5
261
331
207
  5
220
331
2B3
  5
2CC
331
14F6
  5
14F6
331
2AF
  5
2C8
331
19C
  5
1B5
331
238
  5
259
331
741
  5
741
331
14F2
  5
F48
331
234
  5
251
331
1FF
  5
218
331
2AB
  5
2C4
331
F19
  5
F37
331
230
  5
249
331
1FB
  5
214
331
1785
  5
17AE
331
F15
  5
10E0
331
1781
  5
17B2
331
F11
  5
F71
331
177D
  5
17B6
331
1779
  5
1528
331
17B6
  5
152D
331
17B2
  5
1536
331
13FF
  5
1424
331
143E
  5
1463
331
1475
  5
1291
331
14B4
  5
14C1
331
14B0
  5
14BC
331
13FB
  5
1420
331
143A
  5
145F
331
1471
  5
1293
331
146D
  5
14A1
331
14AC
  5
14B9
331
13F7
  5
141C
331
1436
  5
145B
331
1107
  5
1294
331
1386
  5
13AB
331
13C5
  5
13EA
331
1432
  5
1457
331
1469
  5
14A0
331
13C1
  5
13E6
331
13F3
  5
1418
331
F44
  5
110B
331
1103
  5
128A
331
1382
  5
13A7
331
137E
  5
13A3
331
13BD
  5
13E2
331
F40
  5
1107
331
10FF
  5
F4E
331
137A
  5
139F
331
13B9
  5
13DE
331
F3C
  5
1103
331
134E
  5
1373
331
F38
  5
10FF
331
134A
  5
136F
331
73D
  5
73D
331
1346
  5
136B
331
14EE
  5
F63
331
2A7
  5
2C0
331
2DE
  5
4C9
331
1342
  5
1367
331
2DA
  5
4C5
331
739
  5
739
331
14EA
  5
F15
331
22C
  5
245
331
1F7
  5
210
331
2E4
  5
4CF
331
2D6
  5
4C1
331
615
  5
615
331
14E6
  5
14F2
331
228
  5
241
331
2E0
  5
4CB
331
14E2
  5
14EE
331
224
  5
23D
331
29B
  5
2BE
331
F09
  5
F5D
331
2D2
  5
37F
331
611
  5
611
331
220
  5
239
331
1C3
  5
1DC
331
1771
  5
153E
331
A8
  5
C1
331
176D
  5
1758
331
17AE
  5
1541
331
17AA
  5
159B
331
17A6
  5
175E
331
17A2
  5
1791
331
142E
  5
1453
331
1465
  5
1498
331
13EF
  5
1414
331
13EB
  5
1410
331
142A
  5
144F
331
1461
  5
148C
331
145D
  5
1486
331
13E7
  5
140C
331
1426
  5
144B
331
10F7
  5
1281
331
1376
  5
139B
331
13B5
  5
13DA
331
1459
  5
1482
331
1498
  5
14B1
331
13B1
  5
13D6
331
13E3
  5
1408
331
F34
  5
10F7
331
1372
  5
1397
331
1422
  5
1447
331
136E
  5
1393
331
13AD
  5
13D2
331
F30
  5
10ED
331
10EF
  5
F4D
331
136A
  5
138F
331
13A9
  5
13CE
331
F2C
  5
10E9
331
10EB
  5
122D
331
133E
  5
1363
331
133A
  5
135F
331
1545
  5
178E
331
60D
  5
60D
331
1336
  5
135B
331
14DE
  5
14EA
331
297
  5
2BA
331
2CE
  5
37B
331
1332
  5
1357
331
1541
  5
178A
331
2CA
  5
2E3
331
609
  5
609
331
14DA
  5
14E6
331
1BF
  5
1D8
331
293
  5
2B6
331
153D
  5
1786
331
2C6
  5
2DF
331
605
  5
605
331
14D6
  5
14E2
331
1BB
  5
1D4
331
1539
  5
1782
331
2C2
  5
2DB
331
601
  5
601
331
214
  5
22D
331
1B7
  5
1D0
331
14D2
  5
14DE
331
210
  5
229
331
9C
  5
9C
331
1B3
  5
1CC
331
179E
  5
1795
331
179A
  5
1799
331
1796
  5
179D
331
141E
  5
1443
331
1494
  5
14AD
331
14CF
  5
14DB
331
141A
  5
143F
331
148C
  5
14AC
331
1416
  5
143B
331
13A5
  5
13CA
331
1455
  5
147E
331
1451
  5
1476
331
13A1
  5
13C6
331
1412
  5
1437
331
139D
  5
13C2
331
13DC
  5
1401
331
111A
  5
133E
331
1399
  5
13BE
331
13D8
  5
13FD
331
F5B
  5
1128
331
132E
  5
1353
331
132A
  5
134F
331
1365
  5
138A
331
1535
  5
177F
331
4E5
  5
4E5
331
1326
  5
134B
331
1322
  5
1347
331
1361
  5
1386
331
4E1
  5
4E1
331
1AF
  5
1C8
331
152D
  5
177B
331
247
  5
278
331
2BE
  5
2D7
331
4DD
  5
4DD
331
1AB
  5
1C4
331
830
  5
830
331
1529
  5
1763
331
243
  5
270
331
20E
  5
227
331
2BA
  5
2D3
331
4D9
  5
B5
331
F24
  5
F3A
331
20A
  5
223
331
178C
  5
17A9
331
1788
  5
17AD
331
14C7
  5
14D8
331
140E
  5
1433
331
144D
  5
1472
331
1484
  5
128C
331
14BF
  5
14D1
331
140A
  5
142F
331
1449
  5
146E
331
1480
  5
F19
331
147C
  5
128F
331
14BB
  5
14CA
331
13D4
  5
13F9
331
1406
  5
142B
331
F57
  5
1120
331
1395
  5
13BA
331
1445
  5
146A
331
1441
  5
1466
331
13D0
  5
13F5
331
1402
  5
1427
331
F53
  5
111C
331
1112
  5
129A
331
1391
  5
13B6
331
138D
  5
13B2
331
13CC
  5
13F1
331
F4F
  5
1116
331
1389
  5
13AE
331
13C8
  5
13ED
331
F4B
  5
1112
331
F07
  5
F4F
331
135D
  5
1382
331
112A
  5
F50
331
1359
  5
137E
331
1355
  5
137A
331
4D5
  5
B1
331
82C
  5
82C
331
1126
  5
F3E
331
2B6
  5
2CF
331
1351
  5
1376
331
2B2
  5
2CB
331
4D1
  5
AD
331
23B
  5
260
331
19F
  5
1B8
331
206
  5
21F
331
2AE
  5
2C7
331
4C5
  5
4DA
331
237
  5
258
331
740
  5
740
331
14F1
  5
F64
331
233
  5
250
331
1FE
  5
217
331
2AA
  5
2C3
331
F18
  5
F60
331
1784
  5
17B1
331
F14
  5
F5E
331
1FA
  5
213
331
1780
  5
17B5
331
F10
  5
F06
331
17B9
  5
17A1
331
1778
  5
1527
331
17B5
  5
152C
331
17B1
  5
153D
331
14B7
  5
14C5
331
13FE
  5
1423
331
143D
  5
1462
331
1474
  5
F16
331
14AF
  5
14BB
331
13FA
  5
141F
331
1439
  5
145E
331
1470
  5
F31
331
14AB
  5
14B8
331
13F6
  5
141B
331
1435
  5
145A
331
F47
  5
110E
331
1106
  5
1295
331
1385
  5
13AA
331
13C4
  5
13E9
331
1431
  5
1456
331
1468
  5
149B
331
13C0
  5
13E5
331
13F2
  5
1417
331
F43
  5
110A
331
1102
  5
1289
331
1381
  5
13A6
331
137D
  5
13A2
331
13BC
  5
13E1
331
F3F
  5
1106
331
10FA
  5
F58
331
1379
  5
139E
331
13B8
  5
13DD
331
F3B
  5
1102
331
134D
  5
1372
331
1349
  5
136E
331
2DD
  5
4C8
331
73C
  5
73C
331
14ED
  5
F61
331
22F
  5
248
331
2A6
  5
2BF
331
1345
  5
136A
331
1341
  5
1366
331
2D9
  5
4C4
331
738
  5
738
331
14E9
  5
F12
331
F63
  5
1130
331
22B
  5
244
331
1F6
  5
20F
331
2E3
  5
4CE
331
159C
  5
17B9
331
2D5
  5
4C0
331
614
  5
614
331
14E5
  5
14F1
331
1F2
  5
20B
331
EB
  5
104
331
227
  5
240
331
610
  5
610
331
14E1
  5
14ED
331
223
  5
23C
331
1C6
  5
1DF
331
29A
  5
2BD
331
F08
  5
F54
331
2D1
  5
37E
331
1C2
  5
1DB
331
176C
  5
1755
331
17AD
  5
159A
331
17A9
  5
175B
331
17A5
  5
175D
331
17A1
  5
1790
331
13EE
  5
1413
331
142D
  5
1452
331
1464
  5
1497
331
13EA
  5
140F
331
1429
  5
144E
331
1460
  5
148B
331
145C
  5
1485
331
13E6
  5
140B
331
1425
  5
144A
331
F37
  5
10FA
331
1375
  5
139A
331
13B4
  5
13D9
331
1421
  5
1446
331
1458
  5
1481
331
13B0
  5
13D5
331
13E2
  5
1407
331
F33
  5
10F0
331
1371
  5
1396
331
136D
  5
1392
331
13AC
  5
13D1
331
F2F
  5
10EC
331
10EE
  5
F5A
331
10EA
  5
122B
331
1369
  5
138E
331
13A8
  5
13CD
331
F2B
  5
10E8
331
133D
  5
1362
331
1132
  5
1346
331
1339
  5
135E
331
1544
  5
178D
331
60C
  5
60C
331
1335
  5
135A
331
14DD
  5
14E9
331
296
  5
2B9
331
2CD
  5
37A
331
1331
  5
1356
331
1540
  5
1789
331
2C9
  5
2E2
331
608
  5
608
331
14D9
  5
14E5
331
A7
  5
C0
331
1BE
  5
1D7
331
292
  5
2B5
331
153C
  5
1785
331
2C5
  5
2DE
331
604
  5
604
331
1BA
  5
1D3
331
14D5
  5
14E1
331
1538
  5
1781
331
14D1
  5
14DD
331
1B6
  5
1CF
331
2C1
  5
2DA
331
9B
  5
9B
331
1B2
  5
1CB
331
179D
  5
1794
331
1799
  5
1798
331
1795
  5
179C
331
1791
  5
17A2
331
1497
  5
14B0
331
141D
  5
1442
331
14CE
  5
14DA
331
1419
  5
143E
331
1454
  5
147D
331
14CA
  5
14D9
331
1415
  5
143A
331
13A4
  5
13C9
331
1450
  5
1475
331
13A0
  5
13C5
331
13DF
  5
1404
331
1411
  5
1436
331
111D
  5
1341
331
139C
  5
13C1
331
13DB
  5
1400
331
F5E
  5
112B
331
1119
  5
133D
331
1398
  5
13BD
331
F5A
  5
1127
331
132D
  5
1352
331
1329
  5
134E
331
1364
  5
1389
331
1534
  5
177E
331
4E4
  5
4E4
331
1325
  5
134A
331
1360
  5
1385
331
4E0
  5
4E0
331
1AE
  5
1C7
331
152C
  5
177A
331
246
  5
277
331
2BD
  5
2D6
331
1AA
  5
1C3
331
1528
  5
1762
331
242
  5
26F
331
20D
  5
226
331
2B9
  5
2D2
331
4D8
  5
B4
331
209
  5
222
331
178F
  5
17A4
331
178B
  5
17A8
331
14C6
  5
14D7
331
14C2
  5
14D4
331
140D
  5
1432
331
144C
  5
1471
331
1483
  5
128D
331
147F
  5
F28
331
1409
  5
142E
331
1448
  5
146D
331
13D7
  5
13FC
331
147B
  5
F2B
331
14BA
  5
14C9
331
13D3
  5
13F8
331
1405
  5
142A
331
F56
  5
111F
331
1115
  5
129D
331
1394
  5
13B9
331
1444
  5
1469
331
1440
  5
1465
331
1390
  5
13B5
331
13CF
  5
13F4
331
F52
  5
111B
331
1111
  5
1299
331
1401
  5
1426
331
138C
  5
13B1
331
13CB
  5
13F0
331
F4E
  5
1115
331
1109
  5
1297
331
1388
  5
13AD
331
F4A
  5
1111
331
112D
  5
1342
331
F06
  5
F42
331
135C
  5
1381
331
82F
  5
82F
331
1129
  5
F51
331
1358
  5
137D
331
1354
  5
1379
331
4D4
  5
B0
331
82B
  5
82B
331
2B5
  5
2CE
331
1121
  5
F52
331
2B1
  5
2CA
331
1350
  5
1375
331
23A
  5
25F
331
19E
  5
1B7
331
205
  5
21E
331
4C4
  5
4D9
331
236
  5
257
331
2AD
  5
2C6
331
14F4
  5
F47
331
14F0
  5
F46
331
232
  5
24F
331
1FD
  5
216
331
2A9
  5
2C2
331
1787
  5
17AC
331
F17
  5
10E2
331
1783
  5
17B0
331
F13
  5
10E1
331
1F9
  5
212
331
177F
  5
17B4
331
17B8
  5
17A0
331
17B4
  5
1539
331
17B0
  5
1543
331
14B6
  5
14C4
331
14B2
  5
14C0
331
13FD
  5
1422
331
143C
  5
1461
331
1473
  5
F2A
331
13F9
  5
141E
331
1438
  5
145D
331
13C7
  5
13EC
331
146F
  5
F33
331
14AA
  5
14B7
331
13C3
  5
13E8
331
13F5
  5
141A
331
F46
  5
110D
331
1384
  5
13A9
331
1434
  5
1459
331
1430
  5
1455
331
13BF
  5
13E4
331
13F1
  5
1416
331
F42
  5
1109
331
1101
  5
F59
331
1380
  5
13A5
331
137C
  5
13A1
331
13BB
  5
13E0
331
F3E
  5
1105
331
10F9
  5
F5B
331
1378
  5
139D
331
F3A
  5
1101
331
134C
  5
1371
331
73F
  5
73F
331
1348
  5
136D
331
1344
  5
1369
331
2DC
  5
4C7
331
73B
  5
73B
331
14EC
  5
14CF
331
22E
  5
247
331
1340
  5
1365
331
2D8
  5
4C3
331
14E8
  5
14F4
331
22A
  5
243
331
F0F
  5
F3B
331
1F5
  5
20E
331
2E2
  5
4CD
331
159B
  5
17B8
331
2D4
  5
4BD
331
613
  5
613
331
14E4
  5
14F0
331
F0B
  5
F4B
331
EA
  5
103
331
226
  5
23F
331
14E0
  5
14EC
331
222
  5
23B
331
1777
  5
1526
331
1C5
  5
1DE
331
299
  5
2BC
331
2D0
  5
37D
331
1773
  5
1540
331
1C1
  5
1DA
331
176B
  5
159C
331
17AC
  5
1545
331
17A8
  5
175A
331
17A4
  5
175C
331
17A0
  5
178F
331
1467
  5
149A
331
13ED
  5
1412
331
142C
  5
1451
331
1463
  5
1495
331
14A2
  5
14B6
331
13E9
  5
140E
331
1428
  5
144D
331
13B7
  5
13DC
331
145F
  5
1489
331
145B
  5
1484
331
149A
  5
14B4
331
13E5
  5
140A
331
1424
  5
1449
331
F36
  5
10F9
331
1374
  5
1399
331
13B3
  5
13D8
331
1420
  5
1445
331
13AF
  5
13D4
331
13E1
  5
1406
331
F32
  5
10EF
331
1370
  5
1395
331
136C
  5
1391
331
13AB
  5
13D0
331
F2E
  5
10EB
331
10ED
  5
F55
331
1368
  5
138D
331
F2A
  5
F53
331
133C
  5
1361
331
60F
  5
60F
331
1131
  5
1345
331
1338
  5
135D
331
1543
  5
178C
331
2CC
  5
379
331
60B
  5
60B
331
14DC
  5
14E8
331
295
  5
2B8
331
1334
  5
1359
331
1330
  5
1355
331
153F
  5
1788
331
2C8
  5
2E1
331
607
  5
607
331
14D8
  5
14E4
331
21A
  5
233
331
A6
  5
BF
331
1BD
  5
1D6
331
153B
  5
1784
331
2C4
  5
2DD
331
603
  5
603
331
1B9
  5
1D2
331
14D4
  5
14E0
331
14D0
  5
14DC
331
212
  5
22B
331
1B5
  5
1CE
331
261
  5
292
331
2C0
  5
2D9
331
9A
  5
9A
331
1B1
  5
1CA
331
179C
  5
1793
331
1798
  5
1797
331
1794
  5
179B
331
1790
  5
17A5
331
141C
  5
1441
331
1418
  5
143D
331
13A7
  5
13CC
331
1457
  5
1480
331
1453
  5
147C
331
148A
  5
14AB
331
1414
  5
1439
331
13A3
  5
13C8
331
1410
  5
1435
331
139F
  5
13C4
331
13DE
  5
1403
331
10E1
  5
1229
331
111C
  5
1340
331
139B
  5
13C0
331
13DA
  5
13FF
331
F5D
  5
112A
331
F59
  5
1126
331
1118
  5
129E
331
132C
  5
1351
331
4E7
  5
4E7
331
1328
  5
134D
331
1367
  5
138C
331
1363
  5
1388
331
1533
  5
177D
331
4E3
  5
4E3
331
1324
  5
1349
331
4DF
  5
4DF
331
1AD
  5
1C6
331
249
  5
27A
331
152B
  5
1765
331
832
  5
832
331
1A9
  5
1C2
331
245
  5
272
331
2BC
  5
2D5
331
241
  5
26A
331
20C
  5
225
331
2B8
  5
2D1
331
208
  5
221
331
178E
  5
17A3
331
178A
  5
17A7
331
144F
  5
1474
331
14C5
  5
14D6
331
14C1
  5
14D3
331
140C
  5
1431
331
144B
  5
1470
331
1482
  5
F4A
331
147E
  5
F27
331
1408
  5
142D
331
1447
  5
146C
331
1397
  5
13BC
331
13D6
  5
13FB
331
1443
  5
1468
331
14B9
  5
14C7
331
13D2
  5
13F7
331
1404
  5
1429
331
F55
  5
111E
331
1114
  5
129C
331
1393
  5
13B8
331
138F
  5
13B4
331
13CE
  5
13F3
331
F51
  5
111A
331
1110
  5
1298
331
1400
  5
1425
331
138B
  5
13B0
331
13CA
  5
13EF
331
F4D
  5
1114
331
1108
  5
1296
331
135F
  5
1384
331
F49
  5
1110
331
135B
  5
1380
331
82E
  5
82E
331
1357
  5
137C
331
1527
  5
1761
331
4D7
  5
B3
331
1353
  5
1378
331
4D3
  5
AF
331
23D
  5
262
331
2B4
  5
2CD
331
14F7
  5
14F7
331
1120
  5
F3F
331
2B0
  5
2C9
331
204
  5
21D
331
19D
  5
1B6
331
239
  5
25A
331
14F3
  5
F62
331
235
  5
252
331
2AC
  5
2C5
331
4C3
  5
4D8
331
742
  5
742
331
231
  5
24A
331
1FC
  5
215
331
2A8
  5
2C1
331
1786
  5
17AB
331
F16
  5
F44
331
1782
  5
17AF
331
F12
  5
10DF
331
149
  5
162
331
1F8
  5
211
331
177E
  5
17B3
331
17B7
  5
152E
331
17B3
  5
1538
331
143F
  5
1464
331
1476
  5
1290
331
14B5
  5
14C2
331
14B1
  5
14BF
331
13FC
  5
1421
331
143B
  5
1460
331
1472
  5
1292
331
146E
  5
14A2
331
14AD
  5
14BA
331
13F8
  5
141D
331
1437
  5
145C
331
1387
  5
13AC
331
13C6
  5
13EB
331
13C2
  5
13E7
331
13F4
  5
1419
331
F45
  5
110C
331
1104
  5
128B
331
1383
  5
13A8
331
1433
  5
1458
331
137F
  5
13A4
331
13BE
  5
13E3
331
F41
  5
1108
331
1100
  5
F5C
331
13F0
  5
1415
331
137B
  5
13A0
331
13BA
  5
13DF
331
F3D
  5
1104
331
10F8
  5
1285
331
134F
  5
1374
331
F39
  5
1100
331
134B
  5
1370
331
73E
  5
73E
331
1347
  5
136C
331
14EF
  5
F45
331
2DF
  5
4CA
331
1343
  5
1368
331
2DB
  5
4C6
331
73A
  5
73A
331
14EB
  5
14D0
331
22D
  5
246
331
2D7
  5
4C2
331
14E7
  5
14F3
331
F61
  5
112F
331
229
  5
242
331
1F4
  5
20D
331
2E1
  5
4CC
331
159A
  5
17B7
331
2D3
  5
380
331
612
  5
612
331
225
  5
23E
331
1F0
  5
209
331
F0A
  5
F5F
331
E9
  5
102
331
14E3
  5
14EF
331
221
  5
23A
331
1C4
  5
1DD
331
298
  5
2BB
331
1772
  5
153F
331
A9
  5
C2
331
1C0
  5
1D9
331
17AF
  5
1542
331
17AB
  5
1544
331
17A7
  5
1759
331
17A3
  5
175F
331
142F
  5
1454
331
1466
  5
1499
331
14A1
  5
14B5
331
13EC
  5
1411
331
142B
  5
1450
331
1462
  5
1494
331
13E8
  5
140D
331
1427
  5
144C
331
1377
  5
139C
331
13B6
  5
13DB
331
145E
  5
1487
331
145A
  5
1483
331
1499
  5
14B2
331
13B2
  5
13D7
331
13E4
  5
1409
331
F35
  5
10F8
331
1373
  5
1398
331
1423
  5
1448
331
13AE
  5
13D3
331
13E0
  5
1405
331
F31
  5
10EE
331
136F
  5
1394
331
136B
  5
1390
331
13AA
  5
13CF
331
F2D
  5
10EA
331
10EC
  5
122E
331
133F
  5
1364
331
F29
  5
10E3
331
133B
  5
1360
331
60E
  5
60E
331
1130
  5
1344
331
1337
  5
135C
331
14DF
  5
14EB
331
2CF
  5
37C
331
1333
  5
1358
331
1542
  5
178B
331
2CB
  5
2E4
331
60A
  5
60A
331
14DB
  5
14E7
331
294
  5
2B7
331
153E
  5
1787
331
2C7
  5
2E0
331
606
  5
606
331
14D7
  5
14E3
331
1BC
  5
1D5
331
153A
  5
1783
331
2C3
  5
2DC
331
602
  5
602
331
1B8
  5
1D1
331
14D3
  5
14DF
331
9D
  5
9D
331
1B4
  5
1CD
331
260
  5
291
331
1B0
  5
1C9
331
179F
  5
1792
331
179B
  5
1796
331
1797
  5
179A
331
1793
  5
179E
331
141F
  5
1444
331
1495
  5
14AF
331
141B
  5
1440
331
1417
  5
143C
331
13A6
  5
13CB
331
1456
  5
147F
331
1452
  5
147B
331
1489
  5
14AA
331
1413
  5
1438
331
13A2
  5
13C7
331
139E
  5
13C3
331
13DD
  5
1402
331
111F
  5
F40
331
111B
  5
133F
331
139A
  5
13BF
331
13D9
  5
13FE
331
F5C
  5
1129
331
F58
  5
1121
331
132F
  5
1354
331
132B
  5
1350
331
1366
  5
138B
331
1536
  5
1780
331
4E6
  5
4E6
331
1327
  5
134C
331
1362
  5
1387
331
4E2
  5
4E2
331
1323
  5
1348
331
152E
  5
177C
331
2BF
  5
2D8
331
4DE
  5
4DE
331
1AC
  5
1C5
331
248
  5
279
331
831
  5
831
331
152A
  5
1764
331
244
  5
271
331
1A8
  5
1C1
331
20F
  5
228
331
2BB
  5
2D4
331
4DA
  5
B6
331
240
  5
269
331
20B
  5
224
331
1A0
  5
1B9
331
178D
  5
17A6
331
1789
  5
17AA
  0
XRECORD
  5
17BF
102
{ACAD_REACTORS
330
17BD
102
}
330
17BD
100
AcDbXrecord
280
     1
 70
     2
  0
XRECORD
  5
17BE
102
{ACAD_REACTORS
330
17BD
102
}
330
17BD
100
AcDbXrecord
280
     1
 40
1.25
  0
XRECORD
  5
17C0
102
{ACAD_REACTORS
330
17BD
102
}
330
17BD
100
AcDbXrecord
280
     1
 40
1.570796326794896
  0
LAYOUT
  5
39
102
{ACAD_XDICTIONARY
360
17E4
102
}
102
{ACAD_REACTORS
330
2E
102
}
330
2E
100
AcDbPlotSettings
  1

  2
none_device
  4
Letter_(8.50_x_11.00_Inches)
  6

 40
6.349999904632567
 41
6.349999904632567
 42
6.350006103515625
 43
6.350006103515625
 44
215.8999938964844
 45
279.3999938964844
 46
0.0
 47
0.0
 48
0.0
 49
0.0
140
0.0
141
0.0
142
1.0
143
103.7071447591747
 70
 11952
 72
     0
 73
     1
 74
     0
  7

 75
     0
147
0.0096425371879842
148
9146.973922805551
149
19999.93749514878
100
AcDbLayout
  1
Model
 70
     1
 71
     0
 10
0.0
 20
0.0
 11
12.0
 21
9.0
 12
0.0
 22
0.0
 32
0.0
 14
0.0
 24
0.0
 34
0.0
 15
0.0
 25
0.0
 35
0.0
146
0.0
 13
0.0
 23
0.0
 33
0.0
 16
1.0
 26
0.0
 36
0.0
 17
0.0
 27
1.0
 37
0.0
 76
     0
330
36
331
57
1001
ACAD_PSEXT
1000
なし
1000
なし
1000
適切ではありません
1000
新しいプロッタ環境設定名を選択しない限り、レイアウトは印刷されません。
1070
     0
  0
LAYOUT
  5
35
102
{ACAD_XDICTIONARY
360
17E2
102
}
102
{ACAD_REACTORS
330
2E
102
}
330
2E
100
AcDbPlotSettings
  1

  2
DocuPrint 305
  4

  6

 40
0.0
 41
0.0
 42
0.0
 43
0.0
 44
0.0
 45
0.0
 46
0.0
 47
0.0
 48
0.0
 49
0.0
140
0.0
141
0.0
142
1.0
143
1.0
 70
   688
 72
     0
 73
     0
 74
     5
  7

 75
    16
147
1.0
148
0.0
149
0.0
100
AcDbLayout
  1
レイアウト1
 70
     1
 71
     1
 10
0.0
 20
0.0
 11
12.0
 21
9.0
 12
0.0
 22
0.0
 32
0.0
 14
1.000000000000000E+20
 24
1.000000000000000E+20
 34
1.000000000000000E+20
 15
-1.000000000000000E+20
 25
-1.000000000000000E+20
 35
-1.000000000000000E+20
146
0.0
 13
0.0
 23
0.0
 33
0.0
 16
1.0
 26
0.0
 36
0.0
 17
0.0
 27
1.0
 37
0.0
 76
     0
330
32
  0
MATERIAL
  5
12
102
{ACAD_XDICTIONARY
360
4F2
102
}
102
{ACAD_REACTORS
330
10
102
}
330
10
100
AcDbMaterial
  1
ByBlock
  0
MATERIAL
  5
11
102
{ACAD_XDICTIONARY
360
4F0
102
}
102
{ACAD_REACTORS
330
10
102
}
330
10
100
AcDbMaterial
  1
ByLayer
  0
MATERIAL
  5
13
102
{ACAD_XDICTIONARY
360
4F4
102
}
102
{ACAD_REACTORS
330
10
102
}
330
10
100
AcDbMaterial
  1
Global
  0
MLEADERSTYLE
  5
51F
102
{ACAD_REACTORS
330
51E
102
}
330
51E
100
AcDbMLeaderStyle
170
     2
171
     1
172
     0
 90
        2
 40
0.0
 41
0.0
173
     1
 91
-1056964608
340
28
 92
       -2
290
     1
 42
0.09
291
     1
 43
0.36
  3
Standard
 44
0.18
300

342
26
174
     1
178
     6
175
     1
176
     0
 93
-1056964608
 45
0.18
292
     0
297
     0
 46
0.18
 94
-1056964608
 47
1.0
 49
1.0
140
1.0
293
     1
141
0.0
294
     1
177
     0
142
1.0
295
     0
296
     0
143
0.125
1001
ACAD_MLEADERVER
1070
     2
  0
MLINESTYLE
  5
2C
102
{ACAD_REACTORS
330
2B
102
}
330
2B
100
AcDbMlineStyle
  2
STANDARD
 70
     0
  3

 62
   256
 51
90.0
 52
90.0
 71
     2
 49
0.5
 62
   256
  6
BYLAYER
 49
-0.5
 62
   256
  6
BYLAYER
  0
ACDBPLACEHOLDER
  5
F
102
{ACAD_REACTORS
330
E
102
}
330
E
  0
SCALE
  5
50D
102
{ACAD_REACTORS
330
50C
102
}
330
50C
100
AcDbScale
 70
     0
300
1:1
140
1.0
141
1.0
290
     1
  0
SCALE
  5
50E
102
{ACAD_REACTORS
330
50C
102
}
330
50C
100
AcDbScale
 70
     0
300
1/128" = 1'-0"
140
0.0078125
141
12.0
290
     0
  0
SCALE
  5
50F
102
{ACAD_REACTORS
330
50C
102
}
330
50C
100
AcDbScale
 70
     0
300
1/64" = 1'-0"
140
0.015625
141
12.0
290
     0
  0
SCALE
  5
510
102
{ACAD_REACTORS
330
50C
102
}
330
50C
100
AcDbScale
 70
     0
300
1/32" = 1'-0"
140
0.03125
141
12.0
290
     0
  0
SCALE
  5
511
102
{ACAD_REACTORS
330
50C
102
}
330
50C
100
AcDbScale
 70
     0
300
1/16" = 1'-0"
140
0.0625
141
12.0
290
     0
  0
SCALE
  5
512
102
{ACAD_REACTORS
330
50C
102
}
330
50C
100
AcDbScale
 70
     0
300
3/32" = 1'-0"
140
0.09375
141
12.0
290
     0
  0
SCALE
  5
513
102
{ACAD_REACTORS
330
50C
102
}
330
50C
100
AcDbScale
 70
     0
300
1/8" = 1'-0"
140
0.125
141
12.0
290
     0
  0
SCALE
  5
514
102
{ACAD_REACTORS
330
50C
102
}
330
50C
100
AcDbScale
 70
     0
300
3/16" = 1'-0"
140
0.1875
141
12.0
290
     0
  0
SCALE
  5
515
102
{ACAD_REACTORS
330
50C
102
}
330
50C
100
AcDbScale
 70
     0
300
1/4" = 1'-0"
140
0.25
141
12.0
290
     0
  0
SCALE
  5
516
102
{ACAD_REACTORS
330
50C
102
}
330
50C
100
AcDbScale
 70
     0
300
3/8" = 1'-0"
140
0.375
141
12.0
290
     0
  0
SCALE
  5
517
102
{ACAD_REACTORS
330
50C
102
}
330
50C
100
AcDbScale
 70
     0
300
1/2" = 1'-0"
140
0.5
141
12.0
290
     0
  0
SCALE
  5
518
102
{ACAD_REACTORS
330
50C
102
}
330
50C
100
AcDbScale
 70
     0
300
3/4" = 1'-0"
140
0.75
141
12.0
290
     0
  0
SCALE
  5
519
102
{ACAD_REACTORS
330
50C
102
}
330
50C
100
AcDbScale
 70
     0
300
1" = 1'-0"
140
1.0
141
12.0
290
     0
  0
SCALE
  5
51A
102
{ACAD_REACTORS
330
50C
102
}
330
50C
100
AcDbScale
 70
     0
300
1-1/2" = 1'-0"
140
1.5
141
12.0
290
     0
  0
SCALE
  5
51B
102
{ACAD_REACTORS
330
50C
102
}
330
50C
100
AcDbScale
 70
     0
300
3" = 1'-0"
140
3.0
141
12.0
290
     0
  0
SCALE
  5
51C
102
{ACAD_REACTORS
330
50C
102
}
330
50C
100
AcDbScale
 70
     0
300
6" = 1'-0"
140
6.0
141
12.0
290
     0
  0
SCALE
  5
51D
102
{ACAD_REACTORS
330
50C
102
}
330
50C
100
AcDbScale
 70
     0
300
1'-0" = 1'-0"
140
12.0
141
12.0
290
     0
  0
TABLESTYLE
  5
31
102
{ACAD_XDICTIONARY
360
763
102
}
102
{ACAD_REACTORS
330
30
102
}
330
30
100
AcDbTableStyle
  3
Standard
 70
     0
 71
     0
 40
0.06
 41
0.06
280
     0
281
     0
  7
STANDARD
140
0.18
170
     2
 62
     0
 63
     7
283
     0
274
    -2
284
     1
 64
     0
275
    -2
285
     1
 65
     0
276
    -2
286
     1
 66
     0
277
    -2
287
     1
 67
     0
278
    -2
288
     1
 68
     0
279
    -2
289
     1
 69
     0
  7
STANDARD
140
0.25
170
     5
 62
     0
 63
     7
283
     0
274
    -2
284
     1
 64
     0
275
    -2
285
     1
 65
     0
276
    -2
286
     1
 66
     0
277
    -2
287
     1
 67
     0
278
    -2
288
     1
 68
     0
279
    -2
289
     1
 69
     0
  7
STANDARD
140
0.18
170
     5
 62
     0
 63
     7
283
     0
274
    -2
284
     1
 64
     0
275
    -2
285
     1
 65
     0
276
    -2
286
     1
 66
     0
277
    -2
287
     1
 67
     0
278
    -2
288
     1
 68
     0
279
    -2
289
     1
 69
     0
  0
VISUALSTYLE
  5
1A
102
{ACAD_XDICTIONARY
360
17CB
102
}
102
{ACAD_REACTORS
330
14
102
}
330
14
100
AcDbVisualStyle
  2

 70
     4
 71
     0
 72
     2
 73
     0
 90
        0
 40
-0.6
 41
-30.0
 62
     5
 63
     7
 74
     1
 91
        4
 64
     7
 65
   257
 75
     1
175
     1
 42
1.0
 92
        0
 66
   257
 43
1.0
 76
     1
 77
     6
 78
     2
 67
     7
 79
     5
170
     0
171
     0
290
     0
174
     0
 93
        1
 44
0.0
173
     0
291
     0
 45
0.0
1001
ACAD
1000
AcDbSavedByObjectVersion
1070
     0
  0
VISUALSTYLE
  5
1C
102
{ACAD_XDICTIONARY
360
17CF
102
}
102
{ACAD_REACTORS
330
14
102
}
330
14
100
AcDbVisualStyle
  2

 70
     6
 71
     1
 72
     2
 73
     2
 90
        0
 40
-0.6
 41
-30.0
 62
     5
 63
     7
 74
     2
 91
        2
 64
     7
 65
   257
 75
     2
175
     1
 42
40.0
 92
        0
 66
   257
 43
1.0
 76
     1
 77
     6
 78
     2
 67
     7
 79
     3
170
     0
171
     0
290
     0
174
     0
 93
        1
 44
0.0
173
     0
291
     0
 45
0.0
1001
ACAD
1000
AcDbSavedByObjectVersion
1070
     0
  0
VISUALSTYLE
  5
1B
102
{ACAD_XDICTIONARY
360
17CD
102
}
102
{ACAD_REACTORS
330
14
102
}
330
14
100
AcDbVisualStyle
  2

 70
     5
 71
     0
 72
     2
 73
     0
 90
        0
 40
-0.6
 41
-30.0
 62
     5
 63
     7
 74
     1
 91
        4
 64
     7
 65
   257
 75
     1
175
     1
 42
1.0
 92
        0
 66
   257
 43
1.0
 76
     1
 77
     6
 78
     2
 67
     7
 79
     5
170
     0
171
     0
290
     0
174
     0
 93
        1
 44
0.0
173
     0
291
     0
 45
0.0
1001
ACAD
1000
AcDbSavedByObjectVersion
1070
     0
  0
VISUALSTYLE
  5
19
102
{ACAD_XDICTIONARY
360
17C9
102
}
102
{ACAD_REACTORS
330
14
102
}
330
14
100
AcDbVisualStyle
  2

 70
     7
 71
     1
 72
     0
 73
     1
 90
        0
 40
-0.6
 41
-30.0
 62
     5
 63
     7
 74
     0
 91
        4
 64
     7
 65
   257
 75
     1
175
     1
 42
1.0
 92
        8
 66
     7
 43
1.0
 76
     1
 77
     6
 78
     2
 67
     7
 79
     5
170
     0
171
     0
290
     0
174
     0
 93
        1
 44
0.0
173
     0
291
     1
 45
0.0
1001
ACAD
1000
AcDbSavedByObjectVersion
1070
     0
  0
VISUALSTYLE
  5
20
102
{ACAD_XDICTIONARY
360
17D7
102
}
102
{ACAD_REACTORS
330
14
102
}
330
14
100
AcDbVisualStyle
  2

 70
    12
 71
     2
 72
     2
 73
     0
 90
        0
 40
-0.6
 41
-30.0
 62
     5
 63
     7
 74
     1
 91
        4
 64
     7
 65
   257
 75
     1
175
     1
 42
1.0
 92
        8
 66
     7
 43
1.0
 76
     1
 77
     6
 78
     2
 67
     7
 79
     5
170
     0
171
     0
290
     0
174
     0
 93
        1
 44
50.0
173
     0
291
     1
 45
0.0
1001
ACAD
1000
AcDbSavedByObjectVersion
1070
     0
  0
VISUALSTYLE
  5
24
102
{ACAD_XDICTIONARY
360
17DF
102
}
102
{ACAD_REACTORS
330
14
102
}
330
14
100
AcDbVisualStyle
  2

 70
    16
 71
     2
 72
     2
 73
     3
 90
        0
 40
-0.6
 41
-30.0
 62
     5
 63
     8
 74
     1
 91
        4
 64
     7
 65
   257
 75
     1
175
     1
 42
1.0
 92
        8
 66
     8
 43
1.0
 76
     1
 77
     6
 78
     2
 67
     7
 79
     5
170
     0
171
     0
290
     0
174
     0
 93
        1
 44
0.0
173
     0
291
     1
 45
0.0
1001
ACAD
1000
AcDbSavedByObjectVersion
1070
     0
  0
VISUALSTYLE
  5
1D
102
{ACAD_XDICTIONARY
360
17D1
102
}
102
{ACAD_REACTORS
330
14
102
}
330
14
100
AcDbVisualStyle
  2

 70
     9
 71
     3
 72
     2
 73
     0
 90
        0
 40
-0.6
 41
-30.0
 62
     5
 63
     7
 74
     2
 91
        2
 64
     7
 65
   257
 75
     1
175
     1
 42
40.0
 92
        8
 66
     7
 43
1.0
 76
     1
 77
     6
 78
     2
 67
     7
 79
     3
170
     0
171
     0
290
     0
174
     0
 93
        1
 44
0.0
173
     0
291
     0
 45
0.0
1001
ACAD
1000
AcDbSavedByObjectVersion
1070
     0
  0
VISUALSTYLE
  5
1F
102
{ACAD_XDICTIONARY
360
17D5
102
}
102
{ACAD_REACTORS
330
14
102
}
330
14
100
AcDbVisualStyle
  2

 70
    11
 71
     2
 72
     2
 73
     0
 90
        0
 40
-0.6
 41
-30.0
 62
     5
 63
     7
 74
     1
 91
        4
 64
     7
 65
   257
 75
     1
175
     1
 42
1.0
 92
        8
 66
     7
 43
1.0
 76
     1
 77
     6
 78
     2
 67
     7
 79
     5
170
     0
171
     0
290
     0
174
     0
 93
        1
 44
-50.0
173
     0
291
     1
 45
0.0
1001
ACAD
1000
AcDbSavedByObjectVersion
1070
     0
  0
VISUALSTYLE
  5
50B
102
{ACAD_XDICTIONARY
360
17F8
102
}
102
{ACAD_REACTORS
330
14
102
}
330
14
100
AcDbVisualStyle
  2

 70
    22
 71
     2
 72
     2
 73
     0
 90
        0
 40
-0.6
 41
-30.0
 62
     5
 63
     7
 74
     1
 91
        4
 64
     7
 65
   257
 75
     1
175
     1
 42
1.0
 92
        8
 66
     7
 43
1.0
 76
     1
 77
     6
 78
     2
 67
     7
 79
     5
170
     0
171
     0
290
     0
174
     0
 93
        1
 44
0.0
173
     0
291
     1
 45
0.0
1001
ACAD
1000
AcDbSavedByObjectVersion
1070
     0
  0
VISUALSTYLE
  5
23
102
{ACAD_XDICTIONARY
360
17DD
102
}
102
{ACAD_REACTORS
330
14
102
}
330
14
100
AcDbVisualStyle
  2

 70
    15
 71
     2
 72
     2
 73
     0
 90
        0
 40
-0.6
 41
-30.0
 62
     5
 63
     7
 74
     1
 91
        4
 64
     7
 65
   257
 75
     1
175
     1
 42
1.0
 92
        8
 66
     7
 43
1.0
 76
     1
 77
     6
 78
     2
 67
     7
 79
     5
170
     0
171
     0
290
     0
174
     0
 93
        1
 44
0.0
173
     0
291
     1
 45
0.0
1001
ACAD
1000
AcDbSavedByObjectVersion
1070
     0
  0
VISUALSTYLE
  5
15
102
{ACAD_XDICTIONARY
360
17C1
102
}
102
{ACAD_REACTORS
330
14
102
}
330
14
100
AcDbVisualStyle
  2

 70
     0
 71
     2
 72
     1
 73
     1
 90
        2
 40
-0.6
 41
30.0
 62
     5
 63
     7
 74
     0
 91
        4
 64
     7
 65
   257
 75
     1
175
     1
 42
1.0
 92
        8
 66
     7
 43
1.0
 76
     1
 77
     6
 78
     2
 67
     7
 79
     5
170
     0
171
     0
290
     0
174
     0
 93
       13
 44
0.0
173
     0
291
     1
 45
0.0
1001
ACAD
1000
AcDbSavedByObjectVersion
1070
     0
  0
VISUALSTYLE
  5
16
102
{ACAD_XDICTIONARY
360
17C3
102
}
102
{ACAD_REACTORS
330
14
102
}
330
14
100
AcDbVisualStyle
  2

 70
     1
 71
     2
 72
     1
 73
     1
 90
        2
 40
-0.6
 41
30.0
 62
     5
 63
     7
 74
     1
 91
        4
 64
     7
 65
   257
 75
     1
175
     1
 42
1.0
 92
        0
 66
   257
 43
1.0
 76
     1
 77
     6
 78
     2
 67
     7
 79
     5
170
     0
171
     0
290
     0
174
     0
 93
       13
 44
0.0
173
     0
291
     1
 45
0.0
1001
ACAD
1000
AcDbSavedByObjectVersion
1070
     0
  0
VISUALSTYLE
  5
17
102
{ACAD_XDICTIONARY
360
17C5
102
}
102
{ACAD_REACTORS
330
14
102
}
330
14
100
AcDbVisualStyle
  2

 70
     2
 71
     2
 72
     2
 73
     1
 90
        2
 40
-0.6
 41
30.0
 62
     5
 63
     7
 74
     0
 91
        4
 64
     7
 65
   257
 75
     1
175
     1
 42
1.0
 92
        0
 66
     7
 43
1.0
 76
     1
 77
     6
 78
     2
 67
     7
 79
     5
170
     0
171
     0
290
     0
174
     0
 93
       13
 44
0.0
173
     0
291
     1
 45
0.0
1001
ACAD
1000
AcDbSavedByObjectVersion
1070
     0
  0
VISUALSTYLE
  5
18
102
{ACAD_XDICTIONARY
360
17C7
102
}
102
{ACAD_REACTORS
330
14
102
}
330
14
100
AcDbVisualStyle
  2

 70
     3
 71
     2
 72
     2
 73
     1
 90
        2
 40
-0.6
 41
30.0
 62
     5
 63
     7
 74
     1
 91
        4
 64
     7
 65
   257
 75
     1
175
     1
 42
1.0
 92
        0
 66
   257
 43
1.0
 76
     1
 77
     6
 78
     2
 67
     7
 79
     5
170
     0
171
     0
290
     0
174
     0
 93
       13
 44
0.0
173
     0
291
     1
 45
0.0
1001
ACAD
1000
AcDbSavedByObjectVersion
1070
     0
  0
VISUALSTYLE
  5
503
102
{ACAD_XDICTIONARY
360
17E8
102
}
102
{ACAD_REACTORS
330
14
102
}
330
14
100
AcDbVisualStyle
  2

 70
     6
 71
     1
 72
     2
 73
     2
 90
        0
 40
-0.6
 41
-30.0
 62
     5
 63
     7
 74
     2
 91
        2
 64
     7
 65
   257
 75
     2
175
     1
 42
40.0
 92
        0
 66
   257
 43
1.0
 76
     1
 77
     6
 78
     2
 67
     7
 79
     3
170
     0
171
     0
290
     0
174
     0
 93
        1
 44
0.0
173
     0
291
     0
 45
0.0
1001
ACAD
1000
AcDbSavedByObjectVersion
1070
     0
  0
VISUALSTYLE
  5
509
102
{ACAD_XDICTIONARY
360
17F4
102
}
102
{ACAD_REACTORS
330
14
102
}
330
14
100
AcDbVisualStyle
  2

 70
    20
 71
     2
 72
     2
 73
     0
 90
        0
 40
-0.6
 41
-30.0
 62
     5
 63
     7
 74
     1
 91
        4
 64
     7
 65
   257
 75
     1
175
     1
 42
1.0
 92
       10
 66
     7
 43
1.0
 76
     1
 77
     6
 78
     2
 67
     7
 79
     5
170
     0
171
     0
290
     0
174
     0
 93
        1
 44
0.0
173
     0
291
     1
 45
0.0
1001
ACAD
1000
AcDbSavedByObjectVersion
1070
     0
  0
VISUALSTYLE
  5
22
102
{ACAD_XDICTIONARY
360
17DB
102
}
102
{ACAD_REACTORS
330
14
102
}
330
14
100
AcDbVisualStyle
  2

 70
    14
 71
     2
 72
     2
 73
     0
 90
        0
 40
-0.6
 41
-30.0
 62
     5
 63
     7
 74
     1
 91
        4
 64
     7
 65
   257
 75
     7
175
     7
 42
1.0
 92
        8
 66
     7
 43
1.0
 76
     1
 77
     6
 78
     2
 67
     7
 79
     5
170
     0
171
     0
290
     0
174
     0
 93
        1
 44
0.0
173
     0
291
     1
 45
0.0
1001
ACAD
1000
AcDbSavedByObjectVersion
1070
     0
  0
VISUALSTYLE
  5
50A
102
{ACAD_XDICTIONARY
360
17F6
102
}
102
{ACAD_REACTORS
330
14
102
}
330
14
100
AcDbVisualStyle
  2

 70
    21
 71
     2
 72
     2
 73
     0
 90
        0
 40
-0.6
 41
-30.0
 62
     5
 63
     7
 74
     1
 91
        4
 64
     7
 65
   257
 75
     1
175
     1
 42
1.0
 92
        9
 66
     7
 43
1.0
 76
     1
 77
     6
 78
     2
 67
     7
 79
     5
170
     0
171
     0
290
     0
174
     0
 93
        1
 44
0.0
173
     0
291
     1
 45
0.0
1001
ACAD
1000
AcDbSavedByObjectVersion
1070
     0
  0
VISUALSTYLE
  5
1E
102
{ACAD_XDICTIONARY
360
17D3
102
}
102
{ACAD_REACTORS
330
14
102
}
330
14
100
AcDbVisualStyle
  2

 70
     8
 71
     2
 72
     2
 73
     0
 90
        0
 40
-0.6
 41
-30.0
 62
     5
 63
     7
 74
     1
 91
        0
 64
     7
 65
   257
 75
     1
175
     1
 42
1.0
 92
        8
 66
     8
 43
1.0
 76
     1
 77
     6
 78
     2
 67
     7
 79
     5
170
     0
171
     0
290
     0
174
     0
 93
       13
 44
0.0
173
     0
291
     0
 45
0.0
1001
ACAD
1000
AcDbSavedByObjectVersion
1070
     0
  0
VISUALSTYLE
  5
508
102
{ACAD_XDICTIONARY
360
17F2
102
}
102
{ACAD_REACTORS
330
14
102
}
330
14
100
AcDbVisualStyle
  2

 70
    27
 71
     2
 72
     2
 73
     1
 90
        2
 40
-0.6
 41
30.0
 62
     5
 63
     7
 74
     0
 91
        4
 64
     7
 65
   257
 75
     1
175
     1
 42
1.0
 92
        8
 66
   257
 43
1.0
 76
     1
 77
     6
 78
     2
 67
     8
 79
     3
170
     0
171
     0
290
     0
174
     0
 93
        5
 44
0.0
173
     0
291
     0
 45
0.0
1001
ACAD
1000
AcDbSavedByObjectVersion
1070
     0
  0
VISUALSTYLE
  5
507
102
{ACAD_XDICTIONARY
360
17F0
102
}
102
{ACAD_REACTORS
330
14
102
}
330
14
100
AcDbVisualStyle
  2

 70
    26
 71
     2
 72
     2
 73
     1
 90
        2
 40
-0.6
 41
30.0
 62
     5
 63
     7
 74
     1
 91
       10
 64
     7
 65
   257
 75
     2
175
     1
 42
1.0
 92
        8
 66
   257
 43
1.0
 76
     1
 77
     6
 78
     2
 67
     7
 79
     3
170
     0
171
     0
290
     0
174
     0
 93
        5
 44
0.0
173
     0
291
     0
 45
0.0
1001
ACAD
1000
AcDbSavedByObjectVersion
1070
     0
  0
VISUALSTYLE
  5
504
102
{ACAD_XDICTIONARY
360
17EA
102
}
102
{ACAD_REACTORS
330
14
102
}
330
14
100
AcDbVisualStyle
  2

 70
    23
 71
     2
 72
     2
 73
     3
 90
        0
 40
-0.6
 41
-30.0
 62
     5
 63
     7
 74
     2
 91
        2
 64
     7
 65
     7
 75
     1
175
     1
 42
40.0
 92
        8
 66
     7
 43
1.0
 76
     1
 77
     6
 78
     2
 67
     7
 79
     3
170
     0
171
     0
290
     0
174
     0
 93
        1
 44
0.0
173
     0
291
     0
 45
0.0
1001
ACAD
1000
AcDbSavedByObjectVersion
1070
     0
  0
VISUALSTYLE
  5
505
102
{ACAD_XDICTIONARY
360
17EC
102
}
102
{ACAD_REACTORS
330
14
102
}
330
14
100
AcDbVisualStyle
  2

 70
    24
 71
     1
 72
     2
 73
     2
 90
        0
 40
-0.6
 41
-30.0
 62
     5
 63
     7
 74
     2
 91
        2
 64
     7
 65
     7
 75
     1
175
     1
 42
40.0
 92
       11
 66
     7
 43
1.0
 76
     1
 77
     6
 78
     2
 67
     7
 79
     6
170
     0
171
     0
290
     0
174
     0
 93
        1
 44
0.0
173
     0
291
     0
 45
0.0
1001
ACAD
1000
AcDbSavedByObjectVersion
1070
     0
  0
VISUALSTYLE
  5
21
102
{ACAD_XDICTIONARY
360
17D9
102
}
102
{ACAD_REACTORS
330
14
102
}
330
14
100
AcDbVisualStyle
  2

 70
    13
 71
     2
 72
     2
 73
     0
 90
        0
 40
-0.6
 41
-30.0
 62
     5
 63
     7
 74
     1
 91
        4
 64
     7
 65
   257
 75
     1
175
     1
 42
1.0
 92
       12
 66
     7
 43
1.0
 76
     1
 77
     6
 78
     2
 67
     7
 79
     5
170
     0
171
     0
290
     0
174
     0
 93
        1
 44
0.0
173
     0
291
     1
 45
0.0
1001
ACAD
1000
AcDbSavedByObjectVersion
1070
     0
  0
VISUALSTYLE
  5
502
102
{ACAD_XDICTIONARY
360
17E6
102
}
102
{ACAD_REACTORS
330
14
102
}
330
14
100
AcDbVisualStyle
  2

 70
     5
 71
     0
 72
     2
 73
     0
 90
        0
 40
-0.6
 41
-30.0
 62
     5
 63
     7
 74
     1
 91
        4
 64
     7
 65
   257
 75
     1
175
     1
 42
1.0
 92
        0
 66
   257
 43
1.0
 76
     1
 77
     6
 78
     2
 67
     7
 79
     3
170
     0
171
     0
290
     0
174
     0
 93
        1
 44
0.0
173
     0
291
     0
 45
0.0
1001
ACAD
1000
AcDbSavedByObjectVersion
1070
     0
  0
VISUALSTYLE
  5
506
102
{ACAD_XDICTIONARY
360
17EE
102
}
102
{ACAD_REACTORS
330
14
102
}
330
14
100
AcDbVisualStyle
  2

 70
    25
 71
     2
 72
     2
 73
     1
 90
        1
 40
0.5
 41
-30.0
 62
     5
 63
     7
 74
     1
 91
        0
 64
     7
 65
   257
 75
     1
175
     1
 42
1.0
 92
        8
 66
     7
 43
1.0
 76
     1
 77
     6
 78
     2
 67
     7
 79
     3
170
     0
171
     0
290
     0
174
     0
 93
       13
 44
0.0
173
     0
291
     0
 45
0.0
1001
ACAD
1000
AcDbSavedByObjectVersion
1070
     0
  0
DICTIONARYVAR
  5
761
102
{ACAD_REACTORS
330
4DB
102
}
330
4DB
100
DictionaryVariables
280
     0
  1
1:1
  0
DICTIONARYVAR
  5
760
102
{ACAD_REACTORS
330
4DB
102
}
330
4DB
100
DictionaryVariables
280
     0
  1
STANDARD
  0
DICTIONARYVAR
  5
4DC
102
{ACAD_REACTORS
330
4DB
102
}
330
4DB
100
DictionaryVariables
280
     0
  1
STANDARD
  0
DICTIONARYVAR
  5
4EA
102
{ACAD_REACTORS
330
4DB
102
}
330
4DB
100
DictionaryVariables
280
     0
  1
1
  0
DICTIONARYVAR
  5
4E9
102
{ACAD_REACTORS
330
4DB
102
}
330
4DB
100
DictionaryVariables
280
     0
  1
0
  0
DICTIONARYVAR
  5
4E8
102
{ACAD_REACTORS
330
4DB
102
}
330
4DB
100
DictionaryVariables
280
     0
  1
127
  0
DICTIONARYVAR
  5
1714
102
{ACAD_REACTORS
330
4DB
102
}
330
4DB
100
DictionaryVariables
280
     0
  1
2
  0
DICTIONARY
  5
17E4
330
39
100
AcDbDictionary
280
     1
281
     1
  3
ACAD_XREC_ROUNDTRIP
360
17E5
  0
DICTIONARY
  5
17E2
330
35
100
AcDbDictionary
280
     1
281
     1
  3
ACAD_XREC_ROUNDTRIP
360
17E3
  0
DICTIONARY
  5
4F2
330
12
100
AcDbDictionary
280
     1
281
     1
  3
ACAD_XREC_ROUNDTRIP
360
4F3
  0
DICTIONARY
  5
4F0
330
11
100
AcDbDictionary
280
     1
281
     1
  3
ACAD_XREC_ROUNDTRIP
360
4F1
  0
DICTIONARY
  5
4F4
330
13
100
AcDbDictionary
280
     1
281
     1
  3
ACAD_XREC_ROUNDTRIP
360
4F5
  0
DICTIONARY
  5
763
330
31
100
AcDbDictionary
280
     1
281
     1
  3
ACAD_ROUNDTRIP_2008_TABLESTYLE_CELLSTYLEMAP
360
17BA
  3
ACAD_XREC_ROUNDTRIP
360
17E1
  0
DICTIONARY
  5
17CB
330
1A
100
AcDbDictionary
280
     1
281
     1
  3
ACAD_XREC_ROUNDTRIP
360
17CC
  0
DICTIONARY
  5
17CF
330
1C
100
AcDbDictionary
280
     1
281
     1
  3
ACAD_XREC_ROUNDTRIP
360
17D0
  0
DICTIONARY
  5
17CD
330
1B
100
AcDbDictionary
280
     1
281
     1
  3
ACAD_XREC_ROUNDTRIP
360
17CE
  0
DICTIONARY
  5
17C9
330
19
100
AcDbDictionary
280
     1
281
     1
  3
ACAD_XREC_ROUNDTRIP
360
17CA
  0
DICTIONARY
  5
17D7
330
20
100
AcDbDictionary
280
     1
281
     1
  3
ACAD_XREC_ROUNDTRIP
360
17D8
  0
DICTIONARY
  5
17DF
330
24
100
AcDbDictionary
280
     1
281
     1
  3
ACAD_XREC_ROUNDTRIP
360
17E0
  0
DICTIONARY
  5
17D1
330
1D
100
AcDbDictionary
280
     1
281
     1
  3
ACAD_XREC_ROUNDTRIP
360
17D2
  0
DICTIONARY
  5
17D5
330
1F
100
AcDbDictionary
280
     1
281
     1
  3
ACAD_XREC_ROUNDTRIP
360
17D6
  0
DICTIONARY
  5
17F8
330
50B
100
AcDbDictionary
280
     1
281
     1
  3
ACAD_XREC_ROUNDTRIP
360
17F9
  0
DICTIONARY
  5
17DD
330
23
100
AcDbDictionary
280
     1
281
     1
  3
ACAD_XREC_ROUNDTRIP
360
17DE
  0
DICTIONARY
  5
17C1
330
15
100
AcDbDictionary
280
     1
281
     1
  3
ACAD_XREC_ROUNDTRIP
360
17C2
  0
DICTIONARY
  5
17C3
330
16
100
AcDbDictionary
280
     1
281
     1
  3
ACAD_XREC_ROUNDTRIP
360
17C4
  0
DICTIONARY
  5
17C5
330
17
100
AcDbDictionary
280
     1
281
     1
  3
ACAD_XREC_ROUNDTRIP
360
17C6
  0
DICTIONARY
  5
17C7
330
18
100
AcDbDictionary
280
     1
281
     1
  3
ACAD_XREC_ROUNDTRIP
360
17C8
  0
DICTIONARY
  5
17E8
330
503
100
AcDbDictionary
280
     1
281
     1
  3
ACAD_XREC_ROUNDTRIP
360
17E9
  0
DICTIONARY
  5
17F4
330
509
100
AcDbDictionary
280
     1
281
     1
  3
ACAD_XREC_ROUNDTRIP
360
17F5
  0
DICTIONARY
  5
17DB
330
22
100
AcDbDictionary
280
     1
281
     1
  3
ACAD_XREC_ROUNDTRIP
360
17DC
  0
DICTIONARY
  5
17F6
330
50A
100
AcDbDictionary
280
     1
281
     1
  3
ACAD_XREC_ROUNDTRIP
360
17F7
  0
DICTIONARY
  5
17D3
330
1E
100
AcDbDictionary
280
     1
281
     1
  3
ACAD_XREC_ROUNDTRIP
360
17D4
  0
DICTIONARY
  5
17F2
330
508
100
AcDbDictionary
280
     1
281
     1
  3
ACAD_XREC_ROUNDTRIP
360
17F3
  0
DICTIONARY
  5
17F0
330
507
100
AcDbDictionary
280
     1
281
     1
  3
ACAD_XREC_ROUNDTRIP
360
17F1
  0
DICTIONARY
  5
17EA
330
504
100
AcDbDictionary
280
     1
281
     1
  3
ACAD_XREC_ROUNDTRIP
360
17EB
  0
DICTIONARY
  5
17EC
330
505
100
AcDbDictionary
280
     1
281
     1
  3
ACAD_XREC_ROUNDTRIP
360
17ED
  0
DICTIONARY
  5
17D9
330
21
100
AcDbDictionary
280
     1
281
     1
  3
ACAD_XREC_ROUNDTRIP
360
17DA
  0
DICTIONARY
  5
17E6
330
502
100
AcDbDictionary
280
     1
281
     1
  3
ACAD_XREC_ROUNDTRIP
360
17E7
  0
DICTIONARY
  5
17EE
330
506
100
AcDbDictionary
280
     1
281
     1
  3
ACAD_XREC_ROUNDTRIP
360
17EF
  0
XRECORD
  5
17E5
102
{ACAD_REACTORS
330
17E4
102
}
330
17E4
100
AcDbXrecord
280
     1
102
SHADEPLOT
 70
     0
102
SHADEPLOTRESLEVEL
 70
     2
102
SHADEPLOTCUSTOMDPI
 70
   300
  0
XRECORD
  5
17E3
102
{ACAD_REACTORS
330
17E2
102
}
330
17E2
100
AcDbXrecord
280
     1
102
SHADEPLOT
 70
     0
102
SHADEPLOTRESLEVEL
 70
     2
102
SHADEPLOTCUSTOMDPI
 70
   300
  0
XRECORD
  5
4F3
102
{ACAD_REACTORS
330
4F2
102
}
330
4F2
100
AcDbXrecord
280
     1
102
MATERIAL
148
0.0
149
0.0
149
0.0
 93
        0
 94
      127
282
     0
 72
     1
 77
     1
171
     1
175
     1
179
     1
273
     0
  0
XRECORD
  5
4F1
102
{ACAD_REACTORS
330
4F0
102
}
330
4F0
100
AcDbXrecord
280
     1
102
MATERIAL
148
0.0
149
0.0
149
0.0
 93
        0
 94
      127
282
     0
 72
     1
 77
     1
171
     1
175
     1
179
     1
273
     0
  0
XRECORD
  5
4F5
102
{ACAD_REACTORS
330
4F4
102
}
330
4F4
100
AcDbXrecord
280
     1
102
MATERIAL
148
0.0
149
0.0
149
0.0
 93
        0
 94
      127
282
     0
 72
     1
 77
     1
171
     1
175
     1
179
     1
273
     0
  0
CELLSTYLEMAP
  5
17BA
102
{ACAD_REACTORS
330
763
102
}
330
763
100
AcDbCellStyleMap
 90
        3
300
CELLSTYLE
  1
TABLEFORMAT_BEGIN
 90
        5
170
     1
 91
        0
 92
    32768
 62
   257
 93
        1
300
CONTENTFORMAT
  1
CONTENTFORMAT_BEGIN
 90
        0
 91
        0
 92
      512
 93
        0
300

 40
0.0
140
1.0
 94
        5
 62
     0
340
26
144
0.25
309
CONTENTFORMAT_END
171
     1
301
MARGIN
  1
CELLMARGIN_BEGIN
 40
0.06
 40
0.06
 40
0.06
 40
0.06
 40
0.18
 40
0.18
309
CELLMARGIN_END
 94
        6
 95
        1
302
GRIDFORMAT
  1
GRIDFORMAT_BEGIN
 90
        0
 91
        1
 62
     0
 92
       -2
340
0
 93
        0
 40
0.045
309
GRIDFORMAT_END
 95
        2
302
GRIDFORMAT
  1
GRIDFORMAT_BEGIN
 90
        0
 91
        1
 62
     0
 92
       -2
340
0
 93
        0
 40
0.045
309
GRIDFORMAT_END
 95
        4
302
GRIDFORMAT
  1
GRIDFORMAT_BEGIN
 90
        0
 91
        1
 62
     0
 92
       -2
340
0
 93
        0
 40
0.045
309
GRIDFORMAT_END
 95
        8
302
GRIDFORMAT
  1
GRIDFORMAT_BEGIN
 90
        0
 91
        1
 62
     0
 92
       -2
340
0
 93
        0
 40
0.045
309
GRIDFORMAT_END
 95
       16
302
GRIDFORMAT
  1
GRIDFORMAT_BEGIN
 90
        0
 91
        1
 62
     0
 92
       -2
340
0
 93
        0
 40
0.045
309
GRIDFORMAT_END
 95
       32
302
GRIDFORMAT
  1
GRIDFORMAT_BEGIN
 90
        0
 91
        1
 62
     0
 92
       -2
340
0
 93
        0
 40
0.045
309
GRIDFORMAT_END
309
TABLEFORMAT_END
  1
CELLSTYLE_BEGIN
 90
        1
 91
        1
300
_TITLE
309
CELLSTYLE_END
300
CELLSTYLE
  1
TABLEFORMAT_BEGIN
 90
        5
170
     1
 91
        0
 92
        0
 62
   257
 93
        1
300
CONTENTFORMAT
  1
CONTENTFORMAT_BEGIN
 90
        0
 91
        0
 92
      512
 93
        0
300

 40
0.0
140
1.0
 94
        5
 62
     0
340
26
144
0.18
309
CONTENTFORMAT_END
171
     1
301
MARGIN
  1
CELLMARGIN_BEGIN
 40
0.06
 40
0.06
 40
0.06
 40
0.06
 40
0.18
 40
0.18
309
CELLMARGIN_END
 94
        6
 95
        1
302
GRIDFORMAT
  1
GRIDFORMAT_BEGIN
 90
        0
 91
        1
 62
     0
 92
       -2
340
0
 93
        0
 40
0.045
309
GRIDFORMAT_END
 95
        2
302
GRIDFORMAT
  1
GRIDFORMAT_BEGIN
 90
        0
 91
        1
 62
     0
 92
       -2
340
0
 93
        0
 40
0.045
309
GRIDFORMAT_END
 95
        4
302
GRIDFORMAT
  1
GRIDFORMAT_BEGIN
 90
        0
 91
        1
 62
     0
 92
       -2
340
0
 93
        0
 40
0.045
309
GRIDFORMAT_END
 95
        8
302
GRIDFORMAT
  1
GRIDFORMAT_BEGIN
 90
        0
 91
        1
 62
     0
 92
       -2
340
0
 93
        0
 40
0.045
309
GRIDFORMAT_END
 95
       16
302
GRIDFORMAT
  1
GRIDFORMAT_BEGIN
 90
        0
 91
        1
 62
     0
 92
       -2
340
0
 93
        0
 40
0.045
309
GRIDFORMAT_END
 95
       32
302
GRIDFORMAT
  1
GRIDFORMAT_BEGIN
 90
        0
 91
        1
 62
     0
 92
       -2
340
0
 93
        0
 40
0.045
309
GRIDFORMAT_END
309
TABLEFORMAT_END
  1
CELLSTYLE_BEGIN
 90
        2
 91
        1
300
_HEADER
309
CELLSTYLE_END
300
CELLSTYLE
  1
TABLEFORMAT_BEGIN
 90
        5
170
     1
 91
        0
 92
        0
 62
   257
 93
        1
300
CONTENTFORMAT
  1
CONTENTFORMAT_BEGIN
 90
        0
 91
        0
 92
      512
 93
        0
300

 40
0.0
140
1.0
 94
        2
 62
     0
340
26
144
0.18
309
CONTENTFORMAT_END
171
     1
301
MARGIN
  1
CELLMARGIN_BEGIN
 40
0.06
 40
0.06
 40
0.06
 40
0.06
 40
0.18
 40
0.18
309
CELLMARGIN_END
 94
        6
 95
        1
302
GRIDFORMAT
  1
GRIDFORMAT_BEGIN
 90
        0
 91
        1
 62
     0
 92
       -2
340
0
 93
        0
 40
0.045
309
GRIDFORMAT_END
 95
        2
302
GRIDFORMAT
  1
GRIDFORMAT_BEGIN
 90
        0
 91
        1
 62
     0
 92
       -2
340
0
 93
        0
 40
0.045
309
GRIDFORMAT_END
 95
        4
302
GRIDFORMAT
  1
GRIDFORMAT_BEGIN
 90
        0
 91
        1
 62
     0
 92
       -2
340
0
 93
        0
 40
0.045
309
GRIDFORMAT_END
 95
        8
302
GRIDFORMAT
  1
GRIDFORMAT_BEGIN
 90
        0
 91
        1
 62
     0
 92
       -2
340
0
 93
        0
 40
0.045
309
GRIDFORMAT_END
 95
       16
302
GRIDFORMAT
  1
GRIDFORMAT_BEGIN
 90
        0
 91
        1
 62
     0
 92
       -2
340
0
 93
        0
 40
0.045
309
GRIDFORMAT_END
 95
       32
302
GRIDFORMAT
  1
GRIDFORMAT_BEGIN
 90
        0
 91
        1
 62
     0
 92
       -2
340
0
 93
        0
 40
0.045
309
GRIDFORMAT_END
309
TABLEFORMAT_END
  1
CELLSTYLE_BEGIN
 90
        3
 91
        2
300
_DATA
309
CELLSTYLE_END
  0
XRECORD
  5
17E1
102
{ACAD_REACTORS
330
763
102
}
330
763
100
AcDbXrecord
280
     1
102
ACAD_ROUNDTRIP_PRE2007_TABLESTYLE
 90
      512
 91
        0
  1

 92
      512
 93
        0
  2

 94
      512
 95
        0
  3

  0
XRECORD
  5
17CC
102
{ACAD_REACTORS
330
17CB
102
}
330
17CB
100
AcDbXrecord
280
     1
102
RTVSPropertyOp0
 70
     1
102
RTVSPropertyOp1
 70
     1
102
RTVSPropertyOp2
 70
     1
102
RTVSPropertyOp3
 70
     1
102
RTVSPropertyOp4
 70
     1
102
RTVSPropertyOp5
 70
     1
102
RTVSPropertyOp6
 70
     1
102
RTVSPropertyOp7
 70
     1
102
RTVSPropertyOp8
 70
     1
102
RTVSPropertyOp9
 70
     1
102
RTVSPropertyOp10
 70
     1
102
RTVSPropertyOp11
 70
     1
102
RTVSPropertyOp12
 70
     1
102
RTVSPropertyOp13
 70
     1
102
RTVSPropertyOp14
 70
     1
102
RTVSPropertyOp15
 70
     1
102
RTVSPropertyOp16
 70
     1
102
RTVSPropertyOp17
 70
     1
102
RTVSPropertyOp18
 70
     1
102
RTVSPropertyOp19
 70
     1
102
RTVSPropertyOp20
 70
     1
102
RTVSPropertyOp21
 70
     1
102
RTVSPropertyOp22
 70
     1
102
RTVSPropertyOp23
 70
     1
102
RTVSPropertyOp24
 70
     1
102
RTVSPropertyOp25
 70
     1
102
RTVSPropertyOp26
 70
     1
102
RTVSPropertyOp27
 70
     1
102
RTVSPropertyOp28
 70
     1
102
RTVSPropertyOp29
 70
     1
102
RTVSPropertyOp30
 70
     1
102
RTVSPropertyOp31
 70
     1
102
RTVSPropertyOp32
 70
     1
  0
XRECORD
  5
17D0
102
{ACAD_REACTORS
330
17CF
102
}
330
17CF
100
AcDbXrecord
280
     1
102
RTVSPropertyOp0
 70
     1
102
RTVSPropertyOp1
 70
     1
102
RTVSPropertyOp2
 70
     1
102
RTVSPropertyOp3
 70
     1
102
RTVSPropertyOp4
 70
     1
102
RTVSPropertyOp5
 70
     1
102
RTVSPropertyOp6
 70
     1
102
RTVSPropertyOp7
 70
     1
102
RTVSPropertyOp8
 70
     1
102
RTVSPropertyOp9
 70
     1
102
RTVSPropertyOp10
 70
     1
102
RTVSPropertyOp11
 70
     1
102
RTVSPropertyOp12
 70
     1
102
RTVSPropertyOp13
 70
     1
102
RTVSPropertyOp14
 70
     1
102
RTVSPropertyOp15
 70
     1
102
RTVSPropertyOp16
 70
     1
102
RTVSPropertyOp17
 70
     1
102
RTVSPropertyOp18
 70
     1
102
RTVSPropertyOp19
 70
     1
102
RTVSPropertyOp20
 70
     1
102
RTVSPropertyOp21
 70
     1
102
RTVSPropertyOp22
 70
     1
102
RTVSPropertyOp23
 70
     1
102
RTVSPropertyOp24
 70
     1
102
RTVSPropertyOp25
 70
     1
102
RTVSPropertyOp26
 70
     1
102
RTVSPropertyOp27
 70
     1
102
RTVSPropertyOp28
 70
     1
102
RTVSPropertyOp29
 70
     1
102
RTVSPropertyOp30
 70
     1
102
RTVSPropertyOp31
 70
     1
102
RTVSPropertyOp32
 70
     1
  0
XRECORD
  5
17CE
102
{ACAD_REACTORS
330
17CD
102
}
330
17CD
100
AcDbXrecord
280
     1
102
RTVSPropertyOp0
 70
     1
102
RTVSPropertyOp1
 70
     1
102
RTVSPropertyOp2
 70
     1
102
RTVSPropertyOp3
 70
     1
102
RTVSPropertyOp4
 70
     1
102
RTVSPropertyOp5
 70
     1
102
RTVSPropertyOp6
 70
     1
102
RTVSPropertyOp7
 70
     1
102
RTVSPropertyOp8
 70
     1
102
RTVSPropertyOp9
 70
     1
102
RTVSPropertyOp10
 70
     1
102
RTVSPropertyOp11
 70
     1
102
RTVSPropertyOp12
 70
     1
102
RTVSPropertyOp13
 70
     1
102
RTVSPropertyOp14
 70
     1
102
RTVSPropertyOp15
 70
     1
102
RTVSPropertyOp16
 70
     1
102
RTVSPropertyOp17
 70
     1
102
RTVSPropertyOp18
 70
     1
102
RTVSPropertyOp19
 70
     1
102
RTVSPropertyOp20
 70
     1
102
RTVSPropertyOp21
 70
     1
102
RTVSPropertyOp22
 70
     1
102
RTVSPropertyOp23
 70
     1
102
RTVSPropertyOp24
 70
     1
102
RTVSPropertyOp25
 70
     1
102
RTVSPropertyOp26
 70
     1
102
RTVSPropertyOp27
 70
     1
102
RTVSPropertyOp28
 70
     1
102
RTVSPropertyOp29
 70
     1
102
RTVSPropertyOp30
 70
     1
102
RTVSPropertyOp31
 70
     1
102
RTVSPropertyOp32
 70
     1
  0
XRECORD
  5
17CA
102
{ACAD_REACTORS
330
17C9
102
}
330
17C9
100
AcDbXrecord
280
     1
102
RTVSPropertyOp0
 70
     1
102
RTVSPropertyOp1
 70
     1
102
RTVSPropertyOp2
 70
     1
102
RTVSPropertyOp3
 70
     1
102
RTVSPropertyOp4
 70
     1
102
RTVSPropertyOp5
 70
     1
102
RTVSPropertyOp6
 70
     1
102
RTVSPropertyOp7
 70
     1
102
RTVSPropertyOp8
 70
     1
102
RTVSPropertyOp9
 70
     1
102
RTVSPropertyOp10
 70
     1
102
RTVSPropertyOp11
 70
     1
102
RTVSPropertyOp12
 70
     1
102
RTVSPropertyOp13
 70
     1
102
RTVSPropertyOp14
 70
     1
102
RTVSPropertyOp15
 70
     1
102
RTVSPropertyOp16
 70
     1
102
RTVSPropertyOp17
 70
     1
102
RTVSPropertyOp18
 70
     1
102
RTVSPropertyOp19
 70
     1
102
RTVSPropertyOp20
 70
     1
102
RTVSPropertyOp21
 70
     1
102
RTVSPropertyOp22
 70
     1
102
RTVSPropertyOp23
 70
     1
102
RTVSPropertyOp24
 70
     1
102
RTVSPropertyOp25
 70
     1
102
RTVSPropertyOp26
 70
     1
102
RTVSPropertyOp27
 70
     1
102
RTVSPropertyOp28
 70
     1
102
RTVSPropertyOp29
 70
     1
102
RTVSPropertyOp30
 70
     1
102
RTVSPropertyOp31
 70
     1
102
RTVSPropertyOp32
 70
     1
  0
XRECORD
  5
17D8
102
{ACAD_REACTORS
330
17D7
102
}
330
17D7
100
AcDbXrecord
280
     1
102
RTVSPropertyOp0
 70
     1
102
RTVSPropertyOp1
 70
     1
102
RTVSPropertyOp2
 70
     1
102
RTVSPropertyOp3
 70
     1
102
RTVSPropertyOp4
 70
     1
102
RTVSPropertyOp5
 70
     1
102
RTVSPropertyOp6
 70
     1
102
RTVSPropertyOp7
 70
     1
102
RTVSPropertyOp8
 70
     1
102
RTVSPropertyOp9
 70
     1
102
RTVSPropertyOp10
 70
     1
102
RTVSPropertyOp11
 70
     1
102
RTVSPropertyOp12
 70
     1
102
RTVSPropertyOp13
 70
     1
102
RTVSPropertyOp14
 70
     1
102
RTVSPropertyOp15
 70
     1
102
RTVSPropertyOp16
 70
     1
102
RTVSPropertyOp17
 70
     1
102
RTVSPropertyOp18
 70
     1
102
RTVSPropertyOp19
 70
     1
102
RTVSPropertyOp20
 70
     1
102
RTVSPropertyOp21
 70
     1
102
RTVSPropertyOp22
 70
     1
102
RTVSPropertyOp23
 70
     1
102
RTVSPropertyOp24
 70
     1
102
RTVSPropertyOp25
 70
     1
102
RTVSPropertyOp26
 70
     1
102
RTVSPropertyOp27
 70
     1
102
RTVSPropertyOp28
 70
     1
102
RTVSPropertyOp29
 70
     1
102
RTVSPropertyOp30
 70
     1
102
RTVSPropertyOp31
 70
     1
102
RTVSPropertyOp32
 70
     1
  0
XRECORD
  5
17E0
102
{ACAD_REACTORS
330
17DF
102
}
330
17DF
100
AcDbXrecord
280
     1
102
RTVSPropertyOp0
 70
     1
102
RTVSPropertyOp1
 70
     1
102
RTVSPropertyOp2
 70
     1
102
RTVSPropertyOp3
 70
     1
102
RTVSPropertyOp4
 70
     1
102
RTVSPropertyOp5
 70
     1
102
RTVSPropertyOp6
 70
     1
102
RTVSPropertyOp7
 70
     1
102
RTVSPropertyOp8
 70
     1
102
RTVSPropertyOp9
 70
     1
102
RTVSPropertyOp10
 70
     1
102
RTVSPropertyOp11
 70
     1
102
RTVSPropertyOp12
 70
     1
102
RTVSPropertyOp13
 70
     1
102
RTVSPropertyOp14
 70
     1
102
RTVSPropertyOp15
 70
     1
102
RTVSPropertyOp16
 70
     1
102
RTVSPropertyOp17
 70
     1
102
RTVSPropertyOp18
 70
     1
102
RTVSPropertyOp19
 70
     1
102
RTVSPropertyOp20
 70
     1
102
RTVSPropertyOp21
 70
     1
102
RTVSPropertyOp22
 70
     1
102
RTVSPropertyOp23
 70
     1
102
RTVSPropertyOp24
 70
     1
102
RTVSPropertyOp25
 70
     1
102
RTVSPropertyOp26
 70
     1
102
RTVSPropertyOp27
 70
     1
102
RTVSPropertyOp28
 70
     1
102
RTVSPropertyOp29
 70
     1
102
RTVSPropertyOp30
 70
     1
102
RTVSPropertyOp31
 70
     1
102
RTVSPropertyOp32
 70
     1
  0
XRECORD
  5
17D2
102
{ACAD_REACTORS
330
17D1
102
}
330
17D1
100
AcDbXrecord
280
     1
102
RTVSPropertyOp0
 70
     1
102
RTVSPropertyOp1
 70
     1
102
RTVSPropertyOp2
 70
     1
102
RTVSPropertyOp3
 70
     1
102
RTVSPropertyOp4
 70
     1
102
RTVSPropertyOp5
 70
     1
102
RTVSPropertyOp6
 70
     1
102
RTVSPropertyOp7
 70
     1
102
RTVSPropertyOp8
 70
     1
102
RTVSPropertyOp9
 70
     1
102
RTVSPropertyOp10
 70
     1
102
RTVSPropertyOp11
 70
     1
102
RTVSPropertyOp12
 70
     1
102
RTVSPropertyOp13
 70
     1
102
RTVSPropertyOp14
 70
     1
102
RTVSPropertyOp15
 70
     1
102
RTVSPropertyOp16
 70
     1
102
RTVSPropertyOp17
 70
     1
102
RTVSPropertyOp18
 70
     1
102
RTVSPropertyOp19
 70
     1
102
RTVSPropertyOp20
 70
     1
102
RTVSPropertyOp21
 70
     1
102
RTVSPropertyOp22
 70
     1
102
RTVSPropertyOp23
 70
     1
102
RTVSPropertyOp24
 70
     1
102
RTVSPropertyOp25
 70
     1
102
RTVSPropertyOp26
 70
     1
102
RTVSPropertyOp27
 70
     1
102
RTVSPropertyOp28
 70
     1
102
RTVSPropertyOp29
 70
     1
102
RTVSPropertyOp30
 70
     1
102
RTVSPropertyOp31
 70
     1
102
RTVSPropertyOp32
 70
     1
  0
XRECORD
  5
17D6
102
{ACAD_REACTORS
330
17D5
102
}
330
17D5
100
AcDbXrecord
280
     1
102
RTVSPropertyOp0
 70
     1
102
RTVSPropertyOp1
 70
     1
102
RTVSPropertyOp2
 70
     1
102
RTVSPropertyOp3
 70
     1
102
RTVSPropertyOp4
 70
     1
102
RTVSPropertyOp5
 70
     1
102
RTVSPropertyOp6
 70
     1
102
RTVSPropertyOp7
 70
     1
102
RTVSPropertyOp8
 70
     1
102
RTVSPropertyOp9
 70
     1
102
RTVSPropertyOp10
 70
     1
102
RTVSPropertyOp11
 70
     1
102
RTVSPropertyOp12
 70
     1
102
RTVSPropertyOp13
 70
     1
102
RTVSPropertyOp14
 70
     1
102
RTVSPropertyOp15
 70
     1
102
RTVSPropertyOp16
 70
     1
102
RTVSPropertyOp17
 70
     1
102
RTVSPropertyOp18
 70
     1
102
RTVSPropertyOp19
 70
     1
102
RTVSPropertyOp20
 70
     1
102
RTVSPropertyOp21
 70
     1
102
RTVSPropertyOp22
 70
     1
102
RTVSPropertyOp23
 70
     1
102
RTVSPropertyOp24
 70
     1
102
RTVSPropertyOp25
 70
     1
102
RTVSPropertyOp26
 70
     1
102
RTVSPropertyOp27
 70
     1
102
RTVSPropertyOp28
 70
     1
102
RTVSPropertyOp29
 70
     1
102
RTVSPropertyOp30
 70
     1
102
RTVSPropertyOp31
 70
     1
102
RTVSPropertyOp32
 70
     1
  0
XRECORD
  5
17F9
102
{ACAD_REACTORS
330
17F8
102
}
330
17F8
100
AcDbXrecord
280
     1
102
RTVSPropertyOp0
 70
     0
102
RTVSPropertyOp1
 70
     0
102
RTVSPropertyOp2
 70
     0
102
RTVSPropertyOp3
 70
     0
102
RTVSPropertyOp4
 70
     0
102
RTVSPropertyOp5
 70
     0
102
RTVSPropertyOp6
 70
     0
102
RTVSPropertyOp7
 70
     0
102
RTVSPropertyOp8
 70
     0
102
RTVSPropertyOp9
 70
     0
102
RTVSPropertyOp10
 70
     0
102
RTVSPropertyOp11
 70
     0
102
RTVSPropertyOp12
 70
     0
102
RTVSPropertyOp13
 70
     0
102
RTVSPropertyOp14
 70
     2
102
RTVSPropertyOp15
 70
     0
102
RTVSPropertyOp16
 70
     0
102
RTVSPropertyOp17
 70
     0
102
RTVSPropertyOp18
 70
     0
102
RTVSPropertyOp19
 70
     0
102
RTVSPropertyOp20
 70
     0
102
RTVSPropertyOp21
 70
     0
102
RTVSPropertyOp22
 70
     0
102
RTVSPropertyOp23
 70
     0
102
RTVSPropertyOp24
 70
     0
102
RTVSPropertyOp25
 70
     0
102
RTVSPropertyOp26
 70
     0
102
RTVSPropertyOp27
 70
     0
102
RTVSPropertyOp28
 70
     0
102
RTVSPropertyOp29
 70
     0
102
RTVSPropertyOp30
 70
     0
102
RTVSPropertyOp31
 70
     0
102
RTVSPropertyOp32
 70
     0
  0
XRECORD
  5
17DE
102
{ACAD_REACTORS
330
17DD
102
}
330
17DD
100
AcDbXrecord
280
     1
102
RTVSPropertyOp0
 70
     1
102
RTVSPropertyOp1
 70
     1
102
RTVSPropertyOp2
 70
     1
102
RTVSPropertyOp3
 70
     1
102
RTVSPropertyOp4
 70
     1
102
RTVSPropertyOp5
 70
     1
102
RTVSPropertyOp6
 70
     1
102
RTVSPropertyOp7
 70
     1
102
RTVSPropertyOp8
 70
     1
102
RTVSPropertyOp9
 70
     1
102
RTVSPropertyOp10
 70
     1
102
RTVSPropertyOp11
 70
     1
102
RTVSPropertyOp12
 70
     1
102
RTVSPropertyOp13
 70
     1
102
RTVSPropertyOp14
 70
     1
102
RTVSPropertyOp15
 70
     1
102
RTVSPropertyOp16
 70
     1
102
RTVSPropertyOp17
 70
     1
102
RTVSPropertyOp18
 70
     1
102
RTVSPropertyOp19
 70
     1
102
RTVSPropertyOp20
 70
     1
102
RTVSPropertyOp21
 70
     1
102
RTVSPropertyOp22
 70
     1
102
RTVSPropertyOp23
 70
     1
102
RTVSPropertyOp24
 70
     1
102
RTVSPropertyOp25
 70
     1
102
RTVSPropertyOp26
 70
     1
102
RTVSPropertyOp27
 70
     1
102
RTVSPropertyOp28
 70
     1
102
RTVSPropertyOp29
 70
     1
102
RTVSPropertyOp30
 70
     1
102
RTVSPropertyOp31
 70
     1
102
RTVSPropertyOp32
 70
     1
  0
XRECORD
  5
17C2
102
{ACAD_REACTORS
330
17C1
102
}
330
17C1
100
AcDbXrecord
280
     1
102
RTVSPropertyOp0
 70
     1
102
RTVSPropertyOp1
 70
     1
102
RTVSPropertyOp2
 70
     1
102
RTVSPropertyOp3
 70
     1
102
RTVSPropertyOp4
 70
     1
102
RTVSPropertyOp5
 70
     1
102
RTVSPropertyOp6
 70
     1
102
RTVSPropertyOp7
 70
     1
102
RTVSPropertyOp8
 70
     1
102
RTVSPropertyOp9
 70
     1
102
RTVSPropertyOp10
 70
     1
102
RTVSPropertyOp11
 70
     1
102
RTVSPropertyOp12
 70
     1
102
RTVSPropertyOp13
 70
     1
102
RTVSPropertyOp14
 70
     1
102
RTVSPropertyOp15
 70
     1
102
RTVSPropertyOp16
 70
     1
102
RTVSPropertyOp17
 70
     1
102
RTVSPropertyOp18
 70
     1
102
RTVSPropertyOp19
 70
     1
102
RTVSPropertyOp20
 70
     1
102
RTVSPropertyOp21
 70
     1
102
RTVSPropertyOp22
 70
     1
102
RTVSPropertyOp23
 70
     1
102
RTVSPropertyOp24
 70
     1
102
RTVSPropertyOp25
 70
     1
102
RTVSPropertyOp26
 70
     1
102
RTVSPropertyOp27
 70
     1
102
RTVSPropertyOp28
 70
     1
102
RTVSPropertyOp29
 70
     1
102
RTVSPropertyOp30
 70
     1
102
RTVSPropertyOp31
 70
     1
102
RTVSPropertyOp32
 70
     1
  0
XRECORD
  5
17C4
102
{ACAD_REACTORS
330
17C3
102
}
330
17C3
100
AcDbXrecord
280
     1
102
RTVSPropertyOp0
 70
     1
102
RTVSPropertyOp1
 70
     1
102
RTVSPropertyOp2
 70
     1
102
RTVSPropertyOp3
 70
     1
102
RTVSPropertyOp4
 70
     1
102
RTVSPropertyOp5
 70
     1
102
RTVSPropertyOp6
 70
     1
102
RTVSPropertyOp7
 70
     1
102
RTVSPropertyOp8
 70
     1
102
RTVSPropertyOp9
 70
     1
102
RTVSPropertyOp10
 70
     1
102
RTVSPropertyOp11
 70
     1
102
RTVSPropertyOp12
 70
     1
102
RTVSPropertyOp13
 70
     1
102
RTVSPropertyOp14
 70
     1
102
RTVSPropertyOp15
 70
     1
102
RTVSPropertyOp16
 70
     1
102
RTVSPropertyOp17
 70
     1
102
RTVSPropertyOp18
 70
     1
102
RTVSPropertyOp19
 70
     1
102
RTVSPropertyOp20
 70
     1
102
RTVSPropertyOp21
 70
     1
102
RTVSPropertyOp22
 70
     1
102
RTVSPropertyOp23
 70
     1
102
RTVSPropertyOp24
 70
     1
102
RTVSPropertyOp25
 70
     1
102
RTVSPropertyOp26
 70
     1
102
RTVSPropertyOp27
 70
     1
102
RTVSPropertyOp28
 70
     1
102
RTVSPropertyOp29
 70
     1
102
RTVSPropertyOp30
 70
     1
102
RTVSPropertyOp31
 70
     1
102
RTVSPropertyOp32
 70
     1
  0
XRECORD
  5
17C6
102
{ACAD_REACTORS
330
17C5
102
}
330
17C5
100
AcDbXrecord
280
     1
102
RTVSPropertyOp0
 70
     1
102
RTVSPropertyOp1
 70
     1
102
RTVSPropertyOp2
 70
     1
102
RTVSPropertyOp3
 70
     1
102
RTVSPropertyOp4
 70
     1
102
RTVSPropertyOp5
 70
     1
102
RTVSPropertyOp6
 70
     1
102
RTVSPropertyOp7
 70
     1
102
RTVSPropertyOp8
 70
     1
102
RTVSPropertyOp9
 70
     1
102
RTVSPropertyOp10
 70
     1
102
RTVSPropertyOp11
 70
     1
102
RTVSPropertyOp12
 70
     1
102
RTVSPropertyOp13
 70
     1
102
RTVSPropertyOp14
 70
     1
102
RTVSPropertyOp15
 70
     1
102
RTVSPropertyOp16
 70
     1
102
RTVSPropertyOp17
 70
     1
102
RTVSPropertyOp18
 70
     1
102
RTVSPropertyOp19
 70
     1
102
RTVSPropertyOp20
 70
     1
102
RTVSPropertyOp21
 70
     1
102
RTVSPropertyOp22
 70
     1
102
RTVSPropertyOp23
 70
     1
102
RTVSPropertyOp24
 70
     1
102
RTVSPropertyOp25
 70
     1
102
RTVSPropertyOp26
 70
     1
102
RTVSPropertyOp27
 70
     1
102
RTVSPropertyOp28
 70
     1
102
RTVSPropertyOp29
 70
     1
102
RTVSPropertyOp30
 70
     1
102
RTVSPropertyOp31
 70
     1
102
RTVSPropertyOp32
 70
     1
  0
XRECORD
  5
17C8
102
{ACAD_REACTORS
330
17C7
102
}
330
17C7
100
AcDbXrecord
280
     1
102
RTVSPropertyOp0
 70
     1
102
RTVSPropertyOp1
 70
     1
102
RTVSPropertyOp2
 70
     1
102
RTVSPropertyOp3
 70
     1
102
RTVSPropertyOp4
 70
     1
102
RTVSPropertyOp5
 70
     1
102
RTVSPropertyOp6
 70
     1
102
RTVSPropertyOp7
 70
     1
102
RTVSPropertyOp8
 70
     1
102
RTVSPropertyOp9
 70
     1
102
RTVSPropertyOp10
 70
     1
102
RTVSPropertyOp11
 70
     1
102
RTVSPropertyOp12
 70
     1
102
RTVSPropertyOp13
 70
     1
102
RTVSPropertyOp14
 70
     1
102
RTVSPropertyOp15
 70
     1
102
RTVSPropertyOp16
 70
     1
102
RTVSPropertyOp17
 70
     1
102
RTVSPropertyOp18
 70
     1
102
RTVSPropertyOp19
 70
     1
102
RTVSPropertyOp20
 70
     1
102
RTVSPropertyOp21
 70
     1
102
RTVSPropertyOp22
 70
     1
102
RTVSPropertyOp23
 70
     1
102
RTVSPropertyOp24
 70
     1
102
RTVSPropertyOp25
 70
     1
102
RTVSPropertyOp26
 70
     1
102
RTVSPropertyOp27
 70
     1
102
RTVSPropertyOp28
 70
     1
102
RTVSPropertyOp29
 70
     1
102
RTVSPropertyOp30
 70
     1
102
RTVSPropertyOp31
 70
     1
102
RTVSPropertyOp32
 70
     1
  0
XRECORD
  5
17E9
102
{ACAD_REACTORS
330
17E8
102
}
330
17E8
100
AcDbXrecord
280
     1
102
RTVSPropertyOp0
 70
     1
102
RTVSPropertyOp1
 70
     1
102
RTVSPropertyOp2
 70
     1
102
RTVSPropertyOp3
 70
     1
102
RTVSPropertyOp4
 70
     1
102
RTVSPropertyOp5
 70
     1
102
RTVSPropertyOp6
 70
     1
102
RTVSPropertyOp7
 70
     1
102
RTVSPropertyOp8
 70
     1
102
RTVSPropertyOp9
 70
     1
102
RTVSPropertyOp10
 70
     1
102
RTVSPropertyOp11
 70
     1
102
RTVSPropertyOp12
 70
     1
102
RTVSPropertyOp13
 70
     1
102
RTVSPropertyOp14
 70
     1
102
RTVSPropertyOp15
 70
     1
102
RTVSPropertyOp16
 70
     1
102
RTVSPropertyOp17
 70
     1
102
RTVSPropertyOp18
 70
     1
102
RTVSPropertyOp19
 70
     1
102
RTVSPropertyOp20
 70
     1
102
RTVSPropertyOp21
 70
     1
102
RTVSPropertyOp22
 70
     1
102
RTVSPropertyOp23
 70
     1
102
RTVSPropertyOp24
 70
     1
102
RTVSPropertyOp25
 70
     1
102
RTVSPropertyOp26
 70
     1
102
RTVSPropertyOp27
 70
     1
102
RTVSPropertyOp28
 70
     1
102
RTVSPropertyOp29
 70
     1
102
RTVSPropertyOp30
 70
     1
102
RTVSPropertyOp31
 70
     1
102
RTVSPropertyOp32
 70
     1
  0
XRECORD
  5
17F5
102
{ACAD_REACTORS
330
17F4
102
}
330
17F4
100
AcDbXrecord
280
     1
102
RTVSPropertyOp0
 70
     0
102
RTVSPropertyOp1
 70
     0
102
RTVSPropertyOp2
 70
     0
102
RTVSPropertyOp3
 70
     0
102
RTVSPropertyOp4
 70
     0
102
RTVSPropertyOp5
 70
     0
102
RTVSPropertyOp6
 70
     0
102
RTVSPropertyOp7
 70
     0
102
RTVSPropertyOp8
 70
     0
102
RTVSPropertyOp9
 70
     0
102
RTVSPropertyOp10
 70
     0
102
RTVSPropertyOp11
 70
     0
102
RTVSPropertyOp12
 70
     0
102
RTVSPropertyOp13
 70
     0
102
RTVSPropertyOp14
 70
     2
102
RTVSPropertyOp15
 70
     0
102
RTVSPropertyOp16
 70
     0
102
RTVSPropertyOp17
 70
     0
102
RTVSPropertyOp18
 70
     0
102
RTVSPropertyOp19
 70
     0
102
RTVSPropertyOp20
 70
     0
102
RTVSPropertyOp21
 70
     0
102
RTVSPropertyOp22
 70
     0
102
RTVSPropertyOp23
 70
     0
102
RTVSPropertyOp24
 70
     0
102
RTVSPropertyOp25
 70
     0
102
RTVSPropertyOp26
 70
     0
102
RTVSPropertyOp27
 70
     0
102
RTVSPropertyOp28
 70
     0
102
RTVSPropertyOp29
 70
     0
102
RTVSPropertyOp30
 70
     0
102
RTVSPropertyOp31
 70
     0
102
RTVSPropertyOp32
 70
     0
  0
XRECORD
  5
17DC
102
{ACAD_REACTORS
330
17DB
102
}
330
17DB
100
AcDbXrecord
280
     1
102
RTVSPropertyOp0
 70
     1
102
RTVSPropertyOp1
 70
     1
102
RTVSPropertyOp2
 70
     1
102
RTVSPropertyOp3
 70
     1
102
RTVSPropertyOp4
 70
     1
102
RTVSPropertyOp5
 70
     1
102
RTVSPropertyOp6
 70
     1
102
RTVSPropertyOp7
 70
     1
102
RTVSPropertyOp8
 70
     1
102
RTVSPropertyOp9
 70
     1
102
RTVSPropertyOp10
 70
     1
102
RTVSPropertyOp11
 70
     1
102
RTVSPropertyOp12
 70
     1
102
RTVSPropertyOp13
 70
     1
102
RTVSPropertyOp14
 70
     1
102
RTVSPropertyOp15
 70
     1
102
RTVSPropertyOp16
 70
     1
102
RTVSPropertyOp17
 70
     1
102
RTVSPropertyOp18
 70
     1
102
RTVSPropertyOp19
 70
     1
102
RTVSPropertyOp20
 70
     1
102
RTVSPropertyOp21
 70
     1
102
RTVSPropertyOp22
 70
     1
102
RTVSPropertyOp23
 70
     1
102
RTVSPropertyOp24
 70
     1
102
RTVSPropertyOp25
 70
     1
102
RTVSPropertyOp26
 70
     1
102
RTVSPropertyOp27
 70
     1
102
RTVSPropertyOp28
 70
     1
102
RTVSPropertyOp29
 70
     1
102
RTVSPropertyOp30
 70
     1
102
RTVSPropertyOp31
 70
     1
102
RTVSPropertyOp32
 70
     1
  0
XRECORD
  5
17F7
102
{ACAD_REACTORS
330
17F6
102
}
330
17F6
100
AcDbXrecord
280
     1
102
RTVSPropertyOp0
 70
     0
102
RTVSPropertyOp1
 70
     0
102
RTVSPropertyOp2
 70
     0
102
RTVSPropertyOp3
 70
     0
102
RTVSPropertyOp4
 70
     0
102
RTVSPropertyOp5
 70
     0
102
RTVSPropertyOp6
 70
     0
102
RTVSPropertyOp7
 70
     0
102
RTVSPropertyOp8
 70
     0
102
RTVSPropertyOp9
 70
     0
102
RTVSPropertyOp10
 70
     0
102
RTVSPropertyOp11
 70
     0
102
RTVSPropertyOp12
 70
     0
102
RTVSPropertyOp13
 70
     0
102
RTVSPropertyOp14
 70
     2
102
RTVSPropertyOp15
 70
     0
102
RTVSPropertyOp16
 70
     0
102
RTVSPropertyOp17
 70
     0
102
RTVSPropertyOp18
 70
     0
102
RTVSPropertyOp19
 70
     0
102
RTVSPropertyOp20
 70
     0
102
RTVSPropertyOp21
 70
     0
102
RTVSPropertyOp22
 70
     0
102
RTVSPropertyOp23
 70
     0
102
RTVSPropertyOp24
 70
     0
102
RTVSPropertyOp25
 70
     0
102
RTVSPropertyOp26
 70
     0
102
RTVSPropertyOp27
 70
     0
102
RTVSPropertyOp28
 70
     0
102
RTVSPropertyOp29
 70
     0
102
RTVSPropertyOp30
 70
     0
102
RTVSPropertyOp31
 70
     0
102
RTVSPropertyOp32
 70
     0
  0
XRECORD
  5
17D4
102
{ACAD_REACTORS
330
17D3
102
}
330
17D3
100
AcDbXrecord
280
     1
102
RTVSPropertyOp0
 70
     1
102
RTVSPropertyOp1
 70
     1
102
RTVSPropertyOp2
 70
     1
102
RTVSPropertyOp3
 70
     1
102
RTVSPropertyOp4
 70
     1
102
RTVSPropertyOp5
 70
     1
102
RTVSPropertyOp6
 70
     1
102
RTVSPropertyOp7
 70
     1
102
RTVSPropertyOp8
 70
     1
102
RTVSPropertyOp9
 70
     1
102
RTVSPropertyOp10
 70
     1
102
RTVSPropertyOp11
 70
     1
102
RTVSPropertyOp12
 70
     1
102
RTVSPropertyOp13
 70
     1
102
RTVSPropertyOp14
 70
     1
102
RTVSPropertyOp15
 70
     1
102
RTVSPropertyOp16
 70
     1
102
RTVSPropertyOp17
 70
     1
102
RTVSPropertyOp18
 70
     1
102
RTVSPropertyOp19
 70
     1
102
RTVSPropertyOp20
 70
     1
102
RTVSPropertyOp21
 70
     1
102
RTVSPropertyOp22
 70
     1
102
RTVSPropertyOp23
 70
     1
102
RTVSPropertyOp24
 70
     1
102
RTVSPropertyOp25
 70
     1
102
RTVSPropertyOp26
 70
     1
102
RTVSPropertyOp27
 70
     1
102
RTVSPropertyOp28
 70
     1
102
RTVSPropertyOp29
 70
     1
102
RTVSPropertyOp30
 70
     1
102
RTVSPropertyOp31
 70
     1
102
RTVSPropertyOp32
 70
     1
  0
XRECORD
  5
17F3
102
{ACAD_REACTORS
330
17F2
102
}
330
17F2
100
AcDbXrecord
280
     1
102
RTVSPropertyOp0
 70
     1
102
RTVSPropertyOp1
 70
     1
102
RTVSPropertyOp2
 70
     1
102
RTVSPropertyOp3
 70
     1
102
RTVSPropertyOp4
 70
     1
102
RTVSPropertyOp5
 70
     1
102
RTVSPropertyOp6
 70
     1
102
RTVSPropertyOp7
 70
     1
102
RTVSPropertyOp8
 70
     1
102
RTVSPropertyOp9
 70
     1
102
RTVSPropertyOp10
 70
     1
102
RTVSPropertyOp11
 70
     1
102
RTVSPropertyOp12
 70
     1
102
RTVSPropertyOp13
 70
     1
102
RTVSPropertyOp14
 70
     1
102
RTVSPropertyOp15
 70
     1
102
RTVSPropertyOp16
 70
     1
102
RTVSPropertyOp17
 70
     1
102
RTVSPropertyOp18
 70
     1
102
RTVSPropertyOp19
 70
     1
102
RTVSPropertyOp20
 70
     1
102
RTVSPropertyOp21
 70
     1
102
RTVSPropertyOp22
 70
     1
102
RTVSPropertyOp23
 70
     1
102
RTVSPropertyOp24
 70
     1
102
RTVSPropertyOp25
 70
     1
102
RTVSPropertyOp26
 70
     1
102
RTVSPropertyOp27
 70
     1
102
RTVSPropertyOp28
 70
     1
102
RTVSPropertyOp29
 70
     1
102
RTVSPropertyOp30
 70
     1
102
RTVSPropertyOp31
 70
     1
102
RTVSPropertyOp32
 70
     1
  0
XRECORD
  5
17F1
102
{ACAD_REACTORS
330
17F0
102
}
330
17F0
100
AcDbXrecord
280
     1
102
RTVSPropertyOp0
 70
     1
102
RTVSPropertyOp1
 70
     1
102
RTVSPropertyOp2
 70
     1
102
RTVSPropertyOp3
 70
     1
102
RTVSPropertyOp4
 70
     1
102
RTVSPropertyOp5
 70
     1
102
RTVSPropertyOp6
 70
     1
102
RTVSPropertyOp7
 70
     1
102
RTVSPropertyOp8
 70
     1
102
RTVSPropertyOp9
 70
     1
102
RTVSPropertyOp10
 70
     1
102
RTVSPropertyOp11
 70
     1
102
RTVSPropertyOp12
 70
     1
102
RTVSPropertyOp13
 70
     1
102
RTVSPropertyOp14
 70
     1
102
RTVSPropertyOp15
 70
     1
102
RTVSPropertyOp16
 70
     1
102
RTVSPropertyOp17
 70
     1
102
RTVSPropertyOp18
 70
     1
102
RTVSPropertyOp19
 70
     1
102
RTVSPropertyOp20
 70
     1
102
RTVSPropertyOp21
 70
     1
102
RTVSPropertyOp22
 70
     1
102
RTVSPropertyOp23
 70
     1
102
RTVSPropertyOp24
 70
     1
102
RTVSPropertyOp25
 70
     1
102
RTVSPropertyOp26
 70
     1
102
RTVSPropertyOp27
 70
     1
102
RTVSPropertyOp28
 70
     1
102
RTVSPropertyOp29
 70
     1
102
RTVSPropertyOp30
 70
     1
102
RTVSPropertyOp31
 70
     1
102
RTVSPropertyOp32
 70
     1
  0
XRECORD
  5
17EB
102
{ACAD_REACTORS
330
17EA
102
}
330
17EA
100
AcDbXrecord
280
     1
102
RTVSPropertyOp0
 70
     1
102
RTVSPropertyOp1
 70
     1
102
RTVSPropertyOp2
 70
     1
102
RTVSPropertyOp3
 70
     1
102
RTVSPropertyOp4
 70
     1
102
RTVSPropertyOp5
 70
     1
102
RTVSPropertyOp6
 70
     1
102
RTVSPropertyOp7
 70
     1
102
RTVSPropertyOp8
 70
     1
102
RTVSPropertyOp9
 70
     1
102
RTVSPropertyOp10
 70
     1
102
RTVSPropertyOp11
 70
     1
102
RTVSPropertyOp12
 70
     1
102
RTVSPropertyOp13
 70
     1
102
RTVSPropertyOp14
 70
     1
102
RTVSPropertyOp15
 70
     1
102
RTVSPropertyOp16
 70
     1
102
RTVSPropertyOp17
 70
     1
102
RTVSPropertyOp18
 70
     1
102
RTVSPropertyOp19
 70
     1
102
RTVSPropertyOp20
 70
     1
102
RTVSPropertyOp21
 70
     1
102
RTVSPropertyOp22
 70
     1
102
RTVSPropertyOp23
 70
     1
102
RTVSPropertyOp24
 70
     1
102
RTVSPropertyOp25
 70
     1
102
RTVSPropertyOp26
 70
     1
102
RTVSPropertyOp27
 70
     1
102
RTVSPropertyOp28
 70
     1
102
RTVSPropertyOp29
 70
     1
102
RTVSPropertyOp30
 70
     1
102
RTVSPropertyOp31
 70
     1
102
RTVSPropertyOp32
 70
     1
  0
XRECORD
  5
17ED
102
{ACAD_REACTORS
330
17EC
102
}
330
17EC
100
AcDbXrecord
280
     1
102
RTVSPropertyOp0
 70
     1
102
RTVSPropertyOp1
 70
     1
102
RTVSPropertyOp2
 70
     1
102
RTVSPropertyOp3
 70
     1
102
RTVSPropertyOp4
 70
     1
102
RTVSPropertyOp5
 70
     1
102
RTVSPropertyOp6
 70
     1
102
RTVSPropertyOp7
 70
     1
102
RTVSPropertyOp8
 70
     1
102
RTVSPropertyOp9
 70
     1
102
RTVSPropertyOp10
 70
     1
102
RTVSPropertyOp11
 70
     1
102
RTVSPropertyOp12
 70
     1
102
RTVSPropertyOp13
 70
     1
102
RTVSPropertyOp14
 70
     1
102
RTVSPropertyOp15
 70
     1
102
RTVSPropertyOp16
 70
     1
102
RTVSPropertyOp17
 70
     1
102
RTVSPropertyOp18
 70
     1
102
RTVSPropertyOp19
 70
     1
102
RTVSPropertyOp20
 70
     1
102
RTVSPropertyOp21
 70
     1
102
RTVSPropertyOp22
 70
     1
102
RTVSPropertyOp23
 70
     1
102
RTVSPropertyOp24
 70
     1
102
RTVSPropertyOp25
 70
     1
102
RTVSPropertyOp26
 70
     1
102
RTVSPropertyOp27
 70
     1
102
RTVSPropertyOp28
 70
     1
102
RTVSPropertyOp29
 70
     1
102
RTVSPropertyOp30
 70
     1
102
RTVSPropertyOp31
 70
     1
102
RTVSPropertyOp32
 70
     1
  0
XRECORD
  5
17DA
102
{ACAD_REACTORS
330
17D9
102
}
330
17D9
100
AcDbXrecord
280
     1
102
RTVSPropertyOp0
 70
     1
102
RTVSPropertyOp1
 70
     1
102
RTVSPropertyOp2
 70
     1
102
RTVSPropertyOp3
 70
     1
102
RTVSPropertyOp4
 70
     1
102
RTVSPropertyOp5
 70
     1
102
RTVSPropertyOp6
 70
     1
102
RTVSPropertyOp7
 70
     1
102
RTVSPropertyOp8
 70
     1
102
RTVSPropertyOp9
 70
     1
102
RTVSPropertyOp10
 70
     1
102
RTVSPropertyOp11
 70
     1
102
RTVSPropertyOp12
 70
     1
102
RTVSPropertyOp13
 70
     1
102
RTVSPropertyOp14
 70
     1
102
RTVSPropertyOp15
 70
     1
102
RTVSPropertyOp16
 70
     1
102
RTVSPropertyOp17
 70
     1
102
RTVSPropertyOp18
 70
     1
102
RTVSPropertyOp19
 70
     1
102
RTVSPropertyOp20
 70
     1
102
RTVSPropertyOp21
 70
     1
102
RTVSPropertyOp22
 70
     1
102
RTVSPropertyOp23
 70
     1
102
RTVSPropertyOp24
 70
     1
102
RTVSPropertyOp25
 70
     1
102
RTVSPropertyOp26
 70
     1
102
RTVSPropertyOp27
 70
     1
102
RTVSPropertyOp28
 70
     1
102
RTVSPropertyOp29
 70
     1
102
RTVSPropertyOp30
 70
     1
102
RTVSPropertyOp31
 70
     1
102
RTVSPropertyOp32
 70
     1
  0
XRECORD
  5
17E7
102
{ACAD_REACTORS
330
17E6
102
}
330
17E6
100
AcDbXrecord
280
     1
102
RTVSPropertyOp0
 70
     1
102
RTVSPropertyOp1
 70
     1
102
RTVSPropertyOp2
 70
     1
102
RTVSPropertyOp3
 70
     1
102
RTVSPropertyOp4
 70
     1
102
RTVSPropertyOp5
 70
     1
102
RTVSPropertyOp6
 70
     1
102
RTVSPropertyOp7
 70
     1
102
RTVSPropertyOp8
 70
     1
102
RTVSPropertyOp9
 70
     1
102
RTVSPropertyOp10
 70
     1
102
RTVSPropertyOp11
 70
     1
102
RTVSPropertyOp12
 70
     1
102
RTVSPropertyOp13
 70
     1
102
RTVSPropertyOp14
 70
     1
102
RTVSPropertyOp15
 70
     1
102
RTVSPropertyOp16
 70
     1
102
RTVSPropertyOp17
 70
     1
102
RTVSPropertyOp18
 70
     1
102
RTVSPropertyOp19
 70
     1
102
RTVSPropertyOp20
 70
     1
102
RTVSPropertyOp21
 70
     1
102
RTVSPropertyOp22
 70
     1
102
RTVSPropertyOp23
 70
     1
102
RTVSPropertyOp24
 70
     1
102
RTVSPropertyOp25
 70
     1
102
RTVSPropertyOp26
 70
     1
102
RTVSPropertyOp27
 70
     1
102
RTVSPropertyOp28
 70
     1
102
RTVSPropertyOp29
 70
     1
102
RTVSPropertyOp30
 70
     1
102
RTVSPropertyOp31
 70
     1
102
RTVSPropertyOp32
 70
     1
  0
XRECORD
  5
17EF
102
{ACAD_REACTORS
330
17EE
102
}
330
17EE
100
AcDbXrecord
280
     1
102
RTVSPropertyOp0
 70
     1
102
RTVSPropertyOp1
 70
     1
102
RTVSPropertyOp2
 70
     1
102
RTVSPropertyOp3
 70
     1
102
RTVSPropertyOp4
 70
     1
102
RTVSPropertyOp5
 70
     1
102
RTVSPropertyOp6
 70
     1
102
RTVSPropertyOp7
 70
     1
102
RTVSPropertyOp8
 70
     1
102
RTVSPropertyOp9
 70
     1
102
RTVSPropertyOp10
 70
     1
102
RTVSPropertyOp11
 70
     1
102
RTVSPropertyOp12
 70
     1
102
RTVSPropertyOp13
 70
     1
102
RTVSPropertyOp14
 70
     1
102
RTVSPropertyOp15
 70
     1
102
RTVSPropertyOp16
 70
     1
102
RTVSPropertyOp17
 70
     1
102
RTVSPropertyOp18
 70
     1
102
RTVSPropertyOp19
 70
     1
102
RTVSPropertyOp20
 70
     1
102
RTVSPropertyOp21
 70
     1
102
RTVSPropertyOp22
 70
     1
102
RTVSPropertyOp23
 70
     1
102
RTVSPropertyOp24
 70
     1
102
RTVSPropertyOp25
 70
     1
102
RTVSPropertyOp26
 70
     1
102
RTVSPropertyOp27
 70
     1
102
RTVSPropertyOp28
 70
     1
102
RTVSPropertyOp29
 70
     1
102
RTVSPropertyOp30
 70
     1
102
RTVSPropertyOp31
 70
     1
102
RTVSPropertyOp32
 70
     1
  0
ENDSEC
  0
EOF
