  0
SECTION
  2
HEADER
  9
$ACADVER
  1
AC1015
  9
$ACADMAINTVER
 70
    20
  9
$DWGCODEPAGE
  3
ANSI_932
  9
$INSBASE
 10
0.0
 20
0.0
 30
0.0
  9
$EXTMIN
 10
-124.638888
 20
-1131.497328987662
 30
0.0
  9
$EXTMAX
 10
735.1491821189199
 20
-837.4637990305952
 30
0.0
  9
$LIMMIN
 10
-109.639885
 20
-1126.350121
  9
$LIMMAX
 10
280.387963
 20
-852.2718269999996
  9
$ORTHOMODE
 70
     0
  9
$REGENMODE
 70
     1
  9
$FILLMODE
 70
     1
  9
$QTEXTMODE
 70
     0
  9
$MIRRTEXT
 70
     0
  9
$LTSCALE
 40
6.500430999999997
  9
$ATTMODE
 70
     1
  9
$TEXTSIZE
 40
3.2
  9
$TRACEWID
 40
0.05
  9
$TEXTSTYLE
  7
高3.2
  9
$CLAYER
  8
0
  9
$CELTYPE
  6
CONTINUOUS
  9
$CECOLOR
 62
   256
  9
$CELTSCALE
 40
1.0
  9
$DISPSILH
 70
     0
  9
$DIMSCALE
 40
1.0
  9
$DIMASZ
 40
2.5
  9
$DIMEXO
 40
0.25
  9
$DIMDLI
 40
0.2
  9
$DIMRND
 40
0.0
  9
$DIMDLE
 40
0.0
  9
$DIMEXE
 40
1.25
  9
$DIMTP
 40
0.0
  9
$DIMTM
 40
0.0
  9
$DIMTXT
 40
3.0
  9
$DIMCEN
 40
0.0
  9
$DIMTSZ
 40
0.0
  9
$DIMTOL
 70
     0
  9
$DIMLIM
 70
     0
  9
$DIMTIH
 70
     0
  9
$DIMTOH
 70
     0
  9
$DIMSE1
 70
     0
  9
$DIMSE2
 70
     0
  9
$DIMTAD
 70
     3
  9
$DIMZIN
 70
     8
  9
$DIMBLK
  1
Open30
  9
$DIMASO
 70
     1
  9
$DIMSHO
 70
     1
  9
$DIMPOST
  1

  9
$DIMAPOST
  1

  9
$DIMALT
 70
     0
  9
$DIMALTD
 70
     3
  9
$DIMALTF
 40
0.03937007874016
  9
$DIMLFAC
 40
1.0
  9
$DIMTOFL
 70
     1
  9
$DIMTVP
 40
0.0
  9
$DIMTIX
 70
     0
  9
$DIMSOXD
 70
     0
  9
$DIMSAH
 70
     0
  9
$DIMBLK1
  1

  9
$DIMBLK2
  1

  9
$DIMSTYLE
  2
FREE
  9
$DIMCLRD
 70
     0
  9
$DIMCLRE
 70
     0
  9
$DIMCLRT
 70
     4
  9
$DIMTFAC
 40
1.0
  9
$DIMGAP
 40
0.625
  9
$DIMJUST
 70
     0
  9
$DIMSD1
 70
     0
  9
$DIMSD2
 70
     0
  9
$DIMTOLJ
 70
     0
  9
$DIMTZIN
 70
     8
  9
$DIMALTZ
 70
     0
  9
$DIMALTTZ
 70
     0
  9
$DIMUPT
 70
     1
  9
$DIMDEC
 70
     2
  9
$DIMTDEC
 70
     2
  9
$DIMALTU
 70
     2
  9
$DIMALTTD
 70
     3
  9
$DIMTXSTY
  7
STANDARD
  9
$DIMAUNIT
 70
     0
  9
$DIMADEC
 70
     1
  9
$DIMALTRND
 40
0.0
  9
$DIMAZIN
 70
     2
  9
$DIMDSEP
 70
    46
  9
$DIMATFIT
 70
     0
  9
$DIMFRAC
 70
     0
  9
$DIMLDRBLK
  1
Open30
  9
$DIMLUNIT
 70
     2
  9
$DIMLWD
 70
    -2
  9
$DIMLWE
 70
    -2
  9
$DIMTMOVE
 70
     0
  9
$LUNITS
 70
     2
  9
$LUPREC
 70
     4
  9
$SKETCHINC
 40
0.1
  9
$FILLETRAD
 40
0.0
  9
$AUNITS
 70
     0
  9
$AUPREC
 70
     0
  9
$MENU
  1
.
  9
$ELEVATION
 40
0.0
  9
$PELEVATION
 40
0.0
  9
$THICKNESS
 40
0.0
  9
$LIMCHECK
 70
     0
  9
$CHAMFERA
 40
0.0
  9
$CHAMFERB
 40
0.0
  9
$CHAMFERC
 40
0.0
  9
$CHAMFERD
 40
0.0
  9
$SKPOLY
 70
     0
  9
$TDCREATE
 40
2455825.667619352
  9
$TDUCREATE
 40
2455825.292619352
  9
$TDUPDATE
 40
2458541.845476701
  9
$TDUUPDATE
 40
2458541.470476701
  9
$TDINDWG
 40
0.2202474769
  9
$TDUSRTIMER
 40
0.2202474190
  9
$USRTIMER
 70
     1
  9
$ANGBASE
 50
0.0
  9
$ANGDIR
 70
     0
  9
$PDMODE
 70
     0
  9
$PDSIZE
 40
0.0
  9
$PLINEWID
 40
0.0
  9
$SPLFRAME
 70
     0
  9
$SPLINETYPE
 70
     6
  9
$SPLINESEGS
 70
     8
  9
$HANDSEED
  5
F9B
  9
$SURFTAB1
 70
     6
  9
$SURFTAB2
 70
     6
  9
$SURFTYPE
 70
     6
  9
$SURFU
 70
     6
  9
$SURFV
 70
     6
  9
$UCSBASE
  2

  9
$UCSNAME
  2

  9
$UCSORG
 10
0.0
 20
0.0
 30
0.0
  9
$UCSXDIR
 10
1.0
 20
0.0
 30
0.0
  9
$UCSYDIR
 10
0.0
 20
1.0
 30
0.0
  9
$UCSORTHOREF
  2

  9
$UCSORTHOVIEW
 70
     0
  9
$UCSORGTOP
 10
0.0
 20
0.0
 30
0.0
  9
$UCSORGBOTTOM
 10
0.0
 20
0.0
 30
0.0
  9
$UCSORGLEFT
 10
0.0
 20
0.0
 30
0.0
  9
$UCSORGRIGHT
 10
0.0
 20
0.0
 30
0.0
  9
$UCSORGFRONT
 10
0.0
 20
0.0
 30
0.0
  9
$UCSORGBACK
 10
0.0
 20
0.0
 30
0.0
  9
$PUCSBASE
  2

  9
$PUCSNAME
  2

  9
$PUCSORG
 10
0.0
 20
0.0
 30
0.0
  9
$PUCSXDIR
 10
1.0
 20
0.0
 30
0.0
  9
$PUCSYDIR
 10
0.0
 20
1.0
 30
0.0
  9
$PUCSORTHOREF
  2

  9
$PUCSORTHOVIEW
 70
     0
  9
$PUCSORGTOP
 10
0.0
 20
0.0
 30
0.0
  9
$PUCSORGBOTTOM
 10
0.0
 20
0.0
 30
0.0
  9
$PUCSORGLEFT
 10
0.0
 20
0.0
 30
0.0
  9
$PUCSORGRIGHT
 10
0.0
 20
0.0
 30
0.0
  9
$PUCSORGFRONT
 10
0.0
 20
0.0
 30
0.0
  9
$PUCSORGBACK
 10
0.0
 20
0.0
 30
0.0
  9
$USERI1
 70
     0
  9
$USERI2
 70
     0
  9
$USERI3
 70
     0
  9
$USERI4
 70
     0
  9
$USERI5
 70
     0
  9
$USERR1
 40
0.0
  9
$USERR2
 40
0.0
  9
$USERR3
 40
0.0
  9
$USERR4
 40
0.0
  9
$USERR5
 40
0.0
  9
$WORLDVIEW
 70
     1
  9
$SHADEDGE
 70
     3
  9
$SHADEDIF
 70
    70
  9
$TILEMODE
 70
     1
  9
$MAXACTVP
 70
    64
  9
$PINSBASE
 10
0.0
 20
0.0
 30
0.0
  9
$PLIMCHECK
 70
     0
  9
$PEXTMIN
 10
1.000000000000000E+20
 20
1.000000000000000E+20
 30
1.000000000000000E+20
  9
$PEXTMAX
 10
-1.000000000000000E+20
 20
-1.000000000000000E+20
 30
-1.000000000000000E+20
  9
$PLIMMIN
 10
0.0
 20
0.0
  9
$PLIMMAX
 10
12.0
 20
9.0
  9
$UNITMODE
 70
     0
  9
$VISRETAIN
 70
     1
  9
$PLINEGEN
 70
     0
  9
$PSLTSCALE
 70
     1
  9
$TREEDEPTH
 70
  3020
  9
$CMLSTYLE
  2
Standard
  9
$CMLJUST
 70
     0
  9
$CMLSCALE
 40
1.0
  9
$PROXYGRAPHICS
 70
     1
  9
$MEASUREMENT
 70
     0
  9
$CELWEIGHT
370
    -1
  9
$ENDCAPS
280
     0
  9
$JOINSTYLE
280
     0
  9
$LWDISPLAY
290
     0
  9
$INSUNITS
 70
     0
  9
$HYPERLINKBASE
  1

  9
$STYLESHEET
  1

  9
$XEDIT
290
     1
  9
$CEPSNTYPE
380
     0
  9
$PSTYLEMODE
290
     1
  9
$FINGERPRINTGUID
  2
{20BB005F-0F18-4713-AD67-42C9B0FE8F69}
  9
$VERSIONGUID
  2
{0F0D85EE-5A7F-473A-AF42-47553E4B708D}
  9
$EXTNAMES
290
     1
  9
$PSVPSCALE
 40
0.0
  9
$OLESTARTUP
290
     0
  0
ENDSEC
  0
SECTION
  2
CLASSES
  0
CLASS
  1
ACDBDICTIONARYWDFLT
  2
AcDbDictionaryWithDefault
  3
ObjectDBX Classes
 90
        0
280
     0
281
     0
  0
CLASS
  1
MATERIAL
  2
AcDbMaterial
  3
ObjectDBX Classes
 90
     1153
280
     0
281
     0
  0
CLASS
  1
VISUALSTYLE
  2
AcDbVisualStyle
  3
ObjectDBX Classes
 90
     4095
280
     0
281
     0
  0
CLASS
  1
TABLESTYLE
  2
AcDbTableStyle
  3
ObjectDBX Classes
 90
     4095
280
     0
281
     0
  0
CLASS
  1
DICTIONARYVAR
  2
AcDbDictionaryVar
  3
ObjectDBX Classes
 90
        0
280
     0
281
     0
  0
CLASS
  1
ACDBPLACEHOLDER
  2
AcDbPlaceHolder
  3
ObjectDBX Classes
 90
        0
280
     0
281
     0
  0
CLASS
  1
LAYOUT
  2
AcDbLayout
  3
ObjectDBX Classes
 90
        0
280
     0
281
     0
  0
CLASS
  1
SCALE
  2
AcDbScale
  3
ObjectDBX Classes
 90
     1153
280
     0
281
     0
  0
CLASS
  1
MLEADERSTYLE
  2
AcDbMLeaderStyle
  3
ACDB_MLEADERSTYLE_CLASS
 90
     4095
280
     0
281
     0
  0
CLASS
  1
SORTENTSTABLE
  2
AcDbSortentsTable
  3
ObjectDBX Classes
 90
        0
280
     0
281
     0
  0
CLASS
  1
CELLSTYLEMAP
  2
AcDbCellStyleMap
  3
ObjectDBX Classes
 90
     1152
280
     0
281
     0
  0
CLASS
  1
AEC_REFEDIT_STATUS_TRACKER
  2
AecDbRefEditStatusTracker
  3
AecArchBase60|Product Desc: Autodesk Architectural Desktop 2007 |Company: Autodesk,Inc. |WEB Address: www.autodesk.com
 90
      129
280
     0
281
     0
  0
CLASS
  1
NPOCOLLECTION
  2
AcDbImpNonPersistentObjectsCollection
  3
ObjectDBX Classes
 90
     1153
280
     0
281
     0
  0
ENDSEC
  0
SECTION
  2
TABLES
  0
TABLE
  2
VPORT
  5
8
330
0
100
AcDbSymbolTable
 70
     1
  0
VPORT
  5
57
330
8
100
AcDbSymbolTableRecord
100
AcDbViewportTableRecord
  2
*Active
 70
     0
 10
0.0
 20
0.0
 11
1.0
 21
1.0
 12
124.6053164121597
 22
-1033.987025396329
 13
0.0
 23
0.0
 14
1.0
 24
1.0
 15
0.0
 25
0.0
 16
0.0
 26
0.0
 36
1.0
 17
0.0
 27
0.0
 37
0.0
 40
608.5331858614741
 41
1.75
 42
50.0
 43
0.0
 44
0.0
 50
0.0
 51
0.0
 71
     0
 72
   100
 73
     1
 74
     1
 75
     0
 76
     0
 77
     0
 78
     0
281
     0
 65
     1
110
0.0
120
0.0
130
0.0
111
1.0
121
0.0
131
0.0
112
0.0
122
1.0
132
0.0
 79
     0
146
0.0
  0
ENDTAB
  0
TABLE
  2
LTYPE
  5
5
330
0
100
AcDbSymbolTable
 70
     3
  0
LTYPE
  5
28
330
5
100
AcDbSymbolTableRecord
100
AcDbLinetypeTableRecord
  2
ByBlock
 70
     0
  3

 72
    65
 73
     0
 40
0.0
  0
LTYPE
  5
29
330
5
100
AcDbSymbolTableRecord
100
AcDbLinetypeTableRecord
  2
ByLayer
 70
     0
  3

 72
    65
 73
     0
 40
0.0
  0
LTYPE
  5
2A
330
5
100
AcDbSymbolTableRecord
100
AcDbLinetypeTableRecord
  2
CONTINUOUS
 70
     0
  3
Solid-line
 72
    65
 73
     0
 40
0.0
  0
LTYPE
  5
3D
330
5
100
AcDbSymbolTableRecord
100
AcDbLinetypeTableRecord
  2
CENTER
 70
     0
  3
CENTER
 72
    65
 73
     4
 40
2.0
 49
1.25
 74
     0
 49
-0.25
 74
     0
 49
0.25
 74
     0
 49
-0.25
 74
     0
  0
ENDTAB
  0
TABLE
  2
LAYER
  5
2
102
{ACAD_XDICTIONARY
360
42A
102
}
330
0
100
AcDbSymbolTable
 70
     2
  0
LAYER
  5
25
102
{ACAD_XDICTIONARY
360
5FF
102
}
330
2
100
AcDbSymbolTableRecord
100
AcDbLayerTableRecord
  2
0
 70
     0
 62
     7
  6
CONTINUOUS
370
    -3
390
F
  0
LAYER
  5
414
330
2
100
AcDbSymbolTableRecord
100
AcDbLayerTableRecord
  2
Defpoints
 70
     0
 62
     7
  6
CONTINUOUS
290
     0
370
    -3
390
F
  0
ENDTAB
  0
TABLE
  2
STYLE
  5
3
330
0
100
AcDbSymbolTable
 70
     6
  0
STYLE
  5
26
330
3
100
AcDbSymbolTableRecord
100
AcDbTextStyleTableRecord
  2
STANDARD
 70
     0
 40
0.0
 41
1.0
 50
0.0
 71
     0
 42
0.2
  3
TXT
  4
BIGFONT
  0
STYLE
  5
415
330
3
100
AcDbSymbolTableRecord
100
AcDbTextStyleTableRecord
  2
高3.2
 70
     0
 40
3.2
 41
1.0
 50
0.0
 71
     0
 42
3.2
  3
txt.shx
  4
bigfont.shx
  0
STYLE
  5
416
330
3
100
AcDbSymbolTableRecord
100
AcDbTextStyleTableRecord
  2
高6.3
 70
     0
 40
6.299999999999998
 41
1.0
 50
0.0
 71
     0
 42
6.299999999999998
  3
txt.shx
  4
bigfont.shx
  0
STYLE
  5
418
330
3
100
AcDbSymbolTableRecord
100
AcDbTextStyleTableRecord
  2
高4.5
 70
     0
 40
4.5
 41
1.0
 50
0.0
 71
     0
 42
6.299999999999998
  3
txt.shx
  4
bigfont.shx
  0
STYLE
  5
419
330
3
100
AcDbSymbolTableRecord
100
AcDbTextStyleTableRecord
  2
高2
 70
     0
 40
2.0
 41
1.0
 50
0.0
 71
     0
 42
2.0
  3
txt.shx
  4
bigfont.shx
  0
STYLE
  5
851
330
3
100
AcDbSymbolTableRecord
100
AcDbTextStyleTableRecord
  2
高2.5
 70
     0
 40
2.5
 41
1.0
 50
0.0
 71
     0
 42
0.2
  3
txt.shx
  4
bigfont.shx
  0
ENDTAB
  0
TABLE
  2
VIEW
  5
6
330
0
100
AcDbSymbolTable
 70
     0
  0
ENDTAB
  0
TABLE
  2
UCS
  5
7
330
0
100
AcDbSymbolTable
 70
     0
  0
ENDTAB
  0
TABLE
  2
APPID
  5
9
330
0
100
AcDbSymbolTable
 70
    10
  0
APPID
  5
27
330
9
100
AcDbSymbolTableRecord
100
AcDbRegAppTableRecord
  2
ACAD
 70
     0
  0
APPID
  5
424
330
9
100
AcDbSymbolTableRecord
100
AcDbRegAppTableRecord
  2
ACAD_DSTYLE_DIMJOGGED_JOGANGLE_SYMBOL
 70
     0
  0
APPID
  5
425
330
9
100
AcDbSymbolTableRecord
100
AcDbRegAppTableRecord
  2
ACAD_DSTYLE_DIMJAG
 70
     0
  0
APPID
  5
426
330
9
100
AcDbSymbolTableRecord
100
AcDbRegAppTableRecord
  2
ACAD_DSTYLE_DIMBREAK
 70
     0
  0
APPID
  5
427
330
9
100
AcDbSymbolTableRecord
100
AcDbRegAppTableRecord
  2
ACAD_DSTYLE_DIMTALN
 70
     0
  0
APPID
  5
571
330
9
100
AcDbSymbolTableRecord
100
AcDbRegAppTableRecord
  2
ACAD_EXEMPT_FROM_CAD_STANDARDS
 70
     0
  0
APPID
  5
5D5
330
9
100
AcDbSymbolTableRecord
100
AcDbRegAppTableRecord
  2
ACAD_PSEXT
 70
     0
  0
APPID
  5
645
330
9
100
AcDbSymbolTableRecord
100
AcDbRegAppTableRecord
  2
ACAD_MLEADERVER
 70
     0
  0
APPID
  5
646
330
9
100
AcDbSymbolTableRecord
100
AcDbRegAppTableRecord
  2
ACAD_DSTYLE_DIMARC_LENGTH_SYMBOL
 70
     0
  0
APPID
  5
647
330
9
100
AcDbSymbolTableRecord
100
AcDbRegAppTableRecord
  2
ACAD_DSTYLE_DIMEXT_LENGTH
 70
     0
  0
ENDTAB
  0
TABLE
  2
DIMSTYLE
  5
A
330
0
100
AcDbSymbolTable
 70
     3
100
AcDbDimStyleTable
 71
     2
340
423
340
342
  0
DIMSTYLE
105
342
330
A
100
AcDbSymbolTableRecord
100
AcDbDimStyleTableRecord
  2
Standard
 70
     0
340
26
  0
DIMSTYLE
105
423
330
A
100
AcDbSymbolTableRecord
100
AcDbDimStyleTableRecord
  2
FREE
 70
     0
 41
2.5
 42
0.25
 43
0.2
 44
1.25
 73
     0
 74
     0
 77
     3
 78
     8
 79
     2
140
3.0
141
0.0
143
0.03937007874016
147
0.625
171
     3
172
     1
178
     4
179
     1
271
     2
272
     2
274
     3
283
     0
284
     8
288
     1
289
     0
340
26
341
384
342
384
1001
ACAD_DSTYLE_DIMBREAK
1070
   391
1040
3.75
1001
ACAD_DSTYLE_DIMJAG
1070
   388
1040
1.5
1001
ACAD_DSTYLE_DIMTALN
1070
   392
1070
     0
1001
ACAD_DSTYLE_DIMARC_LENGTH_SYMBOL
1070
   379
1070
     2
1001
ACAD_DSTYLE_DIMEXT_LENGTH
1070
   378
1040
1.25
1001
ACAD_DSTYLE_DIMJOGGED_JOGANGLE_SYMBOL
1070
   384
1040
1.570796326794896
  0
DIMSTYLE
105
852
102
{ACAD_REACTORS
330
AB3
330
AB4
102
}
330
A
100
AcDbSymbolTableRecord
100
AcDbDimStyleTableRecord
  2
1／2
 70
     0
 41
2.5
 42
0.25
 43
0.2
 44
1.25
 73
     0
 74
     0
 77
     3
 78
     8
 79
     2
140
3.0
141
0.0
143
0.03937007874016
144
2.0
147
0.625
171
     3
172
     1
178
     4
179
     1
271
     2
272
     2
274
     3
283
     0
284
     8
288
     1
289
     0
340
26
341
384
342
384
1001
ACAD_DSTYLE_DIMARC_LENGTH_SYMBOL
1070
   379
1070
     2
1001
ACAD_DSTYLE_DIMEXT_LENGTH
1070
   378
1040
1.25
1001
ACAD_DSTYLE_DIMJOGGED_JOGANGLE_SYMBOL
1070
   384
1040
1.570796326794896
  0
ENDTAB
  0
TABLE
  2
BLOCK_RECORD
  5
1
330
0
100
AcDbSymbolTable
 70
    18
  0
BLOCK_RECORD
  5
36
102
{ACAD_XDICTIONARY
360
5BC
102
}
330
1
100
AcDbSymbolTableRecord
100
AcDbBlockTableRecord
  2
*Model_Space
340
39
  0
BLOCK_RECORD
  5
32
330
1
100
AcDbSymbolTableRecord
100
AcDbBlockTableRecord
  2
*Paper_Space
340
35
  0
BLOCK_RECORD
  5
384
330
1
100
AcDbSymbolTableRecord
100
AcDbBlockTableRecord
  2
_Open30
340
0
102
{BLKREFS
331
7F2
331
7F3
331
7FB
331
7FC
331
804
331
805
331
83A
331
83B
331
846
331
847
331
814
331
815
331
82C
331
82D
331
820
331
821
331
D79
331
D7A
331
D82
331
D83
331
D8B
331
D8C
331
D94
331
D95
331
D9D
331
D9E
331
E2D
331
E2E
331
E36
331
E37
102
}
  0
BLOCK_RECORD
  5
573
330
1
100
AcDbSymbolTableRecord
100
AcDbBlockTableRecord
  2
*D1
340
0
  0
BLOCK_RECORD
  5
580
330
1
100
AcDbSymbolTableRecord
100
AcDbBlockTableRecord
  2
*D2
340
0
  0
BLOCK_RECORD
  5
58D
330
1
100
AcDbSymbolTableRecord
100
AcDbBlockTableRecord
  2
*D3
340
0
  0
BLOCK_RECORD
  5
80F
330
1
100
AcDbSymbolTableRecord
100
AcDbBlockTableRecord
  2
*D4
340
0
  0
BLOCK_RECORD
  5
81B
330
1
100
AcDbSymbolTableRecord
100
AcDbBlockTableRecord
  2
*D5
340
0
  0
BLOCK_RECORD
  5
827
330
1
100
AcDbSymbolTableRecord
100
AcDbBlockTableRecord
  2
*D6
340
0
  0
BLOCK_RECORD
  5
833
330
1
100
AcDbSymbolTableRecord
100
AcDbBlockTableRecord
  2
*D7
340
0
  0
BLOCK_RECORD
  5
841
330
1
100
AcDbSymbolTableRecord
100
AcDbBlockTableRecord
  2
*D8
340
0
  0
BLOCK_RECORD
  5
84D
330
1
100
AcDbSymbolTableRecord
100
AcDbBlockTableRecord
  2
_DotSmall
340
0
  0
BLOCK_RECORD
  5
D36
330
1
100
AcDbSymbolTableRecord
100
AcDbBlockTableRecord
  2
*D11
340
0
  0
BLOCK_RECORD
  5
D44
330
1
100
AcDbSymbolTableRecord
100
AcDbBlockTableRecord
  2
*D12
340
0
  0
BLOCK_RECORD
  5
D50
330
1
100
AcDbSymbolTableRecord
100
AcDbBlockTableRecord
  2
*D13
340
0
  0
BLOCK_RECORD
  5
D5C
330
1
100
AcDbSymbolTableRecord
100
AcDbBlockTableRecord
  2
*D14
340
0
  0
BLOCK_RECORD
  5
D68
330
1
100
AcDbSymbolTableRecord
100
AcDbBlockTableRecord
  2
*D15
340
0
  0
BLOCK_RECORD
  5
E0E
330
1
100
AcDbSymbolTableRecord
100
AcDbBlockTableRecord
  2
*D16
340
0
  0
BLOCK_RECORD
  5
E1C
330
1
100
AcDbSymbolTableRecord
100
AcDbBlockTableRecord
  2
*D17
340
0
  0
ENDTAB
  0
ENDSEC
  0
SECTION
  2
BLOCKS
  0
BLOCK
  5
37
330
36
100
AcDbEntity
  8
0
100
AcDbBlockBegin
  2
*Model_Space
 70
     0
 10
0.0
 20
0.0
 30
0.0
  3
*Model_Space
  1

  0
ENDBLK
  5
38
330
36
100
AcDbEntity
  8
0
100
AcDbBlockEnd
  0
BLOCK
  5
33
330
32
100
AcDbEntity
 67
     1
  8
0
100
AcDbBlockBegin
  2
*Paper_Space
 70
     0
 10
0.0
 20
0.0
 30
0.0
  3
*Paper_Space
  1

  0
ENDBLK
  5
34
330
32
100
AcDbEntity
 67
     1
  8
0
100
AcDbBlockEnd
  0
BLOCK
  5
385
330
384
100
AcDbEntity
  8
0
100
AcDbBlockBegin
  2
_Open30
 70
     0
 10
0.0
 20
0.0
 30
0.0
  3
_Open30
  1

  0
LINE
  5
386
330
384
100
AcDbEntity
  8
0
  6
ByBlock
 62
     0
370
    -2
100
AcDbLine
 10
-1.0
 20
0.267949
 30
0.0
 11
0.0
 21
0.0
 31
0.0
  0
LINE
  5
387
330
384
100
AcDbEntity
  8
0
  6
ByBlock
 62
     0
370
    -2
100
AcDbLine
 10
0.0
 20
0.0
 30
0.0
 11
-1.0
 21
-0.267949
 31
0.0
  0
LINE
  5
388
330
384
100
AcDbEntity
  8
0
  6
ByBlock
 62
     0
370
    -2
100
AcDbLine
 10
0.0
 20
0.0
 30
0.0
 11
-1.0
 21
0.0
 31
0.0
  0
ENDBLK
  5
389
330
384
100
AcDbEntity
  8
0
100
AcDbBlockEnd
  0
BLOCK
  5
574
330
573
100
AcDbEntity
  8
0
100
AcDbBlockBegin
  2
*D1
 70
     1
 10
0.0
 20
0.0
 30
0.0
  3
*D1
  1

  0
LINE
  5
801
330
573
100
AcDbEntity
  8
0
 62
     0
370
    -2
100
AcDbLine
 10
54.444159
 20
-973.3392509999999
 30
0.0
 11
54.444159
 21
-992.200595
 31
0.0
  0
LINE
  5
802
330
573
100
AcDbEntity
  8
0
 62
     0
370
    -2
100
AcDbLine
 10
199.381659
 20
-979.339251
 30
0.0
 11
199.381659
 21
-992.200595
 31
0.0
  0
LINE
  5
803
330
573
100
AcDbEntity
  8
0
 62
     0
370
    -2
100
AcDbLine
 10
56.944159
 20
-990.9505949999999
 30
0.0
 11
196.881659
 21
-990.9505949999999
 31
0.0
  0
INSERT
  5
804
330
573
100
AcDbEntity
  8
0
 62
     0
370
    -2
100
AcDbBlockReference
  2
_Open30
 10
54.444159
 20
-990.9505949999999
 30
0.0
 41
2.5
 42
2.5
 43
2.5
 50
180.0
  0
INSERT
  5
805
330
573
100
AcDbEntity
  8
0
 62
     0
370
    -2
100
AcDbBlockReference
  2
_Open30
 10
199.381659
 20
-990.9505949999999
 30
0.0
 41
2.5
 42
2.5
 43
2.5
  0
MTEXT
  5
806
330
573
100
AcDbEntity
  8
0
 62
     4
100
AcDbMText
 10
126.912909
 20
-988.8255949999999
 30
0.0
 40
3.0
 41
0.0
 71
     5
 72
     1
  1
290
 73
     1
 44
1.0
1001
ACAD
1000
MTEXTBEGIN
1070
    73
1070
     1
1070
    44
1040
1.0
1070
    74
1070
     0
1000
MTEXTEND
  0
POINT
  5
807
330
573
100
AcDbEntity
  8
Defpoints
 62
     0
100
AcDbPoint
 10
54.444159
 20
-973.089251
 30
0.0
  0
POINT
  5
808
330
573
100
AcDbEntity
  8
Defpoints
 62
     0
100
AcDbPoint
 10
199.381659
 20
-979.089251
 30
0.0
  0
POINT
  5
809
330
573
100
AcDbEntity
  8
Defpoints
 62
     0
100
AcDbPoint
 10
199.381659
 20
-990.9505949999999
 30
0.0
  0
ENDBLK
  5
575
330
573
100
AcDbEntity
  8
0
100
AcDbBlockEnd
  0
BLOCK
  5
581
330
580
100
AcDbEntity
  8
0
100
AcDbBlockBegin
  2
*D2
 70
     1
 10
0.0
 20
0.0
 30
0.0
  3
*D2
  1

  0
LINE
  5
7EF
330
580
100
AcDbEntity
  8
0
 62
     0
370
    -2
100
AcDbLine
 10
-67.64934100000001
 20
-979.339251
 30
0.0
 11
-67.64934100000001
 21
-992.711165
 31
0.0
  0
LINE
  5
7F0
330
580
100
AcDbEntity
  8
0
 62
     0
370
    -2
100
AcDbLine
 10
22.350659
 20
-979.339251
 30
0.0
 11
22.350659
 21
-992.711165
 31
0.0
  0
LINE
  5
7F1
330
580
100
AcDbEntity
  8
0
 62
     0
370
    -2
100
AcDbLine
 10
-65.14934100000001
 20
-991.4611650000001
 30
0.0
 11
19.850659
 21
-991.4611650000001
 31
0.0
  0
INSERT
  5
7F2
330
580
100
AcDbEntity
  8
0
 62
     0
370
    -2
100
AcDbBlockReference
  2
_Open30
 10
-67.64934100000001
 20
-991.4611650000001
 30
0.0
 41
2.5
 42
2.5
 43
2.5
 50
180.0
  0
INSERT
  5
7F3
330
580
100
AcDbEntity
  8
0
 62
     0
370
    -2
100
AcDbBlockReference
  2
_Open30
 10
22.350659
 20
-991.4611650000001
 30
0.0
 41
2.5
 42
2.5
 43
2.5
  0
MTEXT
  5
7F4
330
580
100
AcDbEntity
  8
0
 62
     4
100
AcDbMText
 10
-22.649341
 20
-989.3361650000001
 30
0.0
 40
3.0
 41
0.0
 71
     5
 72
     1
  1
190
 73
     1
 44
1.0
1001
ACAD
1000
MTEXTBEGIN
1070
    73
1070
     1
1070
    44
1040
1.0
1070
    74
1070
     0
1000
MTEXTEND
  0
POINT
  5
7F5
330
580
100
AcDbEntity
  8
Defpoints
 62
     0
100
AcDbPoint
 10
-67.64934100000001
 20
-979.089251
 30
0.0
  0
POINT
  5
7F6
330
580
100
AcDbEntity
  8
Defpoints
 62
     0
100
AcDbPoint
 10
22.350659
 20
-979.089251
 30
0.0
  0
POINT
  5
7F7
330
580
100
AcDbEntity
  8
Defpoints
 62
     0
100
AcDbPoint
 10
22.350659
 20
-991.4611650000001
 30
0.0
  0
ENDBLK
  5
582
330
580
100
AcDbEntity
  8
0
100
AcDbBlockEnd
  0
BLOCK
  5
58E
330
58D
100
AcDbEntity
  8
0
100
AcDbBlockBegin
  2
*D3
 70
     1
 10
0.0
 20
0.0
 30
0.0
  3
*D3
  1

  0
LINE
  5
7F8
330
58D
100
AcDbEntity
  8
0
 62
     0
370
    -2
100
AcDbLine
 10
7.975658999999997
 20
-984.3392509999999
 30
0.0
 11
36.44299199999998
 21
-984.3392509999999
 31
0.0
  0
LINE
  5
7F9
330
58D
100
AcDbEntity
  8
0
 62
     0
370
    -2
100
AcDbLine
 10
-25.185714
 20
-886.8392509999999
 30
0.0
 11
36.442992
 21
-886.8392509999999
 31
0.0
  0
LINE
  5
7FA
330
58D
100
AcDbEntity
  8
0
 62
     0
370
    -2
100
AcDbLine
 10
35.19299199999998
 20
-981.839251
 30
0.0
 11
35.192992
 21
-889.3392509999998
 31
0.0
  0
INSERT
  5
7FB
330
58D
100
AcDbEntity
  8
0
 62
     0
370
    -2
100
AcDbBlockReference
  2
_Open30
 10
35.19299199999998
 20
-984.3392509999999
 30
0.0
 41
2.5
 42
2.5
 43
2.5
 50
270.0
  0
INSERT
  5
7FC
330
58D
100
AcDbEntity
  8
0
 62
     0
370
    -2
100
AcDbBlockReference
  2
_Open30
 10
35.192992
 20
-886.8392509999999
 30
0.0
 41
2.5
 42
2.5
 43
2.5
 50
90.0
  0
MTEXT
  5
7FD
330
58D
100
AcDbEntity
  8
0
 62
     4
100
AcDbMText
 10
33.06799200000014
 20
-935.5892509999998
 30
0.0
 40
3.0
 41
0.0
 71
     5
 72
     1
  1
195
 11
0.0000000000000001
 21
1.0
 31
0.0
 73
     1
 44
1.0
1001
ACAD
1000
MTEXTBEGIN
1070
    73
1070
     1
1070
    44
1040
1.0
1070
    74
1070
     0
1000
MTEXTEND
  0
POINT
  5
7FE
330
58D
100
AcDbEntity
  8
Defpoints
 62
     0
100
AcDbPoint
 10
7.725658999999997
 20
-984.3392509999999
 30
0.0
  0
POINT
  5
7FF
330
58D
100
AcDbEntity
  8
Defpoints
 62
     0
100
AcDbPoint
 10
-25.435714
 20
-886.8392509999999
 30
0.0
  0
POINT
  5
800
330
58D
100
AcDbEntity
  8
Defpoints
 62
     0
100
AcDbPoint
 10
35.192992
 20
-886.8392509999999
 30
0.0
  0
ENDBLK
  5
58F
330
58D
100
AcDbEntity
  8
0
100
AcDbBlockEnd
  0
BLOCK
  5
810
330
80F
100
AcDbEntity
  8
0
100
AcDbBlockBegin
  2
*D4
 70
     1
 10
0.0
 20
0.0
 30
0.0
  3
*D4
  1

  0
LINE
  5
811
330
80F
100
AcDbEntity
  8
0
 62
     0
370
    -2
100
AcDbLine
 10
197.423779
 20
-475.3326849999999
 30
0.0
 11
197.423779
 21
-494.1940289999999
 31
0.0
  0
LINE
  5
812
330
80F
100
AcDbEntity
  8
0
 62
     0
370
    -2
100
AcDbLine
 10
342.361279
 20
-481.3326849999998
 30
0.0
 11
342.361279
 21
-494.1940289999999
 31
0.0
  0
LINE
  5
813
330
80F
100
AcDbEntity
  8
0
 62
     0
370
    -2
100
AcDbLine
 10
199.923779
 20
-492.944029
 30
0.0
 11
339.861279
 21
-492.944029
 31
0.0
  0
INSERT
  5
814
330
80F
100
AcDbEntity
  8
0
 62
     0
370
    -2
100
AcDbBlockReference
  2
_Open30
 10
197.423779
 20
-492.944029
 30
0.0
 41
2.5
 42
2.5
 43
2.5
 50
180.0
  0
INSERT
  5
815
330
80F
100
AcDbEntity
  8
0
 62
     0
370
    -2
100
AcDbBlockReference
  2
_Open30
 10
342.361279
 20
-492.944029
 30
0.0
 41
2.5
 42
2.5
 43
2.5
  0
MTEXT
  5
816
330
80F
100
AcDbEntity
  8
0
 62
     4
100
AcDbMText
 10
269.892529
 20
-490.819029
 30
0.0
 40
3.0
 41
0.0
 71
     5
 72
     1
  1
290
 73
     1
 44
1.0
1001
ACAD
1000
MTEXTBEGIN
1070
    73
1070
     1
1070
    44
1040
1.0
1070
    74
1070
     0
1000
MTEXTEND
  0
POINT
  5
817
330
80F
100
AcDbEntity
  8
Defpoints
 62
     0
100
AcDbPoint
 10
197.423779
 20
-475.082685
 30
0.0
  0
POINT
  5
818
330
80F
100
AcDbEntity
  8
Defpoints
 62
     0
100
AcDbPoint
 10
342.361279
 20
-481.0826849999998
 30
0.0
  0
POINT
  5
819
330
80F
100
AcDbEntity
  8
Defpoints
 62
     0
100
AcDbPoint
 10
342.361279
 20
-492.944029
 30
0.0
  0
ENDBLK
  5
81A
330
80F
100
AcDbEntity
  8
0
100
AcDbBlockEnd
  0
BLOCK
  5
81C
330
81B
100
AcDbEntity
  8
0
100
AcDbBlockBegin
  2
*D5
 70
     1
 10
0.0
 20
0.0
 30
0.0
  3
*D5
  1

  0
LINE
  5
81D
330
81B
100
AcDbEntity
  8
0
 62
     0
370
    -2
100
AcDbLine
 10
75.330279
 20
-481.3326849999998
 30
0.0
 11
75.330279
 21
-494.704599
 31
0.0
  0
LINE
  5
81E
330
81B
100
AcDbEntity
  8
0
 62
     0
370
    -2
100
AcDbLine
 10
165.330279
 20
-481.3326849999998
 30
0.0
 11
165.330279
 21
-494.704599
 31
0.0
  0
LINE
  5
81F
330
81B
100
AcDbEntity
  8
0
 62
     0
370
    -2
100
AcDbLine
 10
77.830279
 20
-493.454599
 30
0.0
 11
162.830279
 21
-493.454599
 31
0.0
  0
INSERT
  5
820
330
81B
100
AcDbEntity
  8
0
 62
     0
370
    -2
100
AcDbBlockReference
  2
_Open30
 10
75.330279
 20
-493.454599
 30
0.0
 41
2.5
 42
2.5
 43
2.5
 50
180.0
  0
INSERT
  5
821
330
81B
100
AcDbEntity
  8
0
 62
     0
370
    -2
100
AcDbBlockReference
  2
_Open30
 10
165.330279
 20
-493.454599
 30
0.0
 41
2.5
 42
2.5
 43
2.5
  0
MTEXT
  5
822
330
81B
100
AcDbEntity
  8
0
 62
     4
100
AcDbMText
 10
120.330279
 20
-491.329599
 30
0.0
 40
3.0
 41
0.0
 71
     5
 72
     1
  1
190
 73
     1
 44
1.0
1001
ACAD
1000
MTEXTBEGIN
1070
    73
1070
     1
1070
    44
1040
1.0
1070
    74
1070
     0
1000
MTEXTEND
  0
POINT
  5
823
330
81B
100
AcDbEntity
  8
Defpoints
 62
     0
100
AcDbPoint
 10
75.330279
 20
-481.0826849999998
 30
0.0
  0
POINT
  5
824
330
81B
100
AcDbEntity
  8
Defpoints
 62
     0
100
AcDbPoint
 10
165.330279
 20
-481.0826849999998
 30
0.0
  0
POINT
  5
825
330
81B
100
AcDbEntity
  8
Defpoints
 62
     0
100
AcDbPoint
 10
165.330279
 20
-493.454599
 30
0.0
  0
ENDBLK
  5
826
330
81B
100
AcDbEntity
  8
0
100
AcDbBlockEnd
  0
BLOCK
  5
828
330
827
100
AcDbEntity
  8
0
100
AcDbBlockBegin
  2
*D6
 70
     1
 10
0.0
 20
0.0
 30
0.0
  3
*D6
  1

  0
LINE
  5
829
330
827
100
AcDbEntity
  8
0
 62
     0
370
    -2
100
AcDbLine
 10
150.955279
 20
-486.3326849999999
 30
0.0
 11
179.4226129999999
 21
-486.3326849999999
 31
0.0
  0
LINE
  5
82A
330
827
100
AcDbEntity
  8
0
 62
     0
370
    -2
100
AcDbLine
 10
117.793907
 20
-388.832685
 30
0.0
 11
179.422613
 21
-388.8326850000001
 31
0.0
  0
LINE
  5
82B
330
827
100
AcDbEntity
  8
0
 62
     0
370
    -2
100
AcDbLine
 10
178.1726129999999
 20
-483.8326849999998
 30
0.0
 11
178.172613
 21
-391.3326850000001
 31
0.0
  0
INSERT
  5
82C
330
827
100
AcDbEntity
  8
0
 62
     0
370
    -2
100
AcDbBlockReference
  2
_Open30
 10
178.1726129999999
 20
-486.3326849999999
 30
0.0
 41
2.5
 42
2.5
 43
2.5
 50
270.0
  0
INSERT
  5
82D
330
827
100
AcDbEntity
  8
0
 62
     0
370
    -2
100
AcDbBlockReference
  2
_Open30
 10
178.172613
 20
-388.8326850000001
 30
0.0
 41
2.5
 42
2.5
 43
2.5
 50
90.0
  0
MTEXT
  5
82E
330
827
100
AcDbEntity
  8
0
 62
     4
100
AcDbMText
 10
176.047613
 20
-437.5826849999999
 30
0.0
 40
3.0
 41
0.0
 71
     5
 72
     1
  1
195
 11
0.0000000000000001
 21
1.0
 31
0.0
 73
     1
 44
1.0
1001
ACAD
1000
MTEXTBEGIN
1070
    73
1070
     1
1070
    44
1040
1.0
1070
    74
1070
     0
1000
MTEXTEND
  0
POINT
  5
82F
330
827
100
AcDbEntity
  8
Defpoints
 62
     0
100
AcDbPoint
 10
150.705279
 20
-486.3326849999999
 30
0.0
  0
POINT
  5
830
330
827
100
AcDbEntity
  8
Defpoints
 62
     0
100
AcDbPoint
 10
117.543907
 20
-388.832685
 30
0.0
  0
POINT
  5
831
330
827
100
AcDbEntity
  8
Defpoints
 62
     0
100
AcDbPoint
 10
178.172613
 20
-388.8326850000001
 30
0.0
  0
ENDBLK
  5
832
330
827
100
AcDbEntity
  8
0
100
AcDbBlockEnd
  0
BLOCK
  5
834
330
833
100
AcDbEntity
  8
0
100
AcDbBlockBegin
  2
*D7
 70
     1
 10
0.0
 20
0.0
 30
0.0
  3
*D7
  1

  0
LINE
  5
835
330
833
100
AcDbEntity
  8
0
  6
Continuous
 62
     0
370
    -2
100
AcDbLine
 10
397.5974603196843
 20
-437.271485861734
 30
0.0
 11
397.5974603196843
 21
-451.6815125691196
 31
0.0
  0
LINE
  5
836
330
833
100
AcDbEntity
  8
0
  6
Continuous
 62
     0
370
    -2
100
AcDbLine
 10
375.8974603196842
 20
-437.271485861734
 30
0.0
 11
375.8974603196842
 21
-451.6815125691196
 31
0.0
  0
LINE
  5
837
330
833
100
AcDbEntity
  8
0
  6
Continuous
 62
     0
370
    -2
100
AcDbLine
 10
400.0974603196842
 20
-450.4315125691196
 30
0.0
 11
402.5974603196842
 21
-450.4315125691196
 31
0.0
  0
LINE
  5
838
330
833
100
AcDbEntity
  8
0
  6
Continuous
 62
     0
370
    -2
100
AcDbLine
 10
373.3974603196842
 20
-450.4315125691196
 30
0.0
 11
357.6474603196842
 21
-450.4315125691196
 31
0.0
  0
LINE
  5
839
330
833
100
AcDbEntity
  8
0
  6
Continuous
 62
     0
370
    -2
100
AcDbLine
 10
397.5974603196843
 20
-450.4315125691196
 30
0.0
 11
375.8974603196842
 21
-450.4315125691196
 31
0.0
  0
INSERT
  5
83A
330
833
100
AcDbEntity
  8
0
  6
Continuous
 62
     0
370
    -2
100
AcDbBlockReference
  2
_Open30
 10
397.5974603196843
 20
-450.4315125691196
 30
0.0
 41
2.5
 42
2.5
 43
2.5
 50
180.0
  0
INSERT
  5
83B
330
833
100
AcDbEntity
  8
0
  6
Continuous
 62
     0
370
    -2
100
AcDbBlockReference
  2
_Open30
 10
375.8974603196842
 20
-450.4315125691196
 30
0.0
 41
2.5
 42
2.5
 43
2.5
  0
MTEXT
  5
83C
330
833
100
AcDbEntity
  8
0
  6
Continuous
 62
     4
100
AcDbMText
 10
364.2724603196842
 20
-448.3065125691195
 30
0.0
 40
3.0
 41
0.0
 71
     5
 72
     1
  1
%%C43.4
 73
     1
 44
1.0
1001
ACAD
1000
MTEXTBEGIN
1070
    73
1070
     1
1070
    44
1040
1.0
1070
    74
1070
     0
1000
MTEXTEND
  0
POINT
  5
83D
330
833
100
AcDbEntity
  8
Defpoints
  6
Continuous
 62
     0
100
AcDbPoint
 10
397.5974603196843
 20
-437.021485861734
 30
0.0
  0
POINT
  5
83E
330
833
100
AcDbEntity
  8
Defpoints
  6
Continuous
 62
     0
100
AcDbPoint
 10
375.8974603196842
 20
-437.021485861734
 30
0.0
  0
POINT
  5
83F
330
833
100
AcDbEntity
  8
Defpoints
  6
Continuous
 62
     0
100
AcDbPoint
 10
375.8974603196842
 20
-450.4315125691196
 30
0.0
  0
ENDBLK
  5
840
330
833
100
AcDbEntity
  8
0
100
AcDbBlockEnd
  0
BLOCK
  5
842
330
841
100
AcDbEntity
  8
0
100
AcDbBlockBegin
  2
*D8
 70
     1
 10
0.0
 20
0.0
 30
0.0
  3
*D8
  1

  0
LINE
  5
843
330
841
100
AcDbEntity
  8
0
  6
Continuous
 62
     0
370
    -2
100
AcDbLine
 10
397.8474603196843
 20
-437.021485861734
 30
0.0
 11
407.7108240913315
 21
-437.021485861734
 31
0.0
  0
LINE
  5
844
330
841
100
AcDbEntity
  8
0
  6
Continuous
 62
     0
370
    -2
100
AcDbLine
 10
392.7474603196842
 20
-414.021485861734
 30
0.0
 11
407.7108240913315
 21
-414.021485861734
 31
0.0
  0
LINE
  5
845
330
841
100
AcDbEntity
  8
0
  6
Continuous
 62
     0
370
    -2
100
AcDbLine
 10
406.4608240913314
 20
-434.521485861734
 30
0.0
 11
406.4608240913314
 21
-416.521485861734
 31
0.0
  0
INSERT
  5
846
330
841
100
AcDbEntity
  8
0
  6
Continuous
 62
     0
370
    -2
100
AcDbBlockReference
  2
_Open30
 10
406.4608240913314
 20
-437.021485861734
 30
0.0
 41
2.5
 42
2.5
 43
2.5
 50
270.0
  0
INSERT
  5
847
330
841
100
AcDbEntity
  8
0
  6
Continuous
 62
     0
370
    -2
100
AcDbBlockReference
  2
_Open30
 10
406.4608240913314
 20
-414.021485861734
 30
0.0
 41
2.5
 42
2.5
 43
2.5
 50
90.0
  0
MTEXT
  5
848
330
841
100
AcDbEntity
  8
0
  6
Continuous
 62
     4
100
AcDbMText
 10
404.3358240913315
 20
-425.0981228287023
 30
0.0
 40
3.0
 41
0.0
 71
     5
 72
     1
  1
46
 11
0.0000000000000001
 21
1.0
 31
0.0
 73
     1
 44
1.0
1001
ACAD
1000
MTEXTBEGIN
1070
    73
1070
     1
1070
    44
1040
1.0
1070
    74
1070
     0
1000
MTEXTEND
  0
POINT
  5
849
330
841
100
AcDbEntity
  8
Defpoints
  6
Continuous
 62
     0
100
AcDbPoint
 10
397.5974603196843
 20
-437.021485861734
 30
0.0
  0
POINT
  5
84A
330
841
100
AcDbEntity
  8
Defpoints
  6
Continuous
 62
     0
100
AcDbPoint
 10
392.4974603196842
 20
-414.021485861734
 30
0.0
  0
POINT
  5
84B
330
841
100
AcDbEntity
  8
Defpoints
  6
Continuous
 62
     0
100
AcDbPoint
 10
406.4608240913314
 20
-414.021485861734
 30
0.0
  0
ENDBLK
  5
84C
330
841
100
AcDbEntity
  8
0
100
AcDbBlockEnd
  0
BLOCK
  5
84E
330
84D
100
AcDbEntity
  8
0
100
AcDbBlockBegin
  2
_DotSmall
 70
     0
 10
0.0
 20
0.0
 30
0.0
  3
_DotSmall
  1

  0
LWPOLYLINE
  5
84F
330
84D
100
AcDbEntity
  8
0
  6
ByBlock
 62
     0
100
AcDbPolyline
 90
        2
 70
     1
 43
0.5
 10
-0.0625
 20
0.0
 42
1.0
 10
0.0625
 20
0.0
 42
1.0
  0
ENDBLK
  5
850
330
84D
100
AcDbEntity
  8
0
100
AcDbBlockEnd
  0
BLOCK
  5
D37
330
D36
100
AcDbEntity
  8
0
100
AcDbBlockBegin
  2
*D11
 70
     1
 10
0.0
 20
0.0
 30
0.0
  3
*D11
  1

  0
LINE
  5
D74
330
D36
100
AcDbEntity
  8
0
  6
Continuous
 62
     0
370
    -2
100
AcDbLine
 10
709.4059094386042
 20
-920.4689958923292
 30
0.0
 11
709.4059094386042
 21
-934.8790225997149
 31
0.0
  0
LINE
  5
D75
330
D36
100
AcDbEntity
  8
0
  6
Continuous
 62
     0
370
    -2
100
AcDbLine
 10
687.7059094386042
 20
-920.4689958923292
 30
0.0
 11
687.7059094386042
 21
-934.8790225997149
 31
0.0
  0
LINE
  5
D76
330
D36
100
AcDbEntity
  8
0
  6
Continuous
 62
     0
370
    -2
100
AcDbLine
 10
711.9059094386042
 20
-933.6290225997148
 30
0.0
 11
714.4059094386042
 21
-933.6290225997148
 31
0.0
  0
LINE
  5
D77
330
D36
100
AcDbEntity
  8
0
  6
Continuous
 62
     0
370
    -2
100
AcDbLine
 10
685.2059094386041
 20
-933.6290225997148
 30
0.0
 11
669.4559094386042
 21
-933.6290225997148
 31
0.0
  0
LINE
  5
D78
330
D36
100
AcDbEntity
  8
0
  6
Continuous
 62
     0
370
    -2
100
AcDbLine
 10
709.4059094386042
 20
-933.6290225997148
 30
0.0
 11
687.7059094386042
 21
-933.6290225997148
 31
0.0
  0
INSERT
  5
D79
330
D36
100
AcDbEntity
  8
0
  6
Continuous
 62
     0
370
    -2
100
AcDbBlockReference
  2
_Open30
 10
709.4059094386042
 20
-933.6290225997148
 30
0.0
 41
2.5
 42
2.5
 43
2.5
 50
180.0
  0
INSERT
  5
D7A
330
D36
100
AcDbEntity
  8
0
  6
Continuous
 62
     0
370
    -2
100
AcDbBlockReference
  2
_Open30
 10
687.7059094386042
 20
-933.6290225997148
 30
0.0
 41
2.5
 42
2.5
 43
2.5
  0
MTEXT
  5
D7B
330
D36
100
AcDbEntity
  8
0
  6
Continuous
 62
     4
100
AcDbMText
 10
676.0809094386042
 20
-931.5040225997149
 30
0.0
 40
3.0
 41
0.0
 71
     5
 72
     1
  1
%%C43.4
 73
     1
 44
1.0
1001
ACAD
1000
MTEXTBEGIN
1070
    73
1070
     1
1070
    44
1040
1.0
1070
    74
1070
     0
1000
MTEXTEND
  0
POINT
  5
D7C
330
D36
100
AcDbEntity
  8
Defpoints
  6
Continuous
 62
     0
100
AcDbPoint
 10
709.4059094386042
 20
-920.2189958923293
 30
0.0
  0
POINT
  5
D7D
330
D36
100
AcDbEntity
  8
Defpoints
  6
Continuous
 62
     0
100
AcDbPoint
 10
687.7059094386042
 20
-920.2189958923293
 30
0.0
  0
POINT
  5
D7E
330
D36
100
AcDbEntity
  8
Defpoints
  6
Continuous
 62
     0
100
AcDbPoint
 10
687.7059094386042
 20
-933.6290225997148
 30
0.0
  0
ENDBLK
  5
D38
330
D36
100
AcDbEntity
  8
0
100
AcDbBlockEnd
  0
BLOCK
  5
D45
330
D44
100
AcDbEntity
  8
0
100
AcDbBlockBegin
  2
*D12
 70
     1
 10
0.0
 20
0.0
 30
0.0
  3
*D12
  1

  0
LINE
  5
D7F
330
D44
100
AcDbEntity
  8
0
  6
Continuous
 62
     0
370
    -2
100
AcDbLine
 10
709.6559094386042
 20
-920.2189958923293
 30
0.0
 11
719.5192732102513
 21
-920.2189958923293
 31
0.0
  0
LINE
  5
D80
330
D44
100
AcDbEntity
  8
0
  6
Continuous
 62
     0
370
    -2
100
AcDbLine
 10
704.5559094386041
 20
-897.2189958923292
 30
0.0
 11
719.5192732102513
 21
-897.2189958923292
 31
0.0
  0
LINE
  5
D81
330
D44
100
AcDbEntity
  8
0
  6
Continuous
 62
     0
370
    -2
100
AcDbLine
 10
718.2692732102513
 20
-917.7189958923293
 30
0.0
 11
718.2692732102513
 21
-899.7189958923293
 31
0.0
  0
INSERT
  5
D82
330
D44
100
AcDbEntity
  8
0
  6
Continuous
 62
     0
370
    -2
100
AcDbBlockReference
  2
_Open30
 10
718.2692732102513
 20
-920.2189958923293
 30
0.0
 41
2.5
 42
2.5
 43
2.5
 50
270.0
  0
INSERT
  5
D83
330
D44
100
AcDbEntity
  8
0
  6
Continuous
 62
     0
370
    -2
100
AcDbBlockReference
  2
_Open30
 10
718.2692732102513
 20
-897.2189958923292
 30
0.0
 41
2.5
 42
2.5
 43
2.5
 50
90.0
  0
MTEXT
  5
D84
330
D44
100
AcDbEntity
  8
0
  6
Continuous
 62
     4
100
AcDbMText
 10
716.1442732102515
 20
-908.2956328592976
 30
0.0
 40
3.0
 41
0.0
 71
     5
 72
     1
  1
46
 11
0.0000000000000001
 21
1.0
 31
0.0
 73
     1
 44
1.0
1001
ACAD
1000
MTEXTBEGIN
1070
    73
1070
     1
1070
    44
1040
1.0
1070
    74
1070
     0
1000
MTEXTEND
  0
POINT
  5
D85
330
D44
100
AcDbEntity
  8
Defpoints
  6
Continuous
 62
     0
100
AcDbPoint
 10
709.4059094386042
 20
-920.2189958923293
 30
0.0
  0
POINT
  5
D86
330
D44
100
AcDbEntity
  8
Defpoints
  6
Continuous
 62
     0
100
AcDbPoint
 10
704.3059094386042
 20
-897.2189958923292
 30
0.0
  0
POINT
  5
D87
330
D44
100
AcDbEntity
  8
Defpoints
  6
Continuous
 62
     0
100
AcDbPoint
 10
718.2692732102513
 20
-897.2189958923292
 30
0.0
  0
ENDBLK
  5
D46
330
D44
100
AcDbEntity
  8
0
100
AcDbBlockEnd
  0
BLOCK
  5
D51
330
D50
100
AcDbEntity
  8
0
100
AcDbBlockBegin
  2
*D13
 70
     1
 10
0.0
 20
0.0
 30
0.0
  3
*D13
  1

  0
LINE
  5
D88
330
D50
100
AcDbEntity
  8
0
 62
     0
370
    -2
100
AcDbLine
 10
509.2322281189199
 20
-958.5301950305952
 30
0.0
 11
509.2322281189199
 21
-977.3915390305953
 31
0.0
  0
LINE
  5
D89
330
D50
100
AcDbEntity
  8
0
 62
     0
370
    -2
100
AcDbLine
 10
654.1697281189199
 20
-964.5301950305951
 30
0.0
 11
654.1697281189199
 21
-977.3915390305953
 31
0.0
  0
LINE
  5
D8A
330
D50
100
AcDbEntity
  8
0
 62
     0
370
    -2
100
AcDbLine
 10
511.7322281189199
 20
-976.1415390305952
 30
0.0
 11
651.6697281189199
 21
-976.1415390305952
 31
0.0
  0
INSERT
  5
D8B
330
D50
100
AcDbEntity
  8
0
 62
     0
370
    -2
100
AcDbBlockReference
  2
_Open30
 10
509.2322281189199
 20
-976.1415390305952
 30
0.0
 41
2.5
 42
2.5
 43
2.5
 50
180.0
  0
INSERT
  5
D8C
330
D50
100
AcDbEntity
  8
0
 62
     0
370
    -2
100
AcDbBlockReference
  2
_Open30
 10
654.1697281189199
 20
-976.1415390305952
 30
0.0
 41
2.5
 42
2.5
 43
2.5
  0
MTEXT
  5
D8D
330
D50
100
AcDbEntity
  8
0
 62
     4
100
AcDbMText
 10
581.7009781189199
 20
-974.0165390305952
 30
0.0
 40
3.0
 41
0.0
 71
     5
 72
     1
  1
290
 73
     1
 44
1.0
1001
ACAD
1000
MTEXTBEGIN
1070
    73
1070
     1
1070
    44
1040
1.0
1070
    74
1070
     0
1000
MTEXTEND
  0
POINT
  5
D8E
330
D50
100
AcDbEntity
  8
Defpoints
 62
     0
100
AcDbPoint
 10
509.2322281189199
 20
-958.2801950305952
 30
0.0
  0
POINT
  5
D8F
330
D50
100
AcDbEntity
  8
Defpoints
 62
     0
100
AcDbPoint
 10
654.1697281189199
 20
-964.2801950305951
 30
0.0
  0
POINT
  5
D90
330
D50
100
AcDbEntity
  8
Defpoints
 62
     0
100
AcDbPoint
 10
654.1697281189199
 20
-976.1415390305952
 30
0.0
  0
ENDBLK
  5
D52
330
D50
100
AcDbEntity
  8
0
100
AcDbBlockEnd
  0
BLOCK
  5
D5D
330
D5C
100
AcDbEntity
  8
0
100
AcDbBlockBegin
  2
*D14
 70
     1
 10
0.0
 20
0.0
 30
0.0
  3
*D14
  1

  0
LINE
  5
D91
330
D5C
100
AcDbEntity
  8
0
 62
     0
370
    -2
100
AcDbLine
 10
462.7637281189199
 20
-969.5301950305951
 30
0.0
 11
491.2310621189198
 21
-969.5301950305951
 31
0.0
  0
LINE
  5
D92
330
D5C
100
AcDbEntity
  8
0
 62
     0
370
    -2
100
AcDbLine
 10
429.6023561189199
 20
-872.0301950305952
 30
0.0
 11
491.2310621189199
 21
-872.0301950305952
 31
0.0
  0
LINE
  5
D93
330
D5C
100
AcDbEntity
  8
0
 62
     0
370
    -2
100
AcDbLine
 10
489.9810621189198
 20
-967.0301950305951
 30
0.0
 11
489.9810621189199
 21
-874.5301950305952
 31
0.0
  0
INSERT
  5
D94
330
D5C
100
AcDbEntity
  8
0
 62
     0
370
    -2
100
AcDbBlockReference
  2
_Open30
 10
489.9810621189198
 20
-969.5301950305951
 30
0.0
 41
2.5
 42
2.5
 43
2.5
 50
270.0
  0
INSERT
  5
D95
330
D5C
100
AcDbEntity
  8
0
 62
     0
370
    -2
100
AcDbBlockReference
  2
_Open30
 10
489.9810621189199
 20
-872.0301950305952
 30
0.0
 41
2.5
 42
2.5
 43
2.5
 50
90.0
  0
MTEXT
  5
D96
330
D5C
100
AcDbEntity
  8
0
 62
     4
100
AcDbMText
 10
487.85606211892
 20
-920.7801950305949
 30
0.0
 40
3.0
 41
0.0
 71
     5
 72
     1
  1
195
 11
0.0000000000000001
 21
1.0
 31
0.0
 73
     1
 44
1.0
1001
ACAD
1000
MTEXTBEGIN
1070
    73
1070
     1
1070
    44
1040
1.0
1070
    74
1070
     0
1000
MTEXTEND
  0
POINT
  5
D97
330
D5C
100
AcDbEntity
  8
Defpoints
 62
     0
100
AcDbPoint
 10
462.5137281189199
 20
-969.5301950305951
 30
0.0
  0
POINT
  5
D98
330
D5C
100
AcDbEntity
  8
Defpoints
 62
     0
100
AcDbPoint
 10
429.3523561189199
 20
-872.0301950305952
 30
0.0
  0
POINT
  5
D99
330
D5C
100
AcDbEntity
  8
Defpoints
 62
     0
100
AcDbPoint
 10
489.9810621189199
 20
-872.0301950305952
 30
0.0
  0
ENDBLK
  5
D5E
330
D5C
100
AcDbEntity
  8
0
100
AcDbBlockEnd
  0
BLOCK
  5
D69
330
D68
100
AcDbEntity
  8
0
100
AcDbBlockBegin
  2
*D15
 70
     1
 10
0.0
 20
0.0
 30
0.0
  3
*D15
  1

  0
LINE
  5
D9A
330
D68
100
AcDbEntity
  8
0
 62
     0
370
    -2
100
AcDbLine
 10
387.13872811892
 20
-964.5301950305951
 30
0.0
 11
387.13872811892
 21
-977.9021090305953
 31
0.0
  0
LINE
  5
D9B
330
D68
100
AcDbEntity
  8
0
 62
     0
370
    -2
100
AcDbLine
 10
477.1387281189199
 20
-964.5301950305951
 30
0.0
 11
477.1387281189199
 21
-977.9021090305953
 31
0.0
  0
LINE
  5
D9C
330
D68
100
AcDbEntity
  8
0
 62
     0
370
    -2
100
AcDbLine
 10
389.63872811892
 20
-976.6521090305953
 30
0.0
 11
474.6387281189199
 21
-976.6521090305953
 31
0.0
  0
INSERT
  5
D9D
330
D68
100
AcDbEntity
  8
0
 62
     0
370
    -2
100
AcDbBlockReference
  2
_Open30
 10
387.13872811892
 20
-976.6521090305953
 30
0.0
 41
2.5
 42
2.5
 43
2.5
 50
180.0
  0
INSERT
  5
D9E
330
D68
100
AcDbEntity
  8
0
 62
     0
370
    -2
100
AcDbBlockReference
  2
_Open30
 10
477.1387281189199
 20
-976.6521090305953
 30
0.0
 41
2.5
 42
2.5
 43
2.5
  0
MTEXT
  5
D9F
330
D68
100
AcDbEntity
  8
0
 62
     4
100
AcDbMText
 10
432.1387281189199
 20
-974.5271090305953
 30
0.0
 40
3.0
 41
0.0
 71
     5
 72
     1
  1
190
 73
     1
 44
1.0
1001
ACAD
1000
MTEXTBEGIN
1070
    73
1070
     1
1070
    44
1040
1.0
1070
    74
1070
     0
1000
MTEXTEND
  0
POINT
  5
DA0
330
D68
100
AcDbEntity
  8
Defpoints
 62
     0
100
AcDbPoint
 10
387.13872811892
 20
-964.2801950305951
 30
0.0
  0
POINT
  5
DA1
330
D68
100
AcDbEntity
  8
Defpoints
 62
     0
100
AcDbPoint
 10
477.1387281189199
 20
-964.2801950305951
 30
0.0
  0
POINT
  5
DA2
330
D68
100
AcDbEntity
  8
Defpoints
 62
     0
100
AcDbPoint
 10
477.1387281189199
 20
-976.6521090305953
 30
0.0
  0
ENDBLK
  5
D6A
330
D68
100
AcDbEntity
  8
0
100
AcDbBlockEnd
  0
BLOCK
  5
E0F
330
E0E
100
AcDbEntity
  8
0
100
AcDbBlockBegin
  2
*D16
 70
     1
 10
0.0
 20
0.0
 30
0.0
  3
*D16
  1

  0
LINE
  5
E28
330
E0E
100
AcDbEntity
  8
0
  6
Continuous
 62
     0
370
    -2
100
AcDbLine
 10
254.6178403196843
 20
-935.2780518617342
 30
0.0
 11
254.6178403196843
 21
-949.6880785691198
 31
0.0
  0
LINE
  5
E29
330
E0E
100
AcDbEntity
  8
0
  6
Continuous
 62
     0
370
    -2
100
AcDbLine
 10
232.9178403196843
 20
-935.2780518617342
 30
0.0
 11
232.9178403196843
 21
-949.6880785691198
 31
0.0
  0
LINE
  5
E2A
330
E0E
100
AcDbEntity
  8
0
  6
Continuous
 62
     0
370
    -2
100
AcDbLine
 10
257.1178403196843
 20
-948.4380785691197
 30
0.0
 11
259.6178403196843
 21
-948.4380785691197
 31
0.0
  0
LINE
  5
E2B
330
E0E
100
AcDbEntity
  8
0
  6
Continuous
 62
     0
370
    -2
100
AcDbLine
 10
230.4178403196843
 20
-948.4380785691197
 30
0.0
 11
214.6678403196843
 21
-948.4380785691197
 31
0.0
  0
LINE
  5
E2C
330
E0E
100
AcDbEntity
  8
0
  6
Continuous
 62
     0
370
    -2
100
AcDbLine
 10
254.6178403196843
 20
-948.4380785691197
 30
0.0
 11
232.9178403196843
 21
-948.4380785691197
 31
0.0
  0
INSERT
  5
E2D
330
E0E
100
AcDbEntity
  8
0
  6
Continuous
 62
     0
370
    -2
100
AcDbBlockReference
  2
_Open30
 10
254.6178403196843
 20
-948.4380785691197
 30
0.0
 41
2.5
 42
2.5
 43
2.5
 50
180.0
  0
INSERT
  5
E2E
330
E0E
100
AcDbEntity
  8
0
  6
Continuous
 62
     0
370
    -2
100
AcDbBlockReference
  2
_Open30
 10
232.9178403196843
 20
-948.4380785691197
 30
0.0
 41
2.5
 42
2.5
 43
2.5
  0
MTEXT
  5
E2F
330
E0E
100
AcDbEntity
  8
0
  6
Continuous
 62
     4
100
AcDbMText
 10
221.2928403196843
 20
-946.3130785691197
 30
0.0
 40
3.0
 41
0.0
 71
     5
 72
     1
  1
%%C43.4
 73
     1
 44
1.0
1001
ACAD
1000
MTEXTBEGIN
1070
    73
1070
     1
1070
    44
1040
1.0
1070
    74
1070
     0
1000
MTEXTEND
  0
POINT
  5
E30
330
E0E
100
AcDbEntity
  8
Defpoints
  6
Continuous
 62
     0
100
AcDbPoint
 10
254.6178403196843
 20
-935.0280518617342
 30
0.0
  0
POINT
  5
E31
330
E0E
100
AcDbEntity
  8
Defpoints
  6
Continuous
 62
     0
100
AcDbPoint
 10
232.9178403196843
 20
-935.0280518617342
 30
0.0
  0
POINT
  5
E32
330
E0E
100
AcDbEntity
  8
Defpoints
  6
Continuous
 62
     0
100
AcDbPoint
 10
232.9178403196843
 20
-948.4380785691197
 30
0.0
  0
ENDBLK
  5
E10
330
E0E
100
AcDbEntity
  8
0
100
AcDbBlockEnd
  0
BLOCK
  5
E1D
330
E1C
100
AcDbEntity
  8
0
100
AcDbBlockBegin
  2
*D17
 70
     1
 10
0.0
 20
0.0
 30
0.0
  3
*D17
  1

  0
LINE
  5
E33
330
E1C
100
AcDbEntity
  8
0
  6
Continuous
 62
     0
370
    -2
100
AcDbLine
 10
254.8678403196843
 20
-935.0280518617342
 30
0.0
 11
264.7312040913314
 21
-935.0280518617342
 31
0.0
  0
LINE
  5
E34
330
E1C
100
AcDbEntity
  8
0
  6
Continuous
 62
     0
370
    -2
100
AcDbLine
 10
249.7678403196843
 20
-912.0280518617342
 30
0.0
 11
264.7312040913314
 21
-912.0280518617343
 31
0.0
  0
LINE
  5
E35
330
E1C
100
AcDbEntity
  8
0
  6
Continuous
 62
     0
370
    -2
100
AcDbLine
 10
263.4812040913315
 20
-932.5280518617343
 30
0.0
 11
263.4812040913315
 21
-914.5280518617342
 31
0.0
  0
INSERT
  5
E36
330
E1C
100
AcDbEntity
  8
0
  6
Continuous
 62
     0
370
    -2
100
AcDbBlockReference
  2
_Open30
 10
263.4812040913315
 20
-935.0280518617342
 30
0.0
 41
2.5
 42
2.5
 43
2.5
 50
270.0
  0
INSERT
  5
E37
330
E1C
100
AcDbEntity
  8
0
  6
Continuous
 62
     0
370
    -2
100
AcDbBlockReference
  2
_Open30
 10
263.4812040913315
 20
-912.0280518617343
 30
0.0
 41
2.5
 42
2.5
 43
2.5
 50
90.0
  0
MTEXT
  5
E38
330
E1C
100
AcDbEntity
  8
0
  6
Continuous
 62
     4
100
AcDbMText
 10
261.3562040913316
 20
-923.1046888287025
 30
0.0
 40
3.0
 41
0.0
 71
     5
 72
     1
  1
46
 11
0.0000000000000001
 21
1.0
 31
0.0
 73
     1
 44
1.0
1001
ACAD
1000
MTEXTBEGIN
1070
    73
1070
     1
1070
    44
1040
1.0
1070
    74
1070
     0
1000
MTEXTEND
  0
POINT
  5
E39
330
E1C
100
AcDbEntity
  8
Defpoints
  6
Continuous
 62
     0
100
AcDbPoint
 10
254.6178403196843
 20
-935.0280518617342
 30
0.0
  0
POINT
  5
E3A
330
E1C
100
AcDbEntity
  8
Defpoints
  6
Continuous
 62
     0
100
AcDbPoint
 10
249.5178403196843
 20
-912.0280518617342
 30
0.0
  0
POINT
  5
E3B
330
E1C
100
AcDbEntity
  8
Defpoints
  6
Continuous
 62
     0
100
AcDbPoint
 10
263.4812040913315
 20
-912.0280518617343
 30
0.0
  0
ENDBLK
  5
E1E
330
E1C
100
AcDbEntity
  8
0
100
AcDbBlockEnd
  0
ENDSEC
  0
SECTION
  2
ENTITIES
  0
LINE
  5
99
330
36
100
AcDbEntity
  8
0
 62
     3
100
AcDbLine
 10
-109.638888
 20
-852.272855
 30
0.0
 11
-109.638888
 21
-1126.328216
 31
0.0
  0
LINE
  5
9A
330
36
100
AcDbEntity
  8
0
 62
     3
100
AcDbLine
 10
-109.638888
 20
-852.272855
 30
0.0
 11
280.361112
 21
-852.272855
 31
0.0
  0
LINE
  5
9B
330
36
100
AcDbEntity
  8
0
 62
     3
100
AcDbLine
 10
280.361112
 20
-1126.328216
 30
0.0
 11
-109.638888
 21
-1126.328216
 31
0.0
  0
TEXT
  5
9D
330
36
100
AcDbEntity
  8
0
 62
     3
100
AcDbText
 10
184.5139891174921
 20
-1094.50309
 30
0.0
 40
4.5
  1
降圧専用トランス
  7
高4.5
100
AcDbText
  0
TEXT
  5
9E
330
36
100
AcDbEntity
  8
0
 62
     3
100
AcDbText
 10
245.080823
 20
-1115.32432
 30
0.0
 40
3.2
  1
2007.11.1
  7
高3.2
100
AcDbText
  0
TEXT
  5
9F
330
36
100
AcDbEntity
  8
0
 62
     3
100
AcDbText
 10
171.14070021006
 20
-1081.895826
 30
0.0
 40
4.5
  1
リングトランス仕様
  7
高4.5
100
AcDbText
  0
LINE
  5
A0
330
36
100
AcDbEntity
  8
0
100
AcDbLine
 10
171.8005289096795
 20
-1082.57948757341
 30
0.0
 11
218.8955155867973
 21
-1082.57948757341
 31
0.0
  0
ARC
  5
A1
330
36
100
AcDbEntity
  8
0
 62
     3
100
AcDbCircle
 10
198.944659
 20
-978.6517509999999
 30
0.0
 40
0.4375
100
AcDbArc
 50
270.0
 51
0.0
  0
LINE
  5
A2
330
36
100
AcDbEntity
  8
0
 62
     3
100
AcDbLine
 10
184.069159
 20
-979.089251
 30
0.0
 11
184.944159
 21
-984.3392509999999
 31
0.0
  0
LINE
  5
A3
330
36
100
AcDbEntity
  8
0
 62
     3
100
AcDbLine
 10
184.944159
 20
-984.3392509999999
 30
0.0
 11
191.944659
 21
-984.3392509999999
 31
0.0
  0
LINE
  5
A4
330
36
100
AcDbEntity
  8
0
 62
     3
100
AcDbLine
 10
191.944659
 20
-984.3392509999999
 30
0.0
 11
192.819159
 21
-979.089251
 31
0.0
  0
LINE
  5
A5
330
36
100
AcDbEntity
  8
0
 62
     3
100
AcDbLine
 10
73.937504
 20
-978.946428
 30
0.0
 11
74.812504
 21
-984.1964279999999
 31
0.0
  0
LINE
  5
A6
330
36
100
AcDbEntity
  8
0
 62
     3
100
AcDbLine
 10
74.812504
 20
-984.1964279999999
 30
0.0
 11
81.81250400000001
 21
-984.1964279999999
 31
0.0
  0
LINE
  5
A7
330
36
100
AcDbEntity
  8
0
 62
     3
100
AcDbLine
 10
81.81250400000001
 20
-984.1964279999999
 30
0.0
 11
82.687504
 21
-978.946428
 31
0.0
  0
LINE
  5
A8
330
36
100
AcDbEntity
  8
0
 62
     3
100
AcDbLine
 10
129.100659
 20
-886.8362509999997
 30
0.0
 11
111.493186
 21
-886.8362509999997
 31
0.0
  0
LINE
  5
A9
330
36
100
AcDbEntity
  8
0
 62
     3
100
AcDbLine
 10
129.100659
 20
-886.8362509999997
 30
0.0
 11
146.708132
 21
-886.8362509999997
 31
0.0
  0
LINE
  5
AA
330
36
100
AcDbEntity
  8
0
 62
     3
100
AcDbLine
 10
118.149592
 20
-890.8987509999999
 30
0.0
 11
129.100659
 21
-890.8987509999999
 31
0.0
  0
LINE
  5
AB
330
36
100
AcDbEntity
  8
0
 62
     3
100
AcDbLine
 10
140.051726
 20
-890.8987509999999
 30
0.0
 11
129.100659
 21
-890.8987509999999
 31
0.0
  0
LINE
  5
AC
330
36
100
AcDbEntity
  8
0
 62
     3
100
AcDbLine
 10
147.551726
 20
-898.398751
 30
0.0
 11
147.551726
 21
-899.9642509999999
 31
0.0
  0
LINE
  5
AD
330
36
100
AcDbEntity
  8
0
 62
     3
100
AcDbLine
 10
156.798159
 20
-899.9642509999999
 30
0.0
 11
153.298792
 21
-891.285139
 31
0.0
  0
ARC
  5
AE
330
36
100
AcDbEntity
  8
0
 62
     3
100
AcDbCircle
 10
-63.274341
 20
-904.339251
 30
0.0
 40
4.375
100
AcDbArc
 50
90.0
 51
180.0
  0
ARC
  5
AF
330
36
100
AcDbEntity
  8
0
 62
     3
100
AcDbCircle
 10
17.975659
 20
-904.339251
 30
0.0
 40
4.375
100
AcDbArc
 50
0.0
 51
90.0
  0
LINE
  5
B0
330
36
100
AcDbEntity
  8
0
 62
     3
100
AcDbLine
 10
8.600659
 20
-979.089251
 30
0.0
 11
7.725658999999997
 21
-984.3392509999999
 31
0.0
  0
LINE
  5
B1
330
36
100
AcDbEntity
  8
0
 62
     3
100
AcDbLine
 10
7.725658999999997
 20
-984.3392509999999
 30
0.0
 11
0.7256590000000001
 21
-984.3392509999999
 31
0.0
  0
LINE
  5
B2
330
36
100
AcDbEntity
  8
0
 62
     3
100
AcDbLine
 10
0.7256590000000001
 20
-984.3392509999999
 30
0.0
 11
-0.149341
 21
-979.089251
 31
0.0
  0
LINE
  5
B3
330
36
100
AcDbEntity
  8
0
 62
     3
100
AcDbLine
 10
-32.06052899999999
 20
-910.4174349999999
 30
0.0
 11
-32.06052899999999
 21
-921.3549349999999
 31
0.0
  0
LINE
  5
B4
330
36
100
AcDbEntity
  8
0
 62
     3
100
AcDbLine
 10
-13.247529
 20
-910.4174349999999
 30
0.0
 11
-32.06052899999999
 21
-910.4174349999999
 31
0.0
  0
LINE
  5
B5
330
36
100
AcDbEntity
  8
0
 62
     3
100
AcDbLine
 10
-32.06052899999999
 20
-921.3549349999999
 30
0.0
 11
-13.247529
 21
-921.3549349999999
 31
0.0
  0
LINE
  5
B6
330
36
100
AcDbEntity
  8
0
 62
     3
100
AcDbLine
 10
-48.180341
 20
-950.2457510000001
 30
0.0
 11
-56.493341
 21
-950.2457510000001
 31
0.0
  0
LINE
  5
B7
330
36
100
AcDbEntity
  8
0
 62
     3
100
AcDbLine
 10
-48.180341
 20
-962.4957509999999
 30
0.0
 11
-56.493341
 21
-962.4957509999999
 31
0.0
  0
ARC
  5
B8
330
36
100
AcDbEntity
  8
0
 62
     3
100
AcDbCircle
 10
-52.336841
 20
-956.3707509999996
 30
0.0
 40
7.4375
100
AcDbArc
 50
124.56
 51
235.44
  0
ARC
  5
B9
330
36
100
AcDbEntity
  8
0
 62
     3
100
AcDbCircle
 10
-52.336841
 20
-956.3707509999996
 30
0.0
 40
7.4375
100
AcDbArc
 50
304.56
 51
55.44
  0
LINE
  5
BA
330
36
100
AcDbEntity
  8
0
 62
     3
100
AcDbLine
 10
-48.180341
 20
-945.4332509999996
 30
0.0
 11
-56.493341
 21
-945.4332509999996
 31
0.0
  0
LINE
  5
BB
330
36
100
AcDbEntity
  8
0
 62
     3
100
AcDbLine
 10
-48.180341
 20
-933.1832509999999
 30
0.0
 11
-56.493341
 21
-933.1832509999999
 31
0.0
  0
ARC
  5
BC
330
36
100
AcDbEntity
  8
0
 62
     3
100
AcDbCircle
 10
-52.336841
 20
-939.3082510000001
 30
0.0
 40
7.4375
100
AcDbArc
 50
124.56
 51
235.44
  0
ARC
  5
BD
330
36
100
AcDbEntity
  8
0
 62
     3
100
AcDbCircle
 10
-52.336841
 20
-939.3082510000001
 30
0.0
 40
7.4375
100
AcDbArc
 50
304.56
 51
55.44
  0
LINE
  5
BE
330
36
100
AcDbEntity
  8
0
 62
     3
100
AcDbLine
 10
-55.39934099999999
 20
-962.4957509999999
 30
0.0
 11
-55.39934099999999
 21
-969.714251
 31
0.0
  0
LINE
  5
BF
330
36
100
AcDbEntity
  8
0
 62
     3
100
AcDbLine
 10
-49.274341
 20
-969.714251
 30
0.0
 11
-49.274341
 21
-962.4957509999999
 31
0.0
  0
LINE
  5
C0
330
36
100
AcDbEntity
  8
0
 62
     3
100
AcDbLine
 10
11.194659
 20
-950.2457510000001
 30
0.0
 11
2.881658999999998
 21
-950.2457510000001
 31
0.0
  0
LINE
  5
C1
330
36
100
AcDbEntity
  8
0
 62
     3
100
AcDbLine
 10
11.194659
 20
-962.4957509999999
 30
0.0
 11
2.881658999999998
 21
-962.4957509999999
 31
0.0
  0
ARC
  5
C2
330
36
100
AcDbEntity
  8
0
 62
     3
100
AcDbCircle
 10
7.038158999999997
 20
-956.3707509999996
 30
0.0
 40
7.4375
100
AcDbArc
 50
124.56
 51
235.44
  0
ARC
  5
C3
330
36
100
AcDbEntity
  8
0
 62
     3
100
AcDbCircle
 10
7.038158999999997
 20
-956.3707509999996
 30
0.0
 40
7.4375
100
AcDbArc
 50
304.56
 51
55.44
  0
LINE
  5
C4
330
36
100
AcDbEntity
  8
0
 62
     3
100
AcDbLine
 10
11.194659
 20
-945.4332509999996
 30
0.0
 11
2.881658999999998
 21
-945.4332509999996
 31
0.0
  0
LINE
  5
C5
330
36
100
AcDbEntity
  8
0
 62
     3
100
AcDbLine
 10
11.194659
 20
-933.1832509999999
 30
0.0
 11
2.881658999999998
 21
-933.1832509999999
 31
0.0
  0
ARC
  5
C6
330
36
100
AcDbEntity
  8
0
 62
     3
100
AcDbCircle
 10
7.038158999999997
 20
-939.3082510000001
 30
0.0
 40
7.4375
100
AcDbArc
 50
124.56
 51
235.44
  0
ARC
  5
C7
330
36
100
AcDbEntity
  8
0
 62
     3
100
AcDbCircle
 10
7.038158999999997
 20
-939.3082510000001
 30
0.0
 40
7.4375
100
AcDbArc
 50
304.56
 51
55.44
  0
LINE
  5
C8
330
36
100
AcDbEntity
  8
0
 62
     3
100
AcDbLine
 10
3.975658999999998
 20
-962.4957509999999
 30
0.0
 11
3.975658999999998
 21
-969.714251
 31
0.0
  0
LINE
  5
C9
330
36
100
AcDbEntity
  8
0
 62
     3
100
AcDbLine
 10
10.100659
 20
-969.714251
 30
0.0
 11
10.100659
 21
-962.4957509999999
 31
0.0
  0
CIRCLE
  5
CC
330
36
100
AcDbEntity
  8
0
 62
     3
100
AcDbCircle
 10
6.923961999999997
 20
-915.7932119999999
 30
0.0
 40
3.292961
  0
LINE
  5
CD
330
36
100
AcDbEntity
  8
0
 62
     3
100
AcDbLine
 10
-25.435714
 20
-886.8392509999999
 30
0.0
 11
-19.862969
 21
-886.8392509999999
 31
0.0
  0
LINE
  5
CE
330
36
100
AcDbEntity
  8
0
 62
     3
100
AcDbLine
 10
-18.367875
 20
-888.218027
 30
0.0
 11
-17.415479
 21
-899.9642509999999
 31
0.0
  0
LINE
  5
CF
330
36
100
AcDbEntity
  8
0
 62
     3
100
AcDbLine
 10
-26.930807
 20
-888.218027
 30
0.0
 11
-27.883204
 21
-899.9642509999999
 31
0.0
  0
ARC
  5
D0
330
36
100
AcDbEntity
  8
0
 62
     3
100
AcDbCircle
 10
-19.862969
 20
-888.339251
 30
0.0
 40
1.5
100
AcDbArc
 50
4.635462999999997
 51
90.0
  0
ARC
  5
D1
330
36
100
AcDbEntity
  8
0
 62
     3
100
AcDbCircle
 10
-25.435714
 20
-888.339251
 30
0.0
 40
1.5
100
AcDbArc
 50
90.0
 51
175.364537
  0
LINE
  5
D2
330
36
100
AcDbEntity
  8
0
 62
     3
100
AcDbLine
 10
22.350659
 20
-979.089251
 30
0.0
 11
-67.64934100000001
 21
-979.089251
 31
0.0
  0
LINE
  5
D3
330
36
100
AcDbEntity
  8
0
 62
     3
100
AcDbLine
 10
17.975659
 20
-899.9642509999999
 30
0.0
 11
-63.274341
 21
-899.9642509999999
 31
0.0
  0
LINE
  5
D4
330
36
100
AcDbEntity
  8
0
 62
     3
100
AcDbLine
 10
22.350659
 20
-904.339251
 30
0.0
 11
22.350659
 21
-979.089251
 31
0.0
  0
LINE
  5
D5
330
36
100
AcDbEntity
  8
0
 62
     3
100
AcDbLine
 10
-67.64934100000001
 20
-904.339251
 30
0.0
 11
-67.64934100000001
 21
-979.089251
 31
0.0
  0
LINE
  5
D6
330
36
100
AcDbEntity
  8
0
 62
     3
100
AcDbLine
 10
-53.899341
 20
-979.089251
 30
0.0
 11
-53.024341
 21
-984.3392509999999
 31
0.0
  0
LINE
  5
D7
330
36
100
AcDbEntity
  8
0
 62
     3
100
AcDbLine
 10
-53.024341
 20
-984.3392509999999
 30
0.0
 11
-46.02434099999999
 21
-984.3392509999999
 31
0.0
  0
LINE
  5
D8
330
36
100
AcDbEntity
  8
0
 62
     3
100
AcDbLine
 10
-46.02434099999999
 20
-984.3392509999999
 30
0.0
 11
-45.149341
 21
-979.089251
 31
0.0
  0
ARC
  5
D9
330
36
100
AcDbEntity
  8
0
 62
     3
100
AcDbCircle
 10
140.051726
 20
-898.398751
 30
0.0
 40
7.5
100
AcDbArc
 50
0.0
 51
90.0
  0
ARC
  5
DA
330
36
100
AcDbEntity
  8
0
 62
     3
100
AcDbCircle
 10
118.149592
 20
-898.398751
 30
0.0
 40
7.5
100
AcDbArc
 50
90.0
 51
180.0
  0
LINE
  5
DB
330
36
100
AcDbEntity
  8
0
 62
     3
100
AcDbLine
 10
110.649592
 20
-898.398751
 30
0.0
 11
110.649592
 21
-899.9642509999999
 31
0.0
  0
ARC
  5
DC
330
36
100
AcDbEntity
  8
0
 62
     3
100
AcDbCircle
 10
146.708132
 20
-893.9424550000001
 30
0.0
 40
7.106203999999999
100
AcDbArc
 50
21.959002
 51
90.0
  0
ARC
  5
DD
330
36
100
AcDbEntity
  8
0
 62
     3
100
AcDbCircle
 10
111.493186
 20
-893.9424550000001
 30
0.0
 40
7.106203999999999
100
AcDbArc
 50
90.0
 51
158.040998
  0
LINE
  5
DE
330
36
100
AcDbEntity
  8
0
 62
     3
100
AcDbLine
 10
101.403159
 20
-899.9642509999999
 30
0.0
 11
104.902526
 21
-891.285139
 31
0.0
  0
LINE
  5
DF
330
36
100
AcDbEntity
  8
0
 62
     3
100
AcDbLine
 10
199.381659
 20
-899.9642509999999
 30
0.0
 11
54.444159
 21
-899.9642509999999
 31
0.0
  0
LINE
  5
E0
330
36
100
AcDbEntity
  8
0
 62
     3
100
AcDbLine
 10
60.444159
 20
-979.089251
 30
0.0
 11
199.381659
 21
-979.089251
 31
0.0
  0
LINE
  5
E1
330
36
100
AcDbEntity
  8
0
 62
     3
100
AcDbLine
 10
54.444159
 20
-973.089251
 30
0.0
 11
54.444159
 21
-899.9642509999999
 31
0.0
  0
ARC
  5
E2
330
36
100
AcDbEntity
  8
0
 62
     3
100
AcDbCircle
 10
60.444159
 20
-973.089251
 30
0.0
 40
6.0
100
AcDbArc
 50
180.0
 51
270.0
  0
LINE
  5
E3
330
36
100
AcDbEntity
  8
0
 62
     3
100
AcDbLine
 10
199.381659
 20
-979.089251
 30
0.0
 11
199.381659
 21
-899.9642509999999
 31
0.0
  0
TEXT
  5
E4
330
36
100
AcDbEntity
  8
0
 62
     3
100
AcDbText
 10
-57.444637
 20
-915.1522359999999
 30
0.0
 40
3.149999999999999
  1
連続定格
 41
0.833333
100
AcDbText
  0
LINE
  5
E5
330
36
100
AcDbEntity
  8
0
 62
     3
100
AcDbLine
 10
10.100659
 20
-969.714251
 30
0.0
 11
3.975658999999998
 21
-969.714251
 31
0.0
  0
LINE
  5
E6
330
36
100
AcDbEntity
  8
0
 62
     3
100
AcDbLine
 10
-55.39934099999999
 20
-969.714251
 30
0.0
 11
-49.274341
 21
-969.714251
 31
0.0
  0
TEXT
  5
E7
330
36
100
AcDbEntity
  8
0
 62
     3
100
AcDbText
 10
-31.929156
 20
-976.771321
 30
0.0
 40
3.149999999999999
  1
日動工業株式会社
 41
0.833333
100
AcDbText
  0
ARC
  5
123
330
36
100
AcDbEntity
  8
0
100
AcDbCircle
 10
-21.997529
 20
-926.1674349999999
 30
0.0
 40
12.25
100
AcDbArc
 50
50.856
 51
129.144
  0
TEXT
  5
124
330
36
100
AcDbEntity
  8
0
100
AcDbText
 10
-31.009541
 20
-915.652305
 30
0.0
 40
0.7175000000000003
  1
0
 50
39.999999
 41
1.440001
100
AcDbText
  0
LINE
  5
125
330
36
100
AcDbEntity
  8
0
100
AcDbLine
 10
-59.49319
 20
-916.657919
 30
0.0
 11
-42.980612
 21
-916.657919
 31
0.0
  0
LINE
  5
126
330
36
100
AcDbEntity
  8
0
100
AcDbLine
 10
-42.980612
 20
-916.657919
 30
0.0
 11
-42.980612
 21
-910.5743379999999
 31
0.0
  0
LINE
  5
127
330
36
100
AcDbEntity
  8
0
100
AcDbLine
 10
-59.49319
 20
-910.5743379999999
 30
0.0
 11
-42.980612
 21
-910.5743379999999
 31
0.0
  0
LINE
  5
128
330
36
100
AcDbEntity
  8
0
100
AcDbLine
 10
-59.49319
 20
-916.657919
 30
0.0
 11
-59.49319
 21
-910.5743379999999
 31
0.0
  0
ARC
  5
129
330
36
100
AcDbEntity
  8
0
100
AcDbCircle
 10
6.923961999999997
 20
-915.7932119999999
 30
0.0
 40
2.1875
100
AcDbArc
 50
90.0
 51
270.0
  0
CIRCLE
  5
12A
330
36
100
AcDbEntity
  8
0
100
AcDbCircle
 10
7.038158999999997
 20
-929.464251
 30
0.0
 40
1.530999999999995
  0
ARC
  5
12B
330
36
100
AcDbEntity
  8
0
100
AcDbCircle
 10
-22.649341
 20
-943.964251
 30
0.0
 40
1.530999999999995
100
AcDbArc
 50
270.0
 51
90.0
  0
CIRCLE
  5
12C
330
36
100
AcDbEntity
  8
0
100
AcDbCircle
 10
-34.506594
 20
-975.095531
 30
0.0
 40
1.420678999999999
  0
LINE
  5
12D
330
36
100
AcDbEntity
  8
0
100
AcDbLine
 10
-34.506594
 20
-973.674852
 30
0.0
 11
-34.506594
 21
-976.5162109999996
 31
0.0
  0
LINE
  5
12E
330
36
100
AcDbEntity
  8
0
100
AcDbLine
 10
-34.506594
 20
-973.674852
 30
0.0
 11
-36.05412600000001
 21
-976.153011
 31
0.0
  0
LINE
  5
12F
330
36
100
AcDbEntity
  8
0
100
AcDbLine
 10
-34.506594
 20
-976.5162109999996
 30
0.0
 11
-33.010647
 21
-973.934883
 31
0.0
  0
LINE
  5
130
330
36
100
AcDbEntity
  8
0
100
AcDbLine
 10
-49.274341
 20
-969.0582509999996
 30
0.0
 11
-55.39934099999999
 21
-969.0582509999996
 31
0.0
  0
LINE
  5
131
330
36
100
AcDbEntity
  8
0
100
AcDbLine
 10
3.975658999999998
 20
-969.0582509999996
 30
0.0
 11
10.100659
 21
-969.0582509999996
 31
0.0
  0
CIRCLE
  5
132
330
36
100
AcDbEntity
  8
0
100
AcDbCircle
 10
7.038158999999997
 20
-966.214251
 30
0.0
 40
1.530999999999995
  0
CIRCLE
  5
133
330
36
100
AcDbEntity
  8
0
100
AcDbCircle
 10
-52.336841
 20
-929.464251
 30
0.0
 40
1.530999999999995
  0
CIRCLE
  5
134
330
36
100
AcDbEntity
  8
0
100
AcDbCircle
 10
-52.336841
 20
-966.214251
 30
0.0
 40
1.530999999999995
  0
ARC
  5
135
330
36
100
AcDbEntity
  8
0
100
AcDbCircle
 10
-22.649341
 20
-943.964251
 30
0.0
 40
1.530999999999995
100
AcDbArc
 50
90.0
 51
270.0
  0
ARC
  5
136
330
36
100
AcDbEntity
  8
0
100
AcDbCircle
 10
-22.649341
 20
-970.6517509999999
 30
0.0
 40
1.530999999999995
100
AcDbArc
 50
90.0
 51
270.0
  0
ARC
  5
137
330
36
100
AcDbEntity
  8
0
100
AcDbCircle
 10
-22.649341
 20
-970.6517509999999
 30
0.0
 40
1.530999999999995
100
AcDbArc
 50
270.0
 51
90.0
  0
TEXT
  5
138
330
36
100
AcDbEntity
  8
0
100
AcDbText
 10
-15.654029
 20
-914.5739349999999
 30
0.0
 40
0.875
  1
150
 50
319.999991
 41
1.1808
100
AcDbText
  0
ARC
  5
139
330
36
100
AcDbEntity
  8
0
100
AcDbCircle
 10
6.923961999999997
 20
-915.7932119999999
 30
0.0
 40
2.1875
100
AcDbArc
 50
270.0
 51
90.0
  0
LINE
  5
13A
330
36
100
AcDbEntity
  8
0
 62
     3
100
AcDbLine
 10
-13.247529
 20
-921.3549349999999
 30
0.0
 11
-13.247529
 21
-910.4174349999999
 31
0.0
  0
ARC
  5
13B
330
36
100
AcDbEntity
  8
0
100
AcDbCircle
 10
-22.654029
 20
-921.3549349999999
 30
0.0
 40
2.625
100
AcDbArc
 50
0.0
 51
180.0
  0
LINE
  5
13C
330
36
100
AcDbEntity
  8
0
100
AcDbLine
 10
-24.836841
 20
-952.2767509999999
 30
0.0
 11
-24.836841
 21
-962.7767509999999
 31
0.0
  0
LINE
  5
13D
330
36
100
AcDbEntity
  8
0
100
AcDbLine
 10
-20.461841
 20
-962.7767509999999
 30
0.0
 11
-20.461841
 21
-952.2767509999999
 31
0.0
  0
LINE
  5
13E
330
36
100
AcDbEntity
  8
0
100
AcDbLine
 10
-20.461841
 20
-956.432751
 30
0.0
 11
-24.836841
 21
-956.432751
 31
0.0
  0
LINE
  5
13F
330
36
100
AcDbEntity
  8
0
100
AcDbLine
 10
-20.461841
 20
-958.6202510000001
 30
0.0
 11
-24.836841
 21
-958.6202510000001
 31
0.0
  0
LINE
  5
140
330
36
100
AcDbEntity
  8
0
100
AcDbLine
 10
-24.574341
 20
-950.1332509999999
 30
0.0
 11
-24.574341
 21
-951.9707509999999
 31
0.0
  0
LINE
  5
141
330
36
100
AcDbEntity
  8
0
100
AcDbLine
 10
-24.574341
 20
-951.9707509999999
 30
0.0
 11
-20.680341
 21
-951.9707509999999
 31
0.0
  0
LINE
  5
142
330
36
100
AcDbEntity
  8
0
100
AcDbLine
 10
-20.680341
 20
-951.9707509999999
 30
0.0
 11
-20.680341
 21
-950.1332509999999
 31
0.0
  0
LINE
  5
143
330
36
100
AcDbEntity
  8
0
100
AcDbLine
 10
-20.680341
 20
-950.1332509999999
 30
0.0
 11
-24.574341
 21
-950.1332509999999
 31
0.0
  0
LINE
  5
144
330
36
100
AcDbEntity
  8
0
100
AcDbLine
 10
-20.680341
 20
-951.9707509999999
 30
0.0
 11
-20.680341
 21
-956.432751
 31
0.0
  0
LINE
  5
145
330
36
100
AcDbEntity
  8
0
100
AcDbLine
 10
-24.574341
 20
-951.9707509999999
 30
0.0
 11
-24.574341
 21
-956.432751
 31
0.0
  0
LINE
  5
146
330
36
100
AcDbEntity
  8
0
100
AcDbLine
 10
-20.461841
 20
-952.2767509999999
 30
0.0
 11
-20.680341
 21
-952.2767509999999
 31
0.0
  0
LINE
  5
147
330
36
100
AcDbEntity
  8
0
100
AcDbLine
 10
-24.836841
 20
-952.2767509999999
 30
0.0
 11
-24.574341
 21
-952.2767509999999
 31
0.0
  0
ARC
  5
148
330
36
100
AcDbEntity
  8
0
100
AcDbCircle
 10
17.538159
 20
-904.7767509999999
 30
0.0
 40
4.375
100
AcDbArc
 50
0.0
 51
90.0
  0
LINE
  5
149
330
36
100
AcDbEntity
  8
0
100
AcDbLine
 10
21.913159
 20
-904.7767509999999
 30
0.0
 11
21.913159
 21
-979.089251
 31
0.0
  0
LINE
  5
14A
330
36
100
AcDbEntity
  8
0
100
AcDbLine
 10
17.538159
 20
-900.401751
 30
0.0
 11
-62.836841
 21
-900.401751
 31
0.0
  0
ARC
  5
14B
330
36
100
AcDbEntity
  8
0
100
AcDbCircle
 10
-62.836841
 20
-904.7767509999999
 30
0.0
 40
4.375
100
AcDbArc
 50
90.0
 51
180.0
  0
LINE
  5
14C
330
36
100
AcDbEntity
  8
0
100
AcDbLine
 10
-67.21184100000001
 20
-904.7767509999999
 30
0.0
 11
-67.21184100000001
 21
-979.089251
 31
0.0
  0
ARC
  5
14D
330
36
100
AcDbEntity
  8
0
100
AcDbCircle
 10
-52.348841
 20
-943.102251
 30
0.0
 40
1.103499999999999
100
AcDbArc
 50
349.095
 51
179.484
  0
LINE
  5
14E
330
36
100
AcDbEntity
  8
0
100
AcDbLine
 10
-51.26484099999998
 20
-943.9672510000001
 30
0.0
 11
-51.26484099999998
 21
-943.092251
 31
0.0
  0
LINE
  5
14F
330
36
100
AcDbEntity
  8
0
100
AcDbLine
 10
-53.452341
 20
-943.092251
 30
0.0
 11
-53.452341
 21
-943.9672510000001
 31
0.0
  0
LINE
  5
150
330
36
100
AcDbEntity
  8
0
100
AcDbLine
 10
-53.452341
 20
-943.9672510000001
 30
0.0
 11
-51.26484099999998
 21
-943.9672510000001
 31
0.0
  0
LINE
  5
151
330
36
100
AcDbEntity
  8
0
100
AcDbLine
 10
-55.639841
 20
-940.904751
 30
0.0
 11
-54.764841
 21
-940.904751
 31
0.0
  0
LINE
  5
152
330
36
100
AcDbEntity
  8
0
100
AcDbLine
 10
-55.639841
 20
-936.967251
 30
0.0
 11
-55.639841
 21
-940.904751
 31
0.0
  0
LINE
  5
153
330
36
100
AcDbEntity
  8
0
100
AcDbLine
 10
-54.764841
 20
-936.967251
 30
0.0
 11
-55.639841
 21
-936.967251
 31
0.0
  0
LINE
  5
154
330
36
100
AcDbEntity
  8
0
100
AcDbLine
 10
-54.764841
 20
-940.904751
 30
0.0
 11
-54.764841
 21
-936.967251
 31
0.0
  0
LINE
  5
155
330
36
100
AcDbEntity
  8
0
100
AcDbLine
 10
-49.952341
 20
-940.4672510000001
 30
0.0
 11
-49.07734099999998
 21
-940.4672510000001
 31
0.0
  0
LINE
  5
156
330
36
100
AcDbEntity
  8
0
100
AcDbLine
 10
-49.07734099999998
 20
-940.4672510000001
 30
0.0
 11
-49.07734099999998
 21
-937.404751
 31
0.0
  0
LINE
  5
157
330
36
100
AcDbEntity
  8
0
100
AcDbLine
 10
-49.07734099999998
 20
-937.404751
 30
0.0
 11
-49.952341
 21
-937.404751
 31
0.0
  0
LINE
  5
158
330
36
100
AcDbEntity
  8
0
100
AcDbLine
 10
-49.952341
 20
-937.404751
 30
0.0
 11
-49.952341
 21
-940.4672510000001
 31
0.0
  0
LINE
  5
159
330
36
100
AcDbEntity
  8
0
100
AcDbLine
 10
-55.639841
 20
-957.9672509999999
 30
0.0
 11
-54.764841
 21
-957.9672509999999
 31
0.0
  0
LINE
  5
15A
330
36
100
AcDbEntity
  8
0
100
AcDbLine
 10
-55.639841
 20
-954.029751
 30
0.0
 11
-55.639841
 21
-957.9672509999999
 31
0.0
  0
LINE
  5
15B
330
36
100
AcDbEntity
  8
0
100
AcDbLine
 10
-54.764841
 20
-957.9672509999999
 30
0.0
 11
-54.764841
 21
-954.029751
 31
0.0
  0
LINE
  5
15C
330
36
100
AcDbEntity
  8
0
100
AcDbLine
 10
-54.764841
 20
-954.029751
 30
0.0
 11
-55.639841
 21
-954.029751
 31
0.0
  0
ARC
  5
15D
330
36
100
AcDbEntity
  8
0
100
AcDbCircle
 10
-52.348841
 20
-960.1647510000001
 30
0.0
 40
1.103499999999999
100
AcDbArc
 50
349.095
 51
179.484
  0
LINE
  5
15E
330
36
100
AcDbEntity
  8
0
100
AcDbLine
 10
-53.452341
 20
-960.1547510000001
 30
0.0
 11
-53.452341
 21
-961.029751
 31
0.0
  0
LINE
  5
15F
330
36
100
AcDbEntity
  8
0
100
AcDbLine
 10
-51.26484099999998
 20
-961.029751
 30
0.0
 11
-51.26484099999998
 21
-960.1547510000001
 31
0.0
  0
LINE
  5
160
330
36
100
AcDbEntity
  8
0
100
AcDbLine
 10
-53.452341
 20
-961.029751
 30
0.0
 11
-51.26484099999998
 21
-961.029751
 31
0.0
  0
LINE
  5
161
330
36
100
AcDbEntity
  8
0
100
AcDbLine
 10
-49.952341
 20
-957.529751
 30
0.0
 11
-49.07734099999998
 21
-957.529751
 31
0.0
  0
LINE
  5
162
330
36
100
AcDbEntity
  8
0
100
AcDbLine
 10
-49.952341
 20
-954.4672509999999
 30
0.0
 11
-49.952341
 21
-957.529751
 31
0.0
  0
LINE
  5
163
330
36
100
AcDbEntity
  8
0
100
AcDbLine
 10
-49.07734099999998
 20
-954.4672509999999
 30
0.0
 11
-49.952341
 21
-954.4672509999999
 31
0.0
  0
LINE
  5
164
330
36
100
AcDbEntity
  8
0
100
AcDbLine
 10
-49.07734099999998
 20
-957.529751
 30
0.0
 11
-49.07734099999998
 21
-954.4672509999999
 31
0.0
  0
LINE
  5
165
330
36
100
AcDbEntity
  8
0
100
AcDbLine
 10
3.735158999999999
 20
-957.9672509999999
 30
0.0
 11
4.610158999999998
 21
-957.9672509999999
 31
0.0
  0
LINE
  5
166
330
36
100
AcDbEntity
  8
0
100
AcDbLine
 10
4.610158999999998
 20
-957.9672509999999
 30
0.0
 11
4.610158999999998
 21
-954.029751
 31
0.0
  0
LINE
  5
167
330
36
100
AcDbEntity
  8
0
100
AcDbLine
 10
4.610158999999998
 20
-954.029751
 30
0.0
 11
3.735158999999999
 21
-954.029751
 31
0.0
  0
LINE
  5
168
330
36
100
AcDbEntity
  8
0
100
AcDbLine
 10
3.735158999999999
 20
-954.029751
 30
0.0
 11
3.735158999999999
 21
-957.9672509999999
 31
0.0
  0
LINE
  5
169
330
36
100
AcDbEntity
  8
0
100
AcDbLine
 10
9.422658999999999
 20
-957.529751
 30
0.0
 11
10.297659
 21
-957.529751
 31
0.0
  0
LINE
  5
16A
330
36
100
AcDbEntity
  8
0
100
AcDbLine
 10
10.297659
 20
-957.529751
 30
0.0
 11
10.297659
 21
-954.4672509999999
 31
0.0
  0
LINE
  5
16B
330
36
100
AcDbEntity
  8
0
100
AcDbLine
 10
10.297659
 20
-954.4672509999999
 30
0.0
 11
9.422658999999999
 21
-954.4672509999999
 31
0.0
  0
LINE
  5
16C
330
36
100
AcDbEntity
  8
0
100
AcDbLine
 10
9.422658999999999
 20
-954.4672509999999
 30
0.0
 11
9.422658999999999
 21
-957.529751
 31
0.0
  0
LINE
  5
16D
330
36
100
AcDbEntity
  8
0
100
AcDbLine
 10
5.922658999999997
 20
-961.029751
 30
0.0
 11
8.110158999999999
 21
-961.029751
 31
0.0
  0
LINE
  5
16E
330
36
100
AcDbEntity
  8
0
100
AcDbLine
 10
8.110158999999999
 20
-961.029751
 30
0.0
 11
8.110158999999999
 21
-960.1547510000001
 31
0.0
  0
LINE
  5
16F
330
36
100
AcDbEntity
  8
0
100
AcDbLine
 10
5.922658999999997
 20
-960.1547510000001
 30
0.0
 11
5.922658999999997
 21
-961.029751
 31
0.0
  0
ARC
  5
170
330
36
100
AcDbEntity
  8
0
100
AcDbCircle
 10
7.026158999999998
 20
-960.1647510000001
 30
0.0
 40
1.103499999999999
100
AcDbArc
 50
349.095
 51
179.484
  0
LINE
  5
171
330
36
100
AcDbEntity
  8
0
100
AcDbLine
 10
3.735158999999999
 20
-940.904751
 30
0.0
 11
4.610158999999998
 21
-940.904751
 31
0.0
  0
LINE
  5
172
330
36
100
AcDbEntity
  8
0
100
AcDbLine
 10
4.610158999999998
 20
-940.904751
 30
0.0
 11
4.610158999999998
 21
-936.967251
 31
0.0
  0
LINE
  5
173
330
36
100
AcDbEntity
  8
0
100
AcDbLine
 10
4.610158999999998
 20
-936.967251
 30
0.0
 11
3.735158999999999
 21
-936.967251
 31
0.0
  0
LINE
  5
174
330
36
100
AcDbEntity
  8
0
100
AcDbLine
 10
3.735158999999999
 20
-936.967251
 30
0.0
 11
3.735158999999999
 21
-940.904751
 31
0.0
  0
LINE
  5
175
330
36
100
AcDbEntity
  8
0
100
AcDbLine
 10
9.422658999999999
 20
-940.4672510000001
 30
0.0
 11
10.297659
 21
-940.4672510000001
 31
0.0
  0
LINE
  5
176
330
36
100
AcDbEntity
  8
0
100
AcDbLine
 10
10.297659
 20
-940.4672510000001
 30
0.0
 11
10.297659
 21
-937.404751
 31
0.0
  0
LINE
  5
177
330
36
100
AcDbEntity
  8
0
100
AcDbLine
 10
10.297659
 20
-937.404751
 30
0.0
 11
9.422658999999999
 21
-937.404751
 31
0.0
  0
LINE
  5
178
330
36
100
AcDbEntity
  8
0
100
AcDbLine
 10
9.422658999999999
 20
-937.404751
 30
0.0
 11
9.422658999999999
 21
-940.4672510000001
 31
0.0
  0
LINE
  5
179
330
36
100
AcDbEntity
  8
0
100
AcDbLine
 10
5.922658999999997
 20
-943.9672510000001
 30
0.0
 11
8.110158999999999
 21
-943.9672510000001
 31
0.0
  0
LINE
  5
17A
330
36
100
AcDbEntity
  8
0
100
AcDbLine
 10
8.110158999999999
 20
-943.9672510000001
 30
0.0
 11
8.110158999999999
 21
-943.092251
 31
0.0
  0
LINE
  5
17B
330
36
100
AcDbEntity
  8
0
100
AcDbLine
 10
5.922658999999997
 20
-943.092251
 30
0.0
 11
5.922658999999997
 21
-943.9672510000001
 31
0.0
  0
ARC
  5
17C
330
36
100
AcDbEntity
  8
0
100
AcDbCircle
 10
7.026158999999998
 20
-943.102251
 30
0.0
 40
1.103499999999999
100
AcDbArc
 50
349.095
 51
179.484
  0
LINE
  5
17D
330
36
100
AcDbEntity
  8
0
100
AcDbLine
 10
-5.399637
 20
-922.8334189999999
 30
0.0
 11
-39.20845100000001
 21
-922.8334189999999
 31
0.0
  0
LINE
  5
17E
330
36
100
AcDbEntity
  8
0
100
AcDbLine
 10
-5.399637
 20
-922.8334189999999
 30
0.0
 11
-5.399637
 21
-938.555213
 31
0.0
  0
LINE
  5
17F
330
36
100
AcDbEntity
  8
0
100
AcDbLine
 10
-5.399637
 20
-938.555213
 30
0.0
 11
-39.20845100000001
 21
-938.555213
 31
0.0
  0
LINE
  5
180
330
36
100
AcDbEntity
  8
0
100
AcDbLine
 10
-39.20845100000001
 20
-938.555213
 30
0.0
 11
-39.20845100000001
 21
-922.8334189999999
 31
0.0
  0
LINE
  5
181
330
36
100
AcDbEntity
  8
0
100
AcDbLine
 10
200.882159
 20
-957.589251
 30
0.0
 11
200.882159
 21
-949.589251
 31
0.0
  0
TEXT
  5
19F
330
36
100
AcDbEntity
  8
0
100
AcDbText
 10
-24.122684
 20
-948.4981129999999
 30
0.0
 40
1.6
  1
ON
100
AcDbText
  0
TEXT
  5
1A0
330
36
100
AcDbEntity
  8
0
100
AcDbText
 10
-24.71399
 20
-966.2770570000001
 30
0.0
 40
1.6
  1
OFF
100
AcDbText
  0
TEXT
  5
1A1
330
36
100
AcDbEntity
  8
0
100
AcDbText
 10
3.661058
 20
-911.0770049999999
 30
0.0
 40
2.25
  1
電　源
 41
0.833333
100
AcDbText
  0
TEXT
  5
1A2
330
36
100
AcDbEntity
  8
0
100
AcDbText
 10
-28.697746
 20
-908.847158
 30
0.0
 40
2.25
  1
出力電圧計
 41
0.833333
100
AcDbText
  0
TEXT
  5
1A3
330
36
100
AcDbEntity
  8
0
100
AcDbText
 10
-57.24599
 20
-904.9190899999999
 30
0.0
 40
2.25
  1
フルパワー
 41
0.833333
100
AcDbText
  0
TEXT
  5
1A4
330
36
100
AcDbEntity
  8
0
100
AcDbText
 10
-61.402579
 20
-908.8585939999999
 30
0.0
 40
2.25
  1
軽量リングトランス
 41
0.833333
100
AcDbText
  0
TEXT
  5
1A5
330
36
100
AcDbEntity
  8
0
100
AcDbText
 10
-58.87063000000001
 20
-926.535314
 30
0.0
 40
2.25
  1
出力１００Ｖ
 41
0.833333
100
AcDbText
  0
TEXT
  5
1A6
330
36
100
AcDbEntity
  8
0
100
AcDbText
 10
0.351937
 20
-926.5005159999999
 30
0.0
 40
2.25
  1
出力１１５Ｖ
 41
0.833333
100
AcDbText
  0
LINE
  5
1A7
330
36
100
AcDbEntity
  8
0
100
AcDbLine
 10
-14.921029
 20
-916.2294349999999
 30
0.0
 11
-14.264529
 21
-915.5729349999999
 31
0.0
  0
LINE
  5
1A8
330
36
100
AcDbEntity
  8
0
100
AcDbLine
 10
-30.310529
 20
-916.3239349999999
 30
0.0
 11
-30.747529
 21
-915.6674349999999
 31
0.0
  0
LINE
  5
1A9
330
36
100
AcDbEntity
  8
0
100
AcDbLine
 10
-30.091529
 20
-916.3239349999999
 30
0.0
 11
-22.435529
 21
-921.3549349999999
 31
0.0
  0
LINE
  5
1AA
330
36
100
AcDbEntity
  8
0
100
AcDbLine
 10
-30.310529
 20
-916.3239349999999
 30
0.0
 11
-30.091529
 21
-916.3239349999999
 31
0.0
  0
LINE
  5
1AB
330
36
100
AcDbEntity
  8
0
100
AcDbLine
 10
-22.654029
 20
-921.3549349999999
 30
0.0
 11
-30.310529
 21
-916.3239349999999
 31
0.0
  0
LINE
  5
1AE
330
36
100
AcDbEntity
  8
0
 62
     3
100
AcDbLine
 10
254.661749
 20
-1109.662494
 30
0.0
 11
254.661749
 21
-1086.662494
 31
0.0
  0
LINE
  5
1B0
330
36
100
AcDbEntity
  8
0
 62
     3
100
AcDbLine
 10
201.60814
 20
-1116.662494
 30
0.0
 11
201.60814
 21
-1102.662494
 31
0.0
  0
TEXT
  5
1B2
330
36
100
AcDbEntity
  8
0
 62
     3
100
AcDbText
 10
230.672067
 20
-1090.457377999999
 30
0.0
 40
2.0
  1
A
 41
0.7
100
AcDbText
  0
TEXT
  5
1B3
330
36
100
AcDbEntity
  8
0
 62
     3
100
AcDbText
 10
233.207353
 20
-1090.457377999999
 30
0.0
 40
2.0
  1
P
 41
0.7
100
AcDbText
  0
TEXT
  5
1B4
330
36
100
AcDbEntity
  8
0
 62
     3
100
AcDbText
 10
235.742639
 20
-1090.457377999999
 30
0.0
 40
2.0
  1
P
 41
0.7
100
AcDbText
  0
TEXT
  5
1B5
330
36
100
AcDbEntity
  8
0
 62
     3
100
AcDbText
 10
238.277926
 20
-1090.457377999999
 30
0.0
 40
2.0
  1
D
 41
0.7
100
AcDbText
  0
TEXT
  5
1B6
330
36
100
AcDbEntity
  8
0
 62
     3
100
AcDbText
 10
243.646609
 20
-1090.457377999999
 30
0.0
 40
2.0
  1
C
 41
0.7
100
AcDbText
  0
TEXT
  5
1B7
330
36
100
AcDbEntity
  8
0
 62
     3
100
AcDbText
 10
246.181895
 20
-1090.457377999999
 30
0.0
 40
2.0
  1
H
 41
0.7
100
AcDbText
  0
TEXT
  5
1B8
330
36
100
AcDbEntity
  8
0
 62
     3
100
AcDbText
 10
248.717181
 20
-1090.457377999999
 30
0.0
 40
2.0
  1
C
 41
0.7
100
AcDbText
  0
TEXT
  5
1B9
330
36
100
AcDbEntity
  8
0
 62
     3
100
AcDbText
 10
251.252467
 20
-1090.457377999999
 30
0.0
 40
2.0
  1
K
 41
0.7
100
AcDbText
  0
TEXT
  5
1BA
330
36
100
AcDbEntity
  8
0
 62
     3
100
AcDbText
 10
256.926434
 20
-1090.457377999999
 30
0.0
 40
2.0
  1
DESN
 41
1.216762999999998
100
AcDbText
  0
TEXT
  5
1BB
330
36
100
AcDbEntity
  8
0
 62
     3
100
AcDbText
 10
171.920075
 20
-1119.803876
 30
0.0
 40
2.0
  1
NICHIDO IND.CO.LTD
 41
1.274876
100
AcDbText
  0
LINE
  5
1BC
330
36
100
AcDbEntity
  8
0
 62
     3
100
AcDbLine
 10
182.303105
 20
-1086.662494
 30
0.0
 11
182.303105
 21
-1109.662494
 31
0.0
  0
LINE
  5
1BD
330
36
100
AcDbEntity
  8
0
 62
     3
100
AcDbLine
 10
228.6617490000001
 20
-1086.662494
 30
0.0
 11
228.661749
 21
-1126.328216
 31
0.0
  0
LINE
  5
1C2
330
36
100
AcDbEntity
  8
0
 62
     3
100
AcDbLine
 10
241.661749
 20
-1086.662494
 30
0.0
 11
241.661749
 21
-1116.662494
 31
0.0
  0
TEXT
  5
1C3
330
36
100
AcDbEntity
  8
0
 62
     3
100
AcDbText
 10
229.774194
 20
-1115.797807
 30
0.0
 40
3.2
  1
作成日
 41
1.017225999999997
100
AcDbText
  0
LINE
  5
1C4
330
36
100
AcDbEntity
  8
0
 62
     3
100
AcDbLine
 10
280.361112
 20
-1086.662494
 30
0.0
 11
169.05767
 21
-1086.662494
 31
0.0
  0
LINE
  5
1C5
330
36
100
AcDbEntity
  8
0
 62
     3
100
AcDbLine
 10
267.661749
 20
-1109.662494
 30
0.0
 11
267.661749
 21
-1086.662494
 31
0.0
  0
TEXT
  5
1C6
330
36
100
AcDbEntity
  8
0
 62
     3
100
AcDbText
 10
270.985552
 20
-1090.371559
 30
0.0
 40
1.8
  1
D
 41
0.666667
100
AcDbText
  0
TEXT
  5
1C7
330
36
100
AcDbEntity
  8
0
 62
     3
100
AcDbText
 10
273.802181
 20
-1090.371559
 30
0.0
 40
1.8
  1
E
 41
0.666667
100
AcDbText
  0
TEXT
  5
1C8
330
36
100
AcDbEntity
  8
0
 62
     3
100
AcDbText
 10
276.618809
 20
-1090.371559
 30
0.0
 40
1.8
  1
F
 41
0.666667
100
AcDbText
  0
TEXT
  5
1C9
330
36
100
AcDbEntity
  8
0
 62
     3
100
AcDbText
 10
270.985552
 20
-1094.364113
 30
0.0
 40
3.2
  1
製図
 41
1.076369
100
AcDbText
  0
LINE
  5
1CA
330
36
100
AcDbEntity
  8
0
 62
     3
100
AcDbLine
 10
169.05767
 20
-1086.662494
 30
0.0
 11
169.05767
 21
-1126.328216
 31
0.0
  0
TEXT
  5
1CB
330
36
100
AcDbEntity
  8
0
 62
     3
100
AcDbText
 10
170.434323
 20
-1125.995751
 30
0.0
 40
5.0
  1
日動工業株式会社
 41
0.833333
100
AcDbText
  0
LINE
  5
1CC
330
36
100
AcDbEntity
  8
0
 62
     3
100
AcDbLine
 10
211.940074
 20
-1102.662494
 30
0.0
 11
211.940074
 21
-1126.328216
 31
0.0
  0
LINE
  5
1CD
330
36
100
AcDbEntity
  8
0
 62
     3
100
AcDbLine
 10
211.940074
 20
-1121.495355
 30
0.0
 11
228.661749
 21
-1121.495355
 31
0.0
  0
TEXT
  5
1CE
330
36
100
AcDbEntity
  8
0
 62
     3
100
AcDbText
 10
212.526676
 20
-1120.678924
 30
0.0
 40
3.2
  1
出図コード
 41
0.8356860000000001
100
AcDbText
  0
LINE
  5
1D1
330
36
100
AcDbEntity
  8
0
 62
     3
100
AcDbLine
 10
169.05767
 20
-1095.662494
 30
0.0
 11
280.361112
 21
-1095.662494
 31
0.0
  0
LINE
  5
1D7
330
36
100
AcDbEntity
  8
0
 62
     3
100
AcDbLine
 10
169.05767
 20
-1102.662494
 30
0.0
 11
228.661749
 21
-1102.662494
 31
0.0
  0
LINE
  5
1DD
330
36
100
AcDbEntity
  8
0
 62
     3
100
AcDbLine
 10
169.05767
 20
-1109.662494
 30
0.0
 11
280.361112
 21
-1109.662494
 31
0.0
  0
TEXT
  5
1DE
330
36
100
AcDbEntity
  8
0
 62
     3
100
AcDbText
 10
212.3941279999999
 20
-1125.766021085962
 30
0.0
 40
3.2
  1
ZK-A3X
 41
0.8112849999999999
100
AcDbText
  0
TEXT
  5
1DF
330
36
100
AcDbEntity
  8
0
 62
     3
100
AcDbText
 10
170.875067
 20
-1090.492968
 30
0.0
 40
2.0
  1
CONPONENTS
 41
0.5331600000000001
100
AcDbText
  0
TEXT
  5
1E0
330
36
100
AcDbEntity
  8
0
 62
     3
100
AcDbText
 10
170.52534
 20
-1109.425145
 30
0.0
 40
3.0
  1
材
 41
0.833333
100
AcDbText
  0
TEXT
  5
1E1
330
36
100
AcDbEntity
  8
0
 62
     3
100
AcDbText
 10
178.060983
 20
-1109.425145
 30
0.0
 40
3.0
  1
質
 41
0.833333
100
AcDbText
  0
TEXT
  5
1E2
330
36
100
AcDbEntity
  8
0
 62
     3
100
AcDbText
 10
170.613411
 20
-1098.80062
 30
0.0
 40
2.0
  1
MODEL
 41
1.031072999999999
100
AcDbText
  0
TEXT
  5
1E3
330
36
100
AcDbEntity
  8
0
 62
     3
100
AcDbText
 10
170.52534
 20
-1105.742837
 30
0.0
 40
2.0
  1
MATERIAL
 41
0.659278
100
AcDbText
  0
TEXT
  5
1E4
330
36
100
AcDbEntity
  8
0
 62
     3
100
AcDbText
 10
201.832621
 20
-1109.425145
 30
0.0
 40
3.0
  1
備
 41
0.833333
100
AcDbText
  0
TEXT
  5
1E5
330
36
100
AcDbEntity
  8
0
 62
     3
100
AcDbText
 10
208.565622
 20
-1109.425145
 30
0.0
 40
3.0
  1
考
 41
0.833333
100
AcDbText
  0
TEXT
  5
1E6
330
36
100
AcDbEntity
  8
0
 62
     3
100
AcDbText
 10
202.168157551416
 20
-1105.742837
 30
0.0
 40
2.0
  1
REMARKS
 41
0.675794
100
AcDbText
  0
TEXT
  5
1E7
330
36
100
AcDbEntity
  8
0
 62
     3
100
AcDbText
 10
172.115069
 20
-1112.662957
 30
0.0
 40
2.0
  1
3AD
 41
1.42614
100
AcDbText
  0
TEXT
  5
1E8
330
36
100
AcDbEntity
  8
0
 62
     3
100
AcDbText
 10
181.426049
 20
-1112.497224
 30
0.0
 40
2.0
  1
ANGLE
 41
1.669883999999995
100
AcDbText
  0
TEXT
  5
1E9
330
36
100
AcDbEntity
  8
0
 62
     3
100
AcDbText
 10
202.359936
 20
-1112.874065
 30
0.0
 40
2.0
  1
SCALE
 41
0.7719630000000001
100
AcDbText
  0
TEXT
  5
1EA
330
36
100
AcDbEntity
  8
0
 62
     3
100
AcDbText
 10
171.801199
 20
-1116.662494
 30
0.0
 40
3.0
  1
第
 41
0.833333
100
AcDbText
  0
TEXT
  5
1EB
330
36
100
AcDbEntity
  8
0
 62
     3
100
AcDbText
 10
179.588049
 20
-1116.662494
 30
0.0
 40
3.0
  1
三
 41
0.833333
100
AcDbText
  0
TEXT
  5
1EC
330
36
100
AcDbEntity
  8
0
 62
     3
100
AcDbText
 10
187.374899
 20
-1116.662494
 30
0.0
 40
3.0
  1
角
 41
0.833333
100
AcDbText
  0
TEXT
  5
1ED
330
36
100
AcDbEntity
  8
0
 62
     3
100
AcDbText
 10
195.161749
 20
-1116.662494
 30
0.0
 40
3.0
  1
法
 41
0.833333
100
AcDbText
  0
TEXT
  5
1EE
330
36
100
AcDbEntity
  8
0
 62
     3
100
AcDbText
 10
202.223141
 20
-1116.374065
 30
0.0
 40
3.0
  1
尺
 41
0.833333
100
AcDbText
  0
TEXT
  5
1EF
330
36
100
AcDbEntity
  8
0
 62
     3
100
AcDbText
 10
208.956143
 20
-1116.374065
 30
0.0
 40
3.0
  1
度
 41
0.833333
100
AcDbText
  0
TEXT
  5
1F0
330
36
100
AcDbEntity
  8
0
 62
     3
100
AcDbText
 10
231.539413
 20
-1094.204765
 30
0.0
 40
3.0
  1
承認
 41
1.089472999999999
100
AcDbText
  0
TEXT
  5
1F1
330
36
100
AcDbEntity
  8
0
 62
     3
100
AcDbText
 10
244.782293
 20
-1094.262494
 30
0.0
 40
3.0
  1
検図
 41
0.931761
100
AcDbText
  0
TEXT
  5
1F2
330
36
100
AcDbEntity
  8
0
 62
     3
100
AcDbText
 10
257.78269
 20
-1094.262494
 30
0.0
 40
3.0
  1
設
 41
0.833333
100
AcDbText
  0
TEXT
  5
1F3
330
36
100
AcDbEntity
  8
0
 62
     3
100
AcDbText
 10
262.272558
 20
-1094.262494
 30
0.0
 40
3.0
  1
計
 41
0.833333
100
AcDbText
  0
TEXT
  5
1F4
330
36
100
AcDbEntity
  8
0
 62
     3
100
AcDbText
 10
170.945173
 20
-1094.089941
 30
0.0
 40
3.0
  1
品
 41
0.833333
100
AcDbText
  0
TEXT
  5
1F5
330
36
100
AcDbEntity
  8
0
 62
     3
100
AcDbText
 10
178.480816
 20
-1094.089941
 30
0.0
 40
3.0
  1
名
 41
0.833333
100
AcDbText
  0
TEXT
  5
1F6
330
36
100
AcDbEntity
  8
0
 62
     3
100
AcDbText
 10
170.613411
 20
-1102.327232949177
 30
0.0
 40
3.0
  1
型
 41
0.833333
100
AcDbText
  0
TEXT
  5
1F7
330
36
100
AcDbEntity
  8
0
 62
     3
100
AcDbText
 10
178.161501
 20
-1102.327232949177
 30
0.0
 40
3.0
  1
式
 41
0.833333
100
AcDbText
  0
LINE
  5
22F
330
36
100
AcDbEntity
  8
0
100
AcDbLine
 10
-24.836841
 20
-962.7767509999999
 30
0.0
 11
-20.461841
 21
-962.7767509999999
 31
0.0
  0
LINE
  5
230
330
36
100
AcDbEntity
  8
0
 62
     3
100
AcDbLine
 10
199.382159
 20
-957.589251
 30
0.0
 11
200.882159
 21
-957.589251
 31
0.0
  0
LINE
  5
231
330
36
100
AcDbEntity
  8
0
 62
     3
100
AcDbLine
 10
200.882159
 20
-949.589251
 30
0.0
 11
199.382159
 21
-949.589251
 31
0.0
  0
CIRCLE
  5
233
330
36
100
AcDbEntity
  8
0
 62
     3
100
AcDbCircle
 10
109.251467
 20
-1052.674112
 30
0.0
 40
8.75
  0
CIRCLE
  5
234
330
36
100
AcDbEntity
  8
0
 62
     3
100
AcDbCircle
 10
109.251467
 20
-1065.174112
 30
0.0
 40
0.625
  0
LINE
  5
235
330
36
100
AcDbEntity
  8
0
100
AcDbLine
 10
192.7911519018272
 20
-1019.749949
 30
0.0
 11
192.7911519018272
 21
-1061.329949
 31
0.0
  0
LINE
  5
236
330
36
100
AcDbEntity
  8
0
 62
     7
100
AcDbLine
 10
194.5334831933026
 20
-1018.062932579344
 30
0.0
 11
231.4410465242811
 21
-1018.062932579344
 31
0.0
  0
LINE
  5
237
330
36
100
AcDbEntity
  8
0
 62
     3
100
AcDbLine
 10
255.7354904847781
 20
-1019.749949
 30
0.0
 11
255.7354904847781
 21
-1061.329949
 31
0.0
  0
LINE
  5
238
330
36
100
AcDbEntity
  8
0
 62
     7
100
AcDbLine
 10
5.439998487798302
 20
-1126.328216
 30
0.0
 11
5.439998487798302
 21
-1066.328216
 31
0.0
  0
LINE
  5
239
330
36
100
AcDbEntity
  8
0
100
AcDbLine
 10
111.626467
 20
-1046.549112
 30
0.0
 11
111.626467
 21
-1048.299112
 31
0.0
  0
LINE
  5
23A
330
36
100
AcDbEntity
  8
0
100
AcDbLine
 10
106.876467
 20
-1046.549112
 30
0.0
 11
111.626467
 21
-1046.549112
 31
0.0
  0
LINE
  5
23B
330
36
100
AcDbEntity
  8
0
100
AcDbLine
 10
106.876467
 20
-1046.549112
 30
0.0
 11
106.876467
 21
-1048.299112
 31
0.0
  0
LINE
  5
23C
330
36
100
AcDbEntity
  8
0
100
AcDbLine
 10
106.876467
 20
-1048.299112
 30
0.0
 11
111.626467
 21
-1048.299112
 31
0.0
  0
LINE
  5
23D
330
36
100
AcDbEntity
  8
0
100
AcDbLine
 10
110.063967
 20
-1055.049112
 30
0.0
 11
110.063967
 21
-1059.799112
 31
0.0
  0
LINE
  5
23E
330
36
100
AcDbEntity
  8
0
100
AcDbLine
 10
108.438967
 20
-1055.049112
 30
0.0
 11
110.063967
 21
-1055.049112
 31
0.0
  0
LINE
  5
23F
330
36
100
AcDbEntity
  8
0
100
AcDbLine
 10
108.438967
 20
-1055.049112
 30
0.0
 11
108.438967
 21
-1059.799112
 31
0.0
  0
LINE
  5
240
330
36
100
AcDbEntity
  8
0
100
AcDbLine
 10
113.626467
 20
-1055.049112
 30
0.0
 11
115.251467
 21
-1055.049112
 31
0.0
  0
LINE
  5
241
330
36
100
AcDbEntity
  8
0
100
AcDbLine
 10
113.626467
 20
-1050.299112
 30
0.0
 11
113.626467
 21
-1055.049112
 31
0.0
  0
LINE
  5
242
330
36
100
AcDbEntity
  8
0
100
AcDbLine
 10
113.626467
 20
-1050.299112
 30
0.0
 11
115.251467
 21
-1050.299112
 31
0.0
  0
LINE
  5
243
330
36
100
AcDbEntity
  8
0
100
AcDbLine
 10
104.876467
 20
-1050.299112
 30
0.0
 11
104.876467
 21
-1055.049112
 31
0.0
  0
LINE
  5
244
330
36
100
AcDbEntity
  8
0
100
AcDbLine
 10
103.251467
 20
-1050.299112
 30
0.0
 11
104.876467
 21
-1050.299112
 31
0.0
  0
LINE
  5
245
330
36
100
AcDbEntity
  8
0
100
AcDbLine
 10
103.251467
 20
-1055.049112
 30
0.0
 11
104.876467
 21
-1055.049112
 31
0.0
  0
LINE
  5
246
330
36
100
AcDbEntity
  8
0
100
AcDbLine
 10
103.251467
 20
-1050.299112
 30
0.0
 11
103.251467
 21
-1055.049112
 31
0.0
  0
LINE
  5
247
330
36
100
AcDbEntity
  8
0
100
AcDbLine
 10
115.251467
 20
-1050.299112
 30
0.0
 11
115.251467
 21
-1055.049112
 31
0.0
  0
LINE
  5
248
330
36
100
AcDbEntity
  8
0
100
AcDbLine
 10
108.501467
 20
-1059.799112
 30
0.0
 11
110.063967
 21
-1059.799112
 31
0.0
  0
TEXT
  5
249
330
36
100
AcDbEntity
  8
0
 62
     3
100
AcDbText
 10
-108.1388879999999
 20
-1125.544291
 30
0.0
 40
3.2
  1
NO
 41
0.8
  7
高3.2
100
AcDbText
  0
TEXT
  5
24A
330
36
100
AcDbEntity
  8
0
 62
     3
100
AcDbText
 10
-100.692343
 20
-1125.828216
 30
0.0
 40
3.2
  1
部　　品　　名
 41
0.8
  7
高3.2
100
AcDbText
  0
TEXT
  5
24B
330
36
100
AcDbEntity
  8
0
 62
     3
100
AcDbText
 10
-71.65422359702173
 20
-1125.828216
 30
0.0
 40
3.2
  1
個数　
 41
0.8
  7
高3.2
100
AcDbText
  0
TEXT
  5
24C
330
36
100
AcDbEntity
  8
0
 62
     3
100
AcDbText
 10
-41.48353212457224
 20
-1125.828216
 30
0.0
 40
3.2
  1
備　　　　　考　
 41
0.8
  7
高3.2
100
AcDbText
  0
TEXT
  5
24D
330
36
100
AcDbEntity
  8
0
 62
     3
100
AcDbText
 10
-63.79708073987888
 20
-1125.828216
 30
0.0
 40
3.2
  1
材　　　質
 41
0.8
  7
高3.2
100
AcDbText
  0
LINE
  5
24E
330
36
100
AcDbEntity
  8
0
 62
     3
100
AcDbLine
 10
180.198195
 20
-920.648727
 30
0.0
 11
143.843223
 21
-920.648727
 31
0.0
  0
LINE
  5
24F
330
36
100
AcDbEntity
  8
0
 62
     3
100
AcDbLine
 10
180.198195
 20
-930.6487269999999
 30
0.0
 11
143.843223
 21
-930.6487269999999
 31
0.0
  0
LINE
  5
250
330
36
100
AcDbEntity
  8
0
 62
     3
100
AcDbLine
 10
180.198195
 20
-940.6487269999999
 30
0.0
 11
143.843223
 21
-940.6487269999999
 31
0.0
  0
LINE
  5
251
330
36
100
AcDbEntity
  8
0
 62
     3
100
AcDbLine
 10
180.198195
 20
-950.648727
 30
0.0
 11
143.843223
 21
-950.648727
 31
0.0
  0
LINE
  5
252
330
36
100
AcDbEntity
  8
0
 62
     3
100
AcDbLine
 10
83.130421
 20
-920.648727
 30
0.0
 11
119.485393
 21
-920.648727
 31
0.0
  0
LINE
  5
253
330
36
100
AcDbEntity
  8
0
 62
     3
100
AcDbLine
 10
83.130421
 20
-930.6487269999999
 30
0.0
 11
119.485393
 21
-930.6487269999999
 31
0.0
  0
LINE
  5
254
330
36
100
AcDbEntity
  8
0
 62
     3
100
AcDbLine
 10
83.130421
 20
-940.6487269999999
 30
0.0
 11
119.485393
 21
-940.6487269999999
 31
0.0
  0
LINE
  5
255
330
36
100
AcDbEntity
  8
0
 62
     3
100
AcDbLine
 10
83.130421
 20
-950.648727
 30
0.0
 11
119.485393
 21
-950.648727
 31
0.0
  0
LINE
  5
256
330
36
100
AcDbEntity
  8
0
 62
     3
100
AcDbLine
 10
149.843223
 20
-944.648727
 30
0.0
 11
174.198195
 21
-944.648727
 31
0.0
  0
ARC
  5
257
330
36
100
AcDbEntity
  8
0
 62
     3
100
AcDbCircle
 10
174.198195
 20
-950.648727
 30
0.0
 40
6.0
100
AcDbArc
 50
0.0
 51
90.0
  0
ARC
  5
258
330
36
100
AcDbEntity
  8
0
 62
     3
100
AcDbCircle
 10
149.843223
 20
-950.648727
 30
0.0
 40
6.0
100
AcDbArc
 50
90.0
 51
180.0
  0
LINE
  5
259
330
36
100
AcDbEntity
  8
0
 62
     3
100
AcDbLine
 10
113.485393
 20
-944.648727
 30
0.0
 11
89.130421
 21
-944.648727
 31
0.0
  0
ARC
  5
25A
330
36
100
AcDbEntity
  8
0
 62
     3
100
AcDbCircle
 10
89.130421
 20
-950.648727
 30
0.0
 40
6.0
100
AcDbArc
 50
90.0
 51
180.0
  0
ARC
  5
25B
330
36
100
AcDbEntity
  8
0
 62
     3
100
AcDbCircle
 10
113.485393
 20
-950.648727
 30
0.0
 40
6.0
100
AcDbArc
 50
0.0
 51
90.0
  0
LINE
  5
25C
330
36
100
AcDbEntity
  8
0
 62
     3
100
AcDbLine
 10
149.843223
 20
-934.648727
 30
0.0
 11
174.198195
 21
-934.648727
 31
0.0
  0
ARC
  5
25D
330
36
100
AcDbEntity
  8
0
 62
     3
100
AcDbCircle
 10
174.198195
 20
-940.6487269999999
 30
0.0
 40
6.0
100
AcDbArc
 50
0.0
 51
90.0
  0
ARC
  5
25E
330
36
100
AcDbEntity
  8
0
 62
     3
100
AcDbCircle
 10
149.843223
 20
-940.6487269999999
 30
0.0
 40
6.0
100
AcDbArc
 50
90.0
 51
180.0
  0
LINE
  5
25F
330
36
100
AcDbEntity
  8
0
 62
     3
100
AcDbLine
 10
113.485393
 20
-934.648727
 30
0.0
 11
89.130421
 21
-934.648727
 31
0.0
  0
ARC
  5
260
330
36
100
AcDbEntity
  8
0
 62
     3
100
AcDbCircle
 10
89.130421
 20
-940.6487269999999
 30
0.0
 40
6.0
100
AcDbArc
 50
90.0
 51
180.0
  0
ARC
  5
261
330
36
100
AcDbEntity
  8
0
 62
     3
100
AcDbCircle
 10
113.485393
 20
-940.6487269999999
 30
0.0
 40
6.0
100
AcDbArc
 50
0.0
 51
90.0
  0
LINE
  5
262
330
36
100
AcDbEntity
  8
0
 62
     3
100
AcDbLine
 10
149.843223
 20
-924.6487270000001
 30
0.0
 11
174.198195
 21
-924.6487270000001
 31
0.0
  0
ARC
  5
263
330
36
100
AcDbEntity
  8
0
 62
     3
100
AcDbCircle
 10
174.198195
 20
-930.6487269999999
 30
0.0
 40
6.0
100
AcDbArc
 50
0.0
 51
90.0
  0
ARC
  5
264
330
36
100
AcDbEntity
  8
0
 62
     3
100
AcDbCircle
 10
149.843223
 20
-930.6487269999999
 30
0.0
 40
6.0
100
AcDbArc
 50
90.0
 51
180.0
  0
LINE
  5
265
330
36
100
AcDbEntity
  8
0
 62
     3
100
AcDbLine
 10
113.485393
 20
-924.6487270000001
 30
0.0
 11
89.130421
 21
-924.6487270000001
 31
0.0
  0
ARC
  5
266
330
36
100
AcDbEntity
  8
0
 62
     3
100
AcDbCircle
 10
89.130421
 20
-930.6487269999999
 30
0.0
 40
6.0
100
AcDbArc
 50
90.0
 51
180.0
  0
ARC
  5
267
330
36
100
AcDbEntity
  8
0
 62
     3
100
AcDbCircle
 10
113.485393
 20
-930.6487269999999
 30
0.0
 40
6.0
100
AcDbArc
 50
0.0
 51
90.0
  0
LINE
  5
268
330
36
100
AcDbEntity
  8
0
 62
     3
100
AcDbLine
 10
149.843223
 20
-914.6487269999999
 30
0.0
 11
174.198195
 21
-914.6487269999999
 31
0.0
  0
ARC
  5
269
330
36
100
AcDbEntity
  8
0
 62
     3
100
AcDbCircle
 10
174.198195
 20
-920.648727
 30
0.0
 40
6.0
100
AcDbArc
 50
0.0
 51
90.0
  0
ARC
  5
26A
330
36
100
AcDbEntity
  8
0
 62
     3
100
AcDbCircle
 10
149.843223
 20
-920.648727
 30
0.0
 40
6.0
100
AcDbArc
 50
90.0
 51
180.0
  0
LINE
  5
26B
330
36
100
AcDbEntity
  8
0
 62
     3
100
AcDbLine
 10
113.485393
 20
-914.6487269999999
 30
0.0
 11
89.130421
 21
-914.6487269999999
 31
0.0
  0
ARC
  5
26C
330
36
100
AcDbEntity
  8
0
 62
     3
100
AcDbCircle
 10
89.130421
 20
-920.648727
 30
0.0
 40
6.0
100
AcDbArc
 50
90.0
 51
180.0
  0
ARC
  5
26D
330
36
100
AcDbEntity
  8
0
 62
     3
100
AcDbCircle
 10
113.485393
 20
-920.648727
 30
0.0
 40
6.0
100
AcDbArc
 50
0.0
 51
90.0
  0
CIRCLE
  5
282
330
36
100
AcDbEntity
  8
0
100
AcDbCircle
 10
110.620395
 20
-876.3656349999999
 30
0.0
 40
5.0
  0
TEXT
  5
283
330
36
100
AcDbEntity
  8
0
 62
     4
100
AcDbText
 10
108.4712778319709
 20
-879.6864616430928
 30
0.0
 40
6.299999999999998
  1
2
  7
高6.3
100
AcDbText
  0
CIRCLE
  5
28A
330
36
100
AcDbEntity
  8
0
100
AcDbCircle
 10
82.942393
 20
-876.3656349999999
 30
0.0
 40
5.0
  0
TEXT
  5
28B
330
36
100
AcDbEntity
  8
0
 62
     4
100
AcDbText
 10
80.79327583197095
 20
-879.6864616430928
 30
0.0
 40
6.299999999999998
  1
4
  7
高6.3
100
AcDbText
  0
CIRCLE
  5
292
330
36
100
AcDbEntity
  8
0
100
AcDbCircle
 10
0.588009
 20
-875.9544509999997
 30
0.0
 40
5.0
  0
TEXT
  5
293
330
36
100
AcDbEntity
  8
0
 62
     4
100
AcDbText
 10
-1.561108168029078
 20
-879.2752766430931
 30
0.0
 40
6.299999999999998
  1
7
  7
高6.3
100
AcDbText
  0
CIRCLE
  5
29A
330
36
100
AcDbEntity
  8
0
100
AcDbCircle
 10
48.93292609778903
 20
-876.7793298109213
 30
0.0
 40
5.0
  0
TEXT
  5
29B
330
36
100
AcDbEntity
  8
0
 62
     4
100
AcDbText
 10
46.24392470961675
 20
-879.1315121252106
 30
0.0
 40
4.5
  1
10
  7
高4.5
100
AcDbText
  0
CIRCLE
  5
2A2
330
36
100
AcDbEntity
  8
0
100
AcDbCircle
 10
-44.710296
 20
-876.338068
 30
0.0
 40
5.0
  0
TEXT
  5
2A3
330
36
100
AcDbEntity
  8
0
 62
     4
100
AcDbText
 10
-46.85941316802908
 20
-879.6588936430934
 30
0.0
 40
6.299999999999998
  1
8
  7
高6.3
100
AcDbText
  0
CIRCLE
  5
2AA
330
36
100
AcDbEntity
  8
0
100
AcDbCircle
 10
-76.32009599999998
 20
-876.338068
 30
0.0
 40
5.0
  0
TEXT
  5
2AB
330
36
100
AcDbEntity
  8
0
 62
     4
100
AcDbText
 10
-78.46921316802905
 20
-879.6588936430934
 30
0.0
 40
6.299999999999998
  1
9
  7
高6.3
100
AcDbText
  0
CIRCLE
  5
2B2
330
36
100
AcDbEntity
  8
0
100
AcDbCircle
 10
-83.13033799999997
 20
-988.9897409999999
 30
0.0
 40
5.0
  0
TEXT
  5
2B3
330
36
100
AcDbEntity
  8
0
 62
     4
100
AcDbText
 10
-85.80252498073289
 20
-991.2139167076148
 30
0.0
 40
4.5
  1
11
  7
高4.5
100
AcDbText
  0
CIRCLE
  5
2BA
330
36
100
AcDbEntity
  8
0
100
AcDbCircle
 10
34.664868
 20
-876.4738169999999
 30
0.0
 40
5.0
  0
TEXT
  5
2BB
330
36
100
AcDbEntity
  8
0
 62
     4
100
AcDbText
 10
32.51575083197092
 20
-879.7946426430931
 30
0.0
 40
6.299999999999998
  1
5
  7
高6.3
100
AcDbText
  0
CIRCLE
  5
2C2
330
36
100
AcDbEntity
  8
0
100
AcDbCircle
 10
18.073093
 20
-876.4738169999999
 30
0.0
 40
5.0
  0
TEXT
  5
2C3
330
36
100
AcDbEntity
  8
0
 62
     4
100
AcDbText
 10
15.92397583197092
 20
-879.7946426430931
 30
0.0
 40
6.299999999999998
  1
6
  7
高6.3
100
AcDbText
  0
LINE
  5
2C4
330
36
100
AcDbEntity
  8
0
 62
     3
100
AcDbLine
 10
280.361112
 20
-852.272855
 30
0.0
 11
280.361112
 21
-1126.328216
 31
0.0
  0
TEXT
  5
2C6
330
36
100
AcDbEntity
  8
0
 62
     3
100
AcDbText
 10
212.0511965717769
 20
-1053.416022
 30
0.0
 40
4.5
  1
11.0kg
  7
高4.5
100
AcDbText
  0
TEXT
  5
2C7
330
36
100
AcDbEntity
  8
0
 62
     3
100
AcDbText
 10
189.054205198985
 20
-1101.50309
 30
0.0
 40
4.5
  1
TB-300D
  7
高4.5
100
AcDbText
  0
TEXT
  5
2C8
330
36
100
AcDbEntity
  8
0
 62
     3
100
AcDbText
 10
232.328945335041
 20
-1125.180988
 30
0.0
 40
6.299999999999998
  1
TB-300D
  7
高6.3
100
AcDbText
  0
LINE
  5
2C9
330
36
100
AcDbEntity
  8
0
 62
     3
100
AcDbLine
 10
169.05767
 20
-1116.662494
 30
0.0
 11
280.361112
 21
-1116.662494
 31
0.0
  0
TEXT
  5
2CA
330
36
100
AcDbEntity
  8
0
 62
     3
100
AcDbText
 10
213.890096
 20
-1115.731593
 30
0.0
 40
3.2
  1
FREE
  7
高3.2
100
AcDbText
  0
TEXT
  5
2CB
330
36
100
AcDbEntity
  8
0
 62
     3
100
AcDbText
 10
187.649898
 20
-1108.961465670866
 30
0.0
 40
3.2
  1
別　掲
  7
高3.2
100
AcDbText
  0
LINE
  5
2CC
330
36
100
AcDbEntity
  8
0
 62
     7
100
AcDbLine
 10
107.797807
 20
-1020.794766660429
 30
0.0
 11
135.235307
 21
-1020.794766660429
 31
0.0
  0
LINE
  5
2CE
330
36
100
AcDbEntity
  8
0
100
AcDbLine
 10
-42.98353212457223
 20
-1126.328216
 30
0.0
 11
-42.98353212457223
 21
-1066.328216
 31
0.0
  0
LINE
  5
2CF
330
36
100
AcDbEntity
  8
0
100
AcDbLine
 10
-65.29708073987888
 20
-1126.328216
 30
0.0
 11
-65.29708073987888
 21
-1066.328216
 31
0.0
  0
LINE
  5
2D0
330
36
100
AcDbEntity
  8
0
100
AcDbLine
 10
-73.15422359702172
 20
-1126.328216
 30
0.0
 11
-73.15422359702172
 21
-1066.328216
 31
0.0
  0
LINE
  5
2D1
330
36
100
AcDbEntity
  8
0
100
AcDbLine
 10
-102.1923429999999
 20
-1126.328216
 30
0.0
 11
-102.192343
 21
-1066.328216
 31
0.0
  0
LINE
  5
2D2
330
36
100
AcDbEntity
  8
0
100
AcDbLine
 10
149.862879
 20
-1052.674112
 30
0.0
 11
115.251467
 21
-1052.674112
 31
0.0
  0
LINE
  5
2D3
330
36
100
AcDbEntity
  8
0
100
AcDbLine
 10
109.251467
 20
-1033.924112
 30
0.0
 11
109.251467
 21
-1046.549112
 31
0.0
  0
LINE
  5
2D4
330
36
100
AcDbEntity
  8
0
 62
     3
100
AcDbLine
 10
280.261076
 20
-1080.662494
 30
0.0
 11
228.661713
 21
-1080.662494
 31
0.0
  0
TEXT
  5
2D5
330
36
100
AcDbEntity
  8
0
 62
     3
100
AcDbText
 10
234.02467666546
 20
-1086.106409
 30
0.0
 40
4.5
  1
コード
  7
高4.5
100
AcDbText
  0
LINE
  5
2D6
330
36
100
AcDbEntity
  8
0
 62
     3
100
AcDbLine
 10
254.661713
 20
-1086.662494
 30
0.0
 11
254.661713
 21
-1080.662494
 31
0.0
  0
LINE
  5
2D7
330
36
100
AcDbEntity
  8
0
 62
     3
100
AcDbLine
 10
228.661713
 20
-1086.662494
 30
0.0
 11
228.661713
 21
-1080.662494
 31
0.0
  0
TEXT
  5
2D8
330
36
100
AcDbEntity
  8
0
 62
     3
100
AcDbText
 10
259.3613616511802
 20
-1086.164138
 30
0.0
 40
4.5
  1
5597
  7
高4.5
100
AcDbText
  0
TEXT
  5
2D9
330
36
100
AcDbEntity
  8
0
 62
     3
100
AcDbText
 10
6.939998487798296
 20
-1125.828216
 30
0.0
 40
3.2
  1
コード
 41
0.8
  7
高3.2
100
AcDbText
  0
LINE
  5
2DA
330
36
100
AcDbEntity
  8
0
 62
     3
100
AcDbLine
 10
101.8998662638329
 20
-1126.328216
 30
0.0
 11
101.8998662638329
 21
-1066.328216
 31
0.0
  0
LINE
  5
2DB
330
36
100
AcDbEntity
  8
0
 62
     3
100
AcDbLine
 10
101.8998662638329
 20
-1066.328216
 30
0.0
 11
-109.638888
 21
-1066.328216
 31
0.0
  0
LINE
  5
2DC
330
36
100
AcDbEntity
  8
0
100
AcDbLine
 10
101.8998662638329
 20
-1071.328216
 30
0.0
 11
-109.638888
 21
-1071.328216
 31
0.0
  0
LINE
  5
2DD
330
36
100
AcDbEntity
  8
0
100
AcDbLine
 10
101.8998662638329
 20
-1076.328216
 30
0.0
 11
-109.638888
 21
-1076.328216
 31
0.0
  0
LINE
  5
2DE
330
36
100
AcDbEntity
  8
0
100
AcDbLine
 10
101.8998662638329
 20
-1081.328216
 30
0.0
 11
-109.638888
 21
-1081.328216
 31
0.0
  0
LINE
  5
2DF
330
36
100
AcDbEntity
  8
0
100
AcDbLine
 10
101.8998662638329
 20
-1086.328216
 30
0.0
 11
-109.638888
 21
-1086.328216
 31
0.0
  0
LINE
  5
2E0
330
36
100
AcDbEntity
  8
0
100
AcDbLine
 10
101.8998662638329
 20
-1091.328216
 30
0.0
 11
-109.638888
 21
-1091.328216
 31
0.0
  0
LINE
  5
2E1
330
36
100
AcDbEntity
  8
0
100
AcDbLine
 10
101.8998662638329
 20
-1096.328216
 30
0.0
 11
-109.638888
 21
-1096.328216
 31
0.0
  0
LINE
  5
2E2
330
36
100
AcDbEntity
  8
0
100
AcDbLine
 10
101.8998662638329
 20
-1101.328216
 30
0.0
 11
-109.638888
 21
-1101.328216
 31
0.0
  0
LINE
  5
2E3
330
36
100
AcDbEntity
  8
0
100
AcDbLine
 10
101.8998662638329
 20
-1106.328216
 30
0.0
 11
-109.638888
 21
-1106.328216
 31
0.0
  0
LINE
  5
2E4
330
36
100
AcDbEntity
  8
0
100
AcDbLine
 10
101.8998662638329
 20
-1116.328216
 30
0.0
 11
-109.638888
 21
-1116.328216
 31
0.0
  0
LINE
  5
2E5
330
36
100
AcDbEntity
  8
0
 62
     3
100
AcDbLine
 10
101.8998662638329
 20
-1121.328216
 30
0.0
 11
-109.638888
 21
-1121.328216
 31
0.0
  0
CIRCLE
  5
2E6
330
36
100
AcDbEntity
  8
0
 62
     3
100
AcDbCircle
 10
150.800379
 20
-1033.924112
 30
0.0
 40
0.9375
  0
CIRCLE
  5
2E7
330
36
100
AcDbEntity
  8
0
 62
     3
100
AcDbCircle
 10
150.800379
 20
-1052.674112
 30
0.0
 40
0.9375
  0
LINE
  5
2E8
330
36
100
AcDbEntity
  8
0
 62
     3
100
AcDbLine
 10
167.568934
 20
-1061.329949
 30
0.0
 11
255.7354904847781
 21
-1061.329949
 31
0.0
  0
LINE
  5
2E9
330
36
100
AcDbEntity
  8
0
 62
     3
100
AcDbLine
 10
167.568934
 20
-1019.749949
 30
0.0
 11
167.568934
 21
-1061.329949
 31
0.0
  0
LINE
  5
2EA
330
36
100
AcDbEntity
  8
0
 62
     3
100
AcDbLine
 10
167.568934
 20
-1019.749949
 30
0.0
 11
255.7354904847781
 21
-1019.749949
 31
0.0
  0
LINE
  5
2EB
330
36
100
AcDbEntity
  8
0
  6
CENTER
 62
     3
100
AcDbLine
 10
107.432035
 20
-1067.579647
 30
0.0
 11
111.182035
 21
-1067.579647
 31
0.0
  0
LINE
  5
2EC
330
36
100
AcDbEntity
  8
0
  6
CENTER
 62
     3
100
AcDbLine
 10
108.057035
 20
-1068.379647
 30
0.0
 11
110.557035
 21
-1068.379647
 31
0.0
  0
LINE
  5
2ED
330
36
100
AcDbEntity
  8
0
  6
CENTER
 62
     3
100
AcDbLine
 10
108.682035
 20
-1069.179647
 30
0.0
 11
109.932035
 21
-1069.179647
 31
0.0
  0
TEXT
  5
2EE
330
36
100
AcDbEntity
  8
0
 62
     3
100
AcDbText
 10
169.548934
 20
-1032.619949
 30
0.0
 40
4.5
  1
入力電圧
  7
高4.5
100
AcDbText
  0
TEXT
  5
2EF
330
36
100
AcDbEntity
  8
0
 62
     3
100
AcDbText
 10
169.548934
 20
-1039.549949
 30
0.0
 40
4.5
  1
出力電圧
  7
高4.5
100
AcDbText
  0
TEXT
  5
2F0
330
36
100
AcDbEntity
  8
0
 62
     3
100
AcDbText
 10
169.548934
 20
-1046.479949
 30
0.0
 40
4.5
  1
容　　量
  7
高4.5
100
AcDbText
  0
TEXT
  5
2F1
330
36
100
AcDbEntity
  8
0
 62
     3
100
AcDbText
 10
169.548934
 20
-1053.409949
 30
0.0
 40
4.5
  1
質　　量
  7
高4.5
100
AcDbText
  0
TEXT
  5
2F2
330
36
100
AcDbEntity
  8
0
 62
     3
100
AcDbText
 10
169.548934
 20
-1060.339949
 30
0.0
 40
4.5
  1
絶縁種類
  7
高4.5
100
AcDbText
  0
TEXT
  5
2F3
330
36
100
AcDbEntity
  8
0
 62
     3
100
AcDbText
 10
169.548934
 20
-1025.689949
 30
0.0
 40
4.5
  1
型　　式
  7
高4.5
100
AcDbText
  0
LINE
  5
2F4
330
36
100
AcDbEntity
  8
0
100
AcDbLine
 10
167.568934
 20
-1026.679949
 30
0.0
 11
255.7354904847781
 21
-1026.679949
 31
0.0
  0
LINE
  5
2F5
330
36
100
AcDbEntity
  8
0
100
AcDbLine
 10
167.568934
 20
-1033.609949
 30
0.0
 11
255.7354904847781
 21
-1033.609949
 31
0.0
  0
LINE
  5
2F6
330
36
100
AcDbEntity
  8
0
100
AcDbLine
 10
167.568934
 20
-1040.539949
 30
0.0
 11
255.7354904847781
 21
-1040.539949
 31
0.0
  0
LINE
  5
2F7
330
36
100
AcDbEntity
  8
0
100
AcDbLine
 10
167.568934
 20
-1047.469949
 30
0.0
 11
255.7354904847781
 21
-1047.469949
 31
0.0
  0
LINE
  5
2F8
330
36
100
AcDbEntity
  8
0
100
AcDbLine
 10
167.568934
 20
-1054.399949
 30
0.0
 11
255.7354904847781
 21
-1054.399949
 31
0.0
  0
TEXT
  5
2F9
330
36
100
AcDbEntity
  8
0
 62
     3
100
AcDbText
 10
194.5334831933026
 20
-1017.297971
 30
0.0
 40
4.5
  1
主　　仕　　様
  7
高4.5
100
AcDbText
  0
TEXT
  5
2FA
330
36
100
AcDbEntity
  8
0
 62
     3
100
AcDbText
 10
194.5899999018272
 20
-1032.824648
 30
0.0
 40
4.5
  1
AC200V 50/60Hz
  7
高4.5
100
AcDbText
  0
TEXT
  5
2FB
330
36
100
AcDbEntity
  8
0
 62
     3
100
AcDbText
 10
212.2650959018272
 20
-1060.13436
 30
0.0
 40
4.5
  1
B種絶縁
  7
高4.5
100
AcDbText
  0
CIRCLE
  5
2FC
330
36
100
AcDbEntity
  8
0
 62
     3
100
AcDbCircle
 10
150.800379
 20
-1065.174112
 30
0.0
 40
0.9375
  0
TEXT
  5
2FD
330
36
100
AcDbEntity
  8
0
 62
     3
100
AcDbText
 10
198.9118109018272
 20
-1039.410854
 30
0.0
 40
4.5
  1
AC100V/115V
  7
高4.5
100
AcDbText
  0
TEXT
  5
2FF
330
36
100
AcDbEntity
  8
0
 62
     3
100
AcDbText
 10
107.797807
 20
-1020.225515
 30
0.0
 40
3.2
  1
入力プラグ結線
  7
高3.2
100
AcDbText
  0
TEXT
  5
300
330
36
100
AcDbEntity
  8
0
 62
     3
100
AcDbText
 10
112.75479
 20
-1026.092768
 30
0.0
 40
3.2
  1
200V
  7
高3.2
100
AcDbText
  0
TEXT
  5
301
330
36
100
AcDbEntity
  8
0
 62
     3
100
AcDbText
 10
128.783511
 20
-1032.932815
 30
0.0
 40
3.2
  1
白線
  7
高3.2
100
AcDbText
  0
TEXT
  5
302
330
36
100
AcDbEntity
  8
0
 62
     3
100
AcDbText
 10
129.28439
 20
-1051.832254
 30
0.0
 40
3.2
  1
黒線
  7
高3.2
100
AcDbText
  0
TEXT
  5
303
330
36
100
AcDbEntity
  8
0
 62
     3
100
AcDbText
 10
129.28439
 20
-1070.603561
 30
0.0
 40
3.2
  1
緑（アース）
  7
高3.2
100
AcDbText
  0
TEXT
  5
304
330
36
100
AcDbEntity
  8
0
 62
     3
100
AcDbText
 10
206.2685779018271
 20
-1025.894648
 30
0.0
 40
4.5
  1
TB-300D
  7
高4.5
100
AcDbText
  0
TEXT
  5
305
330
36
100
AcDbEntity
  8
0
 62
     3
100
AcDbText
 10
204.1648749018272
 20
-1046.066335999999
 30
0.0
 40
4.5
  1
3.0KVA　連続
  7
高4.5
100
AcDbText
  0
TEXT
  5
306
330
36
100
AcDbEntity
  8
0
 62
     3
100
AcDbText
 10
-108.1388879999999
 20
-1075.828216
 30
0.0
 40
3.2
  1
10
 41
0.8
  7
高3.2
100
AcDbText
  0
TEXT
  5
307
330
36
100
AcDbEntity
  8
0
 62
     3
100
AcDbText
 10
-108.1388879999999
 20
-1080.828216
 30
0.0
 40
3.2
  1
9
 41
0.8
  7
高3.2
100
AcDbText
  0
TEXT
  5
308
330
36
100
AcDbEntity
  8
0
 62
     3
100
AcDbText
 10
-108.1388879999999
 20
-1085.828216
 30
0.0
 40
3.2
  1
8
 41
0.8
  7
高3.2
100
AcDbText
  0
TEXT
  5
309
330
36
100
AcDbEntity
  8
0
 62
     3
100
AcDbText
 10
-108.1388879999999
 20
-1090.828216
 30
0.0
 40
3.2
  1
7
 41
0.8
  7
高3.2
100
AcDbText
  0
TEXT
  5
30A
330
36
100
AcDbEntity
  8
0
 62
     3
100
AcDbText
 10
-108.1388879999999
 20
-1095.828216
 30
0.0
 40
3.2
  1
6
 41
0.8
  7
高3.2
100
AcDbText
  0
TEXT
  5
30B
330
36
100
AcDbEntity
  8
0
 62
     3
100
AcDbText
 10
-108.1388879999999
 20
-1100.828216
 30
0.0
 40
3.2
  1
5
 41
0.8
  7
高3.2
100
AcDbText
  0
TEXT
  5
30C
330
36
100
AcDbEntity
  8
0
 62
     3
100
AcDbText
 10
-108.1388879999999
 20
-1105.828216
 30
0.0
 40
3.2
  1
4
 41
0.8
  7
高3.2
100
AcDbText
  0
TEXT
  5
30D
330
36
100
AcDbEntity
  8
0
 62
     3
100
AcDbText
 10
-108.1388879999999
 20
-1110.828216
 30
0.0
 40
3.2
  1
3
 41
0.8
  7
高3.2
100
AcDbText
  0
TEXT
  5
30E
330
36
100
AcDbEntity
  8
0
 62
     3
100
AcDbText
 10
-108.138888
 20
-1115.828216
 30
0.0
 40
3.2
  1
2
 41
0.8
  7
高3.2
100
AcDbText
  0
TEXT
  5
30F
330
36
100
AcDbEntity
  8
0
 62
     3
100
AcDbText
 10
-108.138888
 20
-1120.828216
 30
0.0
 40
3.2
  1
1
 41
0.8
  7
高3.2
100
AcDbText
  0
TEXT
  5
310
330
36
100
AcDbEntity
  8
0
 62
     3
100
AcDbText
 10
-100.692343
 20
-1120.828216
 30
0.0
 40
3.2
  1
電線4Pプラグ付き
 41
0.8
  7
高3.2
100
AcDbText
  0
TEXT
  5
311
330
36
100
AcDbEntity
  8
0
 62
     3
100
AcDbText
 10
-100.692343
 20
-1115.828216
 30
0.0
 40
3.2
  1
取手ハンドル
 41
0.8
  7
高3.2
100
AcDbText
  0
TEXT
  5
312
330
36
100
AcDbEntity
  8
0
 62
     3
100
AcDbText
 10
-100.692343
 20
-1105.828216
 30
0.0
 40
3.2
  1
上カバー
 41
0.8
  7
高3.2
100
AcDbText
  0
TEXT
  5
313
330
36
100
AcDbEntity
  8
0
 62
     3
100
AcDbText
 10
-100.6923429999999
 20
-1100.828216
 30
0.0
 40
3.2
  1
パネル
 41
0.8
  7
高3.2
100
AcDbText
  0
TEXT
  5
314
330
36
100
AcDbEntity
  8
0
 62
     3
100
AcDbText
 10
-100.692343
 20
-1095.828216
 30
0.0
 40
3.2
  1
電源ランプ
 41
0.8
  7
高3.2
100
AcDbText
  0
TEXT
  5
315
330
36
100
AcDbEntity
  8
0
 62
     3
100
AcDbText
 10
-100.692343
 20
-1090.828216
 30
0.0
 40
3.2
  1
交流電圧計
 41
0.8
  7
高3.2
100
AcDbText
  0
TEXT
  5
316
330
36
100
AcDbEntity
  8
0
 62
     3
100
AcDbText
 10
-100.692343
 20
-1085.828216
 30
0.0
 40
3.2
  1
安全ブレーカー
 41
0.8
  7
高3.2
100
AcDbText
  0
TEXT
  5
317
330
36
100
AcDbEntity
  8
0
 62
     3
100
AcDbText
 10
-100.692343
 20
-1080.828216
 30
0.0
 40
3.2
  1
Wコンセント白
 41
0.8
  7
高3.2
100
AcDbText
  0
TEXT
  5
319
330
36
100
AcDbEntity
  8
0
 62
     3
100
AcDbText
 10
-100.692343
 20
-1070.828216
 30
0.0
 40
3.2
  1
ゴム脚
 41
0.8
  7
高3.2
100
AcDbText
  0
TEXT
  5
31A
330
36
100
AcDbEntity
  8
0
 62
     3
100
AcDbText
 10
-71.65422359702173
 20
-1070.828216
 30
0.0
 40
3.2
  1
4
 41
0.8
  7
高3.2
100
AcDbText
  0
TEXT
  5
31C
330
36
100
AcDbEntity
  8
0
 62
     3
100
AcDbText
 10
-71.65422359702173
 20
-1080.828216
 30
0.0
 40
3.2
  1
1
 41
0.8
  7
高3.2
100
AcDbText
  0
TEXT
  5
31D
330
36
100
AcDbEntity
  8
0
 62
     3
100
AcDbText
 10
-71.65422359702173
 20
-1085.828216
 30
0.0
 40
3.2
  1
1
 41
0.8
  7
高3.2
100
AcDbText
  0
TEXT
  5
31E
330
36
100
AcDbEntity
  8
0
 62
     3
100
AcDbText
 10
-71.65422359702173
 20
-1090.828216
 30
0.0
 40
3.2
  1
1
 41
0.8
  7
高3.2
100
AcDbText
  0
TEXT
  5
31F
330
36
100
AcDbEntity
  8
0
 62
     3
100
AcDbText
 10
-71.65422359702173
 20
-1095.828216
 30
0.0
 40
3.2
  1
1
 41
0.8
  7
高3.2
100
AcDbText
  0
TEXT
  5
320
330
36
100
AcDbEntity
  8
0
 62
     3
100
AcDbText
 10
-71.65422359702173
 20
-1100.828216
 30
0.0
 40
3.2
  1
1
 41
0.8
  7
高3.2
100
AcDbText
  0
TEXT
  5
321
330
36
100
AcDbEntity
  8
0
 62
     3
100
AcDbText
 10
-71.65422359702173
 20
-1105.828216
 30
0.0
 40
3.2
  1
1
 41
0.8
  7
高3.2
100
AcDbText
  0
TEXT
  5
322
330
36
100
AcDbEntity
  8
0
 62
     3
100
AcDbText
 10
-71.65422359702173
 20
-1115.828216
 30
0.0
 40
3.2
  1
1式
 41
0.8
  7
高3.2
100
AcDbText
  0
TEXT
  5
323
330
36
100
AcDbEntity
  8
0
 62
     3
100
AcDbText
 10
-63.79708073987888
 20
-1115.828216
 30
0.0
 40
3.2
  1
PF樹脂
 41
0.8
  7
高3.2
100
AcDbText
  0
TEXT
  5
324
330
36
100
AcDbEntity
  8
0
 62
     3
100
AcDbText
 10
-63.79708073987888
 20
-1105.828216
 30
0.0
 40
3.2
  1
SPCC
 41
0.8
  7
高3.2
100
AcDbText
  0
TEXT
  5
325
330
36
100
AcDbEntity
  8
0
 62
     3
100
AcDbText
 10
-63.79708073987888
 20
-1100.828216
 30
0.0
 40
3.2
  1
SPCC
 41
0.8
  7
高3.2
100
AcDbText
  0
TEXT
  5
326
330
36
100
AcDbEntity
  8
0
 62
     3
100
AcDbText
 10
-63.79708073987888
 20
-1095.828216
 30
0.0
 40
3.2
  1
ネオン球
 41
0.8
  7
高3.2
100
AcDbText
  0
TEXT
  5
327
330
36
100
AcDbEntity
  8
0
 62
     3
100
AcDbText
 10
-63.79708073987888
 20
-1085.828216
 30
0.0
 40
3.2
  1
PF樹脂
 41
0.8
  7
高3.2
100
AcDbText
  0
TEXT
  5
328
330
36
100
AcDbEntity
  8
0
 62
     3
100
AcDbText
 10
-63.79708073987888
 20
-1080.828216
 30
0.0
 40
3.2
  1
耐熱ABS樹脂
 41
0.8
  7
高3.2
100
AcDbText
  0
TEXT
  5
32A
330
36
100
AcDbEntity
  8
0
 62
     3
100
AcDbText
 10
-63.79708073987888
 20
-1070.828216
 30
0.0
 40
3.2
  1
合成ゴム
 41
0.8
  7
高3.2
100
AcDbText
  0
TEXT
  5
32B
330
36
100
AcDbEntity
  8
0
 62
     3
100
AcDbText
 10
-41.48353212457224
 20
-1070.828216
 30
0.0
 40
3.2
  1
M4ねじ
 41
0.8
  7
高3.2
100
AcDbText
  0
TEXT
  5
32D
330
36
100
AcDbEntity
  8
0
 62
     3
100
AcDbText
 10
-41.48353212457224
 20
-1080.828216
 30
0.0
 40
3.2
  1
2PE 15A 125V　アース付き
 41
0.8
  7
高3.2
100
AcDbText
  0
TEXT
  5
32E
330
36
100
AcDbEntity
  8
0
 62
     3
100
AcDbText
 10
-41.48353212457224
 20
-1090.828216
 30
0.0
 40
3.2
  1
AC150V用
 41
0.8
  7
高3.2
100
AcDbText
  0
TEXT
  5
32F
330
36
100
AcDbEntity
  8
0
 62
     3
100
AcDbText
 10
-41.48353212457224
 20
-1095.828216
 30
0.0
 40
3.2
  1
（赤）
 41
0.8
  7
高3.2
100
AcDbText
  0
TEXT
  5
330
330
36
100
AcDbEntity
  8
0
 62
     3
100
AcDbText
 10
-41.48353212457224
 20
-1105.828216
 30
0.0
 40
3.2
  1
青塗装
 41
0.8
  7
高3.2
100
AcDbText
  0
TEXT
  5
331
330
36
100
AcDbEntity
  8
0
 62
     3
100
AcDbText
 10
-71.65422359702173
 20
-1120.828216
 30
0.0
 40
3.2
  1
1
 41
0.8
  7
高3.2
100
AcDbText
  0
TEXT
  5
332
330
36
100
AcDbEntity
  8
0
 62
     3
100
AcDbText
 10
-63.79708073987888
 20
-1120.828216
 30
0.0
 40
3.2
  1
VCTF
 41
0.8
  7
高3.2
100
AcDbText
  0
TEXT
  5
333
330
36
100
AcDbEntity
  8
0
 62
     3
100
AcDbText
 10
-41.48353212457224
 20
-1120.828216
 30
0.0
 40
3.2
  1
2.0sqx3cx1.8m
 41
0.8
  7
高3.2
100
AcDbText
  0
TEXT
  5
334
330
36
100
AcDbEntity
  8
0
 62
     3
100
AcDbText
 10
-41.48353212457224
 20
-1085.828216
 30
0.0
 40
3.2
  1
NFB 200V 15A
 41
0.8
  7
高3.2
100
AcDbText
  0
LINE
  5
335
330
36
100
AcDbEntity
  8
0
100
AcDbLine
 10
149.862879
 20
-1065.174112
 30
0.0
 11
109.251467
 21
-1065.174112
 31
0.0
  0
LINE
  5
336
330
36
100
AcDbEntity
  8
0
100
AcDbLine
 10
149.862879
 20
-1033.924112
 30
0.0
 11
109.251467
 21
-1033.924112
 31
0.0
  0
LINE
  5
337
330
36
100
AcDbEntity
  8
0
100
AcDbLine
 10
109.251467
 20
-1065.174112
 30
0.0
 11
109.251467
 21
-1059.799112
 31
0.0
  0
LINE
  5
338
330
36
100
AcDbEntity
  8
0
  6
CENTER
100
AcDbLine
 10
109.307035
 20
-1065.746795
 30
0.0
 11
109.307035
 21
-1067.579647
 31
0.0
  0
TEXT
  5
339
330
36
100
AcDbEntity
  8
0
 62
     3
100
AcDbText
 10
6.939998487798296
 20
-1070.828216
 30
0.0
 40
3.2
  1
53815
 41
0.8
  7
高3.2
100
AcDbText
  0
TEXT
  5
33B
330
36
100
AcDbEntity
  8
0
 62
     3
100
AcDbText
 10
6.939998487798296
 20
-1080.828216
 30
0.0
 40
3.2
  1
51356
 41
0.8
  7
高3.2
100
AcDbText
  0
TEXT
  5
33C
330
36
100
AcDbEntity
  8
0
 62
     3
100
AcDbText
 10
6.939998487798296
 20
-1085.828216
 30
0.0
 40
3.2
  1
51762
 41
0.8
  7
高3.2
100
AcDbText
  0
TEXT
  5
33D
330
36
100
AcDbEntity
  8
0
 62
     3
100
AcDbText
 10
6.939998487798296
 20
-1090.828216
 30
0.0
 40
3.2
  1
53817
 41
0.8
  7
高3.2
100
AcDbText
  0
TEXT
  5
33E
330
36
100
AcDbEntity
  8
0
 62
     3
100
AcDbText
 10
6.939998487798296
 20
-1095.828216
 30
0.0
 40
3.2
  1
53816
 41
0.8
  7
高3.2
100
AcDbText
  0
TEXT
  5
33F
330
36
100
AcDbEntity
  8
0
 62
     3
100
AcDbText
 10
6.939998487798296
 20
-1105.828216
 30
0.0
 40
3.2
  1
54291●
 41
0.8
  7
高3.2
100
AcDbText
  0
TEXT
  5
340
330
36
100
AcDbEntity
  8
0
 62
     3
100
AcDbText
 10
6.939998487798296
 20
-1115.828216
 30
0.0
 40
3.2
  1
53814
 41
0.8
  7
高3.2
100
AcDbText
  0
TEXT
  5
341
330
36
100
AcDbEntity
  8
0
 62
     3
100
AcDbText
 10
6.939998487798296
 20
-1120.828216
 30
0.0
 40
3.2
  1
54270
 41
0.8
  7
高3.2
100
AcDbText
  0
TEXT
  5
34C
330
36
100
AcDbEntity
  8
0
 62
     3
100
AcDbText
 10
118.3234788205526
 20
-1052.086641820915
 30
0.0
 40
3.2
  1
X
  7
高3.2
100
AcDbText
  0
TEXT
  5
34D
330
36
100
AcDbEntity
  8
0
 62
     3
100
AcDbText
 10
97.89907045656205
 20
-1053.354134004011
 30
0.0
 40
3.2
  1
Z
  7
高3.2
100
AcDbText
  0
TEXT
  5
34E
330
36
100
AcDbEntity
  8
0
 62
     3
100
AcDbText
 10
106.7198969758053
 20
-1042.781588853471
 30
0.0
 40
3.2
  1
Y
  7
高3.2
100
AcDbText
  0
TEXT
  5
45F
330
36
100
AcDbEntity
  8
0
 62
     3
100
AcDbText
 10
267.861112
 20
-861.772855
 30
0.0
 40
3.2
  1
担　当
  7
高3.2
100
AcDbText
  0
TEXT
  5
460
330
36
100
AcDbEntity
  8
0
 62
     3
100
AcDbText
 10
223.861112
 20
-861.772855
 30
0.0
 40
3.2
  1
変更・追記内容
  7
高3.2
100
AcDbText
  0
TEXT
  5
461
330
36
100
AcDbEntity
  8
0
 62
     3
100
AcDbText
 10
198.9746270003392
 20
-866.4433935099083
 30
0.0
 40
2.0
  1
1
  7
高2
100
AcDbText
  0
TEXT
  5
462
330
36
100
AcDbEntity
  8
0
 62
     3
100
AcDbText
 10
198.6661155235819
 20
-871.6132102221813
 30
0.0
 40
2.0
  1
2
  7
高2
100
AcDbText
  0
TEXT
  5
463
330
36
100
AcDbEntity
  8
0
 62
     3
100
AcDbText
 10
205.861112
 20
-861.772855
 30
0.0
 40
3.2
  1
日　付
  7
高3.2
100
AcDbText
  0
TEXT
  5
464
330
36
100
AcDbEntity
  8
0
 62
     3
100
AcDbText
 10
205.861112
 20
-856.7728549999996
 30
0.0
 40
3.2
  1
図　　　　面　　　　略　　　　歴
  7
高3.2
100
AcDbText
  0
TEXT
  5
465
330
36
100
AcDbEntity
  8
0
 62
     3
100
AcDbText
 10
195.861112
 20
-861.772855
 30
0.0
 40
3.2
  1
記号
  7
高3.2
100
AcDbText
  0
LINE
  5
466
330
36
100
AcDbEntity
  8
0
100
AcDbLine
 10
199.361112
 20
-868.481959
 30
0.0
 11
197.461112
 21
-871.772855
 31
0.0
  0
LINE
  5
467
330
36
100
AcDbEntity
  8
0
100
AcDbLine
 10
199.361112
 20
-868.481959
 30
0.0
 11
201.261112
 21
-871.772855
 31
0.0
  0
LINE
  5
468
330
36
100
AcDbEntity
  8
0
100
AcDbLine
 10
197.461112
 20
-871.772855
 30
0.0
 11
201.261112
 21
-871.772855
 31
0.0
  0
LINE
  5
469
330
36
100
AcDbEntity
  8
0
100
AcDbLine
 10
199.361112
 20
-863.481958
 30
0.0
 11
197.461112
 21
-866.7728550000001
 31
0.0
  0
LINE
  5
46A
330
36
100
AcDbEntity
  8
0
100
AcDbLine
 10
199.361112
 20
-863.481958
 30
0.0
 11
201.261112
 21
-866.7728550000001
 31
0.0
  0
LINE
  5
46B
330
36
100
AcDbEntity
  8
0
100
AcDbLine
 10
197.461112
 20
-866.7728550000001
 30
0.0
 11
201.261112
 21
-866.7728550000001
 31
0.0
  0
LINE
  5
46C
330
36
100
AcDbEntity
  8
0
 62
     3
100
AcDbLine
 10
194.361112
 20
-857.272855
 30
0.0
 11
280.361112
 21
-857.272855
 31
0.0
  0
LINE
  5
46D
330
36
100
AcDbEntity
  8
0
 62
     3
100
AcDbLine
 10
194.361112
 20
-862.2728550000001
 30
0.0
 11
280.361112
 21
-862.2728550000001
 31
0.0
  0
LINE
  5
46E
330
36
100
AcDbEntity
  8
0
 62
     7
100
AcDbLine
 10
194.361112
 20
-867.272855
 30
0.0
 11
280.361112
 21
-867.272855
 31
0.0
  0
LINE
  5
46F
330
36
100
AcDbEntity
  8
0
 62
     3
100
AcDbLine
 10
194.361112
 20
-872.2728550000001
 30
0.0
 11
280.361112
 21
-872.2728550000001
 31
0.0
  0
LINE
  5
470
330
36
100
AcDbEntity
  8
0
 62
     7
100
AcDbLine
 10
266.3611119999999
 20
-872.2728550000001
 30
0.0
 11
266.361112
 21
-857.272855
 31
0.0
  0
LINE
  5
471
330
36
100
AcDbEntity
  8
0
 62
     7
100
AcDbLine
 10
222.361112
 20
-872.2728550000001
 30
0.0
 11
222.361112
 21
-857.272855
 31
0.0
  0
LINE
  5
472
330
36
100
AcDbEntity
  8
0
 62
     7
100
AcDbLine
 10
204.361112
 20
-872.2728550000001
 30
0.0
 11
204.361112
 21
-857.272855
 31
0.0
  0
LINE
  5
473
330
36
100
AcDbEntity
  8
0
 62
     3
100
AcDbLine
 10
194.361112
 20
-872.2728550000001
 30
0.0
 11
194.361112
 21
-852.272855
 31
0.0
  0
LINE
  5
5CA
330
36
100
AcDbEntity
  8
0
 62
     7
100
AcDbLine
 10
24.50330537388227
 20
-1126.328216
 30
0.0
 11
24.50330537388227
 21
-1066.328216
 31
0.0
  0
TEXT
  5
5CB
330
36
100
AcDbEntity
  8
0
 62
     3
100
AcDbText
 10
26.00330537388227
 20
-1125.828216
 30
0.0
 40
3.2
  1
コード番号名称
 41
0.6
  7
高3.2
100
AcDbText
  0
TEXT
  5
5CC
330
36
100
AcDbEntity
  8
0
 62
     3
100
AcDbText
 10
26.00330537388227
 20
-1070.828216
 30
0.0
 40
3.2
  1
TB,FB(200,300,500),Fタイプ,NA-180DS兼用　脚ゴム(1/4)
 41
0.6
  7
高3.2
100
AcDbText
  0
TEXT
  5
5CE
330
36
100
AcDbEntity
  8
0
 62
     3
100
AcDbText
 10
26.00330537388227
 20
-1080.828216
 30
0.0
 40
3.2
  1
2PE-W(アース付コンセント白)
 41
0.6
  7
高3.2
100
AcDbText
  0
TEXT
  5
5CF
330
36
100
AcDbEntity
  8
0
 62
     3
100
AcDbText
 10
26.00330537388227
 20
-1085.828216
 30
0.0
 40
3.2
  1
B-2EA-15A　(安全ブレーカー)
 41
0.6
  7
高3.2
100
AcDbText
  0
TEXT
  5
5D0
330
36
100
AcDbEntity
  8
0
 62
     3
100
AcDbText
 10
26.00330537388227
 20
-1090.828216
 30
0.0
 40
3.2
  1
TB,FB(200,300,500)兼用　電圧計
 41
0.6
  7
高3.2
100
AcDbText
  0
TEXT
  5
5D1
330
36
100
AcDbEntity
  8
0
 62
     3
100
AcDbText
 10
26.00330537388227
 20
-1095.828216
 30
0.0
 40
3.2
  1
TB,FB(200,300,500)兼用　電源ランプ
 41
0.6
  7
高3.2
100
AcDbText
  0
TEXT
  5
5D2
330
36
100
AcDbEntity
  8
0
 62
     3
100
AcDbText
 10
26.00330537388227
 20
-1105.828216
 30
0.0
 40
3.2
  1
TB-300D用　上カバー
 41
0.6
  7
高3.2
100
AcDbText
  0
TEXT
  5
5D3
330
36
100
AcDbEntity
  8
0
 62
     3
100
AcDbText
 10
26.00330537388227
 20
-1115.828216
 30
0.0
 40
3.2
  1
TB,FB(200,300,500)兼用　取っ手
 41
0.6
  7
高3.2
100
AcDbText
  0
TEXT
  5
5D4
330
36
100
AcDbEntity
  8
0
 62
     3
100
AcDbText
 10
26.00330537388227
 20
-1120.828216
 30
0.0
 40
3.2
  1
TB-200/300D用　電源コード　プラグ付
 41
0.6
  7
高3.2
100
AcDbText
  0
LINE
  5
5E1
330
36
100
AcDbEntity
  8
0
 62
     3
100
AcDbLine
 10
-122.040812
 20
-985.8282159999999
 30
0.0
 11
-124.638888
 21
-987.328216
 31
0.0
  0
LINE
  5
5E2
330
36
100
AcDbEntity
  8
0
 62
     3
100
AcDbLine
 10
-122.040812
 20
-985.8282159999999
 30
0.0
 11
-124.638888
 21
-984.3282159999999
 31
0.0
  0
LINE
  5
5E3
330
36
100
AcDbEntity
  8
0
 62
     3
100
AcDbLine
 10
-124.638888
 20
-987.328216
 30
0.0
 11
-124.638888
 21
-984.3282159999999
 31
0.0
  0
TEXT
  5
6CE
330
36
100
AcDbEntity
  8
0
 62
     3
100
AcDbText
 10
-100.692343
 20
-1075.828216
 30
0.0
 40
3.2
  1
Wコンセント黒
 41
0.8
  7
高3.2
100
AcDbText
  0
TEXT
  5
6CF
330
36
100
AcDbEntity
  8
0
 62
     3
100
AcDbText
 10
-71.65422359702173
 20
-1075.828216
 30
0.0
 40
3.2
  1
1
 41
0.8
  7
高3.2
100
AcDbText
  0
TEXT
  5
6D0
330
36
100
AcDbEntity
  8
0
 62
     3
100
AcDbText
 10
-63.79708073987888
 20
-1075.828216
 30
0.0
 40
3.2
  1
耐熱ABS樹脂
 41
0.8
  7
高3.2
100
AcDbText
  0
TEXT
  5
6D1
330
36
100
AcDbEntity
  8
0
 62
     3
100
AcDbText
 10
-41.48353212457224
 20
-1075.828216
 30
0.0
 40
3.2
  1
2PE 15A 125V　アース付き
 41
0.8
  7
高3.2
100
AcDbText
  0
TEXT
  5
6D2
330
36
100
AcDbEntity
  8
0
 62
     3
100
AcDbText
 10
6.939998487798296
 20
-1075.828216
 30
0.0
 40
3.2
  1
51355
 41
0.8
  7
高3.2
100
AcDbText
  0
TEXT
  5
6D3
330
36
100
AcDbEntity
  8
0
 62
     3
100
AcDbText
 10
26.00330537388227
 20
-1075.828216
 30
0.0
 40
3.2
  1
2PE-B(アース付コンセント黒)
 41
0.6
  7
高3.2
100
AcDbText
  0
CIRCLE
  5
796
330
36
100
AcDbEntity
  8
0
100
AcDbCircle
 10
-83.13033799999997
 20
-1004.608367539899
 30
0.0
 40
5.0
  0
TEXT
  5
797
330
36
100
AcDbEntity
  8
0
 62
     4
100
AcDbText
 10
-85.30781626907311
 20
-1007.663370071695
 30
0.0
 40
6.299999999999998
  1
3
  7
高6.3
100
AcDbText
  0
LINE
  5
7A2
330
36
100
AcDbEntity
  8
0
100
AcDbLine
 10
101.8998662638329
 20
-1111.328216
 30
0.0
 11
-109.638888
 21
-1111.328216
 31
0.0
  0
TEXT
  5
7A3
330
36
100
AcDbEntity
  8
0
 62
     3
100
AcDbText
 10
-100.692343
 20
-1110.828216
 30
0.0
 40
3.2
  1
シャーシ
 41
0.8
  7
高3.2
100
AcDbText
  0
TEXT
  5
7A4
330
36
100
AcDbEntity
  8
0
 62
     3
100
AcDbText
 10
-71.65422359702173
 20
-1110.828216
 30
0.0
 40
3.2
  1
1
 41
0.8
  7
高3.2
100
AcDbText
  0
TEXT
  5
7A5
330
36
100
AcDbEntity
  8
0
 62
     3
100
AcDbText
 10
-63.79708073987888
 20
-1110.828216
 30
0.0
 40
3.2
  1
SPCC
 41
0.8
  7
高3.2
100
AcDbText
  0
TEXT
  5
7A6
330
36
100
AcDbEntity
  8
0
 62
     3
100
AcDbText
 10
-41.48353212457224
 20
-1110.828216
 30
0.0
 40
3.2
  1
-
 41
0.8
  7
高3.2
100
AcDbText
  0
TEXT
  5
7A7
330
36
100
AcDbEntity
  8
0
 62
     3
100
AcDbText
 10
6.939998487798296
 20
-1110.828216
 30
0.0
 40
3.2
  1
56191●
 41
0.8
  7
高3.2
100
AcDbText
  0
TEXT
  5
7A8
330
36
100
AcDbEntity
  8
0
 62
     3
100
AcDbText
 10
26.00330537388227
 20
-1110.828216
 30
0.0
 40
3.2
  1
TB-300D用　シャーシ
 41
0.6
  7
高3.2
100
AcDbText
  0
TEXT
  5
7A9
330
36
100
AcDbEntity
  8
0
 62
     3
100
AcDbText
 10
-108.1388879999999
 20
-1070.828216
 30
0.0
 40
3.2
  1
11
 41
0.8
  7
高3.2
100
AcDbText
  0
CIRCLE
  5
B19
330
36
100
AcDbEntity
  8
0
100
AcDbCircle
 10
174.381659
 20
-975.3392509999999
 30
0.0
 40
1.75
  0
CIRCLE
  5
CBC
330
36
100
AcDbEntity
  8
0
100
AcDbCircle
 10
84.38165900000001
 20
-975.3392509999999
 30
0.0
 40
1.75
  0
CIRCLE
  5
CBD
330
36
100
AcDbEntity
  8
0
100
AcDbCircle
 10
62.94415900000001
 20
-952.0892509999999
 30
0.0
 40
1.75
  0
CIRCLE
  5
CBE
330
36
100
AcDbEntity
  8
0
100
AcDbCircle
 10
195.881659
 20
-952.0892509999999
 30
0.0
 40
1.75
  0
TEXT
  5
CBF
330
36
100
AcDbEntity
  8
0
  6
Continuous
100
AcDbText
 10
205.8611120000001
 20
-866.7728550000001
 30
0.0
 40
2.5
  1
'19.02.26
  7
高2.5
100
AcDbText
  0
TEXT
  5
CC0
330
36
100
AcDbEntity
  8
0
  6
Continuous
100
AcDbText
 10
223.8611120000001
 20
-866.7728550000001
 30
0.0
 40
2.5
  1
シャーシ、上カバー固定位置変更(18年11月頃から)
 41
0.6
  7
高2.5
100
AcDbText
  0
TEXT
  5
CC1
330
36
100
AcDbEntity
  8
0
  6
Continuous
100
AcDbText
 10
267.8611119999998
 20
-866.7728550000001
 30
0.0
 40
2.5
  1
今村
  7
高2.5
100
AcDbText
  0
LINE
  5
DA3
330
36
100
AcDbEntity
  8
0
  6
Continuous
 62
     3
100
AcDbLine
 10
241.6428403196844
 20
-912.0280518617342
 30
0.0
 11
241.6428403196844
 21
-898.8205595083254
 31
0.0
  0
LINE
  5
DA4
330
36
100
AcDbEntity
  8
0
  6
Continuous
 62
     3
100
AcDbLine
 10
245.8928403196844
 20
-912.0280518617342
 30
0.0
 11
245.8928403196844
 21
-898.8205595083254
 31
0.0
  0
LINE
  5
DA5
330
36
100
AcDbEntity
  8
0
  6
Continuous
 62
     3
100
AcDbLine
 10
232.9178403196843
 20
-919.2780518617341
 30
0.0
 11
232.9178403196843
 21
-935.0280518617342
 31
0.0
  0
LINE
  5
DA6
330
36
100
AcDbEntity
  8
0
  6
Continuous
 62
     3
100
AcDbLine
 10
254.6178403196843
 20
-919.2780518617341
 30
0.0
 11
254.6178403196843
 21
-935.0280518617342
 31
0.0
  0
LINE
  5
DA7
330
36
100
AcDbEntity
  8
0
  6
Continuous
 62
     3
100
AcDbLine
 10
235.2678403196844
 20
-917.5280518617341
 30
0.0
 11
235.2678403196844
 21
-914.7780518617341
 31
0.0
  0
LINE
  5
DA8
330
36
100
AcDbEntity
  8
0
  6
Continuous
 62
     3
100
AcDbLine
 10
252.2678403196844
 20
-917.5280518617341
 30
0.0
 11
252.2678403196844
 21
-914.7780518617341
 31
0.0
  0
LINE
  5
DA9
330
36
100
AcDbEntity
  8
0
  6
Continuous
 62
     3
100
AcDbLine
 10
249.5178403196843
 20
-912.0280518617342
 30
0.0
 11
238.0178403196843
 21
-912.0280518617342
 31
0.0
  0
LINE
  5
DAA
330
36
100
AcDbEntity
  8
0
  6
Continuous
 62
     3
100
AcDbLine
 10
252.8678403196843
 20
-917.5280518617341
 30
0.0
 11
234.6678403196843
 21
-917.5280518617341
 31
0.0
  0
LINE
  5
DAB
330
36
100
AcDbEntity
  8
0
  6
Continuous
 62
     3
100
AcDbLine
 10
232.9178403196843
 20
-935.0280518617342
 30
0.0
 11
254.6178403196843
 21
-935.0280518617342
 31
0.0
  0
ARC
  5
DAC
330
36
100
AcDbEntity
  8
0
  6
Continuous
 62
     3
100
AcDbCircle
 10
249.5178403196843
 20
-914.7780518617341
 30
0.0
 40
2.750000000000028
100
AcDbArc
 50
270.0
 51
90.0
  0
ARC
  5
DAD
330
36
100
AcDbEntity
  8
0
  6
Continuous
 62
     3
100
AcDbCircle
 10
238.0178403196843
 20
-914.7780518617341
 30
0.0
 40
2.750000000000056
100
AcDbArc
 50
90.0
 51
270.0
  0
ARC
  5
DAE
330
36
100
AcDbEntity
  8
0
  6
Continuous
 62
     3
100
AcDbCircle
 10
252.8678403196843
 20
-919.2780518617341
 30
0.0
 40
1.75
100
AcDbArc
 50
0.0
 51
90.0
  0
ARC
  5
DAF
330
36
100
AcDbEntity
  8
0
  6
Continuous
 62
     3
100
AcDbCircle
 10
234.6678403196843
 20
-919.2780518617341
 30
0.0
 40
1.75
100
AcDbArc
 50
90.0
 51
179.999999999987
  0
ELLIPSE
  5
DB0
330
36
100
AcDbEntity
  8
0
  6
Continuous
100
AcDbEllipse
 10
243.7678403196844
 20
-926.7780518617341
 30
0.0
 11
0.0
 21
4.75
 31
0.0
210
0.0
220
0.0
230
1.0
 40
0.6315789473684211
 41
0.0
 42
6.283185307179586
  0
ELLIPSE
  5
DB1
330
36
100
AcDbEntity
  8
0
  6
Continuous
100
AcDbEllipse
 10
249.1428403196844
 20
-926.7780518617341
 30
0.0
 11
0.0
 21
3.749999999999999
 31
0.0
210
0.0
220
0.0
230
1.0
 40
0.3666666666666667
 41
0.0
 42
6.283185307179586
  0
ELLIPSE
  5
DB2
330
36
100
AcDbEntity
  8
0
  6
Continuous
100
AcDbEllipse
 10
252.8928403196844
 20
-926.7780518617341
 30
0.0
 11
0.0
 21
4.75
 31
0.0
210
0.0
220
0.0
230
1.0
 40
0.2368421052631579
 41
0.0
 42
6.283185307179586
  0
ELLIPSE
  5
DB3
330
36
100
AcDbEntity
  8
0
  6
Continuous
100
AcDbEllipse
 10
238.3928403196844
 20
-926.7780518617341
 30
0.0
 11
0.0
 21
3.749999999999999
 31
0.0
210
0.0
220
0.0
230
-1.0
 40
0.3666666666666667
 41
0.0
 42
6.283185307179586
  0
ELLIPSE
  5
DB4
330
36
100
AcDbEntity
  8
0
  6
Continuous
100
AcDbEllipse
 10
234.6428403196844
 20
-926.7780518617341
 30
0.0
 11
0.0
 21
4.75
 31
0.0
210
0.0
220
0.0
230
-1.0
 40
0.2368421052631579
 41
0.0
 42
6.283185307179586
  0
LINE
  5
DB5
330
36
100
AcDbEntity
  8
0
 62
     3
100
AcDbLine
 10
244.1178403196845
 20
-946.5280518617323
 30
0.0
 11
243.4178403196847
 21
-946.5280518617342
 31
0.0
  0
LINE
  5
DB6
330
36
100
AcDbEntity
  8
0
 62
     3
100
AcDbLine
 10
243.2678403196846
 20
-946.0092193997942
 30
0.0
 11
243.4178403196847
 21
-946.5280518617342
 31
0.0
  0
LINE
  5
DB7
330
36
100
AcDbEntity
  8
0
 62
     3
100
AcDbLine
 10
244.2678403196846
 20
-946.0092193997942
 30
0.0
 11
244.1178403196845
 21
-946.5280518617323
 31
0.0
  0
LINE
  5
DB8
330
36
100
AcDbEntity
  8
0
 62
     3
100
AcDbLine
 10
244.2678403196846
 20
-946.0092193997942
 30
0.0
 11
243.2678403196846
 21
-946.0092193997942
 31
0.0
  0
LINE
  5
DB9
330
36
100
AcDbEntity
  8
0
 62
     3
100
AcDbLine
 10
238.967840319684
 20
-945.0280518617342
 30
0.0
 11
238.2678403196842
 21
-945.0280518617342
 31
0.0
  0
LINE
  5
DBA
330
36
100
AcDbEntity
  8
0
 62
     3
100
AcDbLine
 10
238.1178403196845
 20
-944.5092193997941
 30
0.0
 11
238.2678403196842
 21
-945.0280518617342
 31
0.0
  0
LINE
  5
DBB
330
36
100
AcDbEntity
  8
0
 62
     3
100
AcDbLine
 10
239.1178403196846
 20
-944.5092193997941
 30
0.0
 11
238.967840319684
 21
-945.0280518617342
 31
0.0
  0
LINE
  5
DBC
330
36
100
AcDbEntity
  8
0
 62
     3
100
AcDbLine
 10
239.1178403196846
 20
-944.5092193997941
 30
0.0
 11
238.1178403196845
 21
-944.5092193997941
 31
0.0
  0
LINE
  5
DBD
330
36
100
AcDbEntity
  8
0
 62
     3
100
AcDbLine
 10
245.6178403196846
 20
-945.0280518617342
 30
0.0
 11
241.9178403196847
 21
-945.0280518617342
 31
0.0
  0
LINE
  5
DBE
330
36
100
AcDbEntity
  8
0
 62
     3
100
AcDbLine
 10
245.7678403196847
 20
-944.5092193997941
 30
0.0
 11
241.7678403196847
 21
-944.5092193997941
 31
0.0
  0
LINE
  5
DBF
330
36
100
AcDbEntity
  8
0
 62
     3
100
AcDbLine
 10
241.7678403196847
 20
-944.5092193997941
 30
0.0
 11
241.9178403196847
 21
-945.0280518617342
 31
0.0
  0
LINE
  5
DC0
330
36
100
AcDbEntity
  8
0
 62
     3
100
AcDbLine
 10
245.7678403196847
 20
-944.5092193997941
 30
0.0
 11
245.6178403196846
 21
-945.0280518617342
 31
0.0
  0
LINE
  5
DC1
330
36
100
AcDbEntity
  8
0
 62
     3
100
AcDbLine
 10
243.2678403196846
 20
-946.0092193997942
 30
0.0
 11
243.2678403196846
 21
-945.0280518617342
 31
0.0
  0
LINE
  5
DC2
330
36
100
AcDbEntity
  8
0
 62
     3
100
AcDbLine
 10
244.2678403196846
 20
-946.0092193997942
 30
0.0
 11
244.2678403196846
 21
-945.0280518617342
 31
0.0
  0
LINE
  5
DC3
330
36
100
AcDbEntity
  8
0
 62
     3
100
AcDbLine
 10
241.7678403196847
 20
-944.5092193997941
 30
0.0
 11
241.7678403196847
 21
-935.0280518617342
 31
0.0
  0
LINE
  5
DC4
330
36
100
AcDbEntity
  8
0
 62
     3
100
AcDbLine
 10
245.7678403196847
 20
-944.5092193997941
 30
0.0
 11
245.7678403196847
 21
-935.0280518617342
 31
0.0
  0
LINE
  5
DC5
330
36
100
AcDbEntity
  8
0
 62
     3
100
AcDbLine
 10
238.1178403196845
 20
-944.5092193997941
 30
0.0
 11
238.1178403196845
 21
-935.0280518617342
 31
0.0
  0
LINE
  5
DC6
330
36
100
AcDbEntity
  8
0
 62
     3
100
AcDbLine
 10
239.1178403196846
 20
-944.5092193997941
 30
0.0
 11
239.1178403196846
 21
-935.0280518617342
 31
0.0
  0
LINE
  5
DC7
330
36
100
AcDbEntity
  8
0
 62
     3
100
AcDbLine
 10
248.5678403196853
 20
-945.0280518617342
 30
0.0
 11
249.2678403196851
 21
-945.0280518617342
 31
0.0
  0
LINE
  5
DC8
330
36
100
AcDbEntity
  8
0
 62
     3
100
AcDbLine
 10
249.4178403196847
 20
-944.5092193997941
 30
0.0
 11
249.2678403196851
 21
-945.0280518617342
 31
0.0
  0
LINE
  5
DC9
330
36
100
AcDbEntity
  8
0
 62
     3
100
AcDbLine
 10
248.4178403196847
 20
-944.5092193997941
 30
0.0
 11
248.5678403196853
 21
-945.0280518617342
 31
0.0
  0
LINE
  5
DCA
330
36
100
AcDbEntity
  8
0
 62
     3
100
AcDbLine
 10
248.4178403196847
 20
-944.5092193997941
 30
0.0
 11
249.4178403196847
 21
-944.5092193997941
 31
0.0
  0
LINE
  5
DCB
330
36
100
AcDbEntity
  8
0
 62
     3
100
AcDbLine
 10
249.4178403196847
 20
-944.5092193997941
 30
0.0
 11
249.4178403196847
 21
-935.0280518617342
 31
0.0
  0
LINE
  5
DCC
330
36
100
AcDbEntity
  8
0
 62
     3
100
AcDbLine
 10
248.4178403196847
 20
-944.5092193997941
 30
0.0
 11
248.4178403196847
 21
-935.0280518617342
 31
0.0
  0
CIRCLE
  5
DCD
330
36
100
AcDbEntity
  8
0
  6
Continuous
 62
     3
100
AcDbCircle
 10
243.7678403196844
 20
-961.8456173567073
 30
0.0
 40
10.85000000000002
  0
CIRCLE
  5
DCE
330
36
100
AcDbEntity
  8
0
  6
Continuous
100
AcDbCircle
 10
249.5178403196843
 20
-914.7780518617341
 30
0.0
 40
2.0
  0
CIRCLE
  5
DCF
330
36
100
AcDbEntity
  8
0
  6
Continuous
100
AcDbCircle
 10
238.0178403196843
 20
-914.7780518617341
 30
0.0
 40
2.0
  0
CIRCLE
  5
DD0
330
36
100
AcDbEntity
  8
0
  6
Continuous
 62
     3
100
AcDbCircle
 10
243.7678403196844
 20
-961.8456173567073
 30
0.0
 40
9.5
  0
LINE
  5
DD1
330
36
100
AcDbEntity
  8
0
 62
     3
100
AcDbLine
 10
249.4178403196845
 20
-963.8456173567075
 30
0.0
 11
248.4178403196845
 21
-963.8456173567075
 31
0.0
  0
LINE
  5
DD2
330
36
100
AcDbEntity
  8
0
100
AcDbLine
 10
249.2678403196848
 20
-963.6956173567073
 30
0.0
 11
248.5678403196851
 21
-963.6956173567073
 31
0.0
  0
LINE
  5
DD3
330
36
100
AcDbEntity
  8
0
 62
     3
100
AcDbLine
 10
239.1178403196843
 20
-963.8456173567075
 30
0.0
 11
238.1178403196843
 21
-963.8456173567075
 31
0.0
  0
LINE
  5
DD4
330
36
100
AcDbEntity
  8
0
100
AcDbLine
 10
238.9678403196842
 20
-963.6956173567073
 30
0.0
 11
238.2678403196844
 21
-963.6956173567073
 31
0.0
  0
LINE
  5
DD5
330
36
100
AcDbEntity
  8
0
 62
     3
100
AcDbLine
 10
249.4178403196845
 20
-959.8456173567074
 30
0.0
 11
248.4178403196845
 21
-959.8456173567074
 31
0.0
  0
LINE
  5
DD6
330
36
100
AcDbEntity
  8
0
100
AcDbLine
 10
249.2678403196848
 20
-959.9956173567074
 30
0.0
 11
248.5678403196851
 21
-959.9956173567074
 31
0.0
  0
LINE
  5
DD7
330
36
100
AcDbEntity
  8
0
 62
     3
100
AcDbLine
 10
239.1178403196843
 20
-959.8456173567074
 30
0.0
 11
238.1178403196843
 21
-959.8456173567074
 31
0.0
  0
LINE
  5
DD8
330
36
100
AcDbEntity
  8
0
100
AcDbLine
 10
238.9678403196842
 20
-959.9956173567074
 30
0.0
 11
238.2678403196844
 21
-959.9956173567074
 31
0.0
  0
LINE
  5
DD9
330
36
100
AcDbEntity
  8
0
 62
     3
100
AcDbLine
 10
245.7678403196844
 20
-957.1956173567073
 30
0.0
 11
241.7678403196844
 21
-957.1956173567073
 31
0.0
  0
LINE
  5
DDA
330
36
100
AcDbEntity
  8
0
100
AcDbLine
 10
245.6178403196843
 20
-957.0456173567073
 30
0.0
 11
241.9178403196845
 21
-957.0456173567073
 31
0.0
  0
LINE
  5
DDB
330
36
100
AcDbEntity
  8
0
 62
     3
100
AcDbLine
 10
245.7678403196844
 20
-956.1956173567073
 30
0.0
 11
241.7678403196844
 21
-956.1956173567073
 31
0.0
  0
LINE
  5
DDC
330
36
100
AcDbEntity
  8
0
100
AcDbLine
 10
245.6178403196843
 20
-956.3456173567074
 30
0.0
 11
241.9178403196845
 21
-956.3456173567074
 31
0.0
  0
LINE
  5
DDD
330
36
100
AcDbEntity
  8
0
 62
     3
100
AcDbLine
 10
244.2678403196844
 20
-968.5956173567074
 30
0.0
 11
243.2678403196844
 21
-968.5956173567074
 31
0.0
  0
LINE
  5
DDE
330
36
100
AcDbEntity
  8
0
100
AcDbLine
 10
244.1178403196843
 20
-968.4456173567072
 30
0.0
 11
243.4178403196845
 21
-968.4456173567072
 31
0.0
  0
LINE
  5
DDF
330
36
100
AcDbEntity
  8
0
 62
     3
100
AcDbLine
 10
244.2678403196844
 20
-964.5956173567073
 30
0.0
 11
243.2678403196844
 21
-964.5956173567073
 31
0.0
  0
LINE
  5
DE0
330
36
100
AcDbEntity
  8
0
100
AcDbLine
 10
244.1178403196843
 20
-964.7456173567073
 30
0.0
 11
243.4178403196845
 21
-964.7456173567073
 31
0.0
  0
LINE
  5
DE1
330
36
100
AcDbEntity
  8
0
 62
     3
100
AcDbLine
 10
241.7678403196844
 20
-957.1956173567073
 30
0.0
 11
241.7678403196844
 21
-956.1956173567073
 31
0.0
  0
LINE
  5
DE2
330
36
100
AcDbEntity
  8
0
100
AcDbLine
 10
241.9178403196845
 20
-957.0456173567073
 30
0.0
 11
241.9178403196845
 21
-956.3456173567074
 31
0.0
  0
LINE
  5
DE3
330
36
100
AcDbEntity
  8
0
 62
     3
100
AcDbLine
 10
245.7678403196844
 20
-957.1956173567073
 30
0.0
 11
245.7678403196844
 21
-956.1956173567073
 31
0.0
  0
LINE
  5
DE4
330
36
100
AcDbEntity
  8
0
100
AcDbLine
 10
245.6178403196843
 20
-957.0456173567073
 30
0.0
 11
245.6178403196843
 21
-956.3456173567074
 31
0.0
  0
LINE
  5
DE5
330
36
100
AcDbEntity
  8
0
 62
     3
100
AcDbLine
 10
243.2678403196844
 20
-968.5956173567074
 30
0.0
 11
243.2678403196844
 21
-964.5956173567073
 31
0.0
  0
LINE
  5
DE6
330
36
100
AcDbEntity
  8
0
100
AcDbLine
 10
243.4178403196845
 20
-968.4456173567072
 30
0.0
 11
243.4178403196845
 21
-964.7456173567073
 31
0.0
  0
LINE
  5
DE7
330
36
100
AcDbEntity
  8
0
 62
     3
100
AcDbLine
 10
244.2678403196844
 20
-968.5956173567074
 30
0.0
 11
244.2678403196844
 21
-964.5956173567073
 31
0.0
  0
LINE
  5
DE8
330
36
100
AcDbEntity
  8
0
100
AcDbLine
 10
244.1178403196843
 20
-968.4456173567072
 30
0.0
 11
244.1178403196843
 21
-964.7456173567073
 31
0.0
  0
LINE
  5
DE9
330
36
100
AcDbEntity
  8
0
 62
     3
100
AcDbLine
 10
238.1178403196843
 20
-963.8456173567075
 30
0.0
 11
238.1178403196843
 21
-959.8456173567074
 31
0.0
  0
LINE
  5
DEA
330
36
100
AcDbEntity
  8
0
100
AcDbLine
 10
238.2678403196844
 20
-963.6956173567073
 30
0.0
 11
238.2678403196844
 21
-959.9956173567074
 31
0.0
  0
LINE
  5
DEB
330
36
100
AcDbEntity
  8
0
 62
     3
100
AcDbLine
 10
239.1178403196843
 20
-963.8456173567075
 30
0.0
 11
239.1178403196843
 21
-959.8456173567074
 31
0.0
  0
LINE
  5
DEC
330
36
100
AcDbEntity
  8
0
100
AcDbLine
 10
238.9678403196842
 20
-963.6956173567073
 30
0.0
 11
238.9678403196842
 21
-959.9956173567074
 31
0.0
  0
LINE
  5
DED
330
36
100
AcDbEntity
  8
0
 62
     3
100
AcDbLine
 10
248.4178403196845
 20
-963.8456173567075
 30
0.0
 11
248.4178403196845
 21
-959.8456173567074
 31
0.0
  0
LINE
  5
DEE
330
36
100
AcDbEntity
  8
0
100
AcDbLine
 10
248.5678403196851
 20
-963.6956173567073
 30
0.0
 11
248.5678403196851
 21
-959.9956173567074
 31
0.0
  0
LINE
  5
DEF
330
36
100
AcDbEntity
  8
0
 62
     3
100
AcDbLine
 10
249.4178403196845
 20
-963.8456173567075
 30
0.0
 11
249.4178403196845
 21
-959.8456173567074
 31
0.0
  0
LINE
  5
DF0
330
36
100
AcDbEntity
  8
0
100
AcDbLine
 10
249.2678403196848
 20
-963.6956173567073
 30
0.0
 11
249.2678403196844
 21
-959.9956173567074
 31
0.0
  0
LINE
  5
DF1
330
36
100
AcDbEntity
  8
0
100
AcDbLine
 10
238.9678403196842
 20
-959.9956173567074
 30
0.0
 11
239.1178403196843
 21
-959.8456173567074
 31
0.0
  0
LINE
  5
DF2
330
36
100
AcDbEntity
  8
0
100
AcDbLine
 10
238.2678403196844
 20
-959.9956173567074
 30
0.0
 11
238.1178403196843
 21
-959.8456173567074
 31
0.0
  0
LINE
  5
DF3
330
36
100
AcDbEntity
  8
0
100
AcDbLine
 10
238.2678403196844
 20
-963.6956173567073
 30
0.0
 11
238.1178403196843
 21
-963.8456173567075
 31
0.0
  0
LINE
  5
DF4
330
36
100
AcDbEntity
  8
0
100
AcDbLine
 10
238.9678403196842
 20
-963.6956173567073
 30
0.0
 11
239.1178403196843
 21
-963.8456173567075
 31
0.0
  0
LINE
  5
DF5
330
36
100
AcDbEntity
  8
0
100
AcDbLine
 10
243.4178403196845
 20
-964.7456173567073
 30
0.0
 11
243.2678403196844
 21
-964.5956173567073
 31
0.0
  0
LINE
  5
DF6
330
36
100
AcDbEntity
  8
0
100
AcDbLine
 10
244.1178403196843
 20
-964.7456173567073
 30
0.0
 11
244.2678403196844
 21
-964.5956173567073
 31
0.0
  0
LINE
  5
DF7
330
36
100
AcDbEntity
  8
0
100
AcDbLine
 10
243.4178403196845
 20
-968.4456173567072
 30
0.0
 11
243.2678403196844
 21
-968.5956173567074
 31
0.0
  0
LINE
  5
DF8
330
36
100
AcDbEntity
  8
0
100
AcDbLine
 10
244.1178403196843
 20
-968.4456173567072
 30
0.0
 11
244.2678403196844
 21
-968.5956173567074
 31
0.0
  0
LINE
  5
DF9
330
36
100
AcDbEntity
  8
0
100
AcDbLine
 10
248.5678403196851
 20
-963.6956173567073
 30
0.0
 11
248.4178403196845
 21
-963.8456173567075
 31
0.0
  0
LINE
  5
DFA
330
36
100
AcDbEntity
  8
0
100
AcDbLine
 10
249.2678403196848
 20
-963.6956173567073
 30
0.0
 11
249.4178403196845
 21
-963.8456173567075
 31
0.0
  0
LINE
  5
DFB
330
36
100
AcDbEntity
  8
0
100
AcDbLine
 10
249.2678403196848
 20
-959.9956173567074
 30
0.0
 11
249.4178403196845
 21
-959.8456173567074
 31
0.0
  0
LINE
  5
DFC
330
36
100
AcDbEntity
  8
0
100
AcDbLine
 10
248.5678403196851
 20
-959.9956173567074
 30
0.0
 11
248.4178403196845
 21
-959.8456173567074
 31
0.0
  0
LINE
  5
DFD
330
36
100
AcDbEntity
  8
0
100
AcDbLine
 10
245.6178403196843
 20
-956.3456173567074
 30
0.0
 11
245.7678403196844
 21
-956.1956173567073
 31
0.0
  0
LINE
  5
DFE
330
36
100
AcDbEntity
  8
0
100
AcDbLine
 10
245.6178403196843
 20
-957.0456173567073
 30
0.0
 11
245.7678403196844
 21
-957.1956173567073
 31
0.0
  0
LINE
  5
DFF
330
36
100
AcDbEntity
  8
0
100
AcDbLine
 10
241.9178403196845
 20
-956.3456173567074
 30
0.0
 11
241.7678403196844
 21
-956.1956173567073
 31
0.0
  0
LINE
  5
E00
330
36
100
AcDbEntity
  8
0
100
AcDbLine
 10
241.9178403196845
 20
-957.0456173567073
 30
0.0
 11
241.7678403196844
 21
-957.1956173567073
 31
0.0
  0
LINE
  5
E01
330
36
100
AcDbEntity
  8
0
  6
Continuous
 62
     3
100
AcDbLine
 10
200.8821590000001
 20
-951.4642509999999
 30
0.0
 11
208.4316375045556
 21
-951.4642509999999
 31
0.0
  0
LINE
  5
E02
330
36
100
AcDbEntity
  8
0
  6
Continuous
 62
     3
100
AcDbLine
 10
200.8821590000001
 20
-955.714251
 30
0.0
 11
208.4316375045556
 21
-955.714251
 31
0.0
  0
ARC
  5
E03
330
36
100
AcDbEntity
  8
0
  6
Continuous
100
AcDbCircle
 10
207.3160125045557
 20
-952.5267509999999
 30
0.0
 40
1.540624999999895
100
AcDbArc
 50
316.3971810272869
 51
43.60281897270023
  0
ARC
  5
E04
330
36
100
AcDbEntity
  8
0
  6
Continuous
100
AcDbCircle
 10
209.5472625045553
 20
-952.526751
 30
0.0
 40
1.540624999999895
100
AcDbArc
 50
136.3971810272869
 51
223.6028189727036
  0
ARC
  5
E05
330
36
100
AcDbEntity
  8
0
  6
Continuous
100
AcDbCircle
 10
207.3160125045557
 20
-954.6517509999999
 30
0.0
 40
1.540624999999895
100
AcDbArc
 50
316.3971810272869
 51
43.60281897271309
  0
ARC
  5
E06
330
36
100
AcDbEntity
  8
0
  6
Continuous
100
AcDbCircle
 10
242.7053403196844
 20
-899.9361845083253
 30
0.0
 40
1.540624999999975
100
AcDbArc
 50
46.39718102729253
 51
133.6028189727074
  0
ARC
  5
E07
330
36
100
AcDbEntity
  8
0
  6
Continuous
100
AcDbCircle
 10
242.7053403196844
 20
-897.7049345083255
 30
0.0
 40
1.540624999999975
100
AcDbArc
 50
226.3971810272925
 51
313.6028189727074
  0
ARC
  5
E08
330
36
100
AcDbEntity
  8
0
  6
Continuous
100
AcDbCircle
 10
244.8303403196844
 20
-899.9361845083253
 30
0.0
 40
1.540624999999975
100
AcDbArc
 50
46.39718102729253
 51
133.6028189727074
  0
TEXT
  5
E0B
330
36
100
AcDbEntity
  8
0
 62
     4
100
AcDbText
 10
227.1883829310567
 20
-978.958895123627
 30
0.0
 40
3.2
  1
3PE 20A 250V
  7
高3.2
100
AcDbText
  0
TEXT
  5
E0C
330
36
100
AcDbEntity
  8
0
100
AcDbText
 10
240.1625150242633
 20
-968.6944044924146
 30
0.0
 40
2.0
  1
G
100
AcDbText
  0
CIRCLE
  5
E3C
330
36
100
AcDbEntity
  8
0
100
AcDbCircle
 10
221.331419
 20
-880.7435902203678
 30
0.0
 40
5.0
  0
TEXT
  5
E3D
330
36
100
AcDbEntity
  8
0
 62
     4
100
AcDbText
 10
220.1840866406461
 20
-883.8502595058782
 30
0.0
 40
6.299999999999998
  1
1
  7
高6.3
100
AcDbText
  0
TEXT
  5
E46
330
36
100
AcDbEntity
  8
0
100
AcDbText
 10
-108.6006339819359
 20
-1131.497328987655
 30
0.0
 40
3.2
  1
コード番号末尾に●の記載がある物は過去に変更があった部品
  7
高3.2
100
AcDbText
  0
LINE
  5
EE0
330
36
100
AcDbEntity
  8
0
  6
Continuous
100
AcDbLine
 10
254.8678403196843
 20
-935.0280518617342
 30
0.0
 11
264.7312040913314
 21
-935.0280518617342
 31
0.0
  0
LINE
  5
EE1
330
36
100
AcDbEntity
  8
0
  6
Continuous
100
AcDbLine
 10
249.7678403196843
 20
-912.0280518617342
 30
0.0
 11
264.7312040913314
 21
-912.0280518617343
 31
0.0
  0
LINE
  5
EE2
330
36
100
AcDbEntity
  8
0
  6
Continuous
100
AcDbLine
 10
263.4812040913315
 20
-932.5280518617343
 30
0.0
 11
263.4812040913315
 21
-914.5280518617342
 31
0.0
  0
LINE
  5
EE6
330
36
100
AcDbEntity
  8
0
  6
Continuous
100
AcDbLine
 10
254.6178403196843
 20
-935.2780518617342
 30
0.0
 11
254.6178403196843
 21
-949.6880785691198
 31
0.0
  0
LINE
  5
EE7
330
36
100
AcDbEntity
  8
0
  6
Continuous
100
AcDbLine
 10
232.9178403196843
 20
-935.2780518617342
 30
0.0
 11
232.9178403196843
 21
-949.6880785691198
 31
0.0
  0
LINE
  5
EE8
330
36
100
AcDbEntity
  8
0
  6
Continuous
100
AcDbLine
 10
257.1178403196843
 20
-948.4380785691197
 30
0.0
 11
259.6178403196843
 21
-948.4380785691197
 31
0.0
  0
LINE
  5
EE9
330
36
100
AcDbEntity
  8
0
  6
Continuous
100
AcDbLine
 10
230.4178403196843
 20
-948.4380785691197
 30
0.0
 11
214.6678403196843
 21
-948.4380785691197
 31
0.0
  0
LINE
  5
EEA
330
36
100
AcDbEntity
  8
0
  6
Continuous
100
AcDbLine
 10
254.6178403196843
 20
-948.4380785691197
 30
0.0
 11
232.9178403196843
 21
-948.4380785691197
 31
0.0
  0
TEXT
  5
EF0
330
36
100
AcDbEntity
  8
0
  6
Continuous
 62
     4
100
AcDbText
 10
-82.6239357800444
 20
-962.4716581733506
 30
0.0
 40
3.0
  1
アース
100
AcDbText
1001
ACAD
1000
MTEXTBEGIN
1070
    73
1070
     1
1070
    44
1040
1.0
1070
    74
1070
     0
1000
MTEXTEND
  0
LINE
  5
EF5
330
36
100
AcDbEntity
  8
0
100
AcDbLine
 10
-67.64934100000001
 20
-979.339251
 30
0.0
 11
-67.64934100000001
 21
-992.711165
 31
0.0
  0
LINE
  5
EF6
330
36
100
AcDbEntity
  8
0
100
AcDbLine
 10
22.350659
 20
-979.339251
 30
0.0
 11
22.350659
 21
-992.711165
 31
0.0
  0
LINE
  5
EF7
330
36
100
AcDbEntity
  8
0
100
AcDbLine
 10
-65.14934100000001
 20
-991.4611650000001
 30
0.0
 11
19.850659
 21
-991.4611650000001
 31
0.0
  0
LINE
  5
EFB
330
36
100
AcDbEntity
  8
0
100
AcDbLine
 10
7.975658999999997
 20
-984.3392509999999
 30
0.0
 11
36.44299199999998
 21
-984.3392509999999
 31
0.0
  0
LINE
  5
EFC
330
36
100
AcDbEntity
  8
0
100
AcDbLine
 10
-25.185714
 20
-886.8392509999999
 30
0.0
 11
36.442992
 21
-886.8392509999999
 31
0.0
  0
LINE
  5
EFD
330
36
100
AcDbEntity
  8
0
100
AcDbLine
 10
35.19299199999998
 20
-981.839251
 30
0.0
 11
35.192992
 21
-889.3392509999998
 31
0.0
  0
LINE
  5
F01
330
36
100
AcDbEntity
  8
0
100
AcDbLine
 10
54.444159
 20
-973.3392509999999
 30
0.0
 11
54.444159
 21
-992.200595
 31
0.0
  0
LINE
  5
F02
330
36
100
AcDbEntity
  8
0
100
AcDbLine
 10
199.381659
 20
-979.339251
 30
0.0
 11
199.381659
 21
-992.200595
 31
0.0
  0
LINE
  5
F03
330
36
100
AcDbEntity
  8
0
100
AcDbLine
 10
56.944159
 20
-990.9505949999999
 30
0.0
 11
196.881659
 21
-990.9505949999999
 31
0.0
  0
LINE
  5
F07
330
36
100
AcDbEntity
  8
0
  6
Continuous
100
AcDbLine
 10
92.6256210478483
 20
-897.6879821320945
 30
0.0
 11
85.0098596561205
 21
-880.9181707358103
 31
0.0
1001
ACAD
1000
DSTYLE
1002
{
1070
   147
1040
0.625
1070
    77
1070
     0
1002
}
  0
LINE
  5
F08
330
36
100
AcDbEntity
  8
0
  6
ByBlock
 62
     0
370
    -2
100
AcDbLine
 10
93.23554474678562
 20
-897.4109943205741
 30
0.0
 11
93.65935437590849
 21
-899.9642499999996
 31
0.0
  0
LINE
  5
F09
330
36
100
AcDbEntity
  8
0
  6
ByBlock
 62
     0
370
    -2
100
AcDbLine
 10
93.65935437590849
 20
-899.9642499999996
 30
0.0
 11
92.01569734891098
 21
-897.9649699436148
 31
0.0
  0
LINE
  5
F0A
330
36
100
AcDbEntity
  8
0
  6
ByBlock
 62
     0
370
    -2
100
AcDbLine
 10
93.65935437590849
 20
-899.9642499999996
 30
0.0
 11
92.6256210478483
 21
-897.6879821320945
 31
0.0
  0
LINE
  5
F0B
330
36
100
AcDbEntity
  8
0
  6
Continuous
100
AcDbLine
 10
118.6001485658205
 20
-885.0002330566441
 30
0.0
 11
114.0139438683592
 21
-880.037668886711
 31
0.0
1001
ACAD
1000
DSTYLE
1002
{
1070
   147
1040
0.625
1070
    77
1070
     0
1002
}
  0
LINE
  5
F0C
330
36
100
AcDbEntity
  8
0
  6
ByBlock
 62
     0
370
    -2
100
AcDbLine
 10
119.0921074697757
 20
-884.5455841777548
 30
0.0
 11
120.2969225
 21
-886.8362499999998
 31
0.0
  0
LINE
  5
F0D
330
36
100
AcDbEntity
  8
0
  6
ByBlock
 62
     0
370
    -2
100
AcDbLine
 10
120.2969225
 20
-886.8362499999998
 30
0.0
 11
118.1081896618653
 21
-885.4548819355336
 31
0.0
  0
LINE
  5
F0E
330
36
100
AcDbEntity
  8
0
  6
ByBlock
 62
     0
370
    -2
100
AcDbLine
 10
120.2969225
 20
-886.8362499999998
 30
0.0
 11
118.6001485658205
 21
-885.0002330566441
 31
0.0
  0
LINE
  5
F0F
330
36
100
AcDbEntity
  8
0
  6
Continuous
100
AcDbLine
 10
-55.88990007350938
 20
-982.309674492607
 30
0.0
 11
-78.27421885298128
 21
-987.7988940147853
 31
0.0
1001
ACAD
1000
DSTYLE
1002
{
1070
   147
1040
0.625
1070
    77
1070
     0
1002
}
  0
LINE
  5
F10
330
36
100
AcDbEntity
  8
0
  6
ByBlock
 62
     0
370
    -2
100
AcDbLine
 10
-56.04944320293003
 20
-981.6590784919194
 30
0.0
 11
-53.46184099999999
 21
-981.7142509999998
 31
0.0
  0
LINE
  5
F11
330
36
100
AcDbEntity
  8
0
  6
ByBlock
 62
     0
370
    -2
100
AcDbLine
 10
-53.46184099999999
 20
-981.7142509999998
 30
0.0
 11
-55.73035694408873
 21
-982.9602704932948
 31
0.0
  0
LINE
  5
F12
330
36
100
AcDbEntity
  8
0
  6
ByBlock
 62
     0
370
    -2
100
AcDbLine
 10
-53.46184099999999
 20
-981.7142509999998
 30
0.0
 11
-55.88990007350938
 21
-982.309674492607
 31
0.0
  0
LINE
  5
F13
330
36
100
AcDbEntity
  8
0
  6
Continuous
100
AcDbLine
 10
-59.76163127217795
 20
-933.744290413154
 30
0.0
 11
-74.93437174061273
 21
-881.1422087428327
 31
0.0
1001
ACAD
1000
DSTYLE
1002
{
1070
   147
1040
0.625
1070
    77
1070
     0
1002
}
  0
LINE
  5
F14
330
36
100
AcDbEntity
  8
0
  6
ByBlock
 62
     0
370
    -2
100
AcDbLine
 10
-59.1179989182273
 20
-933.5586386983647
 30
0.0
 11
-59.06876914248432
 21
-936.1463607845703
 31
0.0
  0
LINE
  5
F15
330
36
100
AcDbEntity
  8
0
  6
ByBlock
 62
     0
370
    -2
100
AcDbLine
 10
-59.06876914248432
 20
-936.1463607845703
 30
0.0
 11
-60.40526362612859
 21
-933.9299421279433
 31
0.0
  0
LINE
  5
F16
330
36
100
AcDbEntity
  8
0
  6
ByBlock
 62
     0
370
    -2
100
AcDbLine
 10
-59.06876914248432
 20
-936.1463607845703
 30
0.0
 11
-59.76163127217795
 21
-933.744290413154
 31
0.0
  0
LINE
  5
F17
330
36
100
AcDbEntity
  8
0
  6
Continuous
100
AcDbLine
 10
-25.22489719727631
 20
-948.6381292896171
 30
0.0
 11
-43.40918360544736
 21
-881.165811420765
 31
0.0
1001
ACAD
1000
DSTYLE
1002
{
1070
   147
1040
0.625
1070
    77
1070
     0
1002
}
  0
LINE
  5
F18
330
36
100
AcDbEntity
  8
0
  6
ByBlock
 62
     0
370
    -2
100
AcDbLine
 10
-24.57810268635101
 20
-948.4638134071131
 30
0.0
 11
-24.574341
 21
-951.0520009999998
 31
0.0
  0
LINE
  5
F19
330
36
100
AcDbEntity
  8
0
  6
ByBlock
 62
     0
370
    -2
100
AcDbLine
 10
-24.574341
 20
-951.0520009999998
 30
0.0
 11
-25.87169170820162
 21
-948.8124451721212
 31
0.0
  0
LINE
  5
F1A
330
36
100
AcDbEntity
  8
0
  6
ByBlock
 62
     0
370
    -2
100
AcDbLine
 10
-24.574341
 20
-951.0520009999998
 30
0.0
 11
-25.22489719727631
 21
-948.6381292896171
 31
0.0
  0
LINE
  5
F1B
330
36
100
AcDbEntity
  8
0
  6
Continuous
100
AcDbLine
 10
-14.83695615461388
 20
-908.1626729056521
 30
0.0
 11
-1.571663954923451
 21
-880.4639751886949
 31
0.0
1001
ACAD
1000
DSTYLE
1002
{
1070
   147
1040
0.625
1070
    77
1070
     0
1002
}
  0
LINE
  5
F1C
330
36
100
AcDbEntity
  8
0
  6
ByBlock
 62
     0
370
    -2
100
AcDbLine
 10
-14.23279490619556
 20
-908.4520141439261
 30
0.0
 11
-15.91679313207561
 21
-910.4174349999997
 31
0.0
  0
LINE
  5
F1D
330
36
100
AcDbEntity
  8
0
  6
ByBlock
 62
     0
370
    -2
100
AcDbLine
 10
-15.91679313207561
 20
-910.4174349999997
 30
0.0
 11
-15.44111740303219
 21
-907.8733316673783
 31
0.0
  0
LINE
  5
F1E
330
36
100
AcDbEntity
  8
0
  6
ByBlock
 62
     0
370
    -2
100
AcDbLine
 10
-15.91679313207561
 20
-910.4174349999997
 30
0.0
 11
-14.83695615461388
 21
-908.1626729056521
 31
0.0
  0
LINE
  5
F1F
330
36
100
AcDbEntity
  8
0
  6
Continuous
100
AcDbLine
 10
8.504272131347695
 20
-910.2199705556607
 30
0.0
 11
16.70910317445526
 21
-881.2841734345928
 31
0.0
1001
ACAD
1000
DSTYLE
1002
{
1070
   147
1040
0.625
1070
    77
1070
     0
1002
}
  0
LINE
  5
F20
330
36
100
AcDbEntity
  8
0
  6
ByBlock
 62
     0
370
    -2
100
AcDbLine
 10
9.14873722949407
 20
-910.4027105445176
 30
0.0
 11
7.822276718575324
 21
-912.6251487729572
 31
0.0
  0
LINE
  5
F21
330
36
100
AcDbEntity
  8
0
  6
ByBlock
 62
     0
370
    -2
100
AcDbLine
 10
7.822276718575324
 20
-912.6251487729572
 30
0.0
 11
7.859807033201324
 21
-910.0372305668036
 31
0.0
  0
LINE
  5
F22
330
36
100
AcDbEntity
  8
0
  6
ByBlock
 62
     0
370
    -2
100
AcDbLine
 10
7.822276718575324
 20
-912.6251487729572
 30
0.0
 11
8.504272131347697
 21
-910.2199705556607
 31
0.0
  0
LINE
  5
F23
330
36
100
AcDbEntity
  8
0
  6
Continuous
100
AcDbLine
 10
16.374638
 20
-922.4457069999997
 30
0.0
 11
32.81650124154834
 21
-881.1196258990239
 31
0.0
1001
ACAD
1000
DSTYLE
1002
{
1070
   341
1005
84D
1070
   147
1040
0.625
1070
    77
1070
     0
1002
}
  0
LINE
  5
F25
330
36
100
AcDbEntity
  8
0
  6
Continuous
100
AcDbLine
 10
240.0542188692428
 20
-903.4939477163627
 30
0.0
 11
224.5086619008834
 21
-884.6043061577022
 31
0.0
1001
ACAD
1000
DSTYLE
1002
{
1070
   147
1040
0.625
1070
    77
1070
     0
1002
}
  0
LINE
  5
F26
330
36
100
AcDbEntity
  8
0
  6
ByBlock
 62
     0
370
    -2
100
AcDbLine
 10
240.5714563565892
 20
-903.0682781873382
 30
0.0
 11
241.6428403196844
 21
-905.4243056850298
 31
0.0
  0
LINE
  5
F27
330
36
100
AcDbEntity
  8
0
  6
ByBlock
 62
     0
370
    -2
100
AcDbLine
 10
241.6428403196844
 20
-905.4243056850298
 30
0.0
 11
239.5369813818964
 21
-903.919617245387
 31
0.0
  0
LINE
  5
F28
330
36
100
AcDbEntity
  8
0
  6
ByBlock
 62
     0
370
    -2
100
AcDbLine
 10
241.6428403196844
 20
-905.4243056850298
 30
0.0
 11
240.0542188692428
 21
-903.4939477163627
 31
0.0
  0
TEXT
  5
F29
330
36
100
AcDbEntity
  8
0
  6
Continuous
 62
     4
100
AcDbText
 10
262.8562040913316
 20
-925.6046888287025
 30
0.0
 40
3.0
  1
46
 50
90.0
100
AcDbText
  0
LINE
  5
F2A
330
36
100
AcDbEntity
  8
0
  6
ByBlock
 62
     0
370
    -2
100
AcDbLine
 10
262.8113315913314
 20
-914.5280518617342
 30
0.0
 11
263.4812040913315
 21
-912.0280518617343
 31
0.0
  0
LINE
  5
F2B
330
36
100
AcDbEntity
  8
0
  6
ByBlock
 62
     0
370
    -2
100
AcDbLine
 10
263.4812040913315
 20
-912.0280518617343
 30
0.0
 11
264.1510765913314
 21
-914.5280518617342
 31
0.0
  0
LINE
  5
F2C
330
36
100
AcDbEntity
  8
0
  6
ByBlock
 62
     0
370
    -2
100
AcDbLine
 10
263.4812040913315
 20
-912.0280518617343
 30
0.0
 11
263.4812040913315
 21
-914.5280518617342
 31
0.0
  0
LINE
  5
F2D
330
36
100
AcDbEntity
  8
0
  6
ByBlock
 62
     0
370
    -2
100
AcDbLine
 10
264.1510765913314
 20
-932.5280518617343
 30
0.0
 11
263.4812040913315
 21
-935.0280518617342
 31
0.0
  0
LINE
  5
F2E
330
36
100
AcDbEntity
  8
0
  6
ByBlock
 62
     0
370
    -2
100
AcDbLine
 10
263.4812040913315
 20
-935.0280518617342
 30
0.0
 11
262.8113315913314
 21
-932.5280518617343
 31
0.0
  0
LINE
  5
F2F
330
36
100
AcDbEntity
  8
0
  6
ByBlock
 62
     0
370
    -2
100
AcDbLine
 10
263.4812040913315
 20
-935.0280518617342
 30
0.0
 11
263.4812040913315
 21
-932.5280518617343
 31
0.0
  0
TEXT
  5
F30
330
36
100
AcDbEntity
  8
0
  6
Continuous
 62
     4
100
AcDbText
 10
215.2928403196843
 20
-947.8130785691197
 30
0.0
 40
3.0
  1
\U+220543.4
100
AcDbText
  0
LINE
  5
F31
330
36
100
AcDbEntity
  8
0
  6
ByBlock
 62
     0
370
    -2
100
AcDbLine
 10
230.4178403196843
 20
-947.7682060691197
 30
0.0
 11
232.9178403196843
 21
-948.4380785691197
 31
0.0
  0
LINE
  5
F32
330
36
100
AcDbEntity
  8
0
  6
ByBlock
 62
     0
370
    -2
100
AcDbLine
 10
232.9178403196843
 20
-948.4380785691197
 30
0.0
 11
230.4178403196843
 21
-949.1079510691196
 31
0.0
  0
LINE
  5
F33
330
36
100
AcDbEntity
  8
0
  6
ByBlock
 62
     0
370
    -2
100
AcDbLine
 10
232.9178403196843
 20
-948.4380785691197
 30
0.0
 11
230.4178403196843
 21
-948.4380785691197
 31
0.0
  0
LINE
  5
F34
330
36
100
AcDbEntity
  8
0
  6
ByBlock
 62
     0
370
    -2
100
AcDbLine
 10
257.1178403196843
 20
-949.1079510691196
 30
0.0
 11
254.6178403196843
 21
-948.4380785691197
 31
0.0
  0
LINE
  5
F35
330
36
100
AcDbEntity
  8
0
  6
ByBlock
 62
     0
370
    -2
100
AcDbLine
 10
254.6178403196843
 20
-948.4380785691197
 30
0.0
 11
257.1178403196843
 21
-947.7682060691197
 31
0.0
  0
LINE
  5
F36
330
36
100
AcDbEntity
  8
0
  6
ByBlock
 62
     0
370
    -2
100
AcDbLine
 10
254.6178403196843
 20
-948.4380785691197
 30
0.0
 11
257.1178403196843
 21
-948.4380785691197
 31
0.0
  0
LINE
  5
F37
330
36
100
AcDbEntity
  8
0
  6
Continuous
100
AcDbLine
 10
-24.95270098971458
 20
-980.0611217515827
 30
0.0
 11
-78.52361802057084
 21
-1002.664626036733
 31
0.0
1001
ACAD
1000
DSTYLE
1002
{
1070
   147
1040
0.625
1070
    77
1070
     0
1002
}
  0
LINE
  5
F38
330
36
100
AcDbEntity
  8
0
  6
ByBlock
 62
     0
370
    -2
100
AcDbLine
 10
-25.21311278573043
 20
-979.4439387456987
 30
0.0
 11
-22.649341
 21
-979.089251
 31
0.0
  0
LINE
  5
F39
330
36
100
AcDbEntity
  8
0
  6
ByBlock
 62
     0
370
    -2
100
AcDbLine
 10
-22.649341
 20
-979.089251
 30
0.0
 11
-24.69228919369872
 21
-980.6783047574667
 31
0.0
  0
LINE
  5
F3A
330
36
100
AcDbEntity
  8
0
  6
ByBlock
 62
     0
370
    -2
100
AcDbLine
 10
-22.649341
 20
-979.089251
 30
0.0
 11
-24.95270098971458
 21
-980.0611217515827
 31
0.0
  0
LINE
  5
F3B
330
36
100
AcDbEntity
  8
0
  6
Continuous
100
AcDbLine
 10
-57.57547338840599
 20
-967.8276219624216
 30
0.0
 11
-69.69893578004439
 21
-960.9716581733506
 31
0.0
1001
ACAD
1000
DSTYLE
1002
{
1070
   147
1040
0.625
1070
    77
1070
     0
1002
}
  0
LINE
  5
F3C
330
36
100
AcDbEntity
  8
0
  6
Continuous
100
AcDbLine
 10
-69.69893578004439
 20
-960.9716581733506
 30
0.0
 11
-72.19893578004439
 21
-960.9716581733506
 31
0.0
1001
ACAD
1000
DSTYLE
1002
{
1070
   147
1040
0.625
1070
    77
1070
     0
1002
}
  0
LINE
  5
F3D
330
36
100
AcDbEntity
  8
0
  6
ByBlock
 62
     0
370
    -2
100
AcDbLine
 10
-57.24572756841599
 20
-967.2445294650806
 30
0.0
 11
-55.39934099999999
 21
-969.0582509999996
 31
0.0
  0
LINE
  5
F3E
330
36
100
AcDbEntity
  8
0
  6
ByBlock
 62
     0
370
    -2
100
AcDbLine
 10
-55.39934099999999
 20
-969.0582509999996
 30
0.0
 11
-57.90521920839601
 21
-968.4107144597627
 31
0.0
  0
LINE
  5
F3F
330
36
100
AcDbEntity
  8
0
  6
ByBlock
 62
     0
370
    -2
100
AcDbLine
 10
-55.39934099999999
 20
-969.0582509999996
 30
0.0
 11
-57.57547338840599
 21
-967.8276219624216
 31
0.0
  0
LINE
  5
F40
330
36
100
AcDbEntity
  8
0
  6
Continuous
100
AcDbLine
 10
12.64583714440615
 20
-931.1043460072678
 30
0.0
 11
46.15569542723724
 21
-880.9370924066627
 31
0.0
1001
ACAD
1000
DSTYLE
1002
{
1070
   147
1040
0.625
1070
    77
1070
     0
1002
}
  0
LINE
  5
F41
330
36
100
AcDbEntity
  8
0
  6
ByBlock
 62
     0
370
    -2
100
AcDbLine
 10
13.20287130928931
 20
-931.4764240977396
 30
0.0
 11
11.25722180913025
 21
-933.1832273051386
 31
0.0
  0
LINE
  5
F42
330
36
100
AcDbEntity
  8
0
  6
ByBlock
 62
     0
370
    -2
100
AcDbLine
 10
11.25722180913025
 20
-933.1832273051386
 30
0.0
 11
12.08880297952299
 21
-930.732267916796
 31
0.0
  0
LINE
  5
F43
330
36
100
AcDbEntity
  8
0
  6
ByBlock
 62
     0
370
    -2
100
AcDbLine
 10
11.25722180913025
 20
-933.1832273051386
 30
0.0
 11
12.64583714440615
 21
-931.1043460072678
 31
0.0
  0
TEXT
  5
F44
330
36
100
AcDbEntity
  8
0
  6
Continuous
 62
     4
100
AcDbText
 10
-25.89934100000001
 20
-990.8361650000001
 30
0.0
 40
3.0
  1
190
100
AcDbText
  0
LINE
  5
F45
330
36
100
AcDbEntity
  8
0
  6
ByBlock
 62
     0
370
    -2
100
AcDbLine
 10
19.850659
 20
-990.7912925000001
 30
0.0
 11
22.350659
 21
-991.4611650000001
 31
0.0
  0
LINE
  5
F46
330
36
100
AcDbEntity
  8
0
  6
ByBlock
 62
     0
370
    -2
100
AcDbLine
 10
22.350659
 20
-991.4611650000001
 30
0.0
 11
19.850659
 21
-992.1310375
 31
0.0
  0
LINE
  5
F47
330
36
100
AcDbEntity
  8
0
  6
ByBlock
 62
     0
370
    -2
100
AcDbLine
 10
22.350659
 20
-991.4611650000001
 30
0.0
 11
19.850659
 21
-991.4611650000001
 31
0.0
  0
LINE
  5
F48
330
36
100
AcDbEntity
  8
0
  6
ByBlock
 62
     0
370
    -2
100
AcDbLine
 10
-65.14934100000001
 20
-992.1310375
 30
0.0
 11
-67.64934100000001
 21
-991.4611650000001
 31
0.0
  0
LINE
  5
F49
330
36
100
AcDbEntity
  8
0
  6
ByBlock
 62
     0
370
    -2
100
AcDbLine
 10
-67.64934100000001
 20
-991.4611650000001
 30
0.0
 11
-65.14934100000001
 21
-990.7912925000001
 31
0.0
  0
LINE
  5
F4A
330
36
100
AcDbEntity
  8
0
  6
ByBlock
 62
     0
370
    -2
100
AcDbLine
 10
-67.64934100000001
 20
-991.4611650000001
 30
0.0
 11
-65.14934100000001
 21
-991.4611650000001
 31
0.0
  0
TEXT
  5
F4B
330
36
100
AcDbEntity
  8
0
  6
Continuous
 62
     4
100
AcDbText
 10
34.56799200000014
 20
-939.0892509999998
 30
0.0
 40
3.0
  1
195
 50
90.0
100
AcDbText
  0
LINE
  5
F4C
330
36
100
AcDbEntity
  8
0
  6
ByBlock
 62
     0
370
    -2
100
AcDbLine
 10
34.5231195
 20
-889.3392509999998
 30
0.0
 11
35.192992
 21
-886.8392509999999
 31
0.0
  0
LINE
  5
F4D
330
36
100
AcDbEntity
  8
0
  6
ByBlock
 62
     0
370
    -2
100
AcDbLine
 10
35.192992
 20
-886.8392509999999
 30
0.0
 11
35.86286449999999
 21
-889.3392509999998
 31
0.0
  0
LINE
  5
F4E
330
36
100
AcDbEntity
  8
0
  6
ByBlock
 62
     0
370
    -2
100
AcDbLine
 10
35.192992
 20
-886.8392509999999
 30
0.0
 11
35.192992
 21
-889.3392509999998
 31
0.0
  0
LINE
  5
F4F
330
36
100
AcDbEntity
  8
0
  6
ByBlock
 62
     0
370
    -2
100
AcDbLine
 10
35.86286449999998
 20
-981.839251
 30
0.0
 11
35.19299199999998
 21
-984.3392509999999
 31
0.0
  0
LINE
  5
F50
330
36
100
AcDbEntity
  8
0
  6
ByBlock
 62
     0
370
    -2
100
AcDbLine
 10
35.19299199999998
 20
-984.3392509999999
 30
0.0
 11
34.52311949999998
 21
-981.839251
 31
0.0
  0
LINE
  5
F51
330
36
100
AcDbEntity
  8
0
  6
ByBlock
 62
     0
370
    -2
100
AcDbLine
 10
35.19299199999998
 20
-984.3392509999999
 30
0.0
 11
35.19299199999998
 21
-981.839251
 31
0.0
  0
TEXT
  5
F52
330
36
100
AcDbEntity
  8
0
  6
Continuous
 62
     4
100
AcDbText
 10
123.162909
 20
-990.325595
 30
0.0
 40
3.0
  1
290
100
AcDbText
  0
LINE
  5
F53
330
36
100
AcDbEntity
  8
0
  6
ByBlock
 62
     0
370
    -2
100
AcDbLine
 10
196.881659
 20
-990.2807225
 30
0.0
 11
199.381659
 21
-990.9505949999999
 31
0.0
  0
LINE
  5
F54
330
36
100
AcDbEntity
  8
0
  6
ByBlock
 62
     0
370
    -2
100
AcDbLine
 10
199.381659
 20
-990.9505949999999
 30
0.0
 11
196.881659
 21
-991.6204675000001
 31
0.0
  0
LINE
  5
F55
330
36
100
AcDbEntity
  8
0
  6
ByBlock
 62
     0
370
    -2
100
AcDbLine
 10
199.381659
 20
-990.9505949999999
 30
0.0
 11
196.881659
 21
-990.9505949999999
 31
0.0
  0
LINE
  5
F56
330
36
100
AcDbEntity
  8
0
  6
ByBlock
 62
     0
370
    -2
100
AcDbLine
 10
56.944159
 20
-991.6204675000001
 30
0.0
 11
54.444159
 21
-990.9505949999999
 31
0.0
  0
LINE
  5
F57
330
36
100
AcDbEntity
  8
0
  6
ByBlock
 62
     0
370
    -2
100
AcDbLine
 10
54.444159
 20
-990.9505949999999
 30
0.0
 11
56.944159
 21
-990.2807225
 31
0.0
  0
LINE
  5
F58
330
36
100
AcDbEntity
  8
0
  6
ByBlock
 62
     0
370
    -2
100
AcDbLine
 10
54.444159
 20
-990.9505949999999
 30
0.0
 11
56.944159
 21
-990.9505949999999
 31
0.0
  0
ARC
  5
F59
330
36
100
AcDbEntity
  8
0
  6
ByBlock
 62
     0
100
AcDbCircle
 10
16.374638
 20
-922.4457069999997
 30
0.0
 40
0.1562500000000492
100
AcDbArc
 50
68.30452654890585
 51
248.3045265489059
  0
ARC
  5
F5A
330
36
100
AcDbEntity
  8
0
  6
ByBlock
 62
     0
100
AcDbCircle
 10
16.374638
 20
-922.4457069999997
 30
0.0
 40
0.1562500000000492
100
AcDbArc
 50
248.3045265489059
 51
68.30452654890585
  0
ENDSEC
  0
SECTION
  2
OBJECTS
  0
DICTIONARY
  5
C
330
0
100
AcDbDictionary
281
     1
  3
ACAD_2007HEADERVARS_RT
350
F5E
  3
ACAD_COLOR
350
2F
  3
ACAD_GROUP
350
D
  3
ACAD_LAYOUT
350
2E
  3
ACAD_MATERIAL
350
10
  3
ACAD_MLEADERSTYLE
350
381
  3
ACAD_MLINESTYLE
350
2B
  3
ACAD_PLOTSETTINGS
350
2D
  3
ACAD_PLOTSTYLENAME
350
E
  3
ACAD_SCALELIST
350
36F
  3
ACAD_TABLESTYLE
350
30
  3
ACAD_VISUALSTYLE
350
14
  3
ACDB_RECOMPOSE_DATA
350
F5C
  3
AcDbVariableDictionary
350
34F
  3
AEC_PROPERTY_SET_DEFS
350
AC5
  3
DWGPROPS
350
F5D
  0
DICTIONARY
  5
42A
330
2
100
AcDbDictionary
280
     1
281
     1
  3
ACAD_LAYERSTATES
360
42B
  0
DICTIONARY
  5
5FF
330
25
100
AcDbDictionary
280
     1
281
     1
  3
ADSK_XREC_LAYER_RECONCILED
360
600
  0
DICTIONARY
  5
5BC
330
36
100
AcDbDictionary
280
     1
281
     1
  3
ACAD_SORTENTS
360
5BD
  0
DICTIONARY
  5
F5E
102
{ACAD_REACTORS
330
C
102
}
330
C
100
AcDbDictionary
281
     1
  3
DIMARCSYM
350
F60
  3
DIMFXL
350
F5F
  3
DIMJOGANG
350
F61
  0
DICTIONARY
  5
2F
102
{ACAD_REACTORS
330
C
102
}
330
C
100
AcDbDictionary
281
     1
  0
DICTIONARY
  5
D
102
{ACAD_REACTORS
330
C
102
}
330
C
100
AcDbDictionary
281
     1
  0
DICTIONARY
  5
2E
102
{ACAD_REACTORS
330
C
102
}
330
C
100
AcDbDictionary
281
     1
  3
Model
350
39
  3
レイアウト1
350
35
  0
DICTIONARY
  5
10
102
{ACAD_REACTORS
330
C
102
}
330
C
100
AcDbDictionary
281
     1
  3
ByBlock
350
12
  3
ByLayer
350
11
  3
Global
350
13
  0
DICTIONARY
  5
381
102
{ACAD_REACTORS
330
C
102
}
330
C
100
AcDbDictionary
281
     1
  3
Standard
350
382
  0
DICTIONARY
  5
2B
102
{ACAD_REACTORS
330
C
102
}
330
C
100
AcDbDictionary
281
     1
  3
Standard
350
2C
  0
DICTIONARY
  5
2D
102
{ACAD_REACTORS
330
C
102
}
330
C
100
AcDbDictionary
281
     1
  0
ACDBDICTIONARYWDFLT
  5
E
102
{ACAD_REACTORS
330
C
102
}
330
C
100
AcDbDictionary
281
     1
  3
Normal
350
F
100
AcDbDictionaryWithDefault
340
F
  0
DICTIONARY
  5
36F
102
{ACAD_REACTORS
330
C
102
}
330
C
100
AcDbDictionary
281
     1
  3
A0
350
370
  3
A1
350
371
  3
A2
350
372
  3
A3
350
373
  3
A4
350
374
  3
A5
350
375
  3
A6
350
376
  3
A7
350
377
  3
A8
350
378
  3
A9
350
379
  3
B0
350
37A
  3
B1
350
37B
  3
B2
350
37C
  3
B3
350
37D
  3
B4
350
37E
  3
B5
350
37F
  3
B6
350
380
  0
DICTIONARY
  5
30
102
{ACAD_REACTORS
330
C
102
}
330
C
100
AcDbDictionary
281
     1
  3
Standard
350
31
  0
DICTIONARY
  5
14
102
{ACAD_REACTORS
330
C
102
}
330
C
100
AcDbDictionary
281
     1
  3
2dWireframe
350
1A
  3
3D Hidden
350
1C
  3
3dWireframe
350
1B
  3
Basic
350
19
  3
Brighten
350
20
  3
ColorChange
350
24
  3
Conceptual
350
1D
  3
Dim
350
1F
  3
EdgeColorOff
350
36E
  3
Facepattern
350
23
  3
Flat
350
15
  3
FlatWithEdges
350
16
  3
Gouraud
350
17
  3
GouraudWithEdges
350
18
  3
Hidden
350
366
  3
JitterOff
350
36C
  3
Linepattern
350
22
  3
OverhangOff
350
36D
  3
Realistic
350
1E
  3
Shaded
350
36B
  3
Shaded with edges
350
36A
  3
Shades of Gray
350
367
  3
Sketchy
350
368
  3
Thicken
350
21
  3
Wireframe
350
365
  3
X-Ray
350
369
  0
XRECORD
  5
F5C
102
{ACAD_REACTORS
330
C
102
}
330
C
100
AcDbXrecord
280
     1
 90
        1
330
31
  0
DICTIONARY
  5
34F
102
{ACAD_REACTORS
330
C
102
}
330
C
100
AcDbDictionary
281
     1
  3
CANNOSCALE
350
602
  3
CMLEADERSTYLE
350
601
  3
CTABLESTYLE
350
350
  3
DIMASSOC
350
353
  3
INDEXCTL
350
352
  3
SORTENTS
350
351
  3
XCLIPFRAME
350
E49
  0
DICTIONARY
  5
AC5
102
{ACAD_REACTORS
330
C
102
}
330
C
100
AcDbDictionary
281
     1
  0
XRECORD
  5
F5D
102
{ACAD_REACTORS
330
C
102
}
330
C
100
AcDbXrecord
280
     1
  1
DWGPROPS COOKIE
  2

  3

  4

  6

  7

  8
kaiha
  9

300
=
301
=
302
=
303
=
304
=
305
=
306
=
307
=
308
=
309
=
 40
0.2202472916666667
 41
2455825.667619352
 42
2458541.845476701
  1

 90
        0
  0
DICTIONARY
  5
42B
102
{ACAD_REACTORS
330
42A
102
}
330
42A
100
AcDbDictionary
281
     1
  0
XRECORD
  5
600
102
{ACAD_REACTORS
330
5FF
102
}
330
5FF
100
AcDbXrecord
280
     1
290
     1
  0
SORTENTSTABLE
  5
5BD
102
{ACAD_REACTORS
330
5BC
102
}
330
5BC
100
AcDbSortentsTable
330
36
331
326
  5
46B
331
2EF
  5
318
331
471
  5
DA7
331
322
  5
467
331
2EB
  5
314
331
9E
  5
C6
331
9A
  5
C3
331
F59
  5
F3B
331
23C
  5
264
331
1C6
  5
231
331
238
  5
260
331
1C2
  5
1F6
331
234
  5
25C
331
230
  5
259
331
1BA
  5
1F2
331
14C
  5
174
331
D6
  5
139
331
148
  5
170
331
D2
  5
135
331
144
  5
16C
331
CE
  5
131
331
7A8
  5
DD5
331
140
  5
168
331
DEF
  5
EF0
331
DEB
  5
EE6
331
DB4
  5
DEF
331
DE7
  5
EE2
331
DB0
  5
DEB
331
DE3
  5
EDE
331
DAC
  5
DE7
331
F1F
  5
F41
331
DA8
  5
DE3
331
F1B
  5
F45
331
F17
  5
F49
331
F13
  5
F4D
331
B19
  5
DD7
331
CBF
  5
DDB
331
46D
  5
DA3
331
31E
  5
463
331
2E7
  5
310
331
469
  5
7A9
331
31A
  5
460
331
2E3
  5
30C
331
465
  5
7A5
331
316
  5
34D
331
2DF
  5
308
331
461
  5
797
331
312
  5
33F
331
2DB
  5
304
331
F55
  5
A9
331
F51
  5
B3
331
F4D
  5
B5
331
F49
  5
BC
331
26B
  5
2D9
331
1F5
  5
255
331
1B6
  5
1EE
331
267
  5
2D5
331
1F1
  5
251
331
1B2
  5
1EA
331
263
  5
2D1
331
1ED
  5
24D
331
1AE
  5
1E8
331
1E9
  5
249
331
1AA
  5
1E6
331
17F
  5
1CC
331
7A4
  5
DD1
331
17B
  5
1C8
331
13C
  5
164
331
C6
  5
12B
331
177
  5
1C4
331
138
  5
160
331
C2
  5
127
331
173
  5
1BC
331
134
  5
15C
331
BE
  5
E8
331
130
  5
158
331
BA
  5
E4
331
DA4
  5
DDF
331
DDF
  5
EDA
331
DDB
  5
ED6
331
F0F
  5
F51
331
F0B
  5
F55
331
F07
  5
F59
331
F46
  5
BF
331
F42
  5
DBA
331
F03
  5
9B
331
2D7
  5
300
331
2D3
  5
2FB
331
34D
  5
6D1
331
30E
  5
33A
331
2CF
  5
2F7
331
6D0
  5
DC5
331
30A
  5
336
331
2CB
  5
2F4
331
796
  5
DC9
331
5D4
  5
DB5
331
B5
  5
DF
331
5D0
  5
DB1
331
B1
  5
DB
331
25F
  5
2CC
331
25B
  5
2C8
331
1E5
  5
245
331
257
  5
2C3
331
1E1
  5
241
331
292
  5
2E0
331
253
  5
2B3
331
1DD
  5
23D
331
16F
  5
1B8
331
16B
  5
1B4
331
1A6
  5
1E2
331
167
  5
1AC
331
1A2
  5
1DE
331
163
  5
1A8
331
12C
  5
154
331
128
  5
150
331
DD7
  5
ED2
331
DD3
  5
ECE
331
E06
  5
F19
331
DCF
  5
E0C
331
E02
  5
F15
331
DCB
  5
E06
331
F3E
  5
DBE
331
F3A
  5
DCD
331
EFB
  5
AE
331
F36
  5
F23
331
EF7
  5
BA
331
F32
  5
F25
331
33D
  5
5E1
331
306
  5
332
331
2C7
  5
2F0
331
339
  5
5D2
331
302
  5
32E
331
2C3
  5
2ED
331
335
  5
5CE
331
331
  5
5BB
331
2FA
  5
325
331
2BB
  5
2EB
331
AD
  5
D7
331
A9
  5
D3
331
A5
  5
CF
331
A1
  5
C9
331
24F
  5
2A3
331
28A
  5
2DE
331
24B
  5
293
331
247
  5
283
331
1D1
  5
23B
331
282
  5
2DC
331
243
  5
26B
331
1CD
  5
239
331
1C9
  5
235
331
15F
  5
1A4
331
15B
  5
1A0
331
124
  5
14C
331
E5
  5
148
331
157
  5
17F
331
E1
  5
144
331
153
  5
17B
331
DD
  5
140
331
D9
  5
13C
331
E3D
  5
F39
331
DFE
  5
F11
331
DC7
  5
E02
331
DFA
  5
F0D
331
DC3
  5
DFE
331
DF6
  5
F09
331
DBF
  5
DFA
331
DF2
  5
EF5
331
DBB
  5
DF6
331
F2E
  5
F2C
331
F2A
  5
F2E
331
F26
  5
F34
331
EE7
  5
F1D
331
F22
  5
F40
331
5CC
  5
DAE
331
32D
  5
470
331
2F6
  5
321
331
2F2
  5
31D
331
2B3
  5
2E9
331
325
  5
46A
331
2EE
  5
317
331
470
  5
DA6
331
321
  5
466
331
2EA
  5
313
331
2AB
  5
2E7
331
9D
  5
C5
331
99
  5
C2
331
23F
  5
267
331
F58
  5
A3
331
23B
  5
263
331
1C5
  5
230
331
237
  5
25F
331
233
  5
25B
331
1BD
  5
1F5
331
1B9
  5
1F1
331
14F
  5
177
331
14B
  5
173
331
D5
  5
138
331
147
  5
16F
331
D1
  5
134
331
143
  5
16B
331
CD
  5
130
331
C9
  5
12E
331
DEE
  5
EEC
331
DB7
  5
DF2
331
DEA
  5
EE5
331
DB3
  5
DEE
331
DE6
  5
EE1
331
DAF
  5
DEA
331
DE2
  5
EDD
331
DAB
  5
DE6
331
F1E
  5
F44
331
F1A
  5
F48
331
F16
  5
F4C
331
F12
  5
F50
331
CBE
  5
DDA
331
46C
  5
CC1
331
31D
  5
462
331
2E6
  5
30F
331
468
  5
7A8
331
319
  5
453
331
2E2
  5
30B
331
2A3
  5
2E5
331
464
  5
7A4
331
315
  5
344
331
2DE
  5
307
331
460
  5
796
331
311
  5
33E
331
2DA
  5
303
331
29B
  5
2E3
331
F54
  5
A8
331
F50
  5
B2
331
F4C
  5
B4
331
22F
  5
258
331
F48
  5
BB
331
26A
  5
2D8
331
1F4
  5
254
331
1B5
  5
1ED
331
266
  5
2D4
331
1F0
  5
250
331
262
  5
2D0
331
1EC
  5
24C
331
1E8
  5
248
331
1A9
  5
1E5
331
7A7
  5
DD4
331
17E
  5
1CB
331
13F
  5
167
331
7A3
  5
DD0
331
17A
  5
1C7
331
13B
  5
163
331
C5
  5
12A
331
176
  5
1C3
331
137
  5
15F
331
C1
  5
126
331
172
  5
1BB
331
133
  5
15B
331
BD
  5
E7
331
B9
  5
E3
331
DA7
  5
DE2
331
DA3
  5
DDE
331
DDE
  5
ED9
331
DDA
  5
ED5
331
F0E
  5
F54
331
F0A
  5
F58
331
F45
  5
BE
331
F41
  5
DB9
331
F02
  5
9A
331
2D6
  5
2FE
331
2D2
  5
2FA
331
6D3
  5
DC8
331
34C
  5
6D0
331
30D
  5
339
331
2CE
  5
2F6
331
309
  5
335
331
2CA
  5
2F3
331
5D3
  5
DB4
331
B4
  5
DE
331
B0
  5
DA
331
25E
  5
2CB
331
25A
  5
2C7
331
1E4
  5
244
331
256
  5
2BC
331
1E0
  5
240
331
252
  5
2AC
331
16E
  5
1B7
331
16A
  5
1B3
331
1A5
  5
1E1
331
166
  5
1AB
331
12F
  5
157
331
1A1
  5
1D8
331
162
  5
1A7
331
12B
  5
153
331
DD6
  5
ED1
331
DD2
  5
E46
331
E05
  5
F18
331
DCE
  5
E0B
331
E01
  5
F14
331
DCA
  5
E05
331
F3D
  5
DBD
331
F39
  5
DCC
331
F35
  5
F22
331
EF6
  5
B9
331
F31
  5
F24
331
6CF
  5
DC4
331
33C
  5
5D4
331
305
  5
331
331
2C6
  5
2EF
331
338
  5
5D1
331
301
  5
32C
331
2C2
  5
2EC
331
5E3
  5
DB8
331
334
  5
5CC
331
2FD
  5
328
331
330
  5
473
331
2F9
  5
324
331
2BA
  5
2EA
331
AC
  5
D6
331
A8
  5
D2
331
A4
  5
CE
331
A0
  5
C8
331
24E
  5
29C
331
24A
  5
28C
331
246
  5
274
331
242
  5
26A
331
1CC
  5
238
331
1C8
  5
234
331
15E
  5
1A3
331
127
  5
14F
331
15A
  5
182
331
123
  5
14B
331
E4
  5
147
331
156
  5
17E
331
E0
  5
143
331
152
  5
17A
331
DC
  5
13F
331
D8
  5
13B
331
E3C
  5
F38
331
DFD
  5
F10
331
DC6
  5
E01
331
DF9
  5
F0C
331
DC2
  5
DFD
331
DF5
  5
F08
331
DBE
  5
DF9
331
DF1
  5
EF4
331
DBA
  5
DF5
331
F2D
  5
F2B
331
F29
  5
F31
331
EEA
  5
F20
331
F25
  5
F37
331
EE6
  5
F1C
331
F21
  5
F3F
331
EE2
  5
F2A
331
5CF
  5
DB0
331
5CB
  5
DAD
331
2F5
  5
320
331
328
  5
46D
331
2F1
  5
31B
331
2B2
  5
2E8
331
473
  5
DA9
331
324
  5
469
331
2ED
  5
316
331
320
  5
465
331
2E9
  5
312
331
2AA
  5
2E6
331
23E
  5
266
331
23A
  5
262
331
1C4
  5
1F8
331
236
  5
25E
331
1BC
  5
1F4
331
1B8
  5
1F0
331
14E
  5
176
331
14A
  5
172
331
D4
  5
137
331
146
  5
16E
331
D0
  5
133
331
181
  5
1CE
331
142
  5
16A
331
CC
  5
12F
331
C8
  5
12D
331
DED
  5
EEB
331
DB6
  5
DF1
331
DE9
  5
EE4
331
DB2
  5
DED
331
DE5
  5
EE0
331
DAE
  5
DE9
331
DE1
  5
EDC
331
DAA
  5
DE5
331
F1D
  5
F43
331
F19
  5
F47
331
F15
  5
F4B
331
F11
  5
F4F
331
CC1
  5
DDD
331
CBD
  5
DD9
331
46F
  5
DA5
331
46B
  5
CBC
331
31C
  5
461
331
2E5
  5
30E
331
467
  5
7A7
331
2E1
  5
30A
331
2A2
  5
2E4
331
463
  5
7A3
331
314
  5
341
331
2DD
  5
306
331
310
  5
33D
331
2D9
  5
302
331
29A
  5
2E2
331
F57
  5
A2
331
F53
  5
A7
331
F4F
  5
B1
331
F4B
  5
B7
331
26D
  5
2DB
331
1F7
  5
257
331
269
  5
2D7
331
1F3
  5
253
331
1B4
  5
1EC
331
265
  5
2D3
331
1EF
  5
24F
331
1B0
  5
1E9
331
261
  5
2CF
331
1EB
  5
24B
331
1A8
  5
1E4
331
7A6
  5
DD3
331
17D
  5
1CA
331
13E
  5
166
331
7A2
  5
DCF
331
179
  5
1C6
331
13A
  5
162
331
C4
  5
129
331
175
  5
1BF
331
136
  5
15E
331
C0
  5
125
331
171
  5
1BA
331
132
  5
15A
331
BC
  5
E6
331
B8
  5
E2
331
DA6
  5
DE1
331
DDD
  5
ED8
331
DD9
  5
ED4
331
F0D
  5
F53
331
F09
  5
F57
331
F44
  5
C1
331
F40
  5
DBC
331
F01
  5
99
331
45F
  5
6D3
331
2D5
  5
2FD
331
2D1
  5
2F9
331
6D2
  5
DC7
331
30C
  5
338
331
308
  5
334
331
2C9
  5
2F2
331
B7
  5
E1
331
5D2
  5
DB3
331
B3
  5
DD
331
25D
  5
2CA
331
1E7
  5
247
331
259
  5
2C5
331
1E3
  5
243
331
255
  5
2BB
331
1DF
  5
23F
331
251
  5
2AB
331
16D
  5
1B6
331
169
  5
1B1
331
1A4
  5
1E0
331
165
  5
1AA
331
12E
  5
156
331
1A0
  5
1D2
331
161
  5
1A6
331
12A
  5
152
331
E0C
  5
F33
331
DD5
  5
ED0
331
E08
  5
F1B
331
DD1
  5
E3D
331
E04
  5
F17
331
DCD
  5
E08
331
E00
  5
F13
331
DC9
  5
E04
331
F3C
  5
DC1
331
EFD
  5
B0
331
F38
  5
DCB
331
F34
  5
F21
331
EF5
  5
B8
331
F30
  5
F27
331
6CE
  5
DC3
331
33F
  5
5E3
331
33B
  5
5D3
331
304
  5
330
331
337
  5
5D0
331
300
  5
32B
331
5E2
  5
DB7
331
333
  5
5CB
331
2FC
  5
327
331
2F8
  5
323
331
AF
  5
D9
331
341
  5
6CF
331
AB
  5
D5
331
A7
  5
D1
331
A3
  5
CD
331
24D
  5
29B
331
1D7
  5
23C
331
249
  5
28B
331
245
  5
26D
331
241
  5
269
331
1CB
  5
237
331
15D
  5
1A2
331
126
  5
14E
331
E7
  5
14A
331
159
  5
181
331
E3
  5
146
331
155
  5
17D
331
DF
  5
142
331
151
  5
179
331
DB
  5
13E
331
DFC
  5
F0F
331
DC5
  5
E00
331
DF8
  5
F0B
331
DC1
  5
DFC
331
DF4
  5
F07
331
DBD
  5
DF8
331
DF0
  5
EF1
331
DB9
  5
DF4
331
F2C
  5
F30
331
F28
  5
F36
331
EE9
  5
F1F
331
F20
  5
F3E
331
EE1
  5
F29
331
5CE
  5
DAF
331
32F
  5
472
331
5CA
  5
DAA
331
32B
  5
46F
331
2F4
  5
31F
331
327
  5
46C
331
2F0
  5
31A
331
472
  5
DA8
331
323
  5
468
331
2EC
  5
315
331
2E8
  5
311
331
9F
  5
C7
331
9B
  5
C4
331
F5A
  5
F3C
331
23D
  5
265
331
1C7
  5
232
331
239
  5
261
331
1C3
  5
1F7
331
235
  5
25D
331
231
  5
25A
331
1BB
  5
1F3
331
14D
  5
175
331
D7
  5
13A
331
149
  5
171
331
D3
  5
136
331
145
  5
16D
331
CF
  5
132
331
7A9
  5
DD6
331
180
  5
1CD
331
141
  5
169
331
DEC
  5
EEA
331
DB5
  5
DF0
331
DE8
  5
EE3
331
DB1
  5
DEC
331
DE4
  5
EDF
331
DAD
  5
DE8
331
DE0
  5
EDB
331
DA9
  5
DE4
331
F1C
  5
F42
331
F18
  5
F46
331
F14
  5
F4A
331
F10
  5
F4E
331
CC0
  5
DDC
331
CBC
  5
DD8
331
46E
  5
DA4
331
31F
  5
464
331
46A
  5
B19
331
2E4
  5
30D
331
466
  5
7A6
331
317
  5
34E
331
2E0
  5
309
331
462
  5
7A2
331
313
  5
340
331
2DC
  5
305
331
2D8
  5
301
331
F56
  5
A1
331
F52
  5
AD
331
F4E
  5
B6
331
F4A
  5
BD
331
26C
  5
2DA
331
1F6
  5
256
331
1B7
  5
1EF
331
268
  5
2D6
331
1F2
  5
252
331
1B3
  5
1EB
331
264
  5
2D2
331
1EE
  5
24E
331
260
  5
2CD
331
1EA
  5
24A
331
1AB
  5
1E7
331
7A5
  5
DD2
331
17C
  5
1C9
331
13D
  5
165
331
C7
  5
12C
331
178
  5
1C5
331
139
  5
161
331
C3
  5
128
331
174
  5
1BD
331
135
  5
15D
331
BF
  5
124
331
170
  5
1B9
331
131
  5
159
331
BB
  5
E5
331
DA5
  5
DE0
331
DDC
  5
ED7
331
DD8
  5
ED3
331
F0C
  5
F52
331
F08
  5
F56
331
F47
  5
C0
331
F43
  5
DBB
331
2D4
  5
2FC
331
34E
  5
6D2
331
30F
  5
33C
331
2D0
  5
2F8
331
6D1
  5
DC6
331
30B
  5
337
331
2CC
  5
2F5
331
797
  5
DCA
331
2C8
  5
2F1
331
B6
  5
E0
331
5D1
  5
DB2
331
B2
  5
DC
331
25C
  5
2C9
331
1E6
  5
246
331
258
  5
2C4
331
1E2
  5
242
331
293
  5
2E1
331
254
  5
2B4
331
1DE
  5
23E
331
250
  5
2A4
331
16C
  5
1B5
331
1A7
  5
1E3
331
168
  5
1AF
331
1A3
  5
1DF
331
164
  5
1A9
331
12D
  5
155
331
160
  5
1A5
331
129
  5
151
331
E0B
  5
F32
331
DD4
  5
ECF
331
E46
  5
F5A
331
E07
  5
F1A
331
DD0
  5
E3C
331
E03
  5
F16
331
DCC
  5
E07
331
DC8
  5
E03
331
F3F
  5
DBF
331
F3B
  5
DC0
331
EFC
  5
AF
331
F37
  5
DCE
331
F33
  5
F26
331
EF0
  5
DC2
331
33E
  5
5E2
331
307
  5
333
331
303
  5
32F
331
2C4
  5
2EE
331
336
  5
5CF
331
2FF
  5
329
331
5E1
  5
DB6
331
332
  5
5CA
331
2FB
  5
326
331
AE
  5
D8
331
340
  5
6CE
331
AA
  5
D4
331
A6
  5
D0
331
A2
  5
CA
331
28B
  5
2DF
331
24C
  5
294
331
248
  5
284
331
283
  5
2DD
331
244
  5
26C
331
1CE
  5
23A
331
240
  5
268
331
1CA
  5
236
331
19F
  5
1CF
331
15C
  5
1A1
331
125
  5
14D
331
E6
  5
149
331
158
  5
180
331
E2
  5
145
331
154
  5
17C
331
DE
  5
141
331
150
  5
178
331
DA
  5
13D
331
DFF
  5
F12
331
DFB
  5
F0E
331
DC4
  5
DFF
331
DF7
  5
F0A
331
DC0
  5
DFB
331
DF3
  5
F06
331
DBC
  5
DF7
331
F2F
  5
F2D
331
DB8
  5
DF3
331
F2B
  5
F2F
331
F27
  5
F35
331
EE8
  5
F1E
331
F23
  5
F3D
331
EE0
  5
F28
331
32E
  5
471
331
2F7
  5
322
331
32A
  5
46E
331
2F3
  5
31E
  0
XRECORD
  5
F60
102
{ACAD_REACTORS
330
F5E
102
}
330
F5E
100
AcDbXrecord
280
     1
 70
     2
  0
XRECORD
  5
F5F
102
{ACAD_REACTORS
330
F5E
102
}
330
F5E
100
AcDbXrecord
280
     1
 40
1.25
  0
XRECORD
  5
F61
102
{ACAD_REACTORS
330
F5E
102
}
330
F5E
100
AcDbXrecord
280
     1
 40
1.570796326794896
  0
LAYOUT
  5
39
102
{ACAD_XDICTIONARY
360
F85
102
}
102
{ACAD_REACTORS
330
2E
102
}
330
2E
100
AcDbPlotSettings
  1

  2
PDF Complete
  4

  6

 40
0.0
 41
0.0
 42
0.0
 43
0.0
 44
0.0
 45
0.0
 46
0.0
 47
0.0
 48
0.0
 49
0.0
140
0.0
141
0.0
142
1.0
143
1.0
 70
  1712
 72
     0
 73
     0
 74
     0
  7

 75
     0
147
1.0
148
0.0
149
0.0
100
AcDbLayout
  1
Model
 70
     1
 71
     0
 10
0.0
 20
0.0
 11
12.0
 21
9.0
 12
0.0
 22
0.0
 32
0.0
 14
0.0
 24
0.0
 34
0.0
 15
0.0
 25
0.0
 35
0.0
146
0.0
 13
0.0
 23
0.0
 33
0.0
 16
1.0
 26
0.0
 36
0.0
 17
0.0
 27
1.0
 37
0.0
 76
     0
330
36
331
57
  0
LAYOUT
  5
35
102
{ACAD_XDICTIONARY
360
F83
102
}
102
{ACAD_REACTORS
330
2E
102
}
330
2E
100
AcDbPlotSettings
  1

  2
PDF Complete
  4

  6

 40
0.0
 41
0.0
 42
0.0
 43
0.0
 44
0.0
 45
0.0
 46
0.0
 47
0.0
 48
0.0
 49
0.0
140
0.0
141
0.0
142
1.0
143
1.0
 70
   688
 72
     0
 73
     0
 74
     5
  7

 75
    16
147
1.0
148
0.0
149
0.0
100
AcDbLayout
  1
レイアウト1
 70
     1
 71
     1
 10
0.0
 20
0.0
 11
12.0
 21
9.0
 12
0.0
 22
0.0
 32
0.0
 14
1.000000000000000E+20
 24
1.000000000000000E+20
 34
1.000000000000000E+20
 15
-1.000000000000000E+20
 25
-1.000000000000000E+20
 35
-1.000000000000000E+20
146
0.0
 13
0.0
 23
0.0
 33
0.0
 16
1.0
 26
0.0
 36
0.0
 17
0.0
 27
1.0
 37
0.0
 76
     0
330
32
  0
MATERIAL
  5
12
102
{ACAD_XDICTIONARY
360
357
102
}
102
{ACAD_REACTORS
330
10
102
}
330
10
100
AcDbMaterial
  1
ByBlock
  0
MATERIAL
  5
11
102
{ACAD_XDICTIONARY
360
355
102
}
102
{ACAD_REACTORS
330
10
102
}
330
10
100
AcDbMaterial
  1
ByLayer
  0
MATERIAL
  5
13
102
{ACAD_XDICTIONARY
360
359
102
}
102
{ACAD_REACTORS
330
10
102
}
330
10
100
AcDbMaterial
  1
Global
  0
MLEADERSTYLE
  5
382
102
{ACAD_REACTORS
330
381
102
}
330
381
100
AcDbMLeaderStyle
170
     2
171
     1
172
     0
 90
        2
 40
0.0
 41
0.0
173
     1
 91
-1056964608
340
28
 92
       -2
290
     1
 42
0.09
291
     1
 43
0.36
  3
Standard
 44
0.18
300

342
26
174
     1
178
     6
175
     1
176
     0
 93
-1056964608
 45
0.18
292
     0
297
     0
 46
0.18
 94
-1056964608
 47
1.0
 49
1.0
140
1.0
293
     1
141
0.0
294
     1
177
     0
142
1.0
295
     0
296
     0
143
0.125
1001
ACAD_MLEADERVER
1070
     2
  0
MLINESTYLE
  5
2C
102
{ACAD_REACTORS
330
2B
102
}
330
2B
100
AcDbMlineStyle
  2
STANDARD
 70
     0
  3

 62
   256
 51
90.0
 52
90.0
 71
     2
 49
0.5
 62
   256
  6
BYLAYER
 49
-0.5
 62
   256
  6
BYLAYER
  0
ACDBPLACEHOLDER
  5
F
102
{ACAD_REACTORS
330
E
102
}
330
E
  0
SCALE
  5
370
102
{ACAD_REACTORS
330
36F
102
}
330
36F
100
AcDbScale
 70
     0
300
1:1
140
1.0
141
1.0
290
     1
  0
SCALE
  5
371
102
{ACAD_REACTORS
330
36F
102
}
330
36F
100
AcDbScale
 70
     0
300
1/128" = 1'-0"
140
0.0078125
141
12.0
290
     0
  0
SCALE
  5
372
102
{ACAD_REACTORS
330
36F
102
}
330
36F
100
AcDbScale
 70
     0
300
1/64" = 1'-0"
140
0.015625
141
12.0
290
     0
  0
SCALE
  5
373
102
{ACAD_REACTORS
330
36F
102
}
330
36F
100
AcDbScale
 70
     0
300
1/32" = 1'-0"
140
0.03125
141
12.0
290
     0
  0
SCALE
  5
374
102
{ACAD_REACTORS
330
36F
102
}
330
36F
100
AcDbScale
 70
     0
300
1/16" = 1'-0"
140
0.0625
141
12.0
290
     0
  0
SCALE
  5
375
102
{ACAD_REACTORS
330
36F
102
}
330
36F
100
AcDbScale
 70
     0
300
3/32" = 1'-0"
140
0.09375
141
12.0
290
     0
  0
SCALE
  5
376
102
{ACAD_REACTORS
330
36F
102
}
330
36F
100
AcDbScale
 70
     0
300
1/8" = 1'-0"
140
0.125
141
12.0
290
     0
  0
SCALE
  5
377
102
{ACAD_REACTORS
330
36F
102
}
330
36F
100
AcDbScale
 70
     0
300
3/16" = 1'-0"
140
0.1875
141
12.0
290
     0
  0
SCALE
  5
378
102
{ACAD_REACTORS
330
36F
102
}
330
36F
100
AcDbScale
 70
     0
300
1/4" = 1'-0"
140
0.25
141
12.0
290
     0
  0
SCALE
  5
379
102
{ACAD_REACTORS
330
36F
102
}
330
36F
100
AcDbScale
 70
     0
300
3/8" = 1'-0"
140
0.375
141
12.0
290
     0
  0
SCALE
  5
37A
102
{ACAD_REACTORS
330
36F
102
}
330
36F
100
AcDbScale
 70
     0
300
1/2" = 1'-0"
140
0.5
141
12.0
290
     0
  0
SCALE
  5
37B
102
{ACAD_REACTORS
330
36F
102
}
330
36F
100
AcDbScale
 70
     0
300
3/4" = 1'-0"
140
0.75
141
12.0
290
     0
  0
SCALE
  5
37C
102
{ACAD_REACTORS
330
36F
102
}
330
36F
100
AcDbScale
 70
     0
300
1" = 1'-0"
140
1.0
141
12.0
290
     0
  0
SCALE
  5
37D
102
{ACAD_REACTORS
330
36F
102
}
330
36F
100
AcDbScale
 70
     0
300
1-1/2" = 1'-0"
140
1.5
141
12.0
290
     0
  0
SCALE
  5
37E
102
{ACAD_REACTORS
330
36F
102
}
330
36F
100
AcDbScale
 70
     0
300
3" = 1'-0"
140
3.0
141
12.0
290
     0
  0
SCALE
  5
37F
102
{ACAD_REACTORS
330
36F
102
}
330
36F
100
AcDbScale
 70
     0
300
6" = 1'-0"
140
6.0
141
12.0
290
     0
  0
SCALE
  5
380
102
{ACAD_REACTORS
330
36F
102
}
330
36F
100
AcDbScale
 70
     0
300
1'-0" = 1'-0"
140
12.0
141
12.0
290
     0
  0
TABLESTYLE
  5
31
102
{ACAD_XDICTIONARY
360
604
102
}
102
{ACAD_REACTORS
330
30
102
}
330
30
100
AcDbTableStyle
  3
Standard
 70
     0
 71
     0
 40
0.06
 41
0.06
280
     0
281
     0
  7
STANDARD
140
0.18
170
     2
 62
     0
 63
     7
283
     0
274
    -2
284
     1
 64
     0
275
    -2
285
     1
 65
     0
276
    -2
286
     1
 66
     0
277
    -2
287
     1
 67
     0
278
    -2
288
     1
 68
     0
279
    -2
289
     1
 69
     0
  7
STANDARD
140
0.25
170
     5
 62
     0
 63
     7
283
     0
274
    -2
284
     1
 64
     0
275
    -2
285
     1
 65
     0
276
    -2
286
     1
 66
     0
277
    -2
287
     1
 67
     0
278
    -2
288
     1
 68
     0
279
    -2
289
     1
 69
     0
  7
STANDARD
140
0.18
170
     5
 62
     0
 63
     7
283
     0
274
    -2
284
     1
 64
     0
275
    -2
285
     1
 65
     0
276
    -2
286
     1
 66
     0
277
    -2
287
     1
 67
     0
278
    -2
288
     1
 68
     0
279
    -2
289
     1
 69
     0
  0
VISUALSTYLE
  5
1A
102
{ACAD_XDICTIONARY
360
F6C
102
}
102
{ACAD_REACTORS
330
14
102
}
330
14
100
AcDbVisualStyle
  2

 70
     4
 71
     0
 72
     2
 73
     0
 90
        0
 40
-0.6
 41
-30.0
 62
     5
 63
     7
 74
     1
 91
        4
 64
     7
 65
   257
 75
     1
175
     1
 42
1.0
 92
        0
 66
   257
 43
1.0
 76
     1
 77
     6
 78
     2
 67
     7
 79
     5
170
     0
171
     0
290
     0
174
     0
 93
        1
 44
0.0
173
     0
291
     0
 45
0.0
1001
ACAD
1000
AcDbSavedByObjectVersion
1070
     0
  0
VISUALSTYLE
  5
1C
102
{ACAD_XDICTIONARY
360
F70
102
}
102
{ACAD_REACTORS
330
14
102
}
330
14
100
AcDbVisualStyle
  2

 70
     6
 71
     1
 72
     2
 73
     2
 90
        0
 40
-0.6
 41
-30.0
 62
     5
 63
     7
 74
     2
 91
        2
 64
     7
 65
   257
 75
     2
175
     1
 42
40.0
 92
        0
 66
   257
 43
1.0
 76
     1
 77
     6
 78
     2
 67
     7
 79
     3
170
     0
171
     0
290
     0
174
     0
 93
        1
 44
0.0
173
     0
291
     0
 45
0.0
1001
ACAD
1000
AcDbSavedByObjectVersion
1070
     0
  0
VISUALSTYLE
  5
1B
102
{ACAD_XDICTIONARY
360
F6E
102
}
102
{ACAD_REACTORS
330
14
102
}
330
14
100
AcDbVisualStyle
  2

 70
     5
 71
     0
 72
     2
 73
     0
 90
        0
 40
-0.6
 41
-30.0
 62
     5
 63
     7
 74
     1
 91
        4
 64
     7
 65
   257
 75
     1
175
     1
 42
1.0
 92
        0
 66
   257
 43
1.0
 76
     1
 77
     6
 78
     2
 67
     7
 79
     5
170
     0
171
     0
290
     0
174
     0
 93
        1
 44
0.0
173
     0
291
     0
 45
0.0
1001
ACAD
1000
AcDbSavedByObjectVersion
1070
     0
  0
VISUALSTYLE
  5
19
102
{ACAD_XDICTIONARY
360
F6A
102
}
102
{ACAD_REACTORS
330
14
102
}
330
14
100
AcDbVisualStyle
  2

 70
     7
 71
     1
 72
     0
 73
     1
 90
        0
 40
-0.6
 41
-30.0
 62
     5
 63
     7
 74
     0
 91
        4
 64
     7
 65
   257
 75
     1
175
     1
 42
1.0
 92
        8
 66
     7
 43
1.0
 76
     1
 77
     6
 78
     2
 67
     7
 79
     5
170
     0
171
     0
290
     0
174
     0
 93
        1
 44
0.0
173
     0
291
     1
 45
0.0
1001
ACAD
1000
AcDbSavedByObjectVersion
1070
     0
  0
VISUALSTYLE
  5
20
102
{ACAD_XDICTIONARY
360
F78
102
}
102
{ACAD_REACTORS
330
14
102
}
330
14
100
AcDbVisualStyle
  2

 70
    12
 71
     2
 72
     2
 73
     0
 90
        0
 40
-0.6
 41
-30.0
 62
     5
 63
     7
 74
     1
 91
        4
 64
     7
 65
   257
 75
     1
175
     1
 42
1.0
 92
        8
 66
     7
 43
1.0
 76
     1
 77
     6
 78
     2
 67
     7
 79
     5
170
     0
171
     0
290
     0
174
     0
 93
        1
 44
50.0
173
     0
291
     1
 45
0.0
1001
ACAD
1000
AcDbSavedByObjectVersion
1070
     0
  0
VISUALSTYLE
  5
24
102
{ACAD_XDICTIONARY
360
F80
102
}
102
{ACAD_REACTORS
330
14
102
}
330
14
100
AcDbVisualStyle
  2

 70
    16
 71
     2
 72
     2
 73
     3
 90
        0
 40
-0.6
 41
-30.0
 62
     5
 63
     8
 74
     1
 91
        4
 64
     7
 65
   257
 75
     1
175
     1
 42
1.0
 92
        8
 66
     8
 43
1.0
 76
     1
 77
     6
 78
     2
 67
     7
 79
     5
170
     0
171
     0
290
     0
174
     0
 93
        1
 44
0.0
173
     0
291
     1
 45
0.0
1001
ACAD
1000
AcDbSavedByObjectVersion
1070
     0
  0
VISUALSTYLE
  5
1D
102
{ACAD_XDICTIONARY
360
F72
102
}
102
{ACAD_REACTORS
330
14
102
}
330
14
100
AcDbVisualStyle
  2

 70
     9
 71
     3
 72
     2
 73
     0
 90
        0
 40
-0.6
 41
-30.0
 62
     5
 63
     7
 74
     2
 91
        2
 64
     7
 65
   257
 75
     1
175
     1
 42
40.0
 92
        8
 66
     7
 43
1.0
 76
     1
 77
     6
 78
     2
 67
     7
 79
     3
170
     0
171
     0
290
     0
174
     0
 93
        1
 44
0.0
173
     0
291
     0
 45
0.0
1001
ACAD
1000
AcDbSavedByObjectVersion
1070
     0
  0
VISUALSTYLE
  5
1F
102
{ACAD_XDICTIONARY
360
F76
102
}
102
{ACAD_REACTORS
330
14
102
}
330
14
100
AcDbVisualStyle
  2

 70
    11
 71
     2
 72
     2
 73
     0
 90
        0
 40
-0.6
 41
-30.0
 62
     5
 63
     7
 74
     1
 91
        4
 64
     7
 65
   257
 75
     1
175
     1
 42
1.0
 92
        8
 66
     7
 43
1.0
 76
     1
 77
     6
 78
     2
 67
     7
 79
     5
170
     0
171
     0
290
     0
174
     0
 93
        1
 44
-50.0
173
     0
291
     1
 45
0.0
1001
ACAD
1000
AcDbSavedByObjectVersion
1070
     0
  0
VISUALSTYLE
  5
36E
102
{ACAD_XDICTIONARY
360
F99
102
}
102
{ACAD_REACTORS
330
14
102
}
330
14
100
AcDbVisualStyle
  2

 70
    22
 71
     2
 72
     2
 73
     0
 90
        0
 40
-0.6
 41
-30.0
 62
     5
 63
     7
 74
     1
 91
        4
 64
     7
 65
   257
 75
     1
175
     1
 42
1.0
 92
        8
 66
     7
 43
1.0
 76
     1
 77
     6
 78
     2
 67
     7
 79
     5
170
     0
171
     0
290
     0
174
     0
 93
        1
 44
0.0
173
     0
291
     1
 45
0.0
1001
ACAD
1000
AcDbSavedByObjectVersion
1070
     0
  0
VISUALSTYLE
  5
23
102
{ACAD_XDICTIONARY
360
F7E
102
}
102
{ACAD_REACTORS
330
14
102
}
330
14
100
AcDbVisualStyle
  2

 70
    15
 71
     2
 72
     2
 73
     0
 90
        0
 40
-0.6
 41
-30.0
 62
     5
 63
     7
 74
     1
 91
        4
 64
     7
 65
   257
 75
     1
175
     1
 42
1.0
 92
        8
 66
     7
 43
1.0
 76
     1
 77
     6
 78
     2
 67
     7
 79
     5
170
     0
171
     0
290
     0
174
     0
 93
        1
 44
0.0
173
     0
291
     1
 45
0.0
1001
ACAD
1000
AcDbSavedByObjectVersion
1070
     0
  0
VISUALSTYLE
  5
15
102
{ACAD_XDICTIONARY
360
F62
102
}
102
{ACAD_REACTORS
330
14
102
}
330
14
100
AcDbVisualStyle
  2

 70
     0
 71
     2
 72
     1
 73
     1
 90
        2
 40
-0.6
 41
30.0
 62
     5
 63
     7
 74
     0
 91
        4
 64
     7
 65
   257
 75
     1
175
     1
 42
1.0
 92
        8
 66
     7
 43
1.0
 76
     1
 77
     6
 78
     2
 67
     7
 79
     5
170
     0
171
     0
290
     0
174
     0
 93
       13
 44
0.0
173
     0
291
     1
 45
0.0
1001
ACAD
1000
AcDbSavedByObjectVersion
1070
     0
  0
VISUALSTYLE
  5
16
102
{ACAD_XDICTIONARY
360
F64
102
}
102
{ACAD_REACTORS
330
14
102
}
330
14
100
AcDbVisualStyle
  2

 70
     1
 71
     2
 72
     1
 73
     1
 90
        2
 40
-0.6
 41
30.0
 62
     5
 63
     7
 74
     1
 91
        4
 64
     7
 65
   257
 75
     1
175
     1
 42
1.0
 92
        0
 66
   257
 43
1.0
 76
     1
 77
     6
 78
     2
 67
     7
 79
     5
170
     0
171
     0
290
     0
174
     0
 93
       13
 44
0.0
173
     0
291
     1
 45
0.0
1001
ACAD
1000
AcDbSavedByObjectVersion
1070
     0
  0
VISUALSTYLE
  5
17
102
{ACAD_XDICTIONARY
360
F66
102
}
102
{ACAD_REACTORS
330
14
102
}
330
14
100
AcDbVisualStyle
  2

 70
     2
 71
     2
 72
     2
 73
     1
 90
        2
 40
-0.6
 41
30.0
 62
     5
 63
     7
 74
     0
 91
        4
 64
     7
 65
   257
 75
     1
175
     1
 42
1.0
 92
        0
 66
     7
 43
1.0
 76
     1
 77
     6
 78
     2
 67
     7
 79
     5
170
     0
171
     0
290
     0
174
     0
 93
       13
 44
0.0
173
     0
291
     1
 45
0.0
1001
ACAD
1000
AcDbSavedByObjectVersion
1070
     0
  0
VISUALSTYLE
  5
18
102
{ACAD_XDICTIONARY
360
F68
102
}
102
{ACAD_REACTORS
330
14
102
}
330
14
100
AcDbVisualStyle
  2

 70
     3
 71
     2
 72
     2
 73
     1
 90
        2
 40
-0.6
 41
30.0
 62
     5
 63
     7
 74
     1
 91
        4
 64
     7
 65
   257
 75
     1
175
     1
 42
1.0
 92
        0
 66
   257
 43
1.0
 76
     1
 77
     6
 78
     2
 67
     7
 79
     5
170
     0
171
     0
290
     0
174
     0
 93
       13
 44
0.0
173
     0
291
     1
 45
0.0
1001
ACAD
1000
AcDbSavedByObjectVersion
1070
     0
  0
VISUALSTYLE
  5
366
102
{ACAD_XDICTIONARY
360
F89
102
}
102
{ACAD_REACTORS
330
14
102
}
330
14
100
AcDbVisualStyle
  2

 70
     6
 71
     1
 72
     2
 73
     2
 90
        0
 40
-0.6
 41
-30.0
 62
     5
 63
     7
 74
     2
 91
        2
 64
     7
 65
   257
 75
     2
175
     1
 42
40.0
 92
        0
 66
   257
 43
1.0
 76
     1
 77
     6
 78
     2
 67
     7
 79
     3
170
     0
171
     0
290
     0
174
     0
 93
        1
 44
0.0
173
     0
291
     0
 45
0.0
1001
ACAD
1000
AcDbSavedByObjectVersion
1070
     0
  0
VISUALSTYLE
  5
36C
102
{ACAD_XDICTIONARY
360
F95
102
}
102
{ACAD_REACTORS
330
14
102
}
330
14
100
AcDbVisualStyle
  2

 70
    20
 71
     2
 72
     2
 73
     0
 90
        0
 40
-0.6
 41
-30.0
 62
     5
 63
     7
 74
     1
 91
        4
 64
     7
 65
   257
 75
     1
175
     1
 42
1.0
 92
       10
 66
     7
 43
1.0
 76
     1
 77
     6
 78
     2
 67
     7
 79
     5
170
     0
171
     0
290
     0
174
     0
 93
        1
 44
0.0
173
     0
291
     1
 45
0.0
1001
ACAD
1000
AcDbSavedByObjectVersion
1070
     0
  0
VISUALSTYLE
  5
22
102
{ACAD_XDICTIONARY
360
F7C
102
}
102
{ACAD_REACTORS
330
14
102
}
330
14
100
AcDbVisualStyle
  2

 70
    14
 71
     2
 72
     2
 73
     0
 90
        0
 40
-0.6
 41
-30.0
 62
     5
 63
     7
 74
     1
 91
        4
 64
     7
 65
   257
 75
     7
175
     7
 42
1.0
 92
        8
 66
     7
 43
1.0
 76
     1
 77
     6
 78
     2
 67
     7
 79
     5
170
     0
171
     0
290
     0
174
     0
 93
        1
 44
0.0
173
     0
291
     1
 45
0.0
1001
ACAD
1000
AcDbSavedByObjectVersion
1070
     0
  0
VISUALSTYLE
  5
36D
102
{ACAD_XDICTIONARY
360
F97
102
}
102
{ACAD_REACTORS
330
14
102
}
330
14
100
AcDbVisualStyle
  2

 70
    21
 71
     2
 72
     2
 73
     0
 90
        0
 40
-0.6
 41
-30.0
 62
     5
 63
     7
 74
     1
 91
        4
 64
     7
 65
   257
 75
     1
175
     1
 42
1.0
 92
        9
 66
     7
 43
1.0
 76
     1
 77
     6
 78
     2
 67
     7
 79
     5
170
     0
171
     0
290
     0
174
     0
 93
        1
 44
0.0
173
     0
291
     1
 45
0.0
1001
ACAD
1000
AcDbSavedByObjectVersion
1070
     0
  0
VISUALSTYLE
  5
1E
102
{ACAD_XDICTIONARY
360
F74
102
}
102
{ACAD_REACTORS
330
14
102
}
330
14
100
AcDbVisualStyle
  2

 70
     8
 71
     2
 72
     2
 73
     0
 90
        0
 40
-0.6
 41
-30.0
 62
     5
 63
     7
 74
     1
 91
        0
 64
     7
 65
   257
 75
     1
175
     1
 42
1.0
 92
        8
 66
     8
 43
1.0
 76
     1
 77
     6
 78
     2
 67
     7
 79
     5
170
     0
171
     0
290
     0
174
     0
 93
       13
 44
0.0
173
     0
291
     0
 45
0.0
1001
ACAD
1000
AcDbSavedByObjectVersion
1070
     0
  0
VISUALSTYLE
  5
36B
102
{ACAD_XDICTIONARY
360
F93
102
}
102
{ACAD_REACTORS
330
14
102
}
330
14
100
AcDbVisualStyle
  2

 70
    27
 71
     2
 72
     2
 73
     1
 90
        2
 40
-0.6
 41
30.0
 62
     5
 63
     7
 74
     0
 91
        4
 64
     7
 65
   257
 75
     1
175
     1
 42
1.0
 92
        8
 66
   257
 43
1.0
 76
     1
 77
     6
 78
     2
 67
     8
 79
     3
170
     0
171
     0
290
     0
174
     0
 93
        5
 44
0.0
173
     0
291
     0
 45
0.0
1001
ACAD
1000
AcDbSavedByObjectVersion
1070
     0
  0
VISUALSTYLE
  5
36A
102
{ACAD_XDICTIONARY
360
F91
102
}
102
{ACAD_REACTORS
330
14
102
}
330
14
100
AcDbVisualStyle
  2

 70
    26
 71
     2
 72
     2
 73
     1
 90
        2
 40
-0.6
 41
30.0
 62
     5
 63
     7
 74
     1
 91
       10
 64
     7
 65
   257
 75
     2
175
     1
 42
1.0
 92
        8
 66
   257
 43
1.0
 76
     1
 77
     6
 78
     2
 67
     7
 79
     3
170
     0
171
     0
290
     0
174
     0
 93
        5
 44
0.0
173
     0
291
     0
 45
0.0
1001
ACAD
1000
AcDbSavedByObjectVersion
1070
     0
  0
VISUALSTYLE
  5
367
102
{ACAD_XDICTIONARY
360
F8B
102
}
102
{ACAD_REACTORS
330
14
102
}
330
14
100
AcDbVisualStyle
  2

 70
    23
 71
     2
 72
     2
 73
     3
 90
        0
 40
-0.6
 41
-30.0
 62
     5
 63
     7
 74
     2
 91
        2
 64
     7
 65
     7
 75
     1
175
     1
 42
40.0
 92
        8
 66
     7
 43
1.0
 76
     1
 77
     6
 78
     2
 67
     7
 79
     3
170
     0
171
     0
290
     0
174
     0
 93
        1
 44
0.0
173
     0
291
     0
 45
0.0
1001
ACAD
1000
AcDbSavedByObjectVersion
1070
     0
  0
VISUALSTYLE
  5
368
102
{ACAD_XDICTIONARY
360
F8D
102
}
102
{ACAD_REACTORS
330
14
102
}
330
14
100
AcDbVisualStyle
  2

 70
    24
 71
     1
 72
     2
 73
     2
 90
        0
 40
-0.6
 41
-30.0
 62
     5
 63
     7
 74
     2
 91
        2
 64
     7
 65
     7
 75
     1
175
     1
 42
40.0
 92
       11
 66
     7
 43
1.0
 76
     1
 77
     6
 78
     2
 67
     7
 79
     6
170
     0
171
     0
290
     0
174
     0
 93
        1
 44
0.0
173
     0
291
     0
 45
0.0
1001
ACAD
1000
AcDbSavedByObjectVersion
1070
     0
  0
VISUALSTYLE
  5
21
102
{ACAD_XDICTIONARY
360
F7A
102
}
102
{ACAD_REACTORS
330
14
102
}
330
14
100
AcDbVisualStyle
  2

 70
    13
 71
     2
 72
     2
 73
     0
 90
        0
 40
-0.6
 41
-30.0
 62
     5
 63
     7
 74
     1
 91
        4
 64
     7
 65
   257
 75
     1
175
     1
 42
1.0
 92
       12
 66
     7
 43
1.0
 76
     1
 77
     6
 78
     2
 67
     7
 79
     5
170
     0
171
     0
290
     0
174
     0
 93
        1
 44
0.0
173
     0
291
     1
 45
0.0
1001
ACAD
1000
AcDbSavedByObjectVersion
1070
     0
  0
VISUALSTYLE
  5
365
102
{ACAD_XDICTIONARY
360
F87
102
}
102
{ACAD_REACTORS
330
14
102
}
330
14
100
AcDbVisualStyle
  2

 70
     5
 71
     0
 72
     2
 73
     0
 90
        0
 40
-0.6
 41
-30.0
 62
     5
 63
     7
 74
     1
 91
        4
 64
     7
 65
   257
 75
     1
175
     1
 42
1.0
 92
        0
 66
   257
 43
1.0
 76
     1
 77
     6
 78
     2
 67
     7
 79
     3
170
     0
171
     0
290
     0
174
     0
 93
        1
 44
0.0
173
     0
291
     0
 45
0.0
1001
ACAD
1000
AcDbSavedByObjectVersion
1070
     0
  0
VISUALSTYLE
  5
369
102
{ACAD_XDICTIONARY
360
F8F
102
}
102
{ACAD_REACTORS
330
14
102
}
330
14
100
AcDbVisualStyle
  2

 70
    25
 71
     2
 72
     2
 73
     1
 90
        1
 40
0.5
 41
-30.0
 62
     5
 63
     7
 74
     1
 91
        0
 64
     7
 65
   257
 75
     1
175
     1
 42
1.0
 92
        8
 66
     7
 43
1.0
 76
     1
 77
     6
 78
     2
 67
     7
 79
     3
170
     0
171
     0
290
     0
174
     0
 93
       13
 44
0.0
173
     0
291
     0
 45
0.0
1001
ACAD
1000
AcDbSavedByObjectVersion
1070
     0
  0
DICTIONARYVAR
  5
602
102
{ACAD_REACTORS
330
34F
102
}
330
34F
100
DictionaryVariables
280
     0
  1
1:1
  0
DICTIONARYVAR
  5
601
102
{ACAD_REACTORS
330
34F
102
}
330
34F
100
DictionaryVariables
280
     0
  1
STANDARD
  0
DICTIONARYVAR
  5
350
102
{ACAD_REACTORS
330
34F
102
}
330
34F
100
DictionaryVariables
280
     0
  1
STANDARD
  0
DICTIONARYVAR
  5
353
102
{ACAD_REACTORS
330
34F
102
}
330
34F
100
DictionaryVariables
280
     0
  1
1
  0
DICTIONARYVAR
  5
352
102
{ACAD_REACTORS
330
34F
102
}
330
34F
100
DictionaryVariables
280
     0
  1
0
  0
DICTIONARYVAR
  5
351
102
{ACAD_REACTORS
330
34F
102
}
330
34F
100
DictionaryVariables
280
     0
  1
127
  0
DICTIONARYVAR
  5
E49
102
{ACAD_REACTORS
330
34F
102
}
330
34F
100
DictionaryVariables
280
     0
  1
2
  0
DICTIONARY
  5
F85
330
39
100
AcDbDictionary
280
     1
281
     1
  3
ACAD_XREC_ROUNDTRIP
360
F86
  0
DICTIONARY
  5
F83
330
35
100
AcDbDictionary
280
     1
281
     1
  3
ACAD_XREC_ROUNDTRIP
360
F84
  0
DICTIONARY
  5
357
330
12
100
AcDbDictionary
280
     1
281
     1
  3
ACAD_XREC_ROUNDTRIP
360
358
  0
DICTIONARY
  5
355
330
11
100
AcDbDictionary
280
     1
281
     1
  3
ACAD_XREC_ROUNDTRIP
360
356
  0
DICTIONARY
  5
359
330
13
100
AcDbDictionary
280
     1
281
     1
  3
ACAD_XREC_ROUNDTRIP
360
35A
  0
DICTIONARY
  5
604
330
31
100
AcDbDictionary
280
     1
281
     1
  3
ACAD_ROUNDTRIP_2008_TABLESTYLE_CELLSTYLEMAP
360
F5B
  3
ACAD_XREC_ROUNDTRIP
360
F82
  0
DICTIONARY
  5
F6C
330
1A
100
AcDbDictionary
280
     1
281
     1
  3
ACAD_XREC_ROUNDTRIP
360
F6D
  0
DICTIONARY
  5
F70
330
1C
100
AcDbDictionary
280
     1
281
     1
  3
ACAD_XREC_ROUNDTRIP
360
F71
  0
DICTIONARY
  5
F6E
330
1B
100
AcDbDictionary
280
     1
281
     1
  3
ACAD_XREC_ROUNDTRIP
360
F6F
  0
DICTIONARY
  5
F6A
330
19
100
AcDbDictionary
280
     1
281
     1
  3
ACAD_XREC_ROUNDTRIP
360
F6B
  0
DICTIONARY
  5
F78
330
20
100
AcDbDictionary
280
     1
281
     1
  3
ACAD_XREC_ROUNDTRIP
360
F79
  0
DICTIONARY
  5
F80
330
24
100
AcDbDictionary
280
     1
281
     1
  3
ACAD_XREC_ROUNDTRIP
360
F81
  0
DICTIONARY
  5
F72
330
1D
100
AcDbDictionary
280
     1
281
     1
  3
ACAD_XREC_ROUNDTRIP
360
F73
  0
DICTIONARY
  5
F76
330
1F
100
AcDbDictionary
280
     1
281
     1
  3
ACAD_XREC_ROUNDTRIP
360
F77
  0
DICTIONARY
  5
F99
330
36E
100
AcDbDictionary
280
     1
281
     1
  3
ACAD_XREC_ROUNDTRIP
360
F9A
  0
DICTIONARY
  5
F7E
330
23
100
AcDbDictionary
280
     1
281
     1
  3
ACAD_XREC_ROUNDTRIP
360
F7F
  0
DICTIONARY
  5
F62
330
15
100
AcDbDictionary
280
     1
281
     1
  3
ACAD_XREC_ROUNDTRIP
360
F63
  0
DICTIONARY
  5
F64
330
16
100
AcDbDictionary
280
     1
281
     1
  3
ACAD_XREC_ROUNDTRIP
360
F65
  0
DICTIONARY
  5
F66
330
17
100
AcDbDictionary
280
     1
281
     1
  3
ACAD_XREC_ROUNDTRIP
360
F67
  0
DICTIONARY
  5
F68
330
18
100
AcDbDictionary
280
     1
281
     1
  3
ACAD_XREC_ROUNDTRIP
360
F69
  0
DICTIONARY
  5
F89
330
366
100
AcDbDictionary
280
     1
281
     1
  3
ACAD_XREC_ROUNDTRIP
360
F8A
  0
DICTIONARY
  5
F95
330
36C
100
AcDbDictionary
280
     1
281
     1
  3
ACAD_XREC_ROUNDTRIP
360
F96
  0
DICTIONARY
  5
F7C
330
22
100
AcDbDictionary
280
     1
281
     1
  3
ACAD_XREC_ROUNDTRIP
360
F7D
  0
DICTIONARY
  5
F97
330
36D
100
AcDbDictionary
280
     1
281
     1
  3
ACAD_XREC_ROUNDTRIP
360
F98
  0
DICTIONARY
  5
F74
330
1E
100
AcDbDictionary
280
     1
281
     1
  3
ACAD_XREC_ROUNDTRIP
360
F75
  0
DICTIONARY
  5
F93
330
36B
100
AcDbDictionary
280
     1
281
     1
  3
ACAD_XREC_ROUNDTRIP
360
F94
  0
DICTIONARY
  5
F91
330
36A
100
AcDbDictionary
280
     1
281
     1
  3
ACAD_XREC_ROUNDTRIP
360
F92
  0
DICTIONARY
  5
F8B
330
367
100
AcDbDictionary
280
     1
281
     1
  3
ACAD_XREC_ROUNDTRIP
360
F8C
  0
DICTIONARY
  5
F8D
330
368
100
AcDbDictionary
280
     1
281
     1
  3
ACAD_XREC_ROUNDTRIP
360
F8E
  0
DICTIONARY
  5
F7A
330
21
100
AcDbDictionary
280
     1
281
     1
  3
ACAD_XREC_ROUNDTRIP
360
F7B
  0
DICTIONARY
  5
F87
330
365
100
AcDbDictionary
280
     1
281
     1
  3
ACAD_XREC_ROUNDTRIP
360
F88
  0
DICTIONARY
  5
F8F
330
369
100
AcDbDictionary
280
     1
281
     1
  3
ACAD_XREC_ROUNDTRIP
360
F90
  0
XRECORD
  5
F86
102
{ACAD_REACTORS
330
F85
102
}
330
F85
100
AcDbXrecord
280
     1
102
SHADEPLOT
 70
     0
102
SHADEPLOTRESLEVEL
 70
     2
102
SHADEPLOTCUSTOMDPI
 70
   300
  0
XRECORD
  5
F84
102
{ACAD_REACTORS
330
F83
102
}
330
F83
100
AcDbXrecord
280
     1
102
SHADEPLOT
 70
     0
102
SHADEPLOTRESLEVEL
 70
     2
102
SHADEPLOTCUSTOMDPI
 70
   300
  0
XRECORD
  5
358
102
{ACAD_REACTORS
330
357
102
}
330
357
100
AcDbXrecord
280
     1
102
MATERIAL
148
0.0
149
0.0
149
0.0
 93
        0
 94
      127
282
     0
 72
     1
 77
     1
171
     1
175
     1
179
     1
273
     0
  0
XRECORD
  5
356
102
{ACAD_REACTORS
330
355
102
}
330
355
100
AcDbXrecord
280
     1
102
MATERIAL
148
0.0
149
0.0
149
0.0
 93
        0
 94
      127
282
     0
 72
     1
 77
     1
171
     1
175
     1
179
     1
273
     0
  0
XRECORD
  5
35A
102
{ACAD_REACTORS
330
359
102
}
330
359
100
AcDbXrecord
280
     1
102
MATERIAL
148
0.0
149
0.0
149
0.0
 93
        0
 94
      127
282
     0
 72
     1
 77
     1
171
     1
175
     1
179
     1
273
     0
  0
CELLSTYLEMAP
  5
F5B
102
{ACAD_REACTORS
330
604
102
}
330
604
100
AcDbCellStyleMap
 90
        3
300
CELLSTYLE
  1
TABLEFORMAT_BEGIN
 90
        5
170
     1
 91
        0
 92
    32768
 62
   257
 93
        1
300
CONTENTFORMAT
  1
CONTENTFORMAT_BEGIN
 90
        0
 91
        0
 92
      512
 93
        0
300

 40
0.0
140
1.0
 94
        5
 62
     0
340
26
144
0.25
309
CONTENTFORMAT_END
171
     1
301
MARGIN
  1
CELLMARGIN_BEGIN
 40
0.06
 40
0.06
 40
0.06
 40
0.06
 40
0.18
 40
0.18
309
CELLMARGIN_END
 94
        6
 95
        1
302
GRIDFORMAT
  1
GRIDFORMAT_BEGIN
 90
        0
 91
        1
 62
     0
 92
       -2
340
0
 93
        0
 40
0.045
309
GRIDFORMAT_END
 95
        2
302
GRIDFORMAT
  1
GRIDFORMAT_BEGIN
 90
        0
 91
        1
 62
     0
 92
       -2
340
0
 93
        0
 40
0.045
309
GRIDFORMAT_END
 95
        4
302
GRIDFORMAT
  1
GRIDFORMAT_BEGIN
 90
        0
 91
        1
 62
     0
 92
       -2
340
0
 93
        0
 40
0.045
309
GRIDFORMAT_END
 95
        8
302
GRIDFORMAT
  1
GRIDFORMAT_BEGIN
 90
        0
 91
        1
 62
     0
 92
       -2
340
0
 93
        0
 40
0.045
309
GRIDFORMAT_END
 95
       16
302
GRIDFORMAT
  1
GRIDFORMAT_BEGIN
 90
        0
 91
        1
 62
     0
 92
       -2
340
0
 93
        0
 40
0.045
309
GRIDFORMAT_END
 95
       32
302
GRIDFORMAT
  1
GRIDFORMAT_BEGIN
 90
        0
 91
        1
 62
     0
 92
       -2
340
0
 93
        0
 40
0.045
309
GRIDFORMAT_END
309
TABLEFORMAT_END
  1
CELLSTYLE_BEGIN
 90
        1
 91
        1
300
_TITLE
309
CELLSTYLE_END
300
CELLSTYLE
  1
TABLEFORMAT_BEGIN
 90
        5
170
     1
 91
        0
 92
        0
 62
   257
 93
        1
300
CONTENTFORMAT
  1
CONTENTFORMAT_BEGIN
 90
        0
 91
        0
 92
      512
 93
        0
300

 40
0.0
140
1.0
 94
        5
 62
     0
340
26
144
0.18
309
CONTENTFORMAT_END
171
     1
301
MARGIN
  1
CELLMARGIN_BEGIN
 40
0.06
 40
0.06
 40
0.06
 40
0.06
 40
0.18
 40
0.18
309
CELLMARGIN_END
 94
        6
 95
        1
302
GRIDFORMAT
  1
GRIDFORMAT_BEGIN
 90
        0
 91
        1
 62
     0
 92
       -2
340
0
 93
        0
 40
0.045
309
GRIDFORMAT_END
 95
        2
302
GRIDFORMAT
  1
GRIDFORMAT_BEGIN
 90
        0
 91
        1
 62
     0
 92
       -2
340
0
 93
        0
 40
0.045
309
GRIDFORMAT_END
 95
        4
302
GRIDFORMAT
  1
GRIDFORMAT_BEGIN
 90
        0
 91
        1
 62
     0
 92
       -2
340
0
 93
        0
 40
0.045
309
GRIDFORMAT_END
 95
        8
302
GRIDFORMAT
  1
GRIDFORMAT_BEGIN
 90
        0
 91
        1
 62
     0
 92
       -2
340
0
 93
        0
 40
0.045
309
GRIDFORMAT_END
 95
       16
302
GRIDFORMAT
  1
GRIDFORMAT_BEGIN
 90
        0
 91
        1
 62
     0
 92
       -2
340
0
 93
        0
 40
0.045
309
GRIDFORMAT_END
 95
       32
302
GRIDFORMAT
  1
GRIDFORMAT_BEGIN
 90
        0
 91
        1
 62
     0
 92
       -2
340
0
 93
        0
 40
0.045
309
GRIDFORMAT_END
309
TABLEFORMAT_END
  1
CELLSTYLE_BEGIN
 90
        2
 91
        1
300
_HEADER
309
CELLSTYLE_END
300
CELLSTYLE
  1
TABLEFORMAT_BEGIN
 90
        5
170
     1
 91
        0
 92
        0
 62
   257
 93
        1
300
CONTENTFORMAT
  1
CONTENTFORMAT_BEGIN
 90
        0
 91
        0
 92
      512
 93
        0
300

 40
0.0
140
1.0
 94
        2
 62
     0
340
26
144
0.18
309
CONTENTFORMAT_END
171
     1
301
MARGIN
  1
CELLMARGIN_BEGIN
 40
0.06
 40
0.06
 40
0.06
 40
0.06
 40
0.18
 40
0.18
309
CELLMARGIN_END
 94
        6
 95
        1
302
GRIDFORMAT
  1
GRIDFORMAT_BEGIN
 90
        0
 91
        1
 62
     0
 92
       -2
340
0
 93
        0
 40
0.045
309
GRIDFORMAT_END
 95
        2
302
GRIDFORMAT
  1
GRIDFORMAT_BEGIN
 90
        0
 91
        1
 62
     0
 92
       -2
340
0
 93
        0
 40
0.045
309
GRIDFORMAT_END
 95
        4
302
GRIDFORMAT
  1
GRIDFORMAT_BEGIN
 90
        0
 91
        1
 62
     0
 92
       -2
340
0
 93
        0
 40
0.045
309
GRIDFORMAT_END
 95
        8
302
GRIDFORMAT
  1
GRIDFORMAT_BEGIN
 90
        0
 91
        1
 62
     0
 92
       -2
340
0
 93
        0
 40
0.045
309
GRIDFORMAT_END
 95
       16
302
GRIDFORMAT
  1
GRIDFORMAT_BEGIN
 90
        0
 91
        1
 62
     0
 92
       -2
340
0
 93
        0
 40
0.045
309
GRIDFORMAT_END
 95
       32
302
GRIDFORMAT
  1
GRIDFORMAT_BEGIN
 90
        0
 91
        1
 62
     0
 92
       -2
340
0
 93
        0
 40
0.045
309
GRIDFORMAT_END
309
TABLEFORMAT_END
  1
CELLSTYLE_BEGIN
 90
        3
 91
        2
300
_DATA
309
CELLSTYLE_END
  0
XRECORD
  5
F82
102
{ACAD_REACTORS
330
604
102
}
330
604
100
AcDbXrecord
280
     1
102
ACAD_ROUNDTRIP_PRE2007_TABLESTYLE
 90
      512
 91
        0
  1

 92
      512
 93
        0
  2

 94
      512
 95
        0
  3

  0
XRECORD
  5
F6D
102
{ACAD_REACTORS
330
F6C
102
}
330
F6C
100
AcDbXrecord
280
     1
102
RTVSPropertyOp0
 70
     1
102
RTVSPropertyOp1
 70
     1
102
RTVSPropertyOp2
 70
     1
102
RTVSPropertyOp3
 70
     1
102
RTVSPropertyOp4
 70
     1
102
RTVSPropertyOp5
 70
     1
102
RTVSPropertyOp6
 70
     1
102
RTVSPropertyOp7
 70
     1
102
RTVSPropertyOp8
 70
     1
102
RTVSPropertyOp9
 70
     1
102
RTVSPropertyOp10
 70
     1
102
RTVSPropertyOp11
 70
     1
102
RTVSPropertyOp12
 70
     1
102
RTVSPropertyOp13
 70
     1
102
RTVSPropertyOp14
 70
     1
102
RTVSPropertyOp15
 70
     1
102
RTVSPropertyOp16
 70
     1
102
RTVSPropertyOp17
 70
     1
102
RTVSPropertyOp18
 70
     1
102
RTVSPropertyOp19
 70
     1
102
RTVSPropertyOp20
 70
     1
102
RTVSPropertyOp21
 70
     1
102
RTVSPropertyOp22
 70
     1
102
RTVSPropertyOp23
 70
     1
102
RTVSPropertyOp24
 70
     1
102
RTVSPropertyOp25
 70
     1
102
RTVSPropertyOp26
 70
     1
102
RTVSPropertyOp27
 70
     1
102
RTVSPropertyOp28
 70
     1
102
RTVSPropertyOp29
 70
     1
102
RTVSPropertyOp30
 70
     1
102
RTVSPropertyOp31
 70
     1
102
RTVSPropertyOp32
 70
     1
  0
XRECORD
  5
F71
102
{ACAD_REACTORS
330
F70
102
}
330
F70
100
AcDbXrecord
280
     1
102
RTVSPropertyOp0
 70
     1
102
RTVSPropertyOp1
 70
     1
102
RTVSPropertyOp2
 70
     1
102
RTVSPropertyOp3
 70
     1
102
RTVSPropertyOp4
 70
     1
102
RTVSPropertyOp5
 70
     1
102
RTVSPropertyOp6
 70
     1
102
RTVSPropertyOp7
 70
     1
102
RTVSPropertyOp8
 70
     1
102
RTVSPropertyOp9
 70
     1
102
RTVSPropertyOp10
 70
     1
102
RTVSPropertyOp11
 70
     1
102
RTVSPropertyOp12
 70
     1
102
RTVSPropertyOp13
 70
     1
102
RTVSPropertyOp14
 70
     1
102
RTVSPropertyOp15
 70
     1
102
RTVSPropertyOp16
 70
     1
102
RTVSPropertyOp17
 70
     1
102
RTVSPropertyOp18
 70
     1
102
RTVSPropertyOp19
 70
     1
102
RTVSPropertyOp20
 70
     1
102
RTVSPropertyOp21
 70
     1
102
RTVSPropertyOp22
 70
     1
102
RTVSPropertyOp23
 70
     1
102
RTVSPropertyOp24
 70
     1
102
RTVSPropertyOp25
 70
     1
102
RTVSPropertyOp26
 70
     1
102
RTVSPropertyOp27
 70
     1
102
RTVSPropertyOp28
 70
     1
102
RTVSPropertyOp29
 70
     1
102
RTVSPropertyOp30
 70
     1
102
RTVSPropertyOp31
 70
     1
102
RTVSPropertyOp32
 70
     1
  0
XRECORD
  5
F6F
102
{ACAD_REACTORS
330
F6E
102
}
330
F6E
100
AcDbXrecord
280
     1
102
RTVSPropertyOp0
 70
     1
102
RTVSPropertyOp1
 70
     1
102
RTVSPropertyOp2
 70
     1
102
RTVSPropertyOp3
 70
     1
102
RTVSPropertyOp4
 70
     1
102
RTVSPropertyOp5
 70
     1
102
RTVSPropertyOp6
 70
     1
102
RTVSPropertyOp7
 70
     1
102
RTVSPropertyOp8
 70
     1
102
RTVSPropertyOp9
 70
     1
102
RTVSPropertyOp10
 70
     1
102
RTVSPropertyOp11
 70
     1
102
RTVSPropertyOp12
 70
     1
102
RTVSPropertyOp13
 70
     1
102
RTVSPropertyOp14
 70
     1
102
RTVSPropertyOp15
 70
     1
102
RTVSPropertyOp16
 70
     1
102
RTVSPropertyOp17
 70
     1
102
RTVSPropertyOp18
 70
     1
102
RTVSPropertyOp19
 70
     1
102
RTVSPropertyOp20
 70
     1
102
RTVSPropertyOp21
 70
     1
102
RTVSPropertyOp22
 70
     1
102
RTVSPropertyOp23
 70
     1
102
RTVSPropertyOp24
 70
     1
102
RTVSPropertyOp25
 70
     1
102
RTVSPropertyOp26
 70
     1
102
RTVSPropertyOp27
 70
     1
102
RTVSPropertyOp28
 70
     1
102
RTVSPropertyOp29
 70
     1
102
RTVSPropertyOp30
 70
     1
102
RTVSPropertyOp31
 70
     1
102
RTVSPropertyOp32
 70
     1
  0
XRECORD
  5
F6B
102
{ACAD_REACTORS
330
F6A
102
}
330
F6A
100
AcDbXrecord
280
     1
102
RTVSPropertyOp0
 70
     1
102
RTVSPropertyOp1
 70
     1
102
RTVSPropertyOp2
 70
     1
102
RTVSPropertyOp3
 70
     1
102
RTVSPropertyOp4
 70
     1
102
RTVSPropertyOp5
 70
     1
102
RTVSPropertyOp6
 70
     1
102
RTVSPropertyOp7
 70
     1
102
RTVSPropertyOp8
 70
     1
102
RTVSPropertyOp9
 70
     1
102
RTVSPropertyOp10
 70
     1
102
RTVSPropertyOp11
 70
     1
102
RTVSPropertyOp12
 70
     1
102
RTVSPropertyOp13
 70
     1
102
RTVSPropertyOp14
 70
     1
102
RTVSPropertyOp15
 70
     1
102
RTVSPropertyOp16
 70
     1
102
RTVSPropertyOp17
 70
     1
102
RTVSPropertyOp18
 70
     1
102
RTVSPropertyOp19
 70
     1
102
RTVSPropertyOp20
 70
     1
102
RTVSPropertyOp21
 70
     1
102
RTVSPropertyOp22
 70
     1
102
RTVSPropertyOp23
 70
     1
102
RTVSPropertyOp24
 70
     1
102
RTVSPropertyOp25
 70
     1
102
RTVSPropertyOp26
 70
     1
102
RTVSPropertyOp27
 70
     1
102
RTVSPropertyOp28
 70
     1
102
RTVSPropertyOp29
 70
     1
102
RTVSPropertyOp30
 70
     1
102
RTVSPropertyOp31
 70
     1
102
RTVSPropertyOp32
 70
     1
  0
XRECORD
  5
F79
102
{ACAD_REACTORS
330
F78
102
}
330
F78
100
AcDbXrecord
280
     1
102
RTVSPropertyOp0
 70
     1
102
RTVSPropertyOp1
 70
     1
102
RTVSPropertyOp2
 70
     1
102
RTVSPropertyOp3
 70
     1
102
RTVSPropertyOp4
 70
     1
102
RTVSPropertyOp5
 70
     1
102
RTVSPropertyOp6
 70
     1
102
RTVSPropertyOp7
 70
     1
102
RTVSPropertyOp8
 70
     1
102
RTVSPropertyOp9
 70
     1
102
RTVSPropertyOp10
 70
     1
102
RTVSPropertyOp11
 70
     1
102
RTVSPropertyOp12
 70
     1
102
RTVSPropertyOp13
 70
     1
102
RTVSPropertyOp14
 70
     1
102
RTVSPropertyOp15
 70
     1
102
RTVSPropertyOp16
 70
     1
102
RTVSPropertyOp17
 70
     1
102
RTVSPropertyOp18
 70
     1
102
RTVSPropertyOp19
 70
     1
102
RTVSPropertyOp20
 70
     1
102
RTVSPropertyOp21
 70
     1
102
RTVSPropertyOp22
 70
     1
102
RTVSPropertyOp23
 70
     1
102
RTVSPropertyOp24
 70
     1
102
RTVSPropertyOp25
 70
     1
102
RTVSPropertyOp26
 70
     1
102
RTVSPropertyOp27
 70
     1
102
RTVSPropertyOp28
 70
     1
102
RTVSPropertyOp29
 70
     1
102
RTVSPropertyOp30
 70
     1
102
RTVSPropertyOp31
 70
     1
102
RTVSPropertyOp32
 70
     1
  0
XRECORD
  5
F81
102
{ACAD_REACTORS
330
F80
102
}
330
F80
100
AcDbXrecord
280
     1
102
RTVSPropertyOp0
 70
     1
102
RTVSPropertyOp1
 70
     1
102
RTVSPropertyOp2
 70
     1
102
RTVSPropertyOp3
 70
     1
102
RTVSPropertyOp4
 70
     1
102
RTVSPropertyOp5
 70
     1
102
RTVSPropertyOp6
 70
     1
102
RTVSPropertyOp7
 70
     1
102
RTVSPropertyOp8
 70
     1
102
RTVSPropertyOp9
 70
     1
102
RTVSPropertyOp10
 70
     1
102
RTVSPropertyOp11
 70
     1
102
RTVSPropertyOp12
 70
     1
102
RTVSPropertyOp13
 70
     1
102
RTVSPropertyOp14
 70
     1
102
RTVSPropertyOp15
 70
     1
102
RTVSPropertyOp16
 70
     1
102
RTVSPropertyOp17
 70
     1
102
RTVSPropertyOp18
 70
     1
102
RTVSPropertyOp19
 70
     1
102
RTVSPropertyOp20
 70
     1
102
RTVSPropertyOp21
 70
     1
102
RTVSPropertyOp22
 70
     1
102
RTVSPropertyOp23
 70
     1
102
RTVSPropertyOp24
 70
     1
102
RTVSPropertyOp25
 70
     1
102
RTVSPropertyOp26
 70
     1
102
RTVSPropertyOp27
 70
     1
102
RTVSPropertyOp28
 70
     1
102
RTVSPropertyOp29
 70
     1
102
RTVSPropertyOp30
 70
     1
102
RTVSPropertyOp31
 70
     1
102
RTVSPropertyOp32
 70
     1
  0
XRECORD
  5
F73
102
{ACAD_REACTORS
330
F72
102
}
330
F72
100
AcDbXrecord
280
     1
102
RTVSPropertyOp0
 70
     1
102
RTVSPropertyOp1
 70
     1
102
RTVSPropertyOp2
 70
     1
102
RTVSPropertyOp3
 70
     1
102
RTVSPropertyOp4
 70
     1
102
RTVSPropertyOp5
 70
     1
102
RTVSPropertyOp6
 70
     1
102
RTVSPropertyOp7
 70
     1
102
RTVSPropertyOp8
 70
     1
102
RTVSPropertyOp9
 70
     1
102
RTVSPropertyOp10
 70
     1
102
RTVSPropertyOp11
 70
     1
102
RTVSPropertyOp12
 70
     1
102
RTVSPropertyOp13
 70
     1
102
RTVSPropertyOp14
 70
     1
102
RTVSPropertyOp15
 70
     1
102
RTVSPropertyOp16
 70
     1
102
RTVSPropertyOp17
 70
     1
102
RTVSPropertyOp18
 70
     1
102
RTVSPropertyOp19
 70
     1
102
RTVSPropertyOp20
 70
     1
102
RTVSPropertyOp21
 70
     1
102
RTVSPropertyOp22
 70
     1
102
RTVSPropertyOp23
 70
     1
102
RTVSPropertyOp24
 70
     1
102
RTVSPropertyOp25
 70
     1
102
RTVSPropertyOp26
 70
     1
102
RTVSPropertyOp27
 70
     1
102
RTVSPropertyOp28
 70
     1
102
RTVSPropertyOp29
 70
     1
102
RTVSPropertyOp30
 70
     1
102
RTVSPropertyOp31
 70
     1
102
RTVSPropertyOp32
 70
     1
  0
XRECORD
  5
F77
102
{ACAD_REACTORS
330
F76
102
}
330
F76
100
AcDbXrecord
280
     1
102
RTVSPropertyOp0
 70
     1
102
RTVSPropertyOp1
 70
     1
102
RTVSPropertyOp2
 70
     1
102
RTVSPropertyOp3
 70
     1
102
RTVSPropertyOp4
 70
     1
102
RTVSPropertyOp5
 70
     1
102
RTVSPropertyOp6
 70
     1
102
RTVSPropertyOp7
 70
     1
102
RTVSPropertyOp8
 70
     1
102
RTVSPropertyOp9
 70
     1
102
RTVSPropertyOp10
 70
     1
102
RTVSPropertyOp11
 70
     1
102
RTVSPropertyOp12
 70
     1
102
RTVSPropertyOp13
 70
     1
102
RTVSPropertyOp14
 70
     1
102
RTVSPropertyOp15
 70
     1
102
RTVSPropertyOp16
 70
     1
102
RTVSPropertyOp17
 70
     1
102
RTVSPropertyOp18
 70
     1
102
RTVSPropertyOp19
 70
     1
102
RTVSPropertyOp20
 70
     1
102
RTVSPropertyOp21
 70
     1
102
RTVSPropertyOp22
 70
     1
102
RTVSPropertyOp23
 70
     1
102
RTVSPropertyOp24
 70
     1
102
RTVSPropertyOp25
 70
     1
102
RTVSPropertyOp26
 70
     1
102
RTVSPropertyOp27
 70
     1
102
RTVSPropertyOp28
 70
     1
102
RTVSPropertyOp29
 70
     1
102
RTVSPropertyOp30
 70
     1
102
RTVSPropertyOp31
 70
     1
102
RTVSPropertyOp32
 70
     1
  0
XRECORD
  5
F9A
102
{ACAD_REACTORS
330
F99
102
}
330
F99
100
AcDbXrecord
280
     1
102
RTVSPropertyOp0
 70
     0
102
RTVSPropertyOp1
 70
     0
102
RTVSPropertyOp2
 70
     0
102
RTVSPropertyOp3
 70
     0
102
RTVSPropertyOp4
 70
     0
102
RTVSPropertyOp5
 70
     0
102
RTVSPropertyOp6
 70
     0
102
RTVSPropertyOp7
 70
     0
102
RTVSPropertyOp8
 70
     0
102
RTVSPropertyOp9
 70
     0
102
RTVSPropertyOp10
 70
     0
102
RTVSPropertyOp11
 70
     0
102
RTVSPropertyOp12
 70
     0
102
RTVSPropertyOp13
 70
     0
102
RTVSPropertyOp14
 70
     2
102
RTVSPropertyOp15
 70
     0
102
RTVSPropertyOp16
 70
     0
102
RTVSPropertyOp17
 70
     0
102
RTVSPropertyOp18
 70
     0
102
RTVSPropertyOp19
 70
     0
102
RTVSPropertyOp20
 70
     0
102
RTVSPropertyOp21
 70
     0
102
RTVSPropertyOp22
 70
     0
102
RTVSPropertyOp23
 70
     0
102
RTVSPropertyOp24
 70
     0
102
RTVSPropertyOp25
 70
     0
102
RTVSPropertyOp26
 70
     0
102
RTVSPropertyOp27
 70
     0
102
RTVSPropertyOp28
 70
     0
102
RTVSPropertyOp29
 70
     0
102
RTVSPropertyOp30
 70
     0
102
RTVSPropertyOp31
 70
     0
102
RTVSPropertyOp32
 70
     0
  0
XRECORD
  5
F7F
102
{ACAD_REACTORS
330
F7E
102
}
330
F7E
100
AcDbXrecord
280
     1
102
RTVSPropertyOp0
 70
     1
102
RTVSPropertyOp1
 70
     1
102
RTVSPropertyOp2
 70
     1
102
RTVSPropertyOp3
 70
     1
102
RTVSPropertyOp4
 70
     1
102
RTVSPropertyOp5
 70
     1
102
RTVSPropertyOp6
 70
     1
102
RTVSPropertyOp7
 70
     1
102
RTVSPropertyOp8
 70
     1
102
RTVSPropertyOp9
 70
     1
102
RTVSPropertyOp10
 70
     1
102
RTVSPropertyOp11
 70
     1
102
RTVSPropertyOp12
 70
     1
102
RTVSPropertyOp13
 70
     1
102
RTVSPropertyOp14
 70
     1
102
RTVSPropertyOp15
 70
     1
102
RTVSPropertyOp16
 70
     1
102
RTVSPropertyOp17
 70
     1
102
RTVSPropertyOp18
 70
     1
102
RTVSPropertyOp19
 70
     1
102
RTVSPropertyOp20
 70
     1
102
RTVSPropertyOp21
 70
     1
102
RTVSPropertyOp22
 70
     1
102
RTVSPropertyOp23
 70
     1
102
RTVSPropertyOp24
 70
     1
102
RTVSPropertyOp25
 70
     1
102
RTVSPropertyOp26
 70
     1
102
RTVSPropertyOp27
 70
     1
102
RTVSPropertyOp28
 70
     1
102
RTVSPropertyOp29
 70
     1
102
RTVSPropertyOp30
 70
     1
102
RTVSPropertyOp31
 70
     1
102
RTVSPropertyOp32
 70
     1
  0
XRECORD
  5
F63
102
{ACAD_REACTORS
330
F62
102
}
330
F62
100
AcDbXrecord
280
     1
102
RTVSPropertyOp0
 70
     1
102
RTVSPropertyOp1
 70
     1
102
RTVSPropertyOp2
 70
     1
102
RTVSPropertyOp3
 70
     1
102
RTVSPropertyOp4
 70
     1
102
RTVSPropertyOp5
 70
     1
102
RTVSPropertyOp6
 70
     1
102
RTVSPropertyOp7
 70
     1
102
RTVSPropertyOp8
 70
     1
102
RTVSPropertyOp9
 70
     1
102
RTVSPropertyOp10
 70
     1
102
RTVSPropertyOp11
 70
     1
102
RTVSPropertyOp12
 70
     1
102
RTVSPropertyOp13
 70
     1
102
RTVSPropertyOp14
 70
     1
102
RTVSPropertyOp15
 70
     1
102
RTVSPropertyOp16
 70
     1
102
RTVSPropertyOp17
 70
     1
102
RTVSPropertyOp18
 70
     1
102
RTVSPropertyOp19
 70
     1
102
RTVSPropertyOp20
 70
     1
102
RTVSPropertyOp21
 70
     1
102
RTVSPropertyOp22
 70
     1
102
RTVSPropertyOp23
 70
     1
102
RTVSPropertyOp24
 70
     1
102
RTVSPropertyOp25
 70
     1
102
RTVSPropertyOp26
 70
     1
102
RTVSPropertyOp27
 70
     1
102
RTVSPropertyOp28
 70
     1
102
RTVSPropertyOp29
 70
     1
102
RTVSPropertyOp30
 70
     1
102
RTVSPropertyOp31
 70
     1
102
RTVSPropertyOp32
 70
     1
  0
XRECORD
  5
F65
102
{ACAD_REACTORS
330
F64
102
}
330
F64
100
AcDbXrecord
280
     1
102
RTVSPropertyOp0
 70
     1
102
RTVSPropertyOp1
 70
     1
102
RTVSPropertyOp2
 70
     1
102
RTVSPropertyOp3
 70
     1
102
RTVSPropertyOp4
 70
     1
102
RTVSPropertyOp5
 70
     1
102
RTVSPropertyOp6
 70
     1
102
RTVSPropertyOp7
 70
     1
102
RTVSPropertyOp8
 70
     1
102
RTVSPropertyOp9
 70
     1
102
RTVSPropertyOp10
 70
     1
102
RTVSPropertyOp11
 70
     1
102
RTVSPropertyOp12
 70
     1
102
RTVSPropertyOp13
 70
     1
102
RTVSPropertyOp14
 70
     1
102
RTVSPropertyOp15
 70
     1
102
RTVSPropertyOp16
 70
     1
102
RTVSPropertyOp17
 70
     1
102
RTVSPropertyOp18
 70
     1
102
RTVSPropertyOp19
 70
     1
102
RTVSPropertyOp20
 70
     1
102
RTVSPropertyOp21
 70
     1
102
RTVSPropertyOp22
 70
     1
102
RTVSPropertyOp23
 70
     1
102
RTVSPropertyOp24
 70
     1
102
RTVSPropertyOp25
 70
     1
102
RTVSPropertyOp26
 70
     1
102
RTVSPropertyOp27
 70
     1
102
RTVSPropertyOp28
 70
     1
102
RTVSPropertyOp29
 70
     1
102
RTVSPropertyOp30
 70
     1
102
RTVSPropertyOp31
 70
     1
102
RTVSPropertyOp32
 70
     1
  0
XRECORD
  5
F67
102
{ACAD_REACTORS
330
F66
102
}
330
F66
100
AcDbXrecord
280
     1
102
RTVSPropertyOp0
 70
     1
102
RTVSPropertyOp1
 70
     1
102
RTVSPropertyOp2
 70
     1
102
RTVSPropertyOp3
 70
     1
102
RTVSPropertyOp4
 70
     1
102
RTVSPropertyOp5
 70
     1
102
RTVSPropertyOp6
 70
     1
102
RTVSPropertyOp7
 70
     1
102
RTVSPropertyOp8
 70
     1
102
RTVSPropertyOp9
 70
     1
102
RTVSPropertyOp10
 70
     1
102
RTVSPropertyOp11
 70
     1
102
RTVSPropertyOp12
 70
     1
102
RTVSPropertyOp13
 70
     1
102
RTVSPropertyOp14
 70
     1
102
RTVSPropertyOp15
 70
     1
102
RTVSPropertyOp16
 70
     1
102
RTVSPropertyOp17
 70
     1
102
RTVSPropertyOp18
 70
     1
102
RTVSPropertyOp19
 70
     1
102
RTVSPropertyOp20
 70
     1
102
RTVSPropertyOp21
 70
     1
102
RTVSPropertyOp22
 70
     1
102
RTVSPropertyOp23
 70
     1
102
RTVSPropertyOp24
 70
     1
102
RTVSPropertyOp25
 70
     1
102
RTVSPropertyOp26
 70
     1
102
RTVSPropertyOp27
 70
     1
102
RTVSPropertyOp28
 70
     1
102
RTVSPropertyOp29
 70
     1
102
RTVSPropertyOp30
 70
     1
102
RTVSPropertyOp31
 70
     1
102
RTVSPropertyOp32
 70
     1
  0
XRECORD
  5
F69
102
{ACAD_REACTORS
330
F68
102
}
330
F68
100
AcDbXrecord
280
     1
102
RTVSPropertyOp0
 70
     1
102
RTVSPropertyOp1
 70
     1
102
RTVSPropertyOp2
 70
     1
102
RTVSPropertyOp3
 70
     1
102
RTVSPropertyOp4
 70
     1
102
RTVSPropertyOp5
 70
     1
102
RTVSPropertyOp6
 70
     1
102
RTVSPropertyOp7
 70
     1
102
RTVSPropertyOp8
 70
     1
102
RTVSPropertyOp9
 70
     1
102
RTVSPropertyOp10
 70
     1
102
RTVSPropertyOp11
 70
     1
102
RTVSPropertyOp12
 70
     1
102
RTVSPropertyOp13
 70
     1
102
RTVSPropertyOp14
 70
     1
102
RTVSPropertyOp15
 70
     1
102
RTVSPropertyOp16
 70
     1
102
RTVSPropertyOp17
 70
     1
102
RTVSPropertyOp18
 70
     1
102
RTVSPropertyOp19
 70
     1
102
RTVSPropertyOp20
 70
     1
102
RTVSPropertyOp21
 70
     1
102
RTVSPropertyOp22
 70
     1
102
RTVSPropertyOp23
 70
     1
102
RTVSPropertyOp24
 70
     1
102
RTVSPropertyOp25
 70
     1
102
RTVSPropertyOp26
 70
     1
102
RTVSPropertyOp27
 70
     1
102
RTVSPropertyOp28
 70
     1
102
RTVSPropertyOp29
 70
     1
102
RTVSPropertyOp30
 70
     1
102
RTVSPropertyOp31
 70
     1
102
RTVSPropertyOp32
 70
     1
  0
XRECORD
  5
F8A
102
{ACAD_REACTORS
330
F89
102
}
330
F89
100
AcDbXrecord
280
     1
102
RTVSPropertyOp0
 70
     1
102
RTVSPropertyOp1
 70
     1
102
RTVSPropertyOp2
 70
     1
102
RTVSPropertyOp3
 70
     1
102
RTVSPropertyOp4
 70
     1
102
RTVSPropertyOp5
 70
     1
102
RTVSPropertyOp6
 70
     1
102
RTVSPropertyOp7
 70
     1
102
RTVSPropertyOp8
 70
     1
102
RTVSPropertyOp9
 70
     1
102
RTVSPropertyOp10
 70
     1
102
RTVSPropertyOp11
 70
     1
102
RTVSPropertyOp12
 70
     1
102
RTVSPropertyOp13
 70
     1
102
RTVSPropertyOp14
 70
     1
102
RTVSPropertyOp15
 70
     1
102
RTVSPropertyOp16
 70
     1
102
RTVSPropertyOp17
 70
     1
102
RTVSPropertyOp18
 70
     1
102
RTVSPropertyOp19
 70
     1
102
RTVSPropertyOp20
 70
     1
102
RTVSPropertyOp21
 70
     1
102
RTVSPropertyOp22
 70
     1
102
RTVSPropertyOp23
 70
     1
102
RTVSPropertyOp24
 70
     1
102
RTVSPropertyOp25
 70
     1
102
RTVSPropertyOp26
 70
     1
102
RTVSPropertyOp27
 70
     1
102
RTVSPropertyOp28
 70
     1
102
RTVSPropertyOp29
 70
     1
102
RTVSPropertyOp30
 70
     1
102
RTVSPropertyOp31
 70
     1
102
RTVSPropertyOp32
 70
     1
  0
XRECORD
  5
F96
102
{ACAD_REACTORS
330
F95
102
}
330
F95
100
AcDbXrecord
280
     1
102
RTVSPropertyOp0
 70
     0
102
RTVSPropertyOp1
 70
     0
102
RTVSPropertyOp2
 70
     0
102
RTVSPropertyOp3
 70
     0
102
RTVSPropertyOp4
 70
     0
102
RTVSPropertyOp5
 70
     0
102
RTVSPropertyOp6
 70
     0
102
RTVSPropertyOp7
 70
     0
102
RTVSPropertyOp8
 70
     0
102
RTVSPropertyOp9
 70
     0
102
RTVSPropertyOp10
 70
     0
102
RTVSPropertyOp11
 70
     0
102
RTVSPropertyOp12
 70
     0
102
RTVSPropertyOp13
 70
     0
102
RTVSPropertyOp14
 70
     2
102
RTVSPropertyOp15
 70
     0
102
RTVSPropertyOp16
 70
     0
102
RTVSPropertyOp17
 70
     0
102
RTVSPropertyOp18
 70
     0
102
RTVSPropertyOp19
 70
     0
102
RTVSPropertyOp20
 70
     0
102
RTVSPropertyOp21
 70
     0
102
RTVSPropertyOp22
 70
     0
102
RTVSPropertyOp23
 70
     0
102
RTVSPropertyOp24
 70
     0
102
RTVSPropertyOp25
 70
     0
102
RTVSPropertyOp26
 70
     0
102
RTVSPropertyOp27
 70
     0
102
RTVSPropertyOp28
 70
     0
102
RTVSPropertyOp29
 70
     0
102
RTVSPropertyOp30
 70
     0
102
RTVSPropertyOp31
 70
     0
102
RTVSPropertyOp32
 70
     0
  0
XRECORD
  5
F7D
102
{ACAD_REACTORS
330
F7C
102
}
330
F7C
100
AcDbXrecord
280
     1
102
RTVSPropertyOp0
 70
     1
102
RTVSPropertyOp1
 70
     1
102
RTVSPropertyOp2
 70
     1
102
RTVSPropertyOp3
 70
     1
102
RTVSPropertyOp4
 70
     1
102
RTVSPropertyOp5
 70
     1
102
RTVSPropertyOp6
 70
     1
102
RTVSPropertyOp7
 70
     1
102
RTVSPropertyOp8
 70
     1
102
RTVSPropertyOp9
 70
     1
102
RTVSPropertyOp10
 70
     1
102
RTVSPropertyOp11
 70
     1
102
RTVSPropertyOp12
 70
     1
102
RTVSPropertyOp13
 70
     1
102
RTVSPropertyOp14
 70
     1
102
RTVSPropertyOp15
 70
     1
102
RTVSPropertyOp16
 70
     1
102
RTVSPropertyOp17
 70
     1
102
RTVSPropertyOp18
 70
     1
102
RTVSPropertyOp19
 70
     1
102
RTVSPropertyOp20
 70
     1
102
RTVSPropertyOp21
 70
     1
102
RTVSPropertyOp22
 70
     1
102
RTVSPropertyOp23
 70
     1
102
RTVSPropertyOp24
 70
     1
102
RTVSPropertyOp25
 70
     1
102
RTVSPropertyOp26
 70
     1
102
RTVSPropertyOp27
 70
     1
102
RTVSPropertyOp28
 70
     1
102
RTVSPropertyOp29
 70
     1
102
RTVSPropertyOp30
 70
     1
102
RTVSPropertyOp31
 70
     1
102
RTVSPropertyOp32
 70
     1
  0
XRECORD
  5
F98
102
{ACAD_REACTORS
330
F97
102
}
330
F97
100
AcDbXrecord
280
     1
102
RTVSPropertyOp0
 70
     0
102
RTVSPropertyOp1
 70
     0
102
RTVSPropertyOp2
 70
     0
102
RTVSPropertyOp3
 70
     0
102
RTVSPropertyOp4
 70
     0
102
RTVSPropertyOp5
 70
     0
102
RTVSPropertyOp6
 70
     0
102
RTVSPropertyOp7
 70
     0
102
RTVSPropertyOp8
 70
     0
102
RTVSPropertyOp9
 70
     0
102
RTVSPropertyOp10
 70
     0
102
RTVSPropertyOp11
 70
     0
102
RTVSPropertyOp12
 70
     0
102
RTVSPropertyOp13
 70
     0
102
RTVSPropertyOp14
 70
     2
102
RTVSPropertyOp15
 70
     0
102
RTVSPropertyOp16
 70
     0
102
RTVSPropertyOp17
 70
     0
102
RTVSPropertyOp18
 70
     0
102
RTVSPropertyOp19
 70
     0
102
RTVSPropertyOp20
 70
     0
102
RTVSPropertyOp21
 70
     0
102
RTVSPropertyOp22
 70
     0
102
RTVSPropertyOp23
 70
     0
102
RTVSPropertyOp24
 70
     0
102
RTVSPropertyOp25
 70
     0
102
RTVSPropertyOp26
 70
     0
102
RTVSPropertyOp27
 70
     0
102
RTVSPropertyOp28
 70
     0
102
RTVSPropertyOp29
 70
     0
102
RTVSPropertyOp30
 70
     0
102
RTVSPropertyOp31
 70
     0
102
RTVSPropertyOp32
 70
     0
  0
XRECORD
  5
F75
102
{ACAD_REACTORS
330
F74
102
}
330
F74
100
AcDbXrecord
280
     1
102
RTVSPropertyOp0
 70
     1
102
RTVSPropertyOp1
 70
     1
102
RTVSPropertyOp2
 70
     1
102
RTVSPropertyOp3
 70
     1
102
RTVSPropertyOp4
 70
     1
102
RTVSPropertyOp5
 70
     1
102
RTVSPropertyOp6
 70
     1
102
RTVSPropertyOp7
 70
     1
102
RTVSPropertyOp8
 70
     1
102
RTVSPropertyOp9
 70
     1
102
RTVSPropertyOp10
 70
     1
102
RTVSPropertyOp11
 70
     1
102
RTVSPropertyOp12
 70
     1
102
RTVSPropertyOp13
 70
     1
102
RTVSPropertyOp14
 70
     1
102
RTVSPropertyOp15
 70
     1
102
RTVSPropertyOp16
 70
     1
102
RTVSPropertyOp17
 70
     1
102
RTVSPropertyOp18
 70
     1
102
RTVSPropertyOp19
 70
     1
102
RTVSPropertyOp20
 70
     1
102
RTVSPropertyOp21
 70
     1
102
RTVSPropertyOp22
 70
     1
102
RTVSPropertyOp23
 70
     1
102
RTVSPropertyOp24
 70
     1
102
RTVSPropertyOp25
 70
     1
102
RTVSPropertyOp26
 70
     1
102
RTVSPropertyOp27
 70
     1
102
RTVSPropertyOp28
 70
     1
102
RTVSPropertyOp29
 70
     1
102
RTVSPropertyOp30
 70
     1
102
RTVSPropertyOp31
 70
     1
102
RTVSPropertyOp32
 70
     1
  0
XRECORD
  5
F94
102
{ACAD_REACTORS
330
F93
102
}
330
F93
100
AcDbXrecord
280
     1
102
RTVSPropertyOp0
 70
     1
102
RTVSPropertyOp1
 70
     1
102
RTVSPropertyOp2
 70
     1
102
RTVSPropertyOp3
 70
     1
102
RTVSPropertyOp4
 70
     1
102
RTVSPropertyOp5
 70
     1
102
RTVSPropertyOp6
 70
     1
102
RTVSPropertyOp7
 70
     1
102
RTVSPropertyOp8
 70
     1
102
RTVSPropertyOp9
 70
     1
102
RTVSPropertyOp10
 70
     1
102
RTVSPropertyOp11
 70
     1
102
RTVSPropertyOp12
 70
     1
102
RTVSPropertyOp13
 70
     1
102
RTVSPropertyOp14
 70
     1
102
RTVSPropertyOp15
 70
     1
102
RTVSPropertyOp16
 70
     1
102
RTVSPropertyOp17
 70
     1
102
RTVSPropertyOp18
 70
     1
102
RTVSPropertyOp19
 70
     1
102
RTVSPropertyOp20
 70
     1
102
RTVSPropertyOp21
 70
     1
102
RTVSPropertyOp22
 70
     1
102
RTVSPropertyOp23
 70
     1
102
RTVSPropertyOp24
 70
     1
102
RTVSPropertyOp25
 70
     1
102
RTVSPropertyOp26
 70
     1
102
RTVSPropertyOp27
 70
     1
102
RTVSPropertyOp28
 70
     1
102
RTVSPropertyOp29
 70
     1
102
RTVSPropertyOp30
 70
     1
102
RTVSPropertyOp31
 70
     1
102
RTVSPropertyOp32
 70
     1
  0
XRECORD
  5
F92
102
{ACAD_REACTORS
330
F91
102
}
330
F91
100
AcDbXrecord
280
     1
102
RTVSPropertyOp0
 70
     1
102
RTVSPropertyOp1
 70
     1
102
RTVSPropertyOp2
 70
     1
102
RTVSPropertyOp3
 70
     1
102
RTVSPropertyOp4
 70
     1
102
RTVSPropertyOp5
 70
     1
102
RTVSPropertyOp6
 70
     1
102
RTVSPropertyOp7
 70
     1
102
RTVSPropertyOp8
 70
     1
102
RTVSPropertyOp9
 70
     1
102
RTVSPropertyOp10
 70
     1
102
RTVSPropertyOp11
 70
     1
102
RTVSPropertyOp12
 70
     1
102
RTVSPropertyOp13
 70
     1
102
RTVSPropertyOp14
 70
     1
102
RTVSPropertyOp15
 70
     1
102
RTVSPropertyOp16
 70
     1
102
RTVSPropertyOp17
 70
     1
102
RTVSPropertyOp18
 70
     1
102
RTVSPropertyOp19
 70
     1
102
RTVSPropertyOp20
 70
     1
102
RTVSPropertyOp21
 70
     1
102
RTVSPropertyOp22
 70
     1
102
RTVSPropertyOp23
 70
     1
102
RTVSPropertyOp24
 70
     1
102
RTVSPropertyOp25
 70
     1
102
RTVSPropertyOp26
 70
     1
102
RTVSPropertyOp27
 70
     1
102
RTVSPropertyOp28
 70
     1
102
RTVSPropertyOp29
 70
     1
102
RTVSPropertyOp30
 70
     1
102
RTVSPropertyOp31
 70
     1
102
RTVSPropertyOp32
 70
     1
  0
XRECORD
  5
F8C
102
{ACAD_REACTORS
330
F8B
102
}
330
F8B
100
AcDbXrecord
280
     1
102
RTVSPropertyOp0
 70
     1
102
RTVSPropertyOp1
 70
     1
102
RTVSPropertyOp2
 70
     1
102
RTVSPropertyOp3
 70
     1
102
RTVSPropertyOp4
 70
     1
102
RTVSPropertyOp5
 70
     1
102
RTVSPropertyOp6
 70
     1
102
RTVSPropertyOp7
 70
     1
102
RTVSPropertyOp8
 70
     1
102
RTVSPropertyOp9
 70
     1
102
RTVSPropertyOp10
 70
     1
102
RTVSPropertyOp11
 70
     1
102
RTVSPropertyOp12
 70
     1
102
RTVSPropertyOp13
 70
     1
102
RTVSPropertyOp14
 70
     1
102
RTVSPropertyOp15
 70
     1
102
RTVSPropertyOp16
 70
     1
102
RTVSPropertyOp17
 70
     1
102
RTVSPropertyOp18
 70
     1
102
RTVSPropertyOp19
 70
     1
102
RTVSPropertyOp20
 70
     1
102
RTVSPropertyOp21
 70
     1
102
RTVSPropertyOp22
 70
     1
102
RTVSPropertyOp23
 70
     1
102
RTVSPropertyOp24
 70
     1
102
RTVSPropertyOp25
 70
     1
102
RTVSPropertyOp26
 70
     1
102
RTVSPropertyOp27
 70
     1
102
RTVSPropertyOp28
 70
     1
102
RTVSPropertyOp29
 70
     1
102
RTVSPropertyOp30
 70
     1
102
RTVSPropertyOp31
 70
     1
102
RTVSPropertyOp32
 70
     1
  0
XRECORD
  5
F8E
102
{ACAD_REACTORS
330
F8D
102
}
330
F8D
100
AcDbXrecord
280
     1
102
RTVSPropertyOp0
 70
     1
102
RTVSPropertyOp1
 70
     1
102
RTVSPropertyOp2
 70
     1
102
RTVSPropertyOp3
 70
     1
102
RTVSPropertyOp4
 70
     1
102
RTVSPropertyOp5
 70
     1
102
RTVSPropertyOp6
 70
     1
102
RTVSPropertyOp7
 70
     1
102
RTVSPropertyOp8
 70
     1
102
RTVSPropertyOp9
 70
     1
102
RTVSPropertyOp10
 70
     1
102
RTVSPropertyOp11
 70
     1
102
RTVSPropertyOp12
 70
     1
102
RTVSPropertyOp13
 70
     1
102
RTVSPropertyOp14
 70
     1
102
RTVSPropertyOp15
 70
     1
102
RTVSPropertyOp16
 70
     1
102
RTVSPropertyOp17
 70
     1
102
RTVSPropertyOp18
 70
     1
102
RTVSPropertyOp19
 70
     1
102
RTVSPropertyOp20
 70
     1
102
RTVSPropertyOp21
 70
     1
102
RTVSPropertyOp22
 70
     1
102
RTVSPropertyOp23
 70
     1
102
RTVSPropertyOp24
 70
     1
102
RTVSPropertyOp25
 70
     1
102
RTVSPropertyOp26
 70
     1
102
RTVSPropertyOp27
 70
     1
102
RTVSPropertyOp28
 70
     1
102
RTVSPropertyOp29
 70
     1
102
RTVSPropertyOp30
 70
     1
102
RTVSPropertyOp31
 70
     1
102
RTVSPropertyOp32
 70
     1
  0
XRECORD
  5
F7B
102
{ACAD_REACTORS
330
F7A
102
}
330
F7A
100
AcDbXrecord
280
     1
102
RTVSPropertyOp0
 70
     1
102
RTVSPropertyOp1
 70
     1
102
RTVSPropertyOp2
 70
     1
102
RTVSPropertyOp3
 70
     1
102
RTVSPropertyOp4
 70
     1
102
RTVSPropertyOp5
 70
     1
102
RTVSPropertyOp6
 70
     1
102
RTVSPropertyOp7
 70
     1
102
RTVSPropertyOp8
 70
     1
102
RTVSPropertyOp9
 70
     1
102
RTVSPropertyOp10
 70
     1
102
RTVSPropertyOp11
 70
     1
102
RTVSPropertyOp12
 70
     1
102
RTVSPropertyOp13
 70
     1
102
RTVSPropertyOp14
 70
     1
102
RTVSPropertyOp15
 70
     1
102
RTVSPropertyOp16
 70
     1
102
RTVSPropertyOp17
 70
     1
102
RTVSPropertyOp18
 70
     1
102
RTVSPropertyOp19
 70
     1
102
RTVSPropertyOp20
 70
     1
102
RTVSPropertyOp21
 70
     1
102
RTVSPropertyOp22
 70
     1
102
RTVSPropertyOp23
 70
     1
102
RTVSPropertyOp24
 70
     1
102
RTVSPropertyOp25
 70
     1
102
RTVSPropertyOp26
 70
     1
102
RTVSPropertyOp27
 70
     1
102
RTVSPropertyOp28
 70
     1
102
RTVSPropertyOp29
 70
     1
102
RTVSPropertyOp30
 70
     1
102
RTVSPropertyOp31
 70
     1
102
RTVSPropertyOp32
 70
     1
  0
XRECORD
  5
F88
102
{ACAD_REACTORS
330
F87
102
}
330
F87
100
AcDbXrecord
280
     1
102
RTVSPropertyOp0
 70
     1
102
RTVSPropertyOp1
 70
     1
102
RTVSPropertyOp2
 70
     1
102
RTVSPropertyOp3
 70
     1
102
RTVSPropertyOp4
 70
     1
102
RTVSPropertyOp5
 70
     1
102
RTVSPropertyOp6
 70
     1
102
RTVSPropertyOp7
 70
     1
102
RTVSPropertyOp8
 70
     1
102
RTVSPropertyOp9
 70
     1
102
RTVSPropertyOp10
 70
     1
102
RTVSPropertyOp11
 70
     1
102
RTVSPropertyOp12
 70
     1
102
RTVSPropertyOp13
 70
     1
102
RTVSPropertyOp14
 70
     1
102
RTVSPropertyOp15
 70
     1
102
RTVSPropertyOp16
 70
     1
102
RTVSPropertyOp17
 70
     1
102
RTVSPropertyOp18
 70
     1
102
RTVSPropertyOp19
 70
     1
102
RTVSPropertyOp20
 70
     1
102
RTVSPropertyOp21
 70
     1
102
RTVSPropertyOp22
 70
     1
102
RTVSPropertyOp23
 70
     1
102
RTVSPropertyOp24
 70
     1
102
RTVSPropertyOp25
 70
     1
102
RTVSPropertyOp26
 70
     1
102
RTVSPropertyOp27
 70
     1
102
RTVSPropertyOp28
 70
     1
102
RTVSPropertyOp29
 70
     1
102
RTVSPropertyOp30
 70
     1
102
RTVSPropertyOp31
 70
     1
102
RTVSPropertyOp32
 70
     1
  0
XRECORD
  5
F90
102
{ACAD_REACTORS
330
F8F
102
}
330
F8F
100
AcDbXrecord
280
     1
102
RTVSPropertyOp0
 70
     1
102
RTVSPropertyOp1
 70
     1
102
RTVSPropertyOp2
 70
     1
102
RTVSPropertyOp3
 70
     1
102
RTVSPropertyOp4
 70
     1
102
RTVSPropertyOp5
 70
     1
102
RTVSPropertyOp6
 70
     1
102
RTVSPropertyOp7
 70
     1
102
RTVSPropertyOp8
 70
     1
102
RTVSPropertyOp9
 70
     1
102
RTVSPropertyOp10
 70
     1
102
RTVSPropertyOp11
 70
     1
102
RTVSPropertyOp12
 70
     1
102
RTVSPropertyOp13
 70
     1
102
RTVSPropertyOp14
 70
     1
102
RTVSPropertyOp15
 70
     1
102
RTVSPropertyOp16
 70
     1
102
RTVSPropertyOp17
 70
     1
102
RTVSPropertyOp18
 70
     1
102
RTVSPropertyOp19
 70
     1
102
RTVSPropertyOp20
 70
     1
102
RTVSPropertyOp21
 70
     1
102
RTVSPropertyOp22
 70
     1
102
RTVSPropertyOp23
 70
     1
102
RTVSPropertyOp24
 70
     1
102
RTVSPropertyOp25
 70
     1
102
RTVSPropertyOp26
 70
     1
102
RTVSPropertyOp27
 70
     1
102
RTVSPropertyOp28
 70
     1
102
RTVSPropertyOp29
 70
     1
102
RTVSPropertyOp30
 70
     1
102
RTVSPropertyOp31
 70
     1
102
RTVSPropertyOp32
 70
     1
  0
ENDSEC
  0
EOF
