  0
SECTION
  2
HEADER
  9
$ACADVER
  1
AC1015
  9
$ACADMAINTVER
 70
    20
  9
$DWGCODEPAGE
  3
ANSI_932
  9
$INSBASE
 10
0.0
 20
0.0
 30
0.0
  9
$EXTMIN
 10
18.340733
 20
-703.2557970291058
 30
0.0
  9
$EXTMAX
 10
725.1306964996305
 20
-287.0726627502539
 30
0.0
  9
$LIMMIN
 10
18.339733
 20
-628.3435289999999
  9
$LIMMAX
 10
423.367608
 20
-354.265296
  9
$ORTHOMODE
 70
     1
  9
$REGENMODE
 70
     1
  9
$FILLMODE
 70
     1
  9
$QTEXTMODE
 70
     0
  9
$MIRRTEXT
 70
     0
  9
$LTSCALE
 40
6.750430999999997
  9
$ATTMODE
 70
     1
  9
$TEXTSIZE
 40
0.2
  9
$TRACEWID
 40
0.05
  9
$TEXTSTYLE
  7
高2.5
  9
$CLAYER
  8
0
  9
$CELTYPE
  6
CONTINUOUS
  9
$CECOLOR
 62
   256
  9
$CELTSCALE
 40
1.0
  9
$DISPSILH
 70
     0
  9
$DIMSCALE
 40
1.0
  9
$DIMASZ
 40
2.5
  9
$DIMEXO
 40
0.25
  9
$DIMDLI
 40
0.2
  9
$DIMRND
 40
0.0
  9
$DIMDLE
 40
0.0
  9
$DIMEXE
 40
1.25
  9
$DIMTP
 40
0.0
  9
$DIMTM
 40
0.0
  9
$DIMTXT
 40
3.0
  9
$DIMCEN
 40
0.0
  9
$DIMTSZ
 40
0.0
  9
$DIMTOL
 70
     0
  9
$DIMLIM
 70
     0
  9
$DIMTIH
 70
     0
  9
$DIMTOH
 70
     0
  9
$DIMSE1
 70
     0
  9
$DIMSE2
 70
     0
  9
$DIMTAD
 70
     3
  9
$DIMZIN
 70
     8
  9
$DIMBLK
  1
Open30
  9
$DIMASO
 70
     1
  9
$DIMSHO
 70
     1
  9
$DIMPOST
  1

  9
$DIMAPOST
  1

  9
$DIMALT
 70
     0
  9
$DIMALTD
 70
     3
  9
$DIMALTF
 40
0.03937007874016
  9
$DIMLFAC
 40
2.0
  9
$DIMTOFL
 70
     1
  9
$DIMTVP
 40
0.0
  9
$DIMTIX
 70
     0
  9
$DIMSOXD
 70
     0
  9
$DIMSAH
 70
     0
  9
$DIMBLK1
  1

  9
$DIMBLK2
  1

  9
$DIMSTYLE
  2
1／2
  9
$DIMCLRD
 70
     0
  9
$DIMCLRE
 70
     0
  9
$DIMCLRT
 70
     4
  9
$DIMTFAC
 40
1.0
  9
$DIMGAP
 40
0.625
  9
$DIMJUST
 70
     0
  9
$DIMSD1
 70
     0
  9
$DIMSD2
 70
     0
  9
$DIMTOLJ
 70
     0
  9
$DIMTZIN
 70
     8
  9
$DIMALTZ
 70
     0
  9
$DIMALTTZ
 70
     0
  9
$DIMUPT
 70
     1
  9
$DIMDEC
 70
     2
  9
$DIMTDEC
 70
     2
  9
$DIMALTU
 70
     2
  9
$DIMALTTD
 70
     3
  9
$DIMTXSTY
  7
STANDARD
  9
$DIMAUNIT
 70
     0
  9
$DIMADEC
 70
     1
  9
$DIMALTRND
 40
0.0
  9
$DIMAZIN
 70
     2
  9
$DIMDSEP
 70
    46
  9
$DIMATFIT
 70
     0
  9
$DIMFRAC
 70
     0
  9
$DIMLDRBLK
  1
Open30
  9
$DIMLUNIT
 70
     2
  9
$DIMLWD
 70
    -2
  9
$DIMLWE
 70
    -2
  9
$DIMTMOVE
 70
     0
  9
$LUNITS
 70
     2
  9
$LUPREC
 70
     4
  9
$SKETCHINC
 40
0.1
  9
$FILLETRAD
 40
3.5
  9
$AUNITS
 70
     0
  9
$AUPREC
 70
     0
  9
$MENU
  1
.
  9
$ELEVATION
 40
0.0
  9
$PELEVATION
 40
0.0
  9
$THICKNESS
 40
0.0
  9
$LIMCHECK
 70
     0
  9
$CHAMFERA
 40
0.0
  9
$CHAMFERB
 40
0.0
  9
$CHAMFERC
 40
0.0
  9
$CHAMFERD
 40
0.0
  9
$SKPOLY
 70
     0
  9
$TDCREATE
 40
2455825.666333727
  9
$TDUCREATE
 40
2455825.291333727
  9
$TDUPDATE
 40
2458541.845958194
  9
$TDUUPDATE
 40
2458541.470958194
  9
$TDINDWG
 40
0.2370021528
  9
$TDUSRTIMER
 40
0.2369863889
  9
$USRTIMER
 70
     1
  9
$ANGBASE
 50
0.0
  9
$ANGDIR
 70
     0
  9
$PDMODE
 70
     0
  9
$PDSIZE
 40
0.0
  9
$PLINEWID
 40
0.0
  9
$SPLFRAME
 70
     0
  9
$SPLINETYPE
 70
     6
  9
$SPLINESEGS
 70
     8
  9
$HANDSEED
  5
1034
  9
$SURFTAB1
 70
     6
  9
$SURFTAB2
 70
     6
  9
$SURFTYPE
 70
     6
  9
$SURFU
 70
     6
  9
$SURFV
 70
     6
  9
$UCSBASE
  2

  9
$UCSNAME
  2

  9
$UCSORG
 10
0.0
 20
0.0
 30
0.0
  9
$UCSXDIR
 10
1.0
 20
0.0
 30
0.0
  9
$UCSYDIR
 10
0.0
 20
1.0
 30
0.0
  9
$UCSORTHOREF
  2

  9
$UCSORTHOVIEW
 70
     0
  9
$UCSORGTOP
 10
0.0
 20
0.0
 30
0.0
  9
$UCSORGBOTTOM
 10
0.0
 20
0.0
 30
0.0
  9
$UCSORGLEFT
 10
0.0
 20
0.0
 30
0.0
  9
$UCSORGRIGHT
 10
0.0
 20
0.0
 30
0.0
  9
$UCSORGFRONT
 10
0.0
 20
0.0
 30
0.0
  9
$UCSORGBACK
 10
0.0
 20
0.0
 30
0.0
  9
$PUCSBASE
  2

  9
$PUCSNAME
  2

  9
$PUCSORG
 10
0.0
 20
0.0
 30
0.0
  9
$PUCSXDIR
 10
1.0
 20
0.0
 30
0.0
  9
$PUCSYDIR
 10
0.0
 20
1.0
 30
0.0
  9
$PUCSORTHOREF
  2

  9
$PUCSORTHOVIEW
 70
     0
  9
$PUCSORGTOP
 10
0.0
 20
0.0
 30
0.0
  9
$PUCSORGBOTTOM
 10
0.0
 20
0.0
 30
0.0
  9
$PUCSORGLEFT
 10
0.0
 20
0.0
 30
0.0
  9
$PUCSORGRIGHT
 10
0.0
 20
0.0
 30
0.0
  9
$PUCSORGFRONT
 10
0.0
 20
0.0
 30
0.0
  9
$PUCSORGBACK
 10
0.0
 20
0.0
 30
0.0
  9
$USERI1
 70
     0
  9
$USERI2
 70
     0
  9
$USERI3
 70
     0
  9
$USERI4
 70
     0
  9
$USERI5
 70
     0
  9
$USERR1
 40
0.0
  9
$USERR2
 40
0.0
  9
$USERR3
 40
0.0
  9
$USERR4
 40
0.0
  9
$USERR5
 40
0.0
  9
$WORLDVIEW
 70
     1
  9
$SHADEDGE
 70
     3
  9
$SHADEDIF
 70
    70
  9
$TILEMODE
 70
     1
  9
$MAXACTVP
 70
    64
  9
$PINSBASE
 10
0.0
 20
0.0
 30
0.0
  9
$PLIMCHECK
 70
     0
  9
$PEXTMIN
 10
1.000000000000000E+20
 20
1.000000000000000E+20
 30
1.000000000000000E+20
  9
$PEXTMAX
 10
-1.000000000000000E+20
 20
-1.000000000000000E+20
 30
-1.000000000000000E+20
  9
$PLIMMIN
 10
0.0
 20
0.0
  9
$PLIMMAX
 10
12.0
 20
9.0
  9
$UNITMODE
 70
     0
  9
$VISRETAIN
 70
     1
  9
$PLINEGEN
 70
     0
  9
$PSLTSCALE
 70
     1
  9
$TREEDEPTH
 70
  3020
  9
$CMLSTYLE
  2
Standard
  9
$CMLJUST
 70
     0
  9
$CMLSCALE
 40
1.0
  9
$PROXYGRAPHICS
 70
     1
  9
$MEASUREMENT
 70
     0
  9
$CELWEIGHT
370
    -1
  9
$ENDCAPS
280
     0
  9
$JOINSTYLE
280
     0
  9
$LWDISPLAY
290
     0
  9
$INSUNITS
 70
     0
  9
$HYPERLINKBASE
  1

  9
$STYLESHEET
  1
COLOR.CTB
  9
$XEDIT
290
     1
  9
$CEPSNTYPE
380
     0
  9
$PSTYLEMODE
290
     1
  9
$FINGERPRINTGUID
  2
{F5F6CD09-B7F6-4C99-8524-D65C662E9A44}
  9
$VERSIONGUID
  2
{4F5B4316-81AB-410A-969B-29352E73D4A9}
  9
$EXTNAMES
290
     1
  9
$PSVPSCALE
 40
0.0
  9
$OLESTARTUP
290
     0
  0
ENDSEC
  0
SECTION
  2
CLASSES
  0
CLASS
  1
ACDBDICTIONARYWDFLT
  2
AcDbDictionaryWithDefault
  3
ObjectDBX Classes
 90
        0
280
     0
281
     0
  0
CLASS
  1
MATERIAL
  2
AcDbMaterial
  3
ObjectDBX Classes
 90
     1153
280
     0
281
     0
  0
CLASS
  1
VISUALSTYLE
  2
AcDbVisualStyle
  3
ObjectDBX Classes
 90
     4095
280
     0
281
     0
  0
CLASS
  1
TABLESTYLE
  2
AcDbTableStyle
  3
ObjectDBX Classes
 90
     4095
280
     0
281
     0
  0
CLASS
  1
DICTIONARYVAR
  2
AcDbDictionaryVar
  3
ObjectDBX Classes
 90
        0
280
     0
281
     0
  0
CLASS
  1
ACDBPLACEHOLDER
  2
AcDbPlaceHolder
  3
ObjectDBX Classes
 90
        0
280
     0
281
     0
  0
CLASS
  1
LAYOUT
  2
AcDbLayout
  3
ObjectDBX Classes
 90
        0
280
     0
281
     0
  0
CLASS
  1
SCALE
  2
AcDbScale
  3
ObjectDBX Classes
 90
     1153
280
     0
281
     0
  0
CLASS
  1
MLEADERSTYLE
  2
AcDbMLeaderStyle
  3
ACDB_MLEADERSTYLE_CLASS
 90
     4095
280
     0
281
     0
  0
CLASS
  1
SORTENTSTABLE
  2
AcDbSortentsTable
  3
ObjectDBX Classes
 90
        0
280
     0
281
     0
  0
CLASS
  1
CELLSTYLEMAP
  2
AcDbCellStyleMap
  3
ObjectDBX Classes
 90
     1152
280
     0
281
     0
  0
CLASS
  1
AEC_REFEDIT_STATUS_TRACKER
  2
AecDbRefEditStatusTracker
  3
AecArchBase60|Product Desc: Autodesk Architectural Desktop 2007 |Company: Autodesk,Inc. |WEB Address: www.autodesk.com
 90
      129
280
     0
281
     0
  0
CLASS
  1
NPOCOLLECTION
  2
AcDbImpNonPersistentObjectsCollection
  3
ObjectDBX Classes
 90
     1153
280
     0
281
     0
  0
CLASS
  1
DIMASSOC
  2
AcDbDimAssoc
  3
"AcDbDimAssoc|Product Desc:     AcDim ARX App For Dimension|Company:          Autodesk, Inc.|WEB Address:      www.autodesk.com"
 90
        0
280
     0
281
     0
  0
ENDSEC
  0
SECTION
  2
TABLES
  0
TABLE
  2
VPORT
  5
8
330
0
100
AcDbSymbolTable
 70
     1
  0
VPORT
  5
57
330
8
100
AcDbSymbolTableRecord
100
AcDbViewportTableRecord
  2
*Active
 70
     0
 10
0.0
 20
0.0
 11
1.0
 21
1.0
 12
315.2731496662338
 22
-521.466396651358
 13
0.0
 23
0.0
 14
1.0
 24
1.0
 15
0.0
 25
0.0
 16
0.0
 26
0.0
 36
1.0
 17
0.0
 27
0.0
 37
0.0
 40
542.4946097122841
 41
1.557377049180327
 42
50.0
 43
0.0
 44
0.0
 50
0.0
 51
0.0
 71
     0
 72
   100
 73
     1
 74
     1
 75
     0
 76
     0
 77
     0
 78
     0
281
     0
 65
     1
110
0.0
120
0.0
130
0.0
111
1.0
121
0.0
131
0.0
112
0.0
122
1.0
132
0.0
 79
     0
146
0.0
  0
ENDTAB
  0
TABLE
  2
LTYPE
  5
5
330
0
100
AcDbSymbolTable
 70
     4
  0
LTYPE
  5
28
330
5
100
AcDbSymbolTableRecord
100
AcDbLinetypeTableRecord
  2
ByBlock
 70
     0
  3

 72
    65
 73
     0
 40
0.0
  0
LTYPE
  5
29
330
5
100
AcDbSymbolTableRecord
100
AcDbLinetypeTableRecord
  2
ByLayer
 70
     0
  3

 72
    65
 73
     0
 40
0.0
  0
LTYPE
  5
2A
330
5
100
AcDbSymbolTableRecord
100
AcDbLinetypeTableRecord
  2
CONTINUOUS
 70
     0
  3
Solid-line
 72
    65
 73
     0
 40
0.0
  0
LTYPE
  5
3D
330
5
100
AcDbSymbolTableRecord
100
AcDbLinetypeTableRecord
  2
CENTER
 70
     0
  3
CENTER
 72
    65
 73
     4
 40
2.0
 49
1.25
 74
     0
 49
-0.25
 74
     0
 49
0.25
 74
     0
 49
-0.25
 74
     0
  0
ENDTAB
  0
TABLE
  2
LAYER
  5
2
102
{ACAD_XDICTIONARY
360
42C
102
}
330
0
100
AcDbSymbolTable
 70
     2
  0
LAYER
  5
25
102
{ACAD_XDICTIONARY
360
600
102
}
330
2
100
AcDbSymbolTableRecord
100
AcDbLayerTableRecord
  2
0
 70
     0
 62
     7
  6
CONTINUOUS
370
    -3
390
F
  0
LAYER
  5
416
330
2
100
AcDbSymbolTableRecord
100
AcDbLayerTableRecord
  2
Defpoints
 70
     0
 62
     7
  6
CONTINUOUS
290
     0
370
    -3
390
F
  0
ENDTAB
  0
TABLE
  2
STYLE
  5
3
330
0
100
AcDbSymbolTable
 70
     6
  0
STYLE
  5
26
330
3
100
AcDbSymbolTableRecord
100
AcDbTextStyleTableRecord
  2
STANDARD
 70
     0
 40
0.0
 41
1.0
 50
0.0
 71
     0
 42
0.2
  3
TXT
  4
BIGFONT
  0
STYLE
  5
417
330
3
100
AcDbSymbolTableRecord
100
AcDbTextStyleTableRecord
  2
高3.2
 70
     0
 40
3.2
 41
1.0
 50
0.0
 71
     0
 42
3.2
  3
txt.shx
  4
bigfont.shx
  0
STYLE
  5
418
330
3
100
AcDbSymbolTableRecord
100
AcDbTextStyleTableRecord
  2
高6.3
 70
     0
 40
6.299999999999998
 41
1.0
 50
0.0
 71
     0
 42
6.299999999999998
  3
txt.shx
  4
bigfont.shx
  0
STYLE
  5
41A
330
3
100
AcDbSymbolTableRecord
100
AcDbTextStyleTableRecord
  2
高4.5
 70
     0
 40
4.5
 41
1.0
 50
0.0
 71
     0
 42
6.299999999999998
  3
txt.shx
  4
bigfont.shx
  0
STYLE
  5
41B
330
3
100
AcDbSymbolTableRecord
100
AcDbTextStyleTableRecord
  2
高2
 70
     0
 40
2.0
 41
1.0
 50
0.0
 71
     0
 42
2.0
  3
txt.shx
  4
bigfont.shx
  0
STYLE
  5
9B6
330
3
100
AcDbSymbolTableRecord
100
AcDbTextStyleTableRecord
  2
高2.5
 70
     0
 40
2.5
 41
1.0
 50
0.0
 71
     0
 42
0.2
  3
txt.shx
  4
bigfont.shx
  0
ENDTAB
  0
TABLE
  2
VIEW
  5
6
330
0
100
AcDbSymbolTable
 70
     0
  0
ENDTAB
  0
TABLE
  2
UCS
  5
7
330
0
100
AcDbSymbolTable
 70
     0
  0
ENDTAB
  0
TABLE
  2
APPID
  5
9
330
0
100
AcDbSymbolTable
 70
    10
  0
APPID
  5
27
330
9
100
AcDbSymbolTableRecord
100
AcDbRegAppTableRecord
  2
ACAD
 70
     0
  0
APPID
  5
426
330
9
100
AcDbSymbolTableRecord
100
AcDbRegAppTableRecord
  2
ACAD_DSTYLE_DIMJOGGED_JOGANGLE_SYMBOL
 70
     0
  0
APPID
  5
427
330
9
100
AcDbSymbolTableRecord
100
AcDbRegAppTableRecord
  2
ACAD_DSTYLE_DIMJAG
 70
     0
  0
APPID
  5
428
330
9
100
AcDbSymbolTableRecord
100
AcDbRegAppTableRecord
  2
ACAD_DSTYLE_DIMBREAK
 70
     0
  0
APPID
  5
429
330
9
100
AcDbSymbolTableRecord
100
AcDbRegAppTableRecord
  2
ACAD_DSTYLE_DIMTALN
 70
     0
  0
APPID
  5
56D
330
9
100
AcDbSymbolTableRecord
100
AcDbRegAppTableRecord
  2
ACAD_EXEMPT_FROM_CAD_STANDARDS
 70
     0
  0
APPID
  5
646
330
9
100
AcDbSymbolTableRecord
100
AcDbRegAppTableRecord
  2
ACAD_MLEADERVER
 70
     0
  0
APPID
  5
647
330
9
100
AcDbSymbolTableRecord
100
AcDbRegAppTableRecord
  2
ACAD_DSTYLE_DIMARC_LENGTH_SYMBOL
 70
     0
  0
APPID
  5
648
330
9
100
AcDbSymbolTableRecord
100
AcDbRegAppTableRecord
  2
ACAD_DSTYLE_DIMEXT_LENGTH
 70
     0
  0
APPID
  5
718
330
9
100
AcDbSymbolTableRecord
100
AcDbRegAppTableRecord
  2
ACAD_PSEXT
 70
     0
  0
ENDTAB
  0
TABLE
  2
DIMSTYLE
  5
A
330
0
100
AcDbSymbolTable
 70
    13
100
AcDbDimStyleTable
 71
     3
340
9BB
340
425
340
344
  0
DIMSTYLE
105
344
330
A
100
AcDbSymbolTableRecord
100
AcDbDimStyleTableRecord
  2
Standard
 70
     0
340
26
  0
DIMSTYLE
105
425
330
A
100
AcDbSymbolTableRecord
100
AcDbDimStyleTableRecord
  2
FREE
 70
     0
 41
2.5
 42
0.25
 43
0.2
 44
1.25
 73
     0
 74
     0
 77
     3
 78
     8
 79
     2
140
3.0
141
0.0
143
0.03937007874016
147
0.625
171
     3
172
     1
178
     4
179
     1
271
     2
272
     2
274
     3
283
     0
284
     8
288
     1
289
     0
340
26
341
386
342
386
1001
ACAD_DSTYLE_DIMBREAK
1070
   391
1040
3.75
1001
ACAD_DSTYLE_DIMJAG
1070
   388
1040
1.5
1001
ACAD_DSTYLE_DIMTALN
1070
   392
1070
     0
1001
ACAD_DSTYLE_DIMARC_LENGTH_SYMBOL
1070
   379
1070
     2
1001
ACAD_DSTYLE_DIMEXT_LENGTH
1070
   378
1040
1.25
1001
ACAD_DSTYLE_DIMJOGGED_JOGANGLE_SYMBOL
1070
   384
1040
1.570796326794896
  0
DIMSTYLE
105
9B7
102
{ACAD_REACTORS
330
9C3
102
}
330
A
100
AcDbSymbolTableRecord
100
AcDbDimStyleTableRecord
  2
1：1
 70
     0
 41
2.5
 42
0.25
 43
0.2
 44
1.25
 73
     0
 74
     0
 77
     3
 78
     8
 79
     2
140
3.0
141
0.0
143
0.03937007874016
147
0.625
171
     3
172
     1
178
     4
179
     1
271
     2
272
     2
274
     3
283
     0
284
     8
288
     1
289
     0
340
26
341
386
342
386
1001
ACAD_DSTYLE_DIMARC_LENGTH_SYMBOL
1070
   379
1070
     2
1001
ACAD_DSTYLE_DIMEXT_LENGTH
1070
   378
1040
1.25
1001
ACAD_DSTYLE_DIMJOGGED_JOGANGLE_SYMBOL
1070
   384
1040
1.570796326794896
  0
DIMSTYLE
105
9B8
102
{ACAD_REACTORS
330
9C8
102
}
330
A
100
AcDbSymbolTableRecord
100
AcDbDimStyleTableRecord
  2
2：1
 70
     0
 41
2.5
 42
0.25
 43
0.2
 44
1.25
 73
     0
 74
     0
 77
     3
 78
     8
 79
     2
140
3.0
141
0.0
143
0.03937007874016
144
0.5
147
0.625
171
     3
172
     1
178
     4
179
     1
271
     2
272
     2
274
     3
283
     0
284
     8
288
     1
289
     0
340
26
341
386
342
386
1001
ACAD_DSTYLE_DIMARC_LENGTH_SYMBOL
1070
   379
1070
     2
1001
ACAD_DSTYLE_DIMEXT_LENGTH
1070
   378
1040
1.25
1001
ACAD_DSTYLE_DIMJOGGED_JOGANGLE_SYMBOL
1070
   384
1040
1.570796326794896
  0
DIMSTYLE
105
9B9
102
{ACAD_REACTORS
330
9C9
102
}
330
A
100
AcDbSymbolTableRecord
100
AcDbDimStyleTableRecord
  2
5：1
 70
     0
 41
2.5
 42
0.25
 43
0.2
 44
1.25
 73
     0
 74
     0
 77
     3
 78
     8
 79
     2
140
3.0
141
0.0
143
0.03937007874016
144
0.2
147
0.625
171
     3
172
     1
178
     4
179
     1
271
     2
272
     2
274
     3
283
     0
284
     8
288
     1
289
     0
340
26
341
386
342
386
1001
ACAD_DSTYLE_DIMARC_LENGTH_SYMBOL
1070
   379
1070
     2
1001
ACAD_DSTYLE_DIMEXT_LENGTH
1070
   378
1040
1.25
1001
ACAD_DSTYLE_DIMJOGGED_JOGANGLE_SYMBOL
1070
   384
1040
1.570796326794896
  0
DIMSTYLE
105
9BA
102
{ACAD_REACTORS
330
9C7
102
}
330
A
100
AcDbSymbolTableRecord
100
AcDbDimStyleTableRecord
  2
10：1
 70
     0
 41
2.5
 42
0.25
 43
0.2
 44
1.25
 73
     0
 74
     0
 77
     3
 78
     8
 79
     2
140
3.0
141
0.0
143
0.03937007874016
144
0.1
147
0.625
171
     3
172
     1
178
     4
179
     1
271
     2
272
     2
274
     3
283
     0
284
     8
288
     1
289
     0
340
26
341
386
342
386
1001
ACAD_DSTYLE_DIMARC_LENGTH_SYMBOL
1070
   379
1070
     2
1001
ACAD_DSTYLE_DIMEXT_LENGTH
1070
   378
1040
1.25
1001
ACAD_DSTYLE_DIMJOGGED_JOGANGLE_SYMBOL
1070
   384
1040
1.570796326794896
  0
DIMSTYLE
105
9BB
102
{ACAD_REACTORS
330
9C5
102
}
330
A
100
AcDbSymbolTableRecord
100
AcDbDimStyleTableRecord
  2
1／2
 70
     0
 41
2.5
 42
0.25
 43
0.2
 44
1.25
 73
     0
 74
     0
 77
     3
 78
     8
 79
     2
140
3.0
141
0.0
143
0.03937007874016
144
2.0
147
0.625
171
     3
172
     1
178
     4
179
     1
271
     2
272
     2
274
     3
283
     0
284
     8
288
     1
289
     0
340
26
341
386
342
386
1001
ACAD_DSTYLE_DIMARC_LENGTH_SYMBOL
1070
   379
1070
     2
1001
ACAD_DSTYLE_DIMEXT_LENGTH
1070
   378
1040
1.25
1001
ACAD_DSTYLE_DIMJOGGED_JOGANGLE_SYMBOL
1070
   384
1040
1.570796326794896
  0
DIMSTYLE
105
9BC
102
{ACAD_REACTORS
330
9C4
102
}
330
A
100
AcDbSymbolTableRecord
100
AcDbDimStyleTableRecord
  2
1／5
 70
     0
 41
2.5
 42
0.25
 43
0.2
 44
1.25
 73
     0
 74
     0
 77
     3
 78
     8
 79
     2
140
3.0
141
0.0
143
0.03937007874016
144
5.0
147
0.625
171
     3
172
     1
178
     4
179
     1
271
     2
272
     2
274
     3
283
     0
284
     8
288
     1
289
     0
340
26
341
386
342
386
1001
ACAD_DSTYLE_DIMARC_LENGTH_SYMBOL
1070
   379
1070
     2
1001
ACAD_DSTYLE_DIMEXT_LENGTH
1070
   378
1040
1.25
1001
ACAD_DSTYLE_DIMJOGGED_JOGANGLE_SYMBOL
1070
   384
1040
1.570796326794896
  0
DIMSTYLE
105
9BD
102
{ACAD_REACTORS
330
9C6
102
}
330
A
100
AcDbSymbolTableRecord
100
AcDbDimStyleTableRecord
  2
1／10
 70
     0
 41
2.5
 42
0.25
 43
0.2
 44
1.25
 73
     0
 74
     0
 77
     3
 78
     8
 79
     2
140
3.0
141
0.0
143
0.03937007874016
144
10.0
147
0.625
171
     3
172
     1
178
     4
179
     1
271
     2
272
     2
274
     3
283
     0
284
     8
288
     1
289
     0
340
26
341
386
342
386
1001
ACAD_DSTYLE_DIMARC_LENGTH_SYMBOL
1070
   379
1070
     2
1001
ACAD_DSTYLE_DIMEXT_LENGTH
1070
   378
1040
1.25
1001
ACAD_DSTYLE_DIMJOGGED_JOGANGLE_SYMBOL
1070
   384
1040
1.570796326794896
  0
DIMSTYLE
105
9BE
102
{ACAD_REACTORS
330
9CA
102
}
330
A
100
AcDbSymbolTableRecord
100
AcDbDimStyleTableRecord
  2
1／4
 70
     0
 41
2.5
 42
0.25
 43
0.2
 44
1.25
 73
     0
 74
     0
 77
     3
 78
     8
 79
     2
140
3.0
141
0.0
143
0.03937007874016
144
4.0
147
0.625
171
     3
172
     1
178
     4
179
     1
271
     2
272
     2
274
     3
283
     0
284
     8
288
     1
289
     0
340
26
341
386
342
386
1001
ACAD_DSTYLE_DIMARC_LENGTH_SYMBOL
1070
   379
1070
     2
1001
ACAD_DSTYLE_DIMEXT_LENGTH
1070
   378
1040
1.25
1001
ACAD_DSTYLE_DIMJOGGED_JOGANGLE_SYMBOL
1070
   384
1040
1.570796326794896
  0
DIMSTYLE
105
9BF
102
{ACAD_REACTORS
330
9CB
102
}
330
A
100
AcDbSymbolTableRecord
100
AcDbDimStyleTableRecord
  2
1／3
 70
     0
 41
2.5
 42
0.25
 43
0.2
 44
1.25
 73
     0
 74
     0
 77
     3
 78
     8
 79
     2
140
3.0
141
0.0
143
0.03937007874016
144
3.0
147
0.625
171
     3
172
     1
178
     4
179
     1
271
     2
272
     2
274
     3
283
     0
284
     8
288
     1
289
     0
340
26
341
386
342
386
1001
ACAD_DSTYLE_DIMARC_LENGTH_SYMBOL
1070
   379
1070
     2
1001
ACAD_DSTYLE_DIMEXT_LENGTH
1070
   378
1040
1.25
1001
ACAD_DSTYLE_DIMJOGGED_JOGANGLE_SYMBOL
1070
   384
1040
1.570796326794896
  0
DIMSTYLE
105
BAA
102
{ACAD_REACTORS
330
BD7
102
}
330
A
100
AcDbSymbolTableRecord
100
AcDbDimStyleTableRecord
  2
1：1S
 70
     0
 41
1.0
 42
0.25
 43
0.2
 44
0.5
 73
     0
 74
     0
 77
     3
 78
     8
 79
     2
140
1.0
141
0.0
143
0.03937007874016
147
0.625
171
     3
172
     1
178
     4
179
     1
271
     2
272
     2
274
     3
283
     0
284
     8
288
     1
289
     0
340
26
341
386
342
386
1001
ACAD_DSTYLE_DIMBREAK
1070
   391
1040
3.75
1001
ACAD_DSTYLE_DIMJAG
1070
   388
1040
1.5
1001
ACAD_DSTYLE_DIMTALN
1070
   392
1070
     0
1001
ACAD_DSTYLE_DIMARC_LENGTH_SYMBOL
1070
   379
1070
     2
1001
ACAD_DSTYLE_DIMEXT_LENGTH
1070
   378
1040
1.25
1001
ACAD_DSTYLE_DIMJOGGED_JOGANGLE_SYMBOL
1070
   384
1040
1.570796326794896
  0
ENDTAB
  0
TABLE
  2
BLOCK_RECORD
  5
1
330
0
100
AcDbSymbolTable
 70
    61
  0
BLOCK_RECORD
  5
36
102
{ACAD_XDICTIONARY
360
5D2
102
}
330
1
100
AcDbSymbolTableRecord
100
AcDbBlockTableRecord
  2
*Model_Space
340
39
  0
BLOCK_RECORD
  5
32
330
1
100
AcDbSymbolTableRecord
100
AcDbBlockTableRecord
  2
*Paper_Space
340
35
  0
BLOCK_RECORD
  5
386
330
1
100
AcDbSymbolTableRecord
100
AcDbBlockTableRecord
  2
_Open30
340
0
102
{BLKREFS
331
8CC
331
8CD
331
8D5
331
8D6
331
8DE
331
8DF
331
902
331
903
331
90B
331
90C
331
914
331
915
331
933
331
934
331
941
331
942
331
94F
331
950
331
95D
331
95E
331
96B
331
96C
331
979
331
97A
331
987
331
988
331
995
331
996
331
9A3
331
9A4
331
9AF
331
9B0
331
A6C
331
A6D
331
A77
331
A78
331
A82
331
A83
331
A8D
331
A8E
331
A98
331
A99
331
AA3
331
AA4
331
AAE
331
AAF
331
AB9
331
ABA
331
AC4
331
AC5
331
ACD
331
ACE
331
B0B
331
B0C
331
B17
331
B18
331
B25
331
B26
331
B31
331
B32
331
B3D
331
B3E
331
B4B
331
B4C
331
B59
331
B5A
331
B65
331
B66
331
B71
331
B72
331
B7F
331
B80
331
B97
331
B98
331
BA3
331
BA4
331
B8B
331
B8C
331
D04
331
D05
331
D0D
331
D0E
331
D18
331
D19
331
D24
331
D25
331
D30
331
D31
331
D3B
331
D3C
331
D46
331
D47
331
D4F
331
D50
331
D58
331
D59
331
D63
331
D64
331
D6C
331
D6D
331
D75
331
D76
331
D81
331
D82
331
DC1
331
DC2
331
E6E
331
E6F
331
E77
331
E78
102
}
  0
BLOCK_RECORD
  5
56F
330
1
100
AcDbSymbolTableRecord
100
AcDbBlockTableRecord
  2
*D1
340
0
  0
BLOCK_RECORD
  5
57C
330
1
100
AcDbSymbolTableRecord
100
AcDbBlockTableRecord
  2
*D2
340
0
  0
BLOCK_RECORD
  5
593
330
1
100
AcDbSymbolTableRecord
100
AcDbBlockTableRecord
  2
*D3
340
0
  0
BLOCK_RECORD
  5
783
330
1
100
AcDbSymbolTableRecord
100
AcDbBlockTableRecord
  2
*D4
340
0
  0
BLOCK_RECORD
  5
790
330
1
100
AcDbSymbolTableRecord
100
AcDbBlockTableRecord
  2
*D5
340
0
  0
BLOCK_RECORD
  5
7B4
330
1
100
AcDbSymbolTableRecord
100
AcDbBlockTableRecord
  2
*D6
340
0
  0
BLOCK_RECORD
  5
92C
330
1
100
AcDbSymbolTableRecord
100
AcDbBlockTableRecord
  2
*D7
340
0
  0
BLOCK_RECORD
  5
93A
330
1
100
AcDbSymbolTableRecord
100
AcDbBlockTableRecord
  2
*D8
340
0
  0
BLOCK_RECORD
  5
948
330
1
100
AcDbSymbolTableRecord
100
AcDbBlockTableRecord
  2
*D9
340
0
  0
BLOCK_RECORD
  5
956
330
1
100
AcDbSymbolTableRecord
100
AcDbBlockTableRecord
  2
*D10
340
0
  0
BLOCK_RECORD
  5
964
330
1
100
AcDbSymbolTableRecord
100
AcDbBlockTableRecord
  2
*D11
340
0
  0
BLOCK_RECORD
  5
972
330
1
100
AcDbSymbolTableRecord
100
AcDbBlockTableRecord
  2
*D12
340
0
  0
BLOCK_RECORD
  5
980
330
1
100
AcDbSymbolTableRecord
100
AcDbBlockTableRecord
  2
*D13
340
0
  0
BLOCK_RECORD
  5
98E
330
1
100
AcDbSymbolTableRecord
100
AcDbBlockTableRecord
  2
*D14
340
0
  0
BLOCK_RECORD
  5
99C
330
1
100
AcDbSymbolTableRecord
100
AcDbBlockTableRecord
  2
*D15
340
0
  0
BLOCK_RECORD
  5
9AA
330
1
100
AcDbSymbolTableRecord
100
AcDbBlockTableRecord
  2
*D16
340
0
  0
BLOCK_RECORD
  5
9DD
330
1
100
AcDbSymbolTableRecord
100
AcDbBlockTableRecord
  2
*D18
340
0
  0
BLOCK_RECORD
  5
9EB
330
1
100
AcDbSymbolTableRecord
100
AcDbBlockTableRecord
  2
*D19
340
0
  0
BLOCK_RECORD
  5
9F9
330
1
100
AcDbSymbolTableRecord
100
AcDbBlockTableRecord
  2
*D20
340
0
  0
BLOCK_RECORD
  5
A07
330
1
100
AcDbSymbolTableRecord
100
AcDbBlockTableRecord
  2
*D21
340
0
  0
BLOCK_RECORD
  5
A15
330
1
100
AcDbSymbolTableRecord
100
AcDbBlockTableRecord
  2
*D22
340
0
  0
BLOCK_RECORD
  5
A23
330
1
100
AcDbSymbolTableRecord
100
AcDbBlockTableRecord
  2
*D23
340
0
  0
BLOCK_RECORD
  5
A31
330
1
100
AcDbSymbolTableRecord
100
AcDbBlockTableRecord
  2
*D24
340
0
  0
BLOCK_RECORD
  5
A3F
330
1
100
AcDbSymbolTableRecord
100
AcDbBlockTableRecord
  2
*D25
340
0
  0
BLOCK_RECORD
  5
A4D
330
1
100
AcDbSymbolTableRecord
100
AcDbBlockTableRecord
  2
*D26
340
0
  0
BLOCK_RECORD
  5
A5B
330
1
100
AcDbSymbolTableRecord
100
AcDbBlockTableRecord
  2
*D27
340
0
  0
BLOCK_RECORD
  5
B04
330
1
100
AcDbSymbolTableRecord
100
AcDbBlockTableRecord
  2
*D28
340
0
  0
BLOCK_RECORD
  5
B12
330
1
100
AcDbSymbolTableRecord
100
AcDbBlockTableRecord
  2
*D29
340
0
  0
BLOCK_RECORD
  5
B1E
330
1
100
AcDbSymbolTableRecord
100
AcDbBlockTableRecord
  2
*D30
340
0
  0
BLOCK_RECORD
  5
B2C
330
1
100
AcDbSymbolTableRecord
100
AcDbBlockTableRecord
  2
*D31
340
0
  0
BLOCK_RECORD
  5
B38
330
1
100
AcDbSymbolTableRecord
100
AcDbBlockTableRecord
  2
*D32
340
0
  0
BLOCK_RECORD
  5
B44
330
1
100
AcDbSymbolTableRecord
100
AcDbBlockTableRecord
  2
*D33
340
0
  0
BLOCK_RECORD
  5
B52
330
1
100
AcDbSymbolTableRecord
100
AcDbBlockTableRecord
  2
*D34
340
0
  0
BLOCK_RECORD
  5
B60
330
1
100
AcDbSymbolTableRecord
100
AcDbBlockTableRecord
  2
*D35
340
0
  0
BLOCK_RECORD
  5
B6C
330
1
100
AcDbSymbolTableRecord
100
AcDbBlockTableRecord
  2
*D36
340
0
  0
BLOCK_RECORD
  5
B78
330
1
100
AcDbSymbolTableRecord
100
AcDbBlockTableRecord
  2
*D37
340
0
  0
BLOCK_RECORD
  5
B86
330
1
100
AcDbSymbolTableRecord
100
AcDbBlockTableRecord
  2
*D38
340
0
  0
BLOCK_RECORD
  5
B92
330
1
100
AcDbSymbolTableRecord
100
AcDbBlockTableRecord
  2
*D39
340
0
  0
BLOCK_RECORD
  5
B9E
330
1
100
AcDbSymbolTableRecord
100
AcDbBlockTableRecord
  2
*D40
340
0
  0
BLOCK_RECORD
  5
C7D
330
1
100
AcDbSymbolTableRecord
100
AcDbBlockTableRecord
  2
*D42
340
0
  0
BLOCK_RECORD
  5
C8B
330
1
100
AcDbSymbolTableRecord
100
AcDbBlockTableRecord
  2
*D43
340
0
  0
BLOCK_RECORD
  5
C97
330
1
100
AcDbSymbolTableRecord
100
AcDbBlockTableRecord
  2
*D44
340
0
  0
BLOCK_RECORD
  5
CA5
330
1
100
AcDbSymbolTableRecord
100
AcDbBlockTableRecord
  2
*D45
340
0
  0
BLOCK_RECORD
  5
CB3
330
1
100
AcDbSymbolTableRecord
100
AcDbBlockTableRecord
  2
*D46
340
0
  0
BLOCK_RECORD
  5
CC1
330
1
100
AcDbSymbolTableRecord
100
AcDbBlockTableRecord
  2
*D47
340
0
  0
BLOCK_RECORD
  5
CCD
330
1
100
AcDbSymbolTableRecord
100
AcDbBlockTableRecord
  2
*D48
340
0
  0
BLOCK_RECORD
  5
CD9
330
1
100
AcDbSymbolTableRecord
100
AcDbBlockTableRecord
  2
*D49
340
0
  0
BLOCK_RECORD
  5
CE7
330
1
100
AcDbSymbolTableRecord
100
AcDbBlockTableRecord
  2
*D50
340
0
  0
BLOCK_RECORD
  5
CF3
330
1
100
AcDbSymbolTableRecord
100
AcDbBlockTableRecord
  2
*D51
340
0
  0
BLOCK_RECORD
  5
D1E
330
1
100
AcDbSymbolTableRecord
100
AcDbBlockTableRecord
  2
*D52
340
0
  0
BLOCK_RECORD
  5
D2A
330
1
100
AcDbSymbolTableRecord
100
AcDbBlockTableRecord
  2
*D53
340
0
  0
BLOCK_RECORD
  5
D7B
330
1
100
AcDbSymbolTableRecord
100
AcDbBlockTableRecord
  2
*D54
340
0
  0
BLOCK_RECORD
  5
DA3
330
1
100
AcDbSymbolTableRecord
100
AcDbBlockTableRecord
  2
*D55
340
0
  0
BLOCK_RECORD
  5
E3F
330
1
100
AcDbSymbolTableRecord
100
AcDbBlockTableRecord
  2
*D57
340
0
  0
BLOCK_RECORD
  5
E59
330
1
100
AcDbSymbolTableRecord
100
AcDbBlockTableRecord
  2
*D58
340
0
  0
BLOCK_RECORD
  5
E81
330
1
100
AcDbSymbolTableRecord
100
AcDbBlockTableRecord
  2
_DotSmall
340
0
  0
ENDTAB
  0
ENDSEC
  0
SECTION
  2
BLOCKS
  0
BLOCK
  5
37
330
36
100
AcDbEntity
  8
0
100
AcDbBlockBegin
  2
*Model_Space
 70
     0
 10
0.0
 20
0.0
 30
0.0
  3
*Model_Space
  1

  0
ENDBLK
  5
38
330
36
100
AcDbEntity
  8
0
100
AcDbBlockEnd
  0
BLOCK
  5
33
330
32
100
AcDbEntity
 67
     1
  8
0
100
AcDbBlockBegin
  2
*Paper_Space
 70
     0
 10
0.0
 20
0.0
 30
0.0
  3
*Paper_Space
  1

  0
ENDBLK
  5
34
330
32
100
AcDbEntity
 67
     1
  8
0
100
AcDbBlockEnd
  0
BLOCK
  5
387
330
386
100
AcDbEntity
  8
0
100
AcDbBlockBegin
  2
_Open30
 70
     0
 10
0.0
 20
0.0
 30
0.0
  3
_Open30
  1

  0
LINE
  5
388
330
386
100
AcDbEntity
  8
0
  6
ByBlock
 62
     0
370
    -2
100
AcDbLine
 10
-1.0
 20
0.267949
 30
0.0
 11
0.0
 21
0.0
 31
0.0
  0
LINE
  5
389
330
386
100
AcDbEntity
  8
0
  6
ByBlock
 62
     0
370
    -2
100
AcDbLine
 10
0.0
 20
0.0
 30
0.0
 11
-1.0
 21
-0.267949
 31
0.0
  0
LINE
  5
38A
330
386
100
AcDbEntity
  8
0
  6
ByBlock
 62
     0
370
    -2
100
AcDbLine
 10
0.0
 20
0.0
 30
0.0
 11
-1.0
 21
0.0
 31
0.0
  0
ENDBLK
  5
38B
330
386
100
AcDbEntity
  8
0
100
AcDbBlockEnd
  0
BLOCK
  5
570
330
56F
100
AcDbEntity
  8
0
100
AcDbBlockBegin
  2
*D1
 70
     1
 10
0.0
 20
0.0
 30
0.0
  3
*D1
  1

  0
LINE
  5
8D2
330
56F
100
AcDbEntity
  8
0
 62
     0
370
    -2
100
AcDbLine
 10
197.423779
 20
-475.3326849999999
 30
0.0
 11
197.423779
 21
-494.1940289999999
 31
0.0
  0
LINE
  5
8D3
330
56F
100
AcDbEntity
  8
0
 62
     0
370
    -2
100
AcDbLine
 10
342.361279
 20
-481.3326849999998
 30
0.0
 11
342.361279
 21
-494.1940289999999
 31
0.0
  0
LINE
  5
8D4
330
56F
100
AcDbEntity
  8
0
 62
     0
370
    -2
100
AcDbLine
 10
199.923779
 20
-492.944029
 30
0.0
 11
339.861279
 21
-492.944029
 31
0.0
  0
INSERT
  5
8D5
330
56F
100
AcDbEntity
  8
0
 62
     0
370
    -2
100
AcDbBlockReference
  2
_Open30
 10
197.423779
 20
-492.944029
 30
0.0
 41
2.5
 42
2.5
 43
2.5
 50
180.0
  0
INSERT
  5
8D6
330
56F
100
AcDbEntity
  8
0
 62
     0
370
    -2
100
AcDbBlockReference
  2
_Open30
 10
342.361279
 20
-492.944029
 30
0.0
 41
2.5
 42
2.5
 43
2.5
  0
MTEXT
  5
8D7
330
56F
100
AcDbEntity
  8
0
 62
     4
100
AcDbMText
 10
269.892529
 20
-490.819029
 30
0.0
 40
3.0
 41
0.0
 71
     5
 72
     1
  1
290
 73
     1
 44
1.0
1001
ACAD
1000
MTEXTBEGIN
1070
    73
1070
     1
1070
    44
1040
1.0
1070
    74
1070
     0
1000
MTEXTEND
  0
POINT
  5
8D8
330
56F
100
AcDbEntity
  8
Defpoints
 62
     0
100
AcDbPoint
 10
197.423779
 20
-475.082685
 30
0.0
  0
POINT
  5
8D9
330
56F
100
AcDbEntity
  8
Defpoints
 62
     0
100
AcDbPoint
 10
342.361279
 20
-481.0826849999998
 30
0.0
  0
POINT
  5
8DA
330
56F
100
AcDbEntity
  8
Defpoints
 62
     0
100
AcDbPoint
 10
342.361279
 20
-492.944029
 30
0.0
  0
ENDBLK
  5
571
330
56F
100
AcDbEntity
  8
0
100
AcDbBlockEnd
  0
BLOCK
  5
57D
330
57C
100
AcDbEntity
  8
0
100
AcDbBlockBegin
  2
*D2
 70
     1
 10
0.0
 20
0.0
 30
0.0
  3
*D2
  1

  0
LINE
  5
8C9
330
57C
100
AcDbEntity
  8
0
 62
     0
370
    -2
100
AcDbLine
 10
75.330279
 20
-481.3326849999998
 30
0.0
 11
75.330279
 21
-494.704599
 31
0.0
  0
LINE
  5
8CA
330
57C
100
AcDbEntity
  8
0
 62
     0
370
    -2
100
AcDbLine
 10
165.330279
 20
-481.3326849999998
 30
0.0
 11
165.330279
 21
-494.704599
 31
0.0
  0
LINE
  5
8CB
330
57C
100
AcDbEntity
  8
0
 62
     0
370
    -2
100
AcDbLine
 10
77.830279
 20
-493.454599
 30
0.0
 11
162.830279
 21
-493.454599
 31
0.0
  0
INSERT
  5
8CC
330
57C
100
AcDbEntity
  8
0
 62
     0
370
    -2
100
AcDbBlockReference
  2
_Open30
 10
75.330279
 20
-493.454599
 30
0.0
 41
2.5
 42
2.5
 43
2.5
 50
180.0
  0
INSERT
  5
8CD
330
57C
100
AcDbEntity
  8
0
 62
     0
370
    -2
100
AcDbBlockReference
  2
_Open30
 10
165.330279
 20
-493.454599
 30
0.0
 41
2.5
 42
2.5
 43
2.5
  0
MTEXT
  5
8CE
330
57C
100
AcDbEntity
  8
0
 62
     4
100
AcDbMText
 10
120.330279
 20
-491.329599
 30
0.0
 40
3.0
 41
0.0
 71
     5
 72
     1
  1
190
 73
     1
 44
1.0
1001
ACAD
1000
MTEXTBEGIN
1070
    73
1070
     1
1070
    44
1040
1.0
1070
    74
1070
     0
1000
MTEXTEND
  0
POINT
  5
8CF
330
57C
100
AcDbEntity
  8
Defpoints
 62
     0
100
AcDbPoint
 10
75.330279
 20
-481.0826849999998
 30
0.0
  0
POINT
  5
8D0
330
57C
100
AcDbEntity
  8
Defpoints
 62
     0
100
AcDbPoint
 10
165.330279
 20
-481.0826849999998
 30
0.0
  0
POINT
  5
8D1
330
57C
100
AcDbEntity
  8
Defpoints
 62
     0
100
AcDbPoint
 10
165.330279
 20
-493.454599
 30
0.0
  0
ENDBLK
  5
57E
330
57C
100
AcDbEntity
  8
0
100
AcDbBlockEnd
  0
BLOCK
  5
594
330
593
100
AcDbEntity
  8
0
100
AcDbBlockBegin
  2
*D3
 70
     1
 10
0.0
 20
0.0
 30
0.0
  3
*D3
  1

  0
LINE
  5
8DB
330
593
100
AcDbEntity
  8
0
 62
     0
370
    -2
100
AcDbLine
 10
150.955279
 20
-486.3326849999999
 30
0.0
 11
179.4226129999999
 21
-486.3326849999999
 31
0.0
  0
LINE
  5
8DC
330
593
100
AcDbEntity
  8
0
 62
     0
370
    -2
100
AcDbLine
 10
117.793907
 20
-388.832685
 30
0.0
 11
179.422613
 21
-388.8326850000001
 31
0.0
  0
LINE
  5
8DD
330
593
100
AcDbEntity
  8
0
 62
     0
370
    -2
100
AcDbLine
 10
178.1726129999999
 20
-483.8326849999998
 30
0.0
 11
178.172613
 21
-391.3326850000001
 31
0.0
  0
INSERT
  5
8DE
330
593
100
AcDbEntity
  8
0
 62
     0
370
    -2
100
AcDbBlockReference
  2
_Open30
 10
178.1726129999999
 20
-486.3326849999999
 30
0.0
 41
2.5
 42
2.5
 43
2.5
 50
270.0
  0
INSERT
  5
8DF
330
593
100
AcDbEntity
  8
0
 62
     0
370
    -2
100
AcDbBlockReference
  2
_Open30
 10
178.172613
 20
-388.8326850000001
 30
0.0
 41
2.5
 42
2.5
 43
2.5
 50
90.0
  0
MTEXT
  5
8E0
330
593
100
AcDbEntity
  8
0
 62
     4
100
AcDbMText
 10
176.047613
 20
-437.5826849999999
 30
0.0
 40
3.0
 41
0.0
 71
     5
 72
     1
  1
195
 11
0.0000000000000001
 21
1.0
 31
0.0
 73
     1
 44
1.0
1001
ACAD
1000
MTEXTBEGIN
1070
    73
1070
     1
1070
    44
1040
1.0
1070
    74
1070
     0
1000
MTEXTEND
  0
POINT
  5
8E1
330
593
100
AcDbEntity
  8
Defpoints
 62
     0
100
AcDbPoint
 10
150.705279
 20
-486.3326849999999
 30
0.0
  0
POINT
  5
8E2
330
593
100
AcDbEntity
  8
Defpoints
 62
     0
100
AcDbPoint
 10
117.543907
 20
-388.832685
 30
0.0
  0
POINT
  5
8E3
330
593
100
AcDbEntity
  8
Defpoints
 62
     0
100
AcDbPoint
 10
178.172613
 20
-388.8326850000001
 30
0.0
  0
ENDBLK
  5
595
330
593
100
AcDbEntity
  8
0
100
AcDbBlockEnd
  0
BLOCK
  5
78D
330
783
100
AcDbEntity
  8
0
100
AcDbBlockBegin
  2
*D4
 70
     1
 10
0.0
 20
0.0
 30
0.0
  3
*D4
  1

  0
LINE
  5
8FF
330
783
100
AcDbEntity
  8
0
  6
Continuous
 62
     0
370
    -2
100
AcDbLine
 10
375.186047
 20
-437.9365302203672
 30
0.0
 11
375.186047
 21
-456.3768870059953
 31
0.0
  0
LINE
  5
900
330
783
100
AcDbEntity
  8
0
  6
Continuous
 62
     0
370
    -2
100
AcDbLine
 10
395.186047
 20
-437.9365302203672
 30
0.0
 11
395.186047
 21
-456.3768870059953
 31
0.0
  0
LINE
  5
901
330
783
100
AcDbEntity
  8
0
  6
Continuous
 62
     0
370
    -2
100
AcDbLine
 10
377.686047
 20
-455.1268870059953
 30
0.0
 11
392.686047
 21
-455.1268870059953
 31
0.0
  0
INSERT
  5
902
330
783
100
AcDbEntity
  8
0
  6
Continuous
 62
     0
370
    -2
100
AcDbBlockReference
  2
_Open30
 10
375.186047
 20
-455.1268870059953
 30
0.0
 41
2.5
 42
2.5
 43
2.5
 50
180.0
  0
INSERT
  5
903
330
783
100
AcDbEntity
  8
0
  6
Continuous
 62
     0
370
    -2
100
AcDbBlockReference
  2
_Open30
 10
395.186047
 20
-455.1268870059953
 30
0.0
 41
2.5
 42
2.5
 43
2.5
  0
MTEXT
  5
904
330
783
100
AcDbEntity
  8
0
  6
Continuous
 62
     4
100
AcDbMText
 10
385.150367534153
 20
-453.0018870059953
 30
0.0
 40
3.0
 41
0.0
 71
     5
 72
     1
  1
\U+03C640
 73
     1
 44
1.0
1001
ACAD
1000
MTEXTBEGIN
1070
    73
1070
     1
1070
    44
1040
1.0
1070
    74
1070
     0
1000
MTEXTEND
  0
POINT
  5
905
330
783
100
AcDbEntity
  8
Defpoints
  6
Continuous
 62
     0
100
AcDbPoint
 10
375.186047
 20
-437.6865302203673
 30
0.0
  0
POINT
  5
906
330
783
100
AcDbEntity
  8
Defpoints
  6
Continuous
 62
     0
100
AcDbPoint
 10
395.186047
 20
-437.6865302203673
 30
0.0
  0
POINT
  5
907
330
783
100
AcDbEntity
  8
Defpoints
  6
Continuous
 62
     0
100
AcDbPoint
 10
395.186047
 20
-455.1268870059953
 30
0.0
  0
ENDBLK
  5
78E
330
783
100
AcDbEntity
  8
0
100
AcDbBlockEnd
  0
BLOCK
  5
79A
330
790
100
AcDbEntity
  8
0
100
AcDbBlockBegin
  2
*D5
 70
     1
 10
0.0
 20
0.0
 30
0.0
  3
*D5
  1

  0
LINE
  5
908
330
790
100
AcDbEntity
  8
0
  6
Continuous
 62
     0
370
    -2
100
AcDbLine
 10
374.186047
 20
-434.9365302203676
 30
0.0
 11
374.186047
 21
-461.8079218485653
 31
0.0
  0
LINE
  5
909
330
790
100
AcDbEntity
  8
0
  6
Continuous
 62
     0
370
    -2
100
AcDbLine
 10
396.186047
 20
-434.9365302203676
 30
0.0
 11
396.186047
 21
-461.8079218485653
 31
0.0
  0
LINE
  5
90A
330
790
100
AcDbEntity
  8
0
  6
Continuous
 62
     0
370
    -2
100
AcDbLine
 10
376.6860470000001
 20
-460.5579218485653
 30
0.0
 11
393.686047
 21
-460.5579218485653
 31
0.0
  0
INSERT
  5
90B
330
790
100
AcDbEntity
  8
0
  6
Continuous
 62
     0
370
    -2
100
AcDbBlockReference
  2
_Open30
 10
374.186047
 20
-460.5579218485653
 30
0.0
 41
2.5
 42
2.5
 43
2.5
 50
180.0
  0
INSERT
  5
90C
330
790
100
AcDbEntity
  8
0
  6
Continuous
 62
     0
370
    -2
100
AcDbBlockReference
  2
_Open30
 10
396.186047
 20
-460.5579218485653
 30
0.0
 41
2.5
 42
2.5
 43
2.5
  0
MTEXT
  5
90D
330
790
100
AcDbEntity
  8
0
  6
Continuous
 62
     4
100
AcDbMText
 10
385.2029883546934
 20
-458.4329218485653
 30
0.0
 40
3.0
 41
0.0
 71
     5
 72
     1
  1
\U+03C644
 73
     1
 44
1.0
1001
ACAD
1000
MTEXTBEGIN
1070
    73
1070
     1
1070
    44
1040
1.0
1070
    74
1070
     0
1000
MTEXTEND
  0
POINT
  5
90E
330
790
100
AcDbEntity
  8
Defpoints
  6
Continuous
 62
     0
100
AcDbPoint
 10
374.186047
 20
-434.6865302203676
 30
0.0
  0
POINT
  5
90F
330
790
100
AcDbEntity
  8
Defpoints
  6
Continuous
 62
     0
100
AcDbPoint
 10
396.186047
 20
-434.6865302203676
 30
0.0
  0
POINT
  5
910
330
790
100
AcDbEntity
  8
Defpoints
  6
Continuous
 62
     0
100
AcDbPoint
 10
396.186047
 20
-460.5579218485653
 30
0.0
  0
ENDBLK
  5
79B
330
790
100
AcDbEntity
  8
0
100
AcDbBlockEnd
  0
BLOCK
  5
7BE
330
7B4
100
AcDbEntity
  8
0
100
AcDbBlockBegin
  2
*D6
 70
     1
 10
0.0
 20
0.0
 30
0.0
  3
*D6
  1

  0
LINE
  5
911
330
7B4
100
AcDbEntity
  8
0
  6
Continuous
 62
     0
370
    -2
100
AcDbLine
 10
395.4360470000001
 20
-437.6865302203673
 30
0.0
 11
405.2584382180984
 21
-437.6865302203673
 31
0.0
  0
LINE
  5
912
330
7B4
100
AcDbEntity
  8
0
  6
Continuous
 62
     0
370
    -2
100
AcDbLine
 10
388.161047
 20
-397.6865302203677
 30
0.0
 11
405.2584382180984
 21
-397.6865302203677
 31
0.0
  0
LINE
  5
913
330
7B4
100
AcDbEntity
  8
0
  6
Continuous
 62
     0
370
    -2
100
AcDbLine
 10
404.0084382180983
 20
-435.1865302203672
 30
0.0
 11
404.0084382180983
 21
-400.1865302203676
 31
0.0
  0
INSERT
  5
914
330
7B4
100
AcDbEntity
  8
0
  6
Continuous
 62
     0
370
    -2
100
AcDbBlockReference
  2
_Open30
 10
404.0084382180983
 20
-437.6865302203673
 30
0.0
 41
2.5
 42
2.5
 43
2.5
 50
270.0
  0
INSERT
  5
915
330
7B4
100
AcDbEntity
  8
0
  6
Continuous
 62
     0
370
    -2
100
AcDbBlockReference
  2
_Open30
 10
404.0084382180983
 20
-397.6865302203677
 30
0.0
 41
2.5
 42
2.5
 43
2.5
 50
90.0
  0
MTEXT
  5
916
330
7B4
100
AcDbEntity
  8
0
  6
Continuous
 62
     4
100
AcDbMText
 10
401.8834382180985
 20
-417.0464374803871
 30
0.0
 40
3.0
 41
0.0
 71
     5
 72
     1
  1
(90)
 11
0.0000000000000001
 21
1.0
 31
0.0
 73
     1
 44
1.0
1001
ACAD
1000
MTEXTBEGIN
1070
    73
1070
     1
1070
    44
1040
1.0
1070
    74
1070
     0
1000
MTEXTEND
  0
POINT
  5
917
330
7B4
100
AcDbEntity
  8
Defpoints
  6
Continuous
 62
     0
100
AcDbPoint
 10
395.186047
 20
-437.6865302203673
 30
0.0
  0
POINT
  5
918
330
7B4
100
AcDbEntity
  8
Defpoints
  6
Continuous
 62
     0
100
AcDbPoint
 10
387.911047
 20
-397.6865302203677
 30
0.0
  0
POINT
  5
919
330
7B4
100
AcDbEntity
  8
Defpoints
  6
Continuous
 62
     0
100
AcDbPoint
 10
404.0084382180983
 20
-397.6865302203677
 30
0.0
  0
ENDBLK
  5
7BF
330
7B4
100
AcDbEntity
  8
0
100
AcDbBlockEnd
  0
BLOCK
  5
92D
330
92C
100
AcDbEntity
  8
0
100
AcDbBlockBegin
  2
*D7
 70
     1
 10
0.0
 20
0.0
 30
0.0
  3
*D7
  1

  0
LINE
  5
92E
330
92C
100
AcDbEntity
  8
0
 62
     0
370
    -2
100
AcDbLine
 10
-178.2339678749101
 20
-812.0370112307897
 30
0.0
 11
-178.2339678749101
 21
-814.9466426527986
 31
0.0
  0
LINE
  5
92F
330
92C
100
AcDbEntity
  8
0
 62
     0
370
    -2
100
AcDbLine
 10
-180.6911549290304
 20
-812.0370112307897
 30
0.0
 11
-180.6911549290304
 21
-814.9466426527986
 31
0.0
  0
LINE
  5
930
330
92C
100
AcDbEntity
  8
0
 62
     0
370
    -2
100
AcDbLine
 10
-175.7339678749101
 20
-813.6966426527985
 30
0.0
 11
-173.2339678749101
 21
-813.6966426527985
 31
0.0
  0
LINE
  5
931
330
92C
100
AcDbEntity
  8
0
 62
     0
370
    -2
100
AcDbLine
 10
-183.1911549290304
 20
-813.6966426527985
 30
0.0
 11
-195.9411549290304
 21
-813.6966426527985
 31
0.0
  0
LINE
  5
932
330
92C
100
AcDbEntity
  8
0
 62
     0
370
    -2
100
AcDbLine
 10
-178.2339678749101
 20
-813.6966426527985
 30
0.0
 11
-180.6911549290304
 21
-813.6966426527985
 31
0.0
  0
INSERT
  5
933
330
92C
100
AcDbEntity
  8
0
 62
     0
370
    -2
100
AcDbBlockReference
  2
_Open30
 10
-178.2339678749101
 20
-813.6966426527985
 30
0.0
 41
2.5
 42
2.5
 43
2.5
 50
180.0
  0
INSERT
  5
934
330
92C
100
AcDbEntity
  8
0
 62
     0
370
    -2
100
AcDbBlockReference
  2
_Open30
 10
-180.6911549290304
 20
-813.6966426527985
 30
0.0
 41
2.5
 42
2.5
 43
2.5
  0
MTEXT
  5
935
330
92C
100
AcDbEntity
  8
0
 62
     4
100
AcDbMText
 10
-190.8161549290304
 20
-811.5716426527985
 30
0.0
 40
3.0
 41
0.0
 71
     5
 72
     1
  1
2.46
 73
     1
 44
1.0
1001
ACAD
1000
MTEXTBEGIN
1070
    73
1070
     1
1070
    44
1040
1.0
1070
    74
1070
     0
1000
MTEXTEND
  0
POINT
  5
936
330
92C
100
AcDbEntity
  8
Defpoints
 62
     0
100
AcDbPoint
 10
-178.2339678749101
 20
-811.7870112307898
 30
0.0
  0
POINT
  5
937
330
92C
100
AcDbEntity
  8
Defpoints
 62
     0
100
AcDbPoint
 10
-180.6911549290304
 20
-811.7870112307898
 30
0.0
  0
POINT
  5
938
330
92C
100
AcDbEntity
  8
Defpoints
 62
     0
100
AcDbPoint
 10
-180.6911549290304
 20
-813.6966426527985
 30
0.0
  0
ENDBLK
  5
939
330
92C
100
AcDbEntity
  8
0
100
AcDbBlockEnd
  0
BLOCK
  5
93B
330
93A
100
AcDbEntity
  8
0
100
AcDbBlockBegin
  2
*D8
 70
     1
 10
0.0
 20
0.0
 30
0.0
  3
*D8
  1

  0
LINE
  5
93C
330
93A
100
AcDbEntity
  8
0
 62
     0
370
    -2
100
AcDbLine
 10
-176.5958429688369
 20
-817.4931008035521
 30
0.0
 11
-176.5958429688369
 21
-820.0389928730155
 31
0.0
  0
LINE
  5
93D
330
93A
100
AcDbEntity
  8
0
 62
     0
370
    -2
100
AcDbLine
 10
-179.6900787669798
 20
-817.4931008035521
 30
0.0
 11
-179.6900787669798
 21
-820.0389928730155
 31
0.0
  0
LINE
  5
93E
330
93A
100
AcDbEntity
  8
0
 62
     0
370
    -2
100
AcDbLine
 10
-174.0958429688369
 20
-818.7889928730154
 30
0.0
 11
-171.5958429688369
 21
-818.7889928730154
 31
0.0
  0
LINE
  5
93F
330
93A
100
AcDbEntity
  8
0
 62
     0
370
    -2
100
AcDbLine
 10
-182.1900787669798
 20
-818.7889928730154
 30
0.0
 11
-196.0234121003131
 21
-818.7889928730154
 31
0.0
  0
LINE
  5
940
330
93A
100
AcDbEntity
  8
0
 62
     0
370
    -2
100
AcDbLine
 10
-176.5958429688369
 20
-818.7889928730154
 30
0.0
 11
-179.6900787669798
 21
-818.7889928730154
 31
0.0
  0
INSERT
  5
941
330
93A
100
AcDbEntity
  8
0
 62
     0
370
    -2
100
AcDbBlockReference
  2
_Open30
 10
-176.5958429688369
 20
-818.7889928730154
 30
0.0
 41
2.5
 42
2.5
 43
2.5
 50
180.0
  0
INSERT
  5
942
330
93A
100
AcDbEntity
  8
0
 62
     0
370
    -2
100
AcDbBlockReference
  2
_Open30
 10
-179.6900787669798
 20
-818.7889928730154
 30
0.0
 41
2.5
 42
2.5
 43
2.5
  0
MTEXT
  5
943
330
93A
100
AcDbEntity
  8
0
 62
     4
100
AcDbMText
 10
-190.8150787669798
 20
-816.9139928730155
 30
0.0
 40
2.5
 41
0.0
 71
     5
 72
     1
  1
15.47
  7
高2.5
 73
     1
 44
1.0
1001
ACAD
1000
MTEXTBEGIN
1070
    73
1070
     1
1070
    44
1040
1.0
1070
    74
1070
     0
1000
MTEXTEND
  0
POINT
  5
944
330
93A
100
AcDbEntity
  8
Defpoints
 62
     0
100
AcDbPoint
 10
-176.5958429688369
 20
-817.2431008035522
 30
0.0
  0
POINT
  5
945
330
93A
100
AcDbEntity
  8
Defpoints
 62
     0
100
AcDbPoint
 10
-179.6900787669798
 20
-817.2431008035522
 30
0.0
  0
POINT
  5
946
330
93A
100
AcDbEntity
  8
Defpoints
 62
     0
100
AcDbPoint
 10
-179.6900787669798
 20
-818.7889928730154
 30
0.0
  0
ENDBLK
  5
947
330
93A
100
AcDbEntity
  8
0
100
AcDbBlockEnd
  0
BLOCK
  5
949
330
948
100
AcDbEntity
  8
0
100
AcDbBlockBegin
  2
*D9
 70
     1
 10
0.0
 20
0.0
 30
0.0
  3
*D9
  1

  0
LINE
  5
94A
330
948
100
AcDbEntity
  8
0
 62
     0
370
    -2
100
AcDbLine
 10
-174.8667113607514
 20
-822.9491905193986
 30
0.0
 11
-174.8667113607514
 21
-825.2222781817659
 31
0.0
  0
LINE
  5
94B
330
948
100
AcDbEntity
  8
0
 62
     0
370
    -2
100
AcDbLine
 10
-178.8710163139432
 20
-822.9491905193986
 30
0.0
 11
-178.8710163139432
 21
-825.2222781817659
 31
0.0
  0
LINE
  5
94C
330
948
100
AcDbEntity
  8
0
 62
     0
370
    -2
100
AcDbLine
 10
-172.3667113607514
 20
-823.9722781817658
 30
0.0
 11
-169.8667113607514
 21
-823.9722781817658
 31
0.0
  0
LINE
  5
94D
330
948
100
AcDbEntity
  8
0
 62
     0
370
    -2
100
AcDbLine
 10
-181.3710163139432
 20
-823.9722781817658
 30
0.0
 11
-193.1210163139432
 21
-823.9722781817658
 31
0.0
  0
LINE
  5
94E
330
948
100
AcDbEntity
  8
0
 62
     0
370
    -2
100
AcDbLine
 10
-174.8667113607514
 20
-823.9722781817658
 30
0.0
 11
-178.8710163139432
 21
-823.9722781817658
 31
0.0
  0
INSERT
  5
94F
330
948
100
AcDbEntity
  8
0
 62
     0
370
    -2
100
AcDbBlockReference
  2
_Open30
 10
-174.8667113607514
 20
-823.9722781817658
 30
0.0
 41
2.5
 42
2.5
 43
2.5
 50
180.0
  0
INSERT
  5
950
330
948
100
AcDbEntity
  8
0
 62
     0
370
    -2
100
AcDbBlockReference
  2
_Open30
 10
-178.8710163139432
 20
-823.9722781817658
 30
0.0
 41
2.5
 42
2.5
 43
2.5
  0
MTEXT
  5
951
330
948
100
AcDbEntity
  8
0
 62
     4
100
AcDbMText
 10
-188.4960163139432
 20
-821.7472781817658
 30
0.0
 40
3.2
 41
0.0
 71
     5
 72
     1
  1
8.01
  7
高3.2
 73
     1
 44
1.0
1001
ACAD
1000
MTEXTBEGIN
1070
    73
1070
     1
1070
    44
1040
1.0
1070
    74
1070
     0
1000
MTEXTEND
  0
POINT
  5
952
330
948
100
AcDbEntity
  8
Defpoints
 62
     0
100
AcDbPoint
 10
-174.8667113607514
 20
-822.6991905193985
 30
0.0
  0
POINT
  5
953
330
948
100
AcDbEntity
  8
Defpoints
 62
     0
100
AcDbPoint
 10
-178.8710163139432
 20
-822.6991905193985
 30
0.0
  0
POINT
  5
954
330
948
100
AcDbEntity
  8
Defpoints
 62
     0
100
AcDbPoint
 10
-178.8710163139432
 20
-823.9722781817658
 30
0.0
  0
ENDBLK
  5
955
330
948
100
AcDbEntity
  8
0
100
AcDbBlockEnd
  0
BLOCK
  5
957
330
956
100
AcDbEntity
  8
0
100
AcDbBlockBegin
  2
*D10
 70
     1
 10
0.0
 20
0.0
 30
0.0
  3
*D10
  1

  0
LINE
  5
958
330
956
100
AcDbEntity
  8
0
 62
     0
370
    -2
100
AcDbLine
 10
-174.9577180627637
 20
-828.2234104874302
 30
0.0
 11
-174.9577180627637
 21
-830.0418239948866
 31
0.0
  0
LINE
  5
959
330
956
100
AcDbEntity
  8
0
 62
     0
370
    -2
100
AcDbLine
 10
-179.6900787669798
 20
-828.2234104874302
 30
0.0
 11
-179.6900787669798
 21
-830.0418239948866
 31
0.0
  0
LINE
  5
95A
330
956
100
AcDbEntity
  8
0
 62
     0
370
    -2
100
AcDbLine
 10
-172.4577180627637
 20
-828.7918239948865
 30
0.0
 11
-169.9577180627637
 21
-828.7918239948865
 31
0.0
  0
LINE
  5
95B
330
956
100
AcDbEntity
  8
0
 62
     0
370
    -2
100
AcDbLine
 10
-182.1900787669798
 20
-828.7918239948865
 30
0.0
 11
-203.9400787669798
 21
-828.7918239948865
 31
0.0
  0
LINE
  5
95C
330
956
100
AcDbEntity
  8
0
 62
     0
370
    -2
100
AcDbLine
 10
-174.9577180627637
 20
-828.7918239948865
 30
0.0
 11
-179.6900787669798
 21
-828.7918239948865
 31
0.0
  0
INSERT
  5
95D
330
956
100
AcDbEntity
  8
0
 62
     0
370
    -2
100
AcDbBlockReference
  2
_Open30
 10
-174.9577180627637
 20
-828.7918239948865
 30
0.0
 41
2.5
 42
2.5
 43
2.5
 50
180.0
  0
INSERT
  5
95E
330
956
100
AcDbEntity
  8
0
 62
     0
370
    -2
100
AcDbBlockReference
  2
_Open30
 10
-179.6900787669798
 20
-828.7918239948865
 30
0.0
 41
2.5
 42
2.5
 43
2.5
  0
MTEXT
  5
95F
330
956
100
AcDbEntity
  8
0
 62
     4
100
AcDbMText
 10
-194.3150787669798
 20
-825.9168239948866
 30
0.0
 40
4.5
 41
0.0
 71
     5
 72
     1
  1
47.32
  7
高4.5
 73
     1
 44
1.0
1001
ACAD
1000
MTEXTBEGIN
1070
    73
1070
     1
1070
    44
1040
1.0
1070
    74
1070
     0
1000
MTEXTEND
  0
POINT
  5
960
330
956
100
AcDbEntity
  8
Defpoints
 62
     0
100
AcDbPoint
 10
-174.9577180627637
 20
-827.9734104874302
 30
0.0
  0
POINT
  5
961
330
956
100
AcDbEntity
  8
Defpoints
 62
     0
100
AcDbPoint
 10
-179.6900787669798
 20
-827.9734104874302
 30
0.0
  0
POINT
  5
962
330
956
100
AcDbEntity
  8
Defpoints
 62
     0
100
AcDbPoint
 10
-179.6900787669798
 20
-828.7918239948865
 30
0.0
  0
ENDBLK
  5
963
330
956
100
AcDbEntity
  8
0
100
AcDbBlockEnd
  0
BLOCK
  5
965
330
964
100
AcDbEntity
  8
0
100
AcDbBlockBegin
  2
*D11
 70
     1
 10
0.0
 20
0.0
 30
0.0
  3
*D11
  1

  0
LINE
  5
966
330
964
100
AcDbEntity
  8
0
 62
     0
370
    -2
100
AcDbLine
 10
-153.4800817947562
 20
-812.0370112307897
 30
0.0
 11
-153.4800817947562
 21
-814.9466426527986
 31
0.0
  0
LINE
  5
967
330
964
100
AcDbEntity
  8
0
 62
     0
370
    -2
100
AcDbLine
 10
-155.9372688488765
 20
-812.0370112307897
 30
0.0
 11
-155.9372688488765
 21
-814.9466426527986
 31
0.0
  0
LINE
  5
968
330
964
100
AcDbEntity
  8
0
 62
     0
370
    -2
100
AcDbLine
 10
-150.9800817947562
 20
-813.6966426527985
 30
0.0
 11
-148.4800817947562
 21
-813.6966426527985
 31
0.0
  0
LINE
  5
969
330
964
100
AcDbEntity
  8
0
 62
     0
370
    -2
100
AcDbLine
 10
-158.4372688488765
 20
-813.6966426527985
 30
0.0
 11
-180.0372688488765
 21
-813.6966426527985
 31
0.0
  0
LINE
  5
96A
330
964
100
AcDbEntity
  8
0
 62
     0
370
    -2
100
AcDbLine
 10
-153.4800817947562
 20
-813.6966426527985
 30
0.0
 11
-155.9372688488765
 21
-813.6966426527985
 31
0.0
  0
INSERT
  5
96B
330
964
100
AcDbEntity
  8
0
 62
     0
370
    -2
100
AcDbBlockReference
  2
_Open30
 10
-153.4800817947562
 20
-813.6966426527985
 30
0.0
 41
2.5
 42
2.5
 43
2.5
 50
180.0
  0
INSERT
  5
96C
330
964
100
AcDbEntity
  8
0
 62
     0
370
    -2
100
AcDbBlockReference
  2
_Open30
 10
-155.9372688488765
 20
-813.6966426527985
 30
0.0
 41
2.5
 42
2.5
 43
2.5
  0
MTEXT
  5
96D
330
964
100
AcDbEntity
  8
0
 62
     4
100
AcDbMText
 10
-170.4872688488765
 20
-809.9216426527986
 30
0.0
 40
6.299999999999999
 41
0.0
 71
     5
 72
     1
  1
0.25
  7
高6.3
 73
     1
 44
1.0
1001
ACAD
1000
MTEXTBEGIN
1070
    73
1070
     1
1070
    44
1040
1.0
1070
    74
1070
     0
1000
MTEXTEND
  0
POINT
  5
96E
330
964
100
AcDbEntity
  8
Defpoints
 62
     0
100
AcDbPoint
 10
-153.4800817947562
 20
-811.7870112307898
 30
0.0
  0
POINT
  5
96F
330
964
100
AcDbEntity
  8
Defpoints
 62
     0
100
AcDbPoint
 10
-155.9372688488765
 20
-811.7870112307898
 30
0.0
  0
POINT
  5
970
330
964
100
AcDbEntity
  8
Defpoints
 62
     0
100
AcDbPoint
 10
-155.9372688488765
 20
-813.6966426527985
 30
0.0
  0
ENDBLK
  5
971
330
964
100
AcDbEntity
  8
0
100
AcDbBlockEnd
  0
BLOCK
  5
973
330
972
100
AcDbEntity
  8
0
100
AcDbBlockBegin
  2
*D12
 70
     1
 10
0.0
 20
0.0
 30
0.0
  3
*D12
  1

  0
LINE
  5
974
330
972
100
AcDbEntity
  8
0
 62
     0
370
    -2
100
AcDbLine
 10
-151.841956888683
 20
-817.4931008035521
 30
0.0
 11
-151.841956888683
 21
-820.0389928730155
 31
0.0
  0
LINE
  5
975
330
972
100
AcDbEntity
  8
0
 62
     0
370
    -2
100
AcDbLine
 10
-154.9361926868259
 20
-817.4931008035521
 30
0.0
 11
-154.9361926868259
 21
-820.0389928730155
 31
0.0
  0
LINE
  5
976
330
972
100
AcDbEntity
  8
0
 62
     0
370
    -2
100
AcDbLine
 10
-149.341956888683
 20
-818.7889928730154
 30
0.0
 11
-146.841956888683
 21
-818.7889928730154
 31
0.0
  0
LINE
  5
977
330
972
100
AcDbEntity
  8
0
 62
     0
370
    -2
100
AcDbLine
 10
-157.4361926868259
 20
-818.7889928730154
 30
0.0
 11
-169.4361926868259
 21
-818.7889928730154
 31
0.0
  0
LINE
  5
978
330
972
100
AcDbEntity
  8
0
 62
     0
370
    -2
100
AcDbLine
 10
-151.841956888683
 20
-818.7889928730154
 30
0.0
 11
-154.9361926868259
 21
-818.7889928730154
 31
0.0
  0
INSERT
  5
979
330
972
100
AcDbEntity
  8
0
 62
     0
370
    -2
100
AcDbBlockReference
  2
_Open30
 10
-151.841956888683
 20
-818.7889928730154
 30
0.0
 41
2.5
 42
2.5
 43
2.5
 50
180.0
  0
INSERT
  5
97A
330
972
100
AcDbEntity
  8
0
 62
     0
370
    -2
100
AcDbBlockReference
  2
_Open30
 10
-154.9361926868259
 20
-818.7889928730154
 30
0.0
 41
2.5
 42
2.5
 43
2.5
  0
MTEXT
  5
97B
330
972
100
AcDbEntity
  8
0
 62
     4
100
AcDbMText
 10
-164.8111926868259
 20
-816.6639928730154
 30
0.0
 40
3.0
 41
0.0
 71
     5
 72
     1
  1
1.55
 73
     1
 44
1.0
1001
ACAD
1000
MTEXTBEGIN
1070
    73
1070
     1
1070
    44
1040
1.0
1070
    74
1070
     0
1000
MTEXTEND
  0
POINT
  5
97C
330
972
100
AcDbEntity
  8
Defpoints
 62
     0
100
AcDbPoint
 10
-151.841956888683
 20
-817.2431008035522
 30
0.0
  0
POINT
  5
97D
330
972
100
AcDbEntity
  8
Defpoints
 62
     0
100
AcDbPoint
 10
-154.9361926868259
 20
-817.2431008035522
 30
0.0
  0
POINT
  5
97E
330
972
100
AcDbEntity
  8
Defpoints
 62
     0
100
AcDbPoint
 10
-154.9361926868259
 20
-818.7889928730154
 30
0.0
  0
ENDBLK
  5
97F
330
972
100
AcDbEntity
  8
0
100
AcDbBlockEnd
  0
BLOCK
  5
981
330
980
100
AcDbEntity
  8
0
100
AcDbBlockBegin
  2
*D13
 70
     1
 10
0.0
 20
0.0
 30
0.0
  3
*D13
  1

  0
LINE
  5
982
330
980
100
AcDbEntity
  8
0
 62
     0
370
    -2
100
AcDbLine
 10
-150.1128252805975
 20
-822.9491905193986
 30
0.0
 11
-150.1128252805975
 21
-825.2222781817659
 31
0.0
  0
LINE
  5
983
330
980
100
AcDbEntity
  8
0
 62
     0
370
    -2
100
AcDbLine
 10
-154.1171302337894
 20
-822.9491905193986
 30
0.0
 11
-154.1171302337894
 21
-825.2222781817659
 31
0.0
  0
LINE
  5
984
330
980
100
AcDbEntity
  8
0
 62
     0
370
    -2
100
AcDbLine
 10
-147.6128252805976
 20
-823.9722781817658
 30
0.0
 11
-145.1128252805975
 21
-823.9722781817658
 31
0.0
  0
LINE
  5
985
330
980
100
AcDbEntity
  8
0
 62
     0
370
    -2
100
AcDbLine
 10
-156.6171302337894
 20
-823.9722781817658
 30
0.0
 11
-164.9504635671227
 21
-823.9722781817658
 31
0.0
  0
LINE
  5
986
330
980
100
AcDbEntity
  8
0
 62
     0
370
    -2
100
AcDbLine
 10
-150.1128252805975
 20
-823.9722781817658
 30
0.0
 11
-154.1171302337894
 21
-823.9722781817658
 31
0.0
  0
INSERT
  5
987
330
980
100
AcDbEntity
  8
0
 62
     0
370
    -2
100
AcDbBlockReference
  2
_Open30
 10
-150.1128252805975
 20
-823.9722781817658
 30
0.0
 41
2.5
 42
2.5
 43
2.5
 50
180.0
  0
INSERT
  5
988
330
980
100
AcDbEntity
  8
0
 62
     0
370
    -2
100
AcDbBlockReference
  2
_Open30
 10
-154.1171302337894
 20
-823.9722781817658
 30
0.0
 41
2.5
 42
2.5
 43
2.5
  0
MTEXT
  5
989
330
980
100
AcDbEntity
  8
0
 62
     4
100
AcDbMText
 10
-162.4921302337894
 20
-822.3472781817658
 30
0.0
 40
2.0
 41
0.0
 71
     5
 72
     1
  1
0.8
  7
高2
 73
     1
 44
1.0
1001
ACAD
1000
MTEXTBEGIN
1070
    73
1070
     1
1070
    44
1040
1.0
1070
    74
1070
     0
1000
MTEXTEND
  0
POINT
  5
98A
330
980
100
AcDbEntity
  8
Defpoints
 62
     0
100
AcDbPoint
 10
-150.1128252805975
 20
-822.6991905193985
 30
0.0
  0
POINT
  5
98B
330
980
100
AcDbEntity
  8
Defpoints
 62
     0
100
AcDbPoint
 10
-154.1171302337894
 20
-822.6991905193985
 30
0.0
  0
POINT
  5
98C
330
980
100
AcDbEntity
  8
Defpoints
 62
     0
100
AcDbPoint
 10
-154.1171302337894
 20
-823.9722781817658
 30
0.0
  0
ENDBLK
  5
98D
330
980
100
AcDbEntity
  8
0
100
AcDbBlockEnd
  0
BLOCK
  5
98F
330
98E
100
AcDbEntity
  8
0
100
AcDbBlockBegin
  2
*D14
 70
     1
 10
0.0
 20
0.0
 30
0.0
  3
*D14
  1

  0
LINE
  5
990
330
98E
100
AcDbEntity
  8
0
 62
     0
370
    -2
100
AcDbLine
 10
-150.2038319826098
 20
-828.2234104874302
 30
0.0
 11
-150.2038319826098
 21
-830.0418239948866
 31
0.0
  0
LINE
  5
991
330
98E
100
AcDbEntity
  8
0
 62
     0
370
    -2
100
AcDbLine
 10
-154.9361926868259
 20
-828.2234104874302
 30
0.0
 11
-154.9361926868259
 21
-830.0418239948866
 31
0.0
  0
LINE
  5
992
330
98E
100
AcDbEntity
  8
0
 62
     0
370
    -2
100
AcDbLine
 10
-147.7038319826099
 20
-828.7918239948865
 30
0.0
 11
-145.2038319826098
 21
-828.7918239948865
 31
0.0
  0
LINE
  5
993
330
98E
100
AcDbEntity
  8
0
 62
     0
370
    -2
100
AcDbLine
 10
-157.4361926868259
 20
-828.7918239948865
 30
0.0
 11
-172.1861926868259
 21
-828.7918239948865
 31
0.0
  0
LINE
  5
994
330
98E
100
AcDbEntity
  8
0
 62
     0
370
    -2
100
AcDbLine
 10
-150.2038319826098
 20
-828.7918239948865
 30
0.0
 11
-154.9361926868259
 21
-828.7918239948865
 31
0.0
  0
INSERT
  5
995
330
98E
100
AcDbEntity
  8
0
 62
     0
370
    -2
100
AcDbBlockReference
  2
_Open30
 10
-150.2038319826098
 20
-828.7918239948865
 30
0.0
 41
2.5
 42
2.5
 43
2.5
 50
180.0
  0
INSERT
  5
996
330
98E
100
AcDbEntity
  8
0
 62
     0
370
    -2
100
AcDbBlockReference
  2
_Open30
 10
-154.9361926868259
 20
-828.7918239948865
 30
0.0
 41
2.5
 42
2.5
 43
2.5
  0
MTEXT
  5
997
330
98E
100
AcDbEntity
  8
0
 62
     4
100
AcDbMText
 10
-166.0611926868259
 20
-826.6668239948867
 30
0.0
 40
3.0
 41
0.0
 71
     5
 72
     1
  1
18.93
 73
     1
 44
1.0
1001
ACAD
1000
MTEXTBEGIN
1070
    73
1070
     1
1070
    44
1040
1.0
1070
    74
1070
     0
1000
MTEXTEND
  0
POINT
  5
998
330
98E
100
AcDbEntity
  8
Defpoints
 62
     0
100
AcDbPoint
 10
-150.2038319826098
 20
-827.9734104874302
 30
0.0
  0
POINT
  5
999
330
98E
100
AcDbEntity
  8
Defpoints
 62
     0
100
AcDbPoint
 10
-154.9361926868259
 20
-827.9734104874302
 30
0.0
  0
POINT
  5
99A
330
98E
100
AcDbEntity
  8
Defpoints
 62
     0
100
AcDbPoint
 10
-154.9361926868259
 20
-828.7918239948865
 30
0.0
  0
ENDBLK
  5
99B
330
98E
100
AcDbEntity
  8
0
100
AcDbBlockEnd
  0
BLOCK
  5
99D
330
99C
100
AcDbEntity
  8
0
100
AcDbBlockBegin
  2
*D15
 70
     1
 10
0.0
 20
0.0
 30
0.0
  3
*D15
  1

  0
LINE
  5
99E
330
99C
100
AcDbEntity
  8
0
 62
     0
370
    -2
100
AcDbLine
 10
-153.0082588337482
 20
-833.2792506940199
 30
0.0
 11
-153.0082588337482
 21
-835.5891717708955
 31
0.0
  0
LINE
  5
99F
330
99C
100
AcDbEntity
  8
0
 62
     0
370
    -2
100
AcDbLine
 10
-157.5969340358961
 20
-833.2792506940199
 30
0.0
 11
-157.5969340358961
 21
-835.5891717708955
 31
0.0
  0
LINE
  5
9A0
330
99C
100
AcDbEntity
  8
0
 62
     0
370
    -2
100
AcDbLine
 10
-150.5082588337482
 20
-834.3391717708955
 30
0.0
 11
-148.0082588337482
 21
-834.3391717708955
 31
0.0
  0
LINE
  5
9A1
330
99C
100
AcDbEntity
  8
0
 62
     0
370
    -2
100
AcDbLine
 10
-160.0969340358961
 20
-834.3391717708955
 30
0.0
 11
-174.8469340358961
 21
-834.3391717708955
 31
0.0
  0
LINE
  5
9A2
330
99C
100
AcDbEntity
  8
0
 62
     0
370
    -2
100
AcDbLine
 10
-153.0082588337482
 20
-834.3391717708955
 30
0.0
 11
-157.5969340358961
 21
-834.3391717708955
 31
0.0
  0
INSERT
  5
9A3
330
99C
100
AcDbEntity
  8
0
 62
     0
370
    -2
100
AcDbBlockReference
  2
_Open30
 10
-153.0082588337482
 20
-834.3391717708955
 30
0.0
 41
2.5
 42
2.5
 43
2.5
 50
180.0
  0
INSERT
  5
9A4
330
99C
100
AcDbEntity
  8
0
 62
     0
370
    -2
100
AcDbBlockReference
  2
_Open30
 10
-157.5969340358961
 20
-834.3391717708955
 30
0.0
 41
2.5
 42
2.5
 43
2.5
  0
MTEXT
  5
9A5
330
99C
100
AcDbEntity
  8
0
 62
     4
100
AcDbMText
 10
-168.7219340358961
 20
-832.2141717708955
 30
0.0
 40
3.0
 41
0.0
 71
     5
 72
     1
  1
13.77
 73
     1
 44
1.0
1001
ACAD
1000
MTEXTBEGIN
1070
    73
1070
     1
1070
    44
1040
1.0
1070
    74
1070
     0
1000
MTEXTEND
  0
POINT
  5
9A6
330
99C
100
AcDbEntity
  8
Defpoints
 62
     0
100
AcDbPoint
 10
-153.0082588337482
 20
-833.02925069402
 30
0.0
  0
POINT
  5
9A7
330
99C
100
AcDbEntity
  8
Defpoints
 62
     0
100
AcDbPoint
 10
-157.5969340358961
 20
-833.02925069402
 30
0.0
  0
POINT
  5
9A8
330
99C
100
AcDbEntity
  8
Defpoints
 62
     0
100
AcDbPoint
 10
-157.5969340358961
 20
-834.3391717708955
 30
0.0
  0
ENDBLK
  5
9A9
330
99C
100
AcDbEntity
  8
0
100
AcDbBlockEnd
  0
BLOCK
  5
9AB
330
9AA
100
AcDbEntity
  8
0
100
AcDbBlockBegin
  2
*D16
 70
     1
 10
0.0
 20
0.0
 30
0.0
  3
*D16
  1

  0
LINE
  5
9AC
330
9AA
100
AcDbEntity
  8
0
 62
     0
370
    -2
100
AcDbLine
 10
-160.1045416668985
 20
-802.3497593757456
 30
0.0
 11
-160.1045416668985
 21
-794.9532258978079
 31
0.0
  0
LINE
  5
9AD
330
9AA
100
AcDbEntity
  8
0
 62
     0
370
    -2
100
AcDbLine
 10
-170.0430160363885
 20
-802.3497593757456
 30
0.0
 11
-170.0430160363885
 21
-794.9532258978079
 31
0.0
  0
LINE
  5
9AE
330
9AA
100
AcDbEntity
  8
0
 62
     0
370
    -2
100
AcDbLine
 10
-162.6045416668985
 20
-796.2032258978078
 30
0.0
 11
-167.5430160363885
 21
-796.2032258978078
 31
0.0
  0
INSERT
  5
9AF
330
9AA
100
AcDbEntity
  8
0
 62
     0
370
    -2
100
AcDbBlockReference
  2
_Open30
 10
-160.1045416668985
 20
-796.2032258978078
 30
0.0
 41
2.5
 42
2.5
 43
2.5
  0
INSERT
  5
9B0
330
9AA
100
AcDbEntity
  8
0
 62
     0
370
    -2
100
AcDbBlockReference
  2
_Open30
 10
-170.0430160363885
 20
-796.2032258978078
 30
0.0
 41
2.5
 42
2.5
 43
2.5
 50
180.0
  0
MTEXT
  5
9B1
330
9AA
100
AcDbEntity
  8
0
 62
     4
100
AcDbMText
 10
-165.0737788516435
 20
-793.1282258978078
 30
0.0
 40
3.0
 41
0.0
 71
     5
 72
     1
  1
9.94\H0.7X;\S+0^ -0.02;
 73
     1
 44
1.0
1001
ACAD
1000
MTEXTBEGIN
1070
    73
1070
     1
1070
    44
1040
1.0
1070
    74
1070
     0
1000
MTEXTEND
  0
POINT
  5
9B2
330
9AA
100
AcDbEntity
  8
Defpoints
 62
     0
100
AcDbPoint
 10
-160.1045416668985
 20
-802.5997593757455
 30
0.0
  0
POINT
  5
9B3
330
9AA
100
AcDbEntity
  8
Defpoints
 62
     0
100
AcDbPoint
 10
-170.0430160363885
 20
-802.5997593757455
 30
0.0
  0
POINT
  5
9B4
330
9AA
100
AcDbEntity
  8
Defpoints
 62
     0
100
AcDbPoint
 10
-170.0430160363885
 20
-796.2032258978078
 30
0.0
  0
ENDBLK
  5
9B5
330
9AA
100
AcDbEntity
  8
0
100
AcDbBlockEnd
  0
BLOCK
  5
9DE
330
9DD
100
AcDbEntity
  8
0
100
AcDbBlockBegin
  2
*D18
 70
     1
 10
0.0
 20
0.0
 30
0.0
  3
*D18
  1

  0
LINE
  5
A67
330
9DD
100
AcDbEntity
  8
0
 62
     0
370
    -2
100
AcDbLine
 10
431.0093307968948
 20
-308.4314480832357
 30
0.0
 11
431.0093307968948
 21
-311.3410795052446
 31
0.0
  0
LINE
  5
A68
330
9DD
100
AcDbEntity
  8
0
 62
     0
370
    -2
100
AcDbLine
 10
428.5521437427745
 20
-308.4314480832357
 30
0.0
 11
428.5521437427745
 21
-311.3410795052446
 31
0.0
  0
LINE
  5
A69
330
9DD
100
AcDbEntity
  8
0
 62
     0
370
    -2
100
AcDbLine
 10
433.5093307968948
 20
-310.0910795052446
 30
0.0
 11
436.0093307968949
 21
-310.0910795052446
 31
0.0
  0
LINE
  5
A6A
330
9DD
100
AcDbEntity
  8
0
 62
     0
370
    -2
100
AcDbLine
 10
426.0521437427745
 20
-310.0910795052446
 30
0.0
 11
413.3021437427745
 21
-310.0910795052446
 31
0.0
  0
LINE
  5
A6B
330
9DD
100
AcDbEntity
  8
0
 62
     0
370
    -2
100
AcDbLine
 10
431.0093307968948
 20
-310.0910795052446
 30
0.0
 11
428.5521437427745
 21
-310.0910795052446
 31
0.0
  0
INSERT
  5
A6C
330
9DD
100
AcDbEntity
  8
0
 62
     0
370
    -2
100
AcDbBlockReference
  2
_Open30
 10
431.0093307968948
 20
-310.0910795052446
 30
0.0
 41
2.5
 42
2.5
 43
2.5
 50
180.0
  0
INSERT
  5
A6D
330
9DD
100
AcDbEntity
  8
0
 62
     0
370
    -2
100
AcDbBlockReference
  2
_Open30
 10
428.5521437427745
 20
-310.0910795052446
 30
0.0
 41
2.5
 42
2.5
 43
2.5
  0
MTEXT
  5
A6E
330
9DD
100
AcDbEntity
  8
0
 62
     4
100
AcDbMText
 10
418.4271437427745
 20
-307.9660795052446
 30
0.0
 40
3.0
 41
0.0
 71
     5
 72
     1
  1
2.46
 73
     1
 44
1.0
1001
ACAD
1000
MTEXTBEGIN
1070
    73
1070
     1
1070
    44
1040
1.0
1070
    74
1070
     0
1000
MTEXTEND
  0
POINT
  5
A6F
330
9DD
100
AcDbEntity
  8
Defpoints
 62
     0
100
AcDbPoint
 10
431.0093307968948
 20
-308.1814480832357
 30
0.0
  0
POINT
  5
A70
330
9DD
100
AcDbEntity
  8
Defpoints
 62
     0
100
AcDbPoint
 10
428.5521437427745
 20
-308.1814480832357
 30
0.0
  0
POINT
  5
A71
330
9DD
100
AcDbEntity
  8
Defpoints
 62
     0
100
AcDbPoint
 10
428.5521437427745
 20
-310.0910795052446
 30
0.0
  0
ENDBLK
  5
9DF
330
9DD
100
AcDbEntity
  8
0
100
AcDbBlockEnd
  0
BLOCK
  5
9EC
330
9EB
100
AcDbEntity
  8
0
100
AcDbBlockBegin
  2
*D19
 70
     1
 10
0.0
 20
0.0
 30
0.0
  3
*D19
  1

  0
LINE
  5
A72
330
9EB
100
AcDbEntity
  8
0
 62
     0
370
    -2
100
AcDbLine
 10
432.647455702968
 20
-313.8875376559981
 30
0.0
 11
432.647455702968
 21
-316.4334297254614
 31
0.0
  0
LINE
  5
A73
330
9EB
100
AcDbEntity
  8
0
 62
     0
370
    -2
100
AcDbLine
 10
429.5532199048251
 20
-313.8875376559981
 30
0.0
 11
429.5532199048251
 21
-316.4334297254614
 31
0.0
  0
LINE
  5
A74
330
9EB
100
AcDbEntity
  8
0
 62
     0
370
    -2
100
AcDbLine
 10
435.147455702968
 20
-315.1834297254615
 30
0.0
 11
437.647455702968
 21
-315.1834297254615
 31
0.0
  0
LINE
  5
A75
330
9EB
100
AcDbEntity
  8
0
 62
     0
370
    -2
100
AcDbLine
 10
427.0532199048251
 20
-315.1834297254615
 30
0.0
 11
413.2198865714917
 21
-315.1834297254615
 31
0.0
  0
LINE
  5
A76
330
9EB
100
AcDbEntity
  8
0
 62
     0
370
    -2
100
AcDbLine
 10
432.647455702968
 20
-315.1834297254615
 30
0.0
 11
429.5532199048251
 21
-315.1834297254615
 31
0.0
  0
INSERT
  5
A77
330
9EB
100
AcDbEntity
  8
0
 62
     0
370
    -2
100
AcDbBlockReference
  2
_Open30
 10
432.647455702968
 20
-315.1834297254615
 30
0.0
 41
2.5
 42
2.5
 43
2.5
 50
180.0
  0
INSERT
  5
A78
330
9EB
100
AcDbEntity
  8
0
 62
     0
370
    -2
100
AcDbBlockReference
  2
_Open30
 10
429.5532199048251
 20
-315.1834297254615
 30
0.0
 41
2.5
 42
2.5
 43
2.5
  0
MTEXT
  5
A79
330
9EB
100
AcDbEntity
  8
0
 62
     4
100
AcDbMText
 10
418.4282199048251
 20
-313.3084297254614
 30
0.0
 40
2.5
 41
0.0
 71
     5
 72
     1
  1
15.47
  7
高2.5
 73
     1
 44
1.0
1001
ACAD
1000
MTEXTBEGIN
1070
    73
1070
     1
1070
    44
1040
1.0
1070
    74
1070
     0
1000
MTEXTEND
  0
POINT
  5
A7A
330
9EB
100
AcDbEntity
  8
Defpoints
 62
     0
100
AcDbPoint
 10
432.647455702968
 20
-313.6375376559981
 30
0.0
  0
POINT
  5
A7B
330
9EB
100
AcDbEntity
  8
Defpoints
 62
     0
100
AcDbPoint
 10
429.5532199048251
 20
-313.6375376559981
 30
0.0
  0
POINT
  5
A7C
330
9EB
100
AcDbEntity
  8
Defpoints
 62
     0
100
AcDbPoint
 10
429.5532199048251
 20
-315.1834297254615
 30
0.0
  0
ENDBLK
  5
9ED
330
9EB
100
AcDbEntity
  8
0
100
AcDbBlockEnd
  0
BLOCK
  5
9FA
330
9F9
100
AcDbEntity
  8
0
100
AcDbBlockBegin
  2
*D20
 70
     1
 10
0.0
 20
0.0
 30
0.0
  3
*D20
  1

  0
LINE
  5
A7D
330
9F9
100
AcDbEntity
  8
0
 62
     0
370
    -2
100
AcDbLine
 10
434.3765873110535
 20
-319.3436273718446
 30
0.0
 11
434.3765873110535
 21
-321.6167150342119
 31
0.0
  0
LINE
  5
A7E
330
9F9
100
AcDbEntity
  8
0
 62
     0
370
    -2
100
AcDbLine
 10
430.3722823578617
 20
-319.3436273718446
 30
0.0
 11
430.3722823578617
 21
-321.6167150342119
 31
0.0
  0
LINE
  5
A7F
330
9F9
100
AcDbEntity
  8
0
 62
     0
370
    -2
100
AcDbLine
 10
436.8765873110535
 20
-320.3667150342119
 30
0.0
 11
439.3765873110535
 21
-320.3667150342119
 31
0.0
  0
LINE
  5
A80
330
9F9
100
AcDbEntity
  8
0
 62
     0
370
    -2
100
AcDbLine
 10
427.8722823578616
 20
-320.3667150342119
 30
0.0
 11
416.1222823578617
 21
-320.3667150342119
 31
0.0
  0
LINE
  5
A81
330
9F9
100
AcDbEntity
  8
0
 62
     0
370
    -2
100
AcDbLine
 10
434.3765873110535
 20
-320.3667150342119
 30
0.0
 11
430.3722823578617
 21
-320.3667150342119
 31
0.0
  0
INSERT
  5
A82
330
9F9
100
AcDbEntity
  8
0
 62
     0
370
    -2
100
AcDbBlockReference
  2
_Open30
 10
434.3765873110535
 20
-320.3667150342119
 30
0.0
 41
2.5
 42
2.5
 43
2.5
 50
180.0
  0
INSERT
  5
A83
330
9F9
100
AcDbEntity
  8
0
 62
     0
370
    -2
100
AcDbBlockReference
  2
_Open30
 10
430.3722823578617
 20
-320.3667150342119
 30
0.0
 41
2.5
 42
2.5
 43
2.5
  0
MTEXT
  5
A84
330
9F9
100
AcDbEntity
  8
0
 62
     4
100
AcDbMText
 10
420.7472823578616
 20
-318.1417150342119
 30
0.0
 40
3.2
 41
0.0
 71
     5
 72
     1
  1
8.01
  7
高3.2
 73
     1
 44
1.0
1001
ACAD
1000
MTEXTBEGIN
1070
    73
1070
     1
1070
    44
1040
1.0
1070
    74
1070
     0
1000
MTEXTEND
  0
POINT
  5
A85
330
9F9
100
AcDbEntity
  8
Defpoints
 62
     0
100
AcDbPoint
 10
434.3765873110535
 20
-319.0936273718446
 30
0.0
  0
POINT
  5
A86
330
9F9
100
AcDbEntity
  8
Defpoints
 62
     0
100
AcDbPoint
 10
430.3722823578617
 20
-319.0936273718446
 30
0.0
  0
POINT
  5
A87
330
9F9
100
AcDbEntity
  8
Defpoints
 62
     0
100
AcDbPoint
 10
430.3722823578617
 20
-320.3667150342119
 30
0.0
  0
ENDBLK
  5
9FB
330
9F9
100
AcDbEntity
  8
0
100
AcDbBlockEnd
  0
BLOCK
  5
A08
330
A07
100
AcDbEntity
  8
0
100
AcDbBlockBegin
  2
*D21
 70
     1
 10
0.0
 20
0.0
 30
0.0
  3
*D21
  1

  0
LINE
  5
A88
330
A07
100
AcDbEntity
  8
0
 62
     0
370
    -2
100
AcDbLine
 10
434.2855806090412
 20
-324.6178473398762
 30
0.0
 11
434.2855806090412
 21
-326.4362608473326
 31
0.0
  0
LINE
  5
A89
330
A07
100
AcDbEntity
  8
0
 62
     0
370
    -2
100
AcDbLine
 10
429.5532199048251
 20
-324.6178473398762
 30
0.0
 11
429.5532199048251
 21
-326.4362608473326
 31
0.0
  0
LINE
  5
A8A
330
A07
100
AcDbEntity
  8
0
 62
     0
370
    -2
100
AcDbLine
 10
436.7855806090412
 20
-325.1862608473326
 30
0.0
 11
439.2855806090412
 21
-325.1862608473326
 31
0.0
  0
LINE
  5
A8B
330
A07
100
AcDbEntity
  8
0
 62
     0
370
    -2
100
AcDbLine
 10
427.0532199048251
 20
-325.1862608473326
 30
0.0
 11
405.3032199048251
 21
-325.1862608473326
 31
0.0
  0
LINE
  5
A8C
330
A07
100
AcDbEntity
  8
0
 62
     0
370
    -2
100
AcDbLine
 10
434.2855806090412
 20
-325.1862608473326
 30
0.0
 11
429.5532199048251
 21
-325.1862608473326
 31
0.0
  0
INSERT
  5
A8D
330
A07
100
AcDbEntity
  8
0
 62
     0
370
    -2
100
AcDbBlockReference
  2
_Open30
 10
434.2855806090412
 20
-325.1862608473326
 30
0.0
 41
2.5
 42
2.5
 43
2.5
 50
180.0
  0
INSERT
  5
A8E
330
A07
100
AcDbEntity
  8
0
 62
     0
370
    -2
100
AcDbBlockReference
  2
_Open30
 10
429.5532199048251
 20
-325.1862608473326
 30
0.0
 41
2.5
 42
2.5
 43
2.5
  0
MTEXT
  5
A8F
330
A07
100
AcDbEntity
  8
0
 62
     4
100
AcDbMText
 10
414.9282199048251
 20
-322.3112608473326
 30
0.0
 40
4.5
 41
0.0
 71
     5
 72
     1
  1
47.32
  7
高4.5
 73
     1
 44
1.0
1001
ACAD
1000
MTEXTBEGIN
1070
    73
1070
     1
1070
    44
1040
1.0
1070
    74
1070
     0
1000
MTEXTEND
  0
POINT
  5
A90
330
A07
100
AcDbEntity
  8
Defpoints
 62
     0
100
AcDbPoint
 10
434.2855806090412
 20
-324.3678473398762
 30
0.0
  0
POINT
  5
A91
330
A07
100
AcDbEntity
  8
Defpoints
 62
     0
100
AcDbPoint
 10
429.5532199048251
 20
-324.3678473398762
 30
0.0
  0
POINT
  5
A92
330
A07
100
AcDbEntity
  8
Defpoints
 62
     0
100
AcDbPoint
 10
429.5532199048251
 20
-325.1862608473326
 30
0.0
  0
ENDBLK
  5
A09
330
A07
100
AcDbEntity
  8
0
100
AcDbBlockEnd
  0
BLOCK
  5
A16
330
A15
100
AcDbEntity
  8
0
100
AcDbBlockBegin
  2
*D22
 70
     1
 10
0.0
 20
0.0
 30
0.0
  3
*D22
  1

  0
LINE
  5
A93
330
A15
100
AcDbEntity
  8
0
 62
     0
370
    -2
100
AcDbLine
 10
455.7632168770487
 20
-308.4314480832357
 30
0.0
 11
455.7632168770487
 21
-311.3410795052446
 31
0.0
  0
LINE
  5
A94
330
A15
100
AcDbEntity
  8
0
 62
     0
370
    -2
100
AcDbLine
 10
453.3060298229283
 20
-308.4314480832357
 30
0.0
 11
453.3060298229283
 21
-311.3410795052446
 31
0.0
  0
LINE
  5
A95
330
A15
100
AcDbEntity
  8
0
 62
     0
370
    -2
100
AcDbLine
 10
458.2632168770486
 20
-310.0910795052446
 30
0.0
 11
460.7632168770487
 21
-310.0910795052446
 31
0.0
  0
LINE
  5
A96
330
A15
100
AcDbEntity
  8
0
 62
     0
370
    -2
100
AcDbLine
 10
450.8060298229284
 20
-310.0910795052446
 30
0.0
 11
429.2060298229284
 21
-310.0910795052446
 31
0.0
  0
LINE
  5
A97
330
A15
100
AcDbEntity
  8
0
 62
     0
370
    -2
100
AcDbLine
 10
455.7632168770487
 20
-310.0910795052446
 30
0.0
 11
453.3060298229283
 21
-310.0910795052446
 31
0.0
  0
INSERT
  5
A98
330
A15
100
AcDbEntity
  8
0
 62
     0
370
    -2
100
AcDbBlockReference
  2
_Open30
 10
455.7632168770487
 20
-310.0910795052446
 30
0.0
 41
2.5
 42
2.5
 43
2.5
 50
180.0
  0
INSERT
  5
A99
330
A15
100
AcDbEntity
  8
0
 62
     0
370
    -2
100
AcDbBlockReference
  2
_Open30
 10
453.3060298229283
 20
-310.0910795052446
 30
0.0
 41
2.5
 42
2.5
 43
2.5
  0
MTEXT
  5
A9A
330
A15
100
AcDbEntity
  8
0
 62
     4
100
AcDbMText
 10
438.7560298229283
 20
-306.3160795052446
 30
0.0
 40
6.299999999999998
 41
0.0
 71
     5
 72
     1
  1
0.25
  7
高6.3
 73
     1
 44
1.0
1001
ACAD
1000
MTEXTBEGIN
1070
    73
1070
     1
1070
    44
1040
1.0
1070
    74
1070
     0
1000
MTEXTEND
  0
POINT
  5
A9B
330
A15
100
AcDbEntity
  8
Defpoints
 62
     0
100
AcDbPoint
 10
455.7632168770487
 20
-308.1814480832357
 30
0.0
  0
POINT
  5
A9C
330
A15
100
AcDbEntity
  8
Defpoints
 62
     0
100
AcDbPoint
 10
453.3060298229283
 20
-308.1814480832357
 30
0.0
  0
POINT
  5
A9D
330
A15
100
AcDbEntity
  8
Defpoints
 62
     0
100
AcDbPoint
 10
453.3060298229283
 20
-310.0910795052446
 30
0.0
  0
ENDBLK
  5
A17
330
A15
100
AcDbEntity
  8
0
100
AcDbBlockEnd
  0
BLOCK
  5
A24
330
A23
100
AcDbEntity
  8
0
100
AcDbBlockBegin
  2
*D23
 70
     1
 10
0.0
 20
0.0
 30
0.0
  3
*D23
  1

  0
LINE
  5
A9E
330
A23
100
AcDbEntity
  8
0
 62
     0
370
    -2
100
AcDbLine
 10
457.4013417831219
 20
-313.8875376559981
 30
0.0
 11
457.4013417831219
 21
-316.4334297254614
 31
0.0
  0
LINE
  5
A9F
330
A23
100
AcDbEntity
  8
0
 62
     0
370
    -2
100
AcDbLine
 10
454.307105984979
 20
-313.8875376559981
 30
0.0
 11
454.307105984979
 21
-316.4334297254614
 31
0.0
  0
LINE
  5
AA0
330
A23
100
AcDbEntity
  8
0
 62
     0
370
    -2
100
AcDbLine
 10
459.9013417831218
 20
-315.1834297254615
 30
0.0
 11
462.4013417831219
 21
-315.1834297254615
 31
0.0
  0
LINE
  5
AA1
330
A23
100
AcDbEntity
  8
0
 62
     0
370
    -2
100
AcDbLine
 10
451.8071059849789
 20
-315.1834297254615
 30
0.0
 11
439.8071059849789
 21
-315.1834297254615
 31
0.0
  0
LINE
  5
AA2
330
A23
100
AcDbEntity
  8
0
 62
     0
370
    -2
100
AcDbLine
 10
457.4013417831219
 20
-315.1834297254615
 30
0.0
 11
454.307105984979
 21
-315.1834297254615
 31
0.0
  0
INSERT
  5
AA3
330
A23
100
AcDbEntity
  8
0
 62
     0
370
    -2
100
AcDbBlockReference
  2
_Open30
 10
457.4013417831219
 20
-315.1834297254615
 30
0.0
 41
2.5
 42
2.5
 43
2.5
 50
180.0
  0
INSERT
  5
AA4
330
A23
100
AcDbEntity
  8
0
 62
     0
370
    -2
100
AcDbBlockReference
  2
_Open30
 10
454.307105984979
 20
-315.1834297254615
 30
0.0
 41
2.5
 42
2.5
 43
2.5
  0
MTEXT
  5
AA5
330
A23
100
AcDbEntity
  8
0
 62
     4
100
AcDbMText
 10
444.432105984979
 20
-313.0584297254614
 30
0.0
 40
3.0
 41
0.0
 71
     5
 72
     1
  1
1.55
 73
     1
 44
1.0
1001
ACAD
1000
MTEXTBEGIN
1070
    73
1070
     1
1070
    44
1040
1.0
1070
    74
1070
     0
1000
MTEXTEND
  0
POINT
  5
AA6
330
A23
100
AcDbEntity
  8
Defpoints
 62
     0
100
AcDbPoint
 10
457.4013417831219
 20
-313.6375376559981
 30
0.0
  0
POINT
  5
AA7
330
A23
100
AcDbEntity
  8
Defpoints
 62
     0
100
AcDbPoint
 10
454.307105984979
 20
-313.6375376559981
 30
0.0
  0
POINT
  5
AA8
330
A23
100
AcDbEntity
  8
Defpoints
 62
     0
100
AcDbPoint
 10
454.307105984979
 20
-315.1834297254615
 30
0.0
  0
ENDBLK
  5
A25
330
A23
100
AcDbEntity
  8
0
100
AcDbBlockEnd
  0
BLOCK
  5
A32
330
A31
100
AcDbEntity
  8
0
100
AcDbBlockBegin
  2
*D24
 70
     1
 10
0.0
 20
0.0
 30
0.0
  3
*D24
  1

  0
LINE
  5
AA9
330
A31
100
AcDbEntity
  8
0
 62
     0
370
    -2
100
AcDbLine
 10
459.1304733912074
 20
-319.3436273718446
 30
0.0
 11
459.1304733912074
 21
-321.6167150342119
 31
0.0
  0
LINE
  5
AAA
330
A31
100
AcDbEntity
  8
0
 62
     0
370
    -2
100
AcDbLine
 10
455.1261684380155
 20
-319.3436273718446
 30
0.0
 11
455.1261684380155
 21
-321.6167150342119
 31
0.0
  0
LINE
  5
AAB
330
A31
100
AcDbEntity
  8
0
 62
     0
370
    -2
100
AcDbLine
 10
461.6304733912073
 20
-320.3667150342119
 30
0.0
 11
464.1304733912074
 21
-320.3667150342119
 31
0.0
  0
LINE
  5
AAC
330
A31
100
AcDbEntity
  8
0
 62
     0
370
    -2
100
AcDbLine
 10
452.6261684380155
 20
-320.3667150342119
 30
0.0
 11
444.2928351046822
 21
-320.3667150342119
 31
0.0
  0
LINE
  5
AAD
330
A31
100
AcDbEntity
  8
0
 62
     0
370
    -2
100
AcDbLine
 10
459.1304733912074
 20
-320.3667150342119
 30
0.0
 11
455.1261684380155
 21
-320.3667150342119
 31
0.0
  0
INSERT
  5
AAE
330
A31
100
AcDbEntity
  8
0
 62
     0
370
    -2
100
AcDbBlockReference
  2
_Open30
 10
459.1304733912074
 20
-320.3667150342119
 30
0.0
 41
2.5
 42
2.5
 43
2.5
 50
180.0
  0
INSERT
  5
AAF
330
A31
100
AcDbEntity
  8
0
 62
     0
370
    -2
100
AcDbBlockReference
  2
_Open30
 10
455.1261684380155
 20
-320.3667150342119
 30
0.0
 41
2.5
 42
2.5
 43
2.5
  0
MTEXT
  5
AB0
330
A31
100
AcDbEntity
  8
0
 62
     4
100
AcDbMText
 10
446.7511684380155
 20
-318.7417150342119
 30
0.0
 40
2.0
 41
0.0
 71
     5
 72
     1
  1
0.8
  7
高2
 73
     1
 44
1.0
1001
ACAD
1000
MTEXTBEGIN
1070
    73
1070
     1
1070
    44
1040
1.0
1070
    74
1070
     0
1000
MTEXTEND
  0
POINT
  5
AB1
330
A31
100
AcDbEntity
  8
Defpoints
 62
     0
100
AcDbPoint
 10
459.1304733912074
 20
-319.0936273718446
 30
0.0
  0
POINT
  5
AB2
330
A31
100
AcDbEntity
  8
Defpoints
 62
     0
100
AcDbPoint
 10
455.1261684380155
 20
-319.0936273718446
 30
0.0
  0
POINT
  5
AB3
330
A31
100
AcDbEntity
  8
Defpoints
 62
     0
100
AcDbPoint
 10
455.1261684380155
 20
-320.3667150342119
 30
0.0
  0
ENDBLK
  5
A33
330
A31
100
AcDbEntity
  8
0
100
AcDbBlockEnd
  0
BLOCK
  5
A40
330
A3F
100
AcDbEntity
  8
0
100
AcDbBlockBegin
  2
*D25
 70
     1
 10
0.0
 20
0.0
 30
0.0
  3
*D25
  1

  0
LINE
  5
AB4
330
A3F
100
AcDbEntity
  8
0
 62
     0
370
    -2
100
AcDbLine
 10
459.0394666891951
 20
-324.6178473398762
 30
0.0
 11
459.0394666891951
 21
-326.4362608473326
 31
0.0
  0
LINE
  5
AB5
330
A3F
100
AcDbEntity
  8
0
 62
     0
370
    -2
100
AcDbLine
 10
454.307105984979
 20
-324.6178473398762
 30
0.0
 11
454.307105984979
 21
-326.4362608473326
 31
0.0
  0
LINE
  5
AB6
330
A3F
100
AcDbEntity
  8
0
 62
     0
370
    -2
100
AcDbLine
 10
461.539466689195
 20
-325.1862608473326
 30
0.0
 11
464.0394666891951
 21
-325.1862608473326
 31
0.0
  0
LINE
  5
AB7
330
A3F
100
AcDbEntity
  8
0
 62
     0
370
    -2
100
AcDbLine
 10
451.8071059849789
 20
-325.1862608473326
 30
0.0
 11
437.0571059849789
 21
-325.1862608473326
 31
0.0
  0
LINE
  5
AB8
330
A3F
100
AcDbEntity
  8
0
 62
     0
370
    -2
100
AcDbLine
 10
459.0394666891951
 20
-325.1862608473326
 30
0.0
 11
454.307105984979
 21
-325.1862608473326
 31
0.0
  0
INSERT
  5
AB9
330
A3F
100
AcDbEntity
  8
0
 62
     0
370
    -2
100
AcDbBlockReference
  2
_Open30
 10
459.0394666891951
 20
-325.1862608473326
 30
0.0
 41
2.5
 42
2.5
 43
2.5
 50
180.0
  0
INSERT
  5
ABA
330
A3F
100
AcDbEntity
  8
0
 62
     0
370
    -2
100
AcDbBlockReference
  2
_Open30
 10
454.307105984979
 20
-325.1862608473326
 30
0.0
 41
2.5
 42
2.5
 43
2.5
  0
MTEXT
  5
ABB
330
A3F
100
AcDbEntity
  8
0
 62
     4
100
AcDbMText
 10
443.182105984979
 20
-323.0612608473326
 30
0.0
 40
3.0
 41
0.0
 71
     5
 72
     1
  1
18.93
 73
     1
 44
1.0
1001
ACAD
1000
MTEXTBEGIN
1070
    73
1070
     1
1070
    44
1040
1.0
1070
    74
1070
     0
1000
MTEXTEND
  0
POINT
  5
ABC
330
A3F
100
AcDbEntity
  8
Defpoints
 62
     0
100
AcDbPoint
 10
459.0394666891951
 20
-324.3678473398762
 30
0.0
  0
POINT
  5
ABD
330
A3F
100
AcDbEntity
  8
Defpoints
 62
     0
100
AcDbPoint
 10
454.307105984979
 20
-324.3678473398762
 30
0.0
  0
POINT
  5
ABE
330
A3F
100
AcDbEntity
  8
Defpoints
 62
     0
100
AcDbPoint
 10
454.307105984979
 20
-325.1862608473326
 30
0.0
  0
ENDBLK
  5
A41
330
A3F
100
AcDbEntity
  8
0
100
AcDbBlockEnd
  0
BLOCK
  5
A4E
330
A4D
100
AcDbEntity
  8
0
100
AcDbBlockBegin
  2
*D26
 70
     1
 10
0.0
 20
0.0
 30
0.0
  3
*D26
  1

  0
LINE
  5
ABF
330
A4D
100
AcDbEntity
  8
0
 62
     0
370
    -2
100
AcDbLine
 10
456.2350398380567
 20
-329.673687546466
 30
0.0
 11
456.2350398380567
 21
-331.9836086233415
 31
0.0
  0
LINE
  5
AC0
330
A4D
100
AcDbEntity
  8
0
 62
     0
370
    -2
100
AcDbLine
 10
451.6463646359088
 20
-329.673687546466
 30
0.0
 11
451.6463646359088
 21
-331.9836086233415
 31
0.0
  0
LINE
  5
AC1
330
A4D
100
AcDbEntity
  8
0
 62
     0
370
    -2
100
AcDbLine
 10
458.7350398380567
 20
-330.7336086233415
 30
0.0
 11
461.2350398380567
 21
-330.7336086233415
 31
0.0
  0
LINE
  5
AC2
330
A4D
100
AcDbEntity
  8
0
 62
     0
370
    -2
100
AcDbLine
 10
449.1463646359088
 20
-330.7336086233415
 30
0.0
 11
434.3963646359088
 21
-330.7336086233415
 31
0.0
  0
LINE
  5
AC3
330
A4D
100
AcDbEntity
  8
0
 62
     0
370
    -2
100
AcDbLine
 10
456.2350398380567
 20
-330.7336086233415
 30
0.0
 11
451.6463646359088
 21
-330.7336086233415
 31
0.0
  0
INSERT
  5
AC4
330
A4D
100
AcDbEntity
  8
0
 62
     0
370
    -2
100
AcDbBlockReference
  2
_Open30
 10
456.2350398380567
 20
-330.7336086233415
 30
0.0
 41
2.5
 42
2.5
 43
2.5
 50
180.0
  0
INSERT
  5
AC5
330
A4D
100
AcDbEntity
  8
0
 62
     0
370
    -2
100
AcDbBlockReference
  2
_Open30
 10
451.6463646359088
 20
-330.7336086233415
 30
0.0
 41
2.5
 42
2.5
 43
2.5
  0
MTEXT
  5
AC6
330
A4D
100
AcDbEntity
  8
0
 62
     4
100
AcDbMText
 10
440.5213646359088
 20
-328.6086086233415
 30
0.0
 40
3.0
 41
0.0
 71
     5
 72
     1
  1
13.77
 73
     1
 44
1.0
1001
ACAD
1000
MTEXTBEGIN
1070
    73
1070
     1
1070
    44
1040
1.0
1070
    74
1070
     0
1000
MTEXTEND
  0
POINT
  5
AC7
330
A4D
100
AcDbEntity
  8
Defpoints
 62
     0
100
AcDbPoint
 10
456.2350398380567
 20
-329.423687546466
 30
0.0
  0
POINT
  5
AC8
330
A4D
100
AcDbEntity
  8
Defpoints
 62
     0
100
AcDbPoint
 10
451.6463646359088
 20
-329.423687546466
 30
0.0
  0
POINT
  5
AC9
330
A4D
100
AcDbEntity
  8
Defpoints
 62
     0
100
AcDbPoint
 10
451.6463646359088
 20
-330.7336086233415
 30
0.0
  0
ENDBLK
  5
A4F
330
A4D
100
AcDbEntity
  8
0
100
AcDbBlockEnd
  0
BLOCK
  5
A5C
330
A5B
100
AcDbEntity
  8
0
100
AcDbBlockBegin
  2
*D27
 70
     1
 10
0.0
 20
0.0
 30
0.0
  3
*D27
  1

  0
LINE
  5
ACA
330
A5B
100
AcDbEntity
  8
0
 62
     0
370
    -2
100
AcDbLine
 10
449.1387570049064
 20
-298.7441962281916
 30
0.0
 11
449.1387570049064
 21
-291.3476627502539
 31
0.0
  0
LINE
  5
ACB
330
A5B
100
AcDbEntity
  8
0
 62
     0
370
    -2
100
AcDbLine
 10
439.2002826354164
 20
-298.7441962281916
 30
0.0
 11
439.2002826354164
 21
-291.3476627502539
 31
0.0
  0
LINE
  5
ACC
330
A5B
100
AcDbEntity
  8
0
 62
     0
370
    -2
100
AcDbLine
 10
446.6387570049064
 20
-292.5976627502539
 30
0.0
 11
441.7002826354164
 21
-292.5976627502539
 31
0.0
  0
INSERT
  5
ACD
330
A5B
100
AcDbEntity
  8
0
 62
     0
370
    -2
100
AcDbBlockReference
  2
_Open30
 10
449.1387570049064
 20
-292.5976627502539
 30
0.0
 41
2.5
 42
2.5
 43
2.5
  0
INSERT
  5
ACE
330
A5B
100
AcDbEntity
  8
0
 62
     0
370
    -2
100
AcDbBlockReference
  2
_Open30
 10
439.2002826354164
 20
-292.5976627502539
 30
0.0
 41
2.5
 42
2.5
 43
2.5
 50
180.0
  0
MTEXT
  5
ACF
330
A5B
100
AcDbEntity
  8
0
 62
     4
100
AcDbMText
 10
444.1695198201614
 20
-289.5226627502539
 30
0.0
 40
3.0
 41
0.0
 71
     5
 72
     1
  1
9.94\H0.7X;\S+0^ -0.02;
 73
     1
 44
1.0
1001
ACAD
1000
MTEXTBEGIN
1070
    73
1070
     1
1070
    44
1040
1.0
1070
    74
1070
     0
1000
MTEXTEND
  0
POINT
  5
AD0
330
A5B
100
AcDbEntity
  8
Defpoints
 62
     0
100
AcDbPoint
 10
449.1387570049064
 20
-298.9941962281916
 30
0.0
  0
POINT
  5
AD1
330
A5B
100
AcDbEntity
  8
Defpoints
 62
     0
100
AcDbPoint
 10
439.2002826354164
 20
-298.9941962281916
 30
0.0
  0
POINT
  5
AD2
330
A5B
100
AcDbEntity
  8
Defpoints
 62
     0
100
AcDbPoint
 10
439.2002826354164
 20
-292.5976627502539
 30
0.0
  0
ENDBLK
  5
A5D
330
A5B
100
AcDbEntity
  8
0
100
AcDbBlockEnd
  0
BLOCK
  5
B05
330
B04
100
AcDbEntity
  8
0
100
AcDbBlockBegin
  2
*D28
 70
     1
 10
0.0
 20
0.0
 30
0.0
  3
*D28
  1

  0
LINE
  5
B06
330
B04
100
AcDbEntity
  8
0
 62
     0
370
    -2
100
AcDbLine
 10
4110.161461199907
 20
-315.7908947684029
 30
0.0
 11
4110.161461199907
 21
-313.7946047105488
 31
0.0
  0
LINE
  5
B07
330
B04
100
AcDbEntity
  8
0
 62
     0
370
    -2
100
AcDbLine
 10
4108.761461199907
 20
-315.7908947684067
 30
0.0
 11
4108.761461199907
 21
-313.7946047105488
 31
0.0
  0
LINE
  5
B08
330
B04
100
AcDbEntity
  8
0
 62
     0
370
    -2
100
AcDbLine
 10
4112.661461199906
 20
-315.0446047105488
 30
0.0
 11
4115.161461199906
 21
-315.0446047105488
 31
0.0
  0
LINE
  5
B09
330
B04
100
AcDbEntity
  8
0
 62
     0
370
    -2
100
AcDbLine
 10
4106.261461199907
 20
-315.0446047105488
 30
0.0
 11
4097.578127866573
 21
-315.0446047105488
 31
0.0
  0
LINE
  5
B0A
330
B04
100
AcDbEntity
  8
0
 62
     0
370
    -2
100
AcDbLine
 10
4110.161461199907
 20
-315.0446047105488
 30
0.0
 11
4108.761461199907
 21
-315.0446047105488
 31
0.0
  0
INSERT
  5
B0B
330
B04
100
AcDbEntity
  8
0
 62
     0
370
    -2
100
AcDbBlockReference
  2
_Open30
 10
4110.161461199907
 20
-315.0446047105488
 30
0.0
 41
2.5
 42
2.5
 43
2.5
 50
180.0
  0
INSERT
  5
B0C
330
B04
100
AcDbEntity
  8
0
 62
     0
370
    -2
100
AcDbBlockReference
  2
_Open30
 10
4108.761461199907
 20
-315.0446047105488
 30
0.0
 41
2.5
 42
2.5
 43
2.5
  0
MTEXT
  5
B0D
330
B04
100
AcDbEntity
  8
0
 62
     4
100
AcDbMText
 10
4100.26979453324
 20
-313.9196047105488
 30
0.0
 40
1.0
 41
0.0
 71
     5
 72
     1
  1
1.4以下
 73
     1
 44
1.0
1001
ACAD
1000
MTEXTBEGIN
1070
    73
1070
     1
1070
    44
1040
1.0
1070
    74
1070
     0
1000
MTEXTEND
  0
POINT
  5
B0E
330
B04
100
AcDbEntity
  8
Defpoints
 62
     0
100
AcDbPoint
 10
4110.161461199907
 20
-316.0408947684029
 30
0.0
  0
POINT
  5
B0F
330
B04
100
AcDbEntity
  8
Defpoints
 62
     0
100
AcDbPoint
 10
4108.761461199907
 20
-316.0408947684067
 30
0.0
  0
POINT
  5
B10
330
B04
100
AcDbEntity
  8
Defpoints
 62
     0
100
AcDbPoint
 10
4108.761461199907
 20
-315.0446047105488
 30
0.0
  0
ENDBLK
  5
B11
330
B04
100
AcDbEntity
  8
0
100
AcDbBlockEnd
  0
BLOCK
  5
B13
330
B12
100
AcDbEntity
  8
0
100
AcDbBlockBegin
  2
*D29
 70
     1
 10
0.0
 20
0.0
 30
0.0
  3
*D29
  1

  0
LINE
  5
B14
330
B12
100
AcDbEntity
  8
0
 62
     0
370
    -2
100
AcDbLine
 10
4098.211461199905
 20
-319.040894768403
 30
0.0
 11
4086.495627771828
 21
-319.040894768403
 31
0.0
  0
LINE
  5
B15
330
B12
100
AcDbEntity
  8
0
 62
     0
370
    -2
100
AcDbLine
 10
4089.243275448761
 20
-339.040894768403
 30
0.0
 11
4086.495627771828
 21
-339.040894768403
 31
0.0
  0
LINE
  5
B16
330
B12
100
AcDbEntity
  8
0
 62
     0
370
    -2
100
AcDbLine
 10
4087.745627771829
 20
-321.5408947684029
 30
0.0
 11
4087.745627771829
 21
-336.5408947684029
 31
0.0
  0
INSERT
  5
B17
330
B12
100
AcDbEntity
  8
0
 62
     0
370
    -2
100
AcDbBlockReference
  2
_Open30
 10
4087.745627771829
 20
-319.040894768403
 30
0.0
 41
2.5
 42
2.5
 43
2.5
 50
90.0
  0
INSERT
  5
B18
330
B12
100
AcDbEntity
  8
0
 62
     0
370
    -2
100
AcDbBlockReference
  2
_Open30
 10
4087.745627771829
 20
-339.040894768403
 30
0.0
 41
2.5
 42
2.5
 43
2.5
 50
270.0
  0
MTEXT
  5
B19
330
B12
100
AcDbEntity
  8
0
 62
     4
100
AcDbMText
 10
4086.620627771828
 20
-330.5408947684033
 30
0.0
 40
1.0
 41
0.0
 71
     5
 72
     1
  1
20
 11
0.0000000000000001
 21
1.0
 31
0.0
 73
     1
 44
1.0
1001
ACAD
1000
MTEXTBEGIN
1070
    73
1070
     1
1070
    44
1040
1.0
1070
    74
1070
     0
1000
MTEXTEND
  0
POINT
  5
B1A
330
B12
100
AcDbEntity
  8
Defpoints
 62
     0
100
AcDbPoint
 10
4098.461461199906
 20
-319.040894768403
 30
0.0
  0
POINT
  5
B1B
330
B12
100
AcDbEntity
  8
Defpoints
 62
     0
100
AcDbPoint
 10
4089.493275448761
 20
-339.040894768403
 30
0.0
  0
POINT
  5
B1C
330
B12
100
AcDbEntity
  8
Defpoints
 62
     0
100
AcDbPoint
 10
4087.745627771829
 20
-339.040894768403
 30
0.0
  0
ENDBLK
  5
B1D
330
B12
100
AcDbEntity
  8
0
100
AcDbBlockEnd
  0
BLOCK
  5
B1F
330
B1E
100
AcDbEntity
  8
0
100
AcDbBlockBegin
  2
*D30
 70
     1
 10
0.0
 20
0.0
 30
0.0
  3
*D30
  1

  0
LINE
  5
B20
330
B1E
100
AcDbEntity
  8
0
 62
     0
370
    -2
100
AcDbLine
 10
4110.461461199906
 20
-298.2323387533156
 30
0.0
 11
4110.461461199906
 21
-301.8598304646112
 31
0.0
  0
LINE
  5
B21
330
B1E
100
AcDbEntity
  8
0
 62
     0
370
    -2
100
AcDbLine
 10
4108.461461199907
 20
-298.2323387533156
 30
0.0
 11
4108.461461199907
 21
-301.8598304646112
 31
0.0
  0
LINE
  5
B22
330
B1E
100
AcDbEntity
  8
0
 62
     0
370
    -2
100
AcDbLine
 10
4107.461461199906
 20
-301.3598304646111
 30
0.0
 11
4106.461461199907
 21
-301.3598304646111
 31
0.0
  0
LINE
  5
B23
330
B1E
100
AcDbEntity
  8
0
 62
     0
370
    -2
100
AcDbLine
 10
4111.461461199906
 20
-301.3598304646111
 30
0.0
 11
4117.711461199906
 21
-301.3598304646111
 31
0.0
  0
LINE
  5
B24
330
B1E
100
AcDbEntity
  8
0
 62
     0
370
    -2
100
AcDbLine
 10
4108.461461199907
 20
-301.3598304646111
 30
0.0
 11
4110.461461199906
 21
-301.3598304646111
 31
0.0
  0
INSERT
  5
B25
330
B1E
100
AcDbEntity
  8
0
 62
     0
370
    -2
100
AcDbBlockReference
  2
_Open30
 10
4108.461461199907
 20
-301.3598304646111
 30
0.0
  0
INSERT
  5
B26
330
B1E
100
AcDbEntity
  8
0
 62
     0
370
    -2
100
AcDbBlockReference
  2
_Open30
 10
4110.461461199906
 20
-301.3598304646111
 30
0.0
 50
180.0
  0
MTEXT
  5
B27
330
B1E
100
AcDbEntity
  8
0
 62
     4
100
AcDbMText
 10
4115.336461199906
 20
-300.2348304646111
 30
0.0
 40
1.0
 41
0.0
 71
     5
 72
     1
  1
2\U+00B10.1
 73
     1
 44
1.0
1001
ACAD
1000
MTEXTBEGIN
1070
    73
1070
     1
1070
    44
1040
1.0
1070
    74
1070
     0
1000
MTEXTEND
  0
POINT
  5
B28
330
B1E
100
AcDbEntity
  8
Defpoints
 62
     0
100
AcDbPoint
 10
4110.461461199906
 20
-297.9823387533156
 30
0.0
  0
POINT
  5
B29
330
B1E
100
AcDbEntity
  8
Defpoints
 62
     0
100
AcDbPoint
 10
4108.461461199907
 20
-297.9823387533156
 30
0.0
  0
POINT
  5
B2A
330
B1E
100
AcDbEntity
  8
Defpoints
 62
     0
100
AcDbPoint
 10
4108.461461199907
 20
-301.3598304646111
 30
0.0
  0
ENDBLK
  5
B2B
330
B1E
100
AcDbEntity
  8
0
100
AcDbBlockEnd
  0
BLOCK
  5
B2D
330
B2C
100
AcDbEntity
  8
0
100
AcDbBlockBegin
  2
*D31
 70
     1
 10
0.0
 20
0.0
 30
0.0
  3
*D31
  1

  0
LINE
  5
B2E
330
B2C
100
AcDbEntity
  8
0
 62
     0
370
    -2
100
AcDbLine
 10
4103.285773489668
 20
-293.9823387533156
 30
0.0
 11
4085.198053015003
 21
-293.9823387533156
 31
0.0
  0
LINE
  5
B2F
330
B2C
100
AcDbEntity
  8
0
 62
     0
370
    -2
100
AcDbLine
 10
4097.36008577943
 20
-284.4823387533156
 30
0.0
 11
4085.198053015003
 21
-284.4823387533156
 31
0.0
  0
LINE
  5
B30
330
B2C
100
AcDbEntity
  8
0
 62
     0
370
    -2
100
AcDbLine
 10
4086.448053015003
 20
-291.4823387533156
 30
0.0
 11
4086.448053015003
 21
-286.9823387533156
 31
0.0
  0
INSERT
  5
B31
330
B2C
100
AcDbEntity
  8
0
 62
     0
370
    -2
100
AcDbBlockReference
  2
_Open30
 10
4086.448053015003
 20
-293.9823387533156
 30
0.0
 41
2.5
 42
2.5
 43
2.5
 50
270.0
  0
INSERT
  5
B32
330
B2C
100
AcDbEntity
  8
0
 62
     0
370
    -2
100
AcDbBlockReference
  2
_Open30
 10
4086.448053015003
 20
-284.4823387533156
 30
0.0
 41
2.5
 42
2.5
 43
2.5
 50
90.0
  0
MTEXT
  5
B33
330
B2C
100
AcDbEntity
  8
0
 62
     4
100
AcDbMText
 10
4085.323053015002
 20
-288.7886621060491
 30
0.0
 40
1.0
 41
0.0
 71
     5
 72
     1
  1
9.5\U+00B10.15
 11
0.0000000000000001
 21
1.0
 31
0.0
 73
     1
 44
1.0
1001
ACAD
1000
MTEXTBEGIN
1070
    73
1070
     1
1070
    44
1040
1.0
1070
    74
1070
     0
1000
MTEXTEND
  0
POINT
  5
B34
330
B2C
100
AcDbEntity
  8
Defpoints
 62
     0
100
AcDbPoint
 10
4103.535773489667
 20
-293.9823387533156
 30
0.0
  0
POINT
  5
B35
330
B2C
100
AcDbEntity
  8
Defpoints
 62
     0
100
AcDbPoint
 10
4097.61008577943
 20
-284.4823387533156
 30
0.0
  0
POINT
  5
B36
330
B2C
100
AcDbEntity
  8
Defpoints
 62
     0
100
AcDbPoint
 10
4086.448053015003
 20
-284.4823387533156
 30
0.0
  0
ENDBLK
  5
B37
330
B2C
100
AcDbEntity
  8
0
100
AcDbBlockEnd
  0
BLOCK
  5
B39
330
B38
100
AcDbEntity
  8
0
100
AcDbBlockBegin
  2
*D32
 70
     1
 10
0.0
 20
0.0
 30
0.0
  3
*D32
  1

  0
LINE
  5
B3A
330
B38
100
AcDbEntity
  8
0
 62
     0
370
    -2
100
AcDbLine
 10
4103.285773489668
 20
-274.1823387533156
 30
0.0
 11
4085.198053015003
 21
-274.1823387533156
 31
0.0
  0
LINE
  5
B3B
330
B38
100
AcDbEntity
  8
0
 62
     0
370
    -2
100
AcDbLine
 10
4097.36008577943
 20
-284.4823387533156
 30
0.0
 11
4085.198053015003
 21
-284.4823387533156
 31
0.0
  0
LINE
  5
B3C
330
B38
100
AcDbEntity
  8
0
 62
     0
370
    -2
100
AcDbLine
 10
4086.448053015003
 20
-276.6823387533156
 30
0.0
 11
4086.448053015003
 21
-281.9823387533156
 31
0.0
  0
INSERT
  5
B3D
330
B38
100
AcDbEntity
  8
0
 62
     0
370
    -2
100
AcDbBlockReference
  2
_Open30
 10
4086.448053015003
 20
-274.1823387533156
 30
0.0
 41
2.5
 42
2.5
 43
2.5
 50
90.0
  0
INSERT
  5
B3E
330
B38
100
AcDbEntity
  8
0
 62
     0
370
    -2
100
AcDbBlockReference
  2
_Open30
 10
4086.448053015003
 20
-284.4823387533156
 30
0.0
 41
2.5
 42
2.5
 43
2.5
 50
270.0
  0
MTEXT
  5
B3F
330
B38
100
AcDbEntity
  8
0
 62
     4
100
AcDbMText
 10
4085.323053015002
 20
-279.3323387533156
 30
0.0
 40
1.0
 41
0.0
 71
     5
 72
     1
  1
10.3\U+00B10.15
 11
0.0000000000000001
 21
1.0
 31
0.0
 73
     1
 44
1.0
1001
ACAD
1000
MTEXTBEGIN
1070
    73
1070
     1
1070
    44
1040
1.0
1070
    74
1070
     0
1000
MTEXTEND
  0
POINT
  5
B40
330
B38
100
AcDbEntity
  8
Defpoints
 62
     0
100
AcDbPoint
 10
4103.535773489667
 20
-274.1823387533156
 30
0.0
  0
POINT
  5
B41
330
B38
100
AcDbEntity
  8
Defpoints
 62
     0
100
AcDbPoint
 10
4097.61008577943
 20
-284.4823387533156
 30
0.0
  0
POINT
  5
B42
330
B38
100
AcDbEntity
  8
Defpoints
 62
     0
100
AcDbPoint
 10
4086.448053015003
 20
-284.4823387533156
 30
0.0
  0
ENDBLK
  5
B43
330
B38
100
AcDbEntity
  8
0
100
AcDbBlockEnd
  0
BLOCK
  5
B45
330
B44
100
AcDbEntity
  8
0
100
AcDbBlockBegin
  2
*D33
 70
     1
 10
0.0
 20
0.0
 30
0.0
  3
*D33
  1

  0
LINE
  5
B46
330
B44
100
AcDbEntity
  8
0
 62
     0
370
    -2
100
AcDbLine
 10
4113.711461199907
 20
-275.1823387533156
 30
0.0
 11
4121.082768709252
 21
-275.1823387533156
 31
0.0
  0
LINE
  5
B47
330
B44
100
AcDbEntity
  8
0
 62
     0
370
    -2
100
AcDbLine
 10
4113.711461199907
 20
-273.1823387533157
 30
0.0
 11
4121.082768709252
 21
-273.1823387533157
 31
0.0
  0
LINE
  5
B48
330
B44
100
AcDbEntity
  8
0
 62
     0
370
    -2
100
AcDbLine
 10
4119.832768709251
 20
-277.6823387533156
 30
0.0
 11
4119.832768709251
 21
-280.1823387533156
 31
0.0
  0
LINE
  5
B49
330
B44
100
AcDbEntity
  8
0
 62
     0
370
    -2
100
AcDbLine
 10
4119.832768709251
 20
-270.6823387533157
 30
0.0
 11
4119.832768709251
 21
-262.9323387533158
 31
0.0
  0
LINE
  5
B4A
330
B44
100
AcDbEntity
  8
0
 62
     0
370
    -2
100
AcDbLine
 10
4119.832768709251
 20
-275.1823387533156
 30
0.0
 11
4119.832768709251
 21
-273.1823387533157
 31
0.0
  0
INSERT
  5
B4B
330
B44
100
AcDbEntity
  8
0
 62
     0
370
    -2
100
AcDbBlockReference
  2
_Open30
 10
4119.832768709251
 20
-275.1823387533156
 30
0.0
 41
2.5
 42
2.5
 43
2.5
 50
90.0
  0
INSERT
  5
B4C
330
B44
100
AcDbEntity
  8
0
 62
     0
370
    -2
100
AcDbBlockReference
  2
_Open30
 10
4119.832768709251
 20
-273.1823387533157
 30
0.0
 41
2.5
 42
2.5
 43
2.5
 50
270.0
  0
MTEXT
  5
B4D
330
B44
100
AcDbEntity
  8
0
 62
     4
100
AcDbMText
 10
4118.707768709252
 20
-265.3073387533151
 30
0.0
 40
1.0
 41
0.0
 71
     5
 72
     1
  1
2\U+00B10.1
 11
0.0000000000000001
 21
1.0
 31
0.0
 73
     1
 44
1.0
1001
ACAD
1000
MTEXTBEGIN
1070
    73
1070
     1
1070
    44
1040
1.0
1070
    74
1070
     0
1000
MTEXTEND
  0
POINT
  5
B4E
330
B44
100
AcDbEntity
  8
Defpoints
 62
     0
100
AcDbPoint
 10
4113.461461199906
 20
-275.1823387533156
 30
0.0
  0
POINT
  5
B4F
330
B44
100
AcDbEntity
  8
Defpoints
 62
     0
100
AcDbPoint
 10
4113.461461199906
 20
-273.1823387533157
 30
0.0
  0
POINT
  5
B50
330
B44
100
AcDbEntity
  8
Defpoints
 62
     0
100
AcDbPoint
 10
4119.832768709251
 20
-273.1823387533157
 30
0.0
  0
ENDBLK
  5
B51
330
B44
100
AcDbEntity
  8
0
100
AcDbBlockEnd
  0
BLOCK
  5
B53
330
B52
100
AcDbEntity
  8
0
100
AcDbBlockBegin
  2
*D34
 70
     1
 10
0.0
 20
0.0
 30
0.0
  3
*D34
  1

  0
LINE
  5
B54
330
B52
100
AcDbEntity
  8
0
 62
     0
370
    -2
100
AcDbLine
 10
4118.761461199907
 20
-280.2323387533156
 30
0.0
 11
4118.761461199907
 21
-277.2949951939791
 31
0.0
  0
LINE
  5
B55
330
B52
100
AcDbEntity
  8
0
 62
     0
370
    -2
100
AcDbLine
 10
4120.761461199907
 20
-280.2323387533156
 30
0.0
 11
4120.761461199907
 21
-277.2949951939791
 31
0.0
  0
LINE
  5
B56
330
B52
100
AcDbEntity
  8
0
 62
     0
370
    -2
100
AcDbLine
 10
4116.261461199907
 20
-278.544995193979
 30
0.0
 11
4113.761461199906
 21
-278.544995193979
 31
0.0
  0
LINE
  5
B57
330
B52
100
AcDbEntity
  8
0
 62
     0
370
    -2
100
AcDbLine
 10
4123.261461199906
 20
-278.544995193979
 30
0.0
 11
4131.011461199906
 21
-278.544995193979
 31
0.0
  0
LINE
  5
B58
330
B52
100
AcDbEntity
  8
0
 62
     0
370
    -2
100
AcDbLine
 10
4118.761461199907
 20
-278.544995193979
 30
0.0
 11
4120.761461199907
 21
-278.544995193979
 31
0.0
  0
INSERT
  5
B59
330
B52
100
AcDbEntity
  8
0
 62
     0
370
    -2
100
AcDbBlockReference
  2
_Open30
 10
4118.761461199907
 20
-278.544995193979
 30
0.0
 41
2.5
 42
2.5
 43
2.5
  0
INSERT
  5
B5A
330
B52
100
AcDbEntity
  8
0
 62
     0
370
    -2
100
AcDbBlockReference
  2
_Open30
 10
4120.761461199907
 20
-278.544995193979
 30
0.0
 41
2.5
 42
2.5
 43
2.5
 50
180.0
  0
MTEXT
  5
B5B
330
B52
100
AcDbEntity
  8
0
 62
     4
100
AcDbMText
 10
4128.636461199906
 20
-277.419995193979
 30
0.0
 40
1.0
 41
0.0
 71
     5
 72
     1
  1
2\U+00B10.1
 73
     1
 44
1.0
1001
ACAD
1000
MTEXTBEGIN
1070
    73
1070
     1
1070
    44
1040
1.0
1070
    74
1070
     0
1000
MTEXTEND
  0
POINT
  5
B5C
330
B52
100
AcDbEntity
  8
Defpoints
 62
     0
100
AcDbPoint
 10
4118.761461199907
 20
-280.4823387533156
 30
0.0
  0
POINT
  5
B5D
330
B52
100
AcDbEntity
  8
Defpoints
 62
     0
100
AcDbPoint
 10
4120.761461199907
 20
-280.4823387533156
 30
0.0
  0
POINT
  5
B5E
330
B52
100
AcDbEntity
  8
Defpoints
 62
     0
100
AcDbPoint
 10
4120.761461199907
 20
-278.544995193979
 30
0.0
  0
ENDBLK
  5
B5F
330
B52
100
AcDbEntity
  8
0
100
AcDbBlockEnd
  0
BLOCK
  5
B61
330
B60
100
AcDbEntity
  8
0
100
AcDbBlockBegin
  2
*D35
 70
     1
 10
0.0
 20
0.0
 30
0.0
  3
*D35
  1

  0
LINE
  5
B62
330
B60
100
AcDbEntity
  8
0
 62
     0
370
    -2
100
AcDbLine
 10
4121.011461199906
 20
-280.4823387533156
 30
0.0
 11
4126.30534128122
 21
-280.4823387533156
 31
0.0
  0
LINE
  5
B63
330
B60
100
AcDbEntity
  8
0
 62
     0
370
    -2
100
AcDbLine
 10
4121.011461199906
 20
-288.4823387533156
 30
0.0
 11
4126.30534128122
 21
-288.4823387533156
 31
0.0
  0
LINE
  5
B64
330
B60
100
AcDbEntity
  8
0
 62
     0
370
    -2
100
AcDbLine
 10
4125.05534128122
 20
-282.9823387533156
 30
0.0
 11
4125.05534128122
 21
-285.9823387533156
 31
0.0
  0
INSERT
  5
B65
330
B60
100
AcDbEntity
  8
0
 62
     0
370
    -2
100
AcDbBlockReference
  2
_Open30
 10
4125.05534128122
 20
-280.4823387533156
 30
0.0
 41
2.5
 42
2.5
 43
2.5
 50
90.0
  0
INSERT
  5
B66
330
B60
100
AcDbEntity
  8
0
 62
     0
370
    -2
100
AcDbBlockReference
  2
_Open30
 10
4125.05534128122
 20
-288.4823387533156
 30
0.0
 41
2.5
 42
2.5
 43
2.5
 50
270.0
  0
MTEXT
  5
B67
330
B60
100
AcDbEntity
  8
0
 62
     4
100
AcDbMText
 10
4123.93034128122
 20
-284.4823387533151
 30
0.0
 40
1.0
 41
0.0
 71
     5
 72
     1
  1
8\U+00B10.15
 11
0.0000000000000001
 21
1.0
 31
0.0
 73
     1
 44
1.0
1001
ACAD
1000
MTEXTBEGIN
1070
    73
1070
     1
1070
    44
1040
1.0
1070
    74
1070
     0
1000
MTEXTEND
  0
POINT
  5
B68
330
B60
100
AcDbEntity
  8
Defpoints
 62
     0
100
AcDbPoint
 10
4120.761461199907
 20
-280.4823387533156
 30
0.0
  0
POINT
  5
B69
330
B60
100
AcDbEntity
  8
Defpoints
 62
     0
100
AcDbPoint
 10
4120.761461199907
 20
-288.4823387533156
 30
0.0
  0
POINT
  5
B6A
330
B60
100
AcDbEntity
  8
Defpoints
 62
     0
100
AcDbPoint
 10
4125.05534128122
 20
-288.4823387533156
 30
0.0
  0
ENDBLK
  5
B6B
330
B60
100
AcDbEntity
  8
0
100
AcDbBlockEnd
  0
BLOCK
  5
B6D
330
B6C
100
AcDbEntity
  8
0
100
AcDbBlockBegin
  2
*D36
 70
     1
 10
0.0
 20
0.0
 30
0.0
  3
*D36
  1

  0
LINE
  5
B6E
330
B6C
100
AcDbEntity
  8
0
 62
     0
370
    -2
100
AcDbLine
 10
4097.911461199906
 20
-280.4823387533156
 30
0.0
 11
4093.605862966761
 21
-280.4823387533156
 31
0.0
  0
LINE
  5
B6F
330
B6C
100
AcDbEntity
  8
0
 62
     0
370
    -2
100
AcDbLine
 10
4097.911461199906
 20
-288.4823387533156
 30
0.0
 11
4093.605862966761
 21
-288.4823387533156
 31
0.0
  0
LINE
  5
B70
330
B6C
100
AcDbEntity
  8
0
 62
     0
370
    -2
100
AcDbLine
 10
4094.855862966761
 20
-282.9823387533156
 30
0.0
 11
4094.855862966761
 21
-285.9823387533156
 31
0.0
  0
INSERT
  5
B71
330
B6C
100
AcDbEntity
  8
0
 62
     0
370
    -2
100
AcDbBlockReference
  2
_Open30
 10
4094.855862966761
 20
-280.4823387533156
 30
0.0
 41
2.5
 42
2.5
 43
2.5
 50
90.0
  0
INSERT
  5
B72
330
B6C
100
AcDbEntity
  8
0
 62
     0
370
    -2
100
AcDbBlockReference
  2
_Open30
 10
4094.855862966761
 20
-288.4823387533156
 30
0.0
 41
2.5
 42
2.5
 43
2.5
 50
270.0
  0
MTEXT
  5
B73
330
B6C
100
AcDbEntity
  8
0
 62
     4
100
AcDbMText
 10
4093.730862966761
 20
-284.4823387533151
 30
0.0
 40
1.0
 41
0.0
 71
     5
 72
     1
  1
8\U+00B10.15
 11
0.0000000000000001
 21
1.0
 31
0.0
 73
     1
 44
1.0
1001
ACAD
1000
MTEXTBEGIN
1070
    73
1070
     1
1070
    44
1040
1.0
1070
    74
1070
     0
1000
MTEXTEND
  0
POINT
  5
B74
330
B6C
100
AcDbEntity
  8
Defpoints
 62
     0
100
AcDbPoint
 10
4098.161461199906
 20
-280.4823387533156
 30
0.0
  0
POINT
  5
B75
330
B6C
100
AcDbEntity
  8
Defpoints
 62
     0
100
AcDbPoint
 10
4098.161461199906
 20
-288.4823387533156
 30
0.0
  0
POINT
  5
B76
330
B6C
100
AcDbEntity
  8
Defpoints
 62
     0
100
AcDbPoint
 10
4094.855862966761
 20
-288.4823387533156
 30
0.0
  0
ENDBLK
  5
B77
330
B6C
100
AcDbEntity
  8
0
100
AcDbBlockEnd
  0
BLOCK
  5
B79
330
B78
100
AcDbEntity
  8
0
100
AcDbBlockBegin
  2
*D37
 70
     1
 10
0.0
 20
0.0
 30
0.0
  3
*D37
  1

  0
LINE
  5
B7A
330
B78
100
AcDbEntity
  8
0
 62
     0
370
    -2
100
AcDbLine
 10
4100.161461199906
 20
-280.2323387533156
 30
0.0
 11
4100.161461199906
 21
-275.9582404141638
 31
0.0
  0
LINE
  5
B7B
330
B78
100
AcDbEntity
  8
0
 62
     0
370
    -2
100
AcDbLine
 10
4098.161461199906
 20
-280.2323387533156
 30
0.0
 11
4098.161461199906
 21
-275.9582404141638
 31
0.0
  0
LINE
  5
B7C
330
B78
100
AcDbEntity
  8
0
 62
     0
370
    -2
100
AcDbLine
 10
4102.661461199907
 20
-277.2082404141638
 30
0.0
 11
4105.161461199906
 21
-277.2082404141638
 31
0.0
  0
LINE
  5
B7D
330
B78
100
AcDbEntity
  8
0
 62
     0
370
    -2
100
AcDbLine
 10
4095.661461199906
 20
-277.2082404141638
 30
0.0
 11
4088.211461199906
 21
-277.2082404141638
 31
0.0
  0
LINE
  5
B7E
330
B78
100
AcDbEntity
  8
0
 62
     0
370
    -2
100
AcDbLine
 10
4100.161461199906
 20
-277.2082404141638
 30
0.0
 11
4098.161461199906
 21
-277.2082404141638
 31
0.0
  0
INSERT
  5
B7F
330
B78
100
AcDbEntity
  8
0
 62
     0
370
    -2
100
AcDbBlockReference
  2
_Open30
 10
4100.161461199906
 20
-277.2082404141638
 30
0.0
 41
2.5
 42
2.5
 43
2.5
 50
180.0
  0
INSERT
  5
B80
330
B78
100
AcDbEntity
  8
0
 62
     0
370
    -2
100
AcDbBlockReference
  2
_Open30
 10
4098.161461199906
 20
-277.2082404141638
 30
0.0
 41
2.5
 42
2.5
 43
2.5
  0
MTEXT
  5
B81
330
B78
100
AcDbEntity
  8
0
 62
     4
100
AcDbMText
 10
4090.586461199907
 20
-276.0832404141638
 30
0.0
 40
1.0
 41
0.0
 71
     5
 72
     1
  1
2\U+00B10.1
 73
     1
 44
1.0
1001
ACAD
1000
MTEXTBEGIN
1070
    73
1070
     1
1070
    44
1040
1.0
1070
    74
1070
     0
1000
MTEXTEND
  0
POINT
  5
B82
330
B78
100
AcDbEntity
  8
Defpoints
 62
     0
100
AcDbPoint
 10
4100.161461199906
 20
-280.4823387533156
 30
0.0
  0
POINT
  5
B83
330
B78
100
AcDbEntity
  8
Defpoints
 62
     0
100
AcDbPoint
 10
4098.161461199906
 20
-280.4823387533156
 30
0.0
  0
POINT
  5
B84
330
B78
100
AcDbEntity
  8
Defpoints
 62
     0
100
AcDbPoint
 10
4098.161461199906
 20
-277.2082404141638
 30
0.0
  0
ENDBLK
  5
B85
330
B78
100
AcDbEntity
  8
0
100
AcDbBlockEnd
  0
BLOCK
  5
B87
330
B86
100
AcDbEntity
  8
0
100
AcDbBlockBegin
  2
*D38
 70
     1
 10
0.0
 20
0.0
 30
0.0
  3
*D38
  1

  0
LINE
  5
B88
330
B86
100
AcDbEntity
  8
0
 62
     0
370
    -2
100
AcDbLine
 10
4119.761461199907
 20
-290.0210468032554
 30
0.0
 11
4119.761461199907
 21
-305.8569689979349
 31
0.0
  0
LINE
  5
B89
330
B86
100
AcDbEntity
  8
0
 62
     0
370
    -2
100
AcDbLine
 10
4099.161461199907
 20
-290.0210468032554
 30
0.0
 11
4099.161461199907
 21
-305.8569689979349
 31
0.0
  0
LINE
  5
B8A
330
B86
100
AcDbEntity
  8
0
 62
     0
370
    -2
100
AcDbLine
 10
4117.261461199907
 20
-304.6069689979349
 30
0.0
 11
4101.661461199906
 21
-304.6069689979349
 31
0.0
  0
INSERT
  5
B8B
330
B86
100
AcDbEntity
  8
0
 62
     0
370
    -2
100
AcDbBlockReference
  2
_Open30
 10
4119.761461199907
 20
-304.6069689979349
 30
0.0
 41
2.5
 42
2.5
 43
2.5
  0
INSERT
  5
B8C
330
B86
100
AcDbEntity
  8
0
 62
     0
370
    -2
100
AcDbBlockReference
  2
_Open30
 10
4099.161461199907
 20
-304.6069689979349
 30
0.0
 41
2.5
 42
2.5
 43
2.5
 50
180.0
  0
MTEXT
  5
B8D
330
B86
100
AcDbEntity
  8
0
 62
     4
100
AcDbMText
 10
4109.687119446301
 20
-303.4819689979349
 30
0.0
 40
1.0
 41
0.0
 71
     5
 72
     1
  1
20.6\U+00B10.2
 73
     1
 44
1.0
1001
ACAD
1000
MTEXTBEGIN
1070
    73
1070
     1
1070
    44
1040
1.0
1070
    74
1070
     0
1000
MTEXTEND
  0
POINT
  5
B8E
330
B86
100
AcDbEntity
  8
Defpoints
 62
     0
100
AcDbPoint
 10
4119.761461199907
 20
-289.7710468032554
 30
0.0
  0
POINT
  5
B8F
330
B86
100
AcDbEntity
  8
Defpoints
 62
     0
100
AcDbPoint
 10
4099.161461199907
 20
-289.7710468032554
 30
0.0
  0
POINT
  5
B90
330
B86
100
AcDbEntity
  8
Defpoints
 62
     0
100
AcDbPoint
 10
4099.161461199907
 20
-304.6069689979349
 30
0.0
  0
ENDBLK
  5
B91
330
B86
100
AcDbEntity
  8
0
100
AcDbBlockEnd
  0
BLOCK
  5
B93
330
B92
100
AcDbEntity
  8
0
100
AcDbBlockBegin
  2
*D39
 70
     1
 10
0.0
 20
0.0
 30
0.0
  3
*D39
  1

  0
LINE
  5
B94
330
B92
100
AcDbEntity
  8
0
 62
     0
370
    -2
100
AcDbLine
 10
4105.461461199907
 20
-272.9323387533156
 30
0.0
 11
4105.461461199907
 21
-265.7788731972752
 31
0.0
  0
LINE
  5
B95
330
B92
100
AcDbEntity
  8
0
 62
     0
370
    -2
100
AcDbLine
 10
4113.461461199906
 20
-272.9323387533156
 30
0.0
 11
4113.461461199906
 21
-265.7788731972752
 31
0.0
  0
LINE
  5
B96
330
B92
100
AcDbEntity
  8
0
 62
     0
370
    -2
100
AcDbLine
 10
4107.961461199907
 20
-267.0288731972752
 30
0.0
 11
4110.961461199907
 21
-267.0288731972752
 31
0.0
  0
INSERT
  5
B97
330
B92
100
AcDbEntity
  8
0
 62
     0
370
    -2
100
AcDbBlockReference
  2
_Open30
 10
4105.461461199907
 20
-267.0288731972752
 30
0.0
 41
2.5
 42
2.5
 43
2.5
 50
180.0
  0
INSERT
  5
B98
330
B92
100
AcDbEntity
  8
0
 62
     0
370
    -2
100
AcDbBlockReference
  2
_Open30
 10
4113.461461199906
 20
-267.0288731972752
 30
0.0
 41
2.5
 42
2.5
 43
2.5
  0
MTEXT
  5
B99
330
B92
100
AcDbEntity
  8
0
 62
     4
100
AcDbMText
 10
4109.461461199907
 20
-265.9038731972752
 30
0.0
 40
1.0
 41
0.0
 71
     5
 72
     1
  1
8\U+00B10.15
 73
     1
 44
1.0
1001
ACAD
1000
MTEXTBEGIN
1070
    73
1070
     1
1070
    44
1040
1.0
1070
    74
1070
     0
1000
MTEXTEND
  0
POINT
  5
B9A
330
B92
100
AcDbEntity
  8
Defpoints
 62
     0
100
AcDbPoint
 10
4105.461461199907
 20
-273.1823387533156
 30
0.0
  0
POINT
  5
B9B
330
B92
100
AcDbEntity
  8
Defpoints
 62
     0
100
AcDbPoint
 10
4113.461461199906
 20
-273.1823387533156
 30
0.0
  0
POINT
  5
B9C
330
B92
100
AcDbEntity
  8
Defpoints
 62
     0
100
AcDbPoint
 10
4113.461461199906
 20
-267.0288731972752
 30
0.0
  0
ENDBLK
  5
B9D
330
B92
100
AcDbEntity
  8
0
100
AcDbBlockEnd
  0
BLOCK
  5
B9F
330
B9E
100
AcDbEntity
  8
0
100
AcDbBlockBegin
  2
*D40
 70
     1
 10
0.0
 20
0.0
 30
0.0
  3
*D40
  1

  0
LINE
  5
BA0
330
B9E
100
AcDbEntity
  8
0
 62
     0
370
    -2
100
AcDbLine
 10
4108.211461199906
 20
-297.9823387533156
 30
0.0
 11
4104.316192259613
 21
-297.9823387533156
 31
0.0
  0
LINE
  5
BA1
330
B9E
100
AcDbEntity
  8
0
 62
     0
370
    -2
100
AcDbLine
 10
4108.211461199906
 20
-289.9823387533156
 30
0.0
 11
4104.316192259613
 21
-289.9823387533156
 31
0.0
  0
LINE
  5
BA2
330
B9E
100
AcDbEntity
  8
0
 62
     0
370
    -2
100
AcDbLine
 10
4105.566192259614
 20
-295.4823387533156
 30
0.0
 11
4105.566192259614
 21
-292.4823387533156
 31
0.0
  0
INSERT
  5
BA3
330
B9E
100
AcDbEntity
  8
0
 62
     0
370
    -2
100
AcDbBlockReference
  2
_Open30
 10
4105.566192259614
 20
-297.9823387533156
 30
0.0
 41
2.5
 42
2.5
 43
2.5
 50
270.0
  0
INSERT
  5
BA4
330
B9E
100
AcDbEntity
  8
0
 62
     0
370
    -2
100
AcDbBlockReference
  2
_Open30
 10
4105.566192259614
 20
-289.9823387533156
 30
0.0
 41
2.5
 42
2.5
 43
2.5
 50
90.0
  0
MTEXT
  5
BA5
330
B9E
100
AcDbEntity
  8
0
 62
     4
100
AcDbMText
 10
4104.441192259614
 20
-293.9823387533149
 30
0.0
 40
1.0
 41
0.0
 71
     5
 72
     1
  1
8\U+00B10.15
 11
0.0000000000000001
 21
1.0
 31
0.0
 73
     1
 44
1.0
1001
ACAD
1000
MTEXTBEGIN
1070
    73
1070
     1
1070
    44
1040
1.0
1070
    74
1070
     0
1000
MTEXTEND
  0
POINT
  5
BA6
330
B9E
100
AcDbEntity
  8
Defpoints
 62
     0
100
AcDbPoint
 10
4108.461461199907
 20
-297.9823387533156
 30
0.0
  0
POINT
  5
BA7
330
B9E
100
AcDbEntity
  8
Defpoints
 62
     0
100
AcDbPoint
 10
4108.461461199907
 20
-289.9823387533156
 30
0.0
  0
POINT
  5
BA8
330
B9E
100
AcDbEntity
  8
Defpoints
 62
     0
100
AcDbPoint
 10
4105.566192259614
 20
-289.9823387533156
 30
0.0
  0
ENDBLK
  5
BA9
330
B9E
100
AcDbEntity
  8
0
100
AcDbBlockEnd
  0
BLOCK
  5
C7E
330
C7D
100
AcDbEntity
  8
0
100
AcDbBlockBegin
  2
*D42
 70
     1
 10
0.0
 20
0.0
 30
0.0
  3
*D42
  1

  0
LINE
  5
CFF
330
C7D
100
AcDbEntity
  8
0
 62
     0
370
    -2
100
AcDbLine
 10
663.2629148037969
 20
-501.5350081616929
 30
0.0
 11
663.2629148037969
 21
-499.5387181038388
 31
0.0
  0
LINE
  5
D00
330
C7D
100
AcDbEntity
  8
0
 62
     0
370
    -2
100
AcDbLine
 10
661.8629148037974
 20
-501.5350081616967
 30
0.0
 11
661.8629148037974
 21
-499.5387181038388
 31
0.0
  0
LINE
  5
D01
330
C7D
100
AcDbEntity
  8
0
 62
     0
370
    -2
100
AcDbLine
 10
665.762914803797
 20
-500.7887181038388
 30
0.0
 11
668.2629148037969
 21
-500.7887181038388
 31
0.0
  0
LINE
  5
D02
330
C7D
100
AcDbEntity
  8
0
 62
     0
370
    -2
100
AcDbLine
 10
659.3629148037973
 20
-500.7887181038388
 30
0.0
 11
650.679581470464
 21
-500.7887181038388
 31
0.0
  0
LINE
  5
D03
330
C7D
100
AcDbEntity
  8
0
 62
     0
370
    -2
100
AcDbLine
 10
663.2629148037969
 20
-500.7887181038388
 30
0.0
 11
661.8629148037974
 21
-500.7887181038388
 31
0.0
  0
INSERT
  5
D04
330
C7D
100
AcDbEntity
  8
0
 62
     0
370
    -2
100
AcDbBlockReference
  2
_Open30
 10
663.2629148037969
 20
-500.7887181038388
 30
0.0
 41
2.5
 42
2.5
 43
2.5
 50
180.0
  0
INSERT
  5
D05
330
C7D
100
AcDbEntity
  8
0
 62
     0
370
    -2
100
AcDbBlockReference
  2
_Open30
 10
661.8629148037974
 20
-500.7887181038388
 30
0.0
 41
2.5
 42
2.5
 43
2.5
  0
MTEXT
  5
D06
330
C7D
100
AcDbEntity
  8
0
 62
     4
100
AcDbMText
 10
653.3712481371305
 20
-499.6637181038388
 30
0.0
 40
1.0
 41
0.0
 71
     5
 72
     1
  1
1.4以下
 73
     1
 44
1.0
1001
ACAD
1000
MTEXTBEGIN
1070
    73
1070
     1
1070
    44
1040
1.0
1070
    74
1070
     0
1000
MTEXTEND
  0
POINT
  5
D07
330
C7D
100
AcDbEntity
  8
Defpoints
 62
     0
100
AcDbPoint
 10
663.2629148037969
 20
-501.785008161693
 30
0.0
  0
POINT
  5
D08
330
C7D
100
AcDbEntity
  8
Defpoints
 62
     0
100
AcDbPoint
 10
661.8629148037974
 20
-501.7850081616967
 30
0.0
  0
POINT
  5
D09
330
C7D
100
AcDbEntity
  8
Defpoints
 62
     0
100
AcDbPoint
 10
661.8629148037974
 20
-500.7887181038388
 30
0.0
  0
ENDBLK
  5
C7F
330
C7D
100
AcDbEntity
  8
0
100
AcDbBlockEnd
  0
BLOCK
  5
C8C
330
C8B
100
AcDbEntity
  8
0
100
AcDbBlockBegin
  2
*D43
 70
     1
 10
0.0
 20
0.0
 30
0.0
  3
*D43
  1

  0
LINE
  5
D0A
330
C8B
100
AcDbEntity
  8
0
 62
     0
370
    -2
100
AcDbLine
 10
651.3129148037962
 20
-504.7850081616929
 30
0.0
 11
639.5970813757186
 21
-504.7850081616929
 31
0.0
  0
LINE
  5
D0B
330
C8B
100
AcDbEntity
  8
0
 62
     0
370
    -2
100
AcDbLine
 10
642.3447290526512
 20
-524.7850081616929
 30
0.0
 11
639.5970813757186
 21
-524.7850081616929
 31
0.0
  0
LINE
  5
D0C
330
C8B
100
AcDbEntity
  8
0
 62
     0
370
    -2
100
AcDbLine
 10
640.8470813757186
 20
-507.2850081616929
 30
0.0
 11
640.8470813757186
 21
-522.285008161693
 31
0.0
  0
INSERT
  5
D0D
330
C8B
100
AcDbEntity
  8
0
 62
     0
370
    -2
100
AcDbBlockReference
  2
_Open30
 10
640.8470813757186
 20
-504.7850081616929
 30
0.0
 41
2.5
 42
2.5
 43
2.5
 50
90.0
  0
INSERT
  5
D0E
330
C8B
100
AcDbEntity
  8
0
 62
     0
370
    -2
100
AcDbBlockReference
  2
_Open30
 10
640.8470813757186
 20
-524.7850081616929
 30
0.0
 41
2.5
 42
2.5
 43
2.5
 50
270.0
  0
MTEXT
  5
D0F
330
C8B
100
AcDbEntity
  8
0
 62
     4
100
AcDbMText
 10
639.7220813757187
 20
-516.2850081616933
 30
0.0
 40
1.0
 41
0.0
 71
     5
 72
     1
  1
20
 11
0.0000000000000001
 21
1.0
 31
0.0
 73
     1
 44
1.0
1001
ACAD
1000
MTEXTBEGIN
1070
    73
1070
     1
1070
    44
1040
1.0
1070
    74
1070
     0
1000
MTEXTEND
  0
POINT
  5
D10
330
C8B
100
AcDbEntity
  8
Defpoints
 62
     0
100
AcDbPoint
 10
651.5629148037962
 20
-504.7850081616929
 30
0.0
  0
POINT
  5
D11
330
C8B
100
AcDbEntity
  8
Defpoints
 62
     0
100
AcDbPoint
 10
642.5947290526512
 20
-524.7850081616929
 30
0.0
  0
POINT
  5
D12
330
C8B
100
AcDbEntity
  8
Defpoints
 62
     0
100
AcDbPoint
 10
640.8470813757186
 20
-524.7850081616929
 30
0.0
  0
ENDBLK
  5
C8D
330
C8B
100
AcDbEntity
  8
0
100
AcDbBlockEnd
  0
BLOCK
  5
C98
330
C97
100
AcDbEntity
  8
0
100
AcDbBlockBegin
  2
*D44
 70
     1
 10
0.0
 20
0.0
 30
0.0
  3
*D44
  1

  0
LINE
  5
D13
330
C97
100
AcDbEntity
  8
0
 62
     0
370
    -2
100
AcDbLine
 10
663.5629148037971
 20
-483.9764521466056
 30
0.0
 11
663.5629148037971
 21
-487.6039438579011
 31
0.0
  0
LINE
  5
D14
330
C97
100
AcDbEntity
  8
0
 62
     0
370
    -2
100
AcDbLine
 10
661.5629148037972
 20
-483.9764521466056
 30
0.0
 11
661.5629148037972
 21
-487.6039438579011
 31
0.0
  0
LINE
  5
D15
330
C97
100
AcDbEntity
  8
0
 62
     0
370
    -2
100
AcDbLine
 10
660.5629148037971
 20
-487.1039438579011
 30
0.0
 11
659.5629148037971
 21
-487.1039438579011
 31
0.0
  0
LINE
  5
D16
330
C97
100
AcDbEntity
  8
0
 62
     0
370
    -2
100
AcDbLine
 10
664.5629148037971
 20
-487.1039438579011
 30
0.0
 11
670.8129148037971
 21
-487.1039438579011
 31
0.0
  0
LINE
  5
D17
330
C97
100
AcDbEntity
  8
0
 62
     0
370
    -2
100
AcDbLine
 10
661.5629148037972
 20
-487.1039438579011
 30
0.0
 11
663.5629148037971
 21
-487.1039438579011
 31
0.0
  0
INSERT
  5
D18
330
C97
100
AcDbEntity
  8
0
 62
     0
370
    -2
100
AcDbBlockReference
  2
_Open30
 10
661.5629148037972
 20
-487.1039438579011
 30
0.0
  0
INSERT
  5
D19
330
C97
100
AcDbEntity
  8
0
 62
     0
370
    -2
100
AcDbBlockReference
  2
_Open30
 10
663.5629148037971
 20
-487.1039438579011
 30
0.0
 50
180.0
  0
MTEXT
  5
D1A
330
C97
100
AcDbEntity
  8
0
 62
     4
100
AcDbMText
 10
668.4379148037971
 20
-485.9789438579012
 30
0.0
 40
1.0
 41
0.0
 71
     5
 72
     1
  1
2\U+00B10.1
 73
     1
 44
1.0
1001
ACAD
1000
MTEXTBEGIN
1070
    73
1070
     1
1070
    44
1040
1.0
1070
    74
1070
     0
1000
MTEXTEND
  0
POINT
  5
D1B
330
C97
100
AcDbEntity
  8
Defpoints
 62
     0
100
AcDbPoint
 10
663.5629148037971
 20
-483.7264521466056
 30
0.0
  0
POINT
  5
D1C
330
C97
100
AcDbEntity
  8
Defpoints
 62
     0
100
AcDbPoint
 10
661.5629148037972
 20
-483.7264521466056
 30
0.0
  0
POINT
  5
D1D
330
C97
100
AcDbEntity
  8
Defpoints
 62
     0
100
AcDbPoint
 10
661.5629148037972
 20
-487.1039438579011
 30
0.0
  0
ENDBLK
  5
C99
330
C97
100
AcDbEntity
  8
0
100
AcDbBlockEnd
  0
BLOCK
  5
CA6
330
CA5
100
AcDbEntity
  8
0
100
AcDbBlockBegin
  2
*D45
 70
     1
 10
0.0
 20
0.0
 30
0.0
  3
*D45
  1

  0
LINE
  5
D36
330
CA5
100
AcDbEntity
  8
0
 62
     0
370
    -2
100
AcDbLine
 10
666.8129148037971
 20
-460.9264521466056
 30
0.0
 11
674.1842223131417
 21
-460.9264521466056
 31
0.0
  0
LINE
  5
D37
330
CA5
100
AcDbEntity
  8
0
 62
     0
370
    -2
100
AcDbLine
 10
666.8129148037971
 20
-458.9264521466057
 30
0.0
 11
674.1842223131417
 21
-458.9264521466057
 31
0.0
  0
LINE
  5
D38
330
CA5
100
AcDbEntity
  8
0
 62
     0
370
    -2
100
AcDbLine
 10
672.9342223131417
 20
-463.4264521466056
 30
0.0
 11
672.9342223131417
 21
-465.9264521466056
 31
0.0
  0
LINE
  5
D39
330
CA5
100
AcDbEntity
  8
0
 62
     0
370
    -2
100
AcDbLine
 10
672.9342223131417
 20
-456.4264521466056
 30
0.0
 11
672.9342223131417
 21
-442.1764521466057
 31
0.0
  0
LINE
  5
D3A
330
CA5
100
AcDbEntity
  8
0
 62
     0
370
    -2
100
AcDbLine
 10
672.9342223131417
 20
-460.9264521466056
 30
0.0
 11
672.9342223131417
 21
-458.9264521466057
 31
0.0
  0
INSERT
  5
D3B
330
CA5
100
AcDbEntity
  8
0
 62
     0
370
    -2
100
AcDbBlockReference
  2
_Open30
 10
672.9342223131417
 20
-460.9264521466056
 30
0.0
 41
2.5
 42
2.5
 43
2.5
 50
90.0
  0
INSERT
  5
D3C
330
CA5
100
AcDbEntity
  8
0
 62
     0
370
    -2
100
AcDbBlockReference
  2
_Open30
 10
672.9342223131417
 20
-458.9264521466057
 30
0.0
 41
2.5
 42
2.5
 43
2.5
 50
270.0
  0
MTEXT
  5
D3D
330
CA5
100
AcDbEntity
  8
0
 62
     4
100
AcDbMText
 10
670.8092223131418
 20
-448.0514521466055
 30
0.0
 40
3.0
 41
0.0
 71
     5
 72
     1
  1
2\U+00B10.1
 11
0.0000000000000001
 21
1.0
 31
0.0
 73
     1
 44
1.0
1001
ACAD
1000
MTEXTBEGIN
1070
    73
1070
     1
1070
    44
1040
1.0
1070
    74
1070
     0
1000
MTEXTEND
  0
POINT
  5
D3E
330
CA5
100
AcDbEntity
  8
Defpoints
 62
     0
100
AcDbPoint
 10
666.5629148037972
 20
-460.9264521466056
 30
0.0
  0
POINT
  5
D3F
330
CA5
100
AcDbEntity
  8
Defpoints
 62
     0
100
AcDbPoint
 10
666.5629148037972
 20
-458.9264521466057
 30
0.0
  0
POINT
  5
D40
330
CA5
100
AcDbEntity
  8
Defpoints
 62
     0
100
AcDbPoint
 10
672.9342223131417
 20
-458.9264521466057
 30
0.0
  0
ENDBLK
  5
CA7
330
CA5
100
AcDbEntity
  8
0
100
AcDbBlockEnd
  0
BLOCK
  5
CB4
330
CB3
100
AcDbEntity
  8
0
100
AcDbBlockBegin
  2
*D46
 70
     1
 10
0.0
 20
0.0
 30
0.0
  3
*D46
  1

  0
LINE
  5
D41
330
CB3
100
AcDbEntity
  8
0
 62
     0
370
    -2
100
AcDbLine
 10
671.8629148037973
 20
-465.9764521466057
 30
0.0
 11
671.8629148037973
 21
-463.039108587269
 31
0.0
  0
LINE
  5
D42
330
CB3
100
AcDbEntity
  8
0
 62
     0
370
    -2
100
AcDbLine
 10
673.8629148037973
 20
-465.9764521466057
 30
0.0
 11
673.8629148037973
 21
-463.039108587269
 31
0.0
  0
LINE
  5
D43
330
CB3
100
AcDbEntity
  8
0
 62
     0
370
    -2
100
AcDbLine
 10
669.3629148037973
 20
-464.289108587269
 30
0.0
 11
666.8629148037974
 21
-464.289108587269
 31
0.0
  0
LINE
  5
D44
330
CB3
100
AcDbEntity
  8
0
 62
     0
370
    -2
100
AcDbLine
 10
676.3629148037973
 20
-464.289108587269
 30
0.0
 11
690.6129148037973
 21
-464.289108587269
 31
0.0
  0
LINE
  5
D45
330
CB3
100
AcDbEntity
  8
0
 62
     0
370
    -2
100
AcDbLine
 10
671.8629148037973
 20
-464.289108587269
 30
0.0
 11
673.8629148037973
 21
-464.289108587269
 31
0.0
  0
INSERT
  5
D46
330
CB3
100
AcDbEntity
  8
0
 62
     0
370
    -2
100
AcDbBlockReference
  2
_Open30
 10
671.8629148037973
 20
-464.289108587269
 30
0.0
 41
2.5
 42
2.5
 43
2.5
  0
INSERT
  5
D47
330
CB3
100
AcDbEntity
  8
0
 62
     0
370
    -2
100
AcDbBlockReference
  2
_Open30
 10
673.8629148037973
 20
-464.289108587269
 30
0.0
 41
2.5
 42
2.5
 43
2.5
 50
180.0
  0
MTEXT
  5
D48
330
CB3
100
AcDbEntity
  8
0
 62
     4
100
AcDbMText
 10
684.7379148037973
 20
-462.164108587269
 30
0.0
 40
3.0
 41
0.0
 71
     5
 72
     1
  1
2\U+00B10.1
 73
     1
 44
1.0
1001
ACAD
1000
MTEXTBEGIN
1070
    73
1070
     1
1070
    44
1040
1.0
1070
    74
1070
     0
1000
MTEXTEND
  0
POINT
  5
D49
330
CB3
100
AcDbEntity
  8
Defpoints
 62
     0
100
AcDbPoint
 10
671.8629148037973
 20
-466.2264521466056
 30
0.0
  0
POINT
  5
D4A
330
CB3
100
AcDbEntity
  8
Defpoints
 62
     0
100
AcDbPoint
 10
673.8629148037973
 20
-466.2264521466056
 30
0.0
  0
POINT
  5
D4B
330
CB3
100
AcDbEntity
  8
Defpoints
 62
     0
100
AcDbPoint
 10
673.8629148037973
 20
-464.289108587269
 30
0.0
  0
ENDBLK
  5
CB5
330
CB3
100
AcDbEntity
  8
0
100
AcDbBlockEnd
  0
BLOCK
  5
CC2
330
CC1
100
AcDbEntity
  8
0
100
AcDbBlockBegin
  2
*D47
 70
     1
 10
0.0
 20
0.0
 30
0.0
  3
*D47
  1

  0
LINE
  5
D4C
330
CC1
100
AcDbEntity
  8
0
 62
     0
370
    -2
100
AcDbLine
 10
674.1129148037973
 20
-466.2264521466056
 30
0.0
 11
679.4067948851107
 21
-466.2264521466056
 31
0.0
  0
LINE
  5
D4D
330
CC1
100
AcDbEntity
  8
0
 62
     0
370
    -2
100
AcDbLine
 10
674.1129148037973
 20
-474.2264521466056
 30
0.0
 11
679.4067948851107
 21
-474.2264521466056
 31
0.0
  0
LINE
  5
D4E
330
CC1
100
AcDbEntity
  8
0
 62
     0
370
    -2
100
AcDbLine
 10
678.1567948851107
 20
-468.7264521466056
 30
0.0
 11
678.1567948851107
 21
-471.7264521466056
 31
0.0
  0
INSERT
  5
D4F
330
CC1
100
AcDbEntity
  8
0
 62
     0
370
    -2
100
AcDbBlockReference
  2
_Open30
 10
678.1567948851107
 20
-466.2264521466056
 30
0.0
 41
2.5
 42
2.5
 43
2.5
 50
90.0
  0
INSERT
  5
D50
330
CC1
100
AcDbEntity
  8
0
 62
     0
370
    -2
100
AcDbBlockReference
  2
_Open30
 10
678.1567948851107
 20
-474.2264521466056
 30
0.0
 41
2.5
 42
2.5
 43
2.5
 50
270.0
  0
MTEXT
  5
D51
330
CC1
100
AcDbEntity
  8
0
 62
     4
100
AcDbMText
 10
676.0317948851109
 20
-470.2264521466055
 30
0.0
 40
3.0
 41
0.0
 71
     5
 72
     1
  1
8\U+00B10.15
 11
0.0000000000000001
 21
1.0
 31
0.0
 73
     1
 44
1.0
1001
ACAD
1000
MTEXTBEGIN
1070
    73
1070
     1
1070
    44
1040
1.0
1070
    74
1070
     0
1000
MTEXTEND
  0
POINT
  5
D52
330
CC1
100
AcDbEntity
  8
Defpoints
 62
     0
100
AcDbPoint
 10
673.8629148037973
 20
-466.2264521466056
 30
0.0
  0
POINT
  5
D53
330
CC1
100
AcDbEntity
  8
Defpoints
 62
     0
100
AcDbPoint
 10
673.8629148037973
 20
-474.2264521466056
 30
0.0
  0
POINT
  5
D54
330
CC1
100
AcDbEntity
  8
Defpoints
 62
     0
100
AcDbPoint
 10
678.1567948851107
 20
-474.2264521466056
 30
0.0
  0
ENDBLK
  5
CC3
330
CC1
100
AcDbEntity
  8
0
100
AcDbBlockEnd
  0
BLOCK
  5
CCE
330
CCD
100
AcDbEntity
  8
0
100
AcDbBlockBegin
  2
*D48
 70
     1
 10
0.0
 20
0.0
 30
0.0
  3
*D48
  1

  0
LINE
  5
D55
330
CCD
100
AcDbEntity
  8
0
 62
     0
370
    -2
100
AcDbLine
 10
651.012914803797
 20
-466.2264521466056
 30
0.0
 11
646.7073165706516
 21
-466.2264521466056
 31
0.0
  0
LINE
  5
D56
330
CCD
100
AcDbEntity
  8
0
 62
     0
370
    -2
100
AcDbLine
 10
651.012914803797
 20
-474.2264521466056
 30
0.0
 11
646.7073165706516
 21
-474.2264521466056
 31
0.0
  0
LINE
  5
D57
330
CCD
100
AcDbEntity
  8
0
 62
     0
370
    -2
100
AcDbLine
 10
647.9573165706516
 20
-468.7264521466056
 30
0.0
 11
647.9573165706516
 21
-471.7264521466056
 31
0.0
  0
INSERT
  5
D58
330
CCD
100
AcDbEntity
  8
0
 62
     0
370
    -2
100
AcDbBlockReference
  2
_Open30
 10
647.9573165706516
 20
-466.2264521466056
 30
0.0
 41
2.5
 42
2.5
 43
2.5
 50
90.0
  0
INSERT
  5
D59
330
CCD
100
AcDbEntity
  8
0
 62
     0
370
    -2
100
AcDbBlockReference
  2
_Open30
 10
647.9573165706516
 20
-474.2264521466056
 30
0.0
 41
2.5
 42
2.5
 43
2.5
 50
270.0
  0
MTEXT
  5
D5A
330
CCD
100
AcDbEntity
  8
0
 62
     4
100
AcDbMText
 10
645.8323165706517
 20
-470.2264521466055
 30
0.0
 40
3.0
 41
0.0
 71
     5
 72
     1
  1
8\U+00B10.15
 11
0.0000000000000001
 21
1.0
 31
0.0
 73
     1
 44
1.0
1001
ACAD
1000
MTEXTBEGIN
1070
    73
1070
     1
1070
    44
1040
1.0
1070
    74
1070
     0
1000
MTEXTEND
  0
POINT
  5
D5B
330
CCD
100
AcDbEntity
  8
Defpoints
 62
     0
100
AcDbPoint
 10
651.2629148037969
 20
-466.2264521466056
 30
0.0
  0
POINT
  5
D5C
330
CCD
100
AcDbEntity
  8
Defpoints
 62
     0
100
AcDbPoint
 10
651.2629148037969
 20
-474.2264521466056
 30
0.0
  0
POINT
  5
D5D
330
CCD
100
AcDbEntity
  8
Defpoints
 62
     0
100
AcDbPoint
 10
647.9573165706516
 20
-474.2264521466056
 30
0.0
  0
ENDBLK
  5
CCF
330
CCD
100
AcDbEntity
  8
0
100
AcDbBlockEnd
  0
BLOCK
  5
CDA
330
CD9
100
AcDbEntity
  8
0
100
AcDbBlockBegin
  2
*D49
 70
     1
 10
0.0
 20
0.0
 30
0.0
  3
*D49
  1

  0
LINE
  5
D5E
330
CD9
100
AcDbEntity
  8
0
 62
     0
370
    -2
100
AcDbLine
 10
653.262914803797
 20
-465.9764521466057
 30
0.0
 11
653.262914803797
 21
-461.7023538074538
 31
0.0
  0
LINE
  5
D5F
330
CD9
100
AcDbEntity
  8
0
 62
     0
370
    -2
100
AcDbLine
 10
651.2629148037969
 20
-465.9764521466057
 30
0.0
 11
651.2629148037969
 21
-461.7023538074538
 31
0.0
  0
LINE
  5
D60
330
CD9
100
AcDbEntity
  8
0
 62
     0
370
    -2
100
AcDbLine
 10
655.7629148037969
 20
-462.9523538074538
 30
0.0
 11
658.262914803797
 21
-462.9523538074538
 31
0.0
  0
LINE
  5
D61
330
CD9
100
AcDbEntity
  8
0
 62
     0
370
    -2
100
AcDbLine
 10
648.762914803797
 20
-462.9523538074538
 30
0.0
 11
634.512914803797
 21
-462.9523538074538
 31
0.0
  0
LINE
  5
D62
330
CD9
100
AcDbEntity
  8
0
 62
     0
370
    -2
100
AcDbLine
 10
653.262914803797
 20
-462.9523538074538
 30
0.0
 11
651.2629148037969
 21
-462.9523538074538
 31
0.0
  0
INSERT
  5
D63
330
CD9
100
AcDbEntity
  8
0
 62
     0
370
    -2
100
AcDbBlockReference
  2
_Open30
 10
653.262914803797
 20
-462.9523538074538
 30
0.0
 41
2.5
 42
2.5
 43
2.5
 50
180.0
  0
INSERT
  5
D64
330
CD9
100
AcDbEntity
  8
0
 62
     0
370
    -2
100
AcDbBlockReference
  2
_Open30
 10
651.2629148037969
 20
-462.9523538074538
 30
0.0
 41
2.5
 42
2.5
 43
2.5
  0
MTEXT
  5
D65
330
CD9
100
AcDbEntity
  8
0
 62
     4
100
AcDbMText
 10
640.387914803797
 20
-460.8273538074538
 30
0.0
 40
3.0
 41
0.0
 71
     5
 72
     1
  1
2\U+00B10.1
 73
     1
 44
1.0
1001
ACAD
1000
MTEXTBEGIN
1070
    73
1070
     1
1070
    44
1040
1.0
1070
    74
1070
     0
1000
MTEXTEND
  0
POINT
  5
D66
330
CD9
100
AcDbEntity
  8
Defpoints
 62
     0
100
AcDbPoint
 10
653.262914803797
 20
-466.2264521466056
 30
0.0
  0
POINT
  5
D67
330
CD9
100
AcDbEntity
  8
Defpoints
 62
     0
100
AcDbPoint
 10
651.2629148037969
 20
-466.2264521466056
 30
0.0
  0
POINT
  5
D68
330
CD9
100
AcDbEntity
  8
Defpoints
 62
     0
100
AcDbPoint
 10
651.2629148037969
 20
-462.9523538074538
 30
0.0
  0
ENDBLK
  5
CDB
330
CD9
100
AcDbEntity
  8
0
100
AcDbBlockEnd
  0
BLOCK
  5
CE8
330
CE7
100
AcDbEntity
  8
0
100
AcDbBlockBegin
  2
*D50
 70
     1
 10
0.0
 20
0.0
 30
0.0
  3
*D50
  1

  0
LINE
  5
D69
330
CE7
100
AcDbEntity
  8
0
 62
     0
370
    -2
100
AcDbLine
 10
658.5629148037972
 20
-458.6764521466056
 30
0.0
 11
658.5629148037972
 21
-451.5229865905652
 31
0.0
  0
LINE
  5
D6A
330
CE7
100
AcDbEntity
  8
0
 62
     0
370
    -2
100
AcDbLine
 10
666.5629148037972
 20
-458.6764521466056
 30
0.0
 11
666.5629148037972
 21
-451.5229865905652
 31
0.0
  0
LINE
  5
D6B
330
CE7
100
AcDbEntity
  8
0
 62
     0
370
    -2
100
AcDbLine
 10
661.0629148037972
 20
-452.7729865905652
 30
0.0
 11
664.0629148037971
 21
-452.7729865905652
 31
0.0
  0
INSERT
  5
D6C
330
CE7
100
AcDbEntity
  8
0
 62
     0
370
    -2
100
AcDbBlockReference
  2
_Open30
 10
658.5629148037972
 20
-452.7729865905652
 30
0.0
 41
2.5
 42
2.5
 43
2.5
 50
180.0
  0
INSERT
  5
D6D
330
CE7
100
AcDbEntity
  8
0
 62
     0
370
    -2
100
AcDbBlockReference
  2
_Open30
 10
666.5629148037972
 20
-452.7729865905652
 30
0.0
 41
2.5
 42
2.5
 43
2.5
  0
MTEXT
  5
D6E
330
CE7
100
AcDbEntity
  8
0
 62
     4
100
AcDbMText
 10
662.5629148037972
 20
-450.6479865905652
 30
0.0
 40
3.0
 41
0.0
 71
     5
 72
     1
  1
8\U+00B10.15
 73
     1
 44
1.0
1001
ACAD
1000
MTEXTBEGIN
1070
    73
1070
     1
1070
    44
1040
1.0
1070
    74
1070
     0
1000
MTEXTEND
  0
POINT
  5
D6F
330
CE7
100
AcDbEntity
  8
Defpoints
 62
     0
100
AcDbPoint
 10
658.5629148037972
 20
-458.9264521466056
 30
0.0
  0
POINT
  5
D70
330
CE7
100
AcDbEntity
  8
Defpoints
 62
     0
100
AcDbPoint
 10
666.5629148037972
 20
-458.9264521466056
 30
0.0
  0
POINT
  5
D71
330
CE7
100
AcDbEntity
  8
Defpoints
 62
     0
100
AcDbPoint
 10
666.5629148037972
 20
-452.7729865905652
 30
0.0
  0
ENDBLK
  5
CE9
330
CE7
100
AcDbEntity
  8
0
100
AcDbBlockEnd
  0
BLOCK
  5
CF4
330
CF3
100
AcDbEntity
  8
0
100
AcDbBlockBegin
  2
*D51
 70
     1
 10
0.0
 20
0.0
 30
0.0
  3
*D51
  1

  0
LINE
  5
D72
330
CF3
100
AcDbEntity
  8
0
 62
     0
370
    -2
100
AcDbLine
 10
661.3129148037971
 20
-483.7264521466056
 30
0.0
 11
657.4176458635039
 21
-483.7264521466056
 31
0.0
  0
LINE
  5
D73
330
CF3
100
AcDbEntity
  8
0
 62
     0
370
    -2
100
AcDbLine
 10
661.3129148037971
 20
-475.7264521466056
 30
0.0
 11
657.4176458635039
 21
-475.7264521466056
 31
0.0
  0
LINE
  5
D74
330
CF3
100
AcDbEntity
  8
0
 62
     0
370
    -2
100
AcDbLine
 10
658.6676458635039
 20
-481.2264521466056
 30
0.0
 11
658.6676458635039
 21
-478.2264521466056
 31
0.0
  0
INSERT
  5
D75
330
CF3
100
AcDbEntity
  8
0
 62
     0
370
    -2
100
AcDbBlockReference
  2
_Open30
 10
658.6676458635039
 20
-483.7264521466056
 30
0.0
 41
2.5
 42
2.5
 43
2.5
 50
270.0
  0
INSERT
  5
D76
330
CF3
100
AcDbEntity
  8
0
 62
     0
370
    -2
100
AcDbBlockReference
  2
_Open30
 10
658.6676458635039
 20
-475.7264521466056
 30
0.0
 41
2.5
 42
2.5
 43
2.5
 50
90.0
  0
MTEXT
  5
D77
330
CF3
100
AcDbEntity
  8
0
 62
     4
100
AcDbMText
 10
656.542645863504
 20
-479.7264521466055
 30
0.0
 40
3.0
 41
0.0
 71
     5
 72
     1
  1
8\U+00B10.15
 11
0.0000000000000001
 21
1.0
 31
0.0
 73
     1
 44
1.0
1001
ACAD
1000
MTEXTBEGIN
1070
    73
1070
     1
1070
    44
1040
1.0
1070
    74
1070
     0
1000
MTEXTEND
  0
POINT
  5
D78
330
CF3
100
AcDbEntity
  8
Defpoints
 62
     0
100
AcDbPoint
 10
661.5629148037972
 20
-483.7264521466056
 30
0.0
  0
POINT
  5
D79
330
CF3
100
AcDbEntity
  8
Defpoints
 62
     0
100
AcDbPoint
 10
661.5629148037972
 20
-475.7264521466056
 30
0.0
  0
POINT
  5
D7A
330
CF3
100
AcDbEntity
  8
Defpoints
 62
     0
100
AcDbPoint
 10
658.6676458635039
 20
-475.7264521466056
 30
0.0
  0
ENDBLK
  5
CF5
330
CF3
100
AcDbEntity
  8
0
100
AcDbBlockEnd
  0
BLOCK
  5
D1F
330
D1E
100
AcDbEntity
  8
0
100
AcDbBlockBegin
  2
*D52
 70
     1
 10
0.0
 20
0.0
 30
0.0
  3
*D52
  1

  0
LINE
  5
D21
330
D1E
100
AcDbEntity
  8
0
 62
     0
370
    -2
100
AcDbLine
 10
656.3872270935583
 20
-479.7264521466056
 30
0.0
 11
638.2995066188933
 21
-479.7264521466056
 31
0.0
  0
LINE
  5
D22
330
D1E
100
AcDbEntity
  8
0
 62
     0
370
    -2
100
AcDbLine
 10
650.4615393833203
 20
-470.2264521466056
 30
0.0
 11
638.2995066188933
 21
-470.2264521466055
 31
0.0
  0
LINE
  5
D23
330
D1E
100
AcDbEntity
  8
0
 62
     0
370
    -2
100
AcDbLine
 10
639.5495066188933
 20
-477.2264521466055
 30
0.0
 11
639.5495066188933
 21
-472.7264521466056
 31
0.0
  0
INSERT
  5
D24
330
D1E
100
AcDbEntity
  8
0
 62
     0
370
    -2
100
AcDbBlockReference
  2
_Open30
 10
639.5495066188933
 20
-479.7264521466056
 30
0.0
 41
2.5
 42
2.5
 43
2.5
 50
270.0
  0
INSERT
  5
D25
330
D1E
100
AcDbEntity
  8
0
 62
     0
370
    -2
100
AcDbBlockReference
  2
_Open30
 10
639.5495066188933
 20
-470.2264521466055
 30
0.0
 41
2.5
 42
2.5
 43
2.5
 50
90.0
  0
MTEXT
  5
D26
330
D1E
100
AcDbEntity
  8
0
 62
     4
100
AcDbMText
 10
637.4245066188934
 20
-474.9764521466055
 30
0.0
 40
3.0
 41
0.0
 71
     5
 72
     1
  1
9.5\U+00B10.15
 11
0.0000000000000001
 21
1.0
 31
0.0
 73
     1
 44
1.0
1001
ACAD
1000
MTEXTBEGIN
1070
    73
1070
     1
1070
    44
1040
1.0
1070
    74
1070
     0
1000
MTEXTEND
  0
POINT
  5
D27
330
D1E
100
AcDbEntity
  8
Defpoints
 62
     0
100
AcDbPoint
 10
656.6372270935582
 20
-479.7264521466056
 30
0.0
  0
POINT
  5
D28
330
D1E
100
AcDbEntity
  8
Defpoints
 62
     0
100
AcDbPoint
 10
650.7115393833203
 20
-470.2264521466056
 30
0.0
  0
POINT
  5
D29
330
D1E
100
AcDbEntity
  8
Defpoints
 62
     0
100
AcDbPoint
 10
639.5495066188933
 20
-470.2264521466055
 30
0.0
  0
ENDBLK
  5
D20
330
D1E
100
AcDbEntity
  8
0
100
AcDbBlockEnd
  0
BLOCK
  5
D2B
330
D2A
100
AcDbEntity
  8
0
100
AcDbBlockBegin
  2
*D53
 70
     1
 10
0.0
 20
0.0
 30
0.0
  3
*D53
  1

  0
LINE
  5
D2D
330
D2A
100
AcDbEntity
  8
0
 62
     0
370
    -2
100
AcDbLine
 10
656.3872270935583
 20
-459.9264521466056
 30
0.0
 11
638.2995066188933
 21
-459.9264521466055
 31
0.0
  0
LINE
  5
D2E
330
D2A
100
AcDbEntity
  8
0
 62
     0
370
    -2
100
AcDbLine
 10
650.4615393833203
 20
-470.2264521466056
 30
0.0
 11
638.2995066188933
 21
-470.2264521466055
 31
0.0
  0
LINE
  5
D2F
330
D2A
100
AcDbEntity
  8
0
 62
     0
370
    -2
100
AcDbLine
 10
639.5495066188933
 20
-462.4264521466056
 30
0.0
 11
639.5495066188933
 21
-467.7264521466056
 31
0.0
  0
INSERT
  5
D30
330
D2A
100
AcDbEntity
  8
0
 62
     0
370
    -2
100
AcDbBlockReference
  2
_Open30
 10
639.5495066188933
 20
-459.9264521466055
 30
0.0
 41
2.5
 42
2.5
 43
2.5
 50
90.0
  0
INSERT
  5
D31
330
D2A
100
AcDbEntity
  8
0
 62
     0
370
    -2
100
AcDbBlockReference
  2
_Open30
 10
639.5495066188933
 20
-470.2264521466055
 30
0.0
 41
2.5
 42
2.5
 43
2.5
 50
270.0
  0
MTEXT
  5
D32
330
D2A
100
AcDbEntity
  8
0
 62
     4
100
AcDbMText
 10
637.4245066188934
 20
-465.0764521466054
 30
0.0
 40
3.0
 41
0.0
 71
     5
 72
     1
  1
10.3\U+00B10.15
 11
0.0000000000000001
 21
1.0
 31
0.0
 73
     1
 44
1.0
1001
ACAD
1000
MTEXTBEGIN
1070
    73
1070
     1
1070
    44
1040
1.0
1070
    74
1070
     0
1000
MTEXTEND
  0
POINT
  5
D33
330
D2A
100
AcDbEntity
  8
Defpoints
 62
     0
100
AcDbPoint
 10
656.6372270935582
 20
-459.9264521466056
 30
0.0
  0
POINT
  5
D34
330
D2A
100
AcDbEntity
  8
Defpoints
 62
     0
100
AcDbPoint
 10
650.7115393833203
 20
-470.2264521466056
 30
0.0
  0
POINT
  5
D35
330
D2A
100
AcDbEntity
  8
Defpoints
 62
     0
100
AcDbPoint
 10
639.5495066188933
 20
-470.2264521466055
 30
0.0
  0
ENDBLK
  5
D2C
330
D2A
100
AcDbEntity
  8
0
100
AcDbBlockEnd
  0
BLOCK
  5
D7C
330
D7B
100
AcDbEntity
  8
0
100
AcDbBlockBegin
  2
*D54
 70
     1
 10
0.0
 20
0.0
 30
0.0
  3
*D54
  1

  0
LINE
  5
D7E
330
D7B
100
AcDbEntity
  8
0
 62
     0
370
    -2
100
AcDbLine
 10
672.8629148037973
 20
-475.7651601965455
 30
0.0
 11
672.8629148037973
 21
-491.6010823912249
 31
0.0
  0
LINE
  5
D7F
330
D7B
100
AcDbEntity
  8
0
 62
     0
370
    -2
100
AcDbLine
 10
652.262914803797
 20
-475.7651601965455
 30
0.0
 11
652.262914803797
 21
-491.6010823912249
 31
0.0
  0
LINE
  5
D80
330
D7B
100
AcDbEntity
  8
0
 62
     0
370
    -2
100
AcDbLine
 10
670.3629148037974
 20
-490.3510823912249
 30
0.0
 11
654.762914803797
 21
-490.3510823912249
 31
0.0
  0
INSERT
  5
D81
330
D7B
100
AcDbEntity
  8
0
 62
     0
370
    -2
100
AcDbBlockReference
  2
_Open30
 10
672.8629148037973
 20
-490.3510823912249
 30
0.0
 41
2.5
 42
2.5
 43
2.5
  0
INSERT
  5
D82
330
D7B
100
AcDbEntity
  8
0
 62
     0
370
    -2
100
AcDbBlockReference
  2
_Open30
 10
652.262914803797
 20
-490.3510823912249
 30
0.0
 41
2.5
 42
2.5
 43
2.5
 50
180.0
  0
MTEXT
  5
D83
330
D7B
100
AcDbEntity
  8
0
 62
     4
100
AcDbMText
 10
662.7885730501922
 20
-488.226082391225
 30
0.0
 40
3.0
 41
0.0
 71
     5
 72
     1
  1
20.6\U+00B10.2
 73
     1
 44
1.0
1001
ACAD
1000
MTEXTBEGIN
1070
    73
1070
     1
1070
    44
1040
1.0
1070
    74
1070
     0
1000
MTEXTEND
  0
POINT
  5
D84
330
D7B
100
AcDbEntity
  8
Defpoints
 62
     0
100
AcDbPoint
 10
672.8629148037973
 20
-475.5151601965454
 30
0.0
  0
POINT
  5
D85
330
D7B
100
AcDbEntity
  8
Defpoints
 62
     0
100
AcDbPoint
 10
652.262914803797
 20
-475.5151601965454
 30
0.0
  0
POINT
  5
D86
330
D7B
100
AcDbEntity
  8
Defpoints
 62
     0
100
AcDbPoint
 10
652.262914803797
 20
-490.3510823912249
 30
0.0
  0
ENDBLK
  5
D7D
330
D7B
100
AcDbEntity
  8
0
100
AcDbBlockEnd
  0
BLOCK
  5
DA4
330
DA3
100
AcDbEntity
  8
0
100
AcDbBlockBegin
  2
*D55
 70
     1
 10
0.0
 20
0.0
 30
0.0
  3
*D55
  1

  0
LINE
  5
DBC
330
DA3
100
AcDbEntity
  8
0
 62
     0
370
    -2
100
AcDbLine
 10
704.4625107484847
 20
-622.5616209233727
 30
0.0
 11
704.4625107484847
 21
-624.5579109812268
 31
0.0
  0
LINE
  5
DBD
330
DA3
100
AcDbEntity
  8
0
 62
     0
370
    -2
100
AcDbLine
 10
705.8625107484844
 20
-622.561620923369
 30
0.0
 11
705.8625107484844
 21
-624.5579109812268
 31
0.0
  0
LINE
  5
DBE
330
DA3
100
AcDbEntity
  8
0
 62
     0
370
    -2
100
AcDbLine
 10
701.9625107484848
 20
-623.3079109812268
 30
0.0
 11
699.4625107484847
 21
-623.3079109812268
 31
0.0
  0
LINE
  5
DBF
330
DA3
100
AcDbEntity
  8
0
 62
     0
370
    -2
100
AcDbLine
 10
708.3625107484843
 20
-623.3079109812268
 30
0.0
 11
717.0458440818178
 21
-623.3079109812268
 31
0.0
  0
LINE
  5
DC0
330
DA3
100
AcDbEntity
  8
0
 62
     0
370
    -2
100
AcDbLine
 10
704.4625107484847
 20
-623.3079109812268
 30
0.0
 11
705.8625107484844
 21
-623.3079109812268
 31
0.0
  0
INSERT
  5
DC1
330
DA3
100
AcDbEntity
  8
0
 62
     0
370
    -2
100
AcDbBlockReference
  2
_Open30
 10
704.4625107484847
 20
-623.3079109812268
 30
0.0
 41
2.5
 42
2.5
 43
2.5
  0
INSERT
  5
DC2
330
DA3
100
AcDbEntity
  8
0
 62
     0
370
    -2
100
AcDbBlockReference
  2
_Open30
 10
705.8625107484844
 20
-623.3079109812268
 30
0.0
 41
2.5
 42
2.5
 43
2.5
 50
180.0
  0
MTEXT
  5
DC3
330
DA3
100
AcDbEntity
  8
0
 62
     4
100
AcDbMText
 10
714.3541774151511
 20
-622.1829109812269
 30
0.0
 40
1.0
 41
0.0
 71
     5
 72
     1
  1
1.4以下
 73
     1
 44
1.0
1001
ACAD
1000
MTEXTBEGIN
1070
    73
1070
     1
1070
    44
1040
1.0
1070
    74
1070
     0
1000
MTEXTEND
  0
POINT
  5
DC4
330
DA3
100
AcDbEntity
  8
Defpoints
 62
     0
100
AcDbPoint
 10
704.4625107484847
 20
-622.3116209233727
 30
0.0
  0
POINT
  5
DC5
330
DA3
100
AcDbEntity
  8
Defpoints
 62
     0
100
AcDbPoint
 10
705.8625107484844
 20
-622.311620923369
 30
0.0
  0
POINT
  5
DC6
330
DA3
100
AcDbEntity
  8
Defpoints
 62
     0
100
AcDbPoint
 10
705.8625107484844
 20
-623.3079109812268
 30
0.0
  0
ENDBLK
  5
DA5
330
DA3
100
AcDbEntity
  8
0
100
AcDbBlockEnd
  0
BLOCK
  5
E40
330
E3F
100
AcDbEntity
  8
0
100
AcDbBlockBegin
  2
*D57
 70
     1
 10
0.0
 20
0.0
 30
0.0
  3
*D57
  1

  0
LINE
  5
E69
330
E3F
100
AcDbEntity
  8
0
  6
Continuous
 62
     0
370
    -2
100
AcDbLine
 10
397.5974603196843
 20
-437.271485861734
 30
0.0
 11
397.5974603196843
 21
-451.6815125691196
 31
0.0
  0
LINE
  5
E6A
330
E3F
100
AcDbEntity
  8
0
  6
Continuous
 62
     0
370
    -2
100
AcDbLine
 10
375.8974603196842
 20
-437.271485861734
 30
0.0
 11
375.8974603196842
 21
-451.6815125691196
 31
0.0
  0
LINE
  5
E6B
330
E3F
100
AcDbEntity
  8
0
  6
Continuous
 62
     0
370
    -2
100
AcDbLine
 10
400.0974603196842
 20
-450.4315125691196
 30
0.0
 11
402.5974603196842
 21
-450.4315125691196
 31
0.0
  0
LINE
  5
E6C
330
E3F
100
AcDbEntity
  8
0
  6
Continuous
 62
     0
370
    -2
100
AcDbLine
 10
373.3974603196842
 20
-450.4315125691196
 30
0.0
 11
357.6474603196842
 21
-450.4315125691196
 31
0.0
  0
LINE
  5
E6D
330
E3F
100
AcDbEntity
  8
0
  6
Continuous
 62
     0
370
    -2
100
AcDbLine
 10
397.5974603196843
 20
-450.4315125691196
 30
0.0
 11
375.8974603196842
 21
-450.4315125691196
 31
0.0
  0
INSERT
  5
E6E
330
E3F
100
AcDbEntity
  8
0
  6
Continuous
 62
     0
370
    -2
100
AcDbBlockReference
  2
_Open30
 10
397.5974603196843
 20
-450.4315125691196
 30
0.0
 41
2.5
 42
2.5
 43
2.5
 50
180.0
  0
INSERT
  5
E6F
330
E3F
100
AcDbEntity
  8
0
  6
Continuous
 62
     0
370
    -2
100
AcDbBlockReference
  2
_Open30
 10
375.8974603196842
 20
-450.4315125691196
 30
0.0
 41
2.5
 42
2.5
 43
2.5
  0
MTEXT
  5
E70
330
E3F
100
AcDbEntity
  8
0
  6
Continuous
 62
     4
100
AcDbMText
 10
364.2724603196842
 20
-448.3065125691195
 30
0.0
 40
3.0
 41
0.0
 71
     5
 72
     1
  1
%%C43.4
 73
     1
 44
1.0
1001
ACAD
1000
MTEXTBEGIN
1070
    73
1070
     1
1070
    44
1040
1.0
1070
    74
1070
     0
1000
MTEXTEND
  0
POINT
  5
E71
330
E3F
100
AcDbEntity
  8
Defpoints
  6
Continuous
 62
     0
100
AcDbPoint
 10
397.5974603196843
 20
-437.021485861734
 30
0.0
  0
POINT
  5
E72
330
E3F
100
AcDbEntity
  8
Defpoints
  6
Continuous
 62
     0
100
AcDbPoint
 10
375.8974603196842
 20
-437.021485861734
 30
0.0
  0
POINT
  5
E73
330
E3F
100
AcDbEntity
  8
Defpoints
  6
Continuous
 62
     0
100
AcDbPoint
 10
375.8974603196842
 20
-450.4315125691196
 30
0.0
  0
ENDBLK
  5
E41
330
E3F
100
AcDbEntity
  8
0
100
AcDbBlockEnd
  0
BLOCK
  5
E5A
330
E59
100
AcDbEntity
  8
0
100
AcDbBlockBegin
  2
*D58
 70
     1
 10
0.0
 20
0.0
 30
0.0
  3
*D58
  1

  0
LINE
  5
E74
330
E59
100
AcDbEntity
  8
0
  6
Continuous
 62
     0
370
    -2
100
AcDbLine
 10
397.8474603196843
 20
-437.021485861734
 30
0.0
 11
407.7108240913315
 21
-437.021485861734
 31
0.0
  0
LINE
  5
E75
330
E59
100
AcDbEntity
  8
0
  6
Continuous
 62
     0
370
    -2
100
AcDbLine
 10
392.7474603196842
 20
-414.021485861734
 30
0.0
 11
407.7108240913315
 21
-414.021485861734
 31
0.0
  0
LINE
  5
E76
330
E59
100
AcDbEntity
  8
0
  6
Continuous
 62
     0
370
    -2
100
AcDbLine
 10
406.4608240913314
 20
-434.521485861734
 30
0.0
 11
406.4608240913314
 21
-416.521485861734
 31
0.0
  0
INSERT
  5
E77
330
E59
100
AcDbEntity
  8
0
  6
Continuous
 62
     0
370
    -2
100
AcDbBlockReference
  2
_Open30
 10
406.4608240913314
 20
-437.021485861734
 30
0.0
 41
2.5
 42
2.5
 43
2.5
 50
270.0
  0
INSERT
  5
E78
330
E59
100
AcDbEntity
  8
0
  6
Continuous
 62
     0
370
    -2
100
AcDbBlockReference
  2
_Open30
 10
406.4608240913314
 20
-414.021485861734
 30
0.0
 41
2.5
 42
2.5
 43
2.5
 50
90.0
  0
MTEXT
  5
E79
330
E59
100
AcDbEntity
  8
0
  6
Continuous
 62
     4
100
AcDbMText
 10
404.3358240913315
 20
-425.0981228287023
 30
0.0
 40
3.0
 41
0.0
 71
     5
 72
     1
  1
46
 11
0.0000000000000001
 21
1.0
 31
0.0
 73
     1
 44
1.0
1001
ACAD
1000
MTEXTBEGIN
1070
    73
1070
     1
1070
    44
1040
1.0
1070
    74
1070
     0
1000
MTEXTEND
  0
POINT
  5
E7A
330
E59
100
AcDbEntity
  8
Defpoints
  6
Continuous
 62
     0
100
AcDbPoint
 10
397.5974603196843
 20
-437.021485861734
 30
0.0
  0
POINT
  5
E7B
330
E59
100
AcDbEntity
  8
Defpoints
  6
Continuous
 62
     0
100
AcDbPoint
 10
392.4974603196842
 20
-414.021485861734
 30
0.0
  0
POINT
  5
E7C
330
E59
100
AcDbEntity
  8
Defpoints
  6
Continuous
 62
     0
100
AcDbPoint
 10
406.4608240913314
 20
-414.021485861734
 30
0.0
  0
ENDBLK
  5
E5B
330
E59
100
AcDbEntity
  8
0
100
AcDbBlockEnd
  0
BLOCK
  5
E83
330
E81
100
AcDbEntity
  8
0
100
AcDbBlockBegin
  2
_DotSmall
 70
     0
 10
0.0
 20
0.0
 30
0.0
  3
_DotSmall
  1

  0
LWPOLYLINE
  5
E82
330
E81
100
AcDbEntity
  8
0
  6
ByBlock
 62
     0
100
AcDbPolyline
 90
        2
 70
     1
 43
0.5
 10
-0.0625
 20
0.0
 42
1.0
 10
0.0625
 20
0.0
 42
1.0
  0
ENDBLK
  5
E84
330
E81
100
AcDbEntity
  8
0
100
AcDbBlockEnd
  0
ENDSEC
  0
SECTION
  2
ENTITIES
  0
LINE
  5
9A
330
36
100
AcDbEntity
  8
0
 62
     3
100
AcDbLine
 10
423.340733
 20
-354.266289
 30
0.0
 11
423.340733
 21
-628.3216499999999
 31
0.0
  0
LINE
  5
9B
330
36
100
AcDbEntity
  8
0
 62
     3
100
AcDbLine
 10
33.340733
 20
-354.266289
 30
0.0
 11
33.340733
 21
-628.3216499999997
 31
0.0
  0
LINE
  5
9C
330
36
100
AcDbEntity
  8
0
 62
     3
100
AcDbLine
 10
33.340733
 20
-354.266289
 30
0.0
 11
423.340733
 21
-354.266289
 31
0.0
  0
LINE
  5
9D
330
36
100
AcDbEntity
  8
0
 62
     3
100
AcDbLine
 10
423.340733
 20
-628.3216499999999
 30
0.0
 11
33.340733
 21
-628.3216499999999
 31
0.0
  0
TEXT
  5
A6
330
36
100
AcDbEntity
  8
0
 62
     3
100
AcDbText
 10
327.715868948917
 20
-596.496525
 30
0.0
 40
4.5
  1
降圧専用トランス
  7
高4.5
100
AcDbText
  0
TEXT
  5
A7
330
36
100
AcDbEntity
  8
0
 62
     3
100
AcDbText
 10
388.060444
 20
-617.317754
 30
0.0
 40
3.2
  1
2007.11.1
  7
高3.2
100
AcDbText
  0
TEXT
  5
A8
330
36
100
AcDbEntity
  8
0
 62
     3
100
AcDbText
 10
316.0153148493303
 20
-583.8892599999998
 30
0.0
 40
4.5
  1
リングトランス仕様
  7
高4.5
100
AcDbText
  0
LINE
  5
A9
330
36
100
AcDbEntity
  8
0
100
AcDbLine
 10
316.351395327772
 20
-584.6009219523887
 30
0.0
 11
363.8507743103148
 21
-584.6009219523887
 31
0.0
  0
ARC
  5
AA
330
36
100
AcDbEntity
  8
0
 62
     3
100
AcDbCircle
 10
341.924279
 20
-480.645185
 30
0.0
 40
0.4375
100
AcDbArc
 50
270.0
 51
0.0
  0
LINE
  5
AB
330
36
100
AcDbEntity
  8
0
 62
     3
100
AcDbLine
 10
327.048779
 20
-481.0826849999998
 30
0.0
 11
327.923779
 21
-486.3326849999999
 31
0.0
  0
LINE
  5
AC
330
36
100
AcDbEntity
  8
0
 62
     3
100
AcDbLine
 10
327.923779
 20
-486.3326849999999
 30
0.0
 11
334.924279
 21
-486.3326849999999
 31
0.0
  0
LINE
  5
AD
330
36
100
AcDbEntity
  8
0
 62
     3
100
AcDbLine
 10
334.924279
 20
-486.3326849999999
 30
0.0
 11
335.798779
 21
-481.0826849999998
 31
0.0
  0
LINE
  5
AE
330
36
100
AcDbEntity
  8
0
 62
     3
100
AcDbLine
 10
216.917125
 20
-480.939862
 30
0.0
 11
217.792125
 21
-486.1898619999998
 31
0.0
  0
LINE
  5
AF
330
36
100
AcDbEntity
  8
0
 62
     3
100
AcDbLine
 10
217.792125
 20
-486.1898619999998
 30
0.0
 11
224.792125
 21
-486.1898619999998
 31
0.0
  0
LINE
  5
B0
330
36
100
AcDbEntity
  8
0
 62
     3
100
AcDbLine
 10
224.792125
 20
-486.1898619999998
 30
0.0
 11
225.667125
 21
-480.939862
 31
0.0
  0
LINE
  5
B1
330
36
100
AcDbEntity
  8
0
 62
     3
100
AcDbLine
 10
272.080279
 20
-388.829685
 30
0.0
 11
254.472806
 21
-388.829685
 31
0.0
  0
LINE
  5
B2
330
36
100
AcDbEntity
  8
0
 62
     3
100
AcDbLine
 10
272.080279
 20
-388.829685
 30
0.0
 11
289.687752
 21
-388.829685
 31
0.0
  0
LINE
  5
B3
330
36
100
AcDbEntity
  8
0
 62
     3
100
AcDbLine
 10
261.129212
 20
-392.892185
 30
0.0
 11
272.080279
 21
-392.892185
 31
0.0
  0
LINE
  5
B4
330
36
100
AcDbEntity
  8
0
 62
     3
100
AcDbLine
 10
283.031346
 20
-392.892185
 30
0.0
 11
272.080279
 21
-392.892185
 31
0.0
  0
LINE
  5
B5
330
36
100
AcDbEntity
  8
0
 62
     3
100
AcDbLine
 10
290.531346
 20
-400.392185
 30
0.0
 11
290.531346
 21
-401.9576849999998
 31
0.0
  0
LINE
  5
B6
330
36
100
AcDbEntity
  8
0
 62
     3
100
AcDbLine
 10
299.777779
 20
-401.9576849999998
 30
0.0
 11
296.278412
 21
-393.278573
 31
0.0
  0
ARC
  5
B7
330
36
100
AcDbEntity
  8
0
 62
     3
100
AcDbCircle
 10
79.705279
 20
-406.332685
 30
0.0
 40
4.375
100
AcDbArc
 50
90.0
 51
180.0
  0
ARC
  5
B8
330
36
100
AcDbEntity
  8
0
 62
     3
100
AcDbCircle
 10
160.955279
 20
-406.332685
 30
0.0
 40
4.375
100
AcDbArc
 50
0.0
 51
90.0
  0
LINE
  5
B9
330
36
100
AcDbEntity
  8
0
 62
     3
100
AcDbLine
 10
151.580279
 20
-481.0826849999998
 30
0.0
 11
150.705279
 21
-486.3326849999999
 31
0.0
  0
LINE
  5
BA
330
36
100
AcDbEntity
  8
0
 62
     3
100
AcDbLine
 10
150.705279
 20
-486.3326849999999
 30
0.0
 11
143.705279
 21
-486.3326849999999
 31
0.0
  0
LINE
  5
BB
330
36
100
AcDbEntity
  8
0
 62
     3
100
AcDbLine
 10
143.705279
 20
-486.3326849999999
 30
0.0
 11
142.830279
 21
-481.0826849999998
 31
0.0
  0
LINE
  5
BC
330
36
100
AcDbEntity
  8
0
 62
     3
100
AcDbLine
 10
110.919092
 20
-412.4108689999998
 30
0.0
 11
110.919092
 21
-423.348369
 31
0.0
  0
LINE
  5
BD
330
36
100
AcDbEntity
  8
0
 62
     3
100
AcDbLine
 10
129.732092
 20
-412.4108689999998
 30
0.0
 11
110.919092
 21
-412.4108689999998
 31
0.0
  0
LINE
  5
BE
330
36
100
AcDbEntity
  8
0
 62
     3
100
AcDbLine
 10
110.919092
 20
-423.348369
 30
0.0
 11
129.732092
 21
-423.348369
 31
0.0
  0
LINE
  5
BF
330
36
100
AcDbEntity
  8
0
 62
     3
100
AcDbLine
 10
94.79927899999999
 20
-452.2391849999998
 30
0.0
 11
86.48627900000002
 21
-452.2391849999998
 31
0.0
  0
LINE
  5
C0
330
36
100
AcDbEntity
  8
0
 62
     3
100
AcDbLine
 10
94.79927899999999
 20
-464.4891849999998
 30
0.0
 11
86.48627900000002
 21
-464.4891849999998
 31
0.0
  0
ARC
  5
C1
330
36
100
AcDbEntity
  8
0
 62
     3
100
AcDbCircle
 10
90.642779
 20
-458.3641849999998
 30
0.0
 40
7.4375
100
AcDbArc
 50
124.56
 51
235.44
  0
ARC
  5
C2
330
36
100
AcDbEntity
  8
0
 62
     3
100
AcDbCircle
 10
90.642779
 20
-458.3641849999998
 30
0.0
 40
7.4375
100
AcDbArc
 50
304.56
 51
55.44
  0
LINE
  5
C3
330
36
100
AcDbEntity
  8
0
 62
     3
100
AcDbLine
 10
94.79927899999999
 20
-447.4266849999998
 30
0.0
 11
86.48627900000002
 21
-447.4266849999998
 31
0.0
  0
LINE
  5
C4
330
36
100
AcDbEntity
  8
0
 62
     3
100
AcDbLine
 10
94.79927899999999
 20
-435.1766849999998
 30
0.0
 11
86.48627900000002
 21
-435.1766849999998
 31
0.0
  0
ARC
  5
C5
330
36
100
AcDbEntity
  8
0
 62
     3
100
AcDbCircle
 10
90.642779
 20
-441.3016849999998
 30
0.0
 40
7.4375
100
AcDbArc
 50
124.56
 51
235.44
  0
ARC
  5
C6
330
36
100
AcDbEntity
  8
0
 62
     3
100
AcDbCircle
 10
90.642779
 20
-441.3016849999998
 30
0.0
 40
7.4375
100
AcDbArc
 50
304.56
 51
55.44
  0
LINE
  5
C7
330
36
100
AcDbEntity
  8
0
 62
     3
100
AcDbLine
 10
87.580279
 20
-464.4891849999998
 30
0.0
 11
87.580279
 21
-471.7076849999998
 31
0.0
  0
LINE
  5
C8
330
36
100
AcDbEntity
  8
0
 62
     3
100
AcDbLine
 10
93.705279
 20
-471.7076849999998
 30
0.0
 11
93.705279
 21
-464.4891849999998
 31
0.0
  0
LINE
  5
C9
330
36
100
AcDbEntity
  8
0
 62
     3
100
AcDbLine
 10
154.174279
 20
-452.2391849999998
 30
0.0
 11
145.861279
 21
-452.2391849999998
 31
0.0
  0
LINE
  5
CA
330
36
100
AcDbEntity
  8
0
 62
     3
100
AcDbLine
 10
154.174279
 20
-464.4891849999998
 30
0.0
 11
145.861279
 21
-464.4891849999998
 31
0.0
  0
ARC
  5
CB
330
36
100
AcDbEntity
  8
0
 62
     3
100
AcDbCircle
 10
150.017779
 20
-458.3641849999998
 30
0.0
 40
7.4375
100
AcDbArc
 50
124.56
 51
235.44
  0
ARC
  5
CC
330
36
100
AcDbEntity
  8
0
 62
     3
100
AcDbCircle
 10
150.017779
 20
-458.3641849999998
 30
0.0
 40
7.4375
100
AcDbArc
 50
304.56
 51
55.44
  0
LINE
  5
CD
330
36
100
AcDbEntity
  8
0
 62
     3
100
AcDbLine
 10
154.174279
 20
-447.4266849999998
 30
0.0
 11
145.861279
 21
-447.4266849999998
 31
0.0
  0
LINE
  5
CE
330
36
100
AcDbEntity
  8
0
 62
     3
100
AcDbLine
 10
154.174279
 20
-435.1766849999998
 30
0.0
 11
145.861279
 21
-435.1766849999998
 31
0.0
  0
ARC
  5
CF
330
36
100
AcDbEntity
  8
0
 62
     3
100
AcDbCircle
 10
150.017779
 20
-441.3016849999998
 30
0.0
 40
7.4375
100
AcDbArc
 50
124.56
 51
235.44
  0
ARC
  5
D0
330
36
100
AcDbEntity
  8
0
 62
     3
100
AcDbCircle
 10
150.017779
 20
-441.3016849999998
 30
0.0
 40
7.4375
100
AcDbArc
 50
304.56
 51
55.44
  0
LINE
  5
D1
330
36
100
AcDbEntity
  8
0
 62
     3
100
AcDbLine
 10
146.955279
 20
-464.4891849999998
 30
0.0
 11
146.955279
 21
-471.7076849999998
 31
0.0
  0
LINE
  5
D2
330
36
100
AcDbEntity
  8
0
 62
     3
100
AcDbLine
 10
153.080279
 20
-471.7076849999998
 30
0.0
 11
153.080279
 21
-464.4891849999998
 31
0.0
  0
CIRCLE
  5
D5
330
36
100
AcDbEntity
  8
0
 62
     3
100
AcDbCircle
 10
149.903583
 20
-417.786646
 30
0.0
 40
3.292961
  0
LINE
  5
D6
330
36
100
AcDbEntity
  8
0
 62
     3
100
AcDbLine
 10
117.543907
 20
-388.832685
 30
0.0
 11
123.116652
 21
-388.832685
 31
0.0
  0
LINE
  5
D7
330
36
100
AcDbEntity
  8
0
 62
     3
100
AcDbLine
 10
124.611745
 20
-390.211461
 30
0.0
 11
125.564142
 21
-401.9576849999998
 31
0.0
  0
LINE
  5
D8
330
36
100
AcDbEntity
  8
0
 62
     3
100
AcDbLine
 10
116.048813
 20
-390.211461
 30
0.0
 11
115.096417
 21
-401.9576849999998
 31
0.0
  0
ARC
  5
D9
330
36
100
AcDbEntity
  8
0
 62
     3
100
AcDbCircle
 10
123.116652
 20
-390.332685
 30
0.0
 40
1.5
100
AcDbArc
 50
4.635462999999997
 51
90.0
  0
ARC
  5
DA
330
36
100
AcDbEntity
  8
0
 62
     3
100
AcDbCircle
 10
117.543907
 20
-390.332685
 30
0.0
 40
1.5
100
AcDbArc
 50
90.0
 51
175.364537
  0
LINE
  5
DB
330
36
100
AcDbEntity
  8
0
 62
     3
100
AcDbLine
 10
165.330279
 20
-481.0826849999998
 30
0.0
 11
75.330279
 21
-481.0826849999998
 31
0.0
  0
LINE
  5
DC
330
36
100
AcDbEntity
  8
0
 62
     3
100
AcDbLine
 10
160.955279
 20
-401.9576849999998
 30
0.0
 11
79.705279
 21
-401.9576849999998
 31
0.0
  0
LINE
  5
DD
330
36
100
AcDbEntity
  8
0
 62
     3
100
AcDbLine
 10
165.330279
 20
-406.332685
 30
0.0
 11
165.330279
 21
-481.0826849999998
 31
0.0
  0
LINE
  5
DE
330
36
100
AcDbEntity
  8
0
 62
     3
100
AcDbLine
 10
75.330279
 20
-406.332685
 30
0.0
 11
75.330279
 21
-481.0826849999998
 31
0.0
  0
LINE
  5
DF
330
36
100
AcDbEntity
  8
0
 62
     3
100
AcDbLine
 10
89.080279
 20
-481.0826849999998
 30
0.0
 11
89.955279
 21
-486.3326849999999
 31
0.0
  0
LINE
  5
E0
330
36
100
AcDbEntity
  8
0
 62
     3
100
AcDbLine
 10
89.955279
 20
-486.3326849999999
 30
0.0
 11
96.95527900000001
 21
-486.3326849999999
 31
0.0
  0
LINE
  5
E1
330
36
100
AcDbEntity
  8
0
 62
     3
100
AcDbLine
 10
96.95527900000001
 20
-486.3326849999999
 30
0.0
 11
97.830279
 21
-481.0826849999998
 31
0.0
  0
ARC
  5
E2
330
36
100
AcDbEntity
  8
0
 62
     3
100
AcDbCircle
 10
283.031346
 20
-400.392185
 30
0.0
 40
7.5
100
AcDbArc
 50
0.0
 51
90.0
  0
ARC
  5
E3
330
36
100
AcDbEntity
  8
0
 62
     3
100
AcDbCircle
 10
261.129212
 20
-400.392185
 30
0.0
 40
7.5
100
AcDbArc
 50
90.0
 51
180.0
  0
LINE
  5
E4
330
36
100
AcDbEntity
  8
0
 62
     3
100
AcDbLine
 10
253.629212
 20
-400.392185
 30
0.0
 11
253.629212
 21
-401.9576849999998
 31
0.0
  0
ARC
  5
E5
330
36
100
AcDbEntity
  8
0
 62
     3
100
AcDbCircle
 10
289.687752
 20
-395.935889
 30
0.0
 40
7.106203999999999
100
AcDbArc
 50
21.959002
 51
90.0
  0
ARC
  5
E6
330
36
100
AcDbEntity
  8
0
 62
     3
100
AcDbCircle
 10
254.472806
 20
-395.935889
 30
0.0
 40
7.106203999999999
100
AcDbArc
 50
90.0
 51
158.040998
  0
LINE
  5
E7
330
36
100
AcDbEntity
  8
0
 62
     3
100
AcDbLine
 10
244.382779
 20
-401.9576849999998
 30
0.0
 11
247.882146
 21
-393.278573
 31
0.0
  0
LINE
  5
E8
330
36
100
AcDbEntity
  8
0
 62
     3
100
AcDbLine
 10
342.361279
 20
-401.9576849999998
 30
0.0
 11
197.423779
 21
-401.9576849999998
 31
0.0
  0
LINE
  5
E9
330
36
100
AcDbEntity
  8
0
 62
     3
100
AcDbLine
 10
203.423779
 20
-481.0826849999998
 30
0.0
 11
342.361279
 21
-481.0826849999998
 31
0.0
  0
LINE
  5
EA
330
36
100
AcDbEntity
  8
0
 62
     3
100
AcDbLine
 10
197.423779
 20
-475.082685
 30
0.0
 11
197.423779
 21
-401.9576849999998
 31
0.0
  0
ARC
  5
EB
330
36
100
AcDbEntity
  8
0
 62
     3
100
AcDbCircle
 10
203.423779
 20
-475.082685
 30
0.0
 40
6.0
100
AcDbArc
 50
180.0
 51
270.0
  0
LINE
  5
EC
330
36
100
AcDbEntity
  8
0
 62
     3
100
AcDbLine
 10
342.361279
 20
-481.0826849999998
 30
0.0
 11
342.361279
 21
-401.9576849999998
 31
0.0
  0
TEXT
  5
ED
330
36
100
AcDbEntity
  8
0
 62
     3
100
AcDbText
 10
85.53498299999999
 20
-417.14567
 30
0.0
 40
3.149999999999999
  1
連続定格
 41
0.833333
100
AcDbText
  0
LINE
  5
EE
330
36
100
AcDbEntity
  8
0
 62
     3
100
AcDbLine
 10
153.080279
 20
-471.7076849999998
 30
0.0
 11
146.955279
 21
-471.7076849999998
 31
0.0
  0
LINE
  5
EF
330
36
100
AcDbEntity
  8
0
 62
     3
100
AcDbLine
 10
87.580279
 20
-471.7076849999998
 30
0.0
 11
93.705279
 21
-471.7076849999998
 31
0.0
  0
TEXT
  5
F0
330
36
100
AcDbEntity
  8
0
 62
     3
100
AcDbText
 10
111.050464
 20
-478.7647549999999
 30
0.0
 40
3.149999999999999
  1
日動工業株式会社
 41
0.833333
100
AcDbText
  0
CIRCLE
  5
12A
330
36
100
AcDbEntity
  8
0
100
AcDbCircle
 10
317.361279
 20
-477.3326849999998
 30
0.0
 40
1.75
  0
ARC
  5
12C
330
36
100
AcDbEntity
  8
0
100
AcDbCircle
 10
120.982092
 20
-428.160869
 30
0.0
 40
12.25
100
AcDbArc
 50
50.856
 51
129.144
  0
TEXT
  5
12D
330
36
100
AcDbEntity
  8
0
100
AcDbText
 10
111.970079
 20
-417.645739
 30
0.0
 40
0.7175000000000003
  1
0
 50
39.999999
 41
1.440001
100
AcDbText
  0
LINE
  5
12E
330
36
100
AcDbEntity
  8
0
100
AcDbLine
 10
83.48643
 20
-418.651353
 30
0.0
 11
99.99900799999998
 21
-418.651353
 31
0.0
  0
LINE
  5
12F
330
36
100
AcDbEntity
  8
0
100
AcDbLine
 10
99.99900799999998
 20
-418.651353
 30
0.0
 11
99.99900799999998
 21
-412.567772
 31
0.0
  0
LINE
  5
130
330
36
100
AcDbEntity
  8
0
100
AcDbLine
 10
83.48643
 20
-412.567772
 30
0.0
 11
99.99900799999998
 21
-412.567772
 31
0.0
  0
LINE
  5
131
330
36
100
AcDbEntity
  8
0
100
AcDbLine
 10
83.48643
 20
-418.651353
 30
0.0
 11
83.48643
 21
-412.567772
 31
0.0
  0
ARC
  5
132
330
36
100
AcDbEntity
  8
0
100
AcDbCircle
 10
149.903583
 20
-417.786646
 30
0.0
 40
2.1875
100
AcDbArc
 50
90.0
 51
270.0
  0
CIRCLE
  5
133
330
36
100
AcDbEntity
  8
0
100
AcDbCircle
 10
150.017779
 20
-431.4576849999999
 30
0.0
 40
1.530999999999995
  0
ARC
  5
134
330
36
100
AcDbEntity
  8
0
100
AcDbCircle
 10
120.330279
 20
-445.9576849999998
 30
0.0
 40
1.530999999999995
100
AcDbArc
 50
270.0
 51
90.0
  0
CIRCLE
  5
135
330
36
100
AcDbEntity
  8
0
100
AcDbCircle
 10
108.473027
 20
-477.0889649999999
 30
0.0
 40
1.420678999999999
  0
LINE
  5
136
330
36
100
AcDbEntity
  8
0
100
AcDbLine
 10
108.473027
 20
-475.668286
 30
0.0
 11
108.473027
 21
-478.509645
 31
0.0
  0
LINE
  5
137
330
36
100
AcDbEntity
  8
0
100
AcDbLine
 10
108.473027
 20
-475.668286
 30
0.0
 11
106.925495
 21
-478.146445
 31
0.0
  0
LINE
  5
138
330
36
100
AcDbEntity
  8
0
100
AcDbLine
 10
108.473027
 20
-478.509645
 30
0.0
 11
109.968974
 21
-475.9283169999998
 31
0.0
  0
LINE
  5
139
330
36
100
AcDbEntity
  8
0
100
AcDbLine
 10
93.705279
 20
-471.0516849999998
 30
0.0
 11
87.580279
 21
-471.0516849999998
 31
0.0
  0
LINE
  5
13A
330
36
100
AcDbEntity
  8
0
100
AcDbLine
 10
146.955279
 20
-471.0516849999998
 30
0.0
 11
153.080279
 21
-471.0516849999998
 31
0.0
  0
CIRCLE
  5
13B
330
36
100
AcDbEntity
  8
0
100
AcDbCircle
 10
150.017779
 20
-468.2076849999998
 30
0.0
 40
1.530999999999995
  0
CIRCLE
  5
13C
330
36
100
AcDbEntity
  8
0
100
AcDbCircle
 10
90.642779
 20
-431.4576849999999
 30
0.0
 40
1.530999999999995
  0
CIRCLE
  5
13D
330
36
100
AcDbEntity
  8
0
100
AcDbCircle
 10
90.642779
 20
-468.2076849999998
 30
0.0
 40
1.530999999999995
  0
ARC
  5
13E
330
36
100
AcDbEntity
  8
0
100
AcDbCircle
 10
120.330279
 20
-445.9576849999998
 30
0.0
 40
1.530999999999995
100
AcDbArc
 50
90.0
 51
270.0
  0
ARC
  5
13F
330
36
100
AcDbEntity
  8
0
100
AcDbCircle
 10
120.330279
 20
-472.645185
 30
0.0
 40
1.530999999999995
100
AcDbArc
 50
90.0
 51
270.0
  0
ARC
  5
140
330
36
100
AcDbEntity
  8
0
100
AcDbCircle
 10
120.330279
 20
-472.645185
 30
0.0
 40
1.530999999999995
100
AcDbArc
 50
270.0
 51
90.0
  0
TEXT
  5
141
330
36
100
AcDbEntity
  8
0
100
AcDbText
 10
127.325592
 20
-416.567369
 30
0.0
 40
0.875
  1
150
 50
319.999991
 41
1.1808
100
AcDbText
  0
ARC
  5
142
330
36
100
AcDbEntity
  8
0
100
AcDbCircle
 10
149.903583
 20
-417.786646
 30
0.0
 40
2.1875
100
AcDbArc
 50
270.0
 51
90.0
  0
LINE
  5
143
330
36
100
AcDbEntity
  8
0
 62
     3
100
AcDbLine
 10
129.732092
 20
-423.348369
 30
0.0
 11
129.732092
 21
-412.4108689999998
 31
0.0
  0
ARC
  5
144
330
36
100
AcDbEntity
  8
0
100
AcDbCircle
 10
120.325592
 20
-423.348369
 30
0.0
 40
2.625
100
AcDbArc
 50
0.0
 51
180.0
  0
LINE
  5
145
330
36
100
AcDbEntity
  8
0
100
AcDbLine
 10
118.142779
 20
-454.2701849999998
 30
0.0
 11
118.142779
 21
-464.7701849999998
 31
0.0
  0
LINE
  5
146
330
36
100
AcDbEntity
  8
0
100
AcDbLine
 10
122.517779
 20
-464.7701849999998
 30
0.0
 11
122.517779
 21
-454.2701849999998
 31
0.0
  0
LINE
  5
147
330
36
100
AcDbEntity
  8
0
100
AcDbLine
 10
122.517779
 20
-458.4261849999998
 30
0.0
 11
118.142779
 21
-458.4261849999998
 31
0.0
  0
LINE
  5
148
330
36
100
AcDbEntity
  8
0
100
AcDbLine
 10
122.517779
 20
-460.6136849999998
 30
0.0
 11
118.142779
 21
-460.6136849999998
 31
0.0
  0
LINE
  5
149
330
36
100
AcDbEntity
  8
0
100
AcDbLine
 10
118.405279
 20
-452.1266849999998
 30
0.0
 11
118.405279
 21
-453.9641849999998
 31
0.0
  0
LINE
  5
14A
330
36
100
AcDbEntity
  8
0
100
AcDbLine
 10
118.405279
 20
-453.9641849999998
 30
0.0
 11
122.299279
 21
-453.9641849999998
 31
0.0
  0
LINE
  5
14B
330
36
100
AcDbEntity
  8
0
100
AcDbLine
 10
122.299279
 20
-453.9641849999998
 30
0.0
 11
122.299279
 21
-452.1266849999998
 31
0.0
  0
LINE
  5
14C
330
36
100
AcDbEntity
  8
0
100
AcDbLine
 10
122.299279
 20
-452.1266849999998
 30
0.0
 11
118.405279
 21
-452.1266849999998
 31
0.0
  0
LINE
  5
14D
330
36
100
AcDbEntity
  8
0
100
AcDbLine
 10
122.299279
 20
-453.9641849999998
 30
0.0
 11
122.299279
 21
-458.4261849999998
 31
0.0
  0
LINE
  5
14E
330
36
100
AcDbEntity
  8
0
100
AcDbLine
 10
118.405279
 20
-453.9641849999998
 30
0.0
 11
118.405279
 21
-458.4261849999998
 31
0.0
  0
LINE
  5
14F
330
36
100
AcDbEntity
  8
0
100
AcDbLine
 10
122.517779
 20
-454.2701849999998
 30
0.0
 11
122.299279
 21
-454.2701849999998
 31
0.0
  0
LINE
  5
150
330
36
100
AcDbEntity
  8
0
100
AcDbLine
 10
118.142779
 20
-454.2701849999998
 30
0.0
 11
118.405279
 21
-454.2701849999998
 31
0.0
  0
ARC
  5
151
330
36
100
AcDbEntity
  8
0
100
AcDbCircle
 10
160.517779
 20
-406.770185
 30
0.0
 40
4.375
100
AcDbArc
 50
0.0
 51
90.0
  0
LINE
  5
152
330
36
100
AcDbEntity
  8
0
100
AcDbLine
 10
164.892779
 20
-406.770185
 30
0.0
 11
164.892779
 21
-481.0826849999998
 31
0.0
  0
LINE
  5
153
330
36
100
AcDbEntity
  8
0
100
AcDbLine
 10
160.517779
 20
-402.395185
 30
0.0
 11
80.14277900000001
 21
-402.395185
 31
0.0
  0
ARC
  5
154
330
36
100
AcDbEntity
  8
0
100
AcDbCircle
 10
80.14277900000001
 20
-406.770185
 30
0.0
 40
4.375
100
AcDbArc
 50
90.0
 51
180.0
  0
LINE
  5
155
330
36
100
AcDbEntity
  8
0
100
AcDbLine
 10
75.767779
 20
-406.770185
 30
0.0
 11
75.767779
 21
-481.0826849999998
 31
0.0
  0
ARC
  5
156
330
36
100
AcDbEntity
  8
0
100
AcDbCircle
 10
90.63077900000001
 20
-445.0956849999998
 30
0.0
 40
1.103499999999999
100
AcDbArc
 50
349.095
 51
179.484
  0
LINE
  5
157
330
36
100
AcDbEntity
  8
0
100
AcDbLine
 10
91.71477899999999
 20
-445.9606849999998
 30
0.0
 11
91.71477899999999
 21
-445.085685
 31
0.0
  0
LINE
  5
158
330
36
100
AcDbEntity
  8
0
100
AcDbLine
 10
89.52727900000002
 20
-445.085685
 30
0.0
 11
89.52727900000002
 21
-445.9606849999998
 31
0.0
  0
LINE
  5
159
330
36
100
AcDbEntity
  8
0
100
AcDbLine
 10
89.52727900000002
 20
-445.9606849999998
 30
0.0
 11
91.71477899999999
 21
-445.9606849999998
 31
0.0
  0
LINE
  5
15A
330
36
100
AcDbEntity
  8
0
100
AcDbLine
 10
87.33977900000002
 20
-442.8981849999998
 30
0.0
 11
88.21477900000003
 21
-442.8981849999998
 31
0.0
  0
LINE
  5
15B
330
36
100
AcDbEntity
  8
0
100
AcDbLine
 10
87.33977900000002
 20
-438.9606849999998
 30
0.0
 11
87.33977900000002
 21
-442.8981849999998
 31
0.0
  0
LINE
  5
15C
330
36
100
AcDbEntity
  8
0
100
AcDbLine
 10
88.21477900000003
 20
-438.9606849999998
 30
0.0
 11
87.33977900000002
 21
-438.9606849999998
 31
0.0
  0
LINE
  5
15D
330
36
100
AcDbEntity
  8
0
100
AcDbLine
 10
88.21477900000003
 20
-442.8981849999998
 30
0.0
 11
88.21477900000003
 21
-438.9606849999998
 31
0.0
  0
LINE
  5
15E
330
36
100
AcDbEntity
  8
0
100
AcDbLine
 10
93.027279
 20
-442.4606849999998
 30
0.0
 11
93.90227899999999
 21
-442.4606849999998
 31
0.0
  0
LINE
  5
15F
330
36
100
AcDbEntity
  8
0
100
AcDbLine
 10
93.90227899999999
 20
-442.4606849999998
 30
0.0
 11
93.90227899999999
 21
-439.3981849999998
 31
0.0
  0
LINE
  5
160
330
36
100
AcDbEntity
  8
0
100
AcDbLine
 10
93.90227899999999
 20
-439.3981849999998
 30
0.0
 11
93.027279
 21
-439.3981849999998
 31
0.0
  0
LINE
  5
161
330
36
100
AcDbEntity
  8
0
100
AcDbLine
 10
93.027279
 20
-439.3981849999998
 30
0.0
 11
93.027279
 21
-442.4606849999998
 31
0.0
  0
LINE
  5
162
330
36
100
AcDbEntity
  8
0
100
AcDbLine
 10
87.33977900000002
 20
-459.9606849999998
 30
0.0
 11
88.21477900000003
 21
-459.9606849999998
 31
0.0
  0
LINE
  5
163
330
36
100
AcDbEntity
  8
0
100
AcDbLine
 10
87.33977900000002
 20
-456.023185
 30
0.0
 11
87.33977900000002
 21
-459.9606849999998
 31
0.0
  0
LINE
  5
164
330
36
100
AcDbEntity
  8
0
100
AcDbLine
 10
88.21477900000003
 20
-459.9606849999998
 30
0.0
 11
88.21477900000003
 21
-456.023185
 31
0.0
  0
LINE
  5
165
330
36
100
AcDbEntity
  8
0
100
AcDbLine
 10
88.21477900000003
 20
-456.023185
 30
0.0
 11
87.33977900000002
 21
-456.023185
 31
0.0
  0
ARC
  5
166
330
36
100
AcDbEntity
  8
0
100
AcDbCircle
 10
90.63077900000001
 20
-462.1581849999998
 30
0.0
 40
1.103499999999999
100
AcDbArc
 50
349.095
 51
179.484
  0
LINE
  5
167
330
36
100
AcDbEntity
  8
0
100
AcDbLine
 10
89.52727900000002
 20
-462.1481849999998
 30
0.0
 11
89.52727900000002
 21
-463.0231849999998
 31
0.0
  0
LINE
  5
168
330
36
100
AcDbEntity
  8
0
100
AcDbLine
 10
91.71477899999999
 20
-463.0231849999998
 30
0.0
 11
91.71477899999999
 21
-462.1481849999998
 31
0.0
  0
LINE
  5
169
330
36
100
AcDbEntity
  8
0
100
AcDbLine
 10
89.52727900000002
 20
-463.0231849999998
 30
0.0
 11
91.71477899999999
 21
-463.0231849999998
 31
0.0
  0
LINE
  5
16A
330
36
100
AcDbEntity
  8
0
100
AcDbLine
 10
93.027279
 20
-459.5231849999998
 30
0.0
 11
93.90227899999999
 21
-459.5231849999998
 31
0.0
  0
LINE
  5
16B
330
36
100
AcDbEntity
  8
0
100
AcDbLine
 10
93.027279
 20
-456.4606849999998
 30
0.0
 11
93.027279
 21
-459.5231849999998
 31
0.0
  0
LINE
  5
16C
330
36
100
AcDbEntity
  8
0
100
AcDbLine
 10
93.90227899999999
 20
-456.4606849999998
 30
0.0
 11
93.027279
 21
-456.4606849999998
 31
0.0
  0
LINE
  5
16D
330
36
100
AcDbEntity
  8
0
100
AcDbLine
 10
93.90227899999999
 20
-459.5231849999998
 30
0.0
 11
93.90227899999999
 21
-456.4606849999998
 31
0.0
  0
LINE
  5
16E
330
36
100
AcDbEntity
  8
0
100
AcDbLine
 10
146.714779
 20
-459.9606849999998
 30
0.0
 11
147.589779
 21
-459.9606849999998
 31
0.0
  0
LINE
  5
16F
330
36
100
AcDbEntity
  8
0
100
AcDbLine
 10
147.589779
 20
-459.9606849999998
 30
0.0
 11
147.589779
 21
-456.023185
 31
0.0
  0
LINE
  5
170
330
36
100
AcDbEntity
  8
0
100
AcDbLine
 10
147.589779
 20
-456.023185
 30
0.0
 11
146.714779
 21
-456.023185
 31
0.0
  0
LINE
  5
171
330
36
100
AcDbEntity
  8
0
100
AcDbLine
 10
146.714779
 20
-456.023185
 30
0.0
 11
146.714779
 21
-459.9606849999998
 31
0.0
  0
LINE
  5
172
330
36
100
AcDbEntity
  8
0
100
AcDbLine
 10
152.402279
 20
-459.5231849999998
 30
0.0
 11
153.277279
 21
-459.5231849999998
 31
0.0
  0
LINE
  5
173
330
36
100
AcDbEntity
  8
0
100
AcDbLine
 10
153.277279
 20
-459.5231849999998
 30
0.0
 11
153.277279
 21
-456.4606849999998
 31
0.0
  0
LINE
  5
174
330
36
100
AcDbEntity
  8
0
100
AcDbLine
 10
153.277279
 20
-456.4606849999998
 30
0.0
 11
152.402279
 21
-456.4606849999998
 31
0.0
  0
LINE
  5
175
330
36
100
AcDbEntity
  8
0
100
AcDbLine
 10
152.402279
 20
-456.4606849999998
 30
0.0
 11
152.402279
 21
-459.5231849999998
 31
0.0
  0
LINE
  5
176
330
36
100
AcDbEntity
  8
0
100
AcDbLine
 10
148.902279
 20
-463.0231849999998
 30
0.0
 11
151.089779
 21
-463.0231849999998
 31
0.0
  0
LINE
  5
177
330
36
100
AcDbEntity
  8
0
100
AcDbLine
 10
151.089779
 20
-463.0231849999998
 30
0.0
 11
151.089779
 21
-462.1481849999998
 31
0.0
  0
LINE
  5
178
330
36
100
AcDbEntity
  8
0
100
AcDbLine
 10
148.902279
 20
-462.1481849999998
 30
0.0
 11
148.902279
 21
-463.0231849999998
 31
0.0
  0
ARC
  5
179
330
36
100
AcDbEntity
  8
0
100
AcDbCircle
 10
150.005779
 20
-462.1581849999998
 30
0.0
 40
1.103499999999999
100
AcDbArc
 50
349.095
 51
179.484
  0
LINE
  5
17A
330
36
100
AcDbEntity
  8
0
100
AcDbLine
 10
146.714779
 20
-442.8981849999998
 30
0.0
 11
147.589779
 21
-442.8981849999998
 31
0.0
  0
LINE
  5
17B
330
36
100
AcDbEntity
  8
0
100
AcDbLine
 10
147.589779
 20
-442.8981849999998
 30
0.0
 11
147.589779
 21
-438.9606849999998
 31
0.0
  0
LINE
  5
17C
330
36
100
AcDbEntity
  8
0
100
AcDbLine
 10
147.589779
 20
-438.9606849999998
 30
0.0
 11
146.714779
 21
-438.9606849999998
 31
0.0
  0
LINE
  5
17D
330
36
100
AcDbEntity
  8
0
100
AcDbLine
 10
146.714779
 20
-438.9606849999998
 30
0.0
 11
146.714779
 21
-442.8981849999998
 31
0.0
  0
LINE
  5
17E
330
36
100
AcDbEntity
  8
0
100
AcDbLine
 10
152.402279
 20
-442.4606849999998
 30
0.0
 11
153.277279
 21
-442.4606849999998
 31
0.0
  0
LINE
  5
17F
330
36
100
AcDbEntity
  8
0
100
AcDbLine
 10
153.277279
 20
-442.4606849999998
 30
0.0
 11
153.277279
 21
-439.3981849999998
 31
0.0
  0
LINE
  5
180
330
36
100
AcDbEntity
  8
0
100
AcDbLine
 10
153.277279
 20
-439.3981849999998
 30
0.0
 11
152.402279
 21
-439.3981849999998
 31
0.0
  0
LINE
  5
181
330
36
100
AcDbEntity
  8
0
100
AcDbLine
 10
152.402279
 20
-439.3981849999998
 30
0.0
 11
152.402279
 21
-442.4606849999998
 31
0.0
  0
LINE
  5
182
330
36
100
AcDbEntity
  8
0
100
AcDbLine
 10
148.902279
 20
-445.9606849999998
 30
0.0
 11
151.089779
 21
-445.9606849999998
 31
0.0
  0
LINE
  5
183
330
36
100
AcDbEntity
  8
0
100
AcDbLine
 10
151.089779
 20
-445.9606849999998
 30
0.0
 11
151.089779
 21
-445.085685
 31
0.0
  0
LINE
  5
184
330
36
100
AcDbEntity
  8
0
100
AcDbLine
 10
148.902279
 20
-445.085685
 30
0.0
 11
148.902279
 21
-445.9606849999998
 31
0.0
  0
ARC
  5
185
330
36
100
AcDbEntity
  8
0
100
AcDbCircle
 10
150.005779
 20
-445.0956849999998
 30
0.0
 40
1.103499999999999
100
AcDbArc
 50
349.095
 51
179.484
  0
LINE
  5
186
330
36
100
AcDbEntity
  8
0
100
AcDbLine
 10
137.579983
 20
-424.826853
 30
0.0
 11
103.771169
 21
-424.826853
 31
0.0
  0
LINE
  5
187
330
36
100
AcDbEntity
  8
0
100
AcDbLine
 10
137.579983
 20
-424.826853
 30
0.0
 11
137.579983
 21
-440.5486469999998
 31
0.0
  0
LINE
  5
188
330
36
100
AcDbEntity
  8
0
100
AcDbLine
 10
137.579983
 20
-440.5486469999998
 30
0.0
 11
103.771169
 21
-440.5486469999998
 31
0.0
  0
LINE
  5
189
330
36
100
AcDbEntity
  8
0
100
AcDbLine
 10
103.771169
 20
-440.5486469999998
 30
0.0
 11
103.771169
 21
-424.826853
 31
0.0
  0
LINE
  5
18A
330
36
100
AcDbEntity
  8
0
100
AcDbLine
 10
343.861779
 20
-459.5826849999999
 30
0.0
 11
343.861779
 21
-451.5826849999998
 31
0.0
  0
TEXT
  5
1A2
330
36
100
AcDbEntity
  8
0
 62
     3
100
AcDbText
 10
357.4057656556572
 20
-617.21451
 30
0.0
 40
3.2
  1
FREE
  7
高3.2
100
AcDbText
  0
TEXT
  5
1A3
330
36
100
AcDbEntity
  8
0
 62
     3
100
AcDbText
 10
355.635265344403
 20
-555.2194969999998
 30
0.0
 40
4.5
  1
9.0kg
  7
高4.5
100
AcDbText
  0
TEXT
  5
1A4
330
36
100
AcDbEntity
  8
0
 62
     3
100
AcDbText
 10
330.531281
 20
-603.4965249999998
 30
0.0
 40
4.5
  1
TB-200D
  7
高4.5
100
AcDbText
  0
TEXT
  5
1A5
330
36
100
AcDbEntity
  8
0
 62
     3
100
AcDbText
 10
376.528072226228
 20
-627.1744219999998
 30
0.0
 40
6.299999999999998
  1
TB-200D
  7
高6.3
100
AcDbText
  0
TEXT
  5
1AD
330
36
100
AcDbEntity
  8
0
100
AcDbText
 10
118.856937
 20
-450.4915469999998
 30
0.0
 40
1.6
  1
ON
100
AcDbText
  0
TEXT
  5
1AE
330
36
100
AcDbEntity
  8
0
100
AcDbText
 10
118.26563
 20
-468.2704909999998
 30
0.0
 40
1.6
  1
OFF
100
AcDbText
  0
TEXT
  5
1AF
330
36
100
AcDbEntity
  8
0
100
AcDbText
 10
146.640678
 20
-413.070439
 30
0.0
 40
2.25
  1
電　源
 41
0.833333
100
AcDbText
  0
TEXT
  5
1B0
330
36
100
AcDbEntity
  8
0
100
AcDbText
 10
114.281875
 20
-410.840592
 30
0.0
 40
2.25
  1
出力電圧計
 41
0.833333
100
AcDbText
  0
TEXT
  5
1B1
330
36
100
AcDbEntity
  8
0
100
AcDbText
 10
85.73363099999998
 20
-406.9125239999998
 30
0.0
 40
2.25
  1
フルパワー
 41
0.833333
100
AcDbText
  0
TEXT
  5
1B2
330
36
100
AcDbEntity
  8
0
100
AcDbText
 10
81.57704100000001
 20
-410.8520279999998
 30
0.0
 40
2.25
  1
軽量リングトランス
 41
0.833333
100
AcDbText
  0
TEXT
  5
1B3
330
36
100
AcDbEntity
  8
0
100
AcDbText
 10
84.10899
 20
-428.528748
 30
0.0
 40
2.25
  1
出力１００Ｖ
 41
0.833333
100
AcDbText
  0
TEXT
  5
1B4
330
36
100
AcDbEntity
  8
0
100
AcDbText
 10
143.331557
 20
-428.49395
 30
0.0
 40
2.25
  1
出力１１５Ｖ
 41
0.833333
100
AcDbText
  0
LINE
  5
1B5
330
36
100
AcDbEntity
  8
0
100
AcDbLine
 10
128.058592
 20
-418.222869
 30
0.0
 11
128.715092
 21
-417.566369
 31
0.0
  0
LINE
  5
1B6
330
36
100
AcDbEntity
  8
0
100
AcDbLine
 10
112.669092
 20
-418.317369
 30
0.0
 11
112.232092
 21
-417.660869
 31
0.0
  0
LINE
  5
1B7
330
36
100
AcDbEntity
  8
0
100
AcDbLine
 10
112.888092
 20
-418.317369
 30
0.0
 11
120.544092
 21
-423.348369
 31
0.0
  0
LINE
  5
1B8
330
36
100
AcDbEntity
  8
0
100
AcDbLine
 10
112.669092
 20
-418.317369
 30
0.0
 11
112.888092
 21
-418.317369
 31
0.0
  0
LINE
  5
1B9
330
36
100
AcDbEntity
  8
0
100
AcDbLine
 10
120.325592
 20
-423.348369
 30
0.0
 11
112.669092
 21
-418.317369
 31
0.0
  0
LINE
  5
1BC
330
36
100
AcDbEntity
  8
0
 62
     3
100
AcDbLine
 10
397.641369
 20
-611.655928
 30
0.0
 11
397.6413690000001
 21
-588.655928
 31
0.0
  0
LINE
  5
1BE
330
36
100
AcDbEntity
  8
0
 62
     3
100
AcDbLine
 10
344.58776
 20
-618.6559279999999
 30
0.0
 11
344.58776
 21
-604.655928
 31
0.0
  0
TEXT
  5
1C0
330
36
100
AcDbEntity
  8
0
 62
     3
100
AcDbText
 10
373.651688
 20
-592.450812
 30
0.0
 40
2.0
  1
A
 41
0.7
100
AcDbText
  0
TEXT
  5
1C1
330
36
100
AcDbEntity
  8
0
 62
     3
100
AcDbText
 10
376.186974
 20
-592.450812
 30
0.0
 40
2.0
  1
P
 41
0.7
100
AcDbText
  0
TEXT
  5
1C2
330
36
100
AcDbEntity
  8
0
 62
     3
100
AcDbText
 10
378.72226
 20
-592.450812
 30
0.0
 40
2.0
  1
P
 41
0.7
100
AcDbText
  0
TEXT
  5
1C3
330
36
100
AcDbEntity
  8
0
 62
     3
100
AcDbText
 10
381.257546
 20
-592.450812
 30
0.0
 40
2.0
  1
D
 41
0.7
100
AcDbText
  0
TEXT
  5
1C4
330
36
100
AcDbEntity
  8
0
 62
     3
100
AcDbText
 10
386.626229
 20
-592.450812
 30
0.0
 40
2.0
  1
C
 41
0.7
100
AcDbText
  0
TEXT
  5
1C5
330
36
100
AcDbEntity
  8
0
 62
     3
100
AcDbText
 10
389.161516
 20
-592.450812
 30
0.0
 40
2.0
  1
H
 41
0.7
100
AcDbText
  0
TEXT
  5
1C6
330
36
100
AcDbEntity
  8
0
 62
     3
100
AcDbText
 10
391.696802
 20
-592.450812
 30
0.0
 40
2.0
  1
C
 41
0.7
100
AcDbText
  0
TEXT
  5
1C7
330
36
100
AcDbEntity
  8
0
 62
     3
100
AcDbText
 10
394.232088
 20
-592.450812
 30
0.0
 40
2.0
  1
K
 41
0.7
100
AcDbText
  0
TEXT
  5
1C8
330
36
100
AcDbEntity
  8
0
 62
     3
100
AcDbText
 10
399.906055
 20
-592.450812
 30
0.0
 40
2.0
  1
DESN
 41
1.216762999999998
100
AcDbText
  0
TEXT
  5
1C9
330
36
100
AcDbEntity
  8
0
 62
     3
100
AcDbText
 10
314.899696
 20
-621.7973099999998
 30
0.0
 40
2.0
  1
NICHIDO IND.CO.LTD
 41
1.274876
100
AcDbText
  0
LINE
  5
1CA
330
36
100
AcDbEntity
  8
0
 62
     3
100
AcDbLine
 10
325.282725
 20
-588.655928
 30
0.0
 11
325.282725
 21
-611.655928
 31
0.0
  0
LINE
  5
1CB
330
36
100
AcDbEntity
  8
0
 62
     3
100
AcDbLine
 10
371.641369
 20
-588.655928
 30
0.0
 11
371.641369
 21
-628.3216499999999
 31
0.0
  0
LINE
  5
1D0
330
36
100
AcDbEntity
  8
0
 62
     3
100
AcDbLine
 10
384.641369
 20
-588.6559279999999
 30
0.0
 11
384.641369
 21
-618.6559279999999
 31
0.0
  0
TEXT
  5
1D1
330
36
100
AcDbEntity
  8
0
 62
     3
100
AcDbText
 10
372.753814
 20
-617.791241
 30
0.0
 40
3.2
  1
作成日
 41
1.017225999999997
100
AcDbText
  0
LINE
  5
1D2
330
36
100
AcDbEntity
  8
0
 62
     3
100
AcDbLine
 10
423.340733
 20
-588.655928
 30
0.0
 11
312.03729
 21
-588.655928
 31
0.0
  0
LINE
  5
1D3
330
36
100
AcDbEntity
  8
0
 62
     3
100
AcDbLine
 10
410.641369
 20
-611.655928
 30
0.0
 11
410.641369
 21
-588.655928
 31
0.0
  0
TEXT
  5
1D4
330
36
100
AcDbEntity
  8
0
 62
     3
100
AcDbText
 10
413.9651729999997
 20
-592.364993
 30
0.0
 40
1.8
  1
D
 41
0.666667
100
AcDbText
  0
TEXT
  5
1D5
330
36
100
AcDbEntity
  8
0
 62
     3
100
AcDbText
 10
416.7818009999998
 20
-592.364993
 30
0.0
 40
1.8
  1
E
 41
0.666667
100
AcDbText
  0
TEXT
  5
1D6
330
36
100
AcDbEntity
  8
0
 62
     3
100
AcDbText
 10
419.598429
 20
-592.364993
 30
0.0
 40
1.8
  1
F
 41
0.666667
100
AcDbText
  0
TEXT
  5
1D7
330
36
100
AcDbEntity
  8
0
 62
     3
100
AcDbText
 10
413.9651729999997
 20
-596.3575469999997
 30
0.0
 40
3.2
  1
製図
 41
1.076369
100
AcDbText
  0
LINE
  5
1D8
330
36
100
AcDbEntity
  8
0
 62
     3
100
AcDbLine
 10
312.03729
 20
-588.655928
 30
0.0
 11
312.03729
 21
-628.3216499999999
 31
0.0
  0
TEXT
  5
1D9
330
36
100
AcDbEntity
  8
0
 62
     3
100
AcDbText
 10
313.413943
 20
-627.9891849999998
 30
0.0
 40
5.0
  1
日動工業株式会社
 41
0.833333
100
AcDbText
  0
LINE
  5
1DA
330
36
100
AcDbEntity
  8
0
 62
     3
100
AcDbLine
 10
354.9196940000002
 20
-604.6559279999999
 30
0.0
 11
354.919694
 21
-628.3216499999999
 31
0.0
  0
LINE
  5
1DB
330
36
100
AcDbEntity
  8
0
 62
     3
100
AcDbLine
 10
354.919694
 20
-623.488789
 30
0.0
 11
371.641369
 21
-623.488789
 31
0.0
  0
TEXT
  5
1DC
330
36
100
AcDbEntity
  8
0
 62
     3
100
AcDbText
 10
355.506296
 20
-622.672359
 30
0.0
 40
3.2
  1
出図コード
 41
0.8356860000000001
100
AcDbText
  0
LINE
  5
1DE
330
36
100
AcDbEntity
  8
0
 62
     3
100
AcDbLine
 10
312.03729
 20
-618.6559279999999
 30
0.0
 11
423.340733
 21
-618.6559279999999
 31
0.0
  0
LINE
  5
1E0
330
36
100
AcDbEntity
  8
0
 62
     3
100
AcDbLine
 10
312.03729
 20
-597.655928
 30
0.0
 11
423.340733
 21
-597.655928
 31
0.0
  0
LINE
  5
1E6
330
36
100
AcDbEntity
  8
0
 62
     3
100
AcDbLine
 10
312.03729
 20
-604.6559279999999
 30
0.0
 11
371.641369
 21
-604.655928
 31
0.0
  0
LINE
  5
1EC
330
36
100
AcDbEntity
  8
0
 62
     3
100
AcDbLine
 10
312.03729
 20
-611.655928
 30
0.0
 11
423.340733
 21
-611.655928
 31
0.0
  0
TEXT
  5
1ED
330
36
100
AcDbEntity
  8
0
 62
     3
100
AcDbText
 10
355.373748
 20
-627.8446275349852
 30
0.0
 40
3.2
  1
ZK-A3X
 41
0.8112849999999999
100
AcDbText
  0
TEXT
  5
1EE
330
36
100
AcDbEntity
  8
0
 62
     3
100
AcDbText
 10
313.854687
 20
-592.486402
 30
0.0
 40
2.0
  1
CONPONENTS
 41
0.5331600000000001
100
AcDbText
  0
TEXT
  5
1EF
330
36
100
AcDbEntity
  8
0
 62
     3
100
AcDbText
 10
313.504961
 20
-611.418579
 30
0.0
 40
3.0
  1
材
 41
0.833333
100
AcDbText
  0
TEXT
  5
1F0
330
36
100
AcDbEntity
  8
0
 62
     3
100
AcDbText
 10
321.040603
 20
-611.418579
 30
0.0
 40
3.0
  1
質
 41
0.833333
100
AcDbText
  0
TEXT
  5
1F1
330
36
100
AcDbEntity
  8
0
 62
     3
100
AcDbText
 10
313.593031
 20
-600.7940539999997
 30
0.0
 40
2.0
  1
MODEL
 41
1.031072999999999
100
AcDbText
  0
TEXT
  5
1F2
330
36
100
AcDbEntity
  8
0
 62
     3
100
AcDbText
 10
313.504961
 20
-607.736271
 30
0.0
 40
2.0
  1
MATERIAL
 41
0.659278
100
AcDbText
  0
TEXT
  5
1F3
330
36
100
AcDbEntity
  8
0
 62
     3
100
AcDbText
 10
344.812241
 20
-611.418579
 30
0.0
 40
3.0
  1
備
 41
0.833333
100
AcDbText
  0
TEXT
  5
1F4
330
36
100
AcDbEntity
  8
0
 62
     3
100
AcDbText
 10
351.545243
 20
-611.418579
 30
0.0
 40
3.0
  1
考
 41
0.833333
100
AcDbText
  0
TEXT
  5
1F5
330
36
100
AcDbEntity
  8
0
 62
     3
100
AcDbText
 10
345.1656049469097
 20
-607.736271
 30
0.0
 40
2.0
  1
REMARKS
 41
0.675794
100
AcDbText
  0
TEXT
  5
1F6
330
36
100
AcDbEntity
  8
0
 62
     3
100
AcDbText
 10
315.09469
 20
-614.656391
 30
0.0
 40
2.0
  1
3AD
 41
1.42614
100
AcDbText
  0
TEXT
  5
1F7
330
36
100
AcDbEntity
  8
0
 62
     3
100
AcDbText
 10
324.405669
 20
-614.490658
 30
0.0
 40
2.0
  1
ANGLE
 41
1.669883999999995
100
AcDbText
  0
TEXT
  5
1F8
330
36
100
AcDbEntity
  8
0
 62
     3
100
AcDbText
 10
345.339557
 20
-614.867499
 30
0.0
 40
2.0
  1
SCALE
 41
0.7719630000000001
100
AcDbText
  0
TEXT
  5
1F9
330
36
100
AcDbEntity
  8
0
 62
     3
100
AcDbText
 10
314.78082
 20
-618.6559279999999
 30
0.0
 40
3.0
  1
第
 41
0.833333
100
AcDbText
  0
TEXT
  5
1FA
330
36
100
AcDbEntity
  8
0
 62
     3
100
AcDbText
 10
322.56767
 20
-618.6559279999999
 30
0.0
 40
3.0
  1
三
 41
0.833333
100
AcDbText
  0
TEXT
  5
1FB
330
36
100
AcDbEntity
  8
0
 62
     3
100
AcDbText
 10
330.354519
 20
-618.6559279999999
 30
0.0
 40
3.0
  1
角
 41
0.833333
100
AcDbText
  0
TEXT
  5
1FC
330
36
100
AcDbEntity
  8
0
 62
     3
100
AcDbText
 10
338.141369
 20
-618.6559279999999
 30
0.0
 40
3.0
  1
法
 41
0.833333
100
AcDbText
  0
TEXT
  5
1FD
330
36
100
AcDbEntity
  8
0
 62
     3
100
AcDbText
 10
345.202762
 20
-618.367499
 30
0.0
 40
3.0
  1
尺
 41
0.833333
100
AcDbText
  0
TEXT
  5
1FE
330
36
100
AcDbEntity
  8
0
 62
     3
100
AcDbText
 10
351.935763
 20
-618.367499
 30
0.0
 40
3.0
  1
度
 41
0.833333
100
AcDbText
  0
TEXT
  5
1FF
330
36
100
AcDbEntity
  8
0
 62
     3
100
AcDbText
 10
374.519034
 20
-596.198199
 30
0.0
 40
3.0
  1
承認
 41
1.089472999999999
100
AcDbText
  0
TEXT
  5
200
330
36
100
AcDbEntity
  8
0
 62
     3
100
AcDbText
 10
387.761914
 20
-596.255928
 30
0.0
 40
3.0
  1
検図
 41
0.931761
100
AcDbText
  0
TEXT
  5
201
330
36
100
AcDbEntity
  8
0
 62
     3
100
AcDbText
 10
400.7623109999998
 20
-596.255928
 30
0.0
 40
3.0
  1
設
 41
0.833333
100
AcDbText
  0
TEXT
  5
202
330
36
100
AcDbEntity
  8
0
 62
     3
100
AcDbText
 10
405.252179
 20
-596.255928
 30
0.0
 40
3.0
  1
計
 41
0.833333
100
AcDbText
  0
TEXT
  5
203
330
36
100
AcDbEntity
  8
0
 62
     3
100
AcDbText
 10
313.924794
 20
-596.083375
 30
0.0
 40
3.0
  1
品
 41
0.833333
100
AcDbText
  0
TEXT
  5
204
330
36
100
AcDbEntity
  8
0
 62
     3
100
AcDbText
 10
321.460436
 20
-596.083375
 30
0.0
 40
3.0
  1
名
 41
0.833333
100
AcDbText
  0
TEXT
  5
205
330
36
100
AcDbEntity
  8
0
 62
     3
100
AcDbText
 10
313.593031
 20
-604.3103628820281
 30
0.0
 40
3.0
  1
型
 41
0.833333
100
AcDbText
  0
TEXT
  5
206
330
36
100
AcDbEntity
  8
0
 62
     3
100
AcDbText
 10
321.141122
 20
-604.3103628820281
 30
0.0
 40
3.0
  1
式
 41
0.833333
100
AcDbText
  0
LINE
  5
207
330
36
100
AcDbEntity
  8
0
 62
     3
100
AcDbLine
 10
20.938809
 20
-487.8216499999998
 30
0.0
 11
18.340733
 21
-489.32165
 31
0.0
  0
LINE
  5
208
330
36
100
AcDbEntity
  8
0
 62
     3
100
AcDbLine
 10
20.938809
 20
-487.8216499999998
 30
0.0
 11
18.340733
 21
-486.32165
 31
0.0
  0
LINE
  5
209
330
36
100
AcDbEntity
  8
0
 62
     3
100
AcDbLine
 10
18.340733
 20
-489.32165
 30
0.0
 11
18.340733
 21
-486.32165
 31
0.0
  0
LINE
  5
241
330
36
100
AcDbEntity
  8
0
100
AcDbLine
 10
118.142779
 20
-464.7701849999998
 30
0.0
 11
122.517779
 21
-464.7701849999998
 31
0.0
  0
LINE
  5
242
330
36
100
AcDbEntity
  8
0
 62
     3
100
AcDbLine
 10
342.361779
 20
-459.5826849999999
 30
0.0
 11
343.861779
 21
-459.5826849999999
 31
0.0
  0
LINE
  5
243
330
36
100
AcDbEntity
  8
0
 62
     3
100
AcDbLine
 10
343.861779
 20
-451.5826849999998
 30
0.0
 11
342.361779
 21
-451.5826849999998
 31
0.0
  0
CIRCLE
  5
245
330
36
100
AcDbEntity
  8
0
 62
     3
100
AcDbCircle
 10
251.353191
 20
-553.513065
 30
0.0
 40
8.75
  0
CIRCLE
  5
246
330
36
100
AcDbEntity
  8
0
 62
     3
100
AcDbCircle
 10
251.353191
 20
-566.013065
 30
0.0
 40
0.625
  0
LINE
  5
247
330
36
100
AcDbEntity
  8
0
100
AcDbLine
 10
335.4425105947457
 20
-521.7433839999999
 30
0.0
 11
335.4425105947457
 21
-563.323384
 31
0.0
  0
LINE
  5
248
330
36
100
AcDbEntity
  8
0
 62
     7
100
AcDbLine
 10
341.558744
 20
-519.2914049999997
 30
0.0
 11
378.2695397579587
 21
-519.2914049999997
 31
0.0
  0
LINE
  5
249
330
36
100
AcDbEntity
  8
0
 62
     3
100
AcDbLine
 10
398.5665523570635
 20
-521.7433839999999
 30
0.0
 11
398.5665523570635
 21
-563.323384
 31
0.0
  0
LINE
  5
24A
330
36
100
AcDbEntity
  8
0
 62
     7
100
AcDbLine
 10
151.0431366188006
 20
-628.3216499999999
 30
0.0
 11
151.0431366188006
 21
-568.3216499999997
 31
0.0
  0
LINE
  5
24B
330
36
100
AcDbEntity
  8
0
100
AcDbLine
 10
253.728191
 20
-547.3880649999999
 30
0.0
 11
253.728191
 21
-549.1380649999999
 31
0.0
  0
LINE
  5
24C
330
36
100
AcDbEntity
  8
0
100
AcDbLine
 10
248.978191
 20
-547.3880649999999
 30
0.0
 11
253.728191
 21
-547.3880649999999
 31
0.0
  0
LINE
  5
24D
330
36
100
AcDbEntity
  8
0
100
AcDbLine
 10
248.978191
 20
-547.3880649999999
 30
0.0
 11
248.978191
 21
-549.1380649999999
 31
0.0
  0
LINE
  5
24E
330
36
100
AcDbEntity
  8
0
100
AcDbLine
 10
248.978191
 20
-549.1380649999999
 30
0.0
 11
253.728191
 21
-549.1380649999999
 31
0.0
  0
LINE
  5
24F
330
36
100
AcDbEntity
  8
0
100
AcDbLine
 10
252.165691
 20
-555.8880649999998
 30
0.0
 11
252.165691
 21
-560.638065
 31
0.0
  0
LINE
  5
250
330
36
100
AcDbEntity
  8
0
100
AcDbLine
 10
250.540691
 20
-555.8880649999998
 30
0.0
 11
252.165691
 21
-555.8880649999998
 31
0.0
  0
LINE
  5
251
330
36
100
AcDbEntity
  8
0
100
AcDbLine
 10
250.540691
 20
-555.8880649999998
 30
0.0
 11
250.540691
 21
-560.638065
 31
0.0
  0
LINE
  5
252
330
36
100
AcDbEntity
  8
0
100
AcDbLine
 10
255.728191
 20
-555.8880649999998
 30
0.0
 11
257.353191
 21
-555.8880649999998
 31
0.0
  0
LINE
  5
253
330
36
100
AcDbEntity
  8
0
100
AcDbLine
 10
255.728191
 20
-551.1380649999998
 30
0.0
 11
255.728191
 21
-555.8880649999998
 31
0.0
  0
LINE
  5
254
330
36
100
AcDbEntity
  8
0
100
AcDbLine
 10
255.728191
 20
-551.1380649999998
 30
0.0
 11
257.353191
 21
-551.1380649999998
 31
0.0
  0
LINE
  5
255
330
36
100
AcDbEntity
  8
0
100
AcDbLine
 10
246.978191
 20
-551.1380649999998
 30
0.0
 11
246.978191
 21
-555.8880649999998
 31
0.0
  0
LINE
  5
256
330
36
100
AcDbEntity
  8
0
100
AcDbLine
 10
245.353191
 20
-551.1380649999998
 30
0.0
 11
246.978191
 21
-551.1380649999998
 31
0.0
  0
LINE
  5
257
330
36
100
AcDbEntity
  8
0
100
AcDbLine
 10
245.353191
 20
-555.8880649999998
 30
0.0
 11
246.978191
 21
-555.8880649999998
 31
0.0
  0
LINE
  5
258
330
36
100
AcDbEntity
  8
0
100
AcDbLine
 10
245.353191
 20
-551.1380649999998
 30
0.0
 11
245.353191
 21
-555.8880649999998
 31
0.0
  0
LINE
  5
259
330
36
100
AcDbEntity
  8
0
100
AcDbLine
 10
257.353191
 20
-551.1380649999998
 30
0.0
 11
257.353191
 21
-555.8880649999998
 31
0.0
  0
LINE
  5
25A
330
36
100
AcDbEntity
  8
0
100
AcDbLine
 10
250.603191
 20
-560.638065
 30
0.0
 11
252.165691
 21
-560.638065
 31
0.0
  0
TEXT
  5
25B
330
36
100
AcDbEntity
  8
0
 62
     3
100
AcDbText
 10
42.74551085714285
 20
-627.8216499999999
 30
0.0
 40
3.2
  1
部　　品　　名
 41
0.8
  7
高3.2
100
AcDbText
  0
TEXT
  5
25C
330
36
100
AcDbEntity
  8
0
 62
     3
100
AcDbText
 10
71.73700096915675
 20
-627.8216499999999
 30
0.0
 40
3.2
  1
個数　
 41
0.8
  7
高3.2
100
AcDbText
  0
TEXT
  5
25D
330
36
100
AcDbEntity
  8
0
 62
     3
100
AcDbText
 10
79.59414382629963
 20
-627.8216499999999
 30
0.0
 40
3.2
  1
材　　　質
 41
0.8
  7
高3.2
100
AcDbText
  0
CIRCLE
  5
264
330
36
100
AcDbEntity
  8
0
100
AcDbCircle
 10
364.311039
 20
-382.7370242203678
 30
0.0
 40
5.0
  0
TEXT
  5
265
330
36
100
AcDbEntity
  8
0
 62
     4
100
AcDbText
 10
363.1637066406461
 20
-385.8436935058782
 30
0.0
 40
6.299999999999998
  1
1
  7
高6.3
100
AcDbText
  0
CIRCLE
  5
26C
330
36
100
AcDbEntity
  8
0
100
AcDbCircle
 10
253.600016
 20
-378.35907
 30
0.0
 40
5.0
  0
TEXT
  5
26D
330
36
100
AcDbEntity
  8
0
 62
     4
100
AcDbText
 10
251.4280039120489
 20
-381.6430983914687
 30
0.0
 40
6.299999999999998
  1
2
  7
高6.3
100
AcDbText
  0
CIRCLE
  5
274
330
36
100
AcDbEntity
  8
0
100
AcDbCircle
 10
225.922013
 20
-378.35907
 30
0.0
 40
5.0
  0
TEXT
  5
275
330
36
100
AcDbEntity
  8
0
 62
     4
100
AcDbText
 10
223.7500009120489
 20
-381.6430983914687
 30
0.0
 40
6.299999999999998
  1
4
  7
高6.3
100
AcDbText
  0
CIRCLE
  5
27C
330
36
100
AcDbEntity
  8
0
100
AcDbCircle
 10
143.56763
 20
-377.947885
 30
0.0
 40
5.0
  0
TEXT
  5
27D
330
36
100
AcDbEntity
  8
0
 62
     4
100
AcDbText
 10
141.3956179120489
 20
-381.2319143914686
 30
0.0
 40
6.299999999999998
  1
7
  7
高6.3
100
AcDbText
  0
CIRCLE
  5
284
330
36
100
AcDbEntity
  8
0
100
AcDbCircle
 10
193.467546306259
 20
-378.7869692705406
 30
0.0
 40
5.0
  0
TEXT
  5
285
330
36
100
AcDbEntity
  8
0
 62
     4
100
AcDbText
 10
191.0071152595816
 20
-381.1402252603991
 30
0.0
 40
4.5
  1
10
  7
高4.5
100
AcDbText
  0
CIRCLE
  5
28C
330
36
100
AcDbEntity
  8
0
100
AcDbCircle
 10
98.269324
 20
-378.331502
 30
0.0
 40
5.0
  0
TEXT
  5
28D
330
36
100
AcDbEntity
  8
0
 62
     4
100
AcDbText
 10
96.09731191204893
 20
-381.6155303914687
 30
0.0
 40
6.299999999999998
  1
8
  7
高6.3
100
AcDbText
  0
CIRCLE
  5
294
330
36
100
AcDbEntity
  8
0
100
AcDbCircle
 10
66.659524
 20
-378.331502
 30
0.0
 40
5.0
  0
TEXT
  5
295
330
36
100
AcDbEntity
  8
0
 62
     4
100
AcDbText
 10
64.4875119120489
 20
-381.6155303914687
 30
0.0
 40
6.299999999999998
  1
9
  7
高6.3
100
AcDbText
  0
CIRCLE
  5
29C
330
36
100
AcDbEntity
  8
0
100
AcDbCircle
 10
59.84928299999999
 20
-490.983175
 30
0.0
 40
5.0
  0
TEXT
  5
29D
330
36
100
AcDbEntity
  8
0
 62
     4
100
AcDbText
 10
57.49891684447357
 20
-493.2103257291678
 30
0.0
 40
4.5
  1
11
  7
高4.5
100
AcDbText
  0
CIRCLE
  5
2A4
330
36
100
AcDbEntity
  8
0
100
AcDbCircle
 10
177.644488
 20
-378.467251
 30
0.0
 40
5.0
  0
TEXT
  5
2A5
330
36
100
AcDbEntity
  8
0
 62
     4
100
AcDbText
 10
175.4724759120489
 20
-381.7512793914687
 30
0.0
 40
6.299999999999998
  1
5
  7
高6.3
100
AcDbText
  0
CIRCLE
  5
2AC
330
36
100
AcDbEntity
  8
0
100
AcDbCircle
 10
161.052714
 20
-378.467251
 30
0.0
 40
5.0
  0
TEXT
  5
2AD
330
36
100
AcDbEntity
  8
0
 62
     4
100
AcDbText
 10
158.8807019120489
 20
-381.7512793914687
 30
0.0
 40
6.299999999999998
  1
6
  7
高6.3
100
AcDbText
  0
LINE
  5
2AE
330
36
100
AcDbEntity
  8
0
 62
     3
100
AcDbLine
 10
323.177815
 20
-422.642161
 30
0.0
 11
286.822844
 21
-422.642161
 31
0.0
  0
LINE
  5
2AF
330
36
100
AcDbEntity
  8
0
 62
     3
100
AcDbLine
 10
323.177815
 20
-432.642161
 30
0.0
 11
286.822844
 21
-432.642161
 31
0.0
  0
LINE
  5
2B0
330
36
100
AcDbEntity
  8
0
 62
     3
100
AcDbLine
 10
323.177815
 20
-442.642161
 30
0.0
 11
286.822844
 21
-442.642161
 31
0.0
  0
LINE
  5
2B1
330
36
100
AcDbEntity
  8
0
 62
     3
100
AcDbLine
 10
323.177815
 20
-452.642161
 30
0.0
 11
286.822844
 21
-452.642161
 31
0.0
  0
LINE
  5
2B2
330
36
100
AcDbEntity
  8
0
 62
     3
100
AcDbLine
 10
226.110042
 20
-422.642161
 30
0.0
 11
262.465013
 21
-422.642161
 31
0.0
  0
LINE
  5
2B3
330
36
100
AcDbEntity
  8
0
 62
     3
100
AcDbLine
 10
226.110042
 20
-432.642161
 30
0.0
 11
262.465013
 21
-432.642161
 31
0.0
  0
LINE
  5
2B4
330
36
100
AcDbEntity
  8
0
 62
     3
100
AcDbLine
 10
226.110042
 20
-442.642161
 30
0.0
 11
262.465013
 21
-442.642161
 31
0.0
  0
LINE
  5
2B5
330
36
100
AcDbEntity
  8
0
 62
     3
100
AcDbLine
 10
226.110042
 20
-452.642161
 30
0.0
 11
262.465013
 21
-452.642161
 31
0.0
  0
LINE
  5
2B6
330
36
100
AcDbEntity
  8
0
 62
     3
100
AcDbLine
 10
292.822844
 20
-446.642161
 30
0.0
 11
317.177815
 21
-446.642161
 31
0.0
  0
ARC
  5
2B7
330
36
100
AcDbEntity
  8
0
 62
     3
100
AcDbCircle
 10
317.177815
 20
-452.642161
 30
0.0
 40
6.0
100
AcDbArc
 50
0.0
 51
90.0
  0
ARC
  5
2B8
330
36
100
AcDbEntity
  8
0
 62
     3
100
AcDbCircle
 10
292.822844
 20
-452.642161
 30
0.0
 40
6.0
100
AcDbArc
 50
90.0
 51
180.0
  0
LINE
  5
2B9
330
36
100
AcDbEntity
  8
0
 62
     3
100
AcDbLine
 10
256.465013
 20
-446.642161
 30
0.0
 11
232.110042
 21
-446.642161
 31
0.0
  0
ARC
  5
2BA
330
36
100
AcDbEntity
  8
0
 62
     3
100
AcDbCircle
 10
232.110042
 20
-452.642161
 30
0.0
 40
6.0
100
AcDbArc
 50
90.0
 51
180.0
  0
ARC
  5
2BB
330
36
100
AcDbEntity
  8
0
 62
     3
100
AcDbCircle
 10
256.465013
 20
-452.642161
 30
0.0
 40
6.0
100
AcDbArc
 50
0.0
 51
90.0
  0
LINE
  5
2BC
330
36
100
AcDbEntity
  8
0
 62
     3
100
AcDbLine
 10
292.822844
 20
-436.642161
 30
0.0
 11
317.177815
 21
-436.642161
 31
0.0
  0
ARC
  5
2BD
330
36
100
AcDbEntity
  8
0
 62
     3
100
AcDbCircle
 10
317.177815
 20
-442.642161
 30
0.0
 40
6.0
100
AcDbArc
 50
0.0
 51
90.0
  0
ARC
  5
2BE
330
36
100
AcDbEntity
  8
0
 62
     3
100
AcDbCircle
 10
292.822844
 20
-442.642161
 30
0.0
 40
6.0
100
AcDbArc
 50
90.0
 51
180.0
  0
LINE
  5
2BF
330
36
100
AcDbEntity
  8
0
 62
     3
100
AcDbLine
 10
256.465013
 20
-436.642161
 30
0.0
 11
232.110042
 21
-436.642161
 31
0.0
  0
ARC
  5
2C0
330
36
100
AcDbEntity
  8
0
 62
     3
100
AcDbCircle
 10
232.110042
 20
-442.642161
 30
0.0
 40
6.0
100
AcDbArc
 50
90.0
 51
180.0
  0
ARC
  5
2C1
330
36
100
AcDbEntity
  8
0
 62
     3
100
AcDbCircle
 10
256.465013
 20
-442.642161
 30
0.0
 40
6.0
100
AcDbArc
 50
0.0
 51
90.0
  0
LINE
  5
2C2
330
36
100
AcDbEntity
  8
0
 62
     3
100
AcDbLine
 10
292.822844
 20
-426.642161
 30
0.0
 11
317.177815
 21
-426.642161
 31
0.0
  0
ARC
  5
2C3
330
36
100
AcDbEntity
  8
0
 62
     3
100
AcDbCircle
 10
317.177815
 20
-432.642161
 30
0.0
 40
6.0
100
AcDbArc
 50
0.0
 51
90.0
  0
ARC
  5
2C4
330
36
100
AcDbEntity
  8
0
 62
     3
100
AcDbCircle
 10
292.822844
 20
-432.642161
 30
0.0
 40
6.0
100
AcDbArc
 50
90.0
 51
180.0
  0
LINE
  5
2C5
330
36
100
AcDbEntity
  8
0
 62
     3
100
AcDbLine
 10
256.465013
 20
-426.642161
 30
0.0
 11
232.110042
 21
-426.642161
 31
0.0
  0
ARC
  5
2C6
330
36
100
AcDbEntity
  8
0
 62
     3
100
AcDbCircle
 10
232.110042
 20
-432.642161
 30
0.0
 40
6.0
100
AcDbArc
 50
90.0
 51
180.0
  0
ARC
  5
2C7
330
36
100
AcDbEntity
  8
0
 62
     3
100
AcDbCircle
 10
256.465013
 20
-432.642161
 30
0.0
 40
6.0
100
AcDbArc
 50
0.0
 51
90.0
  0
LINE
  5
2C8
330
36
100
AcDbEntity
  8
0
 62
     3
100
AcDbLine
 10
292.822844
 20
-416.6421609999998
 30
0.0
 11
317.177815
 21
-416.6421609999998
 31
0.0
  0
ARC
  5
2C9
330
36
100
AcDbEntity
  8
0
 62
     3
100
AcDbCircle
 10
317.177815
 20
-422.642161
 30
0.0
 40
6.0
100
AcDbArc
 50
0.0
 51
90.0
  0
ARC
  5
2CA
330
36
100
AcDbEntity
  8
0
 62
     3
100
AcDbCircle
 10
292.822844
 20
-422.642161
 30
0.0
 40
6.0
100
AcDbArc
 50
90.0
 51
180.0
  0
LINE
  5
2CB
330
36
100
AcDbEntity
  8
0
 62
     3
100
AcDbLine
 10
256.465013
 20
-416.6421609999998
 30
0.0
 11
232.110042
 21
-416.6421609999998
 31
0.0
  0
ARC
  5
2CC
330
36
100
AcDbEntity
  8
0
 62
     3
100
AcDbCircle
 10
232.110042
 20
-422.642161
 30
0.0
 40
6.0
100
AcDbArc
 50
90.0
 51
180.0
  0
ARC
  5
2CD
330
36
100
AcDbEntity
  8
0
 62
     3
100
AcDbCircle
 10
256.465013
 20
-422.642161
 30
0.0
 40
6.0
100
AcDbArc
 50
0.0
 51
90.0
  0
LINE
  5
2CE
330
36
100
AcDbEntity
  8
0
100
AcDbLine
 10
102.022715254871
 20
-628.3216499999999
 30
0.0
 11
102.022715254871
 21
-568.3216499999997
 31
0.0
  0
LINE
  5
2CF
330
36
100
AcDbEntity
  8
0
100
AcDbLine
 10
78.09414382629961
 20
-628.3216499999999
 30
0.0
 11
78.09414382629961
 21
-568.3216499999997
 31
0.0
  0
LINE
  5
2D0
330
36
100
AcDbEntity
  8
0
100
AcDbLine
 10
70.23700096915675
 20
-628.3216499999999
 30
0.0
 11
70.23700096915675
 21
-568.3216499999997
 31
0.0
  0
LINE
  5
2D1
330
36
100
AcDbEntity
  8
0
100
AcDbLine
 10
41.24551085714284
 20
-628.3216499999999
 30
0.0
 11
41.24551085714284
 21
-568.3216499999997
 31
0.0
  0
TEXT
  5
2D2
330
36
100
AcDbEntity
  8
0
 62
     3
100
AcDbText
 10
103.522715254871
 20
-627.8216499999999
 30
0.0
 40
3.2
  1
備　　　　　考　
 41
0.8
  7
高3.2
100
AcDbText
  0
TEXT
  5
2D3
330
36
100
AcDbEntity
  8
0
 62
     3
100
AcDbText
 10
34.840733
 20
-627.8216499999999
 30
0.0
 40
3.2
  1
No
 41
0.8
  7
高3.2
100
AcDbText
  0
LINE
  5
2D4
330
36
100
AcDbEntity
  8
0
100
AcDbLine
 10
291.964604
 20
-553.513065
 30
0.0
 11
257.353191
 21
-553.513065
 31
0.0
  0
LINE
  5
2D5
330
36
100
AcDbEntity
  8
0
100
AcDbLine
 10
251.353191
 20
-534.763065
 30
0.0
 11
251.353191
 21
-547.3880649999999
 31
0.0
  0
LINE
  5
2D6
330
36
100
AcDbEntity
  8
0
 62
     3
100
AcDbLine
 10
423.2406969999998
 20
-582.655928
 30
0.0
 11
371.641333
 21
-582.655928
 31
0.0
  0
TEXT
  5
2D7
330
36
100
AcDbEntity
  8
0
 62
     3
100
AcDbText
 10
376.9585520665188
 20
-588.0998429999997
 30
0.0
 40
4.5
  1
コード
  7
高4.5
100
AcDbText
  0
LINE
  5
2D8
330
36
100
AcDbEntity
  8
0
 62
     3
100
AcDbLine
 10
397.641333
 20
-588.655928
 30
0.0
 11
397.641333
 21
-582.655928
 31
0.0
  0
LINE
  5
2D9
330
36
100
AcDbEntity
  8
0
 62
     3
100
AcDbLine
 10
371.641333
 20
-588.655928
 30
0.0
 11
371.641333
 21
-582.655928
 31
0.0
  0
TEXT
  5
2DA
330
36
100
AcDbEntity
  8
0
 62
     3
100
AcDbText
 10
401.5882377471337
 20
-588.1575719999997
 30
0.0
 40
4.5
  1
5596
  7
高4.5
100
AcDbText
  0
TEXT
  5
2DB
330
36
100
AcDbEntity
  8
0
 62
     3
100
AcDbText
 10
152.5431366188006
 20
-627.8216499999999
 30
0.0
 40
3.2
  1
コード
 41
0.8
  7
高3.2
100
AcDbText
  0
LINE
  5
2DC
330
36
100
AcDbEntity
  8
0
 62
     3
100
AcDbLine
 10
244.879487263833
 20
-628.3216499999999
 30
0.0
 11
244.879487263833
 21
-568.3216499999997
 31
0.0
  0
LINE
  5
2DD
330
36
100
AcDbEntity
  8
0
 62
     3
100
AcDbLine
 10
244.879487263833
 20
-568.3216499999997
 30
0.0
 11
33.340733
 21
-568.3216499999997
 31
0.0
  0
LINE
  5
2DE
330
36
100
AcDbEntity
  8
0
100
AcDbLine
 10
244.879487263833
 20
-573.3216499999997
 30
0.0
 11
33.340733
 21
-573.3216499999997
 31
0.0
  0
LINE
  5
2DF
330
36
100
AcDbEntity
  8
0
100
AcDbLine
 10
244.879487263833
 20
-578.3216499999997
 30
0.0
 11
33.340733
 21
-578.3216499999997
 31
0.0
  0
LINE
  5
2E0
330
36
100
AcDbEntity
  8
0
100
AcDbLine
 10
244.879487263833
 20
-583.3216499999998
 30
0.0
 11
33.340733
 21
-583.3216499999998
 31
0.0
  0
LINE
  5
2E1
330
36
100
AcDbEntity
  8
0
100
AcDbLine
 10
244.879487263833
 20
-588.3216499999997
 30
0.0
 11
33.340733
 21
-588.3216499999997
 31
0.0
  0
LINE
  5
2E2
330
36
100
AcDbEntity
  8
0
100
AcDbLine
 10
244.879487263833
 20
-593.3216499999997
 30
0.0
 11
33.340733
 21
-593.3216499999997
 31
0.0
  0
LINE
  5
2E3
330
36
100
AcDbEntity
  8
0
100
AcDbLine
 10
244.879487263833
 20
-598.3216499999997
 30
0.0
 11
33.340733
 21
-598.3216499999997
 31
0.0
  0
LINE
  5
2E4
330
36
100
AcDbEntity
  8
0
100
AcDbLine
 10
244.879487263833
 20
-603.3216499999997
 30
0.0
 11
33.340733
 21
-603.3216499999997
 31
0.0
  0
LINE
  5
2E5
330
36
100
AcDbEntity
  8
0
100
AcDbLine
 10
244.879487263833
 20
-608.3216499999998
 30
0.0
 11
33.340733
 21
-608.3216499999998
 31
0.0
  0
LINE
  5
2E6
330
36
100
AcDbEntity
  8
0
100
AcDbLine
 10
244.879487263833
 20
-618.3216499999997
 30
0.0
 11
33.340733
 21
-618.3216499999997
 31
0.0
  0
LINE
  5
2E7
330
36
100
AcDbEntity
  8
0
 62
     3
100
AcDbLine
 10
244.879487263833
 20
-623.3216499999997
 30
0.0
 11
33.340733
 21
-623.3216499999997
 31
0.0
  0
CIRCLE
  5
2E8
330
36
100
AcDbEntity
  8
0
 62
     3
100
AcDbCircle
 10
292.902104
 20
-534.763065
 30
0.0
 40
0.9375
  0
CIRCLE
  5
2E9
330
36
100
AcDbEntity
  8
0
 62
     3
100
AcDbCircle
 10
292.902104
 20
-553.513065
 30
0.0
 40
0.9375
  0
LINE
  5
2EA
330
36
100
AcDbEntity
  8
0
 62
     3
100
AcDbLine
 10
310.548554
 20
-563.323384
 30
0.0
 11
398.5665523570635
 21
-563.323384
 31
0.0
  0
LINE
  5
2EB
330
36
100
AcDbEntity
  8
0
 62
     3
100
AcDbLine
 10
310.548554
 20
-521.7433839999999
 30
0.0
 11
310.548554
 21
-563.323384
 31
0.0
  0
LINE
  5
2EC
330
36
100
AcDbEntity
  8
0
 62
     3
100
AcDbLine
 10
310.548554
 20
-521.7433839999999
 30
0.0
 11
398.5665523570635
 21
-521.7433839999999
 31
0.0
  0
LINE
  5
2ED
330
36
100
AcDbEntity
  8
0
  6
CENTER
 62
     3
100
AcDbLine
 10
249.533759
 20
-568.4185999999997
 30
0.0
 11
253.283759
 21
-568.4185999999997
 31
0.0
  0
LINE
  5
2EE
330
36
100
AcDbEntity
  8
0
  6
CENTER
 62
     3
100
AcDbLine
 10
250.158759
 20
-569.2186
 30
0.0
 11
252.658759
 21
-569.2186
 31
0.0
  0
LINE
  5
2EF
330
36
100
AcDbEntity
  8
0
  6
CENTER
 62
     3
100
AcDbLine
 10
250.783759
 20
-570.0186
 30
0.0
 11
252.033759
 21
-570.0186
 31
0.0
  0
TEXT
  5
2F0
330
36
100
AcDbEntity
  8
0
 62
     3
100
AcDbText
 10
312.528554
 20
-534.613384
 30
0.0
 40
4.5
  1
入力電圧
  7
高4.5
100
AcDbText
  0
TEXT
  5
2F1
330
36
100
AcDbEntity
  8
0
 62
     3
100
AcDbText
 10
312.528554
 20
-541.5433839999998
 30
0.0
 40
4.5
  1
出力電圧
  7
高4.5
100
AcDbText
  0
TEXT
  5
2F2
330
36
100
AcDbEntity
  8
0
 62
     3
100
AcDbText
 10
312.528554
 20
-548.473384
 30
0.0
 40
4.5
  1
容　　量
  7
高4.5
100
AcDbText
  0
TEXT
  5
2F3
330
36
100
AcDbEntity
  8
0
 62
     3
100
AcDbText
 10
312.528554
 20
-555.4033839999998
 30
0.0
 40
4.5
  1
重　　量
  7
高4.5
100
AcDbText
  0
TEXT
  5
2F4
330
36
100
AcDbEntity
  8
0
 62
     3
100
AcDbText
 10
312.528554
 20
-562.3333839999998
 30
0.0
 40
4.5
  1
絶縁種類
  7
高4.5
100
AcDbText
  0
TEXT
  5
2F5
330
36
100
AcDbEntity
  8
0
 62
     3
100
AcDbText
 10
312.528554
 20
-527.6833839999998
 30
0.0
 40
4.5
  1
型　　式
  7
高4.5
100
AcDbText
  0
LINE
  5
2F6
330
36
100
AcDbEntity
  8
0
100
AcDbLine
 10
310.548554
 20
-528.6733839999998
 30
0.0
 11
398.5665523570635
 21
-528.6733839999998
 31
0.0
  0
LINE
  5
2F7
330
36
100
AcDbEntity
  8
0
100
AcDbLine
 10
310.548554
 20
-535.603384
 30
0.0
 11
398.5665523570635
 21
-535.603384
 31
0.0
  0
LINE
  5
2F8
330
36
100
AcDbEntity
  8
0
100
AcDbLine
 10
310.548554
 20
-542.5333839999998
 30
0.0
 11
398.5665523570635
 21
-542.5333839999998
 31
0.0
  0
LINE
  5
2F9
330
36
100
AcDbEntity
  8
0
100
AcDbLine
 10
310.548554
 20
-549.463384
 30
0.0
 11
398.5665523570635
 21
-549.463384
 31
0.0
  0
LINE
  5
2FA
330
36
100
AcDbEntity
  8
0
100
AcDbLine
 10
310.548554
 20
-556.3933839999998
 30
0.0
 11
398.5665523570635
 21
-556.3933839999998
 31
0.0
  0
TEXT
  5
2FB
330
36
100
AcDbEntity
  8
0
 62
     3
100
AcDbText
 10
341.558744
 20
-518.2968713539414
 30
0.0
 40
4.5
  1
主　　仕　　様
  7
高4.5
100
AcDbText
  0
TEXT
  5
2FC
330
36
100
AcDbEntity
  8
0
 62
     3
100
AcDbText
 10
337.2413585947457
 20
-534.818082
 30
0.0
 40
4.5
  1
AC200V 50/60Hz
  7
高4.5
100
AcDbText
  0
TEXT
  5
2FD
330
36
100
AcDbEntity
  8
0
 62
     3
100
AcDbText
 10
355.8342863922003
 20
-562.1277939999998
 30
0.0
 40
4.5
  1
B種絶縁
  7
高4.5
100
AcDbText
  0
CIRCLE
  5
2FE
330
36
100
AcDbEntity
  8
0
 62
     3
100
AcDbCircle
 10
292.902104
 20
-566.013065
 30
0.0
 40
0.9375
  0
TEXT
  5
2FF
330
36
100
AcDbEntity
  8
0
 62
     3
100
AcDbText
 10
341.5631695947457
 20
-541.4042879999998
 30
0.0
 40
4.5
  1
AC100V/115V
  7
高4.5
100
AcDbText
  0
TEXT
  5
301
330
36
100
AcDbEntity
  8
0
 62
     3
100
AcDbText
 10
249.899532
 20
-521.064469
 30
0.0
 40
3.2
  1
入力プラグ結線
  7
高3.2
100
AcDbText
  0
TEXT
  5
302
330
36
100
AcDbEntity
  8
0
 62
     3
100
AcDbText
 10
254.856515
 20
-526.931721
 30
0.0
 40
3.2
  1
200V
  7
高3.2
100
AcDbText
  0
TEXT
  5
303
330
36
100
AcDbEntity
  8
0
 62
     3
100
AcDbText
 10
270.885236
 20
-533.771769
 30
0.0
 40
3.2
  1
白線
  7
高3.2
100
AcDbText
  0
TEXT
  5
304
330
36
100
AcDbEntity
  8
0
 62
     3
100
AcDbText
 10
271.386114
 20
-552.671207
 30
0.0
 40
3.2
  1
黒線
  7
高3.2
100
AcDbText
  0
TEXT
  5
305
330
36
100
AcDbEntity
  8
0
 62
     3
100
AcDbText
 10
271.386114
 20
-571.4425139999997
 30
0.0
 40
3.2
  1
緑（アース）
  7
高3.2
100
AcDbText
  0
TEXT
  5
306
330
36
100
AcDbEntity
  8
0
 62
     3
100
AcDbText
 10
349.8542523444028
 20
-527.888082
 30
0.0
 40
4.5
  1
TB-200D
  7
高4.5
100
AcDbText
  0
TEXT
  5
307
330
36
100
AcDbEntity
  8
0
 62
     3
100
AcDbText
 10
344.0727696135283
 20
-548.05977
 30
0.0
 40
4.5
  1
2.0KVA　連続
  7
高4.5
100
AcDbText
  0
TEXT
  5
308
330
36
100
AcDbEntity
  8
0
 62
     3
100
AcDbText
 10
34.840733
 20
-577.8216499999997
 30
0.0
 40
3.2
  1
10
 41
0.8
  7
高3.2
100
AcDbText
  0
TEXT
  5
309
330
36
100
AcDbEntity
  8
0
 62
     3
100
AcDbText
 10
34.840733
 20
-582.8216499999997
 30
0.0
 40
3.2
  1
9
 41
0.8
  7
高3.2
100
AcDbText
  0
TEXT
  5
30A
330
36
100
AcDbEntity
  8
0
 62
     3
100
AcDbText
 10
34.840733
 20
-587.8216499999997
 30
0.0
 40
3.2
  1
8
 41
0.8
  7
高3.2
100
AcDbText
  0
TEXT
  5
30B
330
36
100
AcDbEntity
  8
0
 62
     3
100
AcDbText
 10
34.840733
 20
-592.8216499999997
 30
0.0
 40
3.2
  1
7
 41
0.8
  7
高3.2
100
AcDbText
  0
TEXT
  5
30C
330
36
100
AcDbEntity
  8
0
 62
     3
100
AcDbText
 10
34.840733
 20
-597.8216499999997
 30
0.0
 40
3.2
  1
6
 41
0.8
  7
高3.2
100
AcDbText
  0
TEXT
  5
30D
330
36
100
AcDbEntity
  8
0
 62
     3
100
AcDbText
 10
34.840733
 20
-602.8216499999997
 30
0.0
 40
3.2
  1
5
 41
0.8
  7
高3.2
100
AcDbText
  0
TEXT
  5
30E
330
36
100
AcDbEntity
  8
0
 62
     3
100
AcDbText
 10
34.840733
 20
-607.8216499999999
 30
0.0
 40
3.2
  1
4
 41
0.8
  7
高3.2
100
AcDbText
  0
TEXT
  5
30F
330
36
100
AcDbEntity
  8
0
 62
     3
100
AcDbText
 10
34.840733
 20
-612.8216499999997
 30
0.0
 40
3.2
  1
3
 41
0.8
  7
高3.2
100
AcDbText
  0
TEXT
  5
310
330
36
100
AcDbEntity
  8
0
 62
     3
100
AcDbText
 10
34.840733
 20
-617.8216499999997
 30
0.0
 40
3.2
  1
2
 41
0.8
  7
高3.2
100
AcDbText
  0
TEXT
  5
311
330
36
100
AcDbEntity
  8
0
 62
     3
100
AcDbText
 10
34.840733
 20
-622.8216499999997
 30
0.0
 40
3.2
  1
1
 41
0.8
  7
高3.2
100
AcDbText
  0
TEXT
  5
312
330
36
100
AcDbEntity
  8
0
 62
     3
100
AcDbText
 10
42.74551085714285
 20
-622.8216499999997
 30
0.0
 40
3.2
  1
電線4Pプラグ付き
 41
0.8
  7
高3.2
100
AcDbText
  0
TEXT
  5
313
330
36
100
AcDbEntity
  8
0
 62
     3
100
AcDbText
 10
42.74551085714285
 20
-617.8216499999997
 30
0.0
 40
3.2
  1
取手ハンドル
 41
0.8
  7
高3.2
100
AcDbText
  0
TEXT
  5
314
330
36
100
AcDbEntity
  8
0
 62
     3
100
AcDbText
 10
42.74551085714285
 20
-607.8216499999997
 30
0.0
 40
3.2
  1
上カバー
 41
0.8
  7
高3.2
100
AcDbText
  0
TEXT
  5
315
330
36
100
AcDbEntity
  8
0
 62
     3
100
AcDbText
 10
42.74551085714285
 20
-602.8216499999999
 30
0.0
 40
3.2
  1
パネル
 41
0.8
  7
高3.2
100
AcDbText
  0
TEXT
  5
316
330
36
100
AcDbEntity
  8
0
 62
     3
100
AcDbText
 10
42.74551085714285
 20
-597.8216499999997
 30
0.0
 40
3.2
  1
電源ランプ
 41
0.8
  7
高3.2
100
AcDbText
  0
TEXT
  5
317
330
36
100
AcDbEntity
  8
0
 62
     3
100
AcDbText
 10
42.74551085714285
 20
-592.8216499999997
 30
0.0
 40
3.2
  1
交流電圧計
 41
0.8
  7
高3.2
100
AcDbText
  0
TEXT
  5
318
330
36
100
AcDbEntity
  8
0
 62
     3
100
AcDbText
 10
42.74551085714285
 20
-587.8216499999997
 30
0.0
 40
3.2
  1
安全ブレーカー
 41
0.8
  7
高3.2
100
AcDbText
  0
TEXT
  5
319
330
36
100
AcDbEntity
  8
0
 62
     3
100
AcDbText
 10
42.74551085714285
 20
-582.8216499999997
 30
0.0
 40
3.2
  1
Wコンセント白
 41
0.8
  7
高3.2
100
AcDbText
  0
TEXT
  5
31B
330
36
100
AcDbEntity
  8
0
 62
     3
100
AcDbText
 10
42.74551085714285
 20
-572.8216499999997
 30
0.0
 40
3.2
  1
脚ゴム
 41
0.8
  7
高3.2
100
AcDbText
  0
TEXT
  5
31C
330
36
100
AcDbEntity
  8
0
 62
     3
100
AcDbText
 10
71.73700096915675
 20
-572.8216499999997
 30
0.0
 40
3.2
  1
4
 41
0.8
  7
高3.2
100
AcDbText
  0
TEXT
  5
31E
330
36
100
AcDbEntity
  8
0
 62
     3
100
AcDbText
 10
71.73700096915675
 20
-582.8216499999997
 30
0.0
 40
3.2
  1
1
 41
0.8
  7
高3.2
100
AcDbText
  0
TEXT
  5
31F
330
36
100
AcDbEntity
  8
0
 62
     3
100
AcDbText
 10
71.73700096915675
 20
-587.8216499999997
 30
0.0
 40
3.2
  1
1
 41
0.8
  7
高3.2
100
AcDbText
  0
TEXT
  5
320
330
36
100
AcDbEntity
  8
0
 62
     3
100
AcDbText
 10
71.73700096915675
 20
-592.8216499999997
 30
0.0
 40
3.2
  1
1
 41
0.8
  7
高3.2
100
AcDbText
  0
TEXT
  5
321
330
36
100
AcDbEntity
  8
0
 62
     3
100
AcDbText
 10
71.73700096915675
 20
-597.8216499999997
 30
0.0
 40
3.2
  1
1
 41
0.8
  7
高3.2
100
AcDbText
  0
TEXT
  5
322
330
36
100
AcDbEntity
  8
0
 62
     3
100
AcDbText
 10
71.73700096915675
 20
-602.8216499999999
 30
0.0
 40
3.2
  1
1
 41
0.8
  7
高3.2
100
AcDbText
  0
TEXT
  5
323
330
36
100
AcDbEntity
  8
0
 62
     3
100
AcDbText
 10
71.73700096915675
 20
-607.8216499999997
 30
0.0
 40
3.2
  1
1
 41
0.8
  7
高3.2
100
AcDbText
  0
TEXT
  5
324
330
36
100
AcDbEntity
  8
0
 62
     3
100
AcDbText
 10
71.73700096915675
 20
-617.8216499999997
 30
0.0
 40
3.2
  1
1式
 41
0.8
  7
高3.2
100
AcDbText
  0
TEXT
  5
325
330
36
100
AcDbEntity
  8
0
 62
     3
100
AcDbText
 10
79.59414382629963
 20
-617.8216499999997
 30
0.0
 40
3.2
  1
PF樹脂
 41
0.8
  7
高3.2
100
AcDbText
  0
TEXT
  5
326
330
36
100
AcDbEntity
  8
0
 62
     3
100
AcDbText
 10
79.59414382629963
 20
-607.8216499999997
 30
0.0
 40
3.2
  1
SPCC
 41
0.8
  7
高3.2
100
AcDbText
  0
TEXT
  5
327
330
36
100
AcDbEntity
  8
0
 62
     3
100
AcDbText
 10
79.59414382629963
 20
-602.8216499999999
 30
0.0
 40
3.2
  1
SPCC
 41
0.8
  7
高3.2
100
AcDbText
  0
TEXT
  5
328
330
36
100
AcDbEntity
  8
0
 62
     3
100
AcDbText
 10
79.59414382629963
 20
-597.8216499999997
 30
0.0
 40
3.2
  1
ネオン球
 41
0.8
  7
高3.2
100
AcDbText
  0
TEXT
  5
329
330
36
100
AcDbEntity
  8
0
 62
     3
100
AcDbText
 10
79.59414382629963
 20
-587.8216499999997
 30
0.0
 40
3.2
  1
PF樹脂
 41
0.8
  7
高3.2
100
AcDbText
  0
TEXT
  5
32A
330
36
100
AcDbEntity
  8
0
 62
     3
100
AcDbText
 10
79.59414382629963
 20
-582.8216499999997
 30
0.0
 40
3.2
  1
耐熱ABS樹脂
 41
0.8
  7
高3.2
100
AcDbText
  0
TEXT
  5
32C
330
36
100
AcDbEntity
  8
0
 62
     3
100
AcDbText
 10
79.59414382629963
 20
-572.8216499999997
 30
0.0
 40
3.2
  1
合成ゴム
 41
0.8
  7
高3.2
100
AcDbText
  0
TEXT
  5
32D
330
36
100
AcDbEntity
  8
0
 62
     3
100
AcDbText
 10
103.522715254871
 20
-572.8216499999997
 30
0.0
 40
3.2
  1
M4ねじ
 41
0.8
  7
高3.2
100
AcDbText
  0
TEXT
  5
32F
330
36
100
AcDbEntity
  8
0
 62
     3
100
AcDbText
 10
103.522715254871
 20
-582.8216499999997
 30
0.0
 40
3.2
  1
2PE 15A 125V　アース付き
 41
0.8
  7
高3.2
100
AcDbText
  0
TEXT
  5
330
330
36
100
AcDbEntity
  8
0
 62
     3
100
AcDbText
 10
103.522715254871
 20
-592.8216499999997
 30
0.0
 40
3.2
  1
AC150V用
 41
0.8
  7
高3.2
100
AcDbText
  0
TEXT
  5
331
330
36
100
AcDbEntity
  8
0
 62
     3
100
AcDbText
 10
103.522715254871
 20
-597.8216499999997
 30
0.0
 40
3.2
  1
（赤）
 41
0.8
  7
高3.2
100
AcDbText
  0
TEXT
  5
332
330
36
100
AcDbEntity
  8
0
 62
     3
100
AcDbText
 10
103.522715254871
 20
-607.8216499999997
 30
0.0
 40
3.2
  1
青塗装
 41
0.8
  7
高3.2
100
AcDbText
  0
TEXT
  5
333
330
36
100
AcDbEntity
  8
0
 62
     3
100
AcDbText
 10
71.73700096915675
 20
-622.8216499999997
 30
0.0
 40
3.2
  1
1
 41
0.8
  7
高3.2
100
AcDbText
  0
TEXT
  5
334
330
36
100
AcDbEntity
  8
0
 62
     3
100
AcDbText
 10
79.59414382629963
 20
-622.8216499999997
 30
0.0
 40
3.2
  1
VCTF
 41
0.8
  7
高3.2
100
AcDbText
  0
TEXT
  5
335
330
36
100
AcDbEntity
  8
0
 62
     3
100
AcDbText
 10
103.522715254871
 20
-622.8216499999997
 30
0.0
 40
3.2
  1
2.0sqx3cx1.8m
 41
0.8
  7
高3.2
100
AcDbText
  0
TEXT
  5
336
330
36
100
AcDbEntity
  8
0
 62
     3
100
AcDbText
 10
103.522715254871
 20
-587.8216499999997
 30
0.0
 40
3.2
  1
200V/100V 10A
 41
0.8
  7
高3.2
100
AcDbText
  0
LINE
  5
337
330
36
100
AcDbEntity
  8
0
100
AcDbLine
 10
291.964604
 20
-566.013065
 30
0.0
 11
251.353191
 21
-566.013065
 31
0.0
  0
LINE
  5
338
330
36
100
AcDbEntity
  8
0
100
AcDbLine
 10
291.964604
 20
-534.763065
 30
0.0
 11
251.353191
 21
-534.763065
 31
0.0
  0
LINE
  5
339
330
36
100
AcDbEntity
  8
0
100
AcDbLine
 10
251.353191
 20
-566.013065
 30
0.0
 11
251.353191
 21
-560.638065
 31
0.0
  0
LINE
  5
33A
330
36
100
AcDbEntity
  8
0
  6
CENTER
100
AcDbLine
 10
251.408759
 20
-566.585749
 30
0.0
 11
251.408759
 21
-568.4185999999997
 31
0.0
  0
TEXT
  5
33B
330
36
100
AcDbEntity
  8
0
 62
     3
100
AcDbText
 10
152.5431366188006
 20
-572.8216499999997
 30
0.0
 40
3.2
  1
53815
 41
0.8
  7
高3.2
100
AcDbText
  0
TEXT
  5
33D
330
36
100
AcDbEntity
  8
0
 62
     3
100
AcDbText
 10
152.5431366188006
 20
-582.8216499999997
 30
0.0
 40
3.2
  1
51356
 41
0.8
  7
高3.2
100
AcDbText
  0
TEXT
  5
33E
330
36
100
AcDbEntity
  8
0
 62
     3
100
AcDbText
 10
152.5431366188006
 20
-587.8216499999997
 30
0.0
 40
3.2
  1
51761
 41
0.8
  7
高3.2
100
AcDbText
  0
TEXT
  5
33F
330
36
100
AcDbEntity
  8
0
 62
     3
100
AcDbText
 10
152.5431366188006
 20
-592.8216499999997
 30
0.0
 40
3.2
  1
53817
 41
0.8
  7
高3.2
100
AcDbText
  0
TEXT
  5
340
330
36
100
AcDbEntity
  8
0
 62
     3
100
AcDbText
 10
152.5431366188006
 20
-597.8216499999997
 30
0.0
 40
3.2
  1
53816
 41
0.8
  7
高3.2
100
AcDbText
  0
TEXT
  5
341
330
36
100
AcDbEntity
  8
0
 62
     3
100
AcDbText
 10
152.5431366188006
 20
-607.8216499999997
 30
0.0
 40
3.2
  1
54290●
 41
0.8
  7
高3.2
100
AcDbText
  0
TEXT
  5
342
330
36
100
AcDbEntity
  8
0
 62
     3
100
AcDbText
 10
152.5431366188006
 20
-617.8216499999997
 30
0.0
 40
3.2
  1
53814
 41
0.8
  7
高3.2
100
AcDbText
  0
TEXT
  5
343
330
36
100
AcDbEntity
  8
0
 62
     3
100
AcDbText
 10
152.5431366188006
 20
-622.8216499999997
 30
0.0
 40
3.2
  1
54270
 41
0.8
  7
高3.2
100
AcDbText
  0
TEXT
  5
34D
330
36
100
AcDbEntity
  8
0
 62
     3
100
AcDbText
 10
261.0874210069809
 20
-552.8635759906562
 30
0.0
 40
3.2
  1
X
  7
高3.2
100
AcDbText
  0
TEXT
  5
34E
330
36
100
AcDbEntity
  8
0
 62
     3
100
AcDbText
 10
240.1228060816073
 20
-554.6758250746271
 30
0.0
 40
3.2
  1
Z
  7
高3.2
100
AcDbText
  0
TEXT
  5
34F
330
36
100
AcDbEntity
  8
0
 62
     3
100
AcDbText
 10
248.8307385528142
 20
-544.0634381058835
 30
0.0
 40
3.2
  1
Y
  7
高3.2
100
AcDbText
  0
TEXT
  5
461
330
36
100
AcDbEntity
  8
0
 62
     3
100
AcDbText
 10
410.840733
 20
-363.766289
 30
0.0
 40
3.2
  1
担　当
  7
高3.2
100
AcDbText
  0
TEXT
  5
462
330
36
100
AcDbEntity
  8
0
 62
     3
100
AcDbText
 10
366.840733
 20
-363.766289
 30
0.0
 40
3.2
  1
変更・追記内容
  7
高3.2
100
AcDbText
  0
TEXT
  5
463
330
36
100
AcDbEntity
  8
0
 62
     3
100
AcDbText
 10
341.9542480003392
 20
-368.4368275099083
 30
0.0
 40
2.0
  1
1
  7
高2
100
AcDbText
  0
TEXT
  5
464
330
36
100
AcDbEntity
  8
0
 62
     3
100
AcDbText
 10
341.645736523582
 20
-373.6066442221812
 30
0.0
 40
2.0
  1
2
  7
高2
100
AcDbText
  0
TEXT
  5
465
330
36
100
AcDbEntity
  8
0
 62
     3
100
AcDbText
 10
348.840733
 20
-363.766289
 30
0.0
 40
3.2
  1
日　付
  7
高3.2
100
AcDbText
  0
TEXT
  5
466
330
36
100
AcDbEntity
  8
0
 62
     3
100
AcDbText
 10
348.840733
 20
-358.766289
 30
0.0
 40
3.2
  1
図　　　　面　　　　略　　　　歴
  7
高3.2
100
AcDbText
  0
TEXT
  5
467
330
36
100
AcDbEntity
  8
0
 62
     3
100
AcDbText
 10
338.840733
 20
-363.766289
 30
0.0
 40
3.2
  1
記号
  7
高3.2
100
AcDbText
  0
LINE
  5
468
330
36
100
AcDbEntity
  8
0
100
AcDbLine
 10
342.340733
 20
-370.4753929999998
 30
0.0
 11
340.440733
 21
-373.766289
 31
0.0
  0
LINE
  5
469
330
36
100
AcDbEntity
  8
0
100
AcDbLine
 10
342.340733
 20
-370.4753929999998
 30
0.0
 11
344.240733
 21
-373.766289
 31
0.0
  0
LINE
  5
46A
330
36
100
AcDbEntity
  8
0
100
AcDbLine
 10
340.440733
 20
-373.766289
 30
0.0
 11
344.240733
 21
-373.766289
 31
0.0
  0
LINE
  5
46B
330
36
100
AcDbEntity
  8
0
100
AcDbLine
 10
342.340733
 20
-365.475392
 30
0.0
 11
340.440733
 21
-368.766289
 31
0.0
  0
LINE
  5
46C
330
36
100
AcDbEntity
  8
0
100
AcDbLine
 10
342.340733
 20
-365.475392
 30
0.0
 11
344.240733
 21
-368.766289
 31
0.0
  0
LINE
  5
46D
330
36
100
AcDbEntity
  8
0
100
AcDbLine
 10
340.440733
 20
-368.766289
 30
0.0
 11
344.240733
 21
-368.766289
 31
0.0
  0
LINE
  5
46E
330
36
100
AcDbEntity
  8
0
 62
     3
100
AcDbLine
 10
337.340733
 20
-359.266289
 30
0.0
 11
423.340733
 21
-359.266289
 31
0.0
  0
LINE
  5
46F
330
36
100
AcDbEntity
  8
0
 62
     3
100
AcDbLine
 10
337.340733
 20
-364.266289
 30
0.0
 11
423.340733
 21
-364.266289
 31
0.0
  0
LINE
  5
470
330
36
100
AcDbEntity
  8
0
 62
     7
100
AcDbLine
 10
337.340733
 20
-369.266289
 30
0.0
 11
423.340733
 21
-369.266289
 31
0.0
  0
LINE
  5
471
330
36
100
AcDbEntity
  8
0
 62
     3
100
AcDbLine
 10
337.340733
 20
-374.266289
 30
0.0
 11
423.340733
 21
-374.266289
 31
0.0
  0
LINE
  5
472
330
36
100
AcDbEntity
  8
0
 62
     7
100
AcDbLine
 10
409.3407329999998
 20
-374.266289
 30
0.0
 11
409.3407329999998
 21
-359.266289
 31
0.0
  0
LINE
  5
473
330
36
100
AcDbEntity
  8
0
 62
     7
100
AcDbLine
 10
365.340733
 20
-374.266289
 30
0.0
 11
365.340733
 21
-359.266289
 31
0.0
  0
LINE
  5
474
330
36
100
AcDbEntity
  8
0
 62
     7
100
AcDbLine
 10
347.340733
 20
-374.266289
 30
0.0
 11
347.340733
 21
-359.266289
 31
0.0
  0
LINE
  5
475
330
36
100
AcDbEntity
  8
0
 62
     3
100
AcDbLine
 10
337.340733
 20
-374.266289
 30
0.0
 11
337.340733
 21
-354.266289
 31
0.0
  0
LINE
  5
5D4
330
36
100
AcDbEntity
  8
0
 62
     7
100
AcDbLine
 10
167.5363789271834
 20
-628.3216499999999
 30
0.0
 11
167.5363789271834
 21
-568.3216499999997
 31
0.0
  0
TEXT
  5
5D5
330
36
100
AcDbEntity
  8
0
 62
     3
100
AcDbText
 10
169.0363789271836
 20
-627.8216499999999
 30
0.0
 40
3.2
  1
コード番号名称
 41
0.6
  7
高3.2
100
AcDbText
  0
TEXT
  5
5D6
330
36
100
AcDbEntity
  8
0
 62
     3
100
AcDbText
 10
169.0363789271836
 20
-572.8216499999997
 30
0.0
 40
3.2
  1
TB,FB(200,300,500),Fタイプ,NA-180DS兼用　脚ゴム(1/4)
 41
0.6
  7
高3.2
100
AcDbText
  0
TEXT
  5
5D8
330
36
100
AcDbEntity
  8
0
 62
     3
100
AcDbText
 10
169.0363789271836
 20
-582.8216499999997
 30
0.0
 40
3.2
  1
2PE-W(アース付コンセント白)
 41
0.6
  7
高3.2
100
AcDbText
  0
TEXT
  5
5D9
330
36
100
AcDbEntity
  8
0
 62
     3
100
AcDbText
 10
169.0363789271836
 20
-587.8216499999997
 30
0.0
 40
3.2
  1
B-2EA-10A(安全ブレーカー)
 41
0.6
  7
高3.2
100
AcDbText
  0
TEXT
  5
5DA
330
36
100
AcDbEntity
  8
0
 62
     3
100
AcDbText
 10
169.0363789271836
 20
-592.8216499999997
 30
0.0
 40
3.2
  1
TB,FB(200,300,500)兼用　電圧計
 41
0.6
  7
高3.2
100
AcDbText
  0
TEXT
  5
5DB
330
36
100
AcDbEntity
  8
0
 62
     3
100
AcDbText
 10
169.0363789271836
 20
-597.8216499999997
 30
0.0
 40
3.2
  1
TB,FB(200,300,500)兼用　電源ランプ
 41
0.6
  7
高3.2
100
AcDbText
  0
TEXT
  5
5DC
330
36
100
AcDbEntity
  8
0
 62
     3
100
AcDbText
 10
169.0363789271836
 20
-607.8216499999997
 30
0.0
 40
3.2
  1
TB-200D用　上カバー
 41
0.6
  7
高3.2
100
AcDbText
  0
TEXT
  5
5DD
330
36
100
AcDbEntity
  8
0
 62
     3
100
AcDbText
 10
169.0363789271836
 20
-617.8216499999997
 30
0.0
 40
3.2
  1
TB,FB(200,300,500)兼用　取っ手
 41
0.6
  7
高3.2
100
AcDbText
  0
TEXT
  5
5DE
330
36
100
AcDbEntity
  8
0
 62
     3
100
AcDbText
 10
169.0363789271836
 20
-622.8216499999997
 30
0.0
 40
3.2
  1
TB-200/300D用　電源コード　プラグ付
 41
0.6
  7
高3.2
100
AcDbText
  0
TEXT
  5
6D0
330
36
100
AcDbEntity
  8
0
 62
     3
100
AcDbText
 10
42.74551085714285
 20
-577.8216499999997
 30
0.0
 40
3.2
  1
Wコンセント黒
 41
0.8
  7
高3.2
100
AcDbText
  0
TEXT
  5
6D1
330
36
100
AcDbEntity
  8
0
 62
     3
100
AcDbText
 10
71.73700096915675
 20
-577.8216499999997
 30
0.0
 40
3.2
  1
1
 41
0.8
  7
高3.2
100
AcDbText
  0
TEXT
  5
6D2
330
36
100
AcDbEntity
  8
0
 62
     3
100
AcDbText
 10
79.59414382629963
 20
-577.8216499999997
 30
0.0
 40
3.2
  1
耐熱ABS樹脂
 41
0.8
  7
高3.2
100
AcDbText
  0
TEXT
  5
6D3
330
36
100
AcDbEntity
  8
0
 62
     3
100
AcDbText
 10
103.522715254871
 20
-577.8216499999997
 30
0.0
 40
3.2
  1
2PE 15A 125V　アース付き
 41
0.8
  7
高3.2
100
AcDbText
  0
TEXT
  5
6D4
330
36
100
AcDbEntity
  8
0
 62
     3
100
AcDbText
 10
152.5431366188006
 20
-577.8216499999997
 30
0.0
 40
3.2
  1
51355
 41
0.8
  7
高3.2
100
AcDbText
  0
TEXT
  5
6D6
330
36
100
AcDbEntity
  8
0
 62
     3
100
AcDbText
 10
169.0363789271836
 20
-577.8216499999997
 30
0.0
 40
3.2
  1
2PE-B(アース付コンセント黒)
 41
0.6
  7
高3.2
100
AcDbText
  0
LINE
  5
873
330
36
100
AcDbEntity
  8
0
100
AcDbLine
 10
244.879487263833
 20
-613.3216499999997
 30
0.0
 11
33.340733
 21
-613.3216499999997
 31
0.0
  0
TEXT
  5
874
330
36
100
AcDbEntity
  8
0
 62
     3
100
AcDbText
 10
42.74551085714285
 20
-612.8216499999997
 30
0.0
 40
3.2
  1
シャーシ
 41
0.8
  7
高3.2
100
AcDbText
  0
TEXT
  5
875
330
36
100
AcDbEntity
  8
0
 62
     3
100
AcDbText
 10
71.73700096915675
 20
-612.8216499999997
 30
0.0
 40
3.2
  1
1
 41
0.8
  7
高3.2
100
AcDbText
  0
TEXT
  5
876
330
36
100
AcDbEntity
  8
0
 62
     3
100
AcDbText
 10
79.59414382629963
 20
-612.8216499999997
 30
0.0
 40
3.2
  1
SPCC
 41
0.8
  7
高3.2
100
AcDbText
  0
TEXT
  5
877
330
36
100
AcDbEntity
  8
0
 62
     3
100
AcDbText
 10
103.522715254871
 20
-612.8216499999997
 30
0.0
 40
3.2
  1
-
 41
0.8
  7
高3.2
100
AcDbText
  0
TEXT
  5
878
330
36
100
AcDbEntity
  8
0
 62
     3
100
AcDbText
 10
152.5431366188006
 20
-612.8216499999997
 30
0.0
 40
3.2
  1
56190●
 41
0.8
  7
高3.2
100
AcDbText
  0
TEXT
  5
879
330
36
100
AcDbEntity
  8
0
 62
     3
100
AcDbText
 10
169.0363789271836
 20
-612.8216499999997
 30
0.0
 40
3.2
  1
TB-200D用　シャーシ
 41
0.6
  7
高3.2
100
AcDbText
  0
TEXT
  5
87C
330
36
100
AcDbEntity
  8
0
 62
     3
100
AcDbText
 10
34.840733
 20
-572.8216499999997
 30
0.0
 40
3.2
  1
11
 41
0.8
  7
高3.2
100
AcDbText
  0
CIRCLE
  5
87E
330
36
100
AcDbEntity
  8
0
100
AcDbCircle
 10
59.84928299999999
 20
-507.467122938412
 30
0.0
 40
5.0
  0
TEXT
  5
87F
330
36
100
AcDbEntity
  8
0
 62
     4
100
AcDbText
 10
57.71049114798825
 20
-510.3775692248259
 30
0.0
 40
6.299999999999998
  1
3
  7
高6.3
100
AcDbText
  0
CIRCLE
  5
926
330
36
100
AcDbEntity
  8
0
100
AcDbCircle
 10
227.361279
 20
-477.3326849999998
 30
0.0
 40
1.75
  0
CIRCLE
  5
928
330
36
100
AcDbEntity
  8
0
100
AcDbCircle
 10
205.923779
 20
-454.0826849999998
 30
0.0
 40
1.75
  0
CIRCLE
  5
929
330
36
100
AcDbEntity
  8
0
100
AcDbCircle
 10
338.861279
 20
-454.0826849999998
 30
0.0
 40
1.75
  0
TEXT
  5
92B
330
36
100
AcDbEntity
  8
0
  6
Continuous
100
AcDbText
 10
348.840733
 20
-368.766289
 30
0.0
 40
2.5
  1
'19.02.26
  7
高2.5
100
AcDbText
  0
TEXT
  5
AD3
330
36
100
AcDbEntity
  8
0
  6
Continuous
100
AcDbText
 10
366.840733
 20
-368.766289
 30
0.0
 40
2.5
  1
シャーシ、上カバー固定位置変更(18年11月頃から)
 41
0.6
  7
高2.5
100
AcDbText
  0
TEXT
  5
AD4
330
36
100
AcDbEntity
  8
0
  6
Continuous
100
AcDbText
 10
410.8407329999998
 20
-368.766289
 30
0.0
 40
2.5
  1
今村
  7
高2.5
100
AcDbText
  0
LINE
  5
AE2
330
36
100
AcDbEntity
  8
0
  6
Continuous
 62
     3
100
AcDbLine
 10
392.4974603196842
 20
-414.021485861734
 30
0.0
 11
380.9974603196843
 21
-414.021485861734
 31
0.0
  0
LINE
  5
AE3
330
36
100
AcDbEntity
  8
0
  6
Continuous
 62
     3
100
AcDbLine
 10
375.8974603196842
 20
-437.021485861734
 30
0.0
 11
397.5974603196843
 21
-437.021485861734
 31
0.0
  0
LINE
  5
AE4
330
36
100
AcDbEntity
  8
0
  6
Continuous
 62
     3
100
AcDbLine
 10
395.2474603196844
 20
-419.521485861734
 30
0.0
 11
395.2474603196844
 21
-416.771485861734
 31
0.0
  0
LINE
  5
AE5
330
36
100
AcDbEntity
  8
0
  6
Continuous
 62
     3
100
AcDbLine
 10
378.2474603196844
 20
-419.521485861734
 30
0.0
 11
378.2474603196844
 21
-416.771485861734
 31
0.0
  0
LINE
  5
AE6
330
36
100
AcDbEntity
  8
0
  6
Continuous
 62
     3
100
AcDbLine
 10
395.8474603196843
 20
-419.521485861734
 30
0.0
 11
377.6474603196842
 21
-419.521485861734
 31
0.0
  0
ARC
  5
AE7
330
36
100
AcDbEntity
  8
0
  6
Continuous
 62
     3
100
AcDbCircle
 10
392.4974603196842
 20
-416.771485861734
 30
0.0
 40
2.750000000000028
100
AcDbArc
 50
270.0
 51
90.0
  0
ARC
  5
AE8
330
36
100
AcDbEntity
  8
0
  6
Continuous
 62
     3
100
AcDbCircle
 10
380.9974603196843
 20
-416.771485861734
 30
0.0
 40
2.750000000000056
100
AcDbArc
 50
90.0
 51
270.0
  0
LINE
  5
AED
330
36
100
AcDbEntity
  8
0
  6
Continuous
 62
     3
100
AcDbLine
 10
397.5974603196843
 20
-421.271485861734
 30
0.0
 11
397.5974603196843
 21
-437.021485861734
 31
0.0
  0
LINE
  5
AEE
330
36
100
AcDbEntity
  8
0
  6
Continuous
 62
     3
100
AcDbLine
 10
375.8974603196842
 20
-421.271485861734
 30
0.0
 11
375.8974603196842
 21
-437.021485861734
 31
0.0
  0
ARC
  5
AEF
330
36
100
AcDbEntity
  8
0
  6
Continuous
 62
     3
100
AcDbCircle
 10
395.8474603196843
 20
-421.271485861734
 30
0.0
 40
1.75
100
AcDbArc
 50
0.0000000000032569
 51
90.0
  0
ARC
  5
AF0
330
36
100
AcDbEntity
  8
0
  6
Continuous
 62
     3
100
AcDbCircle
 10
377.6474603196842
 20
-421.271485861734
 30
0.0
 40
1.75
100
AcDbArc
 50
90.0
 51
179.9999999999967
  0
ELLIPSE
  5
AF7
330
36
100
AcDbEntity
  8
0
  6
Continuous
100
AcDbEllipse
 10
386.7474603196844
 20
-428.7714858617341
 30
0.0
 11
0.0
 21
4.75
 31
0.0
210
0.0
220
0.0
230
1.0
 40
0.6315789473684211
 41
0.0
 42
6.283185307179586
  0
ELLIPSE
  5
AFB
330
36
100
AcDbEntity
  8
0
  6
Continuous
100
AcDbEllipse
 10
392.1224603196844
 20
-428.7714858617341
 30
0.0
 11
0.0
 21
3.749999999999999
 31
0.0
210
0.0
220
0.0
230
1.0
 40
0.3666666666666667
 41
0.0
 42
6.283185307179586
  0
ELLIPSE
  5
AFF
330
36
100
AcDbEntity
  8
0
  6
Continuous
100
AcDbEllipse
 10
395.8724603196844
 20
-428.7714858617341
 30
0.0
 11
0.0
 21
4.75
 31
0.0
210
0.0
220
0.0
230
1.0
 40
0.2368421052631579
 41
0.0
 42
6.283185307179586
  0
ELLIPSE
  5
B00
330
36
100
AcDbEntity
  8
0
  6
Continuous
100
AcDbEllipse
 10
381.3724603196844
 20
-428.7714858617341
 30
0.0
 11
0.0
 21
3.749999999999999
 31
0.0
210
0.0
220
0.0
230
-1.0
 40
0.3666666666666667
 41
0.0
 42
6.283185307179586
  0
ELLIPSE
  5
B01
330
36
100
AcDbEntity
  8
0
  6
Continuous
100
AcDbEllipse
 10
377.6224603196844
 20
-428.7714858617341
 30
0.0
 11
0.0
 21
4.75
 31
0.0
210
0.0
220
0.0
230
-1.0
 40
0.2368421052631579
 41
0.0
 42
6.283185307179586
  0
LINE
  5
DC8
330
36
100
AcDbEntity
  8
0
 62
     3
100
AcDbLine
 10
387.0974603196845
 20
-448.5214858617322
 30
0.0
 11
386.3974603196847
 21
-448.521485861734
 31
0.0
  0
LINE
  5
DC9
330
36
100
AcDbEntity
  8
0
 62
     3
100
AcDbLine
 10
386.2474603196846
 20
-448.0026533997941
 30
0.0
 11
386.3974603196847
 21
-448.521485861734
 31
0.0
  0
LINE
  5
DCA
330
36
100
AcDbEntity
  8
0
 62
     3
100
AcDbLine
 10
387.2474603196846
 20
-448.0026533997941
 30
0.0
 11
387.0974603196845
 21
-448.5214858617322
 31
0.0
  0
LINE
  5
DCB
330
36
100
AcDbEntity
  8
0
 62
     3
100
AcDbLine
 10
387.2474603196846
 20
-448.0026533997941
 30
0.0
 11
386.2474603196846
 21
-448.0026533997941
 31
0.0
  0
LINE
  5
DCC
330
36
100
AcDbEntity
  8
0
 62
     3
100
AcDbLine
 10
381.9474603196839
 20
-447.021485861734
 30
0.0
 11
381.2474603196841
 21
-447.021485861734
 31
0.0
  0
LINE
  5
DCD
330
36
100
AcDbEntity
  8
0
 62
     3
100
AcDbLine
 10
381.0974603196845
 20
-446.502653399794
 30
0.0
 11
381.2474603196841
 21
-447.021485861734
 31
0.0
  0
LINE
  5
DCE
330
36
100
AcDbEntity
  8
0
 62
     3
100
AcDbLine
 10
382.0974603196845
 20
-446.502653399794
 30
0.0
 11
381.9474603196839
 21
-447.021485861734
 31
0.0
  0
LINE
  5
DCF
330
36
100
AcDbEntity
  8
0
 62
     3
100
AcDbLine
 10
382.0974603196845
 20
-446.502653399794
 30
0.0
 11
381.0974603196845
 21
-446.502653399794
 31
0.0
  0
LINE
  5
DD1
330
36
100
AcDbEntity
  8
0
 62
     3
100
AcDbLine
 10
388.5974603196845
 20
-447.021485861734
 30
0.0
 11
384.8974603196847
 21
-447.021485861734
 31
0.0
  0
LINE
  5
DD3
330
36
100
AcDbEntity
  8
0
 62
     3
100
AcDbLine
 10
388.7474603196846
 20
-446.502653399794
 30
0.0
 11
384.7474603196846
 21
-446.502653399794
 31
0.0
  0
LINE
  5
DD4
330
36
100
AcDbEntity
  8
0
 62
     3
100
AcDbLine
 10
384.7474603196846
 20
-446.502653399794
 30
0.0
 11
384.8974603196847
 21
-447.021485861734
 31
0.0
  0
LINE
  5
DD5
330
36
100
AcDbEntity
  8
0
 62
     3
100
AcDbLine
 10
388.7474603196846
 20
-446.502653399794
 30
0.0
 11
388.5974603196845
 21
-447.021485861734
 31
0.0
  0
LINE
  5
DD6
330
36
100
AcDbEntity
  8
0
 62
     3
100
AcDbLine
 10
386.2474603196846
 20
-448.0026533997941
 30
0.0
 11
386.2474603196846
 21
-447.021485861734
 31
0.0
  0
LINE
  5
DD7
330
36
100
AcDbEntity
  8
0
 62
     3
100
AcDbLine
 10
387.2474603196846
 20
-448.0026533997941
 30
0.0
 11
387.2474603196846
 21
-447.021485861734
 31
0.0
  0
LINE
  5
DD8
330
36
100
AcDbEntity
  8
0
 62
     3
100
AcDbLine
 10
384.7474603196846
 20
-446.502653399794
 30
0.0
 11
384.7474603196846
 21
-437.021485861734
 31
0.0
  0
LINE
  5
DD9
330
36
100
AcDbEntity
  8
0
 62
     3
100
AcDbLine
 10
388.7474603196846
 20
-446.502653399794
 30
0.0
 11
388.7474603196846
 21
-437.021485861734
 31
0.0
  0
LINE
  5
DDA
330
36
100
AcDbEntity
  8
0
 62
     3
100
AcDbLine
 10
381.0974603196845
 20
-446.502653399794
 30
0.0
 11
381.0974603196845
 21
-437.021485861734
 31
0.0
  0
LINE
  5
DDB
330
36
100
AcDbEntity
  8
0
 62
     3
100
AcDbLine
 10
382.0974603196845
 20
-446.502653399794
 30
0.0
 11
382.0974603196845
 21
-437.021485861734
 31
0.0
  0
LINE
  5
DDC
330
36
100
AcDbEntity
  8
0
 62
     3
100
AcDbLine
 10
391.5474603196853
 20
-447.021485861734
 30
0.0
 11
392.247460319685
 21
-447.021485861734
 31
0.0
  0
LINE
  5
DDD
330
36
100
AcDbEntity
  8
0
 62
     3
100
AcDbLine
 10
392.3974603196847
 20
-446.502653399794
 30
0.0
 11
392.247460319685
 21
-447.021485861734
 31
0.0
  0
LINE
  5
DDE
330
36
100
AcDbEntity
  8
0
 62
     3
100
AcDbLine
 10
391.3974603196847
 20
-446.502653399794
 30
0.0
 11
391.5474603196853
 21
-447.021485861734
 31
0.0
  0
LINE
  5
DDF
330
36
100
AcDbEntity
  8
0
 62
     3
100
AcDbLine
 10
391.3974603196847
 20
-446.502653399794
 30
0.0
 11
392.3974603196847
 21
-446.502653399794
 31
0.0
  0
LINE
  5
DE0
330
36
100
AcDbEntity
  8
0
 62
     3
100
AcDbLine
 10
392.3974603196847
 20
-446.502653399794
 30
0.0
 11
392.3974603196847
 21
-437.021485861734
 31
0.0
  0
LINE
  5
DE1
330
36
100
AcDbEntity
  8
0
 62
     3
100
AcDbLine
 10
391.3974603196847
 20
-446.502653399794
 30
0.0
 11
391.3974603196847
 21
-437.021485861734
 31
0.0
  0
CIRCLE
  5
DEA
330
36
100
AcDbEntity
  8
0
  6
Continuous
 62
     3
100
AcDbCircle
 10
386.7474603196844
 20
-463.8390513567072
 30
0.0
 40
10.85000000000002
  0
CIRCLE
  5
DEB
330
36
100
AcDbEntity
  8
0
  6
Continuous
100
AcDbCircle
 10
392.4974603196842
 20
-416.771485861734
 30
0.0
 40
2.0
  0
CIRCLE
  5
DF0
330
36
100
AcDbEntity
  8
0
  6
Continuous
100
AcDbCircle
 10
380.9974603196843
 20
-416.771485861734
 30
0.0
 40
2.0
  0
CIRCLE
  5
DF1
330
36
100
AcDbEntity
  8
0
  6
Continuous
 62
     3
100
AcDbCircle
 10
386.7474603196844
 20
-463.8390513567072
 30
0.0
 40
9.5
  0
LINE
  5
DF3
102
{ACAD_REACTORS
330
C49
330
C4C
102
}
330
36
100
AcDbEntity
  8
0
 62
     3
100
AcDbLine
 10
392.3974603196845
 20
-465.8390513567072
 30
0.0
 11
391.3974603196844
 21
-465.8390513567072
 31
0.0
  0
LINE
  5
DF4
102
{ACAD_REACTORS
330
C49
330
C4C
102
}
330
36
100
AcDbEntity
  8
0
100
AcDbLine
 10
392.2474603196848
 20
-465.6890513567072
 30
0.0
 11
391.547460319685
 21
-465.6890513567072
 31
0.0
  0
LINE
  5
DF5
330
36
100
AcDbEntity
  8
0
 62
     3
100
AcDbLine
 10
382.0974603196843
 20
-465.8390513567072
 30
0.0
 11
381.0974603196843
 21
-465.8390513567072
 31
0.0
  0
LINE
  5
DF6
330
36
100
AcDbEntity
  8
0
100
AcDbLine
 10
381.9474603196842
 20
-465.6890513567072
 30
0.0
 11
381.2474603196843
 21
-465.6890513567072
 31
0.0
  0
LINE
  5
DF7
102
{ACAD_REACTORS
330
C49
330
C4C
102
}
330
36
100
AcDbEntity
  8
0
 62
     3
100
AcDbLine
 10
392.3974603196845
 20
-461.8390513567072
 30
0.0
 11
391.3974603196844
 21
-461.8390513567072
 31
0.0
  0
LINE
  5
DF8
102
{ACAD_REACTORS
330
C49
330
C4C
102
}
330
36
100
AcDbEntity
  8
0
100
AcDbLine
 10
392.2474603196848
 20
-461.9890513567072
 30
0.0
 11
391.547460319685
 21
-461.9890513567072
 31
0.0
  0
LINE
  5
DF9
330
36
100
AcDbEntity
  8
0
 62
     3
100
AcDbLine
 10
382.0974603196843
 20
-461.8390513567072
 30
0.0
 11
381.0974603196843
 21
-461.8390513567072
 31
0.0
  0
LINE
  5
DFA
330
36
100
AcDbEntity
  8
0
100
AcDbLine
 10
381.9474603196842
 20
-461.9890513567072
 30
0.0
 11
381.2474603196843
 21
-461.9890513567072
 31
0.0
  0
LINE
  5
DFC
102
{ACAD_REACTORS
330
C4C
102
}
330
36
100
AcDbEntity
  8
0
 62
     3
100
AcDbLine
 10
388.7474603196844
 20
-459.1890513567071
 30
0.0
 11
384.7474603196844
 21
-459.1890513567071
 31
0.0
  0
LINE
  5
DFD
102
{ACAD_REACTORS
330
C4C
102
}
330
36
100
AcDbEntity
  8
0
100
AcDbLine
 10
388.5974603196843
 20
-459.0390513567071
 30
0.0
 11
384.8974603196845
 21
-459.0390513567071
 31
0.0
  0
LINE
  5
DFE
102
{ACAD_REACTORS
330
C4C
102
}
330
36
100
AcDbEntity
  8
0
 62
     3
100
AcDbLine
 10
388.7474603196844
 20
-458.1890513567071
 30
0.0
 11
384.7474603196844
 21
-458.1890513567071
 31
0.0
  0
LINE
  5
DFF
102
{ACAD_REACTORS
330
C4C
102
}
330
36
100
AcDbEntity
  8
0
100
AcDbLine
 10
388.5974603196843
 20
-458.3390513567072
 30
0.0
 11
384.8974603196845
 21
-458.3390513567072
 31
0.0
  0
LINE
  5
E01
102
{ACAD_REACTORS
330
C49
102
}
330
36
100
AcDbEntity
  8
0
 62
     3
100
AcDbLine
 10
387.2474603196844
 20
-470.5890513567072
 30
0.0
 11
386.2474603196844
 21
-470.5890513567072
 31
0.0
  0
LINE
  5
E02
102
{ACAD_REACTORS
330
C49
102
}
330
36
100
AcDbEntity
  8
0
100
AcDbLine
 10
387.0974603196843
 20
-470.4390513567071
 30
0.0
 11
386.3974603196845
 21
-470.4390513567071
 31
0.0
  0
LINE
  5
E03
102
{ACAD_REACTORS
330
C49
102
}
330
36
100
AcDbEntity
  8
0
 62
     3
100
AcDbLine
 10
387.2474603196844
 20
-466.5890513567072
 30
0.0
 11
386.2474603196844
 21
-466.5890513567072
 31
0.0
  0
LINE
  5
E04
102
{ACAD_REACTORS
330
C49
102
}
330
36
100
AcDbEntity
  8
0
100
AcDbLine
 10
387.0974603196843
 20
-466.7390513567072
 30
0.0
 11
386.3974603196845
 21
-466.7390513567072
 31
0.0
  0
LINE
  5
E06
330
36
100
AcDbEntity
  8
0
 62
     3
100
AcDbLine
 10
384.7474603196844
 20
-459.1890513567071
 30
0.0
 11
384.7474603196844
 21
-458.1890513567071
 31
0.0
  0
LINE
  5
E07
330
36
100
AcDbEntity
  8
0
100
AcDbLine
 10
384.8974603196845
 20
-459.0390513567071
 30
0.0
 11
384.8974603196845
 21
-458.3390513567072
 31
0.0
  0
LINE
  5
E08
330
36
100
AcDbEntity
  8
0
 62
     3
100
AcDbLine
 10
388.7474603196844
 20
-459.1890513567071
 30
0.0
 11
388.7474603196844
 21
-458.1890513567071
 31
0.0
  0
LINE
  5
E09
330
36
100
AcDbEntity
  8
0
100
AcDbLine
 10
388.5974603196843
 20
-459.0390513567071
 30
0.0
 11
388.5974603196843
 21
-458.3390513567072
 31
0.0
  0
LINE
  5
E0A
330
36
100
AcDbEntity
  8
0
 62
     3
100
AcDbLine
 10
386.2474603196844
 20
-470.5890513567072
 30
0.0
 11
386.2474603196844
 21
-466.5890513567072
 31
0.0
  0
LINE
  5
E0B
330
36
100
AcDbEntity
  8
0
100
AcDbLine
 10
386.3974603196845
 20
-470.4390513567071
 30
0.0
 11
386.3974603196845
 21
-466.7390513567072
 31
0.0
  0
LINE
  5
E0C
330
36
100
AcDbEntity
  8
0
 62
     3
100
AcDbLine
 10
387.2474603196844
 20
-470.5890513567072
 30
0.0
 11
387.2474603196844
 21
-466.5890513567072
 31
0.0
  0
LINE
  5
E0D
330
36
100
AcDbEntity
  8
0
100
AcDbLine
 10
387.0974603196843
 20
-470.4390513567071
 30
0.0
 11
387.0974603196843
 21
-466.7390513567072
 31
0.0
  0
LINE
  5
E0F
102
{ACAD_REACTORS
330
C60
102
}
330
36
100
AcDbEntity
  8
0
 62
     3
100
AcDbLine
 10
381.0974603196843
 20
-465.8390513567072
 30
0.0
 11
381.0974603196843
 21
-461.8390513567072
 31
0.0
  0
LINE
  5
E10
102
{ACAD_REACTORS
330
C60
102
}
330
36
100
AcDbEntity
  8
0
100
AcDbLine
 10
381.2474603196843
 20
-465.6890513567072
 30
0.0
 11
381.2474603196843
 21
-461.9890513567072
 31
0.0
  0
LINE
  5
E11
102
{ACAD_REACTORS
330
C60
102
}
330
36
100
AcDbEntity
  8
0
 62
     3
100
AcDbLine
 10
382.0974603196843
 20
-465.8390513567072
 30
0.0
 11
382.0974603196843
 21
-461.8390513567072
 31
0.0
  0
LINE
  5
E12
102
{ACAD_REACTORS
330
C60
102
}
330
36
100
AcDbEntity
  8
0
100
AcDbLine
 10
381.9474603196842
 20
-465.6890513567072
 30
0.0
 11
381.9474603196842
 21
-461.9890513567072
 31
0.0
  0
LINE
  5
E14
102
{ACAD_REACTORS
330
C60
102
}
330
36
100
AcDbEntity
  8
0
 62
     3
100
AcDbLine
 10
391.3974603196844
 20
-465.8390513567072
 30
0.0
 11
391.3974603196844
 21
-461.8390513567072
 31
0.0
  0
LINE
  5
E15
102
{ACAD_REACTORS
330
C60
102
}
330
36
100
AcDbEntity
  8
0
100
AcDbLine
 10
391.547460319685
 20
-465.6890513567072
 30
0.0
 11
391.547460319685
 21
-461.9890513567072
 31
0.0
  0
LINE
  5
E16
102
{ACAD_REACTORS
330
C60
102
}
330
36
100
AcDbEntity
  8
0
 62
     3
100
AcDbLine
 10
392.3974603196845
 20
-465.8390513567072
 30
0.0
 11
392.3974603196845
 21
-461.8390513567072
 31
0.0
  0
LINE
  5
E17
102
{ACAD_REACTORS
330
C60
102
}
330
36
100
AcDbEntity
  8
0
100
AcDbLine
 10
392.2474603196848
 20
-465.6890513567072
 30
0.0
 11
392.2474603196844
 21
-461.9890513567072
 31
0.0
  0
LINE
  5
E1A
330
36
100
AcDbEntity
  8
0
100
AcDbLine
 10
381.9474603196842
 20
-461.9890513567072
 30
0.0
 11
382.0974603196843
 21
-461.8390513567072
 31
0.0
  0
LINE
  5
E1B
330
36
100
AcDbEntity
  8
0
100
AcDbLine
 10
381.2474603196843
 20
-461.9890513567072
 30
0.0
 11
381.0974603196843
 21
-461.8390513567072
 31
0.0
  0
LINE
  5
E1C
330
36
100
AcDbEntity
  8
0
100
AcDbLine
 10
381.2474603196843
 20
-465.6890513567072
 30
0.0
 11
381.0974603196843
 21
-465.8390513567072
 31
0.0
  0
LINE
  5
E1D
330
36
100
AcDbEntity
  8
0
100
AcDbLine
 10
381.9474603196842
 20
-465.6890513567072
 30
0.0
 11
382.0974603196843
 21
-465.8390513567072
 31
0.0
  0
LINE
  5
E1E
330
36
100
AcDbEntity
  8
0
100
AcDbLine
 10
386.3974603196845
 20
-466.7390513567072
 30
0.0
 11
386.2474603196844
 21
-466.5890513567072
 31
0.0
  0
LINE
  5
E1F
330
36
100
AcDbEntity
  8
0
100
AcDbLine
 10
387.0974603196843
 20
-466.7390513567072
 30
0.0
 11
387.2474603196844
 21
-466.5890513567072
 31
0.0
  0
LINE
  5
E20
330
36
100
AcDbEntity
  8
0
100
AcDbLine
 10
386.3974603196845
 20
-470.4390513567071
 30
0.0
 11
386.2474603196844
 21
-470.5890513567072
 31
0.0
  0
LINE
  5
E21
330
36
100
AcDbEntity
  8
0
100
AcDbLine
 10
387.0974603196843
 20
-470.4390513567071
 30
0.0
 11
387.2474603196844
 21
-470.5890513567072
 31
0.0
  0
LINE
  5
E22
330
36
100
AcDbEntity
  8
0
100
AcDbLine
 10
391.547460319685
 20
-465.6890513567072
 30
0.0
 11
391.3974603196844
 21
-465.8390513567072
 31
0.0
  0
LINE
  5
E23
330
36
100
AcDbEntity
  8
0
100
AcDbLine
 10
392.2474603196848
 20
-465.6890513567072
 30
0.0
 11
392.3974603196845
 21
-465.8390513567072
 31
0.0
  0
LINE
  5
E24
330
36
100
AcDbEntity
  8
0
100
AcDbLine
 10
392.2474603196848
 20
-461.9890513567072
 30
0.0
 11
392.3974603196845
 21
-461.8390513567072
 31
0.0
  0
LINE
  5
E25
330
36
100
AcDbEntity
  8
0
100
AcDbLine
 10
391.547460319685
 20
-461.9890513567072
 30
0.0
 11
391.3974603196844
 21
-461.8390513567072
 31
0.0
  0
LINE
  5
E26
330
36
100
AcDbEntity
  8
0
100
AcDbLine
 10
388.5974603196843
 20
-458.3390513567072
 30
0.0
 11
388.7474603196844
 21
-458.1890513567071
 31
0.0
  0
LINE
  5
E27
330
36
100
AcDbEntity
  8
0
100
AcDbLine
 10
388.5974603196843
 20
-459.0390513567071
 30
0.0
 11
388.7474603196844
 21
-459.1890513567071
 31
0.0
  0
LINE
  5
E28
330
36
100
AcDbEntity
  8
0
100
AcDbLine
 10
384.8974603196845
 20
-458.3390513567072
 30
0.0
 11
384.7474603196844
 21
-458.1890513567071
 31
0.0
  0
LINE
  5
E29
330
36
100
AcDbEntity
  8
0
100
AcDbLine
 10
384.8974603196845
 20
-459.0390513567071
 30
0.0
 11
384.7474603196844
 21
-459.1890513567071
 31
0.0
  0
LINE
  5
E2A
330
36
100
AcDbEntity
  8
0
  6
Continuous
 62
     3
100
AcDbLine
 10
388.8724603196844
 20
-414.021485861734
 30
0.0
 11
388.8724603196844
 21
-400.8139935083252
 31
0.0
  0
LINE
  5
E2B
330
36
100
AcDbEntity
  8
0
  6
Continuous
 62
     3
100
AcDbLine
 10
384.6224603196844
 20
-414.021485861734
 30
0.0
 11
384.6224603196844
 21
-400.8139935083252
 31
0.0
  0
LINE
  5
E2F
330
36
100
AcDbEntity
  8
0
  6
Continuous
 62
     3
100
AcDbLine
 10
343.861779
 20
-457.7076849999998
 30
0.0
 11
351.4112575045555
 21
-457.7076849999998
 31
0.0
  0
LINE
  5
E30
330
36
100
AcDbEntity
  8
0
  6
Continuous
 62
     3
100
AcDbLine
 10
343.861779
 20
-453.4576849999998
 30
0.0
 11
351.4112575045555
 21
-453.4576849999998
 31
0.0
  0
ARC
  5
E33
330
36
100
AcDbEntity
  8
0
  6
Continuous
100
AcDbCircle
 10
350.2956325045556
 20
-454.5201849999997
 30
0.0
 40
1.540624999999895
100
AcDbArc
 50
316.3971810272925
 51
43.60281897270441
  0
ARC
  5
E34
330
36
100
AcDbEntity
  8
0
  6
Continuous
100
AcDbCircle
 10
352.5268825045553
 20
-454.5201849999998
 30
0.0
 40
1.540624999999895
100
AcDbArc
 50
136.3971810272919
 51
223.6028189727065
  0
ARC
  5
E35
330
36
100
AcDbEntity
  8
0
  6
Continuous
100
AcDbCircle
 10
350.2956325045557
 20
-456.6451849999998
 30
0.0
 40
1.540624999999895
100
AcDbArc
 50
316.3971810272921
 51
43.60281897270789
  0
ARC
  5
E3B
330
36
100
AcDbEntity
  8
0
  6
Continuous
100
AcDbCircle
 10
385.6849603196844
 20
-401.9296185083252
 30
0.0
 40
1.540624999999975
100
AcDbArc
 50
46.39718102729483
 51
133.6028189727051
  0
ARC
  5
E3C
330
36
100
AcDbEntity
  8
0
  6
Continuous
100
AcDbCircle
 10
385.6849603196844
 20
-399.6983685083253
 30
0.0
 40
1.540624999999975
100
AcDbArc
 50
226.3971810272925
 51
313.6028189727074
  0
ARC
  5
E3D
330
36
100
AcDbEntity
  8
0
  6
Continuous
100
AcDbCircle
 10
387.8099603196844
 20
-401.9296185083252
 30
0.0
 40
1.540624999999975
100
AcDbArc
 50
46.39718102729483
 51
133.6028189727051
  0
TEXT
  5
E65
330
36
100
AcDbEntity
  8
0
 62
     4
100
AcDbText
 10
370.1680029310566
 20
-480.9523291236269
 30
0.0
 40
3.2
  1
3PE 20A 250V
  7
高3.2
100
AcDbText
  0
TEXT
  5
E67
330
36
100
AcDbEntity
  8
0
100
AcDbText
 10
383.1421350242632
 20
-470.6878384924145
 30
0.0
 40
2.0
  1
G
100
AcDbText
  0
TEXT
  5
E93
330
36
100
AcDbEntity
  8
0
100
AcDbText
 10
34.37898701806409
 20
-633.490762987655
 30
0.0
 40
3.2
  1
コード番号末尾に●の記載がある物は過去に変更があった部品
  7
高3.2
100
AcDbText
  0
LINE
  5
F76
330
36
100
AcDbEntity
  8
0
  6
Continuous
100
AcDbLine
 10
397.8474603196843
 20
-437.021485861734
 30
0.0
 11
407.7108240913315
 21
-437.021485861734
 31
0.0
  0
LINE
  5
F77
330
36
100
AcDbEntity
  8
0
  6
Continuous
100
AcDbLine
 10
392.7474603196842
 20
-414.021485861734
 30
0.0
 11
407.7108240913315
 21
-414.021485861734
 31
0.0
  0
LINE
  5
F78
330
36
100
AcDbEntity
  8
0
  6
Continuous
100
AcDbLine
 10
406.4608240913314
 20
-434.521485861734
 30
0.0
 11
406.4608240913314
 21
-416.521485861734
 31
0.0
  0
LINE
  5
F7C
330
36
100
AcDbEntity
  8
0
  6
Continuous
100
AcDbLine
 10
397.5974603196843
 20
-437.271485861734
 30
0.0
 11
397.5974603196843
 21
-451.6815125691196
 31
0.0
  0
LINE
  5
F7D
330
36
100
AcDbEntity
  8
0
  6
Continuous
100
AcDbLine
 10
375.8974603196842
 20
-437.271485861734
 30
0.0
 11
375.8974603196842
 21
-451.6815125691196
 31
0.0
  0
LINE
  5
F7E
330
36
100
AcDbEntity
  8
0
  6
Continuous
100
AcDbLine
 10
400.0974603196842
 20
-450.4315125691196
 30
0.0
 11
402.5974603196842
 21
-450.4315125691196
 31
0.0
  0
LINE
  5
F7F
330
36
100
AcDbEntity
  8
0
  6
Continuous
100
AcDbLine
 10
373.3974603196842
 20
-450.4315125691196
 30
0.0
 11
357.6474603196842
 21
-450.4315125691196
 31
0.0
  0
LINE
  5
F80
330
36
100
AcDbEntity
  8
0
  6
Continuous
100
AcDbLine
 10
397.5974603196843
 20
-450.4315125691196
 30
0.0
 11
375.8974603196842
 21
-450.4315125691196
 31
0.0
  0
TEXT
  5
F86
330
36
100
AcDbEntity
  8
0
  6
Continuous
 62
     4
100
AcDbText
 10
61.6650992084762
 20
-463.1818414129305
 30
0.0
 40
3.0
  1
アース
100
AcDbText
1001
ACAD
1000
MTEXTBEGIN
1070
    73
1070
     1
1070
    44
1040
1.0
1070
    74
1070
     0
1000
MTEXTEND
  0
LINE
  5
F8B
330
36
100
AcDbEntity
  8
0
100
AcDbLine
 10
75.330279
 20
-481.3326849999998
 30
0.0
 11
75.330279
 21
-494.704599
 31
0.0
  0
LINE
  5
F8C
330
36
100
AcDbEntity
  8
0
100
AcDbLine
 10
165.330279
 20
-481.3326849999998
 30
0.0
 11
165.330279
 21
-494.704599
 31
0.0
  0
LINE
  5
F8D
330
36
100
AcDbEntity
  8
0
100
AcDbLine
 10
77.830279
 20
-493.454599
 30
0.0
 11
162.830279
 21
-493.454599
 31
0.0
  0
LINE
  5
F91
330
36
100
AcDbEntity
  8
0
100
AcDbLine
 10
150.955279
 20
-486.3326849999999
 30
0.0
 11
179.4226129999999
 21
-486.3326849999999
 31
0.0
  0
LINE
  5
F92
330
36
100
AcDbEntity
  8
0
100
AcDbLine
 10
117.793907
 20
-388.832685
 30
0.0
 11
179.422613
 21
-388.8326850000001
 31
0.0
  0
LINE
  5
F93
330
36
100
AcDbEntity
  8
0
100
AcDbLine
 10
178.1726129999999
 20
-483.8326849999998
 30
0.0
 11
178.172613
 21
-391.3326850000001
 31
0.0
  0
LINE
  5
F97
330
36
100
AcDbEntity
  8
0
100
AcDbLine
 10
197.423779
 20
-475.3326849999999
 30
0.0
 11
197.423779
 21
-494.1940289999999
 31
0.0
  0
LINE
  5
F98
330
36
100
AcDbEntity
  8
0
100
AcDbLine
 10
342.361279
 20
-481.3326849999998
 30
0.0
 11
342.361279
 21
-494.1940289999999
 31
0.0
  0
LINE
  5
F99
330
36
100
AcDbEntity
  8
0
100
AcDbLine
 10
199.923779
 20
-492.944029
 30
0.0
 11
339.861279
 21
-492.944029
 31
0.0
  0
LINE
  5
F9D
330
36
100
AcDbEntity
  8
0
  6
Continuous
100
AcDbLine
 10
87.08971992649061
 20
-484.3031084926072
 30
0.0
 11
64.70540114701876
 21
-489.7923280147852
 31
0.0
1001
ACAD
1000
DSTYLE
1002
{
1070
   147
1040
0.625
1070
    77
1070
     0
1002
}
  0
LINE
  5
F9E
330
36
100
AcDbEntity
  8
0
  6
ByBlock
 62
     0
370
    -2
100
AcDbLine
 10
86.93017679706997
 20
-483.6525124919194
 30
0.0
 11
89.51777900000001
 21
-483.7076849999998
 31
0.0
  0
LINE
  5
F9F
330
36
100
AcDbEntity
  8
0
  6
ByBlock
 62
     0
370
    -2
100
AcDbLine
 10
89.51777900000001
 20
-483.7076849999998
 30
0.0
 11
87.24926305591125
 21
-484.953704493295
 31
0.0
  0
LINE
  5
FA0
330
36
100
AcDbEntity
  8
0
  6
ByBlock
 62
     0
370
    -2
100
AcDbLine
 10
89.51777900000001
 20
-483.7076849999998
 30
0.0
 11
87.08971992649061
 21
-484.3031084926072
 31
0.0
  0
LINE
  5
FA1
330
36
100
AcDbEntity
  8
0
  6
Continuous
100
AcDbLine
 10
83.21798872782208
 20
-435.7377244131541
 30
0.0
 11
68.04524825938727
 21
-383.1356427428328
 31
0.0
1001
ACAD
1000
DSTYLE
1002
{
1070
   147
1040
0.625
1070
    77
1070
     0
1002
}
  0
LINE
  5
FA2
330
36
100
AcDbEntity
  8
0
  6
ByBlock
 62
     0
370
    -2
100
AcDbLine
 10
83.86162108177272
 20
-435.5520726983648
 30
0.0
 11
83.91085085751571
 21
-438.1397947845704
 31
0.0
  0
LINE
  5
FA3
330
36
100
AcDbEntity
  8
0
  6
ByBlock
 62
     0
370
    -2
100
AcDbLine
 10
83.91085085751571
 20
-438.1397947845704
 30
0.0
 11
82.57435637387143
 21
-435.9233761279433
 31
0.0
  0
LINE
  5
FA4
330
36
100
AcDbEntity
  8
0
  6
ByBlock
 62
     0
370
    -2
100
AcDbLine
 10
83.91085085751571
 20
-438.1397947845704
 30
0.0
 11
83.21798872782208
 21
-435.7377244131541
 31
0.0
  0
LINE
  5
FA5
330
36
100
AcDbEntity
  8
0
  6
Continuous
100
AcDbLine
 10
117.7547228027237
 20
-450.6315632896173
 30
0.0
 11
99.57043639455262
 21
-383.1592454207651
 31
0.0
1001
ACAD
1000
DSTYLE
1002
{
1070
   147
1040
0.625
1070
    77
1070
     0
1002
}
  0
LINE
  5
FA6
330
36
100
AcDbEntity
  8
0
  6
ByBlock
 62
     0
370
    -2
100
AcDbLine
 10
118.401517313649
 20
-450.4572474071133
 30
0.0
 11
118.405279
 21
-453.0454349999998
 31
0.0
  0
LINE
  5
FA7
330
36
100
AcDbEntity
  8
0
  6
ByBlock
 62
     0
370
    -2
100
AcDbLine
 10
118.405279
 20
-453.0454349999998
 30
0.0
 11
117.1079282917984
 21
-450.8058791721213
 31
0.0
  0
LINE
  5
FA8
330
36
100
AcDbEntity
  8
0
  6
ByBlock
 62
     0
370
    -2
100
AcDbLine
 10
118.405279
 20
-453.0454349999998
 30
0.0
 11
117.7547228027237
 21
-450.6315632896173
 31
0.0
  0
LINE
  5
FA9
330
36
100
AcDbEntity
  8
0
  6
Continuous
100
AcDbLine
 10
128.1426638453861
 20
-410.1561069056523
 30
0.0
 11
141.4079560450765
 21
-382.457409188695
 31
0.0
1001
ACAD
1000
DSTYLE
1002
{
1070
   147
1040
0.625
1070
    77
1070
     0
1002
}
  0
LINE
  5
FAA
330
36
100
AcDbEntity
  8
0
  6
ByBlock
 62
     0
370
    -2
100
AcDbLine
 10
128.7468250938045
 20
-410.4454481439262
 30
0.0
 11
127.0628268679244
 21
-412.4108689999998
 31
0.0
  0
LINE
  5
FAB
330
36
100
AcDbEntity
  8
0
  6
ByBlock
 62
     0
370
    -2
100
AcDbLine
 10
127.0628268679244
 20
-412.4108689999998
 30
0.0
 11
127.5385025969678
 21
-409.8667656673784
 31
0.0
  0
LINE
  5
FAC
330
36
100
AcDbEntity
  8
0
  6
ByBlock
 62
     0
370
    -2
100
AcDbLine
 10
127.0628268679244
 20
-412.4108689999998
 30
0.0
 11
128.1426638453861
 21
-410.1561069056523
 31
0.0
  0
LINE
  5
FAD
330
36
100
AcDbEntity
  8
0
  6
Continuous
100
AcDbLine
 10
151.4838921313477
 20
-412.2134045556608
 30
0.0
 11
159.6887231744552
 21
-383.2776074345929
 31
0.0
1001
ACAD
1000
DSTYLE
1002
{
1070
   147
1040
0.625
1070
    77
1070
     0
1002
}
  0
LINE
  5
FAE
330
36
100
AcDbEntity
  8
0
  6
ByBlock
 62
     0
370
    -2
100
AcDbLine
 10
152.128357229494
 20
-412.3961445445177
 30
0.0
 11
150.8018967185753
 21
-414.6185827729572
 31
0.0
  0
LINE
  5
FAF
330
36
100
AcDbEntity
  8
0
  6
ByBlock
 62
     0
370
    -2
100
AcDbLine
 10
150.8018967185753
 20
-414.6185827729572
 30
0.0
 11
150.8394270332013
 21
-412.0306645668038
 31
0.0
  0
LINE
  5
FB0
330
36
100
AcDbEntity
  8
0
  6
ByBlock
 62
     0
370
    -2
100
AcDbLine
 10
150.8018967185753
 20
-414.6185827729572
 30
0.0
 11
151.4838921313477
 21
-412.2134045556608
 31
0.0
  0
LINE
  5
FB1
330
36
100
AcDbEntity
  8
0
  6
Continuous
100
AcDbLine
 10
159.354258
 20
-424.439141
 30
0.0
 11
175.7961212415483
 21
-383.113059899024
 31
0.0
1001
ACAD
1000
DSTYLE
1002
{
1070
   341
1005
E81
1070
   147
1040
0.625
1070
    77
1070
     0
1002
}
  0
LINE
  5
FB3
330
36
100
AcDbEntity
  8
0
  6
Continuous
100
AcDbLine
 10
235.6052410478483
 20
-399.6814171320947
 30
0.0
 11
227.9894796561204
 21
-382.9116057358104
 31
0.0
1001
ACAD
1000
DSTYLE
1002
{
1070
   147
1040
0.625
1070
    77
1070
     0
1002
}
  0
LINE
  5
FB4
330
36
100
AcDbEntity
  8
0
  6
ByBlock
 62
     0
370
    -2
100
AcDbLine
 10
236.2151647467856
 20
-399.4044293205742
 30
0.0
 11
236.6389743759085
 21
-401.9576849999998
 31
0.0
  0
LINE
  5
FB5
330
36
100
AcDbEntity
  8
0
  6
ByBlock
 62
     0
370
    -2
100
AcDbLine
 10
236.6389743759085
 20
-401.9576849999998
 30
0.0
 11
234.9953173489109
 21
-399.9584049436151
 31
0.0
  0
LINE
  5
FB6
330
36
100
AcDbEntity
  8
0
  6
ByBlock
 62
     0
370
    -2
100
AcDbLine
 10
236.6389743759085
 20
-401.9576849999998
 30
0.0
 11
235.6052410478483
 21
-399.6814171320947
 31
0.0
  0
LINE
  5
FB7
330
36
100
AcDbEntity
  8
0
  6
Continuous
100
AcDbLine
 10
261.5797685658205
 20
-386.9936680566444
 30
0.0
 11
256.9935638683591
 21
-382.0311038867112
 31
0.0
1001
ACAD
1000
DSTYLE
1002
{
1070
   147
1040
0.625
1070
    77
1070
     0
1002
}
  0
LINE
  5
FB8
330
36
100
AcDbEntity
  8
0
  6
ByBlock
 62
     0
370
    -2
100
AcDbLine
 10
262.0717274697756
 20
-386.5390191777549
 30
0.0
 11
263.2765425
 21
-388.829685
 31
0.0
  0
LINE
  5
FB9
330
36
100
AcDbEntity
  8
0
  6
ByBlock
 62
     0
370
    -2
100
AcDbLine
 10
263.2765425
 20
-388.829685
 30
0.0
 11
261.0878096618653
 21
-387.4483169355339
 31
0.0
  0
LINE
  5
FBA
330
36
100
AcDbEntity
  8
0
  6
ByBlock
 62
     0
370
    -2
100
AcDbLine
 10
263.2765425
 20
-388.829685
 30
0.0
 11
261.5797685658205
 21
-386.9936680566444
 31
0.0
  0
LINE
  5
FBB
330
36
100
AcDbEntity
  8
0
  6
Continuous
100
AcDbLine
 10
383.0338388692427
 20
-405.4873817163625
 30
0.0
 11
367.4882819008832
 21
-386.5977401577021
 31
0.0
1001
ACAD
1000
DSTYLE
1002
{
1070
   147
1040
0.625
1070
    77
1070
     0
1002
}
  0
LINE
  5
FBC
330
36
100
AcDbEntity
  8
0
  6
ByBlock
 62
     0
370
    -2
100
AcDbLine
 10
383.5510763565892
 20
-405.0617121873381
 30
0.0
 11
384.6224603196844
 21
-407.4177396850297
 31
0.0
  0
LINE
  5
FBD
330
36
100
AcDbEntity
  8
0
  6
ByBlock
 62
     0
370
    -2
100
AcDbLine
 10
384.6224603196844
 20
-407.4177396850297
 30
0.0
 11
382.5166013818964
 21
-405.9130512453869
 31
0.0
  0
LINE
  5
FBE
330
36
100
AcDbEntity
  8
0
  6
ByBlock
 62
     0
370
    -2
100
AcDbLine
 10
384.6224603196844
 20
-407.4177396850297
 30
0.0
 11
383.0338388692427
 21
-405.4873817163625
 31
0.0
  0
TEXT
  5
FBF
330
36
100
AcDbEntity
  8
0
  6
Continuous
 62
     4
100
AcDbText
 10
405.8358240913316
 20
-427.5981228287023
 30
0.0
 40
3.0
  1
46
 50
90.0
100
AcDbText
  0
LINE
  5
FC0
330
36
100
AcDbEntity
  8
0
  6
ByBlock
 62
     0
370
    -2
100
AcDbLine
 10
405.7909515913314
 20
-416.521485861734
 30
0.0
 11
406.4608240913314
 21
-414.021485861734
 31
0.0
  0
LINE
  5
FC1
330
36
100
AcDbEntity
  8
0
  6
ByBlock
 62
     0
370
    -2
100
AcDbLine
 10
406.4608240913314
 20
-414.021485861734
 30
0.0
 11
407.1306965913314
 21
-416.521485861734
 31
0.0
  0
LINE
  5
FC2
330
36
100
AcDbEntity
  8
0
  6
ByBlock
 62
     0
370
    -2
100
AcDbLine
 10
406.4608240913314
 20
-414.021485861734
 30
0.0
 11
406.4608240913314
 21
-416.521485861734
 31
0.0
  0
LINE
  5
FC3
330
36
100
AcDbEntity
  8
0
  6
ByBlock
 62
     0
370
    -2
100
AcDbLine
 10
407.1306965913314
 20
-434.521485861734
 30
0.0
 11
406.4608240913314
 21
-437.021485861734
 31
0.0
  0
LINE
  5
FC4
330
36
100
AcDbEntity
  8
0
  6
ByBlock
 62
     0
370
    -2
100
AcDbLine
 10
406.4608240913314
 20
-437.021485861734
 30
0.0
 11
405.7909515913314
 21
-434.521485861734
 31
0.0
  0
LINE
  5
FC5
330
36
100
AcDbEntity
  8
0
  6
ByBlock
 62
     0
370
    -2
100
AcDbLine
 10
406.4608240913314
 20
-437.021485861734
 30
0.0
 11
406.4608240913314
 21
-434.521485861734
 31
0.0
  0
TEXT
  5
FC6
330
36
100
AcDbEntity
  8
0
  6
Continuous
 62
     4
100
AcDbText
 10
358.2724603196842
 20
-449.8065125691196
 30
0.0
 40
3.0
  1
\U+220543.4
100
AcDbText
  0
LINE
  5
FC7
330
36
100
AcDbEntity
  8
0
  6
ByBlock
 62
     0
370
    -2
100
AcDbLine
 10
373.3974603196842
 20
-449.7616400691196
 30
0.0
 11
375.8974603196842
 21
-450.4315125691196
 31
0.0
  0
LINE
  5
FC8
330
36
100
AcDbEntity
  8
0
  6
ByBlock
 62
     0
370
    -2
100
AcDbLine
 10
375.8974603196842
 20
-450.4315125691196
 30
0.0
 11
373.3974603196842
 21
-451.1013850691195
 31
0.0
  0
LINE
  5
FC9
330
36
100
AcDbEntity
  8
0
  6
ByBlock
 62
     0
370
    -2
100
AcDbLine
 10
375.8974603196842
 20
-450.4315125691196
 30
0.0
 11
373.3974603196842
 21
-450.4315125691196
 31
0.0
  0
LINE
  5
FCA
330
36
100
AcDbEntity
  8
0
  6
ByBlock
 62
     0
370
    -2
100
AcDbLine
 10
400.0974603196842
 20
-451.1013850691195
 30
0.0
 11
397.5974603196843
 21
-450.4315125691196
 31
0.0
  0
LINE
  5
FCB
330
36
100
AcDbEntity
  8
0
  6
ByBlock
 62
     0
370
    -2
100
AcDbLine
 10
397.5974603196843
 20
-450.4315125691196
 30
0.0
 11
400.0974603196842
 21
-449.7616400691196
 31
0.0
  0
LINE
  5
FCC
330
36
100
AcDbEntity
  8
0
  6
ByBlock
 62
     0
370
    -2
100
AcDbLine
 10
397.5974603196843
 20
-450.4315125691196
 30
0.0
 11
400.0974603196842
 21
-450.4315125691196
 31
0.0
  0
LINE
  5
FCD
330
36
100
AcDbEntity
  8
0
  6
Continuous
100
AcDbLine
 10
118.0388296076648
 20
-482.0823147726491
 30
0.0
 11
64.43218178467032
 21
-505.4678633931136
 31
0.0
1001
ACAD
1000
DSTYLE
1002
{
1070
   147
1040
0.625
1070
    77
1070
     0
1002
}
  0
LINE
  5
FCE
330
36
100
AcDbEntity
  8
0
  6
ByBlock
 62
     0
370
    -2
100
AcDbLine
 10
117.7709798097132
 20
-481.4683231994222
 30
0.0
 11
120.330279
 21
-481.0826849999998
 31
0.0
  0
LINE
  5
FCF
330
36
100
AcDbEntity
  8
0
  6
ByBlock
 62
     0
370
    -2
100
AcDbLine
 10
120.330279
 20
-481.0826849999998
 30
0.0
 11
118.3066794056164
 21
-482.6963063458759
 31
0.0
  0
LINE
  5
FD0
330
36
100
AcDbEntity
  8
0
  6
ByBlock
 62
     0
370
    -2
100
AcDbLine
 10
120.330279
 20
-481.0826849999998
 30
0.0
 11
118.0388296076648
 21
-482.0823147726491
 31
0.0
  0
LINE
  5
FD1
330
36
100
AcDbEntity
  8
0
  6
Continuous
100
AcDbLine
 10
85.55269576269845
 20
-469.5891850116874
 30
0.0
 11
74.5900992084762
 21
-461.6818414129305
 31
0.0
1001
ACAD
1000
DSTYLE
1002
{
1070
   147
1040
0.625
1070
    77
1070
     0
1002
}
  0
LINE
  5
FD2
330
36
100
AcDbEntity
  8
0
  6
Continuous
100
AcDbLine
 10
74.5900992084762
 20
-461.6818414129305
 30
0.0
 11
72.0900992084762
 21
-461.6818414129305
 31
0.0
1001
ACAD
1000
DSTYLE
1002
{
1070
   147
1040
0.625
1070
    77
1070
     0
1002
}
  0
LINE
  5
FD3
330
36
100
AcDbEntity
  8
0
  6
ByBlock
 62
     0
370
    -2
100
AcDbLine
 10
85.94457117206676
 20
-469.0458961108357
 30
0.0
 11
87.580279
 21
-471.0516849999998
 31
0.0
  0
LINE
  5
FD4
330
36
100
AcDbEntity
  8
0
  6
ByBlock
 62
     0
370
    -2
100
AcDbLine
 10
87.580279
 20
-471.0516849999998
 30
0.0
 11
85.16082035333012
 21
-470.1324739125391
 31
0.0
  0
LINE
  5
FD5
330
36
100
AcDbEntity
  8
0
  6
ByBlock
 62
     0
370
    -2
100
AcDbLine
 10
87.580279
 20
-471.0516849999998
 30
0.0
 11
85.55269576269845
 21
-469.5891850116874
 31
0.0
  0
LINE
  5
FD6
330
36
100
AcDbEntity
  8
0
  6
Continuous
100
AcDbLine
 10
155.6893249975925
 20
-433.1415702797772
 30
0.0
 11
190.6139382571558
 21
-382.8926873687657
 31
0.0
1001
ACAD
1000
DSTYLE
1002
{
1070
   147
1040
0.625
1070
    77
1070
     0
1002
}
  0
LINE
  5
FD7
330
36
100
AcDbEntity
  8
0
  6
ByBlock
 62
     0
370
    -2
100
AcDbLine
 10
156.2393865269431
 20
-433.5238809913517
 30
0.0
 11
154.2625209730409
 21
-435.1944293288898
 31
0.0
  0
LINE
  5
FD8
330
36
100
AcDbEntity
  8
0
  6
ByBlock
 62
     0
370
    -2
100
AcDbLine
 10
154.2625209730409
 20
-435.1944293288898
 30
0.0
 11
155.1392634682418
 21
-432.7592595682027
 31
0.0
  0
LINE
  5
FD9
330
36
100
AcDbEntity
  8
0
  6
ByBlock
 62
     0
370
    -2
100
AcDbLine
 10
154.2625209730409
 20
-435.1944293288898
 30
0.0
 11
155.6893249975925
 21
-433.1415702797772
 31
0.0
  0
TEXT
  5
FDA
330
36
100
AcDbEntity
  8
0
  6
Continuous
 62
     4
100
AcDbText
 10
117.080279
 20
-492.829599
 30
0.0
 40
3.0
  1
190
100
AcDbText
  0
LINE
  5
FDB
330
36
100
AcDbEntity
  8
0
  6
ByBlock
 62
     0
370
    -2
100
AcDbLine
 10
162.830279
 20
-492.7847265
 30
0.0
 11
165.330279
 21
-493.454599
 31
0.0
  0
LINE
  5
FDC
330
36
100
AcDbEntity
  8
0
  6
ByBlock
 62
     0
370
    -2
100
AcDbLine
 10
165.330279
 20
-493.454599
 30
0.0
 11
162.830279
 21
-494.1244715
 31
0.0
  0
LINE
  5
FDD
330
36
100
AcDbEntity
  8
0
  6
ByBlock
 62
     0
370
    -2
100
AcDbLine
 10
165.330279
 20
-493.454599
 30
0.0
 11
162.830279
 21
-493.454599
 31
0.0
  0
LINE
  5
FDE
330
36
100
AcDbEntity
  8
0
  6
ByBlock
 62
     0
370
    -2
100
AcDbLine
 10
77.830279
 20
-494.1244715
 30
0.0
 11
75.330279
 21
-493.454599
 31
0.0
  0
LINE
  5
FDF
330
36
100
AcDbEntity
  8
0
  6
ByBlock
 62
     0
370
    -2
100
AcDbLine
 10
75.330279
 20
-493.454599
 30
0.0
 11
77.830279
 21
-492.7847265
 31
0.0
  0
LINE
  5
FE0
330
36
100
AcDbEntity
  8
0
  6
ByBlock
 62
     0
370
    -2
100
AcDbLine
 10
75.330279
 20
-493.454599
 30
0.0
 11
77.830279
 21
-493.454599
 31
0.0
  0
TEXT
  5
FE1
330
36
100
AcDbEntity
  8
0
  6
Continuous
 62
     4
100
AcDbText
 10
177.547613
 20
-441.0826849999999
 30
0.0
 40
3.0
  1
195
 50
90.0
100
AcDbText
  0
LINE
  5
FE2
330
36
100
AcDbEntity
  8
0
  6
ByBlock
 62
     0
370
    -2
100
AcDbLine
 10
177.5027405
 20
-391.3326850000001
 30
0.0
 11
178.172613
 21
-388.8326850000001
 31
0.0
  0
LINE
  5
FE3
330
36
100
AcDbEntity
  8
0
  6
ByBlock
 62
     0
370
    -2
100
AcDbLine
 10
178.172613
 20
-388.8326850000001
 30
0.0
 11
178.8424855
 21
-391.3326850000001
 31
0.0
  0
LINE
  5
FE4
330
36
100
AcDbEntity
  8
0
  6
ByBlock
 62
     0
370
    -2
100
AcDbLine
 10
178.172613
 20
-388.8326850000001
 30
0.0
 11
178.172613
 21
-391.3326850000001
 31
0.0
  0
LINE
  5
FE5
330
36
100
AcDbEntity
  8
0
  6
ByBlock
 62
     0
370
    -2
100
AcDbLine
 10
178.8424854999999
 20
-483.8326849999998
 30
0.0
 11
178.1726129999999
 21
-486.3326849999999
 31
0.0
  0
LINE
  5
FE6
330
36
100
AcDbEntity
  8
0
  6
ByBlock
 62
     0
370
    -2
100
AcDbLine
 10
178.1726129999999
 20
-486.3326849999999
 30
0.0
 11
177.5027404999999
 21
-483.8326849999998
 31
0.0
  0
LINE
  5
FE7
330
36
100
AcDbEntity
  8
0
  6
ByBlock
 62
     0
370
    -2
100
AcDbLine
 10
178.1726129999999
 20
-486.3326849999999
 30
0.0
 11
178.1726129999999
 21
-483.8326849999998
 31
0.0
  0
TEXT
  5
FE8
330
36
100
AcDbEntity
  8
0
  6
Continuous
 62
     4
100
AcDbText
 10
266.142529
 20
-492.3190289999999
 30
0.0
 40
3.0
  1
290
100
AcDbText
  0
LINE
  5
FE9
330
36
100
AcDbEntity
  8
0
  6
ByBlock
 62
     0
370
    -2
100
AcDbLine
 10
339.861279
 20
-492.2741564999999
 30
0.0
 11
342.361279
 21
-492.944029
 31
0.0
  0
LINE
  5
FEA
330
36
100
AcDbEntity
  8
0
  6
ByBlock
 62
     0
370
    -2
100
AcDbLine
 10
342.361279
 20
-492.944029
 30
0.0
 11
339.861279
 21
-493.6139015
 31
0.0
  0
LINE
  5
FEB
330
36
100
AcDbEntity
  8
0
  6
ByBlock
 62
     0
370
    -2
100
AcDbLine
 10
342.361279
 20
-492.944029
 30
0.0
 11
339.861279
 21
-492.944029
 31
0.0
  0
LINE
  5
FEC
330
36
100
AcDbEntity
  8
0
  6
ByBlock
 62
     0
370
    -2
100
AcDbLine
 10
199.923779
 20
-493.6139015
 30
0.0
 11
197.423779
 21
-492.944029
 31
0.0
  0
LINE
  5
FED
330
36
100
AcDbEntity
  8
0
  6
ByBlock
 62
     0
370
    -2
100
AcDbLine
 10
197.423779
 20
-492.944029
 30
0.0
 11
199.923779
 21
-492.2741564999999
 31
0.0
  0
LINE
  5
FEE
330
36
100
AcDbEntity
  8
0
  6
ByBlock
 62
     0
370
    -2
100
AcDbLine
 10
197.423779
 20
-492.944029
 30
0.0
 11
199.923779
 21
-492.944029
 31
0.0
  0
ARC
  5
FEF
330
36
100
AcDbEntity
  8
0
  6
ByBlock
 62
     0
100
AcDbCircle
 10
159.354258
 20
-424.439141
 30
0.0
 40
0.1562499999999938
100
AcDbArc
 50
68.30452654890057
 51
248.3045265489006
  0
ARC
  5
FF0
330
36
100
AcDbEntity
  8
0
  6
ByBlock
 62
     0
100
AcDbCircle
 10
159.354258
 20
-424.439141
 30
0.0
 40
0.1562499999999938
100
AcDbArc
 50
248.3045265489006
 51
68.30452654890057
  0
ENDSEC
  0
SECTION
  2
OBJECTS
  0
DICTIONARY
  5
C
330
0
100
AcDbDictionary
281
     1
  3
ACAD_2007HEADERVARS_RT
350
FF5
  3
ACAD_COLOR
350
2F
  3
ACAD_GROUP
350
D
  3
ACAD_LAYOUT
350
2E
  3
ACAD_MATERIAL
350
10
  3
ACAD_MLEADERSTYLE
350
383
  3
ACAD_MLINESTYLE
350
2B
  3
ACAD_PLOTSETTINGS
350
2D
  3
ACAD_PLOTSTYLENAME
350
E
  3
ACAD_SCALELIST
350
371
  3
ACAD_TABLESTYLE
350
30
  3
ACAD_VISUALSTYLE
350
14
  3
AcadDim
350
6CB
  3
ACDB_RECOMPOSE_DATA
350
FF3
  3
AcDbVariableDictionary
350
351
  3
AEC_PROPERTY_SET_DEFS
350
9D1
  3
DWGPROPS
350
FF4
  0
DICTIONARY
  5
42C
330
2
100
AcDbDictionary
280
     1
281
     1
  3
ACAD_LAYERSTATES
360
42D
  0
DICTIONARY
  5
600
330
25
100
AcDbDictionary
280
     1
281
     1
  3
ADSK_XREC_LAYER_RECONCILED
360
601
  0
DICTIONARY
  5
5D2
330
36
100
AcDbDictionary
280
     1
281
     1
  3
ACAD_SORTENTS
360
5D3
  0
DICTIONARY
  5
FF5
102
{ACAD_REACTORS
330
C
102
}
330
C
100
AcDbDictionary
281
     1
  3
DIMARCSYM
350
FF7
  3
DIMFXL
350
FF6
  3
DIMJOGANG
350
FF8
  3
INTERFEREVPVS
350
FF9
  0
DICTIONARY
  5
2F
102
{ACAD_REACTORS
330
C
102
}
330
C
100
AcDbDictionary
281
     1
  0
DICTIONARY
  5
D
102
{ACAD_REACTORS
330
C
102
}
330
C
100
AcDbDictionary
281
     1
  0
DICTIONARY
  5
2E
102
{ACAD_REACTORS
330
C
102
}
330
C
100
AcDbDictionary
281
     1
  3
Model
350
39
  3
レイアウト1
350
35
  0
DICTIONARY
  5
10
102
{ACAD_REACTORS
330
C
102
}
330
C
100
AcDbDictionary
281
     1
  3
ByBlock
350
12
  3
ByLayer
350
11
  3
Global
350
13
  0
DICTIONARY
  5
383
102
{ACAD_REACTORS
330
C
102
}
330
C
100
AcDbDictionary
281
     1
  3
Standard
350
384
  0
DICTIONARY
  5
2B
102
{ACAD_REACTORS
330
C
102
}
330
C
100
AcDbDictionary
281
     1
  3
Standard
350
2C
  0
DICTIONARY
  5
2D
102
{ACAD_REACTORS
330
C
102
}
330
C
100
AcDbDictionary
281
     1
  0
ACDBDICTIONARYWDFLT
  5
E
102
{ACAD_REACTORS
330
C
102
}
330
C
100
AcDbDictionary
281
     1
  3
Normal
350
F
100
AcDbDictionaryWithDefault
340
F
  0
DICTIONARY
  5
371
102
{ACAD_REACTORS
330
C
102
}
330
C
100
AcDbDictionary
281
     1
  3
A0
350
372
  3
A1
350
373
  3
A2
350
374
  3
A3
350
375
  3
A4
350
376
  3
A5
350
377
  3
A6
350
378
  3
A7
350
379
  3
A8
350
37A
  3
A9
350
37B
  3
B0
350
37C
  3
B1
350
37D
  3
B2
350
37E
  3
B3
350
37F
  3
B4
350
380
  3
B5
350
381
  3
B6
350
382
  0
DICTIONARY
  5
30
102
{ACAD_REACTORS
330
C
102
}
330
C
100
AcDbDictionary
281
     1
  3
Standard
350
31
  3
部品表
350
9C0
  0
DICTIONARY
  5
14
102
{ACAD_REACTORS
330
C
102
}
330
C
100
AcDbDictionary
281
     1
  3
2dWireframe
350
1A
  3
3D Hidden
350
1C
  3
3dWireframe
350
1B
  3
Basic
350
19
  3
Brighten
350
20
  3
ColorChange
350
24
  3
Conceptual
350
1D
  3
Dim
350
1F
  3
EdgeColorOff
350
370
  3
Facepattern
350
23
  3
Flat
350
15
  3
FlatWithEdges
350
16
  3
Gouraud
350
17
  3
GouraudWithEdges
350
18
  3
Hidden
350
368
  3
JitterOff
350
36E
  3
Linepattern
350
22
  3
OverhangOff
350
36F
  3
Realistic
350
1E
  3
Shaded
350
36D
  3
Shaded with edges
350
36C
  3
Shades of Gray
350
369
  3
Sketchy
350
36A
  3
Thicken
350
21
  3
Wireframe
350
367
  3
X-Ray
350
36B
  0
XRECORD
  5
6CB
102
{ACAD_REACTORS
330
C
102
}
330
C
100
AcDbXrecord
280
     1
 90
   990106
  3

 60
     0
 61
     0
 62
     1
 63
     3
 64
     0
 65
     0
 66
     0
 67
     3
 68
     1
 69
     0
 70
     0
 71
     0
 72
     0
 40
0.0
170
     0
340
6CE
  0
XRECORD
  5
FF3
102
{ACAD_REACTORS
330
C
102
}
330
C
100
AcDbXrecord
280
     1
 90
        1
330
31
330
9C0
  0
DICTIONARY
  5
351
102
{ACAD_REACTORS
330
C
102
}
330
C
100
AcDbDictionary
281
     1
  3
CANNOSCALE
350
603
  3
CMLEADERSTYLE
350
602
  3
CTABLESTYLE
350
352
  3
DIMASSOC
350
355
  3
INDEXCTL
350
354
  3
LOFTANG1
350
E94
  3
LOFTANG2
350
E95
  3
SORTENTS
350
353
  3
XCLIPFRAME
350
E96
  0
DICTIONARY
  5
9D1
102
{ACAD_REACTORS
330
C
102
}
330
C
100
AcDbDictionary
281
     1
  0
XRECORD
  5
FF4
102
{ACAD_REACTORS
330
C
102
}
330
C
100
AcDbXrecord
280
     1
  1
DWGPROPS COOKIE
  2

  3

  4

  6

  7

  8
kaiha
  9

300
=
301
=
302
=
303
=
304
=
305
=
306
=
307
=
308
=
309
=
 40
0.2370021527777778
 41
2455825.666333727
 42
2458541.845958194
  1

 90
        0
  0
DICTIONARY
  5
42D
102
{ACAD_REACTORS
330
42C
102
}
330
42C
100
AcDbDictionary
281
     1
  0
XRECORD
  5
601
102
{ACAD_REACTORS
330
600
102
}
330
600
100
AcDbXrecord
280
     1
290
     1
  0
SORTENTSTABLE
  5
5D3
102
{ACAD_REACTORS
330
5D2
102
}
330
5D2
100
AcDbSortentsTable
330
36
331
FB3
  5
FD7
331
DD6
  5
E27
331
87E
  5
DF6
331
928
  5
DFE
331
34E
  5
879
331
307
  5
339
331
303
  5
335
331
2CC
  5
2FA
331
28D
  5
2D3
331
33E
  5
6D2
331
2FF
  5
332
331
2C8
  5
2F6
331
256
  5
2C0
331
33A
  5
6CE
331
2FB
  5
32D
331
2C4
  5
2F2
331
285
  5
2D1
331
252
  5
2BC
331
1DC
  5
24E
331
166
  5
1B2
331
2C0
  5
2EE
331
24E
  5
2B8
331
1D8
  5
249
331
162
  5
190
331
EC
  5
154
331
AD
  5
D7
331
24A
  5
2B4
331
1D4
  5
20E
331
15E
  5
18C
331
E8
  5
150
331
A9
  5
D1
331
1D0
  5
20A
331
15A
  5
188
331
E4
  5
14C
331
FF0
  5
FDA
331
E0
  5
148
331
FEC
  5
A9
331
FE8
  5
B5
331
E07
  5
F75
331
E03
  5
F72
331
DFF
  5
F6F
331
FAF
  5
FDD
331
FAB
  5
FE1
331
DCE
  5
E21
331
FA7
  5
FE5
331
DCA
  5
E1D
331
876
  5
DF0
331
FA3
  5
FE9
331
6D6
  5
DE0
331
6D2
  5
DDD
331
AFF
  5
E16
331
AFB
  5
E15
331
AF7
  5
E14
331
336
  5
5DD
331
2F7
  5
328
331
332
  5
5D9
331
2F3
  5
324
331
2BC
  5
2EA
331
27D
  5
2CF
331
2EF
  5
320
331
2B8
  5
2E6
331
246
  5
2AC
331
207
  5
293
331
32A
  5
475
331
2EB
  5
31A
331
2B4
  5
2E2
331
275
  5
2CD
331
242
  5
2A3
331
203
  5
285
331
156
  5
184
331
2B0
  5
2DE
331
1FF
  5
273
331
1C8
  5
206
331
189
  5
1DD
331
152
  5
180
331
DC
  5
144
331
1FB
  5
265
331
1C4
  5
202
331
185
  5
1D9
331
14E
  5
17C
331
D8
  5
140
331
1C0
  5
1FE
331
181
  5
1D5
331
14A
  5
178
331
9D
  5
CD
331
FE4
  5
BE
331
D0
  5
13A
331
FE0
  5
C5
331
FDC
  5
C7
331
FD8
  5
DD1
331
E2A
  5
E06
331
F9F
  5
FED
331
FD6
  5
DD4
331
F97
  5
9A
331
FD2
  5
DD9
331
DF5
  5
F66
331
F93
  5
B8
331
DF1
  5
E93
331
5DE
  5
DCE
331
5DA
  5
C17
331
5D6
  5
B01
331
343
  5
874
331
AEF
  5
E11
331
AE7
  5
E0F
331
AE3
  5
E0D
331
326
  5
471
331
322
  5
46D
331
2AC
  5
2DA
331
46D
  5
AED
331
31E
  5
469
331
2E7
  5
316
331
469
  5
927
331
2E3
  5
312
331
2A4
  5
2D8
331
1BC
  5
1FC
331
146
  5
174
331
26D
  5
2CB
331
1F7
  5
25D
331
1B8
  5
1FA
331
142
  5
170
331
CC
  5
136
331
1F3
  5
259
331
1B4
  5
1F6
331
17D
  5
1D1
331
13E
  5
16C
331
C8
  5
131
331
1B0
  5
1F2
331
179
  5
1C9
331
13A
  5
168
331
C4
  5
F4
331
C0
  5
EA
331
E65
  5
FCA
331
E26
  5
FA8
331
E22
  5
FA4
331
E1E
  5
FA0
331
E1A
  5
F9C
331
FCE
  5
DF8
331
FCA
  5
FB9
331
F8B
  5
C0
331
FC6
  5
FBF
331
FC2
  5
FC8
331
472
  5
AF8
331
DE1
  5
E3C
331
AD3
  5
E02
331
465
  5
922
331
316
  5
462
331
2DF
  5
30E
331
461
  5
87E
331
312
  5
34E
331
2DB
  5
30A
331
29C
  5
2D6
331
30E
  5
341
331
2D7
  5
305
331
265
  5
2C9
331
1EF
  5
255
331
30A
  5
33C
331
2D3
  5
301
331
294
  5
2D4
331
175
  5
1C5
331
136
  5
164
331
25D
  5
2C7
331
171
  5
1C1
331
132
  5
160
331
BC
  5
E6
331
259
  5
2C3
331
1A4
  5
1ED
331
16D
  5
1B9
331
12E
  5
15C
331
B8
  5
E2
331
169
  5
1B5
331
12A
  5
159
331
B4
  5
DE
331
B0
  5
DA
331
E16
  5
F88
331
E12
  5
F82
331
E0A
  5
F78
331
FBE
  5
FCE
331
F7F
  5
FB7
331
FBA
  5
FD2
331
DDD
  5
E33
331
FB6
  5
FD6
331
F77
  5
FC1
331
DD9
  5
E2A
331
DD5
  5
E26
331
DD1
  5
E23
331
92B
  5
E01
331
879
  5
DF4
331
34D
  5
875
331
306
  5
338
331
2CF
  5
2FD
331
302
  5
334
331
2CB
  5
2F9
331
28C
  5
2D2
331
33D
  5
6D1
331
2FE
  5
331
331
2C7
  5
2F5
331
255
  5
2BF
331
339
  5
6CD
331
2FA
  5
32B
331
2C3
  5
2F1
331
284
  5
2D0
331
251
  5
2BB
331
1DB
  5
24D
331
165
  5
1B1
331
EF
  5
157
331
24D
  5
2B7
331
1D7
  5
248
331
161
  5
18F
331
EB
  5
153
331
AC
  5
D6
331
249
  5
2B3
331
1D3
  5
20D
331
15D
  5
18B
331
E7
  5
14F
331
A8
  5
D0
331
159
  5
187
331
E3
  5
14B
331
FEF
  5
FD9
331
FEB
  5
B1
331
E06
  5
F74
331
E02
  5
F71
331
E3D
  5
FB3
331
DFE
  5
F6E
331
DFA
  5
F6B
331
FAE
  5
FDC
331
FAA
  5
FE0
331
DCD
  5
E20
331
FA6
  5
FE4
331
DC9
  5
E1C
331
875
  5
DEB
331
FA2
  5
FE8
331
6D1
  5
DDC
331
335
  5
5DC
331
2F6
  5
327
331
2BF
  5
2ED
331
331
  5
5D8
331
2F2
  5
323
331
2BB
  5
2E9
331
27C
  5
2CE
331
32D
  5
5D4
331
2EE
  5
31F
331
2B7
  5
2E5
331
245
  5
2AB
331
206
  5
28E
331
329
  5
474
331
2EA
  5
319
331
2B3
  5
2E1
331
274
  5
2CC
331
241
  5
29C
331
202
  5
27C
331
1CB
  5
209
331
155
  5
183
331
DF
  5
147
331
1FE
  5
26C
331
1C7
  5
205
331
188
  5
1DC
331
151
  5
17F
331
DB
  5
143
331
1FA
  5
264
331
1C3
  5
201
331
184
  5
1D8
331
14D
  5
17B
331
D7
  5
13F
331
FE7
  5
BB
331
180
  5
1D4
331
149
  5
177
331
9C
  5
CC
331
FE3
  5
BD
331
FDF
  5
C4
331
FDB
  5
C6
331
E35
  5
FB0
331
E29
  5
FAB
331
F9E
  5
FEC
331
FD5
  5
DD7
331
FD1
  5
DD8
331
DF4
  5
F65
331
F92
  5
B7
331
DF0
  5
E67
331
5DD
  5
DCD
331
5D9
  5
B03
331
5D5
  5
B00
331
342
  5
873
331
AEE
  5
E07
331
AE6
  5
E0C
331
AE2
  5
E0B
331
325
  5
470
331
2AF
  5
2DD
331
321
  5
46C
331
46C
  5
AE8
331
2E6
  5
315
331
468
  5
925
331
319
  5
465
331
2E2
  5
311
331
145
  5
173
331
CF
  5
139
331
26C
  5
2CA
331
1F6
  5
25C
331
1B7
  5
1F9
331
141
  5
16F
331
CB
  5
135
331
1F2
  5
258
331
1B3
  5
1F5
331
17C
  5
1CD
331
13D
  5
16B
331
C7
  5
F7
331
178
  5
1C8
331
139
  5
167
331
C3
  5
F0
331
E25
  5
FA7
331
E21
  5
FA3
331
E93
  5
FF0
331
E1D
  5
F9F
331
FCD
  5
DFC
331
FC9
  5
FBE
331
FC5
  5
FC5
331
F86
  5
DDA
331
475
  5
AFD
331
FC1
  5
FC7
331
471
  5
AF1
331
DE0
  5
E3B
331
464
  5
91F
331
315
  5
455
331
2DE
  5
30D
331
311
  5
34D
331
2DA
  5
309
331
30D
  5
340
331
2D6
  5
304
331
264
  5
2C8
331
1EE
  5
254
331
1AF
  5
1F1
331
309
  5
33B
331
2D2
  5
300
331
174
  5
1C4
331
135
  5
163
331
BF
  5
E9
331
25C
  5
2C6
331
1E6
  5
251
331
170
  5
1BF
331
131
  5
15F
331
BB
  5
E5
331
258
  5
2C2
331
1A3
  5
1E7
331
16C
  5
1B8
331
12D
  5
15B
331
B7
  5
E1
331
168
  5
1B4
331
B3
  5
DD
331
E15
  5
F84
331
E11
  5
F7E
331
E0D
  5
F7B
331
E09
  5
F77
331
FBD
  5
FCD
331
F7E
  5
FB6
331
FB9
  5
FD1
331
DDC
  5
E30
331
FB5
  5
FD5
331
F76
  5
FC0
331
DD8
  5
E29
331
FB1
  5
FDB
331
DD4
  5
E25
331
87C
  5
DF5
331
878
  5
DF3
331
B01
  5
E1A
331
305
  5
337
331
2CE
  5
2FC
331
301
  5
333
331
2CA
  5
2F8
331
2FD
  5
330
331
2C6
  5
2F4
331
254
  5
2BE
331
1DE
  5
24F
331
338
  5
6CC
331
2F9
  5
32A
331
2C2
  5
2F0
331
250
  5
2BA
331
1DA
  5
24C
331
164
  5
1B0
331
EE
  5
156
331
AF
  5
D9
331
24C
  5
2B6
331
1D6
  5
210
331
160
  5
18E
331
EA
  5
152
331
AB
  5
D3
331
248
  5
2B0
331
209
  5
29B
331
1D2
  5
20C
331
15C
  5
18A
331
E6
  5
14E
331
158
  5
186
331
E2
  5
14A
331
FEE
  5
AB
331
FEA
  5
B0
331
E01
  5
F70
331
E3C
  5
FB2
331
DFD
  5
F6D
331
DF9
  5
F6A
331
FAD
  5
FDF
331
FA9
  5
FE3
331
DCC
  5
E1F
331
FA5
  5
FE7
331
DC8
  5
E1B
331
926
  5
DFD
331
874
  5
DEA
331
FA1
  5
FEB
331
6D4
  5
DDF
331
6D0
  5
DDB
331
334
  5
5DB
331
2F5
  5
326
331
2BE
  5
2EC
331
330
  5
5D6
331
2F1
  5
322
331
2BA
  5
2E8
331
32C
  5
5D1
331
2ED
  5
31D
331
2B6
  5
2E4
331
205
  5
28D
331
328
  5
473
331
2E9
  5
318
331
2B2
  5
2E0
331
201
  5
27B
331
1CA
  5
208
331
154
  5
182
331
DE
  5
146
331
A7
  5
CF
331
1FD
  5
26B
331
1C6
  5
204
331
187
  5
1DB
331
150
  5
17E
331
DA
  5
142
331
1F9
  5
263
331
1C2
  5
200
331
183
  5
1D7
331
14C
  5
17A
331
D6
  5
13E
331
FE6
  5
BA
331
148
  5
176
331
D2
  5
13C
331
9B
  5
CB
331
FE2
  5
BC
331
FDE
  5
C3
331
FDA
  5
C9
331
E34
  5
FAF
331
E30
  5
FAC
331
E28
  5
FAA
331
F9D
  5
FEF
331
F99
  5
9C
331
DF7
  5
F68
331
FD4
  5
DD6
331
FD0
  5
DFA
331
DF3
  5
F64
331
F91
  5
B6
331
5DC
  5
DCC
331
5D8
  5
B02
331
5D4
  5
AFF
331
341
  5
7B3
331
AED
  5
E08
331
AE5
  5
E09
331
324
  5
46F
331
2AE
  5
2DC
331
46F
  5
AEF
331
320
  5
46B
331
46B
  5
AE7
331
31C
  5
468
331
2E5
  5
314
331
1BE
  5
1FD
331
318
  5
464
331
2E1
  5
310
331
144
  5
172
331
CE
  5
138
331
1F5
  5
25B
331
1B6
  5
1F8
331
17F
  5
1D3
331
140
  5
16E
331
CA
  5
134
331
1F1
  5
257
331
1B2
  5
1F4
331
17B
  5
1CB
331
13C
  5
16A
331
C6
  5
F6
331
138
  5
166
331
C2
  5
EF
331
E67
  5
FCB
331
E24
  5
FA6
331
E20
  5
FA2
331
E1C
  5
F9E
331
FCC
  5
FBB
331
F8D
  5
C2
331
FC8
  5
FBD
331
DEB
  5
E65
331
FC4
  5
FC4
331
474
  5
AFB
331
FC0
  5
FC6
331
470
  5
AF0
331
467
  5
924
331
463
  5
880
331
314
  5
350
331
2DD
  5
30C
331
310
  5
343
331
2D9
  5
308
331
30C
  5
33F
331
2D5
  5
303
331
1ED
  5
253
331
1AE
  5
1F0
331
177
  5
1C7
331
308
  5
33A
331
2D1
  5
2FF
331
173
  5
1C3
331
134
  5
162
331
BE
  5
E8
331
25B
  5
2C5
331
16F
  5
1BD
331
130
  5
15E
331
BA
  5
E4
331
1A2
  5
1E1
331
16B
  5
1B7
331
12C
  5
15A
331
B6
  5
E0
331
B2
  5
DC
331
E14
  5
F83
331
E10
  5
F7D
331
E0C
  5
F7A
331
E08
  5
F76
331
FBC
  5
FCC
331
F7D
  5
FB5
331
DDF
  5
E35
331
FB8
  5
FD0
331
DDB
  5
E2F
331
FB4
  5
FD4
331
DD7
  5
E28
331
FB0
  5
FDE
331
DD3
  5
E24
331
87F
  5
DF7
331
929
  5
DFF
331
B00
  5
E17
331
34F
  5
87C
331
304
  5
336
331
2CD
  5
2FB
331
33F
  5
782
331
2C9
  5
2F7
331
257
  5
2C1
331
33B
  5
6D0
331
2FC
  5
32E
331
2C5
  5
2F3
331
253
  5
2BD
331
167
  5
1B3
331
2F8
  5
329
331
2C1
  5
2EF
331
24F
  5
2B9
331
1D9
  5
24A
331
163
  5
191
331
ED
  5
155
331
AE
  5
D8
331
24B
  5
2B5
331
1D5
  5
20F
331
15F
  5
18D
331
E9
  5
151
331
AA
  5
D2
331
208
  5
294
331
1D1
  5
20B
331
15B
  5
189
331
E5
  5
14D
331
E1
  5
149
331
FED
  5
AA
331
FE9
  5
AF
331
E04
  5
F73
331
E3B
  5
FB1
331
DFC
  5
F6C
331
DF8
  5
F69
331
FAC
  5
FE2
331
DCF
  5
E22
331
FA8
  5
FE6
331
DCB
  5
E1E
331
877
  5
DF1
331
FA4
  5
FEA
331
873
  5
DE1
331
FA0
  5
FEE
331
6D3
  5
DDE
331
AF0
  5
E12
331
337
  5
5DE
331
333
  5
5DA
331
2F4
  5
325
331
2BD
  5
2EB
331
32F
  5
5D5
331
2F0
  5
321
331
2B9
  5
2E7
331
247
  5
2AF
331
2EC
  5
31C
331
2B5
  5
2E3
331
243
  5
2A4
331
204
  5
286
331
157
  5
185
331
2E8
  5
317
331
2B1
  5
2DF
331
200
  5
274
331
1C9
  5
207
331
18A
  5
1DF
331
153
  5
181
331
DD
  5
145
331
A6
  5
CE
331
1FC
  5
266
331
1C5
  5
203
331
186
  5
1DA
331
14F
  5
17D
331
D9
  5
141
331
1F8
  5
25E
331
1C1
  5
1FF
331
182
  5
1D6
331
14B
  5
179
331
D5
  5
13D
331
FE5
  5
B9
331
D1
  5
13B
331
9A
  5
CA
331
FE1
  5
BF
331
FDD
  5
C8
331
FD9
  5
DD3
331
E33
  5
FAE
331
E2F
  5
FAD
331
E2B
  5
E04
331
FD7
  5
DCF
331
F98
  5
9B
331
DF6
  5
F67
331
FD3
  5
DD5
331
5DB
  5
DCB
331
340
  5
78F
331
AE8
  5
E10
331
AE4
  5
E0A
331
327
  5
472
331
323
  5
46E
331
2AD
  5
2DB
331
46E
  5
AEE
331
31F
  5
46A
331
46A
  5
928
331
31B
  5
466
331
2E4
  5
313
331
2A5
  5
2D9
331
147
  5
175
331
2E0
  5
30F
331
1B9
  5
1FB
331
143
  5
171
331
CD
  5
137
331
1F4
  5
25A
331
1B5
  5
1F7
331
17E
  5
1D2
331
13F
  5
16D
331
C9
  5
133
331
1F0
  5
256
331
1B1
  5
1F3
331
17A
  5
1CA
331
13B
  5
169
331
C5
  5
F5
331
C1
  5
ED
331
E27
  5
FA9
331
E23
  5
FA5
331
E1F
  5
FA1
331
E1B
  5
F9D
331
FCF
  5
DF9
331
FCB
  5
FBA
331
F8C
  5
C1
331
FC7
  5
FBC
331
DEA
  5
E3D
331
FC3
  5
FC3
331
473
  5
AF9
331
F80
  5
FB8
331
AD4
  5
E03
331
466
  5
923
331
317
  5
463
331
462
  5
87F
331
313
  5
34F
331
2DC
  5
30B
331
29D
  5
2D7
331
30F
  5
342
331
2D8
  5
306
331
30B
  5
33E
331
2D4
  5
302
331
295
  5
2D5
331
1EC
  5
252
331
1AD
  5
1EF
331
176
  5
1C6
331
137
  5
165
331
2D0
  5
2FE
331
172
  5
1C2
331
133
  5
161
331
BD
  5
E7
331
25A
  5
2C4
331
1A5
  5
1EE
331
16E
  5
1BA
331
12F
  5
15D
331
B9
  5
E3
331
1E0
  5
250
331
16A
  5
1B6
331
B5
  5
DF
331
F0
  5
158
331
B1
  5
DB
331
E17
  5
F89
331
E0F
  5
F7C
331
E0B
  5
F79
331
FBF
  5
FC9
331
FBB
  5
FCF
331
F7C
  5
FB4
331
DDE
  5
E34
331
FB7
  5
FD3
331
F78
  5
FC2
331
DDA
  5
E2B
  0
XRECORD
  5
FF7
102
{ACAD_REACTORS
330
FF5
102
}
330
FF5
100
AcDbXrecord
280
     1
 70
     2
  0
XRECORD
  5
FF6
102
{ACAD_REACTORS
330
FF5
102
}
330
FF5
100
AcDbXrecord
280
     1
 40
1.25
  0
XRECORD
  5
FF8
102
{ACAD_REACTORS
330
FF5
102
}
330
FF5
100
AcDbXrecord
280
     1
 40
1.570796326794896
  0
XRECORD
  5
FF9
102
{ACAD_REACTORS
330
FF5
102
}
330
FF5
100
AcDbXrecord
280
     1
340
1B
  0
LAYOUT
  5
39
102
{ACAD_XDICTIONARY
360
101D
102
}
102
{ACAD_REACTORS
330
2E
102
}
330
2E
100
AcDbPlotSettings
  1

  2
none_device
  4
Letter_(8.50_x_11.00_Inches)
  6

 40
6.349999904632567
 41
6.349999904632567
 42
6.350006103515625
 43
6.350006103515625
 44
215.8999938964844
 45
279.3999938964844
 46
0.0
 47
0.0
 48
0.0
 49
0.0
140
0.0
141
0.0
142
1.0
143
62.34217232063167
 70
 11952
 72
     0
 73
     1
 74
     0
  7

 75
     0
147
0.016040506173845
148
3389.346491075002
149
17095.7002816525
100
AcDbLayout
  1
Model
 70
     1
 71
     0
 10
0.0
 20
0.0
 11
12.0
 21
9.0
 12
0.0
 22
0.0
 32
0.0
 14
0.0
 24
0.0
 34
0.0
 15
0.0
 25
0.0
 35
0.0
146
0.0
 13
0.0
 23
0.0
 33
0.0
 16
1.0
 26
0.0
 36
0.0
 17
0.0
 27
1.0
 37
0.0
 76
     0
330
36
331
57
1001
ACAD_PSEXT
1000
なし
1000
なし
1000
適切ではありません
1000
新しいプロッタ環境設定名を選択しない限り、レイアウトは印刷されません。
1070
     0
  0
LAYOUT
  5
35
102
{ACAD_XDICTIONARY
360
101B
102
}
102
{ACAD_REACTORS
330
2E
102
}
330
2E
100
AcDbPlotSettings
  1

  2
PDF Complete
  4

  6

 40
0.0
 41
0.0
 42
0.0
 43
0.0
 44
0.0
 45
0.0
 46
0.0
 47
0.0
 48
0.0
 49
0.0
140
0.0
141
0.0
142
1.0
143
1.0
 70
   688
 72
     0
 73
     0
 74
     5
  7

 75
    16
147
1.0
148
0.0
149
0.0
100
AcDbLayout
  1
レイアウト1
 70
     1
 71
     1
 10
0.0
 20
0.0
 11
12.0
 21
9.0
 12
0.0
 22
0.0
 32
0.0
 14
1.000000000000000E+20
 24
1.000000000000000E+20
 34
1.000000000000000E+20
 15
-1.000000000000000E+20
 25
-1.000000000000000E+20
 35
-1.000000000000000E+20
146
0.0
 13
0.0
 23
0.0
 33
0.0
 16
1.0
 26
0.0
 36
0.0
 17
0.0
 27
1.0
 37
0.0
 76
     0
330
32
  0
MATERIAL
  5
12
102
{ACAD_XDICTIONARY
360
359
102
}
102
{ACAD_REACTORS
330
10
102
}
330
10
100
AcDbMaterial
  1
ByBlock
  0
MATERIAL
  5
11
102
{ACAD_XDICTIONARY
360
357
102
}
102
{ACAD_REACTORS
330
10
102
}
330
10
100
AcDbMaterial
  1
ByLayer
  0
MATERIAL
  5
13
102
{ACAD_XDICTIONARY
360
35B
102
}
102
{ACAD_REACTORS
330
10
102
}
330
10
100
AcDbMaterial
  1
Global
  0
MLEADERSTYLE
  5
384
102
{ACAD_REACTORS
330
383
102
}
330
383
100
AcDbMLeaderStyle
170
     2
171
     1
172
     0
 90
        2
 40
0.0
 41
0.0
173
     1
 91
-1056964608
340
28
 92
       -2
290
     1
 42
0.09
291
     1
 43
0.36
  3
Standard
 44
0.18
300

342
26
174
     1
178
     6
175
     1
176
     0
 93
-1056964608
 45
0.18
292
     0
297
     0
 46
0.18
 94
-1056964608
 47
1.0
 49
1.0
140
1.0
293
     1
141
0.0
294
     1
177
     0
142
1.0
295
     0
296
     0
143
0.125
1001
ACAD_MLEADERVER
1070
     2
  0
MLINESTYLE
  5
2C
102
{ACAD_REACTORS
330
2B
102
}
330
2B
100
AcDbMlineStyle
  2
STANDARD
 70
     0
  3

 62
   256
 51
90.0
 52
90.0
 71
     2
 49
0.5
 62
   256
  6
BYLAYER
 49
-0.5
 62
   256
  6
BYLAYER
  0
ACDBPLACEHOLDER
  5
F
102
{ACAD_REACTORS
330
E
102
}
330
E
  0
SCALE
  5
372
102
{ACAD_REACTORS
330
371
102
}
330
371
100
AcDbScale
 70
     0
300
1:1
140
1.0
141
1.0
290
     1
  0
SCALE
  5
373
102
{ACAD_REACTORS
330
371
102
}
330
371
100
AcDbScale
 70
     0
300
1/128" = 1'-0"
140
0.0078125
141
12.0
290
     0
  0
SCALE
  5
374
102
{ACAD_REACTORS
330
371
102
}
330
371
100
AcDbScale
 70
     0
300
1/64" = 1'-0"
140
0.015625
141
12.0
290
     0
  0
SCALE
  5
375
102
{ACAD_REACTORS
330
371
102
}
330
371
100
AcDbScale
 70
     0
300
1/32" = 1'-0"
140
0.03125
141
12.0
290
     0
  0
SCALE
  5
376
102
{ACAD_REACTORS
330
371
102
}
330
371
100
AcDbScale
 70
     0
300
1/16" = 1'-0"
140
0.0625
141
12.0
290
     0
  0
SCALE
  5
377
102
{ACAD_REACTORS
330
371
102
}
330
371
100
AcDbScale
 70
     0
300
3/32" = 1'-0"
140
0.09375
141
12.0
290
     0
  0
SCALE
  5
378
102
{ACAD_REACTORS
330
371
102
}
330
371
100
AcDbScale
 70
     0
300
1/8" = 1'-0"
140
0.125
141
12.0
290
     0
  0
SCALE
  5
379
102
{ACAD_REACTORS
330
371
102
}
330
371
100
AcDbScale
 70
     0
300
3/16" = 1'-0"
140
0.1875
141
12.0
290
     0
  0
SCALE
  5
37A
102
{ACAD_REACTORS
330
371
102
}
330
371
100
AcDbScale
 70
     0
300
1/4" = 1'-0"
140
0.25
141
12.0
290
     0
  0
SCALE
  5
37B
102
{ACAD_REACTORS
330
371
102
}
330
371
100
AcDbScale
 70
     0
300
3/8" = 1'-0"
140
0.375
141
12.0
290
     0
  0
SCALE
  5
37C
102
{ACAD_REACTORS
330
371
102
}
330
371
100
AcDbScale
 70
     0
300
1/2" = 1'-0"
140
0.5
141
12.0
290
     0
  0
SCALE
  5
37D
102
{ACAD_REACTORS
330
371
102
}
330
371
100
AcDbScale
 70
     0
300
3/4" = 1'-0"
140
0.75
141
12.0
290
     0
  0
SCALE
  5
37E
102
{ACAD_REACTORS
330
371
102
}
330
371
100
AcDbScale
 70
     0
300
1" = 1'-0"
140
1.0
141
12.0
290
     0
  0
SCALE
  5
37F
102
{ACAD_REACTORS
330
371
102
}
330
371
100
AcDbScale
 70
     0
300
1-1/2" = 1'-0"
140
1.5
141
12.0
290
     0
  0
SCALE
  5
380
102
{ACAD_REACTORS
330
371
102
}
330
371
100
AcDbScale
 70
     0
300
3" = 1'-0"
140
3.0
141
12.0
290
     0
  0
SCALE
  5
381
102
{ACAD_REACTORS
330
371
102
}
330
371
100
AcDbScale
 70
     0
300
6" = 1'-0"
140
6.0
141
12.0
290
     0
  0
SCALE
  5
382
102
{ACAD_REACTORS
330
371
102
}
330
371
100
AcDbScale
 70
     0
300
1'-0" = 1'-0"
140
12.0
141
12.0
290
     0
  0
TABLESTYLE
  5
31
102
{ACAD_XDICTIONARY
360
605
102
}
102
{ACAD_REACTORS
330
30
102
}
330
30
100
AcDbTableStyle
  3
Standard
 70
     0
 71
     0
 40
0.06
 41
0.06
280
     0
281
     0
  7
STANDARD
140
0.18
170
     2
 62
     0
 63
     7
283
     0
274
    -2
284
     1
 64
     0
275
    -2
285
     1
 65
     0
276
    -2
286
     1
 66
     0
277
    -2
287
     1
 67
     0
278
    -2
288
     1
 68
     0
279
    -2
289
     1
 69
     0
  7
STANDARD
140
0.25
170
     5
 62
     0
 63
     7
283
     0
274
    -2
284
     1
 64
     0
275
    -2
285
     1
 65
     0
276
    -2
286
     1
 66
     0
277
    -2
287
     1
 67
     0
278
    -2
288
     1
 68
     0
279
    -2
289
     1
 69
     0
  7
STANDARD
140
0.18
170
     5
 62
     0
 63
     7
283
     0
274
    -2
284
     1
 64
     0
275
    -2
285
     1
 65
     0
276
    -2
286
     1
 66
     0
277
    -2
287
     1
 67
     0
278
    -2
288
     1
 68
     0
279
    -2
289
     1
 69
     0
  0
TABLESTYLE
  5
9C0
102
{ACAD_XDICTIONARY
360
9C1
102
}
102
{ACAD_REACTORS
330
30
102
}
330
30
100
AcDbTableStyle
  3
Standard
 70
     1
 71
     0
 40
1.5
 41
0.5
280
     0
281
     0
  7
高3.2
140
0.18
170
     7
 62
     3
 63
     7
283
     0
274
    -2
284
     1
 64
     3
275
    -2
285
     1
 65
     7
276
    -2
286
     1
 66
     3
277
    -2
287
     1
 67
     3
278
    -2
288
     1
 68
     7
279
    -2
289
     1
 69
     3
  7
高3.2
140
0.25
170
     8
 62
     3
 63
     7
283
     0
274
    -2
284
     1
 64
     0
275
    -2
285
     1
 65
     0
276
    -2
286
     1
 66
     0
277
    -2
287
     1
 67
     0
278
    -2
288
     1
 68
     0
279
    -2
289
     1
 69
     0
  7
高3.2
140
0.18
170
     7
 62
     3
 63
     7
283
     0
274
    -2
284
     1
 64
     3
275
    -2
285
     1
 65
     7
276
    -2
286
     1
 66
     3
277
    -2
287
     1
 67
     3
278
    -2
288
     1
 68
     7
279
    -2
289
     1
 69
     3
  0
VISUALSTYLE
  5
1A
102
{ACAD_XDICTIONARY
360
1004
102
}
102
{ACAD_REACTORS
330
14
102
}
330
14
100
AcDbVisualStyle
  2

 70
     4
 71
     0
 72
     2
 73
     0
 90
        0
 40
-0.6
 41
-30.0
 62
     5
 63
     7
 74
     1
 91
        4
 64
     7
 65
   257
 75
     1
175
     1
 42
1.0
 92
        0
 66
   257
 43
1.0
 76
     1
 77
     6
 78
     2
 67
     7
 79
     5
170
     0
171
     0
290
     0
174
     0
 93
        1
 44
0.0
173
     0
291
     0
 45
0.0
1001
ACAD
1000
AcDbSavedByObjectVersion
1070
     0
  0
VISUALSTYLE
  5
1C
102
{ACAD_XDICTIONARY
360
1008
102
}
102
{ACAD_REACTORS
330
14
102
}
330
14
100
AcDbVisualStyle
  2

 70
     6
 71
     1
 72
     2
 73
     2
 90
        0
 40
-0.6
 41
-30.0
 62
     5
 63
     7
 74
     2
 91
        2
 64
     7
 65
   257
 75
     2
175
     1
 42
40.0
 92
        0
 66
   257
 43
1.0
 76
     1
 77
     6
 78
     2
 67
     7
 79
     3
170
     0
171
     0
290
     0
174
     0
 93
        1
 44
0.0
173
     0
291
     0
 45
0.0
1001
ACAD
1000
AcDbSavedByObjectVersion
1070
     0
  0
VISUALSTYLE
  5
1B
102
{ACAD_XDICTIONARY
360
1006
102
}
102
{ACAD_REACTORS
330
14
102
}
330
14
100
AcDbVisualStyle
  2

 70
     5
 71
     0
 72
     2
 73
     0
 90
        0
 40
-0.6
 41
-30.0
 62
     5
 63
     7
 74
     1
 91
        4
 64
     7
 65
   257
 75
     1
175
     1
 42
1.0
 92
        0
 66
   257
 43
1.0
 76
     1
 77
     6
 78
     2
 67
     7
 79
     5
170
     0
171
     0
290
     0
174
     0
 93
        1
 44
0.0
173
     0
291
     0
 45
0.0
1001
ACAD
1000
AcDbSavedByObjectVersion
1070
     0
  0
VISUALSTYLE
  5
19
102
{ACAD_XDICTIONARY
360
1002
102
}
102
{ACAD_REACTORS
330
14
102
}
330
14
100
AcDbVisualStyle
  2

 70
     7
 71
     1
 72
     0
 73
     1
 90
        0
 40
-0.6
 41
-30.0
 62
     5
 63
     7
 74
     0
 91
        4
 64
     7
 65
   257
 75
     1
175
     1
 42
1.0
 92
        8
 66
     7
 43
1.0
 76
     1
 77
     6
 78
     2
 67
     7
 79
     5
170
     0
171
     0
290
     0
174
     0
 93
        1
 44
0.0
173
     0
291
     1
 45
0.0
1001
ACAD
1000
AcDbSavedByObjectVersion
1070
     0
  0
VISUALSTYLE
  5
20
102
{ACAD_XDICTIONARY
360
1010
102
}
102
{ACAD_REACTORS
330
14
102
}
330
14
100
AcDbVisualStyle
  2

 70
    12
 71
     2
 72
     2
 73
     0
 90
        0
 40
-0.6
 41
-30.0
 62
     5
 63
     7
 74
     1
 91
        4
 64
     7
 65
   257
 75
     1
175
     1
 42
1.0
 92
        8
 66
     7
 43
1.0
 76
     1
 77
     6
 78
     2
 67
     7
 79
     5
170
     0
171
     0
290
     0
174
     0
 93
        1
 44
50.0
173
     0
291
     1
 45
0.0
1001
ACAD
1000
AcDbSavedByObjectVersion
1070
     0
  0
VISUALSTYLE
  5
24
102
{ACAD_XDICTIONARY
360
1018
102
}
102
{ACAD_REACTORS
330
14
102
}
330
14
100
AcDbVisualStyle
  2

 70
    16
 71
     2
 72
     2
 73
     3
 90
        0
 40
-0.6
 41
-30.0
 62
     5
 63
     8
 74
     1
 91
        4
 64
     7
 65
   257
 75
     1
175
     1
 42
1.0
 92
        8
 66
     8
 43
1.0
 76
     1
 77
     6
 78
     2
 67
     7
 79
     5
170
     0
171
     0
290
     0
174
     0
 93
        1
 44
0.0
173
     0
291
     1
 45
0.0
1001
ACAD
1000
AcDbSavedByObjectVersion
1070
     0
  0
VISUALSTYLE
  5
1D
102
{ACAD_XDICTIONARY
360
100A
102
}
102
{ACAD_REACTORS
330
14
102
}
330
14
100
AcDbVisualStyle
  2

 70
     9
 71
     3
 72
     2
 73
     0
 90
        0
 40
-0.6
 41
-30.0
 62
     5
 63
     7
 74
     2
 91
        2
 64
     7
 65
   257
 75
     1
175
     1
 42
40.0
 92
        8
 66
     7
 43
1.0
 76
     1
 77
     6
 78
     2
 67
     7
 79
     3
170
     0
171
     0
290
     0
174
     0
 93
        1
 44
0.0
173
     0
291
     0
 45
0.0
1001
ACAD
1000
AcDbSavedByObjectVersion
1070
     0
  0
VISUALSTYLE
  5
1F
102
{ACAD_XDICTIONARY
360
100E
102
}
102
{ACAD_REACTORS
330
14
102
}
330
14
100
AcDbVisualStyle
  2

 70
    11
 71
     2
 72
     2
 73
     0
 90
        0
 40
-0.6
 41
-30.0
 62
     5
 63
     7
 74
     1
 91
        4
 64
     7
 65
   257
 75
     1
175
     1
 42
1.0
 92
        8
 66
     7
 43
1.0
 76
     1
 77
     6
 78
     2
 67
     7
 79
     5
170
     0
171
     0
290
     0
174
     0
 93
        1
 44
-50.0
173
     0
291
     1
 45
0.0
1001
ACAD
1000
AcDbSavedByObjectVersion
1070
     0
  0
VISUALSTYLE
  5
370
102
{ACAD_XDICTIONARY
360
1031
102
}
102
{ACAD_REACTORS
330
14
102
}
330
14
100
AcDbVisualStyle
  2

 70
    22
 71
     2
 72
     2
 73
     0
 90
        0
 40
-0.6
 41
-30.0
 62
     5
 63
     7
 74
     1
 91
        4
 64
     7
 65
   257
 75
     1
175
     1
 42
1.0
 92
        8
 66
     7
 43
1.0
 76
     1
 77
     6
 78
     2
 67
     7
 79
     5
170
     0
171
     0
290
     0
174
     0
 93
        1
 44
0.0
173
     0
291
     1
 45
0.0
1001
ACAD
1000
AcDbSavedByObjectVersion
1070
     0
  0
VISUALSTYLE
  5
23
102
{ACAD_XDICTIONARY
360
1016
102
}
102
{ACAD_REACTORS
330
14
102
}
330
14
100
AcDbVisualStyle
  2

 70
    15
 71
     2
 72
     2
 73
     0
 90
        0
 40
-0.6
 41
-30.0
 62
     5
 63
     7
 74
     1
 91
        4
 64
     7
 65
   257
 75
     1
175
     1
 42
1.0
 92
        8
 66
     7
 43
1.0
 76
     1
 77
     6
 78
     2
 67
     7
 79
     5
170
     0
171
     0
290
     0
174
     0
 93
        1
 44
0.0
173
     0
291
     1
 45
0.0
1001
ACAD
1000
AcDbSavedByObjectVersion
1070
     0
  0
VISUALSTYLE
  5
15
102
{ACAD_XDICTIONARY
360
FFA
102
}
102
{ACAD_REACTORS
330
14
102
}
330
14
100
AcDbVisualStyle
  2

 70
     0
 71
     2
 72
     1
 73
     1
 90
        2
 40
-0.6
 41
30.0
 62
     5
 63
     7
 74
     0
 91
        4
 64
     7
 65
   257
 75
     1
175
     1
 42
1.0
 92
        8
 66
     7
 43
1.0
 76
     1
 77
     6
 78
     2
 67
     7
 79
     5
170
     0
171
     0
290
     0
174
     0
 93
       13
 44
0.0
173
     0
291
     1
 45
0.0
1001
ACAD
1000
AcDbSavedByObjectVersion
1070
     0
  0
VISUALSTYLE
  5
16
102
{ACAD_XDICTIONARY
360
FFC
102
}
102
{ACAD_REACTORS
330
14
102
}
330
14
100
AcDbVisualStyle
  2

 70
     1
 71
     2
 72
     1
 73
     1
 90
        2
 40
-0.6
 41
30.0
 62
     5
 63
     7
 74
     1
 91
        4
 64
     7
 65
   257
 75
     1
175
     1
 42
1.0
 92
        0
 66
   257
 43
1.0
 76
     1
 77
     6
 78
     2
 67
     7
 79
     5
170
     0
171
     0
290
     0
174
     0
 93
       13
 44
0.0
173
     0
291
     1
 45
0.0
1001
ACAD
1000
AcDbSavedByObjectVersion
1070
     0
  0
VISUALSTYLE
  5
17
102
{ACAD_XDICTIONARY
360
FFE
102
}
102
{ACAD_REACTORS
330
14
102
}
330
14
100
AcDbVisualStyle
  2

 70
     2
 71
     2
 72
     2
 73
     1
 90
        2
 40
-0.6
 41
30.0
 62
     5
 63
     7
 74
     0
 91
        4
 64
     7
 65
   257
 75
     1
175
     1
 42
1.0
 92
        0
 66
     7
 43
1.0
 76
     1
 77
     6
 78
     2
 67
     7
 79
     5
170
     0
171
     0
290
     0
174
     0
 93
       13
 44
0.0
173
     0
291
     1
 45
0.0
1001
ACAD
1000
AcDbSavedByObjectVersion
1070
     0
  0
VISUALSTYLE
  5
18
102
{ACAD_XDICTIONARY
360
1000
102
}
102
{ACAD_REACTORS
330
14
102
}
330
14
100
AcDbVisualStyle
  2

 70
     3
 71
     2
 72
     2
 73
     1
 90
        2
 40
-0.6
 41
30.0
 62
     5
 63
     7
 74
     1
 91
        4
 64
     7
 65
   257
 75
     1
175
     1
 42
1.0
 92
        0
 66
   257
 43
1.0
 76
     1
 77
     6
 78
     2
 67
     7
 79
     5
170
     0
171
     0
290
     0
174
     0
 93
       13
 44
0.0
173
     0
291
     1
 45
0.0
1001
ACAD
1000
AcDbSavedByObjectVersion
1070
     0
  0
VISUALSTYLE
  5
368
102
{ACAD_XDICTIONARY
360
1021
102
}
102
{ACAD_REACTORS
330
14
102
}
330
14
100
AcDbVisualStyle
  2

 70
     6
 71
     1
 72
     2
 73
     2
 90
        0
 40
-0.6
 41
-30.0
 62
     5
 63
     7
 74
     2
 91
        2
 64
     7
 65
   257
 75
     2
175
     1
 42
40.0
 92
        0
 66
   257
 43
1.0
 76
     1
 77
     6
 78
     2
 67
     7
 79
     3
170
     0
171
     0
290
     0
174
     0
 93
        1
 44
0.0
173
     0
291
     0
 45
0.0
1001
ACAD
1000
AcDbSavedByObjectVersion
1070
     0
  0
VISUALSTYLE
  5
36E
102
{ACAD_XDICTIONARY
360
102D
102
}
102
{ACAD_REACTORS
330
14
102
}
330
14
100
AcDbVisualStyle
  2

 70
    20
 71
     2
 72
     2
 73
     0
 90
        0
 40
-0.6
 41
-30.0
 62
     5
 63
     7
 74
     1
 91
        4
 64
     7
 65
   257
 75
     1
175
     1
 42
1.0
 92
       10
 66
     7
 43
1.0
 76
     1
 77
     6
 78
     2
 67
     7
 79
     5
170
     0
171
     0
290
     0
174
     0
 93
        1
 44
0.0
173
     0
291
     1
 45
0.0
1001
ACAD
1000
AcDbSavedByObjectVersion
1070
     0
  0
VISUALSTYLE
  5
22
102
{ACAD_XDICTIONARY
360
1014
102
}
102
{ACAD_REACTORS
330
14
102
}
330
14
100
AcDbVisualStyle
  2

 70
    14
 71
     2
 72
     2
 73
     0
 90
        0
 40
-0.6
 41
-30.0
 62
     5
 63
     7
 74
     1
 91
        4
 64
     7
 65
   257
 75
     7
175
     7
 42
1.0
 92
        8
 66
     7
 43
1.0
 76
     1
 77
     6
 78
     2
 67
     7
 79
     5
170
     0
171
     0
290
     0
174
     0
 93
        1
 44
0.0
173
     0
291
     1
 45
0.0
1001
ACAD
1000
AcDbSavedByObjectVersion
1070
     0
  0
VISUALSTYLE
  5
36F
102
{ACAD_XDICTIONARY
360
102F
102
}
102
{ACAD_REACTORS
330
14
102
}
330
14
100
AcDbVisualStyle
  2

 70
    21
 71
     2
 72
     2
 73
     0
 90
        0
 40
-0.6
 41
-30.0
 62
     5
 63
     7
 74
     1
 91
        4
 64
     7
 65
   257
 75
     1
175
     1
 42
1.0
 92
        9
 66
     7
 43
1.0
 76
     1
 77
     6
 78
     2
 67
     7
 79
     5
170
     0
171
     0
290
     0
174
     0
 93
        1
 44
0.0
173
     0
291
     1
 45
0.0
1001
ACAD
1000
AcDbSavedByObjectVersion
1070
     0
  0
VISUALSTYLE
  5
1E
102
{ACAD_XDICTIONARY
360
100C
102
}
102
{ACAD_REACTORS
330
14
102
}
330
14
100
AcDbVisualStyle
  2

 70
     8
 71
     2
 72
     2
 73
     0
 90
        0
 40
-0.6
 41
-30.0
 62
     5
 63
     7
 74
     1
 91
        0
 64
     7
 65
   257
 75
     1
175
     1
 42
1.0
 92
        8
 66
     8
 43
1.0
 76
     1
 77
     6
 78
     2
 67
     7
 79
     5
170
     0
171
     0
290
     0
174
     0
 93
       13
 44
0.0
173
     0
291
     0
 45
0.0
1001
ACAD
1000
AcDbSavedByObjectVersion
1070
     0
  0
VISUALSTYLE
  5
36D
102
{ACAD_XDICTIONARY
360
102B
102
}
102
{ACAD_REACTORS
330
14
102
}
330
14
100
AcDbVisualStyle
  2

 70
    27
 71
     2
 72
     2
 73
     1
 90
        2
 40
-0.6
 41
30.0
 62
     5
 63
     7
 74
     0
 91
        4
 64
     7
 65
   257
 75
     1
175
     1
 42
1.0
 92
        8
 66
   257
 43
1.0
 76
     1
 77
     6
 78
     2
 67
     8
 79
     3
170
     0
171
     0
290
     0
174
     0
 93
        5
 44
0.0
173
     0
291
     0
 45
0.0
1001
ACAD
1000
AcDbSavedByObjectVersion
1070
     0
  0
VISUALSTYLE
  5
36C
102
{ACAD_XDICTIONARY
360
1029
102
}
102
{ACAD_REACTORS
330
14
102
}
330
14
100
AcDbVisualStyle
  2

 70
    26
 71
     2
 72
     2
 73
     1
 90
        2
 40
-0.6
 41
30.0
 62
     5
 63
     7
 74
     1
 91
       10
 64
     7
 65
   257
 75
     2
175
     1
 42
1.0
 92
        8
 66
   257
 43
1.0
 76
     1
 77
     6
 78
     2
 67
     7
 79
     3
170
     0
171
     0
290
     0
174
     0
 93
        5
 44
0.0
173
     0
291
     0
 45
0.0
1001
ACAD
1000
AcDbSavedByObjectVersion
1070
     0
  0
VISUALSTYLE
  5
369
102
{ACAD_XDICTIONARY
360
1023
102
}
102
{ACAD_REACTORS
330
14
102
}
330
14
100
AcDbVisualStyle
  2

 70
    23
 71
     2
 72
     2
 73
     3
 90
        0
 40
-0.6
 41
-30.0
 62
     5
 63
     7
 74
     2
 91
        2
 64
     7
 65
     7
 75
     1
175
     1
 42
40.0
 92
        8
 66
     7
 43
1.0
 76
     1
 77
     6
 78
     2
 67
     7
 79
     3
170
     0
171
     0
290
     0
174
     0
 93
        1
 44
0.0
173
     0
291
     0
 45
0.0
1001
ACAD
1000
AcDbSavedByObjectVersion
1070
     0
  0
VISUALSTYLE
  5
36A
102
{ACAD_XDICTIONARY
360
1025
102
}
102
{ACAD_REACTORS
330
14
102
}
330
14
100
AcDbVisualStyle
  2

 70
    24
 71
     1
 72
     2
 73
     2
 90
        0
 40
-0.6
 41
-30.0
 62
     5
 63
     7
 74
     2
 91
        2
 64
     7
 65
     7
 75
     1
175
     1
 42
40.0
 92
       11
 66
     7
 43
1.0
 76
     1
 77
     6
 78
     2
 67
     7
 79
     6
170
     0
171
     0
290
     0
174
     0
 93
        1
 44
0.0
173
     0
291
     0
 45
0.0
1001
ACAD
1000
AcDbSavedByObjectVersion
1070
     0
  0
VISUALSTYLE
  5
21
102
{ACAD_XDICTIONARY
360
1012
102
}
102
{ACAD_REACTORS
330
14
102
}
330
14
100
AcDbVisualStyle
  2

 70
    13
 71
     2
 72
     2
 73
     0
 90
        0
 40
-0.6
 41
-30.0
 62
     5
 63
     7
 74
     1
 91
        4
 64
     7
 65
   257
 75
     1
175
     1
 42
1.0
 92
       12
 66
     7
 43
1.0
 76
     1
 77
     6
 78
     2
 67
     7
 79
     5
170
     0
171
     0
290
     0
174
     0
 93
        1
 44
0.0
173
     0
291
     1
 45
0.0
1001
ACAD
1000
AcDbSavedByObjectVersion
1070
     0
  0
VISUALSTYLE
  5
367
102
{ACAD_XDICTIONARY
360
101F
102
}
102
{ACAD_REACTORS
330
14
102
}
330
14
100
AcDbVisualStyle
  2

 70
     5
 71
     0
 72
     2
 73
     0
 90
        0
 40
-0.6
 41
-30.0
 62
     5
 63
     7
 74
     1
 91
        4
 64
     7
 65
   257
 75
     1
175
     1
 42
1.0
 92
        0
 66
   257
 43
1.0
 76
     1
 77
     6
 78
     2
 67
     7
 79
     3
170
     0
171
     0
290
     0
174
     0
 93
        1
 44
0.0
173
     0
291
     0
 45
0.0
1001
ACAD
1000
AcDbSavedByObjectVersion
1070
     0
  0
VISUALSTYLE
  5
36B
102
{ACAD_XDICTIONARY
360
1027
102
}
102
{ACAD_REACTORS
330
14
102
}
330
14
100
AcDbVisualStyle
  2

 70
    25
 71
     2
 72
     2
 73
     1
 90
        1
 40
0.5
 41
-30.0
 62
     5
 63
     7
 74
     1
 91
        0
 64
     7
 65
   257
 75
     1
175
     1
 42
1.0
 92
        8
 66
     7
 43
1.0
 76
     1
 77
     6
 78
     2
 67
     7
 79
     3
170
     0
171
     0
290
     0
174
     0
 93
       13
 44
0.0
173
     0
291
     0
 45
0.0
1001
ACAD
1000
AcDbSavedByObjectVersion
1070
     0
  0
DICTIONARYVAR
  5
603
102
{ACAD_REACTORS
330
351
102
}
330
351
100
DictionaryVariables
280
     0
  1
1:1
  0
DICTIONARYVAR
  5
602
102
{ACAD_REACTORS
330
351
102
}
330
351
100
DictionaryVariables
280
     0
  1
STANDARD
  0
DICTIONARYVAR
  5
352
102
{ACAD_REACTORS
330
351
102
}
330
351
100
DictionaryVariables
280
     0
  1
STANDARD
  0
DICTIONARYVAR
  5
355
102
{ACAD_REACTORS
330
351
102
}
330
351
100
DictionaryVariables
280
     0
  1
1
  0
DICTIONARYVAR
  5
354
102
{ACAD_REACTORS
330
351
102
}
330
351
100
DictionaryVariables
280
     0
  1
0
  0
DICTIONARYVAR
  5
E94
102
{ACAD_REACTORS
330
351
102
}
330
351
100
DictionaryVariables
280
     0
  1
1.570796
  0
DICTIONARYVAR
  5
E95
102
{ACAD_REACTORS
330
351
102
}
330
351
100
DictionaryVariables
280
     0
  1
1.570796
  0
DICTIONARYVAR
  5
353
102
{ACAD_REACTORS
330
351
102
}
330
351
100
DictionaryVariables
280
     0
  1
127
  0
DICTIONARYVAR
  5
E96
102
{ACAD_REACTORS
330
351
102
}
330
351
100
DictionaryVariables
280
     0
  1
2
  0
DICTIONARY
  5
101D
330
39
100
AcDbDictionary
280
     1
281
     1
  3
ACAD_XREC_ROUNDTRIP
360
101E
  0
DICTIONARY
  5
101B
330
35
100
AcDbDictionary
280
     1
281
     1
  3
ACAD_XREC_ROUNDTRIP
360
101C
  0
DICTIONARY
  5
359
330
12
100
AcDbDictionary
280
     1
281
     1
  3
ACAD_XREC_ROUNDTRIP
360
35A
  0
DICTIONARY
  5
357
330
11
100
AcDbDictionary
280
     1
281
     1
  3
ACAD_XREC_ROUNDTRIP
360
358
  0
DICTIONARY
  5
35B
330
13
100
AcDbDictionary
280
     1
281
     1
  3
ACAD_XREC_ROUNDTRIP
360
35C
  0
DICTIONARY
  5
605
330
31
100
AcDbDictionary
280
     1
281
     1
  3
ACAD_ROUNDTRIP_2008_TABLESTYLE_CELLSTYLEMAP
360
FF1
  3
ACAD_XREC_ROUNDTRIP
360
101A
  0
DICTIONARY
  5
9C1
330
9C0
100
AcDbDictionary
280
     1
281
     1
  3
ACAD_ROUNDTRIP_2008_TABLESTYLE_CELLSTYLEMAP
360
FF2
  3
ACAD_XREC_ROUNDTRIP
360
1033
  0
DICTIONARY
  5
1004
330
1A
100
AcDbDictionary
280
     1
281
     1
  3
ACAD_XREC_ROUNDTRIP
360
1005
  0
DICTIONARY
  5
1008
330
1C
100
AcDbDictionary
280
     1
281
     1
  3
ACAD_XREC_ROUNDTRIP
360
1009
  0
DICTIONARY
  5
1006
330
1B
100
AcDbDictionary
280
     1
281
     1
  3
ACAD_XREC_ROUNDTRIP
360
1007
  0
DICTIONARY
  5
1002
330
19
100
AcDbDictionary
280
     1
281
     1
  3
ACAD_XREC_ROUNDTRIP
360
1003
  0
DICTIONARY
  5
1010
330
20
100
AcDbDictionary
280
     1
281
     1
  3
ACAD_XREC_ROUNDTRIP
360
1011
  0
DICTIONARY
  5
1018
330
24
100
AcDbDictionary
280
     1
281
     1
  3
ACAD_XREC_ROUNDTRIP
360
1019
  0
DICTIONARY
  5
100A
330
1D
100
AcDbDictionary
280
     1
281
     1
  3
ACAD_XREC_ROUNDTRIP
360
100B
  0
DICTIONARY
  5
100E
330
1F
100
AcDbDictionary
280
     1
281
     1
  3
ACAD_XREC_ROUNDTRIP
360
100F
  0
DICTIONARY
  5
1031
330
370
100
AcDbDictionary
280
     1
281
     1
  3
ACAD_XREC_ROUNDTRIP
360
1032
  0
DICTIONARY
  5
1016
330
23
100
AcDbDictionary
280
     1
281
     1
  3
ACAD_XREC_ROUNDTRIP
360
1017
  0
DICTIONARY
  5
FFA
330
15
100
AcDbDictionary
280
     1
281
     1
  3
ACAD_XREC_ROUNDTRIP
360
FFB
  0
DICTIONARY
  5
FFC
330
16
100
AcDbDictionary
280
     1
281
     1
  3
ACAD_XREC_ROUNDTRIP
360
FFD
  0
DICTIONARY
  5
FFE
330
17
100
AcDbDictionary
280
     1
281
     1
  3
ACAD_XREC_ROUNDTRIP
360
FFF
  0
DICTIONARY
  5
1000
330
18
100
AcDbDictionary
280
     1
281
     1
  3
ACAD_XREC_ROUNDTRIP
360
1001
  0
DICTIONARY
  5
1021
330
368
100
AcDbDictionary
280
     1
281
     1
  3
ACAD_XREC_ROUNDTRIP
360
1022
  0
DICTIONARY
  5
102D
330
36E
100
AcDbDictionary
280
     1
281
     1
  3
ACAD_XREC_ROUNDTRIP
360
102E
  0
DICTIONARY
  5
1014
330
22
100
AcDbDictionary
280
     1
281
     1
  3
ACAD_XREC_ROUNDTRIP
360
1015
  0
DICTIONARY
  5
102F
330
36F
100
AcDbDictionary
280
     1
281
     1
  3
ACAD_XREC_ROUNDTRIP
360
1030
  0
DICTIONARY
  5
100C
330
1E
100
AcDbDictionary
280
     1
281
     1
  3
ACAD_XREC_ROUNDTRIP
360
100D
  0
DICTIONARY
  5
102B
330
36D
100
AcDbDictionary
280
     1
281
     1
  3
ACAD_XREC_ROUNDTRIP
360
102C
  0
DICTIONARY
  5
1029
330
36C
100
AcDbDictionary
280
     1
281
     1
  3
ACAD_XREC_ROUNDTRIP
360
102A
  0
DICTIONARY
  5
1023
330
369
100
AcDbDictionary
280
     1
281
     1
  3
ACAD_XREC_ROUNDTRIP
360
1024
  0
DICTIONARY
  5
1025
330
36A
100
AcDbDictionary
280
     1
281
     1
  3
ACAD_XREC_ROUNDTRIP
360
1026
  0
DICTIONARY
  5
1012
330
21
100
AcDbDictionary
280
     1
281
     1
  3
ACAD_XREC_ROUNDTRIP
360
1013
  0
DICTIONARY
  5
101F
330
367
100
AcDbDictionary
280
     1
281
     1
  3
ACAD_XREC_ROUNDTRIP
360
1020
  0
DICTIONARY
  5
1027
330
36B
100
AcDbDictionary
280
     1
281
     1
  3
ACAD_XREC_ROUNDTRIP
360
1028
  0
XRECORD
  5
101E
102
{ACAD_REACTORS
330
101D
102
}
330
101D
100
AcDbXrecord
280
     1
102
SHADEPLOT
 70
     0
102
SHADEPLOTRESLEVEL
 70
     2
102
SHADEPLOTCUSTOMDPI
 70
   300
  0
XRECORD
  5
101C
102
{ACAD_REACTORS
330
101B
102
}
330
101B
100
AcDbXrecord
280
     1
102
SHADEPLOT
 70
     0
102
SHADEPLOTRESLEVEL
 70
     2
102
SHADEPLOTCUSTOMDPI
 70
   300
  0
XRECORD
  5
35A
102
{ACAD_REACTORS
330
359
102
}
330
359
100
AcDbXrecord
280
     1
102
MATERIAL
148
0.0
149
0.0
149
0.0
 93
        0
 94
      127
282
     0
 72
     1
 77
     1
171
     1
175
     1
179
     1
273
     0
  0
XRECORD
  5
358
102
{ACAD_REACTORS
330
357
102
}
330
357
100
AcDbXrecord
280
     1
102
MATERIAL
148
0.0
149
0.0
149
0.0
 93
        0
 94
      127
282
     0
 72
     1
 77
     1
171
     1
175
     1
179
     1
273
     0
  0
XRECORD
  5
35C
102
{ACAD_REACTORS
330
35B
102
}
330
35B
100
AcDbXrecord
280
     1
102
MATERIAL
148
0.0
149
0.0
149
0.0
 93
        0
 94
      127
282
     0
 72
     1
 77
     1
171
     1
175
     1
179
     1
273
     0
  0
CELLSTYLEMAP
  5
FF1
102
{ACAD_REACTORS
330
605
102
}
330
605
100
AcDbCellStyleMap
 90
        3
300
CELLSTYLE
  1
TABLEFORMAT_BEGIN
 90
        5
170
     1
 91
        0
 92
    32768
 62
   257
 93
        1
300
CONTENTFORMAT
  1
CONTENTFORMAT_BEGIN
 90
        0
 91
        0
 92
      512
 93
        0
300

 40
0.0
140
1.0
 94
        5
 62
     0
340
26
144
0.25
309
CONTENTFORMAT_END
171
     1
301
MARGIN
  1
CELLMARGIN_BEGIN
 40
0.06
 40
0.06
 40
0.06
 40
0.06
 40
0.18
 40
0.18
309
CELLMARGIN_END
 94
        6
 95
        1
302
GRIDFORMAT
  1
GRIDFORMAT_BEGIN
 90
        0
 91
        1
 62
     0
 92
       -2
340
0
 93
        0
 40
0.045
309
GRIDFORMAT_END
 95
        2
302
GRIDFORMAT
  1
GRIDFORMAT_BEGIN
 90
        0
 91
        1
 62
     0
 92
       -2
340
0
 93
        0
 40
0.045
309
GRIDFORMAT_END
 95
        4
302
GRIDFORMAT
  1
GRIDFORMAT_BEGIN
 90
        0
 91
        1
 62
     0
 92
       -2
340
0
 93
        0
 40
0.045
309
GRIDFORMAT_END
 95
        8
302
GRIDFORMAT
  1
GRIDFORMAT_BEGIN
 90
        0
 91
        1
 62
     0
 92
       -2
340
0
 93
        0
 40
0.045
309
GRIDFORMAT_END
 95
       16
302
GRIDFORMAT
  1
GRIDFORMAT_BEGIN
 90
        0
 91
        1
 62
     0
 92
       -2
340
0
 93
        0
 40
0.045
309
GRIDFORMAT_END
 95
       32
302
GRIDFORMAT
  1
GRIDFORMAT_BEGIN
 90
        0
 91
        1
 62
     0
 92
       -2
340
0
 93
        0
 40
0.045
309
GRIDFORMAT_END
309
TABLEFORMAT_END
  1
CELLSTYLE_BEGIN
 90
        1
 91
        1
300
_TITLE
309
CELLSTYLE_END
300
CELLSTYLE
  1
TABLEFORMAT_BEGIN
 90
        5
170
     1
 91
        0
 92
        0
 62
   257
 93
        1
300
CONTENTFORMAT
  1
CONTENTFORMAT_BEGIN
 90
        0
 91
        0
 92
      512
 93
        0
300

 40
0.0
140
1.0
 94
        5
 62
     0
340
26
144
0.18
309
CONTENTFORMAT_END
171
     1
301
MARGIN
  1
CELLMARGIN_BEGIN
 40
0.06
 40
0.06
 40
0.06
 40
0.06
 40
0.18
 40
0.18
309
CELLMARGIN_END
 94
        6
 95
        1
302
GRIDFORMAT
  1
GRIDFORMAT_BEGIN
 90
        0
 91
        1
 62
     0
 92
       -2
340
0
 93
        0
 40
0.045
309
GRIDFORMAT_END
 95
        2
302
GRIDFORMAT
  1
GRIDFORMAT_BEGIN
 90
        0
 91
        1
 62
     0
 92
       -2
340
0
 93
        0
 40
0.045
309
GRIDFORMAT_END
 95
        4
302
GRIDFORMAT
  1
GRIDFORMAT_BEGIN
 90
        0
 91
        1
 62
     0
 92
       -2
340
0
 93
        0
 40
0.045
309
GRIDFORMAT_END
 95
        8
302
GRIDFORMAT
  1
GRIDFORMAT_BEGIN
 90
        0
 91
        1
 62
     0
 92
       -2
340
0
 93
        0
 40
0.045
309
GRIDFORMAT_END
 95
       16
302
GRIDFORMAT
  1
GRIDFORMAT_BEGIN
 90
        0
 91
        1
 62
     0
 92
       -2
340
0
 93
        0
 40
0.045
309
GRIDFORMAT_END
 95
       32
302
GRIDFORMAT
  1
GRIDFORMAT_BEGIN
 90
        0
 91
        1
 62
     0
 92
       -2
340
0
 93
        0
 40
0.045
309
GRIDFORMAT_END
309
TABLEFORMAT_END
  1
CELLSTYLE_BEGIN
 90
        2
 91
        1
300
_HEADER
309
CELLSTYLE_END
300
CELLSTYLE
  1
TABLEFORMAT_BEGIN
 90
        5
170
     1
 91
        0
 92
        0
 62
   257
 93
        1
300
CONTENTFORMAT
  1
CONTENTFORMAT_BEGIN
 90
        0
 91
        0
 92
      512
 93
        0
300

 40
0.0
140
1.0
 94
        2
 62
     0
340
26
144
0.18
309
CONTENTFORMAT_END
171
     1
301
MARGIN
  1
CELLMARGIN_BEGIN
 40
0.06
 40
0.06
 40
0.06
 40
0.06
 40
0.18
 40
0.18
309
CELLMARGIN_END
 94
        6
 95
        1
302
GRIDFORMAT
  1
GRIDFORMAT_BEGIN
 90
        0
 91
        1
 62
     0
 92
       -2
340
0
 93
        0
 40
0.045
309
GRIDFORMAT_END
 95
        2
302
GRIDFORMAT
  1
GRIDFORMAT_BEGIN
 90
        0
 91
        1
 62
     0
 92
       -2
340
0
 93
        0
 40
0.045
309
GRIDFORMAT_END
 95
        4
302
GRIDFORMAT
  1
GRIDFORMAT_BEGIN
 90
        0
 91
        1
 62
     0
 92
       -2
340
0
 93
        0
 40
0.045
309
GRIDFORMAT_END
 95
        8
302
GRIDFORMAT
  1
GRIDFORMAT_BEGIN
 90
        0
 91
        1
 62
     0
 92
       -2
340
0
 93
        0
 40
0.045
309
GRIDFORMAT_END
 95
       16
302
GRIDFORMAT
  1
GRIDFORMAT_BEGIN
 90
        0
 91
        1
 62
     0
 92
       -2
340
0
 93
        0
 40
0.045
309
GRIDFORMAT_END
 95
       32
302
GRIDFORMAT
  1
GRIDFORMAT_BEGIN
 90
        0
 91
        1
 62
     0
 92
       -2
340
0
 93
        0
 40
0.045
309
GRIDFORMAT_END
309
TABLEFORMAT_END
  1
CELLSTYLE_BEGIN
 90
        3
 91
        2
300
_DATA
309
CELLSTYLE_END
  0
XRECORD
  5
101A
102
{ACAD_REACTORS
330
605
102
}
330
605
100
AcDbXrecord
280
     1
102
ACAD_ROUNDTRIP_PRE2007_TABLESTYLE
 90
      512
 91
        0
  1

 92
      512
 93
        0
  2

 94
      512
 95
        0
  3

  0
CELLSTYLEMAP
  5
FF2
102
{ACAD_REACTORS
330
9C1
102
}
330
9C1
100
AcDbCellStyleMap
 90
        3
300
CELLSTYLE
  1
TABLEFORMAT_BEGIN
 90
        5
170
     1
 91
        0
 92
    32768
 62
   257
 93
        1
300
CONTENTFORMAT
  1
CONTENTFORMAT_BEGIN
 90
        0
 91
        0
 92
      512
 93
        0
300

 40
0.0
140
1.0
 94
        8
 62
     3
340
417
144
0.25
309
CONTENTFORMAT_END
171
     1
301
MARGIN
  1
CELLMARGIN_BEGIN
 40
0.5
 40
10.0
 40
0.06
 40
0.06
 40
0.18
 40
0.18
309
CELLMARGIN_END
 94
        6
 95
        1
302
GRIDFORMAT
  1
GRIDFORMAT_BEGIN
 90
        0
 91
        1
 62
     0
 92
       -2
340
0
 93
        0
 40
0.045
309
GRIDFORMAT_END
 95
        2
302
GRIDFORMAT
  1
GRIDFORMAT_BEGIN
 90
        0
 91
        1
 62
     0
 92
       -2
340
0
 93
        0
 40
0.045
309
GRIDFORMAT_END
 95
        4
302
GRIDFORMAT
  1
GRIDFORMAT_BEGIN
 90
        0
 91
        1
 62
     0
 92
       -2
340
0
 93
        0
 40
0.045
309
GRIDFORMAT_END
 95
        8
302
GRIDFORMAT
  1
GRIDFORMAT_BEGIN
 90
        0
 91
        1
 62
     0
 92
       -2
340
0
 93
        0
 40
0.045
309
GRIDFORMAT_END
 95
       16
302
GRIDFORMAT
  1
GRIDFORMAT_BEGIN
 90
        0
 91
        1
 62
     0
 92
       -2
340
0
 93
        0
 40
0.045
309
GRIDFORMAT_END
 95
       32
302
GRIDFORMAT
  1
GRIDFORMAT_BEGIN
 90
        0
 91
        1
 62
     0
 92
       -2
340
0
 93
        0
 40
0.045
309
GRIDFORMAT_END
309
TABLEFORMAT_END
  1
CELLSTYLE_BEGIN
 90
        1
 91
        1
300
_TITLE
309
CELLSTYLE_END
300
CELLSTYLE
  1
TABLEFORMAT_BEGIN
 90
        5
170
     1
 91
        0
 92
        0
 62
   257
 93
        1
300
CONTENTFORMAT
  1
CONTENTFORMAT_BEGIN
 90
        0
 91
        0
 92
      512
 93
        0
300

 40
0.0
140
1.0
 94
        7
 62
     3
340
417
144
0.18
309
CONTENTFORMAT_END
171
     1
301
MARGIN
  1
CELLMARGIN_BEGIN
 40
0.5
 40
1.5
 40
0.06
 40
0.06
 40
0.18
 40
0.18
309
CELLMARGIN_END
 94
        6
 95
        1
302
GRIDFORMAT
  1
GRIDFORMAT_BEGIN
 90
        0
 91
        1
 62
     3
 92
       -2
340
28
 93
        0
 40
0.045
309
GRIDFORMAT_END
 95
        2
302
GRIDFORMAT
  1
GRIDFORMAT_BEGIN
 90
        0
 91
        1
 62
     7
 92
       -2
340
28
 93
        0
 40
0.045
309
GRIDFORMAT_END
 95
        4
302
GRIDFORMAT
  1
GRIDFORMAT_BEGIN
 90
        0
 91
        1
 62
     3
 92
       -2
340
28
 93
        0
 40
0.045
309
GRIDFORMAT_END
 95
        8
302
GRIDFORMAT
  1
GRIDFORMAT_BEGIN
 90
        0
 91
        1
 62
     3
 92
       -2
340
28
 93
        0
 40
0.045
309
GRIDFORMAT_END
 95
       16
302
GRIDFORMAT
  1
GRIDFORMAT_BEGIN
 90
        0
 91
        1
 62
     7
 92
       -2
340
28
 93
        0
 40
0.045
309
GRIDFORMAT_END
 95
       32
302
GRIDFORMAT
  1
GRIDFORMAT_BEGIN
 90
        0
 91
        1
 62
     3
 92
       -2
340
28
 93
        0
 40
0.045
309
GRIDFORMAT_END
309
TABLEFORMAT_END
  1
CELLSTYLE_BEGIN
 90
        2
 91
        1
300
_HEADER
309
CELLSTYLE_END
300
CELLSTYLE
  1
TABLEFORMAT_BEGIN
 90
        5
170
     1
 91
        0
 92
        0
 62
   257
 93
        1
300
CONTENTFORMAT
  1
CONTENTFORMAT_BEGIN
 90
        0
 91
        0
 92
      512
 93
        0
300

 40
0.0
140
1.0
 94
        7
 62
     3
340
417
144
0.18
309
CONTENTFORMAT_END
171
     1
301
MARGIN
  1
CELLMARGIN_BEGIN
 40
0.5
 40
1.5
 40
0.06
 40
0.06
 40
0.18
 40
0.18
309
CELLMARGIN_END
 94
        6
 95
        1
302
GRIDFORMAT
  1
GRIDFORMAT_BEGIN
 90
        0
 91
        1
 62
     3
 92
       -2
340
28
 93
        0
 40
0.045
309
GRIDFORMAT_END
 95
        2
302
GRIDFORMAT
  1
GRIDFORMAT_BEGIN
 90
        0
 91
        1
 62
     7
 92
       -2
340
28
 93
        0
 40
0.045
309
GRIDFORMAT_END
 95
        4
302
GRIDFORMAT
  1
GRIDFORMAT_BEGIN
 90
        0
 91
        1
 62
     3
 92
       -2
340
28
 93
        0
 40
0.045
309
GRIDFORMAT_END
 95
        8
302
GRIDFORMAT
  1
GRIDFORMAT_BEGIN
 90
        0
 91
        1
 62
     3
 92
       -2
340
28
 93
        0
 40
0.045
309
GRIDFORMAT_END
 95
       16
302
GRIDFORMAT
  1
GRIDFORMAT_BEGIN
 90
        0
 91
        1
 62
     7
 92
       -2
340
28
 93
        0
 40
0.045
309
GRIDFORMAT_END
 95
       32
302
GRIDFORMAT
  1
GRIDFORMAT_BEGIN
 90
        0
 91
        1
 62
     3
 92
       -2
340
28
 93
        0
 40
0.045
309
GRIDFORMAT_END
309
TABLEFORMAT_END
  1
CELLSTYLE_BEGIN
 90
        3
 91
        2
300
_DATA
309
CELLSTYLE_END
  0
XRECORD
  5
1033
102
{ACAD_REACTORS
330
9C1
102
}
330
9C1
100
AcDbXrecord
280
     1
102
ACAD_ROUNDTRIP_PRE2007_TABLESTYLE
 90
      512
 91
        0
  1

 92
      512
 93
        0
  2

 94
      512
 95
        0
  3

  0
XRECORD
  5
1005
102
{ACAD_REACTORS
330
1004
102
}
330
1004
100
AcDbXrecord
280
     1
102
RTVSPropertyOp0
 70
     1
102
RTVSPropertyOp1
 70
     1
102
RTVSPropertyOp2
 70
     1
102
RTVSPropertyOp3
 70
     1
102
RTVSPropertyOp4
 70
     1
102
RTVSPropertyOp5
 70
     1
102
RTVSPropertyOp6
 70
     1
102
RTVSPropertyOp7
 70
     1
102
RTVSPropertyOp8
 70
     1
102
RTVSPropertyOp9
 70
     1
102
RTVSPropertyOp10
 70
     1
102
RTVSPropertyOp11
 70
     1
102
RTVSPropertyOp12
 70
     1
102
RTVSPropertyOp13
 70
     1
102
RTVSPropertyOp14
 70
     1
102
RTVSPropertyOp15
 70
     1
102
RTVSPropertyOp16
 70
     1
102
RTVSPropertyOp17
 70
     1
102
RTVSPropertyOp18
 70
     1
102
RTVSPropertyOp19
 70
     1
102
RTVSPropertyOp20
 70
     1
102
RTVSPropertyOp21
 70
     1
102
RTVSPropertyOp22
 70
     1
102
RTVSPropertyOp23
 70
     1
102
RTVSPropertyOp24
 70
     1
102
RTVSPropertyOp25
 70
     1
102
RTVSPropertyOp26
 70
     1
102
RTVSPropertyOp27
 70
     1
102
RTVSPropertyOp28
 70
     1
102
RTVSPropertyOp29
 70
     1
102
RTVSPropertyOp30
 70
     1
102
RTVSPropertyOp31
 70
     1
102
RTVSPropertyOp32
 70
     1
  0
XRECORD
  5
1009
102
{ACAD_REACTORS
330
1008
102
}
330
1008
100
AcDbXrecord
280
     1
102
RTVSPropertyOp0
 70
     1
102
RTVSPropertyOp1
 70
     1
102
RTVSPropertyOp2
 70
     1
102
RTVSPropertyOp3
 70
     1
102
RTVSPropertyOp4
 70
     1
102
RTVSPropertyOp5
 70
     1
102
RTVSPropertyOp6
 70
     1
102
RTVSPropertyOp7
 70
     1
102
RTVSPropertyOp8
 70
     1
102
RTVSPropertyOp9
 70
     1
102
RTVSPropertyOp10
 70
     1
102
RTVSPropertyOp11
 70
     1
102
RTVSPropertyOp12
 70
     1
102
RTVSPropertyOp13
 70
     1
102
RTVSPropertyOp14
 70
     1
102
RTVSPropertyOp15
 70
     1
102
RTVSPropertyOp16
 70
     1
102
RTVSPropertyOp17
 70
     1
102
RTVSPropertyOp18
 70
     1
102
RTVSPropertyOp19
 70
     1
102
RTVSPropertyOp20
 70
     1
102
RTVSPropertyOp21
 70
     1
102
RTVSPropertyOp22
 70
     1
102
RTVSPropertyOp23
 70
     1
102
RTVSPropertyOp24
 70
     1
102
RTVSPropertyOp25
 70
     1
102
RTVSPropertyOp26
 70
     1
102
RTVSPropertyOp27
 70
     1
102
RTVSPropertyOp28
 70
     1
102
RTVSPropertyOp29
 70
     1
102
RTVSPropertyOp30
 70
     1
102
RTVSPropertyOp31
 70
     1
102
RTVSPropertyOp32
 70
     1
  0
XRECORD
  5
1007
102
{ACAD_REACTORS
330
1006
102
}
330
1006
100
AcDbXrecord
280
     1
102
RTVSPropertyOp0
 70
     1
102
RTVSPropertyOp1
 70
     1
102
RTVSPropertyOp2
 70
     1
102
RTVSPropertyOp3
 70
     1
102
RTVSPropertyOp4
 70
     1
102
RTVSPropertyOp5
 70
     1
102
RTVSPropertyOp6
 70
     1
102
RTVSPropertyOp7
 70
     1
102
RTVSPropertyOp8
 70
     1
102
RTVSPropertyOp9
 70
     1
102
RTVSPropertyOp10
 70
     1
102
RTVSPropertyOp11
 70
     1
102
RTVSPropertyOp12
 70
     1
102
RTVSPropertyOp13
 70
     1
102
RTVSPropertyOp14
 70
     1
102
RTVSPropertyOp15
 70
     1
102
RTVSPropertyOp16
 70
     1
102
RTVSPropertyOp17
 70
     1
102
RTVSPropertyOp18
 70
     1
102
RTVSPropertyOp19
 70
     1
102
RTVSPropertyOp20
 70
     1
102
RTVSPropertyOp21
 70
     1
102
RTVSPropertyOp22
 70
     1
102
RTVSPropertyOp23
 70
     1
102
RTVSPropertyOp24
 70
     1
102
RTVSPropertyOp25
 70
     1
102
RTVSPropertyOp26
 70
     1
102
RTVSPropertyOp27
 70
     1
102
RTVSPropertyOp28
 70
     1
102
RTVSPropertyOp29
 70
     1
102
RTVSPropertyOp30
 70
     1
102
RTVSPropertyOp31
 70
     1
102
RTVSPropertyOp32
 70
     1
  0
XRECORD
  5
1003
102
{ACAD_REACTORS
330
1002
102
}
330
1002
100
AcDbXrecord
280
     1
102
RTVSPropertyOp0
 70
     1
102
RTVSPropertyOp1
 70
     1
102
RTVSPropertyOp2
 70
     1
102
RTVSPropertyOp3
 70
     1
102
RTVSPropertyOp4
 70
     1
102
RTVSPropertyOp5
 70
     1
102
RTVSPropertyOp6
 70
     1
102
RTVSPropertyOp7
 70
     1
102
RTVSPropertyOp8
 70
     1
102
RTVSPropertyOp9
 70
     1
102
RTVSPropertyOp10
 70
     1
102
RTVSPropertyOp11
 70
     1
102
RTVSPropertyOp12
 70
     1
102
RTVSPropertyOp13
 70
     1
102
RTVSPropertyOp14
 70
     1
102
RTVSPropertyOp15
 70
     1
102
RTVSPropertyOp16
 70
     1
102
RTVSPropertyOp17
 70
     1
102
RTVSPropertyOp18
 70
     1
102
RTVSPropertyOp19
 70
     1
102
RTVSPropertyOp20
 70
     1
102
RTVSPropertyOp21
 70
     1
102
RTVSPropertyOp22
 70
     1
102
RTVSPropertyOp23
 70
     1
102
RTVSPropertyOp24
 70
     1
102
RTVSPropertyOp25
 70
     1
102
RTVSPropertyOp26
 70
     1
102
RTVSPropertyOp27
 70
     1
102
RTVSPropertyOp28
 70
     1
102
RTVSPropertyOp29
 70
     1
102
RTVSPropertyOp30
 70
     1
102
RTVSPropertyOp31
 70
     1
102
RTVSPropertyOp32
 70
     1
  0
XRECORD
  5
1011
102
{ACAD_REACTORS
330
1010
102
}
330
1010
100
AcDbXrecord
280
     1
102
RTVSPropertyOp0
 70
     1
102
RTVSPropertyOp1
 70
     1
102
RTVSPropertyOp2
 70
     1
102
RTVSPropertyOp3
 70
     1
102
RTVSPropertyOp4
 70
     1
102
RTVSPropertyOp5
 70
     1
102
RTVSPropertyOp6
 70
     1
102
RTVSPropertyOp7
 70
     1
102
RTVSPropertyOp8
 70
     1
102
RTVSPropertyOp9
 70
     1
102
RTVSPropertyOp10
 70
     1
102
RTVSPropertyOp11
 70
     1
102
RTVSPropertyOp12
 70
     1
102
RTVSPropertyOp13
 70
     1
102
RTVSPropertyOp14
 70
     1
102
RTVSPropertyOp15
 70
     1
102
RTVSPropertyOp16
 70
     1
102
RTVSPropertyOp17
 70
     1
102
RTVSPropertyOp18
 70
     1
102
RTVSPropertyOp19
 70
     1
102
RTVSPropertyOp20
 70
     1
102
RTVSPropertyOp21
 70
     1
102
RTVSPropertyOp22
 70
     1
102
RTVSPropertyOp23
 70
     1
102
RTVSPropertyOp24
 70
     1
102
RTVSPropertyOp25
 70
     1
102
RTVSPropertyOp26
 70
     1
102
RTVSPropertyOp27
 70
     1
102
RTVSPropertyOp28
 70
     1
102
RTVSPropertyOp29
 70
     1
102
RTVSPropertyOp30
 70
     1
102
RTVSPropertyOp31
 70
     1
102
RTVSPropertyOp32
 70
     1
  0
XRECORD
  5
1019
102
{ACAD_REACTORS
330
1018
102
}
330
1018
100
AcDbXrecord
280
     1
102
RTVSPropertyOp0
 70
     1
102
RTVSPropertyOp1
 70
     1
102
RTVSPropertyOp2
 70
     1
102
RTVSPropertyOp3
 70
     1
102
RTVSPropertyOp4
 70
     1
102
RTVSPropertyOp5
 70
     1
102
RTVSPropertyOp6
 70
     1
102
RTVSPropertyOp7
 70
     1
102
RTVSPropertyOp8
 70
     1
102
RTVSPropertyOp9
 70
     1
102
RTVSPropertyOp10
 70
     1
102
RTVSPropertyOp11
 70
     1
102
RTVSPropertyOp12
 70
     1
102
RTVSPropertyOp13
 70
     1
102
RTVSPropertyOp14
 70
     1
102
RTVSPropertyOp15
 70
     1
102
RTVSPropertyOp16
 70
     1
102
RTVSPropertyOp17
 70
     1
102
RTVSPropertyOp18
 70
     1
102
RTVSPropertyOp19
 70
     1
102
RTVSPropertyOp20
 70
     1
102
RTVSPropertyOp21
 70
     1
102
RTVSPropertyOp22
 70
     1
102
RTVSPropertyOp23
 70
     1
102
RTVSPropertyOp24
 70
     1
102
RTVSPropertyOp25
 70
     1
102
RTVSPropertyOp26
 70
     1
102
RTVSPropertyOp27
 70
     1
102
RTVSPropertyOp28
 70
     1
102
RTVSPropertyOp29
 70
     1
102
RTVSPropertyOp30
 70
     1
102
RTVSPropertyOp31
 70
     1
102
RTVSPropertyOp32
 70
     1
  0
XRECORD
  5
100B
102
{ACAD_REACTORS
330
100A
102
}
330
100A
100
AcDbXrecord
280
     1
102
RTVSPropertyOp0
 70
     1
102
RTVSPropertyOp1
 70
     1
102
RTVSPropertyOp2
 70
     1
102
RTVSPropertyOp3
 70
     1
102
RTVSPropertyOp4
 70
     1
102
RTVSPropertyOp5
 70
     1
102
RTVSPropertyOp6
 70
     1
102
RTVSPropertyOp7
 70
     1
102
RTVSPropertyOp8
 70
     1
102
RTVSPropertyOp9
 70
     1
102
RTVSPropertyOp10
 70
     1
102
RTVSPropertyOp11
 70
     1
102
RTVSPropertyOp12
 70
     1
102
RTVSPropertyOp13
 70
     1
102
RTVSPropertyOp14
 70
     1
102
RTVSPropertyOp15
 70
     1
102
RTVSPropertyOp16
 70
     1
102
RTVSPropertyOp17
 70
     1
102
RTVSPropertyOp18
 70
     1
102
RTVSPropertyOp19
 70
     1
102
RTVSPropertyOp20
 70
     1
102
RTVSPropertyOp21
 70
     1
102
RTVSPropertyOp22
 70
     1
102
RTVSPropertyOp23
 70
     1
102
RTVSPropertyOp24
 70
     1
102
RTVSPropertyOp25
 70
     1
102
RTVSPropertyOp26
 70
     1
102
RTVSPropertyOp27
 70
     1
102
RTVSPropertyOp28
 70
     1
102
RTVSPropertyOp29
 70
     1
102
RTVSPropertyOp30
 70
     1
102
RTVSPropertyOp31
 70
     1
102
RTVSPropertyOp32
 70
     1
  0
XRECORD
  5
100F
102
{ACAD_REACTORS
330
100E
102
}
330
100E
100
AcDbXrecord
280
     1
102
RTVSPropertyOp0
 70
     1
102
RTVSPropertyOp1
 70
     1
102
RTVSPropertyOp2
 70
     1
102
RTVSPropertyOp3
 70
     1
102
RTVSPropertyOp4
 70
     1
102
RTVSPropertyOp5
 70
     1
102
RTVSPropertyOp6
 70
     1
102
RTVSPropertyOp7
 70
     1
102
RTVSPropertyOp8
 70
     1
102
RTVSPropertyOp9
 70
     1
102
RTVSPropertyOp10
 70
     1
102
RTVSPropertyOp11
 70
     1
102
RTVSPropertyOp12
 70
     1
102
RTVSPropertyOp13
 70
     1
102
RTVSPropertyOp14
 70
     1
102
RTVSPropertyOp15
 70
     1
102
RTVSPropertyOp16
 70
     1
102
RTVSPropertyOp17
 70
     1
102
RTVSPropertyOp18
 70
     1
102
RTVSPropertyOp19
 70
     1
102
RTVSPropertyOp20
 70
     1
102
RTVSPropertyOp21
 70
     1
102
RTVSPropertyOp22
 70
     1
102
RTVSPropertyOp23
 70
     1
102
RTVSPropertyOp24
 70
     1
102
RTVSPropertyOp25
 70
     1
102
RTVSPropertyOp26
 70
     1
102
RTVSPropertyOp27
 70
     1
102
RTVSPropertyOp28
 70
     1
102
RTVSPropertyOp29
 70
     1
102
RTVSPropertyOp30
 70
     1
102
RTVSPropertyOp31
 70
     1
102
RTVSPropertyOp32
 70
     1
  0
XRECORD
  5
1032
102
{ACAD_REACTORS
330
1031
102
}
330
1031
100
AcDbXrecord
280
     1
102
RTVSPropertyOp0
 70
     0
102
RTVSPropertyOp1
 70
     0
102
RTVSPropertyOp2
 70
     0
102
RTVSPropertyOp3
 70
     0
102
RTVSPropertyOp4
 70
     0
102
RTVSPropertyOp5
 70
     0
102
RTVSPropertyOp6
 70
     0
102
RTVSPropertyOp7
 70
     0
102
RTVSPropertyOp8
 70
     0
102
RTVSPropertyOp9
 70
     0
102
RTVSPropertyOp10
 70
     0
102
RTVSPropertyOp11
 70
     0
102
RTVSPropertyOp12
 70
     0
102
RTVSPropertyOp13
 70
     0
102
RTVSPropertyOp14
 70
     2
102
RTVSPropertyOp15
 70
     0
102
RTVSPropertyOp16
 70
     0
102
RTVSPropertyOp17
 70
     0
102
RTVSPropertyOp18
 70
     0
102
RTVSPropertyOp19
 70
     0
102
RTVSPropertyOp20
 70
     0
102
RTVSPropertyOp21
 70
     0
102
RTVSPropertyOp22
 70
     0
102
RTVSPropertyOp23
 70
     0
102
RTVSPropertyOp24
 70
     0
102
RTVSPropertyOp25
 70
     0
102
RTVSPropertyOp26
 70
     0
102
RTVSPropertyOp27
 70
     0
102
RTVSPropertyOp28
 70
     0
102
RTVSPropertyOp29
 70
     0
102
RTVSPropertyOp30
 70
     0
102
RTVSPropertyOp31
 70
     0
102
RTVSPropertyOp32
 70
     0
  0
XRECORD
  5
1017
102
{ACAD_REACTORS
330
1016
102
}
330
1016
100
AcDbXrecord
280
     1
102
RTVSPropertyOp0
 70
     1
102
RTVSPropertyOp1
 70
     1
102
RTVSPropertyOp2
 70
     1
102
RTVSPropertyOp3
 70
     1
102
RTVSPropertyOp4
 70
     1
102
RTVSPropertyOp5
 70
     1
102
RTVSPropertyOp6
 70
     1
102
RTVSPropertyOp7
 70
     1
102
RTVSPropertyOp8
 70
     1
102
RTVSPropertyOp9
 70
     1
102
RTVSPropertyOp10
 70
     1
102
RTVSPropertyOp11
 70
     1
102
RTVSPropertyOp12
 70
     1
102
RTVSPropertyOp13
 70
     1
102
RTVSPropertyOp14
 70
     1
102
RTVSPropertyOp15
 70
     1
102
RTVSPropertyOp16
 70
     1
102
RTVSPropertyOp17
 70
     1
102
RTVSPropertyOp18
 70
     1
102
RTVSPropertyOp19
 70
     1
102
RTVSPropertyOp20
 70
     1
102
RTVSPropertyOp21
 70
     1
102
RTVSPropertyOp22
 70
     1
102
RTVSPropertyOp23
 70
     1
102
RTVSPropertyOp24
 70
     1
102
RTVSPropertyOp25
 70
     1
102
RTVSPropertyOp26
 70
     1
102
RTVSPropertyOp27
 70
     1
102
RTVSPropertyOp28
 70
     1
102
RTVSPropertyOp29
 70
     1
102
RTVSPropertyOp30
 70
     1
102
RTVSPropertyOp31
 70
     1
102
RTVSPropertyOp32
 70
     1
  0
XRECORD
  5
FFB
102
{ACAD_REACTORS
330
FFA
102
}
330
FFA
100
AcDbXrecord
280
     1
102
RTVSPropertyOp0
 70
     1
102
RTVSPropertyOp1
 70
     1
102
RTVSPropertyOp2
 70
     1
102
RTVSPropertyOp3
 70
     1
102
RTVSPropertyOp4
 70
     1
102
RTVSPropertyOp5
 70
     1
102
RTVSPropertyOp6
 70
     1
102
RTVSPropertyOp7
 70
     1
102
RTVSPropertyOp8
 70
     1
102
RTVSPropertyOp9
 70
     1
102
RTVSPropertyOp10
 70
     1
102
RTVSPropertyOp11
 70
     1
102
RTVSPropertyOp12
 70
     1
102
RTVSPropertyOp13
 70
     1
102
RTVSPropertyOp14
 70
     1
102
RTVSPropertyOp15
 70
     1
102
RTVSPropertyOp16
 70
     1
102
RTVSPropertyOp17
 70
     1
102
RTVSPropertyOp18
 70
     1
102
RTVSPropertyOp19
 70
     1
102
RTVSPropertyOp20
 70
     1
102
RTVSPropertyOp21
 70
     1
102
RTVSPropertyOp22
 70
     1
102
RTVSPropertyOp23
 70
     1
102
RTVSPropertyOp24
 70
     1
102
RTVSPropertyOp25
 70
     1
102
RTVSPropertyOp26
 70
     1
102
RTVSPropertyOp27
 70
     1
102
RTVSPropertyOp28
 70
     1
102
RTVSPropertyOp29
 70
     1
102
RTVSPropertyOp30
 70
     1
102
RTVSPropertyOp31
 70
     1
102
RTVSPropertyOp32
 70
     1
  0
XRECORD
  5
FFD
102
{ACAD_REACTORS
330
FFC
102
}
330
FFC
100
AcDbXrecord
280
     1
102
RTVSPropertyOp0
 70
     1
102
RTVSPropertyOp1
 70
     1
102
RTVSPropertyOp2
 70
     1
102
RTVSPropertyOp3
 70
     1
102
RTVSPropertyOp4
 70
     1
102
RTVSPropertyOp5
 70
     1
102
RTVSPropertyOp6
 70
     1
102
RTVSPropertyOp7
 70
     1
102
RTVSPropertyOp8
 70
     1
102
RTVSPropertyOp9
 70
     1
102
RTVSPropertyOp10
 70
     1
102
RTVSPropertyOp11
 70
     1
102
RTVSPropertyOp12
 70
     1
102
RTVSPropertyOp13
 70
     1
102
RTVSPropertyOp14
 70
     1
102
RTVSPropertyOp15
 70
     1
102
RTVSPropertyOp16
 70
     1
102
RTVSPropertyOp17
 70
     1
102
RTVSPropertyOp18
 70
     1
102
RTVSPropertyOp19
 70
     1
102
RTVSPropertyOp20
 70
     1
102
RTVSPropertyOp21
 70
     1
102
RTVSPropertyOp22
 70
     1
102
RTVSPropertyOp23
 70
     1
102
RTVSPropertyOp24
 70
     1
102
RTVSPropertyOp25
 70
     1
102
RTVSPropertyOp26
 70
     1
102
RTVSPropertyOp27
 70
     1
102
RTVSPropertyOp28
 70
     1
102
RTVSPropertyOp29
 70
     1
102
RTVSPropertyOp30
 70
     1
102
RTVSPropertyOp31
 70
     1
102
RTVSPropertyOp32
 70
     1
  0
XRECORD
  5
FFF
102
{ACAD_REACTORS
330
FFE
102
}
330
FFE
100
AcDbXrecord
280
     1
102
RTVSPropertyOp0
 70
     1
102
RTVSPropertyOp1
 70
     1
102
RTVSPropertyOp2
 70
     1
102
RTVSPropertyOp3
 70
     1
102
RTVSPropertyOp4
 70
     1
102
RTVSPropertyOp5
 70
     1
102
RTVSPropertyOp6
 70
     1
102
RTVSPropertyOp7
 70
     1
102
RTVSPropertyOp8
 70
     1
102
RTVSPropertyOp9
 70
     1
102
RTVSPropertyOp10
 70
     1
102
RTVSPropertyOp11
 70
     1
102
RTVSPropertyOp12
 70
     1
102
RTVSPropertyOp13
 70
     1
102
RTVSPropertyOp14
 70
     1
102
RTVSPropertyOp15
 70
     1
102
RTVSPropertyOp16
 70
     1
102
RTVSPropertyOp17
 70
     1
102
RTVSPropertyOp18
 70
     1
102
RTVSPropertyOp19
 70
     1
102
RTVSPropertyOp20
 70
     1
102
RTVSPropertyOp21
 70
     1
102
RTVSPropertyOp22
 70
     1
102
RTVSPropertyOp23
 70
     1
102
RTVSPropertyOp24
 70
     1
102
RTVSPropertyOp25
 70
     1
102
RTVSPropertyOp26
 70
     1
102
RTVSPropertyOp27
 70
     1
102
RTVSPropertyOp28
 70
     1
102
RTVSPropertyOp29
 70
     1
102
RTVSPropertyOp30
 70
     1
102
RTVSPropertyOp31
 70
     1
102
RTVSPropertyOp32
 70
     1
  0
XRECORD
  5
1001
102
{ACAD_REACTORS
330
1000
102
}
330
1000
100
AcDbXrecord
280
     1
102
RTVSPropertyOp0
 70
     1
102
RTVSPropertyOp1
 70
     1
102
RTVSPropertyOp2
 70
     1
102
RTVSPropertyOp3
 70
     1
102
RTVSPropertyOp4
 70
     1
102
RTVSPropertyOp5
 70
     1
102
RTVSPropertyOp6
 70
     1
102
RTVSPropertyOp7
 70
     1
102
RTVSPropertyOp8
 70
     1
102
RTVSPropertyOp9
 70
     1
102
RTVSPropertyOp10
 70
     1
102
RTVSPropertyOp11
 70
     1
102
RTVSPropertyOp12
 70
     1
102
RTVSPropertyOp13
 70
     1
102
RTVSPropertyOp14
 70
     1
102
RTVSPropertyOp15
 70
     1
102
RTVSPropertyOp16
 70
     1
102
RTVSPropertyOp17
 70
     1
102
RTVSPropertyOp18
 70
     1
102
RTVSPropertyOp19
 70
     1
102
RTVSPropertyOp20
 70
     1
102
RTVSPropertyOp21
 70
     1
102
RTVSPropertyOp22
 70
     1
102
RTVSPropertyOp23
 70
     1
102
RTVSPropertyOp24
 70
     1
102
RTVSPropertyOp25
 70
     1
102
RTVSPropertyOp26
 70
     1
102
RTVSPropertyOp27
 70
     1
102
RTVSPropertyOp28
 70
     1
102
RTVSPropertyOp29
 70
     1
102
RTVSPropertyOp30
 70
     1
102
RTVSPropertyOp31
 70
     1
102
RTVSPropertyOp32
 70
     1
  0
XRECORD
  5
1022
102
{ACAD_REACTORS
330
1021
102
}
330
1021
100
AcDbXrecord
280
     1
102
RTVSPropertyOp0
 70
     1
102
RTVSPropertyOp1
 70
     1
102
RTVSPropertyOp2
 70
     1
102
RTVSPropertyOp3
 70
     1
102
RTVSPropertyOp4
 70
     1
102
RTVSPropertyOp5
 70
     1
102
RTVSPropertyOp6
 70
     1
102
RTVSPropertyOp7
 70
     1
102
RTVSPropertyOp8
 70
     1
102
RTVSPropertyOp9
 70
     1
102
RTVSPropertyOp10
 70
     1
102
RTVSPropertyOp11
 70
     1
102
RTVSPropertyOp12
 70
     1
102
RTVSPropertyOp13
 70
     1
102
RTVSPropertyOp14
 70
     1
102
RTVSPropertyOp15
 70
     1
102
RTVSPropertyOp16
 70
     1
102
RTVSPropertyOp17
 70
     1
102
RTVSPropertyOp18
 70
     1
102
RTVSPropertyOp19
 70
     1
102
RTVSPropertyOp20
 70
     1
102
RTVSPropertyOp21
 70
     1
102
RTVSPropertyOp22
 70
     1
102
RTVSPropertyOp23
 70
     1
102
RTVSPropertyOp24
 70
     1
102
RTVSPropertyOp25
 70
     1
102
RTVSPropertyOp26
 70
     1
102
RTVSPropertyOp27
 70
     1
102
RTVSPropertyOp28
 70
     1
102
RTVSPropertyOp29
 70
     1
102
RTVSPropertyOp30
 70
     1
102
RTVSPropertyOp31
 70
     1
102
RTVSPropertyOp32
 70
     1
  0
XRECORD
  5
102E
102
{ACAD_REACTORS
330
102D
102
}
330
102D
100
AcDbXrecord
280
     1
102
RTVSPropertyOp0
 70
     0
102
RTVSPropertyOp1
 70
     0
102
RTVSPropertyOp2
 70
     0
102
RTVSPropertyOp3
 70
     0
102
RTVSPropertyOp4
 70
     0
102
RTVSPropertyOp5
 70
     0
102
RTVSPropertyOp6
 70
     0
102
RTVSPropertyOp7
 70
     0
102
RTVSPropertyOp8
 70
     0
102
RTVSPropertyOp9
 70
     0
102
RTVSPropertyOp10
 70
     0
102
RTVSPropertyOp11
 70
     0
102
RTVSPropertyOp12
 70
     0
102
RTVSPropertyOp13
 70
     0
102
RTVSPropertyOp14
 70
     2
102
RTVSPropertyOp15
 70
     0
102
RTVSPropertyOp16
 70
     0
102
RTVSPropertyOp17
 70
     0
102
RTVSPropertyOp18
 70
     0
102
RTVSPropertyOp19
 70
     0
102
RTVSPropertyOp20
 70
     0
102
RTVSPropertyOp21
 70
     0
102
RTVSPropertyOp22
 70
     0
102
RTVSPropertyOp23
 70
     0
102
RTVSPropertyOp24
 70
     0
102
RTVSPropertyOp25
 70
     0
102
RTVSPropertyOp26
 70
     0
102
RTVSPropertyOp27
 70
     0
102
RTVSPropertyOp28
 70
     0
102
RTVSPropertyOp29
 70
     0
102
RTVSPropertyOp30
 70
     0
102
RTVSPropertyOp31
 70
     0
102
RTVSPropertyOp32
 70
     0
  0
XRECORD
  5
1015
102
{ACAD_REACTORS
330
1014
102
}
330
1014
100
AcDbXrecord
280
     1
102
RTVSPropertyOp0
 70
     1
102
RTVSPropertyOp1
 70
     1
102
RTVSPropertyOp2
 70
     1
102
RTVSPropertyOp3
 70
     1
102
RTVSPropertyOp4
 70
     1
102
RTVSPropertyOp5
 70
     1
102
RTVSPropertyOp6
 70
     1
102
RTVSPropertyOp7
 70
     1
102
RTVSPropertyOp8
 70
     1
102
RTVSPropertyOp9
 70
     1
102
RTVSPropertyOp10
 70
     1
102
RTVSPropertyOp11
 70
     1
102
RTVSPropertyOp12
 70
     1
102
RTVSPropertyOp13
 70
     1
102
RTVSPropertyOp14
 70
     1
102
RTVSPropertyOp15
 70
     1
102
RTVSPropertyOp16
 70
     1
102
RTVSPropertyOp17
 70
     1
102
RTVSPropertyOp18
 70
     1
102
RTVSPropertyOp19
 70
     1
102
RTVSPropertyOp20
 70
     1
102
RTVSPropertyOp21
 70
     1
102
RTVSPropertyOp22
 70
     1
102
RTVSPropertyOp23
 70
     1
102
RTVSPropertyOp24
 70
     1
102
RTVSPropertyOp25
 70
     1
102
RTVSPropertyOp26
 70
     1
102
RTVSPropertyOp27
 70
     1
102
RTVSPropertyOp28
 70
     1
102
RTVSPropertyOp29
 70
     1
102
RTVSPropertyOp30
 70
     1
102
RTVSPropertyOp31
 70
     1
102
RTVSPropertyOp32
 70
     1
  0
XRECORD
  5
1030
102
{ACAD_REACTORS
330
102F
102
}
330
102F
100
AcDbXrecord
280
     1
102
RTVSPropertyOp0
 70
     0
102
RTVSPropertyOp1
 70
     0
102
RTVSPropertyOp2
 70
     0
102
RTVSPropertyOp3
 70
     0
102
RTVSPropertyOp4
 70
     0
102
RTVSPropertyOp5
 70
     0
102
RTVSPropertyOp6
 70
     0
102
RTVSPropertyOp7
 70
     0
102
RTVSPropertyOp8
 70
     0
102
RTVSPropertyOp9
 70
     0
102
RTVSPropertyOp10
 70
     0
102
RTVSPropertyOp11
 70
     0
102
RTVSPropertyOp12
 70
     0
102
RTVSPropertyOp13
 70
     0
102
RTVSPropertyOp14
 70
     2
102
RTVSPropertyOp15
 70
     0
102
RTVSPropertyOp16
 70
     0
102
RTVSPropertyOp17
 70
     0
102
RTVSPropertyOp18
 70
     0
102
RTVSPropertyOp19
 70
     0
102
RTVSPropertyOp20
 70
     0
102
RTVSPropertyOp21
 70
     0
102
RTVSPropertyOp22
 70
     0
102
RTVSPropertyOp23
 70
     0
102
RTVSPropertyOp24
 70
     0
102
RTVSPropertyOp25
 70
     0
102
RTVSPropertyOp26
 70
     0
102
RTVSPropertyOp27
 70
     0
102
RTVSPropertyOp28
 70
     0
102
RTVSPropertyOp29
 70
     0
102
RTVSPropertyOp30
 70
     0
102
RTVSPropertyOp31
 70
     0
102
RTVSPropertyOp32
 70
     0
  0
XRECORD
  5
100D
102
{ACAD_REACTORS
330
100C
102
}
330
100C
100
AcDbXrecord
280
     1
102
RTVSPropertyOp0
 70
     1
102
RTVSPropertyOp1
 70
     1
102
RTVSPropertyOp2
 70
     1
102
RTVSPropertyOp3
 70
     1
102
RTVSPropertyOp4
 70
     1
102
RTVSPropertyOp5
 70
     1
102
RTVSPropertyOp6
 70
     1
102
RTVSPropertyOp7
 70
     1
102
RTVSPropertyOp8
 70
     1
102
RTVSPropertyOp9
 70
     1
102
RTVSPropertyOp10
 70
     1
102
RTVSPropertyOp11
 70
     1
102
RTVSPropertyOp12
 70
     1
102
RTVSPropertyOp13
 70
     1
102
RTVSPropertyOp14
 70
     1
102
RTVSPropertyOp15
 70
     1
102
RTVSPropertyOp16
 70
     1
102
RTVSPropertyOp17
 70
     1
102
RTVSPropertyOp18
 70
     1
102
RTVSPropertyOp19
 70
     1
102
RTVSPropertyOp20
 70
     1
102
RTVSPropertyOp21
 70
     1
102
RTVSPropertyOp22
 70
     1
102
RTVSPropertyOp23
 70
     1
102
RTVSPropertyOp24
 70
     1
102
RTVSPropertyOp25
 70
     1
102
RTVSPropertyOp26
 70
     1
102
RTVSPropertyOp27
 70
     1
102
RTVSPropertyOp28
 70
     1
102
RTVSPropertyOp29
 70
     1
102
RTVSPropertyOp30
 70
     1
102
RTVSPropertyOp31
 70
     1
102
RTVSPropertyOp32
 70
     1
  0
XRECORD
  5
102C
102
{ACAD_REACTORS
330
102B
102
}
330
102B
100
AcDbXrecord
280
     1
102
RTVSPropertyOp0
 70
     1
102
RTVSPropertyOp1
 70
     1
102
RTVSPropertyOp2
 70
     1
102
RTVSPropertyOp3
 70
     1
102
RTVSPropertyOp4
 70
     1
102
RTVSPropertyOp5
 70
     1
102
RTVSPropertyOp6
 70
     1
102
RTVSPropertyOp7
 70
     1
102
RTVSPropertyOp8
 70
     1
102
RTVSPropertyOp9
 70
     1
102
RTVSPropertyOp10
 70
     1
102
RTVSPropertyOp11
 70
     1
102
RTVSPropertyOp12
 70
     1
102
RTVSPropertyOp13
 70
     1
102
RTVSPropertyOp14
 70
     1
102
RTVSPropertyOp15
 70
     1
102
RTVSPropertyOp16
 70
     1
102
RTVSPropertyOp17
 70
     1
102
RTVSPropertyOp18
 70
     1
102
RTVSPropertyOp19
 70
     1
102
RTVSPropertyOp20
 70
     1
102
RTVSPropertyOp21
 70
     1
102
RTVSPropertyOp22
 70
     1
102
RTVSPropertyOp23
 70
     1
102
RTVSPropertyOp24
 70
     1
102
RTVSPropertyOp25
 70
     1
102
RTVSPropertyOp26
 70
     1
102
RTVSPropertyOp27
 70
     1
102
RTVSPropertyOp28
 70
     1
102
RTVSPropertyOp29
 70
     1
102
RTVSPropertyOp30
 70
     1
102
RTVSPropertyOp31
 70
     1
102
RTVSPropertyOp32
 70
     1
  0
XRECORD
  5
102A
102
{ACAD_REACTORS
330
1029
102
}
330
1029
100
AcDbXrecord
280
     1
102
RTVSPropertyOp0
 70
     1
102
RTVSPropertyOp1
 70
     1
102
RTVSPropertyOp2
 70
     1
102
RTVSPropertyOp3
 70
     1
102
RTVSPropertyOp4
 70
     1
102
RTVSPropertyOp5
 70
     1
102
RTVSPropertyOp6
 70
     1
102
RTVSPropertyOp7
 70
     1
102
RTVSPropertyOp8
 70
     1
102
RTVSPropertyOp9
 70
     1
102
RTVSPropertyOp10
 70
     1
102
RTVSPropertyOp11
 70
     1
102
RTVSPropertyOp12
 70
     1
102
RTVSPropertyOp13
 70
     1
102
RTVSPropertyOp14
 70
     1
102
RTVSPropertyOp15
 70
     1
102
RTVSPropertyOp16
 70
     1
102
RTVSPropertyOp17
 70
     1
102
RTVSPropertyOp18
 70
     1
102
RTVSPropertyOp19
 70
     1
102
RTVSPropertyOp20
 70
     1
102
RTVSPropertyOp21
 70
     1
102
RTVSPropertyOp22
 70
     1
102
RTVSPropertyOp23
 70
     1
102
RTVSPropertyOp24
 70
     1
102
RTVSPropertyOp25
 70
     1
102
RTVSPropertyOp26
 70
     1
102
RTVSPropertyOp27
 70
     1
102
RTVSPropertyOp28
 70
     1
102
RTVSPropertyOp29
 70
     1
102
RTVSPropertyOp30
 70
     1
102
RTVSPropertyOp31
 70
     1
102
RTVSPropertyOp32
 70
     1
  0
XRECORD
  5
1024
102
{ACAD_REACTORS
330
1023
102
}
330
1023
100
AcDbXrecord
280
     1
102
RTVSPropertyOp0
 70
     1
102
RTVSPropertyOp1
 70
     1
102
RTVSPropertyOp2
 70
     1
102
RTVSPropertyOp3
 70
     1
102
RTVSPropertyOp4
 70
     1
102
RTVSPropertyOp5
 70
     1
102
RTVSPropertyOp6
 70
     1
102
RTVSPropertyOp7
 70
     1
102
RTVSPropertyOp8
 70
     1
102
RTVSPropertyOp9
 70
     1
102
RTVSPropertyOp10
 70
     1
102
RTVSPropertyOp11
 70
     1
102
RTVSPropertyOp12
 70
     1
102
RTVSPropertyOp13
 70
     1
102
RTVSPropertyOp14
 70
     1
102
RTVSPropertyOp15
 70
     1
102
RTVSPropertyOp16
 70
     1
102
RTVSPropertyOp17
 70
     1
102
RTVSPropertyOp18
 70
     1
102
RTVSPropertyOp19
 70
     1
102
RTVSPropertyOp20
 70
     1
102
RTVSPropertyOp21
 70
     1
102
RTVSPropertyOp22
 70
     1
102
RTVSPropertyOp23
 70
     1
102
RTVSPropertyOp24
 70
     1
102
RTVSPropertyOp25
 70
     1
102
RTVSPropertyOp26
 70
     1
102
RTVSPropertyOp27
 70
     1
102
RTVSPropertyOp28
 70
     1
102
RTVSPropertyOp29
 70
     1
102
RTVSPropertyOp30
 70
     1
102
RTVSPropertyOp31
 70
     1
102
RTVSPropertyOp32
 70
     1
  0
XRECORD
  5
1026
102
{ACAD_REACTORS
330
1025
102
}
330
1025
100
AcDbXrecord
280
     1
102
RTVSPropertyOp0
 70
     1
102
RTVSPropertyOp1
 70
     1
102
RTVSPropertyOp2
 70
     1
102
RTVSPropertyOp3
 70
     1
102
RTVSPropertyOp4
 70
     1
102
RTVSPropertyOp5
 70
     1
102
RTVSPropertyOp6
 70
     1
102
RTVSPropertyOp7
 70
     1
102
RTVSPropertyOp8
 70
     1
102
RTVSPropertyOp9
 70
     1
102
RTVSPropertyOp10
 70
     1
102
RTVSPropertyOp11
 70
     1
102
RTVSPropertyOp12
 70
     1
102
RTVSPropertyOp13
 70
     1
102
RTVSPropertyOp14
 70
     1
102
RTVSPropertyOp15
 70
     1
102
RTVSPropertyOp16
 70
     1
102
RTVSPropertyOp17
 70
     1
102
RTVSPropertyOp18
 70
     1
102
RTVSPropertyOp19
 70
     1
102
RTVSPropertyOp20
 70
     1
102
RTVSPropertyOp21
 70
     1
102
RTVSPropertyOp22
 70
     1
102
RTVSPropertyOp23
 70
     1
102
RTVSPropertyOp24
 70
     1
102
RTVSPropertyOp25
 70
     1
102
RTVSPropertyOp26
 70
     1
102
RTVSPropertyOp27
 70
     1
102
RTVSPropertyOp28
 70
     1
102
RTVSPropertyOp29
 70
     1
102
RTVSPropertyOp30
 70
     1
102
RTVSPropertyOp31
 70
     1
102
RTVSPropertyOp32
 70
     1
  0
XRECORD
  5
1013
102
{ACAD_REACTORS
330
1012
102
}
330
1012
100
AcDbXrecord
280
     1
102
RTVSPropertyOp0
 70
     1
102
RTVSPropertyOp1
 70
     1
102
RTVSPropertyOp2
 70
     1
102
RTVSPropertyOp3
 70
     1
102
RTVSPropertyOp4
 70
     1
102
RTVSPropertyOp5
 70
     1
102
RTVSPropertyOp6
 70
     1
102
RTVSPropertyOp7
 70
     1
102
RTVSPropertyOp8
 70
     1
102
RTVSPropertyOp9
 70
     1
102
RTVSPropertyOp10
 70
     1
102
RTVSPropertyOp11
 70
     1
102
RTVSPropertyOp12
 70
     1
102
RTVSPropertyOp13
 70
     1
102
RTVSPropertyOp14
 70
     1
102
RTVSPropertyOp15
 70
     1
102
RTVSPropertyOp16
 70
     1
102
RTVSPropertyOp17
 70
     1
102
RTVSPropertyOp18
 70
     1
102
RTVSPropertyOp19
 70
     1
102
RTVSPropertyOp20
 70
     1
102
RTVSPropertyOp21
 70
     1
102
RTVSPropertyOp22
 70
     1
102
RTVSPropertyOp23
 70
     1
102
RTVSPropertyOp24
 70
     1
102
RTVSPropertyOp25
 70
     1
102
RTVSPropertyOp26
 70
     1
102
RTVSPropertyOp27
 70
     1
102
RTVSPropertyOp28
 70
     1
102
RTVSPropertyOp29
 70
     1
102
RTVSPropertyOp30
 70
     1
102
RTVSPropertyOp31
 70
     1
102
RTVSPropertyOp32
 70
     1
  0
XRECORD
  5
1020
102
{ACAD_REACTORS
330
101F
102
}
330
101F
100
AcDbXrecord
280
     1
102
RTVSPropertyOp0
 70
     1
102
RTVSPropertyOp1
 70
     1
102
RTVSPropertyOp2
 70
     1
102
RTVSPropertyOp3
 70
     1
102
RTVSPropertyOp4
 70
     1
102
RTVSPropertyOp5
 70
     1
102
RTVSPropertyOp6
 70
     1
102
RTVSPropertyOp7
 70
     1
102
RTVSPropertyOp8
 70
     1
102
RTVSPropertyOp9
 70
     1
102
RTVSPropertyOp10
 70
     1
102
RTVSPropertyOp11
 70
     1
102
RTVSPropertyOp12
 70
     1
102
RTVSPropertyOp13
 70
     1
102
RTVSPropertyOp14
 70
     1
102
RTVSPropertyOp15
 70
     1
102
RTVSPropertyOp16
 70
     1
102
RTVSPropertyOp17
 70
     1
102
RTVSPropertyOp18
 70
     1
102
RTVSPropertyOp19
 70
     1
102
RTVSPropertyOp20
 70
     1
102
RTVSPropertyOp21
 70
     1
102
RTVSPropertyOp22
 70
     1
102
RTVSPropertyOp23
 70
     1
102
RTVSPropertyOp24
 70
     1
102
RTVSPropertyOp25
 70
     1
102
RTVSPropertyOp26
 70
     1
102
RTVSPropertyOp27
 70
     1
102
RTVSPropertyOp28
 70
     1
102
RTVSPropertyOp29
 70
     1
102
RTVSPropertyOp30
 70
     1
102
RTVSPropertyOp31
 70
     1
102
RTVSPropertyOp32
 70
     1
  0
XRECORD
  5
1028
102
{ACAD_REACTORS
330
1027
102
}
330
1027
100
AcDbXrecord
280
     1
102
RTVSPropertyOp0
 70
     1
102
RTVSPropertyOp1
 70
     1
102
RTVSPropertyOp2
 70
     1
102
RTVSPropertyOp3
 70
     1
102
RTVSPropertyOp4
 70
     1
102
RTVSPropertyOp5
 70
     1
102
RTVSPropertyOp6
 70
     1
102
RTVSPropertyOp7
 70
     1
102
RTVSPropertyOp8
 70
     1
102
RTVSPropertyOp9
 70
     1
102
RTVSPropertyOp10
 70
     1
102
RTVSPropertyOp11
 70
     1
102
RTVSPropertyOp12
 70
     1
102
RTVSPropertyOp13
 70
     1
102
RTVSPropertyOp14
 70
     1
102
RTVSPropertyOp15
 70
     1
102
RTVSPropertyOp16
 70
     1
102
RTVSPropertyOp17
 70
     1
102
RTVSPropertyOp18
 70
     1
102
RTVSPropertyOp19
 70
     1
102
RTVSPropertyOp20
 70
     1
102
RTVSPropertyOp21
 70
     1
102
RTVSPropertyOp22
 70
     1
102
RTVSPropertyOp23
 70
     1
102
RTVSPropertyOp24
 70
     1
102
RTVSPropertyOp25
 70
     1
102
RTVSPropertyOp26
 70
     1
102
RTVSPropertyOp27
 70
     1
102
RTVSPropertyOp28
 70
     1
102
RTVSPropertyOp29
 70
     1
102
RTVSPropertyOp30
 70
     1
102
RTVSPropertyOp31
 70
     1
102
RTVSPropertyOp32
 70
     1
  0
ENDSEC
  0
EOF
