  0
SECTION
  2
HEADER
  9
$ACADVER
  1
AC1015
  9
$ACADMAINTVER
 70
    20
  9
$DWGCODEPAGE
  3
ANSI_932
  9
$INSBASE
 10
0.0
 20
0.0
 30
0.0
  9
$EXTMIN
 10
18.340733
 20
-628.3216499999999
 30
0.0
  9
$EXTMAX
 10
583.3295158909471
 20
-354.266289
 30
0.0
  9
$LIMMIN
 10
18.339733
 20
-628.3226549999998
  9
$LIMMAX
 10
423.367608
 20
-354.265296
  9
$ORTHOMODE
 70
     0
  9
$REGENMODE
 70
     1
  9
$FILLMODE
 70
     1
  9
$QTEXTMODE
 70
     0
  9
$MIRRTEXT
 70
     0
  9
$LTSCALE
 40
6.750430999999997
  9
$ATTMODE
 70
     1
  9
$TEXTSIZE
 40
3.2
  9
$TRACEWID
 40
0.05
  9
$TEXTSTYLE
  7
高3.2
  9
$CLAYER
  8
0
  9
$CELTYPE
  6
ByLayer
  9
$CECOLOR
 62
   256
  9
$CELTSCALE
 40
1.0
  9
$DISPSILH
 70
     0
  9
$DIMSCALE
 40
1.0
  9
$DIMASZ
 40
2.5
  9
$DIMEXO
 40
0.25
  9
$DIMDLI
 40
0.2
  9
$DIMRND
 40
0.0
  9
$DIMDLE
 40
0.0
  9
$DIMEXE
 40
1.25
  9
$DIMTP
 40
0.0
  9
$DIMTM
 40
0.0
  9
$DIMTXT
 40
3.0
  9
$DIMCEN
 40
0.0
  9
$DIMTSZ
 40
0.0
  9
$DIMTOL
 70
     0
  9
$DIMLIM
 70
     0
  9
$DIMTIH
 70
     0
  9
$DIMTOH
 70
     0
  9
$DIMSE1
 70
     0
  9
$DIMSE2
 70
     0
  9
$DIMTAD
 70
     3
  9
$DIMZIN
 70
     8
  9
$DIMBLK
  1
Open30
  9
$DIMASO
 70
     1
  9
$DIMSHO
 70
     1
  9
$DIMPOST
  1

  9
$DIMAPOST
  1

  9
$DIMALT
 70
     0
  9
$DIMALTD
 70
     3
  9
$DIMALTF
 40
0.03937007874016
  9
$DIMLFAC
 40
1.0
  9
$DIMTOFL
 70
     1
  9
$DIMTVP
 40
0.0
  9
$DIMTIX
 70
     0
  9
$DIMSOXD
 70
     0
  9
$DIMSAH
 70
     0
  9
$DIMBLK1
  1

  9
$DIMBLK2
  1

  9
$DIMSTYLE
  2
FREE
  9
$DIMCLRD
 70
     0
  9
$DIMCLRE
 70
     0
  9
$DIMCLRT
 70
     4
  9
$DIMTFAC
 40
1.0
  9
$DIMGAP
 40
0.625
  9
$DIMJUST
 70
     0
  9
$DIMSD1
 70
     0
  9
$DIMSD2
 70
     0
  9
$DIMTOLJ
 70
     0
  9
$DIMTZIN
 70
     8
  9
$DIMALTZ
 70
     0
  9
$DIMALTTZ
 70
     0
  9
$DIMUPT
 70
     1
  9
$DIMDEC
 70
     2
  9
$DIMTDEC
 70
     2
  9
$DIMALTU
 70
     2
  9
$DIMALTTD
 70
     3
  9
$DIMTXSTY
  7
STANDARD
  9
$DIMAUNIT
 70
     0
  9
$DIMADEC
 70
     1
  9
$DIMALTRND
 40
0.0
  9
$DIMAZIN
 70
     2
  9
$DIMDSEP
 70
    46
  9
$DIMATFIT
 70
     0
  9
$DIMFRAC
 70
     0
  9
$DIMLDRBLK
  1
Open30
  9
$DIMLUNIT
 70
     2
  9
$DIMLWD
 70
    -2
  9
$DIMLWE
 70
    -2
  9
$DIMTMOVE
 70
     0
  9
$LUNITS
 70
     2
  9
$LUPREC
 70
     4
  9
$SKETCHINC
 40
0.1
  9
$FILLETRAD
 40
0.0
  9
$AUNITS
 70
     0
  9
$AUPREC
 70
     0
  9
$MENU
  1
.
  9
$ELEVATION
 40
0.0
  9
$PELEVATION
 40
0.0
  9
$THICKNESS
 40
0.0
  9
$LIMCHECK
 70
     0
  9
$CHAMFERA
 40
0.0
  9
$CHAMFERB
 40
0.0
  9
$CHAMFERC
 40
0.0
  9
$CHAMFERD
 40
0.0
  9
$SKPOLY
 70
     0
  9
$TDCREATE
 40
2455825.662246991
  9
$TDUCREATE
 40
2455825.287246991
  9
$TDUPDATE
 40
2460251.677136702
  9
$TDUUPDATE
 40
2460251.302136702
  9
$TDINDWG
 40
0.1949058796
  9
$TDUSRTIMER
 40
0.1949054282
  9
$USRTIMER
 70
     1
  9
$ANGBASE
 50
0.0
  9
$ANGDIR
 70
     0
  9
$PDMODE
 70
     0
  9
$PDSIZE
 40
0.0
  9
$PLINEWID
 40
0.0
  9
$SPLFRAME
 70
     0
  9
$SPLINETYPE
 70
     6
  9
$SPLINESEGS
 70
     8
  9
$HANDSEED
  5
1612
  9
$SURFTAB1
 70
     6
  9
$SURFTAB2
 70
     6
  9
$SURFTYPE
 70
     6
  9
$SURFU
 70
     6
  9
$SURFV
 70
     6
  9
$UCSBASE
  2

  9
$UCSNAME
  2

  9
$UCSORG
 10
0.0
 20
0.0
 30
0.0
  9
$UCSXDIR
 10
1.0
 20
0.0
 30
0.0
  9
$UCSYDIR
 10
0.0
 20
1.0
 30
0.0
  9
$UCSORTHOREF
  2

  9
$UCSORTHOVIEW
 70
     0
  9
$UCSORGTOP
 10
0.0
 20
0.0
 30
0.0
  9
$UCSORGBOTTOM
 10
0.0
 20
0.0
 30
0.0
  9
$UCSORGLEFT
 10
0.0
 20
0.0
 30
0.0
  9
$UCSORGRIGHT
 10
0.0
 20
0.0
 30
0.0
  9
$UCSORGFRONT
 10
0.0
 20
0.0
 30
0.0
  9
$UCSORGBACK
 10
0.0
 20
0.0
 30
0.0
  9
$PUCSBASE
  2

  9
$PUCSNAME
  2

  9
$PUCSORG
 10
0.0
 20
0.0
 30
0.0
  9
$PUCSXDIR
 10
1.0
 20
0.0
 30
0.0
  9
$PUCSYDIR
 10
0.0
 20
1.0
 30
0.0
  9
$PUCSORTHOREF
  2

  9
$PUCSORTHOVIEW
 70
     0
  9
$PUCSORGTOP
 10
0.0
 20
0.0
 30
0.0
  9
$PUCSORGBOTTOM
 10
0.0
 20
0.0
 30
0.0
  9
$PUCSORGLEFT
 10
0.0
 20
0.0
 30
0.0
  9
$PUCSORGRIGHT
 10
0.0
 20
0.0
 30
0.0
  9
$PUCSORGFRONT
 10
0.0
 20
0.0
 30
0.0
  9
$PUCSORGBACK
 10
0.0
 20
0.0
 30
0.0
  9
$USERI1
 70
     0
  9
$USERI2
 70
     0
  9
$USERI3
 70
     0
  9
$USERI4
 70
     0
  9
$USERI5
 70
     0
  9
$USERR1
 40
0.0
  9
$USERR2
 40
0.0
  9
$USERR3
 40
0.0
  9
$USERR4
 40
0.0
  9
$USERR5
 40
0.0
  9
$WORLDVIEW
 70
     1
  9
$SHADEDGE
 70
     3
  9
$SHADEDIF
 70
    70
  9
$TILEMODE
 70
     1
  9
$MAXACTVP
 70
    64
  9
$PINSBASE
 10
0.0
 20
0.0
 30
0.0
  9
$PLIMCHECK
 70
     0
  9
$PEXTMIN
 10
1.000000000000000E+20
 20
1.000000000000000E+20
 30
1.000000000000000E+20
  9
$PEXTMAX
 10
-1.000000000000000E+20
 20
-1.000000000000000E+20
 30
-1.000000000000000E+20
  9
$PLIMMIN
 10
0.0
 20
0.0
  9
$PLIMMAX
 10
12.0
 20
9.0
  9
$UNITMODE
 70
     0
  9
$VISRETAIN
 70
     1
  9
$PLINEGEN
 70
     0
  9
$PSLTSCALE
 70
     1
  9
$TREEDEPTH
 70
  3020
  9
$CMLSTYLE
  2
Standard
  9
$CMLJUST
 70
     0
  9
$CMLSCALE
 40
1.0
  9
$PROXYGRAPHICS
 70
     1
  9
$MEASUREMENT
 70
     0
  9
$CELWEIGHT
370
    -1
  9
$ENDCAPS
280
     0
  9
$JOINSTYLE
280
     0
  9
$LWDISPLAY
290
     0
  9
$INSUNITS
 70
     0
  9
$HYPERLINKBASE
  1

  9
$STYLESHEET
  1

  9
$XEDIT
290
     1
  9
$CEPSNTYPE
380
     0
  9
$PSTYLEMODE
290
     1
  9
$FINGERPRINTGUID
  2
{2ED26584-FC75-4F84-8C68-B514C42B1165}
  9
$VERSIONGUID
  2
{E3FE7B5F-7114-4792-AA03-DD49501305DF}
  9
$EXTNAMES
290
     1
  9
$PSVPSCALE
 40
0.0
  9
$OLESTARTUP
290
     0
  0
ENDSEC
  0
SECTION
  2
CLASSES
  0
CLASS
  1
ACDBDICTIONARYWDFLT
  2
AcDbDictionaryWithDefault
  3
ObjectDBX Classes
 90
        0
280
     0
281
     0
  0
CLASS
  1
MATERIAL
  2
AcDbMaterial
  3
ObjectDBX Classes
 90
     1153
280
     0
281
     0
  0
CLASS
  1
VISUALSTYLE
  2
AcDbVisualStyle
  3
ObjectDBX Classes
 90
     4095
280
     0
281
     0
  0
CLASS
  1
TABLESTYLE
  2
AcDbTableStyle
  3
ObjectDBX Classes
 90
     4095
280
     0
281
     0
  0
CLASS
  1
DICTIONARYVAR
  2
AcDbDictionaryVar
  3
ObjectDBX Classes
 90
        0
280
     0
281
     0
  0
CLASS
  1
ACDBPLACEHOLDER
  2
AcDbPlaceHolder
  3
ObjectDBX Classes
 90
        0
280
     0
281
     0
  0
CLASS
  1
LAYOUT
  2
AcDbLayout
  3
ObjectDBX Classes
 90
        0
280
     0
281
     0
  0
CLASS
  1
SCALE
  2
AcDbScale
  3
ObjectDBX Classes
 90
     1153
280
     0
281
     0
  0
CLASS
  1
MLEADERSTYLE
  2
AcDbMLeaderStyle
  3
ACDB_MLEADERSTYLE_CLASS
 90
     4095
280
     0
281
     0
  0
CLASS
  1
SORTENTSTABLE
  2
AcDbSortentsTable
  3
ObjectDBX Classes
 90
        0
280
     0
281
     0
  0
CLASS
  1
CELLSTYLEMAP
  2
AcDbCellStyleMap
  3
ObjectDBX Classes
 90
     1152
280
     0
281
     0
  0
CLASS
  1
AEC_REFEDIT_STATUS_TRACKER
  2
AecDbRefEditStatusTracker
  3
AecArchBase60|Product Desc: Autodesk Architectural Desktop 2007 |Company: Autodesk,Inc. |WEB Address: www.autodesk.com
 90
      129
280
     0
281
     0
  0
CLASS
  1
NPOCOLLECTION
  2
AcDbImpNonPersistentObjectsCollection
  3
ObjectDBX Classes
 90
     1153
280
     0
281
     0
  0
ENDSEC
  0
SECTION
  2
TABLES
  0
TABLE
  2
VPORT
  5
8
330
0
100
AcDbSymbolTable
 70
     1
  0
VPORT
  5
57
330
8
100
AcDbSymbolTableRecord
100
AcDbViewportTableRecord
  2
*Active
 70
     0
 10
0.0
 20
0.0
 11
1.0
 21
1.0
 12
296.6914560978057
 22
-447.4799956239126
 13
0.0
 23
0.0
 14
1.0
 24
1.0
 15
0.0
 25
0.0
 16
0.0
 26
0.0
 36
1.0
 17
0.0
 27
0.0
 37
0.0
 40
596.9267171910351
 41
1.593996840442338
 42
50.0
 43
0.0
 44
0.0
 50
0.0
 51
0.0
 71
     0
 72
   100
 73
     1
 74
     1
 75
     0
 76
     0
 77
     0
 78
     0
281
     0
 65
     1
110
0.0
120
0.0
130
0.0
111
1.0
121
0.0
131
0.0
112
0.0
122
1.0
132
0.0
 79
     0
146
0.0
  0
ENDTAB
  0
TABLE
  2
LTYPE
  5
5
330
0
100
AcDbSymbolTable
 70
     3
  0
LTYPE
  5
28
330
5
100
AcDbSymbolTableRecord
100
AcDbLinetypeTableRecord
  2
ByBlock
 70
     0
  3

 72
    65
 73
     0
 40
0.0
  0
LTYPE
  5
29
330
5
100
AcDbSymbolTableRecord
100
AcDbLinetypeTableRecord
  2
ByLayer
 70
     0
  3

 72
    65
 73
     0
 40
0.0
  0
LTYPE
  5
2A
330
5
100
AcDbSymbolTableRecord
100
AcDbLinetypeTableRecord
  2
CONTINUOUS
 70
     0
  3
Solid-line
 72
    65
 73
     0
 40
0.0
  0
LTYPE
  5
3D
330
5
100
AcDbSymbolTableRecord
100
AcDbLinetypeTableRecord
  2
CENTER
 70
     0
  3
CENTER
 72
    65
 73
     4
 40
2.0
 49
1.25
 74
     0
 49
-0.25
 74
     0
 49
0.25
 74
     0
 49
-0.25
 74
     0
  0
ENDTAB
  0
TABLE
  2
LAYER
  5
2
102
{ACAD_XDICTIONARY
360
41B
102
}
330
0
100
AcDbSymbolTable
 70
     2
  0
LAYER
  5
25
102
{ACAD_XDICTIONARY
360
600
102
}
330
2
100
AcDbSymbolTableRecord
100
AcDbLayerTableRecord
  2
0
 70
     0
 62
     7
  6
CONTINUOUS
370
    -3
390
F
  0
LAYER
  5
405
330
2
100
AcDbSymbolTableRecord
100
AcDbLayerTableRecord
  2
Defpoints
 70
     0
 62
     7
  6
CONTINUOUS
290
     0
370
    -3
390
F
  0
ENDTAB
  0
TABLE
  2
STYLE
  5
3
330
0
100
AcDbSymbolTable
 70
     6
  0
STYLE
  5
26
330
3
100
AcDbSymbolTableRecord
100
AcDbTextStyleTableRecord
  2
STANDARD
 70
     0
 40
0.0
 41
1.0
 50
0.0
 71
     0
 42
0.2
  3
TXT
  4
BIGFONT
  0
STYLE
  5
406
330
3
100
AcDbSymbolTableRecord
100
AcDbTextStyleTableRecord
  2
高3.2
 70
     0
 40
3.2
 41
1.0
 50
0.0
 71
     0
 42
3.2
  3
txt.shx
  4
bigfont.shx
  0
STYLE
  5
407
330
3
100
AcDbSymbolTableRecord
100
AcDbTextStyleTableRecord
  2
高6.3
 70
     0
 40
6.299999999999998
 41
1.0
 50
0.0
 71
     0
 42
6.299999999999998
  3
txt.shx
  4
bigfont.shx
  0
STYLE
  5
409
330
3
100
AcDbSymbolTableRecord
100
AcDbTextStyleTableRecord
  2
高4.5
 70
     0
 40
4.5
 41
1.0
 50
0.0
 71
     0
 42
6.299999999999998
  3
txt.shx
  4
bigfont.shx
  0
STYLE
  5
40A
330
3
100
AcDbSymbolTableRecord
100
AcDbTextStyleTableRecord
  2
高2
 70
     0
 40
2.0
 41
1.0
 50
0.0
 71
     0
 42
2.0
  3
txt.shx
  4
bigfont.shx
  0
STYLE
  5
DD5
330
3
100
AcDbSymbolTableRecord
100
AcDbTextStyleTableRecord
  2
高2.5
 70
     0
 40
2.5
 41
1.0
 50
0.0
 71
     0
 42
0.2
  3
txt.shx
  4
bigfont.shx
  0
ENDTAB
  0
TABLE
  2
VIEW
  5
6
330
0
100
AcDbSymbolTable
 70
     0
  0
ENDTAB
  0
TABLE
  2
UCS
  5
7
330
0
100
AcDbSymbolTable
 70
     0
  0
ENDTAB
  0
TABLE
  2
APPID
  5
9
330
0
100
AcDbSymbolTable
 70
    10
  0
APPID
  5
27
330
9
100
AcDbSymbolTableRecord
100
AcDbRegAppTableRecord
  2
ACAD
 70
     0
  0
APPID
  5
415
330
9
100
AcDbSymbolTableRecord
100
AcDbRegAppTableRecord
  2
ACAD_DSTYLE_DIMJOGGED_JOGANGLE_SYMBOL
 70
     0
  0
APPID
  5
416
330
9
100
AcDbSymbolTableRecord
100
AcDbRegAppTableRecord
  2
ACAD_DSTYLE_DIMJAG
 70
     0
  0
APPID
  5
417
330
9
100
AcDbSymbolTableRecord
100
AcDbRegAppTableRecord
  2
ACAD_DSTYLE_DIMBREAK
 70
     0
  0
APPID
  5
418
330
9
100
AcDbSymbolTableRecord
100
AcDbRegAppTableRecord
  2
ACAD_DSTYLE_DIMTALN
 70
     0
  0
APPID
  5
57C
330
9
100
AcDbSymbolTableRecord
100
AcDbRegAppTableRecord
  2
ACAD_EXEMPT_FROM_CAD_STANDARDS
 70
     0
  0
APPID
  5
646
330
9
100
AcDbSymbolTableRecord
100
AcDbRegAppTableRecord
  2
ACAD_MLEADERVER
 70
     0
  0
APPID
  5
647
330
9
100
AcDbSymbolTableRecord
100
AcDbRegAppTableRecord
  2
ACAD_DSTYLE_DIMARC_LENGTH_SYMBOL
 70
     0
  0
APPID
  5
648
330
9
100
AcDbSymbolTableRecord
100
AcDbRegAppTableRecord
  2
ACAD_DSTYLE_DIMEXT_LENGTH
 70
     0
  0
APPID
  5
69F
330
9
100
AcDbSymbolTableRecord
100
AcDbRegAppTableRecord
  2
ACAD_PSEXT
 70
     0
  0
ENDTAB
  0
TABLE
  2
DIMSTYLE
  5
A
330
0
100
AcDbSymbolTable
 70
    11
100
AcDbDimStyleTable
 71
     2
340
414
340
33A
  0
DIMSTYLE
105
33A
330
A
100
AcDbSymbolTableRecord
100
AcDbDimStyleTableRecord
  2
Standard
 70
     0
340
26
  0
DIMSTYLE
105
414
330
A
100
AcDbSymbolTableRecord
100
AcDbDimStyleTableRecord
  2
FREE
 70
     0
 41
2.5
 42
0.25
 43
0.2
 44
1.25
 73
     0
 74
     0
 77
     3
 78
     8
 79
     2
140
3.0
141
0.0
143
0.03937007874016
147
0.625
171
     3
172
     1
178
     4
179
     1
271
     2
272
     2
274
     3
283
     0
284
     8
288
     1
289
     0
340
26
341
375
342
375
1001
ACAD_DSTYLE_DIMBREAK
1070
   391
1040
3.75
1001
ACAD_DSTYLE_DIMJAG
1070
   388
1040
1.5
1001
ACAD_DSTYLE_DIMTALN
1070
   392
1070
     0
1001
ACAD_DSTYLE_DIMARC_LENGTH_SYMBOL
1070
   379
1070
     2
1001
ACAD_DSTYLE_DIMEXT_LENGTH
1070
   378
1040
1.25
1001
ACAD_DSTYLE_DIMJOGGED_JOGANGLE_SYMBOL
1070
   384
1040
1.570796326794896
  0
DIMSTYLE
105
69D
330
A
100
AcDbSymbolTableRecord
100
AcDbDimStyleTableRecord
  2
1：1
 70
     0
 41
2.5
 42
0.25
 43
0.2
 44
1.25
 73
     0
 74
     0
 77
     3
 78
     8
 79
     2
140
3.0
141
0.0
143
0.03937007874016
147
0.625
171
     3
172
     1
178
     4
179
     1
271
     2
272
     2
274
     3
283
     0
284
     8
288
     1
289
     0
340
26
341
375
342
375
1001
ACAD_DSTYLE_DIMARC_LENGTH_SYMBOL
1070
   379
1070
     2
1001
ACAD_DSTYLE_DIMEXT_LENGTH
1070
   378
1040
1.25
1001
ACAD_DSTYLE_DIMJOGGED_JOGANGLE_SYMBOL
1070
   384
1040
1.570796326794896
  0
DIMSTYLE
105
69E
330
A
100
AcDbSymbolTableRecord
100
AcDbDimStyleTableRecord
  2
1／2
 70
     0
 41
2.5
 42
0.25
 43
0.2
 44
1.25
 73
     0
 74
     0
 77
     3
 78
     8
 79
     2
140
3.0
141
0.0
143
0.03937007874016
144
2.0
147
0.625
171
     3
172
     1
178
     4
179
     1
271
     2
272
     2
274
     3
283
     0
284
     8
288
     1
289
     0
340
26
341
375
342
375
1001
ACAD_DSTYLE_DIMARC_LENGTH_SYMBOL
1070
   379
1070
     2
1001
ACAD_DSTYLE_DIMEXT_LENGTH
1070
   378
1040
1.25
1001
ACAD_DSTYLE_DIMJOGGED_JOGANGLE_SYMBOL
1070
   384
1040
1.570796326794896
  0
DIMSTYLE
105
DD6
330
A
100
AcDbSymbolTableRecord
100
AcDbDimStyleTableRecord
  2
2：1
 70
     0
 41
2.5
 42
0.25
 43
0.2
 44
1.25
 73
     0
 74
     0
 77
     3
 78
     8
 79
     2
140
3.0
141
0.0
143
0.03937007874016
144
0.5
147
0.625
171
     3
172
     1
178
     4
179
     1
271
     2
272
     2
274
     3
283
     0
284
     8
288
     1
289
     0
340
26
341
375
342
375
1001
ACAD_DSTYLE_DIMARC_LENGTH_SYMBOL
1070
   379
1070
     2
1001
ACAD_DSTYLE_DIMEXT_LENGTH
1070
   378
1040
1.25
1001
ACAD_DSTYLE_DIMJOGGED_JOGANGLE_SYMBOL
1070
   384
1040
1.570796326794896
  0
DIMSTYLE
105
DD7
330
A
100
AcDbSymbolTableRecord
100
AcDbDimStyleTableRecord
  2
5：1
 70
     0
 41
2.5
 42
0.25
 43
0.2
 44
1.25
 73
     0
 74
     0
 77
     3
 78
     8
 79
     2
140
3.0
141
0.0
143
0.03937007874016
144
0.2
147
0.625
171
     3
172
     1
178
     4
179
     1
271
     2
272
     2
274
     3
283
     0
284
     8
288
     1
289
     0
340
26
341
375
342
375
1001
ACAD_DSTYLE_DIMARC_LENGTH_SYMBOL
1070
   379
1070
     2
1001
ACAD_DSTYLE_DIMEXT_LENGTH
1070
   378
1040
1.25
1001
ACAD_DSTYLE_DIMJOGGED_JOGANGLE_SYMBOL
1070
   384
1040
1.570796326794896
  0
DIMSTYLE
105
DD8
330
A
100
AcDbSymbolTableRecord
100
AcDbDimStyleTableRecord
  2
10：1
 70
     0
 41
2.5
 42
0.25
 43
0.2
 44
1.25
 73
     0
 74
     0
 77
     3
 78
     8
 79
     2
140
3.0
141
0.0
143
0.03937007874016
144
0.1
147
0.625
171
     3
172
     1
178
     4
179
     1
271
     2
272
     2
274
     3
283
     0
284
     8
288
     1
289
     0
340
26
341
375
342
375
1001
ACAD_DSTYLE_DIMARC_LENGTH_SYMBOL
1070
   379
1070
     2
1001
ACAD_DSTYLE_DIMEXT_LENGTH
1070
   378
1040
1.25
1001
ACAD_DSTYLE_DIMJOGGED_JOGANGLE_SYMBOL
1070
   384
1040
1.570796326794896
  0
DIMSTYLE
105
DD9
330
A
100
AcDbSymbolTableRecord
100
AcDbDimStyleTableRecord
  2
1／5
 70
     0
 41
2.5
 42
0.25
 43
0.2
 44
1.25
 73
     0
 74
     0
 77
     3
 78
     8
 79
     2
140
3.0
141
0.0
143
0.03937007874016
144
5.0
147
0.625
171
     3
172
     1
178
     4
179
     1
271
     2
272
     2
274
     3
283
     0
284
     8
288
     1
289
     0
340
26
341
375
342
375
1001
ACAD_DSTYLE_DIMARC_LENGTH_SYMBOL
1070
   379
1070
     2
1001
ACAD_DSTYLE_DIMEXT_LENGTH
1070
   378
1040
1.25
1001
ACAD_DSTYLE_DIMJOGGED_JOGANGLE_SYMBOL
1070
   384
1040
1.570796326794896
  0
DIMSTYLE
105
DDA
330
A
100
AcDbSymbolTableRecord
100
AcDbDimStyleTableRecord
  2
1／10
 70
     0
 41
2.5
 42
0.25
 43
0.2
 44
1.25
 73
     0
 74
     0
 77
     3
 78
     8
 79
     2
140
3.0
141
0.0
143
0.03937007874016
144
10.0
147
0.625
171
     3
172
     1
178
     4
179
     1
271
     2
272
     2
274
     3
283
     0
284
     8
288
     1
289
     0
340
26
341
375
342
375
1001
ACAD_DSTYLE_DIMARC_LENGTH_SYMBOL
1070
   379
1070
     2
1001
ACAD_DSTYLE_DIMEXT_LENGTH
1070
   378
1040
1.25
1001
ACAD_DSTYLE_DIMJOGGED_JOGANGLE_SYMBOL
1070
   384
1040
1.570796326794896
  0
DIMSTYLE
105
DDB
330
A
100
AcDbSymbolTableRecord
100
AcDbDimStyleTableRecord
  2
1／4
 70
     0
 41
2.5
 42
0.25
 43
0.2
 44
1.25
 73
     0
 74
     0
 77
     3
 78
     8
 79
     2
140
3.0
141
0.0
143
0.03937007874016
144
4.0
147
0.625
171
     3
172
     1
178
     4
179
     1
271
     2
272
     2
274
     3
283
     0
284
     8
288
     1
289
     0
340
26
341
375
342
375
1001
ACAD_DSTYLE_DIMARC_LENGTH_SYMBOL
1070
   379
1070
     2
1001
ACAD_DSTYLE_DIMEXT_LENGTH
1070
   378
1040
1.25
1001
ACAD_DSTYLE_DIMJOGGED_JOGANGLE_SYMBOL
1070
   384
1040
1.570796326794896
  0
DIMSTYLE
105
DDC
330
A
100
AcDbSymbolTableRecord
100
AcDbDimStyleTableRecord
  2
1／3
 70
     0
 41
2.5
 42
0.25
 43
0.2
 44
1.25
 73
     0
 74
     0
 77
     3
 78
     8
 79
     2
140
3.0
141
0.0
143
0.03937007874016
144
3.0
147
0.625
171
     3
172
     1
178
     4
179
     1
271
     2
272
     2
274
     3
283
     0
284
     8
288
     1
289
     0
340
26
341
375
342
375
1001
ACAD_DSTYLE_DIMARC_LENGTH_SYMBOL
1070
   379
1070
     2
1001
ACAD_DSTYLE_DIMEXT_LENGTH
1070
   378
1040
1.25
1001
ACAD_DSTYLE_DIMJOGGED_JOGANGLE_SYMBOL
1070
   384
1040
1.570796326794896
  0
ENDTAB
  0
TABLE
  2
BLOCK_RECORD
  5
1
330
0
100
AcDbSymbolTable
 70
    36
  0
BLOCK_RECORD
  5
36
102
{ACAD_XDICTIONARY
360
5DD
102
}
330
1
100
AcDbSymbolTableRecord
100
AcDbBlockTableRecord
  2
*Model_Space
340
39
  0
BLOCK_RECORD
  5
32
330
1
100
AcDbSymbolTableRecord
100
AcDbBlockTableRecord
  2
*Paper_Space
340
35
  0
BLOCK_RECORD
  5
375
330
1
100
AcDbSymbolTableRecord
100
AcDbBlockTableRecord
  2
_Open30
340
0
102
{BLKREFS
331
11C2
331
11C3
331
11CB
331
11CC
331
11D4
331
11D5
331
11DD
331
11DE
102
}
  0
BLOCK_RECORD
  5
699
330
1
100
AcDbSymbolTableRecord
100
AcDbBlockTableRecord
  2
_DotSmall
340
0
  0
BLOCK_RECORD
  5
CF6
330
1
100
AcDbSymbolTableRecord
100
AcDbBlockTableRecord
  2
*D9
340
0
  0
BLOCK_RECORD
  5
D02
330
1
100
AcDbSymbolTableRecord
100
AcDbBlockTableRecord
  2
*D10
340
0
  0
BLOCK_RECORD
  5
D0E
330
1
100
AcDbSymbolTableRecord
100
AcDbBlockTableRecord
  2
*D11
340
0
  0
BLOCK_RECORD
  5
D1A
330
1
100
AcDbSymbolTableRecord
100
AcDbBlockTableRecord
  2
*D12
340
0
  0
ENDTAB
  0
ENDSEC
  0
SECTION
  2
BLOCKS
  0
BLOCK
  5
37
330
36
100
AcDbEntity
  8
0
100
AcDbBlockBegin
  2
*Model_Space
 70
     0
 10
0.0
 20
0.0
 30
0.0
  3
*Model_Space
  1

  0
ENDBLK
  5
38
330
36
100
AcDbEntity
  8
0
100
AcDbBlockEnd
  0
BLOCK
  5
33
330
32
100
AcDbEntity
 67
     1
  8
0
100
AcDbBlockBegin
  2
*Paper_Space
 70
     0
 10
0.0
 20
0.0
 30
0.0
  3
*Paper_Space
  1

  0
ENDBLK
  5
34
330
32
100
AcDbEntity
 67
     1
  8
0
100
AcDbBlockEnd
  0
BLOCK
  5
376
330
375
100
AcDbEntity
  8
0
100
AcDbBlockBegin
  2
_Open30
 70
     0
 10
0.0
 20
0.0
 30
0.0
  3
_Open30
  1

  0
LINE
  5
377
330
375
100
AcDbEntity
  8
0
  6
ByBlock
 62
     0
370
    -2
100
AcDbLine
 10
-1.0
 20
0.267949
 30
0.0
 11
0.0
 21
0.0
 31
0.0
  0
LINE
  5
378
330
375
100
AcDbEntity
  8
0
  6
ByBlock
 62
     0
370
    -2
100
AcDbLine
 10
0.0
 20
0.0
 30
0.0
 11
-1.0
 21
-0.267949
 31
0.0
  0
LINE
  5
379
330
375
100
AcDbEntity
  8
0
  6
ByBlock
 62
     0
370
    -2
100
AcDbLine
 10
0.0
 20
0.0
 30
0.0
 11
-1.0
 21
0.0
 31
0.0
  0
ENDBLK
  5
37A
330
375
100
AcDbEntity
  8
0
100
AcDbBlockEnd
  0
BLOCK
  5
69A
330
699
100
AcDbEntity
  8
0
100
AcDbBlockBegin
  2
_DotSmall
 70
     0
 10
0.0
 20
0.0
 30
0.0
  3
_DotSmall
  1

  0
LWPOLYLINE
  5
69B
330
699
100
AcDbEntity
  8
0
  6
ByBlock
 62
     0
100
AcDbPolyline
 90
        2
 70
     1
 43
0.5
 10
-0.0625
 20
0.0
 42
1.0
 10
0.0625
 20
0.0
 42
1.0
  0
ENDBLK
  5
69C
330
699
100
AcDbEntity
  8
0
100
AcDbBlockEnd
  0
BLOCK
  5
CF7
330
CF6
100
AcDbEntity
  8
0
100
AcDbBlockBegin
  2
*D9
 70
     1
 10
0.0
 20
0.0
 30
0.0
  3
*D9
  1

  0
LINE
  5
11BF
330
CF6
100
AcDbEntity
  8
0
 62
     0
370
    -2
100
AcDbLine
 10
210.5738591063026
 20
-492.8521929999998
 30
0.0
 11
194.0475289999999
 21
-492.8521929999998
 31
0.0
  0
LINE
  5
11C0
330
CF6
100
AcDbEntity
  8
0
 62
     0
370
    -2
100
AcDbLine
 10
204.792652
 20
-412.8521929999998
 30
0.0
 11
194.0475289999999
 21
-412.8521929999998
 31
0.0
  0
LINE
  5
11C1
330
CF6
100
AcDbEntity
  8
0
 62
     0
370
    -2
100
AcDbLine
 10
195.2975289999999
 20
-490.3521929999998
 30
0.0
 11
195.2975289999999
 21
-415.3521929999998
 31
0.0
  0
INSERT
  5
11C2
330
CF6
100
AcDbEntity
  8
0
 62
     0
370
    -2
100
AcDbBlockReference
  2
_Open30
 10
195.2975289999999
 20
-492.8521929999998
 30
0.0
 41
2.5
 42
2.5
 43
2.5
 50
270.0
  0
INSERT
  5
11C3
330
CF6
100
AcDbEntity
  8
0
 62
     0
370
    -2
100
AcDbBlockReference
  2
_Open30
 10
195.2975289999999
 20
-412.8521929999998
 30
0.0
 41
2.5
 42
2.5
 43
2.5
 50
90.0
  0
MTEXT
  5
11C4
330
CF6
100
AcDbEntity
  8
0
 62
     4
100
AcDbMText
 10
193.1725289999999
 20
-452.8521929999997
 30
0.0
 40
3.0
 41
0.0
 71
     5
 72
     1
  1
170
 11
0.0000000000000001
 21
1.0
 31
0.0
 73
     1
 44
1.0
1001
ACAD
1000
MTEXTBEGIN
1070
    73
1070
     1
1070
    44
1040
1.0
1070
    74
1070
     0
1000
MTEXTEND
  0
POINT
  5
11C5
330
CF6
100
AcDbEntity
  8
Defpoints
 62
     0
100
AcDbPoint
 10
210.8238591063026
 20
-492.8521929999998
 30
0.0
  0
POINT
  5
11C6
330
CF6
100
AcDbEntity
  8
Defpoints
 62
     0
100
AcDbPoint
 10
205.042652
 20
-412.8521929999998
 30
0.0
  0
POINT
  5
11C7
330
CF6
100
AcDbEntity
  8
Defpoints
 62
     0
100
AcDbPoint
 10
195.2975289999999
 20
-412.8521929999998
 30
0.0
  0
ENDBLK
  5
CF8
330
CF6
100
AcDbEntity
  8
0
100
AcDbBlockEnd
  0
BLOCK
  5
D03
330
D02
100
AcDbEntity
  8
0
100
AcDbBlockBegin
  2
*D10
 70
     1
 10
0.0
 20
0.0
 30
0.0
  3
*D10
  1

  0
LINE
  5
11C8
330
D02
100
AcDbEntity
  8
0
 62
     0
370
    -2
100
AcDbLine
 10
205.042652
 20
-436.8021929999998
 30
0.0
 11
205.042652
 21
-507.1587279999998
 31
0.0
  0
LINE
  5
11C9
330
D02
100
AcDbEntity
  8
0
 62
     0
370
    -2
100
AcDbLine
 10
335.042652
 20
-452.1021929999998
 30
0.0
 11
335.042652
 21
-507.1587279999998
 31
0.0
  0
LINE
  5
11CA
330
D02
100
AcDbEntity
  8
0
 62
     0
370
    -2
100
AcDbLine
 10
207.542652
 20
-505.9087279999998
 30
0.0
 11
332.542652
 21
-505.9087279999998
 31
0.0
  0
INSERT
  5
11CB
330
D02
100
AcDbEntity
  8
0
 62
     0
370
    -2
100
AcDbBlockReference
  2
_Open30
 10
205.042652
 20
-505.9087279999998
 30
0.0
 41
2.5
 42
2.5
 43
2.5
 50
180.0
  0
INSERT
  5
11CC
330
D02
100
AcDbEntity
  8
0
 62
     0
370
    -2
100
AcDbBlockReference
  2
_Open30
 10
335.042652
 20
-505.9087279999998
 30
0.0
 41
2.5
 42
2.5
 43
2.5
  0
MTEXT
  5
11CD
330
D02
100
AcDbEntity
  8
0
 62
     4
100
AcDbMText
 10
270.042652
 20
-503.7837279999997
 30
0.0
 40
3.0
 41
0.0
 71
     5
 72
     1
  1
273
 73
     1
 44
1.0
1001
ACAD
1000
MTEXTBEGIN
1070
    73
1070
     1
1070
    44
1040
1.0
1070
    74
1070
     0
1000
MTEXTEND
  0
POINT
  5
11CE
330
D02
100
AcDbEntity
  8
Defpoints
 62
     0
100
AcDbPoint
 10
205.042652
 20
-436.5521929999998
 30
0.0
  0
POINT
  5
11CF
330
D02
100
AcDbEntity
  8
Defpoints
 62
     0
100
AcDbPoint
 10
335.042652
 20
-451.8521929999998
 30
0.0
  0
POINT
  5
11D0
330
D02
100
AcDbEntity
  8
Defpoints
 62
     0
100
AcDbPoint
 10
335.042652
 20
-505.9087279999998
 30
0.0
  0
ENDBLK
  5
D04
330
D02
100
AcDbEntity
  8
0
100
AcDbBlockEnd
  0
BLOCK
  5
D0F
330
D0E
100
AcDbEntity
  8
0
100
AcDbBlockBegin
  2
*D11
 70
     1
 10
0.0
 20
0.0
 30
0.0
  3
*D11
  1

  0
LINE
  5
11D1
330
D0E
100
AcDbEntity
  8
0
 62
     0
370
    -2
100
AcDbLine
 10
81.80014400000004
 20
-488.1021929999998
 30
0.0
 11
81.80014400000004
 21
-507.1587279999998
 31
0.0
  0
LINE
  5
11D2
330
D0E
100
AcDbEntity
  8
0
 62
     0
370
    -2
100
AcDbLine
 10
161.800144
 20
-493.1021929999998
 30
0.0
 11
161.800144
 21
-507.1587279999998
 31
0.0
  0
LINE
  5
11D3
330
D0E
100
AcDbEntity
  8
0
 62
     0
370
    -2
100
AcDbLine
 10
84.30014400000004
 20
-505.9087279999998
 30
0.0
 11
159.300144
 21
-505.9087279999998
 31
0.0
  0
INSERT
  5
11D4
330
D0E
100
AcDbEntity
  8
0
 62
     0
370
    -2
100
AcDbBlockReference
  2
_Open30
 10
81.80014400000004
 20
-505.9087279999998
 30
0.0
 41
2.5
 42
2.5
 43
2.5
 50
180.0
  0
INSERT
  5
11D5
330
D0E
100
AcDbEntity
  8
0
 62
     0
370
    -2
100
AcDbBlockReference
  2
_Open30
 10
161.800144
 20
-505.9087279999998
 30
0.0
 41
2.5
 42
2.5
 43
2.5
  0
MTEXT
  5
11D6
330
D0E
100
AcDbEntity
  8
0
 62
     4
100
AcDbMText
 10
121.800144
 20
-503.7837279999997
 30
0.0
 40
3.0
 41
0.0
 71
     5
 72
     1
  1
160
 73
     1
 44
1.0
1001
ACAD
1000
MTEXTBEGIN
1070
    73
1070
     1
1070
    44
1040
1.0
1070
    74
1070
     0
1000
MTEXTEND
  0
POINT
  5
11D7
330
D0E
100
AcDbEntity
  8
Defpoints
 62
     0
100
AcDbPoint
 10
81.80014400000004
 20
-487.8521929999998
 30
0.0
  0
POINT
  5
11D8
330
D0E
100
AcDbEntity
  8
Defpoints
 62
     0
100
AcDbPoint
 10
161.800144
 20
-492.8521929999998
 30
0.0
  0
POINT
  5
11D9
330
D0E
100
AcDbEntity
  8
Defpoints
 62
     0
100
AcDbPoint
 10
161.800144
 20
-505.9087279999998
 30
0.0
  0
ENDBLK
  5
D10
330
D0E
100
AcDbEntity
  8
0
100
AcDbBlockEnd
  0
BLOCK
  5
D1B
330
D1A
100
AcDbEntity
  8
0
100
AcDbBlockBegin
  2
*D12
 70
     1
 10
0.0
 20
0.0
 30
0.0
  3
*D12
  1

  0
LINE
  5
11DA
330
D1A
100
AcDbEntity
  8
0
 62
     0
370
    -2
100
AcDbLine
 10
150.800144
 20
-498.8521929999998
 30
0.0
 11
173.6200559999999
 21
-498.8521929999998
 31
0.0
  0
LINE
  5
11DB
330
D1A
100
AcDbEntity
  8
0
 62
     0
370
    -2
100
AcDbLine
 10
122.050144
 20
-392.852193
 30
0.0
 11
173.6200559999999
 21
-392.852193
 31
0.0
  0
LINE
  5
11DC
330
D1A
100
AcDbEntity
  8
0
 62
     0
370
    -2
100
AcDbLine
 10
172.3700559999999
 20
-496.3521929999997
 30
0.0
 11
172.3700559999999
 21
-395.3521930000001
 31
0.0
  0
INSERT
  5
11DD
330
D1A
100
AcDbEntity
  8
0
 62
     0
370
    -2
100
AcDbBlockReference
  2
_Open30
 10
172.3700559999999
 20
-498.8521929999998
 30
0.0
 41
2.5
 42
2.5
 43
2.5
 50
270.0
  0
INSERT
  5
11DE
330
D1A
100
AcDbEntity
  8
0
 62
     0
370
    -2
100
AcDbBlockReference
  2
_Open30
 10
172.3700559999999
 20
-392.852193
 30
0.0
 41
2.5
 42
2.5
 43
2.5
 50
90.0
  0
MTEXT
  5
11DF
330
D1A
100
AcDbEntity
  8
0
 62
     4
100
AcDbMText
 10
170.2450559999999
 20
-445.8521929999998
 30
0.0
 40
3.0
 41
0.0
 71
     5
 72
     1
  1
220
 11
0.0000000000000001
 21
1.0
 31
0.0
 73
     1
 44
1.0
1001
ACAD
1000
MTEXTBEGIN
1070
    73
1070
     1
1070
    44
1040
1.0
1070
    74
1070
     0
1000
MTEXTEND
  0
POINT
  5
11E0
330
D1A
100
AcDbEntity
  8
Defpoints
 62
     0
100
AcDbPoint
 10
150.550144
 20
-498.8521929999998
 30
0.0
  0
POINT
  5
11E1
330
D1A
100
AcDbEntity
  8
Defpoints
 62
     0
100
AcDbPoint
 10
121.800144
 20
-392.852193
 30
0.0
  0
POINT
  5
11E2
330
D1A
100
AcDbEntity
  8
Defpoints
 62
     0
100
AcDbPoint
 10
172.3700559999999
 20
-392.852193
 30
0.0
  0
ENDBLK
  5
D1C
330
D1A
100
AcDbEntity
  8
0
100
AcDbBlockEnd
  0
ENDSEC
  0
SECTION
  2
ENTITIES
  0
LINE
  5
9A
330
36
100
AcDbEntity
  8
0
 62
     3
100
AcDbLine
 10
423.340733
 20
-354.266289
 30
0.0
 11
423.340733
 21
-628.3216499999999
 31
0.0
  0
LINE
  5
9B
330
36
100
AcDbEntity
  8
0
 62
     3
100
AcDbLine
 10
33.340733
 20
-354.266289
 30
0.0
 11
423.340733
 21
-354.266289
 31
0.0
  0
TEXT
  5
A4
330
36
100
AcDbEntity
  8
0
 62
     3
100
AcDbText
 10
327.469974935309
 20
-595.8035519676433
 30
0.0
 40
4.5
  1
降圧専用トランス
  7
高4.5
100
AcDbText
  0
TEXT
  5
A5
330
36
100
AcDbEntity
  8
0
 62
     3
100
AcDbText
 10
388.060444
 20
-617.317754
 30
0.0
 40
3.2
  1
2007.11.1
  7
高3.2
100
AcDbText
  0
TEXT
  5
A6
330
36
100
AcDbEntity
  8
0
 62
     3
100
AcDbText
 10
315.3107889169774
 20
-583.8892599999998
 30
0.0
 40
4.5
  1
単巻トランス仕様
  7
高4.5
100
AcDbText
  0
LINE
  5
A7
330
36
100
AcDbEntity
  8
0
100
AcDbLine
 10
315.5468371619995
 20
-584.8266694303467
 30
0.0
 11
358.4033662200742
 21
-584.8266694303467
 31
0.0
  0
TEXT
  5
198
330
36
100
AcDbEntity
  8
0
 62
     3
100
AcDbText
 10
357.2120558188076
 20
-617.21451
 30
0.0
 40
3.2
  1
FREE
  7
高3.2
100
AcDbText
  0
LINE
  5
1AF
330
36
100
AcDbEntity
  8
0
 62
     3
100
AcDbLine
 10
397.641369
 20
-611.655928
 30
0.0
 11
397.6413690000001
 21
-588.655928
 31
0.0
  0
LINE
  5
1B1
330
36
100
AcDbEntity
  8
0
 62
     3
100
AcDbLine
 10
344.58776
 20
-618.6559279999999
 30
0.0
 11
344.58776
 21
-604.655928
 31
0.0
  0
TEXT
  5
1B3
330
36
100
AcDbEntity
  8
0
 62
     3
100
AcDbText
 10
373.651688
 20
-592.450812
 30
0.0
 40
2.0
  1
A
 41
0.7
100
AcDbText
  0
TEXT
  5
1B4
330
36
100
AcDbEntity
  8
0
 62
     3
100
AcDbText
 10
376.186974
 20
-592.450812
 30
0.0
 40
2.0
  1
P
 41
0.7
100
AcDbText
  0
TEXT
  5
1B5
330
36
100
AcDbEntity
  8
0
 62
     3
100
AcDbText
 10
378.72226
 20
-592.450812
 30
0.0
 40
2.0
  1
P
 41
0.7
100
AcDbText
  0
TEXT
  5
1B6
330
36
100
AcDbEntity
  8
0
 62
     3
100
AcDbText
 10
381.257546
 20
-592.450812
 30
0.0
 40
2.0
  1
D
 41
0.7
100
AcDbText
  0
TEXT
  5
1B7
330
36
100
AcDbEntity
  8
0
 62
     3
100
AcDbText
 10
386.626229
 20
-592.450812
 30
0.0
 40
2.0
  1
C
 41
0.7
100
AcDbText
  0
TEXT
  5
1B8
330
36
100
AcDbEntity
  8
0
 62
     3
100
AcDbText
 10
389.161516
 20
-592.450812
 30
0.0
 40
2.0
  1
H
 41
0.7
100
AcDbText
  0
TEXT
  5
1B9
330
36
100
AcDbEntity
  8
0
 62
     3
100
AcDbText
 10
391.696802
 20
-592.450812
 30
0.0
 40
2.0
  1
C
 41
0.7
100
AcDbText
  0
TEXT
  5
1BA
330
36
100
AcDbEntity
  8
0
 62
     3
100
AcDbText
 10
394.232088
 20
-592.450812
 30
0.0
 40
2.0
  1
K
 41
0.7
100
AcDbText
  0
TEXT
  5
1BB
330
36
100
AcDbEntity
  8
0
 62
     3
100
AcDbText
 10
399.906055
 20
-592.450812
 30
0.0
 40
2.0
  1
DESN
 41
1.216762999999998
100
AcDbText
  0
TEXT
  5
1BC
330
36
100
AcDbEntity
  8
0
 62
     3
100
AcDbText
 10
314.899696
 20
-621.7973099999998
 30
0.0
 40
2.0
  1
NICHIDO IND.CO.LTD
 41
1.274876
100
AcDbText
  0
LINE
  5
1BD
330
36
100
AcDbEntity
  8
0
 62
     3
100
AcDbLine
 10
325.282725
 20
-588.655928
 30
0.0
 11
325.282725
 21
-611.655928
 31
0.0
  0
LINE
  5
1BE
330
36
100
AcDbEntity
  8
0
 62
     3
100
AcDbLine
 10
371.641369
 20
-588.655928
 30
0.0
 11
371.641369
 21
-628.3216499999999
 31
0.0
  0
LINE
  5
1C3
330
36
100
AcDbEntity
  8
0
 62
     3
100
AcDbLine
 10
384.641369
 20
-588.6559279999999
 30
0.0
 11
384.641369
 21
-618.6559279999999
 31
0.0
  0
TEXT
  5
1C4
330
36
100
AcDbEntity
  8
0
 62
     3
100
AcDbText
 10
372.753814
 20
-617.791241
 30
0.0
 40
3.2
  1
作成日
 41
1.017225999999997
100
AcDbText
  0
LINE
  5
1C5
330
36
100
AcDbEntity
  8
0
 62
     3
100
AcDbLine
 10
423.340733
 20
-588.655928
 30
0.0
 11
312.03729
 21
-588.655928
 31
0.0
  0
LINE
  5
1C6
330
36
100
AcDbEntity
  8
0
 62
     3
100
AcDbLine
 10
410.641369
 20
-611.655928
 30
0.0
 11
410.641369
 21
-588.655928
 31
0.0
  0
TEXT
  5
1C7
330
36
100
AcDbEntity
  8
0
 62
     3
100
AcDbText
 10
413.9651729999997
 20
-592.364993
 30
0.0
 40
1.8
  1
D
 41
0.666667
100
AcDbText
  0
TEXT
  5
1C8
330
36
100
AcDbEntity
  8
0
 62
     3
100
AcDbText
 10
416.7818009999998
 20
-592.364993
 30
0.0
 40
1.8
  1
E
 41
0.666667
100
AcDbText
  0
TEXT
  5
1C9
330
36
100
AcDbEntity
  8
0
 62
     3
100
AcDbText
 10
419.598429
 20
-592.364993
 30
0.0
 40
1.8
  1
F
 41
0.666667
100
AcDbText
  0
TEXT
  5
1CA
330
36
100
AcDbEntity
  8
0
 62
     3
100
AcDbText
 10
413.9651729999997
 20
-596.3575469999997
 30
0.0
 40
3.2
  1
製図
 41
1.076369
100
AcDbText
  0
LINE
  5
1CB
330
36
100
AcDbEntity
  8
0
 62
     3
100
AcDbLine
 10
312.03729
 20
-588.655928
 30
0.0
 11
312.03729
 21
-628.3216499999999
 31
0.0
  0
TEXT
  5
1CC
330
36
100
AcDbEntity
  8
0
 62
     3
100
AcDbText
 10
313.413943
 20
-627.9891849999998
 30
0.0
 40
5.0
  1
日動工業株式会社
 41
0.833333
100
AcDbText
  0
LINE
  5
1CD
330
36
100
AcDbEntity
  8
0
 62
     3
100
AcDbLine
 10
354.9196940000002
 20
-604.6559279999999
 30
0.0
 11
354.919694
 21
-628.3216499999999
 31
0.0
  0
LINE
  5
1CE
330
36
100
AcDbEntity
  8
0
 62
     3
100
AcDbLine
 10
354.919694
 20
-623.488789
 30
0.0
 11
371.641369
 21
-623.488789
 31
0.0
  0
TEXT
  5
1CF
330
36
100
AcDbEntity
  8
0
 62
     3
100
AcDbText
 10
355.506296
 20
-622.672359
 30
0.0
 40
3.2
  1
出図コード
 41
0.8356860000000001
100
AcDbText
  0
LINE
  5
1D1
330
36
100
AcDbEntity
  8
0
 62
     3
100
AcDbLine
 10
312.03729
 20
-618.6559279999999
 30
0.0
 11
423.340733
 21
-618.6559279999999
 31
0.0
  0
LINE
  5
1D3
330
36
100
AcDbEntity
  8
0
 62
     3
100
AcDbLine
 10
312.03729
 20
-597.655928
 30
0.0
 11
423.340733
 21
-597.655928
 31
0.0
  0
LINE
  5
1D9
330
36
100
AcDbEntity
  8
0
 62
     3
100
AcDbLine
 10
312.03729
 20
-604.6559279999999
 30
0.0
 11
371.641369
 21
-604.655928
 31
0.0
  0
LINE
  5
1DF
330
36
100
AcDbEntity
  8
0
 62
     3
100
AcDbLine
 10
312.03729
 20
-611.655928
 30
0.0
 11
423.340733
 21
-611.655928
 31
0.0
  0
TEXT
  5
1E0
330
36
100
AcDbEntity
  8
0
 62
     3
100
AcDbText
 10
355.373748
 20
-627.9374302916967
 30
0.0
 40
3.2
  1
ZK-A3X
 41
0.8112849999999999
100
AcDbText
  0
TEXT
  5
1E1
330
36
100
AcDbEntity
  8
0
 62
     3
100
AcDbText
 10
313.854687
 20
-592.486402
 30
0.0
 40
2.0
  1
CONPONENTS
 41
0.5331600000000001
100
AcDbText
  0
TEXT
  5
1E2
330
36
100
AcDbEntity
  8
0
 62
     3
100
AcDbText
 10
313.504961
 20
-611.418579
 30
0.0
 40
3.0
  1
材
 41
0.833333
100
AcDbText
  0
TEXT
  5
1E3
330
36
100
AcDbEntity
  8
0
 62
     3
100
AcDbText
 10
321.040603
 20
-611.418579
 30
0.0
 40
3.0
  1
質
 41
0.833333
100
AcDbText
  0
TEXT
  5
1E4
330
36
100
AcDbEntity
  8
0
 62
     3
100
AcDbText
 10
313.593031
 20
-600.7940539999997
 30
0.0
 40
2.0
  1
MODEL
 41
1.031072999999999
100
AcDbText
  0
TEXT
  5
1E5
330
36
100
AcDbEntity
  8
0
 62
     3
100
AcDbText
 10
313.504961
 20
-607.736271
 30
0.0
 40
2.0
  1
MATERIAL
 41
0.659278
100
AcDbText
  0
TEXT
  5
1E6
330
36
100
AcDbEntity
  8
0
 62
     3
100
AcDbText
 10
344.812241
 20
-611.418579
 30
0.0
 40
3.0
  1
備
 41
0.833333
100
AcDbText
  0
TEXT
  5
1E7
330
36
100
AcDbEntity
  8
0
 62
     3
100
AcDbText
 10
351.545243
 20
-611.418579
 30
0.0
 40
3.0
  1
考
 41
0.833333
100
AcDbText
  0
TEXT
  5
1E8
330
36
100
AcDbEntity
  8
0
 62
     3
100
AcDbText
 10
345.1614847678901
 20
-607.736271
 30
0.0
 40
2.0
  1
REMARKS
 41
0.675794
100
AcDbText
  0
TEXT
  5
1E9
330
36
100
AcDbEntity
  8
0
 62
     3
100
AcDbText
 10
315.09469
 20
-614.656391
 30
0.0
 40
2.0
  1
3AD
 41
1.42614
100
AcDbText
  0
TEXT
  5
1EA
330
36
100
AcDbEntity
  8
0
 62
     3
100
AcDbText
 10
324.405669
 20
-614.490658
 30
0.0
 40
2.0
  1
ANGLE
 41
1.669883999999995
100
AcDbText
  0
TEXT
  5
1EB
330
36
100
AcDbEntity
  8
0
 62
     3
100
AcDbText
 10
345.339557
 20
-614.867499
 30
0.0
 40
2.0
  1
SCALE
 41
0.7719630000000001
100
AcDbText
  0
TEXT
  5
1EC
330
36
100
AcDbEntity
  8
0
 62
     3
100
AcDbText
 10
314.78082
 20
-618.6559279999999
 30
0.0
 40
3.0
  1
第
 41
0.833333
100
AcDbText
  0
TEXT
  5
1ED
330
36
100
AcDbEntity
  8
0
 62
     3
100
AcDbText
 10
322.56767
 20
-618.6559279999999
 30
0.0
 40
3.0
  1
三
 41
0.833333
100
AcDbText
  0
TEXT
  5
1EE
330
36
100
AcDbEntity
  8
0
 62
     3
100
AcDbText
 10
330.354519
 20
-618.6559279999999
 30
0.0
 40
3.0
  1
角
 41
0.833333
100
AcDbText
  0
TEXT
  5
1EF
330
36
100
AcDbEntity
  8
0
 62
     3
100
AcDbText
 10
338.141369
 20
-618.6559279999999
 30
0.0
 40
3.0
  1
法
 41
0.833333
100
AcDbText
  0
TEXT
  5
1F0
330
36
100
AcDbEntity
  8
0
 62
     3
100
AcDbText
 10
345.202762
 20
-618.367499
 30
0.0
 40
3.0
  1
尺
 41
0.833333
100
AcDbText
  0
TEXT
  5
1F1
330
36
100
AcDbEntity
  8
0
 62
     3
100
AcDbText
 10
351.935763
 20
-618.367499
 30
0.0
 40
3.0
  1
度
 41
0.833333
100
AcDbText
  0
TEXT
  5
1F2
330
36
100
AcDbEntity
  8
0
 62
     3
100
AcDbText
 10
374.519034
 20
-596.198199
 30
0.0
 40
3.0
  1
承認
 41
1.089472999999999
100
AcDbText
  0
TEXT
  5
1F3
330
36
100
AcDbEntity
  8
0
 62
     3
100
AcDbText
 10
387.761914
 20
-596.255928
 30
0.0
 40
3.0
  1
検図
 41
0.931761
100
AcDbText
  0
TEXT
  5
1F4
330
36
100
AcDbEntity
  8
0
 62
     3
100
AcDbText
 10
400.7623109999998
 20
-596.255928
 30
0.0
 40
3.0
  1
設
 41
0.833333
100
AcDbText
  0
TEXT
  5
1F5
330
36
100
AcDbEntity
  8
0
 62
     3
100
AcDbText
 10
405.252179
 20
-596.255928
 30
0.0
 40
3.0
  1
計
 41
0.833333
100
AcDbText
  0
TEXT
  5
1F6
330
36
100
AcDbEntity
  8
0
 62
     3
100
AcDbText
 10
313.924794
 20
-596.083375
 30
0.0
 40
3.0
  1
品
 41
0.833333
100
AcDbText
  0
TEXT
  5
1F7
330
36
100
AcDbEntity
  8
0
 62
     3
100
AcDbText
 10
321.460436
 20
-596.083375
 30
0.0
 40
3.0
  1
名
 41
0.833333
100
AcDbText
  0
TEXT
  5
1F8
330
36
100
AcDbEntity
  8
0
 62
     3
100
AcDbText
 10
313.593031
 20
-604.3374178781736
 30
0.0
 40
3.0
  1
型
 41
0.833333
100
AcDbText
  0
TEXT
  5
1F9
330
36
100
AcDbEntity
  8
0
 62
     3
100
AcDbText
 10
321.141122
 20
-604.3374178781736
 30
0.0
 40
3.0
  1
式
 41
0.833333
100
AcDbText
  0
LINE
  5
1FA
330
36
100
AcDbEntity
  8
0
 62
     3
100
AcDbLine
 10
20.938809
 20
-487.8216499999998
 30
0.0
 11
18.340733
 21
-489.32165
 31
0.0
  0
LINE
  5
1FB
330
36
100
AcDbEntity
  8
0
 62
     3
100
AcDbLine
 10
20.938809
 20
-487.8216499999998
 30
0.0
 11
18.340733
 21
-486.32165
 31
0.0
  0
LINE
  5
1FC
330
36
100
AcDbEntity
  8
0
 62
     3
100
AcDbLine
 10
18.340733
 20
-489.32165
 30
0.0
 11
18.340733
 21
-486.32165
 31
0.0
  0
CIRCLE
  5
238
330
36
100
AcDbEntity
  8
0
 62
     3
100
AcDbCircle
 10
236.7209520102534
 20
-547.44513029085
 30
0.0
 40
8.75
  0
CIRCLE
  5
239
330
36
100
AcDbEntity
  8
0
 62
     3
100
AcDbCircle
 10
236.7209520102534
 20
-559.9451302908498
 30
0.0
 40
0.625
  0
LINE
  5
23A
330
36
100
AcDbEntity
  8
0
100
AcDbLine
 10
335.4931499695887
 20
-523.7947849999998
 30
0.0
 11
335.4931499695887
 21
-565.374785
 31
0.0
  0
LINE
  5
23B
330
36
100
AcDbEntity
  8
0
 62
     7
100
AcDbLine
 10
341.177282
 20
-521.3428069999999
 30
0.0
 11
377.8634009260732
 21
-521.3428069999999
 31
0.0
  0
LINE
  5
23C
330
36
100
AcDbEntity
  8
0
 62
     3
100
AcDbLine
 10
397.7484157587566
 20
-523.7947849999998
 30
0.0
 11
397.7484157587566
 21
-565.374785
 31
0.0
  0
TEXT
  5
23D
330
36
100
AcDbEntity
  8
0
 62
     3
100
AcDbText
 10
332.8990845708163
 20
-603.4965249999998
 30
0.0
 40
4.5
  1
TB-100D
  7
高4.5
100
AcDbText
  0
TEXT
  5
23E
330
36
100
AcDbEntity
  8
0
 62
     3
100
AcDbText
 10
376.3319636655947
 20
-627.1744219999998
 30
0.0
 40
6.299999999999998
  1
TB-100D
  7
高6.3
100
AcDbText
  0
LINE
  5
268
330
36
100
AcDbEntity
  8
0
100
AcDbLine
 10
239.0959520102534
 20
-541.3201302908499
 30
0.0
 11
239.0959520102534
 21
-543.07013029085
 31
0.0
  0
LINE
  5
269
330
36
100
AcDbEntity
  8
0
100
AcDbLine
 10
234.3459520102534
 20
-541.3201302908499
 30
0.0
 11
239.0959520102534
 21
-541.3201302908499
 31
0.0
  0
LINE
  5
26A
330
36
100
AcDbEntity
  8
0
100
AcDbLine
 10
234.3459520102534
 20
-541.3201302908499
 30
0.0
 11
234.3459520102534
 21
-543.07013029085
 31
0.0
  0
LINE
  5
26B
330
36
100
AcDbEntity
  8
0
100
AcDbLine
 10
234.3459520102534
 20
-543.07013029085
 30
0.0
 11
239.0959520102534
 21
-543.07013029085
 31
0.0
  0
LINE
  5
26C
330
36
100
AcDbEntity
  8
0
100
AcDbLine
 10
237.5334520102534
 20
-549.8201302908499
 30
0.0
 11
237.5334520102534
 21
-554.5701302908498
 31
0.0
  0
LINE
  5
26D
330
36
100
AcDbEntity
  8
0
100
AcDbLine
 10
235.9084520102534
 20
-549.8201302908499
 30
0.0
 11
237.5334520102534
 21
-549.8201302908499
 31
0.0
  0
LINE
  5
26E
330
36
100
AcDbEntity
  8
0
100
AcDbLine
 10
235.9084520102534
 20
-549.8201302908499
 30
0.0
 11
235.9084520102534
 21
-554.5701302908498
 31
0.0
  0
LINE
  5
26F
330
36
100
AcDbEntity
  8
0
100
AcDbLine
 10
241.0959520102534
 20
-549.8201302908499
 30
0.0
 11
242.7209520102534
 21
-549.8201302908499
 31
0.0
  0
LINE
  5
270
330
36
100
AcDbEntity
  8
0
100
AcDbLine
 10
241.0959520102534
 20
-545.0701302908498
 30
0.0
 11
241.0959520102534
 21
-549.8201302908499
 31
0.0
  0
LINE
  5
271
330
36
100
AcDbEntity
  8
0
100
AcDbLine
 10
241.0959520102534
 20
-545.0701302908498
 30
0.0
 11
242.7209520102534
 21
-545.0701302908498
 31
0.0
  0
LINE
  5
272
330
36
100
AcDbEntity
  8
0
100
AcDbLine
 10
232.3459520102534
 20
-545.0701302908498
 30
0.0
 11
232.3459520102534
 21
-549.8201302908499
 31
0.0
  0
LINE
  5
273
330
36
100
AcDbEntity
  8
0
100
AcDbLine
 10
230.7209520102534
 20
-545.0701302908498
 30
0.0
 11
232.3459520102534
 21
-545.0701302908498
 31
0.0
  0
LINE
  5
274
330
36
100
AcDbEntity
  8
0
100
AcDbLine
 10
230.7209520102534
 20
-549.8201302908499
 30
0.0
 11
232.3459520102534
 21
-549.8201302908499
 31
0.0
  0
LINE
  5
275
330
36
100
AcDbEntity
  8
0
100
AcDbLine
 10
230.7209520102534
 20
-545.0701302908498
 30
0.0
 11
230.7209520102534
 21
-549.8201302908499
 31
0.0
  0
LINE
  5
276
330
36
100
AcDbEntity
  8
0
100
AcDbLine
 10
242.7209520102534
 20
-545.0701302908498
 30
0.0
 11
242.7209520102534
 21
-549.8201302908499
 31
0.0
  0
LINE
  5
277
330
36
100
AcDbEntity
  8
0
100
AcDbLine
 10
235.9709520102534
 20
-554.5701302908498
 30
0.0
 11
237.5334520102534
 21
-554.5701302908498
 31
0.0
  0
LINE
  5
2C8
330
36
100
AcDbEntity
  8
0
 62
     3
100
AcDbLine
 10
33.340733
 20
-354.266289
 30
0.0
 11
33.340733
 21
-628.3216499999999
 31
0.0
  0
LINE
  5
2C9
330
36
100
AcDbEntity
  8
0
 62
     3
100
AcDbLine
 10
423.340733
 20
-628.3216499999999
 30
0.0
 11
33.340733
 21
-628.3216499999999
 31
0.0
  0
LINE
  5
2D4
330
36
100
AcDbEntity
  8
0
100
AcDbLine
 10
236.7209520102534
 20
-528.69513029085
 30
0.0
 11
236.7209520102534
 21
-541.3201302908499
 31
0.0
  0
LINE
  5
2D5
330
36
100
AcDbEntity
  8
0
100
AcDbLine
 10
277.3323650102534
 20
-547.44513029085
 30
0.0
 11
242.7209520102534
 21
-547.44513029085
 31
0.0
  0
LINE
  5
2D6
330
36
100
AcDbEntity
  8
0
 62
     3
100
AcDbLine
 10
423.2406969999998
 20
-582.655928
 30
0.0
 11
371.641333
 21
-582.655928
 31
0.0
  0
TEXT
  5
2D7
330
36
100
AcDbEntity
  8
0
 62
     3
100
AcDbText
 10
376.804060155639
 20
-588.0998429999997
 30
0.0
 40
4.5
  1
コード
  7
高4.5
100
AcDbText
  0
LINE
  5
2D8
330
36
100
AcDbEntity
  8
0
 62
     3
100
AcDbLine
 10
397.641333
 20
-588.655928
 30
0.0
 11
397.641333
 21
-582.655928
 31
0.0
  0
LINE
  5
2D9
330
36
100
AcDbEntity
  8
0
 62
     3
100
AcDbLine
 10
371.641333
 20
-588.655928
 30
0.0
 11
371.641333
 21
-582.655928
 31
0.0
  0
TEXT
  5
2E5
330
36
100
AcDbEntity
  8
0
 62
     3
100
AcDbText
 10
402.2972726287401
 20
-588.1575719999997
 30
0.0
 40
4.5
  1
5565
  7
高4.5
100
AcDbText
  0
CIRCLE
  5
2E6
330
36
100
AcDbEntity
  8
0
 62
     3
100
AcDbCircle
 10
278.2698650102534
 20
-528.69513029085
 30
0.0
 40
0.9375
  0
CIRCLE
  5
2E7
330
36
100
AcDbEntity
  8
0
 62
     3
100
AcDbCircle
 10
278.2698650102534
 20
-547.44513029085
 30
0.0
 40
0.9375
  0
LINE
  5
2E8
330
36
100
AcDbEntity
  8
0
 62
     3
100
AcDbLine
 10
310.167093
 20
-565.374785
 30
0.0
 11
397.7484157587566
 21
-565.374785
 31
0.0
  0
LINE
  5
2E9
330
36
100
AcDbEntity
  8
0
 62
     3
100
AcDbLine
 10
310.167093
 20
-523.7947849999998
 30
0.0
 11
310.167093
 21
-565.374785
 31
0.0
  0
LINE
  5
2EA
330
36
100
AcDbEntity
  8
0
 62
     3
100
AcDbLine
 10
310.167093
 20
-523.7947849999998
 30
0.0
 11
397.7484157587566
 21
-523.7947849999998
 31
0.0
  0
LINE
  5
2EB
330
36
100
AcDbEntity
  8
0
  6
CENTER
 62
     3
100
AcDbLine
 10
234.9015210102534
 20
-562.3506652908498
 30
0.0
 11
238.6515210102534
 21
-562.3506652908498
 31
0.0
  0
LINE
  5
2EC
330
36
100
AcDbEntity
  8
0
  6
CENTER
 62
     3
100
AcDbLine
 10
235.5265210102534
 20
-563.1506652908501
 30
0.0
 11
238.0265210102534
 21
-563.1506652908501
 31
0.0
  0
LINE
  5
2ED
330
36
100
AcDbEntity
  8
0
  6
CENTER
 62
     3
100
AcDbLine
 10
236.1515210102534
 20
-563.9506652908497
 30
0.0
 11
237.4015210102534
 21
-563.9506652908497
 31
0.0
  0
TEXT
  5
2EE
330
36
100
AcDbEntity
  8
0
 62
     3
100
AcDbText
 10
312.147093
 20
-536.6547849999998
 30
0.0
 40
4.5
  1
入力電圧
  7
高4.5
100
AcDbText
  0
TEXT
  5
2EF
330
36
100
AcDbEntity
  8
0
 62
     3
100
AcDbText
 10
312.147093
 20
-543.5847849999999
 30
0.0
 40
4.5
  1
出力電圧
  7
高4.5
100
AcDbText
  0
TEXT
  5
2F0
330
36
100
AcDbEntity
  8
0
 62
     3
100
AcDbText
 10
312.147093
 20
-550.5147849999998
 30
0.0
 40
4.5
  1
容　　量
  7
高4.5
100
AcDbText
  0
TEXT
  5
2F1
330
36
100
AcDbEntity
  8
0
 62
     3
100
AcDbText
 10
312.147093
 20
-557.4447849999993
 30
0.0
 40
4.5
  1
質　　量
  7
高4.5
100
AcDbText
  0
TEXT
  5
2F2
330
36
100
AcDbEntity
  8
0
 62
     3
100
AcDbText
 10
312.147093
 20
-564.3747849999997
 30
0.0
 40
4.5
  1
絶縁種類
  7
高4.5
100
AcDbText
  0
TEXT
  5
2F3
330
36
100
AcDbEntity
  8
0
 62
     3
100
AcDbText
 10
312.147093
 20
-529.7247849999998
 30
0.0
 40
4.5
  1
型　　式
  7
高4.5
100
AcDbText
  0
LINE
  5
2F4
330
36
100
AcDbEntity
  8
0
100
AcDbLine
 10
310.167093
 20
-530.724785
 30
0.0
 11
397.7484157587566
 21
-530.724785
 31
0.0
  0
LINE
  5
2F5
330
36
100
AcDbEntity
  8
0
100
AcDbLine
 10
310.167093
 20
-537.6547849999998
 30
0.0
 11
397.7484157587566
 21
-537.6547849999998
 31
0.0
  0
LINE
  5
2F6
330
36
100
AcDbEntity
  8
0
100
AcDbLine
 10
310.167093
 20
-544.5847849999998
 30
0.0
 11
397.7484157587566
 21
-544.5847849999998
 31
0.0
  0
LINE
  5
2F7
330
36
100
AcDbEntity
  8
0
100
AcDbLine
 10
310.167093
 20
-551.5147849999998
 30
0.0
 11
397.7484157587566
 21
-551.5147849999998
 31
0.0
  0
LINE
  5
2F8
330
36
100
AcDbEntity
  8
0
100
AcDbLine
 10
310.167093
 20
-558.4447849999998
 30
0.0
 11
397.7484157587566
 21
-558.4447849999998
 31
0.0
  0
TEXT
  5
2F9
330
36
100
AcDbEntity
  8
0
 62
     3
100
AcDbText
 10
341.177282
 20
-520.7765947436633
 30
0.0
 40
4.5
  1
主　　仕　　様
  7
高4.5
100
AcDbText
  0
TEXT
  5
2FA
330
36
100
AcDbEntity
  8
0
 62
     3
100
AcDbText
 10
337.2919979695887
 20
-536.6547849999998
 30
0.0
 40
4.5
  1
AC200V 50/60Hz
  7
高4.5
100
AcDbText
  0
TEXT
  5
2FB
330
36
100
AcDbEntity
  8
0
 62
     3
100
AcDbText
 10
354.9670939695887
 20
-564.3747849999997
 30
0.0
 40
4.5
  1
B種絶縁
  7
高4.5
100
AcDbText
  0
CIRCLE
  5
2FC
330
36
100
AcDbEntity
  8
0
 62
     3
100
AcDbCircle
 10
278.2698650102534
 20
-559.9451302908498
 30
0.0
 40
0.9375
  0
TEXT
  5
2FD
330
36
100
AcDbEntity
  8
0
 62
     3
100
AcDbText
 10
341.6138089695888
 20
-543.5847849999999
 30
0.0
 40
4.5
  1
AC100V/115V
  7
高4.5
100
AcDbText
  0
TEXT
  5
2FF
330
36
100
AcDbEntity
  8
0
 62
     3
100
AcDbText
 10
351.2309397366676
 20
-529.7247849999998
 30
0.0
 40
4.5
  1
TB-100D
  7
高4.5
100
AcDbText
  0
TEXT
  5
300
330
36
100
AcDbEntity
  8
0
 62
     3
100
AcDbText
 10
346.8668729695887
 20
-550.5147849999998
 30
0.0
 40
4.5
  1
1.0KVA　連続
  7
高4.5
100
AcDbText
  0
TEXT
  5
301
330
36
100
AcDbEntity
  8
0
 62
     3
100
AcDbText
 10
235.8355743809101
 20
-518.9723612452421
 30
0.0
 40
3.2
  1
入力プラグ結線
  7
高3.2
100
AcDbText
  0
TEXT
  5
302
330
36
100
AcDbEntity
  8
0
 62
     3
100
AcDbText
 10
240.7925573809101
 20
-524.8396142452425
 30
0.0
 40
3.2
  1
200V
  7
高3.2
100
AcDbText
  0
TEXT
  5
303
330
36
100
AcDbEntity
  8
0
 62
     3
100
AcDbText
 10
256.2529970102535
 20
-527.7038332908498
 30
0.0
 40
3.2
  1
白線
  7
高3.2
100
AcDbText
  0
TEXT
  5
304
330
36
100
AcDbEntity
  8
0
 62
     3
100
AcDbText
 10
256.7538760102534
 20
-546.60327229085
 30
0.0
 40
3.2
  1
黒線
  7
高3.2
100
AcDbText
  0
TEXT
  5
305
330
36
100
AcDbEntity
  8
0
 62
     3
100
AcDbText
 10
256.7538760102534
 20
-565.3745792908497
 30
0.0
 40
3.2
  1
緑（アース）
  7
高3.2
100
AcDbText
  0
TEXT
  5
306
330
36
100
AcDbEntity
  8
0
 62
     3
100
AcDbText
 10
354.0501192518732
 20
-557.4447849999993
 30
0.0
 40
4.5
  1
約10kg
  7
高4.5
100
AcDbText
  0
LINE
  5
336
330
36
100
AcDbEntity
  8
0
100
AcDbLine
 10
277.3323650102534
 20
-528.69513029085
 30
0.0
 11
236.7209520102534
 21
-528.69513029085
 31
0.0
  0
LINE
  5
337
330
36
100
AcDbEntity
  8
0
100
AcDbLine
 10
277.3323650102534
 20
-559.9451302908498
 30
0.0
 11
236.7209520102534
 21
-559.9451302908498
 31
0.0
  0
LINE
  5
338
330
36
100
AcDbEntity
  8
0
100
AcDbLine
 10
236.7209520102534
 20
-559.9451302908498
 30
0.0
 11
236.7209520102534
 21
-554.5701302908498
 31
0.0
  0
LINE
  5
339
330
36
100
AcDbEntity
  8
0
  6
CENTER
100
AcDbLine
 10
236.7765210102534
 20
-560.5178132908502
 30
0.0
 11
236.7765210102534
 21
-562.3506652908498
 31
0.0
  0
TEXT
  5
33D
330
36
100
AcDbEntity
  8
0
 62
     3
100
AcDbText
 10
245.617409027095
 20
-547.1463249079756
 30
0.0
 40
3.2
  1
X
  7
高3.2
100
AcDbText
  0
TEXT
  5
33E
330
36
100
AcDbEntity
  8
0
 62
     3
100
AcDbText
 10
225.1930006631044
 20
-548.4138170910719
 30
0.0
 40
3.2
  1
Z
  7
高3.2
100
AcDbText
  0
TEXT
  5
33F
330
36
100
AcDbEntity
  8
0
 62
     3
100
AcDbText
 10
234.6498521974199
 20
-537.8412719405316
 30
0.0
 40
3.2
  1
Y
  7
高3.2
100
AcDbText
  0
TEXT
  5
450
330
36
100
AcDbEntity
  8
0
 62
     3
100
AcDbText
 10
410.840733
 20
-363.766289
 30
0.0
 40
3.2
  1
担　当
  7
高3.2
100
AcDbText
  0
TEXT
  5
451
330
36
100
AcDbEntity
  8
0
 62
     3
100
AcDbText
 10
366.840733
 20
-363.766289
 30
0.0
 40
3.2
  1
変更・追記内容
  7
高3.2
100
AcDbText
  0
TEXT
  5
452
330
36
100
AcDbEntity
  8
0
 62
     3
100
AcDbText
 10
341.9542480003392
 20
-368.4368275099083
 30
0.0
 40
2.0
  1
1
  7
高2
100
AcDbText
  0
TEXT
  5
453
330
36
100
AcDbEntity
  8
0
 62
     3
100
AcDbText
 10
341.645736523582
 20
-373.6066442221812
 30
0.0
 40
2.0
  1
2
  7
高2
100
AcDbText
  0
TEXT
  5
454
330
36
100
AcDbEntity
  8
0
 62
     3
100
AcDbText
 10
348.840733
 20
-363.766289
 30
0.0
 40
3.2
  1
日　付
  7
高3.2
100
AcDbText
  0
TEXT
  5
455
330
36
100
AcDbEntity
  8
0
 62
     3
100
AcDbText
 10
348.840733
 20
-358.766289
 30
0.0
 40
3.2
  1
図　　　　面　　　　略　　　　歴
  7
高3.2
100
AcDbText
  0
TEXT
  5
456
330
36
100
AcDbEntity
  8
0
 62
     3
100
AcDbText
 10
338.840733
 20
-363.766289
 30
0.0
 40
3.2
  1
記号
  7
高3.2
100
AcDbText
  0
LINE
  5
457
330
36
100
AcDbEntity
  8
0
100
AcDbLine
 10
342.340733
 20
-370.4753929999998
 30
0.0
 11
340.440733
 21
-373.766289
 31
0.0
  0
LINE
  5
458
330
36
100
AcDbEntity
  8
0
100
AcDbLine
 10
342.340733
 20
-370.4753929999998
 30
0.0
 11
344.240733
 21
-373.766289
 31
0.0
  0
LINE
  5
459
330
36
100
AcDbEntity
  8
0
100
AcDbLine
 10
340.440733
 20
-373.766289
 30
0.0
 11
344.240733
 21
-373.766289
 31
0.0
  0
LINE
  5
45A
330
36
100
AcDbEntity
  8
0
100
AcDbLine
 10
342.340733
 20
-365.475392
 30
0.0
 11
340.440733
 21
-368.766289
 31
0.0
  0
LINE
  5
45B
330
36
100
AcDbEntity
  8
0
100
AcDbLine
 10
342.340733
 20
-365.475392
 30
0.0
 11
344.240733
 21
-368.766289
 31
0.0
  0
LINE
  5
45C
330
36
100
AcDbEntity
  8
0
100
AcDbLine
 10
340.440733
 20
-368.766289
 30
0.0
 11
344.240733
 21
-368.766289
 31
0.0
  0
LINE
  5
45D
330
36
100
AcDbEntity
  8
0
 62
     3
100
AcDbLine
 10
337.340733
 20
-359.266289
 30
0.0
 11
423.340733
 21
-359.266289
 31
0.0
  0
LINE
  5
45E
330
36
100
AcDbEntity
  8
0
 62
     3
100
AcDbLine
 10
337.340733
 20
-364.266289
 30
0.0
 11
423.340733
 21
-364.266289
 31
0.0
  0
LINE
  5
45F
330
36
100
AcDbEntity
  8
0
 62
     7
100
AcDbLine
 10
337.340733
 20
-369.266289
 30
0.0
 11
423.340733
 21
-369.266289
 31
0.0
  0
LINE
  5
460
330
36
100
AcDbEntity
  8
0
 62
     3
100
AcDbLine
 10
337.340733
 20
-374.266289
 30
0.0
 11
423.340733
 21
-374.266289
 31
0.0
  0
LINE
  5
461
330
36
100
AcDbEntity
  8
0
 62
     7
100
AcDbLine
 10
409.3407329999998
 20
-374.266289
 30
0.0
 11
409.3407329999998
 21
-359.266289
 31
0.0
  0
LINE
  5
462
330
36
100
AcDbEntity
  8
0
 62
     7
100
AcDbLine
 10
365.340733
 20
-374.266289
 30
0.0
 11
365.340733
 21
-359.266289
 31
0.0
  0
LINE
  5
463
330
36
100
AcDbEntity
  8
0
 62
     7
100
AcDbLine
 10
347.340733
 20
-374.266289
 30
0.0
 11
347.340733
 21
-359.266289
 31
0.0
  0
LINE
  5
464
330
36
100
AcDbEntity
  8
0
 62
     3
100
AcDbLine
 10
337.340733
 20
-374.266289
 30
0.0
 11
337.340733
 21
-354.266289
 31
0.0
  0
LINE
  5
9D2
330
36
100
AcDbEntity
  8
0
 62
     3
100
AcDbLine
 10
322.542652
 20
-492.8521929999998
 30
0.0
 11
321.542652
 21
-498.8521929999998
 31
0.0
  0
LINE
  5
9D6
330
36
100
AcDbEntity
  8
0
 62
     3
100
AcDbLine
 10
335.042652
 20
-412.8521929999998
 30
0.0
 11
205.042652
 21
-412.8521929999998
 31
0.0
  0
LINE
  5
9D7
330
36
100
AcDbEntity
  8
0
 62
     3
100
AcDbLine
 10
161.800144
 20
-492.8521929999998
 30
0.0
 11
81.80014400000004
 21
-492.8521929999998
 31
0.0
  0
LINE
  5
9D8
330
36
100
AcDbEntity
  8
0
 62
     3
100
AcDbLine
 10
143.800144
 20
-492.8521929999998
 30
0.0
 11
144.800144
 21
-498.8521929999998
 31
0.0
  0
LINE
  5
9D9
330
36
100
AcDbEntity
  8
0
 62
     3
100
AcDbLine
 10
144.800144
 20
-498.8521929999998
 30
0.0
 11
152.800144
 21
-498.8521929999998
 31
0.0
  0
LINE
  5
9DA
330
36
100
AcDbEntity
  8
0
 62
     3
100
AcDbLine
 10
99.80014400000003
 20
-492.8521929999998
 30
0.0
 11
98.80014400000003
 21
-498.8521929999998
 31
0.0
  0
LINE
  5
9DB
330
36
100
AcDbEntity
  8
0
 62
     3
100
AcDbLine
 10
98.80014400000003
 20
-498.8521929999998
 30
0.0
 11
90.80014400000003
 21
-498.8521929999998
 31
0.0
  0
LINE
  5
9DC
330
36
100
AcDbEntity
  8
0
 62
     3
100
AcDbLine
 10
153.800144
 20
-492.8521929999998
 30
0.0
 11
152.800144
 21
-498.8521929999998
 31
0.0
  0
LINE
  5
9DD
330
36
100
AcDbEntity
  8
0
 62
     3
100
AcDbLine
 10
89.80014400000003
 20
-492.8521929999998
 30
0.0
 11
90.80014400000003
 21
-498.8521929999998
 31
0.0
  0
LINE
  5
9DE
330
36
100
AcDbEntity
  8
0
 62
     3
100
AcDbLine
 10
217.542652
 20
-492.8521929999998
 30
0.0
 11
218.542652
 21
-498.8521929999998
 31
0.0
  0
LINE
  5
9DF
330
36
100
AcDbEntity
  8
0
 62
     3
100
AcDbLine
 10
218.542652
 20
-498.8521929999998
 30
0.0
 11
226.542652
 21
-498.8521929999998
 31
0.0
  0
LINE
  5
9E0
330
36
100
AcDbEntity
  8
0
 62
     3
100
AcDbLine
 10
227.542652
 20
-492.8521929999998
 30
0.0
 11
226.542652
 21
-498.8521929999998
 31
0.0
  0
LINE
  5
9E1
330
36
100
AcDbEntity
  8
0
 62
     3
100
AcDbLine
 10
210.8238591063026
 20
-492.8521929999998
 30
0.0
 11
333.042652
 21
-492.8521929999998
 31
0.0
  0
LINE
  5
9E2
330
36
100
AcDbEntity
  8
0
 62
     3
100
AcDbLine
 10
312.542652
 20
-492.8521929999998
 30
0.0
 11
313.542652
 21
-498.8521929999998
 31
0.0
  0
LINE
  5
9E3
330
36
100
AcDbEntity
  8
0
 62
     3
100
AcDbLine
 10
321.542652
 20
-498.8521929999998
 30
0.0
 11
313.542652
 21
-498.8521929999998
 31
0.0
  0
LINE
  5
9E4
330
36
100
AcDbEntity
  8
0
 62
     3
100
AcDbLine
 10
81.80014400000004
 20
-413.6521929999998
 30
0.0
 11
81.80014400000004
 21
-492.8521929999998
 31
0.0
  0
LINE
  5
9E5
330
36
100
AcDbEntity
  8
0
 62
     3
100
AcDbLine
 10
156.0001439999999
 20
-407.8521929999998
 30
0.0
 11
87.60014400000001
 21
-407.8521929999998
 31
0.0
  0
LINE
  5
9E6
330
36
100
AcDbEntity
  8
0
 62
     3
100
AcDbLine
 10
161.800144
 20
-413.6521929999998
 30
0.0
 11
161.800144
 21
-492.8521929999998
 31
0.0
  0
ARC
  5
9EF
330
36
100
AcDbEntity
  8
0
 62
     3
100
AcDbCircle
 10
333.042652
 20
-490.8521929999998
 30
0.0
 40
2.0
100
AcDbArc
 50
270.0
 51
0.0
  0
LINE
  5
9F0
330
36
100
AcDbEntity
  8
0
 62
     3
100
AcDbLine
 10
335.042652
 20
-490.8521929999998
 30
0.0
 11
335.042652
 21
-412.8521929999998
 31
0.0
  0
CIRCLE
  5
A07
330
36
100
AcDbEntity
  8
0
100
AcDbCircle
 10
312.042652
 20
-487.8521929999998
 30
0.0
 40
2.0
  0
CIRCLE
  5
A08
330
36
100
AcDbEntity
  8
0
100
AcDbCircle
 10
232.042652
 20
-487.8521929999998
 30
0.0
 40
2.0
  0
LINE
  5
A09
330
36
100
AcDbEntity
  8
0
100
AcDbLine
 10
161.000144
 20
-413.6521929999998
 30
0.0
 11
161.000144
 21
-492.8521929999998
 31
0.0
  0
LINE
  5
A0A
330
36
100
AcDbEntity
  8
0
100
AcDbLine
 10
87.60014400000001
 20
-408.6521929999998
 30
0.0
 11
156.0001439999999
 21
-408.6521929999998
 31
0.0
  0
LINE
  5
A0B
330
36
100
AcDbEntity
  8
0
100
AcDbLine
 10
82.60014400000001
 20
-413.6521929999998
 30
0.0
 11
82.60014400000001
 21
-492.8521929999998
 31
0.0
  0
LINE
  5
A21
330
36
100
AcDbEntity
  8
0
100
AcDbLine
 10
111.9134299999999
 20
-489.4475439999998
 30
0.0
 11
111.9134299999999
 21
-491.339896
 31
0.0
  0
LINE
  5
A22
330
36
100
AcDbEntity
  8
0
100
AcDbLine
 10
111.9134299999999
 20
-491.339896
 30
0.0
 11
113.0878329999999
 21
-489.55922
 31
0.0
  0
LINE
  5
A23
330
36
100
AcDbEntity
  8
0
100
AcDbLine
 10
111.9134299999999
 20
-489.4475439999998
 30
0.0
 11
110.7570929999999
 21
-491.1886759999998
 31
0.0
  0
LINE
  5
A74
330
36
100
AcDbEntity
  8
0
 62
     3
100
AcDbLine
 10
205.042652
 20
-436.5521929999998
 30
0.0
 11
205.042652
 21
-412.8521929999998
 31
0.0
  0
LINE
  5
A76
330
36
100
AcDbEntity
  8
0
 62
     3
100
AcDbLine
 10
124.800144
 20
-437.4021929999998
 30
0.0
 11
123.425144
 21
-437.4021929999998
 31
0.0
  0
LINE
  5
A77
330
36
100
AcDbEntity
  8
0
 62
     3
100
AcDbLine
 10
120.175144
 20
-437.4021929999998
 30
0.0
 11
118.800144
 21
-437.4021929999998
 31
0.0
  0
TEXT
  5
A78
330
36
100
AcDbEntity
  8
0
 62
     3
100
AcDbText
 10
131.6033472655365
 20
-421.5845062386701
 30
0.0
 40
2.5
  1
TORAPACK
  7
高2.5
100
AcDbText
  0
TEXT
  5
A79
330
36
100
AcDbEntity
  8
0
 62
     3
100
AcDbText
 10
116.2604297413602
 20
-477.5622458798973
 30
0.0
 40
3.2
  1
容　量
  7
高3.2
100
AcDbText
  0
TEXT
  5
A7A
330
36
100
AcDbEntity
  8
0
 62
     3
100
AcDbText
 10
136.310603
 20
-464.953909
 30
0.0
 40
3.839999999999998
  1
115V
 41
1.090908999999999
100
AcDbText
  0
TEXT
  5
A7B
330
36
100
AcDbEntity
  8
0
 62
     3
100
AcDbText
 10
92.46968399999992
 20
-464.953909
 30
0.0
 40
3.839999999999998
  1
100V
 41
1.090908999999999
100
AcDbText
  0
CIRCLE
  5
A7C
330
36
100
AcDbEntity
  8
0
100
AcDbCircle
 10
67.658635
 20
-415.8321303234556
 30
0.0
 40
5.0
  0
TEXT
  5
A7D
330
36
100
AcDbEntity
  8
0
 62
     4
100
AcDbText
 10
64.95066361232557
 20
-417.9319305374606
 30
0.0
 40
4.5
  1
10
  7
高4.5
100
AcDbText
  0
ARC
  5
A7E
330
36
100
AcDbEntity
  8
0
 62
     3
100
AcDbCircle
 10
87.60014400000001
 20
-413.6521929999998
 30
0.0
 40
5.799999999999998
100
AcDbArc
 50
90.0
 51
180.0
  0
ARC
  5
A7F
330
36
100
AcDbEntity
  8
0
 62
     3
100
AcDbCircle
 10
156.0001439999999
 20
-413.6521929999998
 30
0.0
 40
5.799999999999998
100
AcDbArc
 50
0.0
 51
90.0
  0
LINE
  5
A80
330
36
100
AcDbEntity
  8
0
 62
     3
100
AcDbLine
 10
124.800144
 20
-449.9021929999998
 30
0.0
 11
118.800144
 21
-449.9021929999998
 31
0.0
  0
LINE
  5
A81
330
36
100
AcDbEntity
  8
0
100
AcDbLine
 10
288.542652
 20
-420.4771929999997
 30
0.0
 11
288.542652
 21
-431.7271929999998
 31
0.0
  0
LINE
  5
A82
330
36
100
AcDbEntity
  8
0
100
AcDbLine
 10
289.792652
 20
-420.4771929999997
 30
0.0
 11
289.792652
 21
-431.7271929999998
 31
0.0
  0
ARC
  5
A83
330
36
100
AcDbEntity
  8
0
100
AcDbCircle
 10
289.167652
 20
-420.4771929999997
 30
0.0
 40
0.625
100
AcDbArc
 50
0.0
 51
180.0
  0
ARC
  5
A84
330
36
100
AcDbEntity
  8
0
100
AcDbCircle
 10
289.167652
 20
-431.7271929999998
 30
0.0
 40
0.625
100
AcDbArc
 50
180.0
 51
0.0
  0
LINE
  5
A85
330
36
100
AcDbEntity
  8
0
100
AcDbLine
 10
292.542652
 20
-420.4771929999997
 30
0.0
 11
292.542652
 21
-431.7271929999998
 31
0.0
  0
LINE
  5
A86
330
36
100
AcDbEntity
  8
0
100
AcDbLine
 10
291.292652
 20
-420.4771929999997
 30
0.0
 11
291.292652
 21
-431.7271929999998
 31
0.0
  0
ARC
  5
A87
330
36
100
AcDbEntity
  8
0
100
AcDbCircle
 10
291.917652
 20
-420.4771929999997
 30
0.0
 40
0.625
100
AcDbArc
 50
0.0
 51
180.0
  0
ARC
  5
A88
330
36
100
AcDbEntity
  8
0
100
AcDbCircle
 10
291.917652
 20
-431.7271929999998
 30
0.0
 40
0.625
100
AcDbArc
 50
180.0
 51
0.0
  0
LINE
  5
A89
330
36
100
AcDbEntity
  8
0
100
AcDbLine
 10
294.042652
 20
-420.4771929999997
 30
0.0
 11
294.042652
 21
-431.7271929999998
 31
0.0
  0
LINE
  5
A8A
330
36
100
AcDbEntity
  8
0
100
AcDbLine
 10
295.292652
 20
-420.4771929999997
 30
0.0
 11
295.292652
 21
-431.7271929999998
 31
0.0
  0
ARC
  5
A8B
330
36
100
AcDbEntity
  8
0
100
AcDbCircle
 10
294.667652
 20
-420.4771929999997
 30
0.0
 40
0.625
100
AcDbArc
 50
0.0
 51
180.0
  0
ARC
  5
A8C
330
36
100
AcDbEntity
  8
0
100
AcDbCircle
 10
294.667652
 20
-431.7271929999998
 30
0.0
 40
0.625
100
AcDbArc
 50
180.0
 51
0.0
  0
LINE
  5
A8D
330
36
100
AcDbEntity
  8
0
100
AcDbLine
 10
298.042652
 20
-420.4771929999997
 30
0.0
 11
298.042652
 21
-431.7271929999998
 31
0.0
  0
LINE
  5
A8E
330
36
100
AcDbEntity
  8
0
100
AcDbLine
 10
296.792652
 20
-420.4771929999997
 30
0.0
 11
296.792652
 21
-431.7271929999998
 31
0.0
  0
ARC
  5
A8F
330
36
100
AcDbEntity
  8
0
100
AcDbCircle
 10
297.417652
 20
-420.4771929999997
 30
0.0
 40
0.625
100
AcDbArc
 50
0.0
 51
180.0
  0
ARC
  5
A90
330
36
100
AcDbEntity
  8
0
100
AcDbCircle
 10
297.417652
 20
-431.7271929999998
 30
0.0
 40
0.625
100
AcDbArc
 50
180.0
 51
0.0
  0
LINE
  5
A91
330
36
100
AcDbEntity
  8
0
100
AcDbLine
 10
299.542652
 20
-420.4771929999997
 30
0.0
 11
299.542652
 21
-431.7271929999998
 31
0.0
  0
LINE
  5
A92
330
36
100
AcDbEntity
  8
0
100
AcDbLine
 10
300.792652
 20
-420.4771929999997
 30
0.0
 11
300.792652
 21
-431.7271929999998
 31
0.0
  0
ARC
  5
A93
330
36
100
AcDbEntity
  8
0
100
AcDbCircle
 10
300.167652
 20
-420.4771929999997
 30
0.0
 40
0.625
100
AcDbArc
 50
0.0
 51
180.0
  0
ARC
  5
A94
330
36
100
AcDbEntity
  8
0
100
AcDbCircle
 10
300.167652
 20
-431.7271929999998
 30
0.0
 40
0.625
100
AcDbArc
 50
180.0
 51
0.0
  0
LINE
  5
A95
330
36
100
AcDbEntity
  8
0
100
AcDbLine
 10
303.542652
 20
-420.4771929999997
 30
0.0
 11
303.542652
 21
-431.7271929999998
 31
0.0
  0
LINE
  5
A96
330
36
100
AcDbEntity
  8
0
100
AcDbLine
 10
302.292652
 20
-420.4771929999997
 30
0.0
 11
302.292652
 21
-431.7271929999998
 31
0.0
  0
ARC
  5
A97
330
36
100
AcDbEntity
  8
0
100
AcDbCircle
 10
302.917652
 20
-420.4771929999997
 30
0.0
 40
0.625
100
AcDbArc
 50
0.0
 51
180.0
  0
ARC
  5
A98
330
36
100
AcDbEntity
  8
0
100
AcDbCircle
 10
302.917652
 20
-431.7271929999998
 30
0.0
 40
0.625
100
AcDbArc
 50
180.0
 51
0.0
  0
LINE
  5
A99
330
36
100
AcDbEntity
  8
0
100
AcDbLine
 10
305.042652
 20
-420.4771929999997
 30
0.0
 11
305.042652
 21
-431.7271929999998
 31
0.0
  0
LINE
  5
A9A
330
36
100
AcDbEntity
  8
0
100
AcDbLine
 10
306.292652
 20
-420.4771929999997
 30
0.0
 11
306.292652
 21
-431.7271929999998
 31
0.0
  0
ARC
  5
A9B
330
36
100
AcDbEntity
  8
0
100
AcDbCircle
 10
305.667652
 20
-420.4771929999997
 30
0.0
 40
0.625
100
AcDbArc
 50
0.0
 51
180.0
  0
ARC
  5
A9C
330
36
100
AcDbEntity
  8
0
100
AcDbCircle
 10
305.667652
 20
-431.7271929999998
 30
0.0
 40
0.625
100
AcDbArc
 50
180.0
 51
0.0
  0
LINE
  5
A9D
330
36
100
AcDbEntity
  8
0
100
AcDbLine
 10
309.042652
 20
-420.4771929999997
 30
0.0
 11
309.042652
 21
-431.7271929999998
 31
0.0
  0
LINE
  5
A9E
330
36
100
AcDbEntity
  8
0
100
AcDbLine
 10
307.792652
 20
-420.4771929999997
 30
0.0
 11
307.792652
 21
-431.7271929999998
 31
0.0
  0
ARC
  5
A9F
330
36
100
AcDbEntity
  8
0
100
AcDbCircle
 10
308.417652
 20
-420.4771929999997
 30
0.0
 40
0.625
100
AcDbArc
 50
0.0
 51
180.0
  0
ARC
  5
AA0
330
36
100
AcDbEntity
  8
0
100
AcDbCircle
 10
308.417652
 20
-431.7271929999998
 30
0.0
 40
0.625
100
AcDbArc
 50
180.0
 51
0.0
  0
LINE
  5
AA1
330
36
100
AcDbEntity
  8
0
100
AcDbLine
 10
251.542652
 20
-420.4771929999997
 30
0.0
 11
251.542652
 21
-431.7271929999998
 31
0.0
  0
LINE
  5
AA2
330
36
100
AcDbEntity
  8
0
100
AcDbLine
 10
250.292652
 20
-420.4771929999997
 30
0.0
 11
250.292652
 21
-431.7271929999998
 31
0.0
  0
ARC
  5
AA3
330
36
100
AcDbEntity
  8
0
100
AcDbCircle
 10
250.917652
 20
-420.4771929999997
 30
0.0
 40
0.625
100
AcDbArc
 50
0.0
 51
180.0
  0
ARC
  5
AA4
330
36
100
AcDbEntity
  8
0
100
AcDbCircle
 10
250.917652
 20
-431.7271929999998
 30
0.0
 40
0.625
100
AcDbArc
 50
180.0
 51
0.0
  0
LINE
  5
AA5
330
36
100
AcDbEntity
  8
0
100
AcDbLine
 10
247.542652
 20
-420.4771929999997
 30
0.0
 11
247.542652
 21
-431.7271929999998
 31
0.0
  0
LINE
  5
AA6
330
36
100
AcDbEntity
  8
0
100
AcDbLine
 10
248.792652
 20
-420.4771929999997
 30
0.0
 11
248.792652
 21
-431.7271929999998
 31
0.0
  0
ARC
  5
AA7
330
36
100
AcDbEntity
  8
0
100
AcDbCircle
 10
248.167652
 20
-420.4771929999997
 30
0.0
 40
0.625
100
AcDbArc
 50
0.0
 51
180.0
  0
ARC
  5
AA8
330
36
100
AcDbEntity
  8
0
100
AcDbCircle
 10
248.167652
 20
-431.7271929999998
 30
0.0
 40
0.625
100
AcDbArc
 50
180.0
 51
0.0
  0
LINE
  5
AA9
330
36
100
AcDbEntity
  8
0
100
AcDbLine
 10
246.042652
 20
-420.4771929999997
 30
0.0
 11
246.042652
 21
-431.7271929999998
 31
0.0
  0
LINE
  5
AAA
330
36
100
AcDbEntity
  8
0
100
AcDbLine
 10
244.792652
 20
-420.4771929999997
 30
0.0
 11
244.792652
 21
-431.7271929999998
 31
0.0
  0
ARC
  5
AAB
330
36
100
AcDbEntity
  8
0
100
AcDbCircle
 10
245.417652
 20
-420.4771929999997
 30
0.0
 40
0.625
100
AcDbArc
 50
0.0
 51
180.0
  0
ARC
  5
AAC
330
36
100
AcDbEntity
  8
0
100
AcDbCircle
 10
245.417652
 20
-431.7271929999998
 30
0.0
 40
0.625
100
AcDbArc
 50
180.0
 51
0.0
  0
LINE
  5
AAD
330
36
100
AcDbEntity
  8
0
100
AcDbLine
 10
242.042652
 20
-420.4771929999997
 30
0.0
 11
242.042652
 21
-431.7271929999998
 31
0.0
  0
LINE
  5
AAE
330
36
100
AcDbEntity
  8
0
100
AcDbLine
 10
243.292652
 20
-420.4771929999997
 30
0.0
 11
243.292652
 21
-431.7271929999998
 31
0.0
  0
ARC
  5
AAF
330
36
100
AcDbEntity
  8
0
100
AcDbCircle
 10
242.667652
 20
-420.4771929999997
 30
0.0
 40
0.625
100
AcDbArc
 50
0.0
 51
180.0
  0
ARC
  5
AB0
330
36
100
AcDbEntity
  8
0
100
AcDbCircle
 10
242.667652
 20
-431.7271929999998
 30
0.0
 40
0.625
100
AcDbArc
 50
180.0
 51
0.0
  0
LINE
  5
AB1
330
36
100
AcDbEntity
  8
0
100
AcDbLine
 10
240.542652
 20
-420.4771929999997
 30
0.0
 11
240.542652
 21
-431.7271929999998
 31
0.0
  0
LINE
  5
AB2
330
36
100
AcDbEntity
  8
0
100
AcDbLine
 10
239.292652
 20
-420.4771929999997
 30
0.0
 11
239.292652
 21
-431.7271929999998
 31
0.0
  0
ARC
  5
AB3
330
36
100
AcDbEntity
  8
0
100
AcDbCircle
 10
239.917652
 20
-420.4771929999997
 30
0.0
 40
0.625
100
AcDbArc
 50
0.0
 51
180.0
  0
ARC
  5
AB4
330
36
100
AcDbEntity
  8
0
100
AcDbCircle
 10
239.917652
 20
-431.7271929999998
 30
0.0
 40
0.625
100
AcDbArc
 50
180.0
 51
0.0
  0
LINE
  5
AB5
330
36
100
AcDbEntity
  8
0
100
AcDbLine
 10
236.542652
 20
-420.4771929999997
 30
0.0
 11
236.542652
 21
-431.7271929999998
 31
0.0
  0
LINE
  5
AB6
330
36
100
AcDbEntity
  8
0
100
AcDbLine
 10
237.792652
 20
-420.4771929999997
 30
0.0
 11
237.792652
 21
-431.7271929999998
 31
0.0
  0
ARC
  5
AB7
330
36
100
AcDbEntity
  8
0
100
AcDbCircle
 10
237.167652
 20
-420.4771929999997
 30
0.0
 40
0.625
100
AcDbArc
 50
0.0
 51
180.0
  0
ARC
  5
AB8
330
36
100
AcDbEntity
  8
0
100
AcDbCircle
 10
237.167652
 20
-431.7271929999998
 30
0.0
 40
0.625
100
AcDbArc
 50
180.0
 51
0.0
  0
LINE
  5
AB9
330
36
100
AcDbEntity
  8
0
100
AcDbLine
 10
235.042652
 20
-420.4771929999997
 30
0.0
 11
235.042652
 21
-431.7271929999998
 31
0.0
  0
LINE
  5
ABA
330
36
100
AcDbEntity
  8
0
100
AcDbLine
 10
233.792652
 20
-420.4771929999997
 30
0.0
 11
233.792652
 21
-431.7271929999998
 31
0.0
  0
ARC
  5
ABB
330
36
100
AcDbEntity
  8
0
100
AcDbCircle
 10
234.417652
 20
-420.4771929999997
 30
0.0
 40
0.625
100
AcDbArc
 50
0.0
 51
180.0
  0
ARC
  5
ABC
330
36
100
AcDbEntity
  8
0
100
AcDbCircle
 10
234.417652
 20
-431.7271929999998
 30
0.0
 40
0.625
100
AcDbArc
 50
180.0
 51
0.0
  0
LINE
  5
ABD
330
36
100
AcDbEntity
  8
0
100
AcDbLine
 10
231.042652
 20
-420.4771929999997
 30
0.0
 11
231.042652
 21
-431.7271929999998
 31
0.0
  0
LINE
  5
ABE
330
36
100
AcDbEntity
  8
0
100
AcDbLine
 10
232.292652
 20
-420.4771929999997
 30
0.0
 11
232.292652
 21
-431.7271929999998
 31
0.0
  0
ARC
  5
ABF
330
36
100
AcDbEntity
  8
0
100
AcDbCircle
 10
231.667652
 20
-420.4771929999997
 30
0.0
 40
0.625
100
AcDbArc
 50
0.0
 51
180.0
  0
ARC
  5
AC0
330
36
100
AcDbEntity
  8
0
100
AcDbCircle
 10
231.667652
 20
-431.7271929999998
 30
0.0
 40
0.625
100
AcDbArc
 50
180.0
 51
0.0
  0
ARC
  5
AC5
330
36
100
AcDbEntity
  8
0
100
AcDbCircle
 10
156.0001439999999
 20
-413.6521929999998
 30
0.0
 40
5.0
100
AcDbArc
 50
0.0
 51
90.0
  0
ARC
  5
AC6
330
36
100
AcDbEntity
  8
0
100
AcDbCircle
 10
87.60014400000001
 20
-413.6521929999998
 30
0.0
 40
5.0
100
AcDbArc
 50
90.0
 51
180.0
  0
LINE
  5
AC8
330
36
100
AcDbEntity
  8
0
100
AcDbLine
 10
123.425144
 20
-436.6521929999998
 30
0.0
 11
123.425144
 21
-447.4021929999998
 31
0.0
  0
LINE
  5
AC9
330
36
100
AcDbEntity
  8
0
100
AcDbLine
 10
123.425144
 20
-447.4021929999998
 30
0.0
 11
120.175144
 21
-447.4021929999998
 31
0.0
  0
LINE
  5
ACA
330
36
100
AcDbEntity
  8
0
100
AcDbLine
 10
120.175144
 20
-436.6521929999998
 30
0.0
 11
120.175144
 21
-447.4021929999998
 31
0.0
  0
CIRCLE
  5
ACB
330
36
100
AcDbEntity
  8
0
 62
     3
100
AcDbCircle
 10
121.800144
 20
-417.6521929999998
 30
0.0
 40
3.0
  0
LINE
  5
ACC
330
36
100
AcDbEntity
  8
0
 62
     3
100
AcDbLine
 10
336.542652
 20
-482.8521929999998
 30
0.0
 11
336.542652
 21
-472.8521929999998
 31
0.0
  0
LINE
  5
ACD
330
36
100
AcDbEntity
  8
0
 62
     3
100
AcDbLine
 10
335.042652
 20
-483.8521929999997
 30
0.0
 11
336.542652
 21
-482.8521929999998
 31
0.0
  0
LINE
  5
ACE
330
36
100
AcDbEntity
  8
0
 62
     3
100
AcDbLine
 10
335.042652
 20
-471.8521929999998
 30
0.0
 11
336.542652
 21
-472.8521929999998
 31
0.0
  0
CIRCLE
  5
ACF
330
36
100
AcDbEntity
  8
0
100
AcDbCircle
 10
67.658635
 20
-389.368408
 30
0.0
 40
5.0
  0
TEXT
  5
AD0
330
36
100
AcDbEntity
  8
0
 62
     4
100
AcDbText
 10
65.53842417960232
 20
-392.4205189865306
 30
0.0
 40
6.299999999999998
  1
9
  7
高6.3
100
AcDbText
  0
CIRCLE
  5
AD3
330
36
100
AcDbEntity
  8
0
100
AcDbCircle
 10
67.658635
 20
-493.3850759999998
 30
0.0
 40
5.0
  0
TEXT
  5
AD4
330
36
100
AcDbEntity
  8
0
 62
     4
100
AcDbText
 10
65.44132776988817
 20
-496.5631954421525
 30
0.0
 40
6.299999999999998
  1
5
  7
高6.3
100
AcDbText
  0
CIRCLE
  5
AD5
330
36
100
AcDbEntity
  8
0
100
AcDbCircle
 10
67.658635
 20
-434.0939538715431
 30
0.0
 40
5.0
  0
TEXT
  5
AD6
330
36
100
AcDbEntity
  8
0
 62
     4
100
AcDbText
 10
65.44132776988817
 20
-437.2720723136959
 30
0.0
 40
6.299999999999998
  1
6
  7
高6.3
100
AcDbText
  0
CIRCLE
  5
AD7
330
36
100
AcDbEntity
  8
0
100
AcDbCircle
 10
67.658635
 20
-447.6098789999999
 30
0.0
 40
5.0
  0
TEXT
  5
AD8
330
36
100
AcDbEntity
  8
0
 62
     4
100
AcDbText
 10
65.44132776988817
 20
-450.7879984421526
 30
0.0
 40
6.299999999999998
  1
7
  7
高6.3
100
AcDbText
  0
LINE
  5
ADB
330
36
100
AcDbEntity
  8
0
 62
     3
100
AcDbLine
 10
294.229116
 20
-400.387131
 30
0.0
 11
301.292652
 21
-412.8521929999998
 31
0.0
  0
ARC
  5
ADC
330
36
100
AcDbEntity
  8
0
 62
     3
100
AcDbCircle
 10
289.879005
 20
-402.852193
 30
0.0
 40
5.0
100
AcDbArc
 50
29.53878200000451
 51
90.0
  0
LINE
  5
ADD
330
36
100
AcDbEntity
  8
0
 62
     3
100
AcDbLine
 10
246.4769669999999
 20
-397.852193
 30
0.0
 11
289.879005
 21
-397.852193
 31
0.0
  0
ARC
  5
ADE
330
36
100
AcDbEntity
  8
0
 62
     3
100
AcDbCircle
 10
246.4769669999999
 20
-402.852193
 30
0.0
 40
5.0
100
AcDbArc
 50
90.0
 51
154.9831070000001
  0
LINE
  5
ADF
330
36
100
AcDbEntity
  8
0
 62
     3
100
AcDbLine
 10
241.946051
 20
-400.737766
 30
0.0
 11
236.292652
 21
-412.8521929999998
 31
0.0
  0
ARC
  5
AE0
330
36
100
AcDbEntity
  8
0
 62
     3
100
AcDbCircle
 10
251.792652
 20
-404.3521929999998
 30
0.0
 40
2.5
100
AcDbArc
 50
90.0
 51
180.0
  0
ARC
  5
AE1
330
36
100
AcDbEntity
  8
0
 62
     3
100
AcDbCircle
 10
268.792652
 20
-115.6021930000001
 30
0.0
 40
286.75
100
AcDbArc
 50
266.6306310000021
 51
273.3693689999979
  0
ARC
  5
AE2
330
36
100
AcDbEntity
  8
0
 62
     3
100
AcDbCircle
 10
285.792652
 20
-404.3521929999998
 30
0.0
 40
2.5
100
AcDbArc
 50
0.0
 51
90.0
  0
LINE
  5
AE3
330
36
100
AcDbEntity
  8
0
 62
     3
100
AcDbLine
 10
288.292652
 20
-404.3521929999998
 30
0.0
 11
288.292652
 21
-412.8521929999998
 31
0.0
  0
LINE
  5
AE4
330
36
100
AcDbEntity
  8
0
 62
     3
100
AcDbLine
 10
249.292652
 20
-404.3521929999998
 30
0.0
 11
249.292652
 21
-412.8521929999998
 31
0.0
  0
LINE
  5
AE5
330
36
100
AcDbEntity
  8
0
 62
     3
100
AcDbLine
 10
124.339736
 20
-393.309022
 30
0.0
 11
125.600144
 21
-407.8521929999998
 31
0.0
  0
LINE
  5
AE6
330
36
100
AcDbEntity
  8
0
 62
     3
100
AcDbLine
 10
119.2605519999999
 20
-393.309022
 30
0.0
 11
118.000144
 21
-407.8521929999998
 31
0.0
  0
LINE
  5
AE7
330
36
100
AcDbEntity
  8
0
 62
     3
100
AcDbLine
 10
119.758685
 20
-392.852193
 30
0.0
 11
123.8416029999999
 21
-392.852193
 31
0.0
  0
LINE
  5
AEC
330
36
100
AcDbEntity
  8
0
 62
     3
100
AcDbLine
 10
146.800144
 20
-487.518483
 30
0.0
 11
146.800144
 21
-479.8521929999998
 31
0.0
  0
LINE
  5
AED
330
36
100
AcDbEntity
  8
0
 62
     3
100
AcDbLine
 10
140.800144
 20
-487.6021929999998
 30
0.0
 11
140.800144
 21
-479.8521929999998
 31
0.0
  0
LINE
  5
AEE
330
36
100
AcDbEntity
  8
0
 62
     3
100
AcDbLine
 10
148.621969
 20
-479.8521929999998
 30
0.0
 11
138.9783189999999
 21
-479.8521929999998
 31
0.0
  0
ARC
  5
AEF
330
36
100
AcDbEntity
  8
0
 62
     3
100
AcDbCircle
 10
143.800144
 20
-472.8521929999998
 30
0.0
 40
8.5
100
AcDbArc
 50
124.5603220000026
 51
235.4396779999974
  0
LINE
  5
AF0
330
36
100
AcDbEntity
  8
0
 62
     3
100
AcDbLine
 10
148.621969
 20
-465.8521929999998
 30
0.0
 11
138.9783189999999
 21
-465.8521929999998
 31
0.0
  0
ARC
  5
AF1
330
36
100
AcDbEntity
  8
0
 62
     3
100
AcDbCircle
 10
143.800144
 20
-472.8521929999998
 30
0.0
 40
8.5
100
AcDbArc
 50
304.5603220000026
 51
55.43967799999738
  0
LINE
  5
AF2
330
36
100
AcDbEntity
  8
0
 62
     3
100
AcDbLine
 10
148.621969
 20
-460.3521929999998
 30
0.0
 11
138.9783189999999
 21
-460.3521929999998
 31
0.0
  0
ARC
  5
AF3
330
36
100
AcDbEntity
  8
0
 62
     3
100
AcDbCircle
 10
143.800144
 20
-453.3521929999998
 30
0.0
 40
8.5
100
AcDbArc
 50
304.5603220000026
 51
55.43967799999738
  0
LINE
  5
AF4
330
36
100
AcDbEntity
  8
0
 62
     3
100
AcDbLine
 10
148.621969
 20
-446.3521929999997
 30
0.0
 11
138.9783189999999
 21
-446.3521929999997
 31
0.0
  0
ARC
  5
AF5
330
36
100
AcDbEntity
  8
0
 62
     3
100
AcDbCircle
 10
143.800144
 20
-453.3521929999998
 30
0.0
 40
8.5
100
AcDbArc
 50
124.5603220000026
 51
235.4396779999974
  0
ARC
  5
AF6
330
36
100
AcDbEntity
  8
0
 62
     3
100
AcDbCircle
 10
99.80014400000003
 20
-453.3521929999998
 30
0.0
 40
8.5
100
AcDbArc
 50
304.5603220000026
 51
55.43967799999738
  0
LINE
  5
AF7
330
36
100
AcDbEntity
  8
0
 62
     3
100
AcDbLine
 10
104.621969
 20
-446.3521929999997
 30
0.0
 11
94.97831899999994
 21
-446.3521929999997
 31
0.0
  0
ARC
  5
AF8
330
36
100
AcDbEntity
  8
0
 62
     3
100
AcDbCircle
 10
99.80014400000003
 20
-453.3521929999998
 30
0.0
 40
8.5
100
AcDbArc
 50
124.5603220000026
 51
235.4396779999974
  0
LINE
  5
AF9
330
36
100
AcDbEntity
  8
0
 62
     3
100
AcDbLine
 10
104.621969
 20
-460.3521929999998
 30
0.0
 11
94.97831899999994
 21
-460.3521929999998
 31
0.0
  0
LINE
  5
AFA
330
36
100
AcDbEntity
  8
0
 62
     3
100
AcDbLine
 10
104.621969
 20
-465.8521929999998
 30
0.0
 11
94.97831899999994
 21
-465.8521929999998
 31
0.0
  0
ARC
  5
AFB
330
36
100
AcDbEntity
  8
0
 62
     3
100
AcDbCircle
 10
99.80014400000003
 20
-472.8521929999998
 30
0.0
 40
8.5
100
AcDbArc
 50
124.5603220000026
 51
235.4396779999974
  0
LINE
  5
AFC
330
36
100
AcDbEntity
  8
0
 62
     3
100
AcDbLine
 10
104.621969
 20
-479.8521929999998
 30
0.0
 11
94.97831899999994
 21
-479.8521929999998
 31
0.0
  0
LINE
  5
AFD
330
36
100
AcDbEntity
  8
0
 62
     3
100
AcDbLine
 10
96.80014400000004
 20
-487.6021929999998
 30
0.0
 11
96.80014400000004
 21
-479.8521929999998
 31
0.0
  0
LINE
  5
AFE
330
36
100
AcDbEntity
  8
0
 62
     3
100
AcDbLine
 10
102.800144
 20
-487.518483
 30
0.0
 11
102.800144
 21
-479.8521929999998
 31
0.0
  0
ARC
  5
AFF
330
36
100
AcDbEntity
  8
0
 62
     3
100
AcDbCircle
 10
99.80014400000003
 20
-472.8521929999998
 30
0.0
 40
8.5
100
AcDbArc
 50
304.5603220000026
 51
55.43967799999738
  0
CIRCLE
  5
B00
330
36
100
AcDbEntity
  8
0
100
AcDbCircle
 10
68.01361099999997
 20
-461.407837
 30
0.0
 40
5.0
  0
TEXT
  5
B01
330
36
100
AcDbEntity
  8
0
 62
     4
100
AcDbText
 10
65.79630376988814
 20
-464.5859554421526
 30
0.0
 40
6.299999999999998
  1
8
  7
高6.3
100
AcDbText
  0
LINE
  5
B02
330
36
100
AcDbEntity
  8
0
 62
     3
100
AcDbLine
 10
146.800144
 20
-487.6021929999998
 30
0.0
 11
140.800144
 21
-487.6021929999998
 31
0.0
  0
ARC
  5
B03
330
36
100
AcDbEntity
  8
0
 62
     3
100
AcDbCircle
 10
119.758685
 20
-393.352193
 30
0.0
 40
0.5
100
AcDbArc
 50
90.0
 51
175.046742999998
  0
ARC
  5
B04
330
36
100
AcDbEntity
  8
0
 62
     3
100
AcDbCircle
 10
123.8416029999999
 20
-393.352193
 30
0.0
 40
0.5
100
AcDbArc
 50
4.953257000001973
 51
90.0
  0
ARC
  5
B05
330
36
100
AcDbEntity
  8
0
100
AcDbCircle
 10
148.350144
 20
-468.2021929999998
 30
0.0
 40
0.5
100
AcDbArc
 50
0.0
 51
90.0
  0
LINE
  5
B06
330
36
100
AcDbEntity
  8
0
100
AcDbLine
 10
148.850144
 20
-468.2021929999998
 30
0.0
 11
148.850144
 21
-474.3521929999998
 31
0.0
  0
ARC
  5
B07
330
36
100
AcDbEntity
  8
0
100
AcDbCircle
 10
148.350144
 20
-474.3521929999998
 30
0.0
 40
0.5
100
AcDbArc
 50
270.0
 51
0.0
  0
ARC
  5
B08
330
36
100
AcDbEntity
  8
0
100
AcDbCircle
 10
139.2501439999999
 20
-473.927193
 30
0.0
 40
0.5
100
AcDbArc
 50
180.0
 51
270.0
  0
LINE
  5
B09
330
36
100
AcDbEntity
  8
0
100
AcDbLine
 10
138.750144
 20
-468.627193
 30
0.0
 11
138.750144
 21
-473.927193
 31
0.0
  0
ARC
  5
B0A
330
36
100
AcDbEntity
  8
0
100
AcDbCircle
 10
139.2501439999999
 20
-468.627193
 30
0.0
 40
0.5
100
AcDbArc
 50
90.0
 51
180.0
  0
ARC
  5
B0B
330
36
100
AcDbEntity
  8
0
100
AcDbCircle
 10
142.450144
 20
-478.7771929999998
 30
0.0
 40
0.5
100
AcDbArc
 50
180.0
 51
270.0
  0
LINE
  5
B0C
330
36
100
AcDbEntity
  8
0
100
AcDbLine
 10
142.450144
 20
-479.2771929999998
 30
0.0
 11
143.050144
 21
-479.2771929999998
 31
0.0
  0
LINE
  5
B0D
330
36
100
AcDbEntity
  8
0
100
AcDbLine
 10
144.550144
 20
-479.2771929999998
 30
0.0
 11
143.050144
 21
-479.2771929999998
 31
0.0
  0
LINE
  5
B0E
330
36
100
AcDbEntity
  8
0
100
AcDbLine
 10
144.550144
 20
-479.2771929999998
 30
0.0
 11
145.1501439999999
 21
-479.2771929999998
 31
0.0
  0
ARC
  5
B0F
330
36
100
AcDbEntity
  8
0
100
AcDbCircle
 10
145.1501439999999
 20
-478.7771929999998
 30
0.0
 40
0.5
100
AcDbArc
 50
270.0
 51
0.0
  0
LINE
  5
B10
330
36
100
AcDbEntity
  8
0
100
AcDbLine
 10
148.850144
 20
-448.702193
 30
0.0
 11
148.850144
 21
-454.8521929999998
 31
0.0
  0
ARC
  5
B11
330
36
100
AcDbEntity
  8
0
100
AcDbCircle
 10
148.350144
 20
-454.8521929999998
 30
0.0
 40
0.5
100
AcDbArc
 50
270.0
 51
0.0
  0
ARC
  5
B12
330
36
100
AcDbEntity
  8
0
100
AcDbCircle
 10
139.2501439999999
 20
-454.4271929999998
 30
0.0
 40
0.5
100
AcDbArc
 50
180.0
 51
270.0
  0
LINE
  5
B13
330
36
100
AcDbEntity
  8
0
100
AcDbLine
 10
138.750144
 20
-449.1271929999999
 30
0.0
 11
138.750144
 21
-454.4271929999998
 31
0.0
  0
ARC
  5
B14
330
36
100
AcDbEntity
  8
0
100
AcDbCircle
 10
142.450144
 20
-459.2771929999998
 30
0.0
 40
0.5
100
AcDbArc
 50
180.0
 51
270.0
  0
LINE
  5
B15
330
36
100
AcDbEntity
  8
0
100
AcDbLine
 10
142.450144
 20
-459.7771929999998
 30
0.0
 11
143.050144
 21
-459.7771929999998
 31
0.0
  0
LINE
  5
B16
330
36
100
AcDbEntity
  8
0
100
AcDbLine
 10
144.550144
 20
-459.7771929999998
 30
0.0
 11
145.1501439999999
 21
-459.7771929999998
 31
0.0
  0
LINE
  5
B17
330
36
100
AcDbEntity
  8
0
100
AcDbLine
 10
144.550144
 20
-459.7771929999998
 30
0.0
 11
143.050144
 21
-459.7771929999998
 31
0.0
  0
ARC
  5
B18
330
36
100
AcDbEntity
  8
0
100
AcDbCircle
 10
145.1501439999999
 20
-459.2771929999998
 30
0.0
 40
0.5
100
AcDbArc
 50
270.0
 51
0.0
  0
ARC
  5
B19
330
36
100
AcDbEntity
  8
0
100
AcDbCircle
 10
148.350144
 20
-448.702193
 30
0.0
 40
0.5
100
AcDbArc
 50
0.0
 51
90.0
  0
ARC
  5
B1A
330
36
100
AcDbEntity
  8
0
100
AcDbCircle
 10
139.2501439999999
 20
-449.1271929999999
 30
0.0
 40
0.5
100
AcDbArc
 50
90.0
 51
180.0
  0
LINE
  5
B1B
330
36
100
AcDbEntity
  8
0
100
AcDbLine
 10
104.850144
 20
-468.2021929999998
 30
0.0
 11
104.850144
 21
-474.3521929999998
 31
0.0
  0
ARC
  5
B1C
330
36
100
AcDbEntity
  8
0
100
AcDbCircle
 10
95.25014399999998
 20
-473.927193
 30
0.0
 40
0.5
100
AcDbArc
 50
180.0
 51
270.0
  0
LINE
  5
B1D
330
36
100
AcDbEntity
  8
0
100
AcDbLine
 10
94.75014399999997
 20
-468.627193
 30
0.0
 11
94.75014399999997
 21
-473.927193
 31
0.0
  0
ARC
  5
B1E
330
36
100
AcDbEntity
  8
0
100
AcDbCircle
 10
95.25014399999998
 20
-468.627193
 30
0.0
 40
0.5
100
AcDbArc
 50
90.0
 51
180.0
  0
ARC
  5
B1F
330
36
100
AcDbEntity
  8
0
100
AcDbCircle
 10
98.45014400000003
 20
-478.7771929999998
 30
0.0
 40
0.5
100
AcDbArc
 50
180.0
 51
270.0
  0
LINE
  5
B20
330
36
100
AcDbEntity
  8
0
100
AcDbLine
 10
98.45014400000003
 20
-479.2771929999998
 30
0.0
 11
99.05014400000004
 21
-479.2771929999998
 31
0.0
  0
LINE
  5
B21
330
36
100
AcDbEntity
  8
0
100
AcDbLine
 10
100.550144
 20
-479.2771929999998
 30
0.0
 11
99.05014400000004
 21
-479.2771929999998
 31
0.0
  0
LINE
  5
B22
330
36
100
AcDbEntity
  8
0
100
AcDbLine
 10
100.550144
 20
-479.2771929999998
 30
0.0
 11
101.1501439999999
 21
-479.2771929999998
 31
0.0
  0
ARC
  5
B23
330
36
100
AcDbEntity
  8
0
100
AcDbCircle
 10
101.1501439999999
 20
-478.7771929999998
 30
0.0
 40
0.5
100
AcDbArc
 50
270.0
 51
0.0
  0
LINE
  5
B24
330
36
100
AcDbEntity
  8
0
100
AcDbLine
 10
104.850144
 20
-448.702193
 30
0.0
 11
104.850144
 21
-454.8521929999998
 31
0.0
  0
LINE
  5
B25
330
36
100
AcDbEntity
  8
0
100
AcDbLine
 10
94.75014399999997
 20
-449.1271929999999
 30
0.0
 11
94.75014399999997
 21
-454.4271929999998
 31
0.0
  0
ARC
  5
B26
330
36
100
AcDbEntity
  8
0
100
AcDbCircle
 10
98.45014400000003
 20
-459.2771929999998
 30
0.0
 40
0.5
100
AcDbArc
 50
180.0
 51
270.0
  0
LINE
  5
B27
330
36
100
AcDbEntity
  8
0
100
AcDbLine
 10
98.45014400000003
 20
-459.7771929999998
 30
0.0
 11
99.05014400000004
 21
-459.7771929999998
 31
0.0
  0
LINE
  5
B28
330
36
100
AcDbEntity
  8
0
100
AcDbLine
 10
100.550144
 20
-459.7771929999998
 30
0.0
 11
101.1501439999999
 21
-459.7771929999998
 31
0.0
  0
LINE
  5
B29
330
36
100
AcDbEntity
  8
0
100
AcDbLine
 10
100.550144
 20
-459.7771929999998
 30
0.0
 11
99.05014400000004
 21
-459.7771929999998
 31
0.0
  0
ARC
  5
B2A
330
36
100
AcDbEntity
  8
0
100
AcDbCircle
 10
101.1501439999999
 20
-459.2771929999998
 30
0.0
 40
0.5
100
AcDbArc
 50
270.0
 51
0.0
  0
LINE
  5
B2B
330
36
100
AcDbEntity
  8
0
100
AcDbLine
 10
102.800144
 20
-486.7021929999999
 30
0.0
 11
96.80014400000004
 21
-486.7021929999999
 31
0.0
  0
LINE
  5
B2C
330
36
100
AcDbEntity
  8
0
100
AcDbLine
 10
102.800144
 20
-487.6021929999998
 30
0.0
 11
96.80014400000004
 21
-487.6021929999998
 31
0.0
  0
LINE
  5
B2D
330
36
100
AcDbEntity
  8
0
100
AcDbLine
 10
146.800144
 20
-486.7021929999999
 30
0.0
 11
140.800144
 21
-486.7021929999999
 31
0.0
  0
CIRCLE
  5
B2E
330
36
100
AcDbEntity
  8
0
100
AcDbCircle
 10
143.800144
 20
-484.1021929999998
 30
0.0
 40
2.0
  0
CIRCLE
  5
B2F
330
36
100
AcDbEntity
  8
0
100
AcDbCircle
 10
99.80014400000003
 20
-484.1021929999998
 30
0.0
 40
2.0
  0
CIRCLE
  5
B30
330
36
100
AcDbEntity
  8
0
100
AcDbCircle
 10
99.80014400000003
 20
-442.1021930000001
 30
0.0
 40
2.0
  0
CIRCLE
  5
B31
330
36
100
AcDbEntity
  8
0
100
AcDbCircle
 10
143.800144
 20
-442.1021930000001
 30
0.0
 40
2.0
  0
ARC
  5
B32
330
36
100
AcDbEntity
  8
0
100
AcDbCircle
 10
143.800144
 20
-457.5420079999998
 30
0.0
 40
0.764815
100
AcDbArc
 50
11.29564799999799
 51
168.704352000002
  0
LINE
  5
B33
330
36
100
AcDbEntity
  8
0
100
AcDbLine
 10
147.4501439999999
 20
-450.0271929999998
 30
0.0
 11
147.4501439999999
 21
-453.5271929999998
 31
0.0
  0
LINE
  5
B34
330
36
100
AcDbEntity
  8
0
100
AcDbLine
 10
146.5001439999999
 20
-450.0271929999998
 30
0.0
 11
146.5001439999999
 21
-453.5271929999998
 31
0.0
  0
LINE
  5
B35
330
36
100
AcDbEntity
  8
0
100
AcDbLine
 10
147.4501439999999
 20
-453.5271929999998
 30
0.0
 11
146.5001439999999
 21
-453.5271929999998
 31
0.0
  0
LINE
  5
B36
330
36
100
AcDbEntity
  8
0
100
AcDbLine
 10
141.100144
 20
-453.9521929999998
 30
0.0
 11
140.1501439999999
 21
-453.9521929999998
 31
0.0
  0
LINE
  5
B37
330
36
100
AcDbEntity
  8
0
100
AcDbLine
 10
141.100144
 20
-449.6021929999998
 30
0.0
 11
141.100144
 21
-453.9521929999998
 31
0.0
  0
LINE
  5
B38
330
36
100
AcDbEntity
  8
0
100
AcDbLine
 10
140.1501439999999
 20
-449.6021929999998
 30
0.0
 11
140.1501439999999
 21
-453.9521929999998
 31
0.0
  0
LINE
  5
B39
330
36
100
AcDbEntity
  8
0
100
AcDbLine
 10
144.550144
 20
-458.677193
 30
0.0
 11
144.550144
 21
-457.392203
 31
0.0
  0
LINE
  5
B3A
330
36
100
AcDbEntity
  8
0
100
AcDbLine
 10
143.050144
 20
-458.677193
 30
0.0
 11
143.050144
 21
-457.392203
 31
0.0
  0
LINE
  5
B3B
330
36
100
AcDbEntity
  8
0
100
AcDbLine
 10
143.050144
 20
-458.677193
 30
0.0
 11
144.550144
 21
-458.677193
 31
0.0
  0
LINE
  5
B3C
330
36
100
AcDbEntity
  8
0
100
AcDbLine
 10
145.600144
 20
-448.702193
 30
0.0
 11
145.600144
 21
-454.8521929999998
 31
0.0
  0
ARC
  5
B3D
330
36
100
AcDbEntity
  8
0
100
AcDbCircle
 10
146.100144
 20
-454.8521929999998
 30
0.0
 40
0.5
100
AcDbArc
 50
180.0
 51
270.0
  0
LINE
  5
B3E
330
36
100
AcDbEntity
  8
0
100
AcDbLine
 10
146.100144
 20
-455.3521929999998
 30
0.0
 11
148.350144
 21
-455.3521929999998
 31
0.0
  0
LINE
  5
B3F
330
36
100
AcDbEntity
  8
0
100
AcDbLine
 10
142.000144
 20
-449.1271929999999
 30
0.0
 11
142.000144
 21
-454.4271929999998
 31
0.0
  0
ARC
  5
B40
330
36
100
AcDbEntity
  8
0
100
AcDbCircle
 10
141.5001439999999
 20
-454.4271929999998
 30
0.0
 40
0.5
100
AcDbArc
 50
270.0
 51
0.0
  0
LINE
  5
B41
330
36
100
AcDbEntity
  8
0
100
AcDbLine
 10
139.2501439999999
 20
-454.9271929999998
 30
0.0
 11
141.5001439999999
 21
-454.9271929999998
 31
0.0
  0
LINE
  5
B42
330
36
100
AcDbEntity
  8
0
100
AcDbLine
 10
145.6501439999999
 20
-459.2771929999998
 30
0.0
 11
145.6501439999999
 21
-457.307414
 31
0.0
  0
ARC
  5
B43
330
36
100
AcDbEntity
  8
0
100
AcDbCircle
 10
143.800144
 20
-457.5420079999998
 30
0.0
 40
1.864815
100
AcDbArc
 50
7.226963000000838
 51
172.7730369999991
  0
LINE
  5
B44
330
36
100
AcDbEntity
  8
0
100
AcDbLine
 10
141.950144
 20
-459.2771929999998
 30
0.0
 11
141.950144
 21
-457.307414
 31
0.0
  0
LINE
  5
B45
330
36
100
AcDbEntity
  8
0
100
AcDbLine
 10
147.4501439999999
 20
-450.0271929999998
 30
0.0
 11
146.5001439999999
 21
-450.0271929999998
 31
0.0
  0
LINE
  5
B46
330
36
100
AcDbEntity
  8
0
100
AcDbLine
 10
141.100144
 20
-449.6021929999998
 30
0.0
 11
140.1501439999999
 21
-449.6021929999998
 31
0.0
  0
LINE
  5
B47
330
36
100
AcDbEntity
  8
0
100
AcDbLine
 10
146.100144
 20
-448.202193
 30
0.0
 11
148.350144
 21
-448.202193
 31
0.0
  0
ARC
  5
B48
330
36
100
AcDbEntity
  8
0
100
AcDbCircle
 10
146.100144
 20
-448.702193
 30
0.0
 40
0.5
100
AcDbArc
 50
90.0
 51
180.0
  0
LINE
  5
B49
330
36
100
AcDbEntity
  8
0
100
AcDbLine
 10
139.2501439999999
 20
-448.627193
 30
0.0
 11
141.5001439999999
 21
-448.627193
 31
0.0
  0
ARC
  5
B4A
330
36
100
AcDbEntity
  8
0
100
AcDbCircle
 10
141.5001439999999
 20
-449.1271929999999
 30
0.0
 40
0.5
100
AcDbArc
 50
0.0
 51
90.0
  0
LINE
  5
B4B
330
36
100
AcDbEntity
  8
0
100
AcDbLine
 10
141.100144
 20
-469.1021929999998
 30
0.0
 11
141.100144
 21
-473.4521929999998
 31
0.0
  0
LINE
  5
B4C
330
36
100
AcDbEntity
  8
0
100
AcDbLine
 10
140.1501439999999
 20
-469.1021929999998
 30
0.0
 11
140.1501439999999
 21
-473.4521929999998
 31
0.0
  0
LINE
  5
B4D
330
36
100
AcDbEntity
  8
0
100
AcDbLine
 10
141.100144
 20
-469.1021929999998
 30
0.0
 11
140.1501439999999
 21
-469.1021929999998
 31
0.0
  0
LINE
  5
B4E
330
36
100
AcDbEntity
  8
0
100
AcDbLine
 10
141.100144
 20
-473.4521929999998
 30
0.0
 11
140.1501439999999
 21
-473.4521929999998
 31
0.0
  0
LINE
  5
B4F
330
36
100
AcDbEntity
  8
0
100
AcDbLine
 10
143.050144
 20
-478.1771929999998
 30
0.0
 11
143.050144
 21
-476.892203
 31
0.0
  0
ARC
  5
B50
330
36
100
AcDbEntity
  8
0
100
AcDbCircle
 10
143.800144
 20
-477.042008
 30
0.0
 40
0.764815
100
AcDbArc
 50
11.29564799999799
 51
168.704352000002
  0
LINE
  5
B51
330
36
100
AcDbEntity
  8
0
100
AcDbLine
 10
144.550144
 20
-478.1771929999998
 30
0.0
 11
144.550144
 21
-476.892203
 31
0.0
  0
LINE
  5
B52
330
36
100
AcDbEntity
  8
0
100
AcDbLine
 10
143.050144
 20
-478.1771929999998
 30
0.0
 11
144.550144
 21
-478.1771929999998
 31
0.0
  0
LINE
  5
B53
330
36
100
AcDbEntity
  8
0
100
AcDbLine
 10
147.4501439999999
 20
-469.5271929999998
 30
0.0
 11
146.5001439999999
 21
-469.5271929999998
 31
0.0
  0
LINE
  5
B54
330
36
100
AcDbEntity
  8
0
100
AcDbLine
 10
147.4501439999999
 20
-469.5271929999998
 30
0.0
 11
147.4501439999999
 21
-473.0271929999998
 31
0.0
  0
LINE
  5
B55
330
36
100
AcDbEntity
  8
0
100
AcDbLine
 10
146.5001439999999
 20
-469.5271929999998
 30
0.0
 11
146.5001439999999
 21
-473.0271929999998
 31
0.0
  0
LINE
  5
B56
330
36
100
AcDbEntity
  8
0
100
AcDbLine
 10
147.4501439999999
 20
-473.0271929999998
 30
0.0
 11
146.5001439999999
 21
-473.0271929999998
 31
0.0
  0
LINE
  5
B57
330
36
100
AcDbEntity
  8
0
100
AcDbLine
 10
146.100144
 20
-467.7021929999998
 30
0.0
 11
148.350144
 21
-467.7021929999998
 31
0.0
  0
ARC
  5
B58
330
36
100
AcDbEntity
  8
0
100
AcDbCircle
 10
146.100144
 20
-468.2021929999998
 30
0.0
 40
0.5
100
AcDbArc
 50
90.0
 51
180.0
  0
LINE
  5
B59
330
36
100
AcDbEntity
  8
0
100
AcDbLine
 10
145.600144
 20
-468.2021929999998
 30
0.0
 11
145.600144
 21
-474.3521929999998
 31
0.0
  0
LINE
  5
B5A
330
36
100
AcDbEntity
  8
0
100
AcDbLine
 10
146.100144
 20
-474.8521929999998
 30
0.0
 11
148.350144
 21
-474.8521929999998
 31
0.0
  0
ARC
  5
B5B
330
36
100
AcDbEntity
  8
0
100
AcDbCircle
 10
146.100144
 20
-474.3521929999998
 30
0.0
 40
0.5
100
AcDbArc
 50
180.0
 51
270.0
  0
ARC
  5
B5C
330
36
100
AcDbEntity
  8
0
100
AcDbCircle
 10
141.5001439999999
 20
-473.927193
 30
0.0
 40
0.5
100
AcDbArc
 50
270.0
 51
0.0
  0
LINE
  5
B5D
330
36
100
AcDbEntity
  8
0
100
AcDbLine
 10
139.2501439999999
 20
-474.427193
 30
0.0
 11
141.5001439999999
 21
-474.427193
 31
0.0
  0
LINE
  5
B5E
330
36
100
AcDbEntity
  8
0
100
AcDbLine
 10
139.2501439999999
 20
-468.127193
 30
0.0
 11
141.5001439999999
 21
-468.127193
 31
0.0
  0
ARC
  5
B5F
330
36
100
AcDbEntity
  8
0
100
AcDbCircle
 10
141.5001439999999
 20
-468.627193
 30
0.0
 40
0.5
100
AcDbArc
 50
0.0
 51
90.0
  0
LINE
  5
B60
330
36
100
AcDbEntity
  8
0
100
AcDbLine
 10
142.000144
 20
-468.627193
 30
0.0
 11
142.000144
 21
-473.927193
 31
0.0
  0
LINE
  5
B61
330
36
100
AcDbEntity
  8
0
100
AcDbLine
 10
145.6501439999999
 20
-478.7771929999998
 30
0.0
 11
145.6501439999999
 21
-476.856823
 31
0.0
  0
ARC
  5
B62
330
36
100
AcDbEntity
  8
0
100
AcDbCircle
 10
143.800144
 20
-477.042008
 30
0.0
 40
1.864815
100
AcDbArc
 50
9.147843000000792
 51
171.5502759999994
  0
LINE
  5
B63
330
36
100
AcDbEntity
  8
0
100
AcDbLine
 10
141.950144
 20
-478.7771929999998
 30
0.0
 11
141.950144
 21
-476.8414599999998
 31
0.0
  0
LINE
  5
B64
330
36
100
AcDbEntity
  8
0
100
AcDbLine
 10
97.100144
 20
-469.1021929999998
 30
0.0
 11
97.100144
 21
-473.4521929999998
 31
0.0
  0
LINE
  5
B65
330
36
100
AcDbEntity
  8
0
100
AcDbLine
 10
96.15014399999996
 20
-469.1021929999998
 30
0.0
 11
96.15014399999996
 21
-473.4521929999998
 31
0.0
  0
LINE
  5
B66
330
36
100
AcDbEntity
  8
0
100
AcDbLine
 10
97.100144
 20
-469.1021929999998
 30
0.0
 11
96.15014399999996
 21
-469.1021929999998
 31
0.0
  0
LINE
  5
B67
330
36
100
AcDbEntity
  8
0
100
AcDbLine
 10
97.100144
 20
-473.4521929999998
 30
0.0
 11
96.15014399999996
 21
-473.4521929999998
 31
0.0
  0
LINE
  5
B68
330
36
100
AcDbEntity
  8
0
100
AcDbLine
 10
99.05014400000004
 20
-478.1771929999998
 30
0.0
 11
99.05014400000004
 21
-476.892203
 31
0.0
  0
ARC
  5
B69
330
36
100
AcDbEntity
  8
0
100
AcDbCircle
 10
99.80014400000003
 20
-477.042008
 30
0.0
 40
0.764815
100
AcDbArc
 50
11.29564799999799
 51
168.704352000002
  0
LINE
  5
B6A
330
36
100
AcDbEntity
  8
0
100
AcDbLine
 10
100.550144
 20
-478.1771929999998
 30
0.0
 11
100.550144
 21
-476.892203
 31
0.0
  0
LINE
  5
B6B
330
36
100
AcDbEntity
  8
0
100
AcDbLine
 10
99.05014400000004
 20
-478.1771929999998
 30
0.0
 11
100.550144
 21
-478.1771929999998
 31
0.0
  0
LINE
  5
B6C
330
36
100
AcDbEntity
  8
0
100
AcDbLine
 10
103.450144
 20
-469.5271929999998
 30
0.0
 11
102.500144
 21
-469.5271929999998
 31
0.0
  0
LINE
  5
B6D
330
36
100
AcDbEntity
  8
0
100
AcDbLine
 10
103.450144
 20
-469.5271929999998
 30
0.0
 11
103.450144
 21
-473.0271929999998
 31
0.0
  0
LINE
  5
B6E
330
36
100
AcDbEntity
  8
0
100
AcDbLine
 10
102.500144
 20
-469.5271929999998
 30
0.0
 11
102.500144
 21
-473.0271929999998
 31
0.0
  0
LINE
  5
B6F
330
36
100
AcDbEntity
  8
0
100
AcDbLine
 10
103.450144
 20
-473.0271929999998
 30
0.0
 11
102.500144
 21
-473.0271929999998
 31
0.0
  0
ARC
  5
B70
330
36
100
AcDbEntity
  8
0
100
AcDbCircle
 10
104.350144
 20
-468.2021929999998
 30
0.0
 40
0.5
100
AcDbArc
 50
0.0
 51
90.0
  0
LINE
  5
B71
330
36
100
AcDbEntity
  8
0
100
AcDbLine
 10
102.100144
 20
-467.7021929999998
 30
0.0
 11
104.350144
 21
-467.7021929999998
 31
0.0
  0
ARC
  5
B72
330
36
100
AcDbEntity
  8
0
100
AcDbCircle
 10
102.100144
 20
-468.2021929999998
 30
0.0
 40
0.5
100
AcDbArc
 50
90.0
 51
180.0
  0
LINE
  5
B73
330
36
100
AcDbEntity
  8
0
100
AcDbLine
 10
101.600144
 20
-468.2021929999998
 30
0.0
 11
101.600144
 21
-474.3521929999998
 31
0.0
  0
ARC
  5
B74
330
36
100
AcDbEntity
  8
0
100
AcDbCircle
 10
104.350144
 20
-474.3521929999998
 30
0.0
 40
0.5
100
AcDbArc
 50
270.0
 51
0.0
  0
LINE
  5
B75
330
36
100
AcDbEntity
  8
0
100
AcDbLine
 10
102.100144
 20
-474.8521929999998
 30
0.0
 11
104.350144
 21
-474.8521929999998
 31
0.0
  0
ARC
  5
B76
330
36
100
AcDbEntity
  8
0
100
AcDbCircle
 10
102.100144
 20
-474.3521929999998
 30
0.0
 40
0.5
100
AcDbArc
 50
180.0
 51
270.0
  0
ARC
  5
B77
330
36
100
AcDbEntity
  8
0
100
AcDbCircle
 10
97.50014399999997
 20
-473.927193
 30
0.0
 40
0.5
100
AcDbArc
 50
270.0
 51
0.0
  0
LINE
  5
B78
330
36
100
AcDbEntity
  8
0
100
AcDbLine
 10
95.25014399999998
 20
-474.427193
 30
0.0
 11
97.50014399999997
 21
-474.427193
 31
0.0
  0
LINE
  5
B79
330
36
100
AcDbEntity
  8
0
100
AcDbLine
 10
95.25014399999998
 20
-468.127193
 30
0.0
 11
97.50014399999997
 21
-468.127193
 31
0.0
  0
ARC
  5
B7A
330
36
100
AcDbEntity
  8
0
100
AcDbCircle
 10
97.50014399999997
 20
-468.627193
 30
0.0
 40
0.5
100
AcDbArc
 50
0.0
 51
90.0
  0
LINE
  5
B7B
330
36
100
AcDbEntity
  8
0
100
AcDbLine
 10
98.00014399999998
 20
-468.627193
 30
0.0
 11
98.00014399999998
 21
-473.927193
 31
0.0
  0
LINE
  5
B7C
330
36
100
AcDbEntity
  8
0
100
AcDbLine
 10
101.6501439999999
 20
-478.7771929999998
 30
0.0
 11
101.6501439999999
 21
-476.856823
 31
0.0
  0
ARC
  5
B7D
330
36
100
AcDbEntity
  8
0
100
AcDbCircle
 10
99.80014400000003
 20
-477.042008
 30
0.0
 40
1.864815
100
AcDbArc
 50
9.147843000000792
 51
171.5502759999994
  0
LINE
  5
B7E
330
36
100
AcDbEntity
  8
0
100
AcDbLine
 10
97.95014400000004
 20
-478.7771929999998
 30
0.0
 11
97.95014400000004
 21
-476.8414599999998
 31
0.0
  0
ARC
  5
B7F
330
36
100
AcDbEntity
  8
0
100
AcDbCircle
 10
99.80014400000003
 20
-457.5420079999998
 30
0.0
 40
0.764815
100
AcDbArc
 50
11.29564799999799
 51
168.704352000002
  0
LINE
  5
B80
330
36
100
AcDbEntity
  8
0
100
AcDbLine
 10
103.450144
 20
-450.0271929999998
 30
0.0
 11
103.450144
 21
-453.5271929999998
 31
0.0
  0
LINE
  5
B81
330
36
100
AcDbEntity
  8
0
100
AcDbLine
 10
102.500144
 20
-450.0271929999998
 30
0.0
 11
102.500144
 21
-453.5271929999998
 31
0.0
  0
LINE
  5
B82
330
36
100
AcDbEntity
  8
0
100
AcDbLine
 10
103.450144
 20
-453.5271929999998
 30
0.0
 11
102.500144
 21
-453.5271929999998
 31
0.0
  0
LINE
  5
B83
330
36
100
AcDbEntity
  8
0
100
AcDbLine
 10
97.100144
 20
-453.9521929999998
 30
0.0
 11
96.15014399999996
 21
-453.9521929999998
 31
0.0
  0
LINE
  5
B84
330
36
100
AcDbEntity
  8
0
100
AcDbLine
 10
97.100144
 20
-449.6021929999998
 30
0.0
 11
97.100144
 21
-453.9521929999998
 31
0.0
  0
LINE
  5
B85
330
36
100
AcDbEntity
  8
0
100
AcDbLine
 10
96.15014399999996
 20
-449.6021929999998
 30
0.0
 11
96.15014399999996
 21
-453.9521929999998
 31
0.0
  0
LINE
  5
B86
330
36
100
AcDbEntity
  8
0
100
AcDbLine
 10
100.550144
 20
-458.677193
 30
0.0
 11
100.550144
 21
-457.392203
 31
0.0
  0
LINE
  5
B87
330
36
100
AcDbEntity
  8
0
100
AcDbLine
 10
99.05014400000004
 20
-458.677193
 30
0.0
 11
99.05014400000004
 21
-457.392203
 31
0.0
  0
LINE
  5
B88
330
36
100
AcDbEntity
  8
0
100
AcDbLine
 10
99.05014400000004
 20
-458.677193
 30
0.0
 11
100.550144
 21
-458.677193
 31
0.0
  0
LINE
  5
B89
330
36
100
AcDbEntity
  8
0
100
AcDbLine
 10
101.600144
 20
-448.702193
 30
0.0
 11
101.600144
 21
-454.8521929999998
 31
0.0
  0
ARC
  5
B8A
330
36
100
AcDbEntity
  8
0
100
AcDbCircle
 10
102.100144
 20
-454.8521929999998
 30
0.0
 40
0.5
100
AcDbArc
 50
180.0
 51
270.0
  0
LINE
  5
B8B
330
36
100
AcDbEntity
  8
0
100
AcDbLine
 10
102.100144
 20
-455.3521929999998
 30
0.0
 11
104.350144
 21
-455.3521929999998
 31
0.0
  0
ARC
  5
B8C
330
36
100
AcDbEntity
  8
0
100
AcDbCircle
 10
104.350144
 20
-454.8521929999998
 30
0.0
 40
0.5
100
AcDbArc
 50
270.0
 51
0.0
  0
ARC
  5
B8D
330
36
100
AcDbEntity
  8
0
100
AcDbCircle
 10
95.25014399999998
 20
-454.4271929999998
 30
0.0
 40
0.5
100
AcDbArc
 50
180.0
 51
270.0
  0
LINE
  5
B8E
330
36
100
AcDbEntity
  8
0
100
AcDbLine
 10
98.00014399999998
 20
-449.1271929999999
 30
0.0
 11
98.00014399999998
 21
-454.4271929999998
 31
0.0
  0
ARC
  5
B8F
330
36
100
AcDbEntity
  8
0
100
AcDbCircle
 10
97.50014399999997
 20
-454.4271929999998
 30
0.0
 40
0.5
100
AcDbArc
 50
270.0
 51
0.0
  0
LINE
  5
B90
330
36
100
AcDbEntity
  8
0
100
AcDbLine
 10
95.25014399999998
 20
-454.9271929999998
 30
0.0
 11
97.50014399999997
 21
-454.9271929999998
 31
0.0
  0
LINE
  5
B91
330
36
100
AcDbEntity
  8
0
100
AcDbLine
 10
101.6501439999999
 20
-459.2771929999998
 30
0.0
 11
101.6501439999999
 21
-457.307414
 31
0.0
  0
ARC
  5
B92
330
36
100
AcDbEntity
  8
0
100
AcDbCircle
 10
99.80014400000003
 20
-457.5420079999998
 30
0.0
 40
1.864815
100
AcDbArc
 50
7.226963000000838
 51
172.7730369999991
  0
LINE
  5
B93
330
36
100
AcDbEntity
  8
0
100
AcDbLine
 10
97.95014400000004
 20
-459.2771929999998
 30
0.0
 11
97.95014400000004
 21
-457.307414
 31
0.0
  0
LINE
  5
B94
330
36
100
AcDbEntity
  8
0
100
AcDbLine
 10
103.450144
 20
-450.0271929999998
 30
0.0
 11
102.500144
 21
-450.0271929999998
 31
0.0
  0
LINE
  5
B95
330
36
100
AcDbEntity
  8
0
100
AcDbLine
 10
97.100144
 20
-449.6021929999998
 30
0.0
 11
96.15014399999996
 21
-449.6021929999998
 31
0.0
  0
LINE
  5
B96
330
36
100
AcDbEntity
  8
0
100
AcDbLine
 10
102.100144
 20
-448.202193
 30
0.0
 11
104.350144
 21
-448.202193
 31
0.0
  0
ARC
  5
B97
330
36
100
AcDbEntity
  8
0
100
AcDbCircle
 10
104.350144
 20
-448.702193
 30
0.0
 40
0.5
100
AcDbArc
 50
0.0
 51
90.0
  0
ARC
  5
B98
330
36
100
AcDbEntity
  8
0
100
AcDbCircle
 10
102.100144
 20
-448.702193
 30
0.0
 40
0.5
100
AcDbArc
 50
90.0
 51
180.0
  0
ARC
  5
B99
330
36
100
AcDbEntity
  8
0
100
AcDbCircle
 10
95.25014399999998
 20
-449.1271929999999
 30
0.0
 40
0.5
100
AcDbArc
 50
90.0
 51
180.0
  0
LINE
  5
B9A
330
36
100
AcDbEntity
  8
0
100
AcDbLine
 10
95.25014399999998
 20
-448.627193
 30
0.0
 11
97.50014399999997
 21
-448.627193
 31
0.0
  0
ARC
  5
B9B
330
36
100
AcDbEntity
  8
0
100
AcDbCircle
 10
97.50014399999997
 20
-449.1271929999999
 30
0.0
 40
0.5
100
AcDbArc
 50
0.0
 51
90.0
  0
CIRCLE
  5
B9C
330
36
100
AcDbEntity
  8
0
100
AcDbCircle
 10
303.5906749999999
 20
-391.911626
 30
0.0
 40
5.0
  0
TEXT
  5
B9D
330
36
100
AcDbEntity
  8
0
 62
     4
100
AcDbText
 10
302.4176746086937
 20
-394.9535588767698
 30
0.0
 40
6.299999999999998
  1
1
  7
高6.3
100
AcDbText
  0
CIRCLE
  5
B9E
330
36
100
AcDbEntity
  8
0
100
AcDbCircle
 10
333.8640009999999
 20
-392.4691240000001
 30
0.0
 40
5.0
  0
TEXT
  5
B9F
330
36
100
AcDbEntity
  8
0
 62
     4
100
AcDbText
 10
331.6466937698881
 20
-395.6472424421526
 30
0.0
 40
6.299999999999998
  1
2
  7
高6.3
100
AcDbText
  0
LINE
  5
BA0
330
36
100
AcDbEntity
  8
0
 62
     3
100
AcDbLine
 10
110.9001229999999
 20
-436.0521929999999
 30
0.0
 11
110.9001229999999
 21
-414.852193
 31
0.0
  0
LINE
  5
BA1
330
36
100
AcDbEntity
  8
0
 62
     3
100
AcDbLine
 10
88.70012299999997
 20
-436.0521929999999
 30
0.0
 11
88.70012299999997
 21
-414.852193
 31
0.0
  0
LINE
  5
BA2
330
36
100
AcDbEntity
  8
0
 62
     3
100
AcDbLine
 10
89.20012299999996
 20
-414.352193
 30
0.0
 11
110.4001229999999
 21
-414.352193
 31
0.0
  0
LINE
  5
BA3
330
36
100
AcDbEntity
  8
0
 62
     3
100
AcDbLine
 10
110.4001229999999
 20
-436.5521929999998
 30
0.0
 11
89.20012299999996
 21
-436.5521929999998
 31
0.0
  0
ARC
  5
BA4
330
36
100
AcDbEntity
  8
0
 62
     3
100
AcDbCircle
 10
110.4001229999999
 20
-414.852193
 30
0.0
 40
0.5
100
AcDbArc
 50
0.0
 51
90.0
  0
ARC
  5
BA5
330
36
100
AcDbEntity
  8
0
 62
     3
100
AcDbCircle
 10
89.20012299999996
 20
-414.852193
 30
0.0
 40
0.5
100
AcDbArc
 50
90.0
 51
180.0
  0
ARC
  5
BA6
330
36
100
AcDbEntity
  8
0
 62
     3
100
AcDbCircle
 10
89.20012299999996
 20
-436.0521929999999
 30
0.0
 40
0.5
100
AcDbArc
 50
180.0
 51
270.0
  0
ARC
  5
BA7
330
36
100
AcDbEntity
  8
0
 62
     3
100
AcDbCircle
 10
110.4001229999999
 20
-436.0521929999999
 30
0.0
 40
0.5
100
AcDbArc
 50
270.0
 51
0.0
  0
LINE
  5
BA8
330
36
100
AcDbEntity
  8
0
 62
     3
100
AcDbLine
 10
124.800144
 20
-437.4021929999998
 30
0.0
 11
124.800144
 21
-449.9021929999998
 31
0.0
  0
LINE
  5
BA9
330
36
100
AcDbEntity
  8
0
 62
     3
100
AcDbLine
 10
118.800144
 20
-449.9021929999998
 30
0.0
 11
118.800144
 21
-437.4021929999998
 31
0.0
  0
CIRCLE
  5
BAA
330
36
100
AcDbEntity
  8
0
 62
     3
100
AcDbCircle
 10
99.80012299999998
 20
-429.0521429999998
 30
0.0
 40
0.5
  0
LINE
  5
BAD
330
36
100
AcDbEntity
  8
0
 62
     7
100
AcDbLine
 10
110.9087989999999
 20
-472.5412650280598
 30
0.0
 11
132.5087989999999
 21
-472.5412650280598
 31
0.0
  0
LINE
  5
BAE
330
36
100
AcDbEntity
  8
0
 62
     7
100
AcDbLine
 10
132.5087989999999
 20
-487.220968879085
 30
0.0
 11
110.9087989999999
 21
-487.220968879085
 31
0.0
  0
LINE
  5
BAF
330
36
100
AcDbEntity
  8
0
 62
     7
100
AcDbLine
 10
132.5087989999999
 20
-487.220968879085
 30
0.0
 11
132.5087989999999
 21
-472.5412650280598
 31
0.0
  0
LINE
  5
BB0
330
36
100
AcDbEntity
  8
0
 62
     7
100
AcDbLine
 10
110.9087989999999
 20
-487.220968879085
 30
0.0
 11
110.9087989999999
 21
-472.5412650280598
 31
0.0
  0
LINE
  5
BB5
330
36
100
AcDbEntity
  8
0
100
AcDbLine
 10
160.5418040469097
 20
-628.3216499999999
 30
0.0
 11
160.5418040469096
 21
-573.3216499999997
 31
0.0
  0
LINE
  5
BB7
330
36
100
AcDbEntity
  8
0
 62
     3
100
AcDbLine
 10
252.9158388060373
 20
-623.3216499999997
 30
0.0
 11
33.340733
 21
-623.3216499999997
 31
0.0
  0
LINE
  5
BB8
330
36
100
AcDbEntity
  8
0
100
AcDbLine
 10
252.9158388060373
 20
-618.3216499999997
 30
0.0
 11
33.340733
 21
-618.3216499999997
 31
0.0
  0
LINE
  5
BB9
330
36
100
AcDbEntity
  8
0
100
AcDbLine
 10
252.9158388060373
 20
-613.3216499999997
 30
0.0
 11
33.340733
 21
-613.3216499999997
 31
0.0
  0
LINE
  5
BBA
330
36
100
AcDbEntity
  8
0
100
AcDbLine
 10
252.9158388060373
 20
-608.3216499999998
 30
0.0
 11
33.340733
 21
-608.3216499999998
 31
0.0
  0
LINE
  5
BBB
330
36
100
AcDbEntity
  8
0
100
AcDbLine
 10
252.9158388060373
 20
-603.3216499999997
 30
0.0
 11
33.340733
 21
-603.3216499999999
 31
0.0
  0
LINE
  5
BBC
330
36
100
AcDbEntity
  8
0
100
AcDbLine
 10
252.9158388060373
 20
-598.3216499999997
 30
0.0
 11
33.340733
 21
-598.3216499999997
 31
0.0
  0
LINE
  5
BBD
330
36
100
AcDbEntity
  8
0
100
AcDbLine
 10
252.9158388060373
 20
-593.3216499999997
 30
0.0
 11
33.340733
 21
-593.3216499999997
 31
0.0
  0
LINE
  5
BBE
330
36
100
AcDbEntity
  8
0
100
AcDbLine
 10
252.9158388060373
 20
-588.3216499999997
 30
0.0
 11
33.340733
 21
-588.3216499999997
 31
0.0
  0
LINE
  5
BBF
330
36
100
AcDbEntity
  8
0
100
AcDbLine
 10
252.9158388060373
 20
-583.3216499999998
 30
0.0
 11
33.340733
 21
-583.3216499999998
 31
0.0
  0
LINE
  5
BC0
330
36
100
AcDbEntity
  8
0
100
AcDbLine
 10
252.9158388060373
 20
-578.3216499999999
 30
0.0
 11
33.340733
 21
-578.3216499999999
 31
0.0
  0
LINE
  5
BC1
330
36
100
AcDbEntity
  8
0
 62
     3
100
AcDbLine
 10
252.9158388060373
 20
-573.3216499999997
 30
0.0
 11
33.340733
 21
-573.3216499999997
 31
0.0
  0
TEXT
  5
BC4
330
36
100
AcDbEntity
  8
0
 62
     3
100
AcDbText
 10
139.6717424026967
 20
-427.1108383980076
 30
0.0
 40
1.5
  1
入力
  7
高2
100
AcDbText
  0
TEXT
  5
BC5
330
36
100
AcDbEntity
  8
0
 62
     3
100
AcDbText
 10
139.8274464831563
 20
-432.1587612430097
 30
0.0
 40
1.5
  1
出力
  7
高2
100
AcDbText
  0
TEXT
  5
BC6
330
36
100
AcDbEntity
  8
0
 62
     3
100
AcDbText
 10
134.0496259113954
 20
-424.8541379113677
 30
0.0
 40
2.5
  1
TB-100D
  7
高2.5
100
AcDbText
  0
TEXT
  5
BC7
330
36
100
AcDbEntity
  8
0
 62
     3
100
AcDbText
 10
113.7026546715058
 20
-484.8029227961379
 30
0.0
 40
4.5
  1
1KVA
  7
高4.5
100
AcDbText
  0
LINE
  5
BC8
330
36
100
AcDbEntity
  8
0
100
AcDbLine
 10
109.9001229999999
 20
-415.352193
 30
0.0
 11
89.70012299999996
 21
-415.352193
 31
0.0
  0
LINE
  5
BC9
330
36
100
AcDbEntity
  8
0
100
AcDbLine
 10
109.9001229999999
 20
-415.352193
 30
0.0
 11
109.9001229999999
 21
-435.552193
 31
0.0
  0
LINE
  5
BCA
330
36
100
AcDbEntity
  8
0
100
AcDbLine
 10
109.9001229999999
 20
-435.552193
 30
0.0
 11
89.70012299999996
 21
-435.552193
 31
0.0
  0
LINE
  5
BCB
330
36
100
AcDbEntity
  8
0
100
AcDbLine
 10
89.70012299999996
 20
-435.552193
 30
0.0
 11
89.70012299999996
 21
-415.352193
 31
0.0
  0
LINE
  5
BCC
330
36
100
AcDbEntity
  8
0
100
AcDbLine
 10
109.9001229999999
 20
-428.0521929999999
 30
0.0
 11
89.70012299999996
 21
-428.0521929999999
 31
0.0
  0
LINE
  5
BCD
330
36
100
AcDbEntity
  8
0
100
AcDbLine
 10
109.9001229999999
 20
-428.802193
 30
0.0
 11
89.70012299999996
 21
-428.802193
 31
0.0
  0
LINE
  5
BCE
330
36
100
AcDbEntity
  8
0
100
AcDbLine
 10
109.9001229999999
 20
-429.5521929999998
 30
0.0
 11
89.70012299999996
 21
-429.5521929999998
 31
0.0
  0
LINE
  5
BCF
330
36
100
AcDbEntity
  8
0
100
AcDbLine
 10
109.9001229999999
 20
-430.3021929999998
 30
0.0
 11
89.70012299999996
 21
-430.3021929999998
 31
0.0
  0
LINE
  5
BD0
330
36
100
AcDbEntity
  8
0
100
AcDbLine
 10
109.9001229999999
 20
-431.052193
 30
0.0
 11
89.70012299999996
 21
-431.052193
 31
0.0
  0
LINE
  5
BD1
330
36
100
AcDbEntity
  8
0
100
AcDbLine
 10
109.9001229999999
 20
-431.8021929999998
 30
0.0
 11
89.70012299999996
 21
-431.8021929999998
 31
0.0
  0
LINE
  5
BD2
330
36
100
AcDbEntity
  8
0
100
AcDbLine
 10
109.9001229999999
 20
-432.5521929999998
 30
0.0
 11
89.70012299999996
 21
-432.5521929999998
 31
0.0
  0
LINE
  5
BD3
330
36
100
AcDbEntity
  8
0
100
AcDbLine
 10
109.9001229999999
 20
-433.302193
 30
0.0
 11
89.70012299999996
 21
-433.302193
 31
0.0
  0
LINE
  5
BD4
330
36
100
AcDbEntity
  8
0
100
AcDbLine
 10
109.9001229999999
 20
-434.052193
 30
0.0
 11
89.70012299999996
 21
-434.052193
 31
0.0
  0
LINE
  5
BD5
330
36
100
AcDbEntity
  8
0
100
AcDbLine
 10
109.9001229999999
 20
-434.8021929999998
 30
0.0
 11
89.70012299999996
 21
-434.8021929999998
 31
0.0
  0
CIRCLE
  5
BD6
330
36
100
AcDbEntity
  8
0
100
AcDbCircle
 10
121.800144
 20
-458.6521929999998
 30
0.0
 40
2.0
  0
CIRCLE
  5
BD7
330
36
100
AcDbEntity
  8
0
100
AcDbCircle
 10
121.800144
 20
-428.6521929999998
 30
0.0
 40
2.0
  0
LINE
  5
BD8
330
36
100
AcDbEntity
  8
0
100
AcDbLine
 10
123.425144
 20
-444.1521929999998
 30
0.0
 11
120.175144
 21
-444.1521929999998
 31
0.0
  0
LINE
  5
BD9
330
36
100
AcDbEntity
  8
0
100
AcDbLine
 10
123.425144
 20
-438.1521929999998
 30
0.0
 11
120.175144
 21
-438.1521929999998
 31
0.0
  0
LINE
  5
BDA
330
36
100
AcDbEntity
  8
0
100
AcDbLine
 10
120.175144
 20
-436.6521929999998
 30
0.0
 11
123.425144
 21
-436.6521929999998
 31
0.0
  0
ARC
  5
BDB
330
36
100
AcDbEntity
  8
0
100
AcDbCircle
 10
99.80012299999998
 20
-429.0521429999998
 30
0.0
 40
2.5
100
AcDbArc
 50
23.57692799999865
 51
156.4230720000013
  0
TEXT
  5
BDC
330
36
100
AcDbEntity
  8
0
100
AcDbText
 10
135.4445814583434
 20
-429.1114681606321
 30
0.0
 40
1.5
  1
AC200V 50/60HZ
 41
0.6
  7
高2
100
AcDbText
  0
TEXT
  5
BDD
330
36
100
AcDbEntity
  8
0
100
AcDbText
 10
135.5656290350541
 20
-434.1966602262997
 30
0.0
 40
1.5
  1
AC100V・115V
 41
0.8
  7
高2
100
AcDbText
  0
TEXT
  5
BDE
330
36
100
AcDbEntity
  8
0
100
AcDbText
 10
121.0418549999999
 20
-443.0893329999998
 30
0.0
 40
1.6
  1
入
 41
0.833333
100
AcDbText
  0
TEXT
  5
BDF
330
36
100
AcDbEntity
  8
0
100
AcDbText
 10
120.5210989999999
 20
-438.0204909999998
 30
0.0
 40
1.28
  1
15
 41
1.199999999999999
100
AcDbText
  0
LINE
  5
BE0
330
36
100
AcDbEntity
  8
0
100
AcDbLine
 10
104.040379
 20
-417.402255
 30
0.0
 11
99.80014400000003
 21
-429.0522059999998
 31
0.0
  0
LINE
  5
BE1
330
36
100
AcDbEntity
  8
0
100
AcDbLine
 10
108.292055
 20
-420.5602119999999
 30
0.0
 11
106.869736
 21
-421.9825309999998
 31
0.0
  0
LINE
  5
BE2
330
36
100
AcDbEntity
  8
0
100
AcDbLine
 10
104.8040949999999
 20
-418.3212029999998
 30
0.0
 11
104.380622
 21
-419.2293419999998
 31
0.0
  0
LINE
  5
BE3
330
36
100
AcDbEntity
  8
0
100
AcDbLine
 10
105.6862759999999
 20
-418.857133
 30
0.0
 11
105.1848599999999
 21
-419.725611
 31
0.0
  0
LINE
  5
BE4
330
36
100
AcDbEntity
  8
0
100
AcDbLine
 10
106.5072379999999
 20
-419.473492
 30
0.0
 11
105.931521
 21
-420.2957009999998
 31
0.0
  0
LINE
  5
BE5
330
36
100
AcDbEntity
  8
0
100
AcDbLine
 10
107.2595289999999
 20
-420.1624699999999
 30
0.0
 11
106.6137239999999
 21
-420.9321099999998
 31
0.0
  0
LINE
  5
BE6
330
36
100
AcDbEntity
  8
0
100
AcDbLine
 10
95.55991099999994
 20
-417.402237
 30
0.0
 11
96.07358899999995
 21
-418.813554
 31
0.0
  0
LINE
  5
BE7
330
36
100
AcDbEntity
  8
0
100
AcDbLine
 10
96.70939099999998
 20
-417.5173349999998
 30
0.0
 11
96.96840499999996
 21
-418.4839919999998
 31
0.0
  0
LINE
  5
BE8
330
36
100
AcDbEntity
  8
0
100
AcDbLine
 10
97.72087599999998
 20
-417.260072
 30
0.0
 11
97.89458299999999
 21
-418.2452149999998
 31
0.0
  0
LINE
  5
BE9
330
36
100
AcDbEntity
  8
0
100
AcDbLine
 10
98.75483899999997
 20
-417.1043029999998
 30
0.0
 11
98.84200199999998
 21
-418.100583
 31
0.0
  0
LINE
  5
BEA
330
36
100
AcDbEntity
  8
0
100
AcDbLine
 10
100.8454489999999
 20
-417.104307
 30
0.0
 11
100.758286
 21
-418.1005869999998
 31
0.0
  0
LINE
  5
BEB
330
36
100
AcDbEntity
  8
0
100
AcDbLine
 10
101.879413
 20
-417.260081
 30
0.0
 11
101.7057049999999
 21
-418.2452239999998
 31
0.0
  0
LINE
  5
BEC
330
36
100
AcDbEntity
  8
0
100
AcDbLine
 10
102.890899
 20
-417.517349
 30
0.0
 11
102.631884
 21
-418.484005
 31
0.0
  0
LINE
  5
BED
330
36
100
AcDbEntity
  8
0
100
AcDbLine
 10
92.34076299999992
 20
-420.162424
 30
0.0
 11
92.98656800000003
 21
-420.9320639999998
 31
0.0
  0
LINE
  5
BEE
330
36
100
AcDbEntity
  8
0
100
AcDbLine
 10
93.09305399999994
 20
-419.4734539999998
 30
0.0
 11
93.66877100000001
 21
-420.295663
 31
0.0
  0
LINE
  5
BEF
330
36
100
AcDbEntity
  8
0
100
AcDbLine
 10
93.91401599999994
 20
-418.857102
 30
0.0
 11
94.41543199999999
 21
-419.7255799999998
 31
0.0
  0
LINE
  5
BF0
330
36
100
AcDbEntity
  8
0
100
AcDbLine
 10
94.79619699999998
 20
-418.3211779999998
 30
0.0
 11
95.21966899999997
 21
-419.229317
 31
0.0
  0
LINE
  5
BF1
330
36
100
AcDbEntity
  8
0
100
AcDbLine
 10
91.30814699999996
 20
-420.560267
 30
0.0
 11
92.37456399999997
 21
-421.626684
 31
0.0
  0
TEXT
  5
BF2
330
36
100
AcDbEntity
  8
0
100
AcDbText
 10
118.894374
 20
-413.8172739999998
 30
0.0
 40
2.5
  1
電　源
 41
0.5
100
AcDbText
  0
TEXT
  5
BF3
330
36
100
AcDbEntity
  8
0
100
AcDbText
 10
95.12335199999997
 20
-413.5896329999998
 30
0.0
 40
2.5
  1
出力電圧
 41
0.666667
100
AcDbText
  0
TEXT
  5
BF4
330
36
100
AcDbEntity
  8
0
100
AcDbText
 10
113.751178
 20
-491.703028
 30
0.0
 40
2.4192
  1
日動工業株式会社
 41
0.833333
100
AcDbText
  0
CIRCLE
  5
BF5
330
36
100
AcDbEntity
  8
0
100
AcDbCircle
 10
111.9134299999999
 20
-490.39372
 30
0.0
 40
0.9461759999999999
  0
LINE
  5
C5C
330
36
100
AcDbEntity
  8
0
100
AcDbLine
 10
151.5513930587946
 20
-628.3216499999999
 30
0.0
 11
151.5513930587946
 21
-573.3216499999997
 31
0.0
  0
LINE
  5
C5D
330
36
100
AcDbEntity
  8
0
100
AcDbLine
 10
97.96141799080031
 20
-628.3216499999999
 30
0.0
 11
97.96141799080045
 21
-573.3216499999997
 31
0.0
  0
LINE
  5
C5E
330
36
100
AcDbEntity
  8
0
100
AcDbLine
 10
75.00841934628407
 20
-628.3216499999999
 30
0.0
 11
75.00841934628418
 21
-573.3216499999997
 31
0.0
  0
LINE
  5
C5F
330
36
100
AcDbEntity
  8
0
100
AcDbLine
 10
40.8193655
 20
-628.3216499999999
 30
0.0
 11
40.8193655
 21
-573.3216499999997
 31
0.0
  0
TEXT
  5
C60
330
36
100
AcDbEntity
  8
0
 62
     3
100
AcDbText
 10
153.0513930587944
 20
-622.8216499999997
 30
0.0
 40
3.2
  1
1
 41
0.8
  7
高3.2
100
AcDbText
  0
TEXT
  5
C61
330
36
100
AcDbEntity
  8
0
 62
     3
100
AcDbText
 10
153.0513930587944
 20
-607.8216499999997
 30
0.0
 40
3.2
  1
1
 41
0.8
  7
高3.2
100
AcDbText
  0
TEXT
  5
C63
330
36
100
AcDbEntity
  8
0
 62
     3
100
AcDbText
 10
153.0513930587944
 20
-577.8216499999996
 30
0.0
 40
3.2
  1
1
 41
0.8
  7
高3.2
100
AcDbText
  0
TEXT
  5
C64
330
36
100
AcDbEntity
  8
0
 62
     3
100
AcDbText
 10
153.0513930587944
 20
-597.8216499999997
 30
0.0
 40
3.2
  1
1
 41
0.8
  7
高3.2
100
AcDbText
  0
TEXT
  5
C65
330
36
100
AcDbEntity
  8
0
 62
     3
100
AcDbText
 10
153.0513930587944
 20
-592.8216499999997
 30
0.0
 40
3.2
  1
1
 41
0.8
  7
高3.2
100
AcDbText
  0
TEXT
  5
C66
330
36
100
AcDbEntity
  8
0
 62
     3
100
AcDbText
 10
153.0513930587944
 20
-587.8216499999997
 30
0.0
 40
3.2
  1
1
 41
0.8
  7
高3.2
100
AcDbText
  0
TEXT
  5
C67
330
36
100
AcDbEntity
  8
0
 62
     3
100
AcDbText
 10
153.0513930587944
 20
-582.8216499999996
 30
0.0
 40
3.2
  1
1
 41
0.8
  7
高3.2
100
AcDbText
  0
TEXT
  5
C68
330
36
100
AcDbEntity
  8
0
 62
     3
100
AcDbText
 10
153.0513930587944
 20
-617.8216499999997
 30
0.0
 40
3.2
  1
1式
 41
0.8
  7
高3.2
100
AcDbText
  0
TEXT
  5
C69
330
36
100
AcDbEntity
  8
0
 62
     3
100
AcDbText
 10
153.0513930587944
 20
-602.8216499999997
 30
0.0
 40
3.2
  1
4
 41
0.8
  7
高3.2
100
AcDbText
  0
TEXT
  5
C6A
330
36
100
AcDbEntity
  8
0
 62
     3
100
AcDbText
 10
99.46141799080045
 20
-597.8216499999997
 30
0.0
 40
3.2
  1
200V/100V 6A
 41
0.8
  7
高3.2
100
AcDbText
  0
TEXT
  5
C6B
330
36
100
AcDbEntity
  8
0
 62
     3
100
AcDbText
 10
76.5084193462841
 20
-617.8216499999997
 30
0.0
 40
3.2
  1
SPCC
 41
0.8
  7
高3.2
100
AcDbText
  0
TEXT
  5
C6C
330
36
100
AcDbEntity
  8
0
 62
     3
100
AcDbText
 10
42.3193655
 20
-622.8216499999997
 30
0.0
 40
3.2
  1
取手
 41
0.8
  7
高3.2
100
AcDbText
  0
TEXT
  5
C6D
330
36
100
AcDbEntity
  8
0
 62
     3
100
AcDbText
 10
42.3193655
 20
-617.8216499999997
 30
0.0
 40
3.2
  1
ケース
 41
0.8
  7
高3.2
100
AcDbText
  0
TEXT
  5
C6E
330
36
100
AcDbEntity
  8
0
 62
     3
100
AcDbText
 10
99.46141799080031
 20
-622.8216499999997
 30
0.0
 40
3.2
  1
M6取付ピッチ100
 41
0.8
  7
高3.2
100
AcDbText
  0
TEXT
  5
C6F
330
36
100
AcDbEntity
  8
0
 62
     3
100
AcDbText
 10
42.3193655
 20
-607.8216499999997
 30
0.0
 40
3.2
  1
電線
 41
0.8
  7
高3.2
100
AcDbText
  0
TEXT
  5
C70
330
36
100
AcDbEntity
  8
0
 62
     3
100
AcDbText
 10
76.5084193462841
 20
-607.8216499999997
 30
0.0
 40
3.2
  1
VCT
 41
0.8
  7
高3.2
100
AcDbText
  0
TEXT
  5
C71
330
36
100
AcDbEntity
  8
0
 62
     3
100
AcDbText
 10
42.3193655
 20
-602.8216499999997
 30
0.0
 40
3.2
  1
ゴム脚
 41
0.8
  7
高3.2
100
AcDbText
  0
TEXT
  5
C72
330
36
100
AcDbEntity
  8
0
 62
     3
100
AcDbText
 10
99.46141799080031
 20
-602.8216499999997
 30
0.0
 40
3.2
  1
M4ねじ
 41
0.8
  7
高3.2
100
AcDbText
  0
TEXT
  5
C73
330
36
100
AcDbEntity
  8
0
 62
     3
100
AcDbText
 10
42.3193655
 20
-597.8216499999997
 30
0.0
 40
3.2
  1
安全ブレーカー
 41
0.8
  7
高3.2
100
AcDbText
  0
TEXT
  5
C74
330
36
100
AcDbEntity
  8
0
 62
     3
100
AcDbText
 10
42.3193655
 20
-592.8216499999997
 30
0.0
 40
3.2
  1
E付Wコンセント(白)
 41
0.8
  7
高3.2
100
AcDbText
  0
TEXT
  5
C75
330
36
100
AcDbEntity
  8
0
 62
     3
100
AcDbText
 10
42.3193655
 20
-587.8216499999997
 30
0.0
 40
3.2
  1
E付Wコンセント(黒)
 41
0.8
  7
高3.2
100
AcDbText
  0
TEXT
  5
C78
330
36
100
AcDbEntity
  8
0
 62
     3
100
AcDbText
 10
42.3193655
 20
-582.8216499999996
 30
0.0
 40
3.2
  1
電源ランプ
 41
0.8
  7
高3.2
100
AcDbText
  0
TEXT
  5
C79
330
36
100
AcDbEntity
  8
0
 62
     3
100
AcDbText
 10
99.46141799080045
 20
-582.8216499999996
 30
0.0
 40
3.2
  1
-
 41
0.8
  7
高3.2
100
AcDbText
  0
TEXT
  5
C7A
330
36
100
AcDbEntity
  8
0
 62
     3
100
AcDbText
 10
42.3193655
 20
-577.8216499999996
 30
0.0
 40
3.2
  1
電圧計
 41
0.8
  7
高3.2
100
AcDbText
  0
TEXT
  5
C7B
330
36
100
AcDbEntity
  8
0
 62
     3
100
AcDbText
 10
76.5084193462842
 20
-577.8216499999996
 30
0.0
 40
3.2
  1
-
 41
0.8
  7
高3.2
100
AcDbText
  0
TEXT
  5
C7C
330
36
100
AcDbEntity
  8
0
 62
     3
100
AcDbText
 10
99.46141799080045
 20
-577.8216499999996
 30
0.0
 40
3.2
  1
AC150V計
 41
0.8
  7
高3.2
100
AcDbText
  0
TEXT
  5
C7D
330
36
100
AcDbEntity
  8
0
 62
     3
100
AcDbText
 10
76.5084193462841
 20
-622.8216499999997
 30
0.0
 40
3.2
  1
PA樹脂
 41
0.8
  7
高3.2
100
AcDbText
  0
TEXT
  5
C7E
330
36
100
AcDbEntity
  8
0
 62
     3
100
AcDbText
 10
76.5084193462841
 20
-602.8216499999997
 30
0.0
 40
3.2
  1
合成ゴム
 41
0.8
  7
高3.2
100
AcDbText
  0
TEXT
  5
C7F
330
36
100
AcDbEntity
  8
0
 62
     3
100
AcDbText
 10
76.5084193462841
 20
-597.8216499999997
 30
0.0
 40
3.2
  1
PF樹脂
 41
0.8
  7
高3.2
100
AcDbText
  0
TEXT
  5
C80
330
36
100
AcDbEntity
  8
0
 62
     3
100
AcDbText
 10
76.5084193462842
 20
-582.8216499999996
 30
0.0
 40
3.2
  1
ネオン球
 41
0.8
  7
高3.2
100
AcDbText
  0
TEXT
  5
C81
330
36
100
AcDbEntity
  8
0
 62
     3
100
AcDbText
 10
76.5084193462842
 20
-587.8216499999997
 30
0.0
 40
3.2
  1
耐熱ABS樹脂
 41
0.8
  7
高3.2
100
AcDbText
  0
TEXT
  5
C82
330
36
100
AcDbEntity
  8
0
 62
     3
100
AcDbText
 10
76.5084193462842
 20
-592.8216499999997
 30
0.0
 40
3.2
  1
耐熱ABS樹脂
 41
0.8
  7
高3.2
100
AcDbText
  0
TEXT
  5
C83
330
36
100
AcDbEntity
  8
0
 62
     3
100
AcDbText
 10
34.840733
 20
-622.8216499999997
 30
0.0
 40
3.2
  1
1
 41
0.8
  7
高3.2
100
AcDbText
  0
TEXT
  5
C84
330
36
100
AcDbEntity
  8
0
 62
     3
100
AcDbText
 10
34.840733
 20
-617.8216499999997
 30
0.0
 40
3.2
  1
2
 41
0.8
  7
高3.2
100
AcDbText
  0
TEXT
  5
C85
330
36
100
AcDbEntity
  8
0
 62
     3
100
AcDbText
 10
34.840733
 20
-612.8216499999997
 30
0.0
 40
3.2
  1
3
 41
0.8
  7
高3.2
100
AcDbText
  0
TEXT
  5
C86
330
36
100
AcDbEntity
  8
0
 62
     3
100
AcDbText
 10
34.840733
 20
-602.8216499999997
 30
0.0
 40
3.2
  1
5
 41
0.8
  7
高3.2
100
AcDbText
  0
TEXT
  5
C87
330
36
100
AcDbEntity
  8
0
 62
     3
100
AcDbText
 10
34.840733
 20
-607.8216499999997
 30
0.0
 40
3.2
  1
4
 41
0.8
  7
高3.2
100
AcDbText
  0
TEXT
  5
C88
330
36
100
AcDbEntity
  8
0
 62
     3
100
AcDbText
 10
34.840733
 20
-597.8216499999997
 30
0.0
 40
3.2
  1
6
 41
0.8
  7
高3.2
100
AcDbText
  0
TEXT
  5
C89
330
36
100
AcDbEntity
  8
0
 62
     3
100
AcDbText
 10
34.840733
 20
-592.8216499999997
 30
0.0
 40
3.2
  1
7
 41
0.8
  7
高3.2
100
AcDbText
  0
TEXT
  5
C8A
330
36
100
AcDbEntity
  8
0
 62
     3
100
AcDbText
 10
34.840733
 20
-587.8216499999997
 30
0.0
 40
3.2
  1
8
 41
0.8
  7
高3.2
100
AcDbText
  0
TEXT
  5
C8B
330
36
100
AcDbEntity
  8
0
 62
     3
100
AcDbText
 10
34.840733
 20
-582.8216499999999
 30
0.0
 40
3.2
  1
9
 41
0.8
  7
高3.2
100
AcDbText
  0
TEXT
  5
C8C
330
36
100
AcDbEntity
  8
0
 62
     3
100
AcDbText
 10
34.840733
 20
-577.8216499999997
 30
0.0
 40
3.2
  1
10
 41
0.8
  7
高3.2
100
AcDbText
  0
TEXT
  5
C8E
330
36
100
AcDbEntity
  8
0
 62
     3
100
AcDbText
 10
99.46141799080045
 20
-587.8216499999997
 30
0.0
 40
3.2
  1
2PE-BK　黒　115V出力用
 41
0.8
  7
高3.2
100
AcDbText
  0
TEXT
  5
C8F
330
36
100
AcDbEntity
  8
0
 62
     3
100
AcDbText
 10
99.46141799080045
 20
-592.8216499999997
 30
0.0
 40
3.2
  1
2PE-WK　白　100V出力用
 41
0.8
  7
高3.2
100
AcDbText
  0
TEXT
  5
C90
330
36
100
AcDbEntity
  8
0
 62
     3
100
AcDbText
 10
99.46141799080031
 20
-617.8216499999997
 30
0.0
 40
3.2
  1
上部カバー、パネルベース
 41
0.8
  7
高3.2
100
AcDbText
  0
TEXT
  5
C91
330
36
100
AcDbEntity
  8
0
 62
     3
100
AcDbText
 10
99.46141799080031
 20
-607.8216499999997
 30
0.0
 40
3.2
  1
2.0sqx3芯x2m
 41
0.8
  7
高3.2
100
AcDbText
  0
TEXT
  5
C92
330
36
100
AcDbEntity
  8
0
 62
     3
100
AcDbText
 10
153.0513930587944
 20
-627.8216499999999
 30
0.0
 40
3.2
  1
個数
 41
0.8
  7
高3.2
100
AcDbText
  0
TEXT
  5
C93
330
36
100
AcDbEntity
  8
0
 62
     3
100
AcDbText
 10
99.46141799080031
 20
-627.8216499999999
 30
0.0
 40
3.2
  1
備　　　　考
 41
0.8
  7
高3.2
100
AcDbText
  0
TEXT
  5
C94
330
36
100
AcDbEntity
  8
0
 62
     3
100
AcDbText
 10
76.5084193462841
 20
-627.8216499999999
 30
0.0
 40
3.2
  1
材　　　　質
 41
0.8
  7
高3.2
100
AcDbText
  0
TEXT
  5
C95
330
36
100
AcDbEntity
  8
0
 62
     3
100
AcDbText
 10
42.3193655
 20
-627.8216499999999
 30
0.0
 40
3.2
  1
部　　品　　名
 41
0.8
  7
高3.2
100
AcDbText
  0
TEXT
  5
C97
330
36
100
AcDbEntity
  8
0
 62
     3
100
AcDbText
 10
34.840733
 20
-627.8216499999999
 30
0.0
 40
3.2
  1
No
 41
0.8
  7
高3.2
100
AcDbText
  0
TEXT
  5
C9D
330
36
100
AcDbEntity
  8
0
 62
     3
100
AcDbText
 10
162.0418040469097
 20
-622.8216499999997
 30
0.0
 40
3.2
  1
54268
 41
0.8
  7
高3.2
100
AcDbText
  0
TEXT
  5
C9E
330
36
100
AcDbEntity
  8
0
 62
     3
100
AcDbText
 10
162.0418040469097
 20
-627.8216499999999
 30
0.0
 40
3.2
  1
コード
 41
0.8
  7
高3.2
100
AcDbText
  0
LINE
  5
C9F
330
36
100
AcDbEntity
  8
0
 62
     3
100
AcDbLine
 10
252.9158388060373
 20
-628.3216499999999
 30
0.0
 11
252.9158388060373
 21
-573.3216499999997
 31
0.0
  0
TEXT
  5
CA0
330
36
100
AcDbEntity
  8
0
 62
     3
100
AcDbText
 10
162.0418040469097
 20
-617.8216499999997
 30
0.0
 40
3.2
  1
-
 41
0.8
  7
高3.2
100
AcDbText
  0
TEXT
  5
CA1
330
36
100
AcDbEntity
  8
0
 62
     3
100
AcDbText
 10
162.0418040469097
 20
-607.8216499999997
 30
0.0
 40
3.2
  1
51322
 41
0.8
  7
高3.2
100
AcDbText
  0
TEXT
  5
CA2
330
36
100
AcDbEntity
  8
0
 62
     3
100
AcDbText
 10
162.0418040469097
 20
-602.8216499999997
 30
0.0
 40
3.2
  1
53815
 41
0.8
  7
高3.2
100
AcDbText
  0
TEXT
  5
CA3
330
36
100
AcDbEntity
  8
0
 62
     3
100
AcDbText
 10
162.0418040469097
 20
-597.8216499999997
 30
0.0
 40
3.2
  1
-
 41
0.8
  7
高3.2
100
AcDbText
  0
TEXT
  5
CA4
330
36
100
AcDbEntity
  8
0
 62
     3
100
AcDbText
 10
162.0418040469097
 20
-592.8216499999997
 30
0.0
 40
3.2
  1
51411
 41
0.8
  7
高3.2
100
AcDbText
  0
TEXT
  5
CA5
330
36
100
AcDbEntity
  8
0
 62
     3
100
AcDbText
 10
162.0418040469097
 20
-587.8216499999997
 30
0.0
 40
3.2
  1
51420
 41
0.8
  7
高3.2
100
AcDbText
  0
TEXT
  5
CA7
330
36
100
AcDbEntity
  8
0
 62
     3
100
AcDbText
 10
162.0418040469097
 20
-582.8216499999996
 30
0.0
 40
3.2
  1
53816
 41
0.8
  7
高3.2
100
AcDbText
  0
TEXT
  5
CA8
330
36
100
AcDbEntity
  8
0
 62
     3
100
AcDbText
 10
162.0418040469097
 20
-577.8216499999996
 30
0.0
 40
3.2
  1
53584
 41
0.8
  7
高3.2
100
AcDbText
  0
CIRCLE
  5
CD5
330
36
100
AcDbEntity
  8
0
100
AcDbCircle
 10
67.658635
 20
-402.2338359966826
 30
0.0
 40
5.0
  0
TEXT
  5
CD6
330
36
100
AcDbEntity
  8
0
 62
     4
100
AcDbText
 10
65.44132776988817
 20
-405.4119544388353
 30
0.0
 40
6.299999999999998
  1
3
  7
高6.3
100
AcDbText
  0
TEXT
  5
CE2
330
36
100
AcDbEntity
  8
0
 62
     3
100
AcDbText
 10
153.0513930587944
 20
-612.8216499999997
 30
0.0
 40
3.2
  1
1
 41
0.8
  7
高3.2
100
AcDbText
  0
TEXT
  5
CE3
330
36
100
AcDbEntity
  8
0
 62
     3
100
AcDbText
 10
76.5084193462841
 20
-612.8216499999997
 30
0.0
 40
3.2
  1
SPCC
 41
0.8
  7
高3.2
100
AcDbText
  0
TEXT
  5
CE4
330
36
100
AcDbEntity
  8
0
 62
     3
100
AcDbText
 10
42.3193655
 20
-612.8216499999997
 30
0.0
 40
3.2
  1
フロントパネル
 41
0.8
  7
高3.2
100
AcDbText
  0
TEXT
  5
CE5
330
36
100
AcDbEntity
  8
0
 62
     3
100
AcDbText
 10
99.46141799080031
 20
-612.8216499999997
 30
0.0
 40
3.2
  1
-
 41
0.8
  7
高3.2
100
AcDbText
  0
TEXT
  5
CE6
330
36
100
AcDbEntity
  8
0
 62
     3
100
AcDbText
 10
162.0418040469097
 20
-612.8216499999997
 30
0.0
 40
3.2
  1
-
 41
0.8
  7
高3.2
100
AcDbText
  0
LINE
  5
CE9
330
36
100
AcDbEntity
  8
0
100
AcDbLine
 10
175.5979216056371
 20
-628.3216499999999
 30
0.0
 11
175.597921605637
 21
-573.3216499999997
 31
0.0
  0
TEXT
  5
CEA
330
36
100
AcDbEntity
  8
0
 62
     3
100
AcDbText
 10
177.0979216056371
 20
-622.8216499999997
 30
0.0
 40
3.2
  1
F-200/300D用　取手
 41
0.6
  7
高3.2
100
AcDbText
  0
TEXT
  5
CEB
330
36
100
AcDbEntity
  8
0
 62
     3
100
AcDbText
 10
177.0979216056371
 20
-627.8216499999999
 30
0.0
 40
3.2
  1
コード番号名称
 41
0.6
  7
高3.2
100
AcDbText
  0
TEXT
  5
CEC
330
36
100
AcDbEntity
  8
0
 62
     3
100
AcDbText
 10
177.0979216056371
 20
-617.8216499999997
 30
0.0
 40
3.2
  1
-
 41
0.6
  7
高3.2
100
AcDbText
  0
TEXT
  5
CED
330
36
100
AcDbEntity
  8
0
 62
     3
100
AcDbText
 10
177.0979216056371
 20
-607.8216499999997
 30
0.0
 40
3.2
  1
VCT2x3x2.5M防雨型4Pプラグ付
 41
0.6
  7
高3.2
100
AcDbText
  0
TEXT
  5
CEE
330
36
100
AcDbEntity
  8
0
 62
     3
100
AcDbText
 10
177.0979216056371
 20
-602.8216499999997
 30
0.0
 40
3.2
  1
TB,FB(200,300,500),Fタイプ,NA-180DS兼用　脚ゴム(1/4)
 41
0.6
  7
高3.2
100
AcDbText
  0
TEXT
  5
CEF
330
36
100
AcDbEntity
  8
0
 62
     3
100
AcDbText
 10
177.0979216056371
 20
-597.8216499999997
 30
0.0
 40
3.2
  1
-
 41
0.6
  7
高3.2
100
AcDbText
  0
TEXT
  5
CF0
330
36
100
AcDbEntity
  8
0
 62
     3
100
AcDbText
 10
177.0979216056371
 20
-592.8216499999997
 30
0.0
 40
3.2
  1
2PE-WK(金具付コンセント白)
 41
0.6
  7
高3.2
100
AcDbText
  0
TEXT
  5
CF1
330
36
100
AcDbEntity
  8
0
 62
     3
100
AcDbText
 10
177.0979216056371
 20
-587.8216499999997
 30
0.0
 40
3.2
  1
2PE-BK(金具付コンセント黒)
 41
0.6
  7
高3.2
100
AcDbText
  0
TEXT
  5
CF3
330
36
100
AcDbEntity
  8
0
 62
     3
100
AcDbText
 10
177.0979216056371
 20
-582.8216499999996
 30
0.0
 40
3.2
  1
TB,FB(200,300,500)兼用　電源ランプ
 41
0.6
  7
高3.2
100
AcDbText
  0
TEXT
  5
CF4
330
36
100
AcDbEntity
  8
0
 62
     3
100
AcDbText
 10
177.0979216056371
 20
-577.8216499999996
 30
0.0
 40
3.2
  1
新150V電圧メーター
 41
0.6
  7
高3.2
100
AcDbText
  0
TEXT
  5
CF5
330
36
100
AcDbEntity
  8
0
 62
     3
100
AcDbText
 10
177.0979216056371
 20
-612.8216499999997
 30
0.0
 40
3.2
  1
-
 41
0.6
  7
高3.2
100
AcDbText
  0
LINE
  5
EEF
330
36
100
AcDbEntity
  8
0
100
AcDbLine
 10
150.6030647957598
 20
-417.2292705020898
 30
0.0
 11
132.1359897596082
 21
-417.2292705020898
 31
0.0
  0
LINE
  5
EF0
330
36
100
AcDbEntity
  8
0
100
AcDbLine
 10
132.1359897596082
 20
-435.1230944519977
 30
0.0
 11
150.6030647957598
 21
-435.1230944519977
 31
0.0
  0
LINE
  5
EF1
330
36
100
AcDbEntity
  8
0
100
AcDbLine
 10
152.6030647957598
 20
-419.22927050209
 30
0.0
 11
152.6030647957598
 21
-433.1230944519977
 31
0.0
  0
LINE
  5
EF2
330
36
100
AcDbEntity
  8
0
100
AcDbLine
 10
130.1359897596082
 20
-419.22927050209
 30
0.0
 11
130.1359897596082
 21
-433.1230944519977
 31
0.0
  0
ARC
  5
EF8
330
36
100
AcDbEntity
  8
0
100
AcDbCircle
 10
150.6030647957599
 20
-419.22927050209
 30
0.0
 40
2.0
100
AcDbArc
 50
0.0
 51
90.0
  0
ARC
  5
EF9
330
36
100
AcDbEntity
  8
0
100
AcDbCircle
 10
132.1359897596081
 20
-419.2292705020898
 30
0.0
 40
2.0
100
AcDbArc
 50
89.99999999999348
 51
180.0000000000016
  0
ARC
  5
EFA
330
36
100
AcDbEntity
  8
0
100
AcDbCircle
 10
132.1359897596081
 20
-433.1230944519978
 30
0.0
 40
2.0
100
AcDbArc
 50
179.9999999999984
 51
270.0
  0
ARC
  5
EFB
330
36
100
AcDbEntity
  8
0
100
AcDbCircle
 10
150.6030647957599
 20
-433.1230944519977
 30
0.0
 40
2.0
100
AcDbArc
 50
269.9999999999935
 51
0.0
  0
TEXT
  5
EFC
330
36
100
AcDbEntity
  8
0
100
AcDbText
 10
121.0418549999999
 20
-433.7239486933738
 30
0.0
 40
1.6
  1
入
 41
0.833333
100
AcDbText
  0
TEXT
  5
EFD
330
36
100
AcDbEntity
  8
0
100
AcDbText
 10
121.0418549999999
 20
-455.4954240363747
 30
0.0
 40
1.6
  1
切
 41
0.833333
100
AcDbText
  0
TEXT
  5
F6A
330
36
100
AcDbEntity
  8
0
100
AcDbText
 10
348.840733
 20
-368.766289
 30
0.0
 40
2.5
  1
'14.01.08
  7
高2.5
100
AcDbText
  0
TEXT
  5
F6B
330
36
100
AcDbEntity
  8
0
100
AcDbText
 10
366.840733
 20
-368.766289
 30
0.0
 40
2.5
  1
形状図面修正
  7
高2.5
100
AcDbText
  0
TEXT
  5
F6C
330
36
100
AcDbEntity
  8
0
100
AcDbText
 10
410.8407329999998
 20
-368.766289
 30
0.0
 40
2.5
  1
今村
  7
高2.5
100
AcDbText
  0
LINE
  5
FFF
330
36
100
AcDbEntity
  8
0
 62
     3
100
AcDbLine
 10
205.042652
 20
-436.5521929999998
 30
0.0
 11
210.8238591063026
 21
-492.8521929999998
 31
0.0
  0
TEXT
  5
131E
330
36
100
AcDbEntity
  8
0
 62
     4
100
AcDbText
 10
393.0844721419108
 20
-421.4078003866018
 30
0.0
 40
3.2
  1
20A 250V
  7
高3.2
100
AcDbText
  0
LINE
  5
131F
330
36
100
AcDbEntity
  8
0
 62
     7
100
AcDbLine
 10
393.0857400286901
 20
-422.263829091366
 30
0.0
 11
417.0878175433339
 21
-422.263829091366
 31
0.0
  0
CIRCLE
  5
13DD
330
36
100
AcDbEntity
  8
0
100
AcDbCircle
 10
399.8379129669702
 20
-476.429745379574
 30
0.0
 40
5.0
  0
TEXT
  5
13DE
330
36
100
AcDbEntity
  8
0
 62
     4
100
AcDbText
 10
397.6434512764706
 20
-479.32544016968
 30
0.0
 40
6.299999999999998
  1
4
  7
高6.3
100
AcDbText
  0
ARC
  5
13E0
330
36
100
AcDbEntity
  8
0
 62
     3
100
AcDbCircle
 10
367.7928556084029
 20
-435.3058274083521
 30
0.0
 40
2.0
100
AcDbArc
 50
90.0
 51
270.0
  0
ARC
  5
13E1
330
36
100
AcDbEntity
  8
0
 62
     3
100
AcDbCircle
 10
394.2928556084029
 20
-435.3058274083521
 30
0.0
 40
2.0
100
AcDbArc
 50
270.0
 51
90.0
  0
LINE
  5
13E2
330
36
100
AcDbEntity
  8
0
 62
     3
100
AcDbLine
 10
367.7928556084029
 20
-437.305827408352
 30
0.0
 11
367.7928556084029
 21
-439.8058274083521
 31
0.0
  0
LINE
  5
13E3
330
36
100
AcDbEntity
  8
0
 62
     3
100
AcDbLine
 10
394.2928556084029
 20
-439.8058274083521
 30
0.0
 11
394.2928556084029
 21
-437.305827408352
 31
0.0
  0
LINE
  5
13E4
330
36
100
AcDbEntity
  8
0
 62
     3
100
AcDbLine
 10
367.7928556084029
 20
-439.8058274083521
 30
0.0
 11
368.5428556084029
 21
-441.3058274083519
 31
0.0
  0
LINE
  5
13E5
330
36
100
AcDbEntity
  8
0
 62
     3
100
AcDbLine
 10
393.5428556084029
 20
-441.3058274083519
 30
0.0
 11
394.2928556084029
 21
-439.8058274083521
 31
0.0
  0
LINE
  5
13E6
330
36
100
AcDbEntity
  8
0
 62
     3
100
AcDbLine
 10
367.7928556084029
 20
-431.805827408352
 30
0.0
 11
367.7928556084029
 21
-433.305827408352
 31
0.0
  0
LINE
  5
13E7
330
36
100
AcDbEntity
  8
0
 62
     3
100
AcDbLine
 10
394.2928556084029
 20
-433.305827408352
 30
0.0
 11
394.2928556084029
 21
-431.805827408352
 31
0.0
  0
ARC
  5
13E8
330
36
100
AcDbEntity
  8
0
 62
     3
100
AcDbCircle
 10
381.0428556084029
 20
-445.3058274083519
 30
0.0
 40
12.50000000000002
100
AcDbArc
 50
306.6531750701012
 51
334.1582287284883
  0
ARC
  5
13E9
330
36
100
AcDbEntity
  8
0
 62
     3
100
AcDbCircle
 10
381.0428556084029
 20
-445.3058274083519
 30
0.0
 40
12.50000000000001
100
AcDbArc
 50
205.8417712364039
 51
233.346824929915
  0
ARC
  5
13EA
330
36
100
AcDbEntity
  8
0
 62
     3
100
AcDbCircle
 10
371.192855608403
 20
-458.543179862676
 30
0.0
 40
4.0
100
AcDbArc
 50
0.0
 51
53.34682492991504
  0
ARC
  5
13EB
330
36
100
AcDbEntity
  8
0
 62
     3
100
AcDbCircle
 10
390.8928556084028
 20
-458.543179862676
 30
0.0
 40
4.0
100
AcDbArc
 50
126.6531750700849
 51
180.0
  0
ARC
  5
13EC
330
36
100
AcDbEntity
  8
0
 62
     3
100
AcDbCircle
 10
375.9672951088263
 20
-466.8376813896179
 30
0.0
 40
2.174439500423603
100
AcDbArc
 50
110.8643046745888
 51
244.8405244688164
  0
ARC
  5
13ED
330
36
100
AcDbEntity
  8
0
 62
     3
100
AcDbCircle
 10
386.1184161079792
 20
-466.8376813896179
 30
0.0
 40
2.174439500423597
100
AcDbArc
 50
295.1594755311835
 51
69.13569532541112
  0
LINE
  5
13EE
330
36
100
AcDbEntity
  8
0
 62
     3
100
AcDbLine
 10
375.0428556084029
 20
-468.8058274083521
 30
0.0
 11
375.0428556084029
 21
-470.3058274083519
 31
0.0
  0
LINE
  5
13EF
330
36
100
AcDbEntity
  8
0
 62
     3
100
AcDbLine
 10
387.0428556084029
 20
-470.3058274083519
 30
0.0
 11
387.0428556084029
 21
-468.8058274083521
 31
0.0
  0
LINE
  5
13F0
330
36
100
AcDbEntity
  8
0
 62
     3
100
AcDbLine
 10
375.192855608403
 20
-458.543179862676
 30
0.0
 11
375.192855608403
 21
-464.8058274083521
 31
0.0
  0
LINE
  5
13F1
330
36
100
AcDbEntity
  8
0
 62
     3
100
AcDbLine
 10
386.8928556084028
 20
-464.8058274083521
 30
0.0
 11
386.8928556084028
 21
-458.543179862676
 31
0.0
  0
LINE
  5
13F2
330
36
100
AcDbEntity
  8
0
 62
     3
100
AcDbLine
 10
376.1678556084029
 20
-470.3058274083519
 30
0.0
 11
376.5298213598816
 21
-483.819215463562
 31
0.0
  0
LINE
  5
13F3
330
36
100
AcDbEntity
  8
0
 62
     3
100
AcDbLine
 10
385.555889856924
 20
-483.819215463562
 30
0.0
 11
385.9178556084029
 21
-470.3058274083519
 31
0.0
  0
ARC
  5
13F4
330
36
100
AcDbEntity
  8
0
 62
     3
100
AcDbCircle
 10
385.0560691290847
 20
-483.805827408352
 30
0.0
 40
0.5
100
AcDbArc
 50
270.0
 51
358.4656585003048
  0
ARC
  5
13F5
330
36
100
AcDbEntity
  8
0
 62
     3
100
AcDbCircle
 10
377.0296420877209
 20
-483.805827408352
 30
0.0
 40
0.5
100
AcDbArc
 50
181.5343414996952
 51
270.0
  0
LINE
  5
13F6
330
36
100
AcDbEntity
  8
0
 62
     3
100
AcDbLine
 10
394.2928556084029
 20
-433.305827408352
 30
0.0
 11
367.7928556084029
 21
-433.305827408352
 31
0.0
  0
LINE
  5
13F7
330
36
100
AcDbEntity
  8
0
 62
     3
100
AcDbLine
 10
367.7928556084029
 20
-437.305827408352
 30
0.0
 11
394.2928556084029
 21
-437.305827408352
 31
0.0
  0
LINE
  5
13F8
330
36
100
AcDbEntity
  8
0
 62
     3
100
AcDbLine
 10
367.7928556084029
 20
-439.8058274083521
 30
0.0
 11
394.2928556084029
 21
-439.8058274083521
 31
0.0
  0
LINE
  5
13F9
330
36
100
AcDbEntity
  8
0
 62
     3
100
AcDbLine
 10
368.5428556084029
 20
-441.3058274083519
 30
0.0
 11
393.5428556084029
 21
-441.3058274083519
 31
0.0
  0
LINE
  5
13FA
330
36
100
AcDbEntity
  8
0
 62
     3
100
AcDbLine
 10
394.2928556084029
 20
-431.805827408352
 30
0.0
 11
367.7928556084029
 21
-431.805827408352
 31
0.0
  0
LINE
  5
13FB
330
36
100
AcDbEntity
  8
0
 62
     3
100
AcDbLine
 10
375.192855608403
 20
-464.8058274083521
 30
0.0
 11
386.8928556084026
 21
-464.8058274083521
 31
0.0
  0
LINE
  5
13FC
330
36
100
AcDbEntity
  8
0
 62
     3
100
AcDbLine
 10
375.0428556084029
 20
-468.8058274083521
 30
0.0
 11
387.0428556084026
 21
-468.8058274083521
 31
0.0
  0
LINE
  5
13FD
330
36
100
AcDbEntity
  8
0
 62
     3
100
AcDbLine
 10
381.5428556084029
 20
-421.305827408352
 30
0.0
 11
381.3928556084028
 21
-420.305827408352
 31
0.0
  0
LINE
  5
13FE
330
36
100
AcDbEntity
  8
0
 62
     3
100
AcDbLine
 10
380.6928556084029
 20
-420.305827408352
 30
0.0
 11
380.5428556084029
 21
-421.305827408352
 31
0.0
  0
LINE
  5
13FF
330
36
100
AcDbEntity
  8
0
 62
     3
100
AcDbLine
 10
380.6928556084029
 20
-420.305827408352
 30
0.0
 11
381.3928556084028
 21
-420.305827408352
 31
0.0
  0
LINE
  5
1400
330
36
100
AcDbEntity
  8
0
 62
     3
100
AcDbLine
 10
380.542855608403
 20
-431.805827408352
 30
0.0
 11
380.5428556084029
 21
-421.305827408352
 31
0.0
  0
LINE
  5
1401
330
36
100
AcDbEntity
  8
0
 62
     3
100
AcDbLine
 10
381.5428556084029
 20
-421.305827408352
 30
0.0
 11
381.542855608403
 21
-431.805827408352
 31
0.0
  0
LINE
  5
1402
330
36
100
AcDbEntity
  8
0
 62
     3
100
AcDbLine
 10
375.0428556084029
 20
-470.3058274083519
 30
0.0
 11
387.0428556084029
 21
-470.3058274083519
 31
0.0
  0
LINE
  5
1403
330
36
100
AcDbEntity
  8
0
 62
     3
100
AcDbLine
 10
380.2928556084029
 20
-479.6058274083519
 30
0.0
 11
376.4781667114718
 21
-479.6058274083519
 31
0.0
  0
LINE
  5
1404
330
36
100
AcDbEntity
  8
0
 62
     3
100
AcDbLine
 10
376.5216039721389
 20
-481.205827408352
 30
0.0
 11
376.4781667114718
 21
-479.6058274083519
 31
0.0
  0
LINE
  5
1405
330
36
100
AcDbEntity
  8
0
 62
     3
100
AcDbLine
 10
376.5216039721389
 20
-481.205827408352
 30
0.0
 11
380.2928556084029
 21
-481.2058274083518
 31
0.0
  0
LINE
  5
1406
330
36
100
AcDbEntity
  8
0
 62
     3
100
AcDbLine
 10
380.2928556084029
 20
-481.2058274083518
 30
0.0
 11
380.2928556084029
 21
-479.6058274083519
 31
0.0
  0
LINE
  5
1407
330
36
100
AcDbEntity
  8
0
 62
     3
100
AcDbLine
 10
381.7928556084029
 20
-478.105827408352
 30
0.0
 11
385.6482570650113
 21
-478.105827408352
 31
0.0
  0
LINE
  5
1408
330
36
100
AcDbEntity
  8
0
 62
     3
100
AcDbLine
 10
385.6916735539475
 20
-476.505827408352
 30
0.0
 11
385.6482570650113
 21
-478.105827408352
 31
0.0
  0
LINE
  5
1409
330
36
100
AcDbEntity
  8
0
 62
     3
100
AcDbLine
 10
385.6916735539475
 20
-476.505827408352
 30
0.0
 11
381.7928556084029
 21
-476.505827408352
 31
0.0
  0
LINE
  5
140A
330
36
100
AcDbEntity
  8
0
 62
     3
100
AcDbLine
 10
381.7928556084029
 20
-476.505827408352
 30
0.0
 11
381.7928556084029
 21
-478.105827408352
 31
0.0
  0
LINE
  5
140B
330
36
100
AcDbEntity
  8
0
 62
     3
100
AcDbLine
 10
381.7928556084029
 20
-481.2058274083518
 30
0.0
 11
385.5641072446666
 21
-481.205827408352
 31
0.0
  0
LINE
  5
140C
330
36
100
AcDbEntity
  8
0
 62
     3
100
AcDbLine
 10
385.6075445053337
 20
-479.6058274083519
 30
0.0
 11
385.5641072446666
 21
-481.205827408352
 31
0.0
  0
LINE
  5
140D
330
36
100
AcDbEntity
  8
0
 62
     3
100
AcDbLine
 10
385.6075445053337
 20
-479.6058274083519
 30
0.0
 11
381.7928556084029
 21
-479.6058274083519
 31
0.0
  0
LINE
  5
140E
330
36
100
AcDbEntity
  8
0
 62
     3
100
AcDbLine
 10
381.7928556084029
 20
-479.6058274083519
 30
0.0
 11
381.7928556084029
 21
-481.2058274083518
 31
0.0
  0
LINE
  5
140F
330
36
100
AcDbEntity
  8
0
 62
     3
100
AcDbLine
 10
381.7928556084029
 20
-470.3058274083519
 30
0.0
 11
381.7928556084029
 21
-471.9058274083519
 31
0.0
  0
LINE
  5
1410
330
36
100
AcDbEntity
  8
0
 62
     3
100
AcDbLine
 10
381.7928556084029
 20
-471.9058274083519
 30
0.0
 11
385.8164396489154
 21
-471.9058274083519
 31
0.0
  0
LINE
  5
1411
330
36
100
AcDbEntity
  8
0
 62
     3
100
AcDbLine
 10
385.8164396489154
 20
-471.9058274083519
 30
0.0
 11
385.8598178254023
 21
-470.3058274083519
 31
0.0
  0
LINE
  5
1412
330
36
100
AcDbEntity
  8
0
 62
     3
100
AcDbLine
 10
376.2692715678903
 20
-471.9058274083519
 30
0.0
 11
376.2258933914035
 21
-470.3058274083519
 31
0.0
  0
LINE
  5
1413
330
36
100
AcDbEntity
  8
0
 62
     3
100
AcDbLine
 10
376.2692715678903
 20
-471.9058274083519
 30
0.0
 11
380.2928556084029
 21
-471.9058274083519
 31
0.0
  0
LINE
  5
1414
330
36
100
AcDbEntity
  8
0
 62
     3
100
AcDbLine
 10
380.2928556084029
 20
-471.9058274083519
 30
0.0
 11
380.2928556084029
 21
-470.3058274083519
 31
0.0
  0
LINE
  5
1415
330
36
100
AcDbEntity
  8
0
 62
     3
100
AcDbLine
 10
380.2928556084029
 20
-475.005827408352
 30
0.0
 11
380.2928556084029
 21
-473.4058274083519
 31
0.0
  0
LINE
  5
1416
330
36
100
AcDbEntity
  8
0
 62
     3
100
AcDbLine
 10
380.2928556084029
 20
-473.4058274083519
 30
0.0
 11
376.309947230295
 21
-473.4058274083519
 31
0.0
  0
LINE
  5
1417
330
36
100
AcDbEntity
  8
0
 62
     3
100
AcDbLine
 10
376.3533440502194
 20
-475.005827408352
 30
0.0
 11
376.309947230295
 21
-473.4058274083519
 31
0.0
  0
LINE
  5
1418
330
36
100
AcDbEntity
  8
0
 62
     3
100
AcDbLine
 10
376.3533440502194
 20
-475.005827408352
 30
0.0
 11
380.2928556084029
 21
-475.005827408352
 31
0.0
  0
LINE
  5
1419
330
36
100
AcDbEntity
  8
0
 62
     3
100
AcDbLine
 10
381.7928556084029
 20
-475.005827408352
 30
0.0
 11
385.7323671665862
 21
-475.005827408352
 31
0.0
  0
LINE
  5
141A
330
36
100
AcDbEntity
  8
0
 62
     3
100
AcDbLine
 10
385.7757639865105
 20
-473.4058274083519
 30
0.0
 11
385.7323671665862
 21
-475.005827408352
 31
0.0
  0
LINE
  5
141B
330
36
100
AcDbEntity
  8
0
 62
     3
100
AcDbLine
 10
385.7757639865105
 20
-473.4058274083519
 30
0.0
 11
381.7928556084029
 21
-473.4058274083519
 31
0.0
  0
LINE
  5
141C
330
36
100
AcDbEntity
  8
0
 62
     3
100
AcDbLine
 10
381.7928556084029
 20
-473.4058274083519
 30
0.0
 11
381.7928556084029
 21
-475.005827408352
 31
0.0
  0
LINE
  5
141D
330
36
100
AcDbEntity
  8
0
 62
     3
100
AcDbLine
 10
380.2928556084029
 20
-476.505827408352
 30
0.0
 11
376.3940376628583
 21
-476.505827408352
 31
0.0
  0
LINE
  5
141E
330
36
100
AcDbEntity
  8
0
 62
     3
100
AcDbLine
 10
376.4374541517944
 20
-478.105827408352
 30
0.0
 11
376.3940376628583
 21
-476.505827408352
 31
0.0
  0
LINE
  5
141F
330
36
100
AcDbEntity
  8
0
 62
     3
100
AcDbLine
 10
376.4374541517944
 20
-478.105827408352
 30
0.0
 11
380.2928556084029
 21
-478.105827408352
 31
0.0
  0
LINE
  5
1420
330
36
100
AcDbEntity
  8
0
 62
     3
100
AcDbLine
 10
380.2928556084029
 20
-478.105827408352
 30
0.0
 11
380.2928556084029
 21
-476.505827408352
 31
0.0
  0
LINE
  5
1421
330
36
100
AcDbEntity
  8
0
 62
     3
100
AcDbLine
 10
385.0560691290847
 20
-484.305827408352
 30
0.0
 11
377.0296420877209
 21
-484.305827408352
 31
0.0
  0
LINE
  5
1422
330
36
100
AcDbEntity
  8
0
 62
     3
100
AcDbLine
 10
378.1897870848656
 20
-479.6058274083519
 30
0.0
 11
378.1897870848656
 21
-481.205827408352
 31
0.0
  0
LINE
  5
1423
330
36
100
AcDbEntity
  8
0
 62
     3
100
AcDbLine
 10
383.8959241319402
 20
-478.105827408352
 30
0.0
 11
383.8959241319402
 21
-476.505827408352
 31
0.0
  0
LINE
  5
1424
330
36
100
AcDbEntity
  8
0
 62
     3
100
AcDbLine
 10
383.8959241319402
 20
-481.205827408352
 30
0.0
 11
383.8959241319402
 21
-479.6058274083519
 31
0.0
  0
LINE
  5
1425
330
36
100
AcDbEntity
  8
0
 62
     3
100
AcDbLine
 10
378.1897870848656
 20
-470.3058274083519
 30
0.0
 11
378.1897870848656
 21
-471.9058274083519
 31
0.0
  0
LINE
  5
1426
330
36
100
AcDbEntity
  8
0
 62
     3
100
AcDbLine
 10
378.1897870848656
 20
-473.4058274083519
 30
0.0
 11
378.1897870848656
 21
-475.005827408352
 31
0.0
  0
LINE
  5
1427
330
36
100
AcDbEntity
  8
0
 62
     3
100
AcDbLine
 10
383.8959241319402
 20
-475.005827408352
 30
0.0
 11
383.8959241319402
 21
-473.4058274083519
 31
0.0
  0
LINE
  5
1428
330
36
100
AcDbEntity
  8
0
 62
     3
100
AcDbLine
 10
378.1897870848656
 20
-476.505827408352
 30
0.0
 11
378.1897870848656
 21
-478.105827408352
 31
0.0
  0
LINE
  5
1429
330
36
100
AcDbEntity
  8
0
 62
     3
100
AcDbLine
 10
383.8959241319402
 20
-470.3058274083519
 30
0.0
 11
383.8959241319402
 21
-471.9058274083519
 31
0.0
  0
LINE
  5
142A
330
36
100
AcDbEntity
  8
0
 62
     3
100
AcDbLine
 10
385.692855608403
 20
-423.305827408352
 30
0.0
 11
385.692855608403
 21
-431.7558274083521
 31
0.0
  0
LINE
  5
142B
330
36
100
AcDbEntity
  8
0
 62
     3
100
AcDbLine
 10
386.692855608403
 20
-423.305827408352
 30
0.0
 11
385.692855608403
 21
-423.305827408352
 31
0.0
  0
LINE
  5
142C
330
36
100
AcDbEntity
  8
0
 62
     3
100
AcDbLine
 10
386.692855608403
 20
-423.305827408352
 30
0.0
 11
386.692855608403
 21
-431.8058274083519
 31
0.0
  0
LINE
  5
142D
330
36
100
AcDbEntity
  8
0
 62
     3
100
AcDbLine
 10
386.692855608403
 20
-422.8058274083521
 30
0.0
 11
386.5428556084029
 21
-421.805827408352
 31
0.0
  0
LINE
  5
142E
330
36
100
AcDbEntity
  8
0
 62
     3
100
AcDbLine
 10
385.8428556084028
 20
-421.805827408352
 30
0.0
 11
385.692855608403
 21
-422.8058274083521
 31
0.0
  0
LINE
  5
142F
330
36
100
AcDbEntity
  8
0
 62
     3
100
AcDbLine
 10
385.8428556084028
 20
-421.805827408352
 30
0.0
 11
386.5428556084029
 21
-421.805827408352
 31
0.0
  0
LINE
  5
1430
330
36
100
AcDbEntity
  8
0
 62
     3
100
AcDbLine
 10
385.692855608403
 20
-423.305827408352
 30
0.0
 11
385.692855608403
 21
-422.8058274083521
 31
0.0
  0
LINE
  5
1431
330
36
100
AcDbEntity
  8
0
 62
     3
100
AcDbLine
 10
386.692855608403
 20
-422.8058274083521
 30
0.0
 11
386.692855608403
 21
-423.305827408352
 31
0.0
  0
LINE
  5
1432
330
36
100
AcDbEntity
  8
0
 62
     3
100
AcDbLine
 10
375.3928556084028
 20
-423.305827408352
 30
0.0
 11
375.3928556084028
 21
-431.8058274083519
 31
0.0
  0
LINE
  5
1433
330
36
100
AcDbEntity
  8
0
 62
     3
100
AcDbLine
 10
376.3928556084028
 20
-423.305827408352
 30
0.0
 11
375.3928556084028
 21
-423.305827408352
 31
0.0
  0
LINE
  5
1434
330
36
100
AcDbEntity
  8
0
 62
     3
100
AcDbLine
 10
376.3928556084028
 20
-423.305827408352
 30
0.0
 11
376.3928556084028
 21
-431.7558274083521
 31
0.0
  0
LINE
  5
1435
330
36
100
AcDbEntity
  8
0
 62
     3
100
AcDbLine
 10
376.3928556084028
 20
-422.8058274083521
 30
0.0
 11
376.2428556084027
 21
-421.805827408352
 31
0.0
  0
LINE
  5
1436
330
36
100
AcDbEntity
  8
0
 62
     3
100
AcDbLine
 10
375.5428556084029
 20
-421.805827408352
 30
0.0
 11
375.3928556084028
 21
-422.8058274083521
 31
0.0
  0
LINE
  5
1437
330
36
100
AcDbEntity
  8
0
 62
     3
100
AcDbLine
 10
375.5428556084029
 20
-421.805827408352
 30
0.0
 11
376.2428556084027
 21
-421.805827408352
 31
0.0
  0
LINE
  5
1438
330
36
100
AcDbEntity
  8
0
 62
     3
100
AcDbLine
 10
375.3928556084028
 20
-423.305827408352
 30
0.0
 11
375.3928556084028
 21
-422.8058274083521
 31
0.0
  0
LINE
  5
1439
330
36
100
AcDbEntity
  8
0
 62
     3
100
AcDbLine
 10
376.3928556084028
 20
-422.8058274083521
 30
0.0
 11
376.3928556084028
 21
-423.305827408352
 31
0.0
  0
LINE
  5
143A
330
36
100
AcDbEntity
  8
0
 62
     3
100
AcDbLine
 10
383.0428556084029
 20
-423.305827408352
 30
0.0
 11
383.0428556084029
 21
-431.7558274083518
 31
0.0
  0
LINE
  5
143B
330
36
100
AcDbEntity
  8
0
 62
     3
100
AcDbLine
 10
379.0428556084029
 20
-423.305827408352
 30
0.0
 11
379.0428556084029
 21
-431.7558274083518
 31
0.0
  0
LINE
  5
143C
330
36
100
AcDbEntity
  8
0
 62
     3
100
AcDbLine
 10
379.2928556084029
 20
-422.8058274083521
 30
0.0
 11
379.0428556084029
 21
-423.305827408352
 31
0.0
  0
LINE
  5
143D
330
36
100
AcDbEntity
  8
0
 62
     3
100
AcDbLine
 10
382.7928556084028
 20
-422.8058274083521
 30
0.0
 11
381.542855608403
 21
-422.8058274083521
 31
0.0
  0
LINE
  5
143E
330
36
100
AcDbEntity
  8
0
 62
     3
100
AcDbLine
 10
380.542855608403
 20
-422.8058274083521
 30
0.0
 11
379.2928556084029
 21
-422.8058274083521
 31
0.0
  0
LINE
  5
143F
330
36
100
AcDbEntity
  8
0
 62
     3
100
AcDbLine
 10
383.0428556084029
 20
-423.305827408352
 30
0.0
 11
382.7928556084028
 21
-422.8058274083521
 31
0.0
  0
LINE
  5
1440
330
36
100
AcDbEntity
  8
0
 62
     3
100
AcDbLine
 10
379.7928556084029
 20
-421.805827408352
 30
0.0
 11
380.5428556084029
 21
-421.805827408352
 31
0.0
  0
LINE
  5
1441
330
36
100
AcDbEntity
  8
0
 62
     3
100
AcDbLine
 10
381.5428556084029
 20
-421.805827408352
 30
0.0
 11
382.2928556084029
 21
-421.805827408352
 31
0.0
  0
LINE
  5
1442
330
36
100
AcDbEntity
  8
0
 62
     3
100
AcDbLine
 10
379.2928556084029
 20
-422.8058274083521
 30
0.0
 11
379.7928556084029
 21
-421.805827408352
 31
0.0
  0
LINE
  5
1443
330
36
100
AcDbEntity
  8
0
 62
     3
100
AcDbLine
 10
382.2928556084029
 20
-421.805827408352
 30
0.0
 11
382.7928556084028
 21
-422.8058274083521
 31
0.0
  0
LINE
  5
1444
330
36
100
AcDbEntity
  8
0
 62
     3
100
AcDbLine
 10
369.7928402478307
 20
-450.7544193720508
 30
0.0
 11
369.7928402478307
 21
-441.3058274083519
 31
0.0
  0
LINE
  5
1445
330
36
100
AcDbEntity
  8
0
 62
     3
100
AcDbLine
 10
392.2928709656363
 20
-450.7544193789435
 30
0.0
 11
392.2928709656368
 21
-441.3058274083519
 31
0.0
  0
LINE
  5
1446
330
36
100
AcDbEntity
  8
0
 62
     7
100
AcDbLine
 10
386.6928556084027
 20
-405.0610989378244
 30
0.0
 11
385.6928556084028
 21
-405.0610989378244
 31
0.0
  0
LINE
  5
1447
330
36
100
AcDbEntity
  8
0
 62
     7
100
AcDbLine
 10
386.5428556084038
 20
-404.9110989378245
 30
0.0
 11
385.8428556084037
 21
-404.9110989378245
 31
0.0
  0
LINE
  5
1448
330
36
100
AcDbEntity
  8
0
 62
     7
100
AcDbLine
 10
376.3928556084028
 20
-405.0610989378244
 30
0.0
 11
375.3928556084028
 21
-405.0610989378244
 31
0.0
  0
LINE
  5
1449
330
36
100
AcDbEntity
  8
0
 62
     7
100
AcDbLine
 10
376.2428556084027
 20
-404.9110989378245
 30
0.0
 11
375.5428556084029
 21
-404.9110989378245
 31
0.0
  0
LINE
  5
144A
330
36
100
AcDbEntity
  8
0
 62
     7
100
AcDbLine
 10
386.6928556084027
 20
-401.0610989378244
 30
0.0
 11
385.6928556084028
 21
-401.0610989378244
 31
0.0
  0
LINE
  5
144B
330
36
100
AcDbEntity
  8
0
 62
     7
100
AcDbLine
 10
386.5428556084038
 20
-401.2110989378244
 30
0.0
 11
385.8428556084037
 21
-401.2110989378244
 31
0.0
  0
LINE
  5
144C
330
36
100
AcDbEntity
  8
0
 62
     7
100
AcDbLine
 10
376.3928556084028
 20
-401.0610989378244
 30
0.0
 11
375.3928556084028
 21
-401.0610989378244
 31
0.0
  0
LINE
  5
144D
330
36
100
AcDbEntity
  8
0
 62
     7
100
AcDbLine
 10
376.2428556084027
 20
-401.2110989378244
 30
0.0
 11
375.5428556084029
 21
-401.2110989378244
 31
0.0
  0
LINE
  5
144E
330
36
100
AcDbEntity
  8
0
 62
     7
100
AcDbLine
 10
383.0428556084029
 20
-398.4110989378245
 30
0.0
 11
379.0428556084029
 21
-398.4110989378245
 31
0.0
  0
LINE
  5
144F
330
36
100
AcDbEntity
  8
0
 62
     7
100
AcDbLine
 10
382.8928556084028
 20
-398.2610989378246
 30
0.0
 11
379.1928556084027
 21
-398.2610989378246
 31
0.0
  0
LINE
  5
1450
330
36
100
AcDbEntity
  8
0
 62
     7
100
AcDbLine
 10
383.0428556084029
 20
-397.4110989378246
 30
0.0
 11
379.0428556084029
 21
-397.4110989378246
 31
0.0
  0
LINE
  5
1451
330
36
100
AcDbEntity
  8
0
 62
     7
100
AcDbLine
 10
382.8928556084028
 20
-397.5610989378246
 30
0.0
 11
379.1928556084027
 21
-397.5610989378246
 31
0.0
  0
LINE
  5
1452
330
36
100
AcDbEntity
  8
0
 62
     7
100
AcDbLine
 10
381.5428556084029
 20
-409.8110989378246
 30
0.0
 11
380.5428556084029
 21
-409.8110989378246
 31
0.0
  0
LINE
  5
1453
330
36
100
AcDbEntity
  8
0
 62
     7
100
AcDbLine
 10
381.3928556084028
 20
-409.6610989378246
 30
0.0
 11
380.6928556084027
 21
-409.6610989378246
 31
0.0
  0
LINE
  5
1454
330
36
100
AcDbEntity
  8
0
 62
     7
100
AcDbLine
 10
381.5428556084029
 20
-405.8110989378246
 30
0.0
 11
380.5428556084029
 21
-405.8110989378246
 31
0.0
  0
LINE
  5
1455
330
36
100
AcDbEntity
  8
0
 62
     7
100
AcDbLine
 10
381.3928556084028
 20
-405.9610989378246
 30
0.0
 11
380.6928556084027
 21
-405.9610989378246
 31
0.0
  0
LINE
  5
1456
330
36
100
AcDbEntity
  8
0
 62
     7
100
AcDbLine
 10
379.0428556084029
 20
-398.4110989378245
 30
0.0
 11
379.0428556084029
 21
-397.4110989378246
 31
0.0
  0
LINE
  5
1457
330
36
100
AcDbEntity
  8
0
 62
     7
100
AcDbLine
 10
379.1928556084027
 20
-398.2610989378246
 30
0.0
 11
379.1928556084027
 21
-397.5610989378246
 31
0.0
  0
LINE
  5
1458
330
36
100
AcDbEntity
  8
0
 62
     7
100
AcDbLine
 10
383.0428556084029
 20
-398.4110989378245
 30
0.0
 11
383.0428556084029
 21
-397.4110989378246
 31
0.0
  0
LINE
  5
1459
330
36
100
AcDbEntity
  8
0
 62
     7
100
AcDbLine
 10
382.8928556084028
 20
-398.2610989378246
 30
0.0
 11
382.8928556084028
 21
-397.5610989378246
 31
0.0
  0
LINE
  5
145A
330
36
100
AcDbEntity
  8
0
 62
     7
100
AcDbLine
 10
380.5428556084029
 20
-409.8110989378246
 30
0.0
 11
380.5428556084029
 21
-405.8110989378246
 31
0.0
  0
LINE
  5
145B
330
36
100
AcDbEntity
  8
0
 62
     7
100
AcDbLine
 10
380.6928556084027
 20
-409.6610989378246
 30
0.0
 11
380.6928556084027
 21
-405.9610989378246
 31
0.0
  0
LINE
  5
145C
330
36
100
AcDbEntity
  8
0
 62
     7
100
AcDbLine
 10
381.5428556084029
 20
-409.8110989378246
 30
0.0
 11
381.5428556084029
 21
-405.8110989378246
 31
0.0
  0
LINE
  5
145D
330
36
100
AcDbEntity
  8
0
 62
     7
100
AcDbLine
 10
381.3928556084028
 20
-409.6610989378246
 30
0.0
 11
381.3928556084028
 21
-405.9610989378246
 31
0.0
  0
LINE
  5
145E
330
36
100
AcDbEntity
  8
0
 62
     7
100
AcDbLine
 10
375.3928556084028
 20
-405.0610989378244
 30
0.0
 11
375.3928556084028
 21
-401.0610989378244
 31
0.0
  0
LINE
  5
145F
330
36
100
AcDbEntity
  8
0
 62
     7
100
AcDbLine
 10
375.5428556084029
 20
-404.9110989378245
 30
0.0
 11
375.5428556084029
 21
-401.2110989378244
 31
0.0
  0
LINE
  5
1460
330
36
100
AcDbEntity
  8
0
 62
     7
100
AcDbLine
 10
376.3928556084028
 20
-405.0610989378244
 30
0.0
 11
376.3928556084028
 21
-401.0610989378244
 31
0.0
  0
LINE
  5
1461
330
36
100
AcDbEntity
  8
0
 62
     7
100
AcDbLine
 10
376.2428556084027
 20
-404.9110989378245
 30
0.0
 11
376.2428556084027
 21
-401.2110989378244
 31
0.0
  0
LINE
  5
1462
330
36
100
AcDbEntity
  8
0
 62
     7
100
AcDbLine
 10
385.6928556084028
 20
-405.0610989378244
 30
0.0
 11
385.6928556084028
 21
-401.0610989378244
 31
0.0
  0
LINE
  5
1463
330
36
100
AcDbEntity
  8
0
 62
     7
100
AcDbLine
 10
385.8428556084037
 20
-404.9110989378245
 30
0.0
 11
385.8428556084037
 21
-401.2110989378244
 31
0.0
  0
LINE
  5
1464
330
36
100
AcDbEntity
  8
0
 62
     7
100
AcDbLine
 10
386.6928556084027
 20
-405.0610989378244
 30
0.0
 11
386.6928556084027
 21
-401.0610989378244
 31
0.0
  0
LINE
  5
1465
330
36
100
AcDbEntity
  8
0
 62
     7
100
AcDbLine
 10
386.5428556084038
 20
-404.9110989378245
 30
0.0
 11
386.5428556084029
 21
-401.2110989378244
 31
0.0
  0
LINE
  5
1466
330
36
100
AcDbEntity
  8
0
 62
     7
100
AcDbLine
 10
376.2428556084027
 20
-401.2110989378244
 30
0.0
 11
376.3928556084028
 21
-401.0610989378244
 31
0.0
  0
LINE
  5
1467
330
36
100
AcDbEntity
  8
0
 62
     7
100
AcDbLine
 10
375.5428556084029
 20
-401.2110989378244
 30
0.0
 11
375.3928556084028
 21
-401.0610989378244
 31
0.0
  0
LINE
  5
1468
330
36
100
AcDbEntity
  8
0
 62
     7
100
AcDbLine
 10
375.5428556084029
 20
-404.9110989378245
 30
0.0
 11
375.3928556084028
 21
-405.0610989378244
 31
0.0
  0
LINE
  5
1469
330
36
100
AcDbEntity
  8
0
 62
     7
100
AcDbLine
 10
376.2428556084027
 20
-404.9110989378245
 30
0.0
 11
376.3928556084028
 21
-405.0610989378244
 31
0.0
  0
LINE
  5
146A
330
36
100
AcDbEntity
  8
0
 62
     7
100
AcDbLine
 10
380.6928556084027
 20
-405.9610989378246
 30
0.0
 11
380.5428556084029
 21
-405.8110989378246
 31
0.0
  0
LINE
  5
146B
330
36
100
AcDbEntity
  8
0
 62
     7
100
AcDbLine
 10
381.3928556084028
 20
-405.9610989378246
 30
0.0
 11
381.5428556084029
 21
-405.8110989378246
 31
0.0
  0
LINE
  5
146C
330
36
100
AcDbEntity
  8
0
 62
     7
100
AcDbLine
 10
380.6928556084027
 20
-409.6610989378246
 30
0.0
 11
380.5428556084029
 21
-409.8110989378246
 31
0.0
  0
LINE
  5
146D
330
36
100
AcDbEntity
  8
0
 62
     7
100
AcDbLine
 10
381.3928556084028
 20
-409.6610989378246
 30
0.0
 11
381.5428556084029
 21
-409.8110989378246
 31
0.0
  0
LINE
  5
146E
330
36
100
AcDbEntity
  8
0
 62
     7
100
AcDbLine
 10
385.8428556084037
 20
-404.9110989378245
 30
0.0
 11
385.6928556084028
 21
-405.0610989378244
 31
0.0
  0
LINE
  5
146F
330
36
100
AcDbEntity
  8
0
 62
     7
100
AcDbLine
 10
386.5428556084038
 20
-404.9110989378245
 30
0.0
 11
386.6928556084027
 21
-405.0610989378244
 31
0.0
  0
LINE
  5
1470
330
36
100
AcDbEntity
  8
0
 62
     7
100
AcDbLine
 10
386.5428556084038
 20
-401.2110989378244
 30
0.0
 11
386.6928556084027
 21
-401.0610989378244
 31
0.0
  0
LINE
  5
1471
330
36
100
AcDbEntity
  8
0
 62
     7
100
AcDbLine
 10
385.8428556084037
 20
-401.2110989378244
 30
0.0
 11
385.6928556084028
 21
-401.0610989378244
 31
0.0
  0
LINE
  5
1472
330
36
100
AcDbEntity
  8
0
 62
     7
100
AcDbLine
 10
382.8928556084028
 20
-397.5610989378246
 30
0.0
 11
383.0428556084029
 21
-397.4110989378246
 31
0.0
  0
LINE
  5
1473
330
36
100
AcDbEntity
  8
0
 62
     7
100
AcDbLine
 10
382.8928556084028
 20
-398.2610989378246
 30
0.0
 11
383.0428556084029
 21
-398.4110989378245
 31
0.0
  0
LINE
  5
1474
330
36
100
AcDbEntity
  8
0
 62
     7
100
AcDbLine
 10
379.1928556084027
 20
-397.5610989378246
 30
0.0
 11
379.0428556084029
 21
-397.4110989378246
 31
0.0
  0
LINE
  5
1475
330
36
100
AcDbEntity
  8
0
 62
     7
100
AcDbLine
 10
379.1928556084027
 20
-398.2610989378246
 30
0.0
 11
379.0428556084029
 21
-398.4110989378245
 31
0.0
  0
CIRCLE
  5
1476
330
36
100
AcDbEntity
  8
0
 62
     3
100
AcDbCircle
 10
381.0428556084029
 20
-403.0610989378245
 30
0.0
 40
13.25
  0
CIRCLE
  5
1477
330
36
100
AcDbEntity
  8
0
 62
     3
100
AcDbCircle
 10
381.0428556084029
 20
-403.0610989378245
 30
0.0
 40
15.25
  0
TEXT
  5
1478
330
36
100
AcDbEntity
  8
0
 62
     4
100
AcDbText
 10
388.2961544021708
 20
-404.770594520327
 30
0.0
 40
3.2
  1
X
  7
高3.2
100
AcDbText
  0
TEXT
  5
1479
330
36
100
AcDbEntity
  8
0
 62
     4
100
AcDbText
 10
371.7420366638665
 20
-404.8191512771246
 30
0.0
 40
3.2
  1
Z
  7
高3.2
100
AcDbText
  0
TEXT
  5
147A
330
36
100
AcDbEntity
  8
0
 62
     4
100
AcDbText
 10
380.0738631503776
 20
-396.3715444029787
 30
0.0
 40
3.2
  1
Y
  7
高3.2
100
AcDbText
  0
LINE
  5
147B
330
36
100
AcDbEntity
  8
0
 62
     3
100
AcDbLine
 10
378.3178556084028
 20
-490.7270467093044
 30
0.0
 11
378.3178556084028
 21
-484.305827408352
 31
0.0
  0
LINE
  5
147C
330
36
100
AcDbEntity
  8
0
 62
     3
100
AcDbLine
 10
383.7678556084028
 20
-490.7270467093044
 30
0.0
 11
383.7678556084028
 21
-484.305827408352
 31
0.0
  0
ARC
  5
147D
330
36
100
AcDbEntity
  8
0
100
AcDbCircle
 10
382.4053556084027
 20
-489.2964217093044
 30
0.0
 40
1.975625000000008
100
AcDbArc
 50
226.3971810272948
 51
313.6028189727052
  0
ARC
  5
147E
330
36
100
AcDbEntity
  8
0
100
AcDbCircle
 10
382.4053556084027
 20
-492.1576717093044
 30
0.0
 40
1.975625000000008
100
AcDbArc
 50
46.39718102729483
 51
133.6028189727051
  0
ARC
  5
147F
330
36
100
AcDbEntity
  8
0
100
AcDbCircle
 10
379.6803556084027
 20
-489.2964217093044
 30
0.0
 40
1.975625000000008
100
AcDbArc
 50
226.3971810272948
 51
313.6028189727052
  0
LINE
  5
1480
330
36
100
AcDbEntity
  8
0
 62
     3
100
AcDbLine
 10
336.542652
 20
-475.1271929999998
 30
0.0
 11
344.5045736335389
 21
-475.1271929999998
 31
0.0
  0
LINE
  5
1481
330
36
100
AcDbEntity
  8
0
 62
     3
100
AcDbLine
 10
336.542652
 20
-480.5771929999998
 30
0.0
 11
344.5045736335389
 21
-480.5771929999998
 31
0.0
  0
LINE
  5
1482
330
36
100
AcDbEntity
  8
0
 62
     3
100
AcDbLine
 10
357.2295736335389
 20
-487.8521929999998
 30
0.0
 11
357.2295736335389
 21
-497.6315986823268
 31
0.0
  0
LINE
  5
1483
330
36
100
AcDbEntity
  8
0
 62
     3
100
AcDbLine
 10
351.7795736335389
 20
-487.8521929999998
 30
0.0
 11
351.7795736335389
 21
-497.6315986823268
 31
0.0
  0
ARC
  5
1484
330
36
100
AcDbEntity
  8
0
 62
     3
100
AcDbCircle
 10
344.5045736335389
 20
-487.8521929999998
 30
0.0
 40
7.275
100
AcDbArc
 50
0.0
 51
90.0
  0
ARC
  5
1485
330
36
100
AcDbEntity
  8
0
 62
     3
100
AcDbCircle
 10
344.5045736335389
 20
-487.8521929999998
 30
0.0
 40
12.725
100
AcDbArc
 50
0.0
 51
90.0
  0
LINE
  5
1486
330
36
100
AcDbEntity
  8
0
 62
     3
100
AcDbLine
 10
364.504573633539
 20
-510.3565986823269
 30
0.0
 11
371.0428556084027
 21
-510.3565986823269
 31
0.0
  0
LINE
  5
1487
330
36
100
AcDbEntity
  8
0
 62
     3
100
AcDbLine
 10
364.504573633539
 20
-504.9065986823269
 30
0.0
 11
371.0428556084027
 21
-504.9065986823269
 31
0.0
  0
ARC
  5
1488
330
36
100
AcDbEntity
  8
0
 62
     3
100
AcDbCircle
 10
371.0428556084027
 20
-497.6315986823268
 30
0.0
 40
7.275
100
AcDbArc
 50
270.0
 51
0.0
  0
ARC
  5
1489
330
36
100
AcDbEntity
  8
0
 62
     3
100
AcDbCircle
 10
371.0428556084027
 20
-497.6315986823268
 30
0.0
 40
12.725
100
AcDbArc
 50
270.0
 51
0.0
  0
ARC
  5
148A
330
36
100
AcDbEntity
  8
0
 62
     3
100
AcDbCircle
 10
364.504573633539
 20
-497.6315986823268
 30
0.0
 40
7.275
100
AcDbArc
 50
180.0
 51
270.0
  0
ARC
  5
148B
330
36
100
AcDbEntity
  8
0
 62
     3
100
AcDbCircle
 10
364.504573633539
 20
-497.6315986823268
 30
0.0
 40
12.725
100
AcDbArc
 50
180.0
 51
270.0
  0
LINE
  5
148C
330
36
100
AcDbEntity
  8
0
 62
     3
100
AcDbLine
 10
383.7678556084028
 20
-493.9655277940368
 30
0.0
 11
383.7678556084028
 21
-497.6315986823268
 31
0.0
  0
LINE
  5
148D
330
36
100
AcDbEntity
  8
0
 62
     3
100
AcDbLine
 10
378.3178556084028
 20
-493.9655277940368
 30
0.0
 11
378.3178556084028
 21
-497.6315986823268
 31
0.0
  0
ARC
  5
148E
330
36
100
AcDbEntity
  8
0
100
AcDbCircle
 10
379.6803556084028
 20
-495.3961527940369
 30
0.0
 40
1.97562500000002
100
AcDbArc
 50
46.39718102729483
 51
133.6028189727051
  0
ARC
  5
148F
330
36
100
AcDbEntity
  8
0
100
AcDbCircle
 10
379.6803556084028
 20
-492.5349027940368
 30
0.0
 40
1.97562500000002
100
AcDbArc
 50
226.3971810272948
 51
313.6028189727052
  0
ARC
  5
1490
330
36
100
AcDbEntity
  8
0
100
AcDbCircle
 10
382.4053556084028
 20
-495.3961527940369
 30
0.0
 40
1.97562500000002
100
AcDbArc
 50
46.39718102729483
 51
133.6028189727051
  0
TEXT
  5
155D
330
36
100
AcDbEntity
  8
0
 62
     4
100
AcDbText
 10
57.52469315118678
 20
-480.6143528302338
 30
0.0
 40
3.0
  1
アース金具
100
AcDbText
1001
ACAD
1000
MTEXTBEGIN
1070
    73
1070
     1
1070
    44
1040
1.0
1070
    74
1070
     0
1000
MTEXTEND
  0
LINE
  5
1572
330
36
100
AcDbEntity
  8
0
100
AcDbLine
 10
150.800144
 20
-498.8521929999998
 30
0.0
 11
173.6200559999999
 21
-498.8521929999998
 31
0.0
  0
LINE
  5
1573
330
36
100
AcDbEntity
  8
0
100
AcDbLine
 10
122.050144
 20
-392.852193
 30
0.0
 11
173.6200559999999
 21
-392.852193
 31
0.0
  0
LINE
  5
1574
330
36
100
AcDbEntity
  8
0
100
AcDbLine
 10
172.3700559999999
 20
-496.3521929999997
 30
0.0
 11
172.3700559999999
 21
-395.3521930000001
 31
0.0
  0
LINE
  5
1578
330
36
100
AcDbEntity
  8
0
100
AcDbLine
 10
81.80014400000004
 20
-488.1021929999998
 30
0.0
 11
81.80014400000004
 21
-507.1587279999998
 31
0.0
  0
LINE
  5
1579
330
36
100
AcDbEntity
  8
0
100
AcDbLine
 10
161.800144
 20
-493.1021929999998
 30
0.0
 11
161.800144
 21
-507.1587279999998
 31
0.0
  0
LINE
  5
157A
330
36
100
AcDbEntity
  8
0
100
AcDbLine
 10
84.30014400000004
 20
-505.9087279999998
 30
0.0
 11
159.300144
 21
-505.9087279999998
 31
0.0
  0
LINE
  5
157E
330
36
100
AcDbEntity
  8
0
100
AcDbLine
 10
205.042652
 20
-436.8021929999998
 30
0.0
 11
205.042652
 21
-507.1587279999998
 31
0.0
  0
LINE
  5
157F
330
36
100
AcDbEntity
  8
0
100
AcDbLine
 10
335.042652
 20
-452.1021929999998
 30
0.0
 11
335.042652
 21
-507.1587279999998
 31
0.0
  0
LINE
  5
1580
330
36
100
AcDbEntity
  8
0
100
AcDbLine
 10
207.542652
 20
-505.9087279999998
 30
0.0
 11
332.542652
 21
-505.9087279999998
 31
0.0
  0
LINE
  5
1584
330
36
100
AcDbEntity
  8
0
100
AcDbLine
 10
210.5738591063026
 20
-492.8521929999998
 30
0.0
 11
194.0475289999999
 21
-492.8521929999998
 31
0.0
  0
LINE
  5
1585
330
36
100
AcDbEntity
  8
0
100
AcDbLine
 10
204.792652
 20
-412.8521929999998
 30
0.0
 11
194.0475289999999
 21
-412.8521929999998
 31
0.0
  0
LINE
  5
1586
330
36
100
AcDbEntity
  8
0
100
AcDbLine
 10
195.2975289999999
 20
-490.3521929999998
 30
0.0
 11
195.2975289999999
 21
-415.3521929999998
 31
0.0
  0
LINE
  5
158A
330
36
100
AcDbEntity
  8
0
100
AcDbLine
 10
385.754711628569
 20
-487.1851233564568
 30
0.0
 11
395.8642009266378
 21
-479.4644797370619
 31
0.0
1001
ACAD
1000
DSTYLE
1002
{
1070
   147
1040
0.625
1070
    77
1070
     0
1002
}
  0
LINE
  5
158B
330
36
100
AcDbEntity
  8
0
  6
ByBlock
 62
     0
370
    -2
100
AcDbLine
 10
386.1612886467463
 20
-487.7174994402044
 30
0.0
 11
383.7678556084028
 21
-488.7024905352007
 31
0.0
  0
LINE
  5
158C
330
36
100
AcDbEntity
  8
0
  6
ByBlock
 62
     0
370
    -2
100
AcDbLine
 10
383.7678556084028
 20
-488.7024905352007
 30
0.0
 11
385.3481346103917
 21
-486.6527472727093
 31
0.0
  0
LINE
  5
158D
330
36
100
AcDbEntity
  8
0
  6
ByBlock
 62
     0
370
    -2
100
AcDbLine
 10
383.7678556084028
 20
-488.7024905352007
 30
0.0
 11
385.754711628569
 21
-487.1851233564568
 31
0.0
  0
LINE
  5
158E
330
36
100
AcDbEntity
  8
0
100
AcDbLine
 10
94.35601947422014
 20
-483.201593054717
 30
0.0
 11
75.34969315118678
 21
-479.1143528302338
 31
0.0
1001
ACAD
1000
DSTYLE
1002
{
1070
   147
1040
0.625
1070
    77
1070
     0
1002
}
  0
LINE
  5
158F
330
36
100
AcDbEntity
  8
0
  6
ByBlock
 62
     0
370
    -2
100
AcDbLine
 10
94.49685345395874
 20
-482.5466923321588
 30
0.0
 11
96.80014400000004
 21
-483.7271929999998
 31
0.0
  0
LINE
  5
1590
330
36
100
AcDbEntity
  8
0
  6
ByBlock
 62
     0
370
    -2
100
AcDbLine
 10
96.80014400000004
 20
-483.7271929999998
 30
0.0
 11
94.21518549448157
 21
-483.8564937772751
 31
0.0
  0
LINE
  5
1591
330
36
100
AcDbEntity
  8
0
  6
ByBlock
 62
     0
370
    -2
100
AcDbLine
 10
96.80014400000004
 20
-483.7271929999998
 30
0.0
 11
94.35601947422014
 21
-483.201593054717
 31
0.0
  0
LINE
  5
1592
330
36
100
AcDbEntity
  8
0
100
AcDbLine
 10
87.81485466477702
 20
-495.5813850971853
 30
0.0
 11
72.62921367044602
 21
-493.9266918056291
 31
0.0
1001
ACAD
1000
DSTYLE
1002
{
1070
   147
1040
0.625
1070
    77
1070
     0
1002
}
  0
LINE
  5
1593
330
36
100
AcDbEntity
  8
0
  6
ByBlock
 62
     0
370
    -2
100
AcDbLine
 10
87.88741737152829
 20
-494.9154543051015
 30
0.0
 11
90.30014400000004
 21
-495.8521929999998
 31
0.0
  0
LINE
  5
1594
330
36
100
AcDbEntity
  8
0
  6
ByBlock
 62
     0
370
    -2
100
AcDbLine
 10
90.30014400000004
 20
-495.8521929999998
 30
0.0
 11
87.74229195802577
 21
-496.2473158892689
 31
0.0
  0
LINE
  5
1595
330
36
100
AcDbEntity
  8
0
  6
ByBlock
 62
     0
370
    -2
100
AcDbLine
 10
90.30014400000004
 20
-495.8521929999998
 30
0.0
 11
87.81485466477702
 21
-495.5813850971853
 31
0.0
  0
LINE
  5
1596
330
36
100
AcDbEntity
  8
0
100
AcDbLine
 10
132.8355385571118
 20
-472.4330032924851
 30
0.0
 11
72.94282188577608
 21
-462.2462164150292
 31
0.0
1001
ACAD
1000
DSTYLE
1002
{
1070
   147
1040
0.625
1070
    77
1070
     0
1002
}
  0
LINE
  5
1597
330
36
100
AcDbEntity
  8
0
  6
ByBlock
 62
     0
370
    -2
100
AcDbLine
 10
132.9478600200507
 20
-471.7726147286686
 30
0.0
 11
135.300144
 21
-472.8521929999998
 31
0.0
  0
LINE
  5
1598
330
36
100
AcDbEntity
  8
0
  6
ByBlock
 62
     0
370
    -2
100
AcDbLine
 10
135.300144
 20
-472.8521929999998
 30
0.0
 11
132.723217094173
 21
-473.0933918563015
 31
0.0
  0
LINE
  5
1599
330
36
100
AcDbEntity
  8
0
  6
ByBlock
 62
     0
370
    -2
100
AcDbLine
 10
135.300144
 20
-472.8521929999998
 30
0.0
 11
132.8355385571118
 21
-472.4330032924851
 31
0.0
  0
LINE
  5
159A
330
36
100
AcDbEntity
  8
0
100
AcDbLine
 10
88.87077870406491
 20
-452.7621215984678
 30
0.0
 11
72.5173655918703
 21
-448.7900218030638
 31
0.0
1001
ACAD
1000
DSTYLE
1002
{
1070
   147
1040
0.625
1070
    77
1070
     0
1002
}
  0
LINE
  5
159B
330
36
100
AcDbEntity
  8
0
  6
ByBlock
 62
     0
370
    -2
100
AcDbLine
 10
89.02888774603402
 20
-452.1111755967872
 30
0.0
 11
91.30014400000003
 21
-453.3521929999998
 31
0.0
  0
LINE
  5
159C
330
36
100
AcDbEntity
  8
0
  6
ByBlock
 62
     0
370
    -2
100
AcDbLine
 10
91.30014400000003
 20
-453.3521929999998
 30
0.0
 11
88.7126696620958
 21
-453.4130676001482
 31
0.0
  0
LINE
  5
159D
330
36
100
AcDbEntity
  8
0
  6
ByBlock
 62
     0
370
    -2
100
AcDbLine
 10
91.30014400000003
 20
-453.3521929999998
 30
0.0
 11
88.87077870406491
 21
-452.7621215984678
 31
0.0
  0
LINE
  5
159E
330
36
100
AcDbEntity
  8
0
100
AcDbLine
 10
117.7031895003313
 20
-441.6537750684969
 30
0.0
 11
72.60254399933728
 21
-434.8407897345492
 31
0.0
1001
ACAD
1000
DSTYLE
1002
{
1070
   147
1040
0.625
1070
    77
1070
     0
1002
}
  0
LINE
  5
159F
330
36
100
AcDbEntity
  8
0
  6
ByBlock
 62
     0
370
    -2
100
AcDbLine
 10
117.8032464616596
 20
-440.9914173322651
 30
0.0
 11
120.175144
 21
-442.0271929999998
 31
0.0
  0
LINE
  5
15A0
330
36
100
AcDbEntity
  8
0
  6
ByBlock
 62
     0
370
    -2
100
AcDbLine
 10
120.175144
 20
-442.0271929999998
 30
0.0
 11
117.603132539003
 21
-442.3161328047286
 31
0.0
  0
LINE
  5
15A1
330
36
100
AcDbEntity
  8
0
  6
ByBlock
 62
     0
370
    -2
100
AcDbLine
 10
120.175144
 20
-442.0271929999998
 30
0.0
 11
117.7031895003313
 21
-441.6537750684969
 31
0.0
  0
LINE
  5
15A2
330
36
100
AcDbEntity
  8
0
100
AcDbLine
 10
86.42648162363579
 20
-424.4126955773553
 30
0.0
 11
72.20591775272841
 21
-417.9111251687449
 31
0.0
1001
ACAD
1000
DSTYLE
1002
{
1070
   147
1040
0.625
1070
    77
1070
     0
1002
}
  0
LINE
  5
15A3
330
36
100
AcDbEntity
  8
0
  6
ByBlock
 62
     0
370
    -2
100
AcDbLine
 10
86.705013918536
 20
-423.8034756441999
 30
0.0
 11
88.70012299999997
 21
-425.452193
 31
0.0
  0
LINE
  5
15A4
330
36
100
AcDbEntity
  8
0
  6
ByBlock
 62
     0
370
    -2
100
AcDbLine
 10
88.70012299999997
 20
-425.452193
 30
0.0
 11
86.14794932873557
 21
-425.0219155105106
 31
0.0
  0
LINE
  5
15A5
330
36
100
AcDbEntity
  8
0
  6
ByBlock
 62
     0
370
    -2
100
AcDbLine
 10
88.70012299999997
 20
-425.452193
 30
0.0
 11
86.42648162363579
 21
-424.4126955773553
 31
0.0
  0
LINE
  5
15A6
330
36
100
AcDbEntity
  8
0
100
AcDbLine
 10
86.48862325480923
 20
-412.8807961021804
 30
0.0
 11
72.01106068067611
 21
-404.6948095223814
 31
0.0
1001
ACAD
1000
DSTYLE
1002
{
1070
   341
1005
699
1070
   147
1040
0.625
1070
    77
1070
     0
1002
}
  0
LINE
  5
15A8
330
36
100
AcDbEntity
  8
0
100
AcDbLine
 10
116.9252588567257
 20
-415.1055295279482
 30
0.0
 11
72.09034876661303
 21
-391.6835566109562
 31
0.0
1001
ACAD
1000
DSTYLE
1002
{
1070
   147
1040
0.625
1070
    77
1070
     0
1002
}
  0
LINE
  5
15A9
330
36
100
AcDbEntity
  8
0
  6
ByBlock
 62
     0
370
    -2
100
AcDbLine
 10
117.2354297343042
 20
-414.511792891923
 30
0.0
 11
119.1411157400322
 21
-416.2631038334263
 31
0.0
  0
LINE
  5
15AA
330
36
100
AcDbEntity
  8
0
  6
ByBlock
 62
     0
370
    -2
100
AcDbLine
 10
119.1411157400322
 20
-416.2631038334263
 30
0.0
 11
116.6150879791471
 21
-415.6992661639733
 31
0.0
  0
LINE
  5
15AB
330
36
100
AcDbEntity
  8
0
  6
ByBlock
 62
     0
370
    -2
100
AcDbLine
 10
119.1411157400322
 20
-416.2631038334263
 30
0.0
 11
116.9252588567257
 21
-415.1055295279481
 31
0.0
  0
LINE
  5
15AC
330
36
100
AcDbEntity
  8
0
100
AcDbLine
 10
327.0946157159099
 20
-410.5115188253313
 30
0.0
 11
332.1075905604497
 21
-397.1504723493368
 31
0.0
1001
ACAD
1000
DSTYLE
1002
{
1070
   147
1040
0.625
1070
    77
1070
     0
1002
}
  0
LINE
  5
15AD
330
36
100
AcDbEntity
  8
0
  6
ByBlock
 62
     0
370
    -2
100
AcDbLine
 10
327.7217970203381
 20
-410.7468330357649
 30
0.0
 11
326.2164104961348
 21
-412.8521929999998
 31
0.0
  0
LINE
  5
15AE
330
36
100
AcDbEntity
  8
0
  6
ByBlock
 62
     0
370
    -2
100
AcDbLine
 10
326.2164104961348
 20
-412.8521929999998
 30
0.0
 11
326.4674344114817
 21
-410.2762046148979
 31
0.0
  0
LINE
  5
15AF
330
36
100
AcDbEntity
  8
0
  6
ByBlock
 62
     0
370
    -2
100
AcDbLine
 10
326.2164104961348
 20
-412.8521929999998
 30
0.0
 11
327.0946157159099
 21
-410.5115188253313
 31
0.0
  0
LINE
  5
15B0
330
36
100
AcDbEntity
  8
0
100
AcDbLine
 10
298.4969533259507
 20
-403.8916811677331
 30
0.0
 11
301.6342566882301
 21
-396.5129766049173
 31
0.0
1001
ACAD
1000
DSTYLE
1002
{
1070
   147
1040
0.625
1070
    77
1070
     0
1002
}
  0
LINE
  5
15B1
330
36
100
AcDbEntity
  8
0
  6
ByBlock
 62
     0
370
    -2
100
AcDbLine
 10
299.1134169725691
 20
-404.1537913328433
 30
0.0
 11
297.5187441700657
 21
-406.1923564701916
 31
0.0
  0
LINE
  5
15B2
330
36
100
AcDbEntity
  8
0
  6
ByBlock
 62
     0
370
    -2
100
AcDbLine
 10
297.5187441700657
 20
-406.1923564701916
 30
0.0
 11
297.8804896793322
 21
-403.6295710026228
 31
0.0
  0
LINE
  5
15B3
330
36
100
AcDbEntity
  8
0
  6
ByBlock
 62
     0
370
    -2
100
AcDbLine
 10
297.5187441700657
 20
-406.1923564701916
 30
0.0
 11
298.4969533259507
 21
-403.8916811677331
 31
0.0
  0
TEXT
  5
15B4
330
36
100
AcDbEntity
  8
0
 62
     4
100
AcDbText
 10
171.745056
 20
-449.6021929999998
 30
0.0
 40
3.0
  1
220
 50
90.0
100
AcDbText
  0
LINE
  5
15B5
330
36
100
AcDbEntity
  8
0
  6
ByBlock
 62
     0
370
    -2
100
AcDbLine
 10
171.7001834999999
 20
-395.3521930000001
 30
0.0
 11
172.3700559999999
 21
-392.852193
 31
0.0
  0
LINE
  5
15B6
330
36
100
AcDbEntity
  8
0
  6
ByBlock
 62
     0
370
    -2
100
AcDbLine
 10
172.3700559999999
 20
-392.852193
 30
0.0
 11
173.0399284999999
 21
-395.3521930000001
 31
0.0
  0
LINE
  5
15B7
330
36
100
AcDbEntity
  8
0
  6
ByBlock
 62
     0
370
    -2
100
AcDbLine
 10
172.3700559999999
 20
-392.852193
 30
0.0
 11
172.3700559999999
 21
-395.3521930000001
 31
0.0
  0
LINE
  5
15B8
330
36
100
AcDbEntity
  8
0
  6
ByBlock
 62
     0
370
    -2
100
AcDbLine
 10
173.0399284999999
 20
-496.3521929999997
 30
0.0
 11
172.3700559999999
 21
-498.8521929999998
 31
0.0
  0
LINE
  5
15B9
330
36
100
AcDbEntity
  8
0
  6
ByBlock
 62
     0
370
    -2
100
AcDbLine
 10
172.3700559999999
 20
-498.8521929999998
 30
0.0
 11
171.7001834999999
 21
-496.3521929999997
 31
0.0
  0
LINE
  5
15BA
330
36
100
AcDbEntity
  8
0
  6
ByBlock
 62
     0
370
    -2
100
AcDbLine
 10
172.3700559999999
 20
-498.8521929999998
 30
0.0
 11
172.3700559999999
 21
-496.3521929999997
 31
0.0
  0
TEXT
  5
15BB
330
36
100
AcDbEntity
  8
0
 62
     4
100
AcDbText
 10
118.550144
 20
-505.2837279999998
 30
0.0
 40
3.0
  1
160
100
AcDbText
  0
LINE
  5
15BC
330
36
100
AcDbEntity
  8
0
  6
ByBlock
 62
     0
370
    -2
100
AcDbLine
 10
159.300144
 20
-505.2388554999998
 30
0.0
 11
161.800144
 21
-505.9087279999998
 31
0.0
  0
LINE
  5
15BD
330
36
100
AcDbEntity
  8
0
  6
ByBlock
 62
     0
370
    -2
100
AcDbLine
 10
161.800144
 20
-505.9087279999998
 30
0.0
 11
159.300144
 21
-506.5786004999998
 31
0.0
  0
LINE
  5
15BE
330
36
100
AcDbEntity
  8
0
  6
ByBlock
 62
     0
370
    -2
100
AcDbLine
 10
161.800144
 20
-505.9087279999998
 30
0.0
 11
159.300144
 21
-505.9087279999998
 31
0.0
  0
LINE
  5
15BF
330
36
100
AcDbEntity
  8
0
  6
ByBlock
 62
     0
370
    -2
100
AcDbLine
 10
84.30014400000004
 20
-506.5786004999998
 30
0.0
 11
81.80014400000004
 21
-505.9087279999998
 31
0.0
  0
LINE
  5
15C0
330
36
100
AcDbEntity
  8
0
  6
ByBlock
 62
     0
370
    -2
100
AcDbLine
 10
81.80014400000004
 20
-505.9087279999998
 30
0.0
 11
84.30014400000004
 21
-505.2388554999998
 31
0.0
  0
LINE
  5
15C1
330
36
100
AcDbEntity
  8
0
  6
ByBlock
 62
     0
370
    -2
100
AcDbLine
 10
81.80014400000004
 20
-505.9087279999998
 30
0.0
 11
84.30014400000004
 21
-505.9087279999998
 31
0.0
  0
TEXT
  5
15C2
330
36
100
AcDbEntity
  8
0
 62
     4
100
AcDbText
 10
266.042652
 20
-505.2837279999998
 30
0.0
 40
3.0
  1
273
100
AcDbText
  0
LINE
  5
15C3
330
36
100
AcDbEntity
  8
0
  6
ByBlock
 62
     0
370
    -2
100
AcDbLine
 10
332.542652
 20
-505.2388554999998
 30
0.0
 11
335.042652
 21
-505.9087279999998
 31
0.0
  0
LINE
  5
15C4
330
36
100
AcDbEntity
  8
0
  6
ByBlock
 62
     0
370
    -2
100
AcDbLine
 10
335.042652
 20
-505.9087279999998
 30
0.0
 11
332.542652
 21
-506.5786004999998
 31
0.0
  0
LINE
  5
15C5
330
36
100
AcDbEntity
  8
0
  6
ByBlock
 62
     0
370
    -2
100
AcDbLine
 10
335.042652
 20
-505.9087279999998
 30
0.0
 11
332.542652
 21
-505.9087279999998
 31
0.0
  0
LINE
  5
15C6
330
36
100
AcDbEntity
  8
0
  6
ByBlock
 62
     0
370
    -2
100
AcDbLine
 10
207.542652
 20
-506.5786004999998
 30
0.0
 11
205.042652
 21
-505.9087279999998
 31
0.0
  0
LINE
  5
15C7
330
36
100
AcDbEntity
  8
0
  6
ByBlock
 62
     0
370
    -2
100
AcDbLine
 10
205.042652
 20
-505.9087279999998
 30
0.0
 11
207.542652
 21
-505.2388554999998
 31
0.0
  0
LINE
  5
15C8
330
36
100
AcDbEntity
  8
0
  6
ByBlock
 62
     0
370
    -2
100
AcDbLine
 10
205.042652
 20
-505.9087279999998
 30
0.0
 11
207.542652
 21
-505.9087279999998
 31
0.0
  0
TEXT
  5
15C9
330
36
100
AcDbEntity
  8
0
 62
     4
100
AcDbText
 10
194.672529
 20
-456.1021929999998
 30
0.0
 40
3.0
  1
170
 50
90.0
100
AcDbText
  0
LINE
  5
15CA
330
36
100
AcDbEntity
  8
0
  6
ByBlock
 62
     0
370
    -2
100
AcDbLine
 10
194.6276564999999
 20
-415.3521929999998
 30
0.0
 11
195.2975289999999
 21
-412.8521929999998
 31
0.0
  0
LINE
  5
15CB
330
36
100
AcDbEntity
  8
0
  6
ByBlock
 62
     0
370
    -2
100
AcDbLine
 10
195.2975289999999
 20
-412.8521929999998
 30
0.0
 11
195.9674014999999
 21
-415.3521929999998
 31
0.0
  0
LINE
  5
15CC
330
36
100
AcDbEntity
  8
0
  6
ByBlock
 62
     0
370
    -2
100
AcDbLine
 10
195.2975289999999
 20
-412.8521929999998
 30
0.0
 11
195.2975289999999
 21
-415.3521929999998
 31
0.0
  0
LINE
  5
15CD
330
36
100
AcDbEntity
  8
0
  6
ByBlock
 62
     0
370
    -2
100
AcDbLine
 10
195.9674014999999
 20
-490.3521929999998
 30
0.0
 11
195.2975289999999
 21
-492.8521929999998
 31
0.0
  0
LINE
  5
15CE
330
36
100
AcDbEntity
  8
0
  6
ByBlock
 62
     0
370
    -2
100
AcDbLine
 10
195.2975289999999
 20
-492.8521929999998
 30
0.0
 11
194.6276564999999
 21
-490.3521929999998
 31
0.0
  0
LINE
  5
15CF
330
36
100
AcDbEntity
  8
0
  6
ByBlock
 62
     0
370
    -2
100
AcDbLine
 10
195.2975289999999
 20
-492.8521929999998
 30
0.0
 11
195.2975289999999
 21
-490.3521929999998
 31
0.0
  0
ARC
  5
15D0
330
36
100
AcDbEntity
  8
0
  6
ByBlock
 62
     0
100
AcDbCircle
 10
86.48862325480923
 20
-412.8807961021804
 30
0.0
 40
0.1562499999999936
100
AcDbArc
 50
150.5150644714098
 51
330.5150644714099
  0
ARC
  5
15D1
330
36
100
AcDbEntity
  8
0
  6
ByBlock
 62
     0
100
AcDbCircle
 10
86.48862325480923
 20
-412.8807961021804
 30
0.0
 40
0.1562499999999936
100
AcDbArc
 50
330.5150644714099
 51
150.5150644714098
  0
ENDSEC
  0
SECTION
  2
OBJECTS
  0
DICTIONARY
  5
C
330
0
100
AcDbDictionary
281
     1
  3
ACAD_2007HEADERVARS_RT
350
15D5
  3
ACAD_COLOR
350
2F
  3
ACAD_GROUP
350
D
  3
ACAD_LAYOUT
350
2E
  3
ACAD_MATERIAL
350
10
  3
ACAD_MLEADERSTYLE
350
372
  3
ACAD_MLINESTYLE
350
2B
  3
ACAD_PLOTSETTINGS
350
2D
  3
ACAD_PLOTSTYLENAME
350
E
  3
ACAD_SCALELIST
350
360
  3
ACAD_TABLESTYLE
350
30
  3
ACAD_VISUALSTYLE
350
14
  3
ACDB_RECOMPOSE_DATA
350
15D3
  3
AcDbVariableDictionary
350
340
  3
AEC_PROPERTY_SET_DEFS
350
1284
  3
DWGPROPS
350
15D4
  0
DICTIONARY
  5
41B
330
2
100
AcDbDictionary
280
     1
281
     1
  3
ACAD_LAYERSTATES
360
41C
  0
DICTIONARY
  5
600
330
25
100
AcDbDictionary
280
     1
281
     1
  3
ADSK_XREC_LAYER_RECONCILED
360
601
  0
DICTIONARY
  5
5DD
330
36
100
AcDbDictionary
280
     1
281
     1
  3
ACAD_SORTENTS
360
5DE
  0
DICTIONARY
  5
15D5
102
{ACAD_REACTORS
330
C
102
}
330
C
100
AcDbDictionary
281
     1
  3
DIMARCSYM
350
15D7
  3
DIMFXL
350
15D6
  3
DIMJOGANG
350
15D8
  0
DICTIONARY
  5
2F
102
{ACAD_REACTORS
330
C
102
}
330
C
100
AcDbDictionary
281
     1
  0
DICTIONARY
  5
D
102
{ACAD_REACTORS
330
C
102
}
330
C
100
AcDbDictionary
281
     1
  0
DICTIONARY
  5
2E
102
{ACAD_REACTORS
330
C
102
}
330
C
100
AcDbDictionary
281
     1
  3
Model
350
39
  3
レイアウト1
350
35
  0
DICTIONARY
  5
10
102
{ACAD_REACTORS
330
C
102
}
330
C
100
AcDbDictionary
281
     1
  3
ByBlock
350
12
  3
ByLayer
350
11
  3
Global
350
13
  0
DICTIONARY
  5
372
102
{ACAD_REACTORS
330
C
102
}
330
C
100
AcDbDictionary
281
     1
  3
Standard
350
373
  0
DICTIONARY
  5
2B
102
{ACAD_REACTORS
330
C
102
}
330
C
100
AcDbDictionary
281
     1
  3
Standard
350
2C
  0
DICTIONARY
  5
2D
102
{ACAD_REACTORS
330
C
102
}
330
C
100
AcDbDictionary
281
     1
  0
ACDBDICTIONARYWDFLT
  5
E
102
{ACAD_REACTORS
330
C
102
}
330
C
100
AcDbDictionary
281
     1
  3
Normal
350
F
100
AcDbDictionaryWithDefault
340
F
  0
DICTIONARY
  5
360
102
{ACAD_REACTORS
330
C
102
}
330
C
100
AcDbDictionary
281
     1
  3
A0
350
361
  3
A1
350
362
  3
A2
350
363
  3
A3
350
364
  3
A4
350
365
  3
A5
350
366
  3
A6
350
367
  3
A7
350
368
  3
A8
350
369
  3
A9
350
36A
  3
B0
350
36B
  3
B1
350
36C
  3
B2
350
36D
  3
B3
350
36E
  3
B4
350
36F
  3
B5
350
370
  3
B6
350
371
  0
DICTIONARY
  5
30
102
{ACAD_REACTORS
330
C
102
}
330
C
100
AcDbDictionary
281
     1
  3
Standard
350
31
  0
DICTIONARY
  5
14
102
{ACAD_REACTORS
330
C
102
}
330
C
100
AcDbDictionary
281
     1
  3
2dWireframe
350
1A
  3
3D Hidden
350
1C
  3
3dWireframe
350
1B
  3
Basic
350
19
  3
Brighten
350
20
  3
ColorChange
350
24
  3
Conceptual
350
1D
  3
Dim
350
1F
  3
EdgeColorOff
350
35F
  3
Facepattern
350
23
  3
Flat
350
15
  3
FlatWithEdges
350
16
  3
Gouraud
350
17
  3
GouraudWithEdges
350
18
  3
Hidden
350
357
  3
JitterOff
350
35D
  3
Linepattern
350
22
  3
OverhangOff
350
35E
  3
Realistic
350
1E
  3
Shaded
350
35C
  3
Shaded with edges
350
35B
  3
Shades of Gray
350
358
  3
Sketchy
350
359
  3
Thicken
350
21
  3
Wireframe
350
356
  3
X-Ray
350
35A
  0
XRECORD
  5
15D3
102
{ACAD_REACTORS
330
C
102
}
330
C
100
AcDbXrecord
280
     1
 90
        1
330
31
  0
DICTIONARY
  5
340
102
{ACAD_REACTORS
330
C
102
}
330
C
100
AcDbDictionary
281
     1
  3
CANNOSCALE
350
603
  3
CMLEADERSTYLE
350
602
  3
CTABLESTYLE
350
341
  3
DIMASSOC
350
344
  3
INDEXCTL
350
343
  3
SORTENTS
350
342
  3
XCLIPFRAME
350
1496
  0
DICTIONARY
  5
1284
102
{ACAD_REACTORS
330
C
102
}
330
C
100
AcDbDictionary
281
     1
  0
XRECORD
  5
15D4
102
{ACAD_REACTORS
330
C
102
}
330
C
100
AcDbXrecord
280
     1
  1
DWGPROPS COOKIE
  2

  3

  4

  6

  7

  8
imamura
  9

300
=
301
=
302
=
303
=
304
=
305
=
306
=
307
=
308
=
309
=
 40
0.1949057291666667
 41
2455825.662246991
 42
2460251.677136702
  1

 90
        0
  0
DICTIONARY
  5
41C
102
{ACAD_REACTORS
330
41B
102
}
330
41B
100
AcDbDictionary
281
     1
  0
XRECORD
  5
601
102
{ACAD_REACTORS
330
600
102
}
330
600
100
AcDbXrecord
280
     1
290
     1
  0
SORTENTSTABLE
  5
5DE
102
{ACAD_REACTORS
330
5DD
102
}
330
5DD
100
AcDbSortentsTable
330
36
331
1483
  5
15C4
331
1444
  5
1585
331
1440
  5
1581
331
1416
  5
148D
331
1412
  5
1489
331
131E
  5
144F
331
140E
  5
1485
331
140A
  5
1481
331
C64
  5
CA2
331
BC5
  5
C60
331
B8E
  5
BCC
331
B4F
  5
B84
331
C60
  5
C9F
331
BC1
  5
C5E
331
B8A
  5
BC8
331
B4B
  5
B80
331
B14
  5
B49
331
AD5
  5
B10
331
A9E
  5
ADC
331
A07
  5
AA2
331
C5C
  5
C95
331
BBD
  5
BF4
331
B86
  5
BC4
331
B47
  5
B7C
331
B10
  5
B45
331
A9A
  5
AD6
331
275
  5
276
331
1DF
  5
1E0
331
304
  5
306
331
BB9
  5
BF0
331
B82
  5
BBE
331
B43
  5
B78
331
B0C
  5
B41
331
ACD
  5
B0A
331
A96
  5
AD0
331
271
  5
272
331
300
  5
302
331
B08
  5
B3D
331
AC9
  5
B06
331
A92
  5
ACC
331
455
  5
457
331
26D
  5
26E
331
2FC
  5
2FE
331
2F8
  5
2FA
331
1D3
  5
1D9
331
451
  5
453
331
269
  5
26A
331
15B5
  5
A8A
331
157E
  5
A07
331
15B1
  5
1403
331
157A
  5
A7C
331
15AD
  5
1409
331
15A9
  5
140F
331
C9F
  5
13F8
331
1572
  5
A84
331
EFA
  5
1442
331
C97
  5
13F5
331
EF2
  5
143F
331
C93
  5
13F2
331
147F
  5
15C0
331
147B
  5
15BC
331
143C
  5
157D
331
1477
  5
15B8
331
1438
  5
1579
331
1473
  5
15B4
331
1434
  5
1575
331
1430
  5
1571
331
1406
  5
147D
331
1402
  5
1479
331
13FE
  5
1475
331
13FA
  5
1471
331
BF4
  5
C93
331
BB5
  5
BED
331
B7E
  5
BBA
331
B3F
  5
B74
331
BF0
  5
C8F
331
B7A
  5
BB5
331
B3B
  5
B70
331
B04
  5
B39
331
AC5
  5
B03
331
A8E
  5
AC8
331
9EF
  5
AA0
331
BEC
  5
C8A
331
BAD
  5
BE9
331
B76
  5
BAD
331
B37
  5
B6C
331
B00
  5
B35
331
A8A
  5
ABF
331
1CF
  5
1D1
331
2F4
  5
2F6
331
BE8
  5
C86
331
BA9
  5
BE7
331
B72
  5
BA7
331
B33
  5
B68
331
AFC
  5
B31
331
ABD
  5
AFF
331
A86
  5
ABB
331
1CB
  5
1CC
331
2F0
  5
2F2
331
AF8
  5
B2D
331
AB9
  5
AFB
331
A82
  5
AB7
331
9E3
  5
A9C
331
1C7
  5
1C8
331
23D
  5
23E
331
2EC
  5
2EE
331
2E8
  5
2EA
331
FFF
  5
1449
331
1C3
  5
1C4
331
239
  5
23A
331
15A5
  5
1419
331
15A1
  5
141D
331
159D
  5
1421
331
CEE
  5
1435
331
1599
  5
1425
331
C8F
  5
13EE
331
CEA
  5
1431
331
C8B
  5
13EB
331
CE6
  5
142F
331
C87
  5
13E7
331
CE2
  5
142B
331
C83
  5
EF8
331
146F
  5
15B0
331
146B
  5
15AC
331
142C
  5
156D
331
1467
  5
15A8
331
1428
  5
1569
331
1463
  5
15A4
331
1424
  5
1565
331
1420
  5
1561
331
13F6
  5
146D
331
13F2
  5
1469
331
13EE
  5
1465
331
13EA
  5
1461
331
BE4
  5
C82
331
BA5
  5
BE3
331
B6E
  5
BA3
331
B2F
  5
B64
331
BE0
  5
C7E
331
BA1
  5
BDF
331
B6A
  5
B9F
331
B2B
  5
B60
331
AF4
  5
B29
331
AB5
  5
AF7
331
A7E
  5
AB3
331
9DF
  5
A98
331
BDC
  5
C7A
331
B9D
  5
BDB
331
B66
  5
B9B
331
B27
  5
B5C
331
AF0
  5
B25
331
AB1
  5
AF3
331
A7A
  5
AAF
331
9DB
  5
A94
331
BD8
  5
C74
331
B99
  5
BD7
331
B62
  5
B97
331
B23
  5
B58
331
AEC
  5
B21
331
AAD
  5
AEF
331
A76
  5
AAB
331
1BB
  5
1BC
331
1FA
  5
1FB
331
AA9
  5
AE7
331
463
  5
5DC
331
1F6
  5
1F7
331
A4
  5
A5
331
1B7
  5
1B8
331
2D8
  5
2DA
331
1B3
  5
1B4
331
1F2
  5
1F3
331
33D
  5
33F
331
339
  5
33D
331
1595
  5
1429
331
1591
  5
144C
331
15D0
  5
1414
331
158D
  5
1455
331
15CC
  5
9E4
331
C7F
  5
EEF
331
15C8
  5
A74
331
C7B
  5
CF1
331
CD6
  5
1402
331
C73
  5
CEB
331
145F
  5
15A0
331
145B
  5
159C
331
1457
  5
1598
331
1453
  5
1594
331
13E6
  5
145D
331
13E2
  5
1459
331
141D
  5
155E
331
13DE
  5
1452
331
1419
  5
1490
331
BD4
  5
C70
331
B5E
  5
B93
331
C6F
  5
CE5
331
BD0
  5
C6C
331
B5A
  5
B8F
331
AE4
  5
B1D
331
C6B
  5
CD6
331
BCC
  5
C68
331
B95
  5
BD3
331
B56
  5
B8B
331
B1F
  5
B54
331
AE0
  5
B19
331
A22
  5
AA8
331
1EE
  5
1EF
331
2D4
  5
2D6
331
BC8
  5
C64
331
B91
  5
BCF
331
B52
  5
B87
331
B1B
  5
B50
331
ADC
  5
B15
331
AA5
  5
AE3
331
337
  5
339
331
1EA
  5
1EB
331
AD8
  5
B13
331
AA1
  5
ADF
331
A0A
  5
AA5
331
1E6
  5
1E7
331
2C8
  5
2C9
331
1E2
  5
1E3
331
45C
  5
45E
331
458
  5
45A
331
15C4
  5
A77
331
15C0
  5
A7E
331
15BC
  5
A80
331
1585
  5
9D7
331
15B8
  5
A87
331
CA2
  5
13FB
331
148E
  5
15CF
331
144F
  5
1590
331
148A
  5
15CB
331
144B
  5
158C
331
1486
  5
15C7
331
1447
  5
1588
331
1482
  5
15C3
331
1443
  5
1584
331
1415
  5
148C
331
1411
  5
1488
331
140D
  5
1484
331
1409
  5
1480
331
C67
  5
CA5
331
C63
  5
CA1
331
BC4
  5
C5F
331
B8D
  5
BCB
331
B4E
  5
B83
331
B17
  5
B4C
331
C5F
  5
C9E
331
BC0
  5
C5D
331
B89
  5
BC7
331
B4A
  5
B7F
331
B13
  5
B48
331
AD4
  5
B0F
331
A9D
  5
ADB
331
BBC
  5
BF3
331
B85
  5
BC1
331
B46
  5
B7B
331
B0F
  5
B44
331
AD0
  5
B0D
331
A99
  5
AD5
331
274
  5
275
331
303
  5
305
331
BB8
  5
BEF
331
B81
  5
BBD
331
B42
  5
B77
331
B0B
  5
B40
331
ACC
  5
B09
331
A95
  5
ACF
331
270
  5
271
331
2FF
  5
301
331
AC8
  5
B05
331
A91
  5
ACB
331
2FB
  5
2FD
331
454
  5
456
331
26C
  5
26D
331
450
  5
452
331
268
  5
269
331
EEF
  5
143C
331
CF5
  5
143B
331
CF1
  5
1438
331
15B4
  5
A8D
331
15B0
  5
1408
331
1579
  5
A7B
331
15AC
  5
140C
331
EFD
  5
1445
331
15A8
  5
1412
331
C9E
  5
13F7
331
EF9
  5
1441
331
EF1
  5
143E
331
C92
  5
13F1
331
147E
  5
15BF
331
143F
  5
1580
331
147A
  5
15BB
331
143B
  5
157C
331
1476
  5
15B7
331
1437
  5
1578
331
1472
  5
15B3
331
1433
  5
1574
331
1405
  5
147C
331
1401
  5
1478
331
13FD
  5
1474
331
13F9
  5
1470
331
BF3
  5
C92
331
B7D
  5
BB9
331
B3E
  5
B73
331
B07
  5
B3C
331
BEF
  5
C8D
331
BB0
  5
BEC
331
B79
  5
BB0
331
B3A
  5
B6F
331
B03
  5
B38
331
A8D
  5
AC6
331
2F7
  5
2F9
331
BEB
  5
C89
331
B75
  5
BAA
331
B36
  5
B6B
331
AFF
  5
B34
331
AC0
  5
B02
331
A89
  5
ABE
331
1CE
  5
1CF
331
2F3
  5
2F5
331
BA8
  5
BE6
331
B71
  5
BA6
331
B32
  5
B67
331
AFB
  5
B30
331
ABC
  5
AFE
331
A85
  5
ABA
331
9E6
  5
A9F
331
1CA
  5
1CB
331
2EF
  5
2F1
331
AB8
  5
AFA
331
A81
  5
AB6
331
9E2
  5
A9B
331
1C6
  5
1C7
331
23C
  5
23D
331
2EB
  5
2ED
331
238
  5
239
331
15A4
  5
1418
331
15A0
  5
141C
331
159C
  5
1420
331
CED
  5
1434
331
1598
  5
1424
331
C8E
  5
13ED
331
CE9
  5
1430
331
C8A
  5
13EA
331
CE5
  5
142E
331
C86
  5
EFB
331
C82
  5
EF2
331
146E
  5
15AF
331
142F
  5
1570
331
146A
  5
15AB
331
142B
  5
156C
331
1466
  5
15A7
331
1427
  5
1568
331
1462
  5
15A3
331
1423
  5
1564
331
13F5
  5
146C
331
13F1
  5
1468
331
13ED
  5
1464
331
13E9
  5
1460
331
BE7
  5
C85
331
BE3
  5
C81
331
BA4
  5
BE2
331
B6D
  5
BA2
331
B2E
  5
B63
331
AF7
  5
B2C
331
BDF
  5
C7D
331
BA0
  5
BDE
331
B69
  5
B9E
331
B2A
  5
B5F
331
AF3
  5
B28
331
AB4
  5
AF6
331
A7D
  5
AB2
331
9DE
  5
A97
331
2E7
  5
2E9
331
BDB
  5
C79
331
B9C
  5
BDA
331
B65
  5
B9A
331
B26
  5
B5B
331
AEF
  5
B24
331
AB0
  5
AF2
331
A79
  5
AAE
331
9DA
  5
A93
331
1BE
  5
1C0
331
B98
  5
BD6
331
B61
  5
B96
331
B22
  5
B57
331
AAC
  5
AEE
331
1F9
  5
1FA
331
A7
  5
E9
331
1BA
  5
1BB
331
AA8
  5
AE6
331
462
  5
464
331
1B6
  5
1B7
331
1F5
  5
1F6
331
1F1
  5
1F2
331
9B
  5
A4
331
338
  5
33C
331
155D
  5
144E
331
1594
  5
1428
331
1590
  5
144B
331
15CF
  5
9DE
331
158C
  5
1454
331
15CB
  5
9E3
331
C7E
  5
CF5
331
C7A
  5
CF0
331
CD5
  5
1401
331
C72
  5
CEA
331
145E
  5
159F
331
145A
  5
159B
331
1456
  5
1597
331
1452
  5
1593
331
13E5
  5
145C
331
13E1
  5
1458
331
141C
  5
155D
331
13DD
  5
1451
331
1418
  5
148F
331
BD7
  5
C73
331
BD3
  5
C6F
331
B5D
  5
B92
331
AE7
  5
B20
331
C6E
  5
CE4
331
BCF
  5
C6B
331
B59
  5
B8E
331
AE3
  5
B1C
331
2D7
  5
2D9
331
C6A
  5
CD5
331
BCB
  5
C67
331
B94
  5
BD2
331
B55
  5
B8A
331
B1E
  5
B53
331
ADF
  5
B18
331
A21
  5
AA7
331
1ED
  5
1EE
331
B90
  5
BCE
331
B51
  5
B86
331
B1A
  5
B4F
331
ADB
  5
B14
331
AA4
  5
AE2
331
1E9
  5
1EA
331
336
  5
338
331
AA0
  5
ADE
331
A09
  5
AA4
331
1E5
  5
1E6
331
1E1
  5
1E2
331
45F
  5
461
331
45B
  5
45D
331
15C7
  5
A23
331
15C3
  5
A75
331
15BF
  5
A7D
331
15BB
  5
A83
331
1584
  5
9D6
331
1580
  5
A21
331
F6C
  5
1448
331
CA5
  5
13FE
331
CA1
  5
13FA
331
148D
  5
15CE
331
144E
  5
158F
331
1489
  5
15CA
331
144A
  5
158B
331
1485
  5
15C6
331
1446
  5
1587
331
1481
  5
15C2
331
1442
  5
1583
331
1414
  5
148B
331
1410
  5
1487
331
140C
  5
1483
331
1408
  5
147F
331
C66
  5
CA4
331
BC7
  5
C62
331
B8C
  5
BCA
331
B4D
  5
B82
331
B16
  5
B4B
331
AD7
  5
B12
331
C5E
  5
C9D
331
BBF
  5
C5C
331
B88
  5
BC6
331
B49
  5
B7E
331
B12
  5
B47
331
AD3
  5
B0E
331
A9C
  5
AD8
331
277
  5
2C8
331
306
  5
337
331
BBB
  5
BF2
331
B84
  5
BC0
331
B45
  5
B7A
331
B0E
  5
B43
331
ACF
  5
B0C
331
A98
  5
AD4
331
273
  5
274
331
302
  5
304
331
B80
  5
BBC
331
B41
  5
B76
331
B0A
  5
B3F
331
ACB
  5
B08
331
A94
  5
ACE
331
26F
  5
270
331
457
  5
459
331
1D9
  5
1DF
331
A90
  5
ACA
331
2FA
  5
2FC
331
453
  5
455
331
26B
  5
26C
331
1D1
  5
1D3
331
CF4
  5
143A
331
CF0
  5
1437
331
9D7
  5
A90
331
15B7
  5
A8C
331
15B3
  5
1405
331
15AF
  5
140B
331
1578
  5
A7A
331
15AB
  5
1411
331
1574
  5
A86
331
EFC
  5
1444
331
C9D
  5
13F6
331
EF8
  5
1440
331
C95
  5
13F4
331
EF0
  5
143D
331
C91
  5
13F0
331
147D
  5
15BE
331
143E
  5
157F
331
1479
  5
15BA
331
143A
  5
157B
331
1475
  5
15B6
331
1436
  5
1577
331
1471
  5
15B2
331
1432
  5
1573
331
1404
  5
147B
331
1400
  5
1477
331
13FC
  5
1473
331
13F8
  5
146F
331
BB7
  5
BEE
331
BF2
  5
C91
331
B7C
  5
BB8
331
B3D
  5
B72
331
B06
  5
B3B
331
BEE
  5
C8C
331
BAF
  5
BEB
331
B78
  5
BAF
331
B39
  5
B6E
331
B02
  5
B37
331
A8C
  5
AC3
331
2F6
  5
2F8
331
BEA
  5
C88
331
B74
  5
BA9
331
B35
  5
B6A
331
AFE
  5
B33
331
ABF
  5
B01
331
A88
  5
ABD
331
2F2
  5
2F4
331
1CD
  5
1CE
331
B70
  5
BA5
331
B31
  5
B66
331
AFA
  5
B2F
331
ABB
  5
AFD
331
A84
  5
AB9
331
9E5
  5
A9E
331
1C9
  5
1CA
331
2EE
  5
2F0
331
A80
  5
AB5
331
9E1
  5
A9A
331
2EA
  5
2EC
331
1C5
  5
1C6
331
23B
  5
23C
331
15A3
  5
1417
331
159F
  5
141B
331
159B
  5
141F
331
CEC
  5
1433
331
C89
  5
13E9
331
CE4
  5
142D
331
C85
  5
EFA
331
C81
  5
EF1
331
146D
  5
15AE
331
142E
  5
156F
331
1469
  5
15AA
331
142A
  5
156B
331
1465
  5
15A6
331
1426
  5
1567
331
1461
  5
15A2
331
1422
  5
1563
331
13F4
  5
146B
331
13F0
  5
1467
331
13EC
  5
1463
331
13E8
  5
145F
331
BE6
  5
C84
331
BA7
  5
BE5
331
BE2
  5
C80
331
BA3
  5
BE1
331
B6C
  5
BA1
331
B2D
  5
B62
331
AF6
  5
B2B
331
AB7
  5
AF9
331
BDE
  5
C7C
331
B9F
  5
BDD
331
B68
  5
B9D
331
B29
  5
B5E
331
AF2
  5
B27
331
AB3
  5
AF5
331
A7C
  5
AB1
331
9DD
  5
A96
331
2E6
  5
2E8
331
BDA
  5
C76
331
B9B
  5
BD9
331
B64
  5
B99
331
B25
  5
B5A
331
AEE
  5
B23
331
AAF
  5
AF1
331
A78
  5
AAD
331
9D9
  5
A92
331
1BD
  5
1BE
331
1FC
  5
1FD
331
B60
  5
B95
331
B21
  5
B56
331
AAB
  5
AED
331
A74
  5
AAA
331
1F8
  5
1F9
331
A6
  5
A7
331
1B9
  5
1BA
331
461
  5
463
331
1B5
  5
1B6
331
1F4
  5
1F5
331
1B1
  5
1B2
331
1F0
  5
1F1
331
9A
  5
9A
331
33F
  5
451
331
1597
  5
1423
331
1593
  5
1427
331
158F
  5
144A
331
15CE
  5
9DD
331
158B
  5
1453
331
15CA
  5
9E2
331
C7D
  5
CF4
331
C79
  5
CEF
331
C75
  5
CED
331
C71
  5
CE7
331
145D
  5
159E
331
1459
  5
159A
331
1455
  5
1596
331
1490
  5
15D1
331
1451
  5
1592
331
13E4
  5
145B
331
141F
  5
1560
331
13E0
  5
1457
331
141B
  5
155C
331
BD6
  5
C72
331
BD2
  5
C6E
331
B5C
  5
B91
331
AE6
  5
B1F
331
C6D
  5
CE3
331
BCE
  5
C6A
331
B97
  5
BD5
331
B58
  5
B8D
331
AE2
  5
B1B
331
2D6
  5
2D8
331
C69
  5
CA8
331
BCA
  5
C66
331
B93
  5
BD1
331
B54
  5
B89
331
B1D
  5
B52
331
ADE
  5
B17
331
AA7
  5
AE5
331
1EC
  5
1ED
331
B50
  5
B85
331
B19
  5
B4E
331
AA3
  5
AE1
331
1E8
  5
1E9
331
A08
  5
AA3
331
1E4
  5
1E5
331
1E0
  5
1E1
331
45E
  5
460
331
45A
  5
45C
331
15C6
  5
A22
331
15C2
  5
A79
331
15BE
  5
A82
331
15BA
  5
A89
331
CA8
  5
1400
331
F6B
  5
1447
331
CA4
  5
13FD
331
CA0
  5
13F9
331
148C
  5
15CD
331
144D
  5
158E
331
1488
  5
15C9
331
1449
  5
158A
331
1484
  5
15C5
331
1445
  5
1586
331
1480
  5
15C1
331
1441
  5
1582
331
1417
  5
148E
331
1413
  5
148A
331
131F
  5
1450
331
140F
  5
1486
331
140B
  5
1482
331
C65
  5
CA3
331
BC6
  5
C61
331
B8F
  5
BCD
331
C61
  5
CA0
331
B8B
  5
BC9
331
B4C
  5
B81
331
B15
  5
B4A
331
AD6
  5
B11
331
A9F
  5
ADD
331
C5D
  5
C97
331
BBE
  5
BF5
331
B87
  5
BC5
331
B48
  5
B7D
331
B11
  5
B46
331
A9B
  5
AD7
331
276
  5
277
331
305
  5
307
331
BBA
  5
BF1
331
B83
  5
BBF
331
B44
  5
B79
331
B0D
  5
B42
331
ACE
  5
B0B
331
A97
  5
AD1
331
272
  5
273
331
301
  5
303
331
B40
  5
B75
331
B09
  5
B3E
331
ACA
  5
B07
331
A93
  5
ACD
331
456
  5
458
331
26E
  5
26F
331
2FD
  5
2FF
331
9F0
  5
AA1
331
2F9
  5
2FB
331
26A
  5
26B
331
452
  5
454
331
198
  5
1AD
331
CF3
  5
1439
331
9D6
  5
A8F
331
9D2
  5
A8E
331
15B6
  5
A8B
331
157F
  5
A08
331
15B2
  5
1404
331
15AE
  5
140A
331
15AA
  5
1410
331
1573
  5
A85
331
EFB
  5
1443
331
C94
  5
13F3
331
C90
  5
13EF
331
147C
  5
15BD
331
143D
  5
157E
331
1478
  5
15B9
331
1439
  5
157A
331
1474
  5
15B5
331
1435
  5
1576
331
1470
  5
15B1
331
1431
  5
1572
331
1407
  5
147E
331
1403
  5
147A
331
13FF
  5
1476
331
13FB
  5
1472
331
BF5
  5
C94
331
B7F
  5
BBB
331
BF1
  5
C90
331
B7B
  5
BB7
331
B3C
  5
B71
331
B05
  5
B3A
331
AC6
  5
B04
331
A8F
  5
AC9
331
BED
  5
C8B
331
BAE
  5
BEA
331
B77
  5
BAE
331
B38
  5
B6D
331
B01
  5
B36
331
A8B
  5
AC0
331
2F5
  5
2F7
331
BE9
  5
C87
331
BAA
  5
BE8
331
B73
  5
BA8
331
B34
  5
B69
331
AFD
  5
B32
331
ABE
  5
B00
331
A87
  5
ABC
331
1CC
  5
1CD
331
2F1
  5
2F3
331
B30
  5
B65
331
AF9
  5
B2E
331
ABA
  5
AFC
331
A83
  5
AB8
331
9E4
  5
A9D
331
23E
  5
23F
331
2ED
  5
2EF
331
1C8
  5
1C9
331
9E0
  5
A99
331
2E9
  5
2EB
331
1C4
  5
1C5
331
23A
  5
23B
331
15A6
  5
1416
331
15A2
  5
141A
331
159E
  5
141E
331
CEF
  5
1436
331
159A
  5
1422
331
CEB
  5
1432
331
C8C
  5
13EC
331
C88
  5
13E8
331
CE3
  5
142C
331
C84
  5
EF9
331
C80
  5
EF0
331
146C
  5
15AD
331
142D
  5
156E
331
1468
  5
15A9
331
1429
  5
156A
331
1464
  5
15A5
331
1425
  5
1566
331
1460
  5
15A1
331
1421
  5
1562
331
13F7
  5
146E
331
13F3
  5
146A
331
13EF
  5
1466
331
13EB
  5
1462
331
BE5
  5
C83
331
BA6
  5
BE4
331
B6F
  5
BA4
331
BE1
  5
C7F
331
BA2
  5
BE0
331
B6B
  5
BA0
331
B2C
  5
B61
331
AF5
  5
B2A
331
AB6
  5
AF8
331
A7F
  5
AB4
331
BDD
  5
C7B
331
B9E
  5
BDC
331
B67
  5
B9C
331
B28
  5
B5D
331
AF1
  5
B26
331
AB2
  5
AF4
331
A7B
  5
AB0
331
9DC
  5
A95
331
2E5
  5
2E7
331
BD9
  5
C75
331
B9A
  5
BD8
331
B63
  5
B98
331
B24
  5
B59
331
AED
  5
B22
331
AAE
  5
AF0
331
A77
  5
AAC
331
9D8
  5
A91
331
1BC
  5
1BD
331
1FB
  5
1FC
331
B20
  5
B55
331
AAA
  5
AE8
331
1F7
  5
1F8
331
A5
  5
A6
331
1B8
  5
1B9
331
464
  5
9CE
331
2D9
  5
2E6
331
460
  5
462
331
1B4
  5
1B5
331
1F3
  5
1F4
331
33E
  5
444
331
1596
  5
1426
331
1592
  5
142A
331
15D1
  5
1415
331
158E
  5
144D
331
15CD
  5
9DC
331
158A
  5
1456
331
15C9
  5
9F0
331
C7C
  5
CF2
331
C78
  5
CEE
331
C74
  5
CEC
331
C70
  5
CE6
331
145C
  5
159D
331
1458
  5
1599
331
1454
  5
1595
331
1450
  5
1591
331
13E7
  5
145E
331
13E3
  5
145A
331
141E
  5
155F
331
141A
  5
155B
331
BD5
  5
C71
331
B5F
  5
B94
331
BD1
  5
C6D
331
B5B
  5
B90
331
AE5
  5
B1E
331
C6C
  5
CD7
331
BCD
  5
C69
331
B96
  5
BD4
331
B57
  5
B8C
331
AE1
  5
B1A
331
A23
  5
AA9
331
1EF
  5
1F0
331
2D5
  5
2D7
331
C68
  5
CA6
331
BC9
  5
C65
331
B92
  5
BD0
331
B53
  5
B88
331
B1C
  5
B51
331
ADD
  5
B16
331
AA6
  5
AE4
331
1EB
  5
1EC
331
B18
  5
B4D
331
AA2
  5
AE0
331
A0B
  5
AA6
331
1E7
  5
1E8
331
1AF
  5
1B0
331
1E3
  5
1E4
331
2C9
  5
2D5
331
45D
  5
45F
331
459
  5
45B
331
15C5
  5
A78
331
15C1
  5
A7F
331
15BD
  5
A81
331
1586
  5
9D8
331
15B9
  5
A88
331
CA7
  5
13FF
331
F6A
  5
1446
331
CA3
  5
13FC
331
148F
  5
15D0
331
148B
  5
15CC
331
144C
  5
158D
331
1487
  5
15C8
331
1448
  5
1589
  0
XRECORD
  5
15D7
102
{ACAD_REACTORS
330
15D5
102
}
330
15D5
100
AcDbXrecord
280
     1
 70
     2
  0
XRECORD
  5
15D6
102
{ACAD_REACTORS
330
15D5
102
}
330
15D5
100
AcDbXrecord
280
     1
 40
1.25
  0
XRECORD
  5
15D8
102
{ACAD_REACTORS
330
15D5
102
}
330
15D5
100
AcDbXrecord
280
     1
 40
1.570796326794896
  0
LAYOUT
  5
39
102
{ACAD_XDICTIONARY
360
15FC
102
}
102
{ACAD_REACTORS
330
2E
102
}
330
2E
100
AcDbPlotSettings
  1

  2
PDF Complete
  4

  6

 40
0.0
 41
0.0
 42
0.0
 43
0.0
 44
0.0
 45
0.0
 46
0.0
 47
0.0
 48
0.0
 49
0.0
140
0.0
141
0.0
142
1.0
143
1.0
 70
  1712
 72
     0
 73
     0
 74
     0
  7

 75
     0
147
1.0
148
0.0
149
0.0
100
AcDbLayout
  1
Model
 70
     1
 71
     0
 10
0.0
 20
0.0
 11
12.0
 21
9.0
 12
0.0
 22
0.0
 32
0.0
 14
0.0
 24
0.0
 34
0.0
 15
0.0
 25
0.0
 35
0.0
146
0.0
 13
0.0
 23
0.0
 33
0.0
 16
1.0
 26
0.0
 36
0.0
 17
0.0
 27
1.0
 37
0.0
 76
     0
330
36
331
57
  0
LAYOUT
  5
35
102
{ACAD_XDICTIONARY
360
15FA
102
}
102
{ACAD_REACTORS
330
2E
102
}
330
2E
100
AcDbPlotSettings
  1

  2
PDF Complete
  4

  6

 40
0.0
 41
0.0
 42
0.0
 43
0.0
 44
0.0
 45
0.0
 46
0.0
 47
0.0
 48
0.0
 49
0.0
140
0.0
141
0.0
142
1.0
143
1.0
 70
   688
 72
     0
 73
     0
 74
     5
  7

 75
    16
147
1.0
148
0.0
149
0.0
100
AcDbLayout
  1
レイアウト1
 70
     1
 71
     1
 10
0.0
 20
0.0
 11
12.0
 21
9.0
 12
0.0
 22
0.0
 32
0.0
 14
1.000000000000000E+20
 24
1.000000000000000E+20
 34
1.000000000000000E+20
 15
-1.000000000000000E+20
 25
-1.000000000000000E+20
 35
-1.000000000000000E+20
146
0.0
 13
0.0
 23
0.0
 33
0.0
 16
1.0
 26
0.0
 36
0.0
 17
0.0
 27
1.0
 37
0.0
 76
     0
330
32
  0
MATERIAL
  5
12
102
{ACAD_XDICTIONARY
360
348
102
}
102
{ACAD_REACTORS
330
10
102
}
330
10
100
AcDbMaterial
  1
ByBlock
  0
MATERIAL
  5
11
102
{ACAD_XDICTIONARY
360
346
102
}
102
{ACAD_REACTORS
330
10
102
}
330
10
100
AcDbMaterial
  1
ByLayer
  0
MATERIAL
  5
13
102
{ACAD_XDICTIONARY
360
34A
102
}
102
{ACAD_REACTORS
330
10
102
}
330
10
100
AcDbMaterial
  1
Global
  0
MLEADERSTYLE
  5
373
102
{ACAD_REACTORS
330
372
102
}
330
372
100
AcDbMLeaderStyle
170
     2
171
     1
172
     0
 90
        2
 40
0.0
 41
0.0
173
     1
 91
-1056964608
340
28
 92
       -2
290
     1
 42
0.09
291
     1
 43
0.36
  3
Standard
 44
0.18
300

342
26
174
     1
178
     6
175
     1
176
     0
 93
-1056964608
 45
0.18
292
     0
297
     0
 46
0.18
 94
-1056964608
 47
1.0
 49
1.0
140
1.0
293
     1
141
0.0
294
     1
177
     0
142
1.0
295
     0
296
     0
143
0.125
1001
ACAD_MLEADERVER
1070
     2
  0
MLINESTYLE
  5
2C
102
{ACAD_REACTORS
330
2B
102
}
330
2B
100
AcDbMlineStyle
  2
STANDARD
 70
     0
  3

 62
   256
 51
90.0
 52
90.0
 71
     2
 49
0.5
 62
   256
  6
BYLAYER
 49
-0.5
 62
   256
  6
BYLAYER
  0
ACDBPLACEHOLDER
  5
F
102
{ACAD_REACTORS
330
E
102
}
330
E
  0
SCALE
  5
361
102
{ACAD_REACTORS
330
360
102
}
330
360
100
AcDbScale
 70
     0
300
1:1
140
1.0
141
1.0
290
     1
  0
SCALE
  5
362
102
{ACAD_REACTORS
330
360
102
}
330
360
100
AcDbScale
 70
     0
300
1/128" = 1'-0"
140
0.0078125
141
12.0
290
     0
  0
SCALE
  5
363
102
{ACAD_REACTORS
330
360
102
}
330
360
100
AcDbScale
 70
     0
300
1/64" = 1'-0"
140
0.015625
141
12.0
290
     0
  0
SCALE
  5
364
102
{ACAD_REACTORS
330
360
102
}
330
360
100
AcDbScale
 70
     0
300
1/32" = 1'-0"
140
0.03125
141
12.0
290
     0
  0
SCALE
  5
365
102
{ACAD_REACTORS
330
360
102
}
330
360
100
AcDbScale
 70
     0
300
1/16" = 1'-0"
140
0.0625
141
12.0
290
     0
  0
SCALE
  5
366
102
{ACAD_REACTORS
330
360
102
}
330
360
100
AcDbScale
 70
     0
300
3/32" = 1'-0"
140
0.09375
141
12.0
290
     0
  0
SCALE
  5
367
102
{ACAD_REACTORS
330
360
102
}
330
360
100
AcDbScale
 70
     0
300
1/8" = 1'-0"
140
0.125
141
12.0
290
     0
  0
SCALE
  5
368
102
{ACAD_REACTORS
330
360
102
}
330
360
100
AcDbScale
 70
     0
300
3/16" = 1'-0"
140
0.1875
141
12.0
290
     0
  0
SCALE
  5
369
102
{ACAD_REACTORS
330
360
102
}
330
360
100
AcDbScale
 70
     0
300
1/4" = 1'-0"
140
0.25
141
12.0
290
     0
  0
SCALE
  5
36A
102
{ACAD_REACTORS
330
360
102
}
330
360
100
AcDbScale
 70
     0
300
3/8" = 1'-0"
140
0.375
141
12.0
290
     0
  0
SCALE
  5
36B
102
{ACAD_REACTORS
330
360
102
}
330
360
100
AcDbScale
 70
     0
300
1/2" = 1'-0"
140
0.5
141
12.0
290
     0
  0
SCALE
  5
36C
102
{ACAD_REACTORS
330
360
102
}
330
360
100
AcDbScale
 70
     0
300
3/4" = 1'-0"
140
0.75
141
12.0
290
     0
  0
SCALE
  5
36D
102
{ACAD_REACTORS
330
360
102
}
330
360
100
AcDbScale
 70
     0
300
1" = 1'-0"
140
1.0
141
12.0
290
     0
  0
SCALE
  5
36E
102
{ACAD_REACTORS
330
360
102
}
330
360
100
AcDbScale
 70
     0
300
1-1/2" = 1'-0"
140
1.5
141
12.0
290
     0
  0
SCALE
  5
36F
102
{ACAD_REACTORS
330
360
102
}
330
360
100
AcDbScale
 70
     0
300
3" = 1'-0"
140
3.0
141
12.0
290
     0
  0
SCALE
  5
370
102
{ACAD_REACTORS
330
360
102
}
330
360
100
AcDbScale
 70
     0
300
6" = 1'-0"
140
6.0
141
12.0
290
     0
  0
SCALE
  5
371
102
{ACAD_REACTORS
330
360
102
}
330
360
100
AcDbScale
 70
     0
300
1'-0" = 1'-0"
140
12.0
141
12.0
290
     0
  0
TABLESTYLE
  5
31
102
{ACAD_XDICTIONARY
360
605
102
}
102
{ACAD_REACTORS
330
30
102
}
330
30
100
AcDbTableStyle
  3
Standard
 70
     0
 71
     0
 40
0.06
 41
0.06
280
     0
281
     0
  7
STANDARD
140
0.18
170
     2
 62
     0
 63
     7
283
     0
274
    -2
284
     1
 64
     0
275
    -2
285
     1
 65
     0
276
    -2
286
     1
 66
     0
277
    -2
287
     1
 67
     0
278
    -2
288
     1
 68
     0
279
    -2
289
     1
 69
     0
  7
STANDARD
140
0.25
170
     5
 62
     0
 63
     7
283
     0
274
    -2
284
     1
 64
     0
275
    -2
285
     1
 65
     0
276
    -2
286
     1
 66
     0
277
    -2
287
     1
 67
     0
278
    -2
288
     1
 68
     0
279
    -2
289
     1
 69
     0
  7
STANDARD
140
0.18
170
     5
 62
     0
 63
     7
283
     0
274
    -2
284
     1
 64
     0
275
    -2
285
     1
 65
     0
276
    -2
286
     1
 66
     0
277
    -2
287
     1
 67
     0
278
    -2
288
     1
 68
     0
279
    -2
289
     1
 69
     0
  0
VISUALSTYLE
  5
1A
102
{ACAD_XDICTIONARY
360
15E3
102
}
102
{ACAD_REACTORS
330
14
102
}
330
14
100
AcDbVisualStyle
  2

 70
     4
 71
     0
 72
     2
 73
     0
 90
        0
 40
-0.6
 41
-30.0
 62
     5
 63
     7
 74
     1
 91
        4
 64
     7
 65
   257
 75
     1
175
     1
 42
1.0
 92
        0
 66
   257
 43
1.0
 76
     1
 77
     6
 78
     2
 67
     7
 79
     5
170
     0
171
     0
290
     0
174
     0
 93
        1
 44
0.0
173
     0
291
     0
 45
0.0
1001
ACAD
1000
AcDbSavedByObjectVersion
1070
     0
  0
VISUALSTYLE
  5
1C
102
{ACAD_XDICTIONARY
360
15E7
102
}
102
{ACAD_REACTORS
330
14
102
}
330
14
100
AcDbVisualStyle
  2

 70
     6
 71
     1
 72
     2
 73
     2
 90
        0
 40
-0.6
 41
-30.0
 62
     5
 63
     7
 74
     2
 91
        2
 64
     7
 65
   257
 75
     2
175
     1
 42
40.0
 92
        0
 66
   257
 43
1.0
 76
     1
 77
     6
 78
     2
 67
     7
 79
     3
170
     0
171
     0
290
     0
174
     0
 93
        1
 44
0.0
173
     0
291
     0
 45
0.0
1001
ACAD
1000
AcDbSavedByObjectVersion
1070
     0
  0
VISUALSTYLE
  5
1B
102
{ACAD_XDICTIONARY
360
15E5
102
}
102
{ACAD_REACTORS
330
14
102
}
330
14
100
AcDbVisualStyle
  2

 70
     5
 71
     0
 72
     2
 73
     0
 90
        0
 40
-0.6
 41
-30.0
 62
     5
 63
     7
 74
     1
 91
        4
 64
     7
 65
   257
 75
     1
175
     1
 42
1.0
 92
        0
 66
   257
 43
1.0
 76
     1
 77
     6
 78
     2
 67
     7
 79
     5
170
     0
171
     0
290
     0
174
     0
 93
        1
 44
0.0
173
     0
291
     0
 45
0.0
1001
ACAD
1000
AcDbSavedByObjectVersion
1070
     0
  0
VISUALSTYLE
  5
19
102
{ACAD_XDICTIONARY
360
15E1
102
}
102
{ACAD_REACTORS
330
14
102
}
330
14
100
AcDbVisualStyle
  2

 70
     7
 71
     1
 72
     0
 73
     1
 90
        0
 40
-0.6
 41
-30.0
 62
     5
 63
     7
 74
     0
 91
        4
 64
     7
 65
   257
 75
     1
175
     1
 42
1.0
 92
        8
 66
     7
 43
1.0
 76
     1
 77
     6
 78
     2
 67
     7
 79
     5
170
     0
171
     0
290
     0
174
     0
 93
        1
 44
0.0
173
     0
291
     1
 45
0.0
1001
ACAD
1000
AcDbSavedByObjectVersion
1070
     0
  0
VISUALSTYLE
  5
20
102
{ACAD_XDICTIONARY
360
15EF
102
}
102
{ACAD_REACTORS
330
14
102
}
330
14
100
AcDbVisualStyle
  2

 70
    12
 71
     2
 72
     2
 73
     0
 90
        0
 40
-0.6
 41
-30.0
 62
     5
 63
     7
 74
     1
 91
        4
 64
     7
 65
   257
 75
     1
175
     1
 42
1.0
 92
        8
 66
     7
 43
1.0
 76
     1
 77
     6
 78
     2
 67
     7
 79
     5
170
     0
171
     0
290
     0
174
     0
 93
        1
 44
50.0
173
     0
291
     1
 45
0.0
1001
ACAD
1000
AcDbSavedByObjectVersion
1070
     0
  0
VISUALSTYLE
  5
24
102
{ACAD_XDICTIONARY
360
15F7
102
}
102
{ACAD_REACTORS
330
14
102
}
330
14
100
AcDbVisualStyle
  2

 70
    16
 71
     2
 72
     2
 73
     3
 90
        0
 40
-0.6
 41
-30.0
 62
     5
 63
     8
 74
     1
 91
        4
 64
     7
 65
   257
 75
     1
175
     1
 42
1.0
 92
        8
 66
     8
 43
1.0
 76
     1
 77
     6
 78
     2
 67
     7
 79
     5
170
     0
171
     0
290
     0
174
     0
 93
        1
 44
0.0
173
     0
291
     1
 45
0.0
1001
ACAD
1000
AcDbSavedByObjectVersion
1070
     0
  0
VISUALSTYLE
  5
1D
102
{ACAD_XDICTIONARY
360
15E9
102
}
102
{ACAD_REACTORS
330
14
102
}
330
14
100
AcDbVisualStyle
  2

 70
     9
 71
     3
 72
     2
 73
     0
 90
        0
 40
-0.6
 41
-30.0
 62
     5
 63
     7
 74
     2
 91
        2
 64
     7
 65
   257
 75
     1
175
     1
 42
40.0
 92
        8
 66
     7
 43
1.0
 76
     1
 77
     6
 78
     2
 67
     7
 79
     3
170
     0
171
     0
290
     0
174
     0
 93
        1
 44
0.0
173
     0
291
     0
 45
0.0
1001
ACAD
1000
AcDbSavedByObjectVersion
1070
     0
  0
VISUALSTYLE
  5
1F
102
{ACAD_XDICTIONARY
360
15ED
102
}
102
{ACAD_REACTORS
330
14
102
}
330
14
100
AcDbVisualStyle
  2

 70
    11
 71
     2
 72
     2
 73
     0
 90
        0
 40
-0.6
 41
-30.0
 62
     5
 63
     7
 74
     1
 91
        4
 64
     7
 65
   257
 75
     1
175
     1
 42
1.0
 92
        8
 66
     7
 43
1.0
 76
     1
 77
     6
 78
     2
 67
     7
 79
     5
170
     0
171
     0
290
     0
174
     0
 93
        1
 44
-50.0
173
     0
291
     1
 45
0.0
1001
ACAD
1000
AcDbSavedByObjectVersion
1070
     0
  0
VISUALSTYLE
  5
35F
102
{ACAD_XDICTIONARY
360
1610
102
}
102
{ACAD_REACTORS
330
14
102
}
330
14
100
AcDbVisualStyle
  2

 70
    22
 71
     2
 72
     2
 73
     0
 90
        0
 40
-0.6
 41
-30.0
 62
     5
 63
     7
 74
     1
 91
        4
 64
     7
 65
   257
 75
     1
175
     1
 42
1.0
 92
        8
 66
     7
 43
1.0
 76
     1
 77
     6
 78
     2
 67
     7
 79
     5
170
     0
171
     0
290
     0
174
     0
 93
        1
 44
0.0
173
     0
291
     1
 45
0.0
1001
ACAD
1000
AcDbSavedByObjectVersion
1070
     0
  0
VISUALSTYLE
  5
23
102
{ACAD_XDICTIONARY
360
15F5
102
}
102
{ACAD_REACTORS
330
14
102
}
330
14
100
AcDbVisualStyle
  2

 70
    15
 71
     2
 72
     2
 73
     0
 90
        0
 40
-0.6
 41
-30.0
 62
     5
 63
     7
 74
     1
 91
        4
 64
     7
 65
   257
 75
     1
175
     1
 42
1.0
 92
        8
 66
     7
 43
1.0
 76
     1
 77
     6
 78
     2
 67
     7
 79
     5
170
     0
171
     0
290
     0
174
     0
 93
        1
 44
0.0
173
     0
291
     1
 45
0.0
1001
ACAD
1000
AcDbSavedByObjectVersion
1070
     0
  0
VISUALSTYLE
  5
15
102
{ACAD_XDICTIONARY
360
15D9
102
}
102
{ACAD_REACTORS
330
14
102
}
330
14
100
AcDbVisualStyle
  2

 70
     0
 71
     2
 72
     1
 73
     1
 90
        2
 40
-0.6
 41
30.0
 62
     5
 63
     7
 74
     0
 91
        4
 64
     7
 65
   257
 75
     1
175
     1
 42
1.0
 92
        8
 66
     7
 43
1.0
 76
     1
 77
     6
 78
     2
 67
     7
 79
     5
170
     0
171
     0
290
     0
174
     0
 93
       13
 44
0.0
173
     0
291
     1
 45
0.0
1001
ACAD
1000
AcDbSavedByObjectVersion
1070
     0
  0
VISUALSTYLE
  5
16
102
{ACAD_XDICTIONARY
360
15DB
102
}
102
{ACAD_REACTORS
330
14
102
}
330
14
100
AcDbVisualStyle
  2

 70
     1
 71
     2
 72
     1
 73
     1
 90
        2
 40
-0.6
 41
30.0
 62
     5
 63
     7
 74
     1
 91
        4
 64
     7
 65
   257
 75
     1
175
     1
 42
1.0
 92
        0
 66
   257
 43
1.0
 76
     1
 77
     6
 78
     2
 67
     7
 79
     5
170
     0
171
     0
290
     0
174
     0
 93
       13
 44
0.0
173
     0
291
     1
 45
0.0
1001
ACAD
1000
AcDbSavedByObjectVersion
1070
     0
  0
VISUALSTYLE
  5
17
102
{ACAD_XDICTIONARY
360
15DD
102
}
102
{ACAD_REACTORS
330
14
102
}
330
14
100
AcDbVisualStyle
  2

 70
     2
 71
     2
 72
     2
 73
     1
 90
        2
 40
-0.6
 41
30.0
 62
     5
 63
     7
 74
     0
 91
        4
 64
     7
 65
   257
 75
     1
175
     1
 42
1.0
 92
        0
 66
     7
 43
1.0
 76
     1
 77
     6
 78
     2
 67
     7
 79
     5
170
     0
171
     0
290
     0
174
     0
 93
       13
 44
0.0
173
     0
291
     1
 45
0.0
1001
ACAD
1000
AcDbSavedByObjectVersion
1070
     0
  0
VISUALSTYLE
  5
18
102
{ACAD_XDICTIONARY
360
15DF
102
}
102
{ACAD_REACTORS
330
14
102
}
330
14
100
AcDbVisualStyle
  2

 70
     3
 71
     2
 72
     2
 73
     1
 90
        2
 40
-0.6
 41
30.0
 62
     5
 63
     7
 74
     1
 91
        4
 64
     7
 65
   257
 75
     1
175
     1
 42
1.0
 92
        0
 66
   257
 43
1.0
 76
     1
 77
     6
 78
     2
 67
     7
 79
     5
170
     0
171
     0
290
     0
174
     0
 93
       13
 44
0.0
173
     0
291
     1
 45
0.0
1001
ACAD
1000
AcDbSavedByObjectVersion
1070
     0
  0
VISUALSTYLE
  5
357
102
{ACAD_XDICTIONARY
360
1600
102
}
102
{ACAD_REACTORS
330
14
102
}
330
14
100
AcDbVisualStyle
  2

 70
     6
 71
     1
 72
     2
 73
     2
 90
        0
 40
-0.6
 41
-30.0
 62
     5
 63
     7
 74
     2
 91
        2
 64
     7
 65
   257
 75
     2
175
     1
 42
40.0
 92
        0
 66
   257
 43
1.0
 76
     1
 77
     6
 78
     2
 67
     7
 79
     3
170
     0
171
     0
290
     0
174
     0
 93
        1
 44
0.0
173
     0
291
     0
 45
0.0
1001
ACAD
1000
AcDbSavedByObjectVersion
1070
     0
  0
VISUALSTYLE
  5
35D
102
{ACAD_XDICTIONARY
360
160C
102
}
102
{ACAD_REACTORS
330
14
102
}
330
14
100
AcDbVisualStyle
  2

 70
    20
 71
     2
 72
     2
 73
     0
 90
        0
 40
-0.6
 41
-30.0
 62
     5
 63
     7
 74
     1
 91
        4
 64
     7
 65
   257
 75
     1
175
     1
 42
1.0
 92
       10
 66
     7
 43
1.0
 76
     1
 77
     6
 78
     2
 67
     7
 79
     5
170
     0
171
     0
290
     0
174
     0
 93
        1
 44
0.0
173
     0
291
     1
 45
0.0
1001
ACAD
1000
AcDbSavedByObjectVersion
1070
     0
  0
VISUALSTYLE
  5
22
102
{ACAD_XDICTIONARY
360
15F3
102
}
102
{ACAD_REACTORS
330
14
102
}
330
14
100
AcDbVisualStyle
  2

 70
    14
 71
     2
 72
     2
 73
     0
 90
        0
 40
-0.6
 41
-30.0
 62
     5
 63
     7
 74
     1
 91
        4
 64
     7
 65
   257
 75
     7
175
     7
 42
1.0
 92
        8
 66
     7
 43
1.0
 76
     1
 77
     6
 78
     2
 67
     7
 79
     5
170
     0
171
     0
290
     0
174
     0
 93
        1
 44
0.0
173
     0
291
     1
 45
0.0
1001
ACAD
1000
AcDbSavedByObjectVersion
1070
     0
  0
VISUALSTYLE
  5
35E
102
{ACAD_XDICTIONARY
360
160E
102
}
102
{ACAD_REACTORS
330
14
102
}
330
14
100
AcDbVisualStyle
  2

 70
    21
 71
     2
 72
     2
 73
     0
 90
        0
 40
-0.6
 41
-30.0
 62
     5
 63
     7
 74
     1
 91
        4
 64
     7
 65
   257
 75
     1
175
     1
 42
1.0
 92
        9
 66
     7
 43
1.0
 76
     1
 77
     6
 78
     2
 67
     7
 79
     5
170
     0
171
     0
290
     0
174
     0
 93
        1
 44
0.0
173
     0
291
     1
 45
0.0
1001
ACAD
1000
AcDbSavedByObjectVersion
1070
     0
  0
VISUALSTYLE
  5
1E
102
{ACAD_XDICTIONARY
360
15EB
102
}
102
{ACAD_REACTORS
330
14
102
}
330
14
100
AcDbVisualStyle
  2

 70
     8
 71
     2
 72
     2
 73
     0
 90
        0
 40
-0.6
 41
-30.0
 62
     5
 63
     7
 74
     1
 91
        0
 64
     7
 65
   257
 75
     1
175
     1
 42
1.0
 92
        8
 66
     8
 43
1.0
 76
     1
 77
     6
 78
     2
 67
     7
 79
     5
170
     0
171
     0
290
     0
174
     0
 93
       13
 44
0.0
173
     0
291
     0
 45
0.0
1001
ACAD
1000
AcDbSavedByObjectVersion
1070
     0
  0
VISUALSTYLE
  5
35C
102
{ACAD_XDICTIONARY
360
160A
102
}
102
{ACAD_REACTORS
330
14
102
}
330
14
100
AcDbVisualStyle
  2

 70
    27
 71
     2
 72
     2
 73
     1
 90
        2
 40
-0.6
 41
30.0
 62
     5
 63
     7
 74
     0
 91
        4
 64
     7
 65
   257
 75
     1
175
     1
 42
1.0
 92
        8
 66
   257
 43
1.0
 76
     1
 77
     6
 78
     2
 67
     8
 79
     3
170
     0
171
     0
290
     0
174
     0
 93
        5
 44
0.0
173
     0
291
     0
 45
0.0
1001
ACAD
1000
AcDbSavedByObjectVersion
1070
     0
  0
VISUALSTYLE
  5
35B
102
{ACAD_XDICTIONARY
360
1608
102
}
102
{ACAD_REACTORS
330
14
102
}
330
14
100
AcDbVisualStyle
  2

 70
    26
 71
     2
 72
     2
 73
     1
 90
        2
 40
-0.6
 41
30.0
 62
     5
 63
     7
 74
     1
 91
       10
 64
     7
 65
   257
 75
     2
175
     1
 42
1.0
 92
        8
 66
   257
 43
1.0
 76
     1
 77
     6
 78
     2
 67
     7
 79
     3
170
     0
171
     0
290
     0
174
     0
 93
        5
 44
0.0
173
     0
291
     0
 45
0.0
1001
ACAD
1000
AcDbSavedByObjectVersion
1070
     0
  0
VISUALSTYLE
  5
358
102
{ACAD_XDICTIONARY
360
1602
102
}
102
{ACAD_REACTORS
330
14
102
}
330
14
100
AcDbVisualStyle
  2

 70
    23
 71
     2
 72
     2
 73
     3
 90
        0
 40
-0.6
 41
-30.0
 62
     5
 63
     7
 74
     2
 91
        2
 64
     7
 65
     7
 75
     1
175
     1
 42
40.0
 92
        8
 66
     7
 43
1.0
 76
     1
 77
     6
 78
     2
 67
     7
 79
     3
170
     0
171
     0
290
     0
174
     0
 93
        1
 44
0.0
173
     0
291
     0
 45
0.0
1001
ACAD
1000
AcDbSavedByObjectVersion
1070
     0
  0
VISUALSTYLE
  5
359
102
{ACAD_XDICTIONARY
360
1604
102
}
102
{ACAD_REACTORS
330
14
102
}
330
14
100
AcDbVisualStyle
  2

 70
    24
 71
     1
 72
     2
 73
     2
 90
        0
 40
-0.6
 41
-30.0
 62
     5
 63
     7
 74
     2
 91
        2
 64
     7
 65
     7
 75
     1
175
     1
 42
40.0
 92
       11
 66
     7
 43
1.0
 76
     1
 77
     6
 78
     2
 67
     7
 79
     6
170
     0
171
     0
290
     0
174
     0
 93
        1
 44
0.0
173
     0
291
     0
 45
0.0
1001
ACAD
1000
AcDbSavedByObjectVersion
1070
     0
  0
VISUALSTYLE
  5
21
102
{ACAD_XDICTIONARY
360
15F1
102
}
102
{ACAD_REACTORS
330
14
102
}
330
14
100
AcDbVisualStyle
  2

 70
    13
 71
     2
 72
     2
 73
     0
 90
        0
 40
-0.6
 41
-30.0
 62
     5
 63
     7
 74
     1
 91
        4
 64
     7
 65
   257
 75
     1
175
     1
 42
1.0
 92
       12
 66
     7
 43
1.0
 76
     1
 77
     6
 78
     2
 67
     7
 79
     5
170
     0
171
     0
290
     0
174
     0
 93
        1
 44
0.0
173
     0
291
     1
 45
0.0
1001
ACAD
1000
AcDbSavedByObjectVersion
1070
     0
  0
VISUALSTYLE
  5
356
102
{ACAD_XDICTIONARY
360
15FE
102
}
102
{ACAD_REACTORS
330
14
102
}
330
14
100
AcDbVisualStyle
  2

 70
     5
 71
     0
 72
     2
 73
     0
 90
        0
 40
-0.6
 41
-30.0
 62
     5
 63
     7
 74
     1
 91
        4
 64
     7
 65
   257
 75
     1
175
     1
 42
1.0
 92
        0
 66
   257
 43
1.0
 76
     1
 77
     6
 78
     2
 67
     7
 79
     3
170
     0
171
     0
290
     0
174
     0
 93
        1
 44
0.0
173
     0
291
     0
 45
0.0
1001
ACAD
1000
AcDbSavedByObjectVersion
1070
     0
  0
VISUALSTYLE
  5
35A
102
{ACAD_XDICTIONARY
360
1606
102
}
102
{ACAD_REACTORS
330
14
102
}
330
14
100
AcDbVisualStyle
  2

 70
    25
 71
     2
 72
     2
 73
     1
 90
        1
 40
0.5
 41
-30.0
 62
     5
 63
     7
 74
     1
 91
        0
 64
     7
 65
   257
 75
     1
175
     1
 42
1.0
 92
        8
 66
     7
 43
1.0
 76
     1
 77
     6
 78
     2
 67
     7
 79
     3
170
     0
171
     0
290
     0
174
     0
 93
       13
 44
0.0
173
     0
291
     0
 45
0.0
1001
ACAD
1000
AcDbSavedByObjectVersion
1070
     0
  0
DICTIONARYVAR
  5
603
102
{ACAD_REACTORS
330
340
102
}
330
340
100
DictionaryVariables
280
     0
  1
1:1
  0
DICTIONARYVAR
  5
602
102
{ACAD_REACTORS
330
340
102
}
330
340
100
DictionaryVariables
280
     0
  1
STANDARD
  0
DICTIONARYVAR
  5
341
102
{ACAD_REACTORS
330
340
102
}
330
340
100
DictionaryVariables
280
     0
  1
STANDARD
  0
DICTIONARYVAR
  5
344
102
{ACAD_REACTORS
330
340
102
}
330
340
100
DictionaryVariables
280
     0
  1
1
  0
DICTIONARYVAR
  5
343
102
{ACAD_REACTORS
330
340
102
}
330
340
100
DictionaryVariables
280
     0
  1
0
  0
DICTIONARYVAR
  5
342
102
{ACAD_REACTORS
330
340
102
}
330
340
100
DictionaryVariables
280
     0
  1
127
  0
DICTIONARYVAR
  5
1496
102
{ACAD_REACTORS
330
340
102
}
330
340
100
DictionaryVariables
280
     0
  1
2
  0
DICTIONARY
  5
15FC
330
39
100
AcDbDictionary
280
     1
281
     1
  3
ACAD_XREC_ROUNDTRIP
360
15FD
  0
DICTIONARY
  5
15FA
330
35
100
AcDbDictionary
280
     1
281
     1
  3
ACAD_XREC_ROUNDTRIP
360
15FB
  0
DICTIONARY
  5
348
330
12
100
AcDbDictionary
280
     1
281
     1
  3
ACAD_XREC_ROUNDTRIP
360
349
  0
DICTIONARY
  5
346
330
11
100
AcDbDictionary
280
     1
281
     1
  3
ACAD_XREC_ROUNDTRIP
360
347
  0
DICTIONARY
  5
34A
330
13
100
AcDbDictionary
280
     1
281
     1
  3
ACAD_XREC_ROUNDTRIP
360
34B
  0
DICTIONARY
  5
605
330
31
100
AcDbDictionary
280
     1
281
     1
  3
ACAD_ROUNDTRIP_2008_TABLESTYLE_CELLSTYLEMAP
360
15D2
  3
ACAD_XREC_ROUNDTRIP
360
15F9
  0
DICTIONARY
  5
15E3
330
1A
100
AcDbDictionary
280
     1
281
     1
  3
ACAD_XREC_ROUNDTRIP
360
15E4
  0
DICTIONARY
  5
15E7
330
1C
100
AcDbDictionary
280
     1
281
     1
  3
ACAD_XREC_ROUNDTRIP
360
15E8
  0
DICTIONARY
  5
15E5
330
1B
100
AcDbDictionary
280
     1
281
     1
  3
ACAD_XREC_ROUNDTRIP
360
15E6
  0
DICTIONARY
  5
15E1
330
19
100
AcDbDictionary
280
     1
281
     1
  3
ACAD_XREC_ROUNDTRIP
360
15E2
  0
DICTIONARY
  5
15EF
330
20
100
AcDbDictionary
280
     1
281
     1
  3
ACAD_XREC_ROUNDTRIP
360
15F0
  0
DICTIONARY
  5
15F7
330
24
100
AcDbDictionary
280
     1
281
     1
  3
ACAD_XREC_ROUNDTRIP
360
15F8
  0
DICTIONARY
  5
15E9
330
1D
100
AcDbDictionary
280
     1
281
     1
  3
ACAD_XREC_ROUNDTRIP
360
15EA
  0
DICTIONARY
  5
15ED
330
1F
100
AcDbDictionary
280
     1
281
     1
  3
ACAD_XREC_ROUNDTRIP
360
15EE
  0
DICTIONARY
  5
1610
330
35F
100
AcDbDictionary
280
     1
281
     1
  3
ACAD_XREC_ROUNDTRIP
360
1611
  0
DICTIONARY
  5
15F5
330
23
100
AcDbDictionary
280
     1
281
     1
  3
ACAD_XREC_ROUNDTRIP
360
15F6
  0
DICTIONARY
  5
15D9
330
15
100
AcDbDictionary
280
     1
281
     1
  3
ACAD_XREC_ROUNDTRIP
360
15DA
  0
DICTIONARY
  5
15DB
330
16
100
AcDbDictionary
280
     1
281
     1
  3
ACAD_XREC_ROUNDTRIP
360
15DC
  0
DICTIONARY
  5
15DD
330
17
100
AcDbDictionary
280
     1
281
     1
  3
ACAD_XREC_ROUNDTRIP
360
15DE
  0
DICTIONARY
  5
15DF
330
18
100
AcDbDictionary
280
     1
281
     1
  3
ACAD_XREC_ROUNDTRIP
360
15E0
  0
DICTIONARY
  5
1600
330
357
100
AcDbDictionary
280
     1
281
     1
  3
ACAD_XREC_ROUNDTRIP
360
1601
  0
DICTIONARY
  5
160C
330
35D
100
AcDbDictionary
280
     1
281
     1
  3
ACAD_XREC_ROUNDTRIP
360
160D
  0
DICTIONARY
  5
15F3
330
22
100
AcDbDictionary
280
     1
281
     1
  3
ACAD_XREC_ROUNDTRIP
360
15F4
  0
DICTIONARY
  5
160E
330
35E
100
AcDbDictionary
280
     1
281
     1
  3
ACAD_XREC_ROUNDTRIP
360
160F
  0
DICTIONARY
  5
15EB
330
1E
100
AcDbDictionary
280
     1
281
     1
  3
ACAD_XREC_ROUNDTRIP
360
15EC
  0
DICTIONARY
  5
160A
330
35C
100
AcDbDictionary
280
     1
281
     1
  3
ACAD_XREC_ROUNDTRIP
360
160B
  0
DICTIONARY
  5
1608
330
35B
100
AcDbDictionary
280
     1
281
     1
  3
ACAD_XREC_ROUNDTRIP
360
1609
  0
DICTIONARY
  5
1602
330
358
100
AcDbDictionary
280
     1
281
     1
  3
ACAD_XREC_ROUNDTRIP
360
1603
  0
DICTIONARY
  5
1604
330
359
100
AcDbDictionary
280
     1
281
     1
  3
ACAD_XREC_ROUNDTRIP
360
1605
  0
DICTIONARY
  5
15F1
330
21
100
AcDbDictionary
280
     1
281
     1
  3
ACAD_XREC_ROUNDTRIP
360
15F2
  0
DICTIONARY
  5
15FE
330
356
100
AcDbDictionary
280
     1
281
     1
  3
ACAD_XREC_ROUNDTRIP
360
15FF
  0
DICTIONARY
  5
1606
330
35A
100
AcDbDictionary
280
     1
281
     1
  3
ACAD_XREC_ROUNDTRIP
360
1607
  0
XRECORD
  5
15FD
102
{ACAD_REACTORS
330
15FC
102
}
330
15FC
100
AcDbXrecord
280
     1
102
SHADEPLOT
 70
     0
102
SHADEPLOTRESLEVEL
 70
     2
102
SHADEPLOTCUSTOMDPI
 70
   300
  0
XRECORD
  5
15FB
102
{ACAD_REACTORS
330
15FA
102
}
330
15FA
100
AcDbXrecord
280
     1
102
SHADEPLOT
 70
     0
102
SHADEPLOTRESLEVEL
 70
     2
102
SHADEPLOTCUSTOMDPI
 70
   300
  0
XRECORD
  5
349
102
{ACAD_REACTORS
330
348
102
}
330
348
100
AcDbXrecord
280
     1
102
MATERIAL
148
0.0
149
0.0
149
0.0
 93
        0
 94
      127
282
     0
 72
     1
 77
     1
171
     1
175
     1
179
     1
273
     0
  0
XRECORD
  5
347
102
{ACAD_REACTORS
330
346
102
}
330
346
100
AcDbXrecord
280
     1
102
MATERIAL
148
0.0
149
0.0
149
0.0
 93
        0
 94
      127
282
     0
 72
     1
 77
     1
171
     1
175
     1
179
     1
273
     0
  0
XRECORD
  5
34B
102
{ACAD_REACTORS
330
34A
102
}
330
34A
100
AcDbXrecord
280
     1
102
MATERIAL
148
0.0
149
0.0
149
0.0
 93
        0
 94
      127
282
     0
 72
     1
 77
     1
171
     1
175
     1
179
     1
273
     0
  0
CELLSTYLEMAP
  5
15D2
102
{ACAD_REACTORS
330
605
102
}
330
605
100
AcDbCellStyleMap
 90
        3
300
CELLSTYLE
  1
TABLEFORMAT_BEGIN
 90
        5
170
     1
 91
        0
 92
    32768
 62
   257
 93
        1
300
CONTENTFORMAT
  1
CONTENTFORMAT_BEGIN
 90
        0
 91
        0
 92
      512
 93
        0
300

 40
0.0
140
1.0
 94
        5
 62
     0
340
26
144
0.25
309
CONTENTFORMAT_END
171
     1
301
MARGIN
  1
CELLMARGIN_BEGIN
 40
0.06
 40
0.06
 40
0.06
 40
0.06
 40
0.18
 40
0.18
309
CELLMARGIN_END
 94
        6
 95
        1
302
GRIDFORMAT
  1
GRIDFORMAT_BEGIN
 90
        0
 91
        1
 62
     0
 92
       -2
340
0
 93
        0
 40
0.045
309
GRIDFORMAT_END
 95
        2
302
GRIDFORMAT
  1
GRIDFORMAT_BEGIN
 90
        0
 91
        1
 62
     0
 92
       -2
340
0
 93
        0
 40
0.045
309
GRIDFORMAT_END
 95
        4
302
GRIDFORMAT
  1
GRIDFORMAT_BEGIN
 90
        0
 91
        1
 62
     0
 92
       -2
340
0
 93
        0
 40
0.045
309
GRIDFORMAT_END
 95
        8
302
GRIDFORMAT
  1
GRIDFORMAT_BEGIN
 90
        0
 91
        1
 62
     0
 92
       -2
340
0
 93
        0
 40
0.045
309
GRIDFORMAT_END
 95
       16
302
GRIDFORMAT
  1
GRIDFORMAT_BEGIN
 90
        0
 91
        1
 62
     0
 92
       -2
340
0
 93
        0
 40
0.045
309
GRIDFORMAT_END
 95
       32
302
GRIDFORMAT
  1
GRIDFORMAT_BEGIN
 90
        0
 91
        1
 62
     0
 92
       -2
340
0
 93
        0
 40
0.045
309
GRIDFORMAT_END
309
TABLEFORMAT_END
  1
CELLSTYLE_BEGIN
 90
        1
 91
        1
300
_TITLE
309
CELLSTYLE_END
300
CELLSTYLE
  1
TABLEFORMAT_BEGIN
 90
        5
170
     1
 91
        0
 92
        0
 62
   257
 93
        1
300
CONTENTFORMAT
  1
CONTENTFORMAT_BEGIN
 90
        0
 91
        0
 92
      512
 93
        0
300

 40
0.0
140
1.0
 94
        5
 62
     0
340
26
144
0.18
309
CONTENTFORMAT_END
171
     1
301
MARGIN
  1
CELLMARGIN_BEGIN
 40
0.06
 40
0.06
 40
0.06
 40
0.06
 40
0.18
 40
0.18
309
CELLMARGIN_END
 94
        6
 95
        1
302
GRIDFORMAT
  1
GRIDFORMAT_BEGIN
 90
        0
 91
        1
 62
     0
 92
       -2
340
0
 93
        0
 40
0.045
309
GRIDFORMAT_END
 95
        2
302
GRIDFORMAT
  1
GRIDFORMAT_BEGIN
 90
        0
 91
        1
 62
     0
 92
       -2
340
0
 93
        0
 40
0.045
309
GRIDFORMAT_END
 95
        4
302
GRIDFORMAT
  1
GRIDFORMAT_BEGIN
 90
        0
 91
        1
 62
     0
 92
       -2
340
0
 93
        0
 40
0.045
309
GRIDFORMAT_END
 95
        8
302
GRIDFORMAT
  1
GRIDFORMAT_BEGIN
 90
        0
 91
        1
 62
     0
 92
       -2
340
0
 93
        0
 40
0.045
309
GRIDFORMAT_END
 95
       16
302
GRIDFORMAT
  1
GRIDFORMAT_BEGIN
 90
        0
 91
        1
 62
     0
 92
       -2
340
0
 93
        0
 40
0.045
309
GRIDFORMAT_END
 95
       32
302
GRIDFORMAT
  1
GRIDFORMAT_BEGIN
 90
        0
 91
        1
 62
     0
 92
       -2
340
0
 93
        0
 40
0.045
309
GRIDFORMAT_END
309
TABLEFORMAT_END
  1
CELLSTYLE_BEGIN
 90
        2
 91
        1
300
_HEADER
309
CELLSTYLE_END
300
CELLSTYLE
  1
TABLEFORMAT_BEGIN
 90
        5
170
     1
 91
        0
 92
        0
 62
   257
 93
        1
300
CONTENTFORMAT
  1
CONTENTFORMAT_BEGIN
 90
        0
 91
        0
 92
      512
 93
        0
300

 40
0.0
140
1.0
 94
        2
 62
     0
340
26
144
0.18
309
CONTENTFORMAT_END
171
     1
301
MARGIN
  1
CELLMARGIN_BEGIN
 40
0.06
 40
0.06
 40
0.06
 40
0.06
 40
0.18
 40
0.18
309
CELLMARGIN_END
 94
        6
 95
        1
302
GRIDFORMAT
  1
GRIDFORMAT_BEGIN
 90
        0
 91
        1
 62
     0
 92
       -2
340
0
 93
        0
 40
0.045
309
GRIDFORMAT_END
 95
        2
302
GRIDFORMAT
  1
GRIDFORMAT_BEGIN
 90
        0
 91
        1
 62
     0
 92
       -2
340
0
 93
        0
 40
0.045
309
GRIDFORMAT_END
 95
        4
302
GRIDFORMAT
  1
GRIDFORMAT_BEGIN
 90
        0
 91
        1
 62
     0
 92
       -2
340
0
 93
        0
 40
0.045
309
GRIDFORMAT_END
 95
        8
302
GRIDFORMAT
  1
GRIDFORMAT_BEGIN
 90
        0
 91
        1
 62
     0
 92
       -2
340
0
 93
        0
 40
0.045
309
GRIDFORMAT_END
 95
       16
302
GRIDFORMAT
  1
GRIDFORMAT_BEGIN
 90
        0
 91
        1
 62
     0
 92
       -2
340
0
 93
        0
 40
0.045
309
GRIDFORMAT_END
 95
       32
302
GRIDFORMAT
  1
GRIDFORMAT_BEGIN
 90
        0
 91
        1
 62
     0
 92
       -2
340
0
 93
        0
 40
0.045
309
GRIDFORMAT_END
309
TABLEFORMAT_END
  1
CELLSTYLE_BEGIN
 90
        3
 91
        2
300
_DATA
309
CELLSTYLE_END
  0
XRECORD
  5
15F9
102
{ACAD_REACTORS
330
605
102
}
330
605
100
AcDbXrecord
280
     1
102
ACAD_ROUNDTRIP_PRE2007_TABLESTYLE
 90
      512
 91
        0
  1

 92
      512
 93
        0
  2

 94
      512
 95
        0
  3

  0
XRECORD
  5
15E4
102
{ACAD_REACTORS
330
15E3
102
}
330
15E3
100
AcDbXrecord
280
     1
102
RTVSPropertyOp0
 70
     1
102
RTVSPropertyOp1
 70
     1
102
RTVSPropertyOp2
 70
     1
102
RTVSPropertyOp3
 70
     1
102
RTVSPropertyOp4
 70
     1
102
RTVSPropertyOp5
 70
     1
102
RTVSPropertyOp6
 70
     1
102
RTVSPropertyOp7
 70
     1
102
RTVSPropertyOp8
 70
     1
102
RTVSPropertyOp9
 70
     1
102
RTVSPropertyOp10
 70
     1
102
RTVSPropertyOp11
 70
     1
102
RTVSPropertyOp12
 70
     1
102
RTVSPropertyOp13
 70
     1
102
RTVSPropertyOp14
 70
     1
102
RTVSPropertyOp15
 70
     1
102
RTVSPropertyOp16
 70
     1
102
RTVSPropertyOp17
 70
     1
102
RTVSPropertyOp18
 70
     1
102
RTVSPropertyOp19
 70
     1
102
RTVSPropertyOp20
 70
     1
102
RTVSPropertyOp21
 70
     1
102
RTVSPropertyOp22
 70
     1
102
RTVSPropertyOp23
 70
     1
102
RTVSPropertyOp24
 70
     1
102
RTVSPropertyOp25
 70
     1
102
RTVSPropertyOp26
 70
     1
102
RTVSPropertyOp27
 70
     1
102
RTVSPropertyOp28
 70
     1
102
RTVSPropertyOp29
 70
     1
102
RTVSPropertyOp30
 70
     1
102
RTVSPropertyOp31
 70
     1
102
RTVSPropertyOp32
 70
     1
  0
XRECORD
  5
15E8
102
{ACAD_REACTORS
330
15E7
102
}
330
15E7
100
AcDbXrecord
280
     1
102
RTVSPropertyOp0
 70
     1
102
RTVSPropertyOp1
 70
     1
102
RTVSPropertyOp2
 70
     1
102
RTVSPropertyOp3
 70
     1
102
RTVSPropertyOp4
 70
     1
102
RTVSPropertyOp5
 70
     1
102
RTVSPropertyOp6
 70
     1
102
RTVSPropertyOp7
 70
     1
102
RTVSPropertyOp8
 70
     1
102
RTVSPropertyOp9
 70
     1
102
RTVSPropertyOp10
 70
     1
102
RTVSPropertyOp11
 70
     1
102
RTVSPropertyOp12
 70
     1
102
RTVSPropertyOp13
 70
     1
102
RTVSPropertyOp14
 70
     1
102
RTVSPropertyOp15
 70
     1
102
RTVSPropertyOp16
 70
     1
102
RTVSPropertyOp17
 70
     1
102
RTVSPropertyOp18
 70
     1
102
RTVSPropertyOp19
 70
     1
102
RTVSPropertyOp20
 70
     1
102
RTVSPropertyOp21
 70
     1
102
RTVSPropertyOp22
 70
     1
102
RTVSPropertyOp23
 70
     1
102
RTVSPropertyOp24
 70
     1
102
RTVSPropertyOp25
 70
     1
102
RTVSPropertyOp26
 70
     1
102
RTVSPropertyOp27
 70
     1
102
RTVSPropertyOp28
 70
     1
102
RTVSPropertyOp29
 70
     1
102
RTVSPropertyOp30
 70
     1
102
RTVSPropertyOp31
 70
     1
102
RTVSPropertyOp32
 70
     1
  0
XRECORD
  5
15E6
102
{ACAD_REACTORS
330
15E5
102
}
330
15E5
100
AcDbXrecord
280
     1
102
RTVSPropertyOp0
 70
     1
102
RTVSPropertyOp1
 70
     1
102
RTVSPropertyOp2
 70
     1
102
RTVSPropertyOp3
 70
     1
102
RTVSPropertyOp4
 70
     1
102
RTVSPropertyOp5
 70
     1
102
RTVSPropertyOp6
 70
     1
102
RTVSPropertyOp7
 70
     1
102
RTVSPropertyOp8
 70
     1
102
RTVSPropertyOp9
 70
     1
102
RTVSPropertyOp10
 70
     1
102
RTVSPropertyOp11
 70
     1
102
RTVSPropertyOp12
 70
     1
102
RTVSPropertyOp13
 70
     1
102
RTVSPropertyOp14
 70
     1
102
RTVSPropertyOp15
 70
     1
102
RTVSPropertyOp16
 70
     1
102
RTVSPropertyOp17
 70
     1
102
RTVSPropertyOp18
 70
     1
102
RTVSPropertyOp19
 70
     1
102
RTVSPropertyOp20
 70
     1
102
RTVSPropertyOp21
 70
     1
102
RTVSPropertyOp22
 70
     1
102
RTVSPropertyOp23
 70
     1
102
RTVSPropertyOp24
 70
     1
102
RTVSPropertyOp25
 70
     1
102
RTVSPropertyOp26
 70
     1
102
RTVSPropertyOp27
 70
     1
102
RTVSPropertyOp28
 70
     1
102
RTVSPropertyOp29
 70
     1
102
RTVSPropertyOp30
 70
     1
102
RTVSPropertyOp31
 70
     1
102
RTVSPropertyOp32
 70
     1
  0
XRECORD
  5
15E2
102
{ACAD_REACTORS
330
15E1
102
}
330
15E1
100
AcDbXrecord
280
     1
102
RTVSPropertyOp0
 70
     1
102
RTVSPropertyOp1
 70
     1
102
RTVSPropertyOp2
 70
     1
102
RTVSPropertyOp3
 70
     1
102
RTVSPropertyOp4
 70
     1
102
RTVSPropertyOp5
 70
     1
102
RTVSPropertyOp6
 70
     1
102
RTVSPropertyOp7
 70
     1
102
RTVSPropertyOp8
 70
     1
102
RTVSPropertyOp9
 70
     1
102
RTVSPropertyOp10
 70
     1
102
RTVSPropertyOp11
 70
     1
102
RTVSPropertyOp12
 70
     1
102
RTVSPropertyOp13
 70
     1
102
RTVSPropertyOp14
 70
     1
102
RTVSPropertyOp15
 70
     1
102
RTVSPropertyOp16
 70
     1
102
RTVSPropertyOp17
 70
     1
102
RTVSPropertyOp18
 70
     1
102
RTVSPropertyOp19
 70
     1
102
RTVSPropertyOp20
 70
     1
102
RTVSPropertyOp21
 70
     1
102
RTVSPropertyOp22
 70
     1
102
RTVSPropertyOp23
 70
     1
102
RTVSPropertyOp24
 70
     1
102
RTVSPropertyOp25
 70
     1
102
RTVSPropertyOp26
 70
     1
102
RTVSPropertyOp27
 70
     1
102
RTVSPropertyOp28
 70
     1
102
RTVSPropertyOp29
 70
     1
102
RTVSPropertyOp30
 70
     1
102
RTVSPropertyOp31
 70
     1
102
RTVSPropertyOp32
 70
     1
  0
XRECORD
  5
15F0
102
{ACAD_REACTORS
330
15EF
102
}
330
15EF
100
AcDbXrecord
280
     1
102
RTVSPropertyOp0
 70
     1
102
RTVSPropertyOp1
 70
     1
102
RTVSPropertyOp2
 70
     1
102
RTVSPropertyOp3
 70
     1
102
RTVSPropertyOp4
 70
     1
102
RTVSPropertyOp5
 70
     1
102
RTVSPropertyOp6
 70
     1
102
RTVSPropertyOp7
 70
     1
102
RTVSPropertyOp8
 70
     1
102
RTVSPropertyOp9
 70
     1
102
RTVSPropertyOp10
 70
     1
102
RTVSPropertyOp11
 70
     1
102
RTVSPropertyOp12
 70
     1
102
RTVSPropertyOp13
 70
     1
102
RTVSPropertyOp14
 70
     1
102
RTVSPropertyOp15
 70
     1
102
RTVSPropertyOp16
 70
     1
102
RTVSPropertyOp17
 70
     1
102
RTVSPropertyOp18
 70
     1
102
RTVSPropertyOp19
 70
     1
102
RTVSPropertyOp20
 70
     1
102
RTVSPropertyOp21
 70
     1
102
RTVSPropertyOp22
 70
     1
102
RTVSPropertyOp23
 70
     1
102
RTVSPropertyOp24
 70
     1
102
RTVSPropertyOp25
 70
     1
102
RTVSPropertyOp26
 70
     1
102
RTVSPropertyOp27
 70
     1
102
RTVSPropertyOp28
 70
     1
102
RTVSPropertyOp29
 70
     1
102
RTVSPropertyOp30
 70
     1
102
RTVSPropertyOp31
 70
     1
102
RTVSPropertyOp32
 70
     1
  0
XRECORD
  5
15F8
102
{ACAD_REACTORS
330
15F7
102
}
330
15F7
100
AcDbXrecord
280
     1
102
RTVSPropertyOp0
 70
     1
102
RTVSPropertyOp1
 70
     1
102
RTVSPropertyOp2
 70
     1
102
RTVSPropertyOp3
 70
     1
102
RTVSPropertyOp4
 70
     1
102
RTVSPropertyOp5
 70
     1
102
RTVSPropertyOp6
 70
     1
102
RTVSPropertyOp7
 70
     1
102
RTVSPropertyOp8
 70
     1
102
RTVSPropertyOp9
 70
     1
102
RTVSPropertyOp10
 70
     1
102
RTVSPropertyOp11
 70
     1
102
RTVSPropertyOp12
 70
     1
102
RTVSPropertyOp13
 70
     1
102
RTVSPropertyOp14
 70
     1
102
RTVSPropertyOp15
 70
     1
102
RTVSPropertyOp16
 70
     1
102
RTVSPropertyOp17
 70
     1
102
RTVSPropertyOp18
 70
     1
102
RTVSPropertyOp19
 70
     1
102
RTVSPropertyOp20
 70
     1
102
RTVSPropertyOp21
 70
     1
102
RTVSPropertyOp22
 70
     1
102
RTVSPropertyOp23
 70
     1
102
RTVSPropertyOp24
 70
     1
102
RTVSPropertyOp25
 70
     1
102
RTVSPropertyOp26
 70
     1
102
RTVSPropertyOp27
 70
     1
102
RTVSPropertyOp28
 70
     1
102
RTVSPropertyOp29
 70
     1
102
RTVSPropertyOp30
 70
     1
102
RTVSPropertyOp31
 70
     1
102
RTVSPropertyOp32
 70
     1
  0
XRECORD
  5
15EA
102
{ACAD_REACTORS
330
15E9
102
}
330
15E9
100
AcDbXrecord
280
     1
102
RTVSPropertyOp0
 70
     1
102
RTVSPropertyOp1
 70
     1
102
RTVSPropertyOp2
 70
     1
102
RTVSPropertyOp3
 70
     1
102
RTVSPropertyOp4
 70
     1
102
RTVSPropertyOp5
 70
     1
102
RTVSPropertyOp6
 70
     1
102
RTVSPropertyOp7
 70
     1
102
RTVSPropertyOp8
 70
     1
102
RTVSPropertyOp9
 70
     1
102
RTVSPropertyOp10
 70
     1
102
RTVSPropertyOp11
 70
     1
102
RTVSPropertyOp12
 70
     1
102
RTVSPropertyOp13
 70
     1
102
RTVSPropertyOp14
 70
     1
102
RTVSPropertyOp15
 70
     1
102
RTVSPropertyOp16
 70
     1
102
RTVSPropertyOp17
 70
     1
102
RTVSPropertyOp18
 70
     1
102
RTVSPropertyOp19
 70
     1
102
RTVSPropertyOp20
 70
     1
102
RTVSPropertyOp21
 70
     1
102
RTVSPropertyOp22
 70
     1
102
RTVSPropertyOp23
 70
     1
102
RTVSPropertyOp24
 70
     1
102
RTVSPropertyOp25
 70
     1
102
RTVSPropertyOp26
 70
     1
102
RTVSPropertyOp27
 70
     1
102
RTVSPropertyOp28
 70
     1
102
RTVSPropertyOp29
 70
     1
102
RTVSPropertyOp30
 70
     1
102
RTVSPropertyOp31
 70
     1
102
RTVSPropertyOp32
 70
     1
  0
XRECORD
  5
15EE
102
{ACAD_REACTORS
330
15ED
102
}
330
15ED
100
AcDbXrecord
280
     1
102
RTVSPropertyOp0
 70
     1
102
RTVSPropertyOp1
 70
     1
102
RTVSPropertyOp2
 70
     1
102
RTVSPropertyOp3
 70
     1
102
RTVSPropertyOp4
 70
     1
102
RTVSPropertyOp5
 70
     1
102
RTVSPropertyOp6
 70
     1
102
RTVSPropertyOp7
 70
     1
102
RTVSPropertyOp8
 70
     1
102
RTVSPropertyOp9
 70
     1
102
RTVSPropertyOp10
 70
     1
102
RTVSPropertyOp11
 70
     1
102
RTVSPropertyOp12
 70
     1
102
RTVSPropertyOp13
 70
     1
102
RTVSPropertyOp14
 70
     1
102
RTVSPropertyOp15
 70
     1
102
RTVSPropertyOp16
 70
     1
102
RTVSPropertyOp17
 70
     1
102
RTVSPropertyOp18
 70
     1
102
RTVSPropertyOp19
 70
     1
102
RTVSPropertyOp20
 70
     1
102
RTVSPropertyOp21
 70
     1
102
RTVSPropertyOp22
 70
     1
102
RTVSPropertyOp23
 70
     1
102
RTVSPropertyOp24
 70
     1
102
RTVSPropertyOp25
 70
     1
102
RTVSPropertyOp26
 70
     1
102
RTVSPropertyOp27
 70
     1
102
RTVSPropertyOp28
 70
     1
102
RTVSPropertyOp29
 70
     1
102
RTVSPropertyOp30
 70
     1
102
RTVSPropertyOp31
 70
     1
102
RTVSPropertyOp32
 70
     1
  0
XRECORD
  5
1611
102
{ACAD_REACTORS
330
1610
102
}
330
1610
100
AcDbXrecord
280
     1
102
RTVSPropertyOp0
 70
     0
102
RTVSPropertyOp1
 70
     0
102
RTVSPropertyOp2
 70
     0
102
RTVSPropertyOp3
 70
     0
102
RTVSPropertyOp4
 70
     0
102
RTVSPropertyOp5
 70
     0
102
RTVSPropertyOp6
 70
     0
102
RTVSPropertyOp7
 70
     0
102
RTVSPropertyOp8
 70
     0
102
RTVSPropertyOp9
 70
     0
102
RTVSPropertyOp10
 70
     0
102
RTVSPropertyOp11
 70
     0
102
RTVSPropertyOp12
 70
     0
102
RTVSPropertyOp13
 70
     0
102
RTVSPropertyOp14
 70
     2
102
RTVSPropertyOp15
 70
     0
102
RTVSPropertyOp16
 70
     0
102
RTVSPropertyOp17
 70
     0
102
RTVSPropertyOp18
 70
     0
102
RTVSPropertyOp19
 70
     0
102
RTVSPropertyOp20
 70
     0
102
RTVSPropertyOp21
 70
     0
102
RTVSPropertyOp22
 70
     0
102
RTVSPropertyOp23
 70
     0
102
RTVSPropertyOp24
 70
     0
102
RTVSPropertyOp25
 70
     0
102
RTVSPropertyOp26
 70
     0
102
RTVSPropertyOp27
 70
     0
102
RTVSPropertyOp28
 70
     0
102
RTVSPropertyOp29
 70
     0
102
RTVSPropertyOp30
 70
     0
102
RTVSPropertyOp31
 70
     0
102
RTVSPropertyOp32
 70
     0
  0
XRECORD
  5
15F6
102
{ACAD_REACTORS
330
15F5
102
}
330
15F5
100
AcDbXrecord
280
     1
102
RTVSPropertyOp0
 70
     1
102
RTVSPropertyOp1
 70
     1
102
RTVSPropertyOp2
 70
     1
102
RTVSPropertyOp3
 70
     1
102
RTVSPropertyOp4
 70
     1
102
RTVSPropertyOp5
 70
     1
102
RTVSPropertyOp6
 70
     1
102
RTVSPropertyOp7
 70
     1
102
RTVSPropertyOp8
 70
     1
102
RTVSPropertyOp9
 70
     1
102
RTVSPropertyOp10
 70
     1
102
RTVSPropertyOp11
 70
     1
102
RTVSPropertyOp12
 70
     1
102
RTVSPropertyOp13
 70
     1
102
RTVSPropertyOp14
 70
     1
102
RTVSPropertyOp15
 70
     1
102
RTVSPropertyOp16
 70
     1
102
RTVSPropertyOp17
 70
     1
102
RTVSPropertyOp18
 70
     1
102
RTVSPropertyOp19
 70
     1
102
RTVSPropertyOp20
 70
     1
102
RTVSPropertyOp21
 70
     1
102
RTVSPropertyOp22
 70
     1
102
RTVSPropertyOp23
 70
     1
102
RTVSPropertyOp24
 70
     1
102
RTVSPropertyOp25
 70
     1
102
RTVSPropertyOp26
 70
     1
102
RTVSPropertyOp27
 70
     1
102
RTVSPropertyOp28
 70
     1
102
RTVSPropertyOp29
 70
     1
102
RTVSPropertyOp30
 70
     1
102
RTVSPropertyOp31
 70
     1
102
RTVSPropertyOp32
 70
     1
  0
XRECORD
  5
15DA
102
{ACAD_REACTORS
330
15D9
102
}
330
15D9
100
AcDbXrecord
280
     1
102
RTVSPropertyOp0
 70
     1
102
RTVSPropertyOp1
 70
     1
102
RTVSPropertyOp2
 70
     1
102
RTVSPropertyOp3
 70
     1
102
RTVSPropertyOp4
 70
     1
102
RTVSPropertyOp5
 70
     1
102
RTVSPropertyOp6
 70
     1
102
RTVSPropertyOp7
 70
     1
102
RTVSPropertyOp8
 70
     1
102
RTVSPropertyOp9
 70
     1
102
RTVSPropertyOp10
 70
     1
102
RTVSPropertyOp11
 70
     1
102
RTVSPropertyOp12
 70
     1
102
RTVSPropertyOp13
 70
     1
102
RTVSPropertyOp14
 70
     1
102
RTVSPropertyOp15
 70
     1
102
RTVSPropertyOp16
 70
     1
102
RTVSPropertyOp17
 70
     1
102
RTVSPropertyOp18
 70
     1
102
RTVSPropertyOp19
 70
     1
102
RTVSPropertyOp20
 70
     1
102
RTVSPropertyOp21
 70
     1
102
RTVSPropertyOp22
 70
     1
102
RTVSPropertyOp23
 70
     1
102
RTVSPropertyOp24
 70
     1
102
RTVSPropertyOp25
 70
     1
102
RTVSPropertyOp26
 70
     1
102
RTVSPropertyOp27
 70
     1
102
RTVSPropertyOp28
 70
     1
102
RTVSPropertyOp29
 70
     1
102
RTVSPropertyOp30
 70
     1
102
RTVSPropertyOp31
 70
     1
102
RTVSPropertyOp32
 70
     1
  0
XRECORD
  5
15DC
102
{ACAD_REACTORS
330
15DB
102
}
330
15DB
100
AcDbXrecord
280
     1
102
RTVSPropertyOp0
 70
     1
102
RTVSPropertyOp1
 70
     1
102
RTVSPropertyOp2
 70
     1
102
RTVSPropertyOp3
 70
     1
102
RTVSPropertyOp4
 70
     1
102
RTVSPropertyOp5
 70
     1
102
RTVSPropertyOp6
 70
     1
102
RTVSPropertyOp7
 70
     1
102
RTVSPropertyOp8
 70
     1
102
RTVSPropertyOp9
 70
     1
102
RTVSPropertyOp10
 70
     1
102
RTVSPropertyOp11
 70
     1
102
RTVSPropertyOp12
 70
     1
102
RTVSPropertyOp13
 70
     1
102
RTVSPropertyOp14
 70
     1
102
RTVSPropertyOp15
 70
     1
102
RTVSPropertyOp16
 70
     1
102
RTVSPropertyOp17
 70
     1
102
RTVSPropertyOp18
 70
     1
102
RTVSPropertyOp19
 70
     1
102
RTVSPropertyOp20
 70
     1
102
RTVSPropertyOp21
 70
     1
102
RTVSPropertyOp22
 70
     1
102
RTVSPropertyOp23
 70
     1
102
RTVSPropertyOp24
 70
     1
102
RTVSPropertyOp25
 70
     1
102
RTVSPropertyOp26
 70
     1
102
RTVSPropertyOp27
 70
     1
102
RTVSPropertyOp28
 70
     1
102
RTVSPropertyOp29
 70
     1
102
RTVSPropertyOp30
 70
     1
102
RTVSPropertyOp31
 70
     1
102
RTVSPropertyOp32
 70
     1
  0
XRECORD
  5
15DE
102
{ACAD_REACTORS
330
15DD
102
}
330
15DD
100
AcDbXrecord
280
     1
102
RTVSPropertyOp0
 70
     1
102
RTVSPropertyOp1
 70
     1
102
RTVSPropertyOp2
 70
     1
102
RTVSPropertyOp3
 70
     1
102
RTVSPropertyOp4
 70
     1
102
RTVSPropertyOp5
 70
     1
102
RTVSPropertyOp6
 70
     1
102
RTVSPropertyOp7
 70
     1
102
RTVSPropertyOp8
 70
     1
102
RTVSPropertyOp9
 70
     1
102
RTVSPropertyOp10
 70
     1
102
RTVSPropertyOp11
 70
     1
102
RTVSPropertyOp12
 70
     1
102
RTVSPropertyOp13
 70
     1
102
RTVSPropertyOp14
 70
     1
102
RTVSPropertyOp15
 70
     1
102
RTVSPropertyOp16
 70
     1
102
RTVSPropertyOp17
 70
     1
102
RTVSPropertyOp18
 70
     1
102
RTVSPropertyOp19
 70
     1
102
RTVSPropertyOp20
 70
     1
102
RTVSPropertyOp21
 70
     1
102
RTVSPropertyOp22
 70
     1
102
RTVSPropertyOp23
 70
     1
102
RTVSPropertyOp24
 70
     1
102
RTVSPropertyOp25
 70
     1
102
RTVSPropertyOp26
 70
     1
102
RTVSPropertyOp27
 70
     1
102
RTVSPropertyOp28
 70
     1
102
RTVSPropertyOp29
 70
     1
102
RTVSPropertyOp30
 70
     1
102
RTVSPropertyOp31
 70
     1
102
RTVSPropertyOp32
 70
     1
  0
XRECORD
  5
15E0
102
{ACAD_REACTORS
330
15DF
102
}
330
15DF
100
AcDbXrecord
280
     1
102
RTVSPropertyOp0
 70
     1
102
RTVSPropertyOp1
 70
     1
102
RTVSPropertyOp2
 70
     1
102
RTVSPropertyOp3
 70
     1
102
RTVSPropertyOp4
 70
     1
102
RTVSPropertyOp5
 70
     1
102
RTVSPropertyOp6
 70
     1
102
RTVSPropertyOp7
 70
     1
102
RTVSPropertyOp8
 70
     1
102
RTVSPropertyOp9
 70
     1
102
RTVSPropertyOp10
 70
     1
102
RTVSPropertyOp11
 70
     1
102
RTVSPropertyOp12
 70
     1
102
RTVSPropertyOp13
 70
     1
102
RTVSPropertyOp14
 70
     1
102
RTVSPropertyOp15
 70
     1
102
RTVSPropertyOp16
 70
     1
102
RTVSPropertyOp17
 70
     1
102
RTVSPropertyOp18
 70
     1
102
RTVSPropertyOp19
 70
     1
102
RTVSPropertyOp20
 70
     1
102
RTVSPropertyOp21
 70
     1
102
RTVSPropertyOp22
 70
     1
102
RTVSPropertyOp23
 70
     1
102
RTVSPropertyOp24
 70
     1
102
RTVSPropertyOp25
 70
     1
102
RTVSPropertyOp26
 70
     1
102
RTVSPropertyOp27
 70
     1
102
RTVSPropertyOp28
 70
     1
102
RTVSPropertyOp29
 70
     1
102
RTVSPropertyOp30
 70
     1
102
RTVSPropertyOp31
 70
     1
102
RTVSPropertyOp32
 70
     1
  0
XRECORD
  5
1601
102
{ACAD_REACTORS
330
1600
102
}
330
1600
100
AcDbXrecord
280
     1
102
RTVSPropertyOp0
 70
     1
102
RTVSPropertyOp1
 70
     1
102
RTVSPropertyOp2
 70
     1
102
RTVSPropertyOp3
 70
     1
102
RTVSPropertyOp4
 70
     1
102
RTVSPropertyOp5
 70
     1
102
RTVSPropertyOp6
 70
     1
102
RTVSPropertyOp7
 70
     1
102
RTVSPropertyOp8
 70
     1
102
RTVSPropertyOp9
 70
     1
102
RTVSPropertyOp10
 70
     1
102
RTVSPropertyOp11
 70
     1
102
RTVSPropertyOp12
 70
     1
102
RTVSPropertyOp13
 70
     1
102
RTVSPropertyOp14
 70
     1
102
RTVSPropertyOp15
 70
     1
102
RTVSPropertyOp16
 70
     1
102
RTVSPropertyOp17
 70
     1
102
RTVSPropertyOp18
 70
     1
102
RTVSPropertyOp19
 70
     1
102
RTVSPropertyOp20
 70
     1
102
RTVSPropertyOp21
 70
     1
102
RTVSPropertyOp22
 70
     1
102
RTVSPropertyOp23
 70
     1
102
RTVSPropertyOp24
 70
     1
102
RTVSPropertyOp25
 70
     1
102
RTVSPropertyOp26
 70
     1
102
RTVSPropertyOp27
 70
     1
102
RTVSPropertyOp28
 70
     1
102
RTVSPropertyOp29
 70
     1
102
RTVSPropertyOp30
 70
     1
102
RTVSPropertyOp31
 70
     1
102
RTVSPropertyOp32
 70
     1
  0
XRECORD
  5
160D
102
{ACAD_REACTORS
330
160C
102
}
330
160C
100
AcDbXrecord
280
     1
102
RTVSPropertyOp0
 70
     0
102
RTVSPropertyOp1
 70
     0
102
RTVSPropertyOp2
 70
     0
102
RTVSPropertyOp3
 70
     0
102
RTVSPropertyOp4
 70
     0
102
RTVSPropertyOp5
 70
     0
102
RTVSPropertyOp6
 70
     0
102
RTVSPropertyOp7
 70
     0
102
RTVSPropertyOp8
 70
     0
102
RTVSPropertyOp9
 70
     0
102
RTVSPropertyOp10
 70
     0
102
RTVSPropertyOp11
 70
     0
102
RTVSPropertyOp12
 70
     0
102
RTVSPropertyOp13
 70
     0
102
RTVSPropertyOp14
 70
     2
102
RTVSPropertyOp15
 70
     0
102
RTVSPropertyOp16
 70
     0
102
RTVSPropertyOp17
 70
     0
102
RTVSPropertyOp18
 70
     0
102
RTVSPropertyOp19
 70
     0
102
RTVSPropertyOp20
 70
     0
102
RTVSPropertyOp21
 70
     0
102
RTVSPropertyOp22
 70
     0
102
RTVSPropertyOp23
 70
     0
102
RTVSPropertyOp24
 70
     0
102
RTVSPropertyOp25
 70
     0
102
RTVSPropertyOp26
 70
     0
102
RTVSPropertyOp27
 70
     0
102
RTVSPropertyOp28
 70
     0
102
RTVSPropertyOp29
 70
     0
102
RTVSPropertyOp30
 70
     0
102
RTVSPropertyOp31
 70
     0
102
RTVSPropertyOp32
 70
     0
  0
XRECORD
  5
15F4
102
{ACAD_REACTORS
330
15F3
102
}
330
15F3
100
AcDbXrecord
280
     1
102
RTVSPropertyOp0
 70
     1
102
RTVSPropertyOp1
 70
     1
102
RTVSPropertyOp2
 70
     1
102
RTVSPropertyOp3
 70
     1
102
RTVSPropertyOp4
 70
     1
102
RTVSPropertyOp5
 70
     1
102
RTVSPropertyOp6
 70
     1
102
RTVSPropertyOp7
 70
     1
102
RTVSPropertyOp8
 70
     1
102
RTVSPropertyOp9
 70
     1
102
RTVSPropertyOp10
 70
     1
102
RTVSPropertyOp11
 70
     1
102
RTVSPropertyOp12
 70
     1
102
RTVSPropertyOp13
 70
     1
102
RTVSPropertyOp14
 70
     1
102
RTVSPropertyOp15
 70
     1
102
RTVSPropertyOp16
 70
     1
102
RTVSPropertyOp17
 70
     1
102
RTVSPropertyOp18
 70
     1
102
RTVSPropertyOp19
 70
     1
102
RTVSPropertyOp20
 70
     1
102
RTVSPropertyOp21
 70
     1
102
RTVSPropertyOp22
 70
     1
102
RTVSPropertyOp23
 70
     1
102
RTVSPropertyOp24
 70
     1
102
RTVSPropertyOp25
 70
     1
102
RTVSPropertyOp26
 70
     1
102
RTVSPropertyOp27
 70
     1
102
RTVSPropertyOp28
 70
     1
102
RTVSPropertyOp29
 70
     1
102
RTVSPropertyOp30
 70
     1
102
RTVSPropertyOp31
 70
     1
102
RTVSPropertyOp32
 70
     1
  0
XRECORD
  5
160F
102
{ACAD_REACTORS
330
160E
102
}
330
160E
100
AcDbXrecord
280
     1
102
RTVSPropertyOp0
 70
     0
102
RTVSPropertyOp1
 70
     0
102
RTVSPropertyOp2
 70
     0
102
RTVSPropertyOp3
 70
     0
102
RTVSPropertyOp4
 70
     0
102
RTVSPropertyOp5
 70
     0
102
RTVSPropertyOp6
 70
     0
102
RTVSPropertyOp7
 70
     0
102
RTVSPropertyOp8
 70
     0
102
RTVSPropertyOp9
 70
     0
102
RTVSPropertyOp10
 70
     0
102
RTVSPropertyOp11
 70
     0
102
RTVSPropertyOp12
 70
     0
102
RTVSPropertyOp13
 70
     0
102
RTVSPropertyOp14
 70
     2
102
RTVSPropertyOp15
 70
     0
102
RTVSPropertyOp16
 70
     0
102
RTVSPropertyOp17
 70
     0
102
RTVSPropertyOp18
 70
     0
102
RTVSPropertyOp19
 70
     0
102
RTVSPropertyOp20
 70
     0
102
RTVSPropertyOp21
 70
     0
102
RTVSPropertyOp22
 70
     0
102
RTVSPropertyOp23
 70
     0
102
RTVSPropertyOp24
 70
     0
102
RTVSPropertyOp25
 70
     0
102
RTVSPropertyOp26
 70
     0
102
RTVSPropertyOp27
 70
     0
102
RTVSPropertyOp28
 70
     0
102
RTVSPropertyOp29
 70
     0
102
RTVSPropertyOp30
 70
     0
102
RTVSPropertyOp31
 70
     0
102
RTVSPropertyOp32
 70
     0
  0
XRECORD
  5
15EC
102
{ACAD_REACTORS
330
15EB
102
}
330
15EB
100
AcDbXrecord
280
     1
102
RTVSPropertyOp0
 70
     1
102
RTVSPropertyOp1
 70
     1
102
RTVSPropertyOp2
 70
     1
102
RTVSPropertyOp3
 70
     1
102
RTVSPropertyOp4
 70
     1
102
RTVSPropertyOp5
 70
     1
102
RTVSPropertyOp6
 70
     1
102
RTVSPropertyOp7
 70
     1
102
RTVSPropertyOp8
 70
     1
102
RTVSPropertyOp9
 70
     1
102
RTVSPropertyOp10
 70
     1
102
RTVSPropertyOp11
 70
     1
102
RTVSPropertyOp12
 70
     1
102
RTVSPropertyOp13
 70
     1
102
RTVSPropertyOp14
 70
     1
102
RTVSPropertyOp15
 70
     1
102
RTVSPropertyOp16
 70
     1
102
RTVSPropertyOp17
 70
     1
102
RTVSPropertyOp18
 70
     1
102
RTVSPropertyOp19
 70
     1
102
RTVSPropertyOp20
 70
     1
102
RTVSPropertyOp21
 70
     1
102
RTVSPropertyOp22
 70
     1
102
RTVSPropertyOp23
 70
     1
102
RTVSPropertyOp24
 70
     1
102
RTVSPropertyOp25
 70
     1
102
RTVSPropertyOp26
 70
     1
102
RTVSPropertyOp27
 70
     1
102
RTVSPropertyOp28
 70
     1
102
RTVSPropertyOp29
 70
     1
102
RTVSPropertyOp30
 70
     1
102
RTVSPropertyOp31
 70
     1
102
RTVSPropertyOp32
 70
     1
  0
XRECORD
  5
160B
102
{ACAD_REACTORS
330
160A
102
}
330
160A
100
AcDbXrecord
280
     1
102
RTVSPropertyOp0
 70
     1
102
RTVSPropertyOp1
 70
     1
102
RTVSPropertyOp2
 70
     1
102
RTVSPropertyOp3
 70
     1
102
RTVSPropertyOp4
 70
     1
102
RTVSPropertyOp5
 70
     1
102
RTVSPropertyOp6
 70
     1
102
RTVSPropertyOp7
 70
     1
102
RTVSPropertyOp8
 70
     1
102
RTVSPropertyOp9
 70
     1
102
RTVSPropertyOp10
 70
     1
102
RTVSPropertyOp11
 70
     1
102
RTVSPropertyOp12
 70
     1
102
RTVSPropertyOp13
 70
     1
102
RTVSPropertyOp14
 70
     1
102
RTVSPropertyOp15
 70
     1
102
RTVSPropertyOp16
 70
     1
102
RTVSPropertyOp17
 70
     1
102
RTVSPropertyOp18
 70
     1
102
RTVSPropertyOp19
 70
     1
102
RTVSPropertyOp20
 70
     1
102
RTVSPropertyOp21
 70
     1
102
RTVSPropertyOp22
 70
     1
102
RTVSPropertyOp23
 70
     1
102
RTVSPropertyOp24
 70
     1
102
RTVSPropertyOp25
 70
     1
102
RTVSPropertyOp26
 70
     1
102
RTVSPropertyOp27
 70
     1
102
RTVSPropertyOp28
 70
     1
102
RTVSPropertyOp29
 70
     1
102
RTVSPropertyOp30
 70
     1
102
RTVSPropertyOp31
 70
     1
102
RTVSPropertyOp32
 70
     1
  0
XRECORD
  5
1609
102
{ACAD_REACTORS
330
1608
102
}
330
1608
100
AcDbXrecord
280
     1
102
RTVSPropertyOp0
 70
     1
102
RTVSPropertyOp1
 70
     1
102
RTVSPropertyOp2
 70
     1
102
RTVSPropertyOp3
 70
     1
102
RTVSPropertyOp4
 70
     1
102
RTVSPropertyOp5
 70
     1
102
RTVSPropertyOp6
 70
     1
102
RTVSPropertyOp7
 70
     1
102
RTVSPropertyOp8
 70
     1
102
RTVSPropertyOp9
 70
     1
102
RTVSPropertyOp10
 70
     1
102
RTVSPropertyOp11
 70
     1
102
RTVSPropertyOp12
 70
     1
102
RTVSPropertyOp13
 70
     1
102
RTVSPropertyOp14
 70
     1
102
RTVSPropertyOp15
 70
     1
102
RTVSPropertyOp16
 70
     1
102
RTVSPropertyOp17
 70
     1
102
RTVSPropertyOp18
 70
     1
102
RTVSPropertyOp19
 70
     1
102
RTVSPropertyOp20
 70
     1
102
RTVSPropertyOp21
 70
     1
102
RTVSPropertyOp22
 70
     1
102
RTVSPropertyOp23
 70
     1
102
RTVSPropertyOp24
 70
     1
102
RTVSPropertyOp25
 70
     1
102
RTVSPropertyOp26
 70
     1
102
RTVSPropertyOp27
 70
     1
102
RTVSPropertyOp28
 70
     1
102
RTVSPropertyOp29
 70
     1
102
RTVSPropertyOp30
 70
     1
102
RTVSPropertyOp31
 70
     1
102
RTVSPropertyOp32
 70
     1
  0
XRECORD
  5
1603
102
{ACAD_REACTORS
330
1602
102
}
330
1602
100
AcDbXrecord
280
     1
102
RTVSPropertyOp0
 70
     1
102
RTVSPropertyOp1
 70
     1
102
RTVSPropertyOp2
 70
     1
102
RTVSPropertyOp3
 70
     1
102
RTVSPropertyOp4
 70
     1
102
RTVSPropertyOp5
 70
     1
102
RTVSPropertyOp6
 70
     1
102
RTVSPropertyOp7
 70
     1
102
RTVSPropertyOp8
 70
     1
102
RTVSPropertyOp9
 70
     1
102
RTVSPropertyOp10
 70
     1
102
RTVSPropertyOp11
 70
     1
102
RTVSPropertyOp12
 70
     1
102
RTVSPropertyOp13
 70
     1
102
RTVSPropertyOp14
 70
     1
102
RTVSPropertyOp15
 70
     1
102
RTVSPropertyOp16
 70
     1
102
RTVSPropertyOp17
 70
     1
102
RTVSPropertyOp18
 70
     1
102
RTVSPropertyOp19
 70
     1
102
RTVSPropertyOp20
 70
     1
102
RTVSPropertyOp21
 70
     1
102
RTVSPropertyOp22
 70
     1
102
RTVSPropertyOp23
 70
     1
102
RTVSPropertyOp24
 70
     1
102
RTVSPropertyOp25
 70
     1
102
RTVSPropertyOp26
 70
     1
102
RTVSPropertyOp27
 70
     1
102
RTVSPropertyOp28
 70
     1
102
RTVSPropertyOp29
 70
     1
102
RTVSPropertyOp30
 70
     1
102
RTVSPropertyOp31
 70
     1
102
RTVSPropertyOp32
 70
     1
  0
XRECORD
  5
1605
102
{ACAD_REACTORS
330
1604
102
}
330
1604
100
AcDbXrecord
280
     1
102
RTVSPropertyOp0
 70
     1
102
RTVSPropertyOp1
 70
     1
102
RTVSPropertyOp2
 70
     1
102
RTVSPropertyOp3
 70
     1
102
RTVSPropertyOp4
 70
     1
102
RTVSPropertyOp5
 70
     1
102
RTVSPropertyOp6
 70
     1
102
RTVSPropertyOp7
 70
     1
102
RTVSPropertyOp8
 70
     1
102
RTVSPropertyOp9
 70
     1
102
RTVSPropertyOp10
 70
     1
102
RTVSPropertyOp11
 70
     1
102
RTVSPropertyOp12
 70
     1
102
RTVSPropertyOp13
 70
     1
102
RTVSPropertyOp14
 70
     1
102
RTVSPropertyOp15
 70
     1
102
RTVSPropertyOp16
 70
     1
102
RTVSPropertyOp17
 70
     1
102
RTVSPropertyOp18
 70
     1
102
RTVSPropertyOp19
 70
     1
102
RTVSPropertyOp20
 70
     1
102
RTVSPropertyOp21
 70
     1
102
RTVSPropertyOp22
 70
     1
102
RTVSPropertyOp23
 70
     1
102
RTVSPropertyOp24
 70
     1
102
RTVSPropertyOp25
 70
     1
102
RTVSPropertyOp26
 70
     1
102
RTVSPropertyOp27
 70
     1
102
RTVSPropertyOp28
 70
     1
102
RTVSPropertyOp29
 70
     1
102
RTVSPropertyOp30
 70
     1
102
RTVSPropertyOp31
 70
     1
102
RTVSPropertyOp32
 70
     1
  0
XRECORD
  5
15F2
102
{ACAD_REACTORS
330
15F1
102
}
330
15F1
100
AcDbXrecord
280
     1
102
RTVSPropertyOp0
 70
     1
102
RTVSPropertyOp1
 70
     1
102
RTVSPropertyOp2
 70
     1
102
RTVSPropertyOp3
 70
     1
102
RTVSPropertyOp4
 70
     1
102
RTVSPropertyOp5
 70
     1
102
RTVSPropertyOp6
 70
     1
102
RTVSPropertyOp7
 70
     1
102
RTVSPropertyOp8
 70
     1
102
RTVSPropertyOp9
 70
     1
102
RTVSPropertyOp10
 70
     1
102
RTVSPropertyOp11
 70
     1
102
RTVSPropertyOp12
 70
     1
102
RTVSPropertyOp13
 70
     1
102
RTVSPropertyOp14
 70
     1
102
RTVSPropertyOp15
 70
     1
102
RTVSPropertyOp16
 70
     1
102
RTVSPropertyOp17
 70
     1
102
RTVSPropertyOp18
 70
     1
102
RTVSPropertyOp19
 70
     1
102
RTVSPropertyOp20
 70
     1
102
RTVSPropertyOp21
 70
     1
102
RTVSPropertyOp22
 70
     1
102
RTVSPropertyOp23
 70
     1
102
RTVSPropertyOp24
 70
     1
102
RTVSPropertyOp25
 70
     1
102
RTVSPropertyOp26
 70
     1
102
RTVSPropertyOp27
 70
     1
102
RTVSPropertyOp28
 70
     1
102
RTVSPropertyOp29
 70
     1
102
RTVSPropertyOp30
 70
     1
102
RTVSPropertyOp31
 70
     1
102
RTVSPropertyOp32
 70
     1
  0
XRECORD
  5
15FF
102
{ACAD_REACTORS
330
15FE
102
}
330
15FE
100
AcDbXrecord
280
     1
102
RTVSPropertyOp0
 70
     1
102
RTVSPropertyOp1
 70
     1
102
RTVSPropertyOp2
 70
     1
102
RTVSPropertyOp3
 70
     1
102
RTVSPropertyOp4
 70
     1
102
RTVSPropertyOp5
 70
     1
102
RTVSPropertyOp6
 70
     1
102
RTVSPropertyOp7
 70
     1
102
RTVSPropertyOp8
 70
     1
102
RTVSPropertyOp9
 70
     1
102
RTVSPropertyOp10
 70
     1
102
RTVSPropertyOp11
 70
     1
102
RTVSPropertyOp12
 70
     1
102
RTVSPropertyOp13
 70
     1
102
RTVSPropertyOp14
 70
     1
102
RTVSPropertyOp15
 70
     1
102
RTVSPropertyOp16
 70
     1
102
RTVSPropertyOp17
 70
     1
102
RTVSPropertyOp18
 70
     1
102
RTVSPropertyOp19
 70
     1
102
RTVSPropertyOp20
 70
     1
102
RTVSPropertyOp21
 70
     1
102
RTVSPropertyOp22
 70
     1
102
RTVSPropertyOp23
 70
     1
102
RTVSPropertyOp24
 70
     1
102
RTVSPropertyOp25
 70
     1
102
RTVSPropertyOp26
 70
     1
102
RTVSPropertyOp27
 70
     1
102
RTVSPropertyOp28
 70
     1
102
RTVSPropertyOp29
 70
     1
102
RTVSPropertyOp30
 70
     1
102
RTVSPropertyOp31
 70
     1
102
RTVSPropertyOp32
 70
     1
  0
XRECORD
  5
1607
102
{ACAD_REACTORS
330
1606
102
}
330
1606
100
AcDbXrecord
280
     1
102
RTVSPropertyOp0
 70
     1
102
RTVSPropertyOp1
 70
     1
102
RTVSPropertyOp2
 70
     1
102
RTVSPropertyOp3
 70
     1
102
RTVSPropertyOp4
 70
     1
102
RTVSPropertyOp5
 70
     1
102
RTVSPropertyOp6
 70
     1
102
RTVSPropertyOp7
 70
     1
102
RTVSPropertyOp8
 70
     1
102
RTVSPropertyOp9
 70
     1
102
RTVSPropertyOp10
 70
     1
102
RTVSPropertyOp11
 70
     1
102
RTVSPropertyOp12
 70
     1
102
RTVSPropertyOp13
 70
     1
102
RTVSPropertyOp14
 70
     1
102
RTVSPropertyOp15
 70
     1
102
RTVSPropertyOp16
 70
     1
102
RTVSPropertyOp17
 70
     1
102
RTVSPropertyOp18
 70
     1
102
RTVSPropertyOp19
 70
     1
102
RTVSPropertyOp20
 70
     1
102
RTVSPropertyOp21
 70
     1
102
RTVSPropertyOp22
 70
     1
102
RTVSPropertyOp23
 70
     1
102
RTVSPropertyOp24
 70
     1
102
RTVSPropertyOp25
 70
     1
102
RTVSPropertyOp26
 70
     1
102
RTVSPropertyOp27
 70
     1
102
RTVSPropertyOp28
 70
     1
102
RTVSPropertyOp29
 70
     1
102
RTVSPropertyOp30
 70
     1
102
RTVSPropertyOp31
 70
     1
102
RTVSPropertyOp32
 70
     1
  0
ENDSEC
  0
EOF
