  0
SECTION
  2
HEADER
  9
$ACADVER
  1
AC1015
  9
$ACADMAINTVER
 70
    20
  9
$DWGCODEPAGE
  3
ANSI_932
  9
$INSBASE
 10
0.0
 20
0.0
 30
0.0
  9
$EXTMIN
 10
298.5165739456388
 20
-730.6409347393157
 30
-0.0015258207003583
  9
$EXTMAX
 10
703.6404155006075
 20
-450.8360669857397
 30
0.0000000349246037
  9
$LIMMIN
 10
-124.801323
 20
-725.716698
  9
$LIMMAX
 10
152.210091
 20
-537.242103
  9
$ORTHOMODE
 70
     1
  9
$REGENMODE
 70
     1
  9
$FILLMODE
 70
     1
  9
$QTEXTMODE
 70
     0
  9
$MIRRTEXT
 70
     0
  9
$LTSCALE
 40
4.616823999999998
  9
$ATTMODE
 70
     1
  9
$TEXTSIZE
 40
3.2
  9
$TRACEWID
 40
0.05
  9
$TEXTSTYLE
  7
高3.2
  9
$CLAYER
  8
0
  9
$CELTYPE
  6
CONTINUOUS
  9
$CECOLOR
 62
   256
  9
$CELTSCALE
 40
1.0
  9
$DISPSILH
 70
     0
  9
$DIMSCALE
 40
1.0
  9
$DIMASZ
 40
2.5
  9
$DIMEXO
 40
0.25
  9
$DIMDLI
 40
0.2
  9
$DIMRND
 40
0.0
  9
$DIMDLE
 40
0.0
  9
$DIMEXE
 40
1.25
  9
$DIMTP
 40
0.0
  9
$DIMTM
 40
0.0
  9
$DIMTXT
 40
2.5
  9
$DIMCEN
 40
0.0
  9
$DIMTSZ
 40
0.0
  9
$DIMTOL
 70
     0
  9
$DIMLIM
 70
     0
  9
$DIMTIH
 70
     0
  9
$DIMTOH
 70
     0
  9
$DIMSE1
 70
     0
  9
$DIMSE2
 70
     0
  9
$DIMTAD
 70
     3
  9
$DIMZIN
 70
     8
  9
$DIMBLK
  1
Open30
  9
$DIMASO
 70
     1
  9
$DIMSHO
 70
     1
  9
$DIMPOST
  1

  9
$DIMAPOST
  1

  9
$DIMALT
 70
     0
  9
$DIMALTD
 70
     3
  9
$DIMALTF
 40
0.03937007874016
  9
$DIMLFAC
 40
1.0
  9
$DIMTOFL
 70
     1
  9
$DIMTVP
 40
0.0
  9
$DIMTIX
 70
     0
  9
$DIMSOXD
 70
     0
  9
$DIMSAH
 70
     0
  9
$DIMBLK1
  1

  9
$DIMBLK2
  1

  9
$DIMSTYLE
  2
1：1
  9
$DIMCLRD
 70
     0
  9
$DIMCLRE
 70
     0
  9
$DIMCLRT
 70
     4
  9
$DIMTFAC
 40
1.0
  9
$DIMGAP
 40
0.625
  9
$DIMJUST
 70
     0
  9
$DIMSD1
 70
     0
  9
$DIMSD2
 70
     0
  9
$DIMTOLJ
 70
     0
  9
$DIMTZIN
 70
     8
  9
$DIMALTZ
 70
     0
  9
$DIMALTTZ
 70
     0
  9
$DIMUPT
 70
     1
  9
$DIMDEC
 70
     2
  9
$DIMTDEC
 70
     2
  9
$DIMALTU
 70
     2
  9
$DIMALTTD
 70
     3
  9
$DIMTXSTY
  7
STANDARD
  9
$DIMAUNIT
 70
     0
  9
$DIMADEC
 70
     1
  9
$DIMALTRND
 40
0.0
  9
$DIMAZIN
 70
     2
  9
$DIMDSEP
 70
    46
  9
$DIMATFIT
 70
     0
  9
$DIMFRAC
 70
     0
  9
$DIMLDRBLK
  1
Open30
  9
$DIMLUNIT
 70
     2
  9
$DIMLWD
 70
    -2
  9
$DIMLWE
 70
    -2
  9
$DIMTMOVE
 70
     0
  9
$LUNITS
 70
     2
  9
$LUPREC
 70
     4
  9
$SKETCHINC
 40
0.1
  9
$FILLETRAD
 40
0.0
  9
$AUNITS
 70
     0
  9
$AUPREC
 70
     0
  9
$MENU
  1
.
  9
$ELEVATION
 40
0.0
  9
$PELEVATION
 40
0.0
  9
$THICKNESS
 40
0.0
  9
$LIMCHECK
 70
     0
  9
$CHAMFERA
 40
0.0
  9
$CHAMFERB
 40
0.0
  9
$CHAMFERC
 40
0.0
  9
$CHAMFERD
 40
0.0
  9
$SKPOLY
 70
     0
  9
$TDCREATE
 40
2455418.575288079
  9
$TDUCREATE
 40
2455418.200288079
  9
$TDUPDATE
 40
2456577.581173553
  9
$TDUUPDATE
 40
2456577.206173553
  9
$TDINDWG
 40
0.1797811227
  9
$TDUSRTIMER
 40
0.1797809954
  9
$USRTIMER
 70
     1
  9
$ANGBASE
 50
0.0
  9
$ANGDIR
 70
     0
  9
$PDMODE
 70
     0
  9
$PDSIZE
 40
0.0
  9
$PLINEWID
 40
0.0
  9
$SPLFRAME
 70
     0
  9
$SPLINETYPE
 70
     6
  9
$SPLINESEGS
 70
     8
  9
$HANDSEED
  5
129D
  9
$SURFTAB1
 70
     6
  9
$SURFTAB2
 70
     6
  9
$SURFTYPE
 70
     6
  9
$SURFU
 70
     6
  9
$SURFV
 70
     6
  9
$UCSBASE
  2

  9
$UCSNAME
  2

  9
$UCSORG
 10
0.0
 20
0.0
 30
0.0
  9
$UCSXDIR
 10
1.0
 20
0.0
 30
0.0
  9
$UCSYDIR
 10
0.0
 20
1.0
 30
0.0
  9
$UCSORTHOREF
  2

  9
$UCSORTHOVIEW
 70
     0
  9
$UCSORGTOP
 10
0.0
 20
0.0
 30
0.0
  9
$UCSORGBOTTOM
 10
0.0
 20
0.0
 30
0.0
  9
$UCSORGLEFT
 10
0.0
 20
0.0
 30
0.0
  9
$UCSORGRIGHT
 10
0.0
 20
0.0
 30
0.0
  9
$UCSORGFRONT
 10
0.0
 20
0.0
 30
0.0
  9
$UCSORGBACK
 10
0.0
 20
0.0
 30
0.0
  9
$PUCSBASE
  2

  9
$PUCSNAME
  2

  9
$PUCSORG
 10
0.0
 20
0.0
 30
0.0
  9
$PUCSXDIR
 10
1.0
 20
0.0
 30
0.0
  9
$PUCSYDIR
 10
0.0
 20
1.0
 30
0.0
  9
$PUCSORTHOREF
  2

  9
$PUCSORTHOVIEW
 70
     0
  9
$PUCSORGTOP
 10
0.0
 20
0.0
 30
0.0
  9
$PUCSORGBOTTOM
 10
0.0
 20
0.0
 30
0.0
  9
$PUCSORGLEFT
 10
0.0
 20
0.0
 30
0.0
  9
$PUCSORGRIGHT
 10
0.0
 20
0.0
 30
0.0
  9
$PUCSORGFRONT
 10
0.0
 20
0.0
 30
0.0
  9
$PUCSORGBACK
 10
0.0
 20
0.0
 30
0.0
  9
$USERI1
 70
     0
  9
$USERI2
 70
     0
  9
$USERI3
 70
     0
  9
$USERI4
 70
     0
  9
$USERI5
 70
     0
  9
$USERR1
 40
0.0
  9
$USERR2
 40
0.0
  9
$USERR3
 40
0.0
  9
$USERR4
 40
0.0
  9
$USERR5
 40
0.0
  9
$WORLDVIEW
 70
     1
  9
$SHADEDGE
 70
     3
  9
$SHADEDIF
 70
    70
  9
$TILEMODE
 70
     1
  9
$MAXACTVP
 70
    64
  9
$PINSBASE
 10
0.0
 20
0.0
 30
0.0
  9
$PLIMCHECK
 70
     0
  9
$PEXTMIN
 10
1.000000000000000E+20
 20
1.000000000000000E+20
 30
1.000000000000000E+20
  9
$PEXTMAX
 10
-1.000000000000000E+20
 20
-1.000000000000000E+20
 30
-1.000000000000000E+20
  9
$PLIMMIN
 10
0.0
 20
0.0
  9
$PLIMMAX
 10
12.0
 20
9.0
  9
$UNITMODE
 70
     0
  9
$VISRETAIN
 70
     1
  9
$PLINEGEN
 70
     0
  9
$PSLTSCALE
 70
     1
  9
$TREEDEPTH
 70
  3020
  9
$CMLSTYLE
  2
Standard
  9
$CMLJUST
 70
     0
  9
$CMLSCALE
 40
1.0
  9
$PROXYGRAPHICS
 70
     1
  9
$MEASUREMENT
 70
     0
  9
$CELWEIGHT
370
    -1
  9
$ENDCAPS
280
     0
  9
$JOINSTYLE
280
     0
  9
$LWDISPLAY
290
     0
  9
$INSUNITS
 70
     0
  9
$HYPERLINKBASE
  1

  9
$STYLESHEET
  1
n-plot.ctb
  9
$XEDIT
290
     1
  9
$CEPSNTYPE
380
     0
  9
$PSTYLEMODE
290
     1
  9
$FINGERPRINTGUID
  2
{C4D6416E-2C5E-4F16-88D6-9F5BD5303C1A}
  9
$VERSIONGUID
  2
{0470DC47-F1E8-4C32-B1C1-41A617BFAD7B}
  9
$EXTNAMES
290
     1
  9
$PSVPSCALE
 40
0.0
  9
$OLESTARTUP
290
     0
  0
ENDSEC
  0
SECTION
  2
CLASSES
  0
CLASS
  1
ACDBDICTIONARYWDFLT
  2
AcDbDictionaryWithDefault
  3
ObjectDBX Classes
 90
        0
280
     0
281
     0
  0
CLASS
  1
MATERIAL
  2
AcDbMaterial
  3
ObjectDBX Classes
 90
     1153
280
     0
281
     0
  0
CLASS
  1
VISUALSTYLE
  2
AcDbVisualStyle
  3
ObjectDBX Classes
 90
     4095
280
     0
281
     0
  0
CLASS
  1
TABLESTYLE
  2
AcDbTableStyle
  3
ObjectDBX Classes
 90
     4095
280
     0
281
     0
  0
CLASS
  1
DICTIONARYVAR
  2
AcDbDictionaryVar
  3
ObjectDBX Classes
 90
        0
280
     0
281
     0
  0
CLASS
  1
SORTENTSTABLE
  2
AcDbSortentsTable
  3
ObjectDBX Classes
 90
        0
280
     0
281
     0
  0
CLASS
  1
ACDBPLACEHOLDER
  2
AcDbPlaceHolder
  3
ObjectDBX Classes
 90
        0
280
     0
281
     0
  0
CLASS
  1
LAYOUT
  2
AcDbLayout
  3
ObjectDBX Classes
 90
        0
280
     0
281
     0
  0
CLASS
  1
SCALE
  2
AcDbScale
  3
ObjectDBX Classes
 90
     1153
280
     0
281
     0
  0
CLASS
  1
MLEADERSTYLE
  2
AcDbMLeaderStyle
  3
ACDB_MLEADERSTYLE_CLASS
 90
     4095
280
     0
281
     0
  0
CLASS
  1
CELLSTYLEMAP
  2
AcDbCellStyleMap
  3
ObjectDBX Classes
 90
     1152
280
     0
281
     0
  0
ENDSEC
  0
SECTION
  2
TABLES
  0
TABLE
  2
VPORT
  5
8
330
0
100
AcDbSymbolTable
 70
     1
  0
VPORT
  5
56
330
8
100
AcDbSymbolTableRecord
100
AcDbViewportTableRecord
  2
*Active
 70
     0
 10
0.0
 20
0.0
 11
1.0
 21
1.0
 12
509.9625385674199
 22
-588.6434443035852
 13
0.0
 23
0.0
 14
1.0
 24
1.0
 15
0.0
 25
0.0
 16
0.0
 26
0.0
 36
1.0
 17
0.0
 27
0.0
 37
0.0
 40
528.9671979125231
 41
1.31156462585034
 42
50.0
 43
0.0
 44
0.0
 50
0.0
 51
0.0
 71
     0
 72
  1000
 73
     1
 74
     1
 75
     0
 76
     0
 77
     0
 78
     0
281
     0
 65
     1
110
0.0
120
0.0
130
0.0
111
1.0
121
0.0
131
0.0
112
0.0
122
1.0
132
0.0
 79
     0
146
0.0
  0
ENDTAB
  0
TABLE
  2
LTYPE
  5
5
330
0
100
AcDbSymbolTable
 70
     3
  0
LTYPE
  5
28
330
5
100
AcDbSymbolTableRecord
100
AcDbLinetypeTableRecord
  2
ByBlock
 70
     0
  3

 72
    65
 73
     0
 40
0.0
  0
LTYPE
  5
29
330
5
100
AcDbSymbolTableRecord
100
AcDbLinetypeTableRecord
  2
ByLayer
 70
     0
  3

 72
    65
 73
     0
 40
0.0
  0
LTYPE
  5
2A
330
5
100
AcDbSymbolTableRecord
100
AcDbLinetypeTableRecord
  2
CONTINUOUS
 70
     0
  3
Solid-line
 72
    65
 73
     0
 40
0.0
  0
LTYPE
  5
3D
330
5
100
AcDbSymbolTableRecord
100
AcDbLinetypeTableRecord
  2
CENTER
 70
     0
  3
CENTER
 72
    65
 73
     4
 40
2.0
 49
1.25
 74
     0
 49
-0.25
 74
     0
 49
0.25
 74
     0
 49
-0.25
 74
     0
  0
ENDTAB
  0
TABLE
  2
LAYER
  5
2
102
{ACAD_XDICTIONARY
360
575
102
}
330
0
100
AcDbSymbolTable
 70
     2
  0
LAYER
  5
25
102
{ACAD_XDICTIONARY
360
DB0
102
}
330
2
100
AcDbSymbolTableRecord
100
AcDbLayerTableRecord
  2
0
 70
     0
 62
     7
  6
CONTINUOUS
370
    -3
390
F
  0
LAYER
  5
56C
330
2
100
AcDbSymbolTableRecord
100
AcDbLayerTableRecord
  2
Defpoints
 70
     0
 62
     7
  6
CONTINUOUS
290
     0
370
    -3
390
F
  0
ENDTAB
  0
TABLE
  2
STYLE
  5
3
330
0
100
AcDbSymbolTable
 70
     7
  0
STYLE
  5
26
330
3
100
AcDbSymbolTableRecord
100
AcDbTextStyleTableRecord
  2
STANDARD
 70
     0
 40
0.0
 41
1.0
 50
0.0
 71
     0
 42
0.2
  3
TXT
  4
BIGFONT
  0
STYLE
  5
56D
330
3
100
AcDbSymbolTableRecord
100
AcDbTextStyleTableRecord
  2
高3.2
 70
     0
 40
3.2
 41
1.0
 50
0.0
 71
     0
 42
3.2
  3
txt.shx
  4
bigfont.shx
  0
STYLE
  5
939
330
3
100
AcDbSymbolTableRecord
100
AcDbTextStyleTableRecord
  2
高6.3
 70
     0
 40
6.299999999999998
 41
1.0
 50
0.0
 71
     0
 42
6.299999999999998
  3
txt.shx
  4
bigfont.shx
  0
STYLE
  5
93B
330
3
100
AcDbSymbolTableRecord
100
AcDbTextStyleTableRecord
  2
高2
 70
     0
 40
2.0
 41
1.0
 50
0.0
 71
     0
 42
6.299999999999998
  3
txt.shx
  4
bigfont.shx
  0
STYLE
  5
93C
330
3
100
AcDbSymbolTableRecord
100
AcDbTextStyleTableRecord
  2
高4.5
 70
     0
 40
4.5
 41
1.0
 50
0.0
 71
     0
 42
6.299999999999998
  3
txt.shx
  4
bigfont.shx
  0
STYLE
  5
F5F
330
3
100
AcDbSymbolTableRecord
100
AcDbTextStyleTableRecord
  2
高2.5
 70
     0
 40
2.5
 41
1.0
 50
0.0
 71
     0
 42
0.2
  3
txt.shx
  4
bigfont.shx
  0
ENDTAB
  0
TABLE
  2
VIEW
  5
6
330
0
100
AcDbSymbolTable
 70
     0
  0
ENDTAB
  0
TABLE
  2
UCS
  5
7
330
0
100
AcDbSymbolTable
 70
     0
  0
ENDTAB
  0
TABLE
  2
APPID
  5
9
330
0
100
AcDbSymbolTable
 70
    12
  0
APPID
  5
27
330
9
100
AcDbSymbolTableRecord
100
AcDbRegAppTableRecord
  2
ACAD
 70
     0
  0
APPID
  5
54B
330
9
100
AcDbSymbolTableRecord
100
AcDbRegAppTableRecord
  2
ACAD_PSEXT
 70
     0
  0
APPID
  5
574
330
9
100
AcDbSymbolTableRecord
100
AcDbRegAppTableRecord
  2
ACAD_DSTYLE_DIMJOGGED_JOGANGLE_SYMBOL
 70
     0
  0
APPID
  5
8E5
330
9
100
AcDbSymbolTableRecord
100
AcDbRegAppTableRecord
  2
ACAD_EXEMPT_FROM_CAD_STANDARDS
 70
     0
  0
APPID
  5
CA0
330
9
100
AcDbSymbolTableRecord
100
AcDbRegAppTableRecord
  2
ACAD_DSTYLE_DIMARC_LENGTH_SYMBOL
 70
     0
  0
APPID
  5
CA1
330
9
100
AcDbSymbolTableRecord
100
AcDbRegAppTableRecord
  2
ACAD_DSTYLE_DIMEXT_LENGTH
 70
     0
  0
APPID
  5
D7E
330
9
100
AcDbSymbolTableRecord
100
AcDbRegAppTableRecord
  2
AcAecLayerStandard
 70
     0
  0
APPID
  5
D7F
330
9
100
AcDbSymbolTableRecord
100
AcDbRegAppTableRecord
  2
AcCmTransparency
 70
     0
  0
APPID
  5
DFE
330
9
100
AcDbSymbolTableRecord
100
AcDbRegAppTableRecord
  2
ACAD_MLEADERVER
 70
     0
  0
APPID
  5
E9B
330
9
100
AcDbSymbolTableRecord
100
AcDbRegAppTableRecord
  2
ACAD_DSTYLE_DIMJAG
 70
     0
  0
APPID
  5
E9C
330
9
100
AcDbSymbolTableRecord
100
AcDbRegAppTableRecord
  2
ACAD_DSTYLE_DIMBREAK
 70
     0
  0
APPID
  5
E9D
330
9
100
AcDbSymbolTableRecord
100
AcDbRegAppTableRecord
  2
ACAD_DSTYLE_DIMTALN
 70
     0
  0
ENDTAB
  0
TABLE
  2
DIMSTYLE
  5
A
330
0
100
AcDbSymbolTable
 70
    12
100
AcDbDimStyleTable
 71
     2
340
56E
340
542
  0
DIMSTYLE
105
542
330
A
100
AcDbSymbolTableRecord
100
AcDbDimStyleTableRecord
  2
Standard
 70
     0
340
26
  0
DIMSTYLE
105
56E
330
A
100
AcDbSymbolTableRecord
100
AcDbDimStyleTableRecord
  2
1：1
 70
     0
 41
2.5
 42
0.25
 43
0.2
 44
1.25
 73
     0
 74
     0
 77
     3
 78
     8
 79
     2
140
2.5
141
0.0
143
0.03937007874016
147
0.625
171
     3
172
     1
178
     4
179
     1
271
     2
272
     2
274
     3
283
     0
284
     8
288
     1
289
     0
340
26
341
55A
342
55A
1001
ACAD_DSTYLE_DIMARC_LENGTH_SYMBOL
1070
   379
1070
     2
1001
ACAD_DSTYLE_DIMEXT_LENGTH
1070
   378
1040
1.25
1001
ACAD_DSTYLE_DIMJOGGED_JOGANGLE_SYMBOL
1070
   384
1040
1.570796326794896
  0
DIMSTYLE
105
E96
330
A
100
AcDbSymbolTableRecord
100
AcDbDimStyleTableRecord
  2
5：1
 70
     0
 41
2.5
 42
0.25
 43
0.2
 44
1.25
 73
     0
 74
     0
 77
     3
 78
     8
 79
     2
140
3.0
141
0.0
143
0.03937007874016
144
0.2
147
0.625
171
     3
172
     1
178
     4
179
     1
271
     2
272
     2
274
     3
283
     0
284
     8
288
     1
289
     0
340
26
341
55A
342
55A
1001
ACAD_DSTYLE_DIMARC_LENGTH_SYMBOL
1070
   379
1070
     2
1001
ACAD_DSTYLE_DIMEXT_LENGTH
1070
   378
1040
1.25
1001
ACAD_DSTYLE_DIMJOGGED_JOGANGLE_SYMBOL
1070
   384
1040
1.570796326794896
  0
DIMSTYLE
105
E97
330
A
100
AcDbSymbolTableRecord
100
AcDbDimStyleTableRecord
  2
1／2
 70
     0
 41
2.5
 42
0.25
 43
0.2
 44
1.25
 73
     0
 74
     0
 77
     3
 78
     8
 79
     2
140
3.0
141
0.0
143
0.03937007874016
144
2.0
147
0.625
171
     3
172
     1
178
     4
179
     1
271
     2
272
     2
274
     3
283
     0
284
     8
288
     1
289
     0
340
26
341
55A
342
55A
1001
ACAD_DSTYLE_DIMARC_LENGTH_SYMBOL
1070
   379
1070
     2
1001
ACAD_DSTYLE_DIMEXT_LENGTH
1070
   378
1040
1.25
1001
ACAD_DSTYLE_DIMJOGGED_JOGANGLE_SYMBOL
1070
   384
1040
1.570796326794896
  0
DIMSTYLE
105
E98
330
A
100
AcDbSymbolTableRecord
100
AcDbDimStyleTableRecord
  2
1／4
 70
     0
 41
2.5
 42
0.25
 43
0.2
 44
1.25
 73
     0
 74
     0
 77
     3
 78
     8
 79
     2
140
3.0
141
0.0
143
0.03937007874016
144
4.0
147
0.625
171
     3
172
     1
178
     4
179
     1
271
     2
272
     2
274
     3
283
     0
284
     8
288
     1
289
     0
340
26
341
55A
342
55A
1001
ACAD_DSTYLE_DIMARC_LENGTH_SYMBOL
1070
   379
1070
     2
1001
ACAD_DSTYLE_DIMEXT_LENGTH
1070
   378
1040
1.25
1001
ACAD_DSTYLE_DIMJOGGED_JOGANGLE_SYMBOL
1070
   384
1040
1.570796326794896
  0
DIMSTYLE
105
E99
330
A
100
AcDbSymbolTableRecord
100
AcDbDimStyleTableRecord
  2
1／3
 70
     0
 41
2.5
 42
0.25
 43
0.2
 44
1.25
 73
     0
 74
     0
 77
     3
 78
     8
 79
     2
140
3.0
141
0.0
143
0.03937007874016
144
3.0
147
0.625
171
     3
172
     1
178
     4
179
     1
271
     2
272
     2
274
     3
283
     0
284
     8
288
     1
289
     0
340
26
341
55A
342
55A
1001
ACAD_DSTYLE_DIMARC_LENGTH_SYMBOL
1070
   379
1070
     2
1001
ACAD_DSTYLE_DIMEXT_LENGTH
1070
   378
1040
1.25
1001
ACAD_DSTYLE_DIMJOGGED_JOGANGLE_SYMBOL
1070
   384
1040
1.570796326794896
  0
DIMSTYLE
105
E9A
330
A
100
AcDbSymbolTableRecord
100
AcDbDimStyleTableRecord
  2
FREE
 70
     0
 41
2.5
 42
0.25
 43
0.2
 44
1.25
 73
     0
 74
     0
 77
     3
 78
     8
 79
     2
140
3.0
141
0.0
143
0.03937007874016
147
0.625
171
     3
172
     1
178
     4
179
     1
271
     2
272
     2
274
     3
283
     0
284
     8
288
     1
289
     0
340
26
341
55A
342
55A
1001
ACAD_DSTYLE_DIMBREAK
1070
   391
1040
3.75
1001
ACAD_DSTYLE_DIMJAG
1070
   388
1040
1.5
1001
ACAD_DSTYLE_DIMTALN
1070
   392
1070
     0
1001
ACAD_DSTYLE_DIMARC_LENGTH_SYMBOL
1070
   379
1070
     2
1001
ACAD_DSTYLE_DIMEXT_LENGTH
1070
   378
1040
1.25
1001
ACAD_DSTYLE_DIMJOGGED_JOGANGLE_SYMBOL
1070
   384
1040
1.570796326794896
  0
DIMSTYLE
105
F60
330
A
100
AcDbSymbolTableRecord
100
AcDbDimStyleTableRecord
  2
2：1
 70
     0
 41
2.5
 42
0.25
 43
0.2
 44
1.25
 73
     0
 74
     0
 77
     3
 78
     8
 79
     2
140
3.0
141
0.0
143
0.03937007874016
144
0.5
147
0.625
171
     3
172
     1
178
     4
179
     1
271
     2
272
     2
274
     3
283
     0
284
     8
288
     1
289
     0
340
26
341
55A
342
55A
1001
ACAD_DSTYLE_DIMARC_LENGTH_SYMBOL
1070
   379
1070
     2
1001
ACAD_DSTYLE_DIMEXT_LENGTH
1070
   378
1040
1.25
1001
ACAD_DSTYLE_DIMJOGGED_JOGANGLE_SYMBOL
1070
   384
1040
1.570796326794896
  0
DIMSTYLE
105
F61
330
A
100
AcDbSymbolTableRecord
100
AcDbDimStyleTableRecord
  2
10：1
 70
     0
 41
2.5
 42
0.25
 43
0.2
 44
1.25
 73
     0
 74
     0
 77
     3
 78
     8
 79
     2
140
3.0
141
0.0
143
0.03937007874016
144
0.1
147
0.625
171
     3
172
     1
178
     4
179
     1
271
     2
272
     2
274
     3
283
     0
284
     8
288
     1
289
     0
340
26
341
55A
342
55A
1001
ACAD_DSTYLE_DIMARC_LENGTH_SYMBOL
1070
   379
1070
     2
1001
ACAD_DSTYLE_DIMEXT_LENGTH
1070
   378
1040
1.25
1001
ACAD_DSTYLE_DIMJOGGED_JOGANGLE_SYMBOL
1070
   384
1040
1.570796326794896
  0
DIMSTYLE
105
F62
330
A
100
AcDbSymbolTableRecord
100
AcDbDimStyleTableRecord
  2
1／5
 70
     0
 41
2.5
 42
0.25
 43
0.2
 44
1.25
 73
     0
 74
     0
 77
     3
 78
     8
 79
     2
140
3.0
141
0.0
143
0.03937007874016
144
5.0
147
0.625
171
     3
172
     1
178
     4
179
     1
271
     2
272
     2
274
     3
283
     0
284
     8
288
     1
289
     0
340
26
341
55A
342
55A
1001
ACAD_DSTYLE_DIMARC_LENGTH_SYMBOL
1070
   379
1070
     2
1001
ACAD_DSTYLE_DIMEXT_LENGTH
1070
   378
1040
1.25
1001
ACAD_DSTYLE_DIMJOGGED_JOGANGLE_SYMBOL
1070
   384
1040
1.570796326794896
  0
DIMSTYLE
105
F63
330
A
100
AcDbSymbolTableRecord
100
AcDbDimStyleTableRecord
  2
1／10
 70
     0
 41
2.5
 42
0.25
 43
0.2
 44
1.25
 73
     0
 74
     0
 77
     3
 78
     8
 79
     2
140
3.0
141
0.0
143
0.03937007874016
144
10.0
147
0.625
171
     3
172
     1
178
     4
179
     1
271
     2
272
     2
274
     3
283
     0
284
     8
288
     1
289
     0
340
26
341
55A
342
55A
1001
ACAD_DSTYLE_DIMARC_LENGTH_SYMBOL
1070
   379
1070
     2
1001
ACAD_DSTYLE_DIMEXT_LENGTH
1070
   378
1040
1.25
1001
ACAD_DSTYLE_DIMJOGGED_JOGANGLE_SYMBOL
1070
   384
1040
1.570796326794896
  0
ENDTAB
  0
TABLE
  2
BLOCK_RECORD
  5
1
330
0
100
AcDbSymbolTable
 70
    27
  0
BLOCK_RECORD
  5
36
102
{ACAD_XDICTIONARY
360
60A
102
}
330
1
100
AcDbSymbolTableRecord
100
AcDbBlockTableRecord
  2
*Model_Space
340
39
  0
BLOCK_RECORD
  5
32
330
1
100
AcDbSymbolTableRecord
100
AcDbBlockTableRecord
  2
*Paper_Space
340
35
  0
BLOCK_RECORD
  5
55A
330
1
100
AcDbSymbolTableRecord
100
AcDbBlockTableRecord
  2
_Open30
340
0
102
{BLKREFS
331
EEB
331
EF8
331
EF9
331
F06
331
F07
331
F14
331
F15
331
F22
331
F23
331
F30
331
F31
331
F3E
331
F3F
331
F4C
331
F4D
331
F58
331
F59
331
EDC
331
EDD
331
EEA
331
100D
331
100E
331
1018
331
1019
331
1023
331
1024
331
102E
331
102F
331
1039
331
103A
331
1044
331
1045
331
104F
331
1050
331
105A
331
105B
331
1065
331
1066
331
106E
331
106F
331
10D2
331
10D3
331
10ED
331
10EE
331
10F6
331
10F7
331
1108
331
1109
331
1125
331
1126
102
}
  0
BLOCK_RECORD
  5
5C0
330
1
100
AcDbSymbolTableRecord
100
AcDbBlockTableRecord
  2
*D1
340
0
  0
BLOCK_RECORD
  5
5E8
330
1
100
AcDbSymbolTableRecord
100
AcDbBlockTableRecord
  2
*D2
340
0
  0
BLOCK_RECORD
  5
785
330
1
100
AcDbSymbolTableRecord
100
AcDbBlockTableRecord
  2
*D3
340
0
  0
BLOCK_RECORD
  5
BEA
330
1
100
AcDbSymbolTableRecord
100
AcDbBlockTableRecord
  2
*D4
340
0
  0
BLOCK_RECORD
  5
C00
330
1
100
AcDbSymbolTableRecord
100
AcDbBlockTableRecord
  2
*D5
340
0
  0
BLOCK_RECORD
  5
ED5
330
1
100
AcDbSymbolTableRecord
100
AcDbBlockTableRecord
  2
*D6
340
0
  0
BLOCK_RECORD
  5
EE3
330
1
100
AcDbSymbolTableRecord
100
AcDbBlockTableRecord
  2
*D7
340
0
  0
BLOCK_RECORD
  5
EF1
330
1
100
AcDbSymbolTableRecord
100
AcDbBlockTableRecord
  2
*D8
340
0
  0
BLOCK_RECORD
  5
EFF
330
1
100
AcDbSymbolTableRecord
100
AcDbBlockTableRecord
  2
*D9
340
0
  0
BLOCK_RECORD
  5
F0D
330
1
100
AcDbSymbolTableRecord
100
AcDbBlockTableRecord
  2
*D10
340
0
  0
BLOCK_RECORD
  5
F1B
330
1
100
AcDbSymbolTableRecord
100
AcDbBlockTableRecord
  2
*D11
340
0
  0
BLOCK_RECORD
  5
F29
330
1
100
AcDbSymbolTableRecord
100
AcDbBlockTableRecord
  2
*D12
340
0
  0
BLOCK_RECORD
  5
F37
330
1
100
AcDbSymbolTableRecord
100
AcDbBlockTableRecord
  2
*D13
340
0
  0
BLOCK_RECORD
  5
F45
330
1
100
AcDbSymbolTableRecord
100
AcDbBlockTableRecord
  2
*D14
340
0
  0
BLOCK_RECORD
  5
F53
330
1
100
AcDbSymbolTableRecord
100
AcDbBlockTableRecord
  2
*D15
340
0
  0
BLOCK_RECORD
  5
F7E
330
1
100
AcDbSymbolTableRecord
100
AcDbBlockTableRecord
  2
*D16
340
0
  0
BLOCK_RECORD
  5
F8C
330
1
100
AcDbSymbolTableRecord
100
AcDbBlockTableRecord
  2
*D17
340
0
  0
BLOCK_RECORD
  5
F9A
330
1
100
AcDbSymbolTableRecord
100
AcDbBlockTableRecord
  2
*D18
340
0
  0
BLOCK_RECORD
  5
FA8
330
1
100
AcDbSymbolTableRecord
100
AcDbBlockTableRecord
  2
*D19
340
0
  0
BLOCK_RECORD
  5
FB6
330
1
100
AcDbSymbolTableRecord
100
AcDbBlockTableRecord
  2
*D20
340
0
  0
BLOCK_RECORD
  5
FC4
330
1
100
AcDbSymbolTableRecord
100
AcDbBlockTableRecord
  2
*D21
340
0
  0
BLOCK_RECORD
  5
FD2
330
1
100
AcDbSymbolTableRecord
100
AcDbBlockTableRecord
  2
*D22
340
0
  0
BLOCK_RECORD
  5
FE0
330
1
100
AcDbSymbolTableRecord
100
AcDbBlockTableRecord
  2
*D23
340
0
  0
BLOCK_RECORD
  5
FEE
330
1
100
AcDbSymbolTableRecord
100
AcDbBlockTableRecord
  2
*D24
340
0
  0
BLOCK_RECORD
  5
FFC
330
1
100
AcDbSymbolTableRecord
100
AcDbBlockTableRecord
  2
*D25
340
0
  0
ENDTAB
  0
ENDSEC
  0
SECTION
  2
BLOCKS
  0
BLOCK
  5
37
330
36
100
AcDbEntity
  8
0
100
AcDbBlockBegin
  2
*Model_Space
 70
     0
 10
0.0
 20
0.0
 30
0.0
  3
*Model_Space
  1

  0
ENDBLK
  5
38
330
36
100
AcDbEntity
  8
0
100
AcDbBlockEnd
  0
BLOCK
  5
33
330
32
100
AcDbEntity
 67
     1
  8
0
100
AcDbBlockBegin
  2
*Paper_Space
 70
     0
 10
0.0
 20
0.0
 30
0.0
  3
*Paper_Space
  1

  0
ENDBLK
  5
34
330
32
100
AcDbEntity
 67
     1
  8
0
100
AcDbBlockEnd
  0
BLOCK
  5
55B
330
55A
100
AcDbEntity
  8
0
100
AcDbBlockBegin
  2
_Open30
 70
     0
 10
0.0
 20
0.0
 30
0.0
  3
_Open30
  1

  0
LINE
  5
55C
330
55A
100
AcDbEntity
  8
0
  6
ByBlock
 62
     0
370
    -2
100
AcDbLine
 10
-1.0
 20
0.267949
 30
0.0
 11
0.0
 21
0.0
 31
0.0
  0
LINE
  5
55D
330
55A
100
AcDbEntity
  8
0
  6
ByBlock
 62
     0
370
    -2
100
AcDbLine
 10
0.0
 20
0.0
 30
0.0
 11
-1.0
 21
-0.267949
 31
0.0
  0
LINE
  5
55E
330
55A
100
AcDbEntity
  8
0
  6
ByBlock
 62
     0
370
    -2
100
AcDbLine
 10
0.0
 20
0.0
 30
0.0
 11
-1.0
 21
0.0
 31
0.0
  0
ENDBLK
  5
55F
330
55A
100
AcDbEntity
  8
0
100
AcDbBlockEnd
  0
BLOCK
  5
5CA
330
5C0
100
AcDbEntity
  8
0
100
AcDbBlockBegin
  2
*D1
 70
     1
 10
0.0
 20
0.0
 30
0.0
  3
*D1
  1

  0
LINE
  5
10EA
330
5C0
100
AcDbEntity
  8
0
  6
Continuous
 62
     0
370
    -2
100
AcDbLine
 10
591.2286884155788
 20
-562.5450744658945
 30
0.0
 11
620.3612784277557
 21
-562.5450744658945
 31
0.0
  0
LINE
  5
10EB
330
5C0
100
AcDbEntity
  8
0
  6
Continuous
 62
     0
370
    -2
100
AcDbLine
 10
607.234332415579
 20
-595.9927624658946
 30
0.0
 11
620.3612784277557
 21
-595.9927624658946
 31
0.0
  0
LINE
  5
10EC
330
5C0
100
AcDbEntity
  8
0
  6
Continuous
 62
     0
370
    -2
100
AcDbLine
 10
619.1112784277557
 20
-565.0450744658944
 30
0.0
 11
619.1112784277557
 21
-593.4927624658946
 31
0.0
  0
INSERT
  5
10ED
330
5C0
100
AcDbEntity
  8
0
  6
Continuous
 62
     0
370
    -2
100
AcDbBlockReference
  2
_Open30
 10
619.1112784277557
 20
-562.5450744658945
 30
0.0
 41
2.5
 42
2.5
 43
2.5
 50
90.0
  0
INSERT
  5
10EE
330
5C0
100
AcDbEntity
  8
0
  6
Continuous
 62
     0
370
    -2
100
AcDbBlockReference
  2
_Open30
 10
619.1112784277557
 20
-595.9927624658946
 30
0.0
 41
2.5
 42
2.5
 43
2.5
 50
270.0
  0
MTEXT
  5
10EF
330
5C0
100
AcDbEntity
  8
0
  6
Continuous
 62
     4
100
AcDbMText
 10
617.2362784277558
 20
-579.3386788278172
 30
0.0
 40
2.5
 41
0.0
 71
     5
 72
     1
  1
34
 11
0.0000000000000001
 21
1.0
 31
0.0
 73
     1
 44
1.0
1001
ACAD
1000
MTEXTBEGIN
1070
    73
1070
     1
1070
    44
1040
1.0
1070
    74
1070
     0
1000
MTEXTEND
  0
POINT
  5
10F0
330
5C0
100
AcDbEntity
  8
Defpoints
  6
Continuous
 62
     0
100
AcDbPoint
 10
590.9786884155789
 20
-562.5450744658945
 30
0.0
  0
POINT
  5
10F1
330
5C0
100
AcDbEntity
  8
Defpoints
  6
Continuous
 62
     0
100
AcDbPoint
 10
606.984332415579
 20
-595.9927624658946
 30
0.0
  0
POINT
  5
10F2
330
5C0
100
AcDbEntity
  8
Defpoints
  6
Continuous
 62
     0
100
AcDbPoint
 10
619.1112784277557
 20
-595.9927624658946
 30
0.0
  0
ENDBLK
  5
5CB
330
5C0
100
AcDbEntity
  8
0
100
AcDbBlockEnd
  0
BLOCK
  5
5F2
330
5E8
100
AcDbEntity
  8
0
100
AcDbBlockBegin
  2
*D2
 70
     1
 10
0.0
 20
0.0
 30
0.0
  3
*D2
  1

  0
LINE
  5
10F3
330
5E8
100
AcDbEntity
  8
0
  6
Continuous
 62
     0
370
    -2
100
AcDbLine
 10
425.7470579607688
 20
-569.3820238767917
 30
0.0
 11
399.5708005862023
 21
-569.3820238767917
 31
0.0
  0
LINE
  5
10F4
330
5E8
100
AcDbEntity
  8
0
  6
Continuous
 62
     0
370
    -2
100
AcDbLine
 10
426.1011394094908
 20
-594.3059564658946
 30
0.0
 11
399.5708005862023
 21
-594.3059564658946
 31
0.0
  0
LINE
  5
10F5
330
5E8
100
AcDbEntity
  8
0
  6
Continuous
 62
     0
370
    -2
100
AcDbLine
 10
400.8208005862022
 20
-571.8820238767917
 30
0.0
 11
400.8208005862022
 21
-591.8059564658945
 31
0.0
  0
INSERT
  5
10F6
330
5E8
100
AcDbEntity
  8
0
  6
Continuous
 62
     0
370
    -2
100
AcDbBlockReference
  2
_Open30
 10
400.8208005862022
 20
-569.3820238767917
 30
0.0
 41
2.5
 42
2.5
 43
2.5
 50
90.0
  0
INSERT
  5
10F7
330
5E8
100
AcDbEntity
  8
0
  6
Continuous
 62
     0
370
    -2
100
AcDbBlockReference
  2
_Open30
 10
400.8208005862022
 20
-594.3059564658946
 30
0.0
 41
2.5
 42
2.5
 43
2.5
 50
270.0
  0
MTEXT
  5
10F8
330
5E8
100
AcDbEntity
  8
0
  6
Continuous
 62
     4
100
AcDbMText
 10
398.9458005862023
 20
-581.8240911276826
 30
0.0
 40
2.5
 41
0.0
 71
     5
 72
     1
  1
25
 11
0.0000000000000001
 21
1.0
 31
0.0
 73
     1
 44
1.0
1001
ACAD
1000
MTEXTBEGIN
1070
    73
1070
     1
1070
    44
1040
1.0
1070
    74
1070
     0
1000
MTEXTEND
  0
POINT
  5
10F9
330
5E8
100
AcDbEntity
  8
Defpoints
  6
Continuous
 62
     0
100
AcDbPoint
 10
425.9970579607688
 20
-569.3820238767917
 30
0.0
  0
POINT
  5
10FA
330
5E8
100
AcDbEntity
  8
Defpoints
  6
Continuous
 62
     0
100
AcDbPoint
 10
426.3511394094908
 20
-594.3059564658946
 30
0.0
  0
POINT
  5
10FB
330
5E8
100
AcDbEntity
  8
Defpoints
  6
Continuous
 62
     0
100
AcDbPoint
 10
400.8208005862022
 20
-594.3059564658946
 30
0.0
  0
ENDBLK
  5
5F3
330
5E8
100
AcDbEntity
  8
0
100
AcDbBlockEnd
  0
BLOCK
  5
78F
330
785
100
AcDbEntity
  8
0
100
AcDbBlockBegin
  2
*D3
 70
     1
 10
0.0
 20
0.0
 30
0.0
  3
*D3
  1

  0
LINE
  5
10CF
330
785
100
AcDbEntity
  8
0
 62
     0
370
    -2
100
AcDbLine
 10
421.8511394094908
 20
-591.0615974658945
 30
0.0
 11
421.8511394094908
 21
-604.2704674658947
 31
0.0
  0
LINE
  5
10D0
330
785
100
AcDbEntity
  8
0
 62
     0
370
    -2
100
AcDbLine
 10
521.8511394094908
 20
-591.0615974658945
 30
0.0
 11
521.8511394094908
 21
-604.2704674658947
 31
0.0
  0
LINE
  5
10D1
330
785
100
AcDbEntity
  8
0
 62
     0
370
    -2
100
AcDbLine
 10
424.3511394094908
 20
-603.0204674658947
 30
0.0
 11
519.3511394094907
 21
-603.0204674658947
 31
0.0
  0
INSERT
  5
10D2
330
785
100
AcDbEntity
  8
0
 62
     0
370
    -2
100
AcDbBlockReference
  2
_Open30
 10
421.8511394094908
 20
-603.0204674658947
 30
0.0
 41
2.5
 42
2.5
 43
2.5
 50
180.0
  0
INSERT
  5
10D3
330
785
100
AcDbEntity
  8
0
 62
     0
370
    -2
100
AcDbBlockReference
  2
_Open30
 10
521.8511394094908
 20
-603.0204674658947
 30
0.0
 41
2.5
 42
2.5
 43
2.5
  0
MTEXT
  5
10D4
330
785
100
AcDbEntity
  8
0
 62
     4
100
AcDbMText
 10
471.8511394094908
 20
-601.1454674658947
 30
0.0
 40
2.5
 41
0.0
 71
     5
 72
     1
  1
100
 73
     1
 44
1.0
1001
ACAD
1000
MTEXTBEGIN
1070
    73
1070
     1
1070
    44
1040
1.0
1070
    74
1070
     0
1000
MTEXTEND
  0
POINT
  5
10D5
330
785
100
AcDbEntity
  8
Defpoints
 62
     0
100
AcDbPoint
 10
421.8511394094908
 20
-590.8115974658946
 30
0.0
  0
POINT
  5
10D6
330
785
100
AcDbEntity
  8
Defpoints
 62
     0
100
AcDbPoint
 10
521.8511394094908
 20
-590.8115974658946
 30
0.0
  0
POINT
  5
10D7
330
785
100
AcDbEntity
  8
Defpoints
 62
     0
100
AcDbPoint
 10
521.8511394094908
 20
-603.0204674658947
 30
0.0
  0
ENDBLK
  5
790
330
785
100
AcDbEntity
  8
0
100
AcDbBlockEnd
  0
BLOCK
  5
BF4
330
BEA
100
AcDbEntity
  8
0
100
AcDbBlockBegin
  2
*D4
 70
     1
 10
0.0
 20
0.0
 30
0.0
  3
*D4
  1

  0
LINE
  5
1122
330
BEA
100
AcDbEntity
  8
0
  6
Continuous
 62
     0
370
    -2
100
AcDbLine
 10
609.9843324155791
 20
-585.7729084658946
 30
0.0
 11
609.9843324155791
 21
-605.3934789827044
 31
0.0
  0
LINE
  5
1123
330
BEA
100
AcDbEntity
  8
0
  6
Continuous
 62
     0
370
    -2
100
AcDbLine
 10
571.973045415579
 20
-585.7729084658946
 30
0.0
 11
571.973045415579
 21
-605.3934789827044
 31
0.0
  0
LINE
  5
1124
330
BEA
100
AcDbEntity
  8
0
  6
Continuous
 62
     0
370
    -2
100
AcDbLine
 10
607.4843324155791
 20
-604.1434789827044
 30
0.0
 11
574.4730454155789
 21
-604.1434789827044
 31
0.0
  0
INSERT
  5
1125
330
BEA
100
AcDbEntity
  8
0
  6
Continuous
 62
     0
370
    -2
100
AcDbBlockReference
  2
_Open30
 10
609.9843324155791
 20
-604.1434789827044
 30
0.0
 41
2.5
 42
2.5
 43
2.5
  0
INSERT
  5
1126
330
BEA
100
AcDbEntity
  8
0
  6
Continuous
 62
     0
370
    -2
100
AcDbBlockReference
  2
_Open30
 10
571.973045415579
 20
-604.1434789827044
 30
0.0
 41
2.5
 42
2.5
 43
2.5
 50
180.0
  0
MTEXT
  5
1127
330
BEA
100
AcDbEntity
  8
0
  6
Continuous
 62
     4
100
AcDbMText
 10
592.3049186102238
 20
-602.2684789827044
 30
0.0
 40
2.5
 41
0.0
 71
     5
 72
     1
  1
38
 73
     1
 44
1.0
1001
ACAD
1000
MTEXTBEGIN
1070
    73
1070
     1
1070
    44
1040
1.0
1070
    74
1070
     0
1000
MTEXTEND
  0
POINT
  5
1128
330
BEA
100
AcDbEntity
  8
Defpoints
  6
Continuous
 62
     0
100
AcDbPoint
 10
609.9843324155791
 20
-585.5229084658946
 30
0.0
  0
POINT
  5
1129
330
BEA
100
AcDbEntity
  8
Defpoints
  6
Continuous
 62
     0
100
AcDbPoint
 10
571.973045415579
 20
-585.5229084658946
 30
0.0
  0
POINT
  5
112A
330
BEA
100
AcDbEntity
  8
Defpoints
  6
Continuous
 62
     0
100
AcDbPoint
 10
571.973045415579
 20
-604.1434789827044
 30
0.0
  0
ENDBLK
  5
BF5
330
BEA
100
AcDbEntity
  8
0
100
AcDbBlockEnd
  0
BLOCK
  5
C0A
330
C00
100
AcDbEntity
  8
0
100
AcDbBlockBegin
  2
*D5
 70
     1
 10
0.0
 20
0.0
 30
0.0
  3
*D5
  1

  0
LINE
  5
1105
330
C00
100
AcDbEntity
  8
0
  6
Continuous
 62
     0
370
    -2
100
AcDbLine
 10
531.9384514094906
 20
-510.4878061854598
 30
0.0
 11
531.9384514094906
 21
-486.5908919721423
 31
0.0
  0
LINE
  5
1106
330
C00
100
AcDbEntity
  8
0
  6
Continuous
 62
     0
370
    -2
100
AcDbLine
 10
411.7638264094908
 20
-510.4878061854598
 30
0.0
 11
411.7638264094908
 21
-486.5908919721423
 31
0.0
  0
LINE
  5
1107
330
C00
100
AcDbEntity
  8
0
  6
Continuous
 62
     0
370
    -2
100
AcDbLine
 10
529.4384514094907
 20
-487.8408919721423
 30
0.0
 11
414.2638264094908
 21
-487.8408919721423
 31
0.0
  0
INSERT
  5
1108
330
C00
100
AcDbEntity
  8
0
  6
Continuous
 62
     0
370
    -2
100
AcDbBlockReference
  2
_Open30
 10
531.9384514094906
 20
-487.8408919721423
 30
0.0
 41
2.5
 42
2.5
 43
2.5
  0
INSERT
  5
1109
330
C00
100
AcDbEntity
  8
0
  6
Continuous
 62
     0
370
    -2
100
AcDbBlockReference
  2
_Open30
 10
411.7638264094908
 20
-487.8408919721423
 30
0.0
 41
2.5
 42
2.5
 43
2.5
 50
180.0
  0
MTEXT
  5
110A
330
C00
100
AcDbEntity
  8
0
  6
Continuous
 62
     4
100
AcDbMText
 10
471.4140349500971
 20
-485.9658919721423
 30
0.0
 40
2.5
 41
0.0
 71
     5
 72
     1
  1
(120)
 73
     1
 44
1.0
1001
ACAD
1000
MTEXTBEGIN
1070
    73
1070
     1
1070
    44
1040
1.0
1070
    74
1070
     0
1000
MTEXTEND
  0
POINT
  5
110B
330
C00
100
AcDbEntity
  8
Defpoints
  6
Continuous
 62
     0
100
AcDbPoint
 10
531.9384514094906
 20
-510.7378061854598
 30
0.0
  0
POINT
  5
110C
330
C00
100
AcDbEntity
  8
Defpoints
  6
Continuous
 62
     0
100
AcDbPoint
 10
411.7638264094908
 20
-510.7378061854598
 30
0.0
  0
POINT
  5
110D
330
C00
100
AcDbEntity
  8
Defpoints
  6
Continuous
 62
     0
100
AcDbPoint
 10
411.7638264094908
 20
-487.8408919721423
 30
0.0
  0
ENDBLK
  5
C0B
330
C00
100
AcDbEntity
  8
0
100
AcDbBlockEnd
  0
BLOCK
  5
ED6
330
ED5
100
AcDbEntity
  8
0
100
AcDbBlockBegin
  2
*D6
 70
     1
 10
0.0
 20
0.0
 30
0.0
  3
*D6
  1

  0
LINE
  5
ED7
330
ED5
100
AcDbEntity
  8
0
 62
     0
370
    -2
100
AcDbLine
 10
-178.2339678749101
 20
-812.0370112307897
 30
0.0
 11
-178.2339678749101
 21
-814.9466426527986
 31
0.0
  0
LINE
  5
ED8
330
ED5
100
AcDbEntity
  8
0
 62
     0
370
    -2
100
AcDbLine
 10
-180.6911549290304
 20
-812.0370112307897
 30
0.0
 11
-180.6911549290304
 21
-814.9466426527986
 31
0.0
  0
LINE
  5
ED9
330
ED5
100
AcDbEntity
  8
0
 62
     0
370
    -2
100
AcDbLine
 10
-175.7339678749101
 20
-813.6966426527985
 30
0.0
 11
-173.2339678749101
 21
-813.6966426527985
 31
0.0
  0
LINE
  5
EDA
330
ED5
100
AcDbEntity
  8
0
 62
     0
370
    -2
100
AcDbLine
 10
-183.1911549290304
 20
-813.6966426527985
 30
0.0
 11
-195.9411549290304
 21
-813.6966426527985
 31
0.0
  0
LINE
  5
EDB
330
ED5
100
AcDbEntity
  8
0
 62
     0
370
    -2
100
AcDbLine
 10
-178.2339678749101
 20
-813.6966426527985
 30
0.0
 11
-180.6911549290304
 21
-813.6966426527985
 31
0.0
  0
INSERT
  5
EDC
330
ED5
100
AcDbEntity
  8
0
 62
     0
370
    -2
100
AcDbBlockReference
  2
_Open30
 10
-178.2339678749101
 20
-813.6966426527985
 30
0.0
 41
2.5
 42
2.5
 43
2.5
 50
180.0
  0
INSERT
  5
EDD
330
ED5
100
AcDbEntity
  8
0
 62
     0
370
    -2
100
AcDbBlockReference
  2
_Open30
 10
-180.6911549290304
 20
-813.6966426527985
 30
0.0
 41
2.5
 42
2.5
 43
2.5
  0
MTEXT
  5
EDE
330
ED5
100
AcDbEntity
  8
0
 62
     4
100
AcDbMText
 10
-190.8161549290304
 20
-811.5716426527985
 30
0.0
 40
3.0
 41
0.0
 71
     5
 72
     1
  1
2.46
 73
     1
 44
1.0
1001
ACAD
1000
MTEXTBEGIN
1070
    73
1070
     1
1070
    44
1040
1.0
1070
    74
1070
     0
1000
MTEXTEND
  0
POINT
  5
EDF
330
ED5
100
AcDbEntity
  8
Defpoints
 62
     0
100
AcDbPoint
 10
-178.2339678749101
 20
-811.7870112307898
 30
0.0
  0
POINT
  5
EE0
330
ED5
100
AcDbEntity
  8
Defpoints
 62
     0
100
AcDbPoint
 10
-180.6911549290304
 20
-811.7870112307898
 30
0.0
  0
POINT
  5
EE1
330
ED5
100
AcDbEntity
  8
Defpoints
 62
     0
100
AcDbPoint
 10
-180.6911549290304
 20
-813.6966426527985
 30
0.0
  0
ENDBLK
  5
EE2
330
ED5
100
AcDbEntity
  8
0
100
AcDbBlockEnd
  0
BLOCK
  5
EE4
330
EE3
100
AcDbEntity
  8
0
100
AcDbBlockBegin
  2
*D7
 70
     1
 10
0.0
 20
0.0
 30
0.0
  3
*D7
  1

  0
LINE
  5
EE5
330
EE3
100
AcDbEntity
  8
0
 62
     0
370
    -2
100
AcDbLine
 10
-176.5958429688369
 20
-817.4931008035521
 30
0.0
 11
-176.5958429688369
 21
-820.0389928730155
 31
0.0
  0
LINE
  5
EE6
330
EE3
100
AcDbEntity
  8
0
 62
     0
370
    -2
100
AcDbLine
 10
-179.6900787669798
 20
-817.4931008035521
 30
0.0
 11
-179.6900787669798
 21
-820.0389928730155
 31
0.0
  0
LINE
  5
EE7
330
EE3
100
AcDbEntity
  8
0
 62
     0
370
    -2
100
AcDbLine
 10
-174.0958429688369
 20
-818.7889928730154
 30
0.0
 11
-171.5958429688369
 21
-818.7889928730154
 31
0.0
  0
LINE
  5
EE8
330
EE3
100
AcDbEntity
  8
0
 62
     0
370
    -2
100
AcDbLine
 10
-182.1900787669798
 20
-818.7889928730154
 30
0.0
 11
-196.0234121003131
 21
-818.7889928730154
 31
0.0
  0
LINE
  5
EE9
330
EE3
100
AcDbEntity
  8
0
 62
     0
370
    -2
100
AcDbLine
 10
-176.5958429688369
 20
-818.7889928730154
 30
0.0
 11
-179.6900787669798
 21
-818.7889928730154
 31
0.0
  0
INSERT
  5
EEA
330
EE3
100
AcDbEntity
  8
0
 62
     0
370
    -2
100
AcDbBlockReference
  2
_Open30
 10
-176.5958429688369
 20
-818.7889928730154
 30
0.0
 41
2.5
 42
2.5
 43
2.5
 50
180.0
  0
INSERT
  5
EEB
330
EE3
100
AcDbEntity
  8
0
 62
     0
370
    -2
100
AcDbBlockReference
  2
_Open30
 10
-179.6900787669798
 20
-818.7889928730154
 30
0.0
 41
2.5
 42
2.5
 43
2.5
  0
MTEXT
  5
EEC
330
EE3
100
AcDbEntity
  8
0
 62
     4
100
AcDbMText
 10
-190.8150787669798
 20
-816.9139928730155
 30
0.0
 40
2.5
 41
0.0
 71
     5
 72
     1
  1
15.47
  7
高2.5
 73
     1
 44
1.0
1001
ACAD
1000
MTEXTBEGIN
1070
    73
1070
     1
1070
    44
1040
1.0
1070
    74
1070
     0
1000
MTEXTEND
  0
POINT
  5
EED
330
EE3
100
AcDbEntity
  8
Defpoints
 62
     0
100
AcDbPoint
 10
-176.5958429688369
 20
-817.2431008035522
 30
0.0
  0
POINT
  5
EEE
330
EE3
100
AcDbEntity
  8
Defpoints
 62
     0
100
AcDbPoint
 10
-179.6900787669798
 20
-817.2431008035522
 30
0.0
  0
POINT
  5
EEF
330
EE3
100
AcDbEntity
  8
Defpoints
 62
     0
100
AcDbPoint
 10
-179.6900787669798
 20
-818.7889928730154
 30
0.0
  0
ENDBLK
  5
EF0
330
EE3
100
AcDbEntity
  8
0
100
AcDbBlockEnd
  0
BLOCK
  5
EF2
330
EF1
100
AcDbEntity
  8
0
100
AcDbBlockBegin
  2
*D8
 70
     1
 10
0.0
 20
0.0
 30
0.0
  3
*D8
  1

  0
LINE
  5
EF3
330
EF1
100
AcDbEntity
  8
0
 62
     0
370
    -2
100
AcDbLine
 10
-174.8667113607514
 20
-822.9491905193986
 30
0.0
 11
-174.8667113607514
 21
-825.2222781817659
 31
0.0
  0
LINE
  5
EF4
330
EF1
100
AcDbEntity
  8
0
 62
     0
370
    -2
100
AcDbLine
 10
-178.8710163139432
 20
-822.9491905193986
 30
0.0
 11
-178.8710163139432
 21
-825.2222781817659
 31
0.0
  0
LINE
  5
EF5
330
EF1
100
AcDbEntity
  8
0
 62
     0
370
    -2
100
AcDbLine
 10
-172.3667113607514
 20
-823.9722781817658
 30
0.0
 11
-169.8667113607514
 21
-823.9722781817658
 31
0.0
  0
LINE
  5
EF6
330
EF1
100
AcDbEntity
  8
0
 62
     0
370
    -2
100
AcDbLine
 10
-181.3710163139432
 20
-823.9722781817658
 30
0.0
 11
-193.1210163139432
 21
-823.9722781817658
 31
0.0
  0
LINE
  5
EF7
330
EF1
100
AcDbEntity
  8
0
 62
     0
370
    -2
100
AcDbLine
 10
-174.8667113607514
 20
-823.9722781817658
 30
0.0
 11
-178.8710163139432
 21
-823.9722781817658
 31
0.0
  0
INSERT
  5
EF8
330
EF1
100
AcDbEntity
  8
0
 62
     0
370
    -2
100
AcDbBlockReference
  2
_Open30
 10
-174.8667113607514
 20
-823.9722781817658
 30
0.0
 41
2.5
 42
2.5
 43
2.5
 50
180.0
  0
INSERT
  5
EF9
330
EF1
100
AcDbEntity
  8
0
 62
     0
370
    -2
100
AcDbBlockReference
  2
_Open30
 10
-178.8710163139432
 20
-823.9722781817658
 30
0.0
 41
2.5
 42
2.5
 43
2.5
  0
MTEXT
  5
EFA
330
EF1
100
AcDbEntity
  8
0
 62
     4
100
AcDbMText
 10
-188.4960163139432
 20
-821.7472781817658
 30
0.0
 40
3.2
 41
0.0
 71
     5
 72
     1
  1
8.01
  7
高3.2
 73
     1
 44
1.0
1001
ACAD
1000
MTEXTBEGIN
1070
    73
1070
     1
1070
    44
1040
1.0
1070
    74
1070
     0
1000
MTEXTEND
  0
POINT
  5
EFB
330
EF1
100
AcDbEntity
  8
Defpoints
 62
     0
100
AcDbPoint
 10
-174.8667113607514
 20
-822.6991905193985
 30
0.0
  0
POINT
  5
EFC
330
EF1
100
AcDbEntity
  8
Defpoints
 62
     0
100
AcDbPoint
 10
-178.8710163139432
 20
-822.6991905193985
 30
0.0
  0
POINT
  5
EFD
330
EF1
100
AcDbEntity
  8
Defpoints
 62
     0
100
AcDbPoint
 10
-178.8710163139432
 20
-823.9722781817658
 30
0.0
  0
ENDBLK
  5
EFE
330
EF1
100
AcDbEntity
  8
0
100
AcDbBlockEnd
  0
BLOCK
  5
F00
330
EFF
100
AcDbEntity
  8
0
100
AcDbBlockBegin
  2
*D9
 70
     1
 10
0.0
 20
0.0
 30
0.0
  3
*D9
  1

  0
LINE
  5
F01
330
EFF
100
AcDbEntity
  8
0
 62
     0
370
    -2
100
AcDbLine
 10
-174.9577180627636
 20
-828.2234104874302
 30
0.0
 11
-174.9577180627636
 21
-830.0418239948866
 31
0.0
  0
LINE
  5
F02
330
EFF
100
AcDbEntity
  8
0
 62
     0
370
    -2
100
AcDbLine
 10
-179.6900787669798
 20
-828.2234104874302
 30
0.0
 11
-179.6900787669798
 21
-830.0418239948866
 31
0.0
  0
LINE
  5
F03
330
EFF
100
AcDbEntity
  8
0
 62
     0
370
    -2
100
AcDbLine
 10
-172.4577180627636
 20
-828.7918239948865
 30
0.0
 11
-169.9577180627637
 21
-828.7918239948865
 31
0.0
  0
LINE
  5
F04
330
EFF
100
AcDbEntity
  8
0
 62
     0
370
    -2
100
AcDbLine
 10
-182.1900787669798
 20
-828.7918239948865
 30
0.0
 11
-203.9400787669798
 21
-828.7918239948865
 31
0.0
  0
LINE
  5
F05
330
EFF
100
AcDbEntity
  8
0
 62
     0
370
    -2
100
AcDbLine
 10
-174.9577180627636
 20
-828.7918239948865
 30
0.0
 11
-179.6900787669798
 21
-828.7918239948865
 31
0.0
  0
INSERT
  5
F06
330
EFF
100
AcDbEntity
  8
0
 62
     0
370
    -2
100
AcDbBlockReference
  2
_Open30
 10
-174.9577180627636
 20
-828.7918239948865
 30
0.0
 41
2.5
 42
2.5
 43
2.5
 50
180.0
  0
INSERT
  5
F07
330
EFF
100
AcDbEntity
  8
0
 62
     0
370
    -2
100
AcDbBlockReference
  2
_Open30
 10
-179.6900787669798
 20
-828.7918239948865
 30
0.0
 41
2.5
 42
2.5
 43
2.5
  0
MTEXT
  5
F08
330
EFF
100
AcDbEntity
  8
0
 62
     4
100
AcDbMText
 10
-194.3150787669798
 20
-825.9168239948866
 30
0.0
 40
4.5
 41
0.0
 71
     5
 72
     1
  1
47.32
  7
高4.5
 73
     1
 44
1.0
1001
ACAD
1000
MTEXTBEGIN
1070
    73
1070
     1
1070
    44
1040
1.0
1070
    74
1070
     0
1000
MTEXTEND
  0
POINT
  5
F09
330
EFF
100
AcDbEntity
  8
Defpoints
 62
     0
100
AcDbPoint
 10
-174.9577180627636
 20
-827.9734104874302
 30
0.0
  0
POINT
  5
F0A
330
EFF
100
AcDbEntity
  8
Defpoints
 62
     0
100
AcDbPoint
 10
-179.6900787669798
 20
-827.9734104874302
 30
0.0
  0
POINT
  5
F0B
330
EFF
100
AcDbEntity
  8
Defpoints
 62
     0
100
AcDbPoint
 10
-179.6900787669798
 20
-828.7918239948865
 30
0.0
  0
ENDBLK
  5
F0C
330
EFF
100
AcDbEntity
  8
0
100
AcDbBlockEnd
  0
BLOCK
  5
F0E
330
F0D
100
AcDbEntity
  8
0
100
AcDbBlockBegin
  2
*D10
 70
     1
 10
0.0
 20
0.0
 30
0.0
  3
*D10
  1

  0
LINE
  5
F0F
330
F0D
100
AcDbEntity
  8
0
 62
     0
370
    -2
100
AcDbLine
 10
-153.4800817947562
 20
-812.0370112307897
 30
0.0
 11
-153.4800817947562
 21
-814.9466426527986
 31
0.0
  0
LINE
  5
F10
330
F0D
100
AcDbEntity
  8
0
 62
     0
370
    -2
100
AcDbLine
 10
-155.9372688488765
 20
-812.0370112307897
 30
0.0
 11
-155.9372688488765
 21
-814.9466426527986
 31
0.0
  0
LINE
  5
F11
330
F0D
100
AcDbEntity
  8
0
 62
     0
370
    -2
100
AcDbLine
 10
-150.9800817947562
 20
-813.6966426527985
 30
0.0
 11
-148.4800817947562
 21
-813.6966426527985
 31
0.0
  0
LINE
  5
F12
330
F0D
100
AcDbEntity
  8
0
 62
     0
370
    -2
100
AcDbLine
 10
-158.4372688488765
 20
-813.6966426527985
 30
0.0
 11
-180.0372688488765
 21
-813.6966426527985
 31
0.0
  0
LINE
  5
F13
330
F0D
100
AcDbEntity
  8
0
 62
     0
370
    -2
100
AcDbLine
 10
-153.4800817947562
 20
-813.6966426527985
 30
0.0
 11
-155.9372688488765
 21
-813.6966426527985
 31
0.0
  0
INSERT
  5
F14
330
F0D
100
AcDbEntity
  8
0
 62
     0
370
    -2
100
AcDbBlockReference
  2
_Open30
 10
-153.4800817947562
 20
-813.6966426527985
 30
0.0
 41
2.5
 42
2.5
 43
2.5
 50
180.0
  0
INSERT
  5
F15
330
F0D
100
AcDbEntity
  8
0
 62
     0
370
    -2
100
AcDbBlockReference
  2
_Open30
 10
-155.9372688488765
 20
-813.6966426527985
 30
0.0
 41
2.5
 42
2.5
 43
2.5
  0
MTEXT
  5
F16
330
F0D
100
AcDbEntity
  8
0
 62
     4
100
AcDbMText
 10
-170.4872688488765
 20
-809.9216426527986
 30
0.0
 40
6.299999999999998
 41
0.0
 71
     5
 72
     1
  1
0.25
  7
高6.3
 73
     1
 44
1.0
1001
ACAD
1000
MTEXTBEGIN
1070
    73
1070
     1
1070
    44
1040
1.0
1070
    74
1070
     0
1000
MTEXTEND
  0
POINT
  5
F17
330
F0D
100
AcDbEntity
  8
Defpoints
 62
     0
100
AcDbPoint
 10
-153.4800817947562
 20
-811.7870112307898
 30
0.0
  0
POINT
  5
F18
330
F0D
100
AcDbEntity
  8
Defpoints
 62
     0
100
AcDbPoint
 10
-155.9372688488765
 20
-811.7870112307898
 30
0.0
  0
POINT
  5
F19
330
F0D
100
AcDbEntity
  8
Defpoints
 62
     0
100
AcDbPoint
 10
-155.9372688488765
 20
-813.6966426527985
 30
0.0
  0
ENDBLK
  5
F1A
330
F0D
100
AcDbEntity
  8
0
100
AcDbBlockEnd
  0
BLOCK
  5
F1C
330
F1B
100
AcDbEntity
  8
0
100
AcDbBlockBegin
  2
*D11
 70
     1
 10
0.0
 20
0.0
 30
0.0
  3
*D11
  1

  0
LINE
  5
F1D
330
F1B
100
AcDbEntity
  8
0
 62
     0
370
    -2
100
AcDbLine
 10
-151.841956888683
 20
-817.4931008035521
 30
0.0
 11
-151.841956888683
 21
-820.0389928730155
 31
0.0
  0
LINE
  5
F1E
330
F1B
100
AcDbEntity
  8
0
 62
     0
370
    -2
100
AcDbLine
 10
-154.9361926868259
 20
-817.4931008035521
 30
0.0
 11
-154.9361926868259
 21
-820.0389928730155
 31
0.0
  0
LINE
  5
F1F
330
F1B
100
AcDbEntity
  8
0
 62
     0
370
    -2
100
AcDbLine
 10
-149.341956888683
 20
-818.7889928730154
 30
0.0
 11
-146.841956888683
 21
-818.7889928730154
 31
0.0
  0
LINE
  5
F20
330
F1B
100
AcDbEntity
  8
0
 62
     0
370
    -2
100
AcDbLine
 10
-157.4361926868259
 20
-818.7889928730154
 30
0.0
 11
-169.4361926868259
 21
-818.7889928730154
 31
0.0
  0
LINE
  5
F21
330
F1B
100
AcDbEntity
  8
0
 62
     0
370
    -2
100
AcDbLine
 10
-151.841956888683
 20
-818.7889928730154
 30
0.0
 11
-154.9361926868259
 21
-818.7889928730154
 31
0.0
  0
INSERT
  5
F22
330
F1B
100
AcDbEntity
  8
0
 62
     0
370
    -2
100
AcDbBlockReference
  2
_Open30
 10
-151.841956888683
 20
-818.7889928730154
 30
0.0
 41
2.5
 42
2.5
 43
2.5
 50
180.0
  0
INSERT
  5
F23
330
F1B
100
AcDbEntity
  8
0
 62
     0
370
    -2
100
AcDbBlockReference
  2
_Open30
 10
-154.9361926868259
 20
-818.7889928730154
 30
0.0
 41
2.5
 42
2.5
 43
2.5
  0
MTEXT
  5
F24
330
F1B
100
AcDbEntity
  8
0
 62
     4
100
AcDbMText
 10
-164.8111926868259
 20
-816.6639928730154
 30
0.0
 40
3.0
 41
0.0
 71
     5
 72
     1
  1
1.55
 73
     1
 44
1.0
1001
ACAD
1000
MTEXTBEGIN
1070
    73
1070
     1
1070
    44
1040
1.0
1070
    74
1070
     0
1000
MTEXTEND
  0
POINT
  5
F25
330
F1B
100
AcDbEntity
  8
Defpoints
 62
     0
100
AcDbPoint
 10
-151.841956888683
 20
-817.2431008035522
 30
0.0
  0
POINT
  5
F26
330
F1B
100
AcDbEntity
  8
Defpoints
 62
     0
100
AcDbPoint
 10
-154.9361926868259
 20
-817.2431008035522
 30
0.0
  0
POINT
  5
F27
330
F1B
100
AcDbEntity
  8
Defpoints
 62
     0
100
AcDbPoint
 10
-154.9361926868259
 20
-818.7889928730154
 30
0.0
  0
ENDBLK
  5
F28
330
F1B
100
AcDbEntity
  8
0
100
AcDbBlockEnd
  0
BLOCK
  5
F2A
330
F29
100
AcDbEntity
  8
0
100
AcDbBlockBegin
  2
*D12
 70
     1
 10
0.0
 20
0.0
 30
0.0
  3
*D12
  1

  0
LINE
  5
F2B
330
F29
100
AcDbEntity
  8
0
 62
     0
370
    -2
100
AcDbLine
 10
-150.1128252805975
 20
-822.9491905193986
 30
0.0
 11
-150.1128252805975
 21
-825.2222781817659
 31
0.0
  0
LINE
  5
F2C
330
F29
100
AcDbEntity
  8
0
 62
     0
370
    -2
100
AcDbLine
 10
-154.1171302337894
 20
-822.9491905193986
 30
0.0
 11
-154.1171302337894
 21
-825.2222781817659
 31
0.0
  0
LINE
  5
F2D
330
F29
100
AcDbEntity
  8
0
 62
     0
370
    -2
100
AcDbLine
 10
-147.6128252805976
 20
-823.9722781817658
 30
0.0
 11
-145.1128252805975
 21
-823.9722781817658
 31
0.0
  0
LINE
  5
F2E
330
F29
100
AcDbEntity
  8
0
 62
     0
370
    -2
100
AcDbLine
 10
-156.6171302337894
 20
-823.9722781817658
 30
0.0
 11
-164.9504635671227
 21
-823.9722781817658
 31
0.0
  0
LINE
  5
F2F
330
F29
100
AcDbEntity
  8
0
 62
     0
370
    -2
100
AcDbLine
 10
-150.1128252805975
 20
-823.9722781817658
 30
0.0
 11
-154.1171302337894
 21
-823.9722781817658
 31
0.0
  0
INSERT
  5
F30
330
F29
100
AcDbEntity
  8
0
 62
     0
370
    -2
100
AcDbBlockReference
  2
_Open30
 10
-150.1128252805975
 20
-823.9722781817658
 30
0.0
 41
2.5
 42
2.5
 43
2.5
 50
180.0
  0
INSERT
  5
F31
330
F29
100
AcDbEntity
  8
0
 62
     0
370
    -2
100
AcDbBlockReference
  2
_Open30
 10
-154.1171302337894
 20
-823.9722781817658
 30
0.0
 41
2.5
 42
2.5
 43
2.5
  0
MTEXT
  5
F32
330
F29
100
AcDbEntity
  8
0
 62
     4
100
AcDbMText
 10
-162.4921302337894
 20
-822.3472781817658
 30
0.0
 40
2.0
 41
0.0
 71
     5
 72
     1
  1
0.8
  7
高2
 73
     1
 44
1.0
1001
ACAD
1000
MTEXTBEGIN
1070
    73
1070
     1
1070
    44
1040
1.0
1070
    74
1070
     0
1000
MTEXTEND
  0
POINT
  5
F33
330
F29
100
AcDbEntity
  8
Defpoints
 62
     0
100
AcDbPoint
 10
-150.1128252805975
 20
-822.6991905193985
 30
0.0
  0
POINT
  5
F34
330
F29
100
AcDbEntity
  8
Defpoints
 62
     0
100
AcDbPoint
 10
-154.1171302337894
 20
-822.6991905193985
 30
0.0
  0
POINT
  5
F35
330
F29
100
AcDbEntity
  8
Defpoints
 62
     0
100
AcDbPoint
 10
-154.1171302337894
 20
-823.9722781817658
 30
0.0
  0
ENDBLK
  5
F36
330
F29
100
AcDbEntity
  8
0
100
AcDbBlockEnd
  0
BLOCK
  5
F38
330
F37
100
AcDbEntity
  8
0
100
AcDbBlockBegin
  2
*D13
 70
     1
 10
0.0
 20
0.0
 30
0.0
  3
*D13
  1

  0
LINE
  5
F39
330
F37
100
AcDbEntity
  8
0
 62
     0
370
    -2
100
AcDbLine
 10
-150.2038319826098
 20
-828.2234104874302
 30
0.0
 11
-150.2038319826098
 21
-830.0418239948866
 31
0.0
  0
LINE
  5
F3A
330
F37
100
AcDbEntity
  8
0
 62
     0
370
    -2
100
AcDbLine
 10
-154.9361926868259
 20
-828.2234104874302
 30
0.0
 11
-154.9361926868259
 21
-830.0418239948866
 31
0.0
  0
LINE
  5
F3B
330
F37
100
AcDbEntity
  8
0
 62
     0
370
    -2
100
AcDbLine
 10
-147.7038319826099
 20
-828.7918239948865
 30
0.0
 11
-145.2038319826098
 21
-828.7918239948865
 31
0.0
  0
LINE
  5
F3C
330
F37
100
AcDbEntity
  8
0
 62
     0
370
    -2
100
AcDbLine
 10
-157.4361926868259
 20
-828.7918239948865
 30
0.0
 11
-172.1861926868259
 21
-828.7918239948865
 31
0.0
  0
LINE
  5
F3D
330
F37
100
AcDbEntity
  8
0
 62
     0
370
    -2
100
AcDbLine
 10
-150.2038319826098
 20
-828.7918239948865
 30
0.0
 11
-154.9361926868259
 21
-828.7918239948865
 31
0.0
  0
INSERT
  5
F3E
330
F37
100
AcDbEntity
  8
0
 62
     0
370
    -2
100
AcDbBlockReference
  2
_Open30
 10
-150.2038319826098
 20
-828.7918239948865
 30
0.0
 41
2.5
 42
2.5
 43
2.5
 50
180.0
  0
INSERT
  5
F3F
330
F37
100
AcDbEntity
  8
0
 62
     0
370
    -2
100
AcDbBlockReference
  2
_Open30
 10
-154.9361926868259
 20
-828.7918239948865
 30
0.0
 41
2.5
 42
2.5
 43
2.5
  0
MTEXT
  5
F40
330
F37
100
AcDbEntity
  8
0
 62
     4
100
AcDbMText
 10
-166.0611926868259
 20
-826.6668239948867
 30
0.0
 40
3.0
 41
0.0
 71
     5
 72
     1
  1
18.93
 73
     1
 44
1.0
1001
ACAD
1000
MTEXTBEGIN
1070
    73
1070
     1
1070
    44
1040
1.0
1070
    74
1070
     0
1000
MTEXTEND
  0
POINT
  5
F41
330
F37
100
AcDbEntity
  8
Defpoints
 62
     0
100
AcDbPoint
 10
-150.2038319826098
 20
-827.9734104874302
 30
0.0
  0
POINT
  5
F42
330
F37
100
AcDbEntity
  8
Defpoints
 62
     0
100
AcDbPoint
 10
-154.9361926868259
 20
-827.9734104874302
 30
0.0
  0
POINT
  5
F43
330
F37
100
AcDbEntity
  8
Defpoints
 62
     0
100
AcDbPoint
 10
-154.9361926868259
 20
-828.7918239948865
 30
0.0
  0
ENDBLK
  5
F44
330
F37
100
AcDbEntity
  8
0
100
AcDbBlockEnd
  0
BLOCK
  5
F46
330
F45
100
AcDbEntity
  8
0
100
AcDbBlockBegin
  2
*D14
 70
     1
 10
0.0
 20
0.0
 30
0.0
  3
*D14
  1

  0
LINE
  5
F47
330
F45
100
AcDbEntity
  8
0
 62
     0
370
    -2
100
AcDbLine
 10
-153.0082588337482
 20
-833.2792506940199
 30
0.0
 11
-153.0082588337482
 21
-835.5891717708955
 31
0.0
  0
LINE
  5
F48
330
F45
100
AcDbEntity
  8
0
 62
     0
370
    -2
100
AcDbLine
 10
-157.5969340358961
 20
-833.2792506940199
 30
0.0
 11
-157.5969340358961
 21
-835.5891717708955
 31
0.0
  0
LINE
  5
F49
330
F45
100
AcDbEntity
  8
0
 62
     0
370
    -2
100
AcDbLine
 10
-150.5082588337482
 20
-834.3391717708955
 30
0.0
 11
-148.0082588337482
 21
-834.3391717708955
 31
0.0
  0
LINE
  5
F4A
330
F45
100
AcDbEntity
  8
0
 62
     0
370
    -2
100
AcDbLine
 10
-160.0969340358961
 20
-834.3391717708955
 30
0.0
 11
-174.8469340358961
 21
-834.3391717708955
 31
0.0
  0
LINE
  5
F4B
330
F45
100
AcDbEntity
  8
0
 62
     0
370
    -2
100
AcDbLine
 10
-153.0082588337482
 20
-834.3391717708955
 30
0.0
 11
-157.5969340358961
 21
-834.3391717708955
 31
0.0
  0
INSERT
  5
F4C
330
F45
100
AcDbEntity
  8
0
 62
     0
370
    -2
100
AcDbBlockReference
  2
_Open30
 10
-153.0082588337482
 20
-834.3391717708955
 30
0.0
 41
2.5
 42
2.5
 43
2.5
 50
180.0
  0
INSERT
  5
F4D
330
F45
100
AcDbEntity
  8
0
 62
     0
370
    -2
100
AcDbBlockReference
  2
_Open30
 10
-157.5969340358961
 20
-834.3391717708955
 30
0.0
 41
2.5
 42
2.5
 43
2.5
  0
MTEXT
  5
F4E
330
F45
100
AcDbEntity
  8
0
 62
     4
100
AcDbMText
 10
-168.7219340358961
 20
-832.2141717708955
 30
0.0
 40
3.0
 41
0.0
 71
     5
 72
     1
  1
13.77
 73
     1
 44
1.0
1001
ACAD
1000
MTEXTBEGIN
1070
    73
1070
     1
1070
    44
1040
1.0
1070
    74
1070
     0
1000
MTEXTEND
  0
POINT
  5
F4F
330
F45
100
AcDbEntity
  8
Defpoints
 62
     0
100
AcDbPoint
 10
-153.0082588337482
 20
-833.0292506940201
 30
0.0
  0
POINT
  5
F50
330
F45
100
AcDbEntity
  8
Defpoints
 62
     0
100
AcDbPoint
 10
-157.5969340358961
 20
-833.0292506940201
 30
0.0
  0
POINT
  5
F51
330
F45
100
AcDbEntity
  8
Defpoints
 62
     0
100
AcDbPoint
 10
-157.5969340358961
 20
-834.3391717708955
 30
0.0
  0
ENDBLK
  5
F52
330
F45
100
AcDbEntity
  8
0
100
AcDbBlockEnd
  0
BLOCK
  5
F54
330
F53
100
AcDbEntity
  8
0
100
AcDbBlockBegin
  2
*D15
 70
     1
 10
0.0
 20
0.0
 30
0.0
  3
*D15
  1

  0
LINE
  5
F55
330
F53
100
AcDbEntity
  8
0
 62
     0
370
    -2
100
AcDbLine
 10
-160.1045416668985
 20
-802.3497593757458
 30
0.0
 11
-160.1045416668985
 21
-794.9532258978079
 31
0.0
  0
LINE
  5
F56
330
F53
100
AcDbEntity
  8
0
 62
     0
370
    -2
100
AcDbLine
 10
-170.0430160363884
 20
-802.3497593757458
 30
0.0
 11
-170.0430160363884
 21
-794.9532258978079
 31
0.0
  0
LINE
  5
F57
330
F53
100
AcDbEntity
  8
0
 62
     0
370
    -2
100
AcDbLine
 10
-162.6045416668985
 20
-796.2032258978077
 30
0.0
 11
-167.5430160363885
 21
-796.2032258978077
 31
0.0
  0
INSERT
  5
F58
330
F53
100
AcDbEntity
  8
0
 62
     0
370
    -2
100
AcDbBlockReference
  2
_Open30
 10
-160.1045416668985
 20
-796.2032258978077
 30
0.0
 41
2.5
 42
2.5
 43
2.5
  0
INSERT
  5
F59
330
F53
100
AcDbEntity
  8
0
 62
     0
370
    -2
100
AcDbBlockReference
  2
_Open30
 10
-170.0430160363884
 20
-796.2032258978077
 30
0.0
 41
2.5
 42
2.5
 43
2.5
 50
180.0
  0
MTEXT
  5
F5A
330
F53
100
AcDbEntity
  8
0
 62
     4
100
AcDbMText
 10
-167.1793885053084
 20
-794.0782258978079
 30
0.0
 40
3.0
 41
0.0
 71
     5
 72
     1
  1
9.94
 73
     1
 44
1.0
1001
ACAD
1000
MTEXTBEGIN
1070
    73
1070
     1
1070
    44
1040
1.0
1070
    74
1070
     0
1000
MTEXTEND
  0
POINT
  5
F5B
330
F53
100
AcDbEntity
  8
Defpoints
 62
     0
100
AcDbPoint
 10
-160.1045416668985
 20
-802.5997593757455
 30
0.0
  0
POINT
  5
F5C
330
F53
100
AcDbEntity
  8
Defpoints
 62
     0
100
AcDbPoint
 10
-170.0430160363884
 20
-802.5997593757455
 30
0.0
  0
POINT
  5
F5D
330
F53
100
AcDbEntity
  8
Defpoints
 62
     0
100
AcDbPoint
 10
-170.0430160363884
 20
-796.2032258978077
 30
0.0
  0
ENDBLK
  5
F5E
330
F53
100
AcDbEntity
  8
0
100
AcDbBlockEnd
  0
BLOCK
  5
F7F
330
F7E
100
AcDbEntity
  8
0
100
AcDbBlockBegin
  2
*D16
 70
     1
 10
0.0
 20
0.0
 30
0.0
  3
*D16
  1

  0
LINE
  5
1008
330
F7E
100
AcDbEntity
  8
0
 62
     0
370
    -2
100
AcDbLine
 10
809.1216474276336
 20
-412.0436525161498
 30
0.0
 11
809.1216474276336
 21
-414.9532839381586
 31
0.0
  0
LINE
  5
1009
330
F7E
100
AcDbEntity
  8
0
 62
     0
370
    -2
100
AcDbLine
 10
806.6644603735133
 20
-412.0436525161498
 30
0.0
 11
806.6644603735133
 21
-414.9532839381586
 31
0.0
  0
LINE
  5
100A
330
F7E
100
AcDbEntity
  8
0
 62
     0
370
    -2
100
AcDbLine
 10
811.6216474276336
 20
-413.7032839381586
 30
0.0
 11
814.1216474276337
 21
-413.7032839381586
 31
0.0
  0
LINE
  5
100B
330
F7E
100
AcDbEntity
  8
0
 62
     0
370
    -2
100
AcDbLine
 10
804.1644603735132
 20
-413.7032839381586
 30
0.0
 11
792.1644603735132
 21
-413.7032839381586
 31
0.0
  0
LINE
  5
100C
330
F7E
100
AcDbEntity
  8
0
 62
     0
370
    -2
100
AcDbLine
 10
809.1216474276336
 20
-413.7032839381586
 30
0.0
 11
806.6644603735133
 21
-413.7032839381586
 31
0.0
  0
INSERT
  5
100D
330
F7E
100
AcDbEntity
  8
0
 62
     0
370
    -2
100
AcDbBlockReference
  2
_Open30
 10
809.1216474276336
 20
-413.7032839381586
 30
0.0
 41
2.5
 42
2.5
 43
2.5
 50
180.0
  0
INSERT
  5
100E
330
F7E
100
AcDbEntity
  8
0
 62
     0
370
    -2
100
AcDbBlockReference
  2
_Open30
 10
806.6644603735133
 20
-413.7032839381586
 30
0.0
 41
2.5
 42
2.5
 43
2.5
  0
MTEXT
  5
100F
330
F7E
100
AcDbEntity
  8
0
 62
     4
100
AcDbMText
 10
796.5394603735132
 20
-411.8282839381586
 30
0.0
 40
2.5
 41
0.0
 71
     5
 72
     1
  1
2.46
 73
     1
 44
1.0
1001
ACAD
1000
MTEXTBEGIN
1070
    73
1070
     1
1070
    44
1040
1.0
1070
    74
1070
     0
1000
MTEXTEND
  0
POINT
  5
1010
330
F7E
100
AcDbEntity
  8
Defpoints
 62
     0
100
AcDbPoint
 10
809.1216474276336
 20
-411.7936525161496
 30
0.0
  0
POINT
  5
1011
330
F7E
100
AcDbEntity
  8
Defpoints
 62
     0
100
AcDbPoint
 10
806.6644603735133
 20
-411.7936525161496
 30
0.0
  0
POINT
  5
1012
330
F7E
100
AcDbEntity
  8
Defpoints
 62
     0
100
AcDbPoint
 10
806.6644603735133
 20
-413.7032839381586
 30
0.0
  0
ENDBLK
  5
F80
330
F7E
100
AcDbEntity
  8
0
100
AcDbBlockEnd
  0
BLOCK
  5
F8D
330
F8C
100
AcDbEntity
  8
0
100
AcDbBlockBegin
  2
*D17
 70
     1
 10
0.0
 20
0.0
 30
0.0
  3
*D17
  1

  0
LINE
  5
1013
330
F8C
100
AcDbEntity
  8
0
 62
     0
370
    -2
100
AcDbLine
 10
810.7597723337068
 20
-417.4997420889122
 30
0.0
 11
810.7597723337068
 21
-420.0456341583755
 31
0.0
  0
LINE
  5
1014
330
F8C
100
AcDbEntity
  8
0
 62
     0
370
    -2
100
AcDbLine
 10
807.6655365355637
 20
-417.4997420889122
 30
0.0
 11
807.6655365355637
 21
-420.0456341583755
 31
0.0
  0
LINE
  5
1015
330
F8C
100
AcDbEntity
  8
0
 62
     0
370
    -2
100
AcDbLine
 10
813.2597723337067
 20
-418.7956341583753
 30
0.0
 11
815.7597723337067
 21
-418.7956341583753
 31
0.0
  0
LINE
  5
1016
330
F8C
100
AcDbEntity
  8
0
 62
     0
370
    -2
100
AcDbLine
 10
805.1655365355637
 20
-418.7956341583753
 30
0.0
 11
791.3322032022306
 21
-418.7956341583753
 31
0.0
  0
LINE
  5
1017
330
F8C
100
AcDbEntity
  8
0
 62
     0
370
    -2
100
AcDbLine
 10
810.7597723337068
 20
-418.7956341583753
 30
0.0
 11
807.6655365355637
 21
-418.7956341583753
 31
0.0
  0
INSERT
  5
1018
330
F8C
100
AcDbEntity
  8
0
 62
     0
370
    -2
100
AcDbBlockReference
  2
_Open30
 10
810.7597723337068
 20
-418.7956341583753
 30
0.0
 41
2.5
 42
2.5
 43
2.5
 50
180.0
  0
INSERT
  5
1019
330
F8C
100
AcDbEntity
  8
0
 62
     0
370
    -2
100
AcDbBlockReference
  2
_Open30
 10
807.6655365355637
 20
-418.7956341583753
 30
0.0
 41
2.5
 42
2.5
 43
2.5
  0
MTEXT
  5
101A
330
F8C
100
AcDbEntity
  8
0
 62
     4
100
AcDbMText
 10
796.540536535564
 20
-416.9206341583755
 30
0.0
 40
2.5
 41
0.0
 71
     5
 72
     1
  1
15.47
  7
高2.5
 73
     1
 44
1.0
1001
ACAD
1000
MTEXTBEGIN
1070
    73
1070
     1
1070
    44
1040
1.0
1070
    74
1070
     0
1000
MTEXTEND
  0
POINT
  5
101B
330
F8C
100
AcDbEntity
  8
Defpoints
 62
     0
100
AcDbPoint
 10
810.7597723337068
 20
-417.249742088912
 30
0.0
  0
POINT
  5
101C
330
F8C
100
AcDbEntity
  8
Defpoints
 62
     0
100
AcDbPoint
 10
807.6655365355637
 20
-417.249742088912
 30
0.0
  0
POINT
  5
101D
330
F8C
100
AcDbEntity
  8
Defpoints
 62
     0
100
AcDbPoint
 10
807.6655365355637
 20
-418.7956341583753
 30
0.0
  0
ENDBLK
  5
F8E
330
F8C
100
AcDbEntity
  8
0
100
AcDbBlockEnd
  0
BLOCK
  5
F9B
330
F9A
100
AcDbEntity
  8
0
100
AcDbBlockBegin
  2
*D18
 70
     1
 10
0.0
 20
0.0
 30
0.0
  3
*D18
  1

  0
LINE
  5
101E
330
F9A
100
AcDbEntity
  8
0
 62
     0
370
    -2
100
AcDbLine
 10
812.4889039417924
 20
-422.9558318047585
 30
0.0
 11
812.4889039417924
 21
-425.2289194671258
 31
0.0
  0
LINE
  5
101F
330
F9A
100
AcDbEntity
  8
0
 62
     0
370
    -2
100
AcDbLine
 10
808.4845989886005
 20
-422.9558318047585
 30
0.0
 11
808.4845989886005
 21
-425.2289194671258
 31
0.0
  0
LINE
  5
1020
330
F9A
100
AcDbEntity
  8
0
 62
     0
370
    -2
100
AcDbLine
 10
814.9889039417924
 20
-423.9789194671258
 30
0.0
 11
817.4889039417923
 21
-423.9789194671258
 31
0.0
  0
LINE
  5
1021
330
F9A
100
AcDbEntity
  8
0
 62
     0
370
    -2
100
AcDbLine
 10
805.9845989886005
 20
-423.9789194671258
 30
0.0
 11
794.2345989886005
 21
-423.9789194671258
 31
0.0
  0
LINE
  5
1022
330
F9A
100
AcDbEntity
  8
0
 62
     0
370
    -2
100
AcDbLine
 10
812.4889039417924
 20
-423.9789194671258
 30
0.0
 11
808.4845989886005
 21
-423.9789194671258
 31
0.0
  0
INSERT
  5
1023
330
F9A
100
AcDbEntity
  8
0
 62
     0
370
    -2
100
AcDbBlockReference
  2
_Open30
 10
812.4889039417924
 20
-423.9789194671258
 30
0.0
 41
2.5
 42
2.5
 43
2.5
 50
180.0
  0
INSERT
  5
1024
330
F9A
100
AcDbEntity
  8
0
 62
     0
370
    -2
100
AcDbBlockReference
  2
_Open30
 10
808.4845989886005
 20
-423.9789194671258
 30
0.0
 41
2.5
 42
2.5
 43
2.5
  0
MTEXT
  5
1025
330
F9A
100
AcDbEntity
  8
0
 62
     4
100
AcDbMText
 10
798.8595989886005
 20
-421.7539194671259
 30
0.0
 40
3.2
 41
0.0
 71
     5
 72
     1
  1
8.01
  7
高3.2
 73
     1
 44
1.0
1001
ACAD
1000
MTEXTBEGIN
1070
    73
1070
     1
1070
    44
1040
1.0
1070
    74
1070
     0
1000
MTEXTEND
  0
POINT
  5
1026
330
F9A
100
AcDbEntity
  8
Defpoints
 62
     0
100
AcDbPoint
 10
812.4889039417924
 20
-422.7058318047586
 30
0.0
  0
POINT
  5
1027
330
F9A
100
AcDbEntity
  8
Defpoints
 62
     0
100
AcDbPoint
 10
808.4845989886005
 20
-422.7058318047586
 30
0.0
  0
POINT
  5
1028
330
F9A
100
AcDbEntity
  8
Defpoints
 62
     0
100
AcDbPoint
 10
808.4845989886005
 20
-423.9789194671258
 30
0.0
  0
ENDBLK
  5
F9C
330
F9A
100
AcDbEntity
  8
0
100
AcDbBlockEnd
  0
BLOCK
  5
FA9
330
FA8
100
AcDbEntity
  8
0
100
AcDbBlockBegin
  2
*D19
 70
     1
 10
0.0
 20
0.0
 30
0.0
  3
*D19
  1

  0
LINE
  5
1029
330
FA8
100
AcDbEntity
  8
0
 62
     0
370
    -2
100
AcDbLine
 10
812.3978972397802
 20
-428.2300517727902
 30
0.0
 11
812.3978972397802
 21
-430.0484652802466
 31
0.0
  0
LINE
  5
102A
330
FA8
100
AcDbEntity
  8
0
 62
     0
370
    -2
100
AcDbLine
 10
807.6655365355637
 20
-428.2300517727902
 30
0.0
 11
807.6655365355637
 21
-430.0484652802466
 31
0.0
  0
LINE
  5
102B
330
FA8
100
AcDbEntity
  8
0
 62
     0
370
    -2
100
AcDbLine
 10
814.8978972397801
 20
-428.7984652802466
 30
0.0
 11
817.3978972397801
 21
-428.7984652802466
 31
0.0
  0
LINE
  5
102C
330
FA8
100
AcDbEntity
  8
0
 62
     0
370
    -2
100
AcDbLine
 10
805.1655365355637
 20
-428.7984652802466
 30
0.0
 11
783.4155365355638
 21
-428.7984652802466
 31
0.0
  0
LINE
  5
102D
330
FA8
100
AcDbEntity
  8
0
 62
     0
370
    -2
100
AcDbLine
 10
812.3978972397802
 20
-428.7984652802466
 30
0.0
 11
807.6655365355637
 21
-428.7984652802466
 31
0.0
  0
INSERT
  5
102E
330
FA8
100
AcDbEntity
  8
0
 62
     0
370
    -2
100
AcDbBlockReference
  2
_Open30
 10
812.3978972397802
 20
-428.7984652802466
 30
0.0
 41
2.5
 42
2.5
 43
2.5
 50
180.0
  0
INSERT
  5
102F
330
FA8
100
AcDbEntity
  8
0
 62
     0
370
    -2
100
AcDbBlockReference
  2
_Open30
 10
807.6655365355637
 20
-428.7984652802466
 30
0.0
 41
2.5
 42
2.5
 43
2.5
  0
MTEXT
  5
1030
330
FA8
100
AcDbEntity
  8
0
 62
     4
100
AcDbMText
 10
793.040536535564
 20
-425.9234652802466
 30
0.0
 40
4.5
 41
0.0
 71
     5
 72
     1
  1
47.32
  7
高4.5
 73
     1
 44
1.0
1001
ACAD
1000
MTEXTBEGIN
1070
    73
1070
     1
1070
    44
1040
1.0
1070
    74
1070
     0
1000
MTEXTEND
  0
POINT
  5
1031
330
FA8
100
AcDbEntity
  8
Defpoints
 62
     0
100
AcDbPoint
 10
812.3978972397802
 20
-427.9800517727903
 30
0.0
  0
POINT
  5
1032
330
FA8
100
AcDbEntity
  8
Defpoints
 62
     0
100
AcDbPoint
 10
807.6655365355637
 20
-427.9800517727903
 30
0.0
  0
POINT
  5
1033
330
FA8
100
AcDbEntity
  8
Defpoints
 62
     0
100
AcDbPoint
 10
807.6655365355637
 20
-428.7984652802466
 30
0.0
  0
ENDBLK
  5
FAA
330
FA8
100
AcDbEntity
  8
0
100
AcDbBlockEnd
  0
BLOCK
  5
FB7
330
FB6
100
AcDbEntity
  8
0
100
AcDbBlockBegin
  2
*D20
 70
     1
 10
0.0
 20
0.0
 30
0.0
  3
*D20
  1

  0
LINE
  5
1034
330
FB6
100
AcDbEntity
  8
0
 62
     0
370
    -2
100
AcDbLine
 10
833.8755335077875
 20
-412.0436525161498
 30
0.0
 11
833.8755335077875
 21
-414.9532839381586
 31
0.0
  0
LINE
  5
1035
330
FB6
100
AcDbEntity
  8
0
 62
     0
370
    -2
100
AcDbLine
 10
831.4183464536672
 20
-412.0436525161498
 30
0.0
 11
831.4183464536672
 21
-414.9532839381586
 31
0.0
  0
LINE
  5
1036
330
FB6
100
AcDbEntity
  8
0
 62
     0
370
    -2
100
AcDbLine
 10
836.3755335077875
 20
-413.7032839381586
 30
0.0
 11
838.8755335077876
 21
-413.7032839381586
 31
0.0
  0
LINE
  5
1037
330
FB6
100
AcDbEntity
  8
0
 62
     0
370
    -2
100
AcDbLine
 10
828.9183464536673
 20
-413.7032839381586
 30
0.0
 11
807.3183464536674
 21
-413.7032839381586
 31
0.0
  0
LINE
  5
1038
330
FB6
100
AcDbEntity
  8
0
 62
     0
370
    -2
100
AcDbLine
 10
833.8755335077875
 20
-413.7032839381586
 30
0.0
 11
831.4183464536672
 21
-413.7032839381586
 31
0.0
  0
INSERT
  5
1039
330
FB6
100
AcDbEntity
  8
0
 62
     0
370
    -2
100
AcDbBlockReference
  2
_Open30
 10
833.8755335077875
 20
-413.7032839381586
 30
0.0
 41
2.5
 42
2.5
 43
2.5
 50
180.0
  0
INSERT
  5
103A
330
FB6
100
AcDbEntity
  8
0
 62
     0
370
    -2
100
AcDbBlockReference
  2
_Open30
 10
831.4183464536672
 20
-413.7032839381586
 30
0.0
 41
2.5
 42
2.5
 43
2.5
  0
MTEXT
  5
103B
330
FB6
100
AcDbEntity
  8
0
 62
     4
100
AcDbMText
 10
816.8683464536673
 20
-409.9282839381586
 30
0.0
 40
6.299999999999998
 41
0.0
 71
     5
 72
     1
  1
0.25
  7
高6.3
 73
     1
 44
1.0
1001
ACAD
1000
MTEXTBEGIN
1070
    73
1070
     1
1070
    44
1040
1.0
1070
    74
1070
     0
1000
MTEXTEND
  0
POINT
  5
103C
330
FB6
100
AcDbEntity
  8
Defpoints
 62
     0
100
AcDbPoint
 10
833.8755335077875
 20
-411.7936525161496
 30
0.0
  0
POINT
  5
103D
330
FB6
100
AcDbEntity
  8
Defpoints
 62
     0
100
AcDbPoint
 10
831.4183464536672
 20
-411.7936525161496
 30
0.0
  0
POINT
  5
103E
330
FB6
100
AcDbEntity
  8
Defpoints
 62
     0
100
AcDbPoint
 10
831.4183464536672
 20
-413.7032839381586
 30
0.0
  0
ENDBLK
  5
FB8
330
FB6
100
AcDbEntity
  8
0
100
AcDbBlockEnd
  0
BLOCK
  5
FC5
330
FC4
100
AcDbEntity
  8
0
100
AcDbBlockBegin
  2
*D21
 70
     1
 10
0.0
 20
0.0
 30
0.0
  3
*D21
  1

  0
LINE
  5
103F
330
FC4
100
AcDbEntity
  8
0
 62
     0
370
    -2
100
AcDbLine
 10
835.5136584138607
 20
-417.4997420889122
 30
0.0
 11
835.5136584138607
 21
-420.0456341583755
 31
0.0
  0
LINE
  5
1040
330
FC4
100
AcDbEntity
  8
0
 62
     0
370
    -2
100
AcDbLine
 10
832.4194226157176
 20
-417.4997420889122
 30
0.0
 11
832.4194226157176
 21
-420.0456341583755
 31
0.0
  0
LINE
  5
1041
330
FC4
100
AcDbEntity
  8
0
 62
     0
370
    -2
100
AcDbLine
 10
838.0136584138607
 20
-418.7956341583753
 30
0.0
 11
840.5136584138608
 21
-418.7956341583753
 31
0.0
  0
LINE
  5
1042
330
FC4
100
AcDbEntity
  8
0
 62
     0
370
    -2
100
AcDbLine
 10
829.9194226157178
 20
-418.7956341583753
 30
0.0
 11
817.9194226157179
 21
-418.7956341583753
 31
0.0
  0
LINE
  5
1043
330
FC4
100
AcDbEntity
  8
0
 62
     0
370
    -2
100
AcDbLine
 10
835.5136584138607
 20
-418.7956341583753
 30
0.0
 11
832.4194226157176
 21
-418.7956341583753
 31
0.0
  0
INSERT
  5
1044
330
FC4
100
AcDbEntity
  8
0
 62
     0
370
    -2
100
AcDbBlockReference
  2
_Open30
 10
835.5136584138607
 20
-418.7956341583753
 30
0.0
 41
2.5
 42
2.5
 43
2.5
 50
180.0
  0
INSERT
  5
1045
330
FC4
100
AcDbEntity
  8
0
 62
     0
370
    -2
100
AcDbBlockReference
  2
_Open30
 10
832.4194226157176
 20
-418.7956341583753
 30
0.0
 41
2.5
 42
2.5
 43
2.5
  0
MTEXT
  5
1046
330
FC4
100
AcDbEntity
  8
0
 62
     4
100
AcDbMText
 10
822.5444226157177
 20
-416.6706341583753
 30
0.0
 40
3.0
 41
0.0
 71
     5
 72
     1
  1
1.55
 73
     1
 44
1.0
1001
ACAD
1000
MTEXTBEGIN
1070
    73
1070
     1
1070
    44
1040
1.0
1070
    74
1070
     0
1000
MTEXTEND
  0
POINT
  5
1047
330
FC4
100
AcDbEntity
  8
Defpoints
 62
     0
100
AcDbPoint
 10
835.5136584138607
 20
-417.249742088912
 30
0.0
  0
POINT
  5
1048
330
FC4
100
AcDbEntity
  8
Defpoints
 62
     0
100
AcDbPoint
 10
832.4194226157176
 20
-417.249742088912
 30
0.0
  0
POINT
  5
1049
330
FC4
100
AcDbEntity
  8
Defpoints
 62
     0
100
AcDbPoint
 10
832.4194226157176
 20
-418.7956341583753
 30
0.0
  0
ENDBLK
  5
FC6
330
FC4
100
AcDbEntity
  8
0
100
AcDbBlockEnd
  0
BLOCK
  5
FD3
330
FD2
100
AcDbEntity
  8
0
100
AcDbBlockBegin
  2
*D22
 70
     1
 10
0.0
 20
0.0
 30
0.0
  3
*D22
  1

  0
LINE
  5
104A
330
FD2
100
AcDbEntity
  8
0
 62
     0
370
    -2
100
AcDbLine
 10
837.2427900219461
 20
-422.9558318047585
 30
0.0
 11
837.2427900219461
 21
-425.2289194671258
 31
0.0
  0
LINE
  5
104B
330
FD2
100
AcDbEntity
  8
0
 62
     0
370
    -2
100
AcDbLine
 10
833.2384850687544
 20
-422.9558318047585
 30
0.0
 11
833.2384850687544
 21
-425.2289194671258
 31
0.0
  0
LINE
  5
104C
330
FD2
100
AcDbEntity
  8
0
 62
     0
370
    -2
100
AcDbLine
 10
839.7427900219462
 20
-423.9789194671258
 30
0.0
 11
842.2427900219462
 21
-423.9789194671258
 31
0.0
  0
LINE
  5
104D
330
FD2
100
AcDbEntity
  8
0
 62
     0
370
    -2
100
AcDbLine
 10
830.7384850687544
 20
-423.9789194671258
 30
0.0
 11
822.4051517354213
 21
-423.9789194671258
 31
0.0
  0
LINE
  5
104E
330
FD2
100
AcDbEntity
  8
0
 62
     0
370
    -2
100
AcDbLine
 10
837.2427900219461
 20
-423.9789194671258
 30
0.0
 11
833.2384850687544
 21
-423.9789194671258
 31
0.0
  0
INSERT
  5
104F
330
FD2
100
AcDbEntity
  8
0
 62
     0
370
    -2
100
AcDbBlockReference
  2
_Open30
 10
837.2427900219461
 20
-423.9789194671258
 30
0.0
 41
2.5
 42
2.5
 43
2.5
 50
180.0
  0
INSERT
  5
1050
330
FD2
100
AcDbEntity
  8
0
 62
     0
370
    -2
100
AcDbBlockReference
  2
_Open30
 10
833.2384850687544
 20
-423.9789194671258
 30
0.0
 41
2.5
 42
2.5
 43
2.5
  0
MTEXT
  5
1051
330
FD2
100
AcDbEntity
  8
0
 62
     4
100
AcDbMText
 10
824.8634850687544
 20
-422.3539194671259
 30
0.0
 40
2.0
 41
0.0
 71
     5
 72
     1
  1
0.8
  7
高2
 73
     1
 44
1.0
1001
ACAD
1000
MTEXTBEGIN
1070
    73
1070
     1
1070
    44
1040
1.0
1070
    74
1070
     0
1000
MTEXTEND
  0
POINT
  5
1052
330
FD2
100
AcDbEntity
  8
Defpoints
 62
     0
100
AcDbPoint
 10
837.2427900219461
 20
-422.7058318047586
 30
0.0
  0
POINT
  5
1053
330
FD2
100
AcDbEntity
  8
Defpoints
 62
     0
100
AcDbPoint
 10
833.2384850687544
 20
-422.7058318047586
 30
0.0
  0
POINT
  5
1054
330
FD2
100
AcDbEntity
  8
Defpoints
 62
     0
100
AcDbPoint
 10
833.2384850687544
 20
-423.9789194671258
 30
0.0
  0
ENDBLK
  5
FD4
330
FD2
100
AcDbEntity
  8
0
100
AcDbBlockEnd
  0
BLOCK
  5
FE1
330
FE0
100
AcDbEntity
  8
0
100
AcDbBlockBegin
  2
*D23
 70
     1
 10
0.0
 20
0.0
 30
0.0
  3
*D23
  1

  0
LINE
  5
1055
330
FE0
100
AcDbEntity
  8
0
 62
     0
370
    -2
100
AcDbLine
 10
837.1517833199339
 20
-428.2300517727902
 30
0.0
 11
837.1517833199339
 21
-430.0484652802466
 31
0.0
  0
LINE
  5
1056
330
FE0
100
AcDbEntity
  8
0
 62
     0
370
    -2
100
AcDbLine
 10
832.4194226157176
 20
-428.2300517727902
 30
0.0
 11
832.4194226157176
 21
-430.0484652802466
 31
0.0
  0
LINE
  5
1057
330
FE0
100
AcDbEntity
  8
0
 62
     0
370
    -2
100
AcDbLine
 10
839.6517833199338
 20
-428.7984652802466
 30
0.0
 11
842.1517833199338
 21
-428.7984652802466
 31
0.0
  0
LINE
  5
1058
330
FE0
100
AcDbEntity
  8
0
 62
     0
370
    -2
100
AcDbLine
 10
829.9194226157178
 20
-428.7984652802466
 30
0.0
 11
815.1694226157179
 21
-428.7984652802466
 31
0.0
  0
LINE
  5
1059
330
FE0
100
AcDbEntity
  8
0
 62
     0
370
    -2
100
AcDbLine
 10
837.1517833199339
 20
-428.7984652802466
 30
0.0
 11
832.4194226157176
 21
-428.7984652802466
 31
0.0
  0
INSERT
  5
105A
330
FE0
100
AcDbEntity
  8
0
 62
     0
370
    -2
100
AcDbBlockReference
  2
_Open30
 10
837.1517833199339
 20
-428.7984652802466
 30
0.0
 41
2.5
 42
2.5
 43
2.5
 50
180.0
  0
INSERT
  5
105B
330
FE0
100
AcDbEntity
  8
0
 62
     0
370
    -2
100
AcDbBlockReference
  2
_Open30
 10
832.4194226157176
 20
-428.7984652802466
 30
0.0
 41
2.5
 42
2.5
 43
2.5
  0
MTEXT
  5
105C
330
FE0
100
AcDbEntity
  8
0
 62
     4
100
AcDbMText
 10
821.2944226157176
 20
-426.6734652802466
 30
0.0
 40
3.0
 41
0.0
 71
     5
 72
     1
  1
18.93
 73
     1
 44
1.0
1001
ACAD
1000
MTEXTBEGIN
1070
    73
1070
     1
1070
    44
1040
1.0
1070
    74
1070
     0
1000
MTEXTEND
  0
POINT
  5
105D
330
FE0
100
AcDbEntity
  8
Defpoints
 62
     0
100
AcDbPoint
 10
837.1517833199339
 20
-427.9800517727903
 30
0.0
  0
POINT
  5
105E
330
FE0
100
AcDbEntity
  8
Defpoints
 62
     0
100
AcDbPoint
 10
832.4194226157176
 20
-427.9800517727903
 30
0.0
  0
POINT
  5
105F
330
FE0
100
AcDbEntity
  8
Defpoints
 62
     0
100
AcDbPoint
 10
832.4194226157176
 20
-428.7984652802466
 30
0.0
  0
ENDBLK
  5
FE2
330
FE0
100
AcDbEntity
  8
0
100
AcDbBlockEnd
  0
BLOCK
  5
FEF
330
FEE
100
AcDbEntity
  8
0
100
AcDbBlockBegin
  2
*D24
 70
     1
 10
0.0
 20
0.0
 30
0.0
  3
*D24
  1

  0
LINE
  5
1060
330
FEE
100
AcDbEntity
  8
0
 62
     0
370
    -2
100
AcDbLine
 10
834.3473564687956
 20
-433.28589197938
 30
0.0
 11
834.3473564687956
 21
-435.5958130562554
 31
0.0
  0
LINE
  5
1061
330
FEE
100
AcDbEntity
  8
0
 62
     0
370
    -2
100
AcDbLine
 10
829.7586812666478
 20
-433.28589197938
 30
0.0
 11
829.7586812666478
 21
-435.5958130562554
 31
0.0
  0
LINE
  5
1062
330
FEE
100
AcDbEntity
  8
0
 62
     0
370
    -2
100
AcDbLine
 10
836.8473564687956
 20
-434.3458130562555
 30
0.0
 11
839.3473564687957
 21
-434.3458130562555
 31
0.0
  0
LINE
  5
1063
330
FEE
100
AcDbEntity
  8
0
 62
     0
370
    -2
100
AcDbLine
 10
827.2586812666476
 20
-434.3458130562555
 30
0.0
 11
812.5086812666477
 21
-434.3458130562555
 31
0.0
  0
LINE
  5
1064
330
FEE
100
AcDbEntity
  8
0
 62
     0
370
    -2
100
AcDbLine
 10
834.3473564687956
 20
-434.3458130562555
 30
0.0
 11
829.7586812666478
 21
-434.3458130562555
 31
0.0
  0
INSERT
  5
1065
330
FEE
100
AcDbEntity
  8
0
 62
     0
370
    -2
100
AcDbBlockReference
  2
_Open30
 10
834.3473564687956
 20
-434.3458130562555
 30
0.0
 41
2.5
 42
2.5
 43
2.5
 50
180.0
  0
INSERT
  5
1066
330
FEE
100
AcDbEntity
  8
0
 62
     0
370
    -2
100
AcDbBlockReference
  2
_Open30
 10
829.7586812666478
 20
-434.3458130562555
 30
0.0
 41
2.5
 42
2.5
 43
2.5
  0
MTEXT
  5
1067
330
FEE
100
AcDbEntity
  8
0
 62
     4
100
AcDbMText
 10
818.6336812666478
 20
-432.2208130562556
 30
0.0
 40
3.0
 41
0.0
 71
     5
 72
     1
  1
13.77
 73
     1
 44
1.0
1001
ACAD
1000
MTEXTBEGIN
1070
    73
1070
     1
1070
    44
1040
1.0
1070
    74
1070
     0
1000
MTEXTEND
  0
POINT
  5
1068
330
FEE
100
AcDbEntity
  8
Defpoints
 62
     0
100
AcDbPoint
 10
834.3473564687956
 20
-433.0358919793799
 30
0.0
  0
POINT
  5
1069
330
FEE
100
AcDbEntity
  8
Defpoints
 62
     0
100
AcDbPoint
 10
829.7586812666478
 20
-433.0358919793799
 30
0.0
  0
POINT
  5
106A
330
FEE
100
AcDbEntity
  8
Defpoints
 62
     0
100
AcDbPoint
 10
829.7586812666478
 20
-434.3458130562555
 30
0.0
  0
ENDBLK
  5
FF0
330
FEE
100
AcDbEntity
  8
0
100
AcDbBlockEnd
  0
BLOCK
  5
FFD
330
FFC
100
AcDbEntity
  8
0
100
AcDbBlockBegin
  2
*D25
 70
     1
 10
0.0
 20
0.0
 30
0.0
  3
*D25
  1

  0
LINE
  5
106B
330
FFC
100
AcDbEntity
  8
0
 62
     0
370
    -2
100
AcDbLine
 10
827.2510736356453
 20
-402.3564006611056
 30
0.0
 11
827.2510736356453
 21
-394.959867183168
 31
0.0
  0
LINE
  5
106C
330
FFC
100
AcDbEntity
  8
0
 62
     0
370
    -2
100
AcDbLine
 10
817.3125992661551
 20
-402.3564006611056
 30
0.0
 11
817.3125992661551
 21
-394.959867183168
 31
0.0
  0
LINE
  5
106D
330
FFC
100
AcDbEntity
  8
0
 62
     0
370
    -2
100
AcDbLine
 10
824.7510736356453
 20
-396.2098671831681
 30
0.0
 11
819.8125992661552
 21
-396.2098671831681
 31
0.0
  0
INSERT
  5
106E
330
FFC
100
AcDbEntity
  8
0
 62
     0
370
    -2
100
AcDbBlockReference
  2
_Open30
 10
827.2510736356453
 20
-396.2098671831681
 30
0.0
 41
2.5
 42
2.5
 43
2.5
  0
INSERT
  5
106F
330
FFC
100
AcDbEntity
  8
0
 62
     0
370
    -2
100
AcDbBlockReference
  2
_Open30
 10
817.3125992661551
 20
-396.2098671831681
 30
0.0
 41
2.5
 42
2.5
 43
2.5
 50
180.0
  0
MTEXT
  5
1070
330
FFC
100
AcDbEntity
  8
0
 62
     4
100
AcDbMText
 10
820.1762267972354
 20
-394.0848671831679
 30
0.0
 40
3.0
 41
0.0
 71
     5
 72
     1
  1
9.94
 73
     1
 44
1.0
1001
ACAD
1000
MTEXTBEGIN
1070
    73
1070
     1
1070
    44
1040
1.0
1070
    74
1070
     0
1000
MTEXTEND
  0
POINT
  5
1071
330
FFC
100
AcDbEntity
  8
Defpoints
 62
     0
100
AcDbPoint
 10
827.2510736356453
 20
-402.6064006611056
 30
0.0
  0
POINT
  5
1072
330
FFC
100
AcDbEntity
  8
Defpoints
 62
     0
100
AcDbPoint
 10
817.3125992661551
 20
-402.6064006611056
 30
0.0
  0
POINT
  5
1073
330
FFC
100
AcDbEntity
  8
Defpoints
 62
     0
100
AcDbPoint
 10
817.3125992661551
 20
-396.2098671831681
 30
0.0
  0
ENDBLK
  5
FFE
330
FFC
100
AcDbEntity
  8
0
100
AcDbBlockEnd
  0
ENDSEC
  0
SECTION
  2
ENTITIES
  0
LINE
  5
BE
330
36
100
AcDbEntity
  8
0
  6
CENTER
 62
     7
100
AcDbLine
 10
471.8511394094908
 20
-595.9065764658946
 30
0.0
 11
471.8511394094908
 21
-558.8430764658943
 31
0.0
  0
LINE
  5
C2
330
36
100
AcDbEntity
  8
0
 62
     3
100
AcDbLine
 10
531.8511394094906
 20
-578.3010334658946
 30
0.0
 11
531.8511394094906
 21
-585.3221614658946
 31
0.0
  0
LINE
  5
C4
330
36
100
AcDbEntity
  8
0
 62
     3
100
AcDbLine
 10
531.8511394094906
 20
-585.3221614658946
 30
0.0
 11
521.8511394094908
 21
-588.3115974658948
 31
0.0
  0
LINE
  5
C6
330
36
100
AcDbEntity
  8
0
 62
     3
100
AcDbLine
 10
531.8511394094906
 20
-578.3010334658946
 30
0.0
 11
521.8511394094908
 21
-575.3115974658943
 31
0.0
  0
ARC
  5
CC
330
36
100
AcDbEntity
  8
0
 62
     3
100
AcDbCircle
 10
477.8511394094906
 20
-563.3337634658946
 30
0.0
 40
2.5
100
AcDbArc
 50
0.0
 51
90.0
  0
LINE
  5
CD
330
36
100
AcDbEntity
  8
0
 62
     3
100
AcDbLine
 10
465.8511394094906
 20
-560.8337634658946
 30
0.0
 11
477.8511394094906
 21
-560.8337634658946
 31
0.0
  0
ARC
  5
D4
330
36
100
AcDbEntity
  8
0
 62
     3
100
AcDbCircle
 10
465.8511394094906
 20
-563.3337634658946
 30
0.0
 40
2.5
100
AcDbArc
 50
90.0
 51
180.0
  0
ARC
  5
E0
330
36
100
AcDbEntity
  8
0
 62
     3
100
AcDbCircle
 10
520.3511394094906
 20
-572.8115974658948
 30
0.0
 40
1.5
100
AcDbArc
 50
0.0
 51
90.0
  0
ARC
  5
E1
330
36
100
AcDbEntity
  8
0
 62
     3
100
AcDbCircle
 10
520.3511394094906
 20
-590.8115974658946
 30
0.0
 40
1.5
100
AcDbArc
 50
270.0
 51
0.0
  0
ARC
  5
E2
330
36
100
AcDbEntity
  8
0
 62
     3
100
AcDbCircle
 10
517.3511394094908
 20
-593.3059564658946
 30
0.0
 40
1.0
100
AcDbArc
 50
270.0
 51
0.0
  0
ARC
  5
E3
330
36
100
AcDbEntity
  8
0
 62
     3
100
AcDbCircle
 10
517.3511394094908
 20
-570.3172384658946
 30
0.0
 40
1.0
100
AcDbArc
 50
0.0
 51
69.26284099999887
  0
LINE
  5
E4
330
36
100
AcDbEntity
  8
0
 62
     3
100
AcDbLine
 10
518.3511394094908
 20
-571.3115974658943
 30
0.0
 11
520.3511394094906
 21
-571.3115974658943
 31
0.0
  0
LINE
  5
E5
330
36
100
AcDbEntity
  8
0
 62
     3
100
AcDbLine
 10
518.3511394094908
 20
-592.3115974658948
 30
0.0
 11
520.3511394094906
 21
-592.3115974658948
 31
0.0
  0
LINE
  5
100
330
36
100
AcDbEntity
  8
0
 62
     3
100
AcDbLine
 10
517.3511394094908
 20
-594.3059564658946
 30
0.0
 11
471.3511394094906
 21
-594.3059564658946
 31
0.0
  0
LINE
  5
101
330
36
100
AcDbEntity
  8
0
 62
     3
100
AcDbLine
 10
501.8412464094907
 20
-569.3820234658947
 30
0.0
 11
517.7052204094906
 21
-569.3820234658947
 31
0.0
  0
LINE
  5
111
330
36
100
AcDbEntity
  8
0
 62
     3
100
AcDbLine
 10
521.8511394094908
 20
-572.8115974658948
 30
0.0
 11
521.8511394094908
 21
-581.8115974658947
 31
0.0
  0
LINE
  5
112
330
36
100
AcDbEntity
  8
0
 62
     3
100
AcDbLine
 10
521.8511394094908
 20
-590.8115974658946
 30
0.0
 11
521.8511394094908
 21
-581.8115974658947
 31
0.0
  0
LINE
  5
12D
330
36
100
AcDbEntity
  8
0
 62
     3
100
AcDbLine
 10
411.8511394094906
 20
-578.3010334658946
 30
0.0
 11
411.8511394094906
 21
-585.3221614658946
 31
0.0
  0
LINE
  5
12F
330
36
100
AcDbEntity
  8
0
 62
     3
100
AcDbLine
 10
411.8511394094906
 20
-585.3221614658946
 30
0.0
 11
421.8511394094908
 21
-588.3115974658948
 31
0.0
  0
LINE
  5
131
330
36
100
AcDbEntity
  8
0
 62
     3
100
AcDbLine
 10
411.8511394094906
 20
-578.3010334658946
 30
0.0
 11
421.8511394094908
 21
-575.3115974658943
 31
0.0
  0
ARC
  5
133
330
36
100
AcDbEntity
  8
0
 62
     3
100
AcDbCircle
 10
423.3511394094906
 20
-572.8115974658948
 30
0.0
 40
1.5
100
AcDbArc
 50
90.0
 51
180.0
  0
ARC
  5
134
330
36
100
AcDbEntity
  8
0
 62
     3
100
AcDbCircle
 10
423.3511394094906
 20
-590.8115974658946
 30
0.0
 40
1.5
100
AcDbArc
 50
180.0
 51
270.0
  0
ARC
  5
135
330
36
100
AcDbEntity
  8
0
 62
     3
100
AcDbCircle
 10
426.3511394094908
 20
-593.3059564658946
 30
0.0
 40
1.0
100
AcDbArc
 50
180.0
 51
270.0
  0
ARC
  5
136
330
36
100
AcDbEntity
  8
0
 62
     3
100
AcDbCircle
 10
426.3511394094908
 20
-570.3172384658946
 30
0.0
 40
1.0
100
AcDbArc
 50
110.7371590000011
 51
180.0
  0
LINE
  5
13C
330
36
100
AcDbEntity
  8
0
 62
     3
100
AcDbLine
 10
426.3511394094908
 20
-594.3059564658946
 30
0.0
 11
472.3511394094908
 21
-594.3059564658946
 31
0.0
  0
LINE
  5
13D
330
36
100
AcDbEntity
  8
0
 62
     3
100
AcDbLine
 10
441.8110314094906
 20
-569.3820234658947
 30
0.0
 11
425.9970574094906
 21
-569.3820234658947
 31
0.0
  0
LINE
  5
14D
330
36
100
AcDbEntity
  8
0
 62
     3
100
AcDbLine
 10
421.8511394094908
 20
-572.8115974658948
 30
0.0
 11
421.8511394094908
 21
-581.8115974658947
 31
0.0
  0
LINE
  5
14E
330
36
100
AcDbEntity
  8
0
 62
     3
100
AcDbLine
 10
421.8511394094908
 20
-590.8115974658946
 30
0.0
 11
421.8511394094908
 21
-581.8115974658947
 31
0.0
  0
ARC
  5
172
330
36
100
AcDbEntity
  8
0
 62
     3
100
AcDbCircle
 10
577.973045415579
 20
-566.9984034658947
 30
0.0
 40
2.0
100
AcDbArc
 50
90.0
 51
180.0
  0
ARC
  5
173
330
36
100
AcDbEntity
  8
0
 62
     3
100
AcDbCircle
 10
606.984332415579
 20
-593.9927624658946
 30
0.0
 40
2.0
100
AcDbArc
 50
270.0
 51
0.0
  0
ARC
  5
174
330
36
100
AcDbEntity
  8
0
 62
     3
100
AcDbCircle
 10
603.984332415579
 20
-566.9984034658947
 30
0.0
 40
2.0
100
AcDbArc
 50
0.0
 51
90.0
  0
LINE
  5
177
330
36
100
AcDbEntity
  8
0
 62
     3
100
AcDbLine
 10
608.984332415579
 20
-593.9927624658946
 30
0.0
 11
608.984332415579
 21
-586.0229084658945
 31
0.0
  0
LINE
  5
179
330
36
100
AcDbEntity
  8
0
 62
     3
100
AcDbLine
 10
609.9843324155791
 20
-585.5229084658946
 30
0.0
 11
609.9843324155791
 21
-581.5229084658946
 31
0.0
  0
LINE
  5
17A
330
36
100
AcDbEntity
  8
0
 62
     3
100
AcDbLine
 10
609.484332415579
 20
-581.0229084658948
 30
0.0
 11
608.984332415579
 21
-581.0229084658948
 31
0.0
  0
ARC
  5
17B
330
36
100
AcDbEntity
  8
0
 62
     3
100
AcDbCircle
 10
609.484332415579
 20
-581.5229084658946
 30
0.0
 40
0.5
100
AcDbArc
 50
0.0
 51
90.0
  0
ARC
  5
17C
330
36
100
AcDbEntity
  8
0
 62
     3
100
AcDbCircle
 10
609.484332415579
 20
-585.5229084658946
 30
0.0
 40
0.5
100
AcDbArc
 50
270.0
 51
0.0
  0
LINE
  5
17D
330
36
100
AcDbEntity
  8
0
 62
     3
100
AcDbLine
 10
609.484332415579
 20
-586.0229084658945
 30
0.0
 11
608.984332415579
 21
-586.0229084658945
 31
0.0
  0
ARC
  5
184
330
36
100
AcDbEntity
  8
0
 62
     3
100
AcDbCircle
 10
596.4786884155787
 20
-565.5063704658947
 30
0.0
 40
3.0
100
AcDbArc
 50
9.748420432632881
 51
80.78647100000067
  0
LINE
  5
186
330
36
100
AcDbEntity
  8
0
 62
     3
100
AcDbLine
 10
584.998345415579
 20
-562.5450744658945
 30
0.0
 11
596.959031415579
 21
-562.5450744658945
 31
0.0
  0
ARC
  5
18C
330
36
100
AcDbEntity
  8
0
 62
     3
100
AcDbCircle
 10
585.478688415579
 20
-565.5063704658947
 30
0.0
 40
3.0
100
AcDbArc
 50
99.21352899999936
 51
170.2515795673671
  0
LINE
  5
1E9
330
36
100
AcDbEntity
  8
0
 62
     3
100
AcDbLine
 10
518.3511394094908
 20
-570.3172384658946
 30
0.0
 11
518.3511394094908
 21
-571.3115974658943
 31
0.0
  0
LINE
  5
1EA
330
36
100
AcDbEntity
  8
0
 62
     3
100
AcDbLine
 10
518.3511394094908
 20
-593.3059564658946
 30
0.0
 11
518.3511394094908
 21
-592.3115974658948
 31
0.0
  0
LINE
  5
1EB
330
36
100
AcDbEntity
  8
0
 62
     3
100
AcDbLine
 10
425.3511394094906
 20
-570.3172384658946
 30
0.0
 11
425.3511394094906
 21
-571.3115974658943
 31
0.0
  0
LINE
  5
1EC
330
36
100
AcDbEntity
  8
0
 62
     3
100
AcDbLine
 10
423.3511394094906
 20
-571.3115974658943
 30
0.0
 11
425.3511394094906
 21
-571.3115974658943
 31
0.0
  0
LINE
  5
1ED
330
36
100
AcDbEntity
  8
0
 62
     3
100
AcDbLine
 10
423.3511394094906
 20
-592.3115974658948
 30
0.0
 11
425.3511394094906
 21
-592.3115974658948
 31
0.0
  0
LINE
  5
1EE
330
36
100
AcDbEntity
  8
0
 62
     3
100
AcDbLine
 10
425.3511394094906
 20
-593.3059564658946
 30
0.0
 11
425.3511394094906
 21
-592.3115974658948
 31
0.0
  0
LINE
  5
1F0
330
36
100
AcDbEntity
  8
0
 62
     3
100
AcDbLine
 10
577.973045415579
 20
-564.9984034658947
 30
0.0
 11
603.984332415579
 21
-564.9984034658947
 31
0.0
  0
TEXT
  5
205
330
36
100
AcDbEntity
  8
0
 62
     3
100
AcDbText
 10
668.4518769299052
 20
-719.4156200316371
 30
0.0
 40
3.2
  1
2010,12,10
  7
高3.2
100
AcDbText
  0
TEXT
  5
206
330
36
100
AcDbEntity
  8
0
 62
     3
100
AcDbText
 10
607.4762250165993
 20
-698.390938022688
 30
0.0
 40
4.5
  1
セーフティスイッチ
 41
0.9
  7
高4.5
100
AcDbText
  0
ARC
  5
2F2
330
36
100
AcDbEntity
  8
0
 62
     3
100
AcDbCircle
 10
574.9730454155788
 20
-593.9927624658946
 30
0.0
 40
2.0
100
AcDbArc
 50
180.0
 51
270.0
  0
LINE
  5
2F3
330
36
100
AcDbEntity
  8
0
 62
     3
100
AcDbLine
 10
572.973045415579
 20
-593.9927624658946
 30
0.0
 11
572.973045415579
 21
-586.0229084658945
 31
0.0
  0
LINE
  5
2FB
330
36
100
AcDbEntity
  8
0
 62
     3
100
AcDbLine
 10
572.473045415579
 20
-586.0229084658945
 30
0.0
 11
572.973045415579
 21
-586.0229084658945
 31
0.0
  0
ARC
  5
2FC
330
36
100
AcDbEntity
  8
0
 62
     3
100
AcDbCircle
 10
572.473045415579
 20
-585.5229084658946
 30
0.0
 40
0.5
100
AcDbArc
 50
180.0
 51
270.0
  0
LINE
  5
2FD
330
36
100
AcDbEntity
  8
0
 62
     3
100
AcDbLine
 10
571.973045415579
 20
-585.5229084658946
 30
0.0
 11
571.973045415579
 21
-581.5229084658946
 31
0.0
  0
ARC
  5
2FE
330
36
100
AcDbEntity
  8
0
 62
     3
100
AcDbCircle
 10
572.473045415579
 20
-581.5229084658946
 30
0.0
 40
0.5
100
AcDbArc
 50
90.0
 51
180.0
  0
LINE
  5
2FF
330
36
100
AcDbEntity
  8
0
 62
     3
100
AcDbLine
 10
572.473045415579
 20
-581.0229084658948
 30
0.0
 11
572.973045415579
 21
-581.0229084658948
 31
0.0
  0
LINE
  5
303
330
36
100
AcDbEntity
  8
0
 62
     3
100
AcDbLine
 10
576.973045415579
 20
-595.9927624658946
 30
0.0
 11
604.984332415579
 21
-595.9927624658944
 31
0.0
  0
LINE
  5
304
330
36
100
AcDbEntity
  8
0
 62
     3
100
AcDbLine
 10
608.984332415579
 20
-577.4019204658948
 30
0.0
 11
608.984332415579
 21
-581.0229084658948
 31
0.0
  0
LINE
  5
306
330
36
100
AcDbEntity
  8
0
 62
     3
100
AcDbLine
 10
608.5175484155787
 20
-576.1176894658947
 30
0.0
 11
605.984332415579
 21
-573.0933344658946
 31
0.0
  0
ARC
  5
309
330
36
100
AcDbEntity
  8
0
 62
     3
100
AcDbCircle
 10
606.984332415579
 20
-577.4019204658948
 30
0.0
 40
2.0
100
AcDbArc
 50
0.0
 51
39.94972600000116
  0
LINE
  5
30C
330
36
100
AcDbEntity
  8
0
 62
     3
100
AcDbLine
 10
573.439828415579
 20
-576.1176894658947
 30
0.0
 11
575.973045415579
 21
-573.0933344658946
 31
0.0
  0
ARC
  5
30D
330
36
100
AcDbEntity
  8
0
 62
     3
100
AcDbCircle
 10
574.9730454155788
 20
-577.4019204658948
 30
0.0
 40
2.0
100
AcDbArc
 50
140.0502739999988
 51
180.0
  0
LINE
  5
30E
330
36
100
AcDbEntity
  8
0
 62
     3
100
AcDbLine
 10
572.973045415579
 20
-577.4019204658948
 30
0.0
 11
572.973045415579
 21
-581.0229084658946
 31
0.0
  0
LINE
  5
310
330
36
100
AcDbEntity
  8
0
 62
     3
100
AcDbLine
 10
491.8511394094906
 20
-563.3115974658948
 30
0.0
 11
501.8412464094907
 21
-569.3820234658947
 31
0.0
  0
LINE
  5
311
330
36
100
AcDbEntity
  8
0
 62
     3
100
AcDbLine
 10
451.8511394094907
 20
-563.3115974658948
 30
0.0
 11
441.8110314094906
 21
-569.3820234658947
 31
0.0
  0
TEXT
  5
330
330
36
100
AcDbEntity
  8
0
 62
     3
100
AcDbText
 10
662.1821319256248
 20
-729.6401870316373
 30
0.0
 40
6.299999999999998
  1
SW-01
  7
高6.3
100
AcDbText
  0
TEXT
  5
331
330
36
100
AcDbEntity
  8
0
 62
     3
100
AcDbText
 10
638.2348888869197
 20
-719.1853314683927
 30
0.0
 40
3.2
  1
1/1
  7
高3.2
100
AcDbText
  0
LINE
  5
333
330
36
100
AcDbEntity
  8
0
 62
     3
100
AcDbLine
 10
605.984332415579
 20
-566.9984034658947
 30
0.0
 11
605.984332415579
 21
-573.0933344658946
 31
0.0
  0
LINE
  5
335
330
36
100
AcDbEntity
  8
0
 62
     3
100
AcDbLine
 10
575.973045415579
 20
-566.9984034658947
 30
0.0
 11
575.973045415579
 21
-573.0933344658946
 31
0.0
  0
TEXT
  5
34D
330
36
100
AcDbEntity
  8
0
 62
     3
100
AcDbText
 10
595.2530491386335
 20
-657.438239953888
 30
0.0
 40
4.5
  1
適応電線径 %%C7～%%C10.9
 41
0.8
  7
高4.5
100
AcDbText
  0
TEXT
  5
34E
330
36
100
AcDbEntity
  8
0
 62
     3
100
AcDbText
 10
315.4054169428663
 20
-730.1306191887309
 30
0.0
 40
3.2
  1
No
 41
0.8
  7
高3.2
100
AcDbText
  0
TEXT
  5
34F
330
36
100
AcDbEntity
  8
0
 62
     3
100
AcDbText
 10
325.9587352952408
 20
-730.1306191887309
 30
0.0
 40
3.2
  1
部　　品　　名
 41
0.8
  7
高3.2
100
AcDbText
  0
TEXT
  5
350
330
36
100
AcDbEntity
  8
0
 62
     3
100
AcDbText
 10
356.5847140559457
 20
-730.1306191887309
 30
0.0
 40
3.2
  1
材　　質
 41
0.8
  7
高3.2
100
AcDbText
  0
TEXT
  5
351
330
36
100
AcDbEntity
  8
0
 62
     3
100
AcDbText
 10
402.1591402942521
 20
-730.1306191887309
 30
0.0
 40
3.2
  1
個数
 41
0.8
  7
高3.2
100
AcDbText
  0
TEXT
  5
352
330
36
100
AcDbEntity
  8
0
 62
     3
100
AcDbText
 10
315.9965720212878
 20
-725.130619188731
 30
0.0
 40
3.2
  1
1
 41
0.8
  7
高3.2
100
AcDbText
  0
TEXT
  5
353
330
36
100
AcDbEntity
  8
0
 62
     3
100
AcDbText
 10
315.9965720212878
 20
-720.130619188731
 30
0.0
 40
3.2
  1
2
 41
0.8
  7
高3.2
100
AcDbText
  0
TEXT
  5
354
330
36
100
AcDbEntity
  8
0
 62
     3
100
AcDbText
 10
315.9965720212878
 20
-715.1306191887307
 30
0.0
 40
3.2
  1
3
 41
0.8
  7
高3.2
100
AcDbText
  0
TEXT
  5
355
330
36
100
AcDbEntity
  8
0
 62
     3
100
AcDbText
 10
315.9965720212878
 20
-710.1306191887309
 30
0.0
 40
3.2
  1
4
 41
0.8
  7
高3.2
100
AcDbText
  0
TEXT
  5
356
330
36
100
AcDbEntity
  8
0
 62
     3
100
AcDbText
 10
315.9965720212878
 20
-705.1306191887309
 30
0.0
 40
3.2
  1
5
 41
0.8
  7
高3.2
100
AcDbText
  0
TEXT
  5
357
330
36
100
AcDbEntity
  8
0
 62
     3
100
AcDbText
 10
325.9587352952408
 20
-725.130619188731
 30
0.0
 40
3.2
  1
上部ケース
 41
0.8
  7
高3.2
100
AcDbText
  0
TEXT
  5
358
330
36
100
AcDbEntity
  8
0
 62
     3
100
AcDbText
 10
325.9587352952408
 20
-720.130619188731
 30
0.0
 40
3.2
  1
下部ケース
 41
0.8
  7
高3.2
100
AcDbText
  0
TEXT
  5
359
330
36
100
AcDbEntity
  8
0
 62
     3
100
AcDbText
 10
325.9587352952408
 20
-705.1306191887309
 30
0.0
 40
3.2
  1
中間パッキン
 41
0.8
  7
高3.2
100
AcDbText
  0
TEXT
  5
35A
330
36
100
AcDbEntity
  8
0
 62
     3
100
AcDbText
 10
325.9587352952408
 20
-715.1306191887309
 30
0.0
 40
3.2
  1
スイッチパッキン
 41
0.8
  7
高3.2
100
AcDbText
  0
TEXT
  5
35B
330
36
100
AcDbEntity
  8
0
 62
     3
100
AcDbText
 10
325.9587352952407
 20
-700.130619188731
 30
0.0
 40
3.2
  1
リード板 A,B,C
 41
0.8
  7
高3.2
100
AcDbText
  0
TEXT
  5
35C
330
36
100
AcDbEntity
  8
0
 62
     3
100
AcDbText
 10
356.5847140559457
 20
-700.130619188731
 30
0.0
 40
3.2
  1
C2680R-1/2H
 41
0.8
  7
高3.2
100
AcDbText
  0
TEXT
  5
35D
330
36
100
AcDbEntity
  8
0
 62
     3
100
AcDbText
 10
356.5847140559457
 20
-725.130619188731
 30
0.0
 40
3.2
  1
耐熱ABS樹脂
 41
0.8
  7
高3.2
100
AcDbText
  0
TEXT
  5
35E
330
36
100
AcDbEntity
  8
0
 62
     3
100
AcDbText
 10
356.5847140559457
 20
-720.130619188731
 30
0.0
 40
3.2
  1
耐熱ABS樹脂
 41
0.8
  7
高3.2
100
AcDbText
  0
TEXT
  5
35F
330
36
100
AcDbEntity
  8
0
 62
     3
100
AcDbText
 10
356.5847140559457
 20
-705.1306191887309
 30
0.0
 40
3.2
  1
合成ゴム
 41
0.8
  7
高3.2
100
AcDbText
  0
TEXT
  5
360
330
36
100
AcDbEntity
  8
0
 62
     3
100
AcDbText
 10
356.5847140559457
 20
-715.1306191887309
 30
0.0
 40
3.2
  1
シリコン樹脂
 41
0.8
  7
高3.2
100
AcDbText
  0
TEXT
  5
361
330
36
100
AcDbEntity
  8
0
 62
     3
100
AcDbText
 10
405.6723236101771
 20
-725.130619188731
 30
0.0
 40
3.2
  1
1
 41
0.8
  7
高3.2
100
AcDbText
  0
TEXT
  5
362
330
36
100
AcDbEntity
  8
0
 62
     3
100
AcDbText
 10
405.6723236101771
 20
-720.130619188731
 30
0.0
 40
3.2
  1
1
 41
0.8
  7
高3.2
100
AcDbText
  0
TEXT
  5
363
330
36
100
AcDbEntity
  8
0
 62
     3
100
AcDbText
 10
405.6723236101771
 20
-715.1306191887307
 30
0.0
 40
3.2
  1
1
 41
0.8
  7
高3.2
100
AcDbText
  0
TEXT
  5
364
330
36
100
AcDbEntity
  8
0
 62
     3
100
AcDbText
 10
405.6723236101771
 20
-710.1306191887309
 30
0.0
 40
3.2
  1
1
 41
0.8
  7
高3.2
100
AcDbText
  0
TEXT
  5
365
330
36
100
AcDbEntity
  8
0
 62
     3
100
AcDbText
 10
402.5095813109714
 20
-700.130619188731
 30
0.0
 40
3.2
  1
各１
 41
0.8
  7
高3.2
100
AcDbText
  0
TEXT
  5
366
330
36
100
AcDbEntity
  8
0
 62
     3
100
AcDbText
 10
315.9965720212878
 20
-700.130619188731
 30
0.0
 40
3.2
  1
6
 41
0.8
  7
高3.2
100
AcDbText
  0
TEXT
  5
367
330
36
100
AcDbEntity
  8
0
 62
     3
100
AcDbText
 10
405.4705468356095
 20
-705.1306191887309
 30
0.0
 40
3.2
  1
1
 41
0.8
  7
高3.2
100
AcDbText
  0
TEXT
  5
368
330
36
100
AcDbEntity
  8
0
 62
     3
100
AcDbText
 10
315.9965720212878
 20
-695.130619188731
 30
0.0
 40
3.2
  1
付属
 41
0.8
  7
高3.2
100
AcDbText
  0
TEXT
  5
49D
330
36
100
AcDbEntity
  8
0
 62
     3
100
AcDbText
 10
609.9528508869195
 20
-712.9082404683928
 30
0.0
 40
3.2
  1
別　掲
  7
高3.2
100
AcDbText
  0
TEXT
  5
49E
330
36
100
AcDbEntity
  8
0
 62
     3
100
AcDbText
 10
325.9587352952407
 20
-695.130619188731
 30
0.0
 40
3.2
  1
被覆圧着端子
 41
0.8
  7
高3.2
100
AcDbText
  0
TEXT
  5
49F
330
36
100
AcDbEntity
  8
0
 62
     3
100
AcDbText
 10
405.1779128215136
 20
-695.130619188731
 30
0.0
 40
3.2
  1
4
 41
0.8
  7
高3.2
100
AcDbText
  0
TEXT
  5
4A0
330
36
100
AcDbEntity
  8
0
 62
     3
100
AcDbText
 10
325.9587352952408
 20
-710.1306191887309
 30
0.0
 40
3.2
  1
ランプ付きスイッチ
 41
0.8
  7
高3.2
100
AcDbText
  0
TEXT
  5
4A1
330
36
100
AcDbEntity
  8
0
 62
     3
100
AcDbText
 10
386.9841352038632
 20
-730.1306191887309
 30
0.0
 40
3.2
  1
備　　考
 41
0.8
  7
高3.2
100
AcDbText
  0
LINE
  5
4A3
330
36
100
AcDbEntity
  8
0
 62
     7
100
AcDbLine
 10
410.6723236101771
 20
-730.6306191887309
 30
0.0
 11
410.6723236101771
 21
-685.6306191887307
 31
0.0
  0
LINE
  5
4AA
330
36
100
AcDbEntity
  8
0
 62
     7
100
AcDbLine
 10
313.5850996890316
 20
-725.6306191887309
 30
0.0
 11
460.3861728788573
 21
-725.6306191887309
 31
0.0
  0
LINE
  5
4AB
330
36
100
AcDbEntity
  8
0
 62
     7
100
AcDbLine
 10
385.4841352038632
 20
-730.6306191887309
 30
0.0
 11
385.4841352038632
 21
-685.6306191887307
 31
0.0
  0
LINE
  5
4AC
330
36
100
AcDbEntity
  8
0
 62
     7
100
AcDbLine
 10
400.4279326101771
 20
-730.6306191887309
 30
0.0
 11
400.4279326101771
 21
-685.6306191887307
 31
0.0
  0
LINE
  5
4AD
330
36
100
AcDbEntity
  8
0
 62
     7
100
AcDbLine
 10
355.0847140559457
 20
-730.6306191887309
 30
0.0
 11
355.0847140559457
 21
-685.6306191887307
 31
0.0
  0
TEXT
  5
4E7
330
36
100
AcDbEntity
  8
0
 62
     3
100
AcDbText
 10
356.5847140559457
 20
-695.130619188731
 30
0.0
 40
3.2
  1
2－4
 41
0.8
  7
高3.2
100
AcDbText
  0
LINE
  5
4ED
330
36
100
AcDbEntity
  8
0
 62
     7
100
AcDbLine
 10
571.973045415579
 20
-582.9732474658944
 30
0.0
 11
560.8061424155788
 21
-570.8806134658947
 31
0.0
  0
CIRCLE
  5
4EE
330
36
100
AcDbEntity
  8
0
 62
     7
100
AcDbCircle
 10
557.414008415579
 20
-567.2072724658947
 30
0.0
 40
5.0
  0
TEXT
  5
4EF
330
36
100
AcDbEntity
  8
0
 62
     4
100
AcDbText
 10
555.2057667853296
 20
-570.6981824658946
 30
0.0
 40
6.981819
  1
5
 41
0.859375
100
AcDbText
  0
LINE
  5
4F8
330
36
100
AcDbEntity
  8
0
 62
     3
100
AcDbLine
 10
593.1158377608467
 20
-629.5963688152168
 30
0.0
 11
651.9262647608468
 21
-629.5963688152168
 31
0.0
  0
LINE
  5
4F9
330
36
100
AcDbEntity
  8
0
 62
     3
100
AcDbLine
 10
593.1158377608467
 20
-629.5963688152168
 30
0.0
 11
593.1158377608467
 21
-643.5963688152168
 31
0.0
  0
TEXT
  5
4FA
330
36
100
AcDbEntity
  8
0
 62
     3
100
AcDbText
 10
594.7679387608467
 20
-635.3179668152165
 30
0.0
 40
4.5
  1
定格電圧
  7
高4.5
100
AcDbText
  0
TEXT
  5
4FB
330
36
100
AcDbEntity
  8
0
 62
     3
100
AcDbText
 10
594.7679387608467
 20
-642.3179668152165
 30
0.0
 40
4.5
  1
定格電流
  7
高4.5
100
AcDbText
  0
TEXT
  5
4FC
330
36
100
AcDbEntity
  8
0
 62
     3
100
AcDbText
 10
628.5117221372985
 20
-642.4022198152169
 30
0.0
 40
4.5
  1
14A
  7
高4.5
100
AcDbText
  0
LINE
  5
4FD
330
36
100
AcDbEntity
  8
0
 62
     3
100
AcDbLine
 10
651.9262647608468
 20
-629.5963688152168
 30
0.0
 11
651.9262647608468
 21
-643.5963688152168
 31
0.0
  0
LINE
  5
4FE
330
36
100
AcDbEntity
  8
0
 62
     7
100
AcDbLine
 10
593.1158377608467
 20
-636.5963688152167
 30
0.0
 11
651.9262647608468
 21
-636.5963688152167
 31
0.0
  0
LINE
  5
4FF
330
36
100
AcDbEntity
  8
0
 62
     7
100
AcDbLine
 10
617.2547261372987
 20
-629.5963688152168
 30
0.0
 11
617.2547261372982
 21
-643.5963688152168
 31
0.0
  0
LINE
  5
500
330
36
100
AcDbEntity
  8
0
 62
     3
100
AcDbLine
 10
593.1158377608467
 20
-643.596368815217
 30
0.0
 11
651.9262647608468
 21
-643.596368815217
 31
0.0
  0
TEXT
  5
505
330
36
100
AcDbEntity
  8
0
 62
     3
100
AcDbText
 10
620.1389961372987
 20
-635.4791468152169
 30
0.0
 40
4.5
  1
AC125V
  7
高4.5
100
AcDbText
  0
TEXT
  5
506
330
36
100
AcDbEntity
  8
0
 62
     3
100
AcDbText
 10
600.6997717608468
 20
-627.278512815217
 30
0.0
 40
4.5
  1
主　仕　様（防雨型）
 41
0.833333
100
AcDbText
  0
LINE
  5
507
330
36
100
AcDbEntity
  8
0
 62
     7
100
AcDbLine
 10
599.2424457608469
 20
-627.6962798152167
 30
0.0
 11
643.7424457608467
 21
-627.6962798152167
 31
0.0
  0
LINE
  5
522
330
36
100
AcDbEntity
  8
0
 62
     3
100
AcDbLine
 10
500.4786206721745
 20
-638.1543196883566
 30
0.0
 11
497.4546206721746
 21
-640.5543196883566
 31
0.0
  0
LINE
  5
523
330
36
100
AcDbEntity
  8
0
 62
     3
100
AcDbLine
 10
497.4546206721746
 20
-640.5543196883566
 30
0.0
 11
500.4786206721745
 21
-642.9543196883567
 31
0.0
  0
LINE
  5
524
330
36
100
AcDbEntity
  8
0
 62
     3
100
AcDbLine
 10
500.4786206721745
 20
-642.9543196883567
 30
0.0
 11
503.5026206721745
 21
-640.5543196883566
 31
0.0
  0
LINE
  5
525
330
36
100
AcDbEntity
  8
0
 62
     3
100
AcDbLine
 10
503.5026206721745
 20
-640.5543196883566
 30
0.0
 11
500.4786206721745
 21
-638.1543196883566
 31
0.0
  0
LINE
  5
526
330
36
100
AcDbEntity
  8
0
 62
     7
100
AcDbLine
 10
512.3594186721745
 20
-639.0909816883564
 30
0.0
 11
509.9601436721745
 21
-639.0909816883564
 31
0.0
  0
LINE
  5
527
330
36
100
AcDbEntity
  8
0
 62
     7
100
AcDbLine
 10
511.1532936721745
 20
-639.0909816883564
 30
0.0
 11
511.1532936721745
 21
-642.0439346883564
 31
0.0
  0
LINE
  5
528
330
36
100
AcDbEntity
  8
0
 62
     7
100
AcDbLine
 10
509.1951536721746
 20
-639.0909816883564
 30
0.0
 11
507.2627066721745
 21
-639.0909816883564
 31
0.0
  0
LINE
  5
529
330
36
100
AcDbEntity
  8
0
 62
     7
100
AcDbLine
 10
509.1951536721746
 20
-640.5131756883564
 30
0.0
 11
507.2627066721745
 21
-640.5131756883564
 31
0.0
  0
LINE
  5
52A
330
36
100
AcDbEntity
  8
0
 62
     7
100
AcDbLine
 10
509.1951536721746
 20
-642.0439346883564
 30
0.0
 11
507.2627066721745
 21
-642.0439346883564
 31
0.0
  0
LINE
  5
52B
330
36
100
AcDbEntity
  8
0
 62
     7
100
AcDbLine
 10
507.2627066721745
 20
-639.0909816883564
 30
0.0
 11
507.2627066721745
 21
-642.0439346883564
 31
0.0
  0
ARC
  5
52C
330
36
100
AcDbEntity
  8
0
 62
     7
100
AcDbCircle
 10
505.5417546721746
 20
-641.0777106883566
 30
0.0
 40
0.966224
100
AcDbArc
 50
179.9999949999999
 51
359.9999879999999
  0
LINE
  5
52D
330
36
100
AcDbEntity
  8
0
 62
     7
100
AcDbLine
 10
506.5079786721746
 20
-641.0777106883566
 30
0.0
 11
506.5079786721746
 21
-639.0909816883564
 31
0.0
  0
TEXT
  5
52E
330
36
100
AcDbEntity
  8
0
 62
     7
100
AcDbText
 10
500.2968676721745
 20
-640.8560336883566
 30
0.0
 40
1.727999999999999
  1
S
100
AcDbText
  0
TEXT
  5
52F
330
36
100
AcDbEntity
  8
0
 62
     7
100
AcDbText
 10
499.0872676721743
 20
-640.8560336883566
 30
0.0
 40
1.727999999999999
  1
P
100
AcDbText
  0
TEXT
  5
530
330
36
100
AcDbEntity
  8
0
 62
     7
100
AcDbText
 10
499.6920676721745
 20
-642.3920336883566
 30
0.0
 40
1.727999999999999
  1
E
100
AcDbText
  0
ARC
  5
531
330
36
100
AcDbEntity
  8
0
 62
     7
100
AcDbCircle
 10
516.3560526721746
 20
-640.6475036883566
 30
0.0
 40
1.524195999999996
100
AcDbArc
 50
204.102092
 51
28.32624700000013
  0
LINE
  5
532
330
36
100
AcDbEntity
  8
0
 62
     7
100
AcDbLine
 10
518.0187446721745
 20
-639.5491776883566
 30
0.0
 11
516.5090586721745
 21
-642.1640306883564
 31
0.0
  0
LINE
  5
533
330
36
100
AcDbEntity
  8
0
 62
     7
100
AcDbLine
 10
516.3560526721746
 20
-639.1174456883566
 30
0.0
 11
516.3560526721746
 21
-642.1775626883563
 31
0.0
  0
LINE
  5
534
330
36
100
AcDbEntity
  8
0
 62
     7
100
AcDbLine
 10
514.6933606721745
 20
-641.7399676883566
 30
0.0
 11
516.2030466721746
 21
-639.1251146883567
 31
0.0
  0
ARC
  5
535
330
36
100
AcDbEntity
  8
0
 62
     7
100
AcDbCircle
 10
516.3560526721746
 20
-640.6475036883566
 30
0.0
 40
1.530059
100
AcDbArc
 50
26.80229100000008
 51
204.2608299999998
  0
TEXT
  5
536
330
36
100
AcDbEntity
  8
0
 62
     3
100
AcDbText
 10
495.7829906721745
 20
-649.3033416883568
 30
0.0
 40
4.5
  1
14A 125V
 41
0.8
  7
高4.5
100
AcDbText
  0
LINE
  5
537
330
36
100
AcDbEntity
  8
0
 62
     3
100
AcDbLine
 10
526.3007426721745
 20
-651.8021806883564
 30
0.0
 11
526.3007426721745
 21
-635.8021806883564
 31
0.0
  0
LINE
  5
538
330
36
100
AcDbEntity
  8
0
 62
     3
100
AcDbLine
 10
491.1007426721745
 20
-651.8021806883564
 30
0.0
 11
491.1007426721745
 21
-635.8021806883564
 31
0.0
  0
LINE
  5
539
330
36
100
AcDbEntity
  8
0
 62
     3
100
AcDbLine
 10
492.7007426721745
 20
-634.2021806883566
 30
0.0
 11
524.7007426721745
 21
-634.2021806883566
 31
0.0
  0
LINE
  5
53A
330
36
100
AcDbEntity
  8
0
 62
     3
100
AcDbLine
 10
524.7007426721745
 20
-653.4021806883564
 30
0.0
 11
492.7007426721745
 21
-653.4021806883564
 31
0.0
  0
ARC
  5
53B
330
36
100
AcDbEntity
  8
0
 62
     3
100
AcDbCircle
 10
524.7007426721745
 20
-635.8021806883564
 30
0.0
 40
1.6
100
AcDbArc
 50
0.0
 51
90.0
  0
ARC
  5
53C
330
36
100
AcDbEntity
  8
0
 62
     3
100
AcDbCircle
 10
492.7007426721745
 20
-635.8021806883564
 30
0.0
 40
1.6
100
AcDbArc
 50
90.0
 51
180.0
  0
ARC
  5
53D
330
36
100
AcDbEntity
  8
0
 62
     3
100
AcDbCircle
 10
492.7007426721745
 20
-651.8021806883564
 30
0.0
 40
1.6
100
AcDbArc
 50
180.0
 51
270.0
  0
ARC
  5
53E
330
36
100
AcDbEntity
  8
0
 62
     3
100
AcDbCircle
 10
524.7007426721745
 20
-651.8021806883564
 30
0.0
 40
1.6
100
AcDbArc
 50
270.0
 51
0.0
  0
TEXT
  5
53F
330
36
100
AcDbEntity
  8
0
 62
     3
100
AcDbText
 10
494.4884119906521
 20
-621.4811530189272
 30
0.0
 40
3.6
  1
ケース下面　表示
 41
0.833333
100
AcDbText
  0
LINE
  5
540
330
36
100
AcDbEntity
  8
0
 62
     7
100
AcDbLine
 10
490.7749866721743
 20
-622.3740478434215
 30
0.0
 11
526.3749856721744
 21
-622.3740478434215
 31
0.0
  0
TEXT
  5
541
330
36
100
AcDbEntity
  8
0
 62
     3
100
AcDbText
 10
502.9975106721745
 20
-660.4244006883566
 30
0.0
 40
4.5
  1
防雨型
  7
高4.5
100
AcDbText
  0
TEXT
  5
559
330
36
100
AcDbEntity
  8
0
 62
     3
100
AcDbText
 10
617.624262441233
 20
-705.9618329602596
 30
0.0
 40
4.5
  1
SW-01
  7
高4.5
100
AcDbText
  0
LINE
  5
5A0
330
36
100
AcDbEntity
  8
0
  6
Continuous
 62
     7
100
AcDbLine
 10
593.5931461856338
 20
-658.4455492153092
 30
0.0
 11
646.6399676471231
 21
-658.4455492153092
 31
0.0
  0
CIRCLE
  5
602
330
36
100
AcDbEntity
  8
0
  6
Continuous
 62
     7
100
AcDbCircle
 10
590.9786884155789
 20
-583.5229084658948
 30
0.0
 40
3.510564000000043
  0
CIRCLE
  5
603
330
36
100
AcDbEntity
  8
0
  6
Continuous
 62
     3
100
AcDbCircle
 10
590.9786884155789
 20
-583.5229084658948
 30
0.0
 40
6.5
  0
CIRCLE
  5
604
330
36
100
AcDbEntity
  8
0
  6
Continuous
 62
     3
100
AcDbCircle
 10
590.9786884155789
 20
-583.5229084658948
 30
0.0
 40
10.5
  0
LINE
  5
605
330
36
100
AcDbEntity
  8
0
  6
Continuous
 62
     3
100
AcDbLine
 10
576.973045415579
 20
-571.0933344658948
 30
0.0
 11
604.984332415579
 21
-571.0933344658948
 31
0.0
  0
LINE
  5
607
330
36
100
AcDbEntity
  8
0
  6
Continuous
 62
     3
100
AcDbLine
 10
606.484332415579
 20
-581.0229084658948
 30
0.0
 11
601.1767274427645
 21
-581.0229084658948
 31
0.0
  0
LINE
  5
608
330
36
100
AcDbEntity
  8
0
  6
Continuous
 62
     3
100
AcDbLine
 10
606.484332415579
 20
-586.0229084658945
 30
0.0
 11
601.1767274427645
 21
-586.0229084658945
 31
0.0
  0
LINE
  5
609
330
36
100
AcDbEntity
  8
0
  6
Continuous
 62
     3
100
AcDbLine
 10
580.7806493883933
 20
-586.0229084658945
 30
0.0
 11
572.973045415579
 21
-586.0229084658945
 31
0.0
  0
LINE
  5
60C
330
36
100
AcDbEntity
  8
0
  6
Continuous
 62
     3
100
AcDbLine
 10
580.7806493883933
 20
-581.0229084658948
 30
0.0
 11
572.973045415579
 21
-581.0229084658948
 31
0.0
  0
CIRCLE
  5
60F
330
36
100
AcDbEntity
  8
0
  6
Continuous
 62
     7
100
AcDbCircle
 10
590.9786884155789
 20
-583.5229084658948
 30
0.0
 40
3.0
  0
LINE
  5
733
330
36
100
AcDbEntity
  8
0
100
AcDbLine
 10
373.4740480257912
 20
-616.229564109028
 30
0.0
 11
417.474048025791
 21
-616.229564109028
 31
0.0
  0
TEXT
  5
734
330
36
100
AcDbEntity
  8
0
 62
     4
100
AcDbText
 10
376.2240480257913
 20
-615.229564109028
 30
0.0
 40
3.2
  1
４－なべタッピングＭ３\U+00D7２０
 41
0.716146
100
AcDbText
  0
CIRCLE
  5
737
330
36
100
AcDbEntity
  8
0
 62
     7
100
AcDbCircle
 10
431.6525814064627
 20
-546.9918888699738
 30
0.0
 40
5.0
  0
TEXT
  5
738
330
36
100
AcDbEntity
  8
0
 62
     4
100
AcDbText
 10
429.9193940673458
 20
-550.4827978699738
 30
0.0
 40
6.981819
  1
1
 41
1.289062
100
AcDbText
  0
CIRCLE
  5
73F
330
36
100
AcDbEntity
  8
0
 62
     7
100
AcDbCircle
 10
489.0837243209894
 20
-548.4475457476373
 30
0.0
 40
5.0
  0
TEXT
  5
740
330
36
100
AcDbEntity
  8
0
 62
     4
100
AcDbText
 10
487.3505369818722
 20
-551.9384547476374
 30
0.0
 40
6.981819
  1
4
 41
0.859375
100
AcDbText
  0
CIRCLE
  5
743
330
36
100
AcDbEntity
  8
0
 62
     7
100
AcDbCircle
 10
434.46591630636
 20
-615.2216012776442
 30
0.0
 40
5.0
  0
TEXT
  5
744
330
36
100
AcDbEntity
  8
0
 62
     4
100
AcDbText
 10
432.7327289672429
 20
-618.7125102776442
 30
0.0
 40
6.981819
  1
2
 41
0.859375
100
AcDbText
  0
CIRCLE
  5
747
330
36
100
AcDbEntity
  8
0
 62
     7
100
AcDbCircle
 10
455.0252562232142
 20
-547.0356910403361
 30
0.0
 40
5.0
  0
TEXT
  5
748
330
36
100
AcDbEntity
  8
0
 62
     4
100
AcDbText
 10
453.2920688840972
 20
-550.5266000403361
 30
0.0
 40
6.981819
  1
3
 41
0.859375
100
AcDbText
  0
LINE
  5
776
330
36
100
AcDbEntity
  8
0
  6
Continuous
 62
     3
100
AcDbLine
 10
491.8511394094906
 20
-563.3115974658948
 30
0.0
 11
451.8511394094907
 21
-563.3115974658948
 31
0.0
  0
LINE
  5
777
330
36
100
AcDbEntity
  8
0
  6
Continuous
 62
     3
100
AcDbLine
 10
425.3511394094906
 20
-571.3115974658943
 30
0.0
 11
425.3511394094906
 21
-579.3115974658944
 31
0.0
  0
LINE
  5
778
330
36
100
AcDbEntity
  8
0
  6
Continuous
 62
     3
100
AcDbLine
 10
518.3511394094908
 20
-571.3115974658943
 30
0.0
 11
518.3511394094908
 21
-579.3115974658944
 31
0.0
  0
LINE
  5
779
330
36
100
AcDbEntity
  8
0
  6
Continuous
 62
     3
100
AcDbLine
 10
518.8511394094907
 20
-579.3115974658944
 30
0.0
 11
424.8511394094906
 21
-579.3115974658944
 31
0.0
  0
LINE
  5
77A
330
36
100
AcDbEntity
  8
0
  6
Continuous
 62
     3
100
AcDbLine
 10
518.8511394094907
 20
-584.3115974658948
 30
0.0
 11
424.8511394094906
 21
-584.3115974658948
 31
0.0
  0
ARC
  5
77D
330
36
100
AcDbEntity
  8
0
 62
     3
100
AcDbCircle
 10
518.8511394094907
 20
-583.8115974658943
 30
0.0
 40
0.5
100
AcDbArc
 50
270.0
 51
0.0
  0
LINE
  5
77E
330
36
100
AcDbEntity
  8
0
 62
     3
100
AcDbLine
 10
519.3511394094906
 20
-583.8115974658943
 30
0.0
 11
519.3511394094906
 21
-579.8115974658948
 31
0.0
  0
ARC
  5
77F
330
36
100
AcDbEntity
  8
0
 62
     3
100
AcDbCircle
 10
518.8511394094907
 20
-579.8115974658948
 30
0.0
 40
0.5
100
AcDbArc
 50
0.0
 51
90.0
  0
LINE
  5
780
330
36
100
AcDbEntity
  8
0
  6
Continuous
 62
     3
100
AcDbLine
 10
518.3511394094908
 20
-584.3115974658948
 30
0.0
 11
518.3511394094908
 21
-592.3115974658948
 31
0.0
  0
ARC
  5
781
330
36
100
AcDbEntity
  8
0
 62
     3
100
AcDbCircle
 10
424.8511394094906
 20
-583.8115974658943
 30
0.0
 40
0.5
100
AcDbArc
 50
180.0
 51
270.0
  0
LINE
  5
782
330
36
100
AcDbEntity
  8
0
 62
     3
100
AcDbLine
 10
424.3511394094906
 20
-583.8115974658943
 30
0.0
 11
424.3511394094906
 21
-579.8115974658948
 31
0.0
  0
ARC
  5
783
330
36
100
AcDbEntity
  8
0
 62
     3
100
AcDbCircle
 10
424.8511394094906
 20
-579.8115974658948
 30
0.0
 40
0.5
100
AcDbArc
 50
90.0
 51
180.0
  0
LINE
  5
784
330
36
100
AcDbEntity
  8
0
  6
Continuous
 62
     3
100
AcDbLine
 10
425.3511394094906
 20
-584.3115974658948
 30
0.0
 11
425.3511394094906
 21
-592.3115974658948
 31
0.0
  0
ARC
  5
7AF
330
36
100
AcDbEntity
  8
0
 62
     3
100
AcDbCircle
 10
520.3511394094906
 20
-504.7380101854598
 30
0.0
 40
1.5
100
AcDbArc
 50
0.0
 51
90.0
  0
ARC
  5
7B3
330
36
100
AcDbEntity
  8
0
 62
     3
100
AcDbCircle
 10
516.3511394094906
 20
-501.2323661854598
 30
0.0
 40
2.0
100
AcDbArc
 50
0.0
 51
90.0
  0
ARC
  5
7B4
330
36
100
AcDbEntity
  8
0
 62
     3
100
AcDbCircle
 10
520.3511394094906
 20
-523.7380101854596
 30
0.0
 40
1.5
100
AcDbArc
 50
270.0
 51
0.0
  0
ARC
  5
7B8
330
36
100
AcDbEntity
  8
0
 62
     3
100
AcDbCircle
 10
516.3511394094906
 20
-527.2436531854598
 30
0.0
 40
2.0
100
AcDbArc
 50
270.0
 51
0.0
  0
LINE
  5
7FD
330
36
100
AcDbEntity
  8
0
 62
     3
100
AcDbLine
 10
421.8511394094908
 20
-504.7380101854598
 30
0.0
 11
421.8511394094908
 21
-523.7380101854596
 31
0.0
  0
ARC
  5
7FE
330
36
100
AcDbEntity
  8
0
 62
     3
100
AcDbCircle
 10
423.3511394094906
 20
-504.7380101854598
 30
0.0
 40
1.5
100
AcDbArc
 50
90.0
 51
180.0
  0
ARC
  5
802
330
36
100
AcDbEntity
  8
0
 62
     3
100
AcDbCircle
 10
427.3511394094906
 20
-501.2323661854598
 30
0.0
 40
2.0
100
AcDbArc
 50
90.0
 51
180.0
  0
ARC
  5
803
330
36
100
AcDbEntity
  8
0
 62
     3
100
AcDbCircle
 10
423.3511394094906
 20
-523.7380101854596
 30
0.0
 40
1.5
100
AcDbArc
 50
180.0
 51
270.0
  0
ARC
  5
807
330
36
100
AcDbEntity
  8
0
 62
     3
100
AcDbCircle
 10
427.3511394094906
 20
-527.2436531854598
 30
0.0
 40
2.0
100
AcDbArc
 50
180.0
 51
270.0
  0
LINE
  5
81B
330
36
100
AcDbEntity
  8
0
 62
     3
100
AcDbLine
 10
520.3511394094906
 20
-525.2380101854596
 30
0.0
 11
518.3511394094908
 21
-525.2380101854596
 31
0.0
  0
LINE
  5
81C
330
36
100
AcDbEntity
  8
0
 62
     3
100
AcDbLine
 10
520.3511394094906
 20
-503.2380101854595
 30
0.0
 11
518.3511394094908
 21
-503.2380101854595
 31
0.0
  0
LINE
  5
823
330
36
100
AcDbEntity
  8
0
 62
     3
100
AcDbLine
 10
423.3511394094906
 20
-503.2380101854595
 30
0.0
 11
425.3511394094906
 21
-503.2380101854595
 31
0.0
  0
LINE
  5
824
330
36
100
AcDbEntity
  8
0
 62
     3
100
AcDbLine
 10
423.3511394094906
 20
-525.2380101854596
 30
0.0
 11
425.3511394094906
 21
-525.2380101854596
 31
0.0
  0
LINE
  5
890
330
36
100
AcDbEntity
  8
0
 62
     3
100
AcDbLine
 10
451.6659834094906
 20
-496.2323661854598
 30
0.0
 11
492.0362944094907
 21
-496.2323661854598
 31
0.0
  0
LINE
  5
893
330
36
100
AcDbEntity
  8
0
 62
     3
100
AcDbLine
 10
492.0362944094907
 20
-532.2436531854598
 30
0.0
 11
451.6659834094906
 21
-532.2436531854598
 31
0.0
  0
ARC
  5
894
330
36
100
AcDbEntity
  8
0
 62
     3
100
AcDbCircle
 10
492.0362944094907
 20
-498.2323661854596
 30
0.0
 40
2.0
100
AcDbArc
 50
75.44429600000161
 51
90.0
  0
ARC
  5
895
330
36
100
AcDbEntity
  8
0
 62
     3
100
AcDbCircle
 10
451.6659834094906
 20
-498.2323661854596
 30
0.0
 40
2.0
100
AcDbArc
 50
90.0
 51
104.5557039999984
  0
ARC
  5
896
330
36
100
AcDbEntity
  8
0
 62
     3
100
AcDbCircle
 10
451.6659834094906
 20
-530.2436531854598
 30
0.0
 40
2.0
100
AcDbArc
 50
255.4442960000016
 51
270.0
  0
ARC
  5
897
330
36
100
AcDbEntity
  8
0
 62
     3
100
AcDbCircle
 10
492.0362944094907
 20
-530.2436531854598
 30
0.0
 40
2.0
100
AcDbArc
 50
270.0
 51
284.5557039999984
  0
LINE
  5
899
330
36
100
AcDbEntity
  8
0
 62
     3
100
AcDbLine
 10
516.3511394094906
 20
-499.2323661854594
 30
0.0
 11
501.8412464094907
 21
-499.2323661854594
 31
0.0
  0
LINE
  5
89A
330
36
100
AcDbEntity
  8
0
 62
     3
100
AcDbLine
 10
501.8412464094907
 20
-499.2323661854594
 30
0.0
 11
492.5389364094908
 21
-496.2965591854598
 31
0.0
  0
LINE
  5
89D
330
36
100
AcDbEntity
  8
0
 62
     3
100
AcDbLine
 10
516.3511394094906
 20
-529.2436531854598
 30
0.0
 11
501.8412464094907
 21
-529.2436531854598
 31
0.0
  0
LINE
  5
8A1
330
36
100
AcDbEntity
  8
0
 62
     3
100
AcDbLine
 10
501.8412464094907
 20
-529.2436531854598
 30
0.0
 11
492.5389364094908
 21
-532.1794611854596
 31
0.0
  0
LINE
  5
8A2
330
36
100
AcDbEntity
  8
0
 62
     3
100
AcDbLine
 10
427.3511394094906
 20
-529.2436531854598
 30
0.0
 11
441.8610314094908
 21
-529.2436531854598
 31
0.0
  0
LINE
  5
8A6
330
36
100
AcDbEntity
  8
0
 62
     3
100
AcDbLine
 10
441.8610314094908
 20
-529.2436531854598
 30
0.0
 11
451.1633414094908
 21
-532.1794611854596
 31
0.0
  0
LINE
  5
8A7
330
36
100
AcDbEntity
  8
0
 62
     3
100
AcDbLine
 10
427.3511394094906
 20
-499.2323661854594
 30
0.0
 11
441.8610314094908
 21
-499.2323661854594
 31
0.0
  0
LINE
  5
8AB
330
36
100
AcDbEntity
  8
0
 62
     3
100
AcDbLine
 10
441.8610314094908
 20
-499.2323661854594
 30
0.0
 11
451.1633414094908
 21
-496.2965591854598
 31
0.0
  0
LINE
  5
8AE
330
36
100
AcDbEntity
  8
0
 62
     3
100
AcDbLine
 10
531.9384514094906
 20
-517.7589351854598
 30
0.0
 11
521.9384514094906
 21
-520.7483711854596
 31
0.0
  0
LINE
  5
8AF
330
36
100
AcDbEntity
  8
0
 62
     3
100
AcDbLine
 10
531.9384514094906
 20
-510.7378061854598
 30
0.0
 11
531.9384514094906
 21
-517.7589351854598
 31
0.0
  0
LINE
  5
8B1
330
36
100
AcDbEntity
  8
0
 62
     3
100
AcDbLine
 10
531.9384514094906
 20
-510.7378061854598
 30
0.0
 11
521.9384514094906
 21
-507.7483711854595
 31
0.0
  0
LINE
  5
8B3
330
36
100
AcDbEntity
  8
0
 62
     3
100
AcDbLine
 10
411.7638264094908
 20
-517.7589351854598
 30
0.0
 11
421.7638264094906
 21
-520.7483711854596
 31
0.0
  0
LINE
  5
8B4
330
36
100
AcDbEntity
  8
0
 62
     3
100
AcDbLine
 10
411.7638264094908
 20
-510.7378061854598
 30
0.0
 11
411.7638264094908
 21
-517.7589351854598
 31
0.0
  0
LINE
  5
8B6
330
36
100
AcDbEntity
  8
0
 62
     3
100
AcDbLine
 10
411.7638264094908
 20
-510.7378061854598
 30
0.0
 11
421.7638264094906
 21
-507.7483711854595
 31
0.0
  0
LINE
  5
8EB
330
36
100
AcDbEntity
  8
0
  6
Continuous
 62
     3
100
AcDbLine
 10
425.3511394094906
 20
-501.2323661854598
 30
0.0
 11
425.3511394094906
 21
-527.2436531854598
 31
0.0
  0
LINE
  5
8EC
330
36
100
AcDbEntity
  8
0
  6
Continuous
 62
     3
100
AcDbLine
 10
521.8511394094908
 20
-504.7380101854598
 30
0.0
 11
521.8511394094908
 21
-523.7380101854596
 31
0.0
  0
LINE
  5
8ED
330
36
100
AcDbEntity
  8
0
  6
Continuous
 62
     3
100
AcDbLine
 10
518.3511394094908
 20
-501.2323661854598
 30
0.0
 11
518.3511394094908
 21
-527.2436531854598
 31
0.0
  0
LINE
  5
8EE
330
36
100
AcDbEntity
  8
0
  6
Continuous
 62
     7
100
AcDbLine
 10
501.8412464094907
 20
-571.3820234658943
 30
0.0
 11
501.8412464094907
 21
-579.3115974658944
 31
0.0
  0
LINE
  5
8EF
330
36
100
AcDbEntity
  8
0
  6
Continuous
 62
     7
100
AcDbLine
 10
441.8610314094908
 20
-571.3820234658948
 30
0.0
 11
441.8610314094908
 21
-579.3115974658944
 31
0.0
  0
LINE
  5
8F0
330
36
100
AcDbEntity
  8
0
  6
Continuous
 62
     7
100
AcDbLine
 10
501.8412464094907
 20
-571.3820234658943
 30
0.0
 11
441.8610314094908
 21
-571.3820234658948
 31
0.0
  0
LINE
  5
8F1
330
36
100
AcDbEntity
  8
0
  6
Continuous
 62
     7
100
AcDbLine
 10
501.8412464094907
 20
-584.3115974658948
 30
0.0
 11
501.8412464094907
 21
-593.2676409694656
 31
0.0
  0
LINE
  5
8F2
330
36
100
AcDbEntity
  8
0
  6
Continuous
 62
     7
100
AcDbLine
 10
441.8610314094906
 20
-584.3115974658948
 30
0.0
 11
441.8610314094908
 21
-593.2676409694656
 31
0.0
  0
CIRCLE
  5
8F7
330
36
100
AcDbEntity
  8
0
  6
Continuous
 62
     3
100
AcDbCircle
 10
471.8511394094908
 20
-514.2380096854598
 30
0.0
 40
8.500000000000012
  0
CIRCLE
  5
8F8
330
36
100
AcDbEntity
  8
0
  6
Continuous
 62
     7
100
AcDbCircle
 10
471.8511394094908
 20
-514.2380096854598
 30
0.0
 40
9.070229511529587
  0
LINE
  5
8FA
330
36
100
AcDbEntity
  8
0
  6
Continuous
 62
     7
100
AcDbLine
 10
451.6659834094906
 20
-496.2323661854598
 30
0.0
 11
451.6659834094906
 21
-532.2436531854597
 31
0.0
  0
LINE
  5
8FB
330
36
100
AcDbEntity
  8
0
  6
Continuous
 62
     7
100
AcDbLine
 10
501.8412464094907
 20
-499.2323661854594
 30
0.0
 11
501.8412464094907
 21
-529.2436531854598
 31
0.0
  0
LINE
  5
8FC
330
36
100
AcDbEntity
  8
0
  6
Continuous
 62
     7
100
AcDbLine
 10
441.8610314094908
 20
-499.2323661854594
 30
0.0
 11
441.8610314094908
 21
-529.2436531854598
 31
0.0
  0
LINE
  5
8FD
330
36
100
AcDbEntity
  8
0
  6
Continuous
 62
     7
100
AcDbLine
 10
492.5389364094908
 20
-496.2965591854598
 30
0.0
 11
492.5389364094908
 21
-532.1794611854596
 31
0.0
  0
LINE
  5
8FF
330
36
100
AcDbEntity
  8
0
 62
     7
100
AcDbLine
 10
516.3511394094906
 20
-498.2323661854596
 30
0.0
 11
502.3034109367343
 21
-498.2323661854599
 31
0.0
  0
LINE
  5
900
330
36
100
AcDbEntity
  8
0
 62
     7
100
AcDbLine
 10
501.7014771970004
 20
-498.1396353780411
 30
0.0
 11
492.7834152924939
 21
-495.3250969928783
 31
0.0
  0
LINE
  5
901
330
36
100
AcDbEntity
  8
0
 62
     7
100
AcDbLine
 10
451.5207962662215
 20
-495.2323661854598
 30
0.0
 11
492.1814815527596
 21
-495.2323661854598
 31
0.0
  0
LINE
  5
902
330
36
100
AcDbEntity
  8
0
 62
     7
100
AcDbLine
 10
442.0008006219811
 20
-498.139635378041
 30
0.0
 11
450.9188625264876
 21
-495.3250969928783
 31
0.0
  0
LINE
  5
903
330
36
100
AcDbEntity
  8
0
 62
     7
100
AcDbLine
 10
427.3511394094906
 20
-498.2323661854596
 30
0.0
 11
441.3988668822471
 21
-498.2323661854596
 31
0.0
  0
ARC
  5
904
330
36
100
AcDbEntity
  8
0
 62
     7
100
AcDbCircle
 10
427.3511394094906
 20
-501.2323661854598
 30
0.0
 40
3.0
100
AcDbArc
 50
90.0
 51
180.0
  0
LINE
  5
905
330
36
100
AcDbEntity
  8
0
  6
Continuous
 62
     7
100
AcDbLine
 10
424.3511394094906
 20
-501.2323661854598
 30
0.0
 11
424.3511394094906
 21
-503.2380101854595
 31
0.0
  0
ARC
  5
906
330
36
100
AcDbEntity
  8
0
 62
     7
100
AcDbCircle
 10
516.3511394094906
 20
-501.2323661854598
 30
0.0
 40
3.0
100
AcDbArc
 50
0.0
 51
90.0
  0
LINE
  5
907
330
36
100
AcDbEntity
  8
0
  6
Continuous
 62
     7
100
AcDbLine
 10
519.3511394094906
 20
-501.2323661854598
 30
0.0
 11
519.3511394094906
 21
-503.2380101854595
 31
0.0
  0
ARC
  5
908
330
36
100
AcDbEntity
  8
0
 62
     7
100
AcDbCircle
 10
516.3511394094906
 20
-527.2436531854598
 30
0.0
 40
3.0
100
AcDbArc
 50
270.0
 51
0.0
  0
LINE
  5
909
330
36
100
AcDbEntity
  8
0
 62
     7
100
AcDbLine
 10
516.3511394094906
 20
-530.2436531854598
 30
0.0
 11
502.3034110868581
 21
-530.2436531854598
 31
0.0
  0
LINE
  5
90A
330
36
100
AcDbEntity
  8
0
 62
     7
100
AcDbLine
 10
501.7014771606645
 20
-530.3363840517252
 30
0.0
 11
492.7834186667631
 21
-533.1509223191946
 31
0.0
  0
LINE
  5
90B
330
36
100
AcDbEntity
  8
0
 62
     7
100
AcDbLine
 10
492.1814847405693
 20
-533.2436531854599
 30
0.0
 11
451.5207930784113
 21
-533.2436531854597
 31
0.0
  0
LINE
  5
90C
330
36
100
AcDbEntity
  8
0
 62
     7
100
AcDbLine
 10
442.0008006583167
 20
-530.3363840517252
 30
0.0
 11
450.9188591522176
 21
-533.1509223191943
 31
0.0
  0
LINE
  5
90D
330
36
100
AcDbEntity
  8
0
 62
     7
100
AcDbLine
 10
427.3511394094906
 20
-530.2436531854598
 30
0.0
 11
441.398866732123
 21
-530.2436531854598
 31
0.0
  0
ARC
  5
90E
330
36
100
AcDbEntity
  8
0
 62
     7
100
AcDbCircle
 10
427.3511394094906
 20
-527.2436531854598
 30
0.0
 40
3.0
100
AcDbArc
 50
180.0
 51
270.0
  0
ARC
  5
910
330
36
100
AcDbEntity
  8
0
 62
     7
100
AcDbCircle
 10
451.5207962662215
 20
-497.2323661854598
 30
0.0
 40
2.0
100
AcDbArc
 50
90.0
 51
107.5156848168525
  0
ARC
  5
911
330
36
100
AcDbEntity
  8
0
 62
     7
100
AcDbCircle
 10
492.1814815527596
 20
-497.2323661854598
 30
0.0
 40
2.0
100
AcDbArc
 50
72.48431518314744
 51
90.0
  0
ARC
  5
912
330
36
100
AcDbEntity
  8
0
 62
     7
100
AcDbCircle
 10
492.1814847405693
 20
-531.2436531854599
 30
0.0
 40
2.0
100
AcDbArc
 50
270.0
 51
287.5156904182438
  0
ARC
  5
913
330
36
100
AcDbEntity
  8
0
 62
     7
100
AcDbCircle
 10
451.5207930784113
 20
-531.2436531854597
 30
0.0
 40
2.0
100
AcDbArc
 50
252.4843095817562
 51
270.0
  0
ARC
  5
914
330
36
100
AcDbEntity
  8
0
 62
     7
100
AcDbCircle
 10
441.398866732123
 20
-532.2436531854598
 30
0.0
 40
2.0
100
AcDbArc
 50
72.48430958175617
 51
90.0
  0
ARC
  5
915
330
36
100
AcDbEntity
  8
0
 62
     7
100
AcDbCircle
 10
441.3988668822471
 20
-496.2323661854595
 30
0.0
 40
2.0
100
AcDbArc
 50
270.0
 51
287.5156848168525
  0
ARC
  5
916
330
36
100
AcDbEntity
  8
0
 62
     7
100
AcDbCircle
 10
502.3034109367343
 20
-496.2323661854599
 30
0.0
 40
2.0
100
AcDbArc
 50
252.4843151831474
 51
270.0
  0
ARC
  5
917
330
36
100
AcDbEntity
  8
0
 62
     7
100
AcDbCircle
 10
502.3034110868581
 20
-532.2436531854598
 30
0.0
 40
2.0
100
AcDbArc
 50
90.0
 51
107.5156904182438
  0
LINE
  5
918
330
36
100
AcDbEntity
  8
0
  6
Continuous
 62
     7
100
AcDbLine
 10
424.3511394094906
 20
-525.2380101854596
 30
0.0
 11
424.3511394094906
 21
-527.2436531854598
 31
0.0
  0
LINE
  5
919
330
36
100
AcDbEntity
  8
0
  6
Continuous
 62
     7
100
AcDbLine
 10
519.3511394094906
 20
-525.2380101854596
 30
0.0
 11
519.3511394094906
 21
-527.2436531854598
 31
0.0
  0
LINE
  5
91A
330
36
100
AcDbEntity
  8
0
  6
Continuous
 62
     3
100
AcDbLine
 10
605.984332415579
 20
-572.0933344658948
 30
0.0
 11
605.984332415579
 21
-581.0229084658946
 31
0.0
  0
LINE
  5
91B
330
36
100
AcDbEntity
  8
0
  6
Continuous
 62
     3
100
AcDbLine
 10
575.973045415579
 20
-572.0933344658948
 30
0.0
 11
575.973045415579
 21
-581.0229084658948
 31
0.0
  0
ARC
  5
91C
330
36
100
AcDbEntity
  8
0
  6
Continuous
 62
     3
100
AcDbCircle
 10
604.984332415579
 20
-594.9927624658944
 30
0.0
 40
1.0
100
AcDbArc
 50
270.0
 51
0.0
  0
ARC
  5
91D
330
36
100
AcDbEntity
  8
0
  6
Continuous
 62
     3
100
AcDbCircle
 10
576.973045415579
 20
-594.9927624658946
 30
0.0
 40
1.0
100
AcDbArc
 50
180.0
 51
270.0
  0
ARC
  5
91E
330
36
100
AcDbEntity
  8
0
  6
Continuous
 62
     3
100
AcDbCircle
 10
576.973045415579
 20
-572.0933344658948
 30
0.0
 40
1.0
100
AcDbArc
 50
90.0
 51
180.0
  0
ARC
  5
91F
330
36
100
AcDbEntity
  8
0
  6
Continuous
 62
     3
100
AcDbCircle
 10
604.984332415579
 20
-572.0933344658948
 30
0.0
 40
1.0
100
AcDbArc
 50
0.0
 51
90.0
  0
LINE
  5
920
330
36
100
AcDbEntity
  8
0
  6
Continuous
 62
     3
100
AcDbLine
 10
574.9730454155788
 20
-595.9927624658946
 30
0.0
 11
576.973045415579
 21
-595.9927624658946
 31
0.0
  0
LINE
  5
921
330
36
100
AcDbEntity
  8
0
  6
Continuous
 62
     3
100
AcDbLine
 10
607.234332415579
 20
-595.9927624658946
 30
0.0
 11
604.984332415579
 21
-595.9927624658944
 31
0.0
  0
LINE
  5
922
330
36
100
AcDbEntity
  8
0
  6
Continuous
 62
     3
100
AcDbLine
 10
575.973045415579
 20
-586.0229084658945
 30
0.0
 11
575.973045415579
 21
-594.9927624658946
 31
0.0
  0
LINE
  5
923
330
36
100
AcDbEntity
  8
0
  6
Continuous
 62
     3
100
AcDbLine
 10
605.984332415579
 20
-586.0229084658945
 30
0.0
 11
605.984332415579
 21
-594.9927624658944
 31
0.0
  0
LINE
  5
924
330
36
100
AcDbEntity
  8
0
  6
Continuous
 62
     3
100
AcDbLine
 10
606.984332415579
 20
-581.5229084658946
 30
0.0
 11
606.984332415579
 21
-585.5229084658946
 31
0.0
  0
ARC
  5
925
330
36
100
AcDbEntity
  8
0
  6
Continuous
 62
     3
100
AcDbCircle
 10
606.484332415579
 20
-581.5229084658946
 30
0.0
 40
0.5
100
AcDbArc
 50
0.0
 51
90.0
  0
ARC
  5
926
330
36
100
AcDbEntity
  8
0
  6
Continuous
 62
     3
100
AcDbCircle
 10
606.484332415579
 20
-585.5229084658946
 30
0.0
 40
0.5
100
AcDbArc
 50
270.0
 51
0.0
  0
LINE
  5
927
330
36
100
AcDbEntity
  8
0
  6
Continuous
 62
     3
100
AcDbLine
 10
606.484332415579
 20
-581.0229084658948
 30
0.0
 11
608.984332415579
 21
-581.0229084658948
 31
0.0
  0
LINE
  5
928
330
36
100
AcDbEntity
  8
0
  6
Continuous
 62
     3
100
AcDbLine
 10
606.484332415579
 20
-586.0229084658945
 30
0.0
 11
608.984332415579
 21
-586.0229084658945
 31
0.0
  0
ARC
  5
929
330
36
100
AcDbEntity
  8
0
  6
Continuous
 62
     3
100
AcDbCircle
 10
575.4730444155788
 20
-585.5229084658946
 30
0.0
 40
0.5
100
AcDbArc
 50
180.0
 51
270.0
  0
LINE
  5
92A
330
36
100
AcDbEntity
  8
0
  6
Continuous
 62
     3
100
AcDbLine
 10
574.9730444155789
 20
-581.5229084658946
 30
0.0
 11
574.9730444155789
 21
-585.5229084658946
 31
0.0
  0
ARC
  5
92B
330
36
100
AcDbEntity
  8
0
  6
Continuous
 62
     3
100
AcDbCircle
 10
575.4730444155788
 20
-581.5229084658946
 30
0.0
 40
0.5
100
AcDbArc
 50
90.0
 51
180.0
  0
LINE
  5
92C
330
36
100
AcDbEntity
  8
0
  6
Continuous
 62
     7
100
AcDbLine
 10
491.8511394094906
 20
-575.6906094658948
 30
0.0
 11
451.8511394094907
 21
-575.6906094658948
 31
0.0
  0
LINE
  5
92D
330
36
100
AcDbEntity
  8
0
  6
Continuous
 62
     7
100
AcDbLine
 10
491.8511394094906
 20
-575.6906094658948
 30
0.0
 11
491.8511394094906
 21
-579.3115974658944
 31
0.0
  0
LINE
  5
92E
330
36
100
AcDbEntity
  8
0
  6
Continuous
 62
     7
100
AcDbLine
 10
451.8511394094907
 20
-575.6906094658948
 30
0.0
 11
451.8511394094907
 21
-579.3115974658944
 31
0.0
  0
LINE
  5
92F
330
36
100
AcDbEntity
  8
0
  6
Continuous
 62
     7
100
AcDbLine
 10
491.8511394094906
 20
-575.6906094658948
 30
0.0
 11
497.0891139828911
 21
-571.3820234658943
 31
0.0
  0
LINE
  5
930
330
36
100
AcDbEntity
  8
0
  6
Continuous
 62
     7
100
AcDbLine
 10
451.8511389528475
 20
-575.6906119880982
 30
0.0
 11
446.6131638360904
 21
-571.3820266486602
 31
0.0
  0
LINE
  5
932
330
36
100
AcDbEntity
  8
0
  6
Continuous
 62
     7
100
AcDbLine
 10
491.8511394094906
 20
-584.3115974658948
 30
0.0
 11
491.8511394094906
 21
-593.2676409694654
 31
0.0
  0
LINE
  5
933
330
36
100
AcDbEntity
  8
0
  6
Continuous
 62
     7
100
AcDbLine
 10
451.8511394094907
 20
-584.3115974658948
 30
0.0
 11
451.8511394094907
 21
-593.2676409694656
 31
0.0
  0
LINE
  5
934
330
36
100
AcDbEntity
  8
0
  6
Continuous
 62
     7
100
AcDbLine
 10
492.1622817750101
 20
-584.3115974658948
 30
0.0
 11
492.1622817750101
 21
-579.3115974658944
 31
0.0
  0
LINE
  5
935
330
36
100
AcDbEntity
  8
0
  6
Continuous
 62
     7
100
AcDbLine
 10
502.1717048691711
 20
-584.3115974658948
 30
0.0
 11
502.1717048691711
 21
-579.3115974658944
 31
0.0
  0
LINE
  5
936
330
36
100
AcDbEntity
  8
0
  6
Continuous
 62
     7
100
AcDbLine
 10
451.5399970439714
 20
-584.3115974658948
 30
0.0
 11
451.5399970439714
 21
-579.3115974658944
 31
0.0
  0
LINE
  5
937
330
36
100
AcDbEntity
  8
0
  6
Continuous
 62
     7
100
AcDbLine
 10
441.5305739498103
 20
-584.3115974658948
 30
0.0
 11
441.5305739498103
 21
-579.3115974658944
 31
0.0
  0
LINE
  5
A11
330
36
100
AcDbEntity
  8
0
 62
     3
100
AcDbLine
 10
651.8857362090317
 20
-730.6306191887309
 30
0.0
 11
651.8857362090317
 21
-672.9648966587306
 31
0.0
  0
LINE
  5
A12
330
36
100
AcDbEntity
  8
0
 62
     3
100
AcDbLine
 10
664.8857362090317
 20
-720.9648966587312
 30
0.0
 11
664.8857362090317
 21
-692.9648966587309
 31
0.0
  0
LINE
  5
A13
330
36
100
AcDbEntity
  8
0
 62
     3
100
AcDbLine
 10
624.8321267790317
 20
-720.9648966587312
 30
0.0
 11
624.8321267790317
 21
-706.9648966587309
 31
0.0
  0
LINE
  5
A14
330
36
100
AcDbEntity
  8
0
 62
     3
100
AcDbLine
 10
635.1640611390315
 20
-706.9648966587309
 30
0.0
 11
635.1640611390315
 21
-730.6306191887309
 31
0.0
  0
LINE
  5
A15
330
36
100
AcDbEntity
  8
0
 62
     3
100
AcDbLine
 10
605.5270918290317
 20
-672.9648966587306
 30
0.0
 11
605.5270918290317
 21
-713.9648966587309
 31
0.0
  0
LINE
  5
A16
330
36
100
AcDbEntity
  8
0
 62
     3
100
AcDbLine
 10
664.8857362090317
 20
-692.9648966587309
 30
0.0
 11
664.8857362090317
 21
-690.9648966587309
 31
0.0
  0
LINE
  5
A17
330
36
100
AcDbEntity
  8
0
 62
     3
100
AcDbLine
 10
677.8857362090317
 20
-713.9648966587309
 30
0.0
 11
677.8857362090316
 21
-672.9648966587306
 31
0.0
  0
LINE
  5
A18
330
36
100
AcDbEntity
  8
0
 62
     3
100
AcDbLine
 10
703.5850996890317
 20
-690.9648966587309
 30
0.0
 11
592.2816571890317
 21
-690.9648966587309
 31
0.0
  0
LINE
  5
A19
330
36
100
AcDbEntity
  8
0
 62
     3
100
AcDbLine
 10
703.5850996890317
 20
-699.9648966587312
 30
0.0
 11
592.2816571890317
 21
-699.9648966587312
 31
0.0
  0
LINE
  5
A1A
330
36
100
AcDbEntity
  8
0
 62
     3
100
AcDbLine
 10
703.5850996890317
 20
-713.9648966587309
 30
0.0
 11
592.2816571890317
 21
-713.9648966587309
 31
0.0
  0
LINE
  5
A1B
330
36
100
AcDbEntity
  8
0
 62
     3
100
AcDbLine
 10
703.5850996890317
 20
-720.9648966587312
 30
0.0
 11
592.2816571890317
 21
-720.9648966587312
 31
0.0
  0
LINE
  5
A1C
330
36
100
AcDbEntity
  8
0
 62
     3
100
AcDbLine
 10
690.8857362090317
 20
-713.9648966587309
 30
0.0
 11
690.8857362090317
 21
-690.9648966587309
 31
0.0
  0
LINE
  5
A1D
330
36
100
AcDbEntity
  8
0
 62
     3
100
AcDbLine
 10
592.2816571890317
 20
-690.9648966587309
 30
0.0
 11
592.2816571890317
 21
-730.6306191887309
 31
0.0
  0
LINE
  5
A1E
330
36
100
AcDbEntity
  8
0
 62
     3
100
AcDbLine
 10
651.8857362090317
 20
-706.9648966587309
 30
0.0
 11
592.2816571890317
 21
-706.9648966587309
 31
0.0
  0
LINE
  5
A1F
330
36
100
AcDbEntity
  8
0
 62
     3
100
AcDbLine
 10
635.1640611390315
 20
-725.7977579287311
 30
0.0
 11
651.8857362090317
 21
-725.7977579287311
 31
0.0
  0
LINE
  5
A29
330
36
100
AcDbEntity
  8
0
 62
     3
100
AcDbLine
 10
313.5850996890316
 20
-456.6306191887311
 30
0.0
 11
313.5850996890316
 21
-730.6306191887309
 31
0.0
  0
LINE
  5
A2A
330
36
100
AcDbEntity
  8
0
 62
     3
100
AcDbLine
 10
703.5850996890317
 20
-730.6306191887309
 30
0.0
 11
703.5850996890317
 21
-456.6306191887311
 31
0.0
  0
LINE
  5
A2B
330
36
100
AcDbEntity
  8
0
 62
     3
100
AcDbLine
 10
638.8857362090317
 20
-699.9648966587312
 30
0.0
 11
646.8857362090317
 21
-699.9648966587312
 31
0.0
  0
LINE
  5
A2D
330
36
100
AcDbEntity
  8
0
 62
     3
100
AcDbLine
 10
313.5850996890316
 20
-730.6306191887309
 30
0.0
 11
703.5850996890317
 21
-730.6306191887309
 31
0.0
  0
LINE
  5
A5C
330
36
100
AcDbEntity
  8
0
 62
     3
100
AcDbLine
 10
491.3599891590314
 20
-454.1906170487311
 30
0.0
 11
491.9824861690314
 21
-454.5155715287311
 31
0.0
  0
LINE
  5
A5D
330
36
100
AcDbEntity
  8
0
 62
     3
100
AcDbLine
 10
491.3599891590314
 20
-459.5200891487311
 30
0.0
 11
491.9824861690314
 21
-459.1951346687308
 31
0.0
  0
LINE
  5
A5E
330
36
100
AcDbEntity
  8
0
 62
     3
100
AcDbLine
 10
491.9824861690314
 20
-454.5155715287311
 30
0.0
 11
491.9824861690314
 21
-459.1951346687308
 31
0.0
  0
LINE
  5
A5F
330
36
100
AcDbEntity
  8
0
 62
     3
100
AcDbLine
 10
493.5589396290317
 20
-459.5200891487311
 30
0.0
 11
492.9364426190316
 21
-459.1951346687308
 31
0.0
  0
LINE
  5
A60
330
36
100
AcDbEntity
  8
0
 62
     3
100
AcDbLine
 10
492.9364426190316
 20
-456.3424792187311
 30
0.0
 11
492.9364426190316
 21
-459.1951346687308
 31
0.0
  0
LINE
  5
A61
330
36
100
AcDbEntity
  8
0
 62
     3
100
AcDbLine
 10
497.1901721690316
 20
-454.1906170487311
 30
0.0
 11
496.5676751690317
 21
-454.5155715287311
 31
0.0
  0
LINE
  5
A62
330
36
100
AcDbEntity
  8
0
 62
     3
100
AcDbLine
 10
494.9912216990315
 20
-454.1906170487311
 30
0.0
 11
495.6137187090318
 21
-454.5155715287311
 31
0.0
  0
LINE
  5
A63
330
36
100
AcDbEntity
  8
0
 62
     3
100
AcDbLine
 10
495.6137187090318
 20
-454.5155715287311
 30
0.0
 11
495.6137187090318
 21
-456.5760530487311
 31
0.0
  0
LINE
  5
A64
330
36
100
AcDbEntity
  8
0
 62
     3
100
AcDbLine
 10
496.5676751690317
 20
-454.5155715287311
 30
0.0
 11
496.5676751690317
 21
-459.8223193587311
 31
0.0
  0
LINE
  5
A65
330
36
100
AcDbEntity
  8
0
 62
     3
100
AcDbLine
 10
497.4977396090316
 20
-454.190620798731
 30
0.0
 11
498.1202343690315
 21
-454.5155795687311
 31
0.0
  0
LINE
  5
A66
330
36
100
AcDbEntity
  8
0
 62
     3
100
AcDbLine
 10
497.4976282190318
 20
-459.5200177587312
 30
0.0
 11
498.1201365690316
 21
-459.1950850087311
 31
0.0
  0
LINE
  5
A67
330
36
100
AcDbEntity
  8
0
 62
     3
100
AcDbLine
 10
498.1202343690315
 20
-454.5155795687311
 30
0.0
 11
498.1202343690315
 21
-459.1950850087311
 31
0.0
  0
LINE
  5
A68
330
36
100
AcDbEntity
  8
0
 62
     3
100
AcDbLine
 10
500.2542201690316
 20
-454.1906546187312
 30
0.0
 11
499.6317186090315
 21
-454.5156003787311
 31
0.0
  0
LINE
  5
A69
330
36
100
AcDbEntity
  8
0
 62
     3
100
AcDbLine
 10
499.6317186090315
 20
-454.5156003787311
 30
0.0
 11
499.6317186090315
 21
-459.1951058187311
 31
0.0
  0
LINE
  5
A6A
330
36
100
AcDbEntity
  8
0
 62
     3
100
AcDbLine
 10
500.2542201690316
 20
-459.5200515787311
 30
0.0
 11
499.6317186090315
 21
-459.1951058187311
 31
0.0
  0
LINE
  5
A6B
330
36
100
AcDbEntity
  8
0
 62
     3
100
AcDbLine
 10
505.5260107990314
 20
-454.1907131887311
 30
0.0
 11
506.1485066790317
 21
-454.5156698087311
 31
0.0
  0
LINE
  5
A6C
330
36
100
AcDbEntity
  8
0
 62
     3
100
AcDbLine
 10
506.1485066790317
 20
-454.5156698087311
 30
0.0
 11
506.1484250090315
 21
-459.1951752587312
 31
0.0
  0
LINE
  5
A6D
330
36
100
AcDbEntity
  8
0
 62
     3
100
AcDbLine
 10
505.5259177790317
 20
-459.5201101487311
 30
0.0
 11
506.1484250090315
 21
-459.1951752587312
 31
0.0
  0
LINE
  5
A6E
330
36
100
AcDbEntity
  8
0
 62
     3
100
AcDbLine
 10
508.3149550390317
 20
-454.1907131887311
 30
0.0
 11
507.6924591490317
 21
-454.5156698087311
 31
0.0
  0
LINE
  5
A6F
330
36
100
AcDbEntity
  8
0
 62
     3
100
AcDbLine
 10
508.3150480490315
 20
-459.5201101487311
 30
0.0
 11
507.6925408190316
 21
-459.1951752587312
 31
0.0
  0
LINE
  5
A70
330
36
100
AcDbEntity
  8
0
 62
     3
100
AcDbLine
 10
508.6059948390317
 20
-454.1907131887311
 30
0.0
 11
509.2284907190316
 21
-454.5156698087311
 31
0.0
  0
LINE
  5
A71
330
36
100
AcDbEntity
  8
0
 62
     3
100
AcDbLine
 10
508.6059018190316
 20
-459.5201101487311
 30
0.0
 11
509.2284090490315
 21
-459.1951752587312
 31
0.0
  0
LINE
  5
A72
330
36
100
AcDbEntity
  8
0
 62
     3
100
AcDbLine
 10
511.3949390690317
 20
-454.1907131887311
 30
0.0
 11
510.7724431890316
 21
-454.5156698087311
 31
0.0
  0
LINE
  5
A73
330
36
100
AcDbEntity
  8
0
 62
     3
100
AcDbLine
 10
510.7724431890316
 20
-454.5156698087311
 30
0.0
 11
510.7725248590317
 21
-459.1951752587312
 31
0.0
  0
LINE
  5
A74
330
36
100
AcDbEntity
  8
0
 62
     3
100
AcDbLine
 10
511.3950320890316
 20
-459.5201101487311
 30
0.0
 11
510.7725248590317
 21
-459.1951752587312
 31
0.0
  0
LINE
  5
A75
330
36
100
AcDbEntity
  8
0
 62
     3
100
AcDbLine
 10
509.2284551390315
 20
-456.5544314087309
 30
0.0
 11
507.6924947290317
 21
-456.5544314087309
 31
0.0
  0
LINE
  5
A76
330
36
100
AcDbEntity
  8
0
 62
     3
100
AcDbLine
 10
509.2284446390316
 20
-457.1562747887311
 30
0.0
 11
507.6925052290317
 21
-457.1562747887311
 31
0.0
  0
LINE
  5
A77
330
36
100
AcDbEntity
  8
0
 62
     3
100
AcDbLine
 10
509.2284907190316
 20
-454.5156698087311
 30
0.0
 11
509.2284551390315
 21
-456.5544314087309
 31
0.0
  0
LINE
  5
A78
330
36
100
AcDbEntity
  8
0
 62
     3
100
AcDbLine
 10
509.2284446390316
 20
-457.1562747887311
 30
0.0
 11
509.2284090490315
 21
-459.1951752587312
 31
0.0
  0
LINE
  5
A79
330
36
100
AcDbEntity
  8
0
 62
     3
100
AcDbLine
 10
507.6924591490317
 20
-454.5156698087311
 30
0.0
 11
507.6924947290317
 21
-456.5544314087309
 31
0.0
  0
LINE
  5
A7A
330
36
100
AcDbEntity
  8
0
 62
     3
100
AcDbLine
 10
507.6925052290317
 20
-457.1562747887311
 30
0.0
 11
507.6925408190316
 21
-459.1951752587312
 31
0.0
  0
LINE
  5
A7B
330
36
100
AcDbEntity
  8
0
 62
     3
100
AcDbLine
 10
511.6905949590316
 20
-454.1907131887311
 30
0.0
 11
512.3130908490317
 21
-454.5156698087311
 31
0.0
  0
LINE
  5
A7C
330
36
100
AcDbEntity
  8
0
 62
     3
100
AcDbLine
 10
512.3130908490317
 20
-454.5156698087311
 30
0.0
 11
512.3130091690317
 21
-459.1951752587312
 31
0.0
  0
LINE
  5
A7D
330
36
100
AcDbEntity
  8
0
 62
     3
100
AcDbLine
 10
511.6905019390316
 20
-459.5201101487311
 30
0.0
 11
512.3130091690317
 21
-459.1951752587312
 31
0.0
  0
LINE
  5
A7E
330
36
100
AcDbEntity
  8
0
 62
     3
100
AcDbLine
 10
514.4470381990315
 20
-454.1907131887311
 30
0.0
 11
513.8245423090316
 21
-454.5156698087311
 31
0.0
  0
LINE
  5
A7F
330
36
100
AcDbEntity
  8
0
 62
     3
100
AcDbLine
 10
513.8245423090316
 20
-454.5156698087311
 30
0.0
 11
513.8246239890317
 21
-459.1951752587312
 31
0.0
  0
LINE
  5
A80
330
36
100
AcDbEntity
  8
0
 62
     3
100
AcDbLine
 10
514.4471312190317
 20
-459.5201101487311
 30
0.0
 11
513.8246239890317
 21
-459.1951752587312
 31
0.0
  0
LINE
  5
A81
330
36
100
AcDbEntity
  8
0
 62
     3
100
AcDbLine
 10
514.7532661490315
 20
-454.1907131887311
 30
0.0
 11
515.3757620390316
 21
-454.5156698087311
 31
0.0
  0
LINE
  5
A82
330
36
100
AcDbEntity
  8
0
 62
     3
100
AcDbLine
 10
515.3757620390316
 20
-454.5156698087311
 30
0.0
 11
515.3756803690318
 21
-459.1951752587312
 31
0.0
  0
LINE
  5
A83
330
36
100
AcDbEntity
  8
0
 62
     3
100
AcDbLine
 10
514.7531731390317
 20
-459.5201101487311
 30
0.0
 11
515.3756803690318
 21
-459.1951752587312
 31
0.0
  0
ARC
  5
A84
330
36
100
AcDbEntity
  8
0
 62
     3
100
AcDbCircle
 10
503.5375661290315
 20
-456.8419391587311
 30
0.0
 40
2.98040844
100
AcDbArc
 50
97.70152351000065
 51
270.0
  0
ARC
  5
A85
330
36
100
AcDbEntity
  8
0
 62
     3
100
AcDbCircle
 10
521.9384244690314
 20
-456.8718771987311
 30
0.0
 40
3.012776259999998
100
AcDbArc
 50
0.3142502700009053
 51
69.00558244999999
  0
ARC
  5
A86
330
36
100
AcDbEntity
  8
0
 62
     3
100
AcDbCircle
 10
522.5965320790317
 20
-456.8718771987311
 30
0.0
 40
3.012776259999998
100
AcDbArc
 50
110.99441755
 51
148.116611020001
  0
ARC
  5
A87
330
36
100
AcDbEntity
  8
0
 62
     3
100
AcDbCircle
 10
521.9384244690314
 20
-456.8388289987312
 30
0.0
 40
3.012776259999998
100
AcDbArc
 50
290.99441755
 51
359.6857497299991
  0
ARC
  5
A88
330
36
100
AcDbEntity
  8
0
 62
     3
100
AcDbCircle
 10
522.5965320790317
 20
-456.8388289987312
 30
0.0
 40
3.012776259999998
100
AcDbArc
 50
211.8833889799989
 51
249.00558245
  0
ARC
  5
A89
330
36
100
AcDbEntity
  8
0
 62
     3
100
AcDbCircle
 10
522.2674782790317
 20
-455.6227739687312
 30
0.0
 40
1.73438712
100
AcDbArc
 50
64.36517190000063
 51
115.6348280999993
  0
ARC
  5
A8A
330
36
100
AcDbEntity
  8
0
 62
     3
100
AcDbCircle
 10
522.2674782790317
 20
-458.087932228731
 30
0.0
 40
1.73438712
100
AcDbArc
 50
244.3651719000007
 51
295.6348280999993
  0
ARC
  5
A8B
330
36
100
AcDbEntity
  8
0
 62
     3
100
AcDbCircle
 10
522.2674782790317
 20
-455.5898287087311
 30
0.0
 40
0.85122233
100
AcDbArc
 50
19.4866055399987
 51
160.5133944600013
  0
ARC
  5
A8C
330
36
100
AcDbEntity
  8
0
 62
     3
100
AcDbCircle
 10
522.2674782790317
 20
-458.087932228731
 30
0.0
 40
1.73438712
100
AcDbArc
 50
244.3651719000007
 51
295.6348280999993
  0
ARC
  5
A8D
330
36
100
AcDbEntity
  8
0
 62
     3
100
AcDbCircle
 10
522.2674782790317
 20
-458.1208774887311
 30
0.0
 40
0.85122233
100
AcDbArc
 50
199.4866055399987
 51
340.5133944600013
  0
ARC
  5
A8E
330
36
100
AcDbEntity
  8
0
 62
     3
100
AcDbCircle
 10
515.4925175590316
 20
-488.6097242987311
 30
0.0
 40
37.20000000000001
100
AcDbArc
 50
69.50571480000037
 51
81.68998807000063
  0
ARC
  5
A8F
330
36
100
AcDbEntity
  8
0
 62
     3
100
AcDbCircle
 10
515.4925175590316
 20
-425.1009818987311
 30
0.0
 40
37.20000000000001
100
AcDbArc
 50
278.3100119299994
 51
290.4942851999996
  0
ARC
  5
A90
330
36
100
AcDbEntity
  8
0
 62
     3
100
AcDbCircle
 10
527.3613805990317
 20
-456.8553530987311
 30
0.0
 40
3.299999999999998
100
AcDbArc
 50
290.4942851999996
 51
69.50571480000037
  0
ARC
  5
A91
330
36
100
AcDbEntity
  8
0
 62
     3
100
AcDbCircle
 10
488.3613805990314
 20
-456.8553530987311
 30
0.0
 40
3.299999999999998
100
AcDbArc
 50
110.4942851999996
 51
249.5057148000004
  0
ARC
  5
A92
330
36
100
AcDbEntity
  8
0
 62
     3
100
AcDbCircle
 10
500.2302436290317
 20
-488.6097242987311
 30
0.0
 40
37.20000000000001
100
AcDbArc
 50
98.31001192999938
 51
110.4942851999996
  0
ARC
  5
A93
330
36
100
AcDbEntity
  8
0
 62
     3
100
AcDbCircle
 10
500.2302436290317
 20
-425.1009818987311
 30
0.0
 40
37.20000000000001
100
AcDbArc
 50
249.5057148000004
 51
261.6899880700006
  0
ARC
  5
A94
330
36
100
AcDbEntity
  8
0
 62
     3
100
AcDbCircle
 10
507.8613805990316
 20
-540.8553530987311
 30
0.0
 40
89.99999981
100
AcDbArc
 50
81.68998807000063
 51
98.31001192999938
  0
ARC
  5
A95
330
36
100
AcDbEntity
  8
0
 62
     3
100
AcDbCircle
 10
507.8613805990316
 20
-372.8553530987312
 30
0.0
 40
89.99999981
100
AcDbArc
 50
261.6899880700006
 51
278.3100119299994
  0
ARC
  5
A96
330
36
100
AcDbEntity
  8
0
 62
     3
100
AcDbCircle
 10
507.8613805990316
 20
-540.8553530987311
 30
0.0
 40
89.09999981
100
AcDbArc
 50
81.68998807000063
 51
98.31001192999938
  0
ARC
  5
A97
330
36
100
AcDbEntity
  8
0
 62
     3
100
AcDbCircle
 10
507.8613805990316
 20
-372.8553530987312
 30
0.0
 40
89.09999981
100
AcDbArc
 50
261.6899880700006
 51
278.3100119299994
  0
ARC
  5
A98
330
36
100
AcDbEntity
  8
0
 62
     3
100
AcDbCircle
 10
515.4925175590316
 20
-425.1009818987311
 30
0.0
 40
36.3
100
AcDbArc
 50
278.3100119299994
 51
290.4942851999996
  0
ARC
  5
A99
330
36
100
AcDbEntity
  8
0
 62
     3
100
AcDbCircle
 10
515.4925175590316
 20
-488.6097242987311
 30
0.0
 40
36.3
100
AcDbArc
 50
69.50571480000037
 51
81.68998807000063
  0
ARC
  5
A9A
330
36
100
AcDbEntity
  8
0
 62
     3
100
AcDbCircle
 10
527.3613805990317
 20
-456.8553530987311
 30
0.0
 40
2.399999999999999
100
AcDbArc
 50
290.4942851999996
 51
69.50571480000037
  0
ARC
  5
A9B
330
36
100
AcDbEntity
  8
0
 62
     3
100
AcDbCircle
 10
488.3613805990314
 20
-456.8553530987311
 30
0.0
 40
2.399999999999999
100
AcDbArc
 50
110.4942851999996
 51
249.5057148000004
  0
ARC
  5
A9C
330
36
100
AcDbEntity
  8
0
 62
     3
100
AcDbCircle
 10
500.2302436290317
 20
-488.6097242987311
 30
0.0
 40
36.3
100
AcDbArc
 50
98.31001192999938
 51
110.4942851999996
  0
ARC
  5
A9D
330
36
100
AcDbEntity
  8
0
 62
     3
100
AcDbCircle
 10
500.2302436290317
 20
-425.1009818987311
 30
0.0
 40
36.3
100
AcDbArc
 50
249.5057148000004
 51
261.6899880700006
  0
LINE
  5
A9E
330
36
100
AcDbEntity
  8
0
 62
     3
100
AcDbLine
 10
514.4470393190315
 20
-459.8223193587311
 30
0.0
 11
511.6905938390315
 21
-459.8223193587311
 31
0.0
  0
LINE
  5
A9F
330
36
100
AcDbEntity
  8
0
 62
     3
100
AcDbLine
 10
514.4470393190315
 20
-459.5200891487311
 30
0.0
 11
514.4470393190315
 21
-459.8223193587311
 31
0.0
  0
LINE
  5
AA0
330
36
100
AcDbEntity
  8
0
 62
     3
100
AcDbLine
 10
511.3949401890316
 20
-453.8885278687311
 30
0.0
 11
508.6059937190317
 21
-453.8885278687311
 31
0.0
  0
LINE
  5
AA1
330
36
100
AcDbEntity
  8
0
 62
     3
100
AcDbLine
 10
511.3949401890316
 20
-453.8885278687311
 30
0.0
 11
511.3949401890316
 21
-454.1906170487311
 31
0.0
  0
LINE
  5
AA2
330
36
100
AcDbEntity
  8
0
 62
     3
100
AcDbLine
 10
511.3949401890316
 20
-459.5200891487311
 30
0.0
 11
511.3949401890316
 21
-459.8224603787311
 31
0.0
  0
LINE
  5
AA3
330
36
100
AcDbEntity
  8
0
 62
     3
100
AcDbLine
 10
511.3949401890316
 20
-459.8224603787311
 30
0.0
 11
508.6059937190317
 21
-459.8224603787311
 31
0.0
  0
LINE
  5
AA4
330
36
100
AcDbEntity
  8
0
 62
     3
100
AcDbLine
 10
514.4470393190315
 20
-453.8883868387311
 30
0.0
 11
514.4470393190315
 21
-454.1906170487311
 31
0.0
  0
LINE
  5
AA5
330
36
100
AcDbEntity
  8
0
 62
     3
100
AcDbLine
 10
514.4470393190315
 20
-453.8883868387311
 30
0.0
 11
511.6905938390315
 21
-453.8883868387311
 31
0.0
  0
LINE
  5
AA6
330
36
100
AcDbEntity
  8
0
 62
     3
100
AcDbLine
 10
511.6905938390315
 20
-453.8883868387311
 30
0.0
 11
511.6905938390315
 21
-454.1906170487311
 31
0.0
  0
LINE
  5
AA7
330
36
100
AcDbEntity
  8
0
 62
     3
100
AcDbLine
 10
514.7532650290315
 20
-459.5200891487311
 30
0.0
 11
514.7532650290315
 21
-459.8223193587311
 31
0.0
  0
LINE
  5
AA8
330
36
100
AcDbEntity
  8
0
 62
     3
100
AcDbLine
 10
517.5879801190317
 20
-459.8223193587311
 30
0.0
 11
514.7532650290315
 21
-459.8223193587311
 31
0.0
  0
LINE
  5
AA9
330
36
100
AcDbEntity
  8
0
 62
     3
100
AcDbLine
 10
516.8872135090317
 20
-454.8423432987312
 30
0.0
 11
516.8872135090317
 21
-458.8683628987311
 31
0.0
  0
LINE
  5
AAA
330
36
100
AcDbEntity
  8
0
 62
     3
100
AcDbLine
 10
516.8872135090317
 20
-458.8683628987311
 30
0.0
 11
517.1587120290316
 21
-458.8683628987311
 31
0.0
  0
ARC
  5
AAB
330
36
100
AcDbEntity
  8
0
 62
     3
100
AcDbCircle
 10
515.7704466890317
 20
-456.8553530987311
 30
0.0
 40
2.44529939
100
AcDbArc
 50
304.5919552699968
 51
55.40804473000314
  0
LINE
  5
AAC
330
36
100
AcDbEntity
  8
0
 62
     3
100
AcDbLine
 10
517.5879801190317
 20
-453.8883868387311
 30
0.0
 11
514.7532650290315
 21
-453.8883868387311
 31
0.0
  0
LINE
  5
AAD
330
36
100
AcDbEntity
  8
0
 62
     3
100
AcDbLine
 10
514.7532650290315
 20
-453.8883868387311
 30
0.0
 11
514.7532650290315
 21
-454.1906170487311
 31
0.0
  0
LINE
  5
AAE
330
36
100
AcDbEntity
  8
0
 62
     3
100
AcDbLine
 10
511.6905938390315
 20
-459.5200891487311
 30
0.0
 11
511.6905938390315
 21
-459.8223193587311
 31
0.0
  0
LINE
  5
AAF
330
36
100
AcDbEntity
  8
0
 62
     3
100
AcDbLine
 10
516.8872135090317
 20
-454.8423432987312
 30
0.0
 11
517.1587120290316
 21
-454.8423432987312
 31
0.0
  0
LINE
  5
AB0
330
36
100
AcDbEntity
  8
0
 62
     3
100
AcDbLine
 10
500.2541282690317
 20
-459.5200891487311
 30
0.0
 11
500.2541229990316
 21
-459.8223475987311
 31
0.0
  0
LINE
  5
AB1
330
36
100
AcDbEntity
  8
0
 62
     3
100
AcDbLine
 10
497.4976775190318
 20
-459.8222911087312
 30
0.0
 11
500.2541229990316
 21
-459.8223392187311
 31
0.0
  0
LINE
  5
AB2
330
36
100
AcDbEntity
  8
0
 62
     3
100
AcDbLine
 10
491.3599891590314
 20
-459.8223193587311
 30
0.0
 11
493.5589396290317
 21
-459.8223193587311
 31
0.0
  0
ARC
  5
AB3
330
36
100
AcDbEntity
  8
0
 62
     3
100
AcDbCircle
 10
484.2429281890316
 20
-456.7854864887311
 30
0.0
 40
21.01937947
100
AcDbArc
 50
353.8660061900018
 51
357.69403426
  0
LINE
  5
AB4
330
36
100
AcDbEntity
  8
0
 62
     3
100
AcDbLine
 10
503.8380422790317
 20
-457.6260117087311
 30
0.0
 11
505.2452863990317
 21
-457.6312186787311
 31
0.0
  0
LINE
  5
AB6
330
36
100
AcDbEntity
  8
0
 62
     3
100
AcDbLine
 10
503.8437257290317
 20
-456.0899906487311
 30
0.0
 11
505.2509698490315
 21
-456.0951976187308
 31
0.0
  0
ARC
  5
AB7
330
36
100
AcDbEntity
  8
0
 62
     3
100
AcDbCircle
 10
484.2429281890316
 20
-456.7854864887311
 30
0.0
 40
21.01937947
100
AcDbArc
 50
1.881965739998051
 51
5.709993810001195
  0
LINE
  5
AB8
330
36
100
AcDbEntity
  8
0
 62
     3
100
AcDbLine
 10
500.2542265590316
 20
-453.8884150887311
 30
0.0
 11
500.2542212890316
 21
-454.1906170487311
 31
0.0
  0
LINE
  5
AB9
330
36
100
AcDbEntity
  8
0
 62
     3
100
AcDbLine
 10
497.4977810790315
 20
-453.8883585987311
 30
0.0
 11
500.2542265590316
 21
-453.8884067087312
 31
0.0
  0
LINE
  5
ABA
330
36
100
AcDbEntity
  8
0
 62
     3
100
AcDbLine
 10
497.4976827890317
 20
-459.5200891487311
 30
0.0
 11
497.4976775190318
 21
-459.8222911087312
 31
0.0
  0
LINE
  5
ABB
330
36
100
AcDbEntity
  8
0
 62
     3
100
AcDbLine
 10
497.4977810790315
 20
-453.8883585987311
 30
0.0
 11
497.4977758090316
 21
-454.1906170487311
 31
0.0
  0
LINE
  5
ABC
330
36
100
AcDbEntity
  8
0
 62
     3
100
AcDbLine
 10
493.5589396290317
 20
-459.5200891487311
 30
0.0
 11
493.5589396290317
 21
-459.8223193587311
 31
0.0
  0
LINE
  5
ABD
330
36
100
AcDbEntity
  8
0
 62
     3
100
AcDbLine
 10
492.9364426190316
 20
-456.3424792187311
 30
0.0
 11
495.1113426990317
 21
-459.8223193587311
 31
0.0
  0
LINE
  5
ABE
330
36
100
AcDbEntity
  8
0
 62
     3
100
AcDbLine
 10
495.1113426990317
 20
-459.8223193587311
 30
0.0
 11
496.5676751690317
 21
-459.8223193587311
 31
0.0
  0
LINE
  5
ABF
330
36
100
AcDbEntity
  8
0
 62
     3
100
AcDbLine
 10
497.1901721690316
 20
-453.8883868387311
 30
0.0
 11
497.1901721690316
 21
-454.1906170487311
 31
0.0
  0
LINE
  5
AC0
330
36
100
AcDbEntity
  8
0
 62
     3
100
AcDbLine
 10
494.9912216990315
 20
-453.8883868387311
 30
0.0
 11
497.1901721690316
 21
-453.8883868387311
 31
0.0
  0
LINE
  5
AC1
330
36
100
AcDbEntity
  8
0
 62
     3
100
AcDbLine
 10
494.9912216990315
 20
-453.8883868387311
 30
0.0
 11
494.9912216990315
 21
-454.1906170487311
 31
0.0
  0
LINE
  5
AC2
330
36
100
AcDbEntity
  8
0
 62
     3
100
AcDbLine
 10
495.6137187090318
 20
-456.5760530487311
 30
0.0
 11
493.8499377690316
 21
-453.8883868387311
 31
0.0
  0
LINE
  5
AC3
330
36
100
AcDbEntity
  8
0
 62
     3
100
AcDbLine
 10
491.3599891590314
 20
-453.8883868387311
 30
0.0
 11
493.8499377690316
 21
-453.8883868387311
 31
0.0
  0
LINE
  5
AC4
330
36
100
AcDbEntity
  8
0
 62
     3
100
AcDbLine
 10
505.5260096790314
 20
-453.8885278687311
 30
0.0
 11
508.3149561590317
 21
-453.8885278687311
 31
0.0
  0
LINE
  5
AC5
330
36
100
AcDbEntity
  8
0
 62
     3
100
AcDbLine
 10
505.5260096790314
 20
-454.1906170487311
 30
0.0
 11
505.5260096790314
 21
-453.8885278687311
 31
0.0
  0
LINE
  5
AC6
330
36
100
AcDbEntity
  8
0
 62
     3
100
AcDbLine
 10
505.5260096790314
 20
-459.8224603787311
 30
0.0
 11
505.5260096790314
 21
-459.5200891487311
 31
0.0
  0
LINE
  5
AC7
330
36
100
AcDbEntity
  8
0
 62
     3
100
AcDbLine
 10
505.5260096790314
 20
-459.8224603787311
 30
0.0
 11
508.3149561590317
 21
-459.8224603787311
 31
0.0
  0
LINE
  5
AC8
330
36
100
AcDbEntity
  8
0
 62
     3
100
AcDbLine
 10
508.6059937190317
 20
-459.5200891487311
 30
0.0
 11
508.6059937190317
 21
-459.8224603787311
 31
0.0
  0
LINE
  5
AC9
330
36
100
AcDbEntity
  8
0
 62
     3
100
AcDbLine
 10
508.3149561590317
 20
-459.5200891487311
 30
0.0
 11
508.3149561590317
 21
-459.8224603787311
 31
0.0
  0
LINE
  5
ACA
330
36
100
AcDbEntity
  8
0
 62
     3
100
AcDbLine
 10
508.3149561590317
 20
-454.1906170487311
 30
0.0
 11
508.3149561590317
 21
-453.8885278687311
 31
0.0
  0
LINE
  5
ACB
330
36
100
AcDbEntity
  8
0
 62
     3
100
AcDbLine
 10
508.6059937190317
 20
-454.1906170487311
 30
0.0
 11
508.6059937190317
 21
-453.8885278687311
 31
0.0
  0
LINE
  5
ACC
330
36
100
AcDbEntity
  8
0
 62
     3
100
AcDbLine
 10
491.3599891590314
 20
-459.5200891487311
 30
0.0
 11
491.3599891590314
 21
-459.8223193587311
 31
0.0
  0
LINE
  5
ACD
330
36
100
AcDbEntity
  8
0
 62
     3
100
AcDbLine
 10
491.3599891590314
 20
-453.8883868387311
 30
0.0
 11
491.3599891590314
 21
-454.1906170487311
 31
0.0
  0
ARC
  5
ACE
330
36
100
AcDbEntity
  8
0
 62
     3
100
AcDbCircle
 10
517.8879801190316
 20
-456.2328560887311
 30
0.0
 40
2.344469249999999
100
AcDbArc
 50
17.30874897999799
 51
23.76507096000024
  0
ARC
  5
ACF
330
36
100
AcDbEntity
  8
0
 62
     3
100
AcDbCircle
 10
515.8904466890317
 20
-456.8553530987311
 30
0.0
 40
4.43675086
100
AcDbArc
 50
342.691251020002
 51
17.30856644000025
  0
ARC
  5
AD0
330
36
100
AcDbEntity
  8
0
 62
     3
100
AcDbCircle
 10
517.8879801190316
 20
-457.4778501087311
 30
0.0
 40
2.344469249999999
100
AcDbArc
 50
336.2349290399998
 51
342.691251020002
  0
ARC
  5
AD1
330
36
100
AcDbEntity
  8
0
 62
     3
100
AcDbCircle
 10
517.5879801190317
 20
-456.2328560887311
 30
0.0
 40
2.344469249999999
100
AcDbArc
 50
17.30874897999799
 51
90.0
  0
ARC
  5
AD2
330
36
100
AcDbEntity
  8
0
 62
     3
100
AcDbCircle
 10
515.5904466890318
 20
-456.8553530987311
 30
0.0
 40
4.43675086
100
AcDbArc
 50
342.691251020002
 51
17.30856644000025
  0
ARC
  5
AD3
330
36
100
AcDbEntity
  8
0
 62
     3
100
AcDbCircle
 10
517.5879801190317
 20
-457.4778501087311
 30
0.0
 40
2.344469249999999
100
AcDbArc
 50
270.0
 51
342.691251020002
  0
ARC
  5
AD4
330
36
100
AcDbEntity
  8
0
 62
     3
100
AcDbCircle
 10
503.1252081490316
 20
-456.8553530987311
 30
0.0
 40
2.966966259999998
100
AcDbArc
 50
46.75287961000178
 51
89.74999828999896
  0
ARC
  5
AD5
330
36
100
AcDbEntity
  8
0
 62
     3
100
AcDbCircle
 10
503.1252081490316
 20
-456.8553530987311
 30
0.0
 40
2.966966259999998
100
AcDbArc
 50
273.9763331500003
 51
312.8231203899968
  0
ARC
  5
AD6
330
36
100
AcDbEntity
  8
0
 62
     3
100
AcDbCircle
 10
519.4706480790315
 20
-456.9011552787308
 30
0.0
 40
3.936984289999998
100
AcDbArc
 50
0.6665840599981852
 51
23.90392827000101
  0
ARC
  5
AD7
330
36
100
AcDbEntity
  8
0
 62
     3
100
AcDbCircle
 10
525.0643084690316
 20
-456.9011552787308
 30
0.0
 40
3.936984289999998
100
AcDbArc
 50
156.096071729999
 51
179.3334159400018
  0
ARC
  5
AD8
330
36
100
AcDbEntity
  8
0
 62
     3
100
AcDbCircle
 10
519.4706480790315
 20
-456.8095509187311
 30
0.0
 40
3.936984289999998
100
AcDbArc
 50
336.096071729999
 51
359.3334159400018
  0
ARC
  5
AD9
330
36
100
AcDbEntity
  8
0
 62
     3
100
AcDbCircle
 10
525.0643084690316
 20
-456.8095509187311
 30
0.0
 40
3.936984289999998
100
AcDbArc
 50
180.6665840599982
 51
203.903928270001
  0
LINE
  5
ADA
330
36
100
AcDbEntity
  8
0
 62
     3
100
AcDbLine
 10
532.2418248690317
 20
-456.6306191887311
 30
0.0
 11
703.5850996890317
 21
-456.6306191887311
 31
0.0
  0
LINE
  5
ADB
330
36
100
AcDbEntity
  8
0
 62
     3
100
AcDbLine
 10
483.6877901990316
 20
-456.6306191887311
 30
0.0
 11
313.5850996890316
 21
-456.6306191887311
 31
0.0
  0
LINE
  5
ADC
330
36
100
AcDbEntity
  8
0
 62
     3
100
AcDbLine
 10
301.1831758990317
 20
-590.1859802387312
 30
0.0
 11
298.5850996890317
 21
-591.6859802387311
 31
0.0
  0
LINE
  5
ADD
330
36
100
AcDbEntity
  8
0
 62
     3
100
AcDbLine
 10
301.1831758990317
 20
-590.1859802387312
 30
0.0
 11
298.5850996890317
 21
-588.6859802387312
 31
0.0
  0
LINE
  5
ADE
330
36
100
AcDbEntity
  8
0
 62
     3
100
AcDbLine
 10
298.5850996890317
 20
-591.6859802387311
 30
0.0
 11
298.5850996890317
 21
-588.6859802387312
 31
0.0
  0
LINE
  5
ADF
330
36
100
AcDbEntity
  8
0
 62
     7
100
AcDbLine
 10
313.5850996890316
 20
-720.630619188731
 30
0.0
 11
460.3861728788573
 21
-720.630619188731
 31
0.0
  0
LINE
  5
AE0
330
36
100
AcDbEntity
  8
0
 62
     7
100
AcDbLine
 10
313.5850996890316
 20
-715.630619188731
 30
0.0
 11
460.3861728788573
 21
-715.6306191887307
 31
0.0
  0
LINE
  5
AE1
330
36
100
AcDbEntity
  8
0
 62
     7
100
AcDbLine
 10
313.5850996890316
 20
-710.6306191887309
 30
0.0
 11
460.3861728788573
 21
-710.6306191887307
 31
0.0
  0
LINE
  5
AE2
330
36
100
AcDbEntity
  8
0
 62
     7
100
AcDbLine
 10
313.5850996890316
 20
-705.6306191887309
 30
0.0
 11
460.3861728788573
 21
-705.6306191887308
 31
0.0
  0
LINE
  5
AE3
330
36
100
AcDbEntity
  8
0
 62
     7
100
AcDbLine
 10
313.5850996890316
 20
-700.6306191887309
 30
0.0
 11
460.3861728788573
 21
-700.6306191887309
 31
0.0
  0
LINE
  5
AE4
330
36
100
AcDbEntity
  8
0
 62
     7
100
AcDbLine
 10
313.5850996890316
 20
-695.630619188731
 30
0.0
 11
460.3861728788573
 21
-695.630619188731
 31
0.0
  0
LINE
  5
AE5
330
36
100
AcDbEntity
  8
0
 62
     7
100
AcDbLine
 10
313.5850996890316
 20
-690.630619188731
 30
0.0
 11
460.3861728788573
 21
-690.6306191887307
 31
0.0
  0
LINE
  5
AE6
330
36
100
AcDbEntity
  8
0
  6
Continuous
 62
     7
100
AcDbLine
 10
324.4587352952408
 20
-730.6306191887312
 30
0.0
 11
324.4587352952407
 21
-685.6306191887307
 31
0.0
  0
LINE
  5
AED
330
36
100
AcDbEntity
  8
0
  6
Continuous
 62
     7
100
AcDbLine
 10
425.9108793185507
 20
-685.6306191887307
 30
0.0
 11
425.9108793185507
 21
-730.6306191887309
 31
0.0
  0
LINE
  5
B49
330
36
100
AcDbEntity
  8
0
 62
     7
100
AcDbLine
 10
431.4113510361066
 20
-522.6877281732846
 30
0.0
 11
431.5738282761063
 21
-522.3764796682845
 31
0.0
  0
LINE
  5
B4A
330
36
100
AcDbEntity
  8
0
 62
     7
100
AcDbLine
 10
434.0760870861065
 20
-522.6877281732846
 30
0.0
 11
433.9136098461063
 21
-522.3764796682845
 31
0.0
  0
LINE
  5
B4B
330
36
100
AcDbEntity
  8
0
 62
     7
100
AcDbLine
 10
431.5738282761063
 20
-522.3764796682845
 30
0.0
 11
433.9136098461063
 21
-522.3764796682845
 31
0.0
  0
LINE
  5
B4C
330
36
100
AcDbEntity
  8
0
 62
     7
100
AcDbLine
 10
434.0760870861065
 20
-521.5882529382846
 30
0.0
 11
433.9136098461063
 21
-521.8995014432846
 31
0.0
  0
LINE
  5
B4D
330
36
100
AcDbEntity
  8
0
 62
     7
100
AcDbLine
 10
432.4872821211065
 20
-521.8995014432846
 30
0.0
 11
433.9136098461063
 21
-521.8995014432846
 31
0.0
  0
LINE
  5
B4E
330
36
100
AcDbEntity
  8
0
 62
     7
100
AcDbLine
 10
431.4113510361066
 20
-519.7726366682847
 30
0.0
 11
431.5738282761063
 21
-520.0838851682846
 31
0.0
  0
LINE
  5
B4F
330
36
100
AcDbEntity
  8
0
 62
     7
100
AcDbLine
 10
431.4113510361066
 20
-520.8721119032847
 30
0.0
 11
431.5738282761063
 21
-520.5608633982847
 31
0.0
  0
LINE
  5
B50
330
36
100
AcDbEntity
  8
0
 62
     7
100
AcDbLine
 10
431.5738282761063
 20
-520.5608633982847
 30
0.0
 11
432.6040690361065
 21
-520.5608633982847
 31
0.0
  0
LINE
  5
B51
330
36
100
AcDbEntity
  8
0
 62
     7
100
AcDbLine
 10
431.5738282761063
 20
-520.0838851682846
 30
0.0
 11
434.2272021911066
 21
-520.0838851682846
 31
0.0
  0
LINE
  5
B52
330
36
100
AcDbEntity
  8
0
 62
     7
100
AcDbLine
 10
431.4113529111065
 20
-519.6188529482847
 30
0.0
 11
431.5738322961065
 21
-519.3076055682849
 31
0.0
  0
LINE
  5
B53
330
36
100
AcDbEntity
  8
0
 62
     7
100
AcDbLine
 10
434.0760513911066
 20
-519.6189086432847
 30
0.0
 11
433.9135850161063
 21
-519.3076544682845
 31
0.0
  0
LINE
  5
B54
330
36
100
AcDbEntity
  8
0
 62
     7
100
AcDbLine
 10
431.5738322961065
 20
-519.3076055682849
 30
0.0
 11
433.9135850161063
 21
-519.3076055682849
 31
0.0
  0
LINE
  5
B55
330
36
100
AcDbEntity
  8
0
 62
     7
100
AcDbLine
 10
431.4113698211065
 20
-518.2406126682847
 30
0.0
 11
431.5738427011065
 21
-518.5518634482847
 31
0.0
  0
LINE
  5
B56
330
36
100
AcDbEntity
  8
0
 62
     7
100
AcDbLine
 10
431.5738427011065
 20
-518.5518634482847
 30
0.0
 11
433.9135954211065
 21
-518.5518634482847
 31
0.0
  0
LINE
  5
B57
330
36
100
AcDbEntity
  8
0
 62
     7
100
AcDbLine
 10
434.0760683011063
 20
-518.2406126682847
 30
0.0
 11
433.9135954211065
 21
-518.5518634482847
 31
0.0
  0
LINE
  5
B58
330
36
100
AcDbEntity
  8
0
 62
     7
100
AcDbLine
 10
431.4113991061065
 20
-515.6047173532846
 30
0.0
 11
431.5738774161066
 21
-515.2934694132847
 31
0.0
  0
LINE
  5
B59
330
36
100
AcDbEntity
  8
0
 62
     7
100
AcDbLine
 10
431.5738774161066
 20
-515.2934694132847
 30
0.0
 11
433.9136301411063
 21
-515.2935102482846
 31
0.0
  0
LINE
  5
B5A
330
36
100
AcDbEntity
  8
0
 62
     7
100
AcDbLine
 10
434.0760975861066
 20
-515.6047638632847
 30
0.0
 11
433.9136301411063
 21
-515.2935102482846
 31
0.0
  0
LINE
  5
B5B
330
36
100
AcDbEntity
  8
0
 62
     7
100
AcDbLine
 10
431.4113991061065
 20
-514.2102452332847
 30
0.0
 11
431.5738774161066
 21
-514.5214931782845
 31
0.0
  0
LINE
  5
B5C
330
36
100
AcDbEntity
  8
0
 62
     7
100
AcDbLine
 10
434.0760975861066
 20
-514.2101987282845
 30
0.0
 11
433.9136301411063
 21
-514.5214523432846
 31
0.0
  0
LINE
  5
B5D
330
36
100
AcDbEntity
  8
0
 62
     7
100
AcDbLine
 10
431.4113991061065
 20
-514.0647253332846
 30
0.0
 11
431.5738774161066
 21
-513.7534773932847
 31
0.0
  0
LINE
  5
B5E
330
36
100
AcDbEntity
  8
0
 62
     7
100
AcDbLine
 10
434.0760975861066
 20
-514.0647718432846
 30
0.0
 11
433.9136301411063
 21
-513.7535182282846
 31
0.0
  0
LINE
  5
B5F
330
36
100
AcDbEntity
  8
0
 62
     7
100
AcDbLine
 10
431.4113991061065
 20
-512.6702532182846
 30
0.0
 11
431.5738774161066
 21
-512.9815011582847
 31
0.0
  0
LINE
  5
B60
330
36
100
AcDbEntity
  8
0
 62
     7
100
AcDbLine
 10
431.5738774161066
 20
-512.9815011582847
 30
0.0
 11
433.9136301411063
 21
-512.9814603232846
 31
0.0
  0
LINE
  5
B61
330
36
100
AcDbEntity
  8
0
 62
     7
100
AcDbLine
 10
434.0760975861066
 20
-512.6702067082845
 30
0.0
 11
433.9136301411063
 21
-512.9814603232846
 31
0.0
  0
LINE
  5
B62
330
36
100
AcDbEntity
  8
0
 62
     7
100
AcDbLine
 10
432.5932582161065
 20
-513.7534951832845
 30
0.0
 11
432.5932582161065
 21
-514.5214753882846
 31
0.0
  0
LINE
  5
B63
330
36
100
AcDbEntity
  8
0
 62
     7
100
AcDbLine
 10
432.8941799061063
 20
-513.7535004332845
 30
0.0
 11
432.8941799061063
 21
-514.5214701382847
 31
0.0
  0
LINE
  5
B64
330
36
100
AcDbEntity
  8
0
 62
     7
100
AcDbLine
 10
431.5738774161066
 20
-513.7534773932847
 30
0.0
 11
432.5932582161065
 21
-513.7534951832845
 31
0.0
  0
LINE
  5
B65
330
36
100
AcDbEntity
  8
0
 62
     7
100
AcDbLine
 10
432.8941799061063
 20
-513.7535004332845
 30
0.0
 11
433.9136301411063
 21
-513.7535182282846
 31
0.0
  0
LINE
  5
B66
330
36
100
AcDbEntity
  8
0
 62
     7
100
AcDbLine
 10
431.5738774161066
 20
-514.5214931782845
 30
0.0
 11
432.5932582161065
 21
-514.5214753882846
 31
0.0
  0
LINE
  5
B67
330
36
100
AcDbEntity
  8
0
 62
     7
100
AcDbLine
 10
432.8941799061063
 20
-514.5214701382847
 30
0.0
 11
433.9136301411063
 21
-514.5214523432846
 31
0.0
  0
LINE
  5
B68
330
36
100
AcDbEntity
  8
0
 62
     7
100
AcDbLine
 10
431.4113991061065
 20
-512.5224252732847
 30
0.0
 11
431.5738774161066
 21
-512.2111773282846
 31
0.0
  0
LINE
  5
B69
330
36
100
AcDbEntity
  8
0
 62
     7
100
AcDbLine
 10
431.5738774161066
 20
-512.2111773282846
 30
0.0
 11
433.9136301411063
 21
-512.2112181682846
 31
0.0
  0
LINE
  5
B6A
330
36
100
AcDbEntity
  8
0
 62
     7
100
AcDbLine
 10
434.0760975861066
 20
-512.5224717832845
 30
0.0
 11
433.9136301411063
 21
-512.2112181682846
 31
0.0
  0
LINE
  5
B6B
330
36
100
AcDbEntity
  8
0
 62
     7
100
AcDbLine
 10
431.4113991061065
 20
-511.1442036532848
 30
0.0
 11
431.5738774161066
 21
-511.4554515982844
 31
0.0
  0
LINE
  5
B6C
330
36
100
AcDbEntity
  8
0
 62
     7
100
AcDbLine
 10
431.5738774161066
 20
-511.4554515982844
 30
0.0
 11
433.9136301411063
 21
-511.4554107582845
 31
0.0
  0
LINE
  5
B6D
330
36
100
AcDbEntity
  8
0
 62
     7
100
AcDbLine
 10
434.0760975861066
 20
-511.1441571432846
 30
0.0
 11
433.9136301411063
 21
-511.4554107582845
 31
0.0
  0
LINE
  5
B6E
330
36
100
AcDbEntity
  8
0
 62
     7
100
AcDbLine
 10
431.4113991061065
 20
-510.9910896782848
 30
0.0
 11
431.5738774161066
 21
-510.6798417332846
 31
0.0
  0
LINE
  5
B6F
330
36
100
AcDbEntity
  8
0
 62
     7
100
AcDbLine
 10
431.5738774161066
 20
-510.6798417332846
 30
0.0
 11
433.9136301411063
 21
-510.6798825682846
 31
0.0
  0
LINE
  5
B70
330
36
100
AcDbEntity
  8
0
 62
     7
100
AcDbLine
 10
434.0760975861066
 20
-510.9911361832847
 30
0.0
 11
433.9136301411063
 21
-510.6798825682846
 31
0.0
  0
ARC
  5
B71
330
36
100
AcDbEntity
  8
0
 62
     7
100
AcDbCircle
 10
432.7370120911063
 20
-516.5989396882848
 30
0.0
 40
1.49020422
100
AcDbArc
 50
187.7015235099969
 51
0.0
  0
ARC
  5
B72
330
36
100
AcDbEntity
  8
0
 62
     7
100
AcDbCircle
 10
432.7519811111065
 20
-507.3985105182845
 30
0.0
 40
1.506388129999999
100
AcDbArc
 50
90.31425027000087
 51
159.005582450003
  0
ARC
  5
B73
330
36
100
AcDbEntity
  8
0
 62
     7
100
AcDbCircle
 10
432.7519811111065
 20
-507.0694567132846
 30
0.0
 40
1.506388129999999
100
AcDbArc
 50
200.994417549997
 51
238.1166110200026
  0
ARC
  5
B74
330
36
100
AcDbEntity
  8
0
 62
     7
100
AcDbCircle
 10
432.7354570111065
 20
-507.3985105182845
 30
0.0
 40
1.506388129999999
100
AcDbArc
 50
20.99441754999699
 51
89.68574972999908
  0
ARC
  5
B75
330
36
100
AcDbEntity
  8
0
 62
     7
100
AcDbCircle
 10
432.7354570111065
 20
-507.0694567132846
 30
0.0
 40
1.506388129999999
100
AcDbArc
 50
301.8833889799974
 51
339.0055824500028
  0
ARC
  5
B76
330
36
100
AcDbEntity
  8
0
 62
     7
100
AcDbCircle
 10
432.1274294961065
 20
-507.2339836132846
 30
0.0
 40
0.8671935600000001
100
AcDbArc
 50
154.3651718999992
 51
205.6348281000008
  0
ARC
  5
B77
330
36
100
AcDbEntity
  8
0
 62
     7
100
AcDbCircle
 10
433.3600086261063
 20
-507.2339836132846
 30
0.0
 40
0.8671935600000001
100
AcDbArc
 50
334.3651718999993
 51
25.63482810000078
  0
ARC
  5
B78
330
36
100
AcDbEntity
  8
0
 62
     7
100
AcDbCircle
 10
432.1109568661063
 20
-507.2339836132846
 30
0.0
 40
0.4256111650000002
100
AcDbArc
 50
109.4866055399985
 51
250.5133944600014
  0
ARC
  5
B79
330
36
100
AcDbEntity
  8
0
 62
     7
100
AcDbCircle
 10
433.3600086261063
 20
-507.2339836132846
 30
0.0
 40
0.8671935600000001
100
AcDbArc
 50
334.3651718999993
 51
25.63482810000078
  0
ARC
  5
B7A
330
36
100
AcDbEntity
  8
0
 62
     7
100
AcDbCircle
 10
433.3764812561065
 20
-507.2339836132846
 30
0.0
 40
0.4256111650000002
100
AcDbArc
 50
289.4866055399986
 51
70.51339446000143
  0
ARC
  5
B7B
330
36
100
AcDbEntity
  8
0
 62
     7
100
AcDbCircle
 10
448.6209046611064
 20
-510.6214639732846
 30
0.0
 40
18.6
100
AcDbArc
 50
159.5057148000016
 51
171.6899880699973
  0
ARC
  5
B7C
330
36
100
AcDbEntity
  8
0
 62
     7
100
AcDbCircle
 10
416.8665334611063
 20
-510.6214639732846
 30
0.0
 40
18.6
100
AcDbArc
 50
8.310011929996155
 51
20.49428519999842
  0
ARC
  5
B7D
330
36
100
AcDbEntity
  8
0
 62
     7
100
AcDbCircle
 10
432.7437190611065
 20
-504.6870324532847
 30
0.0
 40
1.649999999999999
100
AcDbArc
 50
20.49428519999842
 51
159.5057148000016
  0
ARC
  5
B7E
330
36
100
AcDbEntity
  8
0
 62
     7
100
AcDbCircle
 10
432.7437190611065
 20
-524.1870324532847
 30
0.0
 40
1.649999999999999
100
AcDbArc
 50
200.4942851999984
 51
339.5057148000015
  0
ARC
  5
B7F
330
36
100
AcDbEntity
  8
0
 62
     7
100
AcDbCircle
 10
448.6209046611064
 20
-518.2526009382845
 30
0.0
 40
18.6
100
AcDbArc
 50
188.3100119299961
 51
200.4942851999984
  0
ARC
  5
B80
330
36
100
AcDbEntity
  8
0
 62
     7
100
AcDbCircle
 10
416.8665334611063
 20
-518.2526009382845
 30
0.0
 40
18.6
100
AcDbArc
 50
339.5057148000015
 51
351.6899880699974
  0
ARC
  5
B81
330
36
100
AcDbEntity
  8
0
 62
     7
100
AcDbCircle
 10
474.7437190611065
 20
-514.4370324532847
 30
0.0
 40
44.999999905
100
AcDbArc
 50
171.6899880699973
 51
188.3100119299961
  0
ARC
  5
B82
330
36
100
AcDbEntity
  8
0
 62
     7
100
AcDbCircle
 10
390.7437190611066
 20
-514.4370324532847
 30
0.0
 40
44.999999905
100
AcDbArc
 50
351.6899880699974
 51
8.310011929996155
  0
ARC
  5
B83
330
36
100
AcDbEntity
  8
0
 62
     7
100
AcDbCircle
 10
474.7437190611065
 20
-514.4370324532847
 30
0.0
 40
44.549999905
100
AcDbArc
 50
171.6899880699973
 51
188.3100119299961
  0
ARC
  5
B84
330
36
100
AcDbEntity
  8
0
 62
     7
100
AcDbCircle
 10
390.7437190611066
 20
-514.4370324532847
 30
0.0
 40
44.549999905
100
AcDbArc
 50
351.6899880699974
 51
8.310011929996155
  0
ARC
  5
B85
330
36
100
AcDbEntity
  8
0
 62
     7
100
AcDbCircle
 10
416.8665334611063
 20
-510.6214639732846
 30
0.0
 40
18.15
100
AcDbArc
 50
8.310011929996155
 51
20.49428519999842
  0
ARC
  5
B86
330
36
100
AcDbEntity
  8
0
 62
     7
100
AcDbCircle
 10
448.6209046611064
 20
-510.6214639732846
 30
0.0
 40
18.15
100
AcDbArc
 50
159.5057148000016
 51
171.6899880699973
  0
ARC
  5
B87
330
36
100
AcDbEntity
  8
0
 62
     7
100
AcDbCircle
 10
432.7437190611065
 20
-504.6870324532847
 30
0.0
 40
1.199999999999999
100
AcDbArc
 50
20.49428519999842
 51
159.5057148000016
  0
ARC
  5
B88
330
36
100
AcDbEntity
  8
0
 62
     7
100
AcDbCircle
 10
432.7437190611065
 20
-524.1870324532847
 30
0.0
 40
1.199999999999999
100
AcDbArc
 50
200.4942851999984
 51
339.5057148000015
  0
ARC
  5
B89
330
36
100
AcDbEntity
  8
0
 62
     7
100
AcDbCircle
 10
448.6209046611064
 20
-518.2526009382845
 30
0.0
 40
18.15
100
AcDbArc
 50
188.3100119299961
 51
200.4942851999984
  0
ARC
  5
B8A
330
36
100
AcDbEntity
  8
0
 62
     7
100
AcDbCircle
 10
416.8665334611063
 20
-518.2526009382845
 30
0.0
 40
18.15
100
AcDbArc
 50
339.5057148000015
 51
351.6899880699974
  0
LINE
  5
B8B
330
36
100
AcDbEntity
  8
0
 62
     7
100
AcDbLine
 10
434.2272021911066
 20
-511.1442030932845
 30
0.0
 11
434.2272021911066
 21
-512.5224258332847
 31
0.0
  0
LINE
  5
B8C
330
36
100
AcDbEntity
  8
0
 62
     7
100
AcDbLine
 10
434.0760870861065
 20
-511.1442030932845
 30
0.0
 11
434.2272021911066
 21
-511.1442030932845
 31
0.0
  0
LINE
  5
B8D
330
36
100
AcDbEntity
  8
0
 62
     7
100
AcDbLine
 10
431.2603064461066
 20
-512.6702526582846
 30
0.0
 11
431.2603064461066
 21
-514.0647258932847
 31
0.0
  0
LINE
  5
B8E
330
36
100
AcDbEntity
  8
0
 62
     7
100
AcDbLine
 10
431.2603064461066
 20
-512.6702526582846
 30
0.0
 11
431.4113510361066
 21
-512.6702526582846
 31
0.0
  0
LINE
  5
B8F
330
36
100
AcDbEntity
  8
0
 62
     7
100
AcDbLine
 10
434.0760870861065
 20
-512.6702526582846
 30
0.0
 11
434.2272727011065
 21
-512.6702526582846
 31
0.0
  0
LINE
  5
B90
330
36
100
AcDbEntity
  8
0
 62
     7
100
AcDbLine
 10
434.2272727011065
 20
-512.6702526582846
 30
0.0
 11
434.2272727011065
 21
-514.0647258932847
 31
0.0
  0
LINE
  5
B91
330
36
100
AcDbEntity
  8
0
 62
     7
100
AcDbLine
 10
431.2602359311063
 20
-511.1442030932845
 30
0.0
 11
431.4113510361066
 21
-511.1442030932845
 31
0.0
  0
LINE
  5
B92
330
36
100
AcDbEntity
  8
0
 62
     7
100
AcDbLine
 10
431.2602359311063
 20
-511.1442030932845
 30
0.0
 11
431.2602359311063
 21
-512.5224258332847
 31
0.0
  0
LINE
  5
B93
330
36
100
AcDbEntity
  8
0
 62
     7
100
AcDbLine
 10
431.2602359311063
 20
-512.5224258332847
 30
0.0
 11
431.4113510361066
 21
-512.5224258332847
 31
0.0
  0
LINE
  5
B94
330
36
100
AcDbEntity
  8
0
 62
     7
100
AcDbLine
 10
434.0760870861065
 20
-510.9910902382845
 30
0.0
 11
434.2272021911066
 21
-510.9910902382845
 31
0.0
  0
LINE
  5
B95
330
36
100
AcDbEntity
  8
0
 62
     7
100
AcDbLine
 10
434.2272021911066
 20
-509.5737326932846
 30
0.0
 11
434.2272021911066
 21
-510.9910902382845
 31
0.0
  0
LINE
  5
B96
330
36
100
AcDbEntity
  8
0
 62
     7
100
AcDbLine
 10
431.7372141611063
 20
-509.9241159982845
 30
0.0
 11
433.7502239611063
 21
-509.9241159982845
 31
0.0
  0
LINE
  5
B97
330
36
100
AcDbEntity
  8
0
 62
     7
100
AcDbLine
 10
433.7502239611063
 20
-509.9241159982845
 30
0.0
 11
433.7502239611063
 21
-509.7883667382847
 31
0.0
  0
ARC
  5
B98
330
36
100
AcDbEntity
  8
0
 62
     7
100
AcDbCircle
 10
432.7437190611065
 20
-510.4824994082846
 30
0.0
 40
1.222649695
100
AcDbArc
 50
34.59195526999414
 51
145.4080447300058
  0
LINE
  5
B99
330
36
100
AcDbEntity
  8
0
 62
     7
100
AcDbLine
 10
431.2602359311063
 20
-509.5737326932846
 30
0.0
 11
431.2602359311063
 21
-510.9910902382845
 31
0.0
  0
LINE
  5
B9A
330
36
100
AcDbEntity
  8
0
 62
     7
100
AcDbLine
 10
431.2602359311063
 20
-510.9910902382845
 30
0.0
 11
431.4113510361066
 21
-510.9910902382845
 31
0.0
  0
LINE
  5
B9B
330
36
100
AcDbEntity
  8
0
 62
     7
100
AcDbLine
 10
434.0760870861065
 20
-512.5224258332847
 30
0.0
 11
434.2272021911066
 21
-512.5224258332847
 31
0.0
  0
LINE
  5
B9C
330
36
100
AcDbEntity
  8
0
 62
     7
100
AcDbLine
 10
431.7372141611063
 20
-509.9241159982845
 30
0.0
 11
431.7372141611063
 21
-509.7883667382847
 31
0.0
  0
LINE
  5
B9D
330
36
100
AcDbEntity
  8
0
 62
     7
100
AcDbLine
 10
434.0760870861065
 20
-518.2406586182845
 30
0.0
 11
434.2272163111063
 21
-518.2406612532846
 31
0.0
  0
LINE
  5
B9E
330
36
100
AcDbEntity
  8
0
 62
     7
100
AcDbLine
 10
434.2271880661066
 20
-519.6188839932847
 30
0.0
 11
434.2272121211065
 21
-518.2406612532846
 31
0.0
  0
LINE
  5
B9F
330
36
100
AcDbEntity
  8
0
 62
     7
100
AcDbLine
 10
434.2272021911066
 20
-522.6877281732846
 30
0.0
 11
434.2272021911066
 21
-521.5882529382846
 31
0.0
  0
ARC
  5
BA0
330
36
100
AcDbEntity
  8
0
 62
     7
100
AcDbCircle
 10
432.7087857561063
 20
-526.2462586582849
 30
0.0
 40
10.509689735
100
AcDbArc
 50
83.86600619000178
 51
87.69403426000003
  0
LINE
  5
BA1
330
36
100
AcDbEntity
  8
0
 62
     7
100
AcDbLine
 10
433.1290483661065
 20
-516.4487016132847
 30
0.0
 11
433.1316518511065
 21
-515.7450795532846
 31
0.0
  0
LINE
  5
BA3
330
36
100
AcDbEntity
  8
0
 62
     7
100
AcDbLine
 10
432.3610378361065
 20
-516.4458598882846
 30
0.0
 11
432.3636413211063
 21
-515.7422378282847
 31
0.0
  0
ARC
  5
BA4
330
36
100
AcDbEntity
  8
0
 62
     7
100
AcDbCircle
 10
432.7087857561063
 20
-526.2462586582849
 30
0.0
 40
10.509689735
100
AcDbArc
 50
91.88196573999805
 51
95.70999381000117
  0
LINE
  5
BA5
330
36
100
AcDbEntity
  8
0
 62
     7
100
AcDbLine
 10
431.2602500561061
 20
-518.2406094732847
 30
0.0
 11
431.4113510361066
 21
-518.2406121082847
 31
0.0
  0
LINE
  5
BA6
330
36
100
AcDbEntity
  8
0
 62
     7
100
AcDbLine
 10
431.2602218111066
 20
-519.6188322132845
 30
0.0
 11
431.2602458661065
 21
-518.2406094732847
 31
0.0
  0
LINE
  5
BA7
330
36
100
AcDbEntity
  8
0
 62
     7
100
AcDbLine
 10
434.0760870861065
 20
-519.6188813582847
 30
0.0
 11
434.2271880661066
 21
-519.6188839932847
 31
0.0
  0
LINE
  5
BA8
330
36
100
AcDbEntity
  8
0
 62
     7
100
AcDbLine
 10
431.2602218111066
 20
-519.6188322132845
 30
0.0
 11
431.4113510361066
 21
-519.6188348482847
 31
0.0
  0
LINE
  5
BA9
330
36
100
AcDbEntity
  8
0
 62
     7
100
AcDbLine
 10
434.0760870861065
 20
-521.5882529382846
 30
0.0
 11
434.2272021911066
 21
-521.5882529382846
 31
0.0
  0
LINE
  5
BAA
330
36
100
AcDbEntity
  8
0
 62
     7
100
AcDbLine
 10
432.4872821211065
 20
-521.8995014432846
 30
0.0
 11
434.2272021911066
 21
-520.8120514032847
 31
0.0
  0
LINE
  5
BAB
330
36
100
AcDbEntity
  8
0
 62
     7
100
AcDbLine
 10
434.2272021911066
 20
-520.8120514032847
 30
0.0
 11
434.2272021911066
 21
-520.0838851682846
 31
0.0
  0
LINE
  5
BAC
330
36
100
AcDbEntity
  8
0
 62
     7
100
AcDbLine
 10
431.2602359311063
 20
-519.7726366682847
 30
0.0
 11
431.4113510361066
 21
-519.7726366682847
 31
0.0
  0
LINE
  5
BAD
330
36
100
AcDbEntity
  8
0
 62
     7
100
AcDbLine
 10
431.2602359311063
 20
-520.8721119032847
 30
0.0
 11
431.2602359311063
 21
-519.7726366682847
 31
0.0
  0
LINE
  5
BAE
330
36
100
AcDbEntity
  8
0
 62
     7
100
AcDbLine
 10
431.2602359311063
 20
-520.8721119032847
 30
0.0
 11
431.4113510361066
 21
-520.8721119032847
 31
0.0
  0
LINE
  5
BAF
330
36
100
AcDbEntity
  8
0
 62
     7
100
AcDbLine
 10
432.6040690361065
 20
-520.5608633982847
 30
0.0
 11
431.2602359311063
 21
-521.4427538682847
 31
0.0
  0
LINE
  5
BB0
330
36
100
AcDbEntity
  8
0
 62
     7
100
AcDbLine
 10
431.2602359311063
 20
-522.6877281732846
 30
0.0
 11
431.2602359311063
 21
-521.4427538682847
 31
0.0
  0
LINE
  5
BB1
330
36
100
AcDbEntity
  8
0
 62
     7
100
AcDbLine
 10
431.2603064461066
 20
-515.6047179132847
 30
0.0
 11
431.2603064461066
 21
-514.2102446732847
 31
0.0
  0
LINE
  5
BB2
330
36
100
AcDbEntity
  8
0
 62
     7
100
AcDbLine
 10
431.4113510361066
 20
-515.6047179132847
 30
0.0
 11
431.2603064461066
 21
-515.6047179132847
 31
0.0
  0
LINE
  5
BB3
330
36
100
AcDbEntity
  8
0
 62
     7
100
AcDbLine
 10
434.2272727011065
 20
-515.6047179132847
 30
0.0
 11
434.0760870861065
 21
-515.6047179132847
 31
0.0
  0
LINE
  5
BB4
330
36
100
AcDbEntity
  8
0
 62
     7
100
AcDbLine
 10
434.2272727011065
 20
-515.6047179132847
 30
0.0
 11
434.2272727011065
 21
-514.2102446732847
 31
0.0
  0
LINE
  5
BB5
330
36
100
AcDbEntity
  8
0
 62
     7
100
AcDbLine
 10
434.0760870861065
 20
-514.0647258932847
 30
0.0
 11
434.2272727011065
 21
-514.0647258932847
 31
0.0
  0
LINE
  5
BB6
330
36
100
AcDbEntity
  8
0
 62
     7
100
AcDbLine
 10
434.0760870861065
 20
-514.2102446732847
 30
0.0
 11
434.2272727011065
 21
-514.2102446732847
 31
0.0
  0
LINE
  5
BB7
330
36
100
AcDbEntity
  8
0
 62
     7
100
AcDbLine
 10
431.4113510361066
 20
-514.2102446732847
 30
0.0
 11
431.2603064461066
 21
-514.2102446732847
 31
0.0
  0
LINE
  5
BB8
330
36
100
AcDbEntity
  8
0
 62
     7
100
AcDbLine
 10
431.4113510361066
 20
-514.0647258932847
 30
0.0
 11
431.2603064461066
 21
-514.0647258932847
 31
0.0
  0
LINE
  5
BB9
330
36
100
AcDbEntity
  8
0
 62
     7
100
AcDbLine
 10
434.0760870861065
 20
-522.6877281732846
 30
0.0
 11
434.2272021911066
 21
-522.6877281732846
 31
0.0
  0
LINE
  5
BBA
330
36
100
AcDbEntity
  8
0
 62
     7
100
AcDbLine
 10
431.2602359311063
 20
-522.6877281732846
 30
0.0
 11
431.4113510361066
 21
-522.6877281732846
 31
0.0
  0
ARC
  5
BBB
330
36
100
AcDbEntity
  8
0
 62
     7
100
AcDbCircle
 10
432.4324705561063
 20
-509.4237326932847
 30
0.0
 40
1.172234624999997
100
AcDbArc
 50
107.3087489799981
 51
113.7650709600002
  0
ARC
  5
BBC
330
36
100
AcDbEntity
  8
0
 62
     7
100
AcDbCircle
 10
432.7437190611065
 20
-510.4224994082847
 30
0.0
 40
2.21837543
100
AcDbArc
 50
72.69125102000188
 51
107.3085664400004
  0
ARC
  5
BBD
330
36
100
AcDbEntity
  8
0
 62
     7
100
AcDbCircle
 10
433.0549675661067
 20
-509.4237326932847
 30
0.0
 40
1.172234624999997
100
AcDbArc
 50
66.2349290399998
 51
72.69125102000188
  0
ARC
  5
BBE
330
36
100
AcDbEntity
  8
0
 62
     7
100
AcDbCircle
 10
432.4324705561063
 20
-509.5737326932846
 30
0.0
 40
1.172234624999997
100
AcDbArc
 50
107.3087489799981
 51
180.0
  0
ARC
  5
BBF
330
36
100
AcDbEntity
  8
0
 62
     7
100
AcDbCircle
 10
432.7437190611065
 20
-510.5724994082846
 30
0.0
 40
2.21837543
100
AcDbArc
 50
72.69125102000188
 51
107.3085664400004
  0
ARC
  5
BC0
330
36
100
AcDbEntity
  8
0
 62
     7
100
AcDbCircle
 10
433.0549675661067
 20
-509.5737326932846
 30
0.0
 40
1.172234624999997
100
AcDbArc
 50
0.0
 51
72.69125102000188
  0
ARC
  5
BC1
330
36
100
AcDbEntity
  8
0
 62
     7
100
AcDbCircle
 10
432.7437190611065
 20
-516.8051186782848
 30
0.0
 40
1.483483129999999
100
AcDbArc
 50
136.7528796100016
 51
179.7499982899957
  0
ARC
  5
BC2
330
36
100
AcDbEntity
  8
0
 62
     7
100
AcDbCircle
 10
432.7437190611065
 20
-516.8051186782848
 30
0.0
 40
1.483483129999999
100
AcDbArc
 50
3.976333149997056
 51
42.82312038999903
  0
ARC
  5
BC3
330
36
100
AcDbEntity
  8
0
 62
     7
100
AcDbCircle
 10
432.7666201511065
 20
-508.6323987132845
 30
0.0
 40
1.968492144999999
100
AcDbArc
 50
90.66658405999815
 51
113.9039282700008
  0
ARC
  5
BC4
330
36
100
AcDbEntity
  8
0
 62
     7
100
AcDbCircle
 10
432.7666201511065
 20
-505.8355685182847
 30
0.0
 40
1.968492144999999
100
AcDbArc
 50
246.0960717299991
 51
269.3334159400018
  0
ARC
  5
BC5
330
36
100
AcDbEntity
  8
0
 62
     7
100
AcDbCircle
 10
432.7208179711065
 20
-508.6323987132845
 30
0.0
 40
1.968492144999999
100
AcDbArc
 50
66.09607172999914
 51
89.33341594000186
  0
ARC
  5
BC6
330
36
100
AcDbEntity
  8
0
 62
     7
100
AcDbCircle
 10
432.7208179711065
 20
-505.8355685182847
 30
0.0
 40
1.968492144999999
100
AcDbArc
 50
270.6665840599982
 51
293.9039282700008
  0
TEXT
  5
BC7
330
36
100
AcDbEntity
  8
0
 62
     3
100
AcDbText
 10
448.4239725151553
 20
-526.8325659864972
 30
0.0
 40
3.2
  1
14A 125V
 50
90.0
  7
高3.2
100
AcDbText
  0
TEXT
  5
BC9
330
36
100
AcDbEntity
  8
0
 62
     3
100
AcDbText
 10
512.2909243900001
 20
-523.1313399420653
 30
0.0
 40
3.2
  1
セーフティ
 50
90.0
  7
高3.2
100
AcDbText
  0
TEXT
  5
BCA
330
36
100
AcDbEntity
  8
0
 62
     3
100
AcDbText
 10
516.877262445418
 20
-521.4534900411997
 30
0.0
 40
3.2
  1
スイッチ
 50
90.0
  7
高3.2
100
AcDbText
  0
TEXT
  5
BCB
330
36
100
AcDbEntity
  8
0
 62
     3
100
AcDbText
 10
507.1484073832875
 20
-519.6392366833777
 30
0.0
 40
3.2
  1
防雨型
 50
90.0
  7
高3.2
100
AcDbText
  0
TEXT
  5
BCF
330
36
100
AcDbEntity
  8
0
 62
     3
100
AcDbText
 10
460.5256817838776
 20
-517.664797112253
 30
0.0
 40
3.2
  1
ON
 50
90.0
  7
高3.2
100
AcDbText
  0
TEXT
  5
BD0
330
36
100
AcDbEntity
  8
0
 62
     3
100
AcDbText
 10
488.1832319829277
 20
-523.5881173008149
 30
0.0
 40
3.2
  1
RESET
 50
90.0
  7
高3.2
100
AcDbText
  0
CIRCLE
  5
BD1
330
36
100
AcDbEntity
  8
0
  6
Continuous
 62
     7
100
AcDbCircle
 10
471.8511394094908
 20
-514.2380096854598
 30
0.0
 40
6.248246074174002
  0
TEXT
  5
BD2
330
36
100
AcDbEntity
  8
0
 62
     3
100
AcDbText
 10
386.9841352038632
 20
-700.130619188731
 30
0.0
 40
3.2
  1
内蔵
 41
0.8
  7
高3.2
100
AcDbText
  0
TEXT
  5
C2D
330
36
100
AcDbEntity
  8
0
 62
     4
100
AcDbText
 10
391.6235060832449
 20
-514.39989579296
 30
0.0
 40
4.5
  1
入力側
  7
高4.5
100
AcDbText
  0
TEXT
  5
C2F
330
36
100
AcDbEntity
  8
0
 62
     4
100
AcDbText
 10
537.914530840856
 20
-514.5866257586233
 30
0.0
 40
4.5
  1
出力側
  7
高4.5
100
AcDbText
  0
LINE
  5
C31
330
36
100
AcDbEntity
  8
0
  6
Continuous
 62
     7
100
AcDbLine
 10
536.8133315824775
 20
-516.3555721415977
 30
0.0
 11
554.1617228403631
 21
-516.3555721415977
 31
0.0
  0
LINE
  5
C32
330
36
100
AcDbEntity
  8
0
  6
Continuous
 62
     7
100
AcDbLine
 10
389.2144680100799
 20
-516.1688421759341
 30
0.0
 11
407.8045237017382
 21
-516.1688421759341
 31
0.0
  0
TEXT
  5
C69
330
36
100
AcDbEntity
  8
0
 62
     3
100
AcDbText
 10
498.9900876113953
 20
-632.1252997865938
 30
0.0
 40
4.5
  1
SW-01
  7
高4.5
100
AcDbText
  0
LINE
  5
C6F
330
36
100
AcDbEntity
  8
0
 62
     3
100
AcDbLine
 10
313.5850996890316
 20
-685.6306191887307
 30
0.0
 11
460.3861728788573
 21
-685.6306191887307
 31
0.0
  0
TEXT
  5
C77
330
36
100
AcDbEntity
  8
0
 62
     3
100
AcDbText
 10
315.8041131918148
 20
-690.1306191887309
 30
0.0
 40
3.2
  1
付属
 41
0.8
  7
高3.2
100
AcDbText
  0
TEXT
  5
C78
330
36
100
AcDbEntity
  8
0
 62
     3
100
AcDbText
 10
325.9587352952407
 20
-690.1306191887309
 30
0.0
 40
3.2
  1
アース線接続端子
 41
0.8
  7
高3.2
100
AcDbText
  0
TEXT
  5
C79
330
36
100
AcDbEntity
  8
0
 62
     3
100
AcDbText
 10
405.9477481394067
 20
-690.1306191887309
 30
0.0
 40
3.2
  1
1
 41
0.8
  7
高3.2
100
AcDbText
  0
TEXT
  5
C7A
330
36
100
AcDbEntity
  8
0
 62
     3
100
AcDbText
 10
356.5847140559457
 20
-690.1306191887309
 30
0.0
 40
3.2
  1
B-2
 41
0.8
  7
高3.2
100
AcDbText
  0
TEXT
  5
D41
330
36
100
AcDbEntity
  8
0
 62
     3
100
AcDbText
 10
412.1723236101771
 20
-730.1306191887309
 30
0.0
 40
3.2
  1
コード
 41
0.8
  7
高3.2
100
AcDbText
  0
TEXT
  5
D42
330
36
100
AcDbEntity
  8
0
 62
     3
100
AcDbText
 10
412.1723236101771
 20
-700.130619188731
 30
0.0
 40
3.2
  1
-
 41
0.8
  7
高3.2
100
AcDbText
  0
TEXT
  5
D43
330
36
100
AcDbEntity
  8
0
 62
     3
100
AcDbText
 10
412.1723236101771
 20
-725.130619188731
 30
0.0
 40
3.2
  1
-
 41
0.8
  7
高3.2
100
AcDbText
  0
TEXT
  5
D44
330
36
100
AcDbEntity
  8
0
 62
     3
100
AcDbText
 10
412.1723236101771
 20
-720.130619188731
 30
0.0
 40
3.2
  1
-
 41
0.8
  7
高3.2
100
AcDbText
  0
TEXT
  5
D45
330
36
100
AcDbEntity
  8
0
 62
     3
100
AcDbText
 10
412.1723236101771
 20
-705.1306191887309
 30
0.0
 40
3.2
  1
-
 41
0.8
  7
高3.2
100
AcDbText
  0
TEXT
  5
D46
330
36
100
AcDbEntity
  8
0
 62
     3
100
AcDbText
 10
412.1723236101771
 20
-715.1306191887309
 30
0.0
 40
3.2
  1
-
 41
0.8
  7
高3.2
100
AcDbText
  0
TEXT
  5
D47
330
36
100
AcDbEntity
  8
0
 62
     3
100
AcDbText
 10
412.1723236101771
 20
-695.130619188731
 30
0.0
 40
3.2
  1
-
 41
0.8
  7
高3.2
100
AcDbText
  0
TEXT
  5
D48
330
36
100
AcDbEntity
  8
0
 62
     3
100
AcDbText
 10
412.1723236101771
 20
-690.1306191887309
 30
0.0
 40
3.2
  1
-
 41
0.8
  7
高3.2
100
AcDbText
  0
TEXT
  5
D49
330
36
100
AcDbEntity
  8
0
 62
     3
100
AcDbText
 10
412.1723236101771
 20
-710.1306191887309
 30
0.0
 40
3.2
  1
-
 41
0.8
  7
高3.2
100
AcDbText
  0
TEXT
  5
D4A
330
36
100
AcDbEntity
  8
0
 62
     3
100
AcDbText
 10
427.4108793185511
 20
-730.1306191887309
 30
0.0
 40
3.2
  1
コード番号名称
 41
0.6
  7
高3.2
100
AcDbText
  0
TEXT
  5
D4B
330
36
100
AcDbEntity
  8
0
 62
     3
100
AcDbText
 10
427.4108793185511
 20
-700.130619188731
 30
0.0
 40
3.2
  1
-
 41
0.6
  7
高3.2
100
AcDbText
  0
TEXT
  5
D4C
330
36
100
AcDbEntity
  8
0
 62
     3
100
AcDbText
 10
427.4108793185511
 20
-725.130619188731
 30
0.0
 40
3.2
  1
-
 41
0.6
  7
高3.2
100
AcDbText
  0
TEXT
  5
D4D
330
36
100
AcDbEntity
  8
0
 62
     3
100
AcDbText
 10
427.4108793185511
 20
-720.1306191887307
 30
0.0
 40
3.2
  1
-
 41
0.6
  7
高3.2
100
AcDbText
  0
TEXT
  5
D4E
330
36
100
AcDbEntity
  8
0
 62
     3
100
AcDbText
 10
427.4108793185511
 20
-705.1306191887309
 30
0.0
 40
3.2
  1
-
 41
0.6
  7
高3.2
100
AcDbText
  0
TEXT
  5
D4F
330
36
100
AcDbEntity
  8
0
 62
     3
100
AcDbText
 10
427.4108793185511
 20
-715.1306191887307
 30
0.0
 40
3.2
  1
-
 41
0.6
  7
高3.2
100
AcDbText
  0
TEXT
  5
D50
330
36
100
AcDbEntity
  8
0
 62
     3
100
AcDbText
 10
427.4108793185511
 20
-695.1306191887307
 30
0.0
 40
3.2
  1
-
 41
0.6
  7
高3.2
100
AcDbText
  0
TEXT
  5
D51
330
36
100
AcDbEntity
  8
0
 62
     3
100
AcDbText
 10
427.4108793185511
 20
-690.1306191887307
 30
0.0
 40
3.2
  1
-
 41
0.6
  7
高3.2
100
AcDbText
  0
TEXT
  5
D52
330
36
100
AcDbEntity
  8
0
 62
     3
100
AcDbText
 10
427.4108793185511
 20
-710.1306191887307
 30
0.0
 40
3.2
  1
-
 41
0.6
  7
高3.2
100
AcDbText
  0
LINE
  5
D53
330
36
100
AcDbEntity
  8
0
  6
Continuous
 62
     3
100
AcDbLine
 10
460.3861728788573
 20
-685.6306191887307
 30
0.0
 11
460.3861728788573
 21
-730.6306191887309
 31
0.0
  0
LINE
  5
D5A
330
36
100
AcDbEntity
  8
0
 62
     3
100
AcDbLine
 10
703.5850996890317
 20
-684.9648966587308
 30
0.0
 11
605.5270918290317
 21
-684.9648966587308
 31
0.0
  0
TEXT
  5
D5B
330
36
100
AcDbEntity
  8
0
  6
Continuous
 62
     3
100
AcDbText
 10
657.4637244157862
 20
-690.2071892260067
 30
0.0
 40
4.5
  1
黒
  7
高4.5
100
AcDbText
  0
TEXT
  5
D5C
330
36
100
AcDbEntity
  8
0
  6
Continuous
 62
     3
100
AcDbText
 10
683.1188956321962
 20
-690.2071892260063
 30
0.0
 40
4.5
  1
8058
  7
高4.5
100
AcDbText
  0
TEXT
  5
D63
330
36
100
AcDbEntity
  8
0
  6
Continuous
 62
     3
100
AcDbText
 10
692.8979605139887
 20
-698.6243684508463
 30
0.0
 40
3.0
  1
製 図
100
AcDbText
1001
ACAD
1000
MTEXTBEGIN
1070
    73
1070
     1
1070
    44
1040
1.0
1070
    74
1070
     0
1000
MTEXTEND
  0
TEXT
  5
D64
330
36
100
AcDbEntity
  8
0
  6
Continuous
 62
     3
100
AcDbText
 10
679.8979605139889
 20
-698.6243684508463
 30
0.0
 40
3.0
  1
設 計
100
AcDbText
1001
ACAD
1000
MTEXTBEGIN
1070
    73
1070
     1
1070
    44
1040
1.0
1070
    74
1070
     0
1000
MTEXTEND
  0
TEXT
  5
D65
330
36
100
AcDbEntity
  8
0
  6
Continuous
 62
     3
100
AcDbText
 10
666.8979605139887
 20
-698.6243684508463
 30
0.0
 40
3.0
  1
検 図
100
AcDbText
1001
ACAD
1000
MTEXTBEGIN
1070
    73
1070
     1
1070
    44
1040
1.0
1070
    74
1070
     0
1000
MTEXTEND
  0
TEXT
  5
D66
330
36
100
AcDbEntity
  8
0
  6
Continuous
 62
     3
100
AcDbText
 10
653.8979605139887
 20
-698.6243684508463
 30
0.0
 40
3.0
  1
承 認
100
AcDbText
1001
ACAD
1000
MTEXTBEGIN
1070
    73
1070
     1
1070
    44
1040
1.0
1070
    74
1070
     0
1000
MTEXTEND
  0
TEXT
  5
D67
330
36
100
AcDbEntity
  8
0
  6
Continuous
 62
     3
100
AcDbText
 10
653.3771430946877
 20
-719.1801833002008
 30
0.0
 40
3.0
  1
作成日
100
AcDbText
1001
ACAD
1000
MTEXTBEGIN
1070
    73
1070
     1
1070
    44
1040
1.0
1070
    74
1070
     0
1000
MTEXTEND
  0
TEXT
  5
D68
330
36
100
AcDbEntity
  8
0
  6
Continuous
 62
     3
100
AcDbText
 10
625.4603125636188
 20
-720.3116617483182
 30
0.0
 40
3.0
  1
尺 度
100
AcDbText
1001
ACAD
1000
MTEXTBEGIN
1070
    73
1070
     1
1070
    44
1040
1.0
1070
    74
1070
     0
1000
MTEXTEND
  0
TEXT
  5
D69
330
36
100
AcDbEntity
  8
0
  6
Continuous
 62
     3
100
AcDbText
 10
636.0387051780318
 20
-724.4843891631607
 30
0.0
 40
2.5
  1
出図コード
100
AcDbText
1001
ACAD
1000
MTEXTBEGIN
1070
    73
1070
     1
1070
    44
1040
1.0
1070
    74
1070
     0
1000
MTEXTEND
  0
TEXT
  5
D6A
330
36
100
AcDbEntity
  8
0
  6
Continuous
 62
     3
100
AcDbText
 10
625.6190786817062
 20
-713.3803181255632
 30
0.0
 40
3.0
  1
備 考
100
AcDbText
1001
ACAD
1000
MTEXTBEGIN
1070
    73
1070
     1
1070
    44
1040
1.0
1070
    74
1070
     0
1000
MTEXTEND
  0
TEXT
  5
D6B
330
36
100
AcDbEntity
  8
0
  6
Continuous
 62
     3
100
AcDbText
 10
592.9843484615177
 20
-729.7900909808461
 30
0.0
 40
3.5
  1
日動工業株式会社
 41
1.199999999999999
100
AcDbText
1001
ACAD
1000
MTEXTBEGIN
1070
    73
1070
     1
1070
    44
1040
1.0
1070
    74
1070
     0
1000
MTEXTEND
  0
TEXT
  5
D6C
330
36
100
AcDbEntity
  8
0
  6
Continuous
 62
     3
100
AcDbText
 10
594.2938814939889
 20
-720.2974566664846
 30
0.0
 40
3.0
  1
第 三 角 法
100
AcDbText
1001
ACAD
1000
MTEXTBEGIN
1070
    73
1070
     1
1070
    44
1040
1.0
1070
    74
1070
     0
1000
MTEXTEND
  0
TEXT
  5
D6D
330
36
100
AcDbEntity
  8
0
  6
Continuous
 62
     3
100
AcDbText
 10
594.2938814939889
 20
-713.5168800735008
 30
0.0
 40
3.0
  1
材 質
100
AcDbText
1001
ACAD
1000
MTEXTBEGIN
1070
    73
1070
     1
1070
    44
1040
1.0
1070
    74
1070
     0
1000
MTEXTEND
  0
TEXT
  5
D6E
330
36
100
AcDbEntity
  8
0
  6
Continuous
 62
     3
100
AcDbText
 10
594.2938814939889
 20
-706.1548404459885
 30
0.0
 40
3.0
  1
型 式
100
AcDbText
1001
ACAD
1000
MTEXTBEGIN
1070
    73
1070
     1
1070
    44
1040
1.0
1070
    74
1070
     0
1000
MTEXTEND
1000
ACAD_MTEXT_DEFINED_HEIGHT_BEGIN
1070
    46
1040
3.064735913775952
1000
ACAD_MTEXT_DEFINED_HEIGHT_END
  0
TEXT
  5
D6F
330
36
100
AcDbEntity
  8
0
  6
Continuous
 62
     3
100
AcDbText
 10
594.2938814939889
 20
-698.6243684508463
 30
0.0
 40
3.0
  1
品 名
100
AcDbText
1001
ACAD
1000
MTEXTBEGIN
1070
    73
1070
     1
1070
    44
1040
1.0
1070
    74
1070
     0
1000
MTEXTEND
  0
TEXT
  5
D70
330
36
100
AcDbEntity
  8
0
  6
Continuous
 62
     3
100
AcDbText
 10
593.7493275390314
 20
-724.1059987665432
 30
0.0
 40
2.0
  1
NICHIDO IND.CO.LTD
 41
1.3
  7
高2
100
AcDbText
1001
ACAD
1000
MTEXTBEGIN
1070
    73
1070
     1
1070
    44
1040
1.0
1070
    74
1070
     0
1000
MTEXTEND
  0
TEXT
  5
D71
330
36
100
AcDbEntity
  8
0
  6
Continuous
 62
     3
100
AcDbText
 10
635.7506630790317
 20
-729.8137410155949
 30
0.0
 40
3.2
  1
ZK-A3X
 41
0.8
  7
高3.2
100
AcDbText
1001
ACAD
1000
MTEXTBEGIN
1070
    73
1070
     1
1070
    44
1040
1.0
1070
    74
1070
     0
1000
MTEXTEND
  0
TEXT
  5
D72
330
36
100
AcDbEntity
  8
0
  6
Continuous
 62
     3
100
AcDbText
 10
593.9627356231171
 20
-694.257875308132
 30
0.0
 40
2.0
  1
CONPONENTS
 41
0.5
  7
高2
100
AcDbText
1001
ACAD
1000
MTEXTBEGIN
1070
    73
1070
     1
1070
    44
1040
1.0
1070
    74
1070
     0
1000
MTEXTEND
  0
TEXT
  5
D73
330
36
100
AcDbEntity
  8
0
  6
Continuous
 62
     3
100
AcDbText
 10
593.7048834287871
 20
-702.7091571244016
 30
0.0
 40
2.0
  1
MODEL
  7
高2
100
AcDbText
1001
ACAD
1000
MTEXTBEGIN
1070
    73
1070
     1
1070
    44
1040
1.0
1070
    74
1070
     0
1000
MTEXTEND
  0
TEXT
  5
D74
330
36
100
AcDbEntity
  8
0
  6
Continuous
 62
     3
100
AcDbText
 10
593.7493275390314
 20
-710.0449597665432
 30
0.0
 40
2.0
  1
MATERIAL
 41
0.7
  7
高2
100
AcDbText
1001
ACAD
1000
MTEXTBEGIN
1070
    73
1070
     1
1070
    44
1040
1.0
1070
    74
1070
     0
1000
MTEXTEND
  0
TEXT
  5
D75
330
36
100
AcDbEntity
  8
0
  6
Continuous
 62
     3
100
AcDbText
 10
625.3606324690331
 20
-710.0449597665432
 30
0.0
 40
2.0
  1
REMARKS
 41
0.7
  7
高2
100
AcDbText
1001
ACAD
1000
MTEXTBEGIN
1070
    73
1070
     1
1070
    44
1040
1.0
1070
    74
1070
     0
1000
MTEXTEND
  0
TEXT
  5
D76
330
36
100
AcDbEntity
  8
0
  6
Continuous
 62
     3
100
AcDbText
 10
593.9662358920777
 20
-716.7964978355001
 30
0.0
 40
2.0
  1
3AD
 41
1.5
  7
高2
100
AcDbText
1001
ACAD
1000
MTEXTBEGIN
1070
    73
1070
     1
1070
    44
1040
1.0
1070
    74
1070
     0
1000
MTEXTEND
  0
TEXT
  5
D77
330
36
100
AcDbEntity
  8
0
  6
Continuous
 62
     3
100
AcDbText
 10
604.4784336319125
 20
-716.7964978355005
 30
0.0
 40
2.0
  1
ANGLE
 41
1.5
  7
高2
100
AcDbText
1001
ACAD
1000
MTEXTBEGIN
1070
    73
1070
     1
1070
    44
1040
1.0
1070
    74
1070
     0
1000
MTEXTEND
  0
TEXT
  5
D78
330
36
100
AcDbEntity
  8
0
  6
Continuous
 62
     3
100
AcDbText
 10
626.0912267781844
 20
-716.7964978355001
 30
0.0
 40
2.0
  1
SCALE
 41
0.8
  7
高2
100
AcDbText
1001
ACAD
1000
MTEXTBEGIN
1070
    73
1070
     1
1070
    44
1040
1.0
1070
    74
1070
     0
1000
MTEXTEND
  0
TEXT
  5
D79
330
36
100
AcDbEntity
  8
0
  6
Continuous
 62
     3
100
AcDbText
 10
666.8705961090317
 20
-694.4512045600273
 30
0.0
 40
2.0
  1
CHCK
  7
高2
100
AcDbText
1001
ACAD
1000
MTEXTBEGIN
1070
    73
1070
     1
1070
    44
1040
1.0
1070
    74
1070
     0
1000
MTEXTEND
  0
TEXT
  5
D7A
330
36
100
AcDbEntity
  8
0
  6
Continuous
 62
     3
100
AcDbText
 10
653.7578600087972
 20
-694.4512045600273
 30
0.0
 40
2.0
  1
APPD
  7
高2
100
AcDbText
1001
ACAD
1000
MTEXTBEGIN
1070
    73
1070
     1
1070
    44
1040
1.0
1070
    74
1070
     0
1000
MTEXTEND
  0
TEXT
  5
D7B
330
36
100
AcDbEntity
  8
0
  6
Continuous
 62
     3
100
AcDbText
 10
680.0122269487975
 20
-694.4512045600275
 30
0.0
 40
2.0
  1
DESN
  7
高2
100
AcDbText
1001
ACAD
1000
MTEXTBEGIN
1070
    73
1070
     1
1070
    44
1040
1.0
1070
    74
1070
     0
1000
MTEXTEND
  0
TEXT
  5
D7C
330
36
100
AcDbEntity
  8
0
  6
Continuous
 62
     3
100
AcDbText
 10
693.6506887825057
 20
-694.4512045600273
 30
0.0
 40
2.0
  1
DEF
  7
高2
100
AcDbText
1001
ACAD
1000
MTEXTBEGIN
1070
    73
1070
     1
1070
    44
1040
1.0
1070
    74
1070
     0
1000
MTEXTEND
  0
TEXT
  5
DAE
330
36
100
AcDbEntity
  8
0
  6
Continuous
 62
     7
100
AcDbText
 10
695.0948337557417
 20
-710.1767361737129
 30
0.0
 40
4.5
  1
M
  7
高4.5
100
AcDbText
  0
TEXT
  5
DAF
330
36
100
AcDbEntity
  8
0
  6
Continuous
 62
     7
100
AcDbText
 10
682.0948337557418
 20
-710.1767361737129
 30
0.0
 40
4.5
  1
M
  7
高4.5
100
AcDbText
  0
TEXT
  5
E55
330
36
100
AcDbEntity
  8
0
  6
Continuous
 62
     3
100
AcDbText
 10
610.0354662429789
 20
-690.2071892260067
 30
0.0
 40
4.5
  1
SW-01BK
  7
高4.5
100
AcDbText
  0
LINE
  5
E56
330
36
100
AcDbEntity
  8
0
 62
     3
100
AcDbLine
 10
703.5850996890317
 20
-678.9648966587308
 30
0.0
 11
605.5270918290317
 21
-678.9648966587308
 31
0.0
  0
TEXT
  5
E57
330
36
100
AcDbEntity
  8
0
  6
Continuous
 62
     3
100
AcDbText
 10
657.4637244157862
 20
-684.2071892260064
 30
0.0
 40
4.5
  1
緑
  7
高4.5
100
AcDbText
  0
TEXT
  5
E58
330
36
100
AcDbEntity
  8
0
  6
Continuous
 62
     3
100
AcDbText
 10
683.1188956321962
 20
-684.2071892260062
 30
0.0
 40
4.5
  1
8057
  7
高4.5
100
AcDbText
  0
TEXT
  5
E59
330
36
100
AcDbEntity
  8
0
  6
Continuous
 62
     3
100
AcDbText
 10
610.0354662429789
 20
-684.2071892260064
 30
0.0
 40
4.5
  1
SW-01
  7
高4.5
100
AcDbText
  0
LINE
  5
E5A
330
36
100
AcDbEntity
  8
0
 62
     3
100
AcDbLine
 10
703.5850996890317
 20
-672.9648966587306
 30
0.0
 11
605.5270918290317
 21
-672.9648966587306
 31
0.0
  0
TEXT
  5
E5B
330
36
100
AcDbEntity
  8
0
  6
Continuous
 62
     3
100
AcDbText
 10
657.4637244157862
 20
-678.2071892260064
 30
0.0
 40
4.5
  1
本体色
  7
高4.5
100
AcDbText
  0
TEXT
  5
E5C
330
36
100
AcDbEntity
  8
0
  6
Continuous
 62
     3
100
AcDbText
 10
683.1188956321962
 20
-678.2071892260061
 30
0.0
 40
4.5
  1
コード
  7
高4.5
100
AcDbText
  0
TEXT
  5
E5D
330
36
100
AcDbEntity
  8
0
  6
Continuous
 62
     3
100
AcDbText
 10
610.0354662429789
 20
-678.2071892260064
 30
0.0
 40
4.5
  1
型　式
  7
高4.5
100
AcDbText
  0
TEXT
  5
EBF
330
36
100
AcDbEntity
  8
0
 62
     3
100
AcDbText
 10
691.0850996890317
 20
-466.1306191887311
 30
0.0
 40
3.2
  1
担　当
  7
高3.2
100
AcDbText
  0
TEXT
  5
EC0
330
36
100
AcDbEntity
  8
0
 62
     3
100
AcDbText
 10
647.0850996890317
 20
-466.1306191887311
 30
0.0
 40
3.2
  1
変更・追記内容
  7
高3.2
100
AcDbText
  0
TEXT
  5
EC1
330
36
100
AcDbEntity
  8
0
 62
     3
100
AcDbText
 10
622.1986146893708
 20
-470.8011576986393
 30
0.0
 40
2.0
  1
1
  7
高2
100
AcDbText
  0
TEXT
  5
EC2
330
36
100
AcDbEntity
  8
0
 62
     3
100
AcDbText
 10
621.8901032126137
 20
-475.9709744109123
 30
0.0
 40
2.0
  1
2
  7
高2
100
AcDbText
  0
TEXT
  5
EC3
330
36
100
AcDbEntity
  8
0
 62
     3
100
AcDbText
 10
629.0850996890317
 20
-466.1306191887311
 30
0.0
 40
3.2
  1
日　付
  7
高3.2
100
AcDbText
  0
TEXT
  5
EC4
330
36
100
AcDbEntity
  8
0
 62
     3
100
AcDbText
 10
629.0850996890317
 20
-461.1306191887311
 30
0.0
 40
3.2
  1
図　　　　面　　　　略　　　　歴
  7
高3.2
100
AcDbText
  0
TEXT
  5
EC5
330
36
100
AcDbEntity
  8
0
 62
     3
100
AcDbText
 10
619.0850996890317
 20
-466.1306191887311
 30
0.0
 40
3.2
  1
記号
  7
高3.2
100
AcDbText
  0
LINE
  5
EC6
330
36
100
AcDbEntity
  8
0
100
AcDbLine
 10
622.5850996890317
 20
-472.839723188731
 30
0.0
 11
620.6850996890317
 21
-476.1306191887311
 31
0.0
  0
LINE
  5
EC7
330
36
100
AcDbEntity
  8
0
100
AcDbLine
 10
622.5850996890317
 20
-472.839723188731
 30
0.0
 11
624.4850996890317
 21
-476.1306191887311
 31
0.0
  0
LINE
  5
EC8
330
36
100
AcDbEntity
  8
0
100
AcDbLine
 10
620.6850996890317
 20
-476.1306191887311
 30
0.0
 11
624.4850996890317
 21
-476.1306191887311
 31
0.0
  0
LINE
  5
EC9
330
36
100
AcDbEntity
  8
0
100
AcDbLine
 10
622.5850996890317
 20
-467.8397221887309
 30
0.0
 11
620.6850996890317
 21
-471.1306191887311
 31
0.0
  0
LINE
  5
ECA
330
36
100
AcDbEntity
  8
0
100
AcDbLine
 10
622.5850996890317
 20
-467.8397221887309
 30
0.0
 11
624.4850996890317
 21
-471.1306191887311
 31
0.0
  0
LINE
  5
ECB
330
36
100
AcDbEntity
  8
0
100
AcDbLine
 10
620.6850996890317
 20
-471.1306191887311
 30
0.0
 11
624.4850996890317
 21
-471.1306191887311
 31
0.0
  0
LINE
  5
ECC
330
36
100
AcDbEntity
  8
0
 62
     3
100
AcDbLine
 10
617.5850996890317
 20
-461.6306191887311
 30
0.0
 11
703.5850996890317
 21
-461.6306191887311
 31
0.0
  0
LINE
  5
ECD
330
36
100
AcDbEntity
  8
0
 62
     3
100
AcDbLine
 10
617.5850996890317
 20
-466.6306191887311
 30
0.0
 11
703.5850996890317
 21
-466.6306191887311
 31
0.0
  0
LINE
  5
ECE
330
36
100
AcDbEntity
  8
0
 62
     7
100
AcDbLine
 10
617.5850996890317
 20
-471.6306191887311
 30
0.0
 11
703.5850996890317
 21
-471.6306191887311
 31
0.0
  0
LINE
  5
ECF
330
36
100
AcDbEntity
  8
0
 62
     3
100
AcDbLine
 10
617.5850996890317
 20
-476.6306191887311
 30
0.0
 11
703.5850996890317
 21
-476.6306191887311
 31
0.0
  0
LINE
  5
ED0
330
36
100
AcDbEntity
  8
0
 62
     7
100
AcDbLine
 10
689.5850996890317
 20
-476.6306191887311
 30
0.0
 11
689.5850996890317
 21
-461.6306191887311
 31
0.0
  0
LINE
  5
ED1
330
36
100
AcDbEntity
  8
0
 62
     7
100
AcDbLine
 10
645.5850996890317
 20
-476.6306191887311
 30
0.0
 11
645.5850996890317
 21
-461.6306191887311
 31
0.0
  0
LINE
  5
ED2
330
36
100
AcDbEntity
  8
0
 62
     7
100
AcDbLine
 10
627.5850996890317
 20
-476.6306191887311
 30
0.0
 11
627.5850996890317
 21
-461.6306191887311
 31
0.0
  0
LINE
  5
ED3
330
36
100
AcDbEntity
  8
0
 62
     3
100
AcDbLine
 10
617.5850996890317
 20
-476.6306191887311
 30
0.0
 11
617.5850996890317
 21
-456.6306191887311
 31
0.0
  0
TEXT
  5
ED4
330
36
100
AcDbEntity
  8
0
  6
Continuous
100
AcDbText
 10
629.0850996890317
 20
-471.1306191887311
 30
0.0
 40
2.5
  1
13.07.16
  7
高2.5
100
AcDbText
  0
TEXT
  5
1074
330
36
100
AcDbEntity
  8
0
  6
Continuous
100
AcDbText
 10
647.0850996890317
 20
-471.1306191887311
 30
0.0
 40
2.5
  1
本体色:黒を追加
  7
高2.5
100
AcDbText
  0
TEXT
  5
1075
330
36
100
AcDbEntity
  8
0
  6
Continuous
100
AcDbText
 10
691.0850996890317
 20
-471.1306191887311
 30
0.0
 40
2.5
  1
今村
  7
高2.5
100
AcDbText
  0
LINE
  5
117A
330
36
100
AcDbEntity
  8
0
  6
Continuous
100
AcDbLine
 10
531.9384514094906
 20
-510.4878061854598
 30
0.0
 11
531.9384514094906
 21
-486.5908919721423
 31
0.0
  0
LINE
  5
117B
330
36
100
AcDbEntity
  8
0
  6
Continuous
100
AcDbLine
 10
411.7638264094908
 20
-510.4878061854598
 30
0.0
 11
411.7638264094908
 21
-486.5908919721423
 31
0.0
  0
LINE
  5
117C
330
36
100
AcDbEntity
  8
0
  6
Continuous
100
AcDbLine
 10
529.4384514094907
 20
-487.8408919721423
 30
0.0
 11
414.2638264094908
 21
-487.8408919721423
 31
0.0
  0
LINE
  5
1180
330
36
100
AcDbEntity
  8
0
  6
Continuous
100
AcDbLine
 10
609.9843324155791
 20
-585.7729084658946
 30
0.0
 11
609.9843324155791
 21
-605.3934789827044
 31
0.0
  0
LINE
  5
1181
330
36
100
AcDbEntity
  8
0
  6
Continuous
100
AcDbLine
 10
571.973045415579
 20
-585.7729084658946
 30
0.0
 11
571.973045415579
 21
-605.3934789827044
 31
0.0
  0
LINE
  5
1182
330
36
100
AcDbEntity
  8
0
  6
Continuous
100
AcDbLine
 10
607.4843324155791
 20
-604.1434789827044
 30
0.0
 11
574.4730454155789
 21
-604.1434789827044
 31
0.0
  0
LINE
  5
118E
330
36
100
AcDbEntity
  8
0
 62
     7
100
AcDbLine
 10
432.3610378361065
 20
-516.4458598882846
 30
0.0
 11
432.2758465761065
 21
-516.4591652632847
 31
0.0
  0
LINE
  5
118F
330
36
100
AcDbEntity
  8
0
 62
     7
100
AcDbLine
 10
432.2758465761065
 20
-516.4591652632847
 30
0.0
 11
432.1942717311066
 21
-516.4751446782847
 31
0.0
  0
LINE
  5
1190
330
36
100
AcDbEntity
  8
0
 62
     7
100
AcDbLine
 10
432.1942717311066
 20
-516.4751446782847
 30
0.0
 11
432.1169438311065
 21
-516.4936746282847
 31
0.0
  0
LINE
  5
1191
330
36
100
AcDbEntity
  8
0
 62
     7
100
AcDbLine
 10
432.1169438311065
 20
-516.4936746282847
 30
0.0
 11
432.0444605811066
 21
-516.5146118782846
 31
0.0
  0
LINE
  5
1192
330
36
100
AcDbEntity
  8
0
 62
     7
100
AcDbLine
 10
432.0444605811066
 20
-516.5146118782846
 30
0.0
 11
431.9773822361065
 21
-516.5377945932847
 31
0.0
  0
LINE
  5
1193
330
36
100
AcDbEntity
  8
0
 62
     7
100
AcDbLine
 10
431.9773822361065
 20
-516.5377945932847
 30
0.0
 11
431.9162272861063
 21
-516.5630435882847
 31
0.0
  0
LINE
  5
1194
330
36
100
AcDbEntity
  8
0
 62
     7
100
AcDbLine
 10
431.9162272861063
 20
-516.5630435882847
 30
0.0
 11
431.8614684161063
 21
-516.5901636982846
 31
0.0
  0
LINE
  5
1195
330
36
100
AcDbEntity
  8
0
 62
     7
100
AcDbLine
 10
431.8614684161063
 20
-516.5901636982846
 30
0.0
 11
431.8135288911063
 21
-516.6189452982846
 31
0.0
  0
LINE
  5
1196
330
36
100
AcDbEntity
  8
0
 62
     7
100
AcDbLine
 10
431.8135288911063
 20
-516.6189452982846
 30
0.0
 11
431.7727792561065
 21
-516.6491659232847
 31
0.0
  0
LINE
  5
1197
330
36
100
AcDbEntity
  8
0
 62
     7
100
AcDbLine
 10
431.7727792561065
 20
-516.6491659232847
 30
0.0
 11
431.7395344861065
 21
-516.6805919832845
 31
0.0
  0
LINE
  5
1198
330
36
100
AcDbEntity
  8
0
 62
     7
100
AcDbLine
 10
431.7395344861065
 20
-516.6805919832845
 30
0.0
 11
431.7140515461066
 21
-516.7129805732846
 31
0.0
  0
LINE
  5
1199
330
36
100
AcDbEntity
  8
0
 62
     7
100
AcDbLine
 10
431.7140515461066
 20
-516.7129805732846
 30
0.0
 11
431.6965274061066
 21
-516.7460813382847
 31
0.0
  0
LINE
  5
119A
330
36
100
AcDbEntity
  8
0
 62
     7
100
AcDbLine
 10
431.6965274061066
 20
-516.7460813382847
 30
0.0
 11
431.6870975211066
 21
-516.7796384332847
 31
0.0
  0
LINE
  5
119B
330
36
100
AcDbEntity
  8
0
 62
     7
100
AcDbLine
 10
431.6870975211066
 20
-516.7796384332847
 30
0.0
 11
431.6858347711066
 21
-516.8133924782846
 31
0.0
  0
LINE
  5
119C
330
36
100
AcDbEntity
  8
0
 62
     7
100
AcDbLine
 10
431.6858347711066
 20
-516.8133924782846
 30
0.0
 11
431.6927489261066
 21
-516.8470825732846
 31
0.0
  0
LINE
  5
119D
330
36
100
AcDbEntity
  8
0
 62
     7
100
AcDbLine
 10
431.6927489261066
 20
-516.8470825732846
 30
0.0
 11
431.7077865411063
 21
-516.8804483082847
 31
0.0
  0
LINE
  5
119E
330
36
100
AcDbEntity
  8
0
 62
     7
100
AcDbLine
 10
431.7077865411063
 20
-516.8804483082847
 30
0.0
 11
431.7308313761063
 21
-516.9132317782847
 31
0.0
  0
LINE
  5
119F
330
36
100
AcDbEntity
  8
0
 62
     7
100
AcDbLine
 10
431.7308313761063
 20
-516.9132317782847
 30
0.0
 11
431.7617053161066
 21
-516.9451795982848
 31
0.0
  0
LINE
  5
11A0
330
36
100
AcDbEntity
  8
0
 62
     7
100
AcDbLine
 10
431.7617053161066
 20
-516.9451795982848
 30
0.0
 11
431.8001697111063
 21
-516.9760448132847
 31
0.0
  0
LINE
  5
11A1
330
36
100
AcDbEntity
  8
0
 62
     7
100
AcDbLine
 10
431.8001697111063
 20
-516.9760448132847
 30
0.0
 11
431.8459272611065
 21
-517.0055888582846
 31
0.0
  0
LINE
  5
11A2
330
36
100
AcDbEntity
  8
0
 62
     7
100
AcDbLine
 10
431.8459272611065
 20
-517.0055888582846
 30
0.0
 11
431.8986242761067
 21
-517.0335833732847
 31
0.0
  0
LINE
  5
11A3
330
36
100
AcDbEntity
  8
0
 62
     7
100
AcDbLine
 10
431.8986242761067
 20
-517.0335833732847
 30
0.0
 11
431.9578534411063
 21
-517.0598119732845
 31
0.0
  0
LINE
  5
11A4
330
36
100
AcDbEntity
  8
0
 62
     7
100
AcDbLine
 10
431.9578534411063
 20
-517.0598119732845
 30
0.0
 11
432.0231569461063
 21
-517.0840719232845
 31
0.0
  0
LINE
  5
11A5
330
36
100
AcDbEntity
  8
0
 62
     7
100
AcDbLine
 10
432.0231569461063
 20
-517.0840719232845
 30
0.0
 11
432.0940300211066
 21
-517.1061757132846
 31
0.0
  0
LINE
  5
11A6
330
36
100
AcDbEntity
  8
0
 62
     7
100
AcDbLine
 10
432.0940300211066
 20
-517.1061757132846
 30
0.0
 11
432.1699248561066
 21
-517.1259524832846
 31
0.0
  0
LINE
  5
11A7
330
36
100
AcDbEntity
  8
0
 62
     7
100
AcDbLine
 10
432.1699248561066
 20
-517.1259524832846
 30
0.0
 11
432.2502548261065
 21
-517.1432493732845
 31
0.0
  0
LINE
  5
11A8
330
36
100
AcDbEntity
  8
0
 62
     7
100
AcDbLine
 10
432.2502548261065
 20
-517.1432493732845
 30
0.0
 11
432.3343990211063
 21
-517.1579326882846
 31
0.0
  0
LINE
  5
11A9
330
36
100
AcDbEntity
  8
0
 62
     7
100
AcDbLine
 10
432.3343990211063
 20
-517.1579326882846
 30
0.0
 11
432.4217070511063
 21
-517.1698889332847
 31
0.0
  0
LINE
  5
11AA
330
36
100
AcDbEntity
  8
0
 62
     7
100
AcDbLine
 10
432.4217070511063
 20
-517.1698889332847
 30
0.0
 11
432.5115040661065
 21
-517.1790256882847
 31
0.0
  0
LINE
  5
11AB
330
36
100
AcDbEntity
  8
0
 62
     7
100
AcDbLine
 10
432.5115040661065
 20
-517.1790256882847
 30
0.0
 11
432.6030959861063
 21
-517.1852723382847
 31
0.0
  0
LINE
  5
11AC
330
36
100
AcDbEntity
  8
0
 62
     7
100
AcDbLine
 10
432.6030959861063
 20
-517.1852723382847
 30
0.0
 11
432.6957748461063
 21
-517.1885805932848
 31
0.0
  0
LINE
  5
11AD
330
36
100
AcDbEntity
  8
0
 62
     7
100
AcDbLine
 10
432.6957748461063
 20
-517.1885805932848
 30
0.0
 11
432.7888242961065
 21
-517.1889248882846
 31
0.0
  0
LINE
  5
11AE
330
36
100
AcDbEntity
  8
0
 62
     7
100
AcDbLine
 10
432.7888242961065
 20
-517.1889248882846
 30
0.0
 11
432.8815251011063
 21
-517.1863025582846
 31
0.0
  0
LINE
  5
11AF
330
36
100
AcDbEntity
  8
0
 62
     7
100
AcDbLine
 10
432.8815251011063
 20
-517.1863025582846
 30
0.0
 11
432.9731607361066
 21
-517.1807338732845
 31
0.0
  0
LINE
  5
11B0
330
36
100
AcDbEntity
  8
0
 62
     7
100
AcDbLine
 10
432.9731607361066
 20
-517.1807338732845
 30
0.0
 11
433.0630229061063
 21
-517.1722618732847
 31
0.0
  0
LINE
  5
11B1
330
36
100
AcDbEntity
  8
0
 62
     7
100
AcDbLine
 10
433.0630229061063
 20
-517.1722618732847
 30
0.0
 11
433.1504170211066
 21
-517.1609520482847
 31
0.0
  0
LINE
  5
11B2
330
36
100
AcDbEntity
  8
0
 62
     7
100
AcDbLine
 10
433.1504170211066
 20
-517.1609520482847
 30
0.0
 11
433.2346675711066
 21
-517.1468918132847
 31
0.0
  0
LINE
  5
11B3
330
36
100
AcDbEntity
  8
0
 62
     7
100
AcDbLine
 10
433.2346675711066
 20
-517.1468918132847
 30
0.0
 11
433.3151233411063
 21
-517.1301898482846
 31
0.0
  0
LINE
  5
11B4
330
36
100
AcDbEntity
  8
0
 62
     7
100
AcDbLine
 10
433.3151233411063
 20
-517.1301898482846
 30
0.0
 11
433.3911624511062
 21
-517.1109752482847
 31
0.0
  0
LINE
  5
11B5
330
36
100
AcDbEntity
  8
0
 62
     7
100
AcDbLine
 10
433.3911624511062
 20
-517.1109752482847
 30
0.0
 11
433.4621971561063
 21
-517.0893965382846
 31
0.0
  0
LINE
  5
11B6
330
36
100
AcDbEntity
  8
0
 62
     7
100
AcDbLine
 10
433.4621971561063
 20
-517.0893965382846
 30
0.0
 11
433.5276783961066
 21
-517.0656205032846
 31
0.0
  0
LINE
  5
11B7
330
36
100
AcDbEntity
  8
0
 62
     7
100
AcDbLine
 10
433.5276783961066
 20
-517.0656205032846
 30
0.0
 11
433.5871000361063
 21
-517.0398309282846
 31
0.0
  0
LINE
  5
11B8
330
36
100
AcDbEntity
  8
0
 62
     7
100
AcDbLine
 10
433.5871000361063
 20
-517.0398309282846
 30
0.0
 11
433.6400027711063
 21
-517.0122271432846
 31
0.0
  0
LINE
  5
11B9
330
36
100
AcDbEntity
  8
0
 62
     7
100
AcDbLine
 10
433.6400027711063
 20
-517.0122271432846
 30
0.0
 11
433.6859777011063
 21
-516.9830225182846
 31
0.0
  0
LINE
  5
11BA
330
36
100
AcDbEntity
  8
0
 62
     7
100
AcDbLine
 10
433.6859777011063
 20
-516.9830225182846
 30
0.0
 11
433.7246694511065
 21
-516.9524427882846
 31
0.0
  0
LINE
  5
11BB
330
36
100
AcDbEntity
  8
0
 62
     7
100
AcDbLine
 10
433.7246694511065
 20
-516.9524427882846
 30
0.0
 11
433.7557789611063
 21
-516.9207243182845
 31
0.0
  0
LINE
  5
11BC
330
36
100
AcDbEntity
  8
0
 62
     7
100
AcDbLine
 10
433.7557789611063
 20
-516.9207243182845
 30
0.0
 11
433.7790657661066
 21
-516.8881122782845
 31
0.0
  0
LINE
  5
11BD
330
36
100
AcDbEntity
  8
0
 62
     7
100
AcDbLine
 10
433.7790657661066
 20
-516.8881122782845
 30
0.0
 11
433.7943498811063
 21
-516.8548587382846
 31
0.0
  0
LINE
  5
11BE
330
36
100
AcDbEntity
  8
0
 62
     7
100
AcDbLine
 10
433.7943498811063
 20
-516.8548587382846
 30
0.0
 11
433.8015131561063
 21
-516.8212207332847
 31
0.0
  0
LINE
  5
11BF
330
36
100
AcDbEntity
  8
0
 62
     7
100
AcDbLine
 10
433.8015131561063
 20
-516.8212207332847
 30
0.0
 11
433.8005002261065
 21
-516.7874582682847
 31
0.0
  0
LINE
  5
11C0
330
36
100
AcDbEntity
  8
0
 62
     7
100
AcDbLine
 10
433.8005002261065
 20
-516.7874582682847
 30
0.0
 11
433.7913189261063
 21
-516.7538323082847
 31
0.0
  0
LINE
  5
11C1
330
36
100
AcDbEntity
  8
0
 62
     7
100
AcDbLine
 10
433.7913189261063
 20
-516.7538323082847
 30
0.0
 11
433.7740402161063
 21
-516.7206027682847
 31
0.0
  0
LINE
  5
11C2
330
36
100
AcDbEntity
  8
0
 62
     7
100
AcDbLine
 10
433.7740402161063
 20
-516.7206027682847
 30
0.0
 11
433.7487976511065
 21
-516.6880264882848
 31
0.0
  0
LINE
  5
11C3
330
36
100
AcDbEntity
  8
0
 62
     7
100
AcDbLine
 10
433.7487976511065
 20
-516.6880264882848
 30
0.0
 11
433.7157863511063
 21
-516.6563552732847
 31
0.0
  0
LINE
  5
11C4
330
36
100
AcDbEntity
  8
0
 62
     7
100
AcDbLine
 10
433.7157863511063
 20
-516.6563552732847
 30
0.0
 11
433.6752614711063
 21
-516.6258339232846
 31
0.0
  0
LINE
  5
11C5
330
36
100
AcDbEntity
  8
0
 62
     7
100
AcDbLine
 10
433.6752614711063
 20
-516.6258339232846
 30
0.0
 11
433.6275362461065
 21
-516.5966983532846
 31
0.0
  0
LINE
  5
11C6
330
36
100
AcDbEntity
  8
0
 62
     7
100
AcDbLine
 10
433.6275362461065
 20
-516.5966983532846
 30
0.0
 11
433.5729795661062
 21
-516.5691737632847
 31
0.0
  0
LINE
  5
11C7
330
36
100
AcDbEntity
  8
0
 62
     7
100
AcDbLine
 10
433.5729795661062
 20
-516.5691737632847
 30
0.0
 11
433.5120131361064
 21
-516.5434729032847
 31
0.0
  0
LINE
  5
11C8
330
36
100
AcDbEntity
  8
0
 62
     7
100
AcDbLine
 10
433.5120131361064
 20
-516.5434729032847
 30
0.0
 11
433.4451081811065
 21
-516.5197944332845
 31
0.0
  0
LINE
  5
11C9
330
36
100
AcDbEntity
  8
0
 62
     7
100
AcDbLine
 10
433.4451081811065
 20
-516.5197944332845
 30
0.0
 11
433.3727818561063
 21
-516.4983213732847
 31
0.0
  0
LINE
  5
11CA
330
36
100
AcDbEntity
  8
0
 62
     7
100
AcDbLine
 10
433.3727818561063
 20
-516.4983213732847
 30
0.0
 11
433.2955931961063
 21
-516.4792196982847
 31
0.0
  0
LINE
  5
11CB
330
36
100
AcDbEntity
  8
0
 62
     7
100
AcDbLine
 10
433.2955931961063
 20
-516.4792196982847
 30
0.0
 11
433.2141388311065
 21
-516.4626370532849
 31
0.0
  0
LINE
  5
11CC
330
36
100
AcDbEntity
  8
0
 62
     7
100
AcDbLine
 10
433.2141388311065
 20
-516.4626370532849
 30
0.0
 11
433.1290483661065
 21
-516.4487016132847
 31
0.0
  0
LINE
  5
11CD
330
36
100
AcDbEntity
  8
0
 62
     3
100
AcDbLine
 10
503.8437257290317
 20
-456.0899906487311
 30
0.0
 11
503.8171149790318
 21
-455.9196081287312
 31
0.0
  0
LINE
  5
11CE
330
36
100
AcDbEntity
  8
0
 62
     3
100
AcDbLine
 10
503.8171149790318
 20
-455.9196081287312
 30
0.0
 11
503.7851561490318
 21
-455.7564584387312
 31
0.0
  0
LINE
  5
11CF
330
36
100
AcDbEntity
  8
0
 62
     3
100
AcDbLine
 10
503.7851561490318
 20
-455.7564584387312
 30
0.0
 11
503.7480962490317
 21
-455.6018026387311
 31
0.0
  0
LINE
  5
11D0
330
36
100
AcDbEntity
  8
0
 62
     3
100
AcDbLine
 10
503.7480962490317
 20
-455.6018026387311
 30
0.0
 11
503.7062217490317
 21
-455.4568361387311
 31
0.0
  0
LINE
  5
11D1
330
36
100
AcDbEntity
  8
0
 62
     3
100
AcDbLine
 10
503.7062217490317
 20
-455.4568361387311
 30
0.0
 11
503.6598563190317
 21
-455.3226794487311
 31
0.0
  0
LINE
  5
11D2
330
36
100
AcDbEntity
  8
0
 62
     3
100
AcDbLine
 10
503.6598563190317
 20
-455.3226794487311
 30
0.0
 11
503.6093583290315
 21
-455.2003695487311
 31
0.0
  0
LINE
  5
11D3
330
36
100
AcDbEntity
  8
0
 62
     3
100
AcDbLine
 10
503.6093583290315
 20
-455.2003695487311
 30
0.0
 11
503.5551181090315
 21
-455.0908518087311
 31
0.0
  0
LINE
  5
11D4
330
36
100
AcDbEntity
  8
0
 62
     3
100
AcDbLine
 10
503.5551181090315
 20
-455.0908518087311
 30
0.0
 11
503.4975549090317
 21
-454.9949727587311
 31
0.0
  0
LINE
  5
11D5
330
36
100
AcDbEntity
  8
0
 62
     3
100
AcDbLine
 10
503.4975549090317
 20
-454.9949727587311
 30
0.0
 11
503.4371136590316
 21
-454.9134734887311
 31
0.0
  0
LINE
  5
11D6
330
36
100
AcDbEntity
  8
0
 62
     3
100
AcDbLine
 10
503.4371136590316
 20
-454.9134734887311
 30
0.0
 11
503.3742615390315
 21
-454.8469839487311
 31
0.0
  0
LINE
  5
11D7
330
36
100
AcDbEntity
  8
0
 62
     3
100
AcDbLine
 10
503.3742615390315
 20
-454.8469839487311
 30
0.0
 11
503.3094843590316
 21
-454.7960180687311
 31
0.0
  0
LINE
  5
11D8
330
36
100
AcDbEntity
  8
0
 62
     3
100
AcDbLine
 10
503.3094843590316
 20
-454.7960180687311
 30
0.0
 11
503.2432828290317
 21
-454.7609697887311
 31
0.0
  0
LINE
  5
11D9
330
36
100
AcDbEntity
  8
0
 62
     3
100
AcDbLine
 10
503.2432828290317
 20
-454.7609697887311
 30
0.0
 11
503.1761686390317
 21
-454.7421100187311
 31
0.0
  0
LINE
  5
11DA
330
36
100
AcDbEntity
  8
0
 62
     3
100
AcDbLine
 10
503.1761686390317
 20
-454.7421100187311
 30
0.0
 11
503.1086605490314
 21
-454.7395845187311
 31
0.0
  0
LINE
  5
11DB
330
36
100
AcDbEntity
  8
0
 62
     3
100
AcDbLine
 10
503.1086605490314
 20
-454.7395845187311
 30
0.0
 11
503.0412803590317
 21
-454.7534128287311
 31
0.0
  0
LINE
  5
11DC
330
36
100
AcDbEntity
  8
0
 62
     3
100
AcDbLine
 10
503.0412803590317
 20
-454.7534128287311
 30
0.0
 11
502.9745488890315
 21
-454.7834880587311
 31
0.0
  0
LINE
  5
11DD
330
36
100
AcDbEntity
  8
0
 62
     3
100
AcDbLine
 10
502.9745488890315
 20
-454.7834880587311
 30
0.0
 11
502.9089819490316
 21
-454.8295777287312
 31
0.0
  0
LINE
  5
11DE
330
36
100
AcDbEntity
  8
0
 62
     3
100
AcDbLine
 10
502.9089819490316
 20
-454.8295777287312
 30
0.0
 11
502.8450863090315
 21
-454.8913256087312
 31
0.0
  0
LINE
  5
11DF
330
36
100
AcDbEntity
  8
0
 62
     3
100
AcDbLine
 10
502.8450863090315
 20
-454.8913256087312
 30
0.0
 11
502.7833558790318
 21
-454.968254398731
 31
0.0
  0
LINE
  5
11E0
330
36
100
AcDbEntity
  8
0
 62
     3
100
AcDbLine
 10
502.7833558790318
 20
-454.968254398731
 30
0.0
 11
502.7242677890316
 21
-455.0597694987311
 31
0.0
  0
LINE
  5
11E1
330
36
100
AcDbEntity
  8
0
 62
     3
100
AcDbLine
 10
502.7242677890316
 20
-455.0597694987311
 30
0.0
 11
502.6682787590315
 21
-455.1651635287312
 31
0.0
  0
LINE
  5
11E2
330
36
100
AcDbEntity
  8
0
 62
     3
100
AcDbLine
 10
502.6682787590315
 20
-455.1651635287312
 30
0.0
 11
502.6158215590315
 21
-455.2836218587311
 31
0.0
  0
LINE
  5
11E3
330
36
100
AcDbEntity
  8
0
 62
     3
100
AcDbLine
 10
502.6158215590315
 20
-455.2836218587311
 30
0.0
 11
502.5673016590316
 21
-455.4142288687311
 31
0.0
  0
LINE
  5
11E4
330
36
100
AcDbEntity
  8
0
 62
     3
100
AcDbLine
 10
502.5673016590316
 20
-455.4142288687311
 30
0.0
 11
502.5230940790317
 21
-455.5559750187311
 31
0.0
  0
LINE
  5
11E5
330
36
100
AcDbEntity
  8
0
 62
     3
100
AcDbLine
 10
502.5230940790317
 20
-455.5559750187311
 30
0.0
 11
502.4835405390316
 21
-455.7077646887312
 31
0.0
  0
LINE
  5
11E6
330
36
100
AcDbEntity
  8
0
 62
     3
100
AcDbLine
 10
502.4835405390316
 20
-455.7077646887312
 30
0.0
 11
502.4489467590316
 21
-455.8684246287311
 31
0.0
  0
LINE
  5
11E7
330
36
100
AcDbEntity
  8
0
 62
     3
100
AcDbLine
 10
502.4489467590316
 20
-455.8684246287311
 30
0.0
 11
502.4195801290316
 21
-456.036713018731
 31
0.0
  0
LINE
  5
11E8
330
36
100
AcDbEntity
  8
0
 62
     3
100
AcDbLine
 10
502.4195801290316
 20
-456.036713018731
 30
0.0
 11
502.3956676390318
 21
-456.2113290787311
 31
0.0
  0
LINE
  5
11E9
330
36
100
AcDbEntity
  8
0
 62
     3
100
AcDbLine
 10
502.3956676390318
 20
-456.2113290787311
 30
0.0
 11
502.3773941290317
 21
-456.3909231087309
 31
0.0
  0
LINE
  5
11EA
330
36
100
AcDbEntity
  8
0
 62
     3
100
AcDbLine
 10
502.3773941290317
 20
-456.3909231087309
 30
0.0
 11
502.3649008290316
 21
-456.5741069487311
 31
0.0
  0
LINE
  5
11EB
330
36
100
AcDbEntity
  8
0
 62
     3
100
AcDbLine
 10
502.3649008290316
 20
-456.5741069487311
 30
0.0
 11
502.3582843190316
 21
-456.7594646687311
 31
0.0
  0
LINE
  5
11EC
330
36
100
AcDbEntity
  8
0
 62
     3
100
AcDbLine
 10
502.3582843190316
 20
-456.7594646687311
 30
0.0
 11
502.3575957290317
 21
-456.9455635687311
 31
0.0
  0
LINE
  5
11ED
330
36
100
AcDbEntity
  8
0
 62
     3
100
AcDbLine
 10
502.3575957290317
 20
-456.9455635687311
 30
0.0
 11
502.3628403890317
 21
-457.1309651787311
 31
0.0
  0
LINE
  5
11EE
330
36
100
AcDbEntity
  8
0
 62
     3
100
AcDbLine
 10
502.3628403890317
 20
-457.1309651787311
 30
0.0
 11
502.3739777590316
 21
-457.3142364487311
 31
0.0
  0
LINE
  5
11EF
330
36
100
AcDbEntity
  8
0
 62
     3
100
AcDbLine
 10
502.3739777590316
 20
-457.3142364487311
 30
0.0
 11
502.3909217590317
 21
-457.4939607887311
 31
0.0
  0
LINE
  5
11F0
330
36
100
AcDbEntity
  8
0
 62
     3
100
AcDbLine
 10
502.3909217590317
 20
-457.4939607887311
 30
0.0
 11
502.4135414090316
 21
-457.6687490187311
 31
0.0
  0
LINE
  5
11F1
330
36
100
AcDbEntity
  8
0
 62
     3
100
AcDbLine
 10
502.4135414090316
 20
-457.6687490187311
 30
0.0
 11
502.4416618790317
 21
-457.8372501187311
 31
0.0
  0
LINE
  5
11F2
330
36
100
AcDbEntity
  8
0
 62
     3
100
AcDbLine
 10
502.4416618790317
 20
-457.8372501187311
 30
0.0
 11
502.4750658090316
 21
-457.9981616587311
 31
0.0
  0
LINE
  5
11F3
330
36
100
AcDbEntity
  8
0
 62
     3
100
AcDbLine
 10
502.4750658090316
 20
-457.9981616587311
 30
0.0
 11
502.5134950090317
 21
-458.1502398787312
 31
0.0
  0
LINE
  5
11F4
330
36
100
AcDbEntity
  8
0
 62
     3
100
AcDbLine
 10
502.5134950090317
 20
-458.1502398787312
 30
0.0
 11
502.5566524290316
 21
-458.2923092887311
 31
0.0
  0
LINE
  5
11F5
330
36
100
AcDbEntity
  8
0
 62
     3
100
AcDbLine
 10
502.5566524290316
 20
-458.2923092887311
 30
0.0
 11
502.6042044990315
 21
-458.4232717687312
 31
0.0
  0
LINE
  5
11F6
330
36
100
AcDbEntity
  8
0
 62
     3
100
AcDbLine
 10
502.6042044990315
 20
-458.4232717687312
 30
0.0
 11
502.6557836490316
 21
-458.5421150487309
 31
0.0
  0
LINE
  5
11F7
330
36
100
AcDbEntity
  8
0
 62
     3
100
AcDbLine
 10
502.6557836490316
 20
-458.5421150487309
 30
0.0
 11
502.7109912190316
 21
-458.6479205187311
 31
0.0
  0
LINE
  5
11F8
330
36
100
AcDbEntity
  8
0
 62
     3
100
AcDbLine
 10
502.7109912190316
 20
-458.6479205187311
 30
0.0
 11
502.7694004690316
 21
-458.7398703787311
 31
0.0
  0
LINE
  5
11F9
330
36
100
AcDbEntity
  8
0
 62
     3
100
AcDbLine
 10
502.7694004690316
 20
-458.7398703787311
 30
0.0
 11
502.8305599290316
 21
-458.8172538787311
 31
0.0
  0
LINE
  5
11FA
330
36
100
AcDbEntity
  8
0
 62
     3
100
AcDbLine
 10
502.8305599290316
 20
-458.8172538787311
 30
0.0
 11
502.8939968690315
 21
-458.8794728987311
 31
0.0
  0
LINE
  5
11FB
330
36
100
AcDbEntity
  8
0
 62
     3
100
AcDbLine
 10
502.8939968690315
 20
-458.8794728987311
 30
0.0
 11
502.9592209490315
 21
-458.9260465087311
 31
0.0
  0
LINE
  5
11FC
330
36
100
AcDbEntity
  8
0
 62
     3
100
AcDbLine
 10
502.9592209490315
 20
-458.9260465087311
 30
0.0
 11
503.0257280290316
 21
-458.9566147387311
 31
0.0
  0
LINE
  5
11FD
330
36
100
AcDbEntity
  8
0
 62
     3
100
AcDbLine
 10
503.0257280290316
 20
-458.9566147387311
 30
0.0
 11
503.0930040390315
 21
-458.9709412887311
 31
0.0
  0
LINE
  5
11FE
330
36
100
AcDbEntity
  8
0
 62
     3
100
AcDbLine
 10
503.0930040390315
 20
-458.9709412887311
 30
0.0
 11
503.1605289690316
 21
-458.9689154287311
 31
0.0
  0
LINE
  5
11FF
330
36
100
AcDbEntity
  8
0
 62
     3
100
AcDbLine
 10
503.1605289690316
 20
-458.9689154287311
 30
0.0
 11
503.2277808890317
 21
-458.9505528287311
 31
0.0
  0
LINE
  5
1200
330
36
100
AcDbEntity
  8
0
 62
     3
100
AcDbLine
 10
503.2277808890317
 20
-458.9505528287311
 30
0.0
 11
503.2942399690315
 21
-458.9159954087311
 31
0.0
  0
LINE
  5
1201
330
36
100
AcDbEntity
  8
0
 62
     3
100
AcDbLine
 10
503.2942399690315
 20
-458.9159954087311
 30
0.0
 11
503.3593925290317
 21
-458.8655102787312
 31
0.0
  0
LINE
  5
1202
330
36
100
AcDbEntity
  8
0
 62
     3
100
AcDbLine
 10
503.3593925290317
 20
-458.8655102787312
 30
0.0
 11
503.4227349590317
 21
-458.7994876787312
 31
0.0
  0
LINE
  5
1203
330
36
100
AcDbEntity
  8
0
 62
     3
100
AcDbLine
 10
503.4227349590317
 20
-458.7994876787312
 30
0.0
 11
503.4837776590316
 21
-458.7184379187312
 31
0.0
  0
LINE
  5
1204
330
36
100
AcDbEntity
  8
0
 62
     3
100
AcDbLine
 10
503.4837776590316
 20
-458.7184379187312
 30
0.0
 11
503.5420487990315
 21
-458.6229874687311
 31
0.0
  0
LINE
  5
1205
330
36
100
AcDbEntity
  8
0
 62
     3
100
AcDbLine
 10
503.5420487990315
 20
-458.6229874687311
 30
0.0
 11
503.5970979790317
 21
-458.5138741087312
 31
0.0
  0
LINE
  5
1206
330
36
100
AcDbEntity
  8
0
 62
     3
100
AcDbLine
 10
503.5970979790317
 20
-458.5138741087312
 30
0.0
 11
503.6484996990316
 21
-458.3919412487311
 31
0.0
  0
LINE
  5
1207
330
36
100
AcDbEntity
  8
0
 62
     3
100
AcDbLine
 10
503.6484996990316
 20
-458.3919412487311
 30
0.0
 11
503.6958566390317
 21
-458.2581313387311
 31
0.0
  0
LINE
  5
1208
330
36
100
AcDbEntity
  8
0
 62
     3
100
AcDbLine
 10
503.6958566390317
 20
-458.2581313387311
 30
0.0
 11
503.7388027590316
 21
-458.1134786887311
 31
0.0
  0
LINE
  5
1209
330
36
100
AcDbEntity
  8
0
 62
     3
100
AcDbLine
 10
503.7388027590316
 20
-458.1134786887311
 30
0.0
 11
503.7770061090315
 21
-457.9591013687312
 31
0.0
  0
LINE
  5
120A
330
36
100
AcDbEntity
  8
0
 62
     3
100
AcDbLine
 10
503.7770061090315
 20
-457.9591013687312
 30
0.0
 11
503.8101713990315
 21
-457.7961926387311
 31
0.0
  0
LINE
  5
120B
330
36
100
AcDbEntity
  8
0
 62
     3
100
AcDbLine
 10
503.8101713990315
 20
-457.7961926387311
 30
0.0
 11
503.8380422790317
 21
-457.6260117087311
 31
0.0
  0
LINE
  5
120C
330
36
100
AcDbEntity
  8
0
  6
Continuous
100
AcDbLine
 10
425.7470579607688
 20
-569.3820238767917
 30
0.0
 11
399.5708005862023
 21
-569.3820238767917
 31
0.0
  0
LINE
  5
120D
330
36
100
AcDbEntity
  8
0
  6
Continuous
100
AcDbLine
 10
426.1011394094908
 20
-594.3059564658946
 30
0.0
 11
399.5708005862023
 21
-594.3059564658946
 31
0.0
  0
LINE
  5
120E
330
36
100
AcDbEntity
  8
0
  6
Continuous
100
AcDbLine
 10
400.8208005862022
 20
-571.8820238767917
 30
0.0
 11
400.8208005862022
 21
-591.8059564658945
 31
0.0
  0
LINE
  5
1212
330
36
100
AcDbEntity
  8
0
  6
Continuous
100
AcDbLine
 10
591.2286884155788
 20
-562.5450744658945
 30
0.0
 11
620.3612784277557
 21
-562.5450744658945
 31
0.0
  0
LINE
  5
1213
330
36
100
AcDbEntity
  8
0
  6
Continuous
100
AcDbLine
 10
607.234332415579
 20
-595.9927624658946
 30
0.0
 11
620.3612784277557
 21
-595.9927624658946
 31
0.0
  0
LINE
  5
1214
330
36
100
AcDbEntity
  8
0
  6
Continuous
100
AcDbLine
 10
619.1112784277557
 20
-565.0450744658944
 30
0.0
 11
619.1112784277557
 21
-593.4927624658946
 31
0.0
  0
LINE
  5
1218
330
36
100
AcDbEntity
  8
0
 62
     7
100
AcDbLine
 10
570.2224844155787
 20
-581.8674794658948
 30
0.0
 11
571.973045415579
 21
-582.9732474658944
 31
0.0
  0
LINE
  5
1219
330
36
100
AcDbEntity
  8
0
 62
     7
100
AcDbLine
 10
571.973045415579
 20
-582.9732474658944
 30
0.0
 11
571.009899415579
 21
-581.1403444658948
 31
0.0
  0
LINE
  5
121A
330
36
100
AcDbEntity
  8
0
100
AcDbLine
 10
421.8511394094908
 20
-591.0615974658945
 30
0.0
 11
421.8511394094908
 21
-604.2704674658947
 31
0.0
  0
LINE
  5
121B
330
36
100
AcDbEntity
  8
0
100
AcDbLine
 10
521.8511394094908
 20
-591.0615974658945
 30
0.0
 11
521.8511394094908
 21
-604.2704674658947
 31
0.0
  0
LINE
  5
121C
330
36
100
AcDbEntity
  8
0
100
AcDbLine
 10
424.3511394094908
 20
-603.0204674658947
 30
0.0
 11
519.3511394094907
 21
-603.0204674658947
 31
0.0
  0
LINE
  5
1220
330
36
100
AcDbEntity
  8
0
  6
Continuous
100
AcDbLine
 10
426.9744624334588
 20
-597.5092649750087
 30
0.0
 11
417.474048025791
 21
-616.229564109028
 31
0.0
1001
ACAD
1000
DSTYLE
1002
{
1070
   147
1040
0.625
1070
    77
1070
     0
1002
}
  0
LINE
  5
1221
330
36
100
AcDbEntity
  8
0
  6
ByBlock
 62
     0
370
    -2
100
AcDbLine
 10
426.3771112538489
 20
-597.206113635782
 30
0.0
 11
428.1058394463483
 21
-595.2799184217099
 31
0.0
  0
LINE
  5
1222
330
36
100
AcDbEntity
  8
0
  6
ByBlock
 62
     0
370
    -2
100
AcDbLine
 10
428.1058394463483
 20
-595.2799184217099
 30
0.0
 11
427.5718136130686
 21
-597.8124163142354
 31
0.0
  0
LINE
  5
1223
330
36
100
AcDbEntity
  8
0
  6
ByBlock
 62
     0
370
    -2
100
AcDbLine
 10
428.1058394463483
 20
-595.2799184217099
 30
0.0
 11
426.9744624334588
 21
-597.5092649750087
 31
0.0
  0
LINE
  5
1224
330
36
100
AcDbEntity
  8
0
  6
Continuous
 62
     7
100
AcDbLine
 10
480.1143927049956
 20
-598.3471987700331
 30
0.0
 11
490.7749866721743
 21
-622.3740478434215
 31
0.0
1001
ACAD
1000
DSTYLE
1002
{
1070
   147
1040
0.625
1070
    77
1070
     0
1002
}
  0
LINE
  5
1225
330
36
100
AcDbEntity
  8
0
  6
ByBlock
 62
     0
370
    -2
100
AcDbLine
 10
479.5020852995273
 20
-598.6188765340568
 30
0.0
 11
479.1004767582157
 21
-596.0620347818552
 31
0.0
  0
LINE
  5
1226
330
36
100
AcDbEntity
  8
0
  6
ByBlock
 62
     0
370
    -2
100
AcDbLine
 10
479.1004767582157
 20
-596.0620347818552
 30
0.0
 11
480.726700110464
 21
-598.0755210060094
 31
0.0
  0
LINE
  5
1227
330
36
100
AcDbEntity
  8
0
  6
ByBlock
 62
     0
370
    -2
100
AcDbLine
 10
479.1004767582157
 20
-596.0620347818552
 30
0.0
 11
480.1143927049956
 21
-598.3471987700331
 31
0.0
  0
TEXT
  5
1228
330
36
100
AcDbEntity
  8
0
  6
Continuous
 62
     4
100
AcDbText
 10
467.0390349500971
 20
-487.2158919721423
 30
0.0
 40
2.5
  1
(120)
100
AcDbText
  0
LINE
  5
1229
330
36
100
AcDbEntity
  8
0
  6
ByBlock
 62
     0
370
    -2
100
AcDbLine
 10
414.2638264094908
 20
-488.5107644721423
 30
0.0
 11
411.7638264094908
 21
-487.8408919721423
 31
0.0
  0
LINE
  5
122A
330
36
100
AcDbEntity
  8
0
  6
ByBlock
 62
     0
370
    -2
100
AcDbLine
 10
411.7638264094908
 20
-487.8408919721423
 30
0.0
 11
414.2638264094908
 21
-487.1710194721423
 31
0.0
  0
LINE
  5
122B
330
36
100
AcDbEntity
  8
0
  6
ByBlock
 62
     0
370
    -2
100
AcDbLine
 10
411.7638264094908
 20
-487.8408919721423
 30
0.0
 11
414.2638264094908
 21
-487.8408919721423
 31
0.0
  0
LINE
  5
122C
330
36
100
AcDbEntity
  8
0
  6
ByBlock
 62
     0
370
    -2
100
AcDbLine
 10
529.4384514094907
 20
-487.1710194721423
 30
0.0
 11
531.9384514094906
 21
-487.8408919721423
 31
0.0
  0
LINE
  5
122D
330
36
100
AcDbEntity
  8
0
  6
ByBlock
 62
     0
370
    -2
100
AcDbLine
 10
531.9384514094906
 20
-487.8408919721423
 30
0.0
 11
529.4384514094907
 21
-488.5107644721423
 31
0.0
  0
LINE
  5
122E
330
36
100
AcDbEntity
  8
0
  6
ByBlock
 62
     0
370
    -2
100
AcDbLine
 10
531.9384514094906
 20
-487.8408919721423
 30
0.0
 11
529.4384514094907
 21
-487.8408919721423
 31
0.0
  0
TEXT
  5
122F
330
36
100
AcDbEntity
  8
0
  6
Continuous
 62
     4
100
AcDbText
 10
590.2215852768904
 20
-603.5184789827044
 30
0.0
 40
2.5
  1
38
100
AcDbText
  0
LINE
  5
1230
330
36
100
AcDbEntity
  8
0
  6
ByBlock
 62
     0
370
    -2
100
AcDbLine
 10
574.4730454155789
 20
-604.8133514827044
 30
0.0
 11
571.973045415579
 21
-604.1434789827044
 31
0.0
  0
LINE
  5
1231
330
36
100
AcDbEntity
  8
0
  6
ByBlock
 62
     0
370
    -2
100
AcDbLine
 10
571.973045415579
 20
-604.1434789827044
 30
0.0
 11
574.4730454155789
 21
-603.4736064827044
 31
0.0
  0
LINE
  5
1232
330
36
100
AcDbEntity
  8
0
  6
ByBlock
 62
     0
370
    -2
100
AcDbLine
 10
571.973045415579
 20
-604.1434789827044
 30
0.0
 11
574.4730454155789
 21
-604.1434789827044
 31
0.0
  0
LINE
  5
1233
330
36
100
AcDbEntity
  8
0
  6
ByBlock
 62
     0
370
    -2
100
AcDbLine
 10
607.4843324155791
 20
-603.4736064827044
 30
0.0
 11
609.9843324155791
 21
-604.1434789827044
 31
0.0
  0
LINE
  5
1234
330
36
100
AcDbEntity
  8
0
  6
ByBlock
 62
     0
370
    -2
100
AcDbLine
 10
609.9843324155791
 20
-604.1434789827044
 30
0.0
 11
607.4843324155791
 21
-604.8133514827044
 31
0.0
  0
LINE
  5
1235
330
36
100
AcDbEntity
  8
0
  6
ByBlock
 62
     0
370
    -2
100
AcDbLine
 10
609.9843324155791
 20
-604.1434789827044
 30
0.0
 11
607.4843324155791
 21
-604.1434789827044
 31
0.0
  0
LINE
  5
1236
330
36
100
AcDbEntity
  8
0
  6
Continuous
 62
     7
100
AcDbLine
 10
474.665796334554
 20
-519.0395681283049
 30
0.0
 11
486.8826609682527
 21
-543.9580780601223
 31
0.0
1001
ACAD
1000
DSTYLE
1002
{
1070
   147
1040
0.625
1070
    77
1070
     0
1002
}
  0
LINE
  5
1237
330
36
100
AcDbEntity
  8
0
  6
ByBlock
 62
     0
370
    -2
100
AcDbLine
 10
474.0643221458531
 20
-519.3344544904562
 30
0.0
 11
473.5652646581856
 21
-516.7948342845476
 31
0.0
  0
LINE
  5
1238
330
36
100
AcDbEntity
  8
0
  6
ByBlock
 62
     0
370
    -2
100
AcDbLine
 10
473.5652646581856
 20
-516.7948342845476
 30
0.0
 11
475.267270523255
 21
-518.7446817661538
 31
0.0
  0
LINE
  5
1239
330
36
100
AcDbEntity
  8
0
  6
ByBlock
 62
     0
370
    -2
100
AcDbLine
 10
473.5652646581856
 20
-516.7948342845476
 30
0.0
 11
474.665796334554
 21
-519.0395681283049
 31
0.0
  0
LINE
  5
123A
330
36
100
AcDbEntity
  8
0
  6
Continuous
 62
     7
100
AcDbLine
 10
462.7608249364489
 20
-559.4444715762041
 30
0.0
 11
457.6703512633648
 21
-551.2787409137846
 31
0.0
1001
ACAD
1000
DSTYLE
1002
{
1070
   147
1040
0.625
1070
    77
1070
     0
1002
}
  0
LINE
  5
123B
330
36
100
AcDbEntity
  8
0
  6
ByBlock
 62
     0
370
    -2
100
AcDbLine
 10
463.3292854217192
 20
-559.0900962907475
 30
0.0
 11
464.0833724565243
 21
-561.5659965129283
 31
0.0
  0
LINE
  5
123C
330
36
100
AcDbEntity
  8
0
  6
ByBlock
 62
     0
370
    -2
100
AcDbLine
 10
464.0833724565243
 20
-561.5659965129283
 30
0.0
 11
462.1923644511785
 21
-559.7988468616607
 31
0.0
  0
LINE
  5
123D
330
36
100
AcDbEntity
  8
0
  6
ByBlock
 62
     0
370
    -2
100
AcDbLine
 10
464.0833724565243
 20
-561.5659965129283
 30
0.0
 11
462.7608249364489
 21
-559.4444715762041
 31
0.0
  0
LINE
  5
123E
330
36
100
AcDbEntity
  8
0
  6
Continuous
 62
     7
100
AcDbLine
 10
443.8561062704298
 20
-594.8730395755838
 30
0.0
 11
436.560939777707
 21
-610.6816809419439
 31
0.0
1001
ACAD
1000
DSTYLE
1002
{
1070
   147
1040
0.625
1070
    77
1070
     0
1002
}
  0
LINE
  5
123F
330
36
100
AcDbEntity
  8
0
  6
ByBlock
 62
     0
370
    -2
100
AcDbLine
 10
443.2478727134146
 20
-594.5923598535217
 30
0.0
 11
444.9036180061034
 21
-592.6030794077336
 31
0.0
  0
LINE
  5
1240
330
36
100
AcDbEntity
  8
0
  6
ByBlock
 62
     0
370
    -2
100
AcDbLine
 10
444.9036180061034
 20
-592.6030794077336
 30
0.0
 11
444.4643398274451
 21
-595.1537192976457
 31
0.0
  0
LINE
  5
1241
330
36
100
AcDbEntity
  8
0
  6
ByBlock
 62
     0
370
    -2
100
AcDbLine
 10
444.9036180061034
 20
-592.6030794077336
 30
0.0
 11
443.8561062704298
 21
-594.8730395755838
 31
0.0
  0
LINE
  5
1242
330
36
100
AcDbEntity
  8
0
  6
Continuous
 62
     7
100
AcDbLine
 10
433.6539157484611
 20
-566.8945678074093
 30
0.0
 11
432.1528387285221
 21
-551.9668001869448
 31
0.0
1001
ACAD
1000
DSTYLE
1002
{
1070
   147
1040
0.625
1070
    77
1070
     0
1002
}
  0
LINE
  5
1243
330
36
100
AcDbEntity
  8
0
  6
ByBlock
 62
     0
370
    -2
100
AcDbLine
 10
434.3204270046966
 20
-566.827546082815
 30
0.0
 11
433.9040444094908
 21
-569.3820234658947
 31
0.0
  0
LINE
  5
1244
330
36
100
AcDbEntity
  8
0
  6
ByBlock
 62
     0
370
    -2
100
AcDbLine
 10
433.9040444094908
 20
-569.3820234658947
 30
0.0
 11
432.9874044922255
 21
-566.9615895320036
 31
0.0
  0
LINE
  5
1245
330
36
100
AcDbEntity
  8
0
  6
ByBlock
 62
     0
370
    -2
100
AcDbLine
 10
433.9040444094908
 20
-569.3820234658947
 30
0.0
 11
433.6539157484611
 21
-566.8945678074093
 31
0.0
  0
TEXT
  5
1246
330
36
100
AcDbEntity
  8
0
  6
Continuous
 62
     4
100
AcDbText
 10
400.1958005862022
 20
-583.907424461016
 30
0.0
 40
2.5
  1
25
 50
90.0
100
AcDbText
  0
LINE
  5
1247
330
36
100
AcDbEntity
  8
0
  6
ByBlock
 62
     0
370
    -2
100
AcDbLine
 10
401.4906730862022
 20
-591.8059564658945
 30
0.0
 11
400.8208005862022
 21
-594.3059564658946
 31
0.0
  0
LINE
  5
1248
330
36
100
AcDbEntity
  8
0
  6
ByBlock
 62
     0
370
    -2
100
AcDbLine
 10
400.8208005862022
 20
-594.3059564658946
 30
0.0
 11
400.1509280862022
 21
-591.8059564658945
 31
0.0
  0
LINE
  5
1249
330
36
100
AcDbEntity
  8
0
  6
ByBlock
 62
     0
370
    -2
100
AcDbLine
 10
400.8208005862022
 20
-594.3059564658946
 30
0.0
 11
400.8208005862022
 21
-591.8059564658945
 31
0.0
  0
LINE
  5
124A
330
36
100
AcDbEntity
  8
0
  6
ByBlock
 62
     0
370
    -2
100
AcDbLine
 10
400.1509280862022
 20
-571.8820238767917
 30
0.0
 11
400.8208005862022
 21
-569.3820238767917
 31
0.0
  0
LINE
  5
124B
330
36
100
AcDbEntity
  8
0
  6
ByBlock
 62
     0
370
    -2
100
AcDbLine
 10
400.8208005862022
 20
-569.3820238767917
 30
0.0
 11
401.4906730862022
 21
-571.8820238767917
 31
0.0
  0
LINE
  5
124C
330
36
100
AcDbEntity
  8
0
  6
ByBlock
 62
     0
370
    -2
100
AcDbLine
 10
400.8208005862022
 20
-569.3820238767917
 30
0.0
 11
400.8208005862022
 21
-571.8820238767917
 31
0.0
  0
TEXT
  5
124D
330
36
100
AcDbEntity
  8
0
  6
Continuous
 62
     4
100
AcDbText
 10
618.4862784277558
 20
-581.4220121611506
 30
0.0
 40
2.5
  1
34
 50
90.0
100
AcDbText
  0
LINE
  5
124E
330
36
100
AcDbEntity
  8
0
  6
ByBlock
 62
     0
370
    -2
100
AcDbLine
 10
619.7811509277556
 20
-593.4927624658946
 30
0.0
 11
619.1112784277557
 21
-595.9927624658946
 31
0.0
  0
LINE
  5
124F
330
36
100
AcDbEntity
  8
0
  6
ByBlock
 62
     0
370
    -2
100
AcDbLine
 10
619.1112784277557
 20
-595.9927624658946
 30
0.0
 11
618.4414059277557
 21
-593.4927624658946
 31
0.0
  0
LINE
  5
1250
330
36
100
AcDbEntity
  8
0
  6
ByBlock
 62
     0
370
    -2
100
AcDbLine
 10
619.1112784277557
 20
-595.9927624658946
 30
0.0
 11
619.1112784277557
 21
-593.4927624658946
 31
0.0
  0
LINE
  5
1251
330
36
100
AcDbEntity
  8
0
  6
ByBlock
 62
     0
370
    -2
100
AcDbLine
 10
618.4414059277557
 20
-565.0450744658944
 30
0.0
 11
619.1112784277557
 21
-562.5450744658945
 31
0.0
  0
LINE
  5
1252
330
36
100
AcDbEntity
  8
0
  6
ByBlock
 62
     0
370
    -2
100
AcDbLine
 10
619.1112784277557
 20
-562.5450744658945
 30
0.0
 11
619.7811509277556
 21
-565.0450744658944
 31
0.0
  0
LINE
  5
1253
330
36
100
AcDbEntity
  8
0
  6
ByBlock
 62
     0
370
    -2
100
AcDbLine
 10
619.1112784277557
 20
-562.5450744658945
 30
0.0
 11
619.1112784277557
 21
-565.0450744658944
 31
0.0
  0
TEXT
  5
1254
330
36
100
AcDbEntity
  8
0
  6
Continuous
 62
     4
100
AcDbText
 10
469.3511394094907
 20
-602.3954674658947
 30
0.0
 40
2.5
  1
100
100
AcDbText
  0
LINE
  5
1255
330
36
100
AcDbEntity
  8
0
  6
ByBlock
 62
     0
370
    -2
100
AcDbLine
 10
519.3511394094907
 20
-602.3505949658947
 30
0.0
 11
521.8511394094908
 21
-603.0204674658947
 31
0.0
  0
LINE
  5
1256
330
36
100
AcDbEntity
  8
0
  6
ByBlock
 62
     0
370
    -2
100
AcDbLine
 10
521.8511394094908
 20
-603.0204674658947
 30
0.0
 11
519.3511394094907
 21
-603.6903399658947
 31
0.0
  0
LINE
  5
1257
330
36
100
AcDbEntity
  8
0
  6
ByBlock
 62
     0
370
    -2
100
AcDbLine
 10
521.8511394094908
 20
-603.0204674658947
 30
0.0
 11
519.3511394094907
 21
-603.0204674658947
 31
0.0
  0
LINE
  5
1258
330
36
100
AcDbEntity
  8
0
  6
ByBlock
 62
     0
370
    -2
100
AcDbLine
 10
424.3511394094908
 20
-603.6903399658947
 30
0.0
 11
421.8511394094908
 21
-603.0204674658947
 31
0.0
  0
LINE
  5
1259
330
36
100
AcDbEntity
  8
0
  6
ByBlock
 62
     0
370
    -2
100
AcDbLine
 10
421.8511394094908
 20
-603.0204674658947
 30
0.0
 11
424.3511394094908
 21
-602.3505949658947
 31
0.0
  0
LINE
  5
125A
330
36
100
AcDbEntity
  8
0
  6
ByBlock
 62
     0
370
    -2
100
AcDbLine
 10
421.8511394094908
 20
-603.0204674658947
 30
0.0
 11
424.3511394094908
 21
-603.0204674658947
 31
0.0
  0
ENDSEC
  0
SECTION
  2
OBJECTS
  0
DICTIONARY
  5
C
330
0
100
AcDbDictionary
281
     1
  3
ACAD_2007HEADERVARS_RT
350
125F
  3
ACAD_COLOR
350
2F
  3
ACAD_GROUP
350
D
  3
ACAD_LAYOUT
350
2E
  3
ACAD_MATERIAL
350
10
  3
ACAD_MLEADERSTYLE
350
CC2
  3
ACAD_MLINESTYLE
350
2B
  3
ACAD_PLOTSETTINGS
350
2D
  3
ACAD_PLOTSTYLENAME
350
E
  3
ACAD_SCALELIST
350
CB0
  3
ACAD_TABLESTYLE
350
30
  3
ACAD_VISUALSTYLE
350
14
  3
ACDB_RECOMPOSE_DATA
350
125D
  3
AcDbVariableDictionary
350
544
  3
DWGPROPS
350
125E
  0
DICTIONARY
  5
575
330
2
100
AcDbDictionary
280
     1
281
     1
  3
ACAD_LAYERSTATES
360
576
  0
DICTIONARY
  5
DB0
330
25
100
AcDbDictionary
280
     1
281
     1
  3
ADSK_XREC_LAYER_RECONCILED
360
DB1
  0
DICTIONARY
  5
60A
330
36
100
AcDbDictionary
280
     1
281
     1
  3
ACAD_SORTENTS
360
60B
  0
DICTIONARY
  5
125F
102
{ACAD_REACTORS
330
C
102
}
330
C
100
AcDbDictionary
281
     1
  3
DIMARCSYM
350
1261
  3
DIMFXL
350
1260
  3
DIMJOGANG
350
1262
  0
DICTIONARY
  5
2F
102
{ACAD_REACTORS
330
C
102
}
330
C
100
AcDbDictionary
281
     1
  0
DICTIONARY
  5
D
102
{ACAD_REACTORS
330
C
102
}
330
C
100
AcDbDictionary
281
     1
  0
DICTIONARY
  5
2E
102
{ACAD_REACTORS
330
C
102
}
330
C
100
AcDbDictionary
281
     1
  3
Model
350
39
  3
レイアウト1
350
35
  0
DICTIONARY
  5
10
102
{ACAD_REACTORS
330
C
102
}
330
C
100
AcDbDictionary
281
     1
  3
ByBlock
350
12
  3
ByLayer
350
11
  3
Global
350
13
  0
DICTIONARY
  5
CC2
102
{ACAD_REACTORS
330
C
102
}
330
C
100
AcDbDictionary
281
     1
  3
Standard
350
CC3
  0
DICTIONARY
  5
2B
102
{ACAD_REACTORS
330
C
102
}
330
C
100
AcDbDictionary
281
     1
  3
Standard
350
2C
  0
DICTIONARY
  5
2D
102
{ACAD_REACTORS
330
C
102
}
330
C
100
AcDbDictionary
281
     1
  0
ACDBDICTIONARYWDFLT
  5
E
102
{ACAD_REACTORS
330
C
102
}
330
C
100
AcDbDictionary
281
     1
  3
Normal
350
F
100
AcDbDictionaryWithDefault
340
F
  0
DICTIONARY
  5
CB0
102
{ACAD_REACTORS
330
C
102
}
330
C
100
AcDbDictionary
281
     1
  3
A0
350
CB1
  3
A1
350
CB2
  3
A2
350
CB3
  3
A3
350
CB4
  3
A4
350
CB5
  3
A5
350
CB6
  3
A6
350
CB7
  3
A7
350
CB8
  3
A8
350
CB9
  3
A9
350
CBA
  3
B0
350
CBB
  3
B1
350
CBC
  3
B2
350
CBD
  3
B3
350
CBE
  3
B4
350
CBF
  3
B5
350
CC0
  3
B6
350
CC1
  0
DICTIONARY
  5
30
102
{ACAD_REACTORS
330
C
102
}
330
C
100
AcDbDictionary
281
     1
  3
Standard
350
31
  3
部品表
350
E9E
  0
DICTIONARY
  5
14
102
{ACAD_REACTORS
330
C
102
}
330
C
100
AcDbDictionary
281
     1
  3
2dWireframe
350
1A
  3
3D Hidden
350
1C
  3
3dWireframe
350
1B
  3
Basic
350
19
  3
Brighten
350
20
  3
ColorChange
350
24
  3
Conceptual
350
1D
  3
Dim
350
1F
  3
EdgeColorOff
350
CAF
  3
Facepattern
350
23
  3
Flat
350
15
  3
FlatWithEdges
350
16
  3
Gouraud
350
17
  3
GouraudWithEdges
350
18
  3
Hidden
350
CA7
  3
JitterOff
350
CAD
  3
Linepattern
350
22
  3
OverhangOff
350
CAE
  3
Realistic
350
1E
  3
Shaded
350
CAC
  3
Shaded with edges
350
CAB
  3
Shades of Gray
350
CA8
  3
Sketchy
350
CA9
  3
Thicken
350
21
  3
Wireframe
350
CA6
  3
X-Ray
350
CAA
  0
XRECORD
  5
125D
102
{ACAD_REACTORS
330
C
102
}
330
C
100
AcDbXrecord
280
     1
 90
        1
330
31
330
E9E
  0
DICTIONARY
  5
544
102
{ACAD_REACTORS
330
C
102
}
330
C
100
AcDbDictionary
281
     1
  3
CANNOSCALE
350
DBB
  3
CMLEADERSTYLE
350
DBA
  3
CTABLESTYLE
350
545
  3
DIMASSOC
350
C8E
  3
INDEXCTL
350
C8D
  3
SORTENTS
350
C8C
  3
XCLIPFRAME
350
112B
  0
XRECORD
  5
125E
102
{ACAD_REACTORS
330
C
102
}
330
C
100
AcDbXrecord
280
     1
  1
DWGPROPS COOKIE
  2

  3

  4

  6

  7

  8
imamura
  9

300
=
301
=
302
=
303
=
304
=
305
=
306
=
307
=
308
=
309
=
 40
0.1797808796296296
 41
2455418.575288079
 42
2456577.581173553
  1

 90
        0
  0
DICTIONARY
  5
576
102
{ACAD_REACTORS
330
575
102
}
330
575
100
AcDbDictionary
281
     1
  0
XRECORD
  5
DB1
102
{ACAD_REACTORS
330
DB0
102
}
330
DB0
100
AcDbXrecord
280
     1
290
     1
  0
SORTENTSTABLE
  5
60B
102
{ACAD_REACTORS
330
60A
102
}
330
60A
100
AcDbSortentsTable
330
36
331
937
  5
A6B
331
52D
  5
5E7
331
933
  5
A65
331
529
  5
541
331
49E
  5
4D4
331
744
  5
8EC
331
A76
  5
AC1
331
525
  5
53D
331
92F
  5
A66
331
8F0
  5
A1E
331
A72
  5
ABD
331
740
  5
8B6
331
92B
  5
A60
331
D7B
  5
A8E
331
AB7
  5
BA2
331
B85
  5
DAE
331
AB3
  5
B60
331
B81
  5
D79
331
AAF
  5
B5C
331
BBC
  5
11D0
331
AAB
  5
B58
331
B7D
  5
D75
331
BB8
  5
11C4
331
B79
  5
D71
331
120B
  5
BA0
331
1207
  5
B9C
331
1246
  5
896
331
12F
  5
177
331
1242
  5
11F0
331
1203
  5
B98
331
1194
  5
1176
331
1190
  5
ED3
331
11CF
  5
B64
331
11CB
  5
11AD
331
C77
  5
121F
331
D76
  5
A93
331
D72
  5
A97
331
8EC
  5
A18
331
303
  5
34D
331
A6E
  5
AB9
331
505
  5
537
331
927
  5
A58
331
366
  5
4BC
331
A6A
  5
AB5
331
738
  5
8B3
331
2FF
  5
335
331
923
  5
A34
331
362
  5
4AC
331
8B4
  5
A13
331
2FB
  5
311
331
7FD
  5
907
331
734
  5
8AF
331
A66
  5
AB1
331
4FD
  5
533
331
91F
  5
A35
331
A62
  5
AAD
331
4F9
  5
52F
331
91B
  5
A36
331
ED4
  5
1258
331
AE6
  5
BCF
331
60C
  5
8A2
331
AA7
  5
B54
331
ED0
  5
1254
331
608
  5
8A6
331
BB4
  5
11C0
331
AA3
  5
B50
331
AE2
  5
506
331
B75
  5
D6D
331
ADE
  5
BCB
331
BB0
  5
11BC
331
A9F
  5
B4C
331
B71
  5
D69
331
ADA
  5
BC6
331
BAC
  5
11B8
331
A9B
  5
AED
331
123E
  5
11F4
331
B6D
  5
D64
331
11FF
  5
B94
331
BA8
  5
11B4
331
123A
  5
11F8
331
B69
  5
D53
331
11FB
  5
B90
331
1236
  5
11FC
331
11F7
  5
B8C
331
186
  5
2FB
331
1232
  5
1205
331
11F3
  5
B88
331
748
  5
8EE
331
1074
  5
1259
331
11C7
  5
11A9
331
17A
  5
1F0
331
11C3
  5
11A5
331
E3
  5
136
331
1180
  5
11FD
331
11BF
  5
11A1
331
117C
  5
1209
331
11BB
  5
119D
331
C6F
  5
121E
331
D6E
  5
A9B
331
ECD
  5
1251
331
D6A
  5
A9F
331
EC9
  5
124D
331
D66
  5
AA3
331
EC5
  5
1249
331
EC1
  5
1245
331
35E
  5
4A1
331
35A
  5
369
331
604
  5
89A
331
2F3
  5
310
331
A5E
  5
AA9
331
4ED
  5
52B
331
917
  5
929
331
913
  5
919
331
356
  5
365
331
352
  5
361
331
A2A
  5
A8A
331
5A0
  5
782
331
90B
  5
918
331
AD6
  5
BC2
331
784
  5
8F1
331
A97
  5
AE3
331
780
  5
8F5
331
AD2
  5
BBE
331
541
  5
74A
331
BA4
  5
11B0
331
A93
  5
ADF
331
B65
  5
D48
331
ACE
  5
BB9
331
BA0
  5
ECF
331
A8F
  5
ADB
331
B61
  5
D44
331
ACA
  5
BB5
331
1258
  5
D4
331
B9C
  5
ECB
331
A8B
  5
AD6
331
122E
  5
120C
331
B5D
  5
C86
331
11EF
  5
B84
331
B98
  5
EC7
331
122A
  5
120E
331
B59
  5
C77
331
11EB
  5
B80
331
1226
  5
1212
331
11E7
  5
B7C
331
1222
  5
121A
331
11E3
  5
B78
331
172
  5
1EA
331
11B7
  5
1199
331
14E
  5
1E9
331
11B3
  5
1195
331
11AF
  5
1191
331
C2F
  5
1216
331
11AB
  5
118D
331
D5A
  5
A81
331
E5D
  5
1242
331
D52
  5
1234
331
E59
  5
123E
331
34E
  5
35D
331
53C
  5
617
331
A1E
  5
A87
331
4AD
  5
511
331
907
  5
A1A
331
A1A
  5
A83
331
538
  5
613
331
903
  5
930
331
894
  5
91B
331
1EB
  5
2FF
331
A16
  5
A7E
331
77D
  5
8FA
331
534
  5
608
331
8FF
  5
921
331
890
  5
914
331
779
  5
8F7
331
530
  5
603
331
A12
  5
A75
331
4A1
  5
4FC
331
8FB
  5
A24
331
AC6
  5
BB1
331
1254
  5
E5
331
A87
  5
AD2
331
AC2
  5
BAD
331
1250
  5
802
331
B94
  5
EC3
331
A83
  5
ACE
331
B55
  5
C32
331
ABE
  5
BA9
331
124C
  5
890
331
B90
  5
EBF
331
A7F
  5
ACA
331
B51
  5
C2C
331
ABA
  5
BA5
331
1248
  5
894
331
B8C
  5
E5A
331
A7B
  5
AC6
331
B4D
  5
BD5
331
11DF
  5
B74
331
B88
  5
E56
331
B49
  5
BD1
331
11DB
  5
B70
331
121A
  5
BE
331
11D7
  5
B6C
331
11D3
  5
B68
331
1212
  5
783
331
11A7
  5
1189
331
136
  5
17D
331
11A3
  5
1185
331
119F
  5
1181
331
D4E
  5
1230
331
119B
  5
117D
331
BCF
  5
11E9
331
D4A
  5
122C
331
E55
  5
123A
331
BCB
  5
11E8
331
D46
  5
1228
331
BC7
  5
11E5
331
D42
  5
1224
331
BC3
  5
11DF
331
824
  5
913
331
936
  5
A6A
331
52C
  5
5BF
331
49D
  5
4CF
331
8F7
  5
A21
331
30E
  5
355
331
747
  5
8ED
331
932
  5
A63
331
528
  5
540
331
81C
  5
911
331
743
  5
8EB
331
A75
  5
AC0
331
524
  5
53C
331
92E
  5
A64
331
A71
  5
ABC
331
92A
  5
A5F
331
D7A
  5
A8F
331
AB6
  5
BA1
331
B84
  5
D7C
331
AB2
  5
B5F
331
AED
  5
BD0
331
BBF
  5
11D6
331
AAE
  5
B5B
331
B80
  5
D78
331
BBB
  5
11CF
331
AAA
  5
B57
331
B7C
  5
D74
331
120E
  5
81C
331
B78
  5
D70
331
120A
  5
B9F
331
1245
  5
11EF
331
1206
  5
B9B
331
1241
  5
11F3
331
1202
  5
B97
331
777
  5
8F0
331
1197
  5
1179
331
1193
  5
1075
331
112
  5
173
331
118F
  5
ED2
331
11CE
  5
B63
331
11CA
  5
11AC
331
C7A
  5
1222
331
D75
  5
A94
331
D71
  5
A98
331
8EF
  5
A1D
331
306
  5
351
331
73F
  5
8B4
331
A6D
  5
AB8
331
8EB
  5
A15
331
926
  5
8A7
331
365
  5
4B7
331
737
  5
8B1
331
2FE
  5
333
331
A69
  5
AB4
331
500
  5
536
331
922
  5
A38
331
8B3
  5
A12
331
361
  5
4A5
331
733
  5
8AE
331
A65
  5
AB0
331
4FC
  5
532
331
91E
  5
A53
331
A61
  5
AAC
331
4F8
  5
52E
331
91A
  5
A27
331
60F
  5
8AC
331
ED3
  5
1257
331
BB7
  5
11C3
331
AA6
  5
B53
331
AE5
  5
50E
331
BB3
  5
11BF
331
AA2
  5
B4F
331
AE1
  5
505
331
B74
  5
D6C
331
ADD
  5
BCA
331
BAF
  5
11BB
331
A9E
  5
B4B
331
B70
  5
D68
331
AD9
  5
BC5
331
BAB
  5
11B7
331
A9A
  5
AE6
331
123D
  5
11F7
331
B6C
  5
D63
331
11FE
  5
B93
331
1239
  5
11FB
331
B68
  5
D52
331
11FA
  5
B8F
331
1235
  5
1202
331
11F6
  5
B8B
331
1231
  5
1204
331
11F2
  5
B87
331
11C6
  5
11A8
331
17D
  5
2F2
331
179
  5
1EE
331
11C2
  5
11A4
331
E2
  5
135
331
11BE
  5
11A0
331
117B
  5
1208
331
11BA
  5
119C
331
D6D
  5
A9C
331
ECC
  5
1250
331
D69
  5
AA0
331
EC8
  5
124C
331
D65
  5
AA4
331
EC4
  5
1248
331
C32
  5
1218
331
EC0
  5
1244
331
8AF
  5
937
331
35D
  5
4A0
331
607
  5
8A1
331
359
  5
368
331
8AB
  5
932
331
2F2
  5
30E
331
A5D
  5
AA8
331
603
  5
899
331
916
  5
922
331
355
  5
364
331
8A7
  5
92F
331
206
  5
30D
331
912
  5
91A
331
7B8
  5
905
331
A2D
  5
A8C
331
7B4
  5
904
331
351
  5
360
331
A29
  5
A89
331
90A
  5
928
331
AD5
  5
BC1
331
783
  5
900
331
BA7
  5
11B3
331
A96
  5
AE2
331
AD1
  5
BBC
331
540
  5
749
331
BA3
  5
11AF
331
A92
  5
ADE
331
B64
  5
D47
331
ACD
  5
BB8
331
B9F
  5
ECE
331
A8E
  5
ADA
331
B60
  5
D43
331
AC9
  5
BB4
331
B9B
  5
ECA
331
A8A
  5
AD5
331
122D
  5
120B
331
B5C
  5
C7A
331
11EE
  5
B83
331
1229
  5
120D
331
B58
  5
C6F
331
11EA
  5
B7F
331
1225
  5
1211
331
11E6
  5
B7B
331
1221
  5
1219
331
11E2
  5
B77
331
11B6
  5
1198
331
14D
  5
18C
331
11B2
  5
1194
331
11AE
  5
1190
331
11AA
  5
118C
331
D51
  5
1233
331
E5C
  5
1241
331
BD2
  5
11EC
331
E58
  5
123D
331
53F
  5
73D
331
34D
  5
35C
331
53B
  5
616
331
A1D
  5
A86
331
4AC
  5
510
331
906
  5
903
331
335
  5
35B
331
897
  5
91F
331
1EE
  5
306
331
A19
  5
A82
331
537
  5
612
331
902
  5
933
331
331
  5
359
331
893
  5
917
331
1EA
  5
2FE
331
A15
  5
A78
331
533
  5
607
331
778
  5
8F2
331
A11
  5
A6C
331
4A0
  5
4DC
331
8FA
  5
A23
331
1257
  5
E4
331
AC5
  5
BB0
331
1253
  5
7B8
331
B97
  5
EC6
331
A86
  5
AD1
331
AC1
  5
BAC
331
124F
  5
7FE
331
B93
  5
EC2
331
A82
  5
ACD
331
B54
  5
C31
331
ABD
  5
BA8
331
124B
  5
824
331
B8F
  5
E5D
331
A7E
  5
AC9
331
B50
  5
BFF
331
AB9
  5
BA4
331
B8B
  5
E59
331
A7A
  5
AC5
331
B4C
  5
BD4
331
11DE
  5
B73
331
11DA
  5
B6F
331
1219
  5
519
331
11D6
  5
B6B
331
13D
  5
186
331
C6
  5
112
331
11D2
  5
B67
331
C2
  5
101
331
135
  5
17C
331
11A6
  5
1188
331
BE
  5
100
331
11A2
  5
1184
331
131
  5
179
331
119E
  5
1180
331
D4D
  5
122F
331
119A
  5
117C
331
D49
  5
122B
331
BCA
  5
11E7
331
D45
  5
1227
331
BC6
  5
11E4
331
D41
  5
1223
331
BC2
  5
11DE
331
52F
  5
602
331
823
  5
912
331
311
  5
357
331
935
  5
A69
331
52B
  5
5A0
331
527
  5
53F
331
30D
  5
354
331
8F2
  5
A20
331
309
  5
352
331
81B
  5
910
331
A74
  5
ABF
331
523
  5
53B
331
92D
  5
A62
331
A70
  5
ABB
331
929
  5
A5A
331
D79
  5
A90
331
B87
  5
E55
331
B83
  5
D7B
331
AB1
  5
B5E
331
BBE
  5
11D5
331
AAD
  5
B5A
331
B7F
  5
D77
331
BBA
  5
11CE
331
AA9
  5
B56
331
B7B
  5
D73
331
120D
  5
81B
331
1209
  5
B9E
331
1244
  5
11EE
331
1205
  5
B9A
331
12D
  5
174
331
1240
  5
11F2
331
1201
  5
B96
331
776
  5
8EF
331
1196
  5
1178
331
18C
  5
2FC
331
1192
  5
1074
331
111
  5
172
331
118E
  5
ED1
331
11CD
  5
B62
331
11C9
  5
11AB
331
C79
  5
1221
331
D74
  5
A95
331
D70
  5
A99
331
8EE
  5
A1C
331
807
  5
90D
331
507
  5
539
331
A6C
  5
AB7
331
803
  5
90C
331
368
  5
4BE
331
925
  5
A57
331
364
  5
4AE
331
8B6
  5
A14
331
2FD
  5
313
331
A68
  5
AB3
331
4FF
  5
535
331
921
  5
A55
331
A64
  5
AAF
331
4FB
  5
531
331
360
  5
4A4
331
91D
  5
34E
331
A60
  5
AAB
331
919
  5
A1B
331
ED2
  5
1256
331
BB6
  5
11C2
331
AA5
  5
B52
331
AE4
  5
50D
331
B77
  5
D6F
331
BB2
  5
11BE
331
AA1
  5
B4E
331
AE0
  5
503
331
B73
  5
D6B
331
ADC
  5
BC9
331
BAE
  5
11BA
331
A9D
  5
B4A
331
B6F
  5
D66
331
AD8
  5
BC4
331
BAA
  5
11B6
331
A99
  5
AE5
331
123C
  5
11F6
331
B6B
  5
D5C
331
11FD
  5
B92
331
1238
  5
11FA
331
11F9
  5
B8E
331
1234
  5
1201
331
11F5
  5
B8A
331
184
  5
2F3
331
1230
  5
1203
331
11F1
  5
B86
331
101
  5
14E
331
17C
  5
206
331
11C5
  5
11A7
331
E5
  5
13D
331
1182
  5
11FF
331
11C1
  5
11A3
331
E1
  5
134
331
11BD
  5
119F
331
117A
  5
1207
331
11B9
  5
119B
331
ECF
  5
1253
331
D6C
  5
A9D
331
ECB
  5
124F
331
C69
  5
121D
331
D68
  5
AA1
331
EC7
  5
124B
331
D64
  5
AA5
331
EC3
  5
1247
331
C31
  5
1217
331
8AE
  5
936
331
35C
  5
49F
331
4EF
  5
52D
331
A5C
  5
AA7
331
602
  5
897
331
358
  5
367
331
915
  5
934
331
354
  5
363
331
8A6
  5
92C
331
205
  5
30C
331
911
  5
916
331
4E7
  5
517
331
8A2
  5
92A
331
350
  5
35F
331
90D
  5
92B
331
7B3
  5
902
331
909
  5
926
331
AD4
  5
BC0
331
782
  5
8FF
331
BA6
  5
11B2
331
A95
  5
AE1
331
B67
  5
D51
331
AD0
  5
BBB
331
B63
  5
D46
331
A91
  5
ADD
331
ACC
  5
BB7
331
125A
  5
E1
331
B9E
  5
ECD
331
A8D
  5
AD9
331
B5F
  5
D42
331
AC8
  5
BB3
331
B9A
  5
EC9
331
A89
  5
AD4
331
122C
  5
120A
331
B5B
  5
C79
331
11ED
  5
B82
331
1228
  5
1210
331
11E9
  5
B7E
331
1224
  5
1214
331
11E5
  5
B7A
331
174
  5
1EC
331
1220
  5
121C
331
11E1
  5
B76
331
11B5
  5
1197
331
CD
  5
12F
331
11B1
  5
1193
331
11AD
  5
118F
331
D5C
  5
1237
331
11A9
  5
118B
331
EBF
  5
1243
331
C2D
  5
1215
331
D50
  5
1232
331
E5B
  5
1240
331
BD1
  5
11EB
331
7AF
  5
901
331
53E
  5
619
331
89A
  5
923
331
53A
  5
615
331
A1C
  5
A85
331
4AB
  5
50F
331
905
  5
A16
331
896
  5
91E
331
1ED
  5
304
331
A18
  5
A80
331
77F
  5
8FC
331
536
  5
611
331
901
  5
915
331
330
  5
358
331
532
  5
605
331
1E9
  5
2FD
331
A14
  5
A77
331
4A3
  5
4FE
331
8FD
  5
A26
331
1256
  5
E3
331
AC4
  5
BAF
331
1252
  5
7B4
331
B96
  5
EC5
331
A85
  5
AD0
331
B57
  5
C69
331
AC0
  5
BAB
331
124E
  5
7FD
331
B92
  5
EC1
331
A81
  5
ACC
331
B53
  5
C2F
331
ABC
  5
BA7
331
124A
  5
823
331
B8E
  5
E5C
331
A7D
  5
AC8
331
B4F
  5
BE9
331
AB8
  5
BA3
331
B8A
  5
E58
331
A79
  5
AC4
331
B4B
  5
BD3
331
11DD
  5
B72
331
121C
  5
C4
331
11D9
  5
B6E
331
1218
  5
518
331
11D5
  5
B6A
331
1214
  5
7AF
331
13C
  5
184
331
11D1
  5
B66
331
11A5
  5
1187
331
134
  5
17B
331
11A1
  5
1183
331
119D
  5
117F
331
E57
  5
123C
331
D4C
  5
122E
331
1199
  5
117B
331
D48
  5
122A
331
BC9
  5
11E6
331
D44
  5
1226
331
DAF
  5
1239
331
BC5
  5
11E3
331
BC1
  5
11DD
331
52E
  5
5FD
331
49F
  5
4D7
331
934
  5
A68
331
52A
  5
559
331
310
  5
356
331
A77
  5
AC2
331
526
  5
53E
331
30C
  5
353
331
930
  5
A67
331
8F1
  5
A1F
331
A73
  5
ABE
331
522
  5
53A
331
92C
  5
A61
331
D7C
  5
A8D
331
928
  5
A59
331
D78
  5
A91
331
B86
  5
DAF
331
AB4
  5
B61
331
B82
  5
D7A
331
AB0
  5
B5D
331
BBD
  5
11D4
331
AAC
  5
B59
331
B7E
  5
D76
331
BB9
  5
11C5
331
AA8
  5
B55
331
B7A
  5
D72
331
120C
  5
807
331
1208
  5
B9D
331
1247
  5
893
331
1243
  5
11ED
331
1204
  5
B99
331
1200
  5
B95
331
1195
  5
1177
331
1191
  5
ED4
331
11CC
  5
11AE
331
11C8
  5
11AA
331
C78
  5
1220
331
D77
  5
A92
331
D73
  5
A96
331
8ED
  5
A19
331
304
  5
350
331
A6F
  5
ABA
331
506
  5
538
331
A6B
  5
AB6
331
802
  5
90A
331
367
  5
4BD
331
924
  5
A56
331
363
  5
4AD
331
7FE
  5
908
331
2FC
  5
312
331
A67
  5
AB2
331
4FE
  5
534
331
920
  5
A54
331
8B1
  5
A11
331
A63
  5
AAE
331
4FA
  5
530
331
91C
  5
34F
331
918
  5
A17
331
ED1
  5
1255
331
609
  5
8AB
331
BB5
  5
11C1
331
AA4
  5
B51
331
AE3
  5
507
331
B76
  5
D6E
331
BB1
  5
11BD
331
AA0
  5
B4D
331
ADF
  5
500
331
B72
  5
D6A
331
ADB
  5
BC7
331
BAD
  5
11B9
331
A9C
  5
B49
331
123F
  5
11F1
331
B6E
  5
D65
331
BA9
  5
11B5
331
A98
  5
AE4
331
123B
  5
11F5
331
B6A
  5
D5B
331
11FC
  5
B91
331
1237
  5
11F9
331
11F8
  5
B8D
331
1233
  5
1200
331
11F4
  5
B89
331
1075
  5
125A
331
11F0
  5
B85
331
100
  5
14D
331
17B
  5
205
331
11C4
  5
11A6
331
E4
  5
13C
331
1181
  5
11FE
331
11C0
  5
11A2
331
E0
  5
133
331
11BC
  5
119E
331
D6F
  5
A9A
331
11B8
  5
119A
331
ECE
  5
1252
331
D6B
  5
A9E
331
ECA
  5
124E
331
D67
  5
AA2
331
EC6
  5
124A
331
D63
  5
AA6
331
EC2
  5
1246
331
35F
  5
4A3
331
605
  5
89D
331
35B
  5
36A
331
A5F
  5
AAA
331
4EE
  5
52C
331
914
  5
92E
331
357
  5
366
331
910
  5
935
331
353
  5
362
331
A2B
  5
A8B
331
8A1
  5
927
331
90C
  5
92D
331
908
  5
906
331
AD7
  5
BC3
331
AD3
  5
BBF
331
781
  5
8FD
331
BA5
  5
11B1
331
A94
  5
AE0
331
B66
  5
D50
331
ACF
  5
BBA
331
BA1
  5
ED0
331
A90
  5
ADC
331
B62
  5
D45
331
ACB
  5
BB6
331
1259
  5
E0
331
B9D
  5
ECC
331
A8C
  5
AD8
331
122F
  5
1206
331
B5E
  5
D41
331
B99
  5
EC8
331
A88
  5
AD3
331
122B
  5
120F
331
B5A
  5
C78
331
11EC
  5
B81
331
1227
  5
1213
331
11E8
  5
B7D
331
177
  5
1ED
331
1223
  5
121B
331
11E4
  5
B79
331
173
  5
1EB
331
D4
  5
131
331
11E0
  5
B75
331
11B4
  5
1196
331
CC
  5
12D
331
11B0
  5
1192
331
11AC
  5
118E
331
D5B
  5
1236
331
11A8
  5
118A
331
D53
  5
1235
331
E5A
  5
123F
331
BD0
  5
11EA
331
34F
  5
35E
331
89D
  5
925
331
A1F
  5
A88
331
53D
  5
618
331
899
  5
920
331
1F0
  5
309
331
539
  5
614
331
A1B
  5
A84
331
4AA
  5
4FF
331
904
  5
90B
331
333
  5
35A
331
895
  5
91C
331
1EC
  5
303
331
A17
  5
A7F
331
77E
  5
8FB
331
535
  5
610
331
900
  5
924
331
A13
  5
A76
331
77A
  5
8F8
331
531
  5
604
331
8FC
  5
A25
331
8F8
  5
A22
331
AC7
  5
BB2
331
1255
  5
E2
331
AC3
  5
BAE
331
1251
  5
7B3
331
559
  5
777
331
B95
  5
EC4
331
A84
  5
ACF
331
B56
  5
C33
331
ABF
  5
BAA
331
124D
  5
803
331
B91
  5
EC0
331
A80
  5
ACB
331
B52
  5
C2D
331
ABB
  5
BA6
331
1249
  5
895
331
B8D
  5
E5B
331
A7C
  5
AC7
331
B4E
  5
BD6
331
B89
  5
E57
331
A78
  5
AC3
331
B4A
  5
BD2
331
11DC
  5
B71
331
121B
  5
C2
331
11D8
  5
B6D
331
11D4
  5
B69
331
1213
  5
784
331
C4
  5
111
331
11D0
  5
B65
331
11A4
  5
1186
331
133
  5
17A
331
11A0
  5
1182
331
D4F
  5
1231
331
119C
  5
117E
331
E56
  5
123B
331
D4B
  5
122D
331
1198
  5
117A
331
D47
  5
1229
331
D43
  5
1225
331
DAE
  5
1238
331
BC4
  5
11E2
331
BC0
  5
11DC
  0
XRECORD
  5
1261
102
{ACAD_REACTORS
330
125F
102
}
330
125F
100
AcDbXrecord
280
     1
 70
     2
  0
XRECORD
  5
1260
102
{ACAD_REACTORS
330
125F
102
}
330
125F
100
AcDbXrecord
280
     1
 40
1.25
  0
XRECORD
  5
1262
102
{ACAD_REACTORS
330
125F
102
}
330
125F
100
AcDbXrecord
280
     1
 40
1.570796326794896
  0
LAYOUT
  5
39
102
{ACAD_XDICTIONARY
360
1286
102
}
102
{ACAD_REACTORS
330
2E
102
}
330
2E
100
AcDbPlotSettings
  1

  2
PDF Complete
  4
A4
  6

 40
3.174999952316281
 41
3.174999952316281
 42
3.175003051757812
 43
3.17498779296875
 44
209.9733276367186
 45
297.0106506347656
 46
0.0
 47
0.0
 48
0.0
 49
0.0
140
0.0
141
0.0
142
1.0
143
25.97104414045932
 70
 11952
 72
     0
 73
     1
 74
     0
  7

 75
     0
147
0.0385044203302607
148
3426.289066533589
149
18452.49566822123
100
AcDbLayout
  1
Model
 70
     1
 71
     0
 10
0.0
 20
0.0
 11
12.0
 21
9.0
 12
0.0
 22
0.0
 32
0.0
 14
0.0
 24
0.0
 34
0.0
 15
0.0
 25
0.0
 35
0.0
146
0.0
 13
0.0
 23
0.0
 33
0.0
 16
1.0
 26
0.0
 36
0.0
 17
0.0
 27
1.0
 37
0.0
 76
     0
330
36
331
56
1001
ACAD_PSEXT
1000
PDF Complete
1000
PDF Complete Converter
1000
PDFC
1000
PDF Document Creator
1070
     0
  0
LAYOUT
  5
35
102
{ACAD_XDICTIONARY
360
1284
102
}
102
{ACAD_REACTORS
330
2E
102
}
330
2E
100
AcDbPlotSettings
  1

  2
PDF Complete
  4

  6

 40
0.0
 41
0.0
 42
0.0
 43
0.0
 44
0.0
 45
0.0
 46
0.0
 47
0.0
 48
0.0
 49
0.0
140
0.0
141
0.0
142
1.0
143
1.0
 70
   688
 72
     0
 73
     0
 74
     5
  7

 75
    16
147
1.0
148
0.0
149
0.0
100
AcDbLayout
  1
レイアウト1
 70
     1
 71
     1
 10
0.0
 20
0.0
 11
12.0
 21
9.0
 12
0.0
 22
0.0
 32
0.0
 14
1.000000000000000E+20
 24
1.000000000000000E+20
 34
1.000000000000000E+20
 15
-1.000000000000000E+20
 25
-1.000000000000000E+20
 35
-1.000000000000000E+20
146
0.0
 13
0.0
 23
0.0
 33
0.0
 16
1.0
 26
0.0
 36
0.0
 17
0.0
 27
1.0
 37
0.0
 76
     0
330
32
  0
MATERIAL
  5
12
102
{ACAD_XDICTIONARY
360
C96
102
}
102
{ACAD_REACTORS
330
10
102
}
330
10
100
AcDbMaterial
  1
ByBlock
  0
MATERIAL
  5
11
102
{ACAD_XDICTIONARY
360
C94
102
}
102
{ACAD_REACTORS
330
10
102
}
330
10
100
AcDbMaterial
  1
ByLayer
  0
MATERIAL
  5
13
102
{ACAD_XDICTIONARY
360
C98
102
}
102
{ACAD_REACTORS
330
10
102
}
330
10
100
AcDbMaterial
  1
Global
  0
MLEADERSTYLE
  5
CC3
102
{ACAD_REACTORS
330
CC2
102
}
330
CC2
100
AcDbMLeaderStyle
170
     2
171
     1
172
     0
 90
        2
 40
0.0
 41
0.0
173
     1
 91
-1056964608
340
28
 92
       -2
290
     1
 42
0.09
291
     1
 43
0.36
  3
Standard
 44
0.18
300

342
26
174
     1
178
     6
175
     1
176
     0
 93
-1056964608
 45
0.18
292
     0
297
     0
 46
0.18
 94
-1056964608
 47
1.0
 49
1.0
140
1.0
293
     1
141
0.0
294
     1
177
     0
142
1.0
295
     0
296
     0
143
0.125
1001
ACAD_MLEADERVER
1070
     2
  0
MLINESTYLE
  5
2C
102
{ACAD_REACTORS
330
2B
102
}
330
2B
100
AcDbMlineStyle
  2
STANDARD
 70
     0
  3

 62
   256
 51
90.0
 52
90.0
 71
     2
 49
0.5
 62
   256
  6
BYLAYER
 49
-0.5
 62
   256
  6
BYLAYER
  0
ACDBPLACEHOLDER
  5
F
102
{ACAD_REACTORS
330
E
102
}
330
E
  0
SCALE
  5
CB1
102
{ACAD_REACTORS
330
CB0
102
}
330
CB0
100
AcDbScale
 70
     0
300
1:1
140
1.0
141
1.0
290
     1
  0
SCALE
  5
CB2
102
{ACAD_REACTORS
330
CB0
102
}
330
CB0
100
AcDbScale
 70
     0
300
1/128" = 1'-0"
140
0.0078125
141
12.0
290
     0
  0
SCALE
  5
CB3
102
{ACAD_REACTORS
330
CB0
102
}
330
CB0
100
AcDbScale
 70
     0
300
1/64" = 1'-0"
140
0.015625
141
12.0
290
     0
  0
SCALE
  5
CB4
102
{ACAD_REACTORS
330
CB0
102
}
330
CB0
100
AcDbScale
 70
     0
300
1/32" = 1'-0"
140
0.03125
141
12.0
290
     0
  0
SCALE
  5
CB5
102
{ACAD_REACTORS
330
CB0
102
}
330
CB0
100
AcDbScale
 70
     0
300
1/16" = 1'-0"
140
0.0625
141
12.0
290
     0
  0
SCALE
  5
CB6
102
{ACAD_REACTORS
330
CB0
102
}
330
CB0
100
AcDbScale
 70
     0
300
3/32" = 1'-0"
140
0.09375
141
12.0
290
     0
  0
SCALE
  5
CB7
102
{ACAD_REACTORS
330
CB0
102
}
330
CB0
100
AcDbScale
 70
     0
300
1/8" = 1'-0"
140
0.125
141
12.0
290
     0
  0
SCALE
  5
CB8
102
{ACAD_REACTORS
330
CB0
102
}
330
CB0
100
AcDbScale
 70
     0
300
3/16" = 1'-0"
140
0.1875
141
12.0
290
     0
  0
SCALE
  5
CB9
102
{ACAD_REACTORS
330
CB0
102
}
330
CB0
100
AcDbScale
 70
     0
300
1/4" = 1'-0"
140
0.25
141
12.0
290
     0
  0
SCALE
  5
CBA
102
{ACAD_REACTORS
330
CB0
102
}
330
CB0
100
AcDbScale
 70
     0
300
3/8" = 1'-0"
140
0.375
141
12.0
290
     0
  0
SCALE
  5
CBB
102
{ACAD_REACTORS
330
CB0
102
}
330
CB0
100
AcDbScale
 70
     0
300
1/2" = 1'-0"
140
0.5
141
12.0
290
     0
  0
SCALE
  5
CBC
102
{ACAD_REACTORS
330
CB0
102
}
330
CB0
100
AcDbScale
 70
     0
300
3/4" = 1'-0"
140
0.75
141
12.0
290
     0
  0
SCALE
  5
CBD
102
{ACAD_REACTORS
330
CB0
102
}
330
CB0
100
AcDbScale
 70
     0
300
1" = 1'-0"
140
1.0
141
12.0
290
     0
  0
SCALE
  5
CBE
102
{ACAD_REACTORS
330
CB0
102
}
330
CB0
100
AcDbScale
 70
     0
300
1-1/2" = 1'-0"
140
1.5
141
12.0
290
     0
  0
SCALE
  5
CBF
102
{ACAD_REACTORS
330
CB0
102
}
330
CB0
100
AcDbScale
 70
     0
300
3" = 1'-0"
140
3.0
141
12.0
290
     0
  0
SCALE
  5
CC0
102
{ACAD_REACTORS
330
CB0
102
}
330
CB0
100
AcDbScale
 70
     0
300
6" = 1'-0"
140
6.0
141
12.0
290
     0
  0
SCALE
  5
CC1
102
{ACAD_REACTORS
330
CB0
102
}
330
CB0
100
AcDbScale
 70
     0
300
1'-0" = 1'-0"
140
12.0
141
12.0
290
     0
  0
TABLESTYLE
  5
31
102
{ACAD_XDICTIONARY
360
DBD
102
}
102
{ACAD_REACTORS
330
30
102
}
330
30
100
AcDbTableStyle
  3
Standard
 70
     0
 71
     0
 40
0.06
 41
0.06
280
     0
281
     0
  7
STANDARD
140
0.18
170
     2
 62
     0
 63
     7
283
     0
274
    -2
284
     1
 64
     0
275
    -2
285
     1
 65
     0
276
    -2
286
     1
 66
     0
277
    -2
287
     1
 67
     0
278
    -2
288
     1
 68
     0
279
    -2
289
     1
 69
     0
  7
STANDARD
140
0.25
170
     5
 62
     0
 63
     7
283
     0
274
    -2
284
     1
 64
     0
275
    -2
285
     1
 65
     0
276
    -2
286
     1
 66
     0
277
    -2
287
     1
 67
     0
278
    -2
288
     1
 68
     0
279
    -2
289
     1
 69
     0
  7
STANDARD
140
0.18
170
     5
 62
     0
 63
     7
283
     0
274
    -2
284
     1
 64
     0
275
    -2
285
     1
 65
     0
276
    -2
286
     1
 66
     0
277
    -2
287
     1
 67
     0
278
    -2
288
     1
 68
     0
279
    -2
289
     1
 69
     0
  0
TABLESTYLE
  5
E9E
102
{ACAD_XDICTIONARY
360
E9F
102
}
102
{ACAD_REACTORS
330
30
102
}
330
30
100
AcDbTableStyle
  3
Standard
 70
     1
 71
     0
 40
1.5
 41
0.5
280
     0
281
     0
  7
高3.2
140
0.18
170
     7
 62
     3
 63
     7
283
     0
274
    -2
284
     1
 64
     3
275
    -2
285
     1
 65
     7
276
    -2
286
     1
 66
     3
277
    -2
287
     1
 67
     3
278
    -2
288
     1
 68
     7
279
    -2
289
     1
 69
     3
  7
高3.2
140
0.25
170
     8
 62
     3
 63
     7
283
     0
274
    -2
284
     1
 64
     0
275
    -2
285
     1
 65
     0
276
    -2
286
     1
 66
     0
277
    -2
287
     1
 67
     0
278
    -2
288
     1
 68
     0
279
    -2
289
     1
 69
     0
  7
高3.2
140
0.18
170
     7
 62
     3
 63
     7
283
     0
274
    -2
284
     1
 64
     3
275
    -2
285
     1
 65
     7
276
    -2
286
     1
 66
     3
277
    -2
287
     1
 67
     3
278
    -2
288
     1
 68
     7
279
    -2
289
     1
 69
     3
  0
VISUALSTYLE
  5
1A
102
{ACAD_XDICTIONARY
360
126D
102
}
102
{ACAD_REACTORS
330
14
102
}
330
14
100
AcDbVisualStyle
  2

 70
     4
 71
     0
 72
     2
 73
     0
 90
        0
 40
-0.6
 41
-30.0
 62
     5
 63
     7
 74
     1
 91
        4
 64
     7
 65
   257
 75
     1
175
     1
 42
1.0
 92
        0
 66
   257
 43
1.0
 76
     1
 77
     6
 78
     2
 67
     7
 79
     5
170
     0
171
     0
290
     0
174
     0
 93
        1
 44
0.0
173
     0
291
     0
 45
0.0
1001
ACAD
1000
AcDbSavedByObjectVersion
1070
     0
  0
VISUALSTYLE
  5
1C
102
{ACAD_XDICTIONARY
360
1271
102
}
102
{ACAD_REACTORS
330
14
102
}
330
14
100
AcDbVisualStyle
  2

 70
     6
 71
     1
 72
     2
 73
     2
 90
        0
 40
-0.6
 41
-30.0
 62
     5
 63
     7
 74
     2
 91
        2
 64
     7
 65
   257
 75
     2
175
     1
 42
40.0
 92
        0
 66
   257
 43
1.0
 76
     1
 77
     6
 78
     2
 67
     7
 79
     3
170
     0
171
     0
290
     0
174
     0
 93
        1
 44
0.0
173
     0
291
     0
 45
0.0
1001
ACAD
1000
AcDbSavedByObjectVersion
1070
     0
  0
VISUALSTYLE
  5
1B
102
{ACAD_XDICTIONARY
360
126F
102
}
102
{ACAD_REACTORS
330
14
102
}
330
14
100
AcDbVisualStyle
  2

 70
     5
 71
     0
 72
     2
 73
     0
 90
        0
 40
-0.6
 41
-30.0
 62
     5
 63
     7
 74
     1
 91
        4
 64
     7
 65
   257
 75
     1
175
     1
 42
1.0
 92
        0
 66
   257
 43
1.0
 76
     1
 77
     6
 78
     2
 67
     7
 79
     5
170
     0
171
     0
290
     0
174
     0
 93
        1
 44
0.0
173
     0
291
     0
 45
0.0
1001
ACAD
1000
AcDbSavedByObjectVersion
1070
     0
  0
VISUALSTYLE
  5
19
102
{ACAD_XDICTIONARY
360
126B
102
}
102
{ACAD_REACTORS
330
14
102
}
330
14
100
AcDbVisualStyle
  2

 70
     7
 71
     1
 72
     0
 73
     1
 90
        0
 40
-0.6
 41
-30.0
 62
     5
 63
     7
 74
     0
 91
        4
 64
     7
 65
   257
 75
     1
175
     1
 42
1.0
 92
        8
 66
     7
 43
1.0
 76
     1
 77
     6
 78
     2
 67
     7
 79
     5
170
     0
171
     0
290
     0
174
     0
 93
        1
 44
0.0
173
     0
291
     1
 45
0.0
1001
ACAD
1000
AcDbSavedByObjectVersion
1070
     0
  0
VISUALSTYLE
  5
20
102
{ACAD_XDICTIONARY
360
1279
102
}
102
{ACAD_REACTORS
330
14
102
}
330
14
100
AcDbVisualStyle
  2

 70
    12
 71
     2
 72
     2
 73
     0
 90
        0
 40
-0.6
 41
-30.0
 62
     5
 63
     7
 74
     1
 91
        4
 64
     7
 65
   257
 75
     1
175
     1
 42
1.0
 92
        8
 66
     7
 43
1.0
 76
     1
 77
     6
 78
     2
 67
     7
 79
     5
170
     0
171
     0
290
     0
174
     0
 93
        1
 44
50.0
173
     0
291
     1
 45
0.0
1001
ACAD
1000
AcDbSavedByObjectVersion
1070
     0
  0
VISUALSTYLE
  5
24
102
{ACAD_XDICTIONARY
360
1281
102
}
102
{ACAD_REACTORS
330
14
102
}
330
14
100
AcDbVisualStyle
  2

 70
    16
 71
     2
 72
     2
 73
     3
 90
        0
 40
-0.6
 41
-30.0
 62
     5
 63
     8
 74
     1
 91
        4
 64
     7
 65
   257
 75
     1
175
     1
 42
1.0
 92
        8
 66
     8
 43
1.0
 76
     1
 77
     6
 78
     2
 67
     7
 79
     5
170
     0
171
     0
290
     0
174
     0
 93
        1
 44
0.0
173
     0
291
     1
 45
0.0
1001
ACAD
1000
AcDbSavedByObjectVersion
1070
     0
  0
VISUALSTYLE
  5
1D
102
{ACAD_XDICTIONARY
360
1273
102
}
102
{ACAD_REACTORS
330
14
102
}
330
14
100
AcDbVisualStyle
  2

 70
     9
 71
     3
 72
     2
 73
     0
 90
        0
 40
-0.6
 41
-30.0
 62
     5
 63
     7
 74
     2
 91
        2
 64
     7
 65
   257
 75
     1
175
     1
 42
40.0
 92
        8
 66
     7
 43
1.0
 76
     1
 77
     6
 78
     2
 67
     7
 79
     3
170
     0
171
     0
290
     0
174
     0
 93
        1
 44
0.0
173
     0
291
     0
 45
0.0
1001
ACAD
1000
AcDbSavedByObjectVersion
1070
     0
  0
VISUALSTYLE
  5
1F
102
{ACAD_XDICTIONARY
360
1277
102
}
102
{ACAD_REACTORS
330
14
102
}
330
14
100
AcDbVisualStyle
  2

 70
    11
 71
     2
 72
     2
 73
     0
 90
        0
 40
-0.6
 41
-30.0
 62
     5
 63
     7
 74
     1
 91
        4
 64
     7
 65
   257
 75
     1
175
     1
 42
1.0
 92
        8
 66
     7
 43
1.0
 76
     1
 77
     6
 78
     2
 67
     7
 79
     5
170
     0
171
     0
290
     0
174
     0
 93
        1
 44
-50.0
173
     0
291
     1
 45
0.0
1001
ACAD
1000
AcDbSavedByObjectVersion
1070
     0
  0
VISUALSTYLE
  5
CAF
102
{ACAD_XDICTIONARY
360
129A
102
}
102
{ACAD_REACTORS
330
14
102
}
330
14
100
AcDbVisualStyle
  2

 70
    22
 71
     2
 72
     2
 73
     0
 90
        0
 40
-0.6
 41
-30.0
 62
     5
 63
     7
 74
     1
 91
        4
 64
     7
 65
   257
 75
     1
175
     1
 42
1.0
 92
        8
 66
     7
 43
1.0
 76
     1
 77
     6
 78
     2
 67
     7
 79
     5
170
     0
171
     0
290
     0
174
     0
 93
        1
 44
0.0
173
     0
291
     1
 45
0.0
1001
ACAD
1000
AcDbSavedByObjectVersion
1070
     0
  0
VISUALSTYLE
  5
23
102
{ACAD_XDICTIONARY
360
127F
102
}
102
{ACAD_REACTORS
330
14
102
}
330
14
100
AcDbVisualStyle
  2

 70
    15
 71
     2
 72
     2
 73
     0
 90
        0
 40
-0.6
 41
-30.0
 62
     5
 63
     7
 74
     1
 91
        4
 64
     7
 65
   257
 75
     1
175
     1
 42
1.0
 92
        8
 66
     7
 43
1.0
 76
     1
 77
     6
 78
     2
 67
     7
 79
     5
170
     0
171
     0
290
     0
174
     0
 93
        1
 44
0.0
173
     0
291
     1
 45
0.0
1001
ACAD
1000
AcDbSavedByObjectVersion
1070
     0
  0
VISUALSTYLE
  5
15
102
{ACAD_XDICTIONARY
360
1263
102
}
102
{ACAD_REACTORS
330
14
102
}
330
14
100
AcDbVisualStyle
  2

 70
     0
 71
     2
 72
     1
 73
     1
 90
        2
 40
-0.6
 41
30.0
 62
     5
 63
     7
 74
     0
 91
        4
 64
     7
 65
   257
 75
     1
175
     1
 42
1.0
 92
        8
 66
     7
 43
1.0
 76
     1
 77
     6
 78
     2
 67
     7
 79
     5
170
     0
171
     0
290
     0
174
     0
 93
       13
 44
0.0
173
     0
291
     1
 45
0.0
1001
ACAD
1000
AcDbSavedByObjectVersion
1070
     0
  0
VISUALSTYLE
  5
16
102
{ACAD_XDICTIONARY
360
1265
102
}
102
{ACAD_REACTORS
330
14
102
}
330
14
100
AcDbVisualStyle
  2

 70
     1
 71
     2
 72
     1
 73
     1
 90
        2
 40
-0.6
 41
30.0
 62
     5
 63
     7
 74
     1
 91
        4
 64
     7
 65
   257
 75
     1
175
     1
 42
1.0
 92
        0
 66
   257
 43
1.0
 76
     1
 77
     6
 78
     2
 67
     7
 79
     5
170
     0
171
     0
290
     0
174
     0
 93
       13
 44
0.0
173
     0
291
     1
 45
0.0
1001
ACAD
1000
AcDbSavedByObjectVersion
1070
     0
  0
VISUALSTYLE
  5
17
102
{ACAD_XDICTIONARY
360
1267
102
}
102
{ACAD_REACTORS
330
14
102
}
330
14
100
AcDbVisualStyle
  2

 70
     2
 71
     2
 72
     2
 73
     1
 90
        2
 40
-0.6
 41
30.0
 62
     5
 63
     7
 74
     0
 91
        4
 64
     7
 65
   257
 75
     1
175
     1
 42
1.0
 92
        0
 66
     7
 43
1.0
 76
     1
 77
     6
 78
     2
 67
     7
 79
     5
170
     0
171
     0
290
     0
174
     0
 93
       13
 44
0.0
173
     0
291
     1
 45
0.0
1001
ACAD
1000
AcDbSavedByObjectVersion
1070
     0
  0
VISUALSTYLE
  5
18
102
{ACAD_XDICTIONARY
360
1269
102
}
102
{ACAD_REACTORS
330
14
102
}
330
14
100
AcDbVisualStyle
  2

 70
     3
 71
     2
 72
     2
 73
     1
 90
        2
 40
-0.6
 41
30.0
 62
     5
 63
     7
 74
     1
 91
        4
 64
     7
 65
   257
 75
     1
175
     1
 42
1.0
 92
        0
 66
   257
 43
1.0
 76
     1
 77
     6
 78
     2
 67
     7
 79
     5
170
     0
171
     0
290
     0
174
     0
 93
       13
 44
0.0
173
     0
291
     1
 45
0.0
1001
ACAD
1000
AcDbSavedByObjectVersion
1070
     0
  0
VISUALSTYLE
  5
CA7
102
{ACAD_XDICTIONARY
360
128A
102
}
102
{ACAD_REACTORS
330
14
102
}
330
14
100
AcDbVisualStyle
  2

 70
     6
 71
     1
 72
     2
 73
     2
 90
        0
 40
-0.6
 41
-30.0
 62
     5
 63
     7
 74
     2
 91
        2
 64
     7
 65
   257
 75
     2
175
     1
 42
40.0
 92
        0
 66
   257
 43
1.0
 76
     1
 77
     6
 78
     2
 67
     7
 79
     3
170
     0
171
     0
290
     0
174
     0
 93
        1
 44
0.0
173
     0
291
     0
 45
0.0
1001
ACAD
1000
AcDbSavedByObjectVersion
1070
     0
  0
VISUALSTYLE
  5
CAD
102
{ACAD_XDICTIONARY
360
1296
102
}
102
{ACAD_REACTORS
330
14
102
}
330
14
100
AcDbVisualStyle
  2

 70
    20
 71
     2
 72
     2
 73
     0
 90
        0
 40
-0.6
 41
-30.0
 62
     5
 63
     7
 74
     1
 91
        4
 64
     7
 65
   257
 75
     1
175
     1
 42
1.0
 92
       10
 66
     7
 43
1.0
 76
     1
 77
     6
 78
     2
 67
     7
 79
     5
170
     0
171
     0
290
     0
174
     0
 93
        1
 44
0.0
173
     0
291
     1
 45
0.0
1001
ACAD
1000
AcDbSavedByObjectVersion
1070
     0
  0
VISUALSTYLE
  5
22
102
{ACAD_XDICTIONARY
360
127D
102
}
102
{ACAD_REACTORS
330
14
102
}
330
14
100
AcDbVisualStyle
  2

 70
    14
 71
     2
 72
     2
 73
     0
 90
        0
 40
-0.6
 41
-30.0
 62
     5
 63
     7
 74
     1
 91
        4
 64
     7
 65
   257
 75
     7
175
     7
 42
1.0
 92
        8
 66
     7
 43
1.0
 76
     1
 77
     6
 78
     2
 67
     7
 79
     5
170
     0
171
     0
290
     0
174
     0
 93
        1
 44
0.0
173
     0
291
     1
 45
0.0
1001
ACAD
1000
AcDbSavedByObjectVersion
1070
     0
  0
VISUALSTYLE
  5
CAE
102
{ACAD_XDICTIONARY
360
1298
102
}
102
{ACAD_REACTORS
330
14
102
}
330
14
100
AcDbVisualStyle
  2

 70
    21
 71
     2
 72
     2
 73
     0
 90
        0
 40
-0.6
 41
-30.0
 62
     5
 63
     7
 74
     1
 91
        4
 64
     7
 65
   257
 75
     1
175
     1
 42
1.0
 92
        9
 66
     7
 43
1.0
 76
     1
 77
     6
 78
     2
 67
     7
 79
     5
170
     0
171
     0
290
     0
174
     0
 93
        1
 44
0.0
173
     0
291
     1
 45
0.0
1001
ACAD
1000
AcDbSavedByObjectVersion
1070
     0
  0
VISUALSTYLE
  5
1E
102
{ACAD_XDICTIONARY
360
1275
102
}
102
{ACAD_REACTORS
330
14
102
}
330
14
100
AcDbVisualStyle
  2

 70
     8
 71
     2
 72
     2
 73
     0
 90
        0
 40
-0.6
 41
-30.0
 62
     5
 63
     7
 74
     1
 91
        0
 64
     7
 65
   257
 75
     1
175
     1
 42
1.0
 92
        8
 66
     8
 43
1.0
 76
     1
 77
     6
 78
     2
 67
     7
 79
     5
170
     0
171
     0
290
     0
174
     0
 93
       13
 44
0.0
173
     0
291
     0
 45
0.0
1001
ACAD
1000
AcDbSavedByObjectVersion
1070
     0
  0
VISUALSTYLE
  5
CAC
102
{ACAD_XDICTIONARY
360
1294
102
}
102
{ACAD_REACTORS
330
14
102
}
330
14
100
AcDbVisualStyle
  2

 70
    27
 71
     2
 72
     2
 73
     1
 90
        2
 40
-0.6
 41
30.0
 62
     5
 63
     7
 74
     0
 91
        4
 64
     7
 65
   257
 75
     1
175
     1
 42
1.0
 92
        8
 66
   257
 43
1.0
 76
     1
 77
     6
 78
     2
 67
     8
 79
     3
170
     0
171
     0
290
     0
174
     0
 93
        5
 44
0.0
173
     0
291
     0
 45
0.0
1001
ACAD
1000
AcDbSavedByObjectVersion
1070
     0
  0
VISUALSTYLE
  5
CAB
102
{ACAD_XDICTIONARY
360
1292
102
}
102
{ACAD_REACTORS
330
14
102
}
330
14
100
AcDbVisualStyle
  2

 70
    26
 71
     2
 72
     2
 73
     1
 90
        2
 40
-0.6
 41
30.0
 62
     5
 63
     7
 74
     1
 91
       10
 64
     7
 65
   257
 75
     2
175
     1
 42
1.0
 92
        8
 66
   257
 43
1.0
 76
     1
 77
     6
 78
     2
 67
     7
 79
     3
170
     0
171
     0
290
     0
174
     0
 93
        5
 44
0.0
173
     0
291
     0
 45
0.0
1001
ACAD
1000
AcDbSavedByObjectVersion
1070
     0
  0
VISUALSTYLE
  5
CA8
102
{ACAD_XDICTIONARY
360
128C
102
}
102
{ACAD_REACTORS
330
14
102
}
330
14
100
AcDbVisualStyle
  2

 70
    23
 71
     2
 72
     2
 73
     3
 90
        0
 40
-0.6
 41
-30.0
 62
     5
 63
     7
 74
     2
 91
        2
 64
     7
 65
     7
 75
     1
175
     1
 42
40.0
 92
        8
 66
     7
 43
1.0
 76
     1
 77
     6
 78
     2
 67
     7
 79
     3
170
     0
171
     0
290
     0
174
     0
 93
        1
 44
0.0
173
     0
291
     0
 45
0.0
1001
ACAD
1000
AcDbSavedByObjectVersion
1070
     0
  0
VISUALSTYLE
  5
CA9
102
{ACAD_XDICTIONARY
360
128E
102
}
102
{ACAD_REACTORS
330
14
102
}
330
14
100
AcDbVisualStyle
  2

 70
    24
 71
     1
 72
     2
 73
     2
 90
        0
 40
-0.6
 41
-30.0
 62
     5
 63
     7
 74
     2
 91
        2
 64
     7
 65
     7
 75
     1
175
     1
 42
40.0
 92
       11
 66
     7
 43
1.0
 76
     1
 77
     6
 78
     2
 67
     7
 79
     6
170
     0
171
     0
290
     0
174
     0
 93
        1
 44
0.0
173
     0
291
     0
 45
0.0
1001
ACAD
1000
AcDbSavedByObjectVersion
1070
     0
  0
VISUALSTYLE
  5
21
102
{ACAD_XDICTIONARY
360
127B
102
}
102
{ACAD_REACTORS
330
14
102
}
330
14
100
AcDbVisualStyle
  2

 70
    13
 71
     2
 72
     2
 73
     0
 90
        0
 40
-0.6
 41
-30.0
 62
     5
 63
     7
 74
     1
 91
        4
 64
     7
 65
   257
 75
     1
175
     1
 42
1.0
 92
       12
 66
     7
 43
1.0
 76
     1
 77
     6
 78
     2
 67
     7
 79
     5
170
     0
171
     0
290
     0
174
     0
 93
        1
 44
0.0
173
     0
291
     1
 45
0.0
1001
ACAD
1000
AcDbSavedByObjectVersion
1070
     0
  0
VISUALSTYLE
  5
CA6
102
{ACAD_XDICTIONARY
360
1288
102
}
102
{ACAD_REACTORS
330
14
102
}
330
14
100
AcDbVisualStyle
  2

 70
     5
 71
     0
 72
     2
 73
     0
 90
        0
 40
-0.6
 41
-30.0
 62
     5
 63
     7
 74
     1
 91
        4
 64
     7
 65
   257
 75
     1
175
     1
 42
1.0
 92
        0
 66
   257
 43
1.0
 76
     1
 77
     6
 78
     2
 67
     7
 79
     3
170
     0
171
     0
290
     0
174
     0
 93
        1
 44
0.0
173
     0
291
     0
 45
0.0
1001
ACAD
1000
AcDbSavedByObjectVersion
1070
     0
  0
VISUALSTYLE
  5
CAA
102
{ACAD_XDICTIONARY
360
1290
102
}
102
{ACAD_REACTORS
330
14
102
}
330
14
100
AcDbVisualStyle
  2

 70
    25
 71
     2
 72
     2
 73
     1
 90
        1
 40
0.5
 41
-30.0
 62
     5
 63
     7
 74
     1
 91
        0
 64
     7
 65
   257
 75
     1
175
     1
 42
1.0
 92
        8
 66
     7
 43
1.0
 76
     1
 77
     6
 78
     2
 67
     7
 79
     3
170
     0
171
     0
290
     0
174
     0
 93
       13
 44
0.0
173
     0
291
     0
 45
0.0
1001
ACAD
1000
AcDbSavedByObjectVersion
1070
     0
  0
DICTIONARYVAR
  5
DBB
102
{ACAD_REACTORS
330
544
102
}
330
544
100
DictionaryVariables
280
     0
  1
1:1
  0
DICTIONARYVAR
  5
DBA
102
{ACAD_REACTORS
330
544
102
}
330
544
100
DictionaryVariables
280
     0
  1
STANDARD
  0
DICTIONARYVAR
  5
545
102
{ACAD_REACTORS
330
544
102
}
330
544
100
DictionaryVariables
280
     0
  1
STANDARD
  0
DICTIONARYVAR
  5
C8E
102
{ACAD_REACTORS
330
544
102
}
330
544
100
DictionaryVariables
280
     0
  1
1
  0
DICTIONARYVAR
  5
C8D
102
{ACAD_REACTORS
330
544
102
}
330
544
100
DictionaryVariables
280
     0
  1
0
  0
DICTIONARYVAR
  5
C8C
102
{ACAD_REACTORS
330
544
102
}
330
544
100
DictionaryVariables
280
     0
  1
127
  0
DICTIONARYVAR
  5
112B
102
{ACAD_REACTORS
330
544
102
}
330
544
100
DictionaryVariables
280
     0
  1
2
  0
DICTIONARY
  5
1286
330
39
100
AcDbDictionary
280
     1
281
     1
  3
ACAD_XREC_ROUNDTRIP
360
1287
  0
DICTIONARY
  5
1284
330
35
100
AcDbDictionary
280
     1
281
     1
  3
ACAD_XREC_ROUNDTRIP
360
1285
  0
DICTIONARY
  5
C96
330
12
100
AcDbDictionary
280
     1
281
     1
  3
ACAD_XREC_ROUNDTRIP
360
C97
  0
DICTIONARY
  5
C94
330
11
100
AcDbDictionary
280
     1
281
     1
  3
ACAD_XREC_ROUNDTRIP
360
C95
  0
DICTIONARY
  5
C98
330
13
100
AcDbDictionary
280
     1
281
     1
  3
ACAD_XREC_ROUNDTRIP
360
C99
  0
DICTIONARY
  5
DBD
330
31
100
AcDbDictionary
280
     1
281
     1
  3
ACAD_ROUNDTRIP_2008_TABLESTYLE_CELLSTYLEMAP
360
125B
  3
ACAD_XREC_ROUNDTRIP
360
1283
  0
DICTIONARY
  5
E9F
330
E9E
100
AcDbDictionary
280
     1
281
     1
  3
ACAD_ROUNDTRIP_2008_TABLESTYLE_CELLSTYLEMAP
360
125C
  3
ACAD_XREC_ROUNDTRIP
360
129C
  0
DICTIONARY
  5
126D
330
1A
100
AcDbDictionary
280
     1
281
     1
  3
ACAD_XREC_ROUNDTRIP
360
126E
  0
DICTIONARY
  5
1271
330
1C
100
AcDbDictionary
280
     1
281
     1
  3
ACAD_XREC_ROUNDTRIP
360
1272
  0
DICTIONARY
  5
126F
330
1B
100
AcDbDictionary
280
     1
281
     1
  3
ACAD_XREC_ROUNDTRIP
360
1270
  0
DICTIONARY
  5
126B
330
19
100
AcDbDictionary
280
     1
281
     1
  3
ACAD_XREC_ROUNDTRIP
360
126C
  0
DICTIONARY
  5
1279
330
20
100
AcDbDictionary
280
     1
281
     1
  3
ACAD_XREC_ROUNDTRIP
360
127A
  0
DICTIONARY
  5
1281
330
24
100
AcDbDictionary
280
     1
281
     1
  3
ACAD_XREC_ROUNDTRIP
360
1282
  0
DICTIONARY
  5
1273
330
1D
100
AcDbDictionary
280
     1
281
     1
  3
ACAD_XREC_ROUNDTRIP
360
1274
  0
DICTIONARY
  5
1277
330
1F
100
AcDbDictionary
280
     1
281
     1
  3
ACAD_XREC_ROUNDTRIP
360
1278
  0
DICTIONARY
  5
129A
330
CAF
100
AcDbDictionary
280
     1
281
     1
  3
ACAD_XREC_ROUNDTRIP
360
129B
  0
DICTIONARY
  5
127F
330
23
100
AcDbDictionary
280
     1
281
     1
  3
ACAD_XREC_ROUNDTRIP
360
1280
  0
DICTIONARY
  5
1263
330
15
100
AcDbDictionary
280
     1
281
     1
  3
ACAD_XREC_ROUNDTRIP
360
1264
  0
DICTIONARY
  5
1265
330
16
100
AcDbDictionary
280
     1
281
     1
  3
ACAD_XREC_ROUNDTRIP
360
1266
  0
DICTIONARY
  5
1267
330
17
100
AcDbDictionary
280
     1
281
     1
  3
ACAD_XREC_ROUNDTRIP
360
1268
  0
DICTIONARY
  5
1269
330
18
100
AcDbDictionary
280
     1
281
     1
  3
ACAD_XREC_ROUNDTRIP
360
126A
  0
DICTIONARY
  5
128A
330
CA7
100
AcDbDictionary
280
     1
281
     1
  3
ACAD_XREC_ROUNDTRIP
360
128B
  0
DICTIONARY
  5
1296
330
CAD
100
AcDbDictionary
280
     1
281
     1
  3
ACAD_XREC_ROUNDTRIP
360
1297
  0
DICTIONARY
  5
127D
330
22
100
AcDbDictionary
280
     1
281
     1
  3
ACAD_XREC_ROUNDTRIP
360
127E
  0
DICTIONARY
  5
1298
330
CAE
100
AcDbDictionary
280
     1
281
     1
  3
ACAD_XREC_ROUNDTRIP
360
1299
  0
DICTIONARY
  5
1275
330
1E
100
AcDbDictionary
280
     1
281
     1
  3
ACAD_XREC_ROUNDTRIP
360
1276
  0
DICTIONARY
  5
1294
330
CAC
100
AcDbDictionary
280
     1
281
     1
  3
ACAD_XREC_ROUNDTRIP
360
1295
  0
DICTIONARY
  5
1292
330
CAB
100
AcDbDictionary
280
     1
281
     1
  3
ACAD_XREC_ROUNDTRIP
360
1293
  0
DICTIONARY
  5
128C
330
CA8
100
AcDbDictionary
280
     1
281
     1
  3
ACAD_XREC_ROUNDTRIP
360
128D
  0
DICTIONARY
  5
128E
330
CA9
100
AcDbDictionary
280
     1
281
     1
  3
ACAD_XREC_ROUNDTRIP
360
128F
  0
DICTIONARY
  5
127B
330
21
100
AcDbDictionary
280
     1
281
     1
  3
ACAD_XREC_ROUNDTRIP
360
127C
  0
DICTIONARY
  5
1288
330
CA6
100
AcDbDictionary
280
     1
281
     1
  3
ACAD_XREC_ROUNDTRIP
360
1289
  0
DICTIONARY
  5
1290
330
CAA
100
AcDbDictionary
280
     1
281
     1
  3
ACAD_XREC_ROUNDTRIP
360
1291
  0
XRECORD
  5
1287
102
{ACAD_REACTORS
330
1286
102
}
330
1286
100
AcDbXrecord
280
     1
102
SHADEPLOT
 70
     0
102
SHADEPLOTRESLEVEL
 70
     2
102
SHADEPLOTCUSTOMDPI
 70
   300
  0
XRECORD
  5
1285
102
{ACAD_REACTORS
330
1284
102
}
330
1284
100
AcDbXrecord
280
     1
102
SHADEPLOT
 70
     0
102
SHADEPLOTRESLEVEL
 70
     2
102
SHADEPLOTCUSTOMDPI
 70
   300
  0
XRECORD
  5
C97
102
{ACAD_REACTORS
330
C96
102
}
330
C96
100
AcDbXrecord
280
     1
102
MATERIAL
148
0.0
149
0.0
149
0.0
 93
        0
 94
      127
282
     0
 72
     1
 77
     1
171
     1
175
     1
179
     1
273
     0
  0
XRECORD
  5
C95
102
{ACAD_REACTORS
330
C94
102
}
330
C94
100
AcDbXrecord
280
     1
102
MATERIAL
148
0.0
149
0.0
149
0.0
 93
        0
 94
      127
282
     0
 72
     1
 77
     1
171
     1
175
     1
179
     1
273
     0
  0
XRECORD
  5
C99
102
{ACAD_REACTORS
330
C98
102
}
330
C98
100
AcDbXrecord
280
     1
102
MATERIAL
148
0.0
149
0.0
149
0.0
 93
        0
 94
      127
282
     0
 72
     1
 77
     1
171
     1
175
     1
179
     1
273
     0
  0
CELLSTYLEMAP
  5
125B
102
{ACAD_REACTORS
330
DBD
102
}
330
DBD
100
AcDbCellStyleMap
 90
        3
300
CELLSTYLE
  1
TABLEFORMAT_BEGIN
 90
        5
170
     1
 91
        0
 92
    32768
 62
   257
 93
        1
300
CONTENTFORMAT
  1
CONTENTFORMAT_BEGIN
 90
        0
 91
        0
 92
      512
 93
        0
300

 40
0.0
140
1.0
 94
        5
 62
     0
340
26
144
0.25
309
CONTENTFORMAT_END
171
     1
301
MARGIN
  1
CELLMARGIN_BEGIN
 40
0.06
 40
0.06
 40
0.06
 40
0.06
 40
0.18
 40
0.18
309
CELLMARGIN_END
 94
        6
 95
        1
302
GRIDFORMAT
  1
GRIDFORMAT_BEGIN
 90
        0
 91
        1
 62
     0
 92
       -2
340
0
 93
        0
 40
0.045
309
GRIDFORMAT_END
 95
        2
302
GRIDFORMAT
  1
GRIDFORMAT_BEGIN
 90
        0
 91
        1
 62
     0
 92
       -2
340
0
 93
        0
 40
0.045
309
GRIDFORMAT_END
 95
        4
302
GRIDFORMAT
  1
GRIDFORMAT_BEGIN
 90
        0
 91
        1
 62
     0
 92
       -2
340
0
 93
        0
 40
0.045
309
GRIDFORMAT_END
 95
        8
302
GRIDFORMAT
  1
GRIDFORMAT_BEGIN
 90
        0
 91
        1
 62
     0
 92
       -2
340
0
 93
        0
 40
0.045
309
GRIDFORMAT_END
 95
       16
302
GRIDFORMAT
  1
GRIDFORMAT_BEGIN
 90
        0
 91
        1
 62
     0
 92
       -2
340
0
 93
        0
 40
0.045
309
GRIDFORMAT_END
 95
       32
302
GRIDFORMAT
  1
GRIDFORMAT_BEGIN
 90
        0
 91
        1
 62
     0
 92
       -2
340
0
 93
        0
 40
0.045
309
GRIDFORMAT_END
309
TABLEFORMAT_END
  1
CELLSTYLE_BEGIN
 90
        1
 91
        1
300
_TITLE
309
CELLSTYLE_END
300
CELLSTYLE
  1
TABLEFORMAT_BEGIN
 90
        5
170
     1
 91
        0
 92
        0
 62
   257
 93
        1
300
CONTENTFORMAT
  1
CONTENTFORMAT_BEGIN
 90
        0
 91
        0
 92
      512
 93
        0
300

 40
0.0
140
1.0
 94
        5
 62
     0
340
26
144
0.18
309
CONTENTFORMAT_END
171
     1
301
MARGIN
  1
CELLMARGIN_BEGIN
 40
0.06
 40
0.06
 40
0.06
 40
0.06
 40
0.18
 40
0.18
309
CELLMARGIN_END
 94
        6
 95
        1
302
GRIDFORMAT
  1
GRIDFORMAT_BEGIN
 90
        0
 91
        1
 62
     0
 92
       -2
340
0
 93
        0
 40
0.045
309
GRIDFORMAT_END
 95
        2
302
GRIDFORMAT
  1
GRIDFORMAT_BEGIN
 90
        0
 91
        1
 62
     0
 92
       -2
340
0
 93
        0
 40
0.045
309
GRIDFORMAT_END
 95
        4
302
GRIDFORMAT
  1
GRIDFORMAT_BEGIN
 90
        0
 91
        1
 62
     0
 92
       -2
340
0
 93
        0
 40
0.045
309
GRIDFORMAT_END
 95
        8
302
GRIDFORMAT
  1
GRIDFORMAT_BEGIN
 90
        0
 91
        1
 62
     0
 92
       -2
340
0
 93
        0
 40
0.045
309
GRIDFORMAT_END
 95
       16
302
GRIDFORMAT
  1
GRIDFORMAT_BEGIN
 90
        0
 91
        1
 62
     0
 92
       -2
340
0
 93
        0
 40
0.045
309
GRIDFORMAT_END
 95
       32
302
GRIDFORMAT
  1
GRIDFORMAT_BEGIN
 90
        0
 91
        1
 62
     0
 92
       -2
340
0
 93
        0
 40
0.045
309
GRIDFORMAT_END
309
TABLEFORMAT_END
  1
CELLSTYLE_BEGIN
 90
        2
 91
        1
300
_HEADER
309
CELLSTYLE_END
300
CELLSTYLE
  1
TABLEFORMAT_BEGIN
 90
        5
170
     1
 91
        0
 92
        0
 62
   257
 93
        1
300
CONTENTFORMAT
  1
CONTENTFORMAT_BEGIN
 90
        0
 91
        0
 92
      512
 93
        0
300

 40
0.0
140
1.0
 94
        2
 62
     0
340
26
144
0.18
309
CONTENTFORMAT_END
171
     1
301
MARGIN
  1
CELLMARGIN_BEGIN
 40
0.06
 40
0.06
 40
0.06
 40
0.06
 40
0.18
 40
0.18
309
CELLMARGIN_END
 94
        6
 95
        1
302
GRIDFORMAT
  1
GRIDFORMAT_BEGIN
 90
        0
 91
        1
 62
     0
 92
       -2
340
0
 93
        0
 40
0.045
309
GRIDFORMAT_END
 95
        2
302
GRIDFORMAT
  1
GRIDFORMAT_BEGIN
 90
        0
 91
        1
 62
     0
 92
       -2
340
0
 93
        0
 40
0.045
309
GRIDFORMAT_END
 95
        4
302
GRIDFORMAT
  1
GRIDFORMAT_BEGIN
 90
        0
 91
        1
 62
     0
 92
       -2
340
0
 93
        0
 40
0.045
309
GRIDFORMAT_END
 95
        8
302
GRIDFORMAT
  1
GRIDFORMAT_BEGIN
 90
        0
 91
        1
 62
     0
 92
       -2
340
0
 93
        0
 40
0.045
309
GRIDFORMAT_END
 95
       16
302
GRIDFORMAT
  1
GRIDFORMAT_BEGIN
 90
        0
 91
        1
 62
     0
 92
       -2
340
0
 93
        0
 40
0.045
309
GRIDFORMAT_END
 95
       32
302
GRIDFORMAT
  1
GRIDFORMAT_BEGIN
 90
        0
 91
        1
 62
     0
 92
       -2
340
0
 93
        0
 40
0.045
309
GRIDFORMAT_END
309
TABLEFORMAT_END
  1
CELLSTYLE_BEGIN
 90
        3
 91
        2
300
_DATA
309
CELLSTYLE_END
  0
XRECORD
  5
1283
102
{ACAD_REACTORS
330
DBD
102
}
330
DBD
100
AcDbXrecord
280
     1
102
ACAD_ROUNDTRIP_PRE2007_TABLESTYLE
 90
      512
 91
        0
  1

 92
      512
 93
        0
  2

 94
      512
 95
        0
  3

  0
CELLSTYLEMAP
  5
125C
102
{ACAD_REACTORS
330
E9F
102
}
330
E9F
100
AcDbCellStyleMap
 90
        3
300
CELLSTYLE
  1
TABLEFORMAT_BEGIN
 90
        5
170
     1
 91
        0
 92
    32768
 62
   257
 93
        1
300
CONTENTFORMAT
  1
CONTENTFORMAT_BEGIN
 90
        0
 91
        0
 92
      512
 93
        0
300

 40
0.0
140
1.0
 94
        8
 62
     3
340
56D
144
0.25
309
CONTENTFORMAT_END
171
     1
301
MARGIN
  1
CELLMARGIN_BEGIN
 40
0.5
 40
10.0
 40
0.06
 40
0.06
 40
0.18
 40
0.18
309
CELLMARGIN_END
 94
        6
 95
        1
302
GRIDFORMAT
  1
GRIDFORMAT_BEGIN
 90
        0
 91
        1
 62
     0
 92
       -2
340
0
 93
        0
 40
0.045
309
GRIDFORMAT_END
 95
        2
302
GRIDFORMAT
  1
GRIDFORMAT_BEGIN
 90
        0
 91
        1
 62
     0
 92
       -2
340
0
 93
        0
 40
0.045
309
GRIDFORMAT_END
 95
        4
302
GRIDFORMAT
  1
GRIDFORMAT_BEGIN
 90
        0
 91
        1
 62
     0
 92
       -2
340
0
 93
        0
 40
0.045
309
GRIDFORMAT_END
 95
        8
302
GRIDFORMAT
  1
GRIDFORMAT_BEGIN
 90
        0
 91
        1
 62
     0
 92
       -2
340
0
 93
        0
 40
0.045
309
GRIDFORMAT_END
 95
       16
302
GRIDFORMAT
  1
GRIDFORMAT_BEGIN
 90
        0
 91
        1
 62
     0
 92
       -2
340
0
 93
        0
 40
0.045
309
GRIDFORMAT_END
 95
       32
302
GRIDFORMAT
  1
GRIDFORMAT_BEGIN
 90
        0
 91
        1
 62
     0
 92
       -2
340
0
 93
        0
 40
0.045
309
GRIDFORMAT_END
309
TABLEFORMAT_END
  1
CELLSTYLE_BEGIN
 90
        1
 91
        1
300
_TITLE
309
CELLSTYLE_END
300
CELLSTYLE
  1
TABLEFORMAT_BEGIN
 90
        5
170
     1
 91
        0
 92
        0
 62
   257
 93
        1
300
CONTENTFORMAT
  1
CONTENTFORMAT_BEGIN
 90
        0
 91
        0
 92
      512
 93
        0
300

 40
0.0
140
1.0
 94
        7
 62
     3
340
56D
144
0.18
309
CONTENTFORMAT_END
171
     1
301
MARGIN
  1
CELLMARGIN_BEGIN
 40
0.5
 40
1.5
 40
0.06
 40
0.06
 40
0.18
 40
0.18
309
CELLMARGIN_END
 94
        6
 95
        1
302
GRIDFORMAT
  1
GRIDFORMAT_BEGIN
 90
        0
 91
        1
 62
     3
 92
       -2
340
28
 93
        0
 40
0.045
309
GRIDFORMAT_END
 95
        2
302
GRIDFORMAT
  1
GRIDFORMAT_BEGIN
 90
        0
 91
        1
 62
     7
 92
       -2
340
28
 93
        0
 40
0.045
309
GRIDFORMAT_END
 95
        4
302
GRIDFORMAT
  1
GRIDFORMAT_BEGIN
 90
        0
 91
        1
 62
     3
 92
       -2
340
28
 93
        0
 40
0.045
309
GRIDFORMAT_END
 95
        8
302
GRIDFORMAT
  1
GRIDFORMAT_BEGIN
 90
        0
 91
        1
 62
     3
 92
       -2
340
28
 93
        0
 40
0.045
309
GRIDFORMAT_END
 95
       16
302
GRIDFORMAT
  1
GRIDFORMAT_BEGIN
 90
        0
 91
        1
 62
     7
 92
       -2
340
28
 93
        0
 40
0.045
309
GRIDFORMAT_END
 95
       32
302
GRIDFORMAT
  1
GRIDFORMAT_BEGIN
 90
        0
 91
        1
 62
     3
 92
       -2
340
28
 93
        0
 40
0.045
309
GRIDFORMAT_END
309
TABLEFORMAT_END
  1
CELLSTYLE_BEGIN
 90
        2
 91
        1
300
_HEADER
309
CELLSTYLE_END
300
CELLSTYLE
  1
TABLEFORMAT_BEGIN
 90
        5
170
     1
 91
        0
 92
        0
 62
   257
 93
        1
300
CONTENTFORMAT
  1
CONTENTFORMAT_BEGIN
 90
        0
 91
        0
 92
      512
 93
        0
300

 40
0.0
140
1.0
 94
        7
 62
     3
340
56D
144
0.18
309
CONTENTFORMAT_END
171
     1
301
MARGIN
  1
CELLMARGIN_BEGIN
 40
0.5
 40
1.5
 40
0.06
 40
0.06
 40
0.18
 40
0.18
309
CELLMARGIN_END
 94
        6
 95
        1
302
GRIDFORMAT
  1
GRIDFORMAT_BEGIN
 90
        0
 91
        1
 62
     3
 92
       -2
340
28
 93
        0
 40
0.045
309
GRIDFORMAT_END
 95
        2
302
GRIDFORMAT
  1
GRIDFORMAT_BEGIN
 90
        0
 91
        1
 62
     7
 92
       -2
340
28
 93
        0
 40
0.045
309
GRIDFORMAT_END
 95
        4
302
GRIDFORMAT
  1
GRIDFORMAT_BEGIN
 90
        0
 91
        1
 62
     3
 92
       -2
340
28
 93
        0
 40
0.045
309
GRIDFORMAT_END
 95
        8
302
GRIDFORMAT
  1
GRIDFORMAT_BEGIN
 90
        0
 91
        1
 62
     3
 92
       -2
340
28
 93
        0
 40
0.045
309
GRIDFORMAT_END
 95
       16
302
GRIDFORMAT
  1
GRIDFORMAT_BEGIN
 90
        0
 91
        1
 62
     7
 92
       -2
340
28
 93
        0
 40
0.045
309
GRIDFORMAT_END
 95
       32
302
GRIDFORMAT
  1
GRIDFORMAT_BEGIN
 90
        0
 91
        1
 62
     3
 92
       -2
340
28
 93
        0
 40
0.045
309
GRIDFORMAT_END
309
TABLEFORMAT_END
  1
CELLSTYLE_BEGIN
 90
        3
 91
        2
300
_DATA
309
CELLSTYLE_END
  0
XRECORD
  5
129C
102
{ACAD_REACTORS
330
E9F
102
}
330
E9F
100
AcDbXrecord
280
     1
102
ACAD_ROUNDTRIP_PRE2007_TABLESTYLE
 90
      512
 91
        0
  1

 92
      512
 93
        0
  2

 94
      512
 95
        0
  3

  0
XRECORD
  5
126E
102
{ACAD_REACTORS
330
126D
102
}
330
126D
100
AcDbXrecord
280
     1
102
RTVSPropertyOp0
 70
     1
102
RTVSPropertyOp1
 70
     1
102
RTVSPropertyOp2
 70
     1
102
RTVSPropertyOp3
 70
     1
102
RTVSPropertyOp4
 70
     1
102
RTVSPropertyOp5
 70
     1
102
RTVSPropertyOp6
 70
     1
102
RTVSPropertyOp7
 70
     1
102
RTVSPropertyOp8
 70
     1
102
RTVSPropertyOp9
 70
     1
102
RTVSPropertyOp10
 70
     1
102
RTVSPropertyOp11
 70
     1
102
RTVSPropertyOp12
 70
     1
102
RTVSPropertyOp13
 70
     1
102
RTVSPropertyOp14
 70
     1
102
RTVSPropertyOp15
 70
     1
102
RTVSPropertyOp16
 70
     1
102
RTVSPropertyOp17
 70
     1
102
RTVSPropertyOp18
 70
     1
102
RTVSPropertyOp19
 70
     1
102
RTVSPropertyOp20
 70
     1
102
RTVSPropertyOp21
 70
     1
102
RTVSPropertyOp22
 70
     1
102
RTVSPropertyOp23
 70
     1
102
RTVSPropertyOp24
 70
     1
102
RTVSPropertyOp25
 70
     1
102
RTVSPropertyOp26
 70
     1
102
RTVSPropertyOp27
 70
     1
102
RTVSPropertyOp28
 70
     1
102
RTVSPropertyOp29
 70
     1
102
RTVSPropertyOp30
 70
     1
102
RTVSPropertyOp31
 70
     1
102
RTVSPropertyOp32
 70
     1
  0
XRECORD
  5
1272
102
{ACAD_REACTORS
330
1271
102
}
330
1271
100
AcDbXrecord
280
     1
102
RTVSPropertyOp0
 70
     1
102
RTVSPropertyOp1
 70
     1
102
RTVSPropertyOp2
 70
     1
102
RTVSPropertyOp3
 70
     1
102
RTVSPropertyOp4
 70
     1
102
RTVSPropertyOp5
 70
     1
102
RTVSPropertyOp6
 70
     1
102
RTVSPropertyOp7
 70
     1
102
RTVSPropertyOp8
 70
     1
102
RTVSPropertyOp9
 70
     1
102
RTVSPropertyOp10
 70
     1
102
RTVSPropertyOp11
 70
     1
102
RTVSPropertyOp12
 70
     1
102
RTVSPropertyOp13
 70
     1
102
RTVSPropertyOp14
 70
     1
102
RTVSPropertyOp15
 70
     1
102
RTVSPropertyOp16
 70
     1
102
RTVSPropertyOp17
 70
     1
102
RTVSPropertyOp18
 70
     1
102
RTVSPropertyOp19
 70
     1
102
RTVSPropertyOp20
 70
     1
102
RTVSPropertyOp21
 70
     1
102
RTVSPropertyOp22
 70
     1
102
RTVSPropertyOp23
 70
     1
102
RTVSPropertyOp24
 70
     1
102
RTVSPropertyOp25
 70
     1
102
RTVSPropertyOp26
 70
     1
102
RTVSPropertyOp27
 70
     1
102
RTVSPropertyOp28
 70
     1
102
RTVSPropertyOp29
 70
     1
102
RTVSPropertyOp30
 70
     1
102
RTVSPropertyOp31
 70
     1
102
RTVSPropertyOp32
 70
     1
  0
XRECORD
  5
1270
102
{ACAD_REACTORS
330
126F
102
}
330
126F
100
AcDbXrecord
280
     1
102
RTVSPropertyOp0
 70
     1
102
RTVSPropertyOp1
 70
     1
102
RTVSPropertyOp2
 70
     1
102
RTVSPropertyOp3
 70
     1
102
RTVSPropertyOp4
 70
     1
102
RTVSPropertyOp5
 70
     1
102
RTVSPropertyOp6
 70
     1
102
RTVSPropertyOp7
 70
     1
102
RTVSPropertyOp8
 70
     1
102
RTVSPropertyOp9
 70
     1
102
RTVSPropertyOp10
 70
     1
102
RTVSPropertyOp11
 70
     1
102
RTVSPropertyOp12
 70
     1
102
RTVSPropertyOp13
 70
     1
102
RTVSPropertyOp14
 70
     1
102
RTVSPropertyOp15
 70
     1
102
RTVSPropertyOp16
 70
     1
102
RTVSPropertyOp17
 70
     1
102
RTVSPropertyOp18
 70
     1
102
RTVSPropertyOp19
 70
     1
102
RTVSPropertyOp20
 70
     1
102
RTVSPropertyOp21
 70
     1
102
RTVSPropertyOp22
 70
     1
102
RTVSPropertyOp23
 70
     1
102
RTVSPropertyOp24
 70
     1
102
RTVSPropertyOp25
 70
     1
102
RTVSPropertyOp26
 70
     1
102
RTVSPropertyOp27
 70
     1
102
RTVSPropertyOp28
 70
     1
102
RTVSPropertyOp29
 70
     1
102
RTVSPropertyOp30
 70
     1
102
RTVSPropertyOp31
 70
     1
102
RTVSPropertyOp32
 70
     1
  0
XRECORD
  5
126C
102
{ACAD_REACTORS
330
126B
102
}
330
126B
100
AcDbXrecord
280
     1
102
RTVSPropertyOp0
 70
     1
102
RTVSPropertyOp1
 70
     1
102
RTVSPropertyOp2
 70
     1
102
RTVSPropertyOp3
 70
     1
102
RTVSPropertyOp4
 70
     1
102
RTVSPropertyOp5
 70
     1
102
RTVSPropertyOp6
 70
     1
102
RTVSPropertyOp7
 70
     1
102
RTVSPropertyOp8
 70
     1
102
RTVSPropertyOp9
 70
     1
102
RTVSPropertyOp10
 70
     1
102
RTVSPropertyOp11
 70
     1
102
RTVSPropertyOp12
 70
     1
102
RTVSPropertyOp13
 70
     1
102
RTVSPropertyOp14
 70
     1
102
RTVSPropertyOp15
 70
     1
102
RTVSPropertyOp16
 70
     1
102
RTVSPropertyOp17
 70
     1
102
RTVSPropertyOp18
 70
     1
102
RTVSPropertyOp19
 70
     1
102
RTVSPropertyOp20
 70
     1
102
RTVSPropertyOp21
 70
     1
102
RTVSPropertyOp22
 70
     1
102
RTVSPropertyOp23
 70
     1
102
RTVSPropertyOp24
 70
     1
102
RTVSPropertyOp25
 70
     1
102
RTVSPropertyOp26
 70
     1
102
RTVSPropertyOp27
 70
     1
102
RTVSPropertyOp28
 70
     1
102
RTVSPropertyOp29
 70
     1
102
RTVSPropertyOp30
 70
     1
102
RTVSPropertyOp31
 70
     1
102
RTVSPropertyOp32
 70
     1
  0
XRECORD
  5
127A
102
{ACAD_REACTORS
330
1279
102
}
330
1279
100
AcDbXrecord
280
     1
102
RTVSPropertyOp0
 70
     1
102
RTVSPropertyOp1
 70
     1
102
RTVSPropertyOp2
 70
     1
102
RTVSPropertyOp3
 70
     1
102
RTVSPropertyOp4
 70
     1
102
RTVSPropertyOp5
 70
     1
102
RTVSPropertyOp6
 70
     1
102
RTVSPropertyOp7
 70
     1
102
RTVSPropertyOp8
 70
     1
102
RTVSPropertyOp9
 70
     1
102
RTVSPropertyOp10
 70
     1
102
RTVSPropertyOp11
 70
     1
102
RTVSPropertyOp12
 70
     1
102
RTVSPropertyOp13
 70
     1
102
RTVSPropertyOp14
 70
     1
102
RTVSPropertyOp15
 70
     1
102
RTVSPropertyOp16
 70
     1
102
RTVSPropertyOp17
 70
     1
102
RTVSPropertyOp18
 70
     1
102
RTVSPropertyOp19
 70
     1
102
RTVSPropertyOp20
 70
     1
102
RTVSPropertyOp21
 70
     1
102
RTVSPropertyOp22
 70
     1
102
RTVSPropertyOp23
 70
     1
102
RTVSPropertyOp24
 70
     1
102
RTVSPropertyOp25
 70
     1
102
RTVSPropertyOp26
 70
     1
102
RTVSPropertyOp27
 70
     1
102
RTVSPropertyOp28
 70
     1
102
RTVSPropertyOp29
 70
     1
102
RTVSPropertyOp30
 70
     1
102
RTVSPropertyOp31
 70
     1
102
RTVSPropertyOp32
 70
     1
  0
XRECORD
  5
1282
102
{ACAD_REACTORS
330
1281
102
}
330
1281
100
AcDbXrecord
280
     1
102
RTVSPropertyOp0
 70
     1
102
RTVSPropertyOp1
 70
     1
102
RTVSPropertyOp2
 70
     1
102
RTVSPropertyOp3
 70
     1
102
RTVSPropertyOp4
 70
     1
102
RTVSPropertyOp5
 70
     1
102
RTVSPropertyOp6
 70
     1
102
RTVSPropertyOp7
 70
     1
102
RTVSPropertyOp8
 70
     1
102
RTVSPropertyOp9
 70
     1
102
RTVSPropertyOp10
 70
     1
102
RTVSPropertyOp11
 70
     1
102
RTVSPropertyOp12
 70
     1
102
RTVSPropertyOp13
 70
     1
102
RTVSPropertyOp14
 70
     1
102
RTVSPropertyOp15
 70
     1
102
RTVSPropertyOp16
 70
     1
102
RTVSPropertyOp17
 70
     1
102
RTVSPropertyOp18
 70
     1
102
RTVSPropertyOp19
 70
     1
102
RTVSPropertyOp20
 70
     1
102
RTVSPropertyOp21
 70
     1
102
RTVSPropertyOp22
 70
     1
102
RTVSPropertyOp23
 70
     1
102
RTVSPropertyOp24
 70
     1
102
RTVSPropertyOp25
 70
     1
102
RTVSPropertyOp26
 70
     1
102
RTVSPropertyOp27
 70
     1
102
RTVSPropertyOp28
 70
     1
102
RTVSPropertyOp29
 70
     1
102
RTVSPropertyOp30
 70
     1
102
RTVSPropertyOp31
 70
     1
102
RTVSPropertyOp32
 70
     1
  0
XRECORD
  5
1274
102
{ACAD_REACTORS
330
1273
102
}
330
1273
100
AcDbXrecord
280
     1
102
RTVSPropertyOp0
 70
     1
102
RTVSPropertyOp1
 70
     1
102
RTVSPropertyOp2
 70
     1
102
RTVSPropertyOp3
 70
     1
102
RTVSPropertyOp4
 70
     1
102
RTVSPropertyOp5
 70
     1
102
RTVSPropertyOp6
 70
     1
102
RTVSPropertyOp7
 70
     1
102
RTVSPropertyOp8
 70
     1
102
RTVSPropertyOp9
 70
     1
102
RTVSPropertyOp10
 70
     1
102
RTVSPropertyOp11
 70
     1
102
RTVSPropertyOp12
 70
     1
102
RTVSPropertyOp13
 70
     1
102
RTVSPropertyOp14
 70
     1
102
RTVSPropertyOp15
 70
     1
102
RTVSPropertyOp16
 70
     1
102
RTVSPropertyOp17
 70
     1
102
RTVSPropertyOp18
 70
     1
102
RTVSPropertyOp19
 70
     1
102
RTVSPropertyOp20
 70
     1
102
RTVSPropertyOp21
 70
     1
102
RTVSPropertyOp22
 70
     1
102
RTVSPropertyOp23
 70
     1
102
RTVSPropertyOp24
 70
     1
102
RTVSPropertyOp25
 70
     1
102
RTVSPropertyOp26
 70
     1
102
RTVSPropertyOp27
 70
     1
102
RTVSPropertyOp28
 70
     1
102
RTVSPropertyOp29
 70
     1
102
RTVSPropertyOp30
 70
     1
102
RTVSPropertyOp31
 70
     1
102
RTVSPropertyOp32
 70
     1
  0
XRECORD
  5
1278
102
{ACAD_REACTORS
330
1277
102
}
330
1277
100
AcDbXrecord
280
     1
102
RTVSPropertyOp0
 70
     1
102
RTVSPropertyOp1
 70
     1
102
RTVSPropertyOp2
 70
     1
102
RTVSPropertyOp3
 70
     1
102
RTVSPropertyOp4
 70
     1
102
RTVSPropertyOp5
 70
     1
102
RTVSPropertyOp6
 70
     1
102
RTVSPropertyOp7
 70
     1
102
RTVSPropertyOp8
 70
     1
102
RTVSPropertyOp9
 70
     1
102
RTVSPropertyOp10
 70
     1
102
RTVSPropertyOp11
 70
     1
102
RTVSPropertyOp12
 70
     1
102
RTVSPropertyOp13
 70
     1
102
RTVSPropertyOp14
 70
     1
102
RTVSPropertyOp15
 70
     1
102
RTVSPropertyOp16
 70
     1
102
RTVSPropertyOp17
 70
     1
102
RTVSPropertyOp18
 70
     1
102
RTVSPropertyOp19
 70
     1
102
RTVSPropertyOp20
 70
     1
102
RTVSPropertyOp21
 70
     1
102
RTVSPropertyOp22
 70
     1
102
RTVSPropertyOp23
 70
     1
102
RTVSPropertyOp24
 70
     1
102
RTVSPropertyOp25
 70
     1
102
RTVSPropertyOp26
 70
     1
102
RTVSPropertyOp27
 70
     1
102
RTVSPropertyOp28
 70
     1
102
RTVSPropertyOp29
 70
     1
102
RTVSPropertyOp30
 70
     1
102
RTVSPropertyOp31
 70
     1
102
RTVSPropertyOp32
 70
     1
  0
XRECORD
  5
129B
102
{ACAD_REACTORS
330
129A
102
}
330
129A
100
AcDbXrecord
280
     1
102
RTVSPropertyOp0
 70
     0
102
RTVSPropertyOp1
 70
     0
102
RTVSPropertyOp2
 70
     0
102
RTVSPropertyOp3
 70
     0
102
RTVSPropertyOp4
 70
     0
102
RTVSPropertyOp5
 70
     0
102
RTVSPropertyOp6
 70
     0
102
RTVSPropertyOp7
 70
     0
102
RTVSPropertyOp8
 70
     0
102
RTVSPropertyOp9
 70
     0
102
RTVSPropertyOp10
 70
     0
102
RTVSPropertyOp11
 70
     0
102
RTVSPropertyOp12
 70
     0
102
RTVSPropertyOp13
 70
     0
102
RTVSPropertyOp14
 70
     2
102
RTVSPropertyOp15
 70
     0
102
RTVSPropertyOp16
 70
     0
102
RTVSPropertyOp17
 70
     0
102
RTVSPropertyOp18
 70
     0
102
RTVSPropertyOp19
 70
     0
102
RTVSPropertyOp20
 70
     0
102
RTVSPropertyOp21
 70
     0
102
RTVSPropertyOp22
 70
     0
102
RTVSPropertyOp23
 70
     0
102
RTVSPropertyOp24
 70
     0
102
RTVSPropertyOp25
 70
     0
102
RTVSPropertyOp26
 70
     0
102
RTVSPropertyOp27
 70
     0
102
RTVSPropertyOp28
 70
     0
102
RTVSPropertyOp29
 70
     0
102
RTVSPropertyOp30
 70
     0
102
RTVSPropertyOp31
 70
     0
102
RTVSPropertyOp32
 70
     0
  0
XRECORD
  5
1280
102
{ACAD_REACTORS
330
127F
102
}
330
127F
100
AcDbXrecord
280
     1
102
RTVSPropertyOp0
 70
     1
102
RTVSPropertyOp1
 70
     1
102
RTVSPropertyOp2
 70
     1
102
RTVSPropertyOp3
 70
     1
102
RTVSPropertyOp4
 70
     1
102
RTVSPropertyOp5
 70
     1
102
RTVSPropertyOp6
 70
     1
102
RTVSPropertyOp7
 70
     1
102
RTVSPropertyOp8
 70
     1
102
RTVSPropertyOp9
 70
     1
102
RTVSPropertyOp10
 70
     1
102
RTVSPropertyOp11
 70
     1
102
RTVSPropertyOp12
 70
     1
102
RTVSPropertyOp13
 70
     1
102
RTVSPropertyOp14
 70
     1
102
RTVSPropertyOp15
 70
     1
102
RTVSPropertyOp16
 70
     1
102
RTVSPropertyOp17
 70
     1
102
RTVSPropertyOp18
 70
     1
102
RTVSPropertyOp19
 70
     1
102
RTVSPropertyOp20
 70
     1
102
RTVSPropertyOp21
 70
     1
102
RTVSPropertyOp22
 70
     1
102
RTVSPropertyOp23
 70
     1
102
RTVSPropertyOp24
 70
     1
102
RTVSPropertyOp25
 70
     1
102
RTVSPropertyOp26
 70
     1
102
RTVSPropertyOp27
 70
     1
102
RTVSPropertyOp28
 70
     1
102
RTVSPropertyOp29
 70
     1
102
RTVSPropertyOp30
 70
     1
102
RTVSPropertyOp31
 70
     1
102
RTVSPropertyOp32
 70
     1
  0
XRECORD
  5
1264
102
{ACAD_REACTORS
330
1263
102
}
330
1263
100
AcDbXrecord
280
     1
102
RTVSPropertyOp0
 70
     1
102
RTVSPropertyOp1
 70
     1
102
RTVSPropertyOp2
 70
     1
102
RTVSPropertyOp3
 70
     1
102
RTVSPropertyOp4
 70
     1
102
RTVSPropertyOp5
 70
     1
102
RTVSPropertyOp6
 70
     1
102
RTVSPropertyOp7
 70
     1
102
RTVSPropertyOp8
 70
     1
102
RTVSPropertyOp9
 70
     1
102
RTVSPropertyOp10
 70
     1
102
RTVSPropertyOp11
 70
     1
102
RTVSPropertyOp12
 70
     1
102
RTVSPropertyOp13
 70
     1
102
RTVSPropertyOp14
 70
     1
102
RTVSPropertyOp15
 70
     1
102
RTVSPropertyOp16
 70
     1
102
RTVSPropertyOp17
 70
     1
102
RTVSPropertyOp18
 70
     1
102
RTVSPropertyOp19
 70
     1
102
RTVSPropertyOp20
 70
     1
102
RTVSPropertyOp21
 70
     1
102
RTVSPropertyOp22
 70
     1
102
RTVSPropertyOp23
 70
     1
102
RTVSPropertyOp24
 70
     1
102
RTVSPropertyOp25
 70
     1
102
RTVSPropertyOp26
 70
     1
102
RTVSPropertyOp27
 70
     1
102
RTVSPropertyOp28
 70
     1
102
RTVSPropertyOp29
 70
     1
102
RTVSPropertyOp30
 70
     1
102
RTVSPropertyOp31
 70
     1
102
RTVSPropertyOp32
 70
     1
  0
XRECORD
  5
1266
102
{ACAD_REACTORS
330
1265
102
}
330
1265
100
AcDbXrecord
280
     1
102
RTVSPropertyOp0
 70
     1
102
RTVSPropertyOp1
 70
     1
102
RTVSPropertyOp2
 70
     1
102
RTVSPropertyOp3
 70
     1
102
RTVSPropertyOp4
 70
     1
102
RTVSPropertyOp5
 70
     1
102
RTVSPropertyOp6
 70
     1
102
RTVSPropertyOp7
 70
     1
102
RTVSPropertyOp8
 70
     1
102
RTVSPropertyOp9
 70
     1
102
RTVSPropertyOp10
 70
     1
102
RTVSPropertyOp11
 70
     1
102
RTVSPropertyOp12
 70
     1
102
RTVSPropertyOp13
 70
     1
102
RTVSPropertyOp14
 70
     1
102
RTVSPropertyOp15
 70
     1
102
RTVSPropertyOp16
 70
     1
102
RTVSPropertyOp17
 70
     1
102
RTVSPropertyOp18
 70
     1
102
RTVSPropertyOp19
 70
     1
102
RTVSPropertyOp20
 70
     1
102
RTVSPropertyOp21
 70
     1
102
RTVSPropertyOp22
 70
     1
102
RTVSPropertyOp23
 70
     1
102
RTVSPropertyOp24
 70
     1
102
RTVSPropertyOp25
 70
     1
102
RTVSPropertyOp26
 70
     1
102
RTVSPropertyOp27
 70
     1
102
RTVSPropertyOp28
 70
     1
102
RTVSPropertyOp29
 70
     1
102
RTVSPropertyOp30
 70
     1
102
RTVSPropertyOp31
 70
     1
102
RTVSPropertyOp32
 70
     1
  0
XRECORD
  5
1268
102
{ACAD_REACTORS
330
1267
102
}
330
1267
100
AcDbXrecord
280
     1
102
RTVSPropertyOp0
 70
     1
102
RTVSPropertyOp1
 70
     1
102
RTVSPropertyOp2
 70
     1
102
RTVSPropertyOp3
 70
     1
102
RTVSPropertyOp4
 70
     1
102
RTVSPropertyOp5
 70
     1
102
RTVSPropertyOp6
 70
     1
102
RTVSPropertyOp7
 70
     1
102
RTVSPropertyOp8
 70
     1
102
RTVSPropertyOp9
 70
     1
102
RTVSPropertyOp10
 70
     1
102
RTVSPropertyOp11
 70
     1
102
RTVSPropertyOp12
 70
     1
102
RTVSPropertyOp13
 70
     1
102
RTVSPropertyOp14
 70
     1
102
RTVSPropertyOp15
 70
     1
102
RTVSPropertyOp16
 70
     1
102
RTVSPropertyOp17
 70
     1
102
RTVSPropertyOp18
 70
     1
102
RTVSPropertyOp19
 70
     1
102
RTVSPropertyOp20
 70
     1
102
RTVSPropertyOp21
 70
     1
102
RTVSPropertyOp22
 70
     1
102
RTVSPropertyOp23
 70
     1
102
RTVSPropertyOp24
 70
     1
102
RTVSPropertyOp25
 70
     1
102
RTVSPropertyOp26
 70
     1
102
RTVSPropertyOp27
 70
     1
102
RTVSPropertyOp28
 70
     1
102
RTVSPropertyOp29
 70
     1
102
RTVSPropertyOp30
 70
     1
102
RTVSPropertyOp31
 70
     1
102
RTVSPropertyOp32
 70
     1
  0
XRECORD
  5
126A
102
{ACAD_REACTORS
330
1269
102
}
330
1269
100
AcDbXrecord
280
     1
102
RTVSPropertyOp0
 70
     1
102
RTVSPropertyOp1
 70
     1
102
RTVSPropertyOp2
 70
     1
102
RTVSPropertyOp3
 70
     1
102
RTVSPropertyOp4
 70
     1
102
RTVSPropertyOp5
 70
     1
102
RTVSPropertyOp6
 70
     1
102
RTVSPropertyOp7
 70
     1
102
RTVSPropertyOp8
 70
     1
102
RTVSPropertyOp9
 70
     1
102
RTVSPropertyOp10
 70
     1
102
RTVSPropertyOp11
 70
     1
102
RTVSPropertyOp12
 70
     1
102
RTVSPropertyOp13
 70
     1
102
RTVSPropertyOp14
 70
     1
102
RTVSPropertyOp15
 70
     1
102
RTVSPropertyOp16
 70
     1
102
RTVSPropertyOp17
 70
     1
102
RTVSPropertyOp18
 70
     1
102
RTVSPropertyOp19
 70
     1
102
RTVSPropertyOp20
 70
     1
102
RTVSPropertyOp21
 70
     1
102
RTVSPropertyOp22
 70
     1
102
RTVSPropertyOp23
 70
     1
102
RTVSPropertyOp24
 70
     1
102
RTVSPropertyOp25
 70
     1
102
RTVSPropertyOp26
 70
     1
102
RTVSPropertyOp27
 70
     1
102
RTVSPropertyOp28
 70
     1
102
RTVSPropertyOp29
 70
     1
102
RTVSPropertyOp30
 70
     1
102
RTVSPropertyOp31
 70
     1
102
RTVSPropertyOp32
 70
     1
  0
XRECORD
  5
128B
102
{ACAD_REACTORS
330
128A
102
}
330
128A
100
AcDbXrecord
280
     1
102
RTVSPropertyOp0
 70
     1
102
RTVSPropertyOp1
 70
     1
102
RTVSPropertyOp2
 70
     1
102
RTVSPropertyOp3
 70
     1
102
RTVSPropertyOp4
 70
     1
102
RTVSPropertyOp5
 70
     1
102
RTVSPropertyOp6
 70
     1
102
RTVSPropertyOp7
 70
     1
102
RTVSPropertyOp8
 70
     1
102
RTVSPropertyOp9
 70
     1
102
RTVSPropertyOp10
 70
     1
102
RTVSPropertyOp11
 70
     1
102
RTVSPropertyOp12
 70
     1
102
RTVSPropertyOp13
 70
     1
102
RTVSPropertyOp14
 70
     1
102
RTVSPropertyOp15
 70
     1
102
RTVSPropertyOp16
 70
     1
102
RTVSPropertyOp17
 70
     1
102
RTVSPropertyOp18
 70
     1
102
RTVSPropertyOp19
 70
     1
102
RTVSPropertyOp20
 70
     1
102
RTVSPropertyOp21
 70
     1
102
RTVSPropertyOp22
 70
     1
102
RTVSPropertyOp23
 70
     1
102
RTVSPropertyOp24
 70
     1
102
RTVSPropertyOp25
 70
     1
102
RTVSPropertyOp26
 70
     1
102
RTVSPropertyOp27
 70
     1
102
RTVSPropertyOp28
 70
     1
102
RTVSPropertyOp29
 70
     1
102
RTVSPropertyOp30
 70
     1
102
RTVSPropertyOp31
 70
     1
102
RTVSPropertyOp32
 70
     1
  0
XRECORD
  5
1297
102
{ACAD_REACTORS
330
1296
102
}
330
1296
100
AcDbXrecord
280
     1
102
RTVSPropertyOp0
 70
     0
102
RTVSPropertyOp1
 70
     0
102
RTVSPropertyOp2
 70
     0
102
RTVSPropertyOp3
 70
     0
102
RTVSPropertyOp4
 70
     0
102
RTVSPropertyOp5
 70
     0
102
RTVSPropertyOp6
 70
     0
102
RTVSPropertyOp7
 70
     0
102
RTVSPropertyOp8
 70
     0
102
RTVSPropertyOp9
 70
     0
102
RTVSPropertyOp10
 70
     0
102
RTVSPropertyOp11
 70
     0
102
RTVSPropertyOp12
 70
     0
102
RTVSPropertyOp13
 70
     0
102
RTVSPropertyOp14
 70
     2
102
RTVSPropertyOp15
 70
     0
102
RTVSPropertyOp16
 70
     0
102
RTVSPropertyOp17
 70
     0
102
RTVSPropertyOp18
 70
     0
102
RTVSPropertyOp19
 70
     0
102
RTVSPropertyOp20
 70
     0
102
RTVSPropertyOp21
 70
     0
102
RTVSPropertyOp22
 70
     0
102
RTVSPropertyOp23
 70
     0
102
RTVSPropertyOp24
 70
     0
102
RTVSPropertyOp25
 70
     0
102
RTVSPropertyOp26
 70
     0
102
RTVSPropertyOp27
 70
     0
102
RTVSPropertyOp28
 70
     0
102
RTVSPropertyOp29
 70
     0
102
RTVSPropertyOp30
 70
     0
102
RTVSPropertyOp31
 70
     0
102
RTVSPropertyOp32
 70
     0
  0
XRECORD
  5
127E
102
{ACAD_REACTORS
330
127D
102
}
330
127D
100
AcDbXrecord
280
     1
102
RTVSPropertyOp0
 70
     1
102
RTVSPropertyOp1
 70
     1
102
RTVSPropertyOp2
 70
     1
102
RTVSPropertyOp3
 70
     1
102
RTVSPropertyOp4
 70
     1
102
RTVSPropertyOp5
 70
     1
102
RTVSPropertyOp6
 70
     1
102
RTVSPropertyOp7
 70
     1
102
RTVSPropertyOp8
 70
     1
102
RTVSPropertyOp9
 70
     1
102
RTVSPropertyOp10
 70
     1
102
RTVSPropertyOp11
 70
     1
102
RTVSPropertyOp12
 70
     1
102
RTVSPropertyOp13
 70
     1
102
RTVSPropertyOp14
 70
     1
102
RTVSPropertyOp15
 70
     1
102
RTVSPropertyOp16
 70
     1
102
RTVSPropertyOp17
 70
     1
102
RTVSPropertyOp18
 70
     1
102
RTVSPropertyOp19
 70
     1
102
RTVSPropertyOp20
 70
     1
102
RTVSPropertyOp21
 70
     1
102
RTVSPropertyOp22
 70
     1
102
RTVSPropertyOp23
 70
     1
102
RTVSPropertyOp24
 70
     1
102
RTVSPropertyOp25
 70
     1
102
RTVSPropertyOp26
 70
     1
102
RTVSPropertyOp27
 70
     1
102
RTVSPropertyOp28
 70
     1
102
RTVSPropertyOp29
 70
     1
102
RTVSPropertyOp30
 70
     1
102
RTVSPropertyOp31
 70
     1
102
RTVSPropertyOp32
 70
     1
  0
XRECORD
  5
1299
102
{ACAD_REACTORS
330
1298
102
}
330
1298
100
AcDbXrecord
280
     1
102
RTVSPropertyOp0
 70
     0
102
RTVSPropertyOp1
 70
     0
102
RTVSPropertyOp2
 70
     0
102
RTVSPropertyOp3
 70
     0
102
RTVSPropertyOp4
 70
     0
102
RTVSPropertyOp5
 70
     0
102
RTVSPropertyOp6
 70
     0
102
RTVSPropertyOp7
 70
     0
102
RTVSPropertyOp8
 70
     0
102
RTVSPropertyOp9
 70
     0
102
RTVSPropertyOp10
 70
     0
102
RTVSPropertyOp11
 70
     0
102
RTVSPropertyOp12
 70
     0
102
RTVSPropertyOp13
 70
     0
102
RTVSPropertyOp14
 70
     2
102
RTVSPropertyOp15
 70
     0
102
RTVSPropertyOp16
 70
     0
102
RTVSPropertyOp17
 70
     0
102
RTVSPropertyOp18
 70
     0
102
RTVSPropertyOp19
 70
     0
102
RTVSPropertyOp20
 70
     0
102
RTVSPropertyOp21
 70
     0
102
RTVSPropertyOp22
 70
     0
102
RTVSPropertyOp23
 70
     0
102
RTVSPropertyOp24
 70
     0
102
RTVSPropertyOp25
 70
     0
102
RTVSPropertyOp26
 70
     0
102
RTVSPropertyOp27
 70
     0
102
RTVSPropertyOp28
 70
     0
102
RTVSPropertyOp29
 70
     0
102
RTVSPropertyOp30
 70
     0
102
RTVSPropertyOp31
 70
     0
102
RTVSPropertyOp32
 70
     0
  0
XRECORD
  5
1276
102
{ACAD_REACTORS
330
1275
102
}
330
1275
100
AcDbXrecord
280
     1
102
RTVSPropertyOp0
 70
     1
102
RTVSPropertyOp1
 70
     1
102
RTVSPropertyOp2
 70
     1
102
RTVSPropertyOp3
 70
     1
102
RTVSPropertyOp4
 70
     1
102
RTVSPropertyOp5
 70
     1
102
RTVSPropertyOp6
 70
     1
102
RTVSPropertyOp7
 70
     1
102
RTVSPropertyOp8
 70
     1
102
RTVSPropertyOp9
 70
     1
102
RTVSPropertyOp10
 70
     1
102
RTVSPropertyOp11
 70
     1
102
RTVSPropertyOp12
 70
     1
102
RTVSPropertyOp13
 70
     1
102
RTVSPropertyOp14
 70
     1
102
RTVSPropertyOp15
 70
     1
102
RTVSPropertyOp16
 70
     1
102
RTVSPropertyOp17
 70
     1
102
RTVSPropertyOp18
 70
     1
102
RTVSPropertyOp19
 70
     1
102
RTVSPropertyOp20
 70
     1
102
RTVSPropertyOp21
 70
     1
102
RTVSPropertyOp22
 70
     1
102
RTVSPropertyOp23
 70
     1
102
RTVSPropertyOp24
 70
     1
102
RTVSPropertyOp25
 70
     1
102
RTVSPropertyOp26
 70
     1
102
RTVSPropertyOp27
 70
     1
102
RTVSPropertyOp28
 70
     1
102
RTVSPropertyOp29
 70
     1
102
RTVSPropertyOp30
 70
     1
102
RTVSPropertyOp31
 70
     1
102
RTVSPropertyOp32
 70
     1
  0
XRECORD
  5
1295
102
{ACAD_REACTORS
330
1294
102
}
330
1294
100
AcDbXrecord
280
     1
102
RTVSPropertyOp0
 70
     1
102
RTVSPropertyOp1
 70
     1
102
RTVSPropertyOp2
 70
     1
102
RTVSPropertyOp3
 70
     1
102
RTVSPropertyOp4
 70
     1
102
RTVSPropertyOp5
 70
     1
102
RTVSPropertyOp6
 70
     1
102
RTVSPropertyOp7
 70
     1
102
RTVSPropertyOp8
 70
     1
102
RTVSPropertyOp9
 70
     1
102
RTVSPropertyOp10
 70
     1
102
RTVSPropertyOp11
 70
     1
102
RTVSPropertyOp12
 70
     1
102
RTVSPropertyOp13
 70
     1
102
RTVSPropertyOp14
 70
     1
102
RTVSPropertyOp15
 70
     1
102
RTVSPropertyOp16
 70
     1
102
RTVSPropertyOp17
 70
     1
102
RTVSPropertyOp18
 70
     1
102
RTVSPropertyOp19
 70
     1
102
RTVSPropertyOp20
 70
     1
102
RTVSPropertyOp21
 70
     1
102
RTVSPropertyOp22
 70
     1
102
RTVSPropertyOp23
 70
     1
102
RTVSPropertyOp24
 70
     1
102
RTVSPropertyOp25
 70
     1
102
RTVSPropertyOp26
 70
     1
102
RTVSPropertyOp27
 70
     1
102
RTVSPropertyOp28
 70
     1
102
RTVSPropertyOp29
 70
     1
102
RTVSPropertyOp30
 70
     1
102
RTVSPropertyOp31
 70
     1
102
RTVSPropertyOp32
 70
     1
  0
XRECORD
  5
1293
102
{ACAD_REACTORS
330
1292
102
}
330
1292
100
AcDbXrecord
280
     1
102
RTVSPropertyOp0
 70
     1
102
RTVSPropertyOp1
 70
     1
102
RTVSPropertyOp2
 70
     1
102
RTVSPropertyOp3
 70
     1
102
RTVSPropertyOp4
 70
     1
102
RTVSPropertyOp5
 70
     1
102
RTVSPropertyOp6
 70
     1
102
RTVSPropertyOp7
 70
     1
102
RTVSPropertyOp8
 70
     1
102
RTVSPropertyOp9
 70
     1
102
RTVSPropertyOp10
 70
     1
102
RTVSPropertyOp11
 70
     1
102
RTVSPropertyOp12
 70
     1
102
RTVSPropertyOp13
 70
     1
102
RTVSPropertyOp14
 70
     1
102
RTVSPropertyOp15
 70
     1
102
RTVSPropertyOp16
 70
     1
102
RTVSPropertyOp17
 70
     1
102
RTVSPropertyOp18
 70
     1
102
RTVSPropertyOp19
 70
     1
102
RTVSPropertyOp20
 70
     1
102
RTVSPropertyOp21
 70
     1
102
RTVSPropertyOp22
 70
     1
102
RTVSPropertyOp23
 70
     1
102
RTVSPropertyOp24
 70
     1
102
RTVSPropertyOp25
 70
     1
102
RTVSPropertyOp26
 70
     1
102
RTVSPropertyOp27
 70
     1
102
RTVSPropertyOp28
 70
     1
102
RTVSPropertyOp29
 70
     1
102
RTVSPropertyOp30
 70
     1
102
RTVSPropertyOp31
 70
     1
102
RTVSPropertyOp32
 70
     1
  0
XRECORD
  5
128D
102
{ACAD_REACTORS
330
128C
102
}
330
128C
100
AcDbXrecord
280
     1
102
RTVSPropertyOp0
 70
     1
102
RTVSPropertyOp1
 70
     1
102
RTVSPropertyOp2
 70
     1
102
RTVSPropertyOp3
 70
     1
102
RTVSPropertyOp4
 70
     1
102
RTVSPropertyOp5
 70
     1
102
RTVSPropertyOp6
 70
     1
102
RTVSPropertyOp7
 70
     1
102
RTVSPropertyOp8
 70
     1
102
RTVSPropertyOp9
 70
     1
102
RTVSPropertyOp10
 70
     1
102
RTVSPropertyOp11
 70
     1
102
RTVSPropertyOp12
 70
     1
102
RTVSPropertyOp13
 70
     1
102
RTVSPropertyOp14
 70
     1
102
RTVSPropertyOp15
 70
     1
102
RTVSPropertyOp16
 70
     1
102
RTVSPropertyOp17
 70
     1
102
RTVSPropertyOp18
 70
     1
102
RTVSPropertyOp19
 70
     1
102
RTVSPropertyOp20
 70
     1
102
RTVSPropertyOp21
 70
     1
102
RTVSPropertyOp22
 70
     1
102
RTVSPropertyOp23
 70
     1
102
RTVSPropertyOp24
 70
     1
102
RTVSPropertyOp25
 70
     1
102
RTVSPropertyOp26
 70
     1
102
RTVSPropertyOp27
 70
     1
102
RTVSPropertyOp28
 70
     1
102
RTVSPropertyOp29
 70
     1
102
RTVSPropertyOp30
 70
     1
102
RTVSPropertyOp31
 70
     1
102
RTVSPropertyOp32
 70
     1
  0
XRECORD
  5
128F
102
{ACAD_REACTORS
330
128E
102
}
330
128E
100
AcDbXrecord
280
     1
102
RTVSPropertyOp0
 70
     1
102
RTVSPropertyOp1
 70
     1
102
RTVSPropertyOp2
 70
     1
102
RTVSPropertyOp3
 70
     1
102
RTVSPropertyOp4
 70
     1
102
RTVSPropertyOp5
 70
     1
102
RTVSPropertyOp6
 70
     1
102
RTVSPropertyOp7
 70
     1
102
RTVSPropertyOp8
 70
     1
102
RTVSPropertyOp9
 70
     1
102
RTVSPropertyOp10
 70
     1
102
RTVSPropertyOp11
 70
     1
102
RTVSPropertyOp12
 70
     1
102
RTVSPropertyOp13
 70
     1
102
RTVSPropertyOp14
 70
     1
102
RTVSPropertyOp15
 70
     1
102
RTVSPropertyOp16
 70
     1
102
RTVSPropertyOp17
 70
     1
102
RTVSPropertyOp18
 70
     1
102
RTVSPropertyOp19
 70
     1
102
RTVSPropertyOp20
 70
     1
102
RTVSPropertyOp21
 70
     1
102
RTVSPropertyOp22
 70
     1
102
RTVSPropertyOp23
 70
     1
102
RTVSPropertyOp24
 70
     1
102
RTVSPropertyOp25
 70
     1
102
RTVSPropertyOp26
 70
     1
102
RTVSPropertyOp27
 70
     1
102
RTVSPropertyOp28
 70
     1
102
RTVSPropertyOp29
 70
     1
102
RTVSPropertyOp30
 70
     1
102
RTVSPropertyOp31
 70
     1
102
RTVSPropertyOp32
 70
     1
  0
XRECORD
  5
127C
102
{ACAD_REACTORS
330
127B
102
}
330
127B
100
AcDbXrecord
280
     1
102
RTVSPropertyOp0
 70
     1
102
RTVSPropertyOp1
 70
     1
102
RTVSPropertyOp2
 70
     1
102
RTVSPropertyOp3
 70
     1
102
RTVSPropertyOp4
 70
     1
102
RTVSPropertyOp5
 70
     1
102
RTVSPropertyOp6
 70
     1
102
RTVSPropertyOp7
 70
     1
102
RTVSPropertyOp8
 70
     1
102
RTVSPropertyOp9
 70
     1
102
RTVSPropertyOp10
 70
     1
102
RTVSPropertyOp11
 70
     1
102
RTVSPropertyOp12
 70
     1
102
RTVSPropertyOp13
 70
     1
102
RTVSPropertyOp14
 70
     1
102
RTVSPropertyOp15
 70
     1
102
RTVSPropertyOp16
 70
     1
102
RTVSPropertyOp17
 70
     1
102
RTVSPropertyOp18
 70
     1
102
RTVSPropertyOp19
 70
     1
102
RTVSPropertyOp20
 70
     1
102
RTVSPropertyOp21
 70
     1
102
RTVSPropertyOp22
 70
     1
102
RTVSPropertyOp23
 70
     1
102
RTVSPropertyOp24
 70
     1
102
RTVSPropertyOp25
 70
     1
102
RTVSPropertyOp26
 70
     1
102
RTVSPropertyOp27
 70
     1
102
RTVSPropertyOp28
 70
     1
102
RTVSPropertyOp29
 70
     1
102
RTVSPropertyOp30
 70
     1
102
RTVSPropertyOp31
 70
     1
102
RTVSPropertyOp32
 70
     1
  0
XRECORD
  5
1289
102
{ACAD_REACTORS
330
1288
102
}
330
1288
100
AcDbXrecord
280
     1
102
RTVSPropertyOp0
 70
     1
102
RTVSPropertyOp1
 70
     1
102
RTVSPropertyOp2
 70
     1
102
RTVSPropertyOp3
 70
     1
102
RTVSPropertyOp4
 70
     1
102
RTVSPropertyOp5
 70
     1
102
RTVSPropertyOp6
 70
     1
102
RTVSPropertyOp7
 70
     1
102
RTVSPropertyOp8
 70
     1
102
RTVSPropertyOp9
 70
     1
102
RTVSPropertyOp10
 70
     1
102
RTVSPropertyOp11
 70
     1
102
RTVSPropertyOp12
 70
     1
102
RTVSPropertyOp13
 70
     1
102
RTVSPropertyOp14
 70
     1
102
RTVSPropertyOp15
 70
     1
102
RTVSPropertyOp16
 70
     1
102
RTVSPropertyOp17
 70
     1
102
RTVSPropertyOp18
 70
     1
102
RTVSPropertyOp19
 70
     1
102
RTVSPropertyOp20
 70
     1
102
RTVSPropertyOp21
 70
     1
102
RTVSPropertyOp22
 70
     1
102
RTVSPropertyOp23
 70
     1
102
RTVSPropertyOp24
 70
     1
102
RTVSPropertyOp25
 70
     1
102
RTVSPropertyOp26
 70
     1
102
RTVSPropertyOp27
 70
     1
102
RTVSPropertyOp28
 70
     1
102
RTVSPropertyOp29
 70
     1
102
RTVSPropertyOp30
 70
     1
102
RTVSPropertyOp31
 70
     1
102
RTVSPropertyOp32
 70
     1
  0
XRECORD
  5
1291
102
{ACAD_REACTORS
330
1290
102
}
330
1290
100
AcDbXrecord
280
     1
102
RTVSPropertyOp0
 70
     1
102
RTVSPropertyOp1
 70
     1
102
RTVSPropertyOp2
 70
     1
102
RTVSPropertyOp3
 70
     1
102
RTVSPropertyOp4
 70
     1
102
RTVSPropertyOp5
 70
     1
102
RTVSPropertyOp6
 70
     1
102
RTVSPropertyOp7
 70
     1
102
RTVSPropertyOp8
 70
     1
102
RTVSPropertyOp9
 70
     1
102
RTVSPropertyOp10
 70
     1
102
RTVSPropertyOp11
 70
     1
102
RTVSPropertyOp12
 70
     1
102
RTVSPropertyOp13
 70
     1
102
RTVSPropertyOp14
 70
     1
102
RTVSPropertyOp15
 70
     1
102
RTVSPropertyOp16
 70
     1
102
RTVSPropertyOp17
 70
     1
102
RTVSPropertyOp18
 70
     1
102
RTVSPropertyOp19
 70
     1
102
RTVSPropertyOp20
 70
     1
102
RTVSPropertyOp21
 70
     1
102
RTVSPropertyOp22
 70
     1
102
RTVSPropertyOp23
 70
     1
102
RTVSPropertyOp24
 70
     1
102
RTVSPropertyOp25
 70
     1
102
RTVSPropertyOp26
 70
     1
102
RTVSPropertyOp27
 70
     1
102
RTVSPropertyOp28
 70
     1
102
RTVSPropertyOp29
 70
     1
102
RTVSPropertyOp30
 70
     1
102
RTVSPropertyOp31
 70
     1
102
RTVSPropertyOp32
 70
     1
  0
ENDSEC
  0
EOF
