  0
SECTION
  2
HEADER
  9
$ACADVER
  1
AC1015
  9
$ACADMAINTVER
 70
    20
  9
$DWGCODEPAGE
  3
ANSI_932
  9
$INSBASE
 10
0.0
 20
0.0
 30
0.0
  9
$EXTMIN
 10
-138.5
 20
-90.0
 30
0.0
  9
$EXTMAX
 10
138.5
 20
98.472617
 30
0.0
  9
$LIMMIN
 10
-138.501
 20
-90.00100000000001
  9
$LIMMAX
 10
138.510415
 20
98.47361800000001
  9
$ORTHOMODE
 70
     1
  9
$REGENMODE
 70
     1
  9
$FILLMODE
 70
     1
  9
$QTEXTMODE
 70
     0
  9
$MIRRTEXT
 70
     0
  9
$LTSCALE
 40
4.616823999999998
  9
$ATTMODE
 70
     1
  9
$TEXTSIZE
 40
3.2
  9
$TRACEWID
 40
0.05
  9
$TEXTSTYLE
  7
高3.2
  9
$CLAYER
  8
0
  9
$CELTYPE
  6
CONTINUOUS
  9
$CECOLOR
 62
   256
  9
$CELTSCALE
 40
1.0
  9
$DISPSILH
 70
     0
  9
$DIMSCALE
 40
1.0
  9
$DIMASZ
 40
2.5
  9
$DIMEXO
 40
0.25
  9
$DIMDLI
 40
0.2
  9
$DIMRND
 40
0.0
  9
$DIMDLE
 40
0.0
  9
$DIMEXE
 40
1.25
  9
$DIMTP
 40
0.0
  9
$DIMTM
 40
0.0
  9
$DIMTXT
 40
3.0
  9
$DIMCEN
 40
0.0
  9
$DIMTSZ
 40
0.0
  9
$DIMTOL
 70
     0
  9
$DIMLIM
 70
     0
  9
$DIMTIH
 70
     0
  9
$DIMTOH
 70
     0
  9
$DIMSE1
 70
     0
  9
$DIMSE2
 70
     0
  9
$DIMTAD
 70
     3
  9
$DIMZIN
 70
     8
  9
$DIMBLK
  1
Open30
  9
$DIMASO
 70
     1
  9
$DIMSHO
 70
     1
  9
$DIMPOST
  1

  9
$DIMAPOST
  1

  9
$DIMALT
 70
     0
  9
$DIMALTD
 70
     3
  9
$DIMALTF
 40
0.03937007874016
  9
$DIMLFAC
 40
1.0
  9
$DIMTOFL
 70
     1
  9
$DIMTVP
 40
0.0
  9
$DIMTIX
 70
     0
  9
$DIMSOXD
 70
     0
  9
$DIMSAH
 70
     0
  9
$DIMBLK1
  1

  9
$DIMBLK2
  1

  9
$DIMSTYLE
  2
FREE
  9
$DIMCLRD
 70
     0
  9
$DIMCLRE
 70
     0
  9
$DIMCLRT
 70
     4
  9
$DIMTFAC
 40
1.0
  9
$DIMGAP
 40
0.625
  9
$DIMJUST
 70
     0
  9
$DIMSD1
 70
     0
  9
$DIMSD2
 70
     0
  9
$DIMTOLJ
 70
     0
  9
$DIMTZIN
 70
     8
  9
$DIMALTZ
 70
     0
  9
$DIMALTTZ
 70
     0
  9
$DIMUPT
 70
     1
  9
$DIMDEC
 70
     2
  9
$DIMTDEC
 70
     2
  9
$DIMALTU
 70
     2
  9
$DIMALTTD
 70
     3
  9
$DIMTXSTY
  7
STANDARD
  9
$DIMAUNIT
 70
     0
  9
$DIMADEC
 70
     1
  9
$DIMALTRND
 40
0.0
  9
$DIMAZIN
 70
     2
  9
$DIMDSEP
 70
    46
  9
$DIMATFIT
 70
     0
  9
$DIMFRAC
 70
     0
  9
$DIMLDRBLK
  1
Open30
  9
$DIMLUNIT
 70
     2
  9
$DIMLWD
 70
    -2
  9
$DIMLWE
 70
    -2
  9
$DIMTMOVE
 70
     0
  9
$LUNITS
 70
     2
  9
$LUPREC
 70
     4
  9
$SKETCHINC
 40
0.1
  9
$FILLETRAD
 40
0.0
  9
$AUNITS
 70
     0
  9
$AUPREC
 70
     0
  9
$MENU
  1
.
  9
$ELEVATION
 40
0.0
  9
$PELEVATION
 40
0.0
  9
$THICKNESS
 40
0.0
  9
$LIMCHECK
 70
     0
  9
$CHAMFERA
 40
0.0
  9
$CHAMFERB
 40
0.0
  9
$CHAMFERC
 40
0.0
  9
$CHAMFERD
 40
0.0
  9
$SKPOLY
 70
     0
  9
$TDCREATE
 40
2456352.420341424
  9
$TDUCREATE
 40
2456352.045341424
  9
$TDUPDATE
 40
2458661.601901285
  9
$TDUUPDATE
 40
2458661.226901285
  9
$TDINDWG
 40
0.0215535648
  9
$TDUSRTIMER
 40
0.0215439352
  9
$USRTIMER
 70
     1
  9
$ANGBASE
 50
0.0
  9
$ANGDIR
 70
     0
  9
$PDMODE
 70
     0
  9
$PDSIZE
 40
0.0
  9
$PLINEWID
 40
0.0
  9
$SPLFRAME
 70
     0
  9
$SPLINETYPE
 70
     6
  9
$SPLINESEGS
 70
     8
  9
$HANDSEED
  5
5FE
  9
$SURFTAB1
 70
     6
  9
$SURFTAB2
 70
     6
  9
$SURFTYPE
 70
     6
  9
$SURFU
 70
     6
  9
$SURFV
 70
     6
  9
$UCSBASE
  2

  9
$UCSNAME
  2

  9
$UCSORG
 10
0.0
 20
0.0
 30
0.0
  9
$UCSXDIR
 10
1.0
 20
0.0
 30
0.0
  9
$UCSYDIR
 10
0.0
 20
1.0
 30
0.0
  9
$UCSORTHOREF
  2

  9
$UCSORTHOVIEW
 70
     0
  9
$UCSORGTOP
 10
0.0
 20
0.0
 30
0.0
  9
$UCSORGBOTTOM
 10
0.0
 20
0.0
 30
0.0
  9
$UCSORGLEFT
 10
0.0
 20
0.0
 30
0.0
  9
$UCSORGRIGHT
 10
0.0
 20
0.0
 30
0.0
  9
$UCSORGFRONT
 10
0.0
 20
0.0
 30
0.0
  9
$UCSORGBACK
 10
0.0
 20
0.0
 30
0.0
  9
$PUCSBASE
  2

  9
$PUCSNAME
  2

  9
$PUCSORG
 10
0.0
 20
0.0
 30
0.0
  9
$PUCSXDIR
 10
1.0
 20
0.0
 30
0.0
  9
$PUCSYDIR
 10
0.0
 20
1.0
 30
0.0
  9
$PUCSORTHOREF
  2

  9
$PUCSORTHOVIEW
 70
     0
  9
$PUCSORGTOP
 10
0.0
 20
0.0
 30
0.0
  9
$PUCSORGBOTTOM
 10
0.0
 20
0.0
 30
0.0
  9
$PUCSORGLEFT
 10
0.0
 20
0.0
 30
0.0
  9
$PUCSORGRIGHT
 10
0.0
 20
0.0
 30
0.0
  9
$PUCSORGFRONT
 10
0.0
 20
0.0
 30
0.0
  9
$PUCSORGBACK
 10
0.0
 20
0.0
 30
0.0
  9
$USERI1
 70
     0
  9
$USERI2
 70
     0
  9
$USERI3
 70
     0
  9
$USERI4
 70
     0
  9
$USERI5
 70
     0
  9
$USERR1
 40
0.0
  9
$USERR2
 40
0.0
  9
$USERR3
 40
0.0
  9
$USERR4
 40
0.0
  9
$USERR5
 40
0.0
  9
$WORLDVIEW
 70
     1
  9
$SHADEDGE
 70
     3
  9
$SHADEDIF
 70
    70
  9
$TILEMODE
 70
     1
  9
$MAXACTVP
 70
    64
  9
$PINSBASE
 10
0.0
 20
0.0
 30
0.0
  9
$PLIMCHECK
 70
     0
  9
$PEXTMIN
 10
1.000000000000000E+20
 20
1.000000000000000E+20
 30
1.000000000000000E+20
  9
$PEXTMAX
 10
-1.000000000000000E+20
 20
-1.000000000000000E+20
 30
-1.000000000000000E+20
  9
$PLIMMIN
 10
0.0
 20
0.0
  9
$PLIMMAX
 10
12.0
 20
9.0
  9
$UNITMODE
 70
     0
  9
$VISRETAIN
 70
     1
  9
$PLINEGEN
 70
     0
  9
$PSLTSCALE
 70
     1
  9
$TREEDEPTH
 70
  3020
  9
$CMLSTYLE
  2
Standard
  9
$CMLJUST
 70
     0
  9
$CMLSCALE
 40
1.0
  9
$PROXYGRAPHICS
 70
     1
  9
$MEASUREMENT
 70
     0
  9
$CELWEIGHT
370
    -1
  9
$ENDCAPS
280
     0
  9
$JOINSTYLE
280
     0
  9
$LWDISPLAY
290
     0
  9
$INSUNITS
 70
     0
  9
$HYPERLINKBASE
  1

  9
$STYLESHEET
  1

  9
$XEDIT
290
     1
  9
$CEPSNTYPE
380
     0
  9
$PSTYLEMODE
290
     1
  9
$FINGERPRINTGUID
  2
{768F7238-07E7-4802-A719-1EB9757BD923}
  9
$VERSIONGUID
  2
{3EBB7478-B993-4C01-B387-382E3220A13F}
  9
$EXTNAMES
290
     1
  9
$PSVPSCALE
 40
0.0
  9
$OLESTARTUP
290
     0
  0
ENDSEC
  0
SECTION
  2
CLASSES
  0
CLASS
  1
ACDBDICTIONARYWDFLT
  2
AcDbDictionaryWithDefault
  3
ObjectDBX Classes
 90
        0
280
     0
281
     0
  0
CLASS
  1
MATERIAL
  2
AcDbMaterial
  3
ObjectDBX Classes
 90
     1153
280
     0
281
     0
  0
CLASS
  1
VISUALSTYLE
  2
AcDbVisualStyle
  3
ObjectDBX Classes
 90
     4095
280
     0
281
     0
  0
CLASS
  1
SCALE
  2
AcDbScale
  3
ObjectDBX Classes
 90
     1153
280
     0
281
     0
  0
CLASS
  1
TABLESTYLE
  2
AcDbTableStyle
  3
ObjectDBX Classes
 90
     4095
280
     0
281
     0
  0
CLASS
  1
MLEADERSTYLE
  2
AcDbMLeaderStyle
  3
ACDB_MLEADERSTYLE_CLASS
 90
     4095
280
     0
281
     0
  0
CLASS
  1
SORTENTSTABLE
  2
AcDbSortentsTable
  3
ObjectDBX Classes
 90
        0
280
     0
281
     0
  0
CLASS
  1
DICTIONARYVAR
  2
AcDbDictionaryVar
  3
ObjectDBX Classes
 90
        0
280
     0
281
     0
  0
CLASS
  1
CELLSTYLEMAP
  2
AcDbCellStyleMap
  3
ObjectDBX Classes
 90
     1152
280
     0
281
     0
  0
CLASS
  1
ACDBPLACEHOLDER
  2
AcDbPlaceHolder
  3
ObjectDBX Classes
 90
        0
280
     0
281
     0
  0
CLASS
  1
LAYOUT
  2
AcDbLayout
  3
ObjectDBX Classes
 90
        0
280
     0
281
     0
  0
CLASS
  1
AEC_REFEDIT_STATUS_TRACKER
  2
AecDbRefEditStatusTracker
  3
AecArchBase60|Product Desc: Autodesk Architectural Desktop 2007 |Company: Autodesk,Inc. |WEB Address: www.autodesk.com
 90
      129
280
     0
281
     0
  0
CLASS
  1
NPOCOLLECTION
  2
AcDbImpNonPersistentObjectsCollection
  3
ObjectDBX Classes
 90
     1153
280
     0
281
     0
  0
ENDSEC
  0
SECTION
  2
TABLES
  0
TABLE
  2
VPORT
  5
8
330
0
100
AcDbSymbolTable
 70
     1
  0
VPORT
  5
8B
330
8
100
AcDbSymbolTableRecord
100
AcDbViewportTableRecord
  2
*Active
 70
     0
 10
0.0
 20
0.0
 11
1.0
 21
1.0
 12
-30.41551962946949
 22
-27.06679851844524
 13
0.0
 23
0.0
 14
1.0
 24
1.0
 15
0.0
 25
0.0
 16
0.0
 26
0.0
 36
1.0
 17
0.0
 27
0.0
 37
0.0
 40
445.1413248310846
 41
1.604693140794223
 42
50.0
 43
0.0
 44
0.0
 50
0.0
 51
0.0
 71
     0
 72
  1000
 73
     1
 74
     1
 75
     0
 76
     0
 77
     0
 78
     0
281
     0
 65
     1
110
0.0
120
0.0
130
0.0
111
1.0
121
0.0
131
0.0
112
0.0
122
1.0
132
0.0
 79
     0
146
0.0
  0
ENDTAB
  0
TABLE
  2
LTYPE
  5
5
330
0
100
AcDbSymbolTable
 70
     2
  0
LTYPE
  5
5A
330
5
100
AcDbSymbolTableRecord
100
AcDbLinetypeTableRecord
  2
ByBlock
 70
     0
  3

 72
    65
 73
     0
 40
0.0
  0
LTYPE
  5
5B
330
5
100
AcDbSymbolTableRecord
100
AcDbLinetypeTableRecord
  2
ByLayer
 70
     0
  3

 72
    65
 73
     0
 40
0.0
  0
LTYPE
  5
5C
330
5
100
AcDbSymbolTableRecord
100
AcDbLinetypeTableRecord
  2
CONTINUOUS
 70
     0
  3
Solid-line
 72
    65
 73
     0
 40
0.0
  0
ENDTAB
  0
TABLE
  2
LAYER
  5
2
102
{ACAD_XDICTIONARY
360
2FC
102
}
330
0
100
AcDbSymbolTable
 70
     2
  0
LAYER
  5
54
102
{ACAD_XDICTIONARY
360
482
102
}
330
2
100
AcDbSymbolTableRecord
100
AcDbLayerTableRecord
  2
0
 70
     0
 62
     7
  6
CONTINUOUS
370
    -3
390
F
  0
LAYER
  5
2E5
330
2
100
AcDbSymbolTableRecord
100
AcDbLayerTableRecord
  2
Defpoints
 70
     0
 62
     7
  6
CONTINUOUS
290
     0
370
    -3
390
F
  0
ENDTAB
  0
TABLE
  2
STYLE
  5
3
330
0
100
AcDbSymbolTable
 70
     5
  0
STYLE
  5
55
330
3
100
AcDbSymbolTableRecord
100
AcDbTextStyleTableRecord
  2
STANDARD
 70
     0
 40
0.0
 41
1.0
 50
0.0
 71
     0
 42
0.2
  3
TXT
  4
BIGFONT
  0
STYLE
  5
2E6
330
3
100
AcDbSymbolTableRecord
100
AcDbTextStyleTableRecord
  2
高3.2
 70
     0
 40
3.2
 41
1.0
 50
0.0
 71
     0
 42
3.2
  3
txt.shx
  4
bigfont.shx
  0
STYLE
  5
2E7
330
3
100
AcDbSymbolTableRecord
100
AcDbTextStyleTableRecord
  2
高6.3
 70
     0
 40
6.299999999999998
 41
1.0
 50
0.0
 71
     0
 42
6.299999999999998
  3
txt.shx
  4
bigfont.shx
  0
STYLE
  5
2E9
330
3
100
AcDbSymbolTableRecord
100
AcDbTextStyleTableRecord
  2
高4.5
 70
     0
 40
4.5
 41
1.0
 50
0.0
 71
     0
 42
6.299999999999998
  3
txt.shx
  4
bigfont.shx
  0
STYLE
  5
2EA
330
3
100
AcDbSymbolTableRecord
100
AcDbTextStyleTableRecord
  2
高2
 70
     0
 40
2.0
 41
1.0
 50
0.0
 71
     0
 42
2.0
  3
txt.shx
  4
bigfont.shx
  0
ENDTAB
  0
TABLE
  2
VIEW
  5
6
330
0
100
AcDbSymbolTable
 70
     0
  0
ENDTAB
  0
TABLE
  2
UCS
  5
7
330
0
100
AcDbSymbolTable
 70
     0
  0
ENDTAB
  0
TABLE
  2
APPID
  5
9
330
0
100
AcDbSymbolTable
 70
    10
  0
APPID
  5
56
330
9
100
AcDbSymbolTableRecord
100
AcDbRegAppTableRecord
  2
ACAD
 70
     0
  0
APPID
  5
5D
330
9
100
AcDbSymbolTableRecord
100
AcDbRegAppTableRecord
  2
AcadAnnotative
 70
     0
  0
APPID
  5
2F5
330
9
100
AcDbSymbolTableRecord
100
AcDbRegAppTableRecord
  2
ACAD_DSTYLE_DIMJOGGED_JOGANGLE_SYMBOL
 70
     0
  0
APPID
  5
2F6
330
9
100
AcDbSymbolTableRecord
100
AcDbRegAppTableRecord
  2
ACAD_DSTYLE_DIMJAG
 70
     0
  0
APPID
  5
2F7
330
9
100
AcDbSymbolTableRecord
100
AcDbRegAppTableRecord
  2
ACAD_DSTYLE_DIMBREAK
 70
     0
  0
APPID
  5
2F8
330
9
100
AcDbSymbolTableRecord
100
AcDbRegAppTableRecord
  2
ACAD_DSTYLE_DIMTALN
 70
     0
  0
APPID
  5
43C
330
9
100
AcDbSymbolTableRecord
100
AcDbRegAppTableRecord
  2
ACAD_EXEMPT_FROM_CAD_STANDARDS
 70
     0
  0
APPID
  5
4C8
330
9
100
AcDbSymbolTableRecord
100
AcDbRegAppTableRecord
  2
ACAD_MLEADERVER
 70
     0
  0
APPID
  5
4CD
330
9
100
AcDbSymbolTableRecord
100
AcDbRegAppTableRecord
  2
ACAD_DSTYLE_DIMARC_LENGTH_SYMBOL
 70
     0
  0
APPID
  5
4CE
330
9
100
AcDbSymbolTableRecord
100
AcDbRegAppTableRecord
  2
ACAD_DSTYLE_DIMEXT_LENGTH
 70
     0
  0
ENDTAB
  0
TABLE
  2
DIMSTYLE
  5
A
330
0
100
AcDbSymbolTable
 70
     2
100
AcDbDimStyleTable
 71
     2
340
2F4
340
57
  0
DIMSTYLE
105
57
330
A
100
AcDbSymbolTableRecord
100
AcDbDimStyleTableRecord
  2
Standard
 70
     0
340
55
  0
DIMSTYLE
105
2F4
330
A
100
AcDbSymbolTableRecord
100
AcDbDimStyleTableRecord
  2
FREE
 70
     0
 41
2.5
 42
0.25
 43
0.2
 44
1.25
 73
     0
 74
     0
 77
     3
 78
     8
 79
     2
140
3.0
141
0.0
143
0.03937007874016
147
0.625
171
     3
172
     1
178
     4
179
     1
271
     2
272
     2
274
     3
283
     0
284
     8
288
     1
289
     0
340
55
341
255
342
255
1001
ACAD_DSTYLE_DIMBREAK
1070
   391
1040
3.75
1001
ACAD_DSTYLE_DIMJAG
1070
   388
1040
1.5
1001
ACAD_DSTYLE_DIMTALN
1070
   392
1070
     0
1001
ACAD_DSTYLE_DIMARC_LENGTH_SYMBOL
1070
   379
1070
     2
1001
ACAD_DSTYLE_DIMEXT_LENGTH
1070
   378
1040
1.25
1001
ACAD_DSTYLE_DIMJOGGED_JOGANGLE_SYMBOL
1070
   384
1040
1.570796326794896
  0
ENDTAB
  0
TABLE
  2
BLOCK_RECORD
  5
1
330
0
100
AcDbSymbolTable
 70
     3
  0
BLOCK_RECORD
  5
6B
102
{ACAD_XDICTIONARY
360
59D
102
}
330
1
100
AcDbSymbolTableRecord
100
AcDbBlockTableRecord
  2
*Model_Space
340
6E
  0
BLOCK_RECORD
  5
67
330
1
100
AcDbSymbolTableRecord
100
AcDbBlockTableRecord
  2
*Paper_Space
340
6A
  0
BLOCK_RECORD
  5
255
330
1
100
AcDbSymbolTableRecord
100
AcDbBlockTableRecord
  2
_Open30
340
0
102
{BLKREFS
331
540
331
541
331
549
331
54A
102
}
  0
BLOCK_RECORD
  5
444
330
1
100
AcDbSymbolTableRecord
100
AcDbBlockTableRecord
  2
*D1
340
0
  0
BLOCK_RECORD
  5
451
330
1
100
AcDbSymbolTableRecord
100
AcDbBlockTableRecord
  2
*D2
340
0
  0
ENDTAB
  0
ENDSEC
  0
SECTION
  2
BLOCKS
  0
BLOCK
  5
6C
330
6B
100
AcDbEntity
  8
0
100
AcDbBlockBegin
  2
*Model_Space
 70
     0
 10
0.0
 20
0.0
 30
0.0
  3
*Model_Space
  1

  0
ENDBLK
  5
6D
330
6B
100
AcDbEntity
  8
0
100
AcDbBlockEnd
  0
BLOCK
  5
68
330
67
100
AcDbEntity
 67
     1
  8
0
100
AcDbBlockBegin
  2
*Paper_Space
 70
     0
 10
0.0
 20
0.0
 30
0.0
  3
*Paper_Space
  1

  0
ENDBLK
  5
69
330
67
100
AcDbEntity
 67
     1
  8
0
100
AcDbBlockEnd
  0
BLOCK
  5
256
330
255
100
AcDbEntity
  8
0
100
AcDbBlockBegin
  2
_Open30
 70
     0
 10
0.0
 20
0.0
 30
0.0
  3
_Open30
  1

  0
LINE
  5
257
330
255
100
AcDbEntity
  8
0
  6
ByBlock
 62
     0
370
    -2
100
AcDbLine
 10
-1.0
 20
0.267949
 30
0.0
 11
0.0
 21
0.0
 31
0.0
  0
LINE
  5
258
330
255
100
AcDbEntity
  8
0
  6
ByBlock
 62
     0
370
    -2
100
AcDbLine
 10
0.0
 20
0.0
 30
0.0
 11
-1.0
 21
-0.267949
 31
0.0
  0
LINE
  5
259
330
255
100
AcDbEntity
  8
0
  6
ByBlock
 62
     0
370
    -2
100
AcDbLine
 10
0.0
 20
0.0
 30
0.0
 11
-1.0
 21
0.0
 31
0.0
  0
ENDBLK
  5
25A
330
255
100
AcDbEntity
  8
0
100
AcDbBlockEnd
  0
BLOCK
  5
445
330
444
100
AcDbEntity
  8
0
100
AcDbBlockBegin
  2
*D1
 70
     1
 10
0.0
 20
0.0
 30
0.0
  3
*D1
  1

  0
LINE
  5
53D
330
444
100
AcDbEntity
  8
0
 62
     0
370
    -2
100
AcDbLine
 10
40.802252
 20
23.136407
 30
0.0
 11
40.802252
 21
-3.405438999999997
 31
0.0
  0
LINE
  5
53E
330
444
100
AcDbEntity
  8
0
 62
     0
370
    -2
100
AcDbLine
 10
81.28270400000003
 20
19.81841499999999
 30
0.0
 11
81.28270400000003
 21
-3.405438999999997
 31
0.0
  0
LINE
  5
53F
330
444
100
AcDbEntity
  8
0
 62
     0
370
    -2
100
AcDbLine
 10
43.302252
 20
-2.155438999999998
 30
0.0
 11
78.78270400000002
 21
-2.155438999999998
 31
0.0
  0
INSERT
  5
540
330
444
100
AcDbEntity
  8
0
 62
     0
370
    -2
100
AcDbBlockReference
  2
_Open30
 10
40.802252
 20
-2.155438999999998
 30
0.0
 41
2.5
 42
2.5
 43
2.5
 50
180.0
  0
INSERT
  5
541
330
444
100
AcDbEntity
  8
0
 62
     0
370
    -2
100
AcDbBlockReference
  2
_Open30
 10
81.28270400000003
 20
-2.155438999999998
 30
0.0
 41
2.5
 42
2.5
 43
2.5
  0
MTEXT
  5
542
330
444
100
AcDbEntity
  8
0
 62
     4
100
AcDbMText
 10
61.04247800000002
 20
-0.0304389999999981
 30
0.0
 40
3.0
 41
0.0
 71
     5
 72
     1
  1
120
 73
     1
 44
1.0
1001
ACAD
1000
MTEXTBEGIN
1070
    73
1070
     1
1070
    44
1040
1.0
1070
    74
1070
     0
1000
MTEXTEND
  0
POINT
  5
543
330
444
100
AcDbEntity
  8
Defpoints
 62
     0
100
AcDbPoint
 10
40.802252
 20
23.386407
 30
0.0
  0
POINT
  5
544
330
444
100
AcDbEntity
  8
Defpoints
 62
     0
100
AcDbPoint
 10
81.28270400000003
 20
20.068415
 30
0.0
  0
POINT
  5
545
330
444
100
AcDbEntity
  8
Defpoints
 62
     0
100
AcDbPoint
 10
81.28270400000003
 20
-2.155438999999998
 30
0.0
  0
ENDBLK
  5
446
330
444
100
AcDbEntity
  8
0
100
AcDbBlockEnd
  0
BLOCK
  5
452
330
451
100
AcDbEntity
  8
0
100
AcDbBlockBegin
  2
*D2
 70
     1
 10
0.0
 20
0.0
 30
0.0
  3
*D2
  1

  0
LINE
  5
546
330
451
100
AcDbEntity
  8
0
 62
     0
370
    -2
100
AcDbLine
 10
-87.773319
 20
21.488547
 30
0.0
 11
-87.773319
 21
-3.405438999999997
 31
0.0
  0
LINE
  5
547
330
451
100
AcDbEntity
  8
0
 62
     0
370
    -2
100
AcDbLine
 10
40.802252
 20
23.136407
 30
0.0
 11
40.802252
 21
-3.405438999999997
 31
0.0
  0
LINE
  5
548
330
451
100
AcDbEntity
  8
0
 62
     0
370
    -2
100
AcDbLine
 10
-85.273319
 20
-2.155438999999998
 30
0.0
 11
38.302252
 21
-2.155438999999998
 31
0.0
  0
INSERT
  5
549
330
451
100
AcDbEntity
  8
0
 62
     0
370
    -2
100
AcDbBlockReference
  2
_Open30
 10
-87.773319
 20
-2.155438999999998
 30
0.0
 41
2.5
 42
2.5
 43
2.5
 50
180.0
  0
INSERT
  5
54A
330
451
100
AcDbEntity
  8
0
 62
     0
370
    -2
100
AcDbBlockReference
  2
_Open30
 10
40.802252
 20
-2.155438999999998
 30
0.0
 41
2.5
 42
2.5
 43
2.5
  0
MTEXT
  5
54B
330
451
100
AcDbEntity
  8
0
 62
     4
100
AcDbMText
 10
-23.4855335
 20
-0.0304389999999981
 30
0.0
 40
3.0
 41
0.0
 71
     5
 72
     1
  1
380
 73
     1
 44
1.0
1001
ACAD
1000
MTEXTBEGIN
1070
    73
1070
     1
1070
    44
1040
1.0
1070
    74
1070
     0
1000
MTEXTEND
  0
POINT
  5
54C
330
451
100
AcDbEntity
  8
Defpoints
 62
     0
100
AcDbPoint
 10
-87.773319
 20
21.738547
 30
0.0
  0
POINT
  5
54D
330
451
100
AcDbEntity
  8
Defpoints
 62
     0
100
AcDbPoint
 10
40.802252
 20
23.386407
 30
0.0
  0
POINT
  5
54E
330
451
100
AcDbEntity
  8
Defpoints
 62
     0
100
AcDbPoint
 10
40.802252
 20
-2.155438999999998
 30
0.0
  0
ENDBLK
  5
453
330
451
100
AcDbEntity
  8
0
100
AcDbBlockEnd
  0
ENDSEC
  0
SECTION
  2
ENTITIES
  0
LINE
  5
AE
330
6B
100
AcDbEntity
  8
0
 62
     3
100
AcDbLine
 10
0.0
 20
98.472617
 30
0.0
 11
0.0
 21
97.224058
 31
0.0
  0
TEXT
  5
AF
330
6B
100
AcDbEntity
  8
0
 62
     3
100
AcDbText
 10
-45.759344
 20
-26.3817435104246
 30
0.0
 40
4.5
  1
電　線　仕　様
  7
高4.5
100
AcDbText
  0
LINE
  5
B0
330
6B
100
AcDbEntity
  8
0
 62
     3
100
AcDbLine
 10
-59.99803716478076
 20
-61.23041800000001
 30
0.0
 11
4.143005946184721
 21
-61.23041800000001
 31
0.0
  0
TEXT
  5
B1
330
6B
100
AcDbEntity
  8
0
 62
     3
100
AcDbText
 10
-58.49803716478077
 20
-44.73041799999999
 30
0.0
 40
4.5
  1
電線種類
  7
高4.5
100
AcDbText
  0
TEXT
  5
B2
330
6B
100
AcDbEntity
  8
0
 62
     3
100
AcDbText
 10
-58.49803716478077
 20
-60.73041800000001
 30
0.0
 40
4.5
  1
電線長さ
  7
高4.5
100
AcDbText
  0
TEXT
  5
B3
330
6B
100
AcDbEntity
  8
0
 62
     3
100
AcDbText
 10
-58.49803716478077
 20
-52.73041800000001
 30
0.0
 40
4.5
  1
サイズ
  7
高4.5
100
AcDbText
  0
LINE
  5
B4
330
6B
100
AcDbEntity
  8
0
 62
     3
100
AcDbLine
 10
4.143005946184721
 20
-61.23041800000001
 30
0.0
 11
4.143005946184721
 21
-29.230418
 31
0.0
  0
LINE
  5
B5
330
6B
100
AcDbEntity
  8
0
 62
     3
100
AcDbLine
 10
-59.99803716478076
 20
-61.23041800000001
 30
0.0
 11
-59.99803716478076
 21
-29.230418
 31
0.0
  0
TEXT
  5
B6
330
6B
100
AcDbEntity
  8
0
 62
     3
100
AcDbText
 10
-34.47857485235826
 20
-60.73041800000001
 30
0.0
 40
4.5
  1
0.5m
  7
高4.5
100
AcDbText
  0
TEXT
  5
B7
330
6B
100
AcDbEntity
  8
0
 62
     3
100
AcDbText
 10
43.30664399999998
 20
-58.46156099999999
 30
0.0
 40
4.5
  1
センサー付き電源コード
 41
0.7
  7
高4.5
100
AcDbText
  0
TEXT
  5
B8
330
6B
100
AcDbEntity
  8
0
 62
     3
100
AcDbText
 10
102.001169
 20
-79.26147999999997
 30
0.0
 40
3.2
  1
2003.4.18
  7
高3.2
100
AcDbText
  0
LINE
  5
B9
330
6B
100
AcDbEntity
  8
0
 62
     3
100
AcDbLine
 10
25.421231
 20
33.993294
 30
0.0
 11
25.421231
 21
24.660894
 31
0.0
  0
ARC
  5
BA
330
6B
100
AcDbEntity
  8
0
 62
     3
100
AcDbCircle
 10
36.596051
 20
25.327494
 30
0.0
 40
0.6666
100
AcDbArc
 50
270.0
 51
342.713035
  0
LINE
  5
BB
330
6B
100
AcDbEntity
  8
0
 62
     3
100
AcDbLine
 10
36.596051
 20
24.660894
 30
0.0
 11
25.421231
 21
24.660894
 31
0.0
  0
LINE
  5
BC
330
6B
100
AcDbEntity
  8
0
 62
     3
100
AcDbLine
 10
-21.08339
 20
24.660894
 30
0.0
 11
-9.908568999999999
 21
24.660894
 31
0.0
  0
LINE
  5
BD
330
6B
100
AcDbEntity
  8
0
 62
     3
100
AcDbLine
 10
16.088831
 20
33.326694
 30
0.0
 11
16.088831
 21
25.327494
 31
0.0
  0
LINE
  5
BE
330
6B
100
AcDbEntity
  8
0
 62
     3
100
AcDbLine
 10
6.089830999999997
 20
33.326694
 30
0.0
 11
6.089830999999997
 21
25.327494
 31
0.0
  0
LINE
  5
BF
330
6B
100
AcDbEntity
  8
0
 62
     3
100
AcDbLine
 10
-9.908568999999999
 20
33.993294
 30
0.0
 11
-9.908568999999999
 21
24.660894
 31
0.0
  0
LINE
  5
C0
330
6B
100
AcDbEntity
  8
0
 62
     3
100
AcDbLine
 10
16.088831
 20
33.326694
 30
0.0
 11
25.421231
 21
33.326694
 31
0.0
  0
LINE
  5
C1
330
6B
100
AcDbEntity
  8
0
 62
     3
100
AcDbLine
 10
6.089830999999997
 20
33.160044
 30
0.0
 11
16.088831
 21
33.160044
 31
0.0
  0
LINE
  5
C2
330
6B
100
AcDbEntity
  8
0
 62
     3
100
AcDbLine
 10
-9.908568999999999
 20
33.326694
 30
0.0
 11
6.089830999999997
 21
33.326694
 31
0.0
  0
LINE
  5
C3
330
6B
100
AcDbEntity
  8
0
 62
     3
100
AcDbLine
 10
-9.908568999999999
 20
25.327494
 30
0.0
 11
6.089830999999997
 21
25.327494
 31
0.0
  0
LINE
  5
C4
330
6B
100
AcDbEntity
  8
0
 62
     3
100
AcDbLine
 10
6.089830999999997
 20
25.494144
 30
0.0
 11
16.088831
 21
25.494144
 31
0.0
  0
LINE
  5
C5
330
6B
100
AcDbEntity
  8
0
 62
     3
100
AcDbLine
 10
16.088831
 20
25.327494
 30
0.0
 11
25.421231
 21
25.327494
 31
0.0
  0
LINE
  5
C6
330
6B
100
AcDbEntity
  8
0
 62
     3
100
AcDbLine
 10
-59.99803716478076
 20
-29.230418
 30
0.0
 11
4.143005946184721
 21
-29.230418
 31
0.0
  0
TEXT
  5
C7
330
6B
100
AcDbEntity
  8
0
 62
     3
100
AcDbText
 10
-58.49803716478077
 20
-36.730418
 30
0.0
 40
4.5
  1
定　　格
  7
高4.5
100
AcDbText
  0
TEXT
  5
C8
330
6B
100
AcDbEntity
  8
0
 62
     3
100
AcDbText
 10
-32.95564500000001
 20
50.798477
 30
0.0
 40
4.5
  1
センサー付き電源コード
  7
高4.5
100
AcDbText
  0
LINE
  5
CE
330
6B
100
AcDbEntity
  8
0
100
AcDbLine
 10
3.742982
 20
24.809841
 30
0.0
 11
-4.852261
 21
13.634712
 31
0.0
  0
LINE
  5
CF
330
6B
100
AcDbEntity
  8
0
100
AcDbLine
 10
-4.852261
 20
13.634712
 30
0.0
 11
-38.01086095563436
 21
13.634712
 31
0.0
  0
TEXT
  5
D0
330
6B
100
AcDbEntity
  8
0
 62
     4
100
AcDbText
 10
-38.44133999255314
 20
14.634712
 30
0.0
 40
3.2
  1
センサー式スイッチ
  7
高3.2
100
AcDbText
  0
LINE
  5
D3
330
6B
100
AcDbEntity
  8
0
100
AcDbLine
 10
-45.759344
 20
-27.071826
 30
0.0
 11
-8.780735100157697
 21
-27.071826
 31
0.0
  0
ARC
  5
D4
330
6B
100
AcDbEntity
  8
0
100
AcDbCircle
 10
39.753131
 20
30.660294
 30
0.0
 40
0.6666
100
AcDbArc
 50
0.0
 51
90.0
  0
ARC
  5
D5
330
6B
100
AcDbEntity
  8
0
100
AcDbCircle
 10
39.753131
 20
27.993894
 30
0.0
 40
0.6666
100
AcDbArc
 50
270.0
 51
0.0
  0
LINE
  5
D6
330
6B
100
AcDbEntity
  8
0
100
AcDbLine
 10
40.41973099999998
 20
27.993894
 30
0.0
 11
40.41973099999998
 21
30.660294
 31
0.0
  0
LINE
  5
D7
330
6B
100
AcDbEntity
  8
0
100
AcDbLine
 10
37.916556
 20
31.326894
 30
0.0
 11
37.916556
 21
27.327294
 31
0.0
  0
LINE
  5
D8
330
6B
100
AcDbEntity
  8
0
100
AcDbLine
 10
39.753131
 20
31.326894
 30
0.0
 11
37.916556
 21
31.326894
 31
0.0
  0
LINE
  5
D9
330
6B
100
AcDbEntity
  8
0
100
AcDbLine
 10
39.753131
 20
27.327294
 30
0.0
 11
37.916556
 21
27.327294
 31
0.0
  0
LINE
  5
DA
330
6B
100
AcDbEntity
  8
0
100
AcDbLine
 10
39.753131
 20
30.826944
 30
0.0
 11
38.45717
 21
30.826944
 31
0.0
  0
LINE
  5
DB
330
6B
100
AcDbEntity
  8
0
100
AcDbLine
 10
39.753131
 20
29.827044
 30
0.0
 11
38.45717
 21
29.827044
 31
0.0
  0
LINE
  5
DC
330
6B
100
AcDbEntity
  8
0
100
AcDbLine
 10
39.753131
 20
28.827144
 30
0.0
 11
38.45717
 21
28.827144
 31
0.0
  0
LINE
  5
DD
330
6B
100
AcDbEntity
  8
0
100
AcDbLine
 10
39.753131
 20
27.827244
 30
0.0
 11
38.45717
 21
27.827244
 31
0.0
  0
LINE
  5
DE
330
6B
100
AcDbEntity
  8
0
100
AcDbLine
 10
39.753131
 20
30.826944
 30
0.0
 11
39.753131
 21
27.827244
 31
0.0
  0
LINE
  5
DF
330
6B
100
AcDbEntity
  8
0
100
AcDbLine
 10
38.45717
 20
30.826944
 30
0.0
 11
38.45717
 21
27.827244
 31
0.0
  0
LINE
  5
E0
330
6B
100
AcDbEntity
  8
0
100
AcDbLine
 10
39.113348
 20
30.826944
 30
0.0
 11
39.113348
 21
27.827244
 31
0.0
  0
ARC
  5
E1
330
6B
100
AcDbEntity
  8
0
100
AcDbCircle
 10
-21.08339
 20
33.326694
 30
0.0
 40
0.6666
100
AcDbArc
 50
90.0
 51
162.713035
  0
ARC
  5
E2
330
6B
100
AcDbEntity
  8
0
100
AcDbCircle
 10
-21.08339
 20
25.327494
 30
0.0
 40
0.6666
100
AcDbArc
 50
197.2869649999999
 51
270.0
  0
ARC
  5
E3
330
6B
100
AcDbEntity
  8
0
100
AcDbCircle
 10
-24.240469
 20
30.660294
 30
0.0
 40
0.6666
100
AcDbArc
 50
90.0
 51
180.0
  0
ARC
  5
E4
330
6B
100
AcDbEntity
  8
0
100
AcDbCircle
 10
-24.240469
 20
27.993894
 30
0.0
 40
0.6666
100
AcDbArc
 50
180.0
 51
270.0
  0
LINE
  5
E5
330
6B
100
AcDbEntity
  8
0
100
AcDbLine
 10
-24.907069
 20
27.993894
 30
0.0
 11
-24.907069
 21
30.660294
 31
0.0
  0
LINE
  5
E6
330
6B
100
AcDbEntity
  8
0
100
AcDbLine
 10
-22.403895
 20
31.326894
 30
0.0
 11
-22.403895
 21
27.327294
 31
0.0
  0
LINE
  5
E7
330
6B
100
AcDbEntity
  8
0
100
AcDbLine
 10
-24.240469
 20
31.326894
 30
0.0
 11
-22.403895
 21
31.326894
 31
0.0
  0
LINE
  5
E8
330
6B
100
AcDbEntity
  8
0
100
AcDbLine
 10
-24.240469
 20
27.327294
 30
0.0
 11
-22.403895
 21
27.327294
 31
0.0
  0
LINE
  5
E9
330
6B
100
AcDbEntity
  8
0
100
AcDbLine
 10
-24.240469
 20
30.826944
 30
0.0
 11
-24.240469
 21
27.827244
 31
0.0
  0
LINE
  5
EA
330
6B
100
AcDbEntity
  8
0
100
AcDbLine
 10
-24.240469
 20
30.826944
 30
0.0
 11
-22.944508
 21
30.826944
 31
0.0
  0
LINE
  5
EB
330
6B
100
AcDbEntity
  8
0
100
AcDbLine
 10
-22.944508
 20
30.826944
 30
0.0
 11
-22.944508
 21
27.827244
 31
0.0
  0
LINE
  5
EC
330
6B
100
AcDbEntity
  8
0
100
AcDbLine
 10
-23.600687
 20
30.826944
 30
0.0
 11
-23.600687
 21
27.827244
 31
0.0
  0
LINE
  5
ED
330
6B
100
AcDbEntity
  8
0
100
AcDbLine
 10
-24.240469
 20
29.827044
 30
0.0
 11
-22.944508
 21
29.827044
 31
0.0
  0
LINE
  5
EE
330
6B
100
AcDbEntity
  8
0
100
AcDbLine
 10
-24.240469
 20
28.827144
 30
0.0
 11
-22.944508
 21
28.827144
 31
0.0
  0
LINE
  5
EF
330
6B
100
AcDbEntity
  8
0
100
AcDbLine
 10
-24.240469
 20
27.827244
 30
0.0
 11
-22.944508
 21
27.827244
 31
0.0
  0
LINE
  5
F0
330
6B
100
AcDbEntity
  8
0
 62
     3
100
AcDbLine
 10
-21.08339
 20
33.993294
 30
0.0
 11
-9.908568999999999
 21
33.993294
 31
0.0
  0
LINE
  5
F1
330
6B
100
AcDbEntity
  8
0
 62
     3
100
AcDbLine
 10
-21.719878
 20
33.524779
 30
0.0
 11
-22.403895
 21
31.326894
 31
0.0
  0
LINE
  5
F2
330
6B
100
AcDbEntity
  8
0
 62
     3
100
AcDbLine
 10
-21.719878
 20
25.129409
 30
0.0
 11
-22.403895
 21
27.327294
 31
0.0
  0
LINE
  5
F3
330
6B
100
AcDbEntity
  8
0
 62
     3
100
AcDbLine
 10
37.23254
 20
25.129409
 30
0.0
 11
37.916556
 21
27.327294
 31
0.0
  0
LINE
  5
F4
330
6B
100
AcDbEntity
  8
0
 62
     3
100
AcDbLine
 10
37.23254
 20
33.524779
 30
0.0
 11
37.916556
 21
31.326894
 31
0.0
  0
LINE
  5
F5
330
6B
100
AcDbEntity
  8
0
 62
     3
100
AcDbLine
 10
36.596051
 20
33.993294
 30
0.0
 11
25.421231
 21
33.993294
 31
0.0
  0
ARC
  5
F6
330
6B
100
AcDbEntity
  8
0
 62
     3
100
AcDbCircle
 10
36.596051
 20
33.326694
 30
0.0
 40
0.6666
100
AcDbArc
 50
17.286965
 51
90.0
  0
LINE
  5
F7
330
6B
100
AcDbEntity
  8
0
100
AcDbLine
 10
-59.99803716478076
 20
-53.23041800000001
 30
0.0
 11
4.143005946184721
 21
-53.23041800000001
 31
0.0
  0
LINE
  5
F8
330
6B
100
AcDbEntity
  8
0
100
AcDbLine
 10
-59.99803716478076
 20
-45.230418
 30
0.0
 11
4.143005946184721
 21
-45.230418
 31
0.0
  0
LINE
  5
F9
330
6B
100
AcDbEntity
  8
0
100
AcDbLine
 10
-35.97857485235826
 20
-61.23041800000001
 30
0.0
 11
-35.97857485235826
 21
-29.230418
 31
0.0
  0
LINE
  5
FA
330
6B
100
AcDbEntity
  8
0
100
AcDbLine
 10
40.41973099999998
 20
30.660294
 30
0.0
 11
48.995204
 21
30.660294
 31
0.0
  0
LINE
  5
FB
330
6B
100
AcDbEntity
  8
0
100
AcDbLine
 10
40.41973099999998
 20
27.993894
 30
0.0
 11
48.995204
 21
27.993894
 31
0.0
  0
LINE
  5
FC
330
6B
100
AcDbEntity
  8
0
100
AcDbLine
 10
-24.907069
 20
27.993894
 30
0.0
 11
-62.497365
 21
27.993894
 31
0.0
  0
LINE
  5
FD
330
6B
100
AcDbEntity
  8
0
100
AcDbLine
 10
-24.907069
 20
30.660294
 30
0.0
 11
-62.497365
 21
30.660294
 31
0.0
  0
LINE
  5
FE
330
6B
100
AcDbEntity
  8
0
100
AcDbLine
 10
-59.99803716478076
 20
-37.230418
 30
0.0
 11
4.143005946184721
 21
-37.230418
 31
0.0
  0
LINE
  5
100
330
6B
100
AcDbEntity
  8
0
100
AcDbLine
 10
25.17573106204328
 20
49.6273632795398
 30
0.0
 11
-33.06931007455568
 21
49.6273632795398
 31
0.0
  0
LINE
  5
103
330
6B
100
AcDbEntity
  8
0
 62
     3
100
AcDbLine
 10
112.7006
 20
-73.33427699999998
 30
0.0
 11
112.7006
 21
-50.33427699999998
 31
0.0
  0
LINE
  5
105
330
6B
100
AcDbEntity
  8
0
 62
     3
100
AcDbLine
 10
59.646991
 20
-80.33427699999998
 30
0.0
 11
59.646991
 21
-66.33427699999998
 31
0.0
  0
TEXT
  5
107
330
6B
100
AcDbEntity
  8
0
 62
     3
100
AcDbText
 10
88.710918
 20
-54.129161
 30
0.0
 40
2.0
  1
A
 41
0.7
100
AcDbText
  0
TEXT
  5
108
330
6B
100
AcDbEntity
  8
0
 62
     3
100
AcDbText
 10
91.246205
 20
-54.129161
 30
0.0
 40
2.0
  1
P
 41
0.7
100
AcDbText
  0
TEXT
  5
109
330
6B
100
AcDbEntity
  8
0
 62
     3
100
AcDbText
 10
93.78149099999999
 20
-54.129161
 30
0.0
 40
2.0
  1
P
 41
0.7
100
AcDbText
  0
TEXT
  5
10A
330
6B
100
AcDbEntity
  8
0
 62
     3
100
AcDbText
 10
96.316777
 20
-54.129161
 30
0.0
 40
2.0
  1
D
 41
0.7
100
AcDbText
  0
TEXT
  5
10B
330
6B
100
AcDbEntity
  8
0
 62
     3
100
AcDbText
 10
101.68546
 20
-54.129161
 30
0.0
 40
2.0
  1
C
 41
0.7
100
AcDbText
  0
TEXT
  5
10C
330
6B
100
AcDbEntity
  8
0
 62
     3
100
AcDbText
 10
104.220746
 20
-54.129161
 30
0.0
 40
2.0
  1
H
 41
0.7
100
AcDbText
  0
TEXT
  5
10D
330
6B
100
AcDbEntity
  8
0
 62
     3
100
AcDbText
 10
106.756033
 20
-54.129161
 30
0.0
 40
2.0
  1
C
 41
0.7
100
AcDbText
  0
TEXT
  5
10E
330
6B
100
AcDbEntity
  8
0
 62
     3
100
AcDbText
 10
109.291319
 20
-54.129161
 30
0.0
 40
2.0
  1
K
 41
0.7
100
AcDbText
  0
TEXT
  5
10F
330
6B
100
AcDbEntity
  8
0
 62
     3
100
AcDbText
 10
114.965285
 20
-54.129161
 30
0.0
 40
2.0
  1
DESN
 41
1.216762999999998
100
AcDbText
  0
TEXT
  5
110
330
6B
100
AcDbEntity
  8
0
 62
     3
100
AcDbText
 10
29.958927
 20
-83.47565899999997
 30
0.0
 40
2.0
  1
NICHIDO IND.CO.LTD
 41
1.274876
100
AcDbText
  0
LINE
  5
111
330
6B
100
AcDbEntity
  8
0
 62
     3
100
AcDbLine
 10
40.341956
 20
-50.33427699999999
 30
0.0
 11
40.341956
 21
-73.33427699999998
 31
0.0
  0
LINE
  5
112
330
6B
100
AcDbEntity
  8
0
 62
     3
100
AcDbLine
 10
86.70059999999997
 20
-50.33427699999998
 30
0.0
 11
86.70059999999997
 21
-90.0
 31
0.0
  0
LINE
  5
117
330
6B
100
AcDbEntity
  8
0
 62
     3
100
AcDbLine
 10
99.7006
 20
-50.33427699999999
 30
0.0
 11
99.7006
 21
-80.33427699999998
 31
0.0
  0
TEXT
  5
118
330
6B
100
AcDbEntity
  8
0
 62
     3
100
AcDbText
 10
87.81304499999995
 20
-79.46958999999998
 30
0.0
 40
3.2
  1
作成日
 41
1.017225999999997
100
AcDbText
  0
LINE
  5
119
330
6B
100
AcDbEntity
  8
0
 62
     3
100
AcDbLine
 10
138.399964
 20
-50.33427699999999
 30
0.0
 11
27.096521
 21
-50.33427699999999
 31
0.0
  0
LINE
  5
11A
330
6B
100
AcDbEntity
  8
0
 62
     3
100
AcDbLine
 10
125.7006
 20
-73.33427699999998
 30
0.0
 11
125.7006
 21
-50.33427699999999
 31
0.0
  0
TEXT
  5
11B
330
6B
100
AcDbEntity
  8
0
 62
     3
100
AcDbText
 10
129.024404
 20
-54.04334299999999
 30
0.0
 40
1.8
  1
D
 41
0.666667
100
AcDbText
  0
TEXT
  5
11C
330
6B
100
AcDbEntity
  8
0
 62
     3
100
AcDbText
 10
131.841032
 20
-54.04334299999999
 30
0.0
 40
1.8
  1
E
 41
0.666667
100
AcDbText
  0
TEXT
  5
11D
330
6B
100
AcDbEntity
  8
0
 62
     3
100
AcDbText
 10
134.65766
 20
-54.04334299999999
 30
0.0
 40
1.8
  1
F
 41
0.666667
100
AcDbText
  0
TEXT
  5
11E
330
6B
100
AcDbEntity
  8
0
 62
     3
100
AcDbText
 10
129.024404
 20
-58.03589599999999
 30
0.0
 40
3.2
  1
製図
 41
1.076369
100
AcDbText
  0
LINE
  5
11F
330
6B
100
AcDbEntity
  8
0
 62
     3
100
AcDbLine
 10
27.096521
 20
-50.33427699999999
 30
0.0
 11
27.096521
 21
-90.0
 31
0.0
  0
TEXT
  5
120
330
6B
100
AcDbEntity
  8
0
 62
     3
100
AcDbText
 10
28.473174
 20
-89.66753399999998
 30
0.0
 40
5.0
  1
日動工業株式会社
 41
0.833333
100
AcDbText
  0
LINE
  5
121
330
6B
100
AcDbEntity
  8
0
 62
     3
100
AcDbLine
 10
69.978925
 20
-66.334277
 30
0.0
 11
69.978925
 21
-90.0
 31
0.0
  0
LINE
  5
122
330
6B
100
AcDbEntity
  8
0
 62
     3
100
AcDbLine
 10
69.978925
 20
-85.16713799999998
 30
0.0
 11
86.70059999999997
 21
-85.16713799999998
 31
0.0
  0
TEXT
  5
123
330
6B
100
AcDbEntity
  8
0
 62
     3
100
AcDbText
 10
70.56552700000001
 20
-84.350708
 30
0.0
 40
3.2
  1
出図コード
 41
0.8356860000000001
100
AcDbText
  0
LINE
  5
125
330
6B
100
AcDbEntity
  8
0
 62
     3
100
AcDbLine
 10
27.096521
 20
-80.33427699999998
 30
0.0
 11
138.399964
 21
-80.33427699999998
 31
0.0
  0
LINE
  5
127
330
6B
100
AcDbEntity
  8
0
 62
     3
100
AcDbLine
 10
27.096521
 20
-59.33427699999999
 30
0.0
 11
138.399964
 21
-59.33427699999999
 31
0.0
  0
LINE
  5
12D
330
6B
100
AcDbEntity
  8
0
 62
     3
100
AcDbLine
 10
27.096521
 20
-66.334277
 30
0.0
 11
86.70059999999997
 21
-66.33427699999998
 31
0.0
  0
LINE
  5
133
330
6B
100
AcDbEntity
  8
0
 62
     3
100
AcDbLine
 10
27.096521
 20
-73.33427699999997
 30
0.0
 11
138.399964
 21
-73.33427699999998
 31
0.0
  0
TEXT
  5
134
330
6B
100
AcDbEntity
  8
0
 62
     3
100
AcDbText
 10
70.432979
 20
-89.39780499999995
 30
0.0
 40
3.2
  1
ZK-A4X
 41
0.8112849999999999
100
AcDbText
  0
TEXT
  5
135
330
6B
100
AcDbEntity
  8
0
 62
     3
100
AcDbText
 10
28.913918
 20
-54.16475099999999
 30
0.0
 40
2.0
  1
CONPONENTS
 41
0.5331600000000001
100
AcDbText
  0
TEXT
  5
136
330
6B
100
AcDbEntity
  8
0
 62
     3
100
AcDbText
 10
28.564192
 20
-73.09692799999997
 30
0.0
 40
3.0
  1
材
 41
0.833333
100
AcDbText
  0
TEXT
  5
137
330
6B
100
AcDbEntity
  8
0
 62
     3
100
AcDbText
 10
36.099834
 20
-73.09692799999997
 30
0.0
 40
3.0
  1
質
 41
0.833333
100
AcDbText
  0
TEXT
  5
138
330
6B
100
AcDbEntity
  8
0
 62
     3
100
AcDbText
 10
28.652262
 20
-62.47240399999999
 30
0.0
 40
2.0
  1
MODEL
 41
1.031072999999999
100
AcDbText
  0
TEXT
  5
139
330
6B
100
AcDbEntity
  8
0
 62
     3
100
AcDbText
 10
28.564192
 20
-69.41462
 30
0.0
 40
2.0
  1
MATERIAL
 41
0.659278
100
AcDbText
  0
TEXT
  5
13A
330
6B
100
AcDbEntity
  8
0
 62
     3
100
AcDbText
 10
59.87147199999999
 20
-73.09692799999997
 30
0.0
 40
3.0
  1
備
 41
0.833333
100
AcDbText
  0
TEXT
  5
13B
330
6B
100
AcDbEntity
  8
0
 62
     3
100
AcDbText
 10
66.60447399999999
 20
-73.09692799999997
 30
0.0
 40
3.0
  1
考
 41
0.833333
100
AcDbText
  0
TEXT
  5
13C
330
6B
100
AcDbEntity
  8
0
 62
     3
100
AcDbText
 10
60.28308744152809
 20
-69.41462
 30
0.0
 40
2.0
  1
REMARKS
 41
0.675794
100
AcDbText
  0
TEXT
  5
13D
330
6B
100
AcDbEntity
  8
0
 62
     3
100
AcDbText
 10
30.153921
 20
-76.33474099999998
 30
0.0
 40
2.0
  1
3AD
 41
1.42614
100
AcDbText
  0
TEXT
  5
13E
330
6B
100
AcDbEntity
  8
0
 62
     3
100
AcDbText
 10
39.4649
 20
-76.16900699999998
 30
0.0
 40
2.0
  1
ANGLE
 41
1.669883999999996
100
AcDbText
  0
TEXT
  5
13F
330
6B
100
AcDbEntity
  8
0
 62
     3
100
AcDbText
 10
60.398787
 20
-76.54584799999998
 30
0.0
 40
2.0
  1
SCALE
 41
0.7719630000000001
100
AcDbText
  0
TEXT
  5
140
330
6B
100
AcDbEntity
  8
0
 62
     3
100
AcDbText
 10
29.84005
 20
-80.33427699999998
 30
0.0
 40
3.0
  1
第
 41
0.833333
100
AcDbText
  0
TEXT
  5
141
330
6B
100
AcDbEntity
  8
0
 62
     3
100
AcDbText
 10
37.6269
 20
-80.33427699999998
 30
0.0
 40
3.0
  1
三
 41
0.833333
100
AcDbText
  0
TEXT
  5
142
330
6B
100
AcDbEntity
  8
0
 62
     3
100
AcDbText
 10
45.41375
 20
-80.33427699999998
 30
0.0
 40
3.0
  1
角
 41
0.833333
100
AcDbText
  0
TEXT
  5
143
330
6B
100
AcDbEntity
  8
0
 62
     3
100
AcDbText
 10
53.2006
 20
-80.33427699999998
 30
0.0
 40
3.0
  1
法
 41
0.833333
100
AcDbText
  0
TEXT
  5
144
330
6B
100
AcDbEntity
  8
0
 62
     3
100
AcDbText
 10
60.261992
 20
-80.04584799999998
 30
0.0
 40
3.0
  1
尺
 41
0.833333
100
AcDbText
  0
TEXT
  5
145
330
6B
100
AcDbEntity
  8
0
 62
     3
100
AcDbText
 10
66.99499399999999
 20
-80.04584799999998
 30
0.0
 40
3.0
  1
度
 41
0.833333
100
AcDbText
  0
TEXT
  5
146
330
6B
100
AcDbEntity
  8
0
 62
     3
100
AcDbText
 10
89.57826500000001
 20
-57.876548
 30
0.0
 40
3.0
  1
承認
 41
1.089472999999999
100
AcDbText
  0
TEXT
  5
147
330
6B
100
AcDbEntity
  8
0
 62
     3
100
AcDbText
 10
102.821145
 20
-57.93427699999998
 30
0.0
 40
3.0
  1
検図
 41
0.931761
100
AcDbText
  0
TEXT
  5
148
330
6B
100
AcDbEntity
  8
0
 62
     3
100
AcDbText
 10
115.821542
 20
-57.93427699999998
 30
0.0
 40
3.0
  1
設
 41
0.833333
100
AcDbText
  0
TEXT
  5
149
330
6B
100
AcDbEntity
  8
0
 62
     3
100
AcDbText
 10
120.31141
 20
-57.93427699999998
 30
0.0
 40
3.0
  1
計
 41
0.833333
100
AcDbText
  0
TEXT
  5
14A
330
6B
100
AcDbEntity
  8
0
 62
     3
100
AcDbText
 10
28.84539
 20
-58.645521
 30
0.0
 40
3.0
  1
品
 41
0.833333
100
AcDbText
  0
TEXT
  5
14B
330
6B
100
AcDbEntity
  8
0
 62
     3
100
AcDbText
 10
36.381032
 20
-58.645521
 30
0.0
 40
3.0
  1
名
 41
0.833333
100
AcDbText
  0
TEXT
  5
14C
330
6B
100
AcDbEntity
  8
0
 62
     3
100
AcDbText
 10
28.652262
 20
-66.10466399999999
 30
0.0
 40
3.0
  1
型
 41
0.833333
100
AcDbText
  0
TEXT
  5
14D
330
6B
100
AcDbEntity
  8
0
 62
     3
100
AcDbText
 10
36.200353
 20
-66.10466399999999
 30
0.0
 40
3.0
  1
式
 41
0.833333
100
AcDbText
  0
TEXT
  5
166
330
6B
100
AcDbEntity
  8
0
 62
     3
100
AcDbText
 10
71.62858799999998
 20
-79.40876
 30
0.0
 40
3.2
  1
FREE
  7
高3.2
100
AcDbText
  0
LINE
  5
16E
330
6B
100
AcDbEntity
  8
0
 62
     3
100
AcDbLine
 10
-138.5
 20
90.0
 30
0.0
 11
-138.5
 21
-90.0
 31
0.0
  0
LINE
  5
16F
330
6B
100
AcDbEntity
  8
0
 62
     3
100
AcDbLine
 10
138.5
 20
-90.0
 30
0.0
 11
138.5
 21
90.0
 31
0.0
  0
LINE
  5
170
330
6B
100
AcDbEntity
  8
0
 62
     3
100
AcDbLine
 10
-138.5
 20
-90.0
 30
0.0
 11
138.5
 21
-90.0
 31
0.0
  0
LINE
  5
171
330
6B
100
AcDbEntity
  8
0
 62
     3
100
AcDbLine
 10
-138.5
 20
90.0
 30
0.0
 11
138.5
 21
90.0
 31
0.0
  0
LINE
  5
172
330
6B
100
AcDbEntity
  8
0
 62
     3
100
AcDbLine
 10
74.36395400000002
 20
22.028727
 30
0.0
 11
74.36395400000002
 21
21.106227
 31
0.0
  0
LINE
  5
173
330
6B
100
AcDbEntity
  8
0
 62
     3
100
AcDbLine
 10
61.910204
 20
22.489977
 30
0.0
 11
73.902704
 21
22.489977
 31
0.0
  0
ARC
  5
174
330
6B
100
AcDbEntity
  8
0
 62
     3
100
AcDbCircle
 10
61.910204
 20
24.334977
 30
0.0
 40
1.844999999999999
100
AcDbArc
 50
180.0
 51
270.0
  0
LINE
  5
175
330
6B
100
AcDbEntity
  8
0
 62
     3
100
AcDbLine
 10
60.065204
 20
25.718727
 30
0.0
 11
50.84020399999999
 21
25.718727
 31
0.0
  0
LINE
  5
176
330
6B
100
AcDbEntity
  8
0
 62
     3
100
AcDbLine
 10
60.065204
 20
33.09872700000001
 30
0.0
 11
50.84020399999999
 21
33.09872700000001
 31
0.0
  0
LINE
  5
177
330
6B
100
AcDbEntity
  8
0
 62
     3
100
AcDbLine
 10
60.065204
 20
34.482477
 30
0.0
 11
60.065204
 21
24.334977
 31
0.0
  0
ARC
  5
178
330
6B
100
AcDbEntity
  8
0
 62
     3
100
AcDbCircle
 10
61.910204
 20
34.482477
 30
0.0
 40
1.844999999999999
100
AcDbArc
 50
90.0
 51
180.0
  0
LINE
  5
179
330
6B
100
AcDbEntity
  8
0
 62
     3
100
AcDbLine
 10
61.910204
 20
36.327477
 30
0.0
 11
73.902704
 21
36.327477
 31
0.0
  0
LINE
  5
17A
330
6B
100
AcDbEntity
  8
0
 62
     3
100
AcDbLine
 10
48.995204
 20
33.590391
 30
0.0
 11
48.995204
 21
25.21043
 31
0.0
  0
ARC
  5
17B
330
6B
100
AcDbEntity
  8
0
 62
     3
100
AcDbCircle
 10
49.917704
 20
25.21043
 30
0.0
 40
0.9224999999999999
100
AcDbArc
 50
180.0
 51
0.0
  0
ARC
  5
17C
330
6B
100
AcDbEntity
  8
0
 62
     3
100
AcDbCircle
 10
49.917704
 20
33.590391
 30
0.0
 40
0.9224999999999999
100
AcDbArc
 50
0.0
 51
180.0
  0
ARC
  5
17D
330
6B
100
AcDbEntity
  8
0
 62
     3
100
AcDbCircle
 10
76.20895400000001
 20
21.106227
 30
0.0
 40
1.844999999999999
100
AcDbArc
 50
180.0
 51
270.0
  0
ARC
  5
17E
330
6B
100
AcDbEntity
  8
0
 62
     3
100
AcDbCircle
 10
80.475516
 20
20.068415
 30
0.0
 40
0.807188
100
AcDbArc
 50
270.0
 51
0.0
  0
LINE
  5
17F
330
6B
100
AcDbEntity
  8
0
 62
     3
100
AcDbLine
 10
81.28270400000003
 20
38.74904
 30
0.0
 11
81.28270400000003
 21
20.068415
 31
0.0
  0
ARC
  5
180
330
6B
100
AcDbEntity
  8
0
 62
     3
100
AcDbCircle
 10
76.20895400000001
 20
37.711227
 30
0.0
 40
1.844999999999999
100
AcDbArc
 50
90.0
 51
180.0
  0
CIRCLE
  5
181
330
6B
100
AcDbEntity
  8
0
 62
     3
100
AcDbCircle
 10
98.92103099999999
 20
29.408727
 30
0.0
 40
10.60875
  0
CIRCLE
  5
182
330
6B
100
AcDbEntity
  8
0
 62
     3
100
AcDbCircle
 10
98.92103099999999
 20
29.408727
 30
0.0
 40
8.533125
  0
LINE
  5
183
330
6B
100
AcDbEntity
  8
0
 62
     3
100
AcDbLine
 10
-84.226843
 20
22.82569
 30
0.0
 11
-84.226843
 21
21.238547
 31
0.0
  0
LINE
  5
184
330
6B
100
AcDbEntity
  8
0
 62
     3
100
AcDbLine
 10
-87.27331900000001
 20
21.738547
 30
0.0
 11
-87.773319
 21
21.738547
 31
0.0
  0
ARC
  5
185
330
6B
100
AcDbEntity
  8
0
 62
     3
100
AcDbCircle
 10
-85.75008100000003
 20
21.238547
 30
0.0
 40
1.523237999999999
100
AcDbArc
 50
180.0
 51
0.0
  0
ARC
  5
186
330
6B
100
AcDbEntity
  8
0
 62
     3
100
AcDbCircle
 10
-85.75008100000003
 20
37.412833
 30
0.0
 40
1.523237999999999
100
AcDbArc
 50
0.0
 51
180.0
  0
LINE
  5
187
330
6B
100
AcDbEntity
  8
0
 62
     3
100
AcDbLine
 10
-87.27331900000001
 20
36.912833
 30
0.0
 11
-87.773319
 21
36.912833
 31
0.0
  0
LINE
  5
188
330
6B
100
AcDbEntity
  8
0
 62
     3
100
AcDbLine
 10
-83.72684300000001
 20
23.32569
 30
0.0
 11
-74.09903199999998
 21
23.32569
 31
0.0
  0
LINE
  5
189
330
6B
100
AcDbEntity
  8
0
 62
     3
100
AcDbLine
 10
-83.72684300000001
 20
35.32569
 30
0.0
 11
-74.09903199999998
 21
35.32569
 31
0.0
  0
LINE
  5
18A
330
6B
100
AcDbEntity
  8
0
 62
     3
100
AcDbLine
 10
-72.599032
 20
33.82569
 30
0.0
 11
-72.599032
 21
24.82569
 31
0.0
  0
ARC
  5
18B
330
6B
100
AcDbEntity
  8
0
 62
     3
100
AcDbCircle
 10
-74.09903199999998
 20
24.82569
 30
0.0
 40
1.5
100
AcDbArc
 50
270.0
 51
0.0
  0
ARC
  5
18C
330
6B
100
AcDbEntity
  8
0
 62
     3
100
AcDbCircle
 10
-74.09903199999998
 20
33.82569
 30
0.0
 40
1.5
100
AcDbArc
 50
0.0
 51
90.0
  0
ARC
  5
18D
330
6B
100
AcDbEntity
  8
0
 62
     3
100
AcDbCircle
 10
-83.72684300000001
 20
22.82569
 30
0.0
 40
0.5
100
AcDbArc
 50
90.0
 51
180.0
  0
LINE
  5
18E
330
6B
100
AcDbEntity
  8
0
 62
     3
100
AcDbLine
 10
-84.226843
 20
35.82569
 30
0.0
 11
-84.226843
 21
37.412833
 31
0.0
  0
ARC
  5
18F
330
6B
100
AcDbEntity
  8
0
 62
     3
100
AcDbCircle
 10
-83.72684300000001
 20
35.82569
 30
0.0
 40
0.5
100
AcDbArc
 50
180.0
 51
270.0
  0
CIRCLE
  5
190
330
6B
100
AcDbEntity
  8
0
 62
     3
100
AcDbCircle
 10
-111.028587
 20
29.302037
 30
0.0
 40
9.610381999999999
  0
LINE
  5
191
330
6B
100
AcDbEntity
  8
0
 62
     3
100
AcDbLine
 10
-64.253175
 20
33.245714
 30
0.0
 11
-63.747365
 21
33.245714
 31
0.0
  0
LINE
  5
192
330
6B
100
AcDbEntity
  8
0
 62
     3
100
AcDbLine
 10
-62.997365
 20
33.57569
 30
0.0
 11
-63.397365
 21
33.57569
 31
0.0
  0
ARC
  5
193
330
6B
100
AcDbEntity
  8
0
 62
     3
100
AcDbCircle
 10
-63.397365
 20
33.22569
 30
0.0
 40
0.35
100
AcDbArc
 50
90.0
 51
180.0
  0
ARC
  5
194
330
6B
100
AcDbEntity
  8
0
 62
     3
100
AcDbCircle
 10
-62.997365
 20
33.07569
 30
0.0
 40
0.5
100
AcDbArc
 50
0.0
 51
90.0
  0
LINE
  5
195
330
6B
100
AcDbEntity
  8
0
 62
     3
100
AcDbLine
 10
-64.253175
 20
25.405666
 30
0.0
 11
-63.747365
 21
25.405666
 31
0.0
  0
LINE
  5
196
330
6B
100
AcDbEntity
  8
0
 62
     3
100
AcDbLine
 10
-62.997365
 20
25.07569
 30
0.0
 11
-63.397365
 21
25.07569
 31
0.0
  0
ARC
  5
197
330
6B
100
AcDbEntity
  8
0
 62
     3
100
AcDbCircle
 10
-63.397365
 20
25.42569
 30
0.0
 40
0.35
100
AcDbArc
 50
180.0
 51
270.0
  0
ARC
  5
198
330
6B
100
AcDbEntity
  8
0
 62
     3
100
AcDbCircle
 10
-62.997365
 20
25.57569
 30
0.0
 40
0.5
100
AcDbArc
 50
270.0
 51
0.0
  0
LINE
  5
199
330
6B
100
AcDbEntity
  8
0
 62
     3
100
AcDbLine
 10
-62.497365
 20
33.07569
 30
0.0
 11
-62.497365
 21
25.57569
 31
0.0
  0
LINE
  5
19A
330
6B
100
AcDbEntity
  8
0
 62
     3
100
AcDbLine
 10
-65.520603
 20
25.405666
 30
0.0
 11
-64.253175
 21
25.405666
 31
0.0
  0
LINE
  5
19B
330
6B
100
AcDbEntity
  8
0
 62
     3
100
AcDbLine
 10
-67.288032
 20
25.405666
 30
0.0
 11
-66.279318
 21
25.405666
 31
0.0
  0
LINE
  5
19C
330
6B
100
AcDbEntity
  8
0
 62
     3
100
AcDbLine
 10
-69.06126999999999
 20
25.405666
 30
0.0
 11
-68.046746
 21
25.405666
 31
0.0
  0
LINE
  5
19D
330
6B
100
AcDbEntity
  8
0
 62
     3
100
AcDbLine
 10
-70.828699
 20
25.405666
 30
0.0
 11
-69.819985
 21
25.405666
 31
0.0
  0
LINE
  5
19E
330
6B
100
AcDbEntity
  8
0
 62
     3
100
AcDbLine
 10
-72.599032
 20
25.405666
 30
0.0
 11
-71.58741299999999
 21
25.405666
 31
0.0
  0
LINE
  5
19F
330
6B
100
AcDbEntity
  8
0
 62
     3
100
AcDbLine
 10
-65.520603
 20
33.245714
 30
0.0
 11
-64.253175
 21
33.245714
 31
0.0
  0
LINE
  5
1A0
330
6B
100
AcDbEntity
  8
0
 62
     3
100
AcDbLine
 10
-67.288032
 20
33.245714
 30
0.0
 11
-66.279318
 21
33.245714
 31
0.0
  0
LINE
  5
1A1
330
6B
100
AcDbEntity
  8
0
 62
     3
100
AcDbLine
 10
-69.06126999999999
 20
33.245714
 30
0.0
 11
-68.046746
 21
33.245714
 31
0.0
  0
LINE
  5
1A2
330
6B
100
AcDbEntity
  8
0
 62
     3
100
AcDbLine
 10
-70.828699
 20
33.245714
 30
0.0
 11
-69.819985
 21
33.245714
 31
0.0
  0
LINE
  5
1A3
330
6B
100
AcDbEntity
  8
0
 62
     3
100
AcDbLine
 10
-72.599032
 20
33.245714
 30
0.0
 11
-71.58741299999999
 21
33.245714
 31
0.0
  0
CIRCLE
  5
1A4
330
6B
100
AcDbEntity
  8
0
 62
     3
100
AcDbCircle
 10
-111.028587
 20
29.302037
 30
0.0
 40
7.587142999999997
  0
LINE
  5
1A5
330
6B
100
AcDbEntity
  8
0
100
AcDbLine
 10
-63.747365
 20
25.42569
 30
0.0
 11
-63.747365
 21
33.22569
 31
0.0
  0
LINE
  5
1A6
330
6B
100
AcDbEntity
  8
0
100
AcDbLine
 10
-71.58741299999999
 20
33.245714
 30
0.0
 11
-71.58741299999999
 21
25.405666
 31
0.0
  0
LINE
  5
1A7
330
6B
100
AcDbEntity
  8
0
100
AcDbLine
 10
-70.828699
 20
33.245714
 30
0.0
 11
-70.828699
 21
25.405666
 31
0.0
  0
LINE
  5
1A8
330
6B
100
AcDbEntity
  8
0
100
AcDbLine
 10
-69.819985
 20
33.245714
 30
0.0
 11
-69.819985
 21
25.405666
 31
0.0
  0
LINE
  5
1A9
330
6B
100
AcDbEntity
  8
0
100
AcDbLine
 10
-69.06126999999999
 20
33.245714
 30
0.0
 11
-69.06126999999999
 21
25.405666
 31
0.0
  0
LINE
  5
1AA
330
6B
100
AcDbEntity
  8
0
100
AcDbLine
 10
-68.046746
 20
33.245714
 30
0.0
 11
-68.046746
 21
25.405666
 31
0.0
  0
LINE
  5
1AB
330
6B
100
AcDbEntity
  8
0
100
AcDbLine
 10
-66.279318
 20
33.245714
 30
0.0
 11
-66.279318
 21
25.405666
 31
0.0
  0
LINE
  5
1AC
330
6B
100
AcDbEntity
  8
0
100
AcDbLine
 10
-65.520603
 20
33.245714
 30
0.0
 11
-65.520603
 21
25.405666
 31
0.0
  0
LINE
  5
1AD
330
6B
100
AcDbEntity
  8
0
100
AcDbLine
 10
-65.520603
 20
29.923549
 30
0.0
 11
-66.279318
 21
29.923549
 31
0.0
  0
LINE
  5
1AE
330
6B
100
AcDbEntity
  8
0
100
AcDbLine
 10
-67.288032
 20
29.923549
 30
0.0
 11
-68.046746
 21
29.923549
 31
0.0
  0
LINE
  5
1AF
330
6B
100
AcDbEntity
  8
0
100
AcDbLine
 10
-69.06126999999999
 20
29.923549
 30
0.0
 11
-69.819985
 21
29.923549
 31
0.0
  0
LINE
  5
1B0
330
6B
100
AcDbEntity
  8
0
100
AcDbLine
 10
-70.828699
 20
29.923549
 30
0.0
 11
-71.58741299999999
 21
29.923549
 31
0.0
  0
LINE
  5
1B1
330
6B
100
AcDbEntity
  8
0
100
AcDbLine
 10
-70.828699
 20
31.482924
 30
0.0
 11
-71.58741299999999
 21
31.482924
 31
0.0
  0
LINE
  5
1B2
330
6B
100
AcDbEntity
  8
0
100
AcDbLine
 10
-69.06126999999999
 20
31.482924
 30
0.0
 11
-69.819985
 21
31.482924
 31
0.0
  0
LINE
  5
1B3
330
6B
100
AcDbEntity
  8
0
100
AcDbLine
 10
-65.520603
 20
31.482924
 30
0.0
 11
-66.279318
 21
31.482924
 31
0.0
  0
LINE
  5
1B4
330
6B
100
AcDbEntity
  8
0
100
AcDbLine
 10
-67.288032
 20
31.482924
 30
0.0
 11
-68.046746
 21
31.482924
 31
0.0
  0
LINE
  5
1B5
330
6B
100
AcDbEntity
  8
0
100
AcDbLine
 10
-65.520603
 20
28.727831
 30
0.0
 11
-66.279318
 21
28.727831
 31
0.0
  0
LINE
  5
1B6
330
6B
100
AcDbEntity
  8
0
100
AcDbLine
 10
-67.288032
 20
28.727831
 30
0.0
 11
-68.046746
 21
28.727831
 31
0.0
  0
LINE
  5
1B7
330
6B
100
AcDbEntity
  8
0
100
AcDbLine
 10
-69.06126999999999
 20
28.727831
 30
0.0
 11
-69.819985
 21
28.727831
 31
0.0
  0
LINE
  5
1B8
330
6B
100
AcDbEntity
  8
0
100
AcDbLine
 10
-70.828699
 20
28.727831
 30
0.0
 11
-71.58741299999999
 21
28.727831
 31
0.0
  0
LINE
  5
1B9
330
6B
100
AcDbEntity
  8
0
100
AcDbLine
 10
-65.520603
 20
27.147174
 30
0.0
 11
-66.279318
 21
27.147174
 31
0.0
  0
LINE
  5
1BA
330
6B
100
AcDbEntity
  8
0
100
AcDbLine
 10
-67.288032
 20
27.147174
 30
0.0
 11
-68.046746
 21
27.147174
 31
0.0
  0
LINE
  5
1BB
330
6B
100
AcDbEntity
  8
0
100
AcDbLine
 10
-69.06126999999999
 20
27.147174
 30
0.0
 11
-69.819985
 21
27.147174
 31
0.0
  0
LINE
  5
1BC
330
6B
100
AcDbEntity
  8
0
100
AcDbLine
 10
-70.828699
 20
27.147174
 30
0.0
 11
-71.58741299999999
 21
27.147174
 31
0.0
  0
LINE
  5
1BD
330
6B
100
AcDbEntity
  8
0
100
AcDbLine
 10
-65.520603
 20
25.851631
 30
0.0
 11
-66.279318
 21
25.851631
 31
0.0
  0
LINE
  5
1BE
330
6B
100
AcDbEntity
  8
0
100
AcDbLine
 10
-67.288032
 20
33.245714
 30
0.0
 11
-67.288032
 21
25.405666
 31
0.0
  0
LINE
  5
1BF
330
6B
100
AcDbEntity
  8
0
100
AcDbLine
 10
-69.06126999999999
 20
25.851631
 30
0.0
 11
-69.819985
 21
25.851631
 31
0.0
  0
LINE
  5
1C0
330
6B
100
AcDbEntity
  8
0
100
AcDbLine
 10
-70.828699
 20
25.851631
 30
0.0
 11
-71.58741299999999
 21
25.851631
 31
0.0
  0
LINE
  5
1C1
330
6B
100
AcDbEntity
  8
0
100
AcDbLine
 10
-67.288032
 20
25.851631
 30
0.0
 11
-68.046746
 21
25.851631
 31
0.0
  0
LINE
  5
1C2
330
6B
100
AcDbEntity
  8
0
100
AcDbLine
 10
-65.520603
 20
32.799749
 30
0.0
 11
-66.279318
 21
32.799749
 31
0.0
  0
LINE
  5
1C3
330
6B
100
AcDbEntity
  8
0
100
AcDbLine
 10
-67.288032
 20
32.799749
 30
0.0
 11
-68.046746
 21
32.799749
 31
0.0
  0
LINE
  5
1C4
330
6B
100
AcDbEntity
  8
0
100
AcDbLine
 10
-69.06126999999999
 20
32.799749
 30
0.0
 11
-69.819985
 21
32.799749
 31
0.0
  0
LINE
  5
1C5
330
6B
100
AcDbEntity
  8
0
100
AcDbLine
 10
-70.828699
 20
32.799749
 30
0.0
 11
-71.58741299999999
 21
32.799749
 31
0.0
  0
ARC
  5
1C6
330
6B
100
AcDbEntity
  8
0
100
AcDbCircle
 10
-87.27331900000001
 20
29.32569
 30
0.0
 40
14.206195
100
AcDbArc
 50
346.100456
 51
13.899544
  0
CIRCLE
  5
1C7
330
6B
100
AcDbEntity
  8
0
100
AcDbCircle
 10
-78.965052
 20
29.32569
 30
0.0
 40
3.112775
  0
LINE
  5
1C8
330
6B
100
AcDbEntity
  8
0
100
AcDbLine
 10
-74.93918199999997
 20
33.87797600000001
 30
0.0
 11
-82.20941399999999
 21
33.87797600000001
 31
0.0
  0
ARC
  5
1C9
330
6B
100
AcDbEntity
  8
0
100
AcDbCircle
 10
-74.93918199999997
 20
32.377976
 30
0.0
 40
1.5
100
AcDbArc
 50
13.899544
 51
90.0
  0
LINE
  5
1CA
330
6B
100
AcDbEntity
  8
0
100
AcDbLine
 10
-74.93918199999997
 20
24.773404
 30
0.0
 11
-82.20941399999999
 21
24.773404
 31
0.0
  0
ARC
  5
1CB
330
6B
100
AcDbEntity
  8
0
100
AcDbCircle
 10
-74.93918199999997
 20
26.273404
 30
0.0
 40
1.5
100
AcDbArc
 50
270.0
 51
346.100456
  0
LINE
  5
1CC
330
6B
100
AcDbEntity
  8
0
100
AcDbLine
 10
-87.27331900000001
 20
37.412833
 30
0.0
 11
-87.27331900000001
 21
21.238547
 31
0.0
  0
LINE
  5
1CD
330
6B
100
AcDbEntity
  8
0
100
AcDbLine
 10
-83.72684300000001
 20
29.32569
 30
0.0
 11
-83.72684300000001
 21
35.395405
 31
0.0
  0
LINE
  5
1CE
330
6B
100
AcDbEntity
  8
0
100
AcDbLine
 10
-83.72684300000001
 20
29.32569
 30
0.0
 11
-83.72684300000001
 21
23.255975
 31
0.0
  0
LINE
  5
1CF
330
6B
100
AcDbEntity
  8
0
100
AcDbLine
 10
-84.226843
 20
22.82569
 30
0.0
 11
-84.226843
 21
35.82569
 31
0.0
  0
ARC
  5
1D0
330
6B
100
AcDbEntity
  8
0
100
AcDbCircle
 10
-82.20941399999999
 20
35.395405
 30
0.0
 40
1.517429
100
AcDbArc
 50
180.0
 51
270.0
  0
ARC
  5
1D1
330
6B
100
AcDbEntity
  8
0
100
AcDbCircle
 10
-82.20941399999999
 20
23.255975
 30
0.0
 40
1.517429
100
AcDbArc
 50
90.0
 51
180.0
  0
LINE
  5
1D2
330
6B
100
AcDbEntity
  8
0
100
AcDbLine
 10
-96.37208200000001
 20
32.230141
 30
0.0
 11
-96.37208200000001
 21
32.771239
 31
0.0
  0
LINE
  5
1D3
330
6B
100
AcDbEntity
  8
0
100
AcDbLine
 10
-95.866272
 20
32.87569000000001
 30
0.0
 11
-96.37755400000001
 21
32.770109
 31
0.0
  0
LINE
  5
1D4
330
6B
100
AcDbEntity
  8
0
100
AcDbLine
 10
-95.866272
 20
32.12569000000002
 30
0.0
 11
-96.37755400000001
 21
32.231271
 31
0.0
  0
LINE
  5
1D5
330
6B
100
AcDbEntity
  8
0
100
AcDbLine
 10
-87.773319
 20
32.87569000000001
 30
0.0
 11
-95.866272
 21
32.87569000000001
 31
0.0
  0
LINE
  5
1D6
330
6B
100
AcDbEntity
  8
0
100
AcDbLine
 10
-87.773319
 20
32.12569000000002
 30
0.0
 11
-95.866272
 21
32.12569000000002
 31
0.0
  0
LINE
  5
1D7
330
6B
100
AcDbEntity
  8
0
100
AcDbLine
 10
-96.37208200000001
 20
26.421239
 30
0.0
 11
-96.37208200000001
 21
25.880141
 31
0.0
  0
LINE
  5
1D8
330
6B
100
AcDbEntity
  8
0
100
AcDbLine
 10
-95.866272
 20
25.77569
 30
0.0
 11
-96.37755400000001
 21
25.881271
 31
0.0
  0
LINE
  5
1D9
330
6B
100
AcDbEntity
  8
0
100
AcDbLine
 10
-95.866272
 20
26.52569
 30
0.0
 11
-96.37755400000001
 21
26.42010900000001
 31
0.0
  0
LINE
  5
1DA
330
6B
100
AcDbEntity
  8
0
100
AcDbLine
 10
-87.773319
 20
25.77569
 30
0.0
 11
-95.866272
 21
25.77569
 31
0.0
  0
LINE
  5
1DB
330
6B
100
AcDbEntity
  8
0
100
AcDbLine
 10
-87.773319
 20
26.52569
 30
0.0
 11
-95.866272
 21
26.52569
 31
0.0
  0
LINE
  5
1DC
330
6B
100
AcDbEntity
  8
0
100
AcDbLine
 10
-112.621887
 20
32.852037
 30
0.0
 11
-109.435287
 21
32.852037
 31
0.0
  0
LINE
  5
1DD
330
6B
100
AcDbEntity
  8
0
100
AcDbLine
 10
-112.621887
 20
32.102037
 30
0.0
 11
-109.435287
 21
32.102037
 31
0.0
  0
LINE
  5
1DE
330
6B
100
AcDbEntity
  8
0
100
AcDbLine
 10
-112.621887
 20
26.50203699999999
 30
0.0
 11
-109.435287
 21
26.50203699999999
 31
0.0
  0
LINE
  5
1DF
330
6B
100
AcDbEntity
  8
0
100
AcDbLine
 10
-112.621887
 20
25.75203699999999
 30
0.0
 11
-109.435287
 21
25.75203699999999
 31
0.0
  0
LINE
  5
1E0
330
6B
100
AcDbEntity
  8
0
100
AcDbLine
 10
-112.621887
 20
25.75203699999999
 30
0.0
 11
-112.621887
 21
26.50203699999999
 31
0.0
  0
LINE
  5
1E1
330
6B
100
AcDbEntity
  8
0
100
AcDbLine
 10
-112.621887
 20
32.102037
 30
0.0
 11
-112.621887
 21
32.852037
 31
0.0
  0
LINE
  5
1E2
330
6B
100
AcDbEntity
  8
0
100
AcDbLine
 10
-109.435287
 20
25.75203699999999
 30
0.0
 11
-109.435287
 21
26.50203699999999
 31
0.0
  0
LINE
  5
1E3
330
6B
100
AcDbEntity
  8
0
100
AcDbLine
 10
-109.435287
 20
32.102037
 30
0.0
 11
-109.435287
 21
32.852037
 31
0.0
  0
TEXT
  5
1E4
330
6B
100
AcDbEntity
  8
0
100
AcDbText
 10
-107.502432
 20
33.72049099999998
 30
0.0
 40
1.12
  1
<PS>E JET
 50
270.0
 41
0.7629580000000003
100
AcDbText
  0
TEXT
  5
1E5
330
6B
100
AcDbEntity
  8
0
100
AcDbText
 10
-115.570214
 20
32.03735399999999
 30
0.0
 40
1.12
  1
12A 125V
 50
270.0
 41
0.8181089999999999
100
AcDbText
  0
CIRCLE
  5
1E6
330
6B
100
AcDbEntity
  8
0
100
AcDbCircle
 10
-106.992677
 20
25.92521699999998
 30
0.0
 40
0.5600500000000001
  0
LINE
  5
1E7
330
6B
100
AcDbEntity
  8
0
100
AcDbLine
 10
-106.432628
 20
25.92521699999998
 30
0.0
 11
-107.552727
 21
25.92521699999998
 31
0.0
  0
LINE
  5
1E8
330
6B
100
AcDbEntity
  8
0
100
AcDbLine
 10
-107.552727
 20
25.92521699999998
 30
0.0
 11
-106.592812
 21
25.34773799999998
 31
0.0
  0
LINE
  5
1E9
330
6B
100
AcDbEntity
  8
0
100
AcDbLine
 10
-106.432628
 20
25.92521699999998
 30
0.0
 11
-107.377037
 21
26.47292999999999
 31
0.0
  0
LINE
  5
1EA
330
6B
100
AcDbEntity
  8
0
100
AcDbLine
 10
66.522704
 20
26.410602
 30
0.0
 11
66.522704
 21
32.406852
 31
0.0
  0
LINE
  5
1EB
330
6B
100
AcDbEntity
  8
0
100
AcDbLine
 10
60.987704
 20
32.406852
 30
0.0
 11
60.987704
 21
26.410602
 31
0.0
  0
LINE
  5
1EC
330
6B
100
AcDbEntity
  8
0
100
AcDbLine
 10
66.292079
 20
32.63747700000001
 30
0.0
 11
61.21832900000001
 21
32.63747700000001
 31
0.0
  0
LINE
  5
1ED
330
6B
100
AcDbEntity
  8
0
100
AcDbLine
 10
66.292079
 20
26.179977
 30
0.0
 11
61.21832900000001
 21
26.179977
 31
0.0
  0
LINE
  5
1EE
330
6B
100
AcDbEntity
  8
0
100
AcDbLine
 10
62.37145400000001
 20
26.179977
 30
0.0
 11
62.37145400000001
 21
32.63747700000001
 31
0.0
  0
LINE
  5
1EF
330
6B
100
AcDbEntity
  8
0
100
AcDbLine
 10
63.755204
 20
26.179977
 30
0.0
 11
63.755204
 21
32.63747700000001
 31
0.0
  0
LINE
  5
1F0
330
6B
100
AcDbEntity
  8
0
100
AcDbLine
 10
65.138954
 20
26.179977
 30
0.0
 11
65.138954
 21
32.63747700000001
 31
0.0
  0
ARC
  5
1F1
330
6B
100
AcDbEntity
  8
0
100
AcDbCircle
 10
61.21832900000001
 20
26.410602
 30
0.0
 40
0.230625
100
AcDbArc
 50
180.0
 51
270.0
  0
ARC
  5
1F2
330
6B
100
AcDbEntity
  8
0
100
AcDbCircle
 10
61.21832900000001
 20
32.406852
 30
0.0
 40
0.230625
100
AcDbArc
 50
90.0
 51
180.0
  0
ARC
  5
1F3
330
6B
100
AcDbEntity
  8
0
100
AcDbCircle
 10
66.292079
 20
32.406852
 30
0.0
 40
0.230625
100
AcDbArc
 50
0.0
 51
90.0
  0
ARC
  5
1F4
330
6B
100
AcDbEntity
  8
0
100
AcDbCircle
 10
66.292079
 20
26.410602
 30
0.0
 40
0.230625
100
AcDbArc
 50
270.0
 51
0.0
  0
LINE
  5
1F5
330
6B
100
AcDbEntity
  8
0
100
AcDbLine
 10
72.106105
 20
25.323125
 30
0.0
 11
67.57998399999999
 21
25.323125
 31
0.0
  0
LINE
  5
1F6
330
6B
100
AcDbEntity
  8
0
100
AcDbLine
 10
67.57998399999999
 20
33.723125
 30
0.0
 11
72.106105
 21
33.723125
 31
0.0
  0
TEXT
  5
1F7
330
6B
100
AcDbEntity
  8
0
100
AcDbText
 10
68.13611
 20
32.620073
 30
0.0
 40
0.9599999999999999
  1
12A 125V
 50
270.000001
 41
0.9099199999999999
100
AcDbText
  0
TEXT
  5
1F8
330
6B
100
AcDbEntity
  8
0
100
AcDbText
 10
70.45935
 20
33.47967199999999
 30
0.0
 40
0.9599999999999999
  1
<PS>E JET
 50
270.000001
 41
0.8529129999999998
100
AcDbText
  0
LINE
  5
1F9
330
6B
100
AcDbEntity
  8
0
100
AcDbLine
 10
70.51328000000002
 20
26.219547
 30
0.0
 11
71.427645
 21
26.219547
 31
0.0
  0
CIRCLE
  5
1FA
330
6B
100
AcDbEntity
  8
0
100
AcDbCircle
 10
70.97046299999998
 20
26.219547
 30
0.0
 40
0.4571830000000002
  0
LINE
  5
1FB
330
6B
100
AcDbEntity
  8
0
100
AcDbLine
 10
70.51328000000002
 20
26.219547
 30
0.0
 11
71.34550400000001
 21
25.755986
 31
0.0
  0
LINE
  5
1FC
330
6B
100
AcDbEntity
  8
0
100
AcDbLine
 10
71.427645
 20
26.219547
 30
0.0
 11
70.602063
 21
26.700356
 31
0.0
  0
LINE
  5
1FD
330
6B
100
AcDbEntity
  8
0
100
AcDbLine
 10
72.106105
 20
33.723125
 30
0.0
 11
72.106105
 21
25.323125
 31
0.0
  0
LINE
  5
1FE
330
6B
100
AcDbEntity
  8
0
100
AcDbLine
 10
67.57998399999999
 20
33.723125
 30
0.0
 11
67.57998399999999
 21
25.323125
 31
0.0
  0
LINE
  5
1FF
330
6B
100
AcDbEntity
  8
0
100
AcDbLine
 10
50.84020399999999
 20
33.590391
 30
0.0
 11
50.84020399999999
 21
25.21043
 31
0.0
  0
LINE
  5
200
330
6B
100
AcDbEntity
  8
0
100
AcDbLine
 10
58.220204
 20
25.718727
 30
0.0
 11
58.220204
 21
33.09872700000001
 31
0.0
  0
LINE
  5
201
330
6B
100
AcDbEntity
  8
0
100
AcDbLine
 10
57.297704
 20
25.718727
 30
0.0
 11
57.297704
 21
33.09872700000001
 31
0.0
  0
LINE
  5
202
330
6B
100
AcDbEntity
  8
0
100
AcDbLine
 10
56.375204
 20
25.718727
 30
0.0
 11
56.375204
 21
33.09872700000001
 31
0.0
  0
LINE
  5
203
330
6B
100
AcDbEntity
  8
0
100
AcDbLine
 10
55.452704
 20
25.718727
 30
0.0
 11
55.452704
 21
33.09872700000001
 31
0.0
  0
LINE
  5
204
330
6B
100
AcDbEntity
  8
0
100
AcDbLine
 10
54.530204
 20
25.718727
 30
0.0
 11
54.530204
 21
33.09872700000001
 31
0.0
  0
LINE
  5
205
330
6B
100
AcDbEntity
  8
0
100
AcDbLine
 10
53.607704
 20
25.718727
 30
0.0
 11
53.607704
 21
33.09872700000001
 31
0.0
  0
LINE
  5
206
330
6B
100
AcDbEntity
  8
0
100
AcDbLine
 10
52.685204
 20
25.718727
 30
0.0
 11
52.685204
 21
33.09872700000001
 31
0.0
  0
LINE
  5
207
330
6B
100
AcDbEntity
  8
0
100
AcDbLine
 10
51.76270399999999
 20
25.718727
 30
0.0
 11
51.76270399999999
 21
33.09872700000001
 31
0.0
  0
LINE
  5
208
330
6B
100
AcDbEntity
  8
0
100
AcDbLine
 10
52.685204
 20
28.716852
 30
0.0
 11
51.76270399999999
 21
28.716852
 31
0.0
  0
LINE
  5
209
330
6B
100
AcDbEntity
  8
0
100
AcDbLine
 10
52.685204
 20
30.100602
 30
0.0
 11
51.76270399999999
 21
30.100602
 31
0.0
  0
LINE
  5
20A
330
6B
100
AcDbEntity
  8
0
100
AcDbLine
 10
54.530204
 20
28.716852
 30
0.0
 11
53.607704
 21
28.716852
 31
0.0
  0
LINE
  5
20B
330
6B
100
AcDbEntity
  8
0
100
AcDbLine
 10
54.530204
 20
30.100602
 30
0.0
 11
53.607704
 21
30.100602
 31
0.0
  0
LINE
  5
20C
330
6B
100
AcDbEntity
  8
0
100
AcDbLine
 10
58.220204
 20
30.100602
 30
0.0
 11
57.297704
 21
30.100602
 31
0.0
  0
LINE
  5
20D
330
6B
100
AcDbEntity
  8
0
100
AcDbLine
 10
56.375204
 20
30.100602
 30
0.0
 11
55.452704
 21
30.100602
 31
0.0
  0
LINE
  5
20E
330
6B
100
AcDbEntity
  8
0
100
AcDbLine
 10
58.220204
 20
28.716852
 30
0.0
 11
57.297704
 21
28.716852
 31
0.0
  0
LINE
  5
20F
330
6B
100
AcDbEntity
  8
0
100
AcDbLine
 10
56.375204
 20
28.716852
 30
0.0
 11
55.452704
 21
28.716852
 31
0.0
  0
LINE
  5
210
330
6B
100
AcDbEntity
  8
0
100
AcDbLine
 10
57.297704
 20
26.524901
 30
0.0
 11
56.375204
 21
26.524901
 31
0.0
  0
LINE
  5
211
330
6B
100
AcDbEntity
  8
0
100
AcDbLine
 10
55.452704
 20
26.524901
 30
0.0
 11
54.530204
 21
26.524901
 31
0.0
  0
LINE
  5
212
330
6B
100
AcDbEntity
  8
0
100
AcDbLine
 10
53.607704
 20
26.524901
 30
0.0
 11
52.685204
 21
26.524901
 31
0.0
  0
LINE
  5
213
330
6B
100
AcDbEntity
  8
0
100
AcDbLine
 10
53.607704
 20
32.29255399999999
 30
0.0
 11
52.685204
 21
32.29255399999999
 31
0.0
  0
LINE
  5
214
330
6B
100
AcDbEntity
  8
0
100
AcDbLine
 10
55.452704
 20
32.29255399999999
 30
0.0
 11
54.530204
 21
32.29255399999999
 31
0.0
  0
LINE
  5
215
330
6B
100
AcDbEntity
  8
0
100
AcDbLine
 10
57.297704
 20
32.29255399999999
 30
0.0
 11
56.375204
 21
32.29255399999999
 31
0.0
  0
LINE
  5
216
330
6B
100
AcDbEntity
  8
0
100
AcDbLine
 10
74.36395400000002
 20
37.711227
 30
0.0
 11
74.36395400000002
 21
22.028727
 31
0.0
  0
LINE
  5
217
330
6B
100
AcDbEntity
  8
0
100
AcDbLine
 10
76.900829
 20
19.261227
 30
0.0
 11
76.900829
 21
39.556227
 31
0.0
  0
LINE
  5
218
330
6B
100
AcDbEntity
  8
0
100
AcDbLine
 10
77.823329
 20
19.261227
 30
0.0
 11
77.823329
 21
39.556227
 31
0.0
  0
LINE
  5
219
330
6B
100
AcDbEntity
  8
0
100
AcDbLine
 10
78.976454
 20
19.261227
 30
0.0
 11
78.976454
 21
39.556227
 31
0.0
  0
LINE
  5
21A
330
6B
100
AcDbEntity
  8
0
100
AcDbLine
 10
79.898954
 20
19.261227
 30
0.0
 11
79.898954
 21
39.556227
 31
0.0
  0
ARC
  5
21B
330
6B
100
AcDbEntity
  8
0
 62
     3
100
AcDbCircle
 10
80.475516
 20
38.74904
 30
0.0
 40
0.807188
100
AcDbArc
 50
0.0
 51
90.0
  0
LINE
  5
21C
330
6B
100
AcDbEntity
  8
0
 62
     3
100
AcDbLine
 10
79.898954
 20
39.556227
 30
0.0
 11
80.475516
 21
39.556227
 31
0.0
  0
ARC
  5
21D
330
6B
100
AcDbEntity
  8
0
 62
     3
100
AcDbCircle
 10
79.43770400000002
 20
39.556227
 30
0.0
 40
0.46125
100
AcDbArc
 50
0.0
 51
180.0
  0
LINE
  5
21E
330
6B
100
AcDbEntity
  8
0
 62
     3
100
AcDbLine
 10
77.823329
 20
39.556227
 30
0.0
 11
78.976454
 21
39.556227
 31
0.0
  0
ARC
  5
21F
330
6B
100
AcDbEntity
  8
0
 62
     3
100
AcDbCircle
 10
77.36207900000002
 20
39.556227
 30
0.0
 40
0.46125
100
AcDbArc
 50
0.0
 51
180.0
  0
LINE
  5
220
330
6B
100
AcDbEntity
  8
0
 62
     3
100
AcDbLine
 10
76.20895400000001
 20
39.556227
 30
0.0
 11
76.900829
 21
39.556227
 31
0.0
  0
ARC
  5
221
330
6B
100
AcDbEntity
  8
0
 62
     3
100
AcDbCircle
 10
73.902704
 20
36.788727
 30
0.0
 40
0.46125
100
AcDbArc
 50
270.0
 51
0.0
  0
ARC
  5
222
330
6B
100
AcDbEntity
  8
0
 62
     3
100
AcDbCircle
 10
73.902704
 20
22.028727
 30
0.0
 40
0.46125
100
AcDbArc
 50
0.0
 51
90.0
  0
LINE
  5
223
330
6B
100
AcDbEntity
  8
0
 62
     3
100
AcDbLine
 10
76.20895400000001
 20
19.261227
 30
0.0
 11
76.900829
 21
19.261227
 31
0.0
  0
ARC
  5
224
330
6B
100
AcDbEntity
  8
0
 62
     3
100
AcDbCircle
 10
77.36207900000002
 20
19.261227
 30
0.0
 40
0.46125
100
AcDbArc
 50
180.0
 51
0.0
  0
LINE
  5
225
330
6B
100
AcDbEntity
  8
0
 62
     3
100
AcDbLine
 10
77.823329
 20
19.261227
 30
0.0
 11
78.976454
 21
19.261227
 31
0.0
  0
ARC
  5
226
330
6B
100
AcDbEntity
  8
0
 62
     3
100
AcDbCircle
 10
79.43770400000002
 20
19.261227
 30
0.0
 40
0.46125
100
AcDbArc
 50
180.0
 51
0.0
  0
LINE
  5
227
330
6B
100
AcDbEntity
  8
0
 62
     3
100
AcDbLine
 10
79.898954
 20
19.261227
 30
0.0
 11
80.475516
 21
19.261227
 31
0.0
  0
LINE
  5
228
330
6B
100
AcDbEntity
  8
0
 62
     3
100
AcDbLine
 10
-87.773319
 20
21.738547
 30
0.0
 11
-87.773319
 21
29.32569
 31
0.0
  0
LINE
  5
229
330
6B
100
AcDbEntity
  8
0
 62
     3
100
AcDbLine
 10
-87.773319
 20
36.912833
 30
0.0
 11
-87.773319
 21
29.32569
 31
0.0
  0
LINE
  5
22F
330
6B
100
AcDbEntity
  8
0
100
AcDbLine
 10
-84.87293299999997
 20
19.993209
 30
0.0
 11
-78.98945999999998
 21
11.640109
 31
0.0
  0
LINE
  5
230
330
6B
100
AcDbEntity
  8
0
100
AcDbLine
 10
-78.98945999999998
 20
11.640109
 30
0.0
 11
-65.23945999999999
 21
11.640109
 31
0.0
  0
TEXT
  5
231
330
6B
100
AcDbEntity
  8
0
 62
     4
100
AcDbText
 10
-76.23946
 20
12.640109
 30
0.0
 40
3.2
  1
2PW
  7
高3.2
100
AcDbText
  0
LINE
  5
232
330
6B
100
AcDbEntity
  8
0
100
AcDbLine
 10
100.904406
 20
25.972415
 30
0.0
 11
96.937656
 21
25.972415
 31
0.0
  0
LINE
  5
233
330
6B
100
AcDbEntity
  8
0
100
AcDbLine
 10
100.904406
 20
26.987165
 30
0.0
 11
96.937656
 21
26.987165
 31
0.0
  0
LINE
  5
234
330
6B
100
AcDbEntity
  8
0
100
AcDbLine
 10
96.937656
 20
25.972415
 30
0.0
 11
96.937656
 21
26.987165
 31
0.0
  0
LINE
  5
235
330
6B
100
AcDbEntity
  8
0
100
AcDbLine
 10
100.904406
 20
25.972415
 30
0.0
 11
100.904406
 21
26.987165
 31
0.0
  0
LINE
  5
236
330
6B
100
AcDbEntity
  8
0
100
AcDbLine
 10
100.535406
 20
31.83029
 30
0.0
 11
100.535406
 21
32.84504
 31
0.0
  0
LINE
  5
237
330
6B
100
AcDbEntity
  8
0
100
AcDbLine
 10
100.535406
 20
31.83029
 30
0.0
 11
97.30665600000001
 21
31.83029
 31
0.0
  0
LINE
  5
238
330
6B
100
AcDbEntity
  8
0
100
AcDbLine
 10
100.535406
 20
32.84504
 30
0.0
 11
97.30665600000001
 21
32.84504
 31
0.0
  0
LINE
  5
239
330
6B
100
AcDbEntity
  8
0
100
AcDbLine
 10
97.30665600000001
 20
31.83029
 30
0.0
 11
97.30665600000001
 21
32.84504
 31
0.0
  0
LINE
  5
23A
330
6B
100
AcDbEntity
  8
0
100
AcDbLine
 10
96.614781
 20
31.299852
 30
0.0
 11
96.614781
 21
33.375477
 31
0.0
  0
LINE
  5
23B
330
6B
100
AcDbEntity
  8
0
100
AcDbLine
 10
101.227281
 20
31.299852
 30
0.0
 11
101.227281
 21
33.375477
 31
0.0
  0
LINE
  5
23C
330
6B
100
AcDbEntity
  8
0
100
AcDbLine
 10
101.457906
 20
27.517602
 30
0.0
 11
96.38415600000001
 21
27.517602
 31
0.0
  0
LINE
  5
23D
330
6B
100
AcDbEntity
  8
0
100
AcDbLine
 10
101.457906
 20
25.441977
 30
0.0
 11
96.38415600000001
 21
25.441977
 31
0.0
  0
LINE
  5
23E
330
6B
100
AcDbEntity
  8
0
100
AcDbLine
 10
96.38415600000001
 20
25.441977
 30
0.0
 11
96.38415600000001
 21
27.517602
 31
0.0
  0
LINE
  5
23F
330
6B
100
AcDbEntity
  8
0
100
AcDbLine
 10
101.457906
 20
25.441977
 30
0.0
 11
101.457906
 21
27.517602
 31
0.0
  0
LINE
  5
240
330
6B
100
AcDbEntity
  8
0
100
AcDbLine
 10
101.227281
 20
31.299852
 30
0.0
 11
96.614781
 21
31.299852
 31
0.0
  0
LINE
  5
241
330
6B
100
AcDbEntity
  8
0
100
AcDbLine
 10
101.227281
 20
33.375477
 30
0.0
 11
96.614781
 21
33.375477
 31
0.0
  0
LINE
  5
247
330
6B
100
AcDbEntity
  8
0
100
AcDbLine
 10
81.28270400000003
 20
20.068415
 30
0.0
 11
99.58852700000001
 21
-1.964553
 31
0.0
  0
LINE
  5
248
330
6B
100
AcDbEntity
  8
0
100
AcDbLine
 10
99.58852700000001
 20
-1.964553
 30
0.0
 11
118.838527
 21
-1.964553
 31
0.0
  0
TEXT
  5
249
330
6B
100
AcDbEntity
  8
0
 62
     4
100
AcDbText
 10
102.338527
 20
-0.964553
 30
0.0
 40
3.2
  1
SW-2P
  7
高3.2
100
AcDbText
  0
LINE
  5
24A
330
6B
100
AcDbEntity
  8
0
 62
     3
100
AcDbLine
 10
86.70059999999997
 20
-50.33427699999999
 30
0.0
 11
86.70059999999997
 21
-44.33427699999999
 31
0.0
  0
LINE
  5
24B
330
6B
100
AcDbEntity
  8
0
 62
     3
100
AcDbLine
 10
112.7006
 20
-50.33427699999999
 30
0.0
 11
112.7006
 21
-44.33427699999999
 31
0.0
  0
LINE
  5
24C
330
6B
100
AcDbEntity
  8
0
 62
     3
100
AcDbLine
 10
138.399964
 20
-44.33427699999999
 30
0.0
 11
86.70059999999997
 21
-44.33427699999999
 31
0.0
  0
TEXT
  5
24D
330
6B
100
AcDbEntity
  8
0
 62
     3
100
AcDbText
 10
92.37763674829706
 20
-49.97770734081038
 30
0.0
 40
4.5
  1
コード
  7
高4.5
100
AcDbText
  0
TEXT
  5
24E
330
6B
100
AcDbEntity
  8
0
 62
     3
100
AcDbText
 10
-34.47857485235826
 20
-44.73041799999999
 30
0.0
 40
4.5
  1
VCT
  7
高4.5
100
AcDbText
  0
TEXT
  5
24F
330
6B
100
AcDbEntity
  8
0
 62
     3
100
AcDbText
 10
-34.47857485235826
 20
-52.73041800000001
 30
0.0
 40
4.5
  1
0.75sqx2c
  7
高4.5
100
AcDbText
  0
TEXT
  5
250
330
6B
100
AcDbEntity
  8
0
 62
     3
100
AcDbText
 10
-34.47857485235826
 20
-36.730418
 30
0.0
 40
4.5
  1
12A 125V
  7
高4.5
100
AcDbText
  0
TEXT
  5
251
330
6B
100
AcDbEntity
  8
0
 62
     3
100
AcDbText
 10
48.89456736581258
 20
-65.46156100000001
 30
0.0
 40
4.5
  1
SSW-05
  7
高4.5
100
AcDbText
  0
TEXT
  5
252
330
6B
100
AcDbEntity
  8
0
 62
     3
100
AcDbText
 10
93.2949133102695
 20
-89.13390900000001
 30
0.0
 40
6.299999999999998
  1
SSW-05
  7
高6.3
100
AcDbText
  0
TEXT
  5
253
330
6B
100
AcDbEntity
  8
0
 62
     3
100
AcDbText
 10
115.913735040532
 20
-49.91652502088683
 30
0.0
 40
4.5
  1
29197
  7
高4.5
100
AcDbText
  0
TEXT
  5
331
330
6B
100
AcDbEntity
  8
0
 62
     3
100
AcDbText
 10
126.0
 20
80.5
 30
0.0
 40
3.2
  1
担　当
  7
高3.2
100
AcDbText
  0
TEXT
  5
332
330
6B
100
AcDbEntity
  8
0
 62
     3
100
AcDbText
 10
82.0
 20
80.5
 30
0.0
 40
3.2
  1
変更・追記内容
  7
高3.2
100
AcDbText
  0
TEXT
  5
333
330
6B
100
AcDbEntity
  8
0
 62
     3
100
AcDbText
 10
57.11351500033924
 20
75.8294614900917
 30
0.0
 40
2.0
  1
1
  7
高2
100
AcDbText
  0
TEXT
  5
334
330
6B
100
AcDbEntity
  8
0
 62
     3
100
AcDbText
 10
56.80500352358193
 20
70.65964477781881
 30
0.0
 40
2.0
  1
2
  7
高2
100
AcDbText
  0
TEXT
  5
335
330
6B
100
AcDbEntity
  8
0
 62
     3
100
AcDbText
 10
64.0
 20
80.5
 30
0.0
 40
3.2
  1
日　付
  7
高3.2
100
AcDbText
  0
TEXT
  5
336
330
6B
100
AcDbEntity
  8
0
 62
     3
100
AcDbText
 10
64.0
 20
85.5
 30
0.0
 40
3.2
  1
図　　　　面　　　　略　　　　歴
  7
高3.2
100
AcDbText
  0
TEXT
  5
337
330
6B
100
AcDbEntity
  8
0
 62
     3
100
AcDbText
 10
54.0
 20
80.5
 30
0.0
 40
3.2
  1
記号
  7
高3.2
100
AcDbText
  0
LINE
  5
338
330
6B
100
AcDbEntity
  8
0
100
AcDbLine
 10
57.5
 20
73.79089600000009
 30
0.0
 11
55.60000000000002
 21
70.5
 31
0.0
  0
LINE
  5
339
330
6B
100
AcDbEntity
  8
0
100
AcDbLine
 10
57.5
 20
73.79089600000009
 30
0.0
 11
59.39999999999997
 21
70.5
 31
0.0
  0
LINE
  5
33A
330
6B
100
AcDbEntity
  8
0
100
AcDbLine
 10
55.60000000000002
 20
70.5
 30
0.0
 11
59.39999999999997
 21
70.5
 31
0.0
  0
LINE
  5
33B
330
6B
100
AcDbEntity
  8
0
100
AcDbLine
 10
57.5
 20
78.79089700000007
 30
0.0
 11
55.60000000000002
 21
75.5
 31
0.0
  0
LINE
  5
33C
330
6B
100
AcDbEntity
  8
0
100
AcDbLine
 10
57.5
 20
78.79089700000007
 30
0.0
 11
59.39999999999997
 21
75.5
 31
0.0
  0
LINE
  5
33D
330
6B
100
AcDbEntity
  8
0
100
AcDbLine
 10
55.60000000000002
 20
75.5
 30
0.0
 11
59.39999999999997
 21
75.5
 31
0.0
  0
LINE
  5
33E
330
6B
100
AcDbEntity
  8
0
 62
     3
100
AcDbLine
 10
52.5
 20
85.0
 30
0.0
 11
138.5
 21
85.0
 31
0.0
  0
LINE
  5
33F
330
6B
100
AcDbEntity
  8
0
 62
     3
100
AcDbLine
 10
52.5
 20
80.0
 30
0.0
 11
138.5
 21
80.0
 31
0.0
  0
LINE
  5
340
330
6B
100
AcDbEntity
  8
0
 62
     7
100
AcDbLine
 10
52.5
 20
75.0
 30
0.0
 11
138.5
 21
75.0
 31
0.0
  0
LINE
  5
341
330
6B
100
AcDbEntity
  8
0
 62
     3
100
AcDbLine
 10
52.5
 20
70.0
 30
0.0
 11
138.5
 21
70.0
 31
0.0
  0
LINE
  5
342
330
6B
100
AcDbEntity
  8
0
 62
     7
100
AcDbLine
 10
124.4999999999999
 20
70.0
 30
0.0
 11
124.5
 21
85.0
 31
0.0
  0
LINE
  5
343
330
6B
100
AcDbEntity
  8
0
 62
     7
100
AcDbLine
 10
80.5
 20
70.0
 30
0.0
 11
80.5
 21
85.0
 31
0.0
  0
LINE
  5
344
330
6B
100
AcDbEntity
  8
0
 62
     7
100
AcDbLine
 10
62.5
 20
70.0
 30
0.0
 11
62.5
 21
85.0
 31
0.0
  0
LINE
  5
345
330
6B
100
AcDbEntity
  8
0
 62
     3
100
AcDbLine
 10
52.5
 20
70.0
 30
0.0
 11
52.5
 21
90.0
 31
0.0
  0
LINE
  5
599
330
6B
100
AcDbEntity
  8
0
100
AcDbLine
 10
82.97299999999998
 20
18.872552
 30
0.0
 11
81.28270400000003
 21
20.068415
 31
0.0
  0
LINE
  5
59C
330
6B
100
AcDbEntity
  8
0
100
AcDbLine
 10
81.28270400000003
 20
20.068415
 30
0.0
 11
82.14861199999999
 21
18.18762
 31
0.0
  0
LINE
  5
59F
330
6B
100
AcDbEntity
  8
0
100
AcDbLine
 10
-83.28311500000003
 20
18.666685
 30
0.0
 11
-84.87293299999997
 21
19.993209
 31
0.0
  0
LINE
  5
5A0
330
6B
100
AcDbEntity
  8
0
100
AcDbLine
 10
-84.87293299999997
 20
19.993209
 30
0.0
 11
-84.159372
 21
18.049496
 31
0.0
  0
LINE
  5
5A1
330
6B
100
AcDbEntity
  8
0
100
AcDbLine
 10
2.948434999999999
 20
22.897804
 30
0.0
 11
3.742982
 21
24.809841
 31
0.0
  0
LINE
  5
5A2
330
6B
100
AcDbEntity
  8
0
100
AcDbLine
 10
3.742982
 20
24.809841
 30
0.0
 11
2.098866
 21
23.551242
 31
0.0
  0
LINE
  5
5A3
330
6B
100
AcDbEntity
  8
0
100
AcDbLine
 10
40.802252
 20
23.136407
 30
0.0
 11
40.802252
 21
-3.405438999999997
 31
0.0
  0
LINE
  5
5A4
330
6B
100
AcDbEntity
  8
0
100
AcDbLine
 10
81.28270400000003
 20
19.81841499999999
 30
0.0
 11
81.28270400000003
 21
-3.405438999999997
 31
0.0
  0
LINE
  5
5A5
330
6B
100
AcDbEntity
  8
0
100
AcDbLine
 10
43.302252
 20
-2.155438999999998
 30
0.0
 11
78.78270400000002
 21
-2.155438999999998
 31
0.0
  0
LINE
  5
5A9
330
6B
100
AcDbEntity
  8
0
100
AcDbLine
 10
-87.773319
 20
21.488547
 30
0.0
 11
-87.773319
 21
-3.405438999999997
 31
0.0
  0
LINE
  5
5AA
330
6B
100
AcDbEntity
  8
0
100
AcDbLine
 10
40.802252
 20
23.136407
 30
0.0
 11
40.802252
 21
-3.405438999999997
 31
0.0
  0
LINE
  5
5AB
330
6B
100
AcDbEntity
  8
0
100
AcDbLine
 10
-85.273319
 20
-2.155438999999998
 30
0.0
 11
38.302252
 21
-2.155438999999998
 31
0.0
  0
TEXT
  5
5AF
330
6B
100
AcDbEntity
  8
0
  6
Continuous
 62
     4
100
AcDbText
 10
57.79247800000002
 20
-1.530438999999998
 30
0.0
 40
3.0
  1
120
100
AcDbText
  0
LINE
  5
5B0
330
6B
100
AcDbEntity
  8
0
  6
ByBlock
 62
     0
370
    -2
100
AcDbLine
 10
78.78270400000002
 20
-1.485566499999998
 30
0.0
 11
81.28270400000003
 21
-2.155438999999998
 31
0.0
  0
LINE
  5
5B1
330
6B
100
AcDbEntity
  8
0
  6
ByBlock
 62
     0
370
    -2
100
AcDbLine
 10
81.28270400000003
 20
-2.155438999999998
 30
0.0
 11
78.78270400000002
 21
-2.825311499999997
 31
0.0
  0
LINE
  5
5B2
330
6B
100
AcDbEntity
  8
0
  6
ByBlock
 62
     0
370
    -2
100
AcDbLine
 10
81.28270400000003
 20
-2.155438999999998
 30
0.0
 11
78.78270400000002
 21
-2.155438999999998
 31
0.0
  0
LINE
  5
5B3
330
6B
100
AcDbEntity
  8
0
  6
ByBlock
 62
     0
370
    -2
100
AcDbLine
 10
43.302252
 20
-2.825311499999998
 30
0.0
 11
40.802252
 21
-2.155438999999998
 31
0.0
  0
LINE
  5
5B4
330
6B
100
AcDbEntity
  8
0
  6
ByBlock
 62
     0
370
    -2
100
AcDbLine
 10
40.802252
 20
-2.155438999999998
 30
0.0
 11
43.302252
 21
-1.485566499999998
 31
0.0
  0
LINE
  5
5B5
330
6B
100
AcDbEntity
  8
0
  6
ByBlock
 62
     0
370
    -2
100
AcDbLine
 10
40.802252
 20
-2.155438999999998
 30
0.0
 11
43.302252
 21
-2.155438999999998
 31
0.0
  0
TEXT
  5
5B6
330
6B
100
AcDbEntity
  8
0
  6
Continuous
 62
     4
100
AcDbText
 10
-27.2355335
 20
-1.530438999999998
 30
0.0
 40
3.0
  1
380
100
AcDbText
  0
LINE
  5
5B7
330
6B
100
AcDbEntity
  8
0
  6
ByBlock
 62
     0
370
    -2
100
AcDbLine
 10
38.302252
 20
-1.485566499999998
 30
0.0
 11
40.802252
 21
-2.155438999999998
 31
0.0
  0
LINE
  5
5B8
330
6B
100
AcDbEntity
  8
0
  6
ByBlock
 62
     0
370
    -2
100
AcDbLine
 10
40.802252
 20
-2.155438999999998
 30
0.0
 11
38.302252
 21
-2.825311499999997
 31
0.0
  0
LINE
  5
5B9
330
6B
100
AcDbEntity
  8
0
  6
ByBlock
 62
     0
370
    -2
100
AcDbLine
 10
40.802252
 20
-2.155438999999998
 30
0.0
 11
38.302252
 21
-2.155438999999998
 31
0.0
  0
LINE
  5
5BA
330
6B
100
AcDbEntity
  8
0
  6
ByBlock
 62
     0
370
    -2
100
AcDbLine
 10
-85.273319
 20
-2.825311499999998
 30
0.0
 11
-87.773319
 21
-2.155438999999998
 31
0.0
  0
LINE
  5
5BB
330
6B
100
AcDbEntity
  8
0
  6
ByBlock
 62
     0
370
    -2
100
AcDbLine
 10
-87.773319
 20
-2.155438999999998
 30
0.0
 11
-85.273319
 21
-1.485566499999998
 31
0.0
  0
LINE
  5
5BC
330
6B
100
AcDbEntity
  8
0
  6
ByBlock
 62
     0
370
    -2
100
AcDbLine
 10
-87.773319
 20
-2.155438999999998
 30
0.0
 11
-85.273319
 21
-2.155438999999998
 31
0.0
  0
ENDSEC
  0
SECTION
  2
OBJECTS
  0
DICTIONARY
  5
C
330
0
100
AcDbDictionary
281
     1
  3
ACAD_2007HEADERVARS_RT
350
5C0
  3
ACAD_COLOR
350
62
  3
ACAD_GROUP
350
D
  3
ACAD_LAYOUT
350
61
  3
ACAD_MATERIAL
350
10
  3
ACAD_MLEADERSTYLE
350
65
  3
ACAD_MLINESTYLE
350
5E
  3
ACAD_PLOTSETTINGS
350
60
  3
ACAD_PLOTSTYLENAME
350
E
  3
ACAD_SCALELIST
350
42
  3
ACAD_TABLESTYLE
350
63
  3
ACAD_VISUALSTYLE
350
29
  3
ACDB_RECOMPOSE_DATA
350
5BE
  3
AcDbVariableDictionary
350
484
  3
DWGPROPS
350
5BF
  0
DICTIONARY
  5
2FC
330
2
100
AcDbDictionary
280
     1
281
     1
  3
ACAD_LAYERSTATES
360
2FD
  0
DICTIONARY
  5
482
330
54
100
AcDbDictionary
280
     1
281
     1
  3
ADSK_XREC_LAYER_RECONCILED
360
483
  0
DICTIONARY
  5
59D
330
6B
100
AcDbDictionary
280
     1
281
     1
  3
ACAD_SORTENTS
360
59E
  0
DICTIONARY
  5
5C0
102
{ACAD_REACTORS
330
C
102
}
330
C
100
AcDbDictionary
281
     1
  3
DIMARCSYM
350
5C2
  3
DIMFXL
350
5C1
  3
DIMJOGANG
350
5C3
  3
INTERFEREVPVS
350
5C4
  0
DICTIONARY
  5
62
102
{ACAD_REACTORS
330
C
102
}
330
C
100
AcDbDictionary
281
     1
  0
DICTIONARY
  5
D
102
{ACAD_REACTORS
330
C
102
}
330
C
100
AcDbDictionary
281
     1
  0
DICTIONARY
  5
61
102
{ACAD_REACTORS
330
C
102
}
330
C
100
AcDbDictionary
281
     1
  3
Model
350
6E
  3
レイアウト1
350
6A
  0
DICTIONARY
  5
10
102
{ACAD_REACTORS
330
C
102
}
330
C
100
AcDbDictionary
281
     1
  3
ByBlock
350
19
  3
ByLayer
350
11
  3
Global
350
21
  0
DICTIONARY
  5
65
102
{ACAD_REACTORS
330
C
102
}
330
C
100
AcDbDictionary
281
     1
  3
Standard
350
66
  0
DICTIONARY
  5
5E
102
{ACAD_REACTORS
330
C
102
}
330
C
100
AcDbDictionary
281
     1
  3
Standard
350
5F
  0
DICTIONARY
  5
60
102
{ACAD_REACTORS
330
C
102
}
330
C
100
AcDbDictionary
281
     1
  0
ACDBDICTIONARYWDFLT
  5
E
102
{ACAD_REACTORS
330
C
102
}
330
C
100
AcDbDictionary
281
     1
  3
Normal
350
F
100
AcDbDictionaryWithDefault
340
F
  0
DICTIONARY
  5
42
102
{ACAD_REACTORS
330
C
102
}
330
C
100
AcDbDictionary
281
     1
  3
A0
350
43
  3
A1
350
44
  3
A2
350
45
  3
A3
350
46
  3
A4
350
47
  3
A5
350
48
  3
A6
350
49
  3
A7
350
4A
  3
A8
350
4B
  3
A9
350
4C
  3
B0
350
4D
  3
B1
350
4E
  3
B2
350
4F
  3
B3
350
50
  3
B4
350
51
  3
B5
350
52
  3
B6
350
53
  0
DICTIONARY
  5
63
102
{ACAD_REACTORS
330
C
102
}
330
C
100
AcDbDictionary
281
     1
  3
Standard
350
64
  0
DICTIONARY
  5
29
102
{ACAD_REACTORS
330
C
102
}
330
C
100
AcDbDictionary
281
     1
  3
2dWireframe
350
2F
  3
3D Hidden
350
4D5
  3
3dWireframe
350
2F9
  3
Basic
350
2E
  3
Brighten
350
35
  3
ColorChange
350
39
  3
Conceptual
350
32
  3
Dim
350
34
  3
EdgeColorOff
350
41
  3
Facepattern
350
38
  3
Flat
350
2A
  3
FlatWithEdges
350
2B
  3
Gouraud
350
2C
  3
GouraudWithEdges
350
2D
  3
Hidden
350
31
  3
JitterOff
350
3F
  3
Linepattern
350
37
  3
OverhangOff
350
40
  3
Realistic
350
33
  3
Shaded
350
3E
  3
Shaded with edges
350
3D
  3
Shades of Gray
350
3A
  3
Sketchy
350
3B
  3
Thicken
350
36
  3
Wireframe
350
30
  3
X-Ray
350
3C
  0
XRECORD
  5
5BE
102
{ACAD_REACTORS
330
C
102
}
330
C
100
AcDbXrecord
280
     1
 90
        1
330
64
  0
DICTIONARY
  5
484
102
{ACAD_REACTORS
330
C
102
}
330
C
100
AcDbDictionary
281
     1
  3
CANNOSCALE
350
487
  3
CMLEADERSTYLE
350
486
  3
CTABLESTYLE
350
485
  3
DIMASSOC
350
48A
  3
INDEXCTL
350
489
  3
LOFTANG1
350
555
  3
LOFTANG2
350
556
  3
SORTENTS
350
488
  3
XCLIPFRAME
350
557
  0
XRECORD
  5
5BF
102
{ACAD_REACTORS
330
C
102
}
330
C
100
AcDbXrecord
280
     1
  1
DWGPROPS COOKIE
  2

  3

  4

  6

  7

  8
imamura
  9

300
=
301
=
302
=
303
=
304
=
305
=
306
=
307
=
308
=
309
=
 40
0.0215534606481482
 41
2456352.420341424
 42
2458661.601901285
  1

 90
        0
  0
DICTIONARY
  5
2FD
102
{ACAD_REACTORS
330
2FC
102
}
330
2FC
100
AcDbDictionary
281
     1
  0
XRECORD
  5
483
102
{ACAD_REACTORS
330
482
102
}
330
482
100
AcDbXrecord
280
     1
290
     1
  0
SORTENTSTABLE
  5
59E
102
{ACAD_REACTORS
330
59D
102
}
330
59D
100
AcDbSortentsTable
330
6B
331
188
  5
1A4
331
D8
  5
F4
331
341
  5
5B8
331
E9
  5
10A
331
1BB
  5
1D7
331
1AA
  5
1C6
331
199
  5
1B5
331
1EE
  5
20A
331
1DD
  5
1F9
331
1CC
  5
1E8
331
20C
  5
228
331
1FB
  5
217
331
11A
  5
142
331
109
  5
135
331
F8
  5
11D
331
5BC
  5
B6
331
21D
  5
23E
331
13C
  5
177
331
14D
  5
188
331
16E
  5
18A
331
B6
  5
D7
331
23F
  5
33F
331
C7
  5
E8
331
240
  5
340
331
C8
  5
E9
331
178
  5
194
331
331
  5
5A8
331
D9
  5
F5
331
189
  5
1A5
331
342
  5
5B9
331
EA
  5
10B
331
1EF
  5
20B
331
1DE
  5
1FA
331
1CD
  5
1E9
331
1BC
  5
1D8
331
1AB
  5
1C7
331
19A
  5
1B6
331
20D
  5
229
331
1FC
  5
218
331
11B
  5
143
331
10A
  5
136
331
F9
  5
11E
331
21E
  5
23F
331
13D
  5
178
331
22F
  5
252
331
B7
  5
D8
331
5A9
  5
AE
331
16F
  5
18B
331
230
  5
253
331
B8
  5
D9
331
599
  5
342
331
170
  5
18C
331
241
  5
341
331
179
  5
195
331
332
  5
5A9
331
DA
  5
F6
331
18A
  5
1A6
331
343
  5
5BA
331
EB
  5
10C
331
1DF
  5
1FB
331
1CE
  5
1EA
331
1BD
  5
1D9
331
1AC
  5
1C8
331
19B
  5
1B7
331
1FD
  5
219
331
11C
  5
144
331
10B
  5
137
331
FA
  5
11F
331
20E
  5
22F
331
12D
  5
166
331
21F
  5
240
331
13E
  5
179
331
5AA
  5
AF
331
220
  5
241
331
231
  5
331
331
B9
  5
DA
331
17A
  5
196
331
171
  5
18D
331
333
  5
5AA
331
DB
  5
F7
331
18B
  5
1A7
331
344
  5
5BB
331
EC
  5
10D
331
1E0
  5
1FC
331
1CF
  5
1EB
331
1BE
  5
1DA
331
1AD
  5
1C9
331
19C
  5
1B8
331
20F
  5
230
331
1FE
  5
21A
331
11D
  5
145
331
10C
  5
138
331
FB
  5
120
331
13F
  5
17A
331
5AB
  5
B0
331
210
  5
231
331
221
  5
247
331
140
  5
17B
331
232
  5
332
331
BA
  5
DB
331
17B
  5
197
331
172
  5
18E
331
334
  5
5AB
331
DC
  5
F8
331
18C
  5
1A8
331
345
  5
5BC
331
ED
  5
10E
331
1E1
  5
1FD
331
1D0
  5
1EC
331
1BF
  5
1DB
331
1AE
  5
1CA
331
19D
  5
1B9
331
1FF
  5
21B
331
11E
  5
146
331
10D
  5
139
331
FC
  5
121
331
211
  5
232
331
200
  5
21C
331
222
  5
248
331
141
  5
17C
331
233
  5
333
331
BB
  5
DC
331
59C
  5
343
331
173
  5
18F
331
17C
  5
198
331
335
  5
5AC
331
DD
  5
F9
331
1AF
  5
1CB
331
19E
  5
1BA
331
EE
  5
10F
331
1E2
  5
1FE
331
1D1
  5
1ED
331
1C0
  5
1DC
331
5B0
  5
C4
331
11F
  5
147
331
10E
  5
13A
331
FD
  5
122
331
18D
  5
1A9
331
1F0
  5
20C
331
212
  5
233
331
201
  5
21D
331
120
  5
148
331
223
  5
249
331
142
  5
17D
331
234
  5
334
331
BC
  5
DD
331
17D
  5
199
331
174
  5
190
331
336
  5
5AD
331
DE
  5
FA
331
18E
  5
1AA
331
1B0
  5
1CC
331
19F
  5
1BB
331
1E3
  5
1FF
331
1D2
  5
1EE
331
1C1
  5
1DD
331
5B1
  5
C5
331
10F
  5
13B
331
FE
  5
123
331
EF
  5
110
331
1F1
  5
20D
331
110
  5
13C
331
213
  5
234
331
202
  5
21E
331
121
  5
149
331
224
  5
24A
331
143
  5
17E
331
235
  5
335
331
BD
  5
DE
331
175
  5
191
331
17E
  5
19A
331
CE
  5
EC
331
337
  5
5AE
331
DF
  5
FB
331
5AF
  5
C7
331
1B1
  5
1CD
331
1A0
  5
1BC
331
18F
  5
1AB
331
1E4
  5
200
331
1D3
  5
1EF
331
1C2
  5
1DE
331
5B2
  5
C6
331
AE
  5
C8
331
1F2
  5
20E
331
111
  5
13D
331
100
  5
125
331
203
  5
21F
331
122
  5
14A
331
214
  5
235
331
133
  5
16E
331
225
  5
24B
331
144
  5
17F
331
236
  5
336
331
BE
  5
DF
331
59F
  5
250
331
176
  5
192
331
247
  5
344
331
CF
  5
ED
331
17F
  5
19B
331
338
  5
5AF
331
E0
  5
FC
331
1B2
  5
1CE
331
1A1
  5
1BD
331
1E5
  5
201
331
1D4
  5
1F0
331
1C3
  5
1DF
331
5B3
  5
C1
331
AF
  5
CE
331
190
  5
1AC
331
250
  5
5A4
331
1F3
  5
20F
331
112
  5
13E
331
F0
  5
111
331
204
  5
220
331
123
  5
14B
331
215
  5
236
331
134
  5
16F
331
226
  5
24C
331
145
  5
180
331
166
  5
189
331
237
  5
337
331
BF
  5
E0
331
5A0
  5
251
331
177
  5
193
331
248
  5
345
331
D0
  5
EE
331
180
  5
19C
331
339
  5
5B0
331
1B3
  5
1CF
331
1A2
  5
1BE
331
191
  5
1AD
331
1E6
  5
202
331
1D5
  5
1F1
331
1C4
  5
1E0
331
5B4
  5
C2
331
E1
  5
FD
331
251
  5
5A5
331
205
  5
221
331
1F4
  5
210
331
F1
  5
112
331
216
  5
237
331
135
  5
170
331
227
  5
24D
331
146
  5
181
331
238
  5
338
331
C0
  5
E1
331
249
  5
599
331
5A1
  5
EA
331
181
  5
19D
331
33A
  5
5B1
331
E2
  5
FE
331
1B4
  5
1D0
331
1A3
  5
1BF
331
192
  5
1AE
331
1E7
  5
203
331
1D6
  5
1F2
331
1C5
  5
1E1
331
5B5
  5
C3
331
252
  5
5A6
331
1E8
  5
204
331
1F5
  5
211
331
103
  5
127
331
F2
  5
117
331
206
  5
222
331
125
  5
14C
331
217
  5
238
331
136
  5
171
331
147
  5
182
331
228
  5
24E
331
B0
  5
CF
331
239
  5
339
331
C1
  5
E2
331
24A
  5
59C
331
5A2
  5
EB
331
182
  5
19E
331
33B
  5
5B2
331
E3
  5
100
331
1B5
  5
1D1
331
1A4
  5
1C0
331
1D7
  5
1F3
331
1C6
  5
1E2
331
5B6
  5
BD
331
193
  5
1AF
331
253
  5
5A7
331
1E9
  5
205
331
1D8
  5
1F4
331
207
  5
223
331
1F6
  5
212
331
F3
  5
118
331
218
  5
239
331
137
  5
172
331
148
  5
183
331
229
  5
24F
331
B1
  5
D0
331
23A
  5
33A
331
C2
  5
E3
331
24B
  5
59F
331
D3
  5
EF
331
5A3
  5
BE
331
183
  5
19F
331
33C
  5
5B3
331
E4
  5
103
331
1B6
  5
1D2
331
1A5
  5
1C1
331
1C7
  5
1E3
331
5B7
  5
BA
331
194
  5
1B0
331
1EA
  5
206
331
1D9
  5
1F5
331
1C8
  5
1E4
331
5B8
  5
BB
331
1F7
  5
213
331
105
  5
12D
331
F4
  5
119
331
208
  5
224
331
127
  5
14D
331
219
  5
23A
331
138
  5
173
331
149
  5
184
331
23B
  5
33B
331
C3
  5
E4
331
B2
  5
D3
331
24C
  5
5A0
331
D4
  5
F0
331
5A4
  5
BF
331
184
  5
1A0
331
33D
  5
5B4
331
E5
  5
105
331
1B7
  5
1D3
331
1A6
  5
1C2
331
195
  5
1B1
331
1B8
  5
1D4
331
1EB
  5
207
331
1DA
  5
1F6
331
1C9
  5
1E5
331
5B9
  5
BC
331
209
  5
225
331
1F8
  5
214
331
117
  5
13F
331
F5
  5
11A
331
21A
  5
23B
331
139
  5
174
331
14A
  5
185
331
23C
  5
33C
331
C4
  5
E5
331
B3
  5
D4
331
24D
  5
5A1
331
D5
  5
F1
331
5A5
  5
C0
331
185
  5
1A1
331
33E
  5
5B5
331
E6
  5
107
331
1A7
  5
1C3
331
196
  5
1B2
331
1B9
  5
1D5
331
1A8
  5
1C4
331
1EC
  5
208
331
1DB
  5
1F7
331
1CA
  5
1E6
331
20A
  5
226
331
1F9
  5
215
331
118
  5
140
331
107
  5
133
331
F6
  5
11B
331
5BA
  5
B4
331
21B
  5
23C
331
13A
  5
175
331
14B
  5
186
331
23D
  5
33D
331
C5
  5
E6
331
B4
  5
D5
331
24E
  5
5A2
331
D6
  5
F2
331
186
  5
1A2
331
33F
  5
5B6
331
E7
  5
108
331
197
  5
1B3
331
340
  5
5B7
331
E8
  5
109
331
1BA
  5
1D6
331
1A9
  5
1C5
331
198
  5
1B4
331
1ED
  5
209
331
1DC
  5
1F8
331
1CB
  5
1E7
331
20B
  5
227
331
1FA
  5
216
331
119
  5
141
331
108
  5
134
331
F7
  5
11C
331
5BB
  5
B5
331
21C
  5
23D
331
13B
  5
176
331
14C
  5
187
331
23E
  5
33E
331
C6
  5
E7
331
B5
  5
D6
331
24F
  5
5A3
331
D7
  5
F3
331
187
  5
1A3
  0
XRECORD
  5
5C2
102
{ACAD_REACTORS
330
5C0
102
}
330
5C0
100
AcDbXrecord
280
     1
 70
     2
  0
XRECORD
  5
5C1
102
{ACAD_REACTORS
330
5C0
102
}
330
5C0
100
AcDbXrecord
280
     1
 40
1.25
  0
XRECORD
  5
5C3
102
{ACAD_REACTORS
330
5C0
102
}
330
5C0
100
AcDbXrecord
280
     1
 40
1.570796326794896
  0
XRECORD
  5
5C4
102
{ACAD_REACTORS
330
5C0
102
}
330
5C0
100
AcDbXrecord
280
     1
340
2F9
  0
LAYOUT
  5
6E
102
{ACAD_XDICTIONARY
360
5F8
102
}
102
{ACAD_REACTORS
330
61
102
}
330
61
100
AcDbPlotSettings
  1

  2
FX DP 205
  4

  6

 40
0.0
 41
0.0
 42
0.0
 43
0.0
 44
0.0
 45
0.0
 46
0.0
 47
0.0
 48
0.0
 49
0.0
140
0.0
141
0.0
142
1.0
143
1.0
 70
  1712
 72
     0
 73
     0
 74
     0
  7

 75
     0
147
1.0
148
0.0
149
0.0
100
AcDbLayout
  1
Model
 70
     1
 71
     0
 10
0.0
 20
0.0
 11
12.0
 21
9.0
 12
0.0
 22
0.0
 32
0.0
 14
0.0
 24
0.0
 34
0.0
 15
0.0
 25
0.0
 35
0.0
146
0.0
 13
0.0
 23
0.0
 33
0.0
 16
1.0
 26
0.0
 36
0.0
 17
0.0
 27
1.0
 37
0.0
 76
     0
330
6B
331
8B
  0
LAYOUT
  5
6A
102
{ACAD_XDICTIONARY
360
5F6
102
}
102
{ACAD_REACTORS
330
61
102
}
330
61
100
AcDbPlotSettings
  1

  2
FX DP 205
  4

  6

 40
0.0
 41
0.0
 42
0.0
 43
0.0
 44
0.0
 45
0.0
 46
0.0
 47
0.0
 48
0.0
 49
0.0
140
0.0
141
0.0
142
1.0
143
1.0
 70
   688
 72
     0
 73
     0
 74
     5
  7

 75
    16
147
1.0
148
0.0
149
0.0
100
AcDbLayout
  1
レイアウト1
 70
     1
 71
     1
 10
0.0
 20
0.0
 11
12.0
 21
9.0
 12
0.0
 22
0.0
 32
0.0
 14
1.000000000000000E+20
 24
1.000000000000000E+20
 34
1.000000000000000E+20
 15
-1.000000000000000E+20
 25
-1.000000000000000E+20
 35
-1.000000000000000E+20
146
0.0
 13
0.0
 23
0.0
 33
0.0
 16
1.0
 26
0.0
 36
0.0
 17
0.0
 27
1.0
 37
0.0
 76
     0
330
67
  0
MATERIAL
  5
19
102
{ACAD_XDICTIONARY
360
1A
102
}
102
{ACAD_REACTORS
330
10
102
}
330
10
100
AcDbMaterial
  1
ByBlock
 72
     0
 43
0.0208333333333333
 43
0.0
 43
0.0
 43
0.0
 43
0.0
 43
0.0208333333333333
 43
0.0
 43
0.0
 43
0.0
 43
0.0
 43
1.0
 43
0.0
 43
0.0
 43
0.0
 43
0.0
 43
1.0
 77
     0
 47
0.0208333333333333
 47
0.0
 47
0.0
 47
0.0
 47
0.0
 47
0.0208333333333333
 47
0.0
 47
0.0
 47
0.0
 47
0.0
 47
1.0
 47
0.0
 47
0.0
 47
0.0
 47
0.0
 47
1.0
171
     0
 49
0.0208333333333333
 49
0.0
 49
0.0
 49
0.0
 49
0.0
 49
0.0208333333333333
 49
0.0
 49
0.0
 49
0.0
 49
0.0
 49
1.0
 49
0.0
 49
0.0
 49
0.0
 49
0.0
 49
1.0
175
     0
142
0.0208333333333333
142
0.0
142
0.0
142
0.0
142
0.0
142
0.0208333333333333
142
0.0
142
0.0
142
0.0
142
0.0
142
1.0
142
0.0
142
0.0
142
0.0
142
0.0
142
1.0
179
     0
144
0.0208333333333333
144
0.0
144
0.0
144
0.0
144
0.0
144
0.0208333333333333
144
0.0
144
0.0
144
0.0
144
0.0
144
1.0
144
0.0
144
0.0
144
0.0
144
0.0
144
1.0
147
0.0208333333333333
147
0.0
147
0.0
147
0.0
147
0.0
147
0.0208333333333333
147
0.0
147
0.0
147
0.0
147
0.0
147
1.0
147
0.0
147
0.0
147
0.0
147
0.0
147
1.0
  0
MATERIAL
  5
11
102
{ACAD_XDICTIONARY
360
12
102
}
102
{ACAD_REACTORS
330
10
102
}
330
10
100
AcDbMaterial
  1
ByLayer
 72
     0
 43
0.0208333333333333
 43
0.0
 43
0.0
 43
0.0
 43
0.0
 43
0.0208333333333333
 43
0.0
 43
0.0
 43
0.0
 43
0.0
 43
1.0
 43
0.0
 43
0.0
 43
0.0
 43
0.0
 43
1.0
 77
     0
 47
0.0208333333333333
 47
0.0
 47
0.0
 47
0.0
 47
0.0
 47
0.0208333333333333
 47
0.0
 47
0.0
 47
0.0
 47
0.0
 47
1.0
 47
0.0
 47
0.0
 47
0.0
 47
0.0
 47
1.0
171
     0
 49
0.0208333333333333
 49
0.0
 49
0.0
 49
0.0
 49
0.0
 49
0.0208333333333333
 49
0.0
 49
0.0
 49
0.0
 49
0.0
 49
1.0
 49
0.0
 49
0.0
 49
0.0
 49
0.0
 49
1.0
175
     0
142
0.0208333333333333
142
0.0
142
0.0
142
0.0
142
0.0
142
0.0208333333333333
142
0.0
142
0.0
142
0.0
142
0.0
142
1.0
142
0.0
142
0.0
142
0.0
142
0.0
142
1.0
179
     0
144
0.0208333333333333
144
0.0
144
0.0
144
0.0
144
0.0
144
0.0208333333333333
144
0.0
144
0.0
144
0.0
144
0.0
144
1.0
144
0.0
144
0.0
144
0.0
144
0.0
144
1.0
147
0.0208333333333333
147
0.0
147
0.0
147
0.0
147
0.0
147
0.0208333333333333
147
0.0
147
0.0
147
0.0
147
0.0
147
1.0
147
0.0
147
0.0
147
0.0
147
0.0
147
1.0
  0
MATERIAL
  5
21
102
{ACAD_XDICTIONARY
360
22
102
}
102
{ACAD_REACTORS
330
10
102
}
330
10
100
AcDbMaterial
  1
Global
 72
     0
 43
0.0208333333333333
 43
0.0
 43
0.0
 43
0.0
 43
0.0
 43
0.0208333333333333
 43
0.0
 43
0.0
 43
0.0
 43
0.0
 43
1.0
 43
0.0
 43
0.0
 43
0.0
 43
0.0
 43
1.0
 77
     0
 47
0.0208333333333333
 47
0.0
 47
0.0
 47
0.0
 47
0.0
 47
0.0208333333333333
 47
0.0
 47
0.0
 47
0.0
 47
0.0
 47
1.0
 47
0.0
 47
0.0
 47
0.0
 47
0.0
 47
1.0
171
     0
 49
0.0208333333333333
 49
0.0
 49
0.0
 49
0.0
 49
0.0
 49
0.0208333333333333
 49
0.0
 49
0.0
 49
0.0
 49
0.0
 49
1.0
 49
0.0
 49
0.0
 49
0.0
 49
0.0
 49
1.0
175
     0
142
0.0208333333333333
142
0.0
142
0.0
142
0.0
142
0.0
142
0.0208333333333333
142
0.0
142
0.0
142
0.0
142
0.0
142
1.0
142
0.0
142
0.0
142
0.0
142
0.0
142
1.0
179
     0
144
0.0208333333333333
144
0.0
144
0.0
144
0.0
144
0.0
144
0.0208333333333333
144
0.0
144
0.0
144
0.0
144
0.0
144
1.0
144
0.0
144
0.0
144
0.0
144
0.0
144
1.0
147
0.0208333333333333
147
0.0
147
0.0
147
0.0
147
0.0
147
0.0208333333333333
147
0.0
147
0.0
147
0.0
147
0.0
147
1.0
147
0.0
147
0.0
147
0.0
147
0.0
147
1.0
  0
MLEADERSTYLE
  5
66
102
{ACAD_REACTORS
330
65
102
}
330
65
100
AcDbMLeaderStyle
170
     2
171
     1
172
     0
 90
        2
 40
0.0
 41
0.0
173
     1
 91
-1056964608
340
5A
 92
       -2
290
     1
 42
0.09
291
     1
 43
0.36
  3
Standard
 44
0.18
300

342
55
174
     1
178
     6
175
     1
176
     0
 93
-1056964608
 45
0.18
292
     0
297
     0
 46
0.18
 94
-1056964608
 47
1.0
 49
1.0
140
1.0
293
     1
141
0.0
294
     1
177
     0
142
1.0
295
     0
296
     0
143
0.125
1001
ACAD_MLEADERVER
1070
     2
  0
MLINESTYLE
  5
5F
102
{ACAD_REACTORS
330
5E
102
}
330
5E
100
AcDbMlineStyle
  2
STANDARD
 70
     0
  3

 62
   256
 51
90.0
 52
90.0
 71
     2
 49
0.5
 62
   256
  6
BYLAYER
 49
-0.5
 62
   256
  6
BYLAYER
  0
ACDBPLACEHOLDER
  5
F
102
{ACAD_REACTORS
330
E
102
}
330
E
  0
SCALE
  5
43
102
{ACAD_REACTORS
330
42
102
}
330
42
100
AcDbScale
 70
     0
300
1:1
140
1.0
141
1.0
290
     1
  0
SCALE
  5
44
102
{ACAD_REACTORS
330
42
102
}
330
42
100
AcDbScale
 70
     0
300
1/128" = 1'-0"
140
0.0078125
141
12.0
290
     0
  0
SCALE
  5
45
102
{ACAD_REACTORS
330
42
102
}
330
42
100
AcDbScale
 70
     0
300
1/64" = 1'-0"
140
0.015625
141
12.0
290
     0
  0
SCALE
  5
46
102
{ACAD_REACTORS
330
42
102
}
330
42
100
AcDbScale
 70
     0
300
1/32" = 1'-0"
140
0.03125
141
12.0
290
     0
  0
SCALE
  5
47
102
{ACAD_REACTORS
330
42
102
}
330
42
100
AcDbScale
 70
     0
300
1/16" = 1'-0"
140
0.0625
141
12.0
290
     0
  0
SCALE
  5
48
102
{ACAD_REACTORS
330
42
102
}
330
42
100
AcDbScale
 70
     0
300
3/32" = 1'-0"
140
0.09375
141
12.0
290
     0
  0
SCALE
  5
49
102
{ACAD_REACTORS
330
42
102
}
330
42
100
AcDbScale
 70
     0
300
1/8" = 1'-0"
140
0.125
141
12.0
290
     0
  0
SCALE
  5
4A
102
{ACAD_REACTORS
330
42
102
}
330
42
100
AcDbScale
 70
     0
300
3/16" = 1'-0"
140
0.1875
141
12.0
290
     0
  0
SCALE
  5
4B
102
{ACAD_REACTORS
330
42
102
}
330
42
100
AcDbScale
 70
     0
300
1/4" = 1'-0"
140
0.25
141
12.0
290
     0
  0
SCALE
  5
4C
102
{ACAD_REACTORS
330
42
102
}
330
42
100
AcDbScale
 70
     0
300
3/8" = 1'-0"
140
0.375
141
12.0
290
     0
  0
SCALE
  5
4D
102
{ACAD_REACTORS
330
42
102
}
330
42
100
AcDbScale
 70
     0
300
1/2" = 1'-0"
140
0.5
141
12.0
290
     0
  0
SCALE
  5
4E
102
{ACAD_REACTORS
330
42
102
}
330
42
100
AcDbScale
 70
     0
300
3/4" = 1'-0"
140
0.75
141
12.0
290
     0
  0
SCALE
  5
4F
102
{ACAD_REACTORS
330
42
102
}
330
42
100
AcDbScale
 70
     0
300
1" = 1'-0"
140
1.0
141
12.0
290
     0
  0
SCALE
  5
50
102
{ACAD_REACTORS
330
42
102
}
330
42
100
AcDbScale
 70
     0
300
1-1/2" = 1'-0"
140
1.5
141
12.0
290
     0
  0
SCALE
  5
51
102
{ACAD_REACTORS
330
42
102
}
330
42
100
AcDbScale
 70
     0
300
3" = 1'-0"
140
3.0
141
12.0
290
     0
  0
SCALE
  5
52
102
{ACAD_REACTORS
330
42
102
}
330
42
100
AcDbScale
 70
     0
300
6" = 1'-0"
140
6.0
141
12.0
290
     0
  0
SCALE
  5
53
102
{ACAD_REACTORS
330
42
102
}
330
42
100
AcDbScale
 70
     0
300
1'-0" = 1'-0"
140
12.0
141
12.0
290
     0
  0
TABLESTYLE
  5
64
102
{ACAD_XDICTIONARY
360
48C
102
}
102
{ACAD_REACTORS
330
63
102
}
330
63
100
AcDbTableStyle
  3
Standard
 70
     0
 71
     0
 40
0.06
 41
0.06
280
     0
281
     0
  7
STANDARD
140
0.18
170
     2
 62
     0
 63
     7
283
     0
274
    -2
284
     1
 64
     0
275
    -2
285
     1
 65
     0
276
    -2
286
     1
 66
     0
277
    -2
287
     1
 67
     0
278
    -2
288
     1
 68
     0
279
    -2
289
     1
 69
     0
  7
STANDARD
140
0.25
170
     5
 62
     0
 63
     7
283
     0
274
    -2
284
     1
 64
     0
275
    -2
285
     1
 65
     0
276
    -2
286
     1
 66
     0
277
    -2
287
     1
 67
     0
278
    -2
288
     1
 68
     0
279
    -2
289
     1
 69
     0
  7
STANDARD
140
0.18
170
     5
 62
     0
 63
     7
283
     0
274
    -2
284
     1
 64
     0
275
    -2
285
     1
 65
     0
276
    -2
286
     1
 66
     0
277
    -2
287
     1
 67
     0
278
    -2
288
     1
 68
     0
279
    -2
289
     1
 69
     0
  0
VISUALSTYLE
  5
2F
102
{ACAD_XDICTIONARY
360
5CF
102
}
102
{ACAD_REACTORS
330
29
102
}
330
29
100
AcDbVisualStyle
  2

 70
     4
 71
     0
 72
     2
 73
     0
 90
        0
 40
-0.6
 41
-30.0
 62
     5
 63
     7
 74
     1
 91
        4
 64
     7
 65
   257
 75
     1
175
     1
 42
1.0
 92
        0
 66
   257
 43
1.0
 76
     1
 77
     6
 78
     2
 67
     7
 79
     5
170
     0
171
     0
290
     0
174
     0
 93
        1
 44
0.0
173
     0
291
     0
 45
0.0
1001
ACAD
1000
AcDbSavedByObjectVersion
1070
     0
  0
VISUALSTYLE
  5
4D5
102
{ACAD_XDICTIONARY
360
5FC
102
}
102
{ACAD_REACTORS
330
29
102
}
330
29
100
AcDbVisualStyle
  2

 70
     6
 71
     1
 72
     2
 73
     2
 90
        0
 40
-0.6
 41
-30.0
 62
     5
 63
     7
 74
     2
 91
        2
 64
     7
 65
   257
 75
     2
175
     1
 42
40.0
 92
        0
 66
   257
 43
1.0
 76
     1
 77
     6
 78
     2
 67
     7
 79
     3
170
     0
171
     0
290
     0
174
     0
 93
        1
 44
0.0
173
     0
291
     0
 45
0.0
1001
ACAD
1000
AcDbSavedByObjectVersion
1070
     0
  0
VISUALSTYLE
  5
2F9
102
{ACAD_XDICTIONARY
360
5FA
102
}
102
{ACAD_REACTORS
330
29
102
}
330
29
100
AcDbVisualStyle
  2

 70
     5
 71
     0
 72
     2
 73
     1
 90
        0
 40
-0.6
 41
-30.0
 62
     5
 63
     7
 74
     1
 91
        4
 64
     7
 65
   257
 75
     1
175
     1
 42
1.0
 92
        0
 66
   257
 43
1.0
 76
     1
 77
     6
 78
     2
 67
     7
 79
     5
170
     0
171
     0
290
     0
174
     0
 93
        1
 44
0.0
173
     0
291
     0
 45
0.0
1001
ACAD
1000
AcDbSavedByObjectVersion
1070
     0
  0
VISUALSTYLE
  5
2E
102
{ACAD_XDICTIONARY
360
5CD
102
}
102
{ACAD_REACTORS
330
29
102
}
330
29
100
AcDbVisualStyle
  2

 70
     7
 71
     1
 72
     0
 73
     1
 90
        0
 40
-0.6
 41
-30.0
 62
     5
 63
     7
 74
     0
 91
        4
 64
     7
 65
   257
 75
     1
175
     1
 42
1.0
 92
        8
 66
     7
 43
1.0
 76
     1
 77
     6
 78
     2
 67
     7
 79
     5
170
     0
171
     0
290
     0
174
     0
 93
        1
 44
0.0
173
     0
291
     1
 45
0.0
1001
ACAD
1000
AcDbSavedByObjectVersion
1070
     0
  0
VISUALSTYLE
  5
35
102
{ACAD_XDICTIONARY
360
5DB
102
}
102
{ACAD_REACTORS
330
29
102
}
330
29
100
AcDbVisualStyle
  2

 70
    12
 71
     2
 72
     2
 73
     0
 90
        0
 40
-0.6
 41
-30.0
 62
     5
 63
     7
 74
     1
 91
        4
 64
     7
 65
   257
 75
     1
175
     1
 42
1.0
 92
        8
 66
     7
 43
1.0
 76
     1
 77
     6
 78
     2
 67
     7
 79
     5
170
     0
171
     0
290
     0
174
     0
 93
        1
 44
50.0
173
     0
291
     1
 45
0.0
1001
ACAD
1000
AcDbSavedByObjectVersion
1070
     0
  0
VISUALSTYLE
  5
39
102
{ACAD_XDICTIONARY
360
5E3
102
}
102
{ACAD_REACTORS
330
29
102
}
330
29
100
AcDbVisualStyle
  2

 70
    16
 71
     2
 72
     2
 73
     3
 90
        0
 40
-0.6
 41
-30.0
 62
     5
 63
     8
 74
     1
 91
        4
 64
     7
 65
   257
 75
     1
175
     1
 42
1.0
 92
        8
 66
     8
 43
1.0
 76
     1
 77
     6
 78
     2
 67
     7
 79
     5
170
     0
171
     0
290
     0
174
     0
 93
        1
 44
0.0
173
     0
291
     1
 45
0.0
1001
ACAD
1000
AcDbSavedByObjectVersion
1070
     0
  0
VISUALSTYLE
  5
32
102
{ACAD_XDICTIONARY
360
5D5
102
}
102
{ACAD_REACTORS
330
29
102
}
330
29
100
AcDbVisualStyle
  2

 70
     9
 71
     3
 72
     2
 73
     0
 90
        0
 40
-0.6
 41
-30.0
 62
     5
 63
     7
 74
     2
 91
        2
 64
     7
 65
   257
 75
     1
175
     1
 42
179.0
 92
        8
 66
     7
 43
1.0
 76
     1
 77
     6
 78
     2
 67
     7
 79
     3
170
     0
171
     0
290
     0
174
     0
 93
        1
 44
0.0
173
     0
291
     0
 45
0.0
1001
ACAD
1000
AcDbSavedByObjectVersion
1070
     0
  0
VISUALSTYLE
  5
34
102
{ACAD_XDICTIONARY
360
5D9
102
}
102
{ACAD_REACTORS
330
29
102
}
330
29
100
AcDbVisualStyle
  2

 70
    11
 71
     2
 72
     2
 73
     0
 90
        0
 40
-0.6
 41
-30.0
 62
     5
 63
     7
 74
     1
 91
        4
 64
     7
 65
   257
 75
     1
175
     1
 42
1.0
 92
        8
 66
     7
 43
1.0
 76
     1
 77
     6
 78
     2
 67
     7
 79
     5
170
     0
171
     0
290
     0
174
     0
 93
        1
 44
-50.0
173
     0
291
     1
 45
0.0
1001
ACAD
1000
AcDbSavedByObjectVersion
1070
     0
  0
VISUALSTYLE
  5
41
102
{ACAD_XDICTIONARY
360
5F3
102
}
102
{ACAD_REACTORS
330
29
102
}
330
29
100
AcDbVisualStyle
  2

 70
    22
 71
     2
 72
     2
 73
     0
 90
        0
 40
-0.6
 41
-30.0
 62
     5
 63
     7
 74
     1
 91
        4
 64
     7
 65
   257
 75
     1
175
     1
 42
1.0
 92
        8
 66
     7
 43
1.0
 76
     1
 77
     6
 78
     2
 67
     7
 79
     5
170
     0
171
     0
290
     0
174
     0
 93
        1
 44
0.0
173
     0
291
     1
 45
0.0
1001
ACAD
1000
AcDbSavedByObjectVersion
1070
     0
  0
VISUALSTYLE
  5
38
102
{ACAD_XDICTIONARY
360
5E1
102
}
102
{ACAD_REACTORS
330
29
102
}
330
29
100
AcDbVisualStyle
  2

 70
    15
 71
     2
 72
     2
 73
     0
 90
        0
 40
-0.6
 41
-30.0
 62
     5
 63
     7
 74
     1
 91
        4
 64
     7
 65
   257
 75
     1
175
     1
 42
1.0
 92
        8
 66
     7
 43
1.0
 76
     1
 77
     6
 78
     2
 67
     7
 79
     5
170
     0
171
     0
290
     0
174
     0
 93
        1
 44
0.0
173
     0
291
     1
 45
0.0
1001
ACAD
1000
AcDbSavedByObjectVersion
1070
     0
  0
VISUALSTYLE
  5
2A
102
{ACAD_XDICTIONARY
360
5C5
102
}
102
{ACAD_REACTORS
330
29
102
}
330
29
100
AcDbVisualStyle
  2

 70
     0
 71
     2
 72
     1
 73
     1
 90
        2
 40
-0.6
 41
30.0
 62
     5
 63
     7
 74
     0
 91
        0
 64
     7
 65
   257
 75
     1
175
     1
 42
1.0
 92
        8
 66
     7
 43
1.0
 76
     1
 77
     6
 78
     2
 67
     7
 79
     5
170
     0
171
     0
290
     0
174
     0
 93
       13
 44
0.0
173
     0
291
     1
 45
0.0
1001
ACAD
1000
AcDbSavedByObjectVersion
1070
     0
  0
VISUALSTYLE
  5
2B
102
{ACAD_XDICTIONARY
360
5C7
102
}
102
{ACAD_REACTORS
330
29
102
}
330
29
100
AcDbVisualStyle
  2

 70
     1
 71
     2
 72
     1
 73
     1
 90
        2
 40
-0.6
 41
30.0
 62
     5
 63
     7
 74
     1
 91
        0
 64
     7
 65
   257
 75
     1
175
     1
 42
1.0
 92
        0
 66
   257
 43
1.0
 76
     1
 77
     6
 78
     2
 67
     7
 79
     5
170
     0
171
     0
290
     0
174
     0
 93
       13
 44
0.0
173
     0
291
     1
 45
0.0
1001
ACAD
1000
AcDbSavedByObjectVersion
1070
     0
  0
VISUALSTYLE
  5
2C
102
{ACAD_XDICTIONARY
360
5C9
102
}
102
{ACAD_REACTORS
330
29
102
}
330
29
100
AcDbVisualStyle
  2

 70
     2
 71
     2
 72
     2
 73
     1
 90
        2
 40
-0.6
 41
30.0
 62
     5
 63
     7
 74
     0
 91
        0
 64
     7
 65
   257
 75
     1
175
     1
 42
1.0
 92
        0
 66
     7
 43
1.0
 76
     1
 77
     6
 78
     2
 67
     7
 79
     5
170
     0
171
     0
290
     0
174
     0
 93
       13
 44
0.0
173
     0
291
     1
 45
0.0
1001
ACAD
1000
AcDbSavedByObjectVersion
1070
     0
  0
VISUALSTYLE
  5
2D
102
{ACAD_XDICTIONARY
360
5CB
102
}
102
{ACAD_REACTORS
330
29
102
}
330
29
100
AcDbVisualStyle
  2

 70
     3
 71
     2
 72
     2
 73
     1
 90
        2
 40
-0.6
 41
30.0
 62
     5
 63
     7
 74
     1
 91
        0
 64
     7
 65
   257
 75
     1
175
     1
 42
1.0
 92
        0
 66
   257
 43
1.0
 76
     1
 77
     6
 78
     2
 67
     7
 79
     5
170
     0
171
     0
290
     0
174
     0
 93
       13
 44
0.0
173
     0
291
     1
 45
0.0
1001
ACAD
1000
AcDbSavedByObjectVersion
1070
     0
  0
VISUALSTYLE
  5
31
102
{ACAD_XDICTIONARY
360
5D3
102
}
102
{ACAD_REACTORS
330
29
102
}
330
29
100
AcDbVisualStyle
  2

 70
     6
 71
     1
 72
     2
 73
     2
 90
        0
 40
-0.6
 41
-30.0
 62
     5
 63
     7
 74
     2
 91
        2
 64
     7
 65
   257
 75
     2
175
     1
 42
40.0
 92
        0
 66
   257
 43
1.0
 76
     1
 77
     6
 78
     2
 67
     7
 79
     3
170
     0
171
     0
290
     0
174
     0
 93
        1
 44
0.0
173
     0
291
     0
 45
0.0
1001
ACAD
1000
AcDbSavedByObjectVersion
1070
     0
  0
VISUALSTYLE
  5
3F
102
{ACAD_XDICTIONARY
360
5EF
102
}
102
{ACAD_REACTORS
330
29
102
}
330
29
100
AcDbVisualStyle
  2

 70
    20
 71
     2
 72
     2
 73
     0
 90
        0
 40
-0.6
 41
-30.0
 62
     5
 63
     7
 74
     1
 91
        4
 64
     7
 65
   257
 75
     1
175
     1
 42
1.0
 92
       10
 66
     7
 43
1.0
 76
     1
 77
     6
 78
     2
 67
     7
 79
     5
170
     0
171
     0
290
     0
174
     0
 93
        1
 44
0.0
173
     0
291
     1
 45
0.0
1001
ACAD
1000
AcDbSavedByObjectVersion
1070
     0
  0
VISUALSTYLE
  5
37
102
{ACAD_XDICTIONARY
360
5DF
102
}
102
{ACAD_REACTORS
330
29
102
}
330
29
100
AcDbVisualStyle
  2

 70
    14
 71
     2
 72
     2
 73
     0
 90
        0
 40
-0.6
 41
-30.0
 62
     5
 63
     7
 74
     1
 91
        4
 64
     7
 65
   257
 75
     7
175
     7
 42
1.0
 92
        8
 66
     7
 43
1.0
 76
     1
 77
     6
 78
     2
 67
     7
 79
     5
170
     0
171
     0
290
     0
174
     0
 93
        1
 44
0.0
173
     0
291
     1
 45
0.0
1001
ACAD
1000
AcDbSavedByObjectVersion
1070
     0
  0
VISUALSTYLE
  5
40
102
{ACAD_XDICTIONARY
360
5F1
102
}
102
{ACAD_REACTORS
330
29
102
}
330
29
100
AcDbVisualStyle
  2

 70
    21
 71
     2
 72
     2
 73
     0
 90
        0
 40
-0.6
 41
-30.0
 62
     5
 63
     7
 74
     1
 91
        4
 64
     7
 65
   257
 75
     1
175
     1
 42
1.0
 92
        9
 66
     7
 43
1.0
 76
     1
 77
     6
 78
     2
 67
     7
 79
     5
170
     0
171
     0
290
     0
174
     0
 93
        1
 44
0.0
173
     0
291
     1
 45
0.0
1001
ACAD
1000
AcDbSavedByObjectVersion
1070
     0
  0
VISUALSTYLE
  5
33
102
{ACAD_XDICTIONARY
360
5D7
102
}
102
{ACAD_REACTORS
330
29
102
}
330
29
100
AcDbVisualStyle
  2

 70
     8
 71
     2
 72
     3
 73
     0
 90
        2
 40
-0.6
 41
30.0
 62
     5
 63
     7
 74
     0
 91
        0
 64
     7
 65
   257
 75
     1
175
     1
 42
1.0
 92
        8
 66
   257
 43
1.0
 76
     1
 77
     6
 78
     2
 67
     7
 79
     3
170
     0
171
     0
290
     0
174
     0
 93
       13
 44
0.0
173
     0
291
     0
 45
0.0
1001
ACAD
1000
AcDbSavedByObjectVersion
1070
     0
  0
VISUALSTYLE
  5
3E
102
{ACAD_XDICTIONARY
360
5ED
102
}
102
{ACAD_REACTORS
330
29
102
}
330
29
100
AcDbVisualStyle
  2

 70
    27
 71
     2
 72
     2
 73
     1
 90
        2
 40
-0.6
 41
30.0
 62
     5
 63
     7
 74
     0
 91
        4
 64
     7
 65
   257
 75
     1
175
     1
 42
1.0
 92
        8
 66
   257
 43
1.0
 76
     1
 77
     6
 78
     2
 67
     8
 79
     3
170
     0
171
     0
290
     0
174
     0
 93
        5
 44
0.0
173
     0
291
     0
 45
0.0
1001
ACAD
1000
AcDbSavedByObjectVersion
1070
     0
  0
VISUALSTYLE
  5
3D
102
{ACAD_XDICTIONARY
360
5EB
102
}
102
{ACAD_REACTORS
330
29
102
}
330
29
100
AcDbVisualStyle
  2

 70
    26
 71
     2
 72
     2
 73
     1
 90
        2
 40
-0.6
 41
30.0
 62
     5
 63
     7
 74
     1
 91
       10
 64
     7
 65
   257
 75
     2
175
     1
 42
1.0
 92
        8
 66
   257
 43
1.0
 76
     1
 77
     6
 78
     2
 67
     7
 79
     3
170
     0
171
     0
290
     0
174
     0
 93
        5
 44
0.0
173
     0
291
     0
 45
0.0
1001
ACAD
1000
AcDbSavedByObjectVersion
1070
     0
  0
VISUALSTYLE
  5
3A
102
{ACAD_XDICTIONARY
360
5E5
102
}
102
{ACAD_REACTORS
330
29
102
}
330
29
100
AcDbVisualStyle
  2

 70
    23
 71
     2
 72
     2
 73
     3
 90
        0
 40
-0.6
 41
-30.0
 62
     5
 63
     7
 74
     2
 91
        2
 64
     7
 65
     7
 75
     1
175
     1
 42
40.0
 92
        8
 66
     7
 43
1.0
 76
     1
 77
     6
 78
     2
 67
     7
 79
     3
170
     0
171
     0
290
     0
174
     0
 93
        1
 44
0.0
173
     0
291
     0
 45
0.0
1001
ACAD
1000
AcDbSavedByObjectVersion
1070
     0
  0
VISUALSTYLE
  5
3B
102
{ACAD_XDICTIONARY
360
5E7
102
}
102
{ACAD_REACTORS
330
29
102
}
330
29
100
AcDbVisualStyle
  2

 70
    24
 71
     1
 72
     2
 73
     2
 90
        0
 40
-0.6
 41
-30.0
 62
     5
 63
     7
 74
     2
 91
        2
 64
     7
 65
     7
 75
     1
175
     1
 42
40.0
 92
       11
 66
     7
 43
1.0
 76
     1
 77
     6
 78
     2
 67
     7
 79
     6
170
     0
171
     0
290
     0
174
     0
 93
        1
 44
0.0
173
     0
291
     0
 45
0.0
1001
ACAD
1000
AcDbSavedByObjectVersion
1070
     0
  0
VISUALSTYLE
  5
36
102
{ACAD_XDICTIONARY
360
5DD
102
}
102
{ACAD_REACTORS
330
29
102
}
330
29
100
AcDbVisualStyle
  2

 70
    13
 71
     2
 72
     2
 73
     0
 90
        0
 40
-0.6
 41
-30.0
 62
     5
 63
     7
 74
     1
 91
        4
 64
     7
 65
   257
 75
     1
175
     1
 42
1.0
 92
       12
 66
     7
 43
1.0
 76
     1
 77
     6
 78
     2
 67
     7
 79
     5
170
     0
171
     0
290
     0
174
     0
 93
        1
 44
0.0
173
     0
291
     1
 45
0.0
1001
ACAD
1000
AcDbSavedByObjectVersion
1070
     0
  0
VISUALSTYLE
  5
30
102
{ACAD_XDICTIONARY
360
5D1
102
}
102
{ACAD_REACTORS
330
29
102
}
330
29
100
AcDbVisualStyle
  2

 70
     5
 71
     0
 72
     2
 73
     0
 90
        0
 40
-0.6
 41
-30.0
 62
     5
 63
     7
 74
     1
 91
        4
 64
     7
 65
   257
 75
     1
175
     1
 42
1.0
 92
        0
 66
   257
 43
1.0
 76
     1
 77
     6
 78
     2
 67
     7
 79
     3
170
     0
171
     0
290
     0
174
     0
 93
        1
 44
0.0
173
     0
291
     0
 45
0.0
1001
ACAD
1000
AcDbSavedByObjectVersion
1070
     0
  0
VISUALSTYLE
  5
3C
102
{ACAD_XDICTIONARY
360
5E9
102
}
102
{ACAD_REACTORS
330
29
102
}
330
29
100
AcDbVisualStyle
  2

 70
    25
 71
     2
 72
     2
 73
     1
 90
        1
 40
0.5
 41
-30.0
 62
     5
 63
     7
 74
     1
 91
        0
 64
     7
 65
   257
 75
     1
175
     1
 42
1.0
 92
        8
 66
     7
 43
1.0
 76
     1
 77
     6
 78
     2
 67
     7
 79
     3
170
     0
171
     0
290
     0
174
     0
 93
       13
 44
0.0
173
     0
291
     0
 45
0.0
1001
ACAD
1000
AcDbSavedByObjectVersion
1070
     0
  0
DICTIONARYVAR
  5
487
102
{ACAD_REACTORS
330
484
102
}
330
484
100
DictionaryVariables
280
     0
  1
1:1
  0
DICTIONARYVAR
  5
486
102
{ACAD_REACTORS
330
484
102
}
330
484
100
DictionaryVariables
280
     0
  1
STANDARD
  0
DICTIONARYVAR
  5
485
102
{ACAD_REACTORS
330
484
102
}
330
484
100
DictionaryVariables
280
     0
  1
STANDARD
  0
DICTIONARYVAR
  5
48A
102
{ACAD_REACTORS
330
484
102
}
330
484
100
DictionaryVariables
280
     0
  1
1
  0
DICTIONARYVAR
  5
489
102
{ACAD_REACTORS
330
484
102
}
330
484
100
DictionaryVariables
280
     0
  1
0
  0
DICTIONARYVAR
  5
555
102
{ACAD_REACTORS
330
484
102
}
330
484
100
DictionaryVariables
280
     0
  1
1.570796
  0
DICTIONARYVAR
  5
556
102
{ACAD_REACTORS
330
484
102
}
330
484
100
DictionaryVariables
280
     0
  1
1.570796
  0
DICTIONARYVAR
  5
488
102
{ACAD_REACTORS
330
484
102
}
330
484
100
DictionaryVariables
280
     0
  1
127
  0
DICTIONARYVAR
  5
557
102
{ACAD_REACTORS
330
484
102
}
330
484
100
DictionaryVariables
280
     0
  1
2
  0
DICTIONARY
  5
5F8
330
6E
100
AcDbDictionary
280
     1
281
     1
  3
ACAD_XREC_ROUNDTRIP
360
5F9
  0
DICTIONARY
  5
5F6
330
6A
100
AcDbDictionary
280
     1
281
     1
  3
ACAD_XREC_ROUNDTRIP
360
5F7
  0
DICTIONARY
  5
1A
330
19
100
AcDbDictionary
280
     1
281
     1
  3
ACAD_XREC_ROUNDTRIP
360
495
  3
BUMPTILE
360
1C
  3
DIFFUSETILE
360
1B
  3
OPACITYTILE
360
1F
  3
REFLECTIONTILE
360
1E
  3
REFRACTIONTILE
360
20
  3
SPECULARTILE
360
1D
  0
DICTIONARY
  5
12
330
11
100
AcDbDictionary
280
     1
281
     1
  3
ACAD_XREC_ROUNDTRIP
360
494
  3
BUMPTILE
360
14
  3
DIFFUSETILE
360
13
  3
OPACITYTILE
360
17
  3
REFLECTIONTILE
360
16
  3
REFRACTIONTILE
360
18
  3
SPECULARTILE
360
15
  0
DICTIONARY
  5
22
330
21
100
AcDbDictionary
280
     1
281
     1
  3
ACAD_XREC_ROUNDTRIP
360
496
  3
BUMPTILE
360
24
  3
DIFFUSETILE
360
23
  3
OPACITYTILE
360
27
  3
REFLECTIONTILE
360
26
  3
REFRACTIONTILE
360
28
  3
SPECULARTILE
360
25
  0
DICTIONARY
  5
48C
330
64
100
AcDbDictionary
280
     1
281
     1
  3
ACAD_ROUNDTRIP_2008_TABLESTYLE_CELLSTYLEMAP
360
5BD
  3
ACAD_XREC_ROUNDTRIP
360
5F5
  0
DICTIONARY
  5
5CF
330
2F
100
AcDbDictionary
280
     1
281
     1
  3
ACAD_XREC_ROUNDTRIP
360
5D0
  0
DICTIONARY
  5
5FC
330
4D5
100
AcDbDictionary
280
     1
281
     1
  3
ACAD_XREC_ROUNDTRIP
360
5FD
  0
DICTIONARY
  5
5FA
330
2F9
100
AcDbDictionary
280
     1
281
     1
  3
ACAD_XREC_ROUNDTRIP
360
5FB
  0
DICTIONARY
  5
5CD
330
2E
100
AcDbDictionary
280
     1
281
     1
  3
ACAD_XREC_ROUNDTRIP
360
5CE
  0
DICTIONARY
  5
5DB
330
35
100
AcDbDictionary
280
     1
281
     1
  3
ACAD_XREC_ROUNDTRIP
360
5DC
  0
DICTIONARY
  5
5E3
330
39
100
AcDbDictionary
280
     1
281
     1
  3
ACAD_XREC_ROUNDTRIP
360
5E4
  0
DICTIONARY
  5
5D5
330
32
100
AcDbDictionary
280
     1
281
     1
  3
ACAD_XREC_ROUNDTRIP
360
5D6
  0
DICTIONARY
  5
5D9
330
34
100
AcDbDictionary
280
     1
281
     1
  3
ACAD_XREC_ROUNDTRIP
360
5DA
  0
DICTIONARY
  5
5F3
330
41
100
AcDbDictionary
280
     1
281
     1
  3
ACAD_XREC_ROUNDTRIP
360
5F4
  0
DICTIONARY
  5
5E1
330
38
100
AcDbDictionary
280
     1
281
     1
  3
ACAD_XREC_ROUNDTRIP
360
5E2
  0
DICTIONARY
  5
5C5
330
2A
100
AcDbDictionary
280
     1
281
     1
  3
ACAD_XREC_ROUNDTRIP
360
5C6
  0
DICTIONARY
  5
5C7
330
2B
100
AcDbDictionary
280
     1
281
     1
  3
ACAD_XREC_ROUNDTRIP
360
5C8
  0
DICTIONARY
  5
5C9
330
2C
100
AcDbDictionary
280
     1
281
     1
  3
ACAD_XREC_ROUNDTRIP
360
5CA
  0
DICTIONARY
  5
5CB
330
2D
100
AcDbDictionary
280
     1
281
     1
  3
ACAD_XREC_ROUNDTRIP
360
5CC
  0
DICTIONARY
  5
5D3
330
31
100
AcDbDictionary
280
     1
281
     1
  3
ACAD_XREC_ROUNDTRIP
360
5D4
  0
DICTIONARY
  5
5EF
330
3F
100
AcDbDictionary
280
     1
281
     1
  3
ACAD_XREC_ROUNDTRIP
360
5F0
  0
DICTIONARY
  5
5DF
330
37
100
AcDbDictionary
280
     1
281
     1
  3
ACAD_XREC_ROUNDTRIP
360
5E0
  0
DICTIONARY
  5
5F1
330
40
100
AcDbDictionary
280
     1
281
     1
  3
ACAD_XREC_ROUNDTRIP
360
5F2
  0
DICTIONARY
  5
5D7
330
33
100
AcDbDictionary
280
     1
281
     1
  3
ACAD_XREC_ROUNDTRIP
360
5D8
  0
DICTIONARY
  5
5ED
330
3E
100
AcDbDictionary
280
     1
281
     1
  3
ACAD_XREC_ROUNDTRIP
360
5EE
  0
DICTIONARY
  5
5EB
330
3D
100
AcDbDictionary
280
     1
281
     1
  3
ACAD_XREC_ROUNDTRIP
360
5EC
  0
DICTIONARY
  5
5E5
330
3A
100
AcDbDictionary
280
     1
281
     1
  3
ACAD_XREC_ROUNDTRIP
360
5E6
  0
DICTIONARY
  5
5E7
330
3B
100
AcDbDictionary
280
     1
281
     1
  3
ACAD_XREC_ROUNDTRIP
360
5E8
  0
DICTIONARY
  5
5DD
330
36
100
AcDbDictionary
280
     1
281
     1
  3
ACAD_XREC_ROUNDTRIP
360
5DE
  0
DICTIONARY
  5
5D1
330
30
100
AcDbDictionary
280
     1
281
     1
  3
ACAD_XREC_ROUNDTRIP
360
5D2
  0
DICTIONARY
  5
5E9
330
3C
100
AcDbDictionary
280
     1
281
     1
  3
ACAD_XREC_ROUNDTRIP
360
5EA
  0
XRECORD
  5
5F9
102
{ACAD_REACTORS
330
5F8
102
}
330
5F8
100
AcDbXrecord
280
     1
102
SHADEPLOT
 70
     0
102
SHADEPLOTRESLEVEL
 70
     2
102
SHADEPLOTCUSTOMDPI
 70
   300
  0
XRECORD
  5
5F7
102
{ACAD_REACTORS
330
5F6
102
}
330
5F6
100
AcDbXrecord
280
     1
102
SHADEPLOT
 70
     0
102
SHADEPLOTRESLEVEL
 70
     2
102
SHADEPLOTCUSTOMDPI
 70
   300
  0
XRECORD
  5
495
102
{ACAD_REACTORS
330
1A
102
}
330
1A
100
AcDbXrecord
280
     1
102
MATERIAL
148
0.0
149
0.0
149
0.0
 93
        0
 94
      127
282
     0
 72
     0
 77
     0
171
     0
175
     0
179
     0
273
     0
  0
XRECORD
  5
1C
102
{ACAD_REACTORS
330
1A
102
}
330
1A
100
AcDbXrecord
280
     1
270
     1
271
     1
  0
XRECORD
  5
1B
102
{ACAD_REACTORS
330
1A
102
}
330
1A
100
AcDbXrecord
280
     1
270
     1
271
     1
  0
XRECORD
  5
1F
102
{ACAD_REACTORS
330
1A
102
}
330
1A
100
AcDbXrecord
280
     1
270
     1
271
     1
  0
XRECORD
  5
1E
102
{ACAD_REACTORS
330
1A
102
}
330
1A
100
AcDbXrecord
280
     1
270
     1
271
     1
  0
XRECORD
  5
20
102
{ACAD_REACTORS
330
1A
102
}
330
1A
100
AcDbXrecord
280
     1
270
     1
271
     1
  0
XRECORD
  5
1D
102
{ACAD_REACTORS
330
1A
102
}
330
1A
100
AcDbXrecord
280
     1
270
     1
271
     1
  0
XRECORD
  5
494
102
{ACAD_REACTORS
330
12
102
}
330
12
100
AcDbXrecord
280
     1
102
MATERIAL
148
0.0
149
0.0
149
0.0
 93
        0
 94
      127
282
     0
 72
     0
 77
     0
171
     0
175
     0
179
     0
273
     0
  0
XRECORD
  5
14
102
{ACAD_REACTORS
330
12
102
}
330
12
100
AcDbXrecord
280
     1
270
     1
271
     1
  0
XRECORD
  5
13
102
{ACAD_REACTORS
330
12
102
}
330
12
100
AcDbXrecord
280
     1
270
     1
271
     1
  0
XRECORD
  5
17
102
{ACAD_REACTORS
330
12
102
}
330
12
100
AcDbXrecord
280
     1
270
     1
271
     1
  0
XRECORD
  5
16
102
{ACAD_REACTORS
330
12
102
}
330
12
100
AcDbXrecord
280
     1
270
     1
271
     1
  0
XRECORD
  5
18
102
{ACAD_REACTORS
330
12
102
}
330
12
100
AcDbXrecord
280
     1
270
     1
271
     1
  0
XRECORD
  5
15
102
{ACAD_REACTORS
330
12
102
}
330
12
100
AcDbXrecord
280
     1
270
     1
271
     1
  0
XRECORD
  5
496
102
{ACAD_REACTORS
330
22
102
}
330
22
100
AcDbXrecord
280
     1
102
MATERIAL
148
0.0
149
0.0
149
0.0
 93
        0
 94
      127
282
     0
 72
     0
 77
     0
171
     0
175
     0
179
     0
273
     0
  0
XRECORD
  5
24
102
{ACAD_REACTORS
330
22
102
}
330
22
100
AcDbXrecord
280
     1
270
     1
271
     1
  0
XRECORD
  5
23
102
{ACAD_REACTORS
330
22
102
}
330
22
100
AcDbXrecord
280
     1
270
     1
271
     1
  0
XRECORD
  5
27
102
{ACAD_REACTORS
330
22
102
}
330
22
100
AcDbXrecord
280
     1
270
     1
271
     1
  0
XRECORD
  5
26
102
{ACAD_REACTORS
330
22
102
}
330
22
100
AcDbXrecord
280
     1
270
     1
271
     1
  0
XRECORD
  5
28
102
{ACAD_REACTORS
330
22
102
}
330
22
100
AcDbXrecord
280
     1
270
     1
271
     1
  0
XRECORD
  5
25
102
{ACAD_REACTORS
330
22
102
}
330
22
100
AcDbXrecord
280
     1
270
     1
271
     1
  0
CELLSTYLEMAP
  5
5BD
102
{ACAD_REACTORS
330
48C
102
}
330
48C
100
AcDbCellStyleMap
 90
        3
300
CELLSTYLE
  1
TABLEFORMAT_BEGIN
 90
        5
170
     1
 91
        0
 92
    32768
 62
   257
 93
        1
300
CONTENTFORMAT
  1
CONTENTFORMAT_BEGIN
 90
        0
 91
        0
 92
      512
 93
        0
300

 40
0.0
140
1.0
 94
        5
 62
     0
340
55
144
0.25
309
CONTENTFORMAT_END
171
     1
301
MARGIN
  1
CELLMARGIN_BEGIN
 40
0.06
 40
0.06
 40
0.06
 40
0.06
 40
0.18
 40
0.18
309
CELLMARGIN_END
 94
        6
 95
        1
302
GRIDFORMAT
  1
GRIDFORMAT_BEGIN
 90
        0
 91
        1
 62
     0
 92
       -2
340
0
 93
        0
 40
0.045
309
GRIDFORMAT_END
 95
        2
302
GRIDFORMAT
  1
GRIDFORMAT_BEGIN
 90
        0
 91
        1
 62
     0
 92
       -2
340
0
 93
        0
 40
0.045
309
GRIDFORMAT_END
 95
        4
302
GRIDFORMAT
  1
GRIDFORMAT_BEGIN
 90
        0
 91
        1
 62
     0
 92
       -2
340
0
 93
        0
 40
0.045
309
GRIDFORMAT_END
 95
        8
302
GRIDFORMAT
  1
GRIDFORMAT_BEGIN
 90
        0
 91
        1
 62
     0
 92
       -2
340
0
 93
        0
 40
0.045
309
GRIDFORMAT_END
 95
       16
302
GRIDFORMAT
  1
GRIDFORMAT_BEGIN
 90
        0
 91
        1
 62
     0
 92
       -2
340
0
 93
        0
 40
0.045
309
GRIDFORMAT_END
 95
       32
302
GRIDFORMAT
  1
GRIDFORMAT_BEGIN
 90
        0
 91
        1
 62
     0
 92
       -2
340
0
 93
        0
 40
0.045
309
GRIDFORMAT_END
309
TABLEFORMAT_END
  1
CELLSTYLE_BEGIN
 90
        1
 91
        1
300
_TITLE
309
CELLSTYLE_END
300
CELLSTYLE
  1
TABLEFORMAT_BEGIN
 90
        5
170
     1
 91
        0
 92
        0
 62
   257
 93
        1
300
CONTENTFORMAT
  1
CONTENTFORMAT_BEGIN
 90
        0
 91
        0
 92
      512
 93
        0
300

 40
0.0
140
1.0
 94
        5
 62
     0
340
55
144
0.18
309
CONTENTFORMAT_END
171
     1
301
MARGIN
  1
CELLMARGIN_BEGIN
 40
0.06
 40
0.06
 40
0.06
 40
0.06
 40
0.18
 40
0.18
309
CELLMARGIN_END
 94
        6
 95
        1
302
GRIDFORMAT
  1
GRIDFORMAT_BEGIN
 90
        0
 91
        1
 62
     0
 92
       -2
340
0
 93
        0
 40
0.045
309
GRIDFORMAT_END
 95
        2
302
GRIDFORMAT
  1
GRIDFORMAT_BEGIN
 90
        0
 91
        1
 62
     0
 92
       -2
340
0
 93
        0
 40
0.045
309
GRIDFORMAT_END
 95
        4
302
GRIDFORMAT
  1
GRIDFORMAT_BEGIN
 90
        0
 91
        1
 62
     0
 92
       -2
340
0
 93
        0
 40
0.045
309
GRIDFORMAT_END
 95
        8
302
GRIDFORMAT
  1
GRIDFORMAT_BEGIN
 90
        0
 91
        1
 62
     0
 92
       -2
340
0
 93
        0
 40
0.045
309
GRIDFORMAT_END
 95
       16
302
GRIDFORMAT
  1
GRIDFORMAT_BEGIN
 90
        0
 91
        1
 62
     0
 92
       -2
340
0
 93
        0
 40
0.045
309
GRIDFORMAT_END
 95
       32
302
GRIDFORMAT
  1
GRIDFORMAT_BEGIN
 90
        0
 91
        1
 62
     0
 92
       -2
340
0
 93
        0
 40
0.045
309
GRIDFORMAT_END
309
TABLEFORMAT_END
  1
CELLSTYLE_BEGIN
 90
        2
 91
        1
300
_HEADER
309
CELLSTYLE_END
300
CELLSTYLE
  1
TABLEFORMAT_BEGIN
 90
        5
170
     1
 91
        0
 92
        0
 62
   257
 93
        1
300
CONTENTFORMAT
  1
CONTENTFORMAT_BEGIN
 90
        0
 91
        0
 92
      512
 93
        0
300

 40
0.0
140
1.0
 94
        2
 62
     0
340
55
144
0.18
309
CONTENTFORMAT_END
171
     1
301
MARGIN
  1
CELLMARGIN_BEGIN
 40
0.06
 40
0.06
 40
0.06
 40
0.06
 40
0.18
 40
0.18
309
CELLMARGIN_END
 94
        6
 95
        1
302
GRIDFORMAT
  1
GRIDFORMAT_BEGIN
 90
        0
 91
        1
 62
     0
 92
       -2
340
0
 93
        0
 40
0.045
309
GRIDFORMAT_END
 95
        2
302
GRIDFORMAT
  1
GRIDFORMAT_BEGIN
 90
        0
 91
        1
 62
     0
 92
       -2
340
0
 93
        0
 40
0.045
309
GRIDFORMAT_END
 95
        4
302
GRIDFORMAT
  1
GRIDFORMAT_BEGIN
 90
        0
 91
        1
 62
     0
 92
       -2
340
0
 93
        0
 40
0.045
309
GRIDFORMAT_END
 95
        8
302
GRIDFORMAT
  1
GRIDFORMAT_BEGIN
 90
        0
 91
        1
 62
     0
 92
       -2
340
0
 93
        0
 40
0.045
309
GRIDFORMAT_END
 95
       16
302
GRIDFORMAT
  1
GRIDFORMAT_BEGIN
 90
        0
 91
        1
 62
     0
 92
       -2
340
0
 93
        0
 40
0.045
309
GRIDFORMAT_END
 95
       32
302
GRIDFORMAT
  1
GRIDFORMAT_BEGIN
 90
        0
 91
        1
 62
     0
 92
       -2
340
0
 93
        0
 40
0.045
309
GRIDFORMAT_END
309
TABLEFORMAT_END
  1
CELLSTYLE_BEGIN
 90
        3
 91
        2
300
_DATA
309
CELLSTYLE_END
  0
XRECORD
  5
5F5
102
{ACAD_REACTORS
330
48C
102
}
330
48C
100
AcDbXrecord
280
     1
102
ACAD_ROUNDTRIP_PRE2007_TABLESTYLE
 90
      512
 91
        0
  1

 92
      512
 93
        0
  2

 94
      512
 95
        0
  3

  0
XRECORD
  5
5D0
102
{ACAD_REACTORS
330
5CF
102
}
330
5CF
100
AcDbXrecord
280
     1
102
RTVSPropertyOp0
 70
     1
102
RTVSPropertyOp1
 70
     1
102
RTVSPropertyOp2
 70
     1
102
RTVSPropertyOp3
 70
     1
102
RTVSPropertyOp4
 70
     1
102
RTVSPropertyOp5
 70
     1
102
RTVSPropertyOp6
 70
     1
102
RTVSPropertyOp7
 70
     1
102
RTVSPropertyOp8
 70
     1
102
RTVSPropertyOp9
 70
     1
102
RTVSPropertyOp10
 70
     1
102
RTVSPropertyOp11
 70
     1
102
RTVSPropertyOp12
 70
     1
102
RTVSPropertyOp13
 70
     1
102
RTVSPropertyOp14
 70
     1
102
RTVSPropertyOp15
 70
     1
102
RTVSPropertyOp16
 70
     1
102
RTVSPropertyOp17
 70
     1
102
RTVSPropertyOp18
 70
     1
102
RTVSPropertyOp19
 70
     1
102
RTVSPropertyOp20
 70
     1
102
RTVSPropertyOp21
 70
     1
102
RTVSPropertyOp22
 70
     1
102
RTVSPropertyOp23
 70
     1
102
RTVSPropertyOp24
 70
     1
102
RTVSPropertyOp25
 70
     1
102
RTVSPropertyOp26
 70
     1
102
RTVSPropertyOp27
 70
     1
102
RTVSPropertyOp28
 70
     1
102
RTVSPropertyOp29
 70
     1
102
RTVSPropertyOp30
 70
     1
102
RTVSPropertyOp31
 70
     1
102
RTVSPropertyOp32
 70
     1
  0
XRECORD
  5
5FD
102
{ACAD_REACTORS
330
5FC
102
}
330
5FC
100
AcDbXrecord
280
     1
102
RTVSPropertyOp0
 70
     1
102
RTVSPropertyOp1
 70
     1
102
RTVSPropertyOp2
 70
     1
102
RTVSPropertyOp3
 70
     1
102
RTVSPropertyOp4
 70
     1
102
RTVSPropertyOp5
 70
     1
102
RTVSPropertyOp6
 70
     1
102
RTVSPropertyOp7
 70
     1
102
RTVSPropertyOp8
 70
     1
102
RTVSPropertyOp9
 70
     1
102
RTVSPropertyOp10
 70
     1
102
RTVSPropertyOp11
 70
     1
102
RTVSPropertyOp12
 70
     1
102
RTVSPropertyOp13
 70
     1
102
RTVSPropertyOp14
 70
     1
102
RTVSPropertyOp15
 70
     1
102
RTVSPropertyOp16
 70
     1
102
RTVSPropertyOp17
 70
     1
102
RTVSPropertyOp18
 70
     1
102
RTVSPropertyOp19
 70
     1
102
RTVSPropertyOp20
 70
     1
102
RTVSPropertyOp21
 70
     1
102
RTVSPropertyOp22
 70
     1
102
RTVSPropertyOp23
 70
     1
102
RTVSPropertyOp24
 70
     1
102
RTVSPropertyOp25
 70
     1
102
RTVSPropertyOp26
 70
     1
102
RTVSPropertyOp27
 70
     1
102
RTVSPropertyOp28
 70
     1
102
RTVSPropertyOp29
 70
     1
102
RTVSPropertyOp30
 70
     1
102
RTVSPropertyOp31
 70
     1
102
RTVSPropertyOp32
 70
     1
  0
XRECORD
  5
5FB
102
{ACAD_REACTORS
330
5FA
102
}
330
5FA
100
AcDbXrecord
280
     1
102
RTVSPropertyOp0
 70
     1
102
RTVSPropertyOp1
 70
     1
102
RTVSPropertyOp2
 70
     1
102
RTVSPropertyOp3
 70
     1
102
RTVSPropertyOp4
 70
     1
102
RTVSPropertyOp5
 70
     1
102
RTVSPropertyOp6
 70
     1
102
RTVSPropertyOp7
 70
     1
102
RTVSPropertyOp8
 70
     1
102
RTVSPropertyOp9
 70
     1
102
RTVSPropertyOp10
 70
     1
102
RTVSPropertyOp11
 70
     1
102
RTVSPropertyOp12
 70
     1
102
RTVSPropertyOp13
 70
     1
102
RTVSPropertyOp14
 70
     1
102
RTVSPropertyOp15
 70
     1
102
RTVSPropertyOp16
 70
     1
102
RTVSPropertyOp17
 70
     1
102
RTVSPropertyOp18
 70
     1
102
RTVSPropertyOp19
 70
     1
102
RTVSPropertyOp20
 70
     1
102
RTVSPropertyOp21
 70
     1
102
RTVSPropertyOp22
 70
     1
102
RTVSPropertyOp23
 70
     1
102
RTVSPropertyOp24
 70
     1
102
RTVSPropertyOp25
 70
     1
102
RTVSPropertyOp26
 70
     1
102
RTVSPropertyOp27
 70
     1
102
RTVSPropertyOp28
 70
     1
102
RTVSPropertyOp29
 70
     1
102
RTVSPropertyOp30
 70
     1
102
RTVSPropertyOp31
 70
     1
102
RTVSPropertyOp32
 70
     1
  0
XRECORD
  5
5CE
102
{ACAD_REACTORS
330
5CD
102
}
330
5CD
100
AcDbXrecord
280
     1
102
RTVSPropertyOp0
 70
     1
102
RTVSPropertyOp1
 70
     1
102
RTVSPropertyOp2
 70
     1
102
RTVSPropertyOp3
 70
     1
102
RTVSPropertyOp4
 70
     1
102
RTVSPropertyOp5
 70
     1
102
RTVSPropertyOp6
 70
     1
102
RTVSPropertyOp7
 70
     1
102
RTVSPropertyOp8
 70
     1
102
RTVSPropertyOp9
 70
     1
102
RTVSPropertyOp10
 70
     1
102
RTVSPropertyOp11
 70
     1
102
RTVSPropertyOp12
 70
     1
102
RTVSPropertyOp13
 70
     1
102
RTVSPropertyOp14
 70
     1
102
RTVSPropertyOp15
 70
     1
102
RTVSPropertyOp16
 70
     1
102
RTVSPropertyOp17
 70
     1
102
RTVSPropertyOp18
 70
     1
102
RTVSPropertyOp19
 70
     1
102
RTVSPropertyOp20
 70
     1
102
RTVSPropertyOp21
 70
     1
102
RTVSPropertyOp22
 70
     1
102
RTVSPropertyOp23
 70
     1
102
RTVSPropertyOp24
 70
     1
102
RTVSPropertyOp25
 70
     1
102
RTVSPropertyOp26
 70
     1
102
RTVSPropertyOp27
 70
     1
102
RTVSPropertyOp28
 70
     1
102
RTVSPropertyOp29
 70
     1
102
RTVSPropertyOp30
 70
     1
102
RTVSPropertyOp31
 70
     1
102
RTVSPropertyOp32
 70
     1
  0
XRECORD
  5
5DC
102
{ACAD_REACTORS
330
5DB
102
}
330
5DB
100
AcDbXrecord
280
     1
102
RTVSPropertyOp0
 70
     1
102
RTVSPropertyOp1
 70
     1
102
RTVSPropertyOp2
 70
     1
102
RTVSPropertyOp3
 70
     1
102
RTVSPropertyOp4
 70
     1
102
RTVSPropertyOp5
 70
     1
102
RTVSPropertyOp6
 70
     1
102
RTVSPropertyOp7
 70
     1
102
RTVSPropertyOp8
 70
     1
102
RTVSPropertyOp9
 70
     1
102
RTVSPropertyOp10
 70
     1
102
RTVSPropertyOp11
 70
     1
102
RTVSPropertyOp12
 70
     1
102
RTVSPropertyOp13
 70
     1
102
RTVSPropertyOp14
 70
     1
102
RTVSPropertyOp15
 70
     1
102
RTVSPropertyOp16
 70
     1
102
RTVSPropertyOp17
 70
     1
102
RTVSPropertyOp18
 70
     1
102
RTVSPropertyOp19
 70
     1
102
RTVSPropertyOp20
 70
     1
102
RTVSPropertyOp21
 70
     1
102
RTVSPropertyOp22
 70
     1
102
RTVSPropertyOp23
 70
     1
102
RTVSPropertyOp24
 70
     1
102
RTVSPropertyOp25
 70
     1
102
RTVSPropertyOp26
 70
     1
102
RTVSPropertyOp27
 70
     1
102
RTVSPropertyOp28
 70
     1
102
RTVSPropertyOp29
 70
     1
102
RTVSPropertyOp30
 70
     1
102
RTVSPropertyOp31
 70
     1
102
RTVSPropertyOp32
 70
     1
  0
XRECORD
  5
5E4
102
{ACAD_REACTORS
330
5E3
102
}
330
5E3
100
AcDbXrecord
280
     1
102
RTVSPropertyOp0
 70
     1
102
RTVSPropertyOp1
 70
     1
102
RTVSPropertyOp2
 70
     1
102
RTVSPropertyOp3
 70
     1
102
RTVSPropertyOp4
 70
     1
102
RTVSPropertyOp5
 70
     1
102
RTVSPropertyOp6
 70
     1
102
RTVSPropertyOp7
 70
     1
102
RTVSPropertyOp8
 70
     1
102
RTVSPropertyOp9
 70
     1
102
RTVSPropertyOp10
 70
     1
102
RTVSPropertyOp11
 70
     1
102
RTVSPropertyOp12
 70
     1
102
RTVSPropertyOp13
 70
     1
102
RTVSPropertyOp14
 70
     1
102
RTVSPropertyOp15
 70
     1
102
RTVSPropertyOp16
 70
     1
102
RTVSPropertyOp17
 70
     1
102
RTVSPropertyOp18
 70
     1
102
RTVSPropertyOp19
 70
     1
102
RTVSPropertyOp20
 70
     1
102
RTVSPropertyOp21
 70
     1
102
RTVSPropertyOp22
 70
     1
102
RTVSPropertyOp23
 70
     1
102
RTVSPropertyOp24
 70
     1
102
RTVSPropertyOp25
 70
     1
102
RTVSPropertyOp26
 70
     1
102
RTVSPropertyOp27
 70
     1
102
RTVSPropertyOp28
 70
     1
102
RTVSPropertyOp29
 70
     1
102
RTVSPropertyOp30
 70
     1
102
RTVSPropertyOp31
 70
     1
102
RTVSPropertyOp32
 70
     1
  0
XRECORD
  5
5D6
102
{ACAD_REACTORS
330
5D5
102
}
330
5D5
100
AcDbXrecord
280
     1
102
RTVSPropertyOp0
 70
     1
102
RTVSPropertyOp1
 70
     1
102
RTVSPropertyOp2
 70
     1
102
RTVSPropertyOp3
 70
     1
102
RTVSPropertyOp4
 70
     1
102
RTVSPropertyOp5
 70
     1
102
RTVSPropertyOp6
 70
     1
102
RTVSPropertyOp7
 70
     1
102
RTVSPropertyOp8
 70
     1
102
RTVSPropertyOp9
 70
     1
102
RTVSPropertyOp10
 70
     1
102
RTVSPropertyOp11
 70
     1
102
RTVSPropertyOp12
 70
     1
102
RTVSPropertyOp13
 70
     1
102
RTVSPropertyOp14
 70
     1
102
RTVSPropertyOp15
 70
     1
102
RTVSPropertyOp16
 70
     1
102
RTVSPropertyOp17
 70
     1
102
RTVSPropertyOp18
 70
     1
102
RTVSPropertyOp19
 70
     1
102
RTVSPropertyOp20
 70
     1
102
RTVSPropertyOp21
 70
     1
102
RTVSPropertyOp22
 70
     1
102
RTVSPropertyOp23
 70
     1
102
RTVSPropertyOp24
 70
     1
102
RTVSPropertyOp25
 70
     1
102
RTVSPropertyOp26
 70
     1
102
RTVSPropertyOp27
 70
     1
102
RTVSPropertyOp28
 70
     1
102
RTVSPropertyOp29
 70
     1
102
RTVSPropertyOp30
 70
     1
102
RTVSPropertyOp31
 70
     1
102
RTVSPropertyOp32
 70
     1
  0
XRECORD
  5
5DA
102
{ACAD_REACTORS
330
5D9
102
}
330
5D9
100
AcDbXrecord
280
     1
102
RTVSPropertyOp0
 70
     1
102
RTVSPropertyOp1
 70
     1
102
RTVSPropertyOp2
 70
     1
102
RTVSPropertyOp3
 70
     1
102
RTVSPropertyOp4
 70
     1
102
RTVSPropertyOp5
 70
     1
102
RTVSPropertyOp6
 70
     1
102
RTVSPropertyOp7
 70
     1
102
RTVSPropertyOp8
 70
     1
102
RTVSPropertyOp9
 70
     1
102
RTVSPropertyOp10
 70
     1
102
RTVSPropertyOp11
 70
     1
102
RTVSPropertyOp12
 70
     1
102
RTVSPropertyOp13
 70
     1
102
RTVSPropertyOp14
 70
     1
102
RTVSPropertyOp15
 70
     1
102
RTVSPropertyOp16
 70
     1
102
RTVSPropertyOp17
 70
     1
102
RTVSPropertyOp18
 70
     1
102
RTVSPropertyOp19
 70
     1
102
RTVSPropertyOp20
 70
     1
102
RTVSPropertyOp21
 70
     1
102
RTVSPropertyOp22
 70
     1
102
RTVSPropertyOp23
 70
     1
102
RTVSPropertyOp24
 70
     1
102
RTVSPropertyOp25
 70
     1
102
RTVSPropertyOp26
 70
     1
102
RTVSPropertyOp27
 70
     1
102
RTVSPropertyOp28
 70
     1
102
RTVSPropertyOp29
 70
     1
102
RTVSPropertyOp30
 70
     1
102
RTVSPropertyOp31
 70
     1
102
RTVSPropertyOp32
 70
     1
  0
XRECORD
  5
5F4
102
{ACAD_REACTORS
330
5F3
102
}
330
5F3
100
AcDbXrecord
280
     1
102
RTVSPropertyOp0
 70
     0
102
RTVSPropertyOp1
 70
     0
102
RTVSPropertyOp2
 70
     0
102
RTVSPropertyOp3
 70
     0
102
RTVSPropertyOp4
 70
     0
102
RTVSPropertyOp5
 70
     0
102
RTVSPropertyOp6
 70
     0
102
RTVSPropertyOp7
 70
     0
102
RTVSPropertyOp8
 70
     0
102
RTVSPropertyOp9
 70
     0
102
RTVSPropertyOp10
 70
     0
102
RTVSPropertyOp11
 70
     0
102
RTVSPropertyOp12
 70
     0
102
RTVSPropertyOp13
 70
     0
102
RTVSPropertyOp14
 70
     2
102
RTVSPropertyOp15
 70
     0
102
RTVSPropertyOp16
 70
     0
102
RTVSPropertyOp17
 70
     0
102
RTVSPropertyOp18
 70
     0
102
RTVSPropertyOp19
 70
     0
102
RTVSPropertyOp20
 70
     0
102
RTVSPropertyOp21
 70
     0
102
RTVSPropertyOp22
 70
     0
102
RTVSPropertyOp23
 70
     0
102
RTVSPropertyOp24
 70
     0
102
RTVSPropertyOp25
 70
     0
102
RTVSPropertyOp26
 70
     0
102
RTVSPropertyOp27
 70
     0
102
RTVSPropertyOp28
 70
     0
102
RTVSPropertyOp29
 70
     0
102
RTVSPropertyOp30
 70
     0
102
RTVSPropertyOp31
 70
     0
102
RTVSPropertyOp32
 70
     0
  0
XRECORD
  5
5E2
102
{ACAD_REACTORS
330
5E1
102
}
330
5E1
100
AcDbXrecord
280
     1
102
RTVSPropertyOp0
 70
     1
102
RTVSPropertyOp1
 70
     1
102
RTVSPropertyOp2
 70
     1
102
RTVSPropertyOp3
 70
     1
102
RTVSPropertyOp4
 70
     1
102
RTVSPropertyOp5
 70
     1
102
RTVSPropertyOp6
 70
     1
102
RTVSPropertyOp7
 70
     1
102
RTVSPropertyOp8
 70
     1
102
RTVSPropertyOp9
 70
     1
102
RTVSPropertyOp10
 70
     1
102
RTVSPropertyOp11
 70
     1
102
RTVSPropertyOp12
 70
     1
102
RTVSPropertyOp13
 70
     1
102
RTVSPropertyOp14
 70
     1
102
RTVSPropertyOp15
 70
     1
102
RTVSPropertyOp16
 70
     1
102
RTVSPropertyOp17
 70
     1
102
RTVSPropertyOp18
 70
     1
102
RTVSPropertyOp19
 70
     1
102
RTVSPropertyOp20
 70
     1
102
RTVSPropertyOp21
 70
     1
102
RTVSPropertyOp22
 70
     1
102
RTVSPropertyOp23
 70
     1
102
RTVSPropertyOp24
 70
     1
102
RTVSPropertyOp25
 70
     1
102
RTVSPropertyOp26
 70
     1
102
RTVSPropertyOp27
 70
     1
102
RTVSPropertyOp28
 70
     1
102
RTVSPropertyOp29
 70
     1
102
RTVSPropertyOp30
 70
     1
102
RTVSPropertyOp31
 70
     1
102
RTVSPropertyOp32
 70
     1
  0
XRECORD
  5
5C6
102
{ACAD_REACTORS
330
5C5
102
}
330
5C5
100
AcDbXrecord
280
     1
102
RTVSPropertyOp0
 70
     1
102
RTVSPropertyOp1
 70
     1
102
RTVSPropertyOp2
 70
     1
102
RTVSPropertyOp3
 70
     1
102
RTVSPropertyOp4
 70
     1
102
RTVSPropertyOp5
 70
     1
102
RTVSPropertyOp6
 70
     1
102
RTVSPropertyOp7
 70
     1
102
RTVSPropertyOp8
 70
     1
102
RTVSPropertyOp9
 70
     1
102
RTVSPropertyOp10
 70
     1
102
RTVSPropertyOp11
 70
     1
102
RTVSPropertyOp12
 70
     1
102
RTVSPropertyOp13
 70
     1
102
RTVSPropertyOp14
 70
     1
102
RTVSPropertyOp15
 70
     1
102
RTVSPropertyOp16
 70
     1
102
RTVSPropertyOp17
 70
     1
102
RTVSPropertyOp18
 70
     1
102
RTVSPropertyOp19
 70
     1
102
RTVSPropertyOp20
 70
     1
102
RTVSPropertyOp21
 70
     1
102
RTVSPropertyOp22
 70
     1
102
RTVSPropertyOp23
 70
     1
102
RTVSPropertyOp24
 70
     1
102
RTVSPropertyOp25
 70
     1
102
RTVSPropertyOp26
 70
     1
102
RTVSPropertyOp27
 70
     1
102
RTVSPropertyOp28
 70
     1
102
RTVSPropertyOp29
 70
     1
102
RTVSPropertyOp30
 70
     1
102
RTVSPropertyOp31
 70
     1
102
RTVSPropertyOp32
 70
     1
  0
XRECORD
  5
5C8
102
{ACAD_REACTORS
330
5C7
102
}
330
5C7
100
AcDbXrecord
280
     1
102
RTVSPropertyOp0
 70
     1
102
RTVSPropertyOp1
 70
     1
102
RTVSPropertyOp2
 70
     1
102
RTVSPropertyOp3
 70
     1
102
RTVSPropertyOp4
 70
     1
102
RTVSPropertyOp5
 70
     1
102
RTVSPropertyOp6
 70
     1
102
RTVSPropertyOp7
 70
     1
102
RTVSPropertyOp8
 70
     1
102
RTVSPropertyOp9
 70
     1
102
RTVSPropertyOp10
 70
     1
102
RTVSPropertyOp11
 70
     1
102
RTVSPropertyOp12
 70
     1
102
RTVSPropertyOp13
 70
     1
102
RTVSPropertyOp14
 70
     1
102
RTVSPropertyOp15
 70
     1
102
RTVSPropertyOp16
 70
     1
102
RTVSPropertyOp17
 70
     1
102
RTVSPropertyOp18
 70
     1
102
RTVSPropertyOp19
 70
     1
102
RTVSPropertyOp20
 70
     1
102
RTVSPropertyOp21
 70
     1
102
RTVSPropertyOp22
 70
     1
102
RTVSPropertyOp23
 70
     1
102
RTVSPropertyOp24
 70
     1
102
RTVSPropertyOp25
 70
     1
102
RTVSPropertyOp26
 70
     1
102
RTVSPropertyOp27
 70
     1
102
RTVSPropertyOp28
 70
     1
102
RTVSPropertyOp29
 70
     1
102
RTVSPropertyOp30
 70
     1
102
RTVSPropertyOp31
 70
     1
102
RTVSPropertyOp32
 70
     1
  0
XRECORD
  5
5CA
102
{ACAD_REACTORS
330
5C9
102
}
330
5C9
100
AcDbXrecord
280
     1
102
RTVSPropertyOp0
 70
     1
102
RTVSPropertyOp1
 70
     1
102
RTVSPropertyOp2
 70
     1
102
RTVSPropertyOp3
 70
     1
102
RTVSPropertyOp4
 70
     1
102
RTVSPropertyOp5
 70
     1
102
RTVSPropertyOp6
 70
     1
102
RTVSPropertyOp7
 70
     1
102
RTVSPropertyOp8
 70
     1
102
RTVSPropertyOp9
 70
     1
102
RTVSPropertyOp10
 70
     1
102
RTVSPropertyOp11
 70
     1
102
RTVSPropertyOp12
 70
     1
102
RTVSPropertyOp13
 70
     1
102
RTVSPropertyOp14
 70
     1
102
RTVSPropertyOp15
 70
     1
102
RTVSPropertyOp16
 70
     1
102
RTVSPropertyOp17
 70
     1
102
RTVSPropertyOp18
 70
     1
102
RTVSPropertyOp19
 70
     1
102
RTVSPropertyOp20
 70
     1
102
RTVSPropertyOp21
 70
     1
102
RTVSPropertyOp22
 70
     1
102
RTVSPropertyOp23
 70
     1
102
RTVSPropertyOp24
 70
     1
102
RTVSPropertyOp25
 70
     1
102
RTVSPropertyOp26
 70
     1
102
RTVSPropertyOp27
 70
     1
102
RTVSPropertyOp28
 70
     1
102
RTVSPropertyOp29
 70
     1
102
RTVSPropertyOp30
 70
     1
102
RTVSPropertyOp31
 70
     1
102
RTVSPropertyOp32
 70
     1
  0
XRECORD
  5
5CC
102
{ACAD_REACTORS
330
5CB
102
}
330
5CB
100
AcDbXrecord
280
     1
102
RTVSPropertyOp0
 70
     1
102
RTVSPropertyOp1
 70
     1
102
RTVSPropertyOp2
 70
     1
102
RTVSPropertyOp3
 70
     1
102
RTVSPropertyOp4
 70
     1
102
RTVSPropertyOp5
 70
     1
102
RTVSPropertyOp6
 70
     1
102
RTVSPropertyOp7
 70
     1
102
RTVSPropertyOp8
 70
     1
102
RTVSPropertyOp9
 70
     1
102
RTVSPropertyOp10
 70
     1
102
RTVSPropertyOp11
 70
     1
102
RTVSPropertyOp12
 70
     1
102
RTVSPropertyOp13
 70
     1
102
RTVSPropertyOp14
 70
     1
102
RTVSPropertyOp15
 70
     1
102
RTVSPropertyOp16
 70
     1
102
RTVSPropertyOp17
 70
     1
102
RTVSPropertyOp18
 70
     1
102
RTVSPropertyOp19
 70
     1
102
RTVSPropertyOp20
 70
     1
102
RTVSPropertyOp21
 70
     1
102
RTVSPropertyOp22
 70
     1
102
RTVSPropertyOp23
 70
     1
102
RTVSPropertyOp24
 70
     1
102
RTVSPropertyOp25
 70
     1
102
RTVSPropertyOp26
 70
     1
102
RTVSPropertyOp27
 70
     1
102
RTVSPropertyOp28
 70
     1
102
RTVSPropertyOp29
 70
     1
102
RTVSPropertyOp30
 70
     1
102
RTVSPropertyOp31
 70
     1
102
RTVSPropertyOp32
 70
     1
  0
XRECORD
  5
5D4
102
{ACAD_REACTORS
330
5D3
102
}
330
5D3
100
AcDbXrecord
280
     1
102
RTVSPropertyOp0
 70
     1
102
RTVSPropertyOp1
 70
     1
102
RTVSPropertyOp2
 70
     1
102
RTVSPropertyOp3
 70
     1
102
RTVSPropertyOp4
 70
     1
102
RTVSPropertyOp5
 70
     1
102
RTVSPropertyOp6
 70
     1
102
RTVSPropertyOp7
 70
     1
102
RTVSPropertyOp8
 70
     1
102
RTVSPropertyOp9
 70
     1
102
RTVSPropertyOp10
 70
     1
102
RTVSPropertyOp11
 70
     1
102
RTVSPropertyOp12
 70
     1
102
RTVSPropertyOp13
 70
     1
102
RTVSPropertyOp14
 70
     1
102
RTVSPropertyOp15
 70
     1
102
RTVSPropertyOp16
 70
     1
102
RTVSPropertyOp17
 70
     1
102
RTVSPropertyOp18
 70
     1
102
RTVSPropertyOp19
 70
     1
102
RTVSPropertyOp20
 70
     1
102
RTVSPropertyOp21
 70
     1
102
RTVSPropertyOp22
 70
     1
102
RTVSPropertyOp23
 70
     1
102
RTVSPropertyOp24
 70
     1
102
RTVSPropertyOp25
 70
     1
102
RTVSPropertyOp26
 70
     1
102
RTVSPropertyOp27
 70
     1
102
RTVSPropertyOp28
 70
     1
102
RTVSPropertyOp29
 70
     1
102
RTVSPropertyOp30
 70
     1
102
RTVSPropertyOp31
 70
     1
102
RTVSPropertyOp32
 70
     1
  0
XRECORD
  5
5F0
102
{ACAD_REACTORS
330
5EF
102
}
330
5EF
100
AcDbXrecord
280
     1
102
RTVSPropertyOp0
 70
     0
102
RTVSPropertyOp1
 70
     0
102
RTVSPropertyOp2
 70
     0
102
RTVSPropertyOp3
 70
     0
102
RTVSPropertyOp4
 70
     0
102
RTVSPropertyOp5
 70
     0
102
RTVSPropertyOp6
 70
     0
102
RTVSPropertyOp7
 70
     0
102
RTVSPropertyOp8
 70
     0
102
RTVSPropertyOp9
 70
     0
102
RTVSPropertyOp10
 70
     0
102
RTVSPropertyOp11
 70
     0
102
RTVSPropertyOp12
 70
     0
102
RTVSPropertyOp13
 70
     0
102
RTVSPropertyOp14
 70
     2
102
RTVSPropertyOp15
 70
     0
102
RTVSPropertyOp16
 70
     0
102
RTVSPropertyOp17
 70
     0
102
RTVSPropertyOp18
 70
     0
102
RTVSPropertyOp19
 70
     0
102
RTVSPropertyOp20
 70
     0
102
RTVSPropertyOp21
 70
     0
102
RTVSPropertyOp22
 70
     0
102
RTVSPropertyOp23
 70
     0
102
RTVSPropertyOp24
 70
     0
102
RTVSPropertyOp25
 70
     0
102
RTVSPropertyOp26
 70
     0
102
RTVSPropertyOp27
 70
     0
102
RTVSPropertyOp28
 70
     0
102
RTVSPropertyOp29
 70
     0
102
RTVSPropertyOp30
 70
     0
102
RTVSPropertyOp31
 70
     0
102
RTVSPropertyOp32
 70
     0
  0
XRECORD
  5
5E0
102
{ACAD_REACTORS
330
5DF
102
}
330
5DF
100
AcDbXrecord
280
     1
102
RTVSPropertyOp0
 70
     1
102
RTVSPropertyOp1
 70
     1
102
RTVSPropertyOp2
 70
     1
102
RTVSPropertyOp3
 70
     1
102
RTVSPropertyOp4
 70
     1
102
RTVSPropertyOp5
 70
     1
102
RTVSPropertyOp6
 70
     1
102
RTVSPropertyOp7
 70
     1
102
RTVSPropertyOp8
 70
     1
102
RTVSPropertyOp9
 70
     1
102
RTVSPropertyOp10
 70
     1
102
RTVSPropertyOp11
 70
     1
102
RTVSPropertyOp12
 70
     1
102
RTVSPropertyOp13
 70
     1
102
RTVSPropertyOp14
 70
     1
102
RTVSPropertyOp15
 70
     1
102
RTVSPropertyOp16
 70
     1
102
RTVSPropertyOp17
 70
     1
102
RTVSPropertyOp18
 70
     1
102
RTVSPropertyOp19
 70
     1
102
RTVSPropertyOp20
 70
     1
102
RTVSPropertyOp21
 70
     1
102
RTVSPropertyOp22
 70
     1
102
RTVSPropertyOp23
 70
     1
102
RTVSPropertyOp24
 70
     1
102
RTVSPropertyOp25
 70
     1
102
RTVSPropertyOp26
 70
     1
102
RTVSPropertyOp27
 70
     1
102
RTVSPropertyOp28
 70
     1
102
RTVSPropertyOp29
 70
     1
102
RTVSPropertyOp30
 70
     1
102
RTVSPropertyOp31
 70
     1
102
RTVSPropertyOp32
 70
     1
  0
XRECORD
  5
5F2
102
{ACAD_REACTORS
330
5F1
102
}
330
5F1
100
AcDbXrecord
280
     1
102
RTVSPropertyOp0
 70
     0
102
RTVSPropertyOp1
 70
     0
102
RTVSPropertyOp2
 70
     0
102
RTVSPropertyOp3
 70
     0
102
RTVSPropertyOp4
 70
     0
102
RTVSPropertyOp5
 70
     0
102
RTVSPropertyOp6
 70
     0
102
RTVSPropertyOp7
 70
     0
102
RTVSPropertyOp8
 70
     0
102
RTVSPropertyOp9
 70
     0
102
RTVSPropertyOp10
 70
     0
102
RTVSPropertyOp11
 70
     0
102
RTVSPropertyOp12
 70
     0
102
RTVSPropertyOp13
 70
     0
102
RTVSPropertyOp14
 70
     2
102
RTVSPropertyOp15
 70
     0
102
RTVSPropertyOp16
 70
     0
102
RTVSPropertyOp17
 70
     0
102
RTVSPropertyOp18
 70
     0
102
RTVSPropertyOp19
 70
     0
102
RTVSPropertyOp20
 70
     0
102
RTVSPropertyOp21
 70
     0
102
RTVSPropertyOp22
 70
     0
102
RTVSPropertyOp23
 70
     0
102
RTVSPropertyOp24
 70
     0
102
RTVSPropertyOp25
 70
     0
102
RTVSPropertyOp26
 70
     0
102
RTVSPropertyOp27
 70
     0
102
RTVSPropertyOp28
 70
     0
102
RTVSPropertyOp29
 70
     0
102
RTVSPropertyOp30
 70
     0
102
RTVSPropertyOp31
 70
     0
102
RTVSPropertyOp32
 70
     0
  0
XRECORD
  5
5D8
102
{ACAD_REACTORS
330
5D7
102
}
330
5D7
100
AcDbXrecord
280
     1
102
RTVSPropertyOp0
 70
     1
102
RTVSPropertyOp1
 70
     1
102
RTVSPropertyOp2
 70
     1
102
RTVSPropertyOp3
 70
     1
102
RTVSPropertyOp4
 70
     1
102
RTVSPropertyOp5
 70
     1
102
RTVSPropertyOp6
 70
     1
102
RTVSPropertyOp7
 70
     1
102
RTVSPropertyOp8
 70
     1
102
RTVSPropertyOp9
 70
     1
102
RTVSPropertyOp10
 70
     1
102
RTVSPropertyOp11
 70
     1
102
RTVSPropertyOp12
 70
     1
102
RTVSPropertyOp13
 70
     1
102
RTVSPropertyOp14
 70
     1
102
RTVSPropertyOp15
 70
     1
102
RTVSPropertyOp16
 70
     1
102
RTVSPropertyOp17
 70
     1
102
RTVSPropertyOp18
 70
     1
102
RTVSPropertyOp19
 70
     1
102
RTVSPropertyOp20
 70
     1
102
RTVSPropertyOp21
 70
     1
102
RTVSPropertyOp22
 70
     1
102
RTVSPropertyOp23
 70
     1
102
RTVSPropertyOp24
 70
     1
102
RTVSPropertyOp25
 70
     1
102
RTVSPropertyOp26
 70
     1
102
RTVSPropertyOp27
 70
     1
102
RTVSPropertyOp28
 70
     1
102
RTVSPropertyOp29
 70
     1
102
RTVSPropertyOp30
 70
     1
102
RTVSPropertyOp31
 70
     1
102
RTVSPropertyOp32
 70
     1
  0
XRECORD
  5
5EE
102
{ACAD_REACTORS
330
5ED
102
}
330
5ED
100
AcDbXrecord
280
     1
102
RTVSPropertyOp0
 70
     1
102
RTVSPropertyOp1
 70
     1
102
RTVSPropertyOp2
 70
     1
102
RTVSPropertyOp3
 70
     1
102
RTVSPropertyOp4
 70
     1
102
RTVSPropertyOp5
 70
     1
102
RTVSPropertyOp6
 70
     1
102
RTVSPropertyOp7
 70
     1
102
RTVSPropertyOp8
 70
     1
102
RTVSPropertyOp9
 70
     1
102
RTVSPropertyOp10
 70
     1
102
RTVSPropertyOp11
 70
     1
102
RTVSPropertyOp12
 70
     1
102
RTVSPropertyOp13
 70
     1
102
RTVSPropertyOp14
 70
     1
102
RTVSPropertyOp15
 70
     1
102
RTVSPropertyOp16
 70
     1
102
RTVSPropertyOp17
 70
     1
102
RTVSPropertyOp18
 70
     1
102
RTVSPropertyOp19
 70
     1
102
RTVSPropertyOp20
 70
     1
102
RTVSPropertyOp21
 70
     1
102
RTVSPropertyOp22
 70
     1
102
RTVSPropertyOp23
 70
     1
102
RTVSPropertyOp24
 70
     1
102
RTVSPropertyOp25
 70
     1
102
RTVSPropertyOp26
 70
     1
102
RTVSPropertyOp27
 70
     1
102
RTVSPropertyOp28
 70
     1
102
RTVSPropertyOp29
 70
     1
102
RTVSPropertyOp30
 70
     1
102
RTVSPropertyOp31
 70
     1
102
RTVSPropertyOp32
 70
     1
  0
XRECORD
  5
5EC
102
{ACAD_REACTORS
330
5EB
102
}
330
5EB
100
AcDbXrecord
280
     1
102
RTVSPropertyOp0
 70
     1
102
RTVSPropertyOp1
 70
     1
102
RTVSPropertyOp2
 70
     1
102
RTVSPropertyOp3
 70
     1
102
RTVSPropertyOp4
 70
     1
102
RTVSPropertyOp5
 70
     1
102
RTVSPropertyOp6
 70
     1
102
RTVSPropertyOp7
 70
     1
102
RTVSPropertyOp8
 70
     1
102
RTVSPropertyOp9
 70
     1
102
RTVSPropertyOp10
 70
     1
102
RTVSPropertyOp11
 70
     1
102
RTVSPropertyOp12
 70
     1
102
RTVSPropertyOp13
 70
     1
102
RTVSPropertyOp14
 70
     1
102
RTVSPropertyOp15
 70
     1
102
RTVSPropertyOp16
 70
     1
102
RTVSPropertyOp17
 70
     1
102
RTVSPropertyOp18
 70
     1
102
RTVSPropertyOp19
 70
     1
102
RTVSPropertyOp20
 70
     1
102
RTVSPropertyOp21
 70
     1
102
RTVSPropertyOp22
 70
     1
102
RTVSPropertyOp23
 70
     1
102
RTVSPropertyOp24
 70
     1
102
RTVSPropertyOp25
 70
     1
102
RTVSPropertyOp26
 70
     1
102
RTVSPropertyOp27
 70
     1
102
RTVSPropertyOp28
 70
     1
102
RTVSPropertyOp29
 70
     1
102
RTVSPropertyOp30
 70
     1
102
RTVSPropertyOp31
 70
     1
102
RTVSPropertyOp32
 70
     1
  0
XRECORD
  5
5E6
102
{ACAD_REACTORS
330
5E5
102
}
330
5E5
100
AcDbXrecord
280
     1
102
RTVSPropertyOp0
 70
     1
102
RTVSPropertyOp1
 70
     1
102
RTVSPropertyOp2
 70
     1
102
RTVSPropertyOp3
 70
     1
102
RTVSPropertyOp4
 70
     1
102
RTVSPropertyOp5
 70
     1
102
RTVSPropertyOp6
 70
     1
102
RTVSPropertyOp7
 70
     1
102
RTVSPropertyOp8
 70
     1
102
RTVSPropertyOp9
 70
     1
102
RTVSPropertyOp10
 70
     1
102
RTVSPropertyOp11
 70
     1
102
RTVSPropertyOp12
 70
     1
102
RTVSPropertyOp13
 70
     1
102
RTVSPropertyOp14
 70
     1
102
RTVSPropertyOp15
 70
     1
102
RTVSPropertyOp16
 70
     1
102
RTVSPropertyOp17
 70
     1
102
RTVSPropertyOp18
 70
     1
102
RTVSPropertyOp19
 70
     1
102
RTVSPropertyOp20
 70
     1
102
RTVSPropertyOp21
 70
     1
102
RTVSPropertyOp22
 70
     1
102
RTVSPropertyOp23
 70
     1
102
RTVSPropertyOp24
 70
     1
102
RTVSPropertyOp25
 70
     1
102
RTVSPropertyOp26
 70
     1
102
RTVSPropertyOp27
 70
     1
102
RTVSPropertyOp28
 70
     1
102
RTVSPropertyOp29
 70
     1
102
RTVSPropertyOp30
 70
     1
102
RTVSPropertyOp31
 70
     1
102
RTVSPropertyOp32
 70
     1
  0
XRECORD
  5
5E8
102
{ACAD_REACTORS
330
5E7
102
}
330
5E7
100
AcDbXrecord
280
     1
102
RTVSPropertyOp0
 70
     1
102
RTVSPropertyOp1
 70
     1
102
RTVSPropertyOp2
 70
     1
102
RTVSPropertyOp3
 70
     1
102
RTVSPropertyOp4
 70
     1
102
RTVSPropertyOp5
 70
     1
102
RTVSPropertyOp6
 70
     1
102
RTVSPropertyOp7
 70
     1
102
RTVSPropertyOp8
 70
     1
102
RTVSPropertyOp9
 70
     1
102
RTVSPropertyOp10
 70
     1
102
RTVSPropertyOp11
 70
     1
102
RTVSPropertyOp12
 70
     1
102
RTVSPropertyOp13
 70
     1
102
RTVSPropertyOp14
 70
     1
102
RTVSPropertyOp15
 70
     1
102
RTVSPropertyOp16
 70
     1
102
RTVSPropertyOp17
 70
     1
102
RTVSPropertyOp18
 70
     1
102
RTVSPropertyOp19
 70
     1
102
RTVSPropertyOp20
 70
     1
102
RTVSPropertyOp21
 70
     1
102
RTVSPropertyOp22
 70
     1
102
RTVSPropertyOp23
 70
     1
102
RTVSPropertyOp24
 70
     1
102
RTVSPropertyOp25
 70
     1
102
RTVSPropertyOp26
 70
     1
102
RTVSPropertyOp27
 70
     1
102
RTVSPropertyOp28
 70
     1
102
RTVSPropertyOp29
 70
     1
102
RTVSPropertyOp30
 70
     1
102
RTVSPropertyOp31
 70
     1
102
RTVSPropertyOp32
 70
     1
  0
XRECORD
  5
5DE
102
{ACAD_REACTORS
330
5DD
102
}
330
5DD
100
AcDbXrecord
280
     1
102
RTVSPropertyOp0
 70
     1
102
RTVSPropertyOp1
 70
     1
102
RTVSPropertyOp2
 70
     1
102
RTVSPropertyOp3
 70
     1
102
RTVSPropertyOp4
 70
     1
102
RTVSPropertyOp5
 70
     1
102
RTVSPropertyOp6
 70
     1
102
RTVSPropertyOp7
 70
     1
102
RTVSPropertyOp8
 70
     1
102
RTVSPropertyOp9
 70
     1
102
RTVSPropertyOp10
 70
     1
102
RTVSPropertyOp11
 70
     1
102
RTVSPropertyOp12
 70
     1
102
RTVSPropertyOp13
 70
     1
102
RTVSPropertyOp14
 70
     1
102
RTVSPropertyOp15
 70
     1
102
RTVSPropertyOp16
 70
     1
102
RTVSPropertyOp17
 70
     1
102
RTVSPropertyOp18
 70
     1
102
RTVSPropertyOp19
 70
     1
102
RTVSPropertyOp20
 70
     1
102
RTVSPropertyOp21
 70
     1
102
RTVSPropertyOp22
 70
     1
102
RTVSPropertyOp23
 70
     1
102
RTVSPropertyOp24
 70
     1
102
RTVSPropertyOp25
 70
     1
102
RTVSPropertyOp26
 70
     1
102
RTVSPropertyOp27
 70
     1
102
RTVSPropertyOp28
 70
     1
102
RTVSPropertyOp29
 70
     1
102
RTVSPropertyOp30
 70
     1
102
RTVSPropertyOp31
 70
     1
102
RTVSPropertyOp32
 70
     1
  0
XRECORD
  5
5D2
102
{ACAD_REACTORS
330
5D1
102
}
330
5D1
100
AcDbXrecord
280
     1
102
RTVSPropertyOp0
 70
     1
102
RTVSPropertyOp1
 70
     1
102
RTVSPropertyOp2
 70
     1
102
RTVSPropertyOp3
 70
     1
102
RTVSPropertyOp4
 70
     1
102
RTVSPropertyOp5
 70
     1
102
RTVSPropertyOp6
 70
     1
102
RTVSPropertyOp7
 70
     1
102
RTVSPropertyOp8
 70
     1
102
RTVSPropertyOp9
 70
     1
102
RTVSPropertyOp10
 70
     1
102
RTVSPropertyOp11
 70
     1
102
RTVSPropertyOp12
 70
     1
102
RTVSPropertyOp13
 70
     1
102
RTVSPropertyOp14
 70
     1
102
RTVSPropertyOp15
 70
     1
102
RTVSPropertyOp16
 70
     1
102
RTVSPropertyOp17
 70
     1
102
RTVSPropertyOp18
 70
     1
102
RTVSPropertyOp19
 70
     1
102
RTVSPropertyOp20
 70
     1
102
RTVSPropertyOp21
 70
     1
102
RTVSPropertyOp22
 70
     1
102
RTVSPropertyOp23
 70
     1
102
RTVSPropertyOp24
 70
     1
102
RTVSPropertyOp25
 70
     1
102
RTVSPropertyOp26
 70
     1
102
RTVSPropertyOp27
 70
     1
102
RTVSPropertyOp28
 70
     1
102
RTVSPropertyOp29
 70
     1
102
RTVSPropertyOp30
 70
     1
102
RTVSPropertyOp31
 70
     1
102
RTVSPropertyOp32
 70
     1
  0
XRECORD
  5
5EA
102
{ACAD_REACTORS
330
5E9
102
}
330
5E9
100
AcDbXrecord
280
     1
102
RTVSPropertyOp0
 70
     1
102
RTVSPropertyOp1
 70
     1
102
RTVSPropertyOp2
 70
     1
102
RTVSPropertyOp3
 70
     1
102
RTVSPropertyOp4
 70
     1
102
RTVSPropertyOp5
 70
     1
102
RTVSPropertyOp6
 70
     1
102
RTVSPropertyOp7
 70
     1
102
RTVSPropertyOp8
 70
     1
102
RTVSPropertyOp9
 70
     1
102
RTVSPropertyOp10
 70
     1
102
RTVSPropertyOp11
 70
     1
102
RTVSPropertyOp12
 70
     1
102
RTVSPropertyOp13
 70
     1
102
RTVSPropertyOp14
 70
     1
102
RTVSPropertyOp15
 70
     1
102
RTVSPropertyOp16
 70
     1
102
RTVSPropertyOp17
 70
     1
102
RTVSPropertyOp18
 70
     1
102
RTVSPropertyOp19
 70
     1
102
RTVSPropertyOp20
 70
     1
102
RTVSPropertyOp21
 70
     1
102
RTVSPropertyOp22
 70
     1
102
RTVSPropertyOp23
 70
     1
102
RTVSPropertyOp24
 70
     1
102
RTVSPropertyOp25
 70
     1
102
RTVSPropertyOp26
 70
     1
102
RTVSPropertyOp27
 70
     1
102
RTVSPropertyOp28
 70
     1
102
RTVSPropertyOp29
 70
     1
102
RTVSPropertyOp30
 70
     1
102
RTVSPropertyOp31
 70
     1
102
RTVSPropertyOp32
 70
     1
  0
ENDSEC
  0
EOF
