  0
SECTION
  2
HEADER
  9
$ACADVER
  1
AC1021
  9
$ACADMAINTVER
 70
     1
  9
$DWGCODEPAGE
  3
ANSI_932
  9
$LASTSAVEDBY
  1
MAKITA
  9
$INSBASE
 10
0.0
 20
0.0
 30
0.0
  9
$EXTMIN
 10
-138.5194904184393
 20
-90.00647287037907
 30
-0.0000000349181948
  9
$EXTMAX
 10
138.5122490189362
 20
98.48252543966646
 30
0.0000000814935747
  9
$LIMMIN
 10
-138.501
 20
-90.00100000000001
  9
$LIMMAX
 10
138.510415
 20
98.47361800000001
  9
$ORTHOMODE
 70
     1
  9
$REGENMODE
 70
     1
  9
$FILLMODE
 70
     1
  9
$QTEXTMODE
 70
     0
  9
$MIRRTEXT
 70
     0
  9
$LTSCALE
 40
4.616823999999998
  9
$ATTMODE
 70
     1
  9
$TEXTSIZE
 40
0.2
  9
$TRACEWID
 40
0.05
  9
$TEXTSTYLE
  7
STANDARD
  9
$CLAYER
  8
0
  9
$CELTYPE
  6
CONTINUOUS
  9
$CECOLOR
 62
   256
  9
$CELTSCALE
 40
1.0
  9
$DISPSILH
 70
     0
  9
$DIMSCALE
 40
1.0
  9
$DIMASZ
 40
0.18
  9
$DIMEXO
 40
0.0625
  9
$DIMDLI
 40
0.38
  9
$DIMRND
 40
0.0
  9
$DIMDLE
 40
0.0
  9
$DIMEXE
 40
0.18
  9
$DIMTP
 40
0.0
  9
$DIMTM
 40
0.0
  9
$DIMTXT
 40
0.18
  9
$DIMCEN
 40
0.09
  9
$DIMTSZ
 40
0.0
  9
$DIMTOL
 70
     0
  9
$DIMLIM
 70
     0
  9
$DIMTIH
 70
     1
  9
$DIMTOH
 70
     1
  9
$DIMSE1
 70
     0
  9
$DIMSE2
 70
     0
  9
$DIMTAD
 70
     0
  9
$DIMZIN
 70
     0
  9
$DIMBLK
  1

  9
$DIMASO
 70
     1
  9
$DIMSHO
 70
     1
  9
$DIMPOST
  1

  9
$DIMAPOST
  1

  9
$DIMALT
 70
     0
  9
$DIMALTD
 70
     2
  9
$DIMALTF
 40
25.4
  9
$DIMLFAC
 40
1.0
  9
$DIMTOFL
 70
     0
  9
$DIMTVP
 40
0.0
  9
$DIMTIX
 70
     0
  9
$DIMSOXD
 70
     0
  9
$DIMSAH
 70
     0
  9
$DIMBLK1
  1

  9
$DIMBLK2
  1

  9
$DIMSTYLE
  2
Standard
  9
$DIMCLRD
 70
     0
  9
$DIMCLRE
 70
     0
  9
$DIMCLRT
 70
     0
  9
$DIMTFAC
 40
1.0
  9
$DIMGAP
 40
0.09
  9
$DIMJUST
 70
     0
  9
$DIMSD1
 70
     0
  9
$DIMSD2
 70
     0
  9
$DIMTOLJ
 70
     1
  9
$DIMTZIN
 70
     0
  9
$DIMALTZ
 70
     0
  9
$DIMALTTZ
 70
     0
  9
$DIMUPT
 70
     0
  9
$DIMDEC
 70
     4
  9
$DIMTDEC
 70
     4
  9
$DIMALTU
 70
     2
  9
$DIMALTTD
 70
     2
  9
$DIMTXSTY
  7
STANDARD
  9
$DIMAUNIT
 70
     0
  9
$DIMADEC
 70
     0
  9
$DIMALTRND
 40
0.0
  9
$DIMAZIN
 70
     0
  9
$DIMDSEP
 70
    46
  9
$DIMATFIT
 70
     3
  9
$DIMFRAC
 70
     0
  9
$DIMLDRBLK
  1

  9
$DIMLUNIT
 70
     2
  9
$DIMLWD
 70
    -2
  9
$DIMLWE
 70
    -2
  9
$DIMTMOVE
 70
     0
  9
$DIMFXL
 40
1.25
  9
$DIMFXLON
 70
     0
  9
$DIMJOGANG
 40
1.570796326794896
  9
$DIMTFILL
 70
     0
  9
$DIMTFILLCLR
 70
     0
  9
$DIMARCSYM
 70
     2
  9
$DIMLTYPE
  6

  9
$DIMLTEX1
  6

  9
$DIMLTEX2
  6

  9
$LUNITS
 70
     2
  9
$LUPREC
 70
     4
  9
$SKETCHINC
 40
0.1
  9
$FILLETRAD
 40
0.0
  9
$AUNITS
 70
     0
  9
$AUPREC
 70
     0
  9
$MENU
  1
.
  9
$ELEVATION
 40
0.0
  9
$PELEVATION
 40
0.0
  9
$THICKNESS
 40
0.0
  9
$LIMCHECK
 70
     0
  9
$CHAMFERA
 40
0.0
  9
$CHAMFERB
 40
0.0
  9
$CHAMFERC
 40
0.0
  9
$CHAMFERD
 40
0.0
  9
$SKPOLY
 70
     0
  9
$TDCREATE
 40
2456352.424256308
  9
$TDUCREATE
 40
2456352.049256308
  9
$TDUPDATE
 40
2456759.758191042
  9
$TDUUPDATE
 40
2456759.383191042
  9
$TDINDWG
 40
0.0082369907
  9
$TDUSRTIMER
 40
0.0082267014
  9
$USRTIMER
 70
     1
  9
$ANGBASE
 50
0.0
  9
$ANGDIR
 70
     0
  9
$PDMODE
 70
     0
  9
$PDSIZE
 40
0.0
  9
$PLINEWID
 40
0.0
  9
$SPLFRAME
 70
     0
  9
$SPLINETYPE
 70
     6
  9
$SPLINESEGS
 70
     8
  9
$HANDSEED
  5
6A1
  9
$SURFTAB1
 70
     6
  9
$SURFTAB2
 70
     6
  9
$SURFTYPE
 70
     6
  9
$SURFU
 70
     6
  9
$SURFV
 70
     6
  9
$UCSBASE
  2

  9
$UCSNAME
  2

  9
$UCSORG
 10
0.0
 20
0.0
 30
0.0
  9
$UCSXDIR
 10
1.0
 20
0.0
 30
0.0
  9
$UCSYDIR
 10
0.0
 20
1.0
 30
0.0
  9
$UCSORTHOREF
  2

  9
$UCSORTHOVIEW
 70
     0
  9
$UCSORGTOP
 10
0.0
 20
0.0
 30
0.0
  9
$UCSORGBOTTOM
 10
0.0
 20
0.0
 30
0.0
  9
$UCSORGLEFT
 10
0.0
 20
0.0
 30
0.0
  9
$UCSORGRIGHT
 10
0.0
 20
0.0
 30
0.0
  9
$UCSORGFRONT
 10
0.0
 20
0.0
 30
0.0
  9
$UCSORGBACK
 10
0.0
 20
0.0
 30
0.0
  9
$PUCSBASE
  2

  9
$PUCSNAME
  2

  9
$PUCSORG
 10
0.0
 20
0.0
 30
0.0
  9
$PUCSXDIR
 10
1.0
 20
0.0
 30
0.0
  9
$PUCSYDIR
 10
0.0
 20
1.0
 30
0.0
  9
$PUCSORTHOREF
  2

  9
$PUCSORTHOVIEW
 70
     0
  9
$PUCSORGTOP
 10
0.0
 20
0.0
 30
0.0
  9
$PUCSORGBOTTOM
 10
0.0
 20
0.0
 30
0.0
  9
$PUCSORGLEFT
 10
0.0
 20
0.0
 30
0.0
  9
$PUCSORGRIGHT
 10
0.0
 20
0.0
 30
0.0
  9
$PUCSORGFRONT
 10
0.0
 20
0.0
 30
0.0
  9
$PUCSORGBACK
 10
0.0
 20
0.0
 30
0.0
  9
$USERI1
 70
     0
  9
$USERI2
 70
     0
  9
$USERI3
 70
     0
  9
$USERI4
 70
     0
  9
$USERI5
 70
     0
  9
$USERR1
 40
0.0
  9
$USERR2
 40
0.0
  9
$USERR3
 40
0.0
  9
$USERR4
 40
0.0
  9
$USERR5
 40
0.0
  9
$WORLDVIEW
 70
     1
  9
$SHADEDGE
 70
     3
  9
$SHADEDIF
 70
    70
  9
$TILEMODE
 70
     1
  9
$MAXACTVP
 70
    64
  9
$PINSBASE
 10
0.0
 20
0.0
 30
0.0
  9
$PLIMCHECK
 70
     0
  9
$PEXTMIN
 10
1.000000000000000E+20
 20
1.000000000000000E+20
 30
1.000000000000000E+20
  9
$PEXTMAX
 10
-1.000000000000000E+20
 20
-1.000000000000000E+20
 30
-1.000000000000000E+20
  9
$PLIMMIN
 10
0.0
 20
0.0
  9
$PLIMMAX
 10
12.0
 20
9.0
  9
$UNITMODE
 70
     0
  9
$VISRETAIN
 70
     1
  9
$PLINEGEN
 70
     0
  9
$PSLTSCALE
 70
     1
  9
$TREEDEPTH
 70
  3020
  9
$CMLSTYLE
  2
Standard
  9
$CMLJUST
 70
     0
  9
$CMLSCALE
 40
1.0
  9
$PROXYGRAPHICS
 70
     1
  9
$MEASUREMENT
 70
     0
  9
$CELWEIGHT
370
    -1
  9
$ENDCAPS
280
     0
  9
$JOINSTYLE
280
     0
  9
$LWDISPLAY
290
     0
  9
$INSUNITS
 70
     0
  9
$HYPERLINKBASE
  1

  9
$STYLESHEET
  1
n-plot.ctb
  9
$XEDIT
290
     1
  9
$CEPSNTYPE
380
     0
  9
$PSTYLEMODE
290
     1
  9
$FINGERPRINTGUID
  2
{C0BE70BE-7B16-43BA-B180-C5EB1C37942B}
  9
$VERSIONGUID
  2
{05BDCB48-EA82-4B0B-B941-8F8206F76FAC}
  9
$EXTNAMES
290
     1
  9
$PSVPSCALE
 40
0.0
  9
$OLESTARTUP
290
     0
  9
$SORTENTS
280
   127
  9
$INDEXCTL
280
     0
  9
$HIDETEXT
280
     0
  9
$XCLIPFRAME
290
     0
  9
$HALOGAP
280
     0
  9
$OBSCOLOR
 70
   257
  9
$OBSLTYPE
280
     0
  9
$INTERSECTIONDISPLAY
280
     0
  9
$INTERSECTIONCOLOR
 70
   257
  9
$DIMASSOC
280
     1
  9
$PROJECTNAME
  1

  9
$CAMERADISPLAY
290
     0
  9
$LENSLENGTH
 40
50.0
  9
$CAMERAHEIGHT
 40
0.0
  9
$STEPSPERSEC
 40
2.0
  9
$STEPSIZE
 40
6.0
  9
$3DDWFPREC
 40
2.0
  9
$PSOLWIDTH
 40
0.25
  9
$PSOLHEIGHT
 40
4.0
  9
$LOFTANG1
 40
1.570796326794896
  9
$LOFTANG2
 40
1.570796326794896
  9
$LOFTMAG1
 40
0.0
  9
$LOFTMAG2
 40
0.0
  9
$LOFTPARAM
 70
     7
  9
$LOFTNORMALS
280
     1
  9
$LATITUDE
 40
37.795
  9
$LONGITUDE
 40
-122.394
  9
$NORTHDIRECTION
 40
0.0
  9
$TIMEZONE
 70
 -8000
  9
$LIGHTGLYPHDISPLAY
280
     1
  9
$TILEMODELIGHTSYNCH
280
     1
  9
$CMATERIAL
347
11
  9
$SOLIDHIST
280
     1
  9
$SHOWHIST
280
     1
  9
$DWFFRAME
280
     2
  9
$DGNFRAME
280
     0
  9
$REALWORLDSCALE
290
     1
  9
$INTERFERECOLOR
 62
     1
  9
$INTERFEREOBJVS
345
33
  9
$INTERFEREVPVS
346
41D
  9
$CSHADOW
280
     0
  9
$SHADOWPLANELOCATION
 40
0.0
  0
ENDSEC
  0
SECTION
  2
CLASSES
  0
CLASS
  1
ACDBDICTIONARYWDFLT
  2
AcDbDictionaryWithDefault
  3
ObjectDBX Classes
 90
        0
 91
        1
280
     0
281
     0
  0
CLASS
  1
MATERIAL
  2
AcDbMaterial
  3
ObjectDBX Classes
 90
     1024
 91
        3
280
     0
281
     0
  0
CLASS
  1
VISUALSTYLE
  2
AcDbVisualStyle
  3
ObjectDBX Classes
 90
     4095
 91
       26
280
     0
281
     0
  0
CLASS
  1
SCALE
  2
AcDbScale
  3
ObjectDBX Classes
 90
     1153
 91
       17
280
     0
281
     0
  0
CLASS
  1
TABLESTYLE
  2
AcDbTableStyle
  3
ObjectDBX Classes
 90
     4095
 91
        1
280
     0
281
     0
  0
CLASS
  1
MLEADERSTYLE
  2
AcDbMLeaderStyle
  3
ACDB_MLEADERSTYLE_CLASS
 90
     4095
 91
        1
280
     0
281
     0
  0
CLASS
  1
SORTENTSTABLE
  2
AcDbSortentsTable
  3
ObjectDBX Classes
 90
        0
 91
        1
280
     0
281
     0
  0
CLASS
  1
DICTIONARYVAR
  2
AcDbDictionaryVar
  3
ObjectDBX Classes
 90
        0
 91
        7
280
     0
281
     0
  0
CLASS
  1
CELLSTYLEMAP
  2
AcDbCellStyleMap
  3
ObjectDBX Classes
 90
     1152
 91
        1
280
     0
281
     0
  0
CLASS
  1
ACDBPLACEHOLDER
  2
AcDbPlaceHolder
  3
ObjectDBX Classes
 90
        0
 91
        1
280
     0
281
     0
  0
CLASS
  1
LAYOUT
  2
AcDbLayout
  3
ObjectDBX Classes
 90
        0
 91
        2
280
     0
281
     0
  0
ENDSEC
  0
SECTION
  2
TABLES
  0
TABLE
  2
VPORT
  5
8
330
0
100
AcDbSymbolTable
 70
     1
  0
VPORT
  5
8B
330
8
100
AcDbSymbolTableRecord
100
AcDbViewportTableRecord
  2
*Active
 70
     0
 10
0.0
 20
0.0
 11
1.0
 21
1.0
 12
-0.0036206997515347
 22
4.238026284643694
 13
0.0
 23
0.0
 14
1.0
 24
1.0
 15
0.0
 25
0.0
 16
0.0
 26
0.0
 36
1.0
 17
0.0
 27
0.0
 37
0.0
 40
190.0707241699899
 41
1.588235294117646
 42
50.0
 43
0.0
 44
0.0
 50
0.0
 51
0.0
 71
     0
 72
   100
 73
     1
 74
     1
 75
     0
 76
     0
 77
     0
 78
     0
281
     0
 65
     1
110
0.0
120
0.0
130
0.0
111
1.0
121
0.0
131
0.0
112
0.0
122
1.0
132
0.0
 79
     0
146
0.0
348
2F
 60
     3
 61
     5
292
     1
282
     1
141
0.0
142
0.0
 63
   250
421
  3355443
  0
ENDTAB
  0
TABLE
  2
LTYPE
  5
5
330
0
100
AcDbSymbolTable
 70
     2
  0
LTYPE
  5
5A
330
5
100
AcDbSymbolTableRecord
100
AcDbLinetypeTableRecord
  2
ByBlock
 70
     0
  3

 72
    65
 73
     0
 40
0.0
  0
LTYPE
  5
5B
330
5
100
AcDbSymbolTableRecord
100
AcDbLinetypeTableRecord
  2
ByLayer
 70
     0
  3

 72
    65
 73
     0
 40
0.0
  0
LTYPE
  5
5C
330
5
100
AcDbSymbolTableRecord
100
AcDbLinetypeTableRecord
  2
CONTINUOUS
 70
     0
  3
Solid-line
 72
    65
 73
     0
 40
0.0
  0
LTYPE
  5
81
330
5
100
AcDbSymbolTableRecord
100
AcDbLinetypeTableRecord
  2
HIDDEN
 70
     0
  3
HIDDEN
 72
    65
 73
     2
 40
0.375
 49
0.25
 74
     0
 49
-0.125
 74
     0
  0
ENDTAB
  0
TABLE
  2
LAYER
  5
2
102
{ACAD_XDICTIONARY
360
420
102
}
330
0
100
AcDbSymbolTable
 70
     2
  0
LAYER
  5
54
102
{ACAD_XDICTIONARY
360
5C4
102
}
330
2
100
AcDbSymbolTableRecord
100
AcDbLayerTableRecord
  2
0
 70
     0
 62
     7
  6
CONTINUOUS
370
    -3
390
F
347
21
  0
LAYER
  5
409
330
2
100
AcDbSymbolTableRecord
100
AcDbLayerTableRecord
  2
Defpoints
 70
     0
 62
     7
  6
CONTINUOUS
290
     0
370
    -3
390
F
347
21
  0
ENDTAB
  0
TABLE
  2
STYLE
  5
3
330
0
100
AcDbSymbolTable
 70
     7
  0
STYLE
  5
55
330
3
100
AcDbSymbolTableRecord
100
AcDbTextStyleTableRecord
  2
STANDARD
 70
     0
 40
0.0
 41
1.0
 50
0.0
 71
     0
 42
0.2
  3
TXT
  4
BIGFONT
  0
STYLE
  5
40A
330
3
100
AcDbSymbolTableRecord
100
AcDbTextStyleTableRecord
  2
高3.2
 70
     0
 40
3.2
 41
1.0
 50
0.0
 71
     0
 42
3.2
  3
txt.shx
  4
bigfont.shx
  0
STYLE
  5
40B
330
3
100
AcDbSymbolTableRecord
100
AcDbTextStyleTableRecord
  2
高6.3
 70
     0
 40
6.299999999999998
 41
1.0
 50
0.0
 71
     0
 42
6.299999999999998
  3
txt.shx
  4
bigfont.shx
  0
STYLE
  5
40D
330
3
100
AcDbSymbolTableRecord
100
AcDbTextStyleTableRecord
  2
高4.5
 70
     0
 40
4.5
 41
1.0
 50
0.0
 71
     0
 42
6.299999999999998
  3
txt.shx
  4
bigfont.shx
  0
STYLE
  5
40E
330
3
100
AcDbSymbolTableRecord
100
AcDbTextStyleTableRecord
  2
高2
 70
     0
 40
2.0
 41
1.0
 50
0.0
 71
     0
 42
2.0
  3
txt.shx
  4
bigfont.shx
  0
ENDTAB
  0
TABLE
  2
VIEW
  5
6
330
0
100
AcDbSymbolTable
 70
     0
  0
ENDTAB
  0
TABLE
  2
UCS
  5
7
330
0
100
AcDbSymbolTable
 70
     0
  0
ENDTAB
  0
TABLE
  2
APPID
  5
9
330
0
100
AcDbSymbolTable
 70
    11
  0
APPID
  5
56
330
9
100
AcDbSymbolTableRecord
100
AcDbRegAppTableRecord
  2
ACAD
 70
     0
  0
APPID
  5
5D
330
9
100
AcDbSymbolTableRecord
100
AcDbRegAppTableRecord
  2
AcadAnnotative
 70
     0
  0
APPID
  5
419
330
9
100
AcDbSymbolTableRecord
100
AcDbRegAppTableRecord
  2
ACAD_DSTYLE_DIMJOGGED_JOGANGLE_SYMBOL
 70
     0
  0
APPID
  5
41A
330
9
100
AcDbSymbolTableRecord
100
AcDbRegAppTableRecord
  2
ACAD_DSTYLE_DIMJAG
 70
     0
  0
APPID
  5
41B
330
9
100
AcDbSymbolTableRecord
100
AcDbRegAppTableRecord
  2
ACAD_DSTYLE_DIMBREAK
 70
     0
  0
APPID
  5
41C
330
9
100
AcDbSymbolTableRecord
100
AcDbRegAppTableRecord
  2
ACAD_DSTYLE_DIMTALN
 70
     0
  0
APPID
  5
560
330
9
100
AcDbSymbolTableRecord
100
AcDbRegAppTableRecord
  2
ACAD_EXEMPT_FROM_CAD_STANDARDS
 70
     0
  0
APPID
  5
606
330
9
100
AcDbSymbolTableRecord
100
AcDbRegAppTableRecord
  2
ACAD_MLEADERVER
 70
     0
  0
APPID
  5
60B
330
9
100
AcDbSymbolTableRecord
100
AcDbRegAppTableRecord
  2
ACAD_DSTYLE_DIMARC_LENGTH_SYMBOL
 70
     0
  0
APPID
  5
60C
330
9
100
AcDbSymbolTableRecord
100
AcDbRegAppTableRecord
  2
ACAD_DSTYLE_DIMEXT_LENGTH
 70
     0
  0
APPID
  5
690
330
9
100
AcDbSymbolTableRecord
100
AcDbRegAppTableRecord
  2
ACAD_PSEXT
 70
     0
  0
ENDTAB
  0
TABLE
  2
DIMSTYLE
  5
A
330
0
100
AcDbSymbolTable
 70
     4
100
AcDbDimStyleTable
 71
     2
340
57
340
418
  0
DIMSTYLE
105
57
330
A
100
AcDbSymbolTableRecord
100
AcDbDimStyleTableRecord
  2
Standard
 70
     0
340
55
  0
DIMSTYLE
105
418
330
A
100
AcDbSymbolTableRecord
100
AcDbDimStyleTableRecord
  2
FREE
 70
     0
 41
2.5
 42
0.25
 43
0.2
 44
1.25
 49
1.25
 50
89.99999999999998
 73
     0
 74
     0
 77
     3
 78
     8
 79
     2
 90
     2
140
3.0
141
0.0
143
0.03937007874016
147
0.625
171
     3
172
     1
178
     4
179
     1
271
     2
272
     2
274
     3
283
     0
284
     8
288
     1
289
     0
340
55
341
379
342
379
1001
ACAD_DSTYLE_DIMBREAK
1070
   391
1040
3.75
1001
ACAD_DSTYLE_DIMJAG
1070
   388
1040
1.5
1001
ACAD_DSTYLE_DIMTALN
1070
   392
1070
     0
1001
ACAD_DSTYLE_DIMJOGGED_JOGANGLE_SYMBOL
1070
   384
1040
1.570796326794896
  0
ENDTAB
  0
TABLE
  2
BLOCK_RECORD
  5
1
330
0
100
AcDbSymbolTable
 70
     5
  0
BLOCK_RECORD
  5
6B
102
{ACAD_XDICTIONARY
360
666
102
}
330
1
100
AcDbSymbolTableRecord
100
AcDbBlockTableRecord
  2
*Model_Space
340
6E
 70
     0
280
     1
281
     0
  0
BLOCK_RECORD
  5
67
330
1
100
AcDbSymbolTableRecord
100
AcDbBlockTableRecord
  2
*Paper_Space
340
6A
 70
     0
280
     1
281
     0
  0
BLOCK_RECORD
  5
379
330
1
100
AcDbSymbolTableRecord
100
AcDbBlockTableRecord
  2
_Open30
340
0
102
{BLKREFS
331
617
331
618
331
620
331
621
102
}
 70
     0
280
     1
281
     0
  0
BLOCK_RECORD
  5
568
330
1
100
AcDbSymbolTableRecord
100
AcDbBlockTableRecord
  2
*D1
340
0
 70
     0
280
     1
281
     0
  0
BLOCK_RECORD
  5
575
330
1
100
AcDbSymbolTableRecord
100
AcDbBlockTableRecord
  2
*D2
340
0
 70
     0
280
     1
281
     0
  0
ENDTAB
  0
ENDSEC
  0
SECTION
  2
BLOCKS
  0
BLOCK
  5
6C
330
6B
100
AcDbEntity
  8
0
100
AcDbBlockBegin
  2
*Model_Space
 70
     0
 10
0.0
 20
0.0
 30
0.0
  3
*Model_Space
  1

  0
ENDBLK
  5
6D
330
6B
100
AcDbEntity
  8
0
100
AcDbBlockEnd
  0
BLOCK
  5
68
330
67
100
AcDbEntity
 67
     1
  8
0
100
AcDbBlockBegin
  2
*Paper_Space
 70
     0
 10
0.0
 20
0.0
 30
0.0
  3
*Paper_Space
  1

  0
ENDBLK
  5
69
330
67
100
AcDbEntity
 67
     1
  8
0
100
AcDbBlockEnd
  0
BLOCK
  5
37A
330
379
100
AcDbEntity
  8
0
100
AcDbBlockBegin
  2
_Open30
 70
     0
 10
0.0
 20
0.0
 30
0.0
  3
_Open30
  1

  0
LINE
  5
37B
330
379
100
AcDbEntity
  8
0
  6
ByBlock
 62
     0
370
    -2
100
AcDbLine
 10
-1.0
 20
0.267949
 30
0.0
 11
0.0
 21
0.0
 31
0.0
  0
LINE
  5
37C
330
379
100
AcDbEntity
  8
0
  6
ByBlock
 62
     0
370
    -2
100
AcDbLine
 10
0.0
 20
0.0
 30
0.0
 11
-1.0
 21
-0.267949
 31
0.0
  0
LINE
  5
37D
330
379
100
AcDbEntity
  8
0
  6
ByBlock
 62
     0
370
    -2
100
AcDbLine
 10
0.0
 20
0.0
 30
0.0
 11
-1.0
 21
0.0
 31
0.0
  0
ENDBLK
  5
37E
330
379
100
AcDbEntity
  8
0
100
AcDbBlockEnd
  0
BLOCK
  5
569
330
568
100
AcDbEntity
  8
0
100
AcDbBlockBegin
  2
*D1
 70
     1
 10
0.0
 20
0.0
 30
0.0
  3
*D1
  1

  0
LINE
  5
614
330
568
100
AcDbEntity
  8
0
 62
     0
370
    -2
100
AcDbLine
 10
25.419731
 20
27.743894
 30
0.0
 11
25.419731
 21
-3.405438999999997
 31
0.0
  0
LINE
  5
615
330
568
100
AcDbEntity
  8
0
 62
     0
370
    -2
100
AcDbLine
 10
70.28870699999997
 20
18.145661
 30
0.0
 11
70.28870699999997
 21
-3.405438999999997
 31
0.0
  0
LINE
  5
616
330
568
100
AcDbEntity
  8
0
 62
     0
370
    -2
100
AcDbLine
 10
27.919731
 20
-2.155438999999998
 30
0.0
 11
67.78870699999997
 21
-2.155438999999998
 31
0.0
  0
INSERT
  5
617
330
568
100
AcDbEntity
  8
0
 62
     0
370
    -2
100
AcDbBlockReference
  2
_Open30
 10
25.419731
 20
-2.155438999999998
 30
0.0
 41
2.5
 42
2.5
 43
2.5
 50
180.0
  0
INSERT
  5
618
330
568
100
AcDbEntity
  8
0
 62
     0
370
    -2
100
AcDbBlockReference
  2
_Open30
 10
70.28870699999997
 20
-2.155438999999998
 30
0.0
 41
2.5
 42
2.5
 43
2.5
  0
MTEXT
  5
619
330
568
100
AcDbEntity
  8
0
 62
     4
100
AcDbMText
 10
47.85421899999998
 20
-0.030438999999999
 30
0.0
 40
3.0
 41
0.0
 46
0.0
 71
     5
 72
     1
  1
120
 73
     1
 44
1.0
  0
POINT
  5
61A
330
568
100
AcDbEntity
  8
Defpoints
 62
     0
100
AcDbPoint
 10
25.419731
 20
27.993894
 30
0.0
  0
POINT
  5
61B
330
568
100
AcDbEntity
  8
Defpoints
 62
     0
100
AcDbPoint
 10
70.28870699999997
 20
18.395661
 30
0.0
  0
POINT
  5
61C
330
568
100
AcDbEntity
  8
Defpoints
 62
     0
100
AcDbPoint
 10
70.28870699999997
 20
-2.155438999999998
 30
0.0
  0
ENDBLK
  5
56A
330
568
100
AcDbEntity
  8
0
100
AcDbBlockEnd
  0
BLOCK
  5
576
330
575
100
AcDbEntity
  8
0
100
AcDbBlockBegin
  2
*D2
 70
     1
 10
0.0
 20
0.0
 30
0.0
  3
*D2
  1

  0
LINE
  5
61D
330
575
100
AcDbEntity
  8
0
 62
     0
370
    -2
100
AcDbLine
 10
-108.073365
 20
20.958387
 30
0.0
 11
-108.073365
 21
-3.405438999999997
 31
0.0
  0
LINE
  5
61E
330
575
100
AcDbEntity
  8
0
 62
     0
370
    -2
100
AcDbLine
 10
25.419731
 20
27.743894
 30
0.0
 11
25.419731
 21
-3.405438999999997
 31
0.0
  0
LINE
  5
61F
330
575
100
AcDbEntity
  8
0
 62
     0
370
    -2
100
AcDbLine
 10
-105.573365
 20
-2.155438999999998
 30
0.0
 11
22.91973099999999
 21
-2.155438999999998
 31
0.0
  0
INSERT
  5
620
330
575
100
AcDbEntity
  8
0
 62
     0
370
    -2
100
AcDbBlockReference
  2
_Open30
 10
-108.073365
 20
-2.155438999999998
 30
0.0
 41
2.5
 42
2.5
 43
2.5
 50
180.0
  0
INSERT
  5
621
330
575
100
AcDbEntity
  8
0
 62
     0
370
    -2
100
AcDbBlockReference
  2
_Open30
 10
25.419731
 20
-2.155438999999998
 30
0.0
 41
2.5
 42
2.5
 43
2.5
  0
MTEXT
  5
622
330
575
100
AcDbEntity
  8
0
 62
     4
100
AcDbMText
 10
-41.326817
 20
-0.030438999999999
 30
0.0
 40
3.0
 41
0.0
 46
0.0
 71
     5
 72
     1
  1
380
 73
     1
 44
1.0
  0
POINT
  5
623
330
575
100
AcDbEntity
  8
Defpoints
 62
     0
100
AcDbPoint
 10
-108.073365
 20
21.208387
 30
0.0
  0
POINT
  5
624
330
575
100
AcDbEntity
  8
Defpoints
 62
     0
100
AcDbPoint
 10
25.419731
 20
27.993894
 30
0.0
  0
POINT
  5
625
330
575
100
AcDbEntity
  8
Defpoints
 62
     0
100
AcDbPoint
 10
25.419731
 20
-2.155438999999998
 30
0.0
  0
ENDBLK
  5
577
330
575
100
AcDbEntity
  8
0
100
AcDbBlockEnd
  0
ENDSEC
  0
SECTION
  2
ENTITIES
  0
LINE
  5
AE
330
6B
100
AcDbEntity
  8
0
 62
     3
100
AcDbLine
 10
0.0
 20
98.472617
 30
0.0
 11
0.0
 21
97.224058
 31
0.0
  0
LINE
  5
AF
330
6B
100
AcDbEntity
  8
0
 62
     3
100
AcDbLine
 10
-123.292214
 20
48.10378
 30
0.0
 11
-123.292214
 21
50.49253
 31
0.0
  0
LINE
  5
B0
330
6B
100
AcDbEntity
  8
0
 62
     3
100
AcDbLine
 10
34.720428
 20
24.565581
 30
0.0
 11
35.203911
 21
24.565581
 31
0.0
  0
LINE
  5
B1
330
6B
100
AcDbEntity
  8
0
 62
     3
100
AcDbLine
 10
33.995204
 20
25.290805
 30
0.0
 11
33.995204
 21
33.510016
 31
0.0
  0
LINE
  5
B2
330
6B
100
AcDbEntity
  8
0
 62
     3
100
AcDbLine
 10
35.203911
 20
34.235241
 30
0.0
 11
34.720428
 21
34.235241
 31
0.0
  0
LINE
  5
B3
330
6B
100
AcDbEntity
  8
0
  6
HIDDEN
 62
    15
100
AcDbLine
 10
62.520701
 20
39.037643
 30
0.0
 11
62.520701
 21
39.070071
 31
0.0
  0
ARC
  5
B4
330
6B
100
AcDbEntity
  8
0
 62
     3
100
AcDbCircle
 10
64.970394
 20
38.209176
 30
0.0
 40
1.933932
100
AcDbArc
 50
90.0
 51
180.0
  0
ARC
  5
B5
330
6B
100
AcDbEntity
  8
0
 62
     3
100
AcDbCircle
 10
66.179102
 20
18.848813
 30
0.0
 40
0.4834830000000001
100
AcDbArc
 50
180.0
 51
0.0
  0
ARC
  5
B6
330
6B
100
AcDbEntity
  8
0
 62
     3
100
AcDbCircle
 10
68.354775
 20
18.848813
 30
0.0
 40
0.4834830000000001
100
AcDbArc
 50
180.0
 51
249.597212
  0
LINE
  5
B7
330
6B
100
AcDbEntity
  8
0
 62
     3
100
AcDbLine
 10
64.970394
 20
18.848813
 30
0.0
 11
65.695619
 21
18.848813
 31
0.0
  0
LINE
  5
B8
330
6B
100
AcDbEntity
  8
0
 62
     3
100
AcDbLine
 10
66.66258499999999
 20
18.848813
 30
0.0
 11
67.87129200000001
 21
18.848813
 31
0.0
  0
ARC
  5
B9
330
6B
100
AcDbEntity
  8
0
 62
     3
100
AcDbCircle
 10
68.354775
 20
40.122065
 30
0.0
 40
0.4834830000000001
100
AcDbArc
 50
90.0
 51
180.0
  0
ARC
  5
BA
330
6B
100
AcDbEntity
  8
0
 62
     3
100
AcDbCircle
 10
66.179102
 20
40.122065
 30
0.0
 40
0.4834830000000001
100
AcDbArc
 50
0.0
 51
180.0
  0
LINE
  5
BB
330
6B
100
AcDbEntity
  8
0
 62
     3
100
AcDbLine
 10
64.970394
 20
40.122065
 30
0.0
 11
65.695619
 21
40.122065
 31
0.0
  0
LINE
  5
BC
330
6B
100
AcDbEntity
  8
0
 62
     3
100
AcDbLine
 10
66.66258499999999
 20
40.122065
 30
0.0
 11
67.87129200000001
 21
40.122065
 31
0.0
  0
ARC
  5
BD
330
6B
100
AcDbEntity
  8
0
 62
     3
100
AcDbCircle
 10
64.89562099999999
 20
20.766331
 30
0.0
 40
1.933932
100
AcDbArc
 50
192.03329
 51
270.0
  0
ARC
  5
BE
330
6B
100
AcDbEntity
  8
0
 62
     3
100
AcDbCircle
 10
34.720428
 20
33.510016
 30
0.0
 40
0.725225
100
AcDbArc
 50
90.0
 51
180.0
  0
ARC
  5
BF
330
6B
100
AcDbEntity
  8
0
 62
     3
100
AcDbCircle
 10
34.720428
 20
25.290805
 30
0.0
 40
0.725225
100
AcDbArc
 50
180.0
 51
270.0
  0
LINE
  5
C0
330
6B
100
AcDbEntity
  8
0
 62
     3
100
AcDbLine
 10
68.354775
 20
40.605548
 30
0.0
 11
70.28870699999997
 21
40.605548
 31
0.0
  0
LINE
  5
C1
330
6B
100
AcDbEntity
  8
0
 62
     3
100
AcDbLine
 10
68.186225
 20
18.395661
 30
0.0
 11
70.28870699999997
 21
18.395661
 31
0.0
  0
LINE
  5
C2
330
6B
100
AcDbEntity
  8
0
 62
     3
100
AcDbLine
 10
70.28870699999997
 20
40.605548
 30
0.0
 11
70.28870699999997
 21
18.395661
 31
0.0
  0
LINE
  5
C3
330
6B
100
AcDbEntity
  8
0
 62
     3
100
AcDbLine
 10
64.970394
 20
18.848813
 30
0.0
 11
64.89562099999999
 21
18.848813
 31
0.0
  0
TEXT
  5
C4
330
6B
100
AcDbEntity
  8
0
 62
     3
100
AcDbText
 10
-56.91589225328726
 20
-26.45198926014285
 30
0.0
 40
4.5
  1
電　線　仕　様
  7
高4.5
100
AcDbText
  0
LINE
  5
C5
330
6B
100
AcDbEntity
  8
0
 62
     3
100
AcDbLine
 10
-69.48002599999999
 20
-61.23041800000001
 30
0.0
 11
-5.795320830988011
 21
-61.23041800000001
 31
0.0
  0
TEXT
  5
C6
330
6B
100
AcDbEntity
  8
0
 62
     3
100
AcDbText
 10
-67.980026
 20
-44.73041799999999
 30
0.0
 40
4.5
  1
電線種類
  7
高4.5
100
AcDbText
  0
TEXT
  5
C7
330
6B
100
AcDbEntity
  8
0
 62
     3
100
AcDbText
 10
-67.980026
 20
-60.73041800000001
 30
0.0
 40
4.5
  1
電線長さ
  7
高4.5
100
AcDbText
  0
TEXT
  5
C8
330
6B
100
AcDbEntity
  8
0
 62
     3
100
AcDbText
 10
-67.980026
 20
-52.73041800000001
 30
0.0
 40
4.5
  1
サイズ
  7
高4.5
100
AcDbText
  0
LINE
  5
C9
330
6B
100
AcDbEntity
  8
0
 62
     3
100
AcDbLine
 10
-5.795320830988011
 20
-61.23041800000001
 30
0.0
 11
-5.795320830988011
 21
-29.230418
 31
0.0
  0
LINE
  5
CA
330
6B
100
AcDbEntity
  8
0
 62
     3
100
AcDbLine
 10
-69.48002599999999
 20
-61.23041800000001
 30
0.0
 11
-69.48002599999999
 21
-29.230418
 31
0.0
  0
TEXT
  5
CB
330
6B
100
AcDbEntity
  8
0
 62
     3
100
AcDbText
 10
-43.83493309788567
 20
-60.73041800000001
 30
0.0
 40
4.5
  1
0.5m
  7
高4.5
100
AcDbText
  0
TEXT
  5
CC
330
6B
100
AcDbEntity
  8
0
 62
     3
100
AcDbText
 10
43.30664399999998
 20
-58.46156099999999
 30
0.0
 40
4.5
  1
センサー付き電源コード
 41
0.7
  7
高4.5
100
AcDbText
  0
TEXT
  5
CD
330
6B
100
AcDbEntity
  8
0
 62
     3
100
AcDbText
 10
102.001169
 20
-79.26147999999997
 30
0.0
 40
3.2
  1
2003.4.18
  7
高3.2
100
AcDbText
  0
LINE
  5
D3
330
6B
100
AcDbEntity
  8
0
100
AcDbLine
 10
-97.227391
 20
21.214312
 30
0.0
 11
-91.343919
 21
12.861212
 31
0.0
  0
LINE
  5
D4
330
6B
100
AcDbEntity
  8
0
100
AcDbLine
 10
-91.343919
 20
12.861212
 30
0.0
 11
-72.09391899999999
 21
12.861212
 31
0.0
  0
TEXT
  5
D5
330
6B
100
AcDbEntity
  8
0
 62
     4
100
AcDbText
 10
-88.593919
 20
13.861212
 30
0.0
 40
3.2
  1
PS-00
  7
高3.2
100
AcDbText
  0
LINE
  5
D6
330
6B
100
AcDbEntity
  8
0
 62
     3
100
AcDbLine
 10
103.87263
 20
13.156649
 30
0.0
 11
103.87263
 21
16.90900199999999
 31
0.0
  0
LINE
  5
D7
330
6B
100
AcDbEntity
  8
0
 62
     3
100
AcDbLine
 10
98.55963
 20
13.156649
 30
0.0
 11
98.55963
 21
16.90900199999999
 31
0.0
  0
LINE
  5
D8
330
6B
100
AcDbEntity
  8
0
 62
     3
100
AcDbLine
 10
99.09093
 20
12.625349
 30
0.0
 11
103.34133
 21
12.625349
 31
0.0
  0
ARC
  5
D9
330
6B
100
AcDbEntity
  8
0
 62
     3
100
AcDbCircle
 10
103.34133
 20
13.156649
 30
0.0
 40
0.5313
100
AcDbArc
 50
270.0
 51
0.0
  0
ARC
  5
DA
330
6B
100
AcDbEntity
  8
0
 62
     3
100
AcDbCircle
 10
99.09093
 20
13.156649
 30
0.0
 40
0.5313
100
AcDbArc
 50
180.0
 51
270.0
  0
LINE
  5
DB
330
6B
100
AcDbEntity
  8
0
 62
     3
100
AcDbLine
 10
10.421231
 20
33.993294
 30
0.0
 11
10.421231
 21
24.660894
 31
0.0
  0
ARC
  5
DC
330
6B
100
AcDbEntity
  8
0
 62
     3
100
AcDbCircle
 10
21.596051
 20
25.327494
 30
0.0
 40
0.6666
100
AcDbArc
 50
270.0
 51
342.713035
  0
LINE
  5
DD
330
6B
100
AcDbEntity
  8
0
 62
     3
100
AcDbLine
 10
21.596051
 20
24.660894
 30
0.0
 11
10.421231
 21
24.660894
 31
0.0
  0
LINE
  5
DE
330
6B
100
AcDbEntity
  8
0
 62
     3
100
AcDbLine
 10
-36.08339
 20
24.660894
 30
0.0
 11
-24.908569
 21
24.660894
 31
0.0
  0
LINE
  5
DF
330
6B
100
AcDbEntity
  8
0
 62
     3
100
AcDbLine
 10
1.088830999999998
 20
33.326694
 30
0.0
 11
1.088830999999998
 21
25.327494
 31
0.0
  0
LINE
  5
E0
330
6B
100
AcDbEntity
  8
0
 62
     3
100
AcDbLine
 10
-8.910168999999998
 20
33.326694
 30
0.0
 11
-8.910168999999998
 21
25.327494
 31
0.0
  0
LINE
  5
E1
330
6B
100
AcDbEntity
  8
0
 62
     3
100
AcDbLine
 10
-24.908569
 20
33.993294
 30
0.0
 11
-24.908569
 21
24.660894
 31
0.0
  0
LINE
  5
E2
330
6B
100
AcDbEntity
  8
0
 62
     3
100
AcDbLine
 10
1.088830999999998
 20
33.326694
 30
0.0
 11
10.421231
 21
33.326694
 31
0.0
  0
LINE
  5
E3
330
6B
100
AcDbEntity
  8
0
 62
     3
100
AcDbLine
 10
-8.910168999999998
 20
33.160044
 30
0.0
 11
1.088830999999998
 21
33.160044
 31
0.0
  0
LINE
  5
E4
330
6B
100
AcDbEntity
  8
0
 62
     3
100
AcDbLine
 10
-24.908569
 20
33.326694
 30
0.0
 11
-8.910168999999998
 21
33.326694
 31
0.0
  0
LINE
  5
E5
330
6B
100
AcDbEntity
  8
0
 62
     3
100
AcDbLine
 10
-24.908569
 20
25.327494
 30
0.0
 11
-8.910168999999998
 21
25.327494
 31
0.0
  0
LINE
  5
E6
330
6B
100
AcDbEntity
  8
0
 62
     3
100
AcDbLine
 10
-8.910168999999998
 20
25.494144
 30
0.0
 11
1.088830999999998
 21
25.494144
 31
0.0
  0
LINE
  5
E7
330
6B
100
AcDbEntity
  8
0
 62
     3
100
AcDbLine
 10
1.088830999999998
 20
25.327494
 30
0.0
 11
10.421231
 21
25.327494
 31
0.0
  0
LINE
  5
E8
330
6B
100
AcDbEntity
  8
0
 62
     3
100
AcDbLine
 10
-69.48002599999999
 20
-29.230418
 30
0.0
 11
-5.795320830988011
 21
-29.230418
 31
0.0
  0
TEXT
  5
E9
330
6B
100
AcDbEntity
  8
0
 62
     3
100
AcDbText
 10
-67.980026
 20
-36.730418
 30
0.0
 40
4.5
  1
定　　格
  7
高4.5
100
AcDbText
  0
TEXT
  5
EA
330
6B
100
AcDbEntity
  8
0
 62
     3
100
AcDbText
 10
-47.955645
 20
50.798477
 30
0.0
 40
6.299999999999998
  1
センサー付き電源コード
 41
0.833333
100
AcDbText
  0
LINE
  5
F0
330
6B
100
AcDbEntity
  8
0
100
AcDbLine
 10
-11.257018
 20
24.809841
 30
0.0
 11
-19.852261
 21
13.634712
 31
0.0
  0
LINE
  5
F1
330
6B
100
AcDbEntity
  8
0
100
AcDbLine
 10
-19.852261
 20
13.634712
 30
0.0
 11
-53.63959118708772
 21
13.634712
 31
0.0
  0
TEXT
  5
F2
330
6B
100
AcDbEntity
  8
0
 62
     4
100
AcDbText
 10
-53.74856990904288
 20
14.634712
 30
0.0
 40
3.2
  1
センサー式スイッチ
  7
高3.2
100
AcDbText
  0
LINE
  5
F5
330
6B
100
AcDbEntity
  8
0
100
AcDbLine
 10
-56.91589225328726
 20
-27.071826
 30
0.0
 11
-19.97200913752192
 21
-27.071826
 31
0.0
  0
LINE
  5
F6
330
6B
100
AcDbEntity
  8
0
100
AcDbLine
 10
40.280483
 20
25.23037
 30
0.0
 11
40.280483
 21
29.400411
 31
0.0
  0
LINE
  5
F7
330
6B
100
AcDbEntity
  8
0
100
AcDbLine
 10
38.83003400000001
 20
25.290805
 30
0.0
 11
38.83003400000001
 21
29.400411
 31
0.0
  0
LINE
  5
F8
330
6B
100
AcDbEntity
  8
0
100
AcDbLine
 10
37.379585
 20
25.35124
 30
0.0
 11
37.379585
 21
29.400411
 31
0.0
  0
LINE
  5
F9
330
6B
100
AcDbEntity
  8
0
100
AcDbLine
 10
40.280483
 20
33.570451
 30
0.0
 11
40.280483
 21
29.400411
 31
0.0
  0
LINE
  5
FA
330
6B
100
AcDbEntity
  8
0
100
AcDbLine
 10
38.83003400000001
 20
33.510016
 30
0.0
 11
38.83003400000001
 21
29.400411
 31
0.0
  0
LINE
  5
FB
330
6B
100
AcDbEntity
  8
0
100
AcDbLine
 10
37.379585
 20
33.449581
 30
0.0
 11
37.379585
 21
29.400411
 31
0.0
  0
LINE
  5
FC
330
6B
100
AcDbEntity
  8
0
100
AcDbLine
 10
35.929136
 20
32.035393
 30
0.0
 11
37.379585
 21
32.035393
 31
0.0
  0
LINE
  5
FD
330
6B
100
AcDbEntity
  8
0
100
AcDbLine
 10
38.83003400000001
 20
32.035393
 30
0.0
 11
40.280483
 21
32.035393
 31
0.0
  0
LINE
  5
FE
330
6B
100
AcDbEntity
  8
0
100
AcDbLine
 10
35.929136
 20
26.765428
 30
0.0
 11
37.379585
 21
26.765428
 31
0.0
  0
LINE
  5
FF
330
6B
100
AcDbEntity
  8
0
100
AcDbLine
 10
38.83003400000001
 20
26.765428
 30
0.0
 11
40.280483
 21
26.765428
 31
0.0
  0
LINE
  5
100
330
6B
100
AcDbEntity
  8
0
100
AcDbLine
 10
35.929136
 20
30.125635
 30
0.0
 11
37.379585
 21
30.125635
 31
0.0
  0
LINE
  5
101
330
6B
100
AcDbEntity
  8
0
100
AcDbLine
 10
38.83003400000001
 20
30.125635
 30
0.0
 11
40.280483
 21
30.125635
 31
0.0
  0
LINE
  5
102
330
6B
100
AcDbEntity
  8
0
100
AcDbLine
 10
35.929136
 20
28.675186
 30
0.0
 11
37.379585
 21
28.675186
 31
0.0
  0
LINE
  5
103
330
6B
100
AcDbEntity
  8
0
100
AcDbLine
 10
38.83003400000001
 20
28.675186
 30
0.0
 11
40.280483
 21
28.675186
 31
0.0
  0
ARC
  5
104
330
6B
100
AcDbEntity
  8
0
100
AcDbCircle
 10
44.873571
 20
34.476982
 30
0.0
 40
0.241742
100
AcDbArc
 50
90.0
 51
180.0
  0
ARC
  5
105
330
6B
100
AcDbEntity
  8
0
100
AcDbCircle
 10
44.873571
 20
24.323839
 30
0.0
 40
0.241742
100
AcDbArc
 50
180.0
 51
270.0
  0
LINE
  5
106
330
6B
100
AcDbEntity
  8
0
100
AcDbLine
 10
56.39497099999999
 20
23.597164
 30
0.0
 11
56.39497099999999
 21
35.203657
 31
0.0
  0
TEXT
  5
107
330
6B
100
AcDbEntity
  8
0
100
AcDbText
 10
59.30590600000001
 20
26.450574
 30
0.0
 40
2.063273
  1
防雨型
 50
90.00000300000001
 41
0.833333
100
AcDbText
  0
LINE
  5
108
330
6B
100
AcDbEntity
  8
0
100
AcDbLine
 10
61.55373499999999
 20
36.170623
 30
0.0
 11
57.361937
 21
36.170623
 31
0.0
  0
LINE
  5
109
330
6B
100
AcDbEntity
  8
0
100
AcDbLine
 10
57.361937
 20
22.630198
 30
0.0
 11
61.55373499999999
 21
22.630198
 31
0.0
  0
ARC
  5
10A
330
6B
100
AcDbEntity
  8
0
100
AcDbCircle
 10
57.361937
 20
35.203657
 30
0.0
 40
0.966966
100
AcDbArc
 50
90.0
 51
180.0
  0
ARC
  5
10B
330
6B
100
AcDbEntity
  8
0
100
AcDbCircle
 10
61.55373499999999
 20
35.203657
 30
0.0
 40
0.966966
100
AcDbArc
 50
0.0
 51
90.0
  0
ARC
  5
10C
330
6B
100
AcDbEntity
  8
0
100
AcDbCircle
 10
61.55373499999999
 20
23.597164
 30
0.0
 40
0.966966
100
AcDbArc
 50
270.0
 51
0.0
  0
ARC
  5
10D
330
6B
100
AcDbEntity
  8
0
100
AcDbCircle
 10
57.361937
 20
23.597164
 30
0.0
 40
0.966966
100
AcDbArc
 50
180.0
 51
270.0
  0
LINE
  5
10E
330
6B
100
AcDbEntity
  8
0
100
AcDbLine
 10
43.181381
 20
25.35145
 30
0.0
 11
41.730932
 21
25.411886
 31
0.0
  0
LINE
  5
10F
330
6B
100
AcDbEntity
  8
0
100
AcDbLine
 10
43.181381
 20
33.449371
 30
0.0
 11
41.730932
 21
33.388935
 31
0.0
  0
LINE
  5
110
330
6B
100
AcDbEntity
  8
0
100
AcDbLine
 10
43.181381
 20
33.449371
 30
0.0
 11
43.181381
 21
33.691322
 31
0.0
  0
LINE
  5
111
330
6B
100
AcDbEntity
  8
0
100
AcDbLine
 10
41.730932
 20
33.388935
 30
0.0
 11
41.730932
 21
33.630887
 31
0.0
  0
LINE
  5
112
330
6B
100
AcDbEntity
  8
0
100
AcDbLine
 10
41.730932
 20
25.411886
 30
0.0
 11
41.730932
 21
25.169934
 31
0.0
  0
LINE
  5
113
330
6B
100
AcDbEntity
  8
0
100
AcDbLine
 10
43.181381
 20
25.35145
 30
0.0
 11
43.181381
 21
25.109499
 31
0.0
  0
LINE
  5
114
330
6B
100
AcDbEntity
  8
0
100
AcDbLine
 10
43.181381
 20
26.765428
 30
0.0
 11
41.730932
 21
26.765428
 31
0.0
  0
LINE
  5
115
330
6B
100
AcDbEntity
  8
0
100
AcDbLine
 10
43.181381
 20
25.35145
 30
0.0
 11
43.181381
 21
29.400411
 31
0.0
  0
LINE
  5
116
330
6B
100
AcDbEntity
  8
0
100
AcDbLine
 10
43.181381
 20
28.675186
 30
0.0
 11
41.730932
 21
28.675186
 31
0.0
  0
LINE
  5
117
330
6B
100
AcDbEntity
  8
0
100
AcDbLine
 10
43.181381
 20
30.125635
 30
0.0
 11
41.730932
 21
30.125635
 31
0.0
  0
LINE
  5
118
330
6B
100
AcDbEntity
  8
0
100
AcDbLine
 10
43.181381
 20
33.449371
 30
0.0
 11
43.181381
 21
29.400411
 31
0.0
  0
LINE
  5
119
330
6B
100
AcDbEntity
  8
0
100
AcDbLine
 10
43.181381
 20
32.035393
 30
0.0
 11
41.730932
 21
32.035393
 31
0.0
  0
LINE
  5
11A
330
6B
100
AcDbEntity
  8
0
100
AcDbLine
 10
41.730932
 20
33.388935
 30
0.0
 11
41.730932
 21
29.400411
 31
0.0
  0
LINE
  5
11B
330
6B
100
AcDbEntity
  8
0
100
AcDbLine
 10
41.730932
 20
25.411886
 30
0.0
 11
41.730932
 21
29.400411
 31
0.0
  0
LINE
  5
11C
330
6B
100
AcDbEntity
  8
0
100
AcDbLine
 10
62.520701
 20
23.597164
 30
0.0
 11
62.520701
 21
35.203657
 31
0.0
  0
LINE
  5
11D
330
6B
100
AcDbEntity
  8
0
100
AcDbLine
 10
65.695619
 20
18.848813
 30
0.0
 11
65.695619
 21
40.122065
 31
0.0
  0
LINE
  5
11E
330
6B
100
AcDbEntity
  8
0
100
AcDbLine
 10
66.66258499999999
 20
18.848813
 30
0.0
 11
66.66258499999999
 21
40.122065
 31
0.0
  0
LINE
  5
11F
330
6B
100
AcDbEntity
  8
0
100
AcDbLine
 10
97.33764
 20
32.65595300000001
 30
0.0
 11
97.33764
 21
28.033643
 31
0.0
  0
LINE
  5
120
330
6B
100
AcDbEntity
  8
0
100
AcDbLine
 10
98.34711
 20
28.033643
 30
0.0
 11
97.33764
 21
28.033643
 31
0.0
  0
LINE
  5
121
330
6B
100
AcDbEntity
  8
0
100
AcDbLine
 10
98.34711
 20
32.65595300000001
 30
0.0
 11
97.33764
 21
32.65595300000001
 31
0.0
  0
LINE
  5
122
330
6B
100
AcDbEntity
  8
0
100
AcDbLine
 10
99.25032000000001
 20
22.056518
 30
0.0
 11
99.25032000000001
 21
24.022328
 31
0.0
  0
LINE
  5
123
330
6B
100
AcDbEntity
  8
0
100
AcDbLine
 10
98.34711
 20
32.65595300000001
 30
0.0
 11
98.34711
 21
28.033643
 31
0.0
  0
LINE
  5
124
330
6B
100
AcDbEntity
  8
0
100
AcDbLine
 10
99.78162000000001
 20
24.022328
 30
0.0
 11
99.78162000000001
 21
22.587818
 31
0.0
  0
LINE
  5
125
330
6B
100
AcDbEntity
  8
0
100
AcDbLine
 10
103.55385
 20
32.735648
 30
0.0
 11
103.55385
 21
27.953948
 31
0.0
  0
LINE
  5
126
330
6B
100
AcDbEntity
  8
0
100
AcDbLine
 10
105.62592
 20
32.735648
 30
0.0
 11
103.55385
 21
32.735648
 31
0.0
  0
LINE
  5
127
330
6B
100
AcDbEntity
  8
0
100
AcDbLine
 10
105.62592
 20
27.953948
 30
0.0
 11
103.55385
 21
27.953948
 31
0.0
  0
LINE
  5
128
330
6B
100
AcDbEntity
  8
0
100
AcDbLine
 10
104.08515
 20
32.204348
 30
0.0
 11
103.55385
 21
32.735648
 31
0.0
  0
LINE
  5
129
330
6B
100
AcDbEntity
  8
0
100
AcDbLine
 10
104.08515
 20
28.564943
 30
0.0
 11
103.55385
 21
27.953948
 31
0.0
  0
LINE
  5
12A
330
6B
100
AcDbEntity
  8
0
100
AcDbLine
 10
102.65064
 20
24.022328
 30
0.0
 11
102.65064
 21
22.587818
 31
0.0
  0
LINE
  5
12B
330
6B
100
AcDbEntity
  8
0
100
AcDbLine
 10
102.65064
 20
22.587818
 30
0.0
 11
99.78162000000001
 21
22.587818
 31
0.0
  0
ARC
  5
12C
330
6B
100
AcDbEntity
  8
0
100
AcDbCircle
 10
101.21613
 20
24.022328
 30
0.0
 40
1.434509999999999
100
AcDbArc
 50
0.0
 51
179.999992
  0
ARC
  5
12D
330
6B
100
AcDbEntity
  8
0
100
AcDbCircle
 10
101.21613
 20
24.022328
 30
0.0
 40
1.965809999999999
100
AcDbArc
 50
0.0
 51
179.999994
  0
LINE
  5
12E
330
6B
100
AcDbEntity
  8
0
100
AcDbLine
 10
103.18194
 20
24.022328
 30
0.0
 11
103.18194
 21
22.056518
 31
0.0
  0
LINE
  5
12F
330
6B
100
AcDbEntity
  8
0
100
AcDbLine
 10
99.25032000000001
 20
22.056518
 30
0.0
 11
103.18194
 21
22.056518
 31
0.0
  0
LINE
  5
130
330
6B
100
AcDbEntity
  8
0
100
AcDbLine
 10
104.08515
 20
32.204348
 30
0.0
 11
104.08515
 21
28.485248
 31
0.0
  0
LINE
  5
131
330
6B
100
AcDbEntity
  8
0
100
AcDbLine
 10
105.09462
 20
32.204348
 30
0.0
 11
105.09462
 21
28.485248
 31
0.0
  0
LINE
  5
132
330
6B
100
AcDbEntity
  8
0
100
AcDbLine
 10
105.09462
 20
32.204348
 30
0.0
 11
104.08515
 21
32.204348
 31
0.0
  0
LINE
  5
133
330
6B
100
AcDbEntity
  8
0
100
AcDbLine
 10
105.09462
 20
28.485248
 30
0.0
 11
104.08515
 21
28.485248
 31
0.0
  0
LINE
  5
134
330
6B
100
AcDbEntity
  8
0
100
AcDbLine
 10
105.62592
 20
32.735648
 30
0.0
 11
105.62592
 21
27.953948
 31
0.0
  0
LINE
  5
135
330
6B
100
AcDbEntity
  8
0
100
AcDbLine
 10
105.09462
 20
32.204348
 30
0.0
 11
105.62592
 21
32.735648
 31
0.0
  0
LINE
  5
136
330
6B
100
AcDbEntity
  8
0
100
AcDbLine
 10
105.09462
 20
28.485248
 30
0.0
 11
105.62592
 21
27.953948
 31
0.0
  0
CIRCLE
  5
137
330
6B
100
AcDbEntity
  8
0
100
AcDbCircle
 10
105.537691
 20
24.718221
 30
0.0
 40
1.062599999999998
  0
LINE
  5
138
330
6B
100
AcDbEntity
  8
0
100
AcDbLine
 10
105.277354
 20
24.36225
 30
0.0
 11
105.808654
 21
24.36225
 31
0.0
  0
LINE
  5
139
330
6B
100
AcDbEntity
  8
0
100
AcDbLine
 10
105.941479
 20
24.6279
 30
0.0
 11
105.144529
 21
24.6279
 31
0.0
  0
LINE
  5
13A
330
6B
100
AcDbEntity
  8
0
100
AcDbLine
 10
105.011704
 20
24.89355
 30
0.0
 11
106.074304
 21
24.89355
 31
0.0
  0
LINE
  5
13B
330
6B
100
AcDbEntity
  8
0
100
AcDbLine
 10
105.543004
 20
24.89355
 30
0.0
 11
105.543004
 21
25.42485
 31
0.0
  0
TEXT
  5
13C
330
6B
100
AcDbEntity
  8
0
100
AcDbText
 10
103.697558
 20
35.614386
 30
0.0
 40
1.700159999999999
  1
A
 50
334.999988
100
AcDbText
  0
TEXT
  5
13D
330
6B
100
AcDbEntity
  8
0
100
AcDbText
 10
105.398892
 20
34.68136
 30
0.0
 40
1.700159999999999
  1
2
 50
324.99999
100
AcDbText
  0
TEXT
  5
13E
330
6B
100
AcDbEntity
  8
0
100
AcDbText
 10
106.890128
 20
33.429146
 30
0.0
 40
1.700159999999999
  1
V
 50
304.999994
 41
0.75
100
AcDbText
  0
TEXT
  5
13F
330
6B
100
AcDbEntity
  8
0
100
AcDbText
 10
101.788321
 20
36.016402
 30
0.0
 40
1.700159999999999
  1
1
 50
350.000012
 41
1.499999
100
AcDbText
  0
TEXT
  5
140
330
6B
100
AcDbEntity
  8
0
100
AcDbText
 10
104.884085
 20
35.07638400000001
 30
0.0
 40
1.700159999999999
  1
1
 50
324.99999
 41
1.499999
100
AcDbText
  0
TEXT
  5
141
330
6B
100
AcDbEntity
  8
0
100
AcDbText
 10
105.959164
 20
34.340518
 30
0.0
 40
1.700159999999999
  1
5
 50
314.999992
100
AcDbText
  0
TEXT
  5
142
330
6B
100
AcDbEntity
  8
0
100
AcDbText
 10
98.585338
 20
35.560021
 30
0.0
 40
1.700159999999999
  1
型
 50
14.999999
 41
0.833333
100
AcDbText
  0
TEXT
  5
143
330
6B
100
AcDbEntity
  8
0
100
AcDbText
 10
96.864366
 20
34.64075
 30
0.0
 40
1.700159999999999
  1
雨
 50
29.999997
 41
0.833333
100
AcDbText
  0
TEXT
  5
144
330
6B
100
AcDbEntity
  8
0
100
AcDbText
 10
95.43996099999999
 20
33.30738200000001
 30
0.0
 40
1.700159999999999
  1
防
 50
44.999998
 41
0.833333
100
AcDbText
  0
ARC
  5
145
330
6B
100
AcDbEntity
  8
0
100
AcDbCircle
 10
101.713809
 20
30.344798
 30
0.0
 40
5.001275999999998
100
AcDbArc
 50
326.101552
 51
33.898448
  0
LINE
  5
146
330
6B
100
AcDbEntity
  8
0
100
AcDbLine
 10
96.567255
 20
33.13412299999999
 30
0.0
 11
105.865005
 21
33.13412299999999
 31
0.0
  0
LINE
  5
147
330
6B
100
AcDbEntity
  8
0
100
AcDbLine
 10
96.567255
 20
27.555473
 30
0.0
 11
105.865005
 21
27.555473
 31
0.0
  0
ARC
  5
148
330
6B
100
AcDbEntity
  8
0
100
AcDbCircle
 10
100.718452
 20
30.344798
 30
0.0
 40
5.001275999999998
100
AcDbArc
 50
146.101552
 51
213.898448
  0
TEXT
  5
149
330
6B
100
AcDbEntity
  8
0
100
AcDbText
 10
93.04739299999999
 20
28.462067
 30
0.0
 40
1.700159999999999
  1
N
100
AcDbText
  0
LINE
  5
14A
330
6B
100
AcDbEntity
  8
0
100
AcDbLine
 10
97.33764
 20
28.033643
 30
0.0
 11
96.80634000000001
 21
27.688298
 31
0.0
  0
LINE
  5
14B
330
6B
100
AcDbEntity
  8
0
100
AcDbLine
 10
98.34711
 20
28.033643
 30
0.0
 11
98.87841000000001
 21
27.688298
 31
0.0
  0
LINE
  5
14C
330
6B
100
AcDbEntity
  8
0
100
AcDbLine
 10
98.34711
 20
32.65595300000001
 30
0.0
 11
98.87841000000001
 21
33.001298
 31
0.0
  0
LINE
  5
14D
330
6B
100
AcDbEntity
  8
0
100
AcDbLine
 10
97.33764
 20
32.65595300000001
 30
0.0
 11
96.80634000000001
 21
33.001298
 31
0.0
  0
LINE
  5
14E
330
6B
100
AcDbEntity
  8
0
100
AcDbLine
 10
100.41918
 20
28.511813
 30
0.0
 11
100.41918
 21
32.17778300000001
 31
0.0
  0
ARC
  5
14F
330
6B
100
AcDbEntity
  8
0
100
AcDbCircle
 10
100.57857
 20
32.17778300000001
 30
0.0
 40
0.15939
100
AcDbArc
 50
90.0
 51
180.0
  0
LINE
  5
150
330
6B
100
AcDbEntity
  8
0
100
AcDbLine
 10
100.57857
 20
32.337173
 30
0.0
 11
101.85369
 21
32.337173
 31
0.0
  0
ARC
  5
151
330
6B
100
AcDbEntity
  8
0
100
AcDbCircle
 10
101.85369
 20
32.17778300000001
 30
0.0
 40
0.15939
100
AcDbArc
 50
0.0
 51
90.0
  0
LINE
  5
152
330
6B
100
AcDbEntity
  8
0
100
AcDbLine
 10
102.01308
 20
28.511813
 30
0.0
 11
102.01308
 21
32.17778300000001
 31
0.0
  0
ARC
  5
153
330
6B
100
AcDbEntity
  8
0
100
AcDbCircle
 10
101.85369
 20
28.511813
 30
0.0
 40
0.15939
100
AcDbArc
 50
270.0
 51
0.0
  0
LINE
  5
154
330
6B
100
AcDbEntity
  8
0
100
AcDbLine
 10
101.85369
 20
28.352423
 30
0.0
 11
100.57857
 21
28.352423
 31
0.0
  0
ARC
  5
155
330
6B
100
AcDbEntity
  8
0
100
AcDbCircle
 10
100.57857
 20
28.511813
 30
0.0
 40
0.15939
100
AcDbArc
 50
180.0
 51
270.0
  0
LINE
  5
156
330
6B
100
AcDbEntity
  8
0
100
AcDbLine
 10
98.87841000000001
 20
27.688298
 30
0.0
 11
98.87841000000001
 21
33.001298
 31
0.0
  0
LINE
  5
157
330
6B
100
AcDbEntity
  8
0
100
AcDbLine
 10
98.87841000000001
 20
27.688298
 30
0.0
 11
96.80634000000001
 21
27.688298
 31
0.0
  0
LINE
  5
158
330
6B
100
AcDbEntity
  8
0
100
AcDbLine
 10
96.80634000000001
 20
27.688298
 30
0.0
 11
96.80634000000001
 21
33.001298
 31
0.0
  0
LINE
  5
159
330
6B
100
AcDbEntity
  8
0
100
AcDbLine
 10
96.80634000000001
 20
33.001298
 30
0.0
 11
98.87841000000001
 21
33.001298
 31
0.0
  0
CIRCLE
  5
15A
330
6B
100
AcDbEntity
  8
0
100
AcDbCircle
 10
106.815146
 20
22.092562
 30
0.0
 40
0.8967319999999999
  0
LINE
  5
15B
330
6B
100
AcDbEntity
  8
0
100
AcDbLine
 10
106.17009
 20
22.715485
 30
0.0
 11
107.460201
 21
21.469639
 31
0.0
  0
LINE
  5
15C
330
6B
100
AcDbEntity
  8
0
100
AcDbLine
 10
107.460201
 20
21.469639
 30
0.0
 11
106.898505
 21
23.303112
 31
0.0
  0
LINE
  5
15D
330
6B
100
AcDbEntity
  8
0
100
AcDbLine
 10
106.17009
 20
22.715485
 30
0.0
 11
106.730744
 21
20.941702
 31
0.0
  0
TEXT
  5
15E
330
6B
100
AcDbEntity
  8
0
100
AcDbText
 10
95.948811
 20
20.749017
 30
0.0
 40
1.700159999999999
  1
P
 50
332.000005
100
AcDbText
  0
TEXT
  5
15F
330
6B
100
AcDbEntity
  8
0
100
AcDbText
 10
97.08355400000002
 20
20.133862
 30
0.0
 40
1.700159999999999
  1
S
 50
338.999992
100
AcDbText
  0
TEXT
  5
160
330
6B
100
AcDbEntity
  8
0
100
AcDbText
 10
98.28480800000001
 20
19.661583
 30
0.0
 40
1.700159999999999
  1
>
 50
346.000007
 41
1.199999999999999
100
AcDbText
  0
TEXT
  5
161
330
6B
100
AcDbEntity
  8
0
100
AcDbText
 10
99.53466400000001
 20
19.33922
 30
0.0
 40
1.700159999999999
  1
E
 50
352.999995
100
AcDbText
  0
TEXT
  5
162
330
6B
100
AcDbEntity
  8
0
100
AcDbText
 10
102.105206
 20
19.16116
 30
0.0
 40
1.700159999999999
  1
J
 50
7.0
100
AcDbText
  0
TEXT
  5
163
330
6B
100
AcDbEntity
  8
0
100
AcDbText
 10
103.387572
 20
19.308117
 30
0.0
 40
1.700159999999999
  1
E
 50
13.999999
100
AcDbText
  0
TEXT
  5
164
330
6B
100
AcDbEntity
  8
0
100
AcDbText
 10
104.642469
 20
19.61026
 30
0.0
 40
1.700159999999999
  1
T
 50
20.999999
100
AcDbText
  0
TEXT
  5
165
330
6B
100
AcDbEntity
  8
0
100
AcDbText
 10
94.851559
 20
21.490303
 30
0.0
 40
1.700159999999999
  1
<
 41
1.499999
 51
35.00001
100
AcDbText
  0
TEXT
  5
166
330
6B
100
AcDbEntity
  8
0
100
AcDbText
 10
102.435633
 20
35.938175
 30
0.0
 40
1.700159999999999
  1
2
 50
345.000013
100
AcDbText
  0
ARC
  5
167
330
6B
100
AcDbEntity
  8
0
100
AcDbCircle
 10
24.753131
 20
30.660294
 30
0.0
 40
0.6666
100
AcDbArc
 50
0.0
 51
90.0
  0
ARC
  5
168
330
6B
100
AcDbEntity
  8
0
100
AcDbCircle
 10
24.753131
 20
27.993894
 30
0.0
 40
0.6666
100
AcDbArc
 50
270.0
 51
0.0
  0
LINE
  5
169
330
6B
100
AcDbEntity
  8
0
100
AcDbLine
 10
25.419731
 20
27.993894
 30
0.0
 11
25.419731
 21
30.660294
 31
0.0
  0
LINE
  5
16A
330
6B
100
AcDbEntity
  8
0
100
AcDbLine
 10
22.916556
 20
31.326894
 30
0.0
 11
22.916556
 21
27.327294
 31
0.0
  0
LINE
  5
16B
330
6B
100
AcDbEntity
  8
0
100
AcDbLine
 10
24.753131
 20
31.326894
 30
0.0
 11
22.916556
 21
31.326894
 31
0.0
  0
LINE
  5
16C
330
6B
100
AcDbEntity
  8
0
100
AcDbLine
 10
24.753131
 20
27.327294
 30
0.0
 11
22.916556
 21
27.327294
 31
0.0
  0
LINE
  5
16D
330
6B
100
AcDbEntity
  8
0
100
AcDbLine
 10
24.753131
 20
30.826944
 30
0.0
 11
23.45717
 21
30.826944
 31
0.0
  0
LINE
  5
16E
330
6B
100
AcDbEntity
  8
0
100
AcDbLine
 10
24.753131
 20
29.827044
 30
0.0
 11
23.45717
 21
29.827044
 31
0.0
  0
LINE
  5
16F
330
6B
100
AcDbEntity
  8
0
100
AcDbLine
 10
24.753131
 20
28.827144
 30
0.0
 11
23.45717
 21
28.827144
 31
0.0
  0
LINE
  5
170
330
6B
100
AcDbEntity
  8
0
100
AcDbLine
 10
24.753131
 20
27.827244
 30
0.0
 11
23.45717
 21
27.827244
 31
0.0
  0
LINE
  5
171
330
6B
100
AcDbEntity
  8
0
100
AcDbLine
 10
24.753131
 20
30.826944
 30
0.0
 11
24.753131
 21
27.827244
 31
0.0
  0
LINE
  5
172
330
6B
100
AcDbEntity
  8
0
100
AcDbLine
 10
23.45717
 20
30.826944
 30
0.0
 11
23.45717
 21
27.827244
 31
0.0
  0
LINE
  5
173
330
6B
100
AcDbEntity
  8
0
100
AcDbLine
 10
24.113348
 20
30.826944
 30
0.0
 11
24.113348
 21
27.827244
 31
0.0
  0
ARC
  5
174
330
6B
100
AcDbEntity
  8
0
100
AcDbCircle
 10
-36.08339
 20
33.326694
 30
0.0
 40
0.6666
100
AcDbArc
 50
90.0
 51
162.713035
  0
ARC
  5
175
330
6B
100
AcDbEntity
  8
0
100
AcDbCircle
 10
-36.08339
 20
25.327494
 30
0.0
 40
0.6666
100
AcDbArc
 50
197.2869649999999
 51
270.0
  0
ARC
  5
176
330
6B
100
AcDbEntity
  8
0
100
AcDbCircle
 10
-39.240469
 20
30.660294
 30
0.0
 40
0.6666
100
AcDbArc
 50
90.0
 51
180.0
  0
ARC
  5
177
330
6B
100
AcDbEntity
  8
0
100
AcDbCircle
 10
-39.240469
 20
27.993894
 30
0.0
 40
0.6666
100
AcDbArc
 50
180.0
 51
270.0
  0
LINE
  5
178
330
6B
100
AcDbEntity
  8
0
100
AcDbLine
 10
-39.907069
 20
27.993894
 30
0.0
 11
-39.907069
 21
30.660294
 31
0.0
  0
LINE
  5
179
330
6B
100
AcDbEntity
  8
0
100
AcDbLine
 10
-37.403895
 20
31.326894
 30
0.0
 11
-37.403895
 21
27.327294
 31
0.0
  0
LINE
  5
17A
330
6B
100
AcDbEntity
  8
0
100
AcDbLine
 10
-39.240469
 20
31.326894
 30
0.0
 11
-37.403895
 21
31.326894
 31
0.0
  0
LINE
  5
17B
330
6B
100
AcDbEntity
  8
0
100
AcDbLine
 10
-39.240469
 20
27.327294
 30
0.0
 11
-37.403895
 21
27.327294
 31
0.0
  0
LINE
  5
17C
330
6B
100
AcDbEntity
  8
0
100
AcDbLine
 10
-39.240469
 20
30.826944
 30
0.0
 11
-39.240469
 21
27.827244
 31
0.0
  0
LINE
  5
17D
330
6B
100
AcDbEntity
  8
0
100
AcDbLine
 10
-39.240469
 20
30.826944
 30
0.0
 11
-37.944508
 21
30.826944
 31
0.0
  0
LINE
  5
17E
330
6B
100
AcDbEntity
  8
0
100
AcDbLine
 10
-37.944508
 20
30.826944
 30
0.0
 11
-37.944508
 21
27.827244
 31
0.0
  0
LINE
  5
17F
330
6B
100
AcDbEntity
  8
0
100
AcDbLine
 10
-38.600687
 20
30.826944
 30
0.0
 11
-38.600687
 21
27.827244
 31
0.0
  0
LINE
  5
180
330
6B
100
AcDbEntity
  8
0
100
AcDbLine
 10
-39.240469
 20
29.827044
 30
0.0
 11
-37.944508
 21
29.827044
 31
0.0
  0
LINE
  5
181
330
6B
100
AcDbEntity
  8
0
100
AcDbLine
 10
-39.240469
 20
28.827144
 30
0.0
 11
-37.944508
 21
28.827144
 31
0.0
  0
LINE
  5
182
330
6B
100
AcDbEntity
  8
0
100
AcDbLine
 10
-39.240469
 20
27.827244
 30
0.0
 11
-37.944508
 21
27.827244
 31
0.0
  0
CIRCLE
  5
183
330
6B
100
AcDbEntity
  8
0
100
AcDbCircle
 10
-91.48129799999999
 20
32.566375
 30
0.0
 40
0.8360629999999996
  0
LINE
  5
184
330
6B
100
AcDbEntity
  8
0
100
AcDbLine
 10
-91.720173
 20
31.993075
 30
0.0
 11
-91.720173
 21
33.044125
 31
0.0
  0
LINE
  5
185
330
6B
100
AcDbEntity
  8
0
100
AcDbLine
 10
-91.48129799999999
 20
32.088625
 30
0.0
 11
-91.48129799999999
 21
33.044125
 31
0.0
  0
LINE
  5
186
330
6B
100
AcDbEntity
  8
0
100
AcDbLine
 10
-91.242423
 20
32.279725
 30
0.0
 11
-91.242423
 21
32.853025
 31
0.0
  0
LINE
  5
187
330
6B
100
AcDbEntity
  8
0
100
AcDbLine
 10
-91.720173
 20
32.566375
 30
0.0
 11
-92.006823
 21
32.566375
 31
0.0
  0
TEXT
  5
188
330
6B
100
AcDbEntity
  8
0
100
AcDbText
 10
-101.223246
 20
35.38011599999999
 30
0.0
 40
1.834559999999999
  1
ポッキンプラグ
 50
270.000001
 41
0.8108069999999999
100
AcDbText
  0
LINE
  5
189
330
6B
100
AcDbEntity
  8
0
100
AcDbLine
 10
-100.600594
 20
49.10705499999998
 30
0.0
 11
-100.600594
 21
50.54030499999999
 31
0.0
  0
LINE
  5
18A
330
6B
100
AcDbEntity
  8
0
100
AcDbLine
 10
-100.599089
 20
48.10378
 30
0.0
 11
-100.599089
 21
50.49253
 31
0.0
  0
LINE
  5
18B
330
6B
100
AcDbEntity
  8
0
100
AcDbLine
 10
-98.633658
 20
36.01419
 30
0.0
 11
-101.977908
 21
36.01419
 31
0.0
  0
LINE
  5
18C
330
6B
100
AcDbEntity
  8
0
100
AcDbLine
 10
-98.633658
 20
36.01419
 30
0.0
 11
-98.633658
 21
22.63719
 31
0.0
  0
LINE
  5
18D
330
6B
100
AcDbEntity
  8
0
100
AcDbLine
 10
-98.633658
 20
22.63719
 30
0.0
 11
-101.977908
 21
22.63719
 31
0.0
  0
LINE
  5
18E
330
6B
100
AcDbEntity
  8
0
100
AcDbLine
 10
-80.60273999999997
 20
26.487525
 30
0.0
 11
-79.64724
 21
26.487525
 31
0.0
  0
LINE
  5
18F
330
6B
100
AcDbEntity
  8
0
100
AcDbLine
 10
-82.27486500000003
 20
26.487525
 30
0.0
 11
-81.319365
 21
26.487525
 31
0.0
  0
LINE
  5
190
330
6B
100
AcDbEntity
  8
0
100
AcDbLine
 10
-85.619115
 20
26.487525
 30
0.0
 11
-84.66361500000003
 21
26.487525
 31
0.0
  0
LINE
  5
191
330
6B
100
AcDbEntity
  8
0
100
AcDbLine
 10
-83.94699000000001
 20
26.487525
 30
0.0
 11
-82.99148999999998
 21
26.487525
 31
0.0
  0
LINE
  5
192
330
6B
100
AcDbEntity
  8
0
100
AcDbLine
 10
-80.60273999999997
 20
28.852387
 30
0.0
 11
-79.64724
 21
28.852387
 31
0.0
  0
LINE
  5
193
330
6B
100
AcDbEntity
  8
0
100
AcDbLine
 10
-85.619115
 20
28.852387
 30
0.0
 11
-84.66361500000003
 21
28.852387
 31
0.0
  0
LINE
  5
194
330
6B
100
AcDbEntity
  8
0
100
AcDbLine
 10
-83.94699000000001
 20
28.852387
 30
0.0
 11
-82.99148999999998
 21
28.852387
 31
0.0
  0
LINE
  5
195
330
6B
100
AcDbEntity
  8
0
100
AcDbLine
 10
-82.27486500000003
 20
28.852387
 30
0.0
 11
-81.319365
 21
28.852387
 31
0.0
  0
LINE
  5
196
330
6B
100
AcDbEntity
  8
0
100
AcDbLine
 10
-78.930615
 20
29.32569
 30
0.0
 11
-78.930615
 21
25.50369
 31
0.0
  0
LINE
  5
197
330
6B
100
AcDbEntity
  8
0
100
AcDbLine
 10
-85.619115
 20
28.852387
 30
0.0
 11
-85.619115
 21
25.545844
 31
0.0
  0
LINE
  5
198
330
6B
100
AcDbEntity
  8
0
100
AcDbLine
 10
-83.94699000000001
 20
28.852387
 30
0.0
 11
-83.94699000000001
 21
25.595025
 31
0.0
  0
LINE
  5
199
330
6B
100
AcDbEntity
  8
0
100
AcDbLine
 10
-82.27486500000003
 20
28.852387
 30
0.0
 11
-82.27486500000003
 21
25.644205
 31
0.0
  0
LINE
  5
19A
330
6B
100
AcDbEntity
  8
0
100
AcDbLine
 10
-84.66361500000003
 20
28.852387
 30
0.0
 11
-84.66361500000003
 21
25.573947
 31
0.0
  0
LINE
  5
19B
330
6B
100
AcDbEntity
  8
0
100
AcDbLine
 10
-82.99148999999998
 20
28.852387
 30
0.0
 11
-82.99148999999998
 21
25.623127
 31
0.0
  0
LINE
  5
19C
330
6B
100
AcDbEntity
  8
0
100
AcDbLine
 10
-81.319365
 20
28.852387
 30
0.0
 11
-81.319365
 21
25.672308
 31
0.0
  0
LINE
  5
19D
330
6B
100
AcDbEntity
  8
0
100
AcDbLine
 10
-80.60273999999997
 20
28.852387
 30
0.0
 11
-80.60273999999997
 21
25.693385
 31
0.0
  0
LINE
  5
19E
330
6B
100
AcDbEntity
  8
0
100
AcDbLine
 10
-79.64724
 20
28.852387
 30
0.0
 11
-79.64724
 21
25.721488
 31
0.0
  0
LINE
  5
19F
330
6B
100
AcDbEntity
  8
0
100
AcDbLine
 10
-85.619115
 20
32.17275
 30
0.0
 11
-84.66361500000003
 21
32.17275
 31
0.0
  0
LINE
  5
1A0
330
6B
100
AcDbEntity
  8
0
100
AcDbLine
 10
-83.94699000000001
 20
32.17275
 30
0.0
 11
-82.99148999999998
 21
32.17275
 31
0.0
  0
LINE
  5
1A1
330
6B
100
AcDbEntity
  8
0
100
AcDbLine
 10
-82.27486500000003
 20
32.17275
 30
0.0
 11
-81.319365
 21
32.17275
 31
0.0
  0
LINE
  5
1A2
330
6B
100
AcDbEntity
  8
0
100
AcDbLine
 10
-80.60273999999997
 20
32.17275
 30
0.0
 11
-79.64724
 21
32.17275
 31
0.0
  0
LINE
  5
1A3
330
6B
100
AcDbEntity
  8
0
100
AcDbLine
 10
-85.619115
 20
29.807887
 30
0.0
 11
-84.66361500000003
 21
29.807887
 31
0.0
  0
LINE
  5
1A4
330
6B
100
AcDbEntity
  8
0
100
AcDbLine
 10
-83.94699000000001
 20
29.807887
 30
0.0
 11
-82.99148999999998
 21
29.807887
 31
0.0
  0
LINE
  5
1A5
330
6B
100
AcDbEntity
  8
0
100
AcDbLine
 10
-82.27486500000003
 20
29.807887
 30
0.0
 11
-81.319365
 21
29.807887
 31
0.0
  0
LINE
  5
1A6
330
6B
100
AcDbEntity
  8
0
100
AcDbLine
 10
-80.60273999999997
 20
29.807887
 30
0.0
 11
-79.64724
 21
29.807887
 31
0.0
  0
LINE
  5
1A7
330
6B
100
AcDbEntity
  8
0
100
AcDbLine
 10
-78.930615
 20
29.32569
 30
0.0
 11
-78.930615
 21
33.14769
 31
0.0
  0
LINE
  5
1A8
330
6B
100
AcDbEntity
  8
0
100
AcDbLine
 10
-85.619115
 20
33.105536
 30
0.0
 11
-85.619115
 21
29.807887
 31
0.0
  0
LINE
  5
1A9
330
6B
100
AcDbEntity
  8
0
100
AcDbLine
 10
-83.94699000000001
 20
33.056355
 30
0.0
 11
-83.94699000000001
 21
29.807887
 31
0.0
  0
LINE
  5
1AA
330
6B
100
AcDbEntity
  8
0
100
AcDbLine
 10
-82.27486500000003
 20
33.007175
 30
0.0
 11
-82.27486500000003
 21
29.807887
 31
0.0
  0
LINE
  5
1AB
330
6B
100
AcDbEntity
  8
0
100
AcDbLine
 10
-84.66361500000003
 20
33.077433
 30
0.0
 11
-84.66361500000003
 21
29.807887
 31
0.0
  0
LINE
  5
1AC
330
6B
100
AcDbEntity
  8
0
100
AcDbLine
 10
-82.99148999999998
 20
33.028252
 30
0.0
 11
-82.99148999999998
 21
29.807887
 31
0.0
  0
LINE
  5
1AD
330
6B
100
AcDbEntity
  8
0
100
AcDbLine
 10
-81.319365
 20
32.979072
 30
0.0
 11
-81.319365
 21
29.807887
 31
0.0
  0
LINE
  5
1AE
330
6B
100
AcDbEntity
  8
0
100
AcDbLine
 10
-80.60273999999997
 20
29.807887
 30
0.0
 11
-80.60273999999997
 21
32.95799500000001
 31
0.0
  0
LINE
  5
1AF
330
6B
100
AcDbEntity
  8
0
100
AcDbLine
 10
-79.64724
 20
29.807887
 30
0.0
 11
-79.64724
 21
32.929892
 31
0.0
  0
LINE
  5
1B0
330
6B
100
AcDbEntity
  8
0
100
AcDbLine
 10
-101.977908
 20
36.01419
 30
0.0
 11
-101.977908
 21
22.63719
 31
0.0
  0
LINE
  5
1B1
330
6B
100
AcDbEntity
  8
0
100
AcDbLine
 10
-124.964339
 20
49.775905
 30
0.0
 11
-124.964339
 21
48.820405
 31
0.0
  0
LINE
  5
1B2
330
6B
100
AcDbEntity
  8
0
100
AcDbLine
 10
-124.677689
 20
49.775905
 30
0.0
 11
-124.677689
 21
48.820405
 31
0.0
  0
LINE
  5
1B3
330
6B
100
AcDbEntity
  8
0
100
AcDbLine
 10
-123.292214
 20
48.39043
 30
0.0
 11
-124.247714
 21
48.39043
 31
0.0
  0
LINE
  5
1B4
330
6B
100
AcDbEntity
  8
0
100
AcDbLine
 10
-123.292214
 20
50.20588
 30
0.0
 11
-124.247714
 21
50.20588
 31
0.0
  0
ARC
  5
1B5
330
6B
100
AcDbEntity
  8
0
100
AcDbCircle
 10
-124.247714
 20
48.820405
 30
0.0
 40
0.716625
100
AcDbArc
 50
180.0
 51
270.0
  0
ARC
  5
1B6
330
6B
100
AcDbEntity
  8
0
100
AcDbCircle
 10
-124.247714
 20
49.775905
 30
0.0
 40
0.716625
100
AcDbArc
 50
90.0
 51
180.0
  0
ARC
  5
1B7
330
6B
100
AcDbEntity
  8
0
100
AcDbCircle
 10
-124.247714
 20
48.820405
 30
0.0
 40
0.429975
100
AcDbArc
 50
180.0
 51
270.0
  0
ARC
  5
1B8
330
6B
100
AcDbEntity
  8
0
100
AcDbCircle
 10
-124.247714
 20
49.775905
 30
0.0
 40
0.429975
100
AcDbArc
 50
90.0
 51
180.0
  0
LINE
  5
1B9
330
6B
100
AcDbEntity
  8
0
100
AcDbLine
 10
-123.292214
 20
50.49253
 30
0.0
 11
-124.247714
 21
50.49253
 31
0.0
  0
LINE
  5
1BA
330
6B
100
AcDbEntity
  8
0
100
AcDbLine
 10
-123.292214
 20
48.10378
 30
0.0
 11
-124.247714
 21
48.10378
 31
0.0
  0
LINE
  5
1BB
330
6B
100
AcDbEntity
  8
0
100
AcDbLine
 10
-115.47849
 20
25.842562
 30
0.0
 11
-115.47849
 21
26.559187
 31
0.0
  0
LINE
  5
1BC
330
6B
100
AcDbEntity
  8
0
100
AcDbLine
 10
-116.195115
 20
26.43975
 30
0.0
 11
-115.47849
 21
26.559187
 31
0.0
  0
LINE
  5
1BD
330
6B
100
AcDbEntity
  8
0
100
AcDbLine
 10
-116.195115
 20
25.962
 30
0.0
 11
-116.195115
 21
26.43975
 31
0.0
  0
LINE
  5
1BE
330
6B
100
AcDbEntity
  8
0
100
AcDbLine
 10
-115.47849
 20
25.842562
 30
0.0
 11
-116.195115
 21
25.962
 31
0.0
  0
LINE
  5
1BF
330
6B
100
AcDbEntity
  8
0
100
AcDbLine
 10
-115.47849
 20
32.817712
 30
0.0
 11
-115.47849
 21
32.101087
 31
0.0
  0
LINE
  5
1C0
330
6B
100
AcDbEntity
  8
0
100
AcDbLine
 10
-116.195115
 20
32.220525
 30
0.0
 11
-115.47849
 21
32.101087
 31
0.0
  0
LINE
  5
1C1
330
6B
100
AcDbEntity
  8
0
100
AcDbLine
 10
-115.47849
 20
32.817712
 30
0.0
 11
-116.195115
 21
32.698275
 31
0.0
  0
LINE
  5
1C2
330
6B
100
AcDbEntity
  8
0
100
AcDbLine
 10
-116.195115
 20
32.698275
 30
0.0
 11
-116.195115
 21
32.220525
 31
0.0
  0
LINE
  5
1C3
330
6B
100
AcDbEntity
  8
0
100
AcDbLine
 10
-115.47849
 20
26.559187
 30
0.0
 11
-108.073365
 21
26.559187
 31
0.0
  0
LINE
  5
1C4
330
6B
100
AcDbEntity
  8
0
100
AcDbLine
 10
-115.47849
 20
25.842562
 30
0.0
 11
-108.073365
 21
25.842562
 31
0.0
  0
LINE
  5
1C5
330
6B
100
AcDbEntity
  8
0
100
AcDbLine
 10
-115.47849
 20
32.817712
 30
0.0
 11
-108.073365
 21
32.817712
 31
0.0
  0
LINE
  5
1C6
330
6B
100
AcDbEntity
  8
0
100
AcDbLine
 10
-115.47849
 20
32.101087
 30
0.0
 11
-108.073365
 21
32.101087
 31
0.0
  0
LINE
  5
1C7
330
6B
100
AcDbEntity
  8
0
100
AcDbLine
 10
-107.595615
 20
37.451887
 30
0.0
 11
-107.595615
 21
21.208387
 31
0.0
  0
LINE
  5
1C8
330
6B
100
AcDbEntity
  8
0
 62
     3
100
AcDbLine
 10
-97.443428
 20
37.451887
 30
0.0
 11
-105.206865
 21
37.451887
 31
0.0
  0
ARC
  5
1C9
330
6B
100
AcDbEntity
  8
0
 62
     3
100
AcDbCircle
 10
-97.443428
 20
33.51045
 30
0.0
 40
3.941437999999998
100
AcDbArc
 50
49.394401
 51
90.0
  0
LINE
  5
1CA
330
6B
100
AcDbEntity
  8
0
 62
     3
100
AcDbLine
 10
-92.64445100000001
 20
37.516093
 30
0.0
 11
-94.465786
 21
36.464545
 31
0.0
  0
LINE
  5
1CB
330
6B
100
AcDbEntity
  8
0
 62
     3
100
AcDbLine
 10
-107.818747
 20
48.10378
 30
0.0
 11
-100.599089
 21
48.10378
 31
0.0
  0
LINE
  5
1CC
330
6B
100
AcDbEntity
  8
0
 62
     3
100
AcDbLine
 10
-87.41067800000001
 20
33.868762
 30
0.0
 11
-90.836471
 21
33.868762
 31
0.0
  0
LINE
  5
1CD
330
6B
100
AcDbEntity
  8
0
 62
     3
100
AcDbLine
 10
-77.497365
 20
29.32569
 30
0.0
 11
-77.497365
 21
33.14769
 31
0.0
  0
LINE
  5
1CE
330
6B
100
AcDbEntity
  8
0
 62
     3
100
AcDbLine
 10
-77.497365
 20
29.32569
 30
0.0
 11
-77.497365
 21
25.50369
 31
0.0
  0
ARC
  5
1CF
330
6B
100
AcDbEntity
  8
0
 62
     3
100
AcDbCircle
 10
-78.21398999999998
 20
25.50369
 30
0.0
 40
0.716625
100
AcDbArc
 50
180.0
 51
0.0
  0
LINE
  5
1D0
330
6B
100
AcDbEntity
  8
0
 62
     3
100
AcDbLine
 10
-78.930615
 20
25.742565
 30
0.0
 11
-87.05236500000003
 21
25.50369
 31
0.0
  0
LINE
  5
1D1
330
6B
100
AcDbEntity
  8
0
 62
     3
100
AcDbLine
 10
-87.41067800000001
 20
24.791512
 30
0.0
 11
-90.836471
 21
24.791512
 31
0.0
  0
ARC
  5
1D2
330
6B
100
AcDbEntity
  8
0
 62
     3
100
AcDbCircle
 10
-97.443428
 20
25.149825
 30
0.0
 40
3.941437999999998
100
AcDbArc
 50
270.0
 51
326.944269
  0
ARC
  5
1D3
330
6B
100
AcDbEntity
  8
0
 62
     3
100
AcDbCircle
 10
-90.836471
 20
20.850075
 30
0.0
 40
3.941437999999998
100
AcDbArc
 50
90.0
 51
146.944269
  0
LINE
  5
1D4
330
6B
100
AcDbEntity
  8
0
 62
     3
100
AcDbLine
 10
-87.05236500000003
 20
33.51045
 30
0.0
 11
-87.05236500000003
 21
25.149825
 31
0.0
  0
LINE
  5
1D5
330
6B
100
AcDbEntity
  8
0
 62
     3
100
AcDbLine
 10
-36.08339
 20
33.993294
 30
0.0
 11
-24.908569
 21
33.993294
 31
0.0
  0
LINE
  5
1D6
330
6B
100
AcDbEntity
  8
0
 62
     3
100
AcDbLine
 10
-36.719878
 20
33.524779
 30
0.0
 11
-37.403895
 21
31.326894
 31
0.0
  0
LINE
  5
1D7
330
6B
100
AcDbEntity
  8
0
 62
     3
100
AcDbLine
 10
-36.719878
 20
25.129409
 30
0.0
 11
-37.403895
 21
27.327294
 31
0.0
  0
LINE
  5
1D8
330
6B
100
AcDbEntity
  8
0
 62
     3
100
AcDbLine
 10
22.23254
 20
25.129409
 30
0.0
 11
22.916556
 21
27.327294
 31
0.0
  0
LINE
  5
1D9
330
6B
100
AcDbEntity
  8
0
 62
     3
100
AcDbLine
 10
22.23254
 20
33.524779
 30
0.0
 11
22.916556
 21
31.326894
 31
0.0
  0
LINE
  5
1DA
330
6B
100
AcDbEntity
  8
0
 62
     3
100
AcDbLine
 10
21.596051
 20
33.993294
 30
0.0
 11
10.421231
 21
33.993294
 31
0.0
  0
ARC
  5
1DB
330
6B
100
AcDbEntity
  8
0
 62
     3
100
AcDbCircle
 10
21.596051
 20
33.326694
 30
0.0
 40
0.6666
100
AcDbArc
 50
17.286965
 51
90.0
  0
LINE
  5
1DC
330
6B
100
AcDbEntity
  8
0
 62
     3
100
AcDbLine
 10
51.750539
 20
37.136139
 30
0.0
 11
62.762442
 21
37.136139
 31
0.0
  0
ARC
  5
1DD
330
6B
100
AcDbEntity
  8
0
 62
     3
100
AcDbCircle
 10
51.750539
 20
30.367377
 30
0.0
 40
6.768761999999998
100
AcDbArc
 50
90.0
 51
139.994799
  0
LINE
  5
1DE
330
6B
100
AcDbEntity
  8
0
 62
     3
100
AcDbLine
 10
44.873571
 20
34.718724
 30
0.0
 11
46.56576199999999
 21
34.718724
 31
0.0
  0
LINE
  5
1DF
330
6B
100
AcDbEntity
  8
0
 62
     3
100
AcDbLine
 10
44.63182999999999
 20
34.476982
 30
0.0
 11
44.63182999999999
 21
29.400411
 31
0.0
  0
LINE
  5
1E0
330
6B
100
AcDbEntity
  8
0
 62
     3
100
AcDbLine
 10
44.873571
 20
24.082098
 30
0.0
 11
46.56576199999999
 21
24.082098
 31
0.0
  0
ARC
  5
1E1
330
6B
100
AcDbEntity
  8
0
 62
     3
100
AcDbCircle
 10
51.750539
 20
28.433445
 30
0.0
 40
6.768761999999998
100
AcDbArc
 50
220.005201
 51
270.0
  0
LINE
  5
1E2
330
6B
100
AcDbEntity
  8
0
 62
     3
100
AcDbLine
 10
63.00418399999998
 20
21.664683
 30
0.0
 11
51.750539
 21
21.664683
 31
0.0
  0
ARC
  5
1E3
330
6B
100
AcDbEntity
  8
0
 62
     3
100
AcDbCircle
 10
35.203911
 20
33.510016
 30
0.0
 40
0.725225
100
AcDbArc
 50
0.0
 51
90.0
  0
ARC
  5
1E4
330
6B
100
AcDbEntity
  8
0
 62
     3
100
AcDbCircle
 10
35.203911
 20
25.290805
 30
0.0
 40
0.725225
100
AcDbArc
 50
270.0
 51
0.0
  0
LINE
  5
1E5
330
6B
100
AcDbEntity
  8
0
 62
     3
100
AcDbLine
 10
44.63182999999999
 20
25.049064
 30
0.0
 11
35.929136
 21
25.411676
 31
0.0
  0
LINE
  5
1E6
330
6B
100
AcDbEntity
  8
0
 62
     3
100
AcDbLine
 10
44.63182999999999
 20
33.751758
 30
0.0
 11
35.929136
 21
33.389145
 31
0.0
  0
LINE
  5
1E7
330
6B
100
AcDbEntity
  8
0
 62
     3
100
AcDbLine
 10
44.63182999999999
 20
24.323839
 30
0.0
 11
44.63182999999999
 21
29.400411
 31
0.0
  0
CIRCLE
  5
1E8
330
6B
100
AcDbEntity
  8
0
 62
     3
100
AcDbCircle
 10
101.21613
 20
28.564349
 30
0.0
 40
11.95425
  0
LINE
  5
1EE
330
6B
100
AcDbEntity
  8
0
100
AcDbLine
 10
70.79615099999998
 20
23.927371
 30
0.0
 11
89.101975
 21
1.894402999999999
 31
0.0
  0
LINE
  5
1EF
330
6B
100
AcDbEntity
  8
0
100
AcDbLine
 10
89.101975
 20
1.894402999999999
 30
0.0
 11
111.101975
 21
1.894402999999999
 31
0.0
  0
TEXT
  5
1F0
330
6B
100
AcDbEntity
  8
0
 62
     4
100
AcDbText
 10
91.85197499999999
 20
2.894403
 30
0.0
 40
3.2
  1
SW-2PE
  7
高3.2
100
AcDbText
  0
TEXT
  5
1F1
330
6B
100
AcDbEntity
  8
0
 62
     3
100
AcDbText
 10
47.337177
 20
-65.46156100000001
 30
0.0
 40
4.5
  1
SSW-05E
  7
高4.5
100
AcDbText
  0
TEXT
  5
1F2
330
6B
100
AcDbEntity
  8
0
 62
     3
100
AcDbText
 10
90.99687156510949
 20
-89.13390900000001
 30
0.0
 40
6.299999999999998
  1
SSW-05E
  7
高6.3
100
AcDbText
  0
LINE
  5
1F3
330
6B
100
AcDbEntity
  8
0
 62
     3
100
AcDbLine
 10
-97.443428
 20
21.208387
 30
0.0
 11
-105.206865
 21
21.208387
 31
0.0
  0
LINE
  5
1F4
330
6B
100
AcDbEntity
  8
0
 62
     3
100
AcDbLine
 10
-105.206865
 20
37.451887
 30
0.0
 11
-105.206865
 21
21.208387
 31
0.0
  0
LINE
  5
1F5
330
6B
100
AcDbEntity
  8
0
 62
     3
100
AcDbLine
 10
-107.595615
 20
37.451887
 30
0.0
 11
-108.073365
 21
37.451887
 31
0.0
  0
ARC
  5
1F6
330
6B
100
AcDbEntity
  8
0
 62
     3
100
AcDbCircle
 10
-106.40124
 20
37.17994
 30
0.0
 40
1.222999999999999
100
AcDbArc
 50
12.420692
 51
167.579308
  0
ARC
  5
1F7
330
6B
100
AcDbEntity
  8
0
 62
     3
100
AcDbCircle
 10
-106.40124
 20
21.47144
 30
0.0
 40
1.222999999999999
100
AcDbArc
 50
192.420692
 51
347.579308
  0
LINE
  5
1F8
330
6B
100
AcDbEntity
  8
0
 62
     3
100
AcDbLine
 10
-107.595615
 20
21.208387
 30
0.0
 11
-108.073365
 21
21.208387
 31
0.0
  0
LINE
  5
1F9
330
6B
100
AcDbEntity
  8
0
 62
     3
100
AcDbLine
 10
-118.538542
 20
45.71502999999998
 30
0.0
 11
-122.336714
 21
45.71502999999998
 31
0.0
  0
LINE
  5
1FA
330
6B
100
AcDbEntity
  8
0
 62
     3
100
AcDbLine
 10
-118.538542
 20
52.88128
 30
0.0
 11
-122.336714
 21
52.88128
 31
0.0
  0
ARC
  5
1FB
330
6B
100
AcDbEntity
  8
0
 62
     3
100
AcDbCircle
 10
-118.538542
 20
46.19278
 30
0.0
 40
0.47775
100
AcDbArc
 50
270.0
 51
275.710593
  0
LINE
  5
1FC
330
6B
100
AcDbEntity
  8
0
 62
     2
100
AcDbLine
 10
-118.491004
 20
45.7174
 30
0.0
 11
-118.5147139999999
 21
45.71502999999998
 31
0.0
  0
ARC
  5
1FD
330
6B
100
AcDbEntity
  8
0
 62
     3
100
AcDbCircle
 10
-118.538542
 20
52.40352999999998
 30
0.0
 40
0.47775
100
AcDbArc
 50
84.289407
 51
90.0
  0
LINE
  5
1FE
330
6B
100
AcDbEntity
  8
0
 62
     2
100
AcDbLine
 10
-118.491004
 20
52.878909
 30
0.0
 11
-118.5147139999999
 21
52.88128
 31
0.0
  0
LINE
  5
1FF
330
6B
100
AcDbEntity
  8
0
 62
     3
100
AcDbLine
 10
-117.655495
 20
45.71502999999998
 30
0.0
 11
-118.5147139999999
 21
45.71502999999998
 31
0.0
  0
LINE
  5
200
330
6B
100
AcDbEntity
  8
0
 62
     3
100
AcDbLine
 10
-117.655495
 20
52.88128
 30
0.0
 11
-118.538542
 21
52.88128
 31
0.0
  0
LINE
  5
201
330
6B
100
AcDbEntity
  8
0
 62
     3
100
AcDbLine
 10
-111.172373
 20
47.49591399999999
 30
0.0
 11
-114.301869
 21
46.322895
 31
0.0
  0
LINE
  5
202
330
6B
100
AcDbEntity
  8
0
 62
     3
100
AcDbLine
 10
-111.172373
 20
51.100395
 30
0.0
 11
-114.301869
 21
52.273414
 31
0.0
  0
ARC
  5
203
330
6B
100
AcDbEntity
  8
0
 62
     3
100
AcDbCircle
 10
-117.655495
 20
55.27003
 30
0.0
 40
9.554999999999999
100
AcDbArc
 50
270.0
 51
290.547347
  0
ARC
  5
204
330
6B
100
AcDbEntity
  8
0
 62
     3
100
AcDbCircle
 10
-117.655495
 20
43.32627999999998
 30
0.0
 40
9.554999999999999
100
AcDbArc
 50
69.45265299999999
 51
90.0
  0
LINE
  5
213
330
6B
100
AcDbEntity
  8
0
 62
     3
100
AcDbLine
 10
-107.818747
 20
50.49253
 30
0.0
 11
-100.599089
 21
50.49253
 31
0.0
  0
ARC
  5
214
330
6B
100
AcDbEntity
  8
0
 62
     3
100
AcDbCircle
 10
-107.818747
 20
38.54878
 30
0.0
 40
9.554999999999999
100
AcDbArc
 50
90.0
 51
110.547347
  0
ARC
  5
215
330
6B
100
AcDbEntity
  8
0
 62
     3
100
AcDbCircle
 10
-107.818747
 20
60.04753
 30
0.0
 40
9.554999999999999
100
AcDbArc
 50
249.452653
 51
270.0
  0
LINE
  5
216
330
6B
100
AcDbEntity
  8
0
 62
     3
100
AcDbLine
 10
-123.292214
 20
46.19278
 30
0.0
 11
-123.292214
 21
48.10378
 31
0.0
  0
LINE
  5
217
330
6B
100
AcDbEntity
  8
0
 62
     3
100
AcDbLine
 10
-123.292214
 20
50.49253
 30
0.0
 11
-123.292214
 21
52.40352999999998
 31
0.0
  0
LINE
  5
218
330
6B
100
AcDbEntity
  8
0
 62
     3
100
AcDbLine
 10
-108.073365
 20
37.451887
 30
0.0
 11
-108.073365
 21
21.208387
 31
0.0
  0
ARC
  5
219
330
6B
100
AcDbEntity
  8
0
 62
     3
100
AcDbCircle
 10
62.762442
 20
37.37788
 30
0.0
 40
0.241742
100
AcDbArc
 50
270.0
 51
0.0
  0
LINE
  5
21A
330
6B
100
AcDbEntity
  8
0
100
AcDbLine
 10
-69.48002599999999
 20
-53.23041800000001
 30
0.0
 11
-5.795320830988011
 21
-53.23041800000001
 31
0.0
  0
LINE
  5
21B
330
6B
100
AcDbEntity
  8
0
100
AcDbLine
 10
-69.48002599999999
 20
-45.230418
 30
0.0
 11
-5.795320830988011
 21
-45.230418
 31
0.0
  0
LINE
  5
21C
330
6B
100
AcDbEntity
  8
0
100
AcDbLine
 10
-45.33493309788567
 20
-61.23041800000001
 30
0.0
 11
-45.33493309788567
 21
-29.230418
 31
0.0
  0
CIRCLE
  5
21D
330
6B
100
AcDbEntity
  8
0
100
AcDbCircle
 10
101.21613
 20
28.564349
 30
0.0
 40
9.696225
  0
CIRCLE
  5
21E
330
6B
100
AcDbEntity
  8
0
100
AcDbCircle
 10
101.21613
 20
28.564349
 30
0.0
 40
10.626
  0
CIRCLE
  5
21F
330
6B
100
AcDbEntity
  8
0
100
AcDbCircle
 10
101.21613
 20
14.215998
 30
0.0
 40
1.242130999999998
  0
LINE
  5
220
330
6B
100
AcDbEntity
  8
0
100
AcDbLine
 10
67.87129200000001
 20
18.848813
 30
0.0
 11
67.87129200000001
 21
40.122065
 31
0.0
  0
LINE
  5
221
330
6B
100
AcDbEntity
  8
0
 62
     3
100
AcDbLine
 10
63.00418399999998
 20
37.37788
 30
0.0
 11
63.00418399999998
 21
38.280234
 31
0.0
  0
LINE
  5
222
330
6B
100
AcDbEntity
  8
0
 62
     3
100
AcDbLine
 10
63.00418399999998
 20
21.664683
 30
0.0
 11
63.00418399999998
 21
20.330295
 31
0.0
  0
LINE
  5
223
330
6B
100
AcDbEntity
  8
0
100
AcDbLine
 10
63.00418399999998
 20
21.664683
 30
0.0
 11
63.00418399999998
 21
37.37788
 31
0.0
  0
LINE
  5
224
330
6B
100
AcDbEntity
  8
0
100
AcDbLine
 10
46.56576199999999
 20
34.718724
 30
0.0
 11
46.56576199999999
 21
24.082098
 31
0.0
  0
LINE
  5
225
330
6B
100
AcDbEntity
  8
0
100
AcDbLine
 10
35.929136
 20
25.290805
 30
0.0
 11
35.929136
 21
33.510016
 31
0.0
  0
LINE
  5
226
330
6B
100
AcDbEntity
  8
0
100
AcDbLine
 10
25.419731
 20
30.660294
 30
0.0
 11
33.995204
 21
30.660294
 31
0.0
  0
LINE
  5
227
330
6B
100
AcDbEntity
  8
0
100
AcDbLine
 10
25.419731
 20
27.993894
 30
0.0
 11
33.995204
 21
27.993894
 31
0.0
  0
LINE
  5
228
330
6B
100
AcDbEntity
  8
0
100
AcDbLine
 10
-39.907069
 20
27.993894
 30
0.0
 11
-77.497365
 21
27.993894
 31
0.0
  0
LINE
  5
229
330
6B
100
AcDbEntity
  8
0
100
AcDbLine
 10
-39.907069
 20
30.660294
 30
0.0
 11
-77.497365
 21
30.660294
 31
0.0
  0
LINE
  5
22A
330
6B
100
AcDbEntity
  8
0
100
AcDbLine
 10
-108.073365
 20
28.219368
 30
0.0
 11
-117.186446
 21
28.219368
 31
0.0
  0
LINE
  5
22B
330
6B
100
AcDbEntity
  8
0
100
AcDbLine
 10
-108.073365
 20
30.440906
 30
0.0
 11
-117.186446
 21
30.440906
 31
0.0
  0
ARC
  5
22C
330
6B
100
AcDbEntity
  8
0
100
AcDbCircle
 10
-117.186446
 20
29.330137
 30
0.0
 40
1.110769
100
AcDbArc
 50
90.0
 51
270.0
  0
TEXT
  5
22D
330
6B
100
AcDbEntity
  8
0
100
AcDbText
 10
-99.358383
 20
48.86992
 30
0.0
 40
0.9554999999999999
  1
PE
100
AcDbText
  0
CIRCLE
  5
22E
330
6B
100
AcDbEntity
  8
0
100
AcDbCircle
 10
-94.11597699999999
 20
49.299374
 30
0.0
 40
0.47775
  0
TEXT
  5
22F
330
6B
100
AcDbEntity
  8
0
100
AcDbText
 10
-91.714383
 20
48.86992
 30
0.0
 40
0.9554999999999999
  1
PE
100
AcDbText
  0
LINE
  5
230
330
6B
100
AcDbEntity
  8
0
100
AcDbLine
 10
-100.599089
 20
48.582679
 30
0.0
 11
-83.415016
 21
48.582679
 31
0.0
  0
LINE
  5
231
330
6B
100
AcDbEntity
  8
0
100
AcDbLine
 10
-100.600594
 20
50.01606999999999
 30
0.0
 11
-83.415016
 21
50.01606999999999
 31
0.0
  0
LINE
  5
232
330
6B
100
AcDbEntity
  8
0
100
AcDbLine
 10
-89.989188
 20
38.221623
 30
0.0
 11
-92.07926699999999
 21
37.014915
 31
0.0
  0
LINE
  5
233
330
6B
100
AcDbEntity
  8
0
100
AcDbLine
 10
-83.415016
 20
38.413642
 30
0.0
 11
-89.27256300000001
 21
38.413642
 31
0.0
  0
ARC
  5
234
330
6B
100
AcDbEntity
  8
0
100
AcDbCircle
 10
-88.888768
 20
35.547002
 30
0.0
 40
1.433249999999999
100
AcDbArc
 50
90.0
 51
120.0
  0
LINE
  5
235
330
6B
100
AcDbEntity
  8
0
100
AcDbLine
 10
-88.888768
 20
36.980252
 30
0.0
 11
-83.415016
 21
36.980252
 31
0.0
  0
LINE
  5
236
330
6B
100
AcDbEntity
  8
0
100
AcDbLine
 10
-89.605393
 20
36.788233
 30
0.0
 11
-91.36264199999999
 21
35.773685
 31
0.0
  0
ARC
  5
237
330
6B
100
AcDbEntity
  8
0
100
AcDbCircle
 10
-89.27256300000001
 20
36.980392
 30
0.0
 40
1.433249999999999
100
AcDbArc
 50
90.0
 51
120.0
  0
ARC
  5
238
330
6B
100
AcDbEntity
  8
0
100
AcDbCircle
 10
-83.415016
 20
43.49816099999999
 30
0.0
 40
6.517908999999998
100
AcDbArc
 50
270.0
 51
90.0
  0
ARC
  5
239
330
6B
100
AcDbEntity
  8
0
100
AcDbCircle
 10
-83.415016
 20
43.49816099999999
 30
0.0
 40
5.084518
100
AcDbArc
 50
270.0
 51
90.0
  0
ARC
  5
23A
330
6B
100
AcDbEntity
  8
0
 62
     3
100
AcDbCircle
 10
-78.21398999999998
 20
33.14769
 30
0.0
 40
0.716625
100
AcDbArc
 50
0.0
 51
180.0
  0
LINE
  5
23B
330
6B
100
AcDbEntity
  8
0
 62
     3
100
AcDbLine
 10
-78.930615
 20
32.90881500000001
 30
0.0
 11
-87.05236500000003
 21
33.14769
 31
0.0
  0
ARC
  5
23C
330
6B
100
AcDbEntity
  8
0
 62
     3
100
AcDbCircle
 10
-87.41067800000001
 20
33.51045
 30
0.0
 40
0.358313
100
AcDbArc
 50
0.0
 51
90.0
  0
ARC
  5
23D
330
6B
100
AcDbEntity
  8
0
 62
     3
100
AcDbCircle
 10
-87.41067800000001
 20
25.149825
 30
0.0
 40
0.358313
100
AcDbArc
 50
270.0
 51
0.0
  0
ARC
  5
23E
330
6B
100
AcDbEntity
  8
0
 62
     3
100
AcDbCircle
 10
-90.836471
 20
37.8102
 30
0.0
 40
3.941437999999998
100
AcDbArc
 50
255.954941
 51
270.0
  0
ARC
  5
23F
330
6B
100
AcDbEntity
  8
0
 62
     3
100
AcDbCircle
 10
-91.70604199999999
 20
34.334192
 30
0.0
 40
0.358313
100
AcDbArc
 50
120.0
 51
255.954941
  0
LINE
  5
240
330
6B
100
AcDbEntity
  8
0
 62
     3
100
AcDbLine
 10
-91.211201
 20
35.033632
 30
0.0
 11
-91.88519799999999
 21
34.644499
 31
0.0
  0
ARC
  5
241
330
6B
100
AcDbEntity
  8
0
 62
     3
100
AcDbCircle
 10
-91.33063900000001
 20
35.24050300000001
 30
0.0
 40
0.238875
100
AcDbArc
 50
300.0
 51
30.0
  0
ARC
  5
242
330
6B
100
AcDbEntity
  8
0
 62
     3
100
AcDbCircle
 10
-92.52501399999999
 20
37.309222
 30
0.0
 40
0.238875
100
AcDbArc
 50
30.0
 51
120.0
  0
LINE
  5
243
330
6B
100
AcDbEntity
  8
0
 62
     3
100
AcDbLine
 10
-92.318142
 20
37.428659
 30
0.0
 11
-91.123767
 21
35.359941
 31
0.0
  0
ARC
  5
244
330
6B
100
AcDbEntity
  8
0
 62
     3
100
AcDbCircle
 10
-94.644942
 20
36.774853
 30
0.0
 40
0.358313
100
AcDbArc
 50
229.394401
 51
300.0
  0
LINE
  5
245
330
6B
100
AcDbEntity
  8
0
100
AcDbLine
 10
-69.48002599999999
 20
-37.230418
 30
0.0
 11
-5.795320830988011
 21
-37.230418
 31
0.0
  0
LINE
  5
246
330
6B
100
AcDbEntity
  8
0
100
AcDbLine
 10
1.02431
 20
50.798477
 30
0.0
 11
20.444357
 21
50.798477
 31
0.0
  0
LINE
  5
247
330
6B
100
AcDbEntity
  8
0
100
AcDbLine
 10
1.02431
 20
50.798477
 30
0.0
 11
-47.955645
 21
50.798477
 31
0.0
  0
LINE
  5
248
330
6B
100
AcDbEntity
  8
0
 62
     3
100
AcDbLine
 10
86.70059999999997
 20
-73.33427699999998
 30
0.0
 11
86.70059999999997
 21
-52.334277
 31
0.0
  0
LINE
  5
249
330
6B
100
AcDbEntity
  8
0
 62
     3
100
AcDbLine
 10
99.7006
 20
-73.33427699999998
 30
0.0
 11
99.7006
 21
-52.334277
 31
0.0
  0
LINE
  5
24A
330
6B
100
AcDbEntity
  8
0
 62
     3
100
AcDbLine
 10
112.7006
 20
-73.33427699999998
 30
0.0
 11
112.7006
 21
-52.334277
 31
0.0
  0
LINE
  5
24B
330
6B
100
AcDbEntity
  8
0
 62
     3
100
AcDbLine
 10
86.70059999999997
 20
-73.33427699999998
 30
0.0
 11
86.70059999999997
 21
-80.33427699999998
 31
0.0
  0
LINE
  5
24C
330
6B
100
AcDbEntity
  8
0
 62
     3
100
AcDbLine
 10
59.646991
 20
-80.33427699999998
 30
0.0
 11
59.646991
 21
-66.33427699999998
 31
0.0
  0
LINE
  5
24D
330
6B
100
AcDbEntity
  8
0
 62
     3
100
AcDbLine
 10
69.978925
 20
-66.33427699999998
 30
0.0
 11
69.978925
 21
-80.33427699999998
 31
0.0
  0
TEXT
  5
24E
330
6B
100
AcDbEntity
  8
0
 62
     3
100
AcDbText
 10
88.710918
 20
-54.129161
 30
0.0
 40
2.0
  1
A
 41
0.7
100
AcDbText
  0
TEXT
  5
24F
330
6B
100
AcDbEntity
  8
0
 62
     3
100
AcDbText
 10
91.246205
 20
-54.129161
 30
0.0
 40
2.0
  1
P
 41
0.7
100
AcDbText
  0
TEXT
  5
250
330
6B
100
AcDbEntity
  8
0
 62
     3
100
AcDbText
 10
93.78149099999999
 20
-54.129161
 30
0.0
 40
2.0
  1
P
 41
0.7
100
AcDbText
  0
TEXT
  5
251
330
6B
100
AcDbEntity
  8
0
 62
     3
100
AcDbText
 10
96.316777
 20
-54.129161
 30
0.0
 40
2.0
  1
D
 41
0.7
100
AcDbText
  0
TEXT
  5
252
330
6B
100
AcDbEntity
  8
0
 62
     3
100
AcDbText
 10
101.68546
 20
-54.129161
 30
0.0
 40
2.0
  1
C
 41
0.7
100
AcDbText
  0
TEXT
  5
253
330
6B
100
AcDbEntity
  8
0
 62
     3
100
AcDbText
 10
104.220746
 20
-54.129161
 30
0.0
 40
2.0
  1
H
 41
0.7
100
AcDbText
  0
TEXT
  5
254
330
6B
100
AcDbEntity
  8
0
 62
     3
100
AcDbText
 10
106.756033
 20
-54.129161
 30
0.0
 40
2.0
  1
C
 41
0.7
100
AcDbText
  0
TEXT
  5
255
330
6B
100
AcDbEntity
  8
0
 62
     3
100
AcDbText
 10
109.291319
 20
-54.129161
 30
0.0
 40
2.0
  1
K
 41
0.7
100
AcDbText
  0
TEXT
  5
256
330
6B
100
AcDbEntity
  8
0
 62
     3
100
AcDbText
 10
114.965285
 20
-54.129161
 30
0.0
 40
2.0
  1
DESN
 41
1.216762999999998
100
AcDbText
  0
TEXT
  5
257
330
6B
100
AcDbEntity
  8
0
 62
     3
100
AcDbText
 10
29.958927
 20
-83.47565899999997
 30
0.0
 40
2.0
  1
NICHIDO IND.CO.LTD
 41
1.274876
100
AcDbText
  0
LINE
  5
258
330
6B
100
AcDbEntity
  8
0
 62
     3
100
AcDbLine
 10
40.341956
 20
-50.33427699999999
 30
0.0
 11
40.341956
 21
-73.33427699999998
 31
0.0
  0
LINE
  5
259
330
6B
100
AcDbEntity
  8
0
 62
     3
100
AcDbLine
 10
86.70059999999997
 20
-80.33427699999998
 30
0.0
 11
86.70059999999997
 21
-90.0
 31
0.0
  0
LINE
  5
25B
330
6B
100
AcDbEntity
  8
0
 62
     3
100
AcDbLine
 10
86.70059999999997
 20
-52.334277
 30
0.0
 11
86.70059999999997
 21
-44.33427699999999
 31
0.0
  0
LINE
  5
25C
330
6B
100
AcDbEntity
  8
0
 62
     3
100
AcDbLine
 10
99.7006
 20
-52.334277
 30
0.0
 11
99.7006
 21
-50.33427699999999
 31
0.0
  0
LINE
  5
25D
330
6B
100
AcDbEntity
  8
0
 62
     3
100
AcDbLine
 10
112.7006
 20
-52.334277
 30
0.0
 11
112.7006
 21
-44.33427699999999
 31
0.0
  0
LINE
  5
25E
330
6B
100
AcDbEntity
  8
0
 62
     3
100
AcDbLine
 10
99.7006
 20
-73.33427699999998
 30
0.0
 11
99.7006
 21
-80.33427699999998
 31
0.0
  0
TEXT
  5
25F
330
6B
100
AcDbEntity
  8
0
 62
     3
100
AcDbText
 10
87.81304499999997
 20
-79.46958999999998
 30
0.0
 40
3.2
  1
作成日
 41
1.017225999999998
100
AcDbText
  0
LINE
  5
260
330
6B
100
AcDbEntity
  8
0
 62
     3
100
AcDbLine
 10
138.399964
 20
-50.33427699999999
 30
0.0
 11
27.096521
 21
-50.33427699999999
 31
0.0
  0
LINE
  5
261
330
6B
100
AcDbEntity
  8
0
 62
     3
100
AcDbLine
 10
125.7006
 20
-73.33427699999998
 30
0.0
 11
125.7006
 21
-50.33427699999999
 31
0.0
  0
TEXT
  5
262
330
6B
100
AcDbEntity
  8
0
 62
     3
100
AcDbText
 10
129.024404
 20
-54.04334299999999
 30
0.0
 40
1.8
  1
D
 41
0.666667
100
AcDbText
  0
TEXT
  5
263
330
6B
100
AcDbEntity
  8
0
 62
     3
100
AcDbText
 10
131.841032
 20
-54.04334299999999
 30
0.0
 40
1.8
  1
E
 41
0.666667
100
AcDbText
  0
TEXT
  5
264
330
6B
100
AcDbEntity
  8
0
 62
     3
100
AcDbText
 10
134.65766
 20
-54.04334299999999
 30
0.0
 40
1.8
  1
F
 41
0.666667
100
AcDbText
  0
TEXT
  5
265
330
6B
100
AcDbEntity
  8
0
 62
     3
100
AcDbText
 10
129.024404
 20
-58.03589599999999
 30
0.0
 40
3.2
  1
製図
 41
1.076369
100
AcDbText
  0
LINE
  5
266
330
6B
100
AcDbEntity
  8
0
 62
     3
100
AcDbLine
 10
27.096521
 20
-50.33427699999999
 30
0.0
 11
27.096521
 21
-90.0
 31
0.0
  0
TEXT
  5
267
330
6B
100
AcDbEntity
  8
0
 62
     3
100
AcDbText
 10
28.473174
 20
-89.66753399999998
 30
0.0
 40
5.0
  1
日動工業株式会社
 41
0.833333
100
AcDbText
  0
LINE
  5
268
330
6B
100
AcDbEntity
  8
0
 62
     3
100
AcDbLine
 10
69.978925
 20
-80.33427699999998
 30
0.0
 11
69.978925
 21
-90.0
 31
0.0
  0
LINE
  5
269
330
6B
100
AcDbEntity
  8
0
 62
     3
100
AcDbLine
 10
69.978925
 20
-85.16713799999998
 30
0.0
 11
86.70059999999997
 21
-85.16713799999998
 31
0.0
  0
TEXT
  5
26A
330
6B
100
AcDbEntity
  8
0
 62
     3
100
AcDbText
 10
70.56552700000001
 20
-84.350708
 30
0.0
 40
3.2
  1
出図コード
 41
0.8356860000000001
100
AcDbText
  0
LINE
  5
26B
330
6B
100
AcDbEntity
  8
0
 62
     3
100
AcDbLine
 10
134.763697
 20
-80.33427699999998
 30
0.0
 11
103.284149
 21
-80.33427699999998
 31
0.0
  0
LINE
  5
26C
330
6B
100
AcDbEntity
  8
0
 62
     3
100
AcDbLine
 10
134.763697
 20
-80.33427699999998
 30
0.0
 11
138.399964
 21
-80.33427699999998
 31
0.0
  0
LINE
  5
26D
330
6B
100
AcDbEntity
  8
0
 62
     3
100
AcDbLine
 10
42.242893
 20
-59.33427699999999
 30
0.0
 11
27.096521
 21
-59.33427699999999
 31
0.0
  0
LINE
  5
26E
330
6B
100
AcDbEntity
  8
0
 62
     3
100
AcDbLine
 10
84.514747
 20
-59.33427699999999
 30
0.0
 11
138.399964
 21
-59.33427699999999
 31
0.0
  0
LINE
  5
26F
330
6B
100
AcDbEntity
  8
0
 62
     3
100
AcDbLine
 10
45.828416
 20
-59.33427699999999
 30
0.0
 11
42.242893
 21
-59.33427699999999
 31
0.0
  0
LINE
  5
270
330
6B
100
AcDbEntity
  8
0
 62
     3
100
AcDbLine
 10
80.933194
 20
-59.33427699999999
 30
0.0
 11
45.828416
 21
-59.33427699999999
 31
0.0
  0
LINE
  5
271
330
6B
100
AcDbEntity
  8
0
 62
     3
100
AcDbLine
 10
80.933194
 20
-59.33427699999999
 30
0.0
 11
84.514747
 21
-59.33427699999999
 31
0.0
  0
LINE
  5
272
330
6B
100
AcDbEntity
  8
0
 62
     3
100
AcDbLine
 10
45.828416
 20
-66.33427699999998
 30
0.0
 11
27.096521
 21
-66.33427699999998
 31
0.0
  0
LINE
  5
273
330
6B
100
AcDbEntity
  8
0
 62
     3
100
AcDbLine
 10
80.845839
 20
-66.33427699999998
 30
0.0
 11
45.828416
 21
-66.33427699999998
 31
0.0
  0
LINE
  5
274
330
6B
100
AcDbEntity
  8
0
 62
     3
100
AcDbLine
 10
80.845839
 20
-66.33427699999998
 30
0.0
 11
86.70059999999997
 21
-66.33427699999998
 31
0.0
  0
LINE
  5
275
330
6B
100
AcDbEntity
  8
0
 62
     3
100
AcDbLine
 10
73.297577
 20
-80.33427699999998
 30
0.0
 11
27.096521
 21
-80.33427699999998
 31
0.0
  0
LINE
  5
276
330
6B
100
AcDbEntity
  8
0
 62
     3
100
AcDbLine
 10
83.065449
 20
-80.33427699999998
 30
0.0
 11
73.297577
 21
-80.33427699999998
 31
0.0
  0
LINE
  5
277
330
6B
100
AcDbEntity
  8
0
 62
     3
100
AcDbLine
 10
83.065449
 20
-80.33427699999998
 30
0.0
 11
103.284149
 21
-80.33427699999998
 31
0.0
  0
LINE
  5
278
330
6B
100
AcDbEntity
  8
0
 62
     3
100
AcDbLine
 10
42.500987
 20
-73.33427699999998
 30
0.0
 11
27.096521
 21
-73.33427699999998
 31
0.0
  0
LINE
  5
279
330
6B
100
AcDbEntity
  8
0
 62
     3
100
AcDbLine
 10
56.95823100000001
 20
-73.33427699999998
 30
0.0
 11
42.500987
 21
-73.33427699999998
 31
0.0
  0
LINE
  5
27A
330
6B
100
AcDbEntity
  8
0
 62
     3
100
AcDbLine
 10
56.95823100000001
 20
-73.33427699999998
 30
0.0
 11
138.399964
 21
-73.33427699999998
 31
0.0
  0
TEXT
  5
27B
330
6B
100
AcDbEntity
  8
0
 62
     3
100
AcDbText
 10
70.432979
 20
-89.39780499999997
 30
0.0
 40
3.2
  1
ZK-A4X
 41
0.8112849999999999
100
AcDbText
  0
TEXT
  5
27C
330
6B
100
AcDbEntity
  8
0
 62
     3
100
AcDbText
 10
28.913918
 20
-54.16475099999999
 30
0.0
 40
2.0
  1
CONPONENTS
 41
0.5331600000000001
100
AcDbText
  0
TEXT
  5
27D
330
6B
100
AcDbEntity
  8
0
 62
     3
100
AcDbText
 10
28.564192
 20
-73.09692799999997
 30
0.0
 40
3.0
  1
材
 41
0.833333
100
AcDbText
  0
TEXT
  5
27E
330
6B
100
AcDbEntity
  8
0
 62
     3
100
AcDbText
 10
36.099834
 20
-73.09692799999997
 30
0.0
 40
3.0
  1
質
 41
0.833333
100
AcDbText
  0
TEXT
  5
27F
330
6B
100
AcDbEntity
  8
0
 62
     3
100
AcDbText
 10
28.652262
 20
-62.47240399999999
 30
0.0
 40
2.0
  1
MODEL
 41
1.031072999999999
100
AcDbText
  0
TEXT
  5
280
330
6B
100
AcDbEntity
  8
0
 62
     3
100
AcDbText
 10
28.564192
 20
-69.41462
 30
0.0
 40
2.0
  1
MATERIAL
 41
0.659278
100
AcDbText
  0
TEXT
  5
281
330
6B
100
AcDbEntity
  8
0
 62
     3
100
AcDbText
 10
59.87147199999999
 20
-73.09692799999997
 30
0.0
 40
3.0
  1
備
 41
0.833333
100
AcDbText
  0
TEXT
  5
282
330
6B
100
AcDbEntity
  8
0
 62
     3
100
AcDbText
 10
66.60447399999999
 20
-73.09692799999997
 30
0.0
 40
3.0
  1
考
 41
0.833333
100
AcDbText
  0
TEXT
  5
283
330
6B
100
AcDbEntity
  8
0
 62
     3
100
AcDbText
 10
60.21256395131911
 20
-69.41462
 30
0.0
 40
2.0
  1
REMARKS
 41
0.675794
100
AcDbText
  0
TEXT
  5
284
330
6B
100
AcDbEntity
  8
0
 62
     3
100
AcDbText
 10
30.153921
 20
-76.33474099999998
 30
0.0
 40
2.0
  1
3AD
 41
1.42614
100
AcDbText
  0
TEXT
  5
285
330
6B
100
AcDbEntity
  8
0
 62
     3
100
AcDbText
 10
39.4649
 20
-76.16900699999998
 30
0.0
 40
2.0
  1
ANGLE
 41
1.669883999999998
100
AcDbText
  0
TEXT
  5
286
330
6B
100
AcDbEntity
  8
0
 62
     3
100
AcDbText
 10
60.398787
 20
-76.54584799999998
 30
0.0
 40
2.0
  1
SCALE
 41
0.7719630000000001
100
AcDbText
  0
TEXT
  5
287
330
6B
100
AcDbEntity
  8
0
 62
     3
100
AcDbText
 10
29.84005
 20
-80.33427699999998
 30
0.0
 40
3.0
  1
第
 41
0.833333
100
AcDbText
  0
TEXT
  5
288
330
6B
100
AcDbEntity
  8
0
 62
     3
100
AcDbText
 10
37.6269
 20
-80.33427699999998
 30
0.0
 40
3.0
  1
三
 41
0.833333
100
AcDbText
  0
TEXT
  5
289
330
6B
100
AcDbEntity
  8
0
 62
     3
100
AcDbText
 10
45.41375
 20
-80.33427699999998
 30
0.0
 40
3.0
  1
角
 41
0.833333
100
AcDbText
  0
TEXT
  5
28A
330
6B
100
AcDbEntity
  8
0
 62
     3
100
AcDbText
 10
53.2006
 20
-80.33427699999998
 30
0.0
 40
3.0
  1
法
 41
0.833333
100
AcDbText
  0
TEXT
  5
28B
330
6B
100
AcDbEntity
  8
0
 62
     3
100
AcDbText
 10
60.261992
 20
-80.04584799999998
 30
0.0
 40
3.0
  1
尺
 41
0.833333
100
AcDbText
  0
TEXT
  5
28C
330
6B
100
AcDbEntity
  8
0
 62
     3
100
AcDbText
 10
66.99499399999999
 20
-80.04584799999998
 30
0.0
 40
3.0
  1
度
 41
0.833333
100
AcDbText
  0
TEXT
  5
28D
330
6B
100
AcDbEntity
  8
0
 62
     3
100
AcDbText
 10
89.57826500000001
 20
-57.876548
 30
0.0
 40
3.0
  1
承認
 41
1.089472999999999
100
AcDbText
  0
TEXT
  5
28E
330
6B
100
AcDbEntity
  8
0
 62
     3
100
AcDbText
 10
102.821145
 20
-57.93427699999998
 30
0.0
 40
3.0
  1
検図
 41
0.931761
100
AcDbText
  0
TEXT
  5
28F
330
6B
100
AcDbEntity
  8
0
 62
     3
100
AcDbText
 10
115.821542
 20
-57.93427699999998
 30
0.0
 40
3.0
  1
設
 41
0.833333
100
AcDbText
  0
TEXT
  5
290
330
6B
100
AcDbEntity
  8
0
 62
     3
100
AcDbText
 10
120.31141
 20
-57.93427699999998
 30
0.0
 40
3.0
  1
計
 41
0.833333
100
AcDbText
  0
TEXT
  5
291
330
6B
100
AcDbEntity
  8
0
 62
     3
100
AcDbText
 10
28.84539
 20
-58.645521
 30
0.0
 40
3.0
  1
品
 41
0.833333
100
AcDbText
  0
TEXT
  5
292
330
6B
100
AcDbEntity
  8
0
 62
     3
100
AcDbText
 10
36.381032
 20
-58.645521
 30
0.0
 40
3.0
  1
名
 41
0.833333
100
AcDbText
  0
TEXT
  5
293
330
6B
100
AcDbEntity
  8
0
 62
     3
100
AcDbText
 10
28.652262
 20
-66.10466399999999
 30
0.0
 40
3.0
  1
型
 41
0.833333
100
AcDbText
  0
TEXT
  5
294
330
6B
100
AcDbEntity
  8
0
 62
     3
100
AcDbText
 10
36.200353
 20
-66.10466399999999
 30
0.0
 40
3.0
  1
式
 41
0.833333
100
AcDbText
  0
TEXT
  5
2AD
330
6B
100
AcDbEntity
  8
0
 62
     3
100
AcDbText
 10
71.62858799999998
 20
-79.40876
 30
0.0
 40
3.2
  1
FREE
  7
高3.2
100
AcDbText
  0
TEXT
  5
2B5
330
6B
100
AcDbEntity
  8
0
 62
     3
100
AcDbText
 10
-43.83493309788567
 20
-36.730418
 30
0.0
 40
4.5
  1
12A 125V
  7
高4.5
100
AcDbText
  0
LINE
  5
2B6
330
6B
100
AcDbEntity
  8
0
100
AcDbLine
 10
61.336214
 20
30.817224
 30
0.0
 11
61.336214
 21
30.735983
 31
0.0
  0
ARC
  5
2B7
330
6B
100
AcDbEntity
  8
0
100
AcDbCircle
 10
61.229788
 20
30.817224
 30
0.0
 40
0.106426
100
AcDbArc
 50
0.0
 51
90.0
  0
LINE
  5
2B8
330
6B
100
AcDbEntity
  8
0
100
AcDbLine
 10
61.229788
 20
30.923651
 30
0.0
 11
60.10378199999999
 21
30.923651
 31
0.0
  0
LINE
  5
2B9
330
6B
100
AcDbEntity
  8
0
100
AcDbLine
 10
59.772317
 20
31.711692
 30
0.0
 11
59.772317
 21
30.735983
 31
0.0
  0
LINE
  5
2BA
330
6B
100
AcDbEntity
  8
0
100
AcDbLine
 10
59.99735600000001
 20
31.711692
 30
0.0
 11
59.772317
 21
31.711692
 31
0.0
  0
LINE
  5
2BB
330
6B
100
AcDbEntity
  8
0
100
AcDbLine
 10
59.99735600000001
 20
31.630451
 30
0.0
 11
59.99735600000001
 21
31.711692
 31
0.0
  0
ARC
  5
2BC
330
6B
100
AcDbEntity
  8
0
100
AcDbCircle
 10
60.10378199999999
 20
31.630451
 30
0.0
 40
0.106426
100
AcDbArc
 50
180.0
 51
270.0
  0
LINE
  5
2BD
330
6B
100
AcDbEntity
  8
0
100
AcDbLine
 10
61.56120999999998
 20
30.357434
 30
0.0
 11
61.56120999999998
 21
29.444281
 31
0.0
  0
LINE
  5
2BE
330
6B
100
AcDbEntity
  8
0
100
AcDbLine
 10
61.56120999999998
 20
30.357434
 30
0.0
 11
61.334683
 21
30.357434
 31
0.0
  0
LINE
  5
2BF
330
6B
100
AcDbEntity
  8
0
100
AcDbLine
 10
61.334683
 20
30.289733
 30
0.0
 11
61.334683
 21
30.357434
 31
0.0
  0
ARC
  5
2C0
330
6B
100
AcDbEntity
  8
0
100
AcDbCircle
 10
61.22974499999998
 20
30.30747100000001
 30
0.0
 40
0.106426
100
AcDbArc
 50
270.0
 51
350.405932
  0
LINE
  5
2C1
330
6B
100
AcDbEntity
  8
0
100
AcDbLine
 10
61.22974499999998
 20
30.201044
 30
0.0
 11
60.10374
 21
30.201044
 31
0.0
  0
ARC
  5
2C2
330
6B
100
AcDbEntity
  8
0
100
AcDbCircle
 10
60.10374
 20
30.30747100000001
 30
0.0
 40
0.106426
100
AcDbArc
 50
189.5940679999999
 51
270.0
  0
LINE
  5
2C3
330
6B
100
AcDbEntity
  8
0
100
AcDbLine
 10
59.998802
 20
30.289733
 30
0.0
 11
59.998802
 21
30.357434
 31
0.0
  0
LINE
  5
2C4
330
6B
100
AcDbEntity
  8
0
100
AcDbLine
 10
59.998802
 20
30.357434
 30
0.0
 11
59.772275
 21
30.357434
 31
0.0
  0
LINE
  5
2C5
330
6B
100
AcDbEntity
  8
0
100
AcDbLine
 10
59.772275
 20
30.357434
 30
0.0
 11
59.772275
 21
29.444281
 31
0.0
  0
ARC
  5
2C6
330
6B
100
AcDbEntity
  8
0
100
AcDbCircle
 10
61.229788
 20
31.630451
 30
0.0
 40
0.106426
100
AcDbArc
 50
270.0
 51
0.0
  0
LINE
  5
2C7
330
6B
100
AcDbEntity
  8
0
100
AcDbLine
 10
61.229788
 20
31.524024
 30
0.0
 11
60.10378199999999
 21
31.524024
 31
0.0
  0
LINE
  5
2C8
330
6B
100
AcDbEntity
  8
0
100
AcDbLine
 10
61.561253
 20
31.711692
 30
0.0
 11
61.336214
 21
31.711692
 31
0.0
  0
LINE
  5
2C9
330
6B
100
AcDbEntity
  8
0
100
AcDbLine
 10
61.336214
 20
31.630451
 30
0.0
 11
61.336214
 21
31.711692
 31
0.0
  0
LINE
  5
2CA
330
6B
100
AcDbEntity
  8
0
100
AcDbLine
 10
61.561253
 20
31.711692
 30
0.0
 11
61.561253
 21
30.735983
 31
0.0
  0
LINE
  5
2CB
330
6B
100
AcDbEntity
  8
0
100
AcDbLine
 10
61.561253
 20
30.735983
 30
0.0
 11
61.336214
 21
30.735983
 31
0.0
  0
LINE
  5
2CC
330
6B
100
AcDbEntity
  8
0
100
AcDbLine
 10
59.99735600000001
 20
32.07534000000001
 30
0.0
 11
59.772317
 21
32.07534000000001
 31
0.0
  0
ARC
  5
2CD
330
6B
100
AcDbEntity
  8
0
100
AcDbCircle
 10
60.10378199999999
 20
32.15658100000001
 30
0.0
 40
0.106426
100
AcDbArc
 50
90.0
 51
180.0
  0
LINE
  5
2CE
330
6B
100
AcDbEntity
  8
0
100
AcDbLine
 10
59.99735600000001
 20
32.15658100000001
 30
0.0
 11
59.99735600000001
 21
32.07534000000001
 31
0.0
  0
LINE
  5
2CF
330
6B
100
AcDbEntity
  8
0
100
AcDbLine
 10
59.772317
 20
33.128911
 30
0.0
 11
59.772317
 21
32.07534000000001
 31
0.0
  0
LINE
  5
2D0
330
6B
100
AcDbEntity
  8
0
100
AcDbLine
 10
61.229788
 20
32.263007
 30
0.0
 11
60.10378199999999
 21
32.263007
 31
0.0
  0
LINE
  5
2D1
330
6B
100
AcDbEntity
  8
0
100
AcDbLine
 10
61.27365799999999
 20
32.863381
 30
0.0
 11
60.059912
 21
32.863381
 31
0.0
  0
LINE
  5
2D2
330
6B
100
AcDbEntity
  8
0
100
AcDbLine
 10
60.059912
 20
32.863381
 30
0.0
 11
60.059912
 21
32.945231
 31
0.0
  0
ARC
  5
2D3
330
6B
100
AcDbEntity
  8
0
100
AcDbCircle
 10
60.666785
 20
32.52670300000001
 30
0.0
 40
0.7371979999999999
100
AcDbArc
 50
34.591955
 51
145.408045
  0
ARC
  5
2D4
330
6B
100
AcDbEntity
  8
0
100
AcDbCircle
 10
60.47911800000001
 20
33.128911
 30
0.0
 40
0.7068
100
AcDbArc
 50
107.308749
 51
180.0
  0
ARC
  5
2D5
330
6B
100
AcDbEntity
  8
0
100
AcDbCircle
 10
60.85445299999999
 20
33.128911
 30
0.0
 40
0.7068
100
AcDbArc
 50
0.0
 51
72.691251
  0
LINE
  5
2D6
330
6B
100
AcDbEntity
  8
0
100
AcDbLine
 10
61.561253
 20
33.128911
 30
0.0
 11
61.561253
 21
32.07534000000001
 31
0.0
  0
LINE
  5
2D7
330
6B
100
AcDbEntity
  8
0
100
AcDbLine
 10
61.561253
 20
32.07534000000001
 30
0.0
 11
61.336214
 21
32.07534000000001
 31
0.0
  0
LINE
  5
2D8
330
6B
100
AcDbEntity
  8
0
100
AcDbLine
 10
61.336214
 20
32.15658100000001
 30
0.0
 11
61.336214
 21
32.07534000000001
 31
0.0
  0
ARC
  5
2D9
330
6B
100
AcDbEntity
  8
0
100
AcDbCircle
 10
61.229788
 20
32.15658100000001
 30
0.0
 40
0.106426
100
AcDbArc
 50
0.0
 51
90.0
  0
ARC
  5
2DA
330
6B
100
AcDbEntity
  8
0
100
AcDbCircle
 10
60.10378199999999
 20
30.817224
 30
0.0
 40
0.106426
100
AcDbArc
 50
90.0
 51
180.0
  0
LINE
  5
2DB
330
6B
100
AcDbEntity
  8
0
100
AcDbLine
 10
59.99735600000001
 20
30.817224
 30
0.0
 11
59.99735600000001
 21
30.735983
 31
0.0
  0
LINE
  5
2DC
330
6B
100
AcDbEntity
  8
0
100
AcDbLine
 10
59.99735600000001
 20
30.735983
 30
0.0
 11
59.772317
 21
30.735983
 31
0.0
  0
LINE
  5
2DD
330
6B
100
AcDbEntity
  8
0
100
AcDbLine
 10
61.27365799999999
 20
32.863381
 30
0.0
 11
61.27365799999999
 21
32.945231
 31
0.0
  0
ARC
  5
2DE
330
6B
100
AcDbEntity
  8
0
100
AcDbCircle
 10
60.666785
 20
32.52670300000001
 30
0.0
 40
1.337571999999998
100
AcDbArc
 50
72.691434
 51
107.308749
  0
ARC
  5
2DF
330
6B
100
AcDbEntity
  8
0
100
AcDbCircle
 10
60.780602
 20
32.908793
 30
0.0
 40
1.268923
100
AcDbArc
 50
70.309365
 51
116.324716
  0
ARC
  5
2E0
330
6B
100
AcDbEntity
  8
0
100
AcDbCircle
 10
60.652978
 20
35.803738
 30
0.0
 40
1.186904
100
AcDbArc
 50
240.638533
 51
300.665587
  0
ARC
  5
2E1
330
6B
100
AcDbEntity
  8
0
100
AcDbCircle
 10
60.66995099999999
 20
34.817945
 30
0.0
 40
0.8944679999999999
100
AcDbArc
 50
306.991921
 51
239.64216
  0
ARC
  5
2E2
330
6B
100
AcDbEntity
  8
0
100
AcDbCircle
 10
60.652977
 20
33.83215300000002
 30
0.0
 40
1.186904
100
AcDbArc
 50
59.15947499999999
 51
119.627727
  0
ARC
  5
2E3
330
6B
100
AcDbEntity
  8
0
100
AcDbCircle
 10
61.22683499999999
 20
34.818523
 30
0.0
 40
0.047616
100
AcDbArc
 50
311.410731
 51
43.37822899999999
  0
ARC
  5
2E4
330
6B
100
AcDbEntity
  8
0
100
AcDbCircle
 10
60.106735
 20
34.818523
 30
0.0
 40
0.060817
100
AcDbArc
 50
131.778184
 51
234.034877
  0
LINE
  5
2E5
330
6B
100
AcDbEntity
  8
0
100
AcDbLine
 10
61.22978299999999
 20
26.232275
 30
0.0
 11
60.103777
 21
26.232256
 31
0.0
  0
LINE
  5
2E6
330
6B
100
AcDbEntity
  8
0
100
AcDbLine
 10
59.99734899999999
 20
26.33868
 30
0.0
 11
59.99734799999998
 21
26.419921
 31
0.0
  0
ARC
  5
2E7
330
6B
100
AcDbEntity
  8
0
100
AcDbCircle
 10
60.103775
 20
26.338682
 30
0.0
 40
0.106426
100
AcDbArc
 50
180.001
 51
270.001
  0
LINE
  5
2E8
330
6B
100
AcDbEntity
  8
0
100
AcDbLine
 10
59.99734799999998
 20
26.419921
 30
0.0
 11
59.772309
 21
26.419917
 31
0.0
  0
LINE
  5
2E9
330
6B
100
AcDbEntity
  8
0
100
AcDbLine
 10
59.772326
 20
25.444208
 30
0.0
 11
59.772309
 21
26.419917
 31
0.0
  0
LINE
  5
2EA
330
6B
100
AcDbEntity
  8
0
100
AcDbLine
 10
60.821404
 20
23.833957
 30
0.0
 11
60.10378199999999
 21
23.833957
 31
0.0
  0
ARC
  5
2EB
330
6B
100
AcDbEntity
  8
0
100
AcDbCircle
 10
60.10378199999999
 20
23.940383
 30
0.0
 40
0.106426
100
AcDbArc
 50
180.0
 51
270.0
  0
LINE
  5
2EC
330
6B
100
AcDbEntity
  8
0
100
AcDbLine
 10
59.772317
 20
23.358695
 30
0.0
 11
59.772317
 21
24.021624
 31
0.0
  0
ARC
  5
2ED
330
6B
100
AcDbEntity
  8
0
100
AcDbCircle
 10
60.666785
 20
27.484453
 30
0.0
 40
0.8944679999999999
100
AcDbArc
 50
137.17688
 51
43.24712
  0
ARC
  5
2EE
330
6B
100
AcDbEntity
  8
0
100
AcDbCircle
 10
60.68784799999999
 20
21.791908
 30
0.0
 40
6.336827999999998
100
AcDbArc
 50
92.305966
 51
96.133994
  0
LINE
  5
2EF
330
6B
100
AcDbEntity
  8
0
100
AcDbLine
 10
60.43445
 20
27.699355
 30
0.0
 11
60.43288100000001
 21
28.123605
 31
0.0
  0
LINE
  5
332
330
6B
100
AcDbEntity
  8
0
100
AcDbLine
 10
60.897523
 20
27.701069
 30
0.0
 11
60.895953
 21
28.125318
 31
0.0
  0
ARC
  5
333
330
6B
100
AcDbEntity
  8
0
100
AcDbCircle
 10
60.68784799999999
 20
21.791908
 30
0.0
 40
6.336827999999998
100
AcDbArc
 50
84.290006
 51
88.118034
  0
ARC
  5
334
330
6B
100
AcDbEntity
  8
0
100
AcDbCircle
 10
61.229781
 20
26.338701
 30
0.0
 40
0.106426
100
AcDbArc
 50
270.001
 51
0.000972
  0
LINE
  5
335
330
6B
100
AcDbEntity
  8
0
100
AcDbLine
 10
61.56124399999999
 20
26.419949
 30
0.0
 11
61.336206
 21
26.419945
 31
0.0
  0
LINE
  5
336
330
6B
100
AcDbEntity
  8
0
100
AcDbLine
 10
61.561261
 20
25.44424
 30
0.0
 11
61.56124399999999
 21
26.419949
 31
0.0
  0
LINE
  5
337
330
6B
100
AcDbEntity
  8
0
100
AcDbLine
 10
61.33620699999998
 20
26.338703
 30
0.0
 11
61.336206
 21
26.419945
 31
0.0
  0
ARC
  5
338
330
6B
100
AcDbEntity
  8
0
100
AcDbCircle
 10
61.229789
 20
25.52546700000001
 30
0.0
 40
0.106426
100
AcDbArc
 50
0.000226
 51
90.00019699999999
  0
LINE
  5
339
330
6B
100
AcDbEntity
  8
0
100
AcDbLine
 10
61.229789
 20
25.631893
 30
0.0
 11
60.10378299999999
 21
25.63189
 31
0.0
  0
ARC
  5
33A
330
6B
100
AcDbEntity
  8
0
100
AcDbCircle
 10
60.103789
 20
25.525456
 30
0.0
 40
0.106426
100
AcDbArc
 50
90.00100000000001
 51
180.001
  0
LINE
  5
33B
330
6B
100
AcDbEntity
  8
0
100
AcDbLine
 10
59.997365
 20
25.444212
 30
0.0
 11
59.772326
 21
25.444208
 31
0.0
  0
LINE
  5
33C
330
6B
100
AcDbEntity
  8
0
100
AcDbLine
 10
59.997363
 20
25.525454
 30
0.0
 11
59.997365
 21
25.444212
 31
0.0
  0
LINE
  5
33D
330
6B
100
AcDbEntity
  8
0
100
AcDbLine
 10
61.561261
 20
25.44424
 30
0.0
 11
61.33622299999998
 21
25.444236
 31
0.0
  0
LINE
  5
33E
330
6B
100
AcDbEntity
  8
0
100
AcDbLine
 10
61.336221
 20
25.525477
 30
0.0
 11
61.33622299999998
 21
25.444236
 31
0.0
  0
LINE
  5
33F
330
6B
100
AcDbEntity
  8
0
100
AcDbLine
 10
59.99735600000001
 20
24.021624
 30
0.0
 11
59.772317
 21
24.021624
 31
0.0
  0
LINE
  5
340
330
6B
100
AcDbEntity
  8
0
100
AcDbLine
 10
59.99735600000001
 20
23.940383
 30
0.0
 11
59.99735600000001
 21
24.021624
 31
0.0
  0
LINE
  5
341
330
6B
100
AcDbEntity
  8
0
100
AcDbLine
 10
60.821404
 20
23.833957
 30
0.0
 11
59.772317
 21
24.489636
 31
0.0
  0
LINE
  5
342
330
6B
100
AcDbEntity
  8
0
100
AcDbLine
 10
59.772317
 20
24.489636
 30
0.0
 11
59.772317
 21
24.928684
 31
0.0
  0
LINE
  5
343
330
6B
100
AcDbEntity
  8
0
100
AcDbLine
 10
61.16723199999999
 20
24.928684
 30
0.0
 11
59.772317
 21
24.928684
 31
0.0
  0
ARC
  5
344
330
6B
100
AcDbEntity
  8
0
100
AcDbCircle
 10
61.16723199999999
 20
25.097667
 30
0.0
 40
0.168982
100
AcDbArc
 50
270.0
 51
6.348574
  0
LINE
  5
345
330
6B
100
AcDbEntity
  8
0
100
AcDbLine
 10
61.561253
 20
25.116352
 30
0.0
 11
61.335178
 21
25.116352
 31
0.0
  0
LINE
  5
346
330
6B
100
AcDbEntity
  8
0
100
AcDbLine
 10
61.561253
 20
24.453422
 30
0.0
 11
61.561253
 21
25.116352
 31
0.0
  0
LINE
  5
347
330
6B
100
AcDbEntity
  8
0
100
AcDbLine
 10
61.561253
 20
24.453422
 30
0.0
 11
61.336214
 21
24.453422
 31
0.0
  0
LINE
  5
348
330
6B
100
AcDbEntity
  8
0
100
AcDbLine
 10
61.336214
 20
24.453422
 30
0.0
 11
61.336214
 21
24.534664
 31
0.0
  0
ARC
  5
349
330
6B
100
AcDbEntity
  8
0
100
AcDbCircle
 10
61.229788
 20
24.534664
 30
0.0
 40
0.106426
100
AcDbArc
 50
0.0
 51
90.0
  0
LINE
  5
34A
330
6B
100
AcDbEntity
  8
0
100
AcDbLine
 10
60.750987
 20
24.64109
 30
0.0
 11
61.229788
 21
24.64109
 31
0.0
  0
LINE
  5
34B
330
6B
100
AcDbEntity
  8
0
100
AcDbLine
 10
60.750987
 20
24.64109
 30
0.0
 11
61.561253
 21
24.109353
 31
0.0
  0
LINE
  5
34C
330
6B
100
AcDbEntity
  8
0
100
AcDbLine
 10
61.561253
 20
23.358695
 30
0.0
 11
61.561253
 21
24.109353
 31
0.0
  0
LINE
  5
34D
330
6B
100
AcDbEntity
  8
0
100
AcDbLine
 10
60.10374
 20
28.599777
 30
0.0
 11
61.22974499999998
 21
28.599777
 31
0.0
  0
LINE
  5
34E
330
6B
100
AcDbEntity
  8
0
100
AcDbLine
 10
61.56120999999998
 20
28.443387
 30
0.0
 11
61.56120999999998
 21
29.35654
 31
0.0
  0
ARC
  5
34F
330
6B
100
AcDbEntity
  8
0
100
AcDbCircle
 10
61.22974499999998
 20
28.52462800000001
 30
0.0
 40
0.075148
100
AcDbArc
 50
0.0
 51
90.0
  0
LINE
  5
350
330
6B
100
AcDbEntity
  8
0
100
AcDbLine
 10
61.304894
 20
28.52462800000001
 30
0.0
 11
61.304894
 21
28.443387
 31
0.0
  0
LINE
  5
351
330
6B
100
AcDbEntity
  8
0
100
AcDbLine
 10
61.304894
 20
28.443387
 30
0.0
 11
61.56120999999998
 21
28.443387
 31
0.0
  0
ARC
  5
352
330
6B
100
AcDbEntity
  8
0
100
AcDbCircle
 10
60.10374
 20
28.52462800000001
 30
0.0
 40
0.075148
100
AcDbArc
 50
90.0
 51
180.0
  0
LINE
  5
353
330
6B
100
AcDbEntity
  8
0
100
AcDbLine
 10
60.028592
 20
28.52462800000001
 30
0.0
 11
60.028592
 21
28.443387
 31
0.0
  0
LINE
  5
354
330
6B
100
AcDbEntity
  8
0
100
AcDbLine
 10
59.772275
 20
28.443387
 30
0.0
 11
60.028592
 21
28.443387
 31
0.0
  0
LINE
  5
355
330
6B
100
AcDbEntity
  8
0
100
AcDbLine
 10
59.772275
 20
28.443387
 30
0.0
 11
59.772275
 21
29.35654
 31
0.0
  0
ARC
  5
356
330
6B
100
AcDbEntity
  8
0
100
AcDbCircle
 10
61.22974499999998
 20
29.494244
 30
0.0
 40
0.106426
100
AcDbArc
 50
9.594068
 51
90.0
  0
LINE
  5
357
330
6B
100
AcDbEntity
  8
0
100
AcDbLine
 10
61.334683
 20
29.511982
 30
0.0
 11
61.334683
 21
29.444281
 31
0.0
  0
LINE
  5
358
330
6B
100
AcDbEntity
  8
0
100
AcDbLine
 10
60.81054
 20
29.600671
 30
0.0
 11
61.22974499999998
 21
29.600671
 31
0.0
  0
LINE
  5
359
330
6B
100
AcDbEntity
  8
0
100
AcDbLine
 10
60.81054
 20
29.600671
 30
0.0
 11
60.81054
 21
29.20015
 31
0.0
  0
LINE
  5
35A
330
6B
100
AcDbEntity
  8
0
100
AcDbLine
 10
60.52294499999999
 20
29.600671
 30
0.0
 11
60.52294499999999
 21
29.20015
 31
0.0
  0
LINE
  5
35B
330
6B
100
AcDbEntity
  8
0
100
AcDbLine
 10
60.10374
 20
29.600671
 30
0.0
 11
60.52294499999999
 21
29.600671
 31
0.0
  0
ARC
  5
35C
330
6B
100
AcDbEntity
  8
0
100
AcDbCircle
 10
60.10374
 20
29.494244
 30
0.0
 40
0.106426
100
AcDbArc
 50
90.0
 51
170.405932
  0
LINE
  5
35D
330
6B
100
AcDbEntity
  8
0
100
AcDbLine
 10
59.998802
 20
29.511982
 30
0.0
 11
59.998802
 21
29.444281
 31
0.0
  0
LINE
  5
35E
330
6B
100
AcDbEntity
  8
0
100
AcDbLine
 10
59.998802
 20
29.444281
 30
0.0
 11
59.772275
 21
29.444281
 31
0.0
  0
LINE
  5
35F
330
6B
100
AcDbEntity
  8
0
100
AcDbLine
 10
59.998802
 20
29.35654
 30
0.0
 11
59.772275
 21
29.35654
 31
0.0
  0
LINE
  5
360
330
6B
100
AcDbEntity
  8
0
100
AcDbLine
 10
59.998802
 20
29.28883900000001
 30
0.0
 11
59.998802
 21
29.35654
 31
0.0
  0
ARC
  5
361
330
6B
100
AcDbEntity
  8
0
100
AcDbCircle
 10
60.10374
 20
29.306577
 30
0.0
 40
0.106426
100
AcDbArc
 50
189.5940679999999
 51
270.0
  0
LINE
  5
362
330
6B
100
AcDbEntity
  8
0
100
AcDbLine
 10
60.10374
 20
29.20015
 30
0.0
 11
60.52294499999999
 21
29.20015
 31
0.0
  0
LINE
  5
363
330
6B
100
AcDbEntity
  8
0
100
AcDbLine
 10
60.81054
 20
29.20015
 30
0.0
 11
61.22974499999998
 21
29.20015
 31
0.0
  0
ARC
  5
364
330
6B
100
AcDbEntity
  8
0
100
AcDbCircle
 10
61.22974499999998
 20
29.306577
 30
0.0
 40
0.106426
100
AcDbArc
 50
270.0
 51
350.405932
  0
LINE
  5
365
330
6B
100
AcDbEntity
  8
0
100
AcDbLine
 10
61.334683
 20
29.28883900000001
 30
0.0
 11
61.334683
 21
29.35654
 31
0.0
  0
LINE
  5
366
330
6B
100
AcDbEntity
  8
0
100
AcDbLine
 10
61.334683
 20
29.35654
 30
0.0
 11
61.56120999999998
 21
29.35654
 31
0.0
  0
LINE
  5
367
330
6B
100
AcDbEntity
  8
0
100
AcDbLine
 10
61.334683
 20
29.444281
 30
0.0
 11
61.56120999999998
 21
29.444281
 31
0.0
  0
LINE
  5
368
330
6B
100
AcDbEntity
  8
0
100
AcDbLine
 10
59.99735600000001
 20
23.358695
 30
0.0
 11
59.772317
 21
23.358695
 31
0.0
  0
LINE
  5
369
330
6B
100
AcDbEntity
  8
0
100
AcDbLine
 10
61.229788
 20
23.546362
 30
0.0
 11
60.10378199999999
 21
23.546362
 31
0.0
  0
ARC
  5
36A
330
6B
100
AcDbEntity
  8
0
100
AcDbCircle
 10
60.10378199999999
 20
23.439936
 30
0.0
 40
0.106426
100
AcDbArc
 50
90.0
 51
180.0
  0
LINE
  5
36B
330
6B
100
AcDbEntity
  8
0
100
AcDbLine
 10
59.99735600000001
 20
23.439936
 30
0.0
 11
59.99735600000001
 21
23.358695
 31
0.0
  0
ARC
  5
36C
330
6B
100
AcDbEntity
  8
0
100
AcDbCircle
 10
61.229788
 20
23.439936
 30
0.0
 40
0.106426
100
AcDbArc
 50
0.0
 51
90.0
  0
LINE
  5
36D
330
6B
100
AcDbEntity
  8
0
100
AcDbLine
 10
61.561253
 20
23.358695
 30
0.0
 11
61.336214
 21
23.358695
 31
0.0
  0
LINE
  5
36E
330
6B
100
AcDbEntity
  8
0
100
AcDbLine
 10
61.336214
 20
23.439936
 30
0.0
 11
61.336214
 21
23.358695
 31
0.0
  0
LINE
  5
36F
330
6B
100
AcDbEntity
  8
0
 62
     3
100
AcDbLine
 10
-138.5
 20
90.0
 30
0.0
 11
-138.5
 21
-90.0
 31
0.0
  0
LINE
  5
370
330
6B
100
AcDbEntity
  8
0
 62
     3
100
AcDbLine
 10
138.5
 20
-90.0
 30
0.0
 11
138.5
 21
90.0
 31
0.0
  0
LINE
  5
371
330
6B
100
AcDbEntity
  8
0
 62
     3
100
AcDbLine
 10
-138.5
 20
-90.0
 30
0.0
 11
138.5
 21
-90.0
 31
0.0
  0
LINE
  5
372
330
6B
100
AcDbEntity
  8
0
 62
     3
100
AcDbLine
 10
-138.5
 20
90.0
 30
0.0
 11
138.5
 21
90.0
 31
0.0
  0
TEXT
  5
373
330
6B
100
AcDbEntity
  8
0
 62
     3
100
AcDbText
 10
-43.83493309788567
 20
-52.73041800000001
 30
0.0
 40
4.5
  1
0.75sqx3c
  7
高4.5
100
AcDbText
  0
LINE
  5
374
330
6B
100
AcDbEntity
  8
0
 62
     3
100
AcDbLine
 10
138.399964
 20
-44.33427699999999
 30
0.0
 11
86.70059999999997
 21
-44.33427699999999
 31
0.0
  0
TEXT
  5
375
330
6B
100
AcDbEntity
  8
0
 62
     3
100
AcDbText
 10
92.40925697112983
 20
-49.8332093964224
 30
0.0
 40
4.5
  1
コード
  7
高4.5
100
AcDbText
  0
TEXT
  5
376
330
6B
100
AcDbEntity
  8
0
 62
     3
100
AcDbText
 10
-43.83493309788567
 20
-44.73041799999999
 30
0.0
 40
4.5
  1
VCT
  7
高4.5
100
AcDbText
  0
TEXT
  5
377
330
6B
100
AcDbEntity
  8
0
 62
     3
100
AcDbText
 10
115.8043926673607
 20
-49.88305036149725
 30
0.0
 40
4.5
  1
29198
  7
高4.5
100
AcDbText
  0
TEXT
  5
455
330
6B
100
AcDbEntity
  8
0
 62
     3
100
AcDbText
 10
126.0
 20
80.5
 30
0.0
 40
3.2
  1
担　当
  7
高3.2
100
AcDbText
  0
TEXT
  5
456
330
6B
100
AcDbEntity
  8
0
 62
     3
100
AcDbText
 10
82.0
 20
80.5
 30
0.0
 40
3.2
  1
変更・追記内容
  7
高3.2
100
AcDbText
  0
TEXT
  5
457
330
6B
100
AcDbEntity
  8
0
 62
     3
100
AcDbText
 10
57.11351500033924
 20
75.8294614900917
 30
0.0
 40
2.0
  1
1
  7
高2
100
AcDbText
  0
TEXT
  5
458
330
6B
100
AcDbEntity
  8
0
 62
     3
100
AcDbText
 10
56.80500352358193
 20
70.65964477781881
 30
0.0
 40
2.0
  1
2
  7
高2
100
AcDbText
  0
TEXT
  5
459
330
6B
100
AcDbEntity
  8
0
 62
     3
100
AcDbText
 10
64.0
 20
80.5
 30
0.0
 40
3.2
  1
日　付
  7
高3.2
100
AcDbText
  0
TEXT
  5
45A
330
6B
100
AcDbEntity
  8
0
 62
     3
100
AcDbText
 10
64.0
 20
85.5
 30
0.0
 40
3.2
  1
図　　　　面　　　　略　　　　歴
  7
高3.2
100
AcDbText
  0
TEXT
  5
45B
330
6B
100
AcDbEntity
  8
0
 62
     3
100
AcDbText
 10
54.0
 20
80.5
 30
0.0
 40
3.2
  1
記号
  7
高3.2
100
AcDbText
  0
LINE
  5
45C
330
6B
100
AcDbEntity
  8
0
100
AcDbLine
 10
57.5
 20
73.79089600000009
 30
0.0
 11
55.60000000000002
 21
70.5
 31
0.0
  0
LINE
  5
45D
330
6B
100
AcDbEntity
  8
0
100
AcDbLine
 10
57.5
 20
73.79089600000009
 30
0.0
 11
59.39999999999997
 21
70.5
 31
0.0
  0
LINE
  5
45E
330
6B
100
AcDbEntity
  8
0
100
AcDbLine
 10
55.60000000000002
 20
70.5
 30
0.0
 11
59.39999999999997
 21
70.5
 31
0.0
  0
LINE
  5
45F
330
6B
100
AcDbEntity
  8
0
100
AcDbLine
 10
57.5
 20
78.79089700000007
 30
0.0
 11
55.60000000000002
 21
75.5
 31
0.0
  0
LINE
  5
460
330
6B
100
AcDbEntity
  8
0
100
AcDbLine
 10
57.5
 20
78.79089700000007
 30
0.0
 11
59.39999999999997
 21
75.5
 31
0.0
  0
LINE
  5
461
330
6B
100
AcDbEntity
  8
0
100
AcDbLine
 10
55.60000000000002
 20
75.5
 30
0.0
 11
59.39999999999997
 21
75.5
 31
0.0
  0
LINE
  5
462
330
6B
100
AcDbEntity
  8
0
 62
     3
100
AcDbLine
 10
52.5
 20
85.0
 30
0.0
 11
138.5
 21
85.0
 31
0.0
  0
LINE
  5
463
330
6B
100
AcDbEntity
  8
0
 62
     3
100
AcDbLine
 10
52.5
 20
80.0
 30
0.0
 11
138.5
 21
80.0
 31
0.0
  0
LINE
  5
464
330
6B
100
AcDbEntity
  8
0
 62
     7
100
AcDbLine
 10
52.5
 20
75.0
 30
0.0
 11
138.5
 21
75.0
 31
0.0
  0
LINE
  5
465
330
6B
100
AcDbEntity
  8
0
 62
     3
100
AcDbLine
 10
52.5
 20
70.0
 30
0.0
 11
138.5
 21
70.0
 31
0.0
  0
LINE
  5
466
330
6B
100
AcDbEntity
  8
0
 62
     7
100
AcDbLine
 10
124.4999999999999
 20
70.0
 30
0.0
 11
124.5
 21
85.0
 31
0.0
  0
LINE
  5
467
330
6B
100
AcDbEntity
  8
0
 62
     7
100
AcDbLine
 10
80.5
 20
70.0
 30
0.0
 11
80.5
 21
85.0
 31
0.0
  0
LINE
  5
468
330
6B
100
AcDbEntity
  8
0
 62
     7
100
AcDbLine
 10
62.5
 20
70.0
 30
0.0
 11
62.5
 21
85.0
 31
0.0
  0
LINE
  5
469
330
6B
100
AcDbEntity
  8
0
 62
     3
100
AcDbLine
 10
52.5
 20
70.0
 30
0.0
 11
52.5
 21
90.0
 31
0.0
  0
LINE
  5
627
330
6B
100
AcDbEntity
  8
0
100
AcDbLine
 10
60.43445
 20
27.699355
 30
0.0
 11
60.38314499999999
 21
27.690953
 31
0.0
  0
LINE
  5
628
330
6B
100
AcDbEntity
  8
0
100
AcDbLine
 10
60.38314499999999
 20
27.690953
 30
0.0
 11
60.33403199999999
 21
27.680954
 31
0.0
  0
LINE
  5
629
330
6B
100
AcDbEntity
  8
0
100
AcDbLine
 10
60.33403199999999
 20
27.680954
 30
0.0
 11
60.287491
 21
27.669437
 31
0.0
  0
LINE
  5
62A
330
6B
100
AcDbEntity
  8
0
100
AcDbLine
 10
60.287491
 20
27.669437
 30
0.0
 11
60.24388199999999
 21
27.65649
 31
0.0
  0
LINE
  5
62B
330
6B
100
AcDbEntity
  8
0
100
AcDbLine
 10
60.24388199999999
 20
27.65649
 30
0.0
 11
60.203541
 21
27.642213
 31
0.0
  0
LINE
  5
62C
330
6B
100
AcDbEntity
  8
0
100
AcDbLine
 10
60.203541
 20
27.642213
 30
0.0
 11
60.166782
 21
27.626716
 31
0.0
  0
LINE
  5
62D
330
6B
100
AcDbEntity
  8
0
100
AcDbLine
 10
60.166782
 20
27.626716
 30
0.0
 11
60.133887
 21
27.61012
 31
0.0
  0
LINE
  5
62E
330
6B
100
AcDbEntity
  8
0
100
AcDbLine
 10
60.133887
 20
27.61012
 30
0.0
 11
60.105111
 21
27.592553
 31
0.0
  0
LINE
  5
62F
330
6B
100
AcDbEntity
  8
0
100
AcDbLine
 10
60.105111
 20
27.592553
 30
0.0
 11
60.080676
 21
27.57415
 31
0.0
  0
LINE
  5
630
330
6B
100
AcDbEntity
  8
0
100
AcDbLine
 10
60.080676
 20
27.57415
 30
0.0
 11
60.060772
 21
27.555054
 31
0.0
  0
LINE
  5
631
330
6B
100
AcDbEntity
  8
0
100
AcDbLine
 10
60.060772
 20
27.555054
 30
0.0
 11
60.045552
 21
27.535412
 31
0.0
  0
LINE
  5
632
330
6B
100
AcDbEntity
  8
0
100
AcDbLine
 10
60.045552
 20
27.535412
 30
0.0
 11
60.035134
 21
27.515376
 31
0.0
  0
LINE
  5
633
330
6B
100
AcDbEntity
  8
0
100
AcDbLine
 10
60.035134
 20
27.515376
 30
0.0
 11
60.029598
 21
27.495102
 31
0.0
  0
LINE
  5
634
330
6B
100
AcDbEntity
  8
0
100
AcDbLine
 10
60.029598
 20
27.495102
 30
0.0
 11
60.028987
 21
27.474744
 31
0.0
  0
LINE
  5
635
330
6B
100
AcDbEntity
  8
0
100
AcDbLine
 10
60.028987
 20
27.474744
 30
0.0
 11
60.033306
 21
27.454462
 31
0.0
  0
LINE
  5
636
330
6B
100
AcDbEntity
  8
0
100
AcDbLine
 10
60.033306
 20
27.454462
 30
0.0
 11
60.04252199999999
 21
27.434412
 31
0.0
  0
LINE
  5
637
330
6B
100
AcDbEntity
  8
0
100
AcDbLine
 10
60.04252199999999
 20
27.434412
 30
0.0
 11
60.056563
 21
27.414749
 31
0.0
  0
LINE
  5
638
330
6B
100
AcDbEntity
  8
0
100
AcDbLine
 10
60.056563
 20
27.414749
 30
0.0
 11
60.07532
 21
27.395624
 31
0.0
  0
LINE
  5
639
330
6B
100
AcDbEntity
  8
0
100
AcDbLine
 10
60.07532
 20
27.395624
 30
0.0
 11
60.098649
 21
27.377186
 31
0.0
  0
LINE
  5
63A
330
6B
100
AcDbEntity
  8
0
100
AcDbLine
 10
60.098649
 20
27.377186
 30
0.0
 11
60.12636999999998
 21
27.359577
 31
0.0
  0
LINE
  5
63B
330
6B
100
AcDbEntity
  8
0
100
AcDbLine
 10
60.12636999999998
 20
27.359577
 30
0.0
 11
60.15826800000001
 21
27.342933
 31
0.0
  0
LINE
  5
63C
330
6B
100
AcDbEntity
  8
0
100
AcDbLine
 10
60.15826800000001
 20
27.342933
 30
0.0
 11
60.19409599999999
 21
27.327383
 31
0.0
  0
LINE
  5
63D
330
6B
100
AcDbEntity
  8
0
100
AcDbLine
 10
60.19409599999999
 20
27.327383
 30
0.0
 11
60.233578
 21
27.313048
 31
0.0
  0
LINE
  5
63E
330
6B
100
AcDbEntity
  8
0
100
AcDbLine
 10
60.233578
 20
27.313048
 30
0.0
 11
60.276408
 21
27.300037
 31
0.0
  0
LINE
  5
63F
330
6B
100
AcDbEntity
  8
0
100
AcDbLine
 10
60.276408
 20
27.300037
 30
0.0
 11
60.322256
 21
27.288451
 31
0.0
  0
LINE
  5
640
330
6B
100
AcDbEntity
  8
0
100
AcDbLine
 10
60.322256
 20
27.288451
 30
0.0
 11
60.370767
 21
27.278381
 31
0.0
  0
LINE
  5
641
330
6B
100
AcDbEntity
  8
0
100
AcDbLine
 10
60.370767
 20
27.278381
 30
0.0
 11
60.42156600000001
 21
27.26990300000001
 31
0.0
  0
LINE
  5
642
330
6B
100
AcDbEntity
  8
0
100
AcDbLine
 10
60.42156600000001
 20
27.26990300000001
 30
0.0
 11
60.474261
 21
27.26308400000001
 31
0.0
  0
LINE
  5
643
330
6B
100
AcDbEntity
  8
0
100
AcDbLine
 10
60.474261
 20
27.26308400000001
 30
0.0
 11
60.528443
 21
27.257976
 31
0.0
  0
LINE
  5
644
330
6B
100
AcDbEntity
  8
0
100
AcDbLine
 10
60.528443
 20
27.257976
 30
0.0
 11
60.583695
 21
27.254618
 31
0.0
  0
LINE
  5
645
330
6B
100
AcDbEntity
  8
0
100
AcDbLine
 10
60.583695
 20
27.254618
 30
0.0
 11
60.639589
 21
27.253037
 31
0.0
  0
LINE
  5
646
330
6B
100
AcDbEntity
  8
0
100
AcDbLine
 10
60.639589
 20
27.253037
 30
0.0
 11
60.69569300000001
 21
27.253244
 31
0.0
  0
LINE
  5
647
330
6B
100
AcDbEntity
  8
0
100
AcDbLine
 10
60.69569300000001
 20
27.253244
 30
0.0
 11
60.751574
 21
27.25523900000001
 31
0.0
  0
LINE
  5
648
330
6B
100
AcDbEntity
  8
0
100
AcDbLine
 10
60.751574
 20
27.25523900000001
 30
0.0
 11
60.80679899999999
 21
27.259006
 31
0.0
  0
LINE
  5
649
330
6B
100
AcDbEntity
  8
0
100
AcDbLine
 10
60.80679899999999
 20
27.259006
 30
0.0
 11
60.860943
 21
27.264515
 31
0.0
  0
LINE
  5
64A
330
6B
100
AcDbEntity
  8
0
100
AcDbLine
 10
60.860943
 20
27.264515
 30
0.0
 11
60.913585
 21
27.271724
 31
0.0
  0
LINE
  5
64B
330
6B
100
AcDbEntity
  8
0
100
AcDbLine
 10
60.913585
 20
27.271724
 30
0.0
 11
60.96432
 21
27.280577
 31
0.0
  0
LINE
  5
64C
330
6B
100
AcDbEntity
  8
0
100
AcDbLine
 10
60.96432
 20
27.280577
 30
0.0
 11
61.012755
 21
27.291006
 31
0.0
  0
LINE
  5
64D
330
6B
100
AcDbEntity
  8
0
100
AcDbLine
 10
61.012755
 20
27.291006
 30
0.0
 11
61.05851600000001
 21
27.30293
 31
0.0
  0
LINE
  5
64E
330
6B
100
AcDbEntity
  8
0
100
AcDbLine
 10
61.05851600000001
 20
27.30293
 30
0.0
 11
61.10124899999998
 21
27.316258
 31
0.0
  0
LINE
  5
64F
330
6B
100
AcDbEntity
  8
0
100
AcDbLine
 10
61.10124899999998
 20
27.316258
 30
0.0
 11
61.140624
 21
27.330886
 31
0.0
  0
LINE
  5
650
330
6B
100
AcDbEntity
  8
0
100
AcDbLine
 10
61.140624
 20
27.330886
 30
0.0
 11
61.176336
 21
27.3467
 31
0.0
  0
LINE
  5
651
330
6B
100
AcDbEntity
  8
0
100
AcDbLine
 10
61.176336
 20
27.3467
 30
0.0
 11
61.20810999999999
 21
27.363579
 31
0.0
  0
LINE
  5
652
330
6B
100
AcDbEntity
  8
0
100
AcDbLine
 10
61.20810999999999
 20
27.363579
 30
0.0
 11
61.23569899999999
 21
27.381393
 31
0.0
  0
LINE
  5
653
330
6B
100
AcDbEntity
  8
0
100
AcDbLine
 10
61.23569899999999
 20
27.381393
 30
0.0
 11
61.25889100000001
 21
27.400003
 31
0.0
  0
LINE
  5
654
330
6B
100
AcDbEntity
  8
0
100
AcDbLine
 10
61.25889100000001
 20
27.400003
 30
0.0
 11
61.27750699999999
 21
27.419266
 31
0.0
  0
LINE
  5
655
330
6B
100
AcDbEntity
  8
0
100
AcDbLine
 10
61.27750699999999
 20
27.419266
 30
0.0
 11
61.29140200000001
 21
27.439033
 31
0.0
  0
LINE
  5
656
330
6B
100
AcDbEntity
  8
0
100
AcDbLine
 10
61.29140200000001
 20
27.439033
 30
0.0
 11
61.30046899999999
 21
27.459151
 31
0.0
  0
LINE
  5
657
330
6B
100
AcDbEntity
  8
0
100
AcDbLine
 10
61.30046899999999
 20
27.459151
 30
0.0
 11
61.304638
 21
27.479464
 31
0.0
  0
LINE
  5
658
330
6B
100
AcDbEntity
  8
0
100
AcDbLine
 10
61.304638
 20
27.479464
 30
0.0
 11
61.303876
 21
27.499816
 31
0.0
  0
LINE
  5
659
330
6B
100
AcDbEntity
  8
0
100
AcDbLine
 10
61.303876
 20
27.499816
 30
0.0
 11
61.29819000000001
 21
27.52005
 31
0.0
  0
LINE
  5
65A
330
6B
100
AcDbEntity
  8
0
100
AcDbLine
 10
61.29819000000001
 20
27.52005
 30
0.0
 11
61.287624
 21
27.540008
 31
0.0
  0
LINE
  5
65B
330
6B
100
AcDbEntity
  8
0
100
AcDbLine
 10
61.287624
 20
27.540008
 30
0.0
 11
61.272259
 21
27.559537
 31
0.0
  0
LINE
  5
65C
330
6B
100
AcDbEntity
  8
0
100
AcDbLine
 10
61.272259
 20
27.559537
 30
0.0
 11
61.252214
 21
27.578485
 31
0.0
  0
LINE
  5
65D
330
6B
100
AcDbEntity
  8
0
100
AcDbLine
 10
61.252214
 20
27.578485
 30
0.0
 11
61.227644
 21
27.596707
 31
0.0
  0
LINE
  5
65E
330
6B
100
AcDbEntity
  8
0
100
AcDbLine
 10
61.227644
 20
27.596707
 30
0.0
 11
61.198739
 21
27.61406
 31
0.0
  0
LINE
  5
65F
330
6B
100
AcDbEntity
  8
0
100
AcDbLine
 10
61.198739
 20
27.61406
 30
0.0
 11
61.165722
 21
27.630413
 31
0.0
  0
LINE
  5
660
330
6B
100
AcDbEntity
  8
0
100
AcDbLine
 10
61.165722
 20
27.630413
 30
0.0
 11
61.128849
 21
27.645636
 31
0.0
  0
LINE
  5
661
330
6B
100
AcDbEntity
  8
0
100
AcDbLine
 10
61.128849
 20
27.645636
 30
0.0
 11
61.088404
 21
27.659615
 31
0.0
  0
LINE
  5
662
330
6B
100
AcDbEntity
  8
0
100
AcDbLine
 10
61.088404
 20
27.659615
 30
0.0
 11
61.0447
 21
27.672239
 31
0.0
  0
LINE
  5
663
330
6B
100
AcDbEntity
  8
0
100
AcDbLine
 10
61.0447
 20
27.672239
 30
0.0
 11
60.998075
 21
27.683411
 31
0.0
  0
LINE
  5
664
330
6B
100
AcDbEntity
  8
0
100
AcDbLine
 10
60.998075
 20
27.683411
 30
0.0
 11
60.948889
 21
27.693046
 31
0.0
  0
LINE
  5
665
330
6B
100
AcDbEntity
  8
0
100
AcDbLine
 10
60.948889
 20
27.693046
 30
0.0
 11
60.897523
 21
27.701069
 31
0.0
  0
LINE
  5
668
330
6B
100
AcDbEntity
  8
0
 62
     3
100
AcDbLine
 10
-123.292214
 20
52.40352999999998
 30
0.0
 11
-123.06378
 21
52.604622
 31
0.0
  0
LINE
  5
669
330
6B
100
AcDbEntity
  8
0
 62
     3
100
AcDbLine
 10
-123.06378
 20
52.604622
 30
0.0
 11
-122.814464
 21
52.761842
 31
0.0
  0
LINE
  5
66A
330
6B
100
AcDbEntity
  8
0
 62
     3
100
AcDbLine
 10
-122.814464
 20
52.761842
 30
0.0
 11
-122.582689
 21
52.836478
 31
0.0
  0
LINE
  5
66B
330
6B
100
AcDbEntity
  8
0
 62
     3
100
AcDbLine
 10
-122.582689
 20
52.836478
 30
0.0
 11
-122.336714
 21
52.88128
 31
0.0
  0
LINE
  5
66C
330
6B
100
AcDbEntity
  8
0
 62
     3
100
AcDbLine
 10
-122.336714
 20
45.71502999999998
 30
0.0
 11
-122.582689
 21
45.759831
 31
0.0
  0
LINE
  5
66D
330
6B
100
AcDbEntity
  8
0
 62
     3
100
AcDbLine
 10
-122.582689
 20
45.759831
 30
0.0
 11
-122.814464
 21
45.83446699999998
 31
0.0
  0
LINE
  5
66E
330
6B
100
AcDbEntity
  8
0
 62
     3
100
AcDbLine
 10
-122.814464
 20
45.83446699999998
 30
0.0
 11
-123.06378
 21
45.99168699999998
 31
0.0
  0
LINE
  5
66F
330
6B
100
AcDbEntity
  8
0
 62
     3
100
AcDbLine
 10
-123.06378
 20
45.99168699999998
 30
0.0
 11
-123.292214
 21
46.19278
 31
0.0
  0
LINE
  5
670
330
6B
100
AcDbEntity
  8
0
100
AcDbLine
 10
72.48644699999998
 20
22.731509
 30
0.0
 11
70.79615099999998
 21
23.927371
 31
0.0
  0
LINE
  5
671
330
6B
100
AcDbEntity
  8
0
100
AcDbLine
 10
70.79615099999998
 20
23.927371
 30
0.0
 11
71.662059
 21
22.046576
 31
0.0
  0
LINE
  5
672
330
6B
100
AcDbEntity
  8
0
100
AcDbLine
 10
-12.051565
 20
22.897804
 30
0.0
 11
-11.257018
 21
24.809841
 31
0.0
  0
LINE
  5
673
330
6B
100
AcDbEntity
  8
0
100
AcDbLine
 10
-11.257018
 20
24.809841
 30
0.0
 11
-12.901134
 21
23.551242
 31
0.0
  0
LINE
  5
674
330
6B
100
AcDbEntity
  8
0
100
AcDbLine
 10
-95.637574
 20
19.887788
 30
0.0
 11
-97.227391
 21
21.214312
 31
0.0
  0
LINE
  5
675
330
6B
100
AcDbEntity
  8
0
100
AcDbLine
 10
-97.227391
 20
21.214312
 30
0.0
 11
-96.51383100000003
 21
19.2706
 31
0.0
  0
LINE
  5
676
330
6B
100
AcDbEntity
  8
0
100
AcDbLine
 10
25.419731
 20
27.743894
 30
0.0
 11
25.419731
 21
-3.405438999999997
 31
0.0
  0
LINE
  5
677
330
6B
100
AcDbEntity
  8
0
100
AcDbLine
 10
70.28870699999997
 20
18.145661
 30
0.0
 11
70.28870699999997
 21
-3.405438999999997
 31
0.0
  0
LINE
  5
678
330
6B
100
AcDbEntity
  8
0
100
AcDbLine
 10
27.919731
 20
-2.155438999999998
 30
0.0
 11
67.78870699999997
 21
-2.155438999999998
 31
0.0
  0
LINE
  5
67C
330
6B
100
AcDbEntity
  8
0
100
AcDbLine
 10
-108.073365
 20
20.958387
 30
0.0
 11
-108.073365
 21
-3.405438999999997
 31
0.0
  0
LINE
  5
67D
330
6B
100
AcDbEntity
  8
0
100
AcDbLine
 10
25.419731
 20
27.743894
 30
0.0
 11
25.419731
 21
-3.405438999999997
 31
0.0
  0
LINE
  5
67E
330
6B
100
AcDbEntity
  8
0
100
AcDbLine
 10
-105.573365
 20
-2.155438999999998
 30
0.0
 11
22.91973099999999
 21
-2.155438999999998
 31
0.0
  0
TEXT
  5
682
330
6B
100
AcDbEntity
  8
0
  6
Continuous
 62
     4
100
AcDbText
 10
44.60421899999999
 20
-1.530438999999998
 30
0.0
 40
3.0
  1
120
100
AcDbText
  0
LINE
  5
683
330
6B
100
AcDbEntity
  8
0
  6
ByBlock
 62
     0
370
    -2
100
AcDbLine
 10
67.78870699999997
 20
-1.485566499999999
 30
0.0
 11
70.28870699999997
 21
-2.155438999999998
 31
0.0
  0
LINE
  5
684
330
6B
100
AcDbEntity
  8
0
  6
ByBlock
 62
     0
370
    -2
100
AcDbLine
 10
70.28870699999997
 20
-2.155438999999998
 30
0.0
 11
67.78870699999997
 21
-2.825311499999998
 31
0.0
  0
LINE
  5
685
330
6B
100
AcDbEntity
  8
0
  6
ByBlock
 62
     0
370
    -2
100
AcDbLine
 10
70.28870699999997
 20
-2.155438999999998
 30
0.0
 11
67.78870699999997
 21
-2.155438999999998
 31
0.0
  0
LINE
  5
686
330
6B
100
AcDbEntity
  8
0
  6
ByBlock
 62
     0
370
    -2
100
AcDbLine
 10
27.919731
 20
-2.825311499999999
 30
0.0
 11
25.419731
 21
-2.155438999999998
 31
0.0
  0
LINE
  5
687
330
6B
100
AcDbEntity
  8
0
  6
ByBlock
 62
     0
370
    -2
100
AcDbLine
 10
25.419731
 20
-2.155438999999998
 30
0.0
 11
27.919731
 21
-1.485566499999999
 31
0.0
  0
LINE
  5
688
330
6B
100
AcDbEntity
  8
0
  6
ByBlock
 62
     0
370
    -2
100
AcDbLine
 10
25.419731
 20
-2.155438999999998
 30
0.0
 11
27.919731
 21
-2.155438999999999
 31
0.0
  0
TEXT
  5
689
330
6B
100
AcDbEntity
  8
0
  6
Continuous
 62
     4
100
AcDbText
 10
-45.076817
 20
-1.530438999999998
 30
0.0
 40
3.0
  1
380
100
AcDbText
  0
LINE
  5
68A
330
6B
100
AcDbEntity
  8
0
  6
ByBlock
 62
     0
370
    -2
100
AcDbLine
 10
22.91973099999999
 20
-1.485566499999999
 30
0.0
 11
25.419731
 21
-2.155438999999998
 31
0.0
  0
LINE
  5
68B
330
6B
100
AcDbEntity
  8
0
  6
ByBlock
 62
     0
370
    -2
100
AcDbLine
 10
25.419731
 20
-2.155438999999998
 30
0.0
 11
22.91973099999999
 21
-2.825311499999998
 31
0.0
  0
LINE
  5
68C
330
6B
100
AcDbEntity
  8
0
  6
ByBlock
 62
     0
370
    -2
100
AcDbLine
 10
25.419731
 20
-2.155438999999998
 30
0.0
 11
22.91973099999999
 21
-2.155438999999998
 31
0.0
  0
LINE
  5
68D
330
6B
100
AcDbEntity
  8
0
  6
ByBlock
 62
     0
370
    -2
100
AcDbLine
 10
-105.573365
 20
-2.825311499999999
 30
0.0
 11
-108.073365
 21
-2.155438999999998
 31
0.0
  0
LINE
  5
68E
330
6B
100
AcDbEntity
  8
0
  6
ByBlock
 62
     0
370
    -2
100
AcDbLine
 10
-108.073365
 20
-2.155438999999998
 30
0.0
 11
-105.573365
 21
-1.485566499999999
 31
0.0
  0
LINE
  5
68F
330
6B
100
AcDbEntity
  8
0
  6
ByBlock
 62
     0
370
    -2
100
AcDbLine
 10
-108.073365
 20
-2.155438999999998
 30
0.0
 11
-105.573365
 21
-2.155438999999999
 31
0.0
  0
ENDSEC
  0
SECTION
  2
OBJECTS
  0
DICTIONARY
  5
C
330
0
100
AcDbDictionary
281
     1
  3
ACAD_COLOR
350
62
  3
ACAD_GROUP
350
D
  3
ACAD_LAYOUT
350
61
  3
ACAD_MATERIAL
350
10
  3
ACAD_MLEADERSTYLE
350
65
  3
ACAD_MLINESTYLE
350
5E
  3
ACAD_PLOTSETTINGS
350
60
  3
ACAD_PLOTSTYLENAME
350
E
  3
ACAD_SCALELIST
350
42
  3
ACAD_TABLESTYLE
350
63
  3
ACAD_VISUALSTYLE
350
29
  3
ACDB_RECOMPOSE_DATA
350
5D0
  3
AcDbVariableDictionary
350
5C6
  0
DICTIONARY
  5
420
330
2
100
AcDbDictionary
280
     1
281
     1
  3
ACAD_LAYERSTATES
360
421
  0
DICTIONARY
  5
5C4
330
54
100
AcDbDictionary
280
     1
281
     1
  3
ADSK_XREC_LAYER_RECONCILED
360
5C5
  0
DICTIONARY
  5
666
330
6B
100
AcDbDictionary
280
     1
281
     1
  3
ACAD_SORTENTS
360
667
  0
DICTIONARY
  5
62
102
{ACAD_REACTORS
330
C
102
}
330
C
100
AcDbDictionary
281
     1
  0
DICTIONARY
  5
D
102
{ACAD_REACTORS
330
C
102
}
330
C
100
AcDbDictionary
281
     1
  0
DICTIONARY
  5
61
102
{ACAD_REACTORS
330
C
102
}
330
C
100
AcDbDictionary
281
     1
  3
Model
350
6E
  3
レイアウト1
350
6A
  0
DICTIONARY
  5
10
102
{ACAD_REACTORS
330
C
102
}
330
C
100
AcDbDictionary
281
     1
  3
ByBlock
350
19
  3
ByLayer
350
11
  3
Global
350
21
  0
DICTIONARY
  5
65
102
{ACAD_REACTORS
330
C
102
}
330
C
100
AcDbDictionary
281
     1
  3
Standard
350
66
  0
DICTIONARY
  5
5E
102
{ACAD_REACTORS
330
C
102
}
330
C
100
AcDbDictionary
281
     1
  3
Standard
350
5F
  0
DICTIONARY
  5
60
102
{ACAD_REACTORS
330
C
102
}
330
C
100
AcDbDictionary
281
     1
  0
ACDBDICTIONARYWDFLT
  5
E
102
{ACAD_REACTORS
330
C
102
}
330
C
100
AcDbDictionary
281
     1
  3
Normal
350
F
100
AcDbDictionaryWithDefault
340
F
  0
DICTIONARY
  5
42
102
{ACAD_REACTORS
330
C
102
}
330
C
100
AcDbDictionary
281
     1
  3
A0
350
43
  3
A1
350
44
  3
A2
350
45
  3
A3
350
46
  3
A4
350
47
  3
A5
350
48
  3
A6
350
49
  3
A7
350
4A
  3
A8
350
4B
  3
A9
350
4C
  3
B0
350
4D
  3
B1
350
4E
  3
B2
350
4F
  3
B3
350
50
  3
B4
350
51
  3
B5
350
52
  3
B6
350
53
  0
DICTIONARY
  5
63
102
{ACAD_REACTORS
330
C
102
}
330
C
100
AcDbDictionary
281
     1
  3
Standard
350
64
  0
DICTIONARY
  5
29
102
{ACAD_REACTORS
330
C
102
}
330
C
100
AcDbDictionary
281
     1
  3
2dWireframe
350
2F
  3
3D Hidden
350
613
  3
3dWireframe
350
41D
  3
Basic
350
2E
  3
Brighten
350
35
  3
ColorChange
350
39
  3
Conceptual
350
32
  3
Dim
350
34
  3
EdgeColorOff
350
41
  3
Facepattern
350
38
  3
Flat
350
2A
  3
FlatWithEdges
350
2B
  3
Gouraud
350
2C
  3
GouraudWithEdges
350
2D
  3
Hidden
350
31
  3
JitterOff
350
3F
  3
Linepattern
350
37
  3
OverhangOff
350
40
  3
Realistic
350
33
  3
Shaded
350
3E
  3
Shaded with edges
350
3D
  3
Shades of Gray
350
3A
  3
Sketchy
350
3B
  3
Thicken
350
36
  3
Wireframe
350
30
  3
X-Ray
350
3C
  0
XRECORD
  5
5D0
102
{ACAD_REACTORS
330
C
102
}
330
C
100
AcDbXrecord
280
     1
 90
        1
330
64
  0
DICTIONARY
  5
5C6
102
{ACAD_REACTORS
330
C
102
}
330
C
100
AcDbDictionary
281
     1
  3
CANNOSCALE
350
5C9
  3
CMLEADERSTYLE
350
5C8
  3
CTABLESTYLE
350
5C7
  3
DIMASSOC
350
5CC
  3
INDEXCTL
350
5CB
  3
SORTENTS
350
5CA
  3
XCLIPFRAME
350
5CD
  0
DICTIONARY
  5
421
102
{ACAD_REACTORS
330
420
102
}
330
420
100
AcDbDictionary
281
     1
  0
XRECORD
  5
5C5
102
{ACAD_REACTORS
330
5C4
102
}
330
5C4
100
AcDbXrecord
280
     1
290
     1
  0
SORTENTSTABLE
  5
667
102
{ACAD_REACTORS
330
666
102
}
330
666
100
AcDbSortentsTable
330
6B
331
280
  5
2C7
331
E0
  5
103
331
2D4
  5
33E
331
193
  5
1B1
331
171
  5
18F
331
2EE
  5
358
331
1B5
  5
1D3
331
348
  5
649
331
1EF
  5
21D
331
1D7
  5
1FA
331
631
  5
364
331
36A
  5
66D
331
102
  5
120
331
653
  5
463
331
233
  5
25C
331
464
  5
68A
331
124
  5
142
331
255
  5
27E
331
675
  5
F5
331
26F
  5
2B6
331
146
  5
164
331
68E
  5
B5
331
291
  5
2D8
331
F1
  5
111
331
2C3
  5
2EB
331
2E5
  5
34F
331
1A4
  5
1C2
331
182
  5
1A0
331
168
  5
186
331
337
  5
638
331
359
  5
65A
331
200
  5
22E
331
642
  5
375
331
664
  5
631
331
113
  5
131
331
135
  5
153
331
244
  5
26D
331
222
  5
24A
331
1C6
  5
1E4
331
157
  5
175
331
BE
  5
DD
331
2D2
  5
33C
331
191
  5
1AF
331
2EC
  5
356
331
1B3
  5
1D1
331
1D5
  5
1F8
331
346
  5
647
331
AE
  5
C8
331
62F
  5
362
331
368
  5
66B
331
100
  5
11E
331
651
  5
461
331
231
  5
259
331
462
  5
688
331
122
  5
140
331
253
  5
27C
331
673
  5
10F
331
144
  5
162
331
68C
  5
BC
331
26D
  5
2AD
331
28F
  5
2D6
331
166
  5
184
331
2C1
  5
2E9
331
180
  5
19E
331
2E3
  5
34D
331
1A2
  5
1C0
331
335
  5
636
331
357
  5
658
331
1FE
  5
22C
331
1E6
  5
217
331
640
  5
373
331
220
  5
248
331
1C4
  5
1E2
331
662
  5
62F
331
242
  5
26B
331
133
  5
151
331
155
  5
173
331
27E
  5
2C5
331
DE
  5
101
331
BC
  5
DB
331
111
  5
12F
331
CD
  5
F1
331
2D0
  5
33A
331
2EA
  5
354
331
1B1
  5
1CF
331
344
  5
645
331
1D3
  5
1F6
331
62D
  5
360
331
366
  5
669
331
FE
  5
11C
331
64F
  5
45F
331
22F
  5
257
331
460
  5
686
331
120
  5
13E
331
251
  5
27A
331
142
  5
160
331
68A
  5
BA
331
26B
  5
293
331
CB
  5
EA
331
28D
  5
2D4
331
164
  5
182
331
2BF
  5
2E7
331
17E
  5
19C
331
2E1
  5
34B
331
1A0
  5
1BE
331
333
  5
634
331
355
  5
656
331
1FC
  5
22A
331
1E4
  5
215
331
63E
  5
371
331
21E
  5
246
331
1C2
  5
1E0
331
377
  5
67A
331
660
  5
62D
331
240
  5
269
331
153
  5
171
331
BA
  5
D9
331
27C
  5
2C3
331
18F
  5
1AD
331
DC
  5
FF
331
131
  5
14F
331
10F
  5
12D
331
671
  5
21B
331
2E8
  5
352
331
342
  5
643
331
1D1
  5
1F4
331
62B
  5
35E
331
364
  5
665
331
FC
  5
11A
331
64D
  5
45D
331
22D
  5
255
331
45E
  5
684
331
11E
  5
13C
331
24F
  5
278
331
66F
  5
236
331
140
  5
15E
331
688
  5
C3
331
269
  5
291
331
C9
  5
E8
331
28B
  5
2D2
331
162
  5
180
331
2BD
  5
2E5
331
2DF
  5
349
331
19E
  5
1BC
331
17C
  5
19A
331
353
  5
654
331
1FA
  5
228
331
1E2
  5
213
331
63C
  5
36F
331
21C
  5
244
331
375
  5
678
331
10D
  5
12B
331
1C0
  5
1DE
331
23E
  5
267
331
151
  5
16F
331
B8
  5
D7
331
27A
  5
2C1
331
2CE
  5
338
331
18D
  5
1AB
331
1AF
  5
1CD
331
DA
  5
FD
331
12F
  5
14D
331
65E
  5
62B
331
340
  5
641
331
629
  5
35C
331
362
  5
663
331
FA
  5
118
331
64B
  5
45B
331
22B
  5
253
331
45C
  5
682
331
11C
  5
13A
331
24D
  5
276
331
66D
  5
234
331
13E
  5
15C
331
686
  5
C1
331
267
  5
28F
331
C7
  5
E6
331
160
  5
17E
331
289
  5
2D0
331
E9
  5
10C
331
2BB
  5
2E3
331
17A
  5
198
331
2DD
  5
347
331
351
  5
652
331
1F8
  5
226
331
1E0
  5
203
331
1BE
  5
1DC
331
63A
  5
36D
331
21A
  5
242
331
19C
  5
1BA
331
373
  5
676
331
65C
  5
629
331
23C
  5
265
331
25E
  5
286
331
B6
  5
D5
331
14F
  5
16D
331
278
  5
2BF
331
D8
  5
FB
331
2CC
  5
336
331
18B
  5
1A9
331
1CF
  5
1F2
331
1AD
  5
1CB
331
67E
  5
B0
331
12D
  5
14B
331
10B
  5
129
331
360
  5
661
331
F8
  5
116
331
649
  5
459
331
229
  5
251
331
45A
  5
680
331
11A
  5
138
331
24B
  5
274
331
66B
  5
23A
331
13C
  5
15A
331
684
  5
C5
331
265
  5
28D
331
C5
  5
E4
331
15E
  5
17C
331
287
  5
2CE
331
E7
  5
10A
331
2B9
  5
2E1
331
178
  5
196
331
2DB
  5
345
331
19A
  5
1B8
331
34F
  5
650
331
1F6
  5
224
331
1DE
  5
201
331
1BC
  5
1DA
331
638
  5
36B
331
218
  5
240
331
371
  5
674
331
65A
  5
627
331
23A
  5
263
331
25C
  5
284
331
B4
  5
D3
331
14D
  5
16B
331
276
  5
2BD
331
D6
  5
F9
331
2CA
  5
334
331
189
  5
1A7
331
16F
  5
18D
331
33E
  5
63F
331
1CD
  5
1F0
331
1AB
  5
1C9
331
627
  5
35A
331
67C
  5
AE
331
12B
  5
149
331
109
  5
127
331
458
  5
67E
331
118
  5
136
331
249
  5
272
331
669
  5
238
331
13A
  5
158
331
682
  5
C7
331
263
  5
28B
331
C3
  5
E2
331
15C
  5
17A
331
285
  5
2CC
331
E5
  5
108
331
2B7
  5
2DF
331
176
  5
194
331
2D9
  5
343
331
198
  5
1B6
331
34D
  5
64E
331
1F4
  5
222
331
1DC
  5
1FF
331
1BA
  5
1D8
331
636
  5
369
331
216
  5
23E
331
36F
  5
672
331
658
  5
468
331
238
  5
261
331
469
  5
68F
331
14B
  5
169
331
B2
  5
CC
331
274
  5
2BB
331
16D
  5
18B
331
2C8
  5
332
331
187
  5
1A5
331
F6
  5
114
331
D4
  5
F7
331
35E
  5
65F
331
33C
  5
63D
331
1CB
  5
1EE
331
647
  5
457
331
227
  5
24F
331
1A9
  5
1C7
331
129
  5
147
331
107
  5
125
331
138
  5
156
331
261
  5
289
331
C1
  5
E0
331
15A
  5
178
331
283
  5
2CA
331
E3
  5
106
331
2B5
  5
2DD
331
174
  5
192
331
2D7
  5
341
331
196
  5
1B4
331
34B
  5
64C
331
1F2
  5
220
331
1DA
  5
1FD
331
1B8
  5
1D6
331
634
  5
367
331
214
  5
23C
331
36D
  5
670
331
656
  5
466
331
236
  5
25F
331
467
  5
68D
331
258
  5
281
331
B0
  5
CA
331
678
  5
C0
331
272
  5
2B9
331
294
  5
2DB
331
16B
  5
189
331
149
  5
167
331
2C6
  5
2EE
331
33A
  5
63B
331
1C9
  5
1E7
331
1A7
  5
1C5
331
35C
  5
65D
331
203
  5
231
331
645
  5
455
331
225
  5
24D
331
185
  5
1A3
331
127
  5
145
331
105
  5
123
331
456
  5
67C
331
247
  5
270
331
116
  5
134
331
158
  5
176
331
281
  5
2C8
331
E1
  5
104
331
2D5
  5
33F
331
194
  5
1B2
331
172
  5
190
331
2EF
  5
359
331
1B6
  5
1D4
331
349
  5
64A
331
1F0
  5
21E
331
1D8
  5
1FB
331
632
  5
365
331
36B
  5
66E
331
103
  5
121
331
654
  5
464
331
234
  5
25D
331
465
  5
68B
331
125
  5
143
331
256
  5
27F
331
270
  5
2B7
331
147
  5
165
331
68F
  5
B6
331
169
  5
187
331
292
  5
2D9
331
2C4
  5
2EC
331
183
  5
1A1
331
2E6
  5
350
331
1A5
  5
1C3
331
338
  5
639
331
1C7
  5
1E5
331
35A
  5
65B
331
201
  5
22F
331
643
  5
376
331
665
  5
632
331
114
  5
132
331
136
  5
154
331
245
  5
26E
331
223
  5
24B
331
F2
  5
112
331
BF
  5
DE
331
676
  5
BE
331
2D3
  5
33D
331
192
  5
1B0
331
170
  5
18E
331
2ED
  5
357
331
1B4
  5
1D2
331
1EE
  5
21C
331
1D6
  5
1F9
331
347
  5
648
331
AF
  5
C9
331
630
  5
363
331
369
  5
66C
331
101
  5
11F
331
652
  5
462
331
232
  5
25B
331
463
  5
689
331
123
  5
141
331
254
  5
27D
331
674
  5
F2
331
26E
  5
2B5
331
145
  5
163
331
68D
  5
B4
331
290
  5
2D7
331
F0
  5
110
331
2C2
  5
2EA
331
181
  5
19F
331
2E4
  5
34E
331
1A3
  5
1C1
331
336
  5
637
331
358
  5
659
331
1FF
  5
22D
331
1E7
  5
218
331
641
  5
374
331
1C5
  5
1E3
331
663
  5
630
331
112
  5
130
331
243
  5
26C
331
134
  5
152
331
156
  5
174
331
27F
  5
2C6
331
DF
  5
102
331
BD
  5
DC
331
221
  5
249
331
167
  5
185
331
2D1
  5
33B
331
190
  5
1AE
331
2EB
  5
355
331
1B2
  5
1D0
331
345
  5
646
331
1D4
  5
1F7
331
62E
  5
361
331
367
  5
66A
331
FF
  5
11D
331
650
  5
460
331
230
  5
258
331
461
  5
687
331
121
  5
13F
331
252
  5
27B
331
672
  5
10E
331
143
  5
161
331
26C
  5
294
331
CC
  5
F0
331
28E
  5
2D5
331
165
  5
183
331
2C0
  5
2E8
331
17F
  5
19D
331
2E2
  5
34C
331
1A1
  5
1BF
331
334
  5
635
331
356
  5
657
331
1FD
  5
22B
331
1E5
  5
216
331
63F
  5
372
331
21F
  5
247
331
1C3
  5
1E1
331
661
  5
62E
331
241
  5
26A
331
132
  5
150
331
154
  5
172
331
27D
  5
2C4
331
DD
  5
100
331
BB
  5
DA
331
110
  5
12E
331
68B
  5
BB
331
2E9
  5
353
331
1B0
  5
1CE
331
343
  5
644
331
1D2
  5
1F5
331
62C
  5
35F
331
365
  5
668
331
FD
  5
11B
331
64E
  5
45E
331
22E
  5
256
331
45F
  5
685
331
11F
  5
13D
331
250
  5
279
331
670
  5
21A
331
141
  5
15F
331
689
  5
BD
331
26A
  5
292
331
CA
  5
E9
331
28C
  5
2D3
331
163
  5
181
331
2BE
  5
2E6
331
2E0
  5
34A
331
19F
  5
1BD
331
17D
  5
19B
331
332
  5
633
331
354
  5
655
331
1FB
  5
229
331
1E3
  5
214
331
63D
  5
370
331
21D
  5
245
331
1C1
  5
1DF
331
376
  5
679
331
65F
  5
62C
331
23F
  5
268
331
152
  5
170
331
B9
  5
D8
331
2AD
  5
2DC
331
27B
  5
2C2
331
2CF
  5
339
331
18E
  5
1AC
331
DB
  5
FE
331
130
  5
14E
331
10E
  5
12C
331
341
  5
642
331
1E8
  5
219
331
1D0
  5
1F3
331
62A
  5
35D
331
363
  5
664
331
FB
  5
119
331
64C
  5
45C
331
22C
  5
254
331
45D
  5
683
331
11D
  5
13B
331
24E
  5
277
331
66E
  5
235
331
13F
  5
15D
331
687
  5
C2
331
268
  5
290
331
C8
  5
E7
331
161
  5
17F
331
28A
  5
2D1
331
2BC
  5
2E4
331
17B
  5
199
331
EA
  5
10D
331
2DE
  5
348
331
352
  5
653
331
1F9
  5
227
331
1E1
  5
204
331
1BF
  5
1DD
331
63B
  5
36E
331
21B
  5
243
331
19D
  5
1BB
331
374
  5
677
331
65D
  5
62A
331
23D
  5
266
331
25F
  5
287
331
B7
  5
D6
331
150
  5
16E
331
279
  5
2C0
331
D9
  5
FC
331
2CD
  5
337
331
18C
  5
1AA
331
1AE
  5
1CC
331
12E
  5
14C
331
10C
  5
12A
331
628
  5
35B
331
361
  5
662
331
F9
  5
117
331
64A
  5
45A
331
22A
  5
252
331
45B
  5
681
331
11B
  5
139
331
24C
  5
275
331
66C
  5
233
331
13D
  5
15B
331
685
  5
C6
331
266
  5
28E
331
C6
  5
E5
331
15F
  5
17D
331
288
  5
2CF
331
E8
  5
10B
331
2BA
  5
2E2
331
179
  5
197
331
2DC
  5
346
331
350
  5
651
331
1F7
  5
225
331
1DF
  5
202
331
1BD
  5
1DB
331
639
  5
36C
331
219
  5
241
331
19B
  5
1B9
331
372
  5
675
331
65B
  5
628
331
23B
  5
264
331
25D
  5
285
331
B5
  5
D4
331
14E
  5
16C
331
277
  5
2BE
331
D7
  5
FA
331
2CB
  5
335
331
18A
  5
1A8
331
33F
  5
640
331
1CE
  5
1F1
331
1AC
  5
1CA
331
67D
  5
AF
331
12C
  5
14A
331
10A
  5
128
331
648
  5
458
331
228
  5
250
331
459
  5
67F
331
119
  5
137
331
24A
  5
273
331
66A
  5
239
331
13B
  5
159
331
683
  5
C4
331
264
  5
28C
331
C4
  5
E3
331
15D
  5
17B
331
286
  5
2CD
331
E6
  5
109
331
2B8
  5
2E0
331
177
  5
195
331
2DA
  5
344
331
199
  5
1B7
331
34E
  5
64F
331
1F5
  5
223
331
1DD
  5
200
331
1BB
  5
1D9
331
637
  5
36A
331
217
  5
23F
331
370
  5
673
331
659
  5
469
331
239
  5
262
331
25B
  5
283
331
B3
  5
CD
331
275
  5
2BC
331
D5
  5
F8
331
2C9
  5
333
331
188
  5
1A6
331
F7
  5
115
331
16E
  5
18C
331
14C
  5
16A
331
35F
  5
660
331
33D
  5
63E
331
1CC
  5
1EF
331
1AA
  5
1C8
331
12A
  5
148
331
108
  5
126
331
248
  5
271
331
668
  5
237
331
139
  5
157
331
262
  5
28A
331
C2
  5
E1
331
284
  5
2CB
331
E4
  5
107
331
2B6
  5
2DE
331
175
  5
193
331
2D8
  5
342
331
197
  5
1B5
331
34C
  5
64D
331
1F3
  5
221
331
1DB
  5
1FE
331
1B9
  5
1D7
331
15B
  5
179
331
635
  5
368
331
215
  5
23D
331
36E
  5
671
331
657
  5
467
331
237
  5
260
331
468
  5
68E
331
259
  5
282
331
B1
  5
CB
331
273
  5
2BA
331
D3
  5
F6
331
14A
  5
168
331
2C7
  5
2EF
331
186
  5
1A4
331
F5
  5
113
331
33B
  5
63C
331
1CA
  5
1E8
331
1A8
  5
1C6
331
35D
  5
65E
331
204
  5
232
331
646
  5
456
331
16C
  5
18A
331
128
  5
146
331
106
  5
124
331
457
  5
67D
331
117
  5
135
331
226
  5
24E
331
260
  5
288
331
C0
  5
DF
331
159
  5
177
331
282
  5
2C9
331
E2
  5
105
331
2D6
  5
340
331
195
  5
1B3
331
173
  5
191
331
34A
  5
64B
331
1F1
  5
21F
331
1D9
  5
1FC
331
1B7
  5
1D5
331
633
  5
366
331
213
  5
23B
331
36C
  5
66F
331
104
  5
122
331
655
  5
465
331
235
  5
25E
331
466
  5
68C
331
126
  5
144
331
257
  5
280
331
271
  5
2B8
331
148
  5
166
331
293
  5
2DA
331
16A
  5
188
331
2C5
  5
2ED
331
2E7
  5
351
331
1A6
  5
1C4
331
339
  5
63A
331
1C8
  5
1E6
331
35B
  5
65C
331
202
  5
230
331
644
  5
377
331
224
  5
24C
331
455
  5
67B
331
246
  5
26F
331
137
  5
155
331
115
  5
133
331
184
  5
1A2
331
677
  5
BF
  0
LAYOUT
  5
6E
102
{ACAD_REACTORS
330
61
102
}
330
61
100
AcDbPlotSettings
  1

  2
none_device
  4
Letter_(8.50_x_11.00_Inches)
  6

 40
6.349999904632568
 41
6.349999904632568
 42
6.350006103515625
 43
6.350006103515625
 44
215.8999938964844
 45
279.3999938964844
 46
0.0
 47
0.0
 48
0.0
 49
0.0
140
0.0
141
0.0
142
1.0
143
28.75019487756566
 70
 11952
 72
     0
 73
     1
 74
     0
  7

 75
     0
147
0.0347823729285508
 76
     0
 77
     2
 78
   300
148
3833.930278590722
149
2306.252329328923
100
AcDbLayout
  1
Model
 70
     1
 71
     0
 10
0.0
 20
0.0
 11
12.0
 21
9.0
 12
0.0
 22
0.0
 32
0.0
 14
0.0
 24
0.0
 34
0.0
 15
0.0
 25
0.0
 35
0.0
146
0.0
 13
0.0
 23
0.0
 33
0.0
 16
1.0
 26
0.0
 36
0.0
 17
0.0
 27
1.0
 37
0.0
 76
     0
330
6B
331
8B
1001
ACAD_PSEXT
1000
なし
1000
なし
1000
適切ではありません
1000
新しいプロッタ環境設定名を選択しない限り、レイアウトは印刷されません。
1070
     0
  0
LAYOUT
  5
6A
102
{ACAD_REACTORS
330
61
102
}
330
61
100
AcDbPlotSettings
  1

  2
FX DP 205
  4

  6

 40
0.0
 41
0.0
 42
0.0
 43
0.0
 44
0.0
 45
0.0
 46
0.0
 47
0.0
 48
0.0
 49
0.0
140
0.0
141
0.0
142
1.0
143
1.0
 70
   688
 72
     0
 73
     0
 74
     5
  7

 75
    16
147
1.0
 76
     0
 77
     2
 78
   300
148
0.0
149
0.0
100
AcDbLayout
  1
レイアウト1
 70
     1
 71
     1
 10
0.0
 20
0.0
 11
12.0
 21
9.0
 12
0.0
 22
0.0
 32
0.0
 14
1.000000000000000E+20
 24
1.000000000000000E+20
 34
1.000000000000000E+20
 15
-1.000000000000000E+20
 25
-1.000000000000000E+20
 35
-1.000000000000000E+20
146
0.0
 13
0.0
 23
0.0
 33
0.0
 16
1.0
 26
0.0
 36
0.0
 17
0.0
 27
1.0
 37
0.0
 76
     0
330
67
  0
MATERIAL
  5
19
102
{ACAD_XDICTIONARY
360
1A
102
}
102
{ACAD_REACTORS
330
10
102
}
330
10
100
AcDbMaterial
  1
ByBlock
 72
     0
 43
0.0208333333333333
 43
0.0
 43
0.0
 43
0.0
 43
0.0
 43
0.0208333333333333
 43
0.0
 43
0.0
 43
0.0
 43
0.0
 43
1.0
 43
0.0
 43
0.0
 43
0.0
 43
0.0
 43
1.0
 77
     0
 47
0.0208333333333333
 47
0.0
 47
0.0
 47
0.0
 47
0.0
 47
0.0208333333333333
 47
0.0
 47
0.0
 47
0.0
 47
0.0
 47
1.0
 47
0.0
 47
0.0
 47
0.0
 47
0.0
 47
1.0
171
     0
 49
0.0208333333333333
 49
0.0
 49
0.0
 49
0.0
 49
0.0
 49
0.0208333333333333
 49
0.0
 49
0.0
 49
0.0
 49
0.0
 49
1.0
 49
0.0
 49
0.0
 49
0.0
 49
0.0
 49
1.0
175
     0
142
0.0208333333333333
142
0.0
142
0.0
142
0.0
142
0.0
142
0.0208333333333333
142
0.0
142
0.0
142
0.0
142
0.0
142
1.0
142
0.0
142
0.0
142
0.0
142
0.0
142
1.0
179
     0
144
0.0208333333333333
144
0.0
144
0.0
144
0.0
144
0.0
144
0.0208333333333333
144
0.0
144
0.0
144
0.0
144
0.0
144
1.0
144
0.0
144
0.0
144
0.0
144
0.0
144
1.0
147
0.0208333333333333
147
0.0
147
0.0
147
0.0
147
0.0
147
0.0208333333333333
147
0.0
147
0.0
147
0.0
147
0.0
147
1.0
147
0.0
147
0.0
147
0.0
147
0.0
147
1.0
  0
MATERIAL
  5
11
102
{ACAD_XDICTIONARY
360
12
102
}
102
{ACAD_REACTORS
330
10
102
}
330
10
100
AcDbMaterial
  1
ByLayer
 72
     0
 43
0.0208333333333333
 43
0.0
 43
0.0
 43
0.0
 43
0.0
 43
0.0208333333333333
 43
0.0
 43
0.0
 43
0.0
 43
0.0
 43
1.0
 43
0.0
 43
0.0
 43
0.0
 43
0.0
 43
1.0
 77
     0
 47
0.0208333333333333
 47
0.0
 47
0.0
 47
0.0
 47
0.0
 47
0.0208333333333333
 47
0.0
 47
0.0
 47
0.0
 47
0.0
 47
1.0
 47
0.0
 47
0.0
 47
0.0
 47
0.0
 47
1.0
171
     0
 49
0.0208333333333333
 49
0.0
 49
0.0
 49
0.0
 49
0.0
 49
0.0208333333333333
 49
0.0
 49
0.0
 49
0.0
 49
0.0
 49
1.0
 49
0.0
 49
0.0
 49
0.0
 49
0.0
 49
1.0
175
     0
142
0.0208333333333333
142
0.0
142
0.0
142
0.0
142
0.0
142
0.0208333333333333
142
0.0
142
0.0
142
0.0
142
0.0
142
1.0
142
0.0
142
0.0
142
0.0
142
0.0
142
1.0
179
     0
144
0.0208333333333333
144
0.0
144
0.0
144
0.0
144
0.0
144
0.0208333333333333
144
0.0
144
0.0
144
0.0
144
0.0
144
1.0
144
0.0
144
0.0
144
0.0
144
0.0
144
1.0
147
0.0208333333333333
147
0.0
147
0.0
147
0.0
147
0.0
147
0.0208333333333333
147
0.0
147
0.0
147
0.0
147
0.0
147
1.0
147
0.0
147
0.0
147
0.0
147
0.0
147
1.0
  0
MATERIAL
  5
21
102
{ACAD_XDICTIONARY
360
22
102
}
102
{ACAD_REACTORS
330
10
102
}
330
10
100
AcDbMaterial
  1
Global
 72
     0
 43
0.0208333333333333
 43
0.0
 43
0.0
 43
0.0
 43
0.0
 43
0.0208333333333333
 43
0.0
 43
0.0
 43
0.0
 43
0.0
 43
1.0
 43
0.0
 43
0.0
 43
0.0
 43
0.0
 43
1.0
 77
     0
 47
0.0208333333333333
 47
0.0
 47
0.0
 47
0.0
 47
0.0
 47
0.0208333333333333
 47
0.0
 47
0.0
 47
0.0
 47
0.0
 47
1.0
 47
0.0
 47
0.0
 47
0.0
 47
0.0
 47
1.0
171
     0
 49
0.0208333333333333
 49
0.0
 49
0.0
 49
0.0
 49
0.0
 49
0.0208333333333333
 49
0.0
 49
0.0
 49
0.0
 49
0.0
 49
1.0
 49
0.0
 49
0.0
 49
0.0
 49
0.0
 49
1.0
175
     0
142
0.0208333333333333
142
0.0
142
0.0
142
0.0
142
0.0
142
0.0208333333333333
142
0.0
142
0.0
142
0.0
142
0.0
142
1.0
142
0.0
142
0.0
142
0.0
142
0.0
142
1.0
179
     0
144
0.0208333333333333
144
0.0
144
0.0
144
0.0
144
0.0
144
0.0208333333333333
144
0.0
144
0.0
144
0.0
144
0.0
144
1.0
144
0.0
144
0.0
144
0.0
144
0.0
144
1.0
147
0.0208333333333333
147
0.0
147
0.0
147
0.0
147
0.0
147
0.0208333333333333
147
0.0
147
0.0
147
0.0
147
0.0
147
1.0
147
0.0
147
0.0
147
0.0
147
0.0
147
1.0
  0
ACAD_PROXY_OBJECT
  5
66
102
{ACAD_REACTORS
330
65
102
}
330
65
100
AcDbProxyObject
 90
      499
 91
      505
 95
  1310743
 70
     1
100
AcDbMLeaderStyle
170
     2
171
     1
172
     0
 90
        2
 40
0.0
 41
0.0
173
     1
 91
-1056964608
340
5A
 92
       -2
290
     1
 42
0.09
291
     1
 43
0.36
  3
Standard
 44
0.18
300

342
55
174
     1
178
     6
175
     1
176
     0
 93
-1056964608
 45
0.18
292
     0
297
     0
 46
0.18
 94
-1056964608
 47
1.0
 49
1.0
140
1.0
293
     1
141
0.0
294
     1
177
     0
142
1.0
295
     0
296
     0
143
0.125
1001
ACAD_MLEADERVER
1070
     2
  0
MLINESTYLE
  5
5F
102
{ACAD_REACTORS
330
5E
102
}
330
5E
100
AcDbMlineStyle
  2
STANDARD
 70
     0
  3

 62
   256
 51
90.0
 52
90.0
 71
     2
 49
0.5
 62
   256
  6
BYLAYER
 49
-0.5
 62
   256
  6
BYLAYER
  0
ACDBPLACEHOLDER
  5
F
102
{ACAD_REACTORS
330
E
102
}
330
E
  0
ACAD_PROXY_OBJECT
  5
43
102
{ACAD_REACTORS
330
42
102
}
330
42
100
AcDbProxyObject
 90
      499
 91
      503
 95
  1310743
 70
     1
100
AcDbScale
 70
     0
300
1:1
140
1.0
141
1.0
290
     1
  0
ACAD_PROXY_OBJECT
  5
44
102
{ACAD_REACTORS
330
42
102
}
330
42
100
AcDbProxyObject
 90
      499
 91
      503
 95
  1310743
 70
     1
100
AcDbScale
 70
     0
300
1/128" = 1'-0"
140
0.0078125
141
12.0
290
     0
  0
ACAD_PROXY_OBJECT
  5
45
102
{ACAD_REACTORS
330
42
102
}
330
42
100
AcDbProxyObject
 90
      499
 91
      503
 95
  1310743
 70
     1
100
AcDbScale
 70
     0
300
1/64" = 1'-0"
140
0.015625
141
12.0
290
     0
  0
ACAD_PROXY_OBJECT
  5
46
102
{ACAD_REACTORS
330
42
102
}
330
42
100
AcDbProxyObject
 90
      499
 91
      503
 95
  1310743
 70
     1
100
AcDbScale
 70
     0
300
1/32" = 1'-0"
140
0.03125
141
12.0
290
     0
  0
ACAD_PROXY_OBJECT
  5
47
102
{ACAD_REACTORS
330
42
102
}
330
42
100
AcDbProxyObject
 90
      499
 91
      503
 95
  1310743
 70
     1
100
AcDbScale
 70
     0
300
1/16" = 1'-0"
140
0.0625
141
12.0
290
     0
  0
ACAD_PROXY_OBJECT
  5
48
102
{ACAD_REACTORS
330
42
102
}
330
42
100
AcDbProxyObject
 90
      499
 91
      503
 95
  1310743
 70
     1
100
AcDbScale
 70
     0
300
3/32" = 1'-0"
140
0.09375
141
12.0
290
     0
  0
ACAD_PROXY_OBJECT
  5
49
102
{ACAD_REACTORS
330
42
102
}
330
42
100
AcDbProxyObject
 90
      499
 91
      503
 95
  1310743
 70
     1
100
AcDbScale
 70
     0
300
1/8" = 1'-0"
140
0.125
141
12.0
290
     0
  0
ACAD_PROXY_OBJECT
  5
4A
102
{ACAD_REACTORS
330
42
102
}
330
42
100
AcDbProxyObject
 90
      499
 91
      503
 95
  1310743
 70
     1
100
AcDbScale
 70
     0
300
3/16" = 1'-0"
140
0.1875
141
12.0
290
     0
  0
ACAD_PROXY_OBJECT
  5
4B
102
{ACAD_REACTORS
330
42
102
}
330
42
100
AcDbProxyObject
 90
      499
 91
      503
 95
  1310743
 70
     1
100
AcDbScale
 70
     0
300
1/4" = 1'-0"
140
0.25
141
12.0
290
     0
  0
ACAD_PROXY_OBJECT
  5
4C
102
{ACAD_REACTORS
330
42
102
}
330
42
100
AcDbProxyObject
 90
      499
 91
      503
 95
  1310743
 70
     1
100
AcDbScale
 70
     0
300
3/8" = 1'-0"
140
0.375
141
12.0
290
     0
  0
ACAD_PROXY_OBJECT
  5
4D
102
{ACAD_REACTORS
330
42
102
}
330
42
100
AcDbProxyObject
 90
      499
 91
      503
 95
  1310743
 70
     1
100
AcDbScale
 70
     0
300
1/2" = 1'-0"
140
0.5
141
12.0
290
     0
  0
ACAD_PROXY_OBJECT
  5
4E
102
{ACAD_REACTORS
330
42
102
}
330
42
100
AcDbProxyObject
 90
      499
 91
      503
 95
  1310743
 70
     1
100
AcDbScale
 70
     0
300
3/4" = 1'-0"
140
0.75
141
12.0
290
     0
  0
ACAD_PROXY_OBJECT
  5
4F
102
{ACAD_REACTORS
330
42
102
}
330
42
100
AcDbProxyObject
 90
      499
 91
      503
 95
  1310743
 70
     1
100
AcDbScale
 70
     0
300
1" = 1'-0"
140
1.0
141
12.0
290
     0
  0
ACAD_PROXY_OBJECT
  5
50
102
{ACAD_REACTORS
330
42
102
}
330
42
100
AcDbProxyObject
 90
      499
 91
      503
 95
  1310743
 70
     1
100
AcDbScale
 70
     0
300
1-1/2" = 1'-0"
140
1.5
141
12.0
290
     0
  0
ACAD_PROXY_OBJECT
  5
51
102
{ACAD_REACTORS
330
42
102
}
330
42
100
AcDbProxyObject
 90
      499
 91
      503
 95
  1310743
 70
     1
100
AcDbScale
 70
     0
300
3" = 1'-0"
140
3.0
141
12.0
290
     0
  0
ACAD_PROXY_OBJECT
  5
52
102
{ACAD_REACTORS
330
42
102
}
330
42
100
AcDbProxyObject
 90
      499
 91
      503
 95
  1310743
 70
     1
100
AcDbScale
 70
     0
300
6" = 1'-0"
140
6.0
141
12.0
290
     0
  0
ACAD_PROXY_OBJECT
  5
53
102
{ACAD_REACTORS
330
42
102
}
330
42
100
AcDbProxyObject
 90
      499
 91
      503
 95
  1310743
 70
     1
100
AcDbScale
 70
     0
300
1'-0" = 1'-0"
140
12.0
141
12.0
290
     0
  0
TABLESTYLE
  5
64
102
{ACAD_XDICTIONARY
360
5CE
102
}
102
{ACAD_REACTORS
330
63
102
}
330
63
100
AcDbTableStyle
  3
Standard
 70
     0
 71
     0
 40
0.06
 41
0.06
280
     0
281
     0
  7
STANDARD
140
0.18
170
     2
 62
     0
 63
     7
283
     0
 90
      512
 91
        0
  1

274
    -2
284
     1
 64
     0
275
    -2
285
     1
 65
     0
276
    -2
286
     1
 66
     0
277
    -2
287
     1
 67
     0
278
    -2
288
     1
 68
     0
279
    -2
289
     1
 69
     0
  7
STANDARD
140
0.25
170
     5
 62
     0
 63
     7
283
     0
 90
      512
 91
        0
  1

274
    -2
284
     1
 64
     0
275
    -2
285
     1
 65
     0
276
    -2
286
     1
 66
     0
277
    -2
287
     1
 67
     0
278
    -2
288
     1
 68
     0
279
    -2
289
     1
 69
     0
  7
STANDARD
140
0.18
170
     5
 62
     0
 63
     7
283
     0
 90
      512
 91
        0
  1

274
    -2
284
     1
 64
     0
275
    -2
285
     1
 65
     0
276
    -2
286
     1
 66
     0
277
    -2
287
     1
 67
     0
278
    -2
288
     1
 68
     0
279
    -2
289
     1
 69
     0
  0
VISUALSTYLE
  5
2F
102
{ACAD_XDICTIONARY
360
5DF
102
}
102
{ACAD_REACTORS
330
29
102
}
330
29
100
AcDbVisualStyle
  2
2dWireframe
 70
     4
 71
     0
 72
     2
 73
     0
 90
        0
 40
-0.6
 41
-30.0
 62
     5
 63
     7
 74
     1
 91
        4
 64
     7
 65
   257
 75
     1
175
     1
 42
1.0
 92
        0
 66
   257
 43
1.0
 76
     1
 77
     6
 78
     2
 67
     7
 79
     5
170
     0
171
     0
290
     0
174
     0
 93
        1
 44
0.0
173
     0
291
     0
 45
0.0
1001
ACAD
1000
AcDbSavedByObjectVersion
1070
     0
  0
VISUALSTYLE
  5
613
102
{ACAD_REACTORS
330
29
102
}
330
29
100
AcDbVisualStyle
  2
3D Hidden
 70
     6
 71
     1
 72
     2
 73
     2
 90
        0
 40
-0.6
 41
-30.0
 62
     5
 63
     7
421
 16777215
 74
     2
 91
        2
 64
     7
 65
   257
 75
     2
175
     1
 42
40.0
 92
        0
 66
   257
 43
1.0
 76
     1
 77
     6
 78
     2
 67
     7
 79
     3
170
     0
171
     0
290
     0
174
     0
 93
        1
 44
0.0
173
     0
291
     0
 45
0.0
  0
VISUALSTYLE
  5
41D
102
{ACAD_XDICTIONARY
360
60D
102
}
102
{ACAD_REACTORS
330
29
102
}
330
29
100
AcDbVisualStyle
  2
3dWireframe
 70
     5
 71
     0
 72
     2
 73
     1
 90
        0
 40
-0.6
 41
-30.0
 62
     5
 63
     7
 74
     1
 91
        4
 64
     7
 65
   257
 75
     1
175
     1
 42
1.0
 92
        0
 66
   257
 43
1.0
 76
     1
 77
     6
 78
     2
 67
     7
 79
     5
170
     0
171
     0
290
     0
174
     0
 93
        1
 44
0.0
173
     0
291
     0
 45
0.0
1001
ACAD
1000
AcDbSavedByObjectVersion
1070
     0
  0
VISUALSTYLE
  5
2E
102
{ACAD_XDICTIONARY
360
5DD
102
}
102
{ACAD_REACTORS
330
29
102
}
330
29
100
AcDbVisualStyle
  2
Basic
 70
     7
 71
     1
 72
     0
 73
     1
 90
        0
 40
-0.6
 41
-30.0
 62
     5
 63
     7
 74
     0
 91
        4
 64
     7
 65
   257
 75
     1
175
     1
 42
1.0
 92
        8
 66
     7
 43
1.0
 76
     1
 77
     6
 78
     2
 67
     7
 79
     5
170
     0
171
     0
290
     0
174
     0
 93
        1
 44
0.0
173
     0
291
     1
 45
0.0
1001
ACAD
1000
AcDbSavedByObjectVersion
1070
     0
  0
VISUALSTYLE
  5
35
102
{ACAD_XDICTIONARY
360
5EB
102
}
102
{ACAD_REACTORS
330
29
102
}
330
29
100
AcDbVisualStyle
  2
Brighten
 70
    12
 71
     2
 72
     2
 73
     0
 90
        0
 40
-0.6
 41
-30.0
 62
     5
 63
     7
 74
     1
 91
        4
 64
     7
 65
   257
 75
     1
175
     1
 42
1.0
 92
        8
 66
     7
 43
1.0
 76
     1
 77
     6
 78
     2
 67
     7
 79
     5
170
     0
171
     0
290
     0
174
     0
 93
        1
 44
50.0
173
     0
291
     1
 45
0.0
1001
ACAD
1000
AcDbSavedByObjectVersion
1070
     0
  0
VISUALSTYLE
  5
39
102
{ACAD_XDICTIONARY
360
5F3
102
}
102
{ACAD_REACTORS
330
29
102
}
330
29
100
AcDbVisualStyle
  2
ColorChange
 70
    16
 71
     2
 72
     2
 73
     3
 90
        0
 40
-0.6
 41
-30.0
 62
     5
 63
     8
 74
     1
 91
        4
 64
     7
 65
   257
 75
     1
175
     1
 42
1.0
 92
        8
 66
     8
 43
1.0
 76
     1
 77
     6
 78
     2
 67
     7
 79
     5
170
     0
171
     0
290
     0
174
     0
 93
        1
 44
0.0
173
     0
291
     1
 45
0.0
1001
ACAD
1000
AcDbSavedByObjectVersion
1070
     0
  0
VISUALSTYLE
  5
32
102
{ACAD_XDICTIONARY
360
5E5
102
}
102
{ACAD_REACTORS
330
29
102
}
330
29
100
AcDbVisualStyle
  2
Conceptual
 70
     9
 71
     3
 72
     2
 73
     0
 90
        0
 40
-0.6
 41
-30.0
 62
     5
 63
     7
 74
     2
 91
        2
 64
     7
 65
   257
 75
     1
175
     1
 42
179.0
 92
        8
 66
     7
 43
1.0
 76
     1
 77
     6
 78
     2
 67
     7
 79
     3
170
     0
171
     0
290
     0
174
     0
 93
        1
 44
0.0
173
     0
291
     0
 45
0.0
1001
ACAD
1000
AcDbSavedByObjectVersion
1070
     0
  0
VISUALSTYLE
  5
34
102
{ACAD_XDICTIONARY
360
5E9
102
}
102
{ACAD_REACTORS
330
29
102
}
330
29
100
AcDbVisualStyle
  2
Dim
 70
    11
 71
     2
 72
     2
 73
     0
 90
        0
 40
-0.6
 41
-30.0
 62
     5
 63
     7
 74
     1
 91
        4
 64
     7
 65
   257
 75
     1
175
     1
 42
1.0
 92
        8
 66
     7
 43
1.0
 76
     1
 77
     6
 78
     2
 67
     7
 79
     5
170
     0
171
     0
290
     0
174
     0
 93
        1
 44
-50.0
173
     0
291
     1
 45
0.0
1001
ACAD
1000
AcDbSavedByObjectVersion
1070
     0
  0
VISUALSTYLE
  5
41
102
{ACAD_XDICTIONARY
360
603
102
}
102
{ACAD_REACTORS
330
29
102
}
330
29
100
AcDbVisualStyle
  2
EdgeColorOff
 70
    22
 71
     2
 72
     2
 73
     0
 90
        0
 40
-0.6
 41
-30.0
 62
     5
 63
     7
 74
     1
 91
        4
 64
     7
 65
   257
 75
     1
175
     1
 42
1.0
 92
        8
 66
     7
 43
1.0
 76
     1
 77
     6
 78
     2
 67
     7
 79
     5
170
     0
171
     0
290
     0
174
     0
 93
        1
 44
0.0
173
     0
291
     1
 45
0.0
1001
ACAD
1000
AcDbSavedByObjectVersion
1070
     0
  0
VISUALSTYLE
  5
38
102
{ACAD_XDICTIONARY
360
5F1
102
}
102
{ACAD_REACTORS
330
29
102
}
330
29
100
AcDbVisualStyle
  2
Facepattern
 70
    15
 71
     2
 72
     2
 73
     0
 90
        0
 40
-0.6
 41
-30.0
 62
     5
 63
     7
 74
     1
 91
        4
 64
     7
 65
   257
 75
     1
175
     1
 42
1.0
 92
        8
 66
     7
 43
1.0
 76
     1
 77
     6
 78
     2
 67
     7
 79
     5
170
     0
171
     0
290
     0
174
     0
 93
        1
 44
0.0
173
     0
291
     1
 45
0.0
1001
ACAD
1000
AcDbSavedByObjectVersion
1070
     0
  0
VISUALSTYLE
  5
2A
102
{ACAD_XDICTIONARY
360
5D5
102
}
102
{ACAD_REACTORS
330
29
102
}
330
29
100
AcDbVisualStyle
  2
Flat
 70
     0
 71
     2
 72
     1
 73
     1
 90
        2
 40
-0.6
 41
30.0
 62
     5
 63
     7
 74
     0
 91
        0
 64
     7
 65
   257
 75
     1
175
     1
 42
1.0
 92
        8
 66
     7
 43
1.0
 76
     1
 77
     6
 78
     2
 67
     7
 79
     5
170
     0
171
     0
290
     0
174
     0
 93
       13
 44
0.0
173
     0
291
     1
 45
0.0
1001
ACAD
1000
AcDbSavedByObjectVersion
1070
     0
  0
VISUALSTYLE
  5
2B
102
{ACAD_XDICTIONARY
360
5D7
102
}
102
{ACAD_REACTORS
330
29
102
}
330
29
100
AcDbVisualStyle
  2
FlatWithEdges
 70
     1
 71
     2
 72
     1
 73
     1
 90
        2
 40
-0.6
 41
30.0
 62
     5
 63
     7
 74
     1
 91
        0
 64
     7
 65
   257
 75
     1
175
     1
 42
1.0
 92
        0
 66
   257
 43
1.0
 76
     1
 77
     6
 78
     2
 67
     7
 79
     5
170
     0
171
     0
290
     0
174
     0
 93
       13
 44
0.0
173
     0
291
     1
 45
0.0
1001
ACAD
1000
AcDbSavedByObjectVersion
1070
     0
  0
VISUALSTYLE
  5
2C
102
{ACAD_XDICTIONARY
360
5D9
102
}
102
{ACAD_REACTORS
330
29
102
}
330
29
100
AcDbVisualStyle
  2
Gouraud
 70
     2
 71
     2
 72
     2
 73
     1
 90
        2
 40
-0.6
 41
30.0
 62
     5
 63
     7
 74
     0
 91
        0
 64
     7
 65
   257
 75
     1
175
     1
 42
1.0
 92
        0
 66
     7
 43
1.0
 76
     1
 77
     6
 78
     2
 67
     7
 79
     5
170
     0
171
     0
290
     0
174
     0
 93
       13
 44
0.0
173
     0
291
     1
 45
0.0
1001
ACAD
1000
AcDbSavedByObjectVersion
1070
     0
  0
VISUALSTYLE
  5
2D
102
{ACAD_XDICTIONARY
360
5DB
102
}
102
{ACAD_REACTORS
330
29
102
}
330
29
100
AcDbVisualStyle
  2
GouraudWithEdges
 70
     3
 71
     2
 72
     2
 73
     1
 90
        2
 40
-0.6
 41
30.0
 62
     5
 63
     7
 74
     1
 91
        0
 64
     7
 65
   257
 75
     1
175
     1
 42
1.0
 92
        0
 66
   257
 43
1.0
 76
     1
 77
     6
 78
     2
 67
     7
 79
     5
170
     0
171
     0
290
     0
174
     0
 93
       13
 44
0.0
173
     0
291
     1
 45
0.0
1001
ACAD
1000
AcDbSavedByObjectVersion
1070
     0
  0
VISUALSTYLE
  5
31
102
{ACAD_XDICTIONARY
360
5E3
102
}
102
{ACAD_REACTORS
330
29
102
}
330
29
100
AcDbVisualStyle
  2
Hidden
 70
     6
 71
     1
 72
     2
 73
     2
 90
        0
 40
-0.6
 41
-30.0
 62
     5
 63
     7
 74
     2
 91
        2
 64
     7
 65
   257
 75
     2
175
     1
 42
40.0
 92
        0
 66
   257
 43
1.0
 76
     1
 77
     6
 78
     2
 67
     7
 79
     3
170
     0
171
     0
290
     0
174
     0
 93
        1
 44
0.0
173
     0
291
     0
 45
0.0
1001
ACAD
1000
AcDbSavedByObjectVersion
1070
     0
  0
VISUALSTYLE
  5
3F
102
{ACAD_XDICTIONARY
360
5FF
102
}
102
{ACAD_REACTORS
330
29
102
}
330
29
100
AcDbVisualStyle
  2
JitterOff
 70
    20
 71
     2
 72
     2
 73
     0
 90
        0
 40
-0.6
 41
-30.0
 62
     5
 63
     7
 74
     1
 91
        4
 64
     7
 65
   257
 75
     1
175
     1
 42
1.0
 92
       10
 66
     7
 43
1.0
 76
     1
 77
     6
 78
     2
 67
     7
 79
     5
170
     0
171
     0
290
     0
174
     0
 93
        1
 44
0.0
173
     0
291
     1
 45
0.0
1001
ACAD
1000
AcDbSavedByObjectVersion
1070
     0
  0
VISUALSTYLE
  5
37
102
{ACAD_XDICTIONARY
360
5EF
102
}
102
{ACAD_REACTORS
330
29
102
}
330
29
100
AcDbVisualStyle
  2
Linepattern
 70
    14
 71
     2
 72
     2
 73
     0
 90
        0
 40
-0.6
 41
-30.0
 62
     5
 63
     7
 74
     1
 91
        4
 64
     7
 65
   257
 75
     7
175
     7
 42
1.0
 92
        8
 66
     7
 43
1.0
 76
     1
 77
     6
 78
     2
 67
     7
 79
     5
170
     0
171
     0
290
     0
174
     0
 93
        1
 44
0.0
173
     0
291
     1
 45
0.0
1001
ACAD
1000
AcDbSavedByObjectVersion
1070
     0
  0
VISUALSTYLE
  5
40
102
{ACAD_XDICTIONARY
360
601
102
}
102
{ACAD_REACTORS
330
29
102
}
330
29
100
AcDbVisualStyle
  2
OverhangOff
 70
    21
 71
     2
 72
     2
 73
     0
 90
        0
 40
-0.6
 41
-30.0
 62
     5
 63
     7
 74
     1
 91
        4
 64
     7
 65
   257
 75
     1
175
     1
 42
1.0
 92
        9
 66
     7
 43
1.0
 76
     1
 77
     6
 78
     2
 67
     7
 79
     5
170
     0
171
     0
290
     0
174
     0
 93
        1
 44
0.0
173
     0
291
     1
 45
0.0
1001
ACAD
1000
AcDbSavedByObjectVersion
1070
     0
  0
VISUALSTYLE
  5
33
102
{ACAD_XDICTIONARY
360
5E7
102
}
102
{ACAD_REACTORS
330
29
102
}
330
29
100
AcDbVisualStyle
  2
Realistic
 70
     8
 71
     2
 72
     3
 73
     0
 90
        2
 40
-0.6
 41
30.0
 62
     5
 63
     7
 74
     0
 91
        0
 64
     7
 65
   257
 75
     1
175
     1
 42
1.0
 92
        8
 66
   257
 43
1.0
 76
     1
 77
     6
 78
     2
 67
     7
 79
     3
170
     0
171
     0
290
     0
174
     0
 93
       13
 44
0.0
173
     0
291
     0
 45
0.0
1001
ACAD
1000
AcDbSavedByObjectVersion
1070
     0
  0
VISUALSTYLE
  5
3E
102
{ACAD_XDICTIONARY
360
5FD
102
}
102
{ACAD_REACTORS
330
29
102
}
330
29
100
AcDbVisualStyle
  2
Shaded
 70
    27
 71
     2
 72
     2
 73
     1
 90
        2
 40
-0.6
 41
30.0
 62
     5
 63
     7
 74
     0
 91
        4
 64
     7
 65
   257
 75
     1
175
     1
 42
1.0
 92
        8
 66
   257
 43
1.0
 76
     1
 77
     6
 78
     2
 67
     8
 79
     3
170
     0
171
     0
290
     0
174
     0
 93
        5
 44
0.0
173
     0
291
     0
 45
0.0
1001
ACAD
1000
AcDbSavedByObjectVersion
1070
     0
  0
VISUALSTYLE
  5
3D
102
{ACAD_XDICTIONARY
360
5FB
102
}
102
{ACAD_REACTORS
330
29
102
}
330
29
100
AcDbVisualStyle
  2
Shaded with edges
 70
    26
 71
     2
 72
     2
 73
     1
 90
        2
 40
-0.6
 41
30.0
 62
     5
 63
     7
 74
     1
 91
       10
 64
     7
 65
   257
 75
     2
175
     1
 42
1.0
 92
        8
 66
   257
 43
1.0
 76
     1
 77
     6
 78
     2
 67
     7
 79
     3
170
     0
171
     0
290
     0
174
     0
 93
        5
 44
0.0
173
     0
291
     0
 45
0.0
1001
ACAD
1000
AcDbSavedByObjectVersion
1070
     0
  0
VISUALSTYLE
  5
3A
102
{ACAD_XDICTIONARY
360
5F5
102
}
102
{ACAD_REACTORS
330
29
102
}
330
29
100
AcDbVisualStyle
  2
Shades of Gray
 70
    23
 71
     2
 72
     2
 73
     3
 90
        0
 40
-0.6
 41
-30.0
 62
     5
 63
     7
 74
     2
 91
        2
 64
     7
 65
     7
 75
     1
175
     1
 42
40.0
 92
        8
 66
     7
 43
1.0
 76
     1
 77
     6
 78
     2
 67
     7
 79
     3
170
     0
171
     0
290
     0
174
     0
 93
        1
 44
0.0
173
     0
291
     0
 45
0.0
1001
ACAD
1000
AcDbSavedByObjectVersion
1070
     0
  0
VISUALSTYLE
  5
3B
102
{ACAD_XDICTIONARY
360
5F7
102
}
102
{ACAD_REACTORS
330
29
102
}
330
29
100
AcDbVisualStyle
  2
Sketchy
 70
    24
 71
     1
 72
     2
 73
     2
 90
        0
 40
-0.6
 41
-30.0
 62
     5
 63
     7
 74
     2
 91
        2
 64
     7
 65
     7
 75
     1
175
     1
 42
40.0
 92
       11
 66
     7
 43
1.0
 76
     1
 77
     6
 78
     2
 67
     7
 79
     6
170
     0
171
     0
290
     0
174
     0
 93
        1
 44
0.0
173
     0
291
     0
 45
0.0
1001
ACAD
1000
AcDbSavedByObjectVersion
1070
     0
  0
VISUALSTYLE
  5
36
102
{ACAD_XDICTIONARY
360
5ED
102
}
102
{ACAD_REACTORS
330
29
102
}
330
29
100
AcDbVisualStyle
  2
Thicken
 70
    13
 71
     2
 72
     2
 73
     0
 90
        0
 40
-0.6
 41
-30.0
 62
     5
 63
     7
 74
     1
 91
        4
 64
     7
 65
   257
 75
     1
175
     1
 42
1.0
 92
       12
 66
     7
 43
1.0
 76
     1
 77
     6
 78
     2
 67
     7
 79
     5
170
     0
171
     0
290
     0
174
     0
 93
        1
 44
0.0
173
     0
291
     1
 45
0.0
1001
ACAD
1000
AcDbSavedByObjectVersion
1070
     0
  0
VISUALSTYLE
  5
30
102
{ACAD_XDICTIONARY
360
5E1
102
}
102
{ACAD_REACTORS
330
29
102
}
330
29
100
AcDbVisualStyle
  2
Wireframe
 70
     5
 71
     0
 72
     2
 73
     0
 90
        0
 40
-0.6
 41
-30.0
 62
     5
 63
     7
 74
     1
 91
        4
 64
     7
 65
   257
 75
     1
175
     1
 42
1.0
 92
        0
 66
   257
 43
1.0
 76
     1
 77
     6
 78
     2
 67
     7
 79
     3
170
     0
171
     0
290
     0
174
     0
 93
        1
 44
0.0
173
     0
291
     0
 45
0.0
1001
ACAD
1000
AcDbSavedByObjectVersion
1070
     0
  0
VISUALSTYLE
  5
3C
102
{ACAD_XDICTIONARY
360
5F9
102
}
102
{ACAD_REACTORS
330
29
102
}
330
29
100
AcDbVisualStyle
  2
X-Ray
 70
    25
 71
     2
 72
     2
 73
     1
 90
        1
 40
0.5
 41
-30.0
 62
     5
 63
     7
 74
     1
 91
        0
 64
     7
 65
   257
 75
     1
175
     1
 42
1.0
 92
        8
 66
     7
 43
1.0
 76
     1
 77
     6
 78
     2
 67
     7
 79
     3
170
     0
171
     0
290
     0
174
     0
 93
       13
 44
0.0
173
     0
291
     0
 45
0.0
1001
ACAD
1000
AcDbSavedByObjectVersion
1070
     0
  0
DICTIONARYVAR
  5
5C9
102
{ACAD_REACTORS
330
5C6
102
}
330
5C6
100
DictionaryVariables
280
     0
  1
1:1
  0
DICTIONARYVAR
  5
5C8
102
{ACAD_REACTORS
330
5C6
102
}
330
5C6
100
DictionaryVariables
280
     0
  1
STANDARD
  0
DICTIONARYVAR
  5
5C7
102
{ACAD_REACTORS
330
5C6
102
}
330
5C6
100
DictionaryVariables
280
     0
  1
STANDARD
  0
DICTIONARYVAR
  5
5CC
102
{ACAD_REACTORS
330
5C6
102
}
330
5C6
100
DictionaryVariables
280
     0
  1
1
  0
DICTIONARYVAR
  5
5CB
102
{ACAD_REACTORS
330
5C6
102
}
330
5C6
100
DictionaryVariables
280
     0
  1
0
  0
DICTIONARYVAR
  5
5CA
102
{ACAD_REACTORS
330
5C6
102
}
330
5C6
100
DictionaryVariables
280
     0
  1
127
  0
DICTIONARYVAR
  5
5CD
102
{ACAD_REACTORS
330
5C6
102
}
330
5C6
100
DictionaryVariables
280
     0
  1
2
  0
DICTIONARY
  5
1A
330
19
100
AcDbDictionary
280
     1
281
     1
  3
ACAD_XREC_ROUNDTRIP
360
5D3
  3
BUMPTILE
360
1C
  3
DIFFUSETILE
360
1B
  3
OPACITYTILE
360
1F
  3
REFLECTIONTILE
360
1E
  3
REFRACTIONTILE
360
20
  3
SPECULARTILE
360
1D
  0
DICTIONARY
  5
12
330
11
100
AcDbDictionary
280
     1
281
     1
  3
ACAD_XREC_ROUNDTRIP
360
5D2
  3
BUMPTILE
360
14
  3
DIFFUSETILE
360
13
  3
OPACITYTILE
360
17
  3
REFLECTIONTILE
360
16
  3
REFRACTIONTILE
360
18
  3
SPECULARTILE
360
15
  0
DICTIONARY
  5
22
330
21
100
AcDbDictionary
280
     1
281
     1
  3
ACAD_XREC_ROUNDTRIP
360
5D4
  3
BUMPTILE
360
24
  3
DIFFUSETILE
360
23
  3
OPACITYTILE
360
27
  3
REFLECTIONTILE
360
26
  3
REFRACTIONTILE
360
28
  3
SPECULARTILE
360
25
  0
DICTIONARY
  5
5CE
330
64
100
AcDbDictionary
280
     1
281
     1
  3
ACAD_ROUNDTRIP_2008_TABLESTYLE_CELLSTYLEMAP
360
5CF
  0
DICTIONARY
  5
5DF
330
2F
100
AcDbDictionary
280
     1
281
     1
  3
ACAD_XREC_ROUNDTRIP
360
5E0
  0
DICTIONARY
  5
60D
330
41D
100
AcDbDictionary
280
     1
281
     1
  3
ACAD_XREC_ROUNDTRIP
360
60E
  0
DICTIONARY
  5
5DD
330
2E
100
AcDbDictionary
280
     1
281
     1
  3
ACAD_XREC_ROUNDTRIP
360
5DE
  0
DICTIONARY
  5
5EB
330
35
100
AcDbDictionary
280
     1
281
     1
  3
ACAD_XREC_ROUNDTRIP
360
5EC
  0
DICTIONARY
  5
5F3
330
39
100
AcDbDictionary
280
     1
281
     1
  3
ACAD_XREC_ROUNDTRIP
360
5F4
  0
DICTIONARY
  5
5E5
330
32
100
AcDbDictionary
280
     1
281
     1
  3
ACAD_XREC_ROUNDTRIP
360
5E6
  0
DICTIONARY
  5
5E9
330
34
100
AcDbDictionary
280
     1
281
     1
  3
ACAD_XREC_ROUNDTRIP
360
5EA
  0
DICTIONARY
  5
603
330
41
100
AcDbDictionary
280
     1
281
     1
  3
ACAD_XREC_ROUNDTRIP
360
604
  0
DICTIONARY
  5
5F1
330
38
100
AcDbDictionary
280
     1
281
     1
  3
ACAD_XREC_ROUNDTRIP
360
5F2
  0
DICTIONARY
  5
5D5
330
2A
100
AcDbDictionary
280
     1
281
     1
  3
ACAD_XREC_ROUNDTRIP
360
5D6
  0
DICTIONARY
  5
5D7
330
2B
100
AcDbDictionary
280
     1
281
     1
  3
ACAD_XREC_ROUNDTRIP
360
5D8
  0
DICTIONARY
  5
5D9
330
2C
100
AcDbDictionary
280
     1
281
     1
  3
ACAD_XREC_ROUNDTRIP
360
5DA
  0
DICTIONARY
  5
5DB
330
2D
100
AcDbDictionary
280
     1
281
     1
  3
ACAD_XREC_ROUNDTRIP
360
5DC
  0
DICTIONARY
  5
5E3
330
31
100
AcDbDictionary
280
     1
281
     1
  3
ACAD_XREC_ROUNDTRIP
360
5E4
  0
DICTIONARY
  5
5FF
330
3F
100
AcDbDictionary
280
     1
281
     1
  3
ACAD_XREC_ROUNDTRIP
360
600
  0
DICTIONARY
  5
5EF
330
37
100
AcDbDictionary
280
     1
281
     1
  3
ACAD_XREC_ROUNDTRIP
360
5F0
  0
DICTIONARY
  5
601
330
40
100
AcDbDictionary
280
     1
281
     1
  3
ACAD_XREC_ROUNDTRIP
360
602
  0
DICTIONARY
  5
5E7
330
33
100
AcDbDictionary
280
     1
281
     1
  3
ACAD_XREC_ROUNDTRIP
360
5E8
  0
DICTIONARY
  5
5FD
330
3E
100
AcDbDictionary
280
     1
281
     1
  3
ACAD_XREC_ROUNDTRIP
360
5FE
  0
DICTIONARY
  5
5FB
330
3D
100
AcDbDictionary
280
     1
281
     1
  3
ACAD_XREC_ROUNDTRIP
360
5FC
  0
DICTIONARY
  5
5F5
330
3A
100
AcDbDictionary
280
     1
281
     1
  3
ACAD_XREC_ROUNDTRIP
360
5F6
  0
DICTIONARY
  5
5F7
330
3B
100
AcDbDictionary
280
     1
281
     1
  3
ACAD_XREC_ROUNDTRIP
360
5F8
  0
DICTIONARY
  5
5ED
330
36
100
AcDbDictionary
280
     1
281
     1
  3
ACAD_XREC_ROUNDTRIP
360
5EE
  0
DICTIONARY
  5
5E1
330
30
100
AcDbDictionary
280
     1
281
     1
  3
ACAD_XREC_ROUNDTRIP
360
5E2
  0
DICTIONARY
  5
5F9
330
3C
100
AcDbDictionary
280
     1
281
     1
  3
ACAD_XREC_ROUNDTRIP
360
5FA
  0
XRECORD
  5
5D3
102
{ACAD_REACTORS
330
1A
102
}
330
1A
100
AcDbXrecord
280
     1
102
MATERIAL
148
0.0
149
0.0
149
0.0
 93
        0
 94
      127
282
     0
 72
     0
 77
     0
171
     0
175
     0
179
     0
273
     0
  0
XRECORD
  5
1C
102
{ACAD_REACTORS
330
1A
102
}
330
1A
100
AcDbXrecord
280
     1
270
     1
271
     1
  0
XRECORD
  5
1B
102
{ACAD_REACTORS
330
1A
102
}
330
1A
100
AcDbXrecord
280
     1
270
     1
271
     1
  0
XRECORD
  5
1F
102
{ACAD_REACTORS
330
1A
102
}
330
1A
100
AcDbXrecord
280
     1
270
     1
271
     1
  0
XRECORD
  5
1E
102
{ACAD_REACTORS
330
1A
102
}
330
1A
100
AcDbXrecord
280
     1
270
     1
271
     1
  0
XRECORD
  5
20
102
{ACAD_REACTORS
330
1A
102
}
330
1A
100
AcDbXrecord
280
     1
270
     1
271
     1
  0
XRECORD
  5
1D
102
{ACAD_REACTORS
330
1A
102
}
330
1A
100
AcDbXrecord
280
     1
270
     1
271
     1
  0
XRECORD
  5
5D2
102
{ACAD_REACTORS
330
12
102
}
330
12
100
AcDbXrecord
280
     1
102
MATERIAL
148
0.0
149
0.0
149
0.0
 93
        0
 94
      127
282
     0
 72
     0
 77
     0
171
     0
175
     0
179
     0
273
     0
  0
XRECORD
  5
14
102
{ACAD_REACTORS
330
12
102
}
330
12
100
AcDbXrecord
280
     1
270
     1
271
     1
  0
XRECORD
  5
13
102
{ACAD_REACTORS
330
12
102
}
330
12
100
AcDbXrecord
280
     1
270
     1
271
     1
  0
XRECORD
  5
17
102
{ACAD_REACTORS
330
12
102
}
330
12
100
AcDbXrecord
280
     1
270
     1
271
     1
  0
XRECORD
  5
16
102
{ACAD_REACTORS
330
12
102
}
330
12
100
AcDbXrecord
280
     1
270
     1
271
     1
  0
XRECORD
  5
18
102
{ACAD_REACTORS
330
12
102
}
330
12
100
AcDbXrecord
280
     1
270
     1
271
     1
  0
XRECORD
  5
15
102
{ACAD_REACTORS
330
12
102
}
330
12
100
AcDbXrecord
280
     1
270
     1
271
     1
  0
XRECORD
  5
5D4
102
{ACAD_REACTORS
330
22
102
}
330
22
100
AcDbXrecord
280
     1
102
MATERIAL
148
0.0
149
0.0
149
0.0
 93
        0
 94
      127
282
     0
 72
     0
 77
     0
171
     0
175
     0
179
     0
273
     0
  0
XRECORD
  5
24
102
{ACAD_REACTORS
330
22
102
}
330
22
100
AcDbXrecord
280
     1
270
     1
271
     1
  0
XRECORD
  5
23
102
{ACAD_REACTORS
330
22
102
}
330
22
100
AcDbXrecord
280
     1
270
     1
271
     1
  0
XRECORD
  5
27
102
{ACAD_REACTORS
330
22
102
}
330
22
100
AcDbXrecord
280
     1
270
     1
271
     1
  0
XRECORD
  5
26
102
{ACAD_REACTORS
330
22
102
}
330
22
100
AcDbXrecord
280
     1
270
     1
271
     1
  0
XRECORD
  5
28
102
{ACAD_REACTORS
330
22
102
}
330
22
100
AcDbXrecord
280
     1
270
     1
271
     1
  0
XRECORD
  5
25
102
{ACAD_REACTORS
330
22
102
}
330
22
100
AcDbXrecord
280
     1
270
     1
271
     1
  0
ACAD_PROXY_OBJECT
  5
5CF
102
{ACAD_REACTORS
330
5CE
102
}
330
5CE
100
AcDbProxyObject
 90
      499
 91
      508
 95
  1310743
 70
     1
100
AcDbCellStyleMap
 90
        3
300
CELLSTYLE
  1
TABLEFORMAT_BEGIN
 90
        5
170
     1
 91
        0
 92
    32768
 62
   257
 93
        1
300
CONTENTFORMAT
  1
CONTENTFORMAT_BEGIN
 90
        0
 91
        0
 92
      512
 93
        0
300

 40
0.0
140
1.0
 94
        5
 62
     0
340
55
144
0.25
309
CONTENTFORMAT_END
171
     0
 94
        0
309
TABLEFORMAT_END
  1
CELLSTYLE_BEGIN
 90
        1
 91
        1
300
_TITLE
309
CELLSTYLE_END
300
CELLSTYLE
  1
TABLEFORMAT_BEGIN
 90
        5
170
     1
 91
        0
 92
        0
 62
   257
 93
        1
300
CONTENTFORMAT
  1
CONTENTFORMAT_BEGIN
 90
        0
 91
        0
 92
      512
 93
        0
300

 40
0.0
140
1.0
 94
        5
 62
     0
340
55
144
0.18
309
CONTENTFORMAT_END
171
     0
 94
        0
309
TABLEFORMAT_END
  1
CELLSTYLE_BEGIN
 90
        2
 91
        1
300
_HEADER
309
CELLSTYLE_END
300
CELLSTYLE
  1
TABLEFORMAT_BEGIN
 90
        5
170
     1
 91
        0
 92
        0
 62
   257
 93
        1
300
CONTENTFORMAT
  1
CONTENTFORMAT_BEGIN
 90
        0
 91
        0
 92
      512
 93
        0
300

 40
0.0
140
1.0
 94
        2
 62
     0
340
55
144
0.18
309
CONTENTFORMAT_END
171
     0
 94
        0
309
TABLEFORMAT_END
  1
CELLSTYLE_BEGIN
 90
        3
 91
        2
300
_DATA
309
CELLSTYLE_END
  0
XRECORD
  5
5E0
102
{ACAD_REACTORS
330
5DF
102
}
330
5DF
100
AcDbXrecord
280
     1
102
RTVSPropertyOp0
 70
     1
102
RTVSPropertyOp1
 70
     1
102
RTVSPropertyOp2
 70
     1
102
RTVSPropertyOp3
 70
     1
102
RTVSPropertyOp4
 70
     1
102
RTVSPropertyOp5
 70
     1
102
RTVSPropertyOp6
 70
     1
102
RTVSPropertyOp7
 70
     1
102
RTVSPropertyOp8
 70
     1
102
RTVSPropertyOp9
 70
     1
102
RTVSPropertyOp10
 70
     1
102
RTVSPropertyOp11
 70
     1
102
RTVSPropertyOp12
 70
     1
102
RTVSPropertyOp13
 70
     1
102
RTVSPropertyOp14
 70
     1
102
RTVSPropertyOp15
 70
     1
102
RTVSPropertyOp16
 70
     1
102
RTVSPropertyOp17
 70
     1
102
RTVSPropertyOp18
 70
     1
102
RTVSPropertyOp19
 70
     1
102
RTVSPropertyOp20
 70
     1
102
RTVSPropertyOp21
 70
     1
102
RTVSPropertyOp22
 70
     1
102
RTVSPropertyOp23
 70
     1
102
RTVSPropertyOp24
 70
     1
102
RTVSPropertyOp25
 70
     1
102
RTVSPropertyOp26
 70
     1
102
RTVSPropertyOp27
 70
     1
102
RTVSPropertyOp28
 70
     1
102
RTVSPropertyOp29
 70
     1
102
RTVSPropertyOp30
 70
     1
102
RTVSPropertyOp31
 70
     1
102
RTVSPropertyOp32
 70
     1
  0
XRECORD
  5
60E
102
{ACAD_REACTORS
330
60D
102
}
330
60D
100
AcDbXrecord
280
     1
102
RTVSPropertyOp0
 70
     1
102
RTVSPropertyOp1
 70
     1
102
RTVSPropertyOp2
 70
     1
102
RTVSPropertyOp3
 70
     1
102
RTVSPropertyOp4
 70
     1
102
RTVSPropertyOp5
 70
     1
102
RTVSPropertyOp6
 70
     1
102
RTVSPropertyOp7
 70
     1
102
RTVSPropertyOp8
 70
     1
102
RTVSPropertyOp9
 70
     1
102
RTVSPropertyOp10
 70
     1
102
RTVSPropertyOp11
 70
     1
102
RTVSPropertyOp12
 70
     1
102
RTVSPropertyOp13
 70
     1
102
RTVSPropertyOp14
 70
     1
102
RTVSPropertyOp15
 70
     1
102
RTVSPropertyOp16
 70
     1
102
RTVSPropertyOp17
 70
     1
102
RTVSPropertyOp18
 70
     1
102
RTVSPropertyOp19
 70
     1
102
RTVSPropertyOp20
 70
     1
102
RTVSPropertyOp21
 70
     1
102
RTVSPropertyOp22
 70
     1
102
RTVSPropertyOp23
 70
     1
102
RTVSPropertyOp24
 70
     1
102
RTVSPropertyOp25
 70
     1
102
RTVSPropertyOp26
 70
     1
102
RTVSPropertyOp27
 70
     1
102
RTVSPropertyOp28
 70
     1
102
RTVSPropertyOp29
 70
     1
102
RTVSPropertyOp30
 70
     1
102
RTVSPropertyOp31
 70
     1
102
RTVSPropertyOp32
 70
     1
  0
XRECORD
  5
5DE
102
{ACAD_REACTORS
330
5DD
102
}
330
5DD
100
AcDbXrecord
280
     1
102
RTVSPropertyOp0
 70
     1
102
RTVSPropertyOp1
 70
     1
102
RTVSPropertyOp2
 70
     1
102
RTVSPropertyOp3
 70
     1
102
RTVSPropertyOp4
 70
     1
102
RTVSPropertyOp5
 70
     1
102
RTVSPropertyOp6
 70
     1
102
RTVSPropertyOp7
 70
     1
102
RTVSPropertyOp8
 70
     1
102
RTVSPropertyOp9
 70
     1
102
RTVSPropertyOp10
 70
     1
102
RTVSPropertyOp11
 70
     1
102
RTVSPropertyOp12
 70
     1
102
RTVSPropertyOp13
 70
     1
102
RTVSPropertyOp14
 70
     1
102
RTVSPropertyOp15
 70
     1
102
RTVSPropertyOp16
 70
     1
102
RTVSPropertyOp17
 70
     1
102
RTVSPropertyOp18
 70
     1
102
RTVSPropertyOp19
 70
     1
102
RTVSPropertyOp20
 70
     1
102
RTVSPropertyOp21
 70
     1
102
RTVSPropertyOp22
 70
     1
102
RTVSPropertyOp23
 70
     1
102
RTVSPropertyOp24
 70
     1
102
RTVSPropertyOp25
 70
     1
102
RTVSPropertyOp26
 70
     1
102
RTVSPropertyOp27
 70
     1
102
RTVSPropertyOp28
 70
     1
102
RTVSPropertyOp29
 70
     1
102
RTVSPropertyOp30
 70
     1
102
RTVSPropertyOp31
 70
     1
102
RTVSPropertyOp32
 70
     1
  0
XRECORD
  5
5EC
102
{ACAD_REACTORS
330
5EB
102
}
330
5EB
100
AcDbXrecord
280
     1
102
RTVSPropertyOp0
 70
     1
102
RTVSPropertyOp1
 70
     1
102
RTVSPropertyOp2
 70
     1
102
RTVSPropertyOp3
 70
     1
102
RTVSPropertyOp4
 70
     1
102
RTVSPropertyOp5
 70
     1
102
RTVSPropertyOp6
 70
     1
102
RTVSPropertyOp7
 70
     1
102
RTVSPropertyOp8
 70
     1
102
RTVSPropertyOp9
 70
     1
102
RTVSPropertyOp10
 70
     1
102
RTVSPropertyOp11
 70
     1
102
RTVSPropertyOp12
 70
     1
102
RTVSPropertyOp13
 70
     1
102
RTVSPropertyOp14
 70
     1
102
RTVSPropertyOp15
 70
     1
102
RTVSPropertyOp16
 70
     1
102
RTVSPropertyOp17
 70
     1
102
RTVSPropertyOp18
 70
     1
102
RTVSPropertyOp19
 70
     1
102
RTVSPropertyOp20
 70
     1
102
RTVSPropertyOp21
 70
     1
102
RTVSPropertyOp22
 70
     1
102
RTVSPropertyOp23
 70
     1
102
RTVSPropertyOp24
 70
     1
102
RTVSPropertyOp25
 70
     1
102
RTVSPropertyOp26
 70
     1
102
RTVSPropertyOp27
 70
     1
102
RTVSPropertyOp28
 70
     1
102
RTVSPropertyOp29
 70
     1
102
RTVSPropertyOp30
 70
     1
102
RTVSPropertyOp31
 70
     1
102
RTVSPropertyOp32
 70
     1
  0
XRECORD
  5
5F4
102
{ACAD_REACTORS
330
5F3
102
}
330
5F3
100
AcDbXrecord
280
     1
102
RTVSPropertyOp0
 70
     1
102
RTVSPropertyOp1
 70
     1
102
RTVSPropertyOp2
 70
     1
102
RTVSPropertyOp3
 70
     1
102
RTVSPropertyOp4
 70
     1
102
RTVSPropertyOp5
 70
     1
102
RTVSPropertyOp6
 70
     1
102
RTVSPropertyOp7
 70
     1
102
RTVSPropertyOp8
 70
     1
102
RTVSPropertyOp9
 70
     1
102
RTVSPropertyOp10
 70
     1
102
RTVSPropertyOp11
 70
     1
102
RTVSPropertyOp12
 70
     1
102
RTVSPropertyOp13
 70
     1
102
RTVSPropertyOp14
 70
     1
102
RTVSPropertyOp15
 70
     1
102
RTVSPropertyOp16
 70
     1
102
RTVSPropertyOp17
 70
     1
102
RTVSPropertyOp18
 70
     1
102
RTVSPropertyOp19
 70
     1
102
RTVSPropertyOp20
 70
     1
102
RTVSPropertyOp21
 70
     1
102
RTVSPropertyOp22
 70
     1
102
RTVSPropertyOp23
 70
     1
102
RTVSPropertyOp24
 70
     1
102
RTVSPropertyOp25
 70
     1
102
RTVSPropertyOp26
 70
     1
102
RTVSPropertyOp27
 70
     1
102
RTVSPropertyOp28
 70
     1
102
RTVSPropertyOp29
 70
     1
102
RTVSPropertyOp30
 70
     1
102
RTVSPropertyOp31
 70
     1
102
RTVSPropertyOp32
 70
     1
  0
XRECORD
  5
5E6
102
{ACAD_REACTORS
330
5E5
102
}
330
5E5
100
AcDbXrecord
280
     1
102
RTVSPropertyOp0
 70
     1
102
RTVSPropertyOp1
 70
     1
102
RTVSPropertyOp2
 70
     1
102
RTVSPropertyOp3
 70
     1
102
RTVSPropertyOp4
 70
     1
102
RTVSPropertyOp5
 70
     1
102
RTVSPropertyOp6
 70
     1
102
RTVSPropertyOp7
 70
     1
102
RTVSPropertyOp8
 70
     1
102
RTVSPropertyOp9
 70
     1
102
RTVSPropertyOp10
 70
     1
102
RTVSPropertyOp11
 70
     1
102
RTVSPropertyOp12
 70
     1
102
RTVSPropertyOp13
 70
     1
102
RTVSPropertyOp14
 70
     1
102
RTVSPropertyOp15
 70
     1
102
RTVSPropertyOp16
 70
     1
102
RTVSPropertyOp17
 70
     1
102
RTVSPropertyOp18
 70
     1
102
RTVSPropertyOp19
 70
     1
102
RTVSPropertyOp20
 70
     1
102
RTVSPropertyOp21
 70
     1
102
RTVSPropertyOp22
 70
     1
102
RTVSPropertyOp23
 70
     1
102
RTVSPropertyOp24
 70
     1
102
RTVSPropertyOp25
 70
     1
102
RTVSPropertyOp26
 70
     1
102
RTVSPropertyOp27
 70
     1
102
RTVSPropertyOp28
 70
     1
102
RTVSPropertyOp29
 70
     1
102
RTVSPropertyOp30
 70
     1
102
RTVSPropertyOp31
 70
     1
102
RTVSPropertyOp32
 70
     1
  0
XRECORD
  5
5EA
102
{ACAD_REACTORS
330
5E9
102
}
330
5E9
100
AcDbXrecord
280
     1
102
RTVSPropertyOp0
 70
     1
102
RTVSPropertyOp1
 70
     1
102
RTVSPropertyOp2
 70
     1
102
RTVSPropertyOp3
 70
     1
102
RTVSPropertyOp4
 70
     1
102
RTVSPropertyOp5
 70
     1
102
RTVSPropertyOp6
 70
     1
102
RTVSPropertyOp7
 70
     1
102
RTVSPropertyOp8
 70
     1
102
RTVSPropertyOp9
 70
     1
102
RTVSPropertyOp10
 70
     1
102
RTVSPropertyOp11
 70
     1
102
RTVSPropertyOp12
 70
     1
102
RTVSPropertyOp13
 70
     1
102
RTVSPropertyOp14
 70
     1
102
RTVSPropertyOp15
 70
     1
102
RTVSPropertyOp16
 70
     1
102
RTVSPropertyOp17
 70
     1
102
RTVSPropertyOp18
 70
     1
102
RTVSPropertyOp19
 70
     1
102
RTVSPropertyOp20
 70
     1
102
RTVSPropertyOp21
 70
     1
102
RTVSPropertyOp22
 70
     1
102
RTVSPropertyOp23
 70
     1
102
RTVSPropertyOp24
 70
     1
102
RTVSPropertyOp25
 70
     1
102
RTVSPropertyOp26
 70
     1
102
RTVSPropertyOp27
 70
     1
102
RTVSPropertyOp28
 70
     1
102
RTVSPropertyOp29
 70
     1
102
RTVSPropertyOp30
 70
     1
102
RTVSPropertyOp31
 70
     1
102
RTVSPropertyOp32
 70
     1
  0
XRECORD
  5
604
102
{ACAD_REACTORS
330
603
102
}
330
603
100
AcDbXrecord
280
     1
102
RTVSPropertyOp0
 70
     0
102
RTVSPropertyOp1
 70
     0
102
RTVSPropertyOp2
 70
     0
102
RTVSPropertyOp3
 70
     0
102
RTVSPropertyOp4
 70
     0
102
RTVSPropertyOp5
 70
     0
102
RTVSPropertyOp6
 70
     0
102
RTVSPropertyOp7
 70
     0
102
RTVSPropertyOp8
 70
     0
102
RTVSPropertyOp9
 70
     0
102
RTVSPropertyOp10
 70
     0
102
RTVSPropertyOp11
 70
     0
102
RTVSPropertyOp12
 70
     0
102
RTVSPropertyOp13
 70
     0
102
RTVSPropertyOp14
 70
     2
102
RTVSPropertyOp15
 70
     0
102
RTVSPropertyOp16
 70
     0
102
RTVSPropertyOp17
 70
     0
102
RTVSPropertyOp18
 70
     0
102
RTVSPropertyOp19
 70
     0
102
RTVSPropertyOp20
 70
     0
102
RTVSPropertyOp21
 70
     0
102
RTVSPropertyOp22
 70
     0
102
RTVSPropertyOp23
 70
     0
102
RTVSPropertyOp24
 70
     0
102
RTVSPropertyOp25
 70
     0
102
RTVSPropertyOp26
 70
     0
102
RTVSPropertyOp27
 70
     0
102
RTVSPropertyOp28
 70
     0
102
RTVSPropertyOp29
 70
     0
102
RTVSPropertyOp30
 70
     0
102
RTVSPropertyOp31
 70
     0
102
RTVSPropertyOp32
 70
     0
  0
XRECORD
  5
5F2
102
{ACAD_REACTORS
330
5F1
102
}
330
5F1
100
AcDbXrecord
280
     1
102
RTVSPropertyOp0
 70
     1
102
RTVSPropertyOp1
 70
     1
102
RTVSPropertyOp2
 70
     1
102
RTVSPropertyOp3
 70
     1
102
RTVSPropertyOp4
 70
     1
102
RTVSPropertyOp5
 70
     1
102
RTVSPropertyOp6
 70
     1
102
RTVSPropertyOp7
 70
     1
102
RTVSPropertyOp8
 70
     1
102
RTVSPropertyOp9
 70
     1
102
RTVSPropertyOp10
 70
     1
102
RTVSPropertyOp11
 70
     1
102
RTVSPropertyOp12
 70
     1
102
RTVSPropertyOp13
 70
     1
102
RTVSPropertyOp14
 70
     1
102
RTVSPropertyOp15
 70
     1
102
RTVSPropertyOp16
 70
     1
102
RTVSPropertyOp17
 70
     1
102
RTVSPropertyOp18
 70
     1
102
RTVSPropertyOp19
 70
     1
102
RTVSPropertyOp20
 70
     1
102
RTVSPropertyOp21
 70
     1
102
RTVSPropertyOp22
 70
     1
102
RTVSPropertyOp23
 70
     1
102
RTVSPropertyOp24
 70
     1
102
RTVSPropertyOp25
 70
     1
102
RTVSPropertyOp26
 70
     1
102
RTVSPropertyOp27
 70
     1
102
RTVSPropertyOp28
 70
     1
102
RTVSPropertyOp29
 70
     1
102
RTVSPropertyOp30
 70
     1
102
RTVSPropertyOp31
 70
     1
102
RTVSPropertyOp32
 70
     1
  0
XRECORD
  5
5D6
102
{ACAD_REACTORS
330
5D5
102
}
330
5D5
100
AcDbXrecord
280
     1
102
RTVSPropertyOp0
 70
     1
102
RTVSPropertyOp1
 70
     1
102
RTVSPropertyOp2
 70
     1
102
RTVSPropertyOp3
 70
     1
102
RTVSPropertyOp4
 70
     1
102
RTVSPropertyOp5
 70
     1
102
RTVSPropertyOp6
 70
     1
102
RTVSPropertyOp7
 70
     1
102
RTVSPropertyOp8
 70
     1
102
RTVSPropertyOp9
 70
     1
102
RTVSPropertyOp10
 70
     1
102
RTVSPropertyOp11
 70
     1
102
RTVSPropertyOp12
 70
     1
102
RTVSPropertyOp13
 70
     1
102
RTVSPropertyOp14
 70
     1
102
RTVSPropertyOp15
 70
     1
102
RTVSPropertyOp16
 70
     1
102
RTVSPropertyOp17
 70
     1
102
RTVSPropertyOp18
 70
     1
102
RTVSPropertyOp19
 70
     1
102
RTVSPropertyOp20
 70
     1
102
RTVSPropertyOp21
 70
     1
102
RTVSPropertyOp22
 70
     1
102
RTVSPropertyOp23
 70
     1
102
RTVSPropertyOp24
 70
     1
102
RTVSPropertyOp25
 70
     1
102
RTVSPropertyOp26
 70
     1
102
RTVSPropertyOp27
 70
     1
102
RTVSPropertyOp28
 70
     1
102
RTVSPropertyOp29
 70
     1
102
RTVSPropertyOp30
 70
     1
102
RTVSPropertyOp31
 70
     1
102
RTVSPropertyOp32
 70
     1
  0
XRECORD
  5
5D8
102
{ACAD_REACTORS
330
5D7
102
}
330
5D7
100
AcDbXrecord
280
     1
102
RTVSPropertyOp0
 70
     1
102
RTVSPropertyOp1
 70
     1
102
RTVSPropertyOp2
 70
     1
102
RTVSPropertyOp3
 70
     1
102
RTVSPropertyOp4
 70
     1
102
RTVSPropertyOp5
 70
     1
102
RTVSPropertyOp6
 70
     1
102
RTVSPropertyOp7
 70
     1
102
RTVSPropertyOp8
 70
     1
102
RTVSPropertyOp9
 70
     1
102
RTVSPropertyOp10
 70
     1
102
RTVSPropertyOp11
 70
     1
102
RTVSPropertyOp12
 70
     1
102
RTVSPropertyOp13
 70
     1
102
RTVSPropertyOp14
 70
     1
102
RTVSPropertyOp15
 70
     1
102
RTVSPropertyOp16
 70
     1
102
RTVSPropertyOp17
 70
     1
102
RTVSPropertyOp18
 70
     1
102
RTVSPropertyOp19
 70
     1
102
RTVSPropertyOp20
 70
     1
102
RTVSPropertyOp21
 70
     1
102
RTVSPropertyOp22
 70
     1
102
RTVSPropertyOp23
 70
     1
102
RTVSPropertyOp24
 70
     1
102
RTVSPropertyOp25
 70
     1
102
RTVSPropertyOp26
 70
     1
102
RTVSPropertyOp27
 70
     1
102
RTVSPropertyOp28
 70
     1
102
RTVSPropertyOp29
 70
     1
102
RTVSPropertyOp30
 70
     1
102
RTVSPropertyOp31
 70
     1
102
RTVSPropertyOp32
 70
     1
  0
XRECORD
  5
5DA
102
{ACAD_REACTORS
330
5D9
102
}
330
5D9
100
AcDbXrecord
280
     1
102
RTVSPropertyOp0
 70
     1
102
RTVSPropertyOp1
 70
     1
102
RTVSPropertyOp2
 70
     1
102
RTVSPropertyOp3
 70
     1
102
RTVSPropertyOp4
 70
     1
102
RTVSPropertyOp5
 70
     1
102
RTVSPropertyOp6
 70
     1
102
RTVSPropertyOp7
 70
     1
102
RTVSPropertyOp8
 70
     1
102
RTVSPropertyOp9
 70
     1
102
RTVSPropertyOp10
 70
     1
102
RTVSPropertyOp11
 70
     1
102
RTVSPropertyOp12
 70
     1
102
RTVSPropertyOp13
 70
     1
102
RTVSPropertyOp14
 70
     1
102
RTVSPropertyOp15
 70
     1
102
RTVSPropertyOp16
 70
     1
102
RTVSPropertyOp17
 70
     1
102
RTVSPropertyOp18
 70
     1
102
RTVSPropertyOp19
 70
     1
102
RTVSPropertyOp20
 70
     1
102
RTVSPropertyOp21
 70
     1
102
RTVSPropertyOp22
 70
     1
102
RTVSPropertyOp23
 70
     1
102
RTVSPropertyOp24
 70
     1
102
RTVSPropertyOp25
 70
     1
102
RTVSPropertyOp26
 70
     1
102
RTVSPropertyOp27
 70
     1
102
RTVSPropertyOp28
 70
     1
102
RTVSPropertyOp29
 70
     1
102
RTVSPropertyOp30
 70
     1
102
RTVSPropertyOp31
 70
     1
102
RTVSPropertyOp32
 70
     1
  0
XRECORD
  5
5DC
102
{ACAD_REACTORS
330
5DB
102
}
330
5DB
100
AcDbXrecord
280
     1
102
RTVSPropertyOp0
 70
     1
102
RTVSPropertyOp1
 70
     1
102
RTVSPropertyOp2
 70
     1
102
RTVSPropertyOp3
 70
     1
102
RTVSPropertyOp4
 70
     1
102
RTVSPropertyOp5
 70
     1
102
RTVSPropertyOp6
 70
     1
102
RTVSPropertyOp7
 70
     1
102
RTVSPropertyOp8
 70
     1
102
RTVSPropertyOp9
 70
     1
102
RTVSPropertyOp10
 70
     1
102
RTVSPropertyOp11
 70
     1
102
RTVSPropertyOp12
 70
     1
102
RTVSPropertyOp13
 70
     1
102
RTVSPropertyOp14
 70
     1
102
RTVSPropertyOp15
 70
     1
102
RTVSPropertyOp16
 70
     1
102
RTVSPropertyOp17
 70
     1
102
RTVSPropertyOp18
 70
     1
102
RTVSPropertyOp19
 70
     1
102
RTVSPropertyOp20
 70
     1
102
RTVSPropertyOp21
 70
     1
102
RTVSPropertyOp22
 70
     1
102
RTVSPropertyOp23
 70
     1
102
RTVSPropertyOp24
 70
     1
102
RTVSPropertyOp25
 70
     1
102
RTVSPropertyOp26
 70
     1
102
RTVSPropertyOp27
 70
     1
102
RTVSPropertyOp28
 70
     1
102
RTVSPropertyOp29
 70
     1
102
RTVSPropertyOp30
 70
     1
102
RTVSPropertyOp31
 70
     1
102
RTVSPropertyOp32
 70
     1
  0
XRECORD
  5
5E4
102
{ACAD_REACTORS
330
5E3
102
}
330
5E3
100
AcDbXrecord
280
     1
102
RTVSPropertyOp0
 70
     1
102
RTVSPropertyOp1
 70
     1
102
RTVSPropertyOp2
 70
     1
102
RTVSPropertyOp3
 70
     1
102
RTVSPropertyOp4
 70
     1
102
RTVSPropertyOp5
 70
     1
102
RTVSPropertyOp6
 70
     1
102
RTVSPropertyOp7
 70
     1
102
RTVSPropertyOp8
 70
     1
102
RTVSPropertyOp9
 70
     1
102
RTVSPropertyOp10
 70
     1
102
RTVSPropertyOp11
 70
     1
102
RTVSPropertyOp12
 70
     1
102
RTVSPropertyOp13
 70
     1
102
RTVSPropertyOp14
 70
     1
102
RTVSPropertyOp15
 70
     1
102
RTVSPropertyOp16
 70
     1
102
RTVSPropertyOp17
 70
     1
102
RTVSPropertyOp18
 70
     1
102
RTVSPropertyOp19
 70
     1
102
RTVSPropertyOp20
 70
     1
102
RTVSPropertyOp21
 70
     1
102
RTVSPropertyOp22
 70
     1
102
RTVSPropertyOp23
 70
     1
102
RTVSPropertyOp24
 70
     1
102
RTVSPropertyOp25
 70
     1
102
RTVSPropertyOp26
 70
     1
102
RTVSPropertyOp27
 70
     1
102
RTVSPropertyOp28
 70
     1
102
RTVSPropertyOp29
 70
     1
102
RTVSPropertyOp30
 70
     1
102
RTVSPropertyOp31
 70
     1
102
RTVSPropertyOp32
 70
     1
  0
XRECORD
  5
600
102
{ACAD_REACTORS
330
5FF
102
}
330
5FF
100
AcDbXrecord
280
     1
102
RTVSPropertyOp0
 70
     0
102
RTVSPropertyOp1
 70
     0
102
RTVSPropertyOp2
 70
     0
102
RTVSPropertyOp3
 70
     0
102
RTVSPropertyOp4
 70
     0
102
RTVSPropertyOp5
 70
     0
102
RTVSPropertyOp6
 70
     0
102
RTVSPropertyOp7
 70
     0
102
RTVSPropertyOp8
 70
     0
102
RTVSPropertyOp9
 70
     0
102
RTVSPropertyOp10
 70
     0
102
RTVSPropertyOp11
 70
     0
102
RTVSPropertyOp12
 70
     0
102
RTVSPropertyOp13
 70
     0
102
RTVSPropertyOp14
 70
     2
102
RTVSPropertyOp15
 70
     0
102
RTVSPropertyOp16
 70
     0
102
RTVSPropertyOp17
 70
     0
102
RTVSPropertyOp18
 70
     0
102
RTVSPropertyOp19
 70
     0
102
RTVSPropertyOp20
 70
     0
102
RTVSPropertyOp21
 70
     0
102
RTVSPropertyOp22
 70
     0
102
RTVSPropertyOp23
 70
     0
102
RTVSPropertyOp24
 70
     0
102
RTVSPropertyOp25
 70
     0
102
RTVSPropertyOp26
 70
     0
102
RTVSPropertyOp27
 70
     0
102
RTVSPropertyOp28
 70
     0
102
RTVSPropertyOp29
 70
     0
102
RTVSPropertyOp30
 70
     0
102
RTVSPropertyOp31
 70
     0
102
RTVSPropertyOp32
 70
     0
  0
XRECORD
  5
5F0
102
{ACAD_REACTORS
330
5EF
102
}
330
5EF
100
AcDbXrecord
280
     1
102
RTVSPropertyOp0
 70
     1
102
RTVSPropertyOp1
 70
     1
102
RTVSPropertyOp2
 70
     1
102
RTVSPropertyOp3
 70
     1
102
RTVSPropertyOp4
 70
     1
102
RTVSPropertyOp5
 70
     1
102
RTVSPropertyOp6
 70
     1
102
RTVSPropertyOp7
 70
     1
102
RTVSPropertyOp8
 70
     1
102
RTVSPropertyOp9
 70
     1
102
RTVSPropertyOp10
 70
     1
102
RTVSPropertyOp11
 70
     1
102
RTVSPropertyOp12
 70
     1
102
RTVSPropertyOp13
 70
     1
102
RTVSPropertyOp14
 70
     1
102
RTVSPropertyOp15
 70
     1
102
RTVSPropertyOp16
 70
     1
102
RTVSPropertyOp17
 70
     1
102
RTVSPropertyOp18
 70
     1
102
RTVSPropertyOp19
 70
     1
102
RTVSPropertyOp20
 70
     1
102
RTVSPropertyOp21
 70
     1
102
RTVSPropertyOp22
 70
     1
102
RTVSPropertyOp23
 70
     1
102
RTVSPropertyOp24
 70
     1
102
RTVSPropertyOp25
 70
     1
102
RTVSPropertyOp26
 70
     1
102
RTVSPropertyOp27
 70
     1
102
RTVSPropertyOp28
 70
     1
102
RTVSPropertyOp29
 70
     1
102
RTVSPropertyOp30
 70
     1
102
RTVSPropertyOp31
 70
     1
102
RTVSPropertyOp32
 70
     1
  0
XRECORD
  5
602
102
{ACAD_REACTORS
330
601
102
}
330
601
100
AcDbXrecord
280
     1
102
RTVSPropertyOp0
 70
     0
102
RTVSPropertyOp1
 70
     0
102
RTVSPropertyOp2
 70
     0
102
RTVSPropertyOp3
 70
     0
102
RTVSPropertyOp4
 70
     0
102
RTVSPropertyOp5
 70
     0
102
RTVSPropertyOp6
 70
     0
102
RTVSPropertyOp7
 70
     0
102
RTVSPropertyOp8
 70
     0
102
RTVSPropertyOp9
 70
     0
102
RTVSPropertyOp10
 70
     0
102
RTVSPropertyOp11
 70
     0
102
RTVSPropertyOp12
 70
     0
102
RTVSPropertyOp13
 70
     0
102
RTVSPropertyOp14
 70
     2
102
RTVSPropertyOp15
 70
     0
102
RTVSPropertyOp16
 70
     0
102
RTVSPropertyOp17
 70
     0
102
RTVSPropertyOp18
 70
     0
102
RTVSPropertyOp19
 70
     0
102
RTVSPropertyOp20
 70
     0
102
RTVSPropertyOp21
 70
     0
102
RTVSPropertyOp22
 70
     0
102
RTVSPropertyOp23
 70
     0
102
RTVSPropertyOp24
 70
     0
102
RTVSPropertyOp25
 70
     0
102
RTVSPropertyOp26
 70
     0
102
RTVSPropertyOp27
 70
     0
102
RTVSPropertyOp28
 70
     0
102
RTVSPropertyOp29
 70
     0
102
RTVSPropertyOp30
 70
     0
102
RTVSPropertyOp31
 70
     0
102
RTVSPropertyOp32
 70
     0
  0
XRECORD
  5
5E8
102
{ACAD_REACTORS
330
5E7
102
}
330
5E7
100
AcDbXrecord
280
     1
102
RTVSPropertyOp0
 70
     1
102
RTVSPropertyOp1
 70
     1
102
RTVSPropertyOp2
 70
     1
102
RTVSPropertyOp3
 70
     1
102
RTVSPropertyOp4
 70
     1
102
RTVSPropertyOp5
 70
     1
102
RTVSPropertyOp6
 70
     1
102
RTVSPropertyOp7
 70
     1
102
RTVSPropertyOp8
 70
     1
102
RTVSPropertyOp9
 70
     1
102
RTVSPropertyOp10
 70
     1
102
RTVSPropertyOp11
 70
     1
102
RTVSPropertyOp12
 70
     1
102
RTVSPropertyOp13
 70
     1
102
RTVSPropertyOp14
 70
     1
102
RTVSPropertyOp15
 70
     1
102
RTVSPropertyOp16
 70
     1
102
RTVSPropertyOp17
 70
     1
102
RTVSPropertyOp18
 70
     1
102
RTVSPropertyOp19
 70
     1
102
RTVSPropertyOp20
 70
     1
102
RTVSPropertyOp21
 70
     1
102
RTVSPropertyOp22
 70
     1
102
RTVSPropertyOp23
 70
     1
102
RTVSPropertyOp24
 70
     1
102
RTVSPropertyOp25
 70
     1
102
RTVSPropertyOp26
 70
     1
102
RTVSPropertyOp27
 70
     1
102
RTVSPropertyOp28
 70
     1
102
RTVSPropertyOp29
 70
     1
102
RTVSPropertyOp30
 70
     1
102
RTVSPropertyOp31
 70
     1
102
RTVSPropertyOp32
 70
     1
  0
XRECORD
  5
5FE
102
{ACAD_REACTORS
330
5FD
102
}
330
5FD
100
AcDbXrecord
280
     1
102
RTVSPropertyOp0
 70
     1
102
RTVSPropertyOp1
 70
     1
102
RTVSPropertyOp2
 70
     1
102
RTVSPropertyOp3
 70
     1
102
RTVSPropertyOp4
 70
     1
102
RTVSPropertyOp5
 70
     1
102
RTVSPropertyOp6
 70
     1
102
RTVSPropertyOp7
 70
     1
102
RTVSPropertyOp8
 70
     1
102
RTVSPropertyOp9
 70
     1
102
RTVSPropertyOp10
 70
     1
102
RTVSPropertyOp11
 70
     1
102
RTVSPropertyOp12
 70
     1
102
RTVSPropertyOp13
 70
     1
102
RTVSPropertyOp14
 70
     1
102
RTVSPropertyOp15
 70
     1
102
RTVSPropertyOp16
 70
     1
102
RTVSPropertyOp17
 70
     1
102
RTVSPropertyOp18
 70
     1
102
RTVSPropertyOp19
 70
     1
102
RTVSPropertyOp20
 70
     1
102
RTVSPropertyOp21
 70
     1
102
RTVSPropertyOp22
 70
     1
102
RTVSPropertyOp23
 70
     1
102
RTVSPropertyOp24
 70
     1
102
RTVSPropertyOp25
 70
     1
102
RTVSPropertyOp26
 70
     1
102
RTVSPropertyOp27
 70
     1
102
RTVSPropertyOp28
 70
     1
102
RTVSPropertyOp29
 70
     1
102
RTVSPropertyOp30
 70
     1
102
RTVSPropertyOp31
 70
     1
102
RTVSPropertyOp32
 70
     1
  0
XRECORD
  5
5FC
102
{ACAD_REACTORS
330
5FB
102
}
330
5FB
100
AcDbXrecord
280
     1
102
RTVSPropertyOp0
 70
     1
102
RTVSPropertyOp1
 70
     1
102
RTVSPropertyOp2
 70
     1
102
RTVSPropertyOp3
 70
     1
102
RTVSPropertyOp4
 70
     1
102
RTVSPropertyOp5
 70
     1
102
RTVSPropertyOp6
 70
     1
102
RTVSPropertyOp7
 70
     1
102
RTVSPropertyOp8
 70
     1
102
RTVSPropertyOp9
 70
     1
102
RTVSPropertyOp10
 70
     1
102
RTVSPropertyOp11
 70
     1
102
RTVSPropertyOp12
 70
     1
102
RTVSPropertyOp13
 70
     1
102
RTVSPropertyOp14
 70
     1
102
RTVSPropertyOp15
 70
     1
102
RTVSPropertyOp16
 70
     1
102
RTVSPropertyOp17
 70
     1
102
RTVSPropertyOp18
 70
     1
102
RTVSPropertyOp19
 70
     1
102
RTVSPropertyOp20
 70
     1
102
RTVSPropertyOp21
 70
     1
102
RTVSPropertyOp22
 70
     1
102
RTVSPropertyOp23
 70
     1
102
RTVSPropertyOp24
 70
     1
102
RTVSPropertyOp25
 70
     1
102
RTVSPropertyOp26
 70
     1
102
RTVSPropertyOp27
 70
     1
102
RTVSPropertyOp28
 70
     1
102
RTVSPropertyOp29
 70
     1
102
RTVSPropertyOp30
 70
     1
102
RTVSPropertyOp31
 70
     1
102
RTVSPropertyOp32
 70
     1
  0
XRECORD
  5
5F6
102
{ACAD_REACTORS
330
5F5
102
}
330
5F5
100
AcDbXrecord
280
     1
102
RTVSPropertyOp0
 70
     1
102
RTVSPropertyOp1
 70
     1
102
RTVSPropertyOp2
 70
     1
102
RTVSPropertyOp3
 70
     1
102
RTVSPropertyOp4
 70
     1
102
RTVSPropertyOp5
 70
     1
102
RTVSPropertyOp6
 70
     1
102
RTVSPropertyOp7
 70
     1
102
RTVSPropertyOp8
 70
     1
102
RTVSPropertyOp9
 70
     1
102
RTVSPropertyOp10
 70
     1
102
RTVSPropertyOp11
 70
     1
102
RTVSPropertyOp12
 70
     1
102
RTVSPropertyOp13
 70
     1
102
RTVSPropertyOp14
 70
     1
102
RTVSPropertyOp15
 70
     1
102
RTVSPropertyOp16
 70
     1
102
RTVSPropertyOp17
 70
     1
102
RTVSPropertyOp18
 70
     1
102
RTVSPropertyOp19
 70
     1
102
RTVSPropertyOp20
 70
     1
102
RTVSPropertyOp21
 70
     1
102
RTVSPropertyOp22
 70
     1
102
RTVSPropertyOp23
 70
     1
102
RTVSPropertyOp24
 70
     1
102
RTVSPropertyOp25
 70
     1
102
RTVSPropertyOp26
 70
     1
102
RTVSPropertyOp27
 70
     1
102
RTVSPropertyOp28
 70
     1
102
RTVSPropertyOp29
 70
     1
102
RTVSPropertyOp30
 70
     1
102
RTVSPropertyOp31
 70
     1
102
RTVSPropertyOp32
 70
     1
  0
XRECORD
  5
5F8
102
{ACAD_REACTORS
330
5F7
102
}
330
5F7
100
AcDbXrecord
280
     1
102
RTVSPropertyOp0
 70
     1
102
RTVSPropertyOp1
 70
     1
102
RTVSPropertyOp2
 70
     1
102
RTVSPropertyOp3
 70
     1
102
RTVSPropertyOp4
 70
     1
102
RTVSPropertyOp5
 70
     1
102
RTVSPropertyOp6
 70
     1
102
RTVSPropertyOp7
 70
     1
102
RTVSPropertyOp8
 70
     1
102
RTVSPropertyOp9
 70
     1
102
RTVSPropertyOp10
 70
     1
102
RTVSPropertyOp11
 70
     1
102
RTVSPropertyOp12
 70
     1
102
RTVSPropertyOp13
 70
     1
102
RTVSPropertyOp14
 70
     1
102
RTVSPropertyOp15
 70
     1
102
RTVSPropertyOp16
 70
     1
102
RTVSPropertyOp17
 70
     1
102
RTVSPropertyOp18
 70
     1
102
RTVSPropertyOp19
 70
     1
102
RTVSPropertyOp20
 70
     1
102
RTVSPropertyOp21
 70
     1
102
RTVSPropertyOp22
 70
     1
102
RTVSPropertyOp23
 70
     1
102
RTVSPropertyOp24
 70
     1
102
RTVSPropertyOp25
 70
     1
102
RTVSPropertyOp26
 70
     1
102
RTVSPropertyOp27
 70
     1
102
RTVSPropertyOp28
 70
     1
102
RTVSPropertyOp29
 70
     1
102
RTVSPropertyOp30
 70
     1
102
RTVSPropertyOp31
 70
     1
102
RTVSPropertyOp32
 70
     1
  0
XRECORD
  5
5EE
102
{ACAD_REACTORS
330
5ED
102
}
330
5ED
100
AcDbXrecord
280
     1
102
RTVSPropertyOp0
 70
     1
102
RTVSPropertyOp1
 70
     1
102
RTVSPropertyOp2
 70
     1
102
RTVSPropertyOp3
 70
     1
102
RTVSPropertyOp4
 70
     1
102
RTVSPropertyOp5
 70
     1
102
RTVSPropertyOp6
 70
     1
102
RTVSPropertyOp7
 70
     1
102
RTVSPropertyOp8
 70
     1
102
RTVSPropertyOp9
 70
     1
102
RTVSPropertyOp10
 70
     1
102
RTVSPropertyOp11
 70
     1
102
RTVSPropertyOp12
 70
     1
102
RTVSPropertyOp13
 70
     1
102
RTVSPropertyOp14
 70
     1
102
RTVSPropertyOp15
 70
     1
102
RTVSPropertyOp16
 70
     1
102
RTVSPropertyOp17
 70
     1
102
RTVSPropertyOp18
 70
     1
102
RTVSPropertyOp19
 70
     1
102
RTVSPropertyOp20
 70
     1
102
RTVSPropertyOp21
 70
     1
102
RTVSPropertyOp22
 70
     1
102
RTVSPropertyOp23
 70
     1
102
RTVSPropertyOp24
 70
     1
102
RTVSPropertyOp25
 70
     1
102
RTVSPropertyOp26
 70
     1
102
RTVSPropertyOp27
 70
     1
102
RTVSPropertyOp28
 70
     1
102
RTVSPropertyOp29
 70
     1
102
RTVSPropertyOp30
 70
     1
102
RTVSPropertyOp31
 70
     1
102
RTVSPropertyOp32
 70
     1
  0
XRECORD
  5
5E2
102
{ACAD_REACTORS
330
5E1
102
}
330
5E1
100
AcDbXrecord
280
     1
102
RTVSPropertyOp0
 70
     1
102
RTVSPropertyOp1
 70
     1
102
RTVSPropertyOp2
 70
     1
102
RTVSPropertyOp3
 70
     1
102
RTVSPropertyOp4
 70
     1
102
RTVSPropertyOp5
 70
     1
102
RTVSPropertyOp6
 70
     1
102
RTVSPropertyOp7
 70
     1
102
RTVSPropertyOp8
 70
     1
102
RTVSPropertyOp9
 70
     1
102
RTVSPropertyOp10
 70
     1
102
RTVSPropertyOp11
 70
     1
102
RTVSPropertyOp12
 70
     1
102
RTVSPropertyOp13
 70
     1
102
RTVSPropertyOp14
 70
     1
102
RTVSPropertyOp15
 70
     1
102
RTVSPropertyOp16
 70
     1
102
RTVSPropertyOp17
 70
     1
102
RTVSPropertyOp18
 70
     1
102
RTVSPropertyOp19
 70
     1
102
RTVSPropertyOp20
 70
     1
102
RTVSPropertyOp21
 70
     1
102
RTVSPropertyOp22
 70
     1
102
RTVSPropertyOp23
 70
     1
102
RTVSPropertyOp24
 70
     1
102
RTVSPropertyOp25
 70
     1
102
RTVSPropertyOp26
 70
     1
102
RTVSPropertyOp27
 70
     1
102
RTVSPropertyOp28
 70
     1
102
RTVSPropertyOp29
 70
     1
102
RTVSPropertyOp30
 70
     1
102
RTVSPropertyOp31
 70
     1
102
RTVSPropertyOp32
 70
     1
  0
XRECORD
  5
5FA
102
{ACAD_REACTORS
330
5F9
102
}
330
5F9
100
AcDbXrecord
280
     1
102
RTVSPropertyOp0
 70
     1
102
RTVSPropertyOp1
 70
     1
102
RTVSPropertyOp2
 70
     1
102
RTVSPropertyOp3
 70
     1
102
RTVSPropertyOp4
 70
     1
102
RTVSPropertyOp5
 70
     1
102
RTVSPropertyOp6
 70
     1
102
RTVSPropertyOp7
 70
     1
102
RTVSPropertyOp8
 70
     1
102
RTVSPropertyOp9
 70
     1
102
RTVSPropertyOp10
 70
     1
102
RTVSPropertyOp11
 70
     1
102
RTVSPropertyOp12
 70
     1
102
RTVSPropertyOp13
 70
     1
102
RTVSPropertyOp14
 70
     1
102
RTVSPropertyOp15
 70
     1
102
RTVSPropertyOp16
 70
     1
102
RTVSPropertyOp17
 70
     1
102
RTVSPropertyOp18
 70
     1
102
RTVSPropertyOp19
 70
     1
102
RTVSPropertyOp20
 70
     1
102
RTVSPropertyOp21
 70
     1
102
RTVSPropertyOp22
 70
     1
102
RTVSPropertyOp23
 70
     1
102
RTVSPropertyOp24
 70
     1
102
RTVSPropertyOp25
 70
     1
102
RTVSPropertyOp26
 70
     1
102
RTVSPropertyOp27
 70
     1
102
RTVSPropertyOp28
 70
     1
102
RTVSPropertyOp29
 70
     1
102
RTVSPropertyOp30
 70
     1
102
RTVSPropertyOp31
 70
     1
102
RTVSPropertyOp32
 70
     1
  0
ENDSEC
  0
EOF
