  0
SECTION
  2
HEADER
  9
$ACADVER
  1
AC1015
  9
$ACADMAINTVER
 70
    20
  9
$DWGCODEPAGE
  3
ANSI_932
  9
$INSBASE
 10
0.0
 20
0.0
 30
0.0
  9
$EXTMIN
 10
934.6698028686182
 20
26.18101423011964
 30
0.0
  9
$EXTMAX
 10
1339.669802868619
 20
348.2391881420604
 30
0.0
  9
$LIMMIN
 10
0.0
 20
0.0
  9
$LIMMAX
 10
12.0
 20
9.0
  9
$ORTHOMODE
 70
     1
  9
$REGENMODE
 70
     1
  9
$FILLMODE
 70
     1
  9
$QTEXTMODE
 70
     0
  9
$MIRRTEXT
 70
     0
  9
$LTSCALE
 40
0.2
  9
$ATTMODE
 70
     1
  9
$TEXTSIZE
 40
3.2
  9
$TRACEWID
 40
0.05
  9
$TEXTSTYLE
  7
高3.2
  9
$CLAYER
  8
0
  9
$CELTYPE
  6
ByLayer
  9
$CECOLOR
 62
     7
  9
$CELTSCALE
 40
1.0
  9
$DISPSILH
 70
     0
  9
$DIMSCALE
 40
1.0
  9
$DIMASZ
 40
2.5
  9
$DIMEXO
 40
0.25
  9
$DIMDLI
 40
0.2
  9
$DIMRND
 40
0.0
  9
$DIMDLE
 40
0.0
  9
$DIMEXE
 40
1.25
  9
$DIMTP
 40
0.0
  9
$DIMTM
 40
0.0
  9
$DIMTXT
 40
3.0
  9
$DIMCEN
 40
0.0
  9
$DIMTSZ
 40
0.0
  9
$DIMTOL
 70
     0
  9
$DIMLIM
 70
     0
  9
$DIMTIH
 70
     0
  9
$DIMTOH
 70
     0
  9
$DIMSE1
 70
     0
  9
$DIMSE2
 70
     0
  9
$DIMTAD
 70
     3
  9
$DIMZIN
 70
     8
  9
$DIMBLK
  1
Open30
  9
$DIMASO
 70
     1
  9
$DIMSHO
 70
     1
  9
$DIMPOST
  1

  9
$DIMAPOST
  1

  9
$DIMALT
 70
     0
  9
$DIMALTD
 70
     3
  9
$DIMALTF
 40
0.03937007874016
  9
$DIMLFAC
 40
2.0
  9
$DIMTOFL
 70
     1
  9
$DIMTVP
 40
0.0
  9
$DIMTIX
 70
     0
  9
$DIMSOXD
 70
     0
  9
$DIMSAH
 70
     0
  9
$DIMBLK1
  1

  9
$DIMBLK2
  1

  9
$DIMSTYLE
  2
1／2
  9
$DIMCLRD
 70
     0
  9
$DIMCLRE
 70
     0
  9
$DIMCLRT
 70
     4
  9
$DIMTFAC
 40
1.0
  9
$DIMGAP
 40
0.625
  9
$DIMJUST
 70
     0
  9
$DIMSD1
 70
     0
  9
$DIMSD2
 70
     0
  9
$DIMTOLJ
 70
     0
  9
$DIMTZIN
 70
     8
  9
$DIMALTZ
 70
     0
  9
$DIMALTTZ
 70
     0
  9
$DIMUPT
 70
     1
  9
$DIMDEC
 70
     2
  9
$DIMTDEC
 70
     2
  9
$DIMALTU
 70
     2
  9
$DIMALTTD
 70
     3
  9
$DIMTXSTY
  7
Standard
  9
$DIMAUNIT
 70
     0
  9
$DIMADEC
 70
     1
  9
$DIMALTRND
 40
0.0
  9
$DIMAZIN
 70
     2
  9
$DIMDSEP
 70
    46
  9
$DIMATFIT
 70
     0
  9
$DIMFRAC
 70
     0
  9
$DIMLDRBLK
  1
Open30
  9
$DIMLUNIT
 70
     2
  9
$DIMLWD
 70
    -2
  9
$DIMLWE
 70
    -2
  9
$DIMTMOVE
 70
     0
  9
$LUNITS
 70
     2
  9
$LUPREC
 70
     4
  9
$SKETCHINC
 40
0.1
  9
$FILLETRAD
 40
0.0
  9
$AUNITS
 70
     0
  9
$AUPREC
 70
     0
  9
$MENU
  1
.
  9
$ELEVATION
 40
0.0
  9
$PELEVATION
 40
0.0
  9
$THICKNESS
 40
0.0
  9
$LIMCHECK
 70
     0
  9
$CHAMFERA
 40
1.5
  9
$CHAMFERB
 40
1.5
  9
$CHAMFERC
 40
0.0
  9
$CHAMFERD
 40
0.0
  9
$SKPOLY
 70
     0
  9
$TDCREATE
 40
2456643.833966805
  9
$TDUCREATE
 40
2456643.458966806
  9
$TDUPDATE
 40
2459261.672394444
  9
$TDUUPDATE
 40
2459261.297394444
  9
$TDINDWG
 40
0.5244912731
  9
$TDUSRTIMER
 40
0.5244906944
  9
$USRTIMER
 70
     1
  9
$ANGBASE
 50
0.0
  9
$ANGDIR
 70
     0
  9
$PDMODE
 70
     0
  9
$PDSIZE
 40
0.0
  9
$PLINEWID
 40
0.0
  9
$SPLFRAME
 70
     0
  9
$SPLINETYPE
 70
     6
  9
$SPLINESEGS
 70
     8
  9
$HANDSEED
  5
38ED
  9
$SURFTAB1
 70
     6
  9
$SURFTAB2
 70
     6
  9
$SURFTYPE
 70
     6
  9
$SURFU
 70
     6
  9
$SURFV
 70
     6
  9
$UCSBASE
  2

  9
$UCSNAME
  2

  9
$UCSORG
 10
0.0
 20
0.0
 30
0.0
  9
$UCSXDIR
 10
1.0
 20
0.0
 30
0.0
  9
$UCSYDIR
 10
0.0
 20
1.0
 30
0.0
  9
$UCSORTHOREF
  2

  9
$UCSORTHOVIEW
 70
     0
  9
$UCSORGTOP
 10
0.0
 20
0.0
 30
0.0
  9
$UCSORGBOTTOM
 10
0.0
 20
0.0
 30
0.0
  9
$UCSORGLEFT
 10
0.0
 20
0.0
 30
0.0
  9
$UCSORGRIGHT
 10
0.0
 20
0.0
 30
0.0
  9
$UCSORGFRONT
 10
0.0
 20
0.0
 30
0.0
  9
$UCSORGBACK
 10
0.0
 20
0.0
 30
0.0
  9
$PUCSBASE
  2

  9
$PUCSNAME
  2

  9
$PUCSORG
 10
0.0
 20
0.0
 30
0.0
  9
$PUCSXDIR
 10
1.0
 20
0.0
 30
0.0
  9
$PUCSYDIR
 10
0.0
 20
1.0
 30
0.0
  9
$PUCSORTHOREF
  2

  9
$PUCSORTHOVIEW
 70
     0
  9
$PUCSORGTOP
 10
0.0
 20
0.0
 30
0.0
  9
$PUCSORGBOTTOM
 10
0.0
 20
0.0
 30
0.0
  9
$PUCSORGLEFT
 10
0.0
 20
0.0
 30
0.0
  9
$PUCSORGRIGHT
 10
0.0
 20
0.0
 30
0.0
  9
$PUCSORGFRONT
 10
0.0
 20
0.0
 30
0.0
  9
$PUCSORGBACK
 10
0.0
 20
0.0
 30
0.0
  9
$USERI1
 70
     0
  9
$USERI2
 70
     0
  9
$USERI3
 70
     0
  9
$USERI4
 70
     0
  9
$USERI5
 70
     0
  9
$USERR1
 40
0.0
  9
$USERR2
 40
0.0
  9
$USERR3
 40
0.0
  9
$USERR4
 40
0.0
  9
$USERR5
 40
0.0
  9
$WORLDVIEW
 70
     1
  9
$SHADEDGE
 70
     3
  9
$SHADEDIF
 70
    70
  9
$TILEMODE
 70
     1
  9
$MAXACTVP
 70
    64
  9
$PINSBASE
 10
0.0
 20
0.0
 30
0.0
  9
$PLIMCHECK
 70
     0
  9
$PEXTMIN
 10
0.0
 20
0.0
 30
0.0
  9
$PEXTMAX
 10
0.0
 20
0.0
 30
0.0
  9
$PLIMMIN
 10
0.0
 20
0.0
  9
$PLIMMAX
 10
12.0
 20
9.0
  9
$UNITMODE
 70
     0
  9
$VISRETAIN
 70
     1
  9
$PLINEGEN
 70
     0
  9
$PSLTSCALE
 70
     1
  9
$TREEDEPTH
 70
  3020
  9
$CMLSTYLE
  2
Standard
  9
$CMLJUST
 70
     0
  9
$CMLSCALE
 40
1.0
  9
$PROXYGRAPHICS
 70
     1
  9
$MEASUREMENT
 70
     1
  9
$CELWEIGHT
370
    -1
  9
$ENDCAPS
280
     0
  9
$JOINSTYLE
280
     0
  9
$LWDISPLAY
290
     0
  9
$INSUNITS
 70
     1
  9
$HYPERLINKBASE
  1

  9
$STYLESHEET
  1
N-PLOT.CTB
  9
$XEDIT
290
     1
  9
$CEPSNTYPE
380
     0
  9
$PSTYLEMODE
290
     1
  9
$FINGERPRINTGUID
  2
{5E4D4F65-5D50-4B52-A323-E9B630A3D79D}
  9
$VERSIONGUID
  2
{7C76CC7F-6155-4351-8EC4-4A6B4BFC4EB8}
  9
$EXTNAMES
290
     1
  9
$PSVPSCALE
 40
0.0
  9
$OLESTARTUP
290
     0
  0
ENDSEC
  0
SECTION
  2
CLASSES
  0
CLASS
  1
ACDBDICTIONARYWDFLT
  2
AcDbDictionaryWithDefault
  3
ObjectDBX Classes
 90
        0
280
     0
281
     0
  0
CLASS
  1
ACDBPLACEHOLDER
  2
AcDbPlaceHolder
  3
ObjectDBX Classes
 90
        0
280
     0
281
     0
  0
CLASS
  1
LAYOUT
  2
AcDbLayout
  3
ObjectDBX Classes
 90
        0
280
     0
281
     0
  0
CLASS
  1
DICTIONARYVAR
  2
AcDbDictionaryVar
  3
ObjectDBX Classes
 90
        0
280
     0
281
     0
  0
CLASS
  1
TABLESTYLE
  2
AcDbTableStyle
  3
ObjectDBX Classes
 90
     4095
280
     0
281
     0
  0
CLASS
  1
MATERIAL
  2
AcDbMaterial
  3
ObjectDBX Classes
 90
     1153
280
     0
281
     0
  0
CLASS
  1
VISUALSTYLE
  2
AcDbVisualStyle
  3
ObjectDBX Classes
 90
     4095
280
     0
281
     0
  0
CLASS
  1
SORTENTSTABLE
  2
AcDbSortentsTable
  3
ObjectDBX Classes
 90
        0
280
     0
281
     0
  0
CLASS
  1
DIMASSOC
  2
AcDbDimAssoc
  3
"AcDbDimAssoc|Product Desc:     AcDim ARX App For Dimension|Company:          Autodesk, Inc.|WEB Address:      www.autodesk.com"
 90
        0
280
     0
281
     0
  0
CLASS
  1
SCALE
  2
AcDbScale
  3
ObjectDBX Classes
 90
     1153
280
     0
281
     0
  0
CLASS
  1
MLEADERSTYLE
  2
AcDbMLeaderStyle
  3
ACDB_MLEADERSTYLE_CLASS
 90
     4095
280
     0
281
     0
  0
CLASS
  1
CELLSTYLEMAP
  2
AcDbCellStyleMap
  3
ObjectDBX Classes
 90
     1152
280
     0
281
     0
  0
CLASS
  1
AEC_REFEDIT_STATUS_TRACKER
  2
AecDbRefEditStatusTracker
  3
AecArchBase60|Product Desc: Autodesk Architectural Desktop 2007 |Company: Autodesk,Inc. |WEB Address: www.autodesk.com
 90
      129
280
     0
281
     0
  0
CLASS
  1
NPOCOLLECTION
  2
AcDbImpNonPersistentObjectsCollection
  3
ObjectDBX Classes
 90
     1153
280
     0
281
     0
  0
ENDSEC
  0
SECTION
  2
TABLES
  0
TABLE
  2
VPORT
  5
8
330
0
100
AcDbSymbolTable
 70
     1
  0
VPORT
  5
94
330
8
100
AcDbSymbolTableRecord
100
AcDbViewportTableRecord
  2
*Active
 70
     0
 10
0.0
 20
0.0
 11
1.0
 21
1.0
 12
1269.977537234475
 22
177.3341034556272
 13
0.0
 23
0.0
 14
0.5
 24
0.5
 15
0.5
 25
0.5
 16
0.0
 26
0.0
 36
1.0
 17
0.0
 27
0.0
 37
0.0
 40
552.0130309283526
 41
1.517509727626459
 42
50.0
 43
0.0
 44
0.0
 50
0.0
 51
0.0
 71
     0
 72
  1000
 73
     1
 74
     2
 75
     0
 76
     0
 77
     0
 78
     0
281
     0
 65
     1
110
0.0
120
0.0
130
0.0
111
1.0
121
0.0
131
0.0
112
0.0
122
1.0
132
0.0
 79
     0
146
0.0
  0
ENDTAB
  0
TABLE
  2
LTYPE
  5
5
330
0
100
AcDbSymbolTable
 70
     5
  0
LTYPE
  5
14
330
5
100
AcDbSymbolTableRecord
100
AcDbLinetypeTableRecord
  2
ByBlock
 70
     0
  3

 72
    65
 73
     0
 40
0.0
  0
LTYPE
  5
15
330
5
100
AcDbSymbolTableRecord
100
AcDbLinetypeTableRecord
  2
ByLayer
 70
     0
  3

 72
    65
 73
     0
 40
0.0
  0
LTYPE
  5
16
330
5
100
AcDbSymbolTableRecord
100
AcDbLinetypeTableRecord
  2
Continuous
 70
     0
  3
Solid line
 72
    65
 73
     0
 40
0.0
  0
LTYPE
  5
148
330
5
100
AcDbSymbolTableRecord
100
AcDbLinetypeTableRecord
  2
CENTER
 70
     0
  3
Center ____ _ ____ _ ____ _ ____ _ ____ _ ____
 72
    65
 73
     4
 40
50.8
 49
31.75
 74
     0
 49
-6.349999999999997
 74
     0
 49
6.349999999999997
 74
     0
 49
-6.349999999999997
 74
     0
  0
LTYPE
  5
14A
330
5
100
AcDbSymbolTableRecord
100
AcDbLinetypeTableRecord
  2
PHANTOM
 70
     0
  3
Phantom ______  __  __  ______  __  __  ______
 72
    65
 73
     6
 40
63.5
 49
31.75
 74
     0
 49
-6.349999999999997
 74
     0
 49
6.349999999999997
 74
     0
 49
-6.349999999999997
 74
     0
 49
6.349999999999997
 74
     0
 49
-6.349999999999997
 74
     0
  0
ENDTAB
  0
TABLE
  2
LAYER
  5
2
102
{ACAD_XDICTIONARY
360
DD
102
}
330
0
100
AcDbSymbolTable
 70
     2
  0
LAYER
  5
10
102
{ACAD_XDICTIONARY
360
8E9
102
}
330
2
100
AcDbSymbolTableRecord
100
AcDbLayerTableRecord
  2
0
 70
     0
 62
     7
  6
Continuous
370
    -3
390
F
  0
LAYER
  5
D8
330
2
100
AcDbSymbolTableRecord
100
AcDbLayerTableRecord
  2
Defpoints
 70
     0
 62
     7
  6
Continuous
290
     0
370
    -3
390
F
  0
ENDTAB
  0
TABLE
  2
STYLE
  5
3
330
0
100
AcDbSymbolTable
 70
     6
  0
STYLE
  5
11
330
3
100
AcDbSymbolTableRecord
100
AcDbTextStyleTableRecord
  2
Standard
 70
     0
 40
0.0
 41
1.0
 50
0.0
 71
     0
 42
0.2
  3
txt.shx
  4
bigfont.shx
  0
STYLE
  5
11D
330
3
100
AcDbSymbolTableRecord
100
AcDbTextStyleTableRecord
  2
高3.2
 70
     0
 40
3.2
 41
1.0
 50
0.0
 71
     0
 42
3.2
  3
txt.shx
  4
bigfont.shx
  0
STYLE
  5
11E
330
3
100
AcDbSymbolTableRecord
100
AcDbTextStyleTableRecord
  2
高6.3
 70
     0
 40
6.299999999999998
 41
1.0
 50
0.0
 71
     0
 42
6.299999999999998
  3
txt.shx
  4
bigfont.shx
  0
STYLE
  5
11F
330
3
100
AcDbSymbolTableRecord
100
AcDbTextStyleTableRecord
  2
高2.5
 70
     0
 40
2.5
 41
1.0
 50
0.0
 71
     0
 42
0.2
  3
txt.shx
  4
bigfont.shx
  0
STYLE
  5
146
330
3
100
AcDbSymbolTableRecord
100
AcDbTextStyleTableRecord
  2
高4.5
 70
     0
 40
4.5
 41
1.0
 50
0.0
 71
     0
 42
6.299999999999998
  3
txt.shx
  4
bigfont.shx
  0
STYLE
  5
171
330
3
100
AcDbSymbolTableRecord
100
AcDbTextStyleTableRecord
  2
高2
 70
     0
 40
2.0
 41
1.0
 50
0.0
 71
     0
 42
6.299999999999998
  3
txt.shx
  4
bigfont.shx
  0
ENDTAB
  0
TABLE
  2
VIEW
  5
6
330
0
100
AcDbSymbolTable
 70
     0
  0
ENDTAB
  0
TABLE
  2
UCS
  5
7
330
0
100
AcDbSymbolTable
 70
     0
  0
ENDTAB
  0
TABLE
  2
APPID
  5
9
330
0
100
AcDbSymbolTable
 70
    11
  0
APPID
  5
12
330
9
100
AcDbSymbolTableRecord
100
AcDbRegAppTableRecord
  2
ACAD
 70
     0
  0
APPID
  5
DC
330
9
100
AcDbSymbolTableRecord
100
AcDbRegAppTableRecord
  2
ACAD_DSTYLE_DIMJOGGED_JOGANGLE_SYMBOL
 70
     0
  0
APPID
  5
3A5
330
9
100
AcDbSymbolTableRecord
100
AcDbRegAppTableRecord
  2
ACAD_EXEMPT_FROM_CAD_STANDARDS
 70
     0
  0
APPID
  5
70D
330
9
100
AcDbSymbolTableRecord
100
AcDbRegAppTableRecord
  2
ACAD_DSTYLE_DIMJAG
 70
     0
  0
APPID
  5
70E
330
9
100
AcDbSymbolTableRecord
100
AcDbRegAppTableRecord
  2
ACAD_DSTYLE_DIMBREAK
 70
     0
  0
APPID
  5
70F
330
9
100
AcDbSymbolTableRecord
100
AcDbRegAppTableRecord
  2
ACAD_DSTYLE_DIMTALN
 70
     0
  0
APPID
  5
C7D
330
9
100
AcDbSymbolTableRecord
100
AcDbRegAppTableRecord
  2
ACAD_DSTYLE_DIMARC_LENGTH_SYMBOL
 70
     0
  0
APPID
  5
C7E
330
9
100
AcDbSymbolTableRecord
100
AcDbRegAppTableRecord
  2
ACAD_DSTYLE_DIMEXT_LENGTH
 70
     0
  0
APPID
  5
C93
330
9
100
AcDbSymbolTableRecord
100
AcDbRegAppTableRecord
  2
ACAD_MLEADERVER
 70
     0
  0
APPID
  5
131E
330
9
100
AcDbSymbolTableRecord
100
AcDbRegAppTableRecord
  2
ACAD_DSTYLE_DIMRADIAL_EXTENSION
 70
     0
  0
APPID
  5
1D0C
330
9
100
AcDbSymbolTableRecord
100
AcDbRegAppTableRecord
  2
ACAD_PSEXT
 70
     0
  0
ENDTAB
  0
TABLE
  2
DIMSTYLE
  5
A
330
0
100
AcDbSymbolTable
 70
    11
100
AcDbDimStyleTable
 71
     2
340
128
340
D9
  0
DIMSTYLE
105
D9
330
A
100
AcDbSymbolTableRecord
100
AcDbDimStyleTableRecord
  2
1：1
 70
     0
 41
2.5
 42
0.25
 43
0.2
 44
1.25
 73
     0
 74
     0
 77
     3
 78
     8
 79
     2
140
3.0
141
0.0
143
0.03937007874016
147
0.625
171
     3
172
     1
178
     4
179
     1
271
     2
272
     2
274
     3
283
     0
284
     8
288
     1
289
     0
340
11
341
C6
342
C6
1001
ACAD_DSTYLE_DIMARC_LENGTH_SYMBOL
1070
   379
1070
     2
1001
ACAD_DSTYLE_DIMEXT_LENGTH
1070
   378
1040
1.25
1001
ACAD_DSTYLE_DIMJOGGED_JOGANGLE_SYMBOL
1070
   384
1040
1.570796326794896
  0
DIMSTYLE
105
128
330
A
100
AcDbSymbolTableRecord
100
AcDbDimStyleTableRecord
  2
1／2
 70
     0
 41
2.5
 42
0.25
 43
0.2
 44
1.25
 73
     0
 74
     0
 77
     3
 78
     8
 79
     2
140
3.0
141
0.0
143
0.03937007874016
144
2.0
147
0.625
171
     3
172
     1
178
     4
179
     1
271
     2
272
     2
274
     3
283
     0
284
     8
288
     1
289
     0
340
11
341
C6
342
C6
1001
ACAD_DSTYLE_DIMARC_LENGTH_SYMBOL
1070
   379
1070
     2
1001
ACAD_DSTYLE_DIMEXT_LENGTH
1070
   378
1040
1.25
1001
ACAD_DSTYLE_DIMJOGGED_JOGANGLE_SYMBOL
1070
   384
1040
1.570796326794896
  0
DIMSTYLE
105
2382
330
A
100
AcDbSymbolTableRecord
100
AcDbDimStyleTableRecord
  2
2：1
 70
     0
 41
2.5
 42
0.25
 43
0.2
 44
1.25
 73
     0
 74
     0
 77
     3
 78
     8
 79
     2
140
3.0
141
0.0
143
0.03937007874016
144
0.5
147
0.625
171
     3
172
     1
178
     4
179
     1
271
     2
272
     2
274
     3
283
     0
284
     8
288
     1
289
     0
340
11
341
C6
342
C6
1001
ACAD_DSTYLE_DIMARC_LENGTH_SYMBOL
1070
   379
1070
     2
1001
ACAD_DSTYLE_DIMEXT_LENGTH
1070
   378
1040
1.25
1001
ACAD_DSTYLE_DIMJOGGED_JOGANGLE_SYMBOL
1070
   384
1040
1.570796326794896
  0
DIMSTYLE
105
2383
330
A
100
AcDbSymbolTableRecord
100
AcDbDimStyleTableRecord
  2
5：1
 70
     0
 41
2.5
 42
0.25
 43
0.2
 44
1.25
 73
     0
 74
     0
 77
     3
 78
     8
 79
     2
140
3.0
141
0.0
143
0.03937007874016
144
0.2
147
0.625
171
     3
172
     1
178
     4
179
     1
271
     2
272
     2
274
     3
283
     0
284
     8
288
     1
289
     0
340
11
341
C6
342
C6
1001
ACAD_DSTYLE_DIMARC_LENGTH_SYMBOL
1070
   379
1070
     2
1001
ACAD_DSTYLE_DIMEXT_LENGTH
1070
   378
1040
1.25
1001
ACAD_DSTYLE_DIMJOGGED_JOGANGLE_SYMBOL
1070
   384
1040
1.570796326794896
  0
DIMSTYLE
105
2384
330
A
100
AcDbSymbolTableRecord
100
AcDbDimStyleTableRecord
  2
10：1
 70
     0
 41
2.5
 42
0.25
 43
0.2
 44
1.25
 73
     0
 74
     0
 77
     3
 78
     8
 79
     2
140
3.0
141
0.0
143
0.03937007874016
144
0.1
147
0.625
171
     3
172
     1
178
     4
179
     1
271
     2
272
     2
274
     3
283
     0
284
     8
288
     1
289
     0
340
11
341
C6
342
C6
1001
ACAD_DSTYLE_DIMARC_LENGTH_SYMBOL
1070
   379
1070
     2
1001
ACAD_DSTYLE_DIMEXT_LENGTH
1070
   378
1040
1.25
1001
ACAD_DSTYLE_DIMJOGGED_JOGANGLE_SYMBOL
1070
   384
1040
1.570796326794896
  0
DIMSTYLE
105
2385
330
A
100
AcDbSymbolTableRecord
100
AcDbDimStyleTableRecord
  2
1／5
 70
     0
 41
2.5
 42
0.25
 43
0.2
 44
1.25
 73
     0
 74
     0
 77
     3
 78
     8
 79
     2
140
3.0
141
0.0
143
0.03937007874016
144
5.0
147
0.625
171
     3
172
     1
178
     4
179
     1
271
     2
272
     2
274
     3
283
     0
284
     8
288
     1
289
     0
340
11
341
C6
342
C6
1001
ACAD_DSTYLE_DIMARC_LENGTH_SYMBOL
1070
   379
1070
     2
1001
ACAD_DSTYLE_DIMEXT_LENGTH
1070
   378
1040
1.25
1001
ACAD_DSTYLE_DIMJOGGED_JOGANGLE_SYMBOL
1070
   384
1040
1.570796326794896
  0
DIMSTYLE
105
2386
330
A
100
AcDbSymbolTableRecord
100
AcDbDimStyleTableRecord
  2
1／10
 70
     0
 41
2.5
 42
0.25
 43
0.2
 44
1.25
 73
     0
 74
     0
 77
     3
 78
     8
 79
     2
140
3.0
141
0.0
143
0.03937007874016
144
10.0
147
0.625
171
     3
172
     1
178
     4
179
     1
271
     2
272
     2
274
     3
283
     0
284
     8
288
     1
289
     0
340
11
341
C6
342
C6
1001
ACAD_DSTYLE_DIMARC_LENGTH_SYMBOL
1070
   379
1070
     2
1001
ACAD_DSTYLE_DIMEXT_LENGTH
1070
   378
1040
1.25
1001
ACAD_DSTYLE_DIMJOGGED_JOGANGLE_SYMBOL
1070
   384
1040
1.570796326794896
  0
DIMSTYLE
105
2387
330
A
100
AcDbSymbolTableRecord
100
AcDbDimStyleTableRecord
  2
1／4
 70
     0
 41
2.5
 42
0.25
 43
0.2
 44
1.25
 73
     0
 74
     0
 77
     3
 78
     8
 79
     2
140
3.0
141
0.0
143
0.03937007874016
144
4.0
147
0.625
171
     3
172
     1
178
     4
179
     1
271
     2
272
     2
274
     3
283
     0
284
     8
288
     1
289
     0
340
11
341
C6
342
C6
1001
ACAD_DSTYLE_DIMARC_LENGTH_SYMBOL
1070
   379
1070
     2
1001
ACAD_DSTYLE_DIMEXT_LENGTH
1070
   378
1040
1.25
1001
ACAD_DSTYLE_DIMJOGGED_JOGANGLE_SYMBOL
1070
   384
1040
1.570796326794896
  0
DIMSTYLE
105
2388
330
A
100
AcDbSymbolTableRecord
100
AcDbDimStyleTableRecord
  2
1／3
 70
     0
 41
2.5
 42
0.25
 43
0.2
 44
1.25
 73
     0
 74
     0
 77
     3
 78
     8
 79
     2
140
3.0
141
0.0
143
0.03937007874016
144
3.0
147
0.625
171
     3
172
     1
178
     4
179
     1
271
     2
272
     2
274
     3
283
     0
284
     8
288
     1
289
     0
340
11
341
C6
342
C6
1001
ACAD_DSTYLE_DIMARC_LENGTH_SYMBOL
1070
   379
1070
     2
1001
ACAD_DSTYLE_DIMEXT_LENGTH
1070
   378
1040
1.25
1001
ACAD_DSTYLE_DIMJOGGED_JOGANGLE_SYMBOL
1070
   384
1040
1.570796326794896
  0
DIMSTYLE
105
2389
330
A
100
AcDbSymbolTableRecord
100
AcDbDimStyleTableRecord
  2
FREE
 70
     0
 41
2.5
 42
0.25
 43
0.2
 44
1.25
 73
     0
 74
     0
 77
     3
 78
     8
 79
     2
140
3.0
141
0.0
143
0.03937007874016
147
0.625
171
     3
172
     1
178
     4
179
     1
271
     2
272
     2
274
     3
283
     0
284
     8
288
     1
289
     0
340
11
341
C6
342
C6
1001
ACAD_DSTYLE_DIMBREAK
1070
   391
1040
3.75
1001
ACAD_DSTYLE_DIMJAG
1070
   388
1040
1.5
1001
ACAD_DSTYLE_DIMTALN
1070
   392
1070
     0
1001
ACAD_DSTYLE_DIMARC_LENGTH_SYMBOL
1070
   379
1070
     2
1001
ACAD_DSTYLE_DIMEXT_LENGTH
1070
   378
1040
1.25
1001
ACAD_DSTYLE_DIMJOGGED_JOGANGLE_SYMBOL
1070
   384
1040
1.570796326794896
  0
ENDTAB
  0
TABLE
  2
BLOCK_RECORD
  5
1
330
0
100
AcDbSymbolTable
 70
    45
  0
BLOCK_RECORD
  5
1F
102
{ACAD_XDICTIONARY
360
324
102
}
330
1
100
AcDbSymbolTableRecord
100
AcDbBlockTableRecord
  2
*Model_Space
340
22
  0
BLOCK_RECORD
  5
58
330
1
100
AcDbSymbolTableRecord
100
AcDbBlockTableRecord
  2
*Paper_Space
340
59
  0
BLOCK_RECORD
  5
5D
330
1
100
AcDbSymbolTableRecord
100
AcDbBlockTableRecord
  2
*Paper_Space0
340
5E
  0
BLOCK_RECORD
  5
C6
330
1
100
AcDbSymbolTableRecord
100
AcDbBlockTableRecord
  2
_Open30
340
0
102
{BLKREFS
331
3517
331
3518
331
3520
331
3521
331
3529
331
352A
331
3532
331
3533
331
353B
331
353C
331
3544
331
3545
331
354D
331
354E
331
3556
331
3557
102
}
  0
BLOCK_RECORD
  5
EA4
330
1
100
AcDbSymbolTableRecord
100
AcDbBlockTableRecord
  2
*D2
340
0
  0
BLOCK_RECORD
  5
1048
330
1
100
AcDbSymbolTableRecord
100
AcDbBlockTableRecord
  2
*D3
340
0
  0
BLOCK_RECORD
  5
1161
330
1
100
AcDbSymbolTableRecord
100
AcDbBlockTableRecord
  2
*D4
340
0
  0
BLOCK_RECORD
  5
1179
330
1
100
AcDbSymbolTableRecord
100
AcDbBlockTableRecord
  2
*D5
340
0
  0
BLOCK_RECORD
  5
1191
330
1
100
AcDbSymbolTableRecord
100
AcDbBlockTableRecord
  2
*D6
340
0
  0
BLOCK_RECORD
  5
11A9
330
1
100
AcDbSymbolTableRecord
100
AcDbBlockTableRecord
  2
*D7
340
0
  0
BLOCK_RECORD
  5
11E5
330
1
100
AcDbSymbolTableRecord
100
AcDbBlockTableRecord
  2
*D8
340
0
  0
BLOCK_RECORD
  5
1CA6
330
1
100
AcDbSymbolTableRecord
100
AcDbBlockTableRecord
  2
*D9
340
0
  0
ENDTAB
  0
ENDSEC
  0
SECTION
  2
BLOCKS
  0
BLOCK
  5
20
330
1F
100
AcDbEntity
  8
0
100
AcDbBlockBegin
  2
*Model_Space
 70
     0
 10
0.0
 20
0.0
 30
0.0
  3
*Model_Space
  1

  0
ENDBLK
  5
21
330
1F
100
AcDbEntity
  8
0
100
AcDbBlockEnd
  0
BLOCK
  5
5A
330
58
100
AcDbEntity
 67
     1
  8
0
100
AcDbBlockBegin
  2
*Paper_Space
 70
     0
 10
0.0
 20
0.0
 30
0.0
  3
*Paper_Space
  1

  0
ENDBLK
  5
5B
330
58
100
AcDbEntity
 67
     1
  8
0
100
AcDbBlockEnd
  0
BLOCK
  5
5F
330
5D
100
AcDbEntity
 67
     1
  8
0
100
AcDbBlockBegin
  2
*Paper_Space0
 70
     0
 10
0.0
 20
0.0
 30
0.0
  3
*Paper_Space0
  1

  0
ENDBLK
  5
60
330
5D
100
AcDbEntity
 67
     1
  8
0
100
AcDbBlockEnd
  0
BLOCK
  5
C7
330
C6
100
AcDbEntity
  8
0
100
AcDbBlockBegin
  2
_Open30
 70
     0
 10
0.0
 20
0.0
 30
0.0
  3
_Open30
  1

  0
LINE
  5
C8
330
C6
100
AcDbEntity
  8
0
  6
ByBlock
 62
     0
370
    -2
100
AcDbLine
 10
-1.0
 20
0.267949
 30
0.0
 11
0.0
 21
0.0
 31
0.0
  0
LINE
  5
C9
330
C6
100
AcDbEntity
  8
0
  6
ByBlock
 62
     0
370
    -2
100
AcDbLine
 10
0.0
 20
0.0
 30
0.0
 11
-1.0
 21
-0.267949
 31
0.0
  0
LINE
  5
CA
330
C6
100
AcDbEntity
  8
0
  6
ByBlock
 62
     0
370
    -2
100
AcDbLine
 10
0.0
 20
0.0
 30
0.0
 11
-1.0
 21
0.0
 31
0.0
  0
ENDBLK
  5
CB
330
C6
100
AcDbEntity
  8
0
100
AcDbBlockEnd
  0
BLOCK
  5
EA5
330
EA4
100
AcDbEntity
  8
0
100
AcDbBlockBegin
  2
*D2
 70
     1
 10
0.0
 20
0.0
 30
0.0
  3
*D2
  1

  0
LINE
  5
3514
330
EA4
100
AcDbEntity
  8
0
 62
     0
370
    -2
100
AcDbLine
 10
1209.325609780797
 20
175.3839703636942
 30
0.0
 11
1209.325609780797
 21
152.5076045282344
 31
0.0
  0
LINE
  5
3515
330
EA4
100
AcDbEntity
  8
0
 62
     0
370
    -2
100
AcDbLine
 10
1156.825609780797
 20
165.5982560779799
 30
0.0
 11
1156.825609780797
 21
152.5076045282344
 31
0.0
  0
LINE
  5
3516
330
EA4
100
AcDbEntity
  8
0
 62
     0
370
    -2
100
AcDbLine
 10
1206.825609780797
 20
153.7576045282344
 30
0.0
 11
1159.325609780797
 21
153.7576045282344
 31
0.0
  0
INSERT
  5
3517
330
EA4
100
AcDbEntity
  8
0
 62
     0
370
    -2
100
AcDbBlockReference
  2
_Open30
 10
1209.325609780797
 20
153.7576045282344
 30
0.0
 41
2.5
 42
2.5
 43
2.5
  0
INSERT
  5
3518
330
EA4
100
AcDbEntity
  8
0
 62
     0
370
    -2
100
AcDbBlockReference
  2
_Open30
 10
1156.825609780797
 20
153.7576045282344
 30
0.0
 41
2.5
 42
2.5
 43
2.5
 50
180.0
  0
MTEXT
  5
3519
330
EA4
100
AcDbEntity
  8
0
 62
     4
100
AcDbMText
 10
1180.685860113672
 20
155.8826045282344
 30
0.0
 40
3.0
 41
0.0
 71
     5
 72
     1
  1
10～105
 73
     1
 44
1.0
1001
ACAD
1000
MTEXTBEGIN
1070
    73
1070
     1
1070
    44
1040
1.0
1070
    74
1070
     0
1000
MTEXTEND
  0
POINT
  5
351A
330
EA4
100
AcDbEntity
  8
Defpoints
 62
     0
100
AcDbPoint
 10
1209.325609780797
 20
175.6339703636942
 30
0.0
  0
POINT
  5
351B
330
EA4
100
AcDbEntity
  8
Defpoints
 62
     0
100
AcDbPoint
 10
1156.825609780797
 20
165.8482560779799
 30
0.0
  0
POINT
  5
351C
330
EA4
100
AcDbEntity
  8
Defpoints
 62
     0
100
AcDbPoint
 10
1156.825609780797
 20
153.7576045282344
 30
0.0
  0
ENDBLK
  5
EA6
330
EA4
100
AcDbEntity
  8
0
100
AcDbBlockEnd
  0
BLOCK
  5
1049
330
1048
100
AcDbEntity
  8
0
 62
     7
100
AcDbBlockBegin
  2
*D3
 70
     1
 10
0.0
 20
0.0
 30
0.0
  3
*D3
  1

  0
LINE
  5
351D
330
1048
100
AcDbEntity
  8
0
 62
     0
370
    -2
100
AcDbLine
 10
1209.325609780797
 20
275.9535013538679
 30
0.0
 11
1209.325609780797
 21
248.2427526176257
 31
0.0
  0
LINE
  5
351E
330
1048
100
AcDbEntity
  8
0
 62
     0
370
    -2
100
AcDbLine
 10
1156.825609780797
 20
257.0511296813797
 30
0.0
 11
1156.825609780797
 21
248.2427526176257
 31
0.0
  0
LINE
  5
351F
330
1048
100
AcDbEntity
  8
0
 62
     0
370
    -2
100
AcDbLine
 10
1206.825609780797
 20
249.4927526176257
 30
0.0
 11
1159.325609780797
 21
249.4927526176257
 31
0.0
  0
INSERT
  5
3520
330
1048
100
AcDbEntity
  8
0
 62
     0
370
    -2
100
AcDbBlockReference
  2
_Open30
 10
1209.325609780797
 20
249.4927526176257
 30
0.0
 41
2.5
 42
2.5
 43
2.5
  0
INSERT
  5
3521
330
1048
100
AcDbEntity
  8
0
 62
     0
370
    -2
100
AcDbBlockReference
  2
_Open30
 10
1156.825609780797
 20
249.4927526176257
 30
0.0
 41
2.5
 42
2.5
 43
2.5
 50
180.0
  0
MTEXT
  5
3522
330
1048
100
AcDbEntity
  8
0
 62
     4
100
AcDbMText
 10
1183.075609780797
 20
251.6177526176257
 30
0.0
 40
3.0
 41
0.0
 71
     5
 72
     1
  1
10～105
 73
     1
 44
1.0
1001
ACAD
1000
MTEXTBEGIN
1070
    73
1070
     1
1070
    44
1040
1.0
1070
    74
1070
     0
1000
MTEXTEND
  0
POINT
  5
3523
330
1048
100
AcDbEntity
  8
Defpoints
 62
     0
100
AcDbPoint
 10
1209.325609780797
 20
276.2035013538679
 30
0.0
  0
POINT
  5
3524
330
1048
100
AcDbEntity
  8
Defpoints
 62
     0
100
AcDbPoint
 10
1156.825609780797
 20
257.3011296813797
 30
0.0
  0
POINT
  5
3525
330
1048
100
AcDbEntity
  8
Defpoints
 62
     0
100
AcDbPoint
 10
1156.825609780797
 20
249.4927526176257
 30
0.0
  0
ENDBLK
  5
104A
330
1048
100
AcDbEntity
  8
0
 62
     7
100
AcDbBlockEnd
  0
BLOCK
  5
1162
330
1161
100
AcDbEntity
  8
0
 62
     7
100
AcDbBlockBegin
  2
*D4
 70
     1
 10
0.0
 20
0.0
 30
0.0
  3
*D4
  1

  0
LINE
  5
3526
330
1161
100
AcDbEntity
  8
0
 62
     0
370
    -2
100
AcDbLine
 10
1035.756973320944
 20
190.7232560779799
 30
0.0
 11
1035.756973320944
 21
240.9347675911026
 31
0.0
  0
LINE
  5
3527
330
1161
100
AcDbEntity
  8
0
 62
     0
370
    -2
100
AcDbLine
 10
980.5069733209442
 20
190.7232560779799
 30
0.0
 11
980.5069733209442
 21
240.9347675911026
 31
0.0
  0
LINE
  5
3528
330
1161
100
AcDbEntity
  8
0
 62
     0
370
    -2
100
AcDbLine
 10
1033.256973320944
 20
239.6847675911026
 30
0.0
 11
983.0069733209441
 21
239.6847675911026
 31
0.0
  0
INSERT
  5
3529
330
1161
100
AcDbEntity
  8
0
 62
     0
370
    -2
100
AcDbBlockReference
  2
_Open30
 10
1035.756973320944
 20
239.6847675911026
 30
0.0
 41
2.5
 42
2.5
 43
2.5
  0
INSERT
  5
352A
330
1161
100
AcDbEntity
  8
0
 62
     0
370
    -2
100
AcDbBlockReference
  2
_Open30
 10
980.5069733209442
 20
239.6847675911026
 30
0.0
 41
2.5
 42
2.5
 43
2.5
 50
180.0
  0
MTEXT
  5
352B
330
1161
100
AcDbEntity
  8
0
 62
     4
100
AcDbMText
 10
1009.23504217814
 20
241.8097675911026
 30
0.0
 40
3.0
 41
0.0
 71
     5
 72
     1
  1
%%C110.5
 73
     1
 44
1.0
1001
ACAD
1000
MTEXTBEGIN
1070
    73
1070
     1
1070
    44
1040
1.0
1070
    74
1070
     0
1000
MTEXTEND
  0
POINT
  5
352C
330
1161
100
AcDbEntity
  8
Defpoints
 62
     0
100
AcDbPoint
 10
1035.756973320944
 20
190.4732560779799
 30
0.0
  0
POINT
  5
352D
330
1161
100
AcDbEntity
  8
Defpoints
 62
     0
100
AcDbPoint
 10
980.5069733209442
 20
190.4732560779799
 30
0.0
  0
POINT
  5
352E
330
1161
100
AcDbEntity
  8
Defpoints
 62
     0
100
AcDbPoint
 10
980.5069733209442
 20
239.6847675911026
 30
0.0
  0
ENDBLK
  5
1163
330
1161
100
AcDbEntity
  8
0
 62
     7
100
AcDbBlockEnd
  0
BLOCK
  5
117A
330
1179
100
AcDbEntity
  8
0
 62
     7
100
AcDbBlockBegin
  2
*D5
 70
     1
 10
0.0
 20
0.0
 30
0.0
  3
*D5
  1

  0
LINE
  5
352F
330
1179
100
AcDbEntity
  8
0
 62
     0
370
    -2
100
AcDbLine
 10
1038.631973320944
 20
190.7232560779799
 30
0.0
 11
1038.631973320944
 21
247.8769973065359
 31
0.0
  0
LINE
  5
3530
330
1179
100
AcDbEntity
  8
0
 62
     0
370
    -2
100
AcDbLine
 10
977.6319733209444
 20
190.7232560779799
 30
0.0
 11
977.6319733209444
 21
247.8769973065359
 31
0.0
  0
LINE
  5
3531
330
1179
100
AcDbEntity
  8
0
 62
     0
370
    -2
100
AcDbLine
 10
1036.131973320944
 20
246.6269973065359
 30
0.0
 11
980.1319733209442
 21
246.6269973065359
 31
0.0
  0
INSERT
  5
3532
330
1179
100
AcDbEntity
  8
0
 62
     0
370
    -2
100
AcDbBlockReference
  2
_Open30
 10
1038.631973320944
 20
246.6269973065359
 30
0.0
 41
2.5
 42
2.5
 43
2.5
  0
INSERT
  5
3533
330
1179
100
AcDbEntity
  8
0
 62
     0
370
    -2
100
AcDbBlockReference
  2
_Open30
 10
977.6319733209444
 20
246.6269973065359
 30
0.0
 41
2.5
 42
2.5
 43
2.5
 50
180.0
  0
MTEXT
  5
3534
330
1179
100
AcDbEntity
  8
0
 62
     4
100
AcDbMText
 10
1008.915415888092
 20
248.7519973065359
 30
0.0
 40
3.0
 41
0.0
 71
     5
 72
     1
  1
122
 73
     1
 44
1.0
1001
ACAD
1000
MTEXTBEGIN
1070
    73
1070
     1
1070
    44
1040
1.0
1070
    74
1070
     0
1000
MTEXTEND
  0
POINT
  5
3535
330
1179
100
AcDbEntity
  8
Defpoints
 62
     0
100
AcDbPoint
 10
1038.631973320944
 20
190.4732560779799
 30
0.0
  0
POINT
  5
3536
330
1179
100
AcDbEntity
  8
Defpoints
 62
     0
100
AcDbPoint
 10
977.6319733209444
 20
190.4732560779799
 30
0.0
  0
POINT
  5
3537
330
1179
100
AcDbEntity
  8
Defpoints
 62
     0
100
AcDbPoint
 10
977.6319733209444
 20
246.6269973065359
 30
0.0
  0
ENDBLK
  5
117B
330
1179
100
AcDbEntity
  8
0
 62
     7
100
AcDbBlockEnd
  0
BLOCK
  5
1192
330
1191
100
AcDbEntity
  8
0
 62
     7
100
AcDbBlockBegin
  2
*D6
 70
     1
 10
0.0
 20
0.0
 30
0.0
  3
*D6
  1

  0
LINE
  5
3538
330
1191
100
AcDbEntity
  8
0
 62
     0
370
    -2
100
AcDbLine
 10
1042.631973320944
 20
190.7232560779799
 30
0.0
 11
1042.631973320944
 21
255.9762636516057
 31
0.0
  0
LINE
  5
3539
330
1191
100
AcDbEntity
  8
0
 62
     0
370
    -2
100
AcDbLine
 10
973.6319733209443
 20
190.7232560779799
 30
0.0
 11
973.6319733209443
 21
255.9762636516057
 31
0.0
  0
LINE
  5
353A
330
1191
100
AcDbEntity
  8
0
 62
     0
370
    -2
100
AcDbLine
 10
1040.131973320944
 20
254.7262636516057
 30
0.0
 11
976.1319733209443
 21
254.7262636516057
 31
0.0
  0
INSERT
  5
353B
330
1191
100
AcDbEntity
  8
0
 62
     0
370
    -2
100
AcDbBlockReference
  2
_Open30
 10
1042.631973320944
 20
254.7262636516057
 30
0.0
 41
2.5
 42
2.5
 43
2.5
  0
INSERT
  5
353C
330
1191
100
AcDbEntity
  8
0
 62
     0
370
    -2
100
AcDbBlockReference
  2
_Open30
 10
973.6319733209443
 20
254.7262636516057
 30
0.0
 41
2.5
 42
2.5
 43
2.5
 50
180.0
  0
MTEXT
  5
353D
330
1191
100
AcDbEntity
  8
0
 62
     4
100
AcDbMText
 10
1008.554219096076
 20
256.8512636516057
 30
0.0
 40
3.0
 41
0.0
 71
     5
 72
     1
  1
138
 73
     1
 44
1.0
1001
ACAD
1000
MTEXTBEGIN
1070
    73
1070
     1
1070
    44
1040
1.0
1070
    74
1070
     0
1000
MTEXTEND
  0
POINT
  5
353E
330
1191
100
AcDbEntity
  8
Defpoints
 62
     0
100
AcDbPoint
 10
1042.631973320944
 20
190.4732560779799
 30
0.0
  0
POINT
  5
353F
330
1191
100
AcDbEntity
  8
Defpoints
 62
     0
100
AcDbPoint
 10
973.6319733209443
 20
190.4732560779799
 30
0.0
  0
POINT
  5
3540
330
1191
100
AcDbEntity
  8
Defpoints
 62
     0
100
AcDbPoint
 10
973.6319733209443
 20
254.7262636516057
 30
0.0
  0
ENDBLK
  5
1193
330
1191
100
AcDbEntity
  8
0
 62
     7
100
AcDbBlockEnd
  0
BLOCK
  5
11AA
330
11A9
100
AcDbEntity
  8
0
 62
     7
100
AcDbBlockBegin
  2
*D7
 70
     1
 10
0.0
 20
0.0
 30
0.0
  3
*D7
  1

  0
LINE
  5
3541
330
11A9
100
AcDbEntity
  8
0
 62
     0
370
    -2
100
AcDbLine
 10
1008.068301814111
 20
229.2220791392494
 30
0.0
 11
958.4199256865677
 21
229.2220791392495
 31
0.0
  0
LINE
  5
3542
330
11A9
100
AcDbEntity
  8
0
 62
     0
370
    -2
100
AcDbLine
 10
1007.881973320944
 20
145.9732227680964
 30
0.0
 11
958.4199256865677
 21
145.9732227680964
 31
0.0
  0
LINE
  5
3543
330
11A9
100
AcDbEntity
  8
0
 62
     0
370
    -2
100
AcDbLine
 10
959.6699256865676
 20
226.7220791392495
 30
0.0
 11
959.6699256865676
 21
148.4732227680964
 31
0.0
  0
INSERT
  5
3544
330
11A9
100
AcDbEntity
  8
0
 62
     0
370
    -2
100
AcDbBlockReference
  2
_Open30
 10
959.6699256865676
 20
229.2220791392495
 30
0.0
 41
2.5
 42
2.5
 43
2.5
 50
90.0
  0
INSERT
  5
3545
330
11A9
100
AcDbEntity
  8
0
 62
     0
370
    -2
100
AcDbBlockReference
  2
_Open30
 10
959.6699256865676
 20
145.9732227680964
 30
0.0
 41
2.5
 42
2.5
 43
2.5
 50
270.0
  0
MTEXT
  5
3546
330
11A9
100
AcDbEntity
  8
0
 62
     4
100
AcDbMText
 10
957.5449256865677
 20
189.6418120649978
 30
0.0
 40
3.0
 41
0.0
 71
     5
 72
     1
  1
(166.5)
 11
0.0000000000000001
 21
1.0
 31
0.0
 73
     1
 44
1.0
1001
ACAD
1000
MTEXTBEGIN
1070
    73
1070
     1
1070
    44
1040
1.0
1070
    74
1070
     0
1000
MTEXTEND
  0
POINT
  5
3547
330
11A9
100
AcDbEntity
  8
Defpoints
 62
     0
100
AcDbPoint
 10
1008.318301814111
 20
229.2220791392494
 30
0.0
  0
POINT
  5
3548
330
11A9
100
AcDbEntity
  8
Defpoints
 62
     0
100
AcDbPoint
 10
1008.131973320944
 20
145.9732227680964
 30
0.0
  0
POINT
  5
3549
330
11A9
100
AcDbEntity
  8
Defpoints
 62
     0
100
AcDbPoint
 10
959.6699256865676
 20
145.9732227680964
 30
0.0
  0
ENDBLK
  5
11AB
330
11A9
100
AcDbEntity
  8
0
 62
     7
100
AcDbBlockEnd
  0
BLOCK
  5
11E6
330
11E5
100
AcDbEntity
  8
0
 62
     7
100
AcDbBlockBegin
  2
*D8
 70
     1
 10
0.0
 20
0.0
 30
0.0
  3
*D8
  1

  0
LINE
  5
354A
330
11E5
100
AcDbEntity
  8
0
 62
     0
370
    -2
100
AcDbLine
 10
1156.825609780797
 20
214.59825607798
 30
0.0
 11
1156.825609780797
 21
239.8329874189059
 31
0.0
  0
LINE
  5
354B
330
11E5
100
AcDbEntity
  8
0
 62
     0
370
    -2
100
AcDbLine
 10
1077.325609780797
 20
222.2232560779799
 30
0.0
 11
1077.325609780797
 21
239.8329874189059
 31
0.0
  0
LINE
  5
354C
330
11E5
100
AcDbEntity
  8
0
 62
     0
370
    -2
100
AcDbLine
 10
1154.325609780797
 20
238.5829874189059
 30
0.0
 11
1079.825609780797
 21
238.5829874189059
 31
0.0
  0
INSERT
  5
354D
330
11E5
100
AcDbEntity
  8
0
 62
     0
370
    -2
100
AcDbBlockReference
  2
_Open30
 10
1156.825609780797
 20
238.5829874189059
 30
0.0
 41
2.5
 42
2.5
 43
2.5
  0
INSERT
  5
354E
330
11E5
100
AcDbEntity
  8
0
 62
     0
370
    -2
100
AcDbBlockReference
  2
_Open30
 10
1077.325609780797
 20
238.5829874189059
 30
0.0
 41
2.5
 42
2.5
 43
2.5
 50
180.0
  0
MTEXT
  5
354F
330
11E5
100
AcDbEntity
  8
0
 62
     4
100
AcDbMText
 10
1116.560478685559
 20
240.7079874189059
 30
0.0
 40
3.0
 41
0.0
 71
     5
 72
     1
  1
(159)
 73
     1
 44
1.0
1001
ACAD
1000
MTEXTBEGIN
1070
    73
1070
     1
1070
    44
1040
1.0
1070
    74
1070
     0
1000
MTEXTEND
  0
POINT
  5
3550
330
11E5
100
AcDbEntity
  8
Defpoints
 62
     0
100
AcDbPoint
 10
1156.825609780797
 20
214.34825607798
 30
0.0
  0
POINT
  5
3551
330
11E5
100
AcDbEntity
  8
Defpoints
 62
     0
100
AcDbPoint
 10
1077.325609780797
 20
221.9732560779799
 30
0.0
  0
POINT
  5
3552
330
11E5
100
AcDbEntity
  8
Defpoints
 62
     0
100
AcDbPoint
 10
1077.325609780797
 20
238.5829874189059
 30
0.0
  0
ENDBLK
  5
11E7
330
11E5
100
AcDbEntity
  8
0
 62
     7
100
AcDbBlockEnd
  0
BLOCK
  5
1CA7
330
1CA6
100
AcDbEntity
  8
0
 62
     7
100
AcDbBlockBegin
  2
*D9
 70
     1
 10
0.0
 20
0.0
 30
0.0
  3
*D9
  1

  0
LINE
  5
3553
330
1CA6
100
AcDbEntity
  8
0
 62
     0
370
    -2
100
AcDbLine
 10
1167.969947348095
 20
214.8482560779799
 30
0.0
 11
1184.851245720112
 21
214.8482560779799
 31
0.0
  0
LINE
  5
3554
330
1CA6
100
AcDbEntity
  8
0
 62
     0
370
    -2
100
AcDbLine
 10
1167.969947348095
 20
190.4732560779799
 30
0.0
 11
1184.851245720112
 21
190.4732560779799
 31
0.0
  0
LINE
  5
3555
330
1CA6
100
AcDbEntity
  8
0
 62
     0
370
    -2
100
AcDbLine
 10
1183.601245720112
 20
212.3482560779799
 30
0.0
 11
1183.601245720112
 21
192.9732560779799
 31
0.0
  0
INSERT
  5
3556
330
1CA6
100
AcDbEntity
  8
0
 62
     0
370
    -2
100
AcDbBlockReference
  2
_Open30
 10
1183.601245720112
 20
214.8482560779799
 30
0.0
 41
2.5
 42
2.5
 43
2.5
 50
90.0
  0
INSERT
  5
3557
330
1CA6
100
AcDbEntity
  8
0
 62
     0
370
    -2
100
AcDbBlockReference
  2
_Open30
 10
1183.601245720112
 20
190.4732560779799
 30
0.0
 41
2.5
 42
2.5
 43
2.5
 50
270.0
  0
MTEXT
  5
3558
330
1CA6
100
AcDbEntity
  8
0
 62
     4
100
AcDbMText
 10
1181.476245720112
 20
203.1560820501081
 30
0.0
 40
3.0
 41
0.0
 71
     5
 72
     1
  1
48.8
 11
0.0000000000000001
 21
1.0
 31
0.0
 73
     1
 44
1.0
1001
ACAD
1000
MTEXTBEGIN
1070
    73
1070
     1
1070
    44
1040
1.0
1070
    74
1070
     0
1000
MTEXTEND
  0
POINT
  5
3559
330
1CA6
100
AcDbEntity
  8
Defpoints
 62
     0
100
AcDbPoint
 10
1167.719947348095
 20
214.8482560779799
 30
0.0
  0
POINT
  5
355A
330
1CA6
100
AcDbEntity
  8
Defpoints
 62
     0
100
AcDbPoint
 10
1167.719947348095
 20
190.4732560779799
 30
0.0
  0
POINT
  5
355B
330
1CA6
100
AcDbEntity
  8
Defpoints
 62
     0
100
AcDbPoint
 10
1183.601245720112
 20
190.4732560779799
 30
0.0
  0
ENDBLK
  5
1CA8
330
1CA6
100
AcDbEntity
  8
0
 62
     7
100
AcDbBlockEnd
  0
ENDSEC
  0
SECTION
  2
ENTITIES
  0
LINE
  5
AE4
330
1F
100
AcDbEntity
  8
0
 62
     3
100
AcDbLine
 10
1017.881973320944
 20
190.4732560779799
 30
0.0
 11
1012.131973320944
 21
190.4732560779799
 31
0.0
  0
ARC
  5
AE6
330
1F
100
AcDbEntity
  8
0
 62
     3
100
AcDbCircle
 10
1008.131973320944
 20
190.4732560779799
 30
0.0
 40
26.75
100
AcDbArc
 50
304.7567431170757
 51
56.76697880025876
  0
ELLIPSE
  5
AEF
330
1F
100
AcDbEntity
  8
0
 62
     3
100
AcDbEllipse
 10
1024.881973320944
 20
190.4732560779799
 30
0.0
 11
0.0
 21
17.75
 31
0.0
210
0.0
220
0.0
230
1.0
 40
0.4225352112676056
 41
6.283185307179584
 42
7.853981633974482
  0
ELLIPSE
  5
AF1
330
1F
100
AcDbEntity
  8
0
 62
     3
100
AcDbEllipse
 10
1024.881973320944
 20
190.4732560779799
 30
0.0
 11
0.0
 21
17.75
 31
0.0
210
0.0
220
0.0
230
1.0
 40
0.5633802816901409
 41
5.691589037450392
 42
6.283185307179584
  0
ELLIPSE
  5
AF2
330
1F
100
AcDbEntity
  8
0
 62
     3
100
AcDbEllipse
 10
991.3819733209443
 20
190.4732560779799
 30
0.0
 11
0.0
 21
17.75
 31
0.0
210
0.0
220
0.0
230
-1.0
 40
0.4225352112676056
 41
6.283185307179584
 42
7.853981633974482
  0
ELLIPSE
  5
AF3
330
1F
100
AcDbEntity
  8
0
 62
     3
100
AcDbEllipse
 10
991.3819733209443
 20
190.4732560779799
 30
0.0
 11
0.0
 21
17.75
 31
0.0
210
0.0
220
0.0
230
-1.0
 40
0.5633802816901409
 41
5.691589037450392
 42
6.283185307179584
  0
ELLIPSE
  5
AF6
330
1F
100
AcDbEntity
  8
0
 62
     3
100
AcDbEllipse
 10
1026.131973320944
 20
190.4732560779799
 30
0.0
 11
0.0
 21
-17.75
 31
0.0
210
0.0
220
0.0
230
1.0
 40
0.4647887323943662
 41
4.712388980384688
 42
6.666228757071182
  0
ELLIPSE
  5
AF7
330
1F
100
AcDbEntity
  8
0
 62
     3
100
AcDbEllipse
 10
990.1319733209444
 20
190.4732560779799
 30
0.0
 11
0.0
 21
-17.75
 31
0.0
210
0.0
220
0.0
230
-1.0
 40
0.4647887323943662
 41
4.712388980384688
 42
6.666228757071182
  0
CIRCLE
  5
AF8
330
1F
100
AcDbEntity
  8
0
 62
     3
100
AcDbCircle
 10
1008.131973320944
 20
190.4732560779799
 30
0.0
 40
3.1
  0
ARC
  5
AF9
330
1F
100
AcDbEntity
  8
0
 62
     3
100
AcDbCircle
 10
1008.131973320944
 20
190.4732560779799
 30
0.0
 40
4.0
100
AcDbArc
 50
180.0
 51
0.0
  0
LINE
  5
AFA
330
1F
100
AcDbEntity
  8
0
 62
     3
100
AcDbLine
 10
1142.825609780797
 20
218.0982560779799
 30
0.0
 11
1142.825609780797
 21
162.8482560779799
 31
0.0
  0
LINE
  5
AFC
330
1F
100
AcDbEntity
  8
0
 62
     3
100
AcDbLine
 10
1004.131973320944
 20
190.4732560779799
 30
0.0
 11
998.3819733209443
 21
190.4732560779799
 31
0.0
  0
ARC
  5
AFF
330
1F
100
AcDbEntity
  8
0
 62
     3
100
AcDbCircle
 10
1008.131973320944
 20
204.4732560779799
 30
0.0
 40
7.099999999999997
100
AcDbArc
 50
208.2230276305713
 51
331.7769723694287
  0
LINE
  5
B01
330
1F
100
AcDbEntity
  8
0
 62
     3
100
AcDbLine
 10
1140.325609780797
 20
217.2232560779799
 30
0.0
 11
1142.825609780797
 21
217.2232560779799
 31
0.0
  0
LINE
  5
B02
330
1F
100
AcDbEntity
  8
0
 62
     3
100
AcDbLine
 10
1140.325609780797
 20
163.7232560779799
 30
0.0
 11
1142.825609780797
 21
163.7232560779799
 31
0.0
  0
LINE
  5
B03
330
1F
100
AcDbEntity
  8
0
 62
     3
100
AcDbLine
 10
1140.325609780797
 20
174.0095726888683
 30
0.0
 11
1140.325609780797
 21
163.7232560779799
 31
0.0
  0
ARC
  5
B06
330
1F
100
AcDbEntity
  8
0
 62
     3
100
AcDbCircle
 10
658.8380941656103
 20
189.6081216107125
 30
0.0
 40
481.7401191739707
100
AcDbArc
 50
358.1444616543971
 51
1.855538345602863
  0
LINE
  5
B07
330
1F
100
AcDbEntity
  8
0
 62
     3
100
AcDbLine
 10
1140.325609780797
 20
205.2066705325573
 30
0.0
 11
1140.325609780797
 21
217.2232560779799
 31
0.0
  0
LINE
  5
B08
330
1F
100
AcDbEntity
  8
0
 62
     3
100
AcDbLine
 10
1156.825609780797
 20
187.9732560779799
 30
0.0
 11
1156.825609780797
 21
165.8482560779799
 31
0.0
  0
ELLIPSE
  5
B18
330
1F
100
AcDbEntity
  8
0
 62
     3
100
AcDbEllipse
 10
1139.325609780797
 20
190.4732560779799
 30
0.0
 11
0.0
 21
17.75
 31
0.0
210
0.0
220
0.0
230
1.0
 40
0.3661971830985915
 41
0.0
 42
1.570796326794896
  0
ELLIPSE
  5
B19
330
1F
100
AcDbEntity
  8
0
 62
     3
100
AcDbEllipse
 10
1139.325609780797
 20
205.2066705325572
 30
0.0
 11
0.0
 21
3.016585545422755
 31
0.0
210
0.0
220
0.0
230
1.0
 40
0.331500627633643
 41
4.712388980384688
 42
6.283185307179584
  0
ELLIPSE
  5
B1B
330
1F
100
AcDbEntity
  8
0
 62
     3
100
AcDbEllipse
 10
1139.325609780797
 20
190.4732560779799
 30
0.0
 11
0.0
 21
-17.75
 31
0.0
210
0.0
220
0.0
230
1.0
 40
0.3380281690140845
 41
4.712388980384688
 42
6.283185307179584
  0
ELLIPSE
  5
B1C
330
1F
100
AcDbEntity
  8
0
 62
     3
100
AcDbEllipse
 10
1139.325609780797
 20
174.0095726888681
 30
0.0
 11
0.0
 21
-1.286316610888164
 31
0.0
210
0.0
220
0.0
230
1.0
 40
0.7774135788462912
 41
6.283185307179584
 42
7.853981633974482
  0
ARC
  5
B1D
330
1F
100
AcDbEntity
  8
0
 62
     3
100
AcDbCircle
 10
1178.167521545502
 20
190.4732560779799
 30
0.0
 40
46.34191176470567
100
AcDbArc
 50
144.7439612643575
 51
149.8870893196809
  0
ARC
  5
B20
330
1F
100
AcDbEntity
  8
0
 62
     3
100
AcDbCircle
 10
1181.048266030796
 20
190.4732560779799
 30
0.0
 40
48.72265625
100
AcDbArc
 50
180.0
 51
213.3002109972051
  0
LINE
  5
B21
330
1F
100
AcDbEntity
  8
0
 62
     3
100
AcDbLine
 10
1132.490082044411
 20
186.4732560779799
 30
0.0
 11
1131.998562427846
 21
186.4732560779799
 31
0.0
  0
LINE
  5
B22
330
1F
100
AcDbEntity
  8
0
 62
     3
100
AcDbLine
 10
1146.825609780797
 20
185.9732560779799
 30
0.0
 11
1146.825609780797
 21
162.8482560779799
 31
0.0
  0
ARC
  5
B23
330
1F
100
AcDbEntity
  8
0
 62
     3
100
AcDbCircle
 10
1008.131973320944
 20
190.4732560779799
 30
0.0
 40
27.625
100
AcDbArc
 50
303.506817186168
 51
57.76158400104079
  0
LINE
  5
B24
330
1F
100
AcDbEntity
  8
0
 62
     3
100
AcDbLine
 10
1131.325609780797
 20
211.5732560779799
 30
0.0
 11
1131.325609780797
 21
197.5335154488209
 31
0.0
  0
LINE
  5
B28
330
1F
100
AcDbEntity
  8
0
 62
     3
100
AcDbLine
 10
1138.079988745294
 20
213.7232560779799
 30
0.0
 11
1131.325609780797
 21
211.5732560779799
 31
0.0
  0
LINE
  5
B29
330
1F
100
AcDbEntity
  8
0
 62
     3
100
AcDbLine
 10
1009.631973320944
 20
197.5335154488209
 30
0.0
 11
1009.631973320944
 21
195.9732560779799
 31
0.0
  0
LINE
  5
B2A
330
1F
100
AcDbEntity
  8
0
 62
     3
100
AcDbLine
 10
1006.631973320944
 20
197.5335154488209
 30
0.0
 11
1006.631973320944
 21
195.9732560779799
 31
0.0
  0
LINE
  5
B2B
330
1F
100
AcDbEntity
  8
0
 62
     3
100
AcDbLine
 10
1008.881973320944
 20
196.6591662397454
 30
0.0
 11
1008.881973320944
 21
195.9732560779799
 31
0.0
  0
LINE
  5
B2C
330
1F
100
AcDbEntity
  8
0
 62
     3
100
AcDbLine
 10
1007.381973320944
 20
196.6591662397454
 30
0.0
 11
1007.381973320944
 21
195.9732560779799
 31
0.0
  0
LINE
  5
B2E
330
1F
100
AcDbEntity
  8
0
 62
     3
100
AcDbLine
 10
1009.631973320944
 20
195.9732560779799
 30
0.0
 11
1008.881973320944
 21
195.9732560779799
 31
0.0
  0
LINE
  5
B30
330
1F
100
AcDbEntity
  8
0
 62
     3
100
AcDbLine
 10
1132.366587890999
 20
197.5335154488209
 30
0.0
 11
1130.325609780797
 21
197.5335154488209
 31
0.0
  0
LINE
  5
B31
330
1F
100
AcDbEntity
  8
0
 62
     3
100
AcDbLine
 10
1130.325609780797
 20
197.5335154488209
 30
0.0
 11
1130.325609780797
 21
196.9732560779799
 31
0.0
  0
LINE
  5
B32
330
1F
100
AcDbEntity
  8
0
 62
     3
100
AcDbLine
 10
1132.366587890999
 20
197.5335154488209
 30
0.0
 11
1138.079988745294
 21
213.7232560779799
 31
0.0
  0
ARC
  5
B33
330
1F
100
AcDbEntity
  8
0
 62
     3
100
AcDbCircle
 10
1178.167521545502
 20
190.4732560779799
 30
0.0
 40
46.34191176470567
100
AcDbArc
 50
171.2367764002345
 51
184.9516441393337
  0
LINE
  5
B34
330
1F
100
AcDbEntity
  8
0
 62
     3
100
AcDbLine
 10
1131.325609780797
 20
195.9732560779799
 30
0.0
 11
1132.153145683085
 21
195.9732560779799
 31
0.0
  0
ARC
  5
B35
330
1F
100
AcDbEntity
  8
0
 62
     3
100
AcDbCircle
 10
1131.325609780797
 20
196.9732560779799
 30
0.0
 40
1.0
100
AcDbArc
 50
180.0
 51
270.0
  0
LINE
  5
B36
330
1F
100
AcDbEntity
  8
0
 62
     3
100
AcDbLine
 10
1142.825609780797
 20
218.0982560779799
 30
0.0
 11
1146.825609780797
 21
218.0982560779799
 31
0.0
  0
LINE
  5
B37
330
1F
100
AcDbEntity
  8
0
 62
     3
100
AcDbLine
 10
1142.825609780797
 20
162.8482560779799
 30
0.0
 11
1146.825609780797
 21
162.8482560779799
 31
0.0
  0
LINE
  5
B38
330
1F
100
AcDbEntity
  8
0
 62
     3
100
AcDbLine
 10
1129.575609780797
 20
211.4732560779799
 30
0.0
 11
1131.325609780797
 21
211.4732560779799
 31
0.0
  0
LINE
  5
B39
330
1F
100
AcDbEntity
  8
0
 62
     3
100
AcDbLine
 10
1129.575609780797
 20
197.4732560779799
 30
0.0
 11
1130.325609780797
 21
197.4732560779799
 31
0.0
  0
LINE
  5
B3A
330
1F
100
AcDbEntity
  8
0
 62
     3
100
AcDbLine
 10
1129.575609780797
 20
211.4732560779799
 30
0.0
 11
1129.575609780797
 21
197.4732560779799
 31
0.0
  0
ARC
  5
B3C
330
1F
100
AcDbEntity
  8
0
 62
     3
100
AcDbCircle
 10
1008.131973320944
 20
204.4732560779799
 30
0.0
 40
7.849999999999997
100
AcDbArc
 50
264.5175184368884
 51
275.4824815631116
  0
LINE
  5
B41
330
1F
100
AcDbEntity
  8
0
 62
     3
100
AcDbLine
 10
1007.381973320944
 20
195.9732560779799
 30
0.0
 11
1006.631973320944
 21
195.9732560779799
 31
0.0
  0
ELLIPSE
  5
B46
330
1F
100
AcDbEntity
  8
0
 62
     3
100
AcDbEllipse
 10
1008.131973320944
 20
205.1732560779799
 30
0.0
 11
0.0
 21
8.549999999999995
 31
0.0
210
0.0
220
0.0
230
1.0
 40
0.9356725146198831
 41
3.330209039765196
 42
4.287694627731815
  0
ARC
  5
B48
330
1F
100
AcDbEntity
  8
0
 62
     3
100
AcDbCircle
 10
1008.131973320944
 20
204.4732560779799
 30
0.0
 40
7.0
100
AcDbArc
 50
209.3229776241404
 51
330.6770223758595
  0
ARC
  5
B51
330
1F
100
AcDbEntity
  8
0
 62
     3
100
AcDbCircle
 10
1008.131973320944
 20
204.4732560779799
 30
0.0
 40
6.0
100
AcDbArc
 50
222.8192280154309
 51
317.180771984569
  0
LINE
  5
B5F
330
1F
100
AcDbEntity
  8
0
 62
     7
100
AcDbLine
 10
1131.325609780797
 20
204.6915181904112
 30
0.0
 11
1129.575609780797
 21
204.6915181904112
 31
0.0
  0
LINE
  5
B60
330
1F
100
AcDbEntity
  8
0
 62
     7
100
AcDbLine
 10
1131.325609780797
 20
204.8229715703314
 30
0.0
 11
1129.575609780797
 21
204.8229715703314
 31
0.0
  0
LINE
  5
B61
330
1F
100
AcDbEntity
  8
0
 62
     7
100
AcDbLine
 10
1131.325609780797
 20
206.7925870763557
 30
0.0
 11
1129.575609780797
 21
206.7925870763557
 31
0.0
  0
LINE
  5
B62
330
1F
100
AcDbEntity
  8
0
  6
CENTER
 62
     7
100
AcDbLine
 10
1117.075609780797
 20
211.47325607798
 30
0.0
 11
1117.075609780797
 21
197.4732560779799
 31
0.0
  0
ARC
  5
B65
330
1F
100
AcDbEntity
  8
0
 62
     3
100
AcDbCircle
 10
1117.075609780797
 20
204.47325607798
 30
0.0
 40
5.99999999999994
100
AcDbArc
 50
77.72768781185776
 51
282.2723121881288
  0
ARC
  5
B6A
330
1F
100
AcDbEntity
  8
0
 62
     3
100
AcDbCircle
 10
1124.350965584075
 20
160.119805862466
 30
0.0
 40
38.95540110849824
100
AcDbArc
 50
82.29234360198969
 51
98.8601047759306
  0
ARC
  5
B6B
330
1F
100
AcDbEntity
  8
0
 62
     3
100
AcDbCircle
 10
1124.350965770198
 20
160.1198088493318
 30
0.0
 40
38.95539812365553
100
AcDbArc
 50
82.29234328407207
 51
98.8601072594878
  0
ARC
  5
B6C
330
1F
100
AcDbEntity
  8
0
 62
     3
100
AcDbCircle
 10
1124.350965770198
 20
248.826703306628
 30
0.0
 40
38.95539812365553
100
AcDbArc
 50
261.1398927405122
 51
277.707656715928
  0
LINE
  5
BBF
330
1F
100
AcDbEntity
  8
0
 62
     3
100
AcDbLine
 10
1146.825609780797
 20
196.4732560779799
 30
0.0
 11
1149.825609780797
 21
196.4732560779799
 31
0.0
  0
LINE
  5
BC0
330
1F
100
AcDbEntity
  8
0
 62
     3
100
AcDbLine
 10
1146.825609780797
 20
184.4732560779799
 30
0.0
 11
1149.825609780797
 21
184.4732560779799
 31
0.0
  0
LINE
  5
BC3
330
1F
100
AcDbEntity
  8
0
 62
     3
100
AcDbLine
 10
1146.825609780797
 20
194.9732560779799
 30
0.0
 11
1146.825609780797
 21
218.0982560779799
 31
0.0
  0
LINE
  5
BC6
330
1F
100
AcDbEntity
  8
0
 62
     3
100
AcDbLine
 10
1142.825609780797
 20
193.9732560779799
 30
0.0
 11
1145.075609780797
 21
193.9732560779799
 31
0.0
  0
LINE
  5
BC7
330
1F
100
AcDbEntity
  8
0
 62
     3
100
AcDbLine
 10
1142.825609780797
 20
186.9732560779799
 30
0.0
 11
1145.075609780797
 21
186.9732560779799
 31
0.0
  0
LINE
  5
BD0
330
1F
100
AcDbEntity
  8
0
 62
     3
100
AcDbLine
 10
1156.325609780797
 20
192.9732560779799
 30
0.0
 11
1156.825609780797
 21
192.9732560779799
 31
0.0
  0
LINE
  5
BD1
330
1F
100
AcDbEntity
  8
0
 62
     3
100
AcDbLine
 10
1156.325609780797
 20
187.9732560779799
 30
0.0
 11
1156.825609780797
 21
187.9732560779799
 31
0.0
  0
LINE
  5
BD3
330
1F
100
AcDbEntity
  8
0
 62
     3
100
AcDbLine
 10
1156.325609780797
 20
187.9732560779799
 30
0.0
 11
1156.325609780797
 21
192.9732560779799
 31
0.0
  0
LINE
  5
BD4
330
1F
100
AcDbEntity
  8
0
 62
     3
100
AcDbLine
 10
1156.825609780797
 20
192.9732560779799
 30
0.0
 11
1156.825609780797
 21
214.34825607798
 31
0.0
  0
LINE
  5
BD5
330
1F
100
AcDbEntity
  8
0
 62
     3
100
AcDbLine
 10
1150.325609780797
 20
195.9732560779799
 30
0.0
 11
1150.325609780797
 21
203.9732560779799
 31
0.0
  0
LINE
  5
BD6
330
1F
100
AcDbEntity
  8
0
 62
     3
100
AcDbLine
 10
1150.325609780797
 20
195.9732560779799
 30
0.0
 11
1156.825609780797
 21
195.9732560779799
 31
0.0
  0
LINE
  5
BD7
330
1F
100
AcDbEntity
  8
0
 62
     3
100
AcDbLine
 10
1150.325609780797
 20
203.9732560779799
 30
0.0
 11
1156.825609780797
 21
203.9732560779799
 31
0.0
  0
LINE
  5
C24
330
1F
100
AcDbEntity
  8
0
 62
     3
100
AcDbLine
 10
1149.825609780797
 20
196.4732560779799
 30
0.0
 11
1149.825609780797
 21
184.4732560779799
 31
0.0
  0
ELLIPSE
  5
C29
330
1F
100
AcDbEntity
  8
0
 62
     3
100
AcDbEllipse
 10
1145.075609780797
 20
190.4732560779799
 30
0.0
 11
0.0
 21
3.5
 31
0.0
210
0.0
220
0.0
230
1.0
 40
0.3571428571428572
 41
3.141592653589792
 42
6.283185307179584
  0
ELLIPSE
  5
C2A
330
1F
100
AcDbEntity
  8
0
 62
     3
100
AcDbEllipse
 10
1145.075609780797
 20
190.4732560779799
 30
0.0
 11
0.0
 21
4.000000000000013
 31
0.0
210
0.0
220
0.0
230
1.0
 40
0.4374999999999984
 41
3.141592653589792
 42
6.283185307179584
  0
LINE
  5
C2B
330
1F
100
AcDbEntity
  8
0
 62
     3
100
AcDbLine
 10
1146.825609780797
 20
216.0982560779799
 30
0.0
 11
1149.825609780797
 21
216.0982560779799
 31
0.0
  0
LINE
  5
C2D
330
1F
100
AcDbEntity
  8
0
 62
     3
100
AcDbLine
 10
1156.825609780797
 20
214.34825607798
 30
0.0
 11
1146.825609780797
 21
214.34825607798
 31
0.0
  0
LINE
  5
C2E
330
1F
100
AcDbEntity
  8
0
 62
     3
100
AcDbLine
 10
1149.825609780797
 20
214.34825607798
 30
0.0
 11
1149.825609780797
 21
216.0982560779799
 31
0.0
  0
LINE
  5
C2F
330
1F
100
AcDbEntity
  8
0
 62
     3
100
AcDbLine
 10
1156.825609780797
 20
165.8482560779799
 30
0.0
 11
1146.825609780797
 21
165.8482560779799
 31
0.0
  0
LINE
  5
C30
330
1F
100
AcDbEntity
  8
0
 62
     3
100
AcDbLine
 10
1146.825609780797
 20
164.8482560779799
 30
0.0
 11
1150.325609780797
 21
164.8482560779799
 31
0.0
  0
LINE
  5
C31
330
1F
100
AcDbEntity
  8
0
 62
     3
100
AcDbLine
 10
1150.325609780797
 20
165.8482560779799
 30
0.0
 11
1150.325609780797
 21
139.9880566440374
 31
0.0
  0
LINE
  5
C32
330
1F
100
AcDbEntity
  8
0
 62
     3
100
AcDbLine
 10
1125.325609780797
 20
178.72325607798
 30
0.0
 11
1125.325609780797
 21
172.47325607798
 31
0.0
  0
LINE
  5
C33
330
1F
100
AcDbEntity
  8
0
  6
CENTER
 62
     7
100
AcDbLine
 10
1144.044721560109
 20
158.22325607798
 30
0.0
 11
1120.606498001485
 21
158.22325607798
 31
0.0
  0
LINE
  5
C34
330
1F
100
AcDbEntity
  8
0
 62
     3
100
AcDbLine
 10
1135.772475236425
 20
172.47325607798
 30
0.0
 11
1125.325609780797
 21
172.47325607798
 31
0.0
  0
LINE
  5
C36
330
1F
100
AcDbEntity
  8
0
 62
     3
100
AcDbLine
 10
1132.831077891548
 20
183.4732560779799
 30
0.0
 11
1125.325609780797
 21
178.72325607798
 31
0.0
  0
LINE
  5
C38
330
1F
100
AcDbEntity
  8
0
 62
     3
100
AcDbLine
 10
1125.325609780797
 20
172.47325607798
 30
0.0
 11
1125.325609780797
 21
170.72325607798
 31
0.0
  0
LINE
  5
C39
330
1F
100
AcDbEntity
  8
0
  6
CENTER
 62
     7
100
AcDbLine
 10
1132.325609780797
 20
167.4698472948952
 30
0.0
 11
1132.325609780797
 21
148.9766648610649
 31
0.0
  0
LINE
  5
C3D
330
1F
100
AcDbEntity
  8
0
 62
     3
100
AcDbLine
 10
1038.131973320944
 20
193.9732560779799
 30
0.0
 11
1035.534356885152
 21
193.9732560779799
 31
0.0
  0
LINE
  5
C3E
330
1F
100
AcDbEntity
  8
0
 62
     3
100
AcDbLine
 10
1038.131973320944
 20
186.9732560779799
 30
0.0
 11
1035.534356885152
 21
186.9732560779799
 31
0.0
  0
ARC
  5
C40
330
1F
100
AcDbEntity
  8
0
 62
     3
100
AcDbCircle
 10
1038.131973320944
 20
190.4732560779799
 30
0.0
 40
3.499999999999943
100
AcDbArc
 50
270.0
 51
90.0
  0
ARC
  5
C43
330
1F
100
AcDbEntity
  8
0
 62
     3
100
AcDbCircle
 10
1038.131973320944
 20
190.4732560779799
 30
0.0
 40
4.5
100
AcDbArc
 50
270.0
 51
90.0
  0
ARC
  5
C9A
330
1F
100
AcDbEntity
  8
0
 62
     3
100
AcDbCircle
 10
1038.131973320944
 20
198.3702155374394
 30
0.0
 40
3.396959459459459
100
AcDbArc
 50
194.7475327226597
 51
270.0
  0
ELLIPSE
  5
C9D
330
1F
100
AcDbEntity
  8
0
 62
     3
100
AcDbEllipse
 10
1145.075609780797
 20
197.5054845016119
 30
0.0
 11
0.0
 21
-3.032228423631906
 31
0.0
210
0.0
220
0.0
230
1.0
 40
0.7420285300620665
 41
4.712388980384688
 42
6.283185307179584
  0
ELLIPSE
  5
C9F
330
1F
100
AcDbEntity
  8
0
 62
     3
100
AcDbEllipse
 10
1145.075609780797
 20
183.4410276543479
 30
0.0
 11
-0.0000000000000246
 21
3.032228423631906
 31
0.0
210
0.0
220
0.0
230
-1.0
 40
0.7420285300620665
 41
4.712388980384688
 42
6.283185307179584
  0
ARC
  5
CA6
330
1F
100
AcDbEntity
  8
0
 62
     3
100
AcDbCircle
 10
1038.131973320944
 20
182.5762966185205
 30
0.0
 40
3.396959459459459
100
AcDbArc
 50
90.0
 51
165.2524672773401
  0
LINE
  5
CA7
330
1F
100
AcDbEntity
  8
0
 62
     3
100
AcDbLine
 10
978.1319733209443
 20
193.9732560779799
 30
0.0
 11
980.729589756736
 21
193.9732560779799
 31
0.0
  0
LINE
  5
CA8
330
1F
100
AcDbEntity
  8
0
 62
     3
100
AcDbLine
 10
978.1319733209443
 20
186.9732560779799
 30
0.0
 11
980.729589756736
 21
186.9732560779799
 31
0.0
  0
ARC
  5
CA9
330
1F
100
AcDbEntity
  8
0
 62
     3
100
AcDbCircle
 10
978.1319733209443
 20
190.4732560779799
 30
0.0
 40
3.499999999999943
100
AcDbArc
 50
90.0
 51
270.0
  0
ARC
  5
CAA
330
1F
100
AcDbEntity
  8
0
 62
     3
100
AcDbCircle
 10
978.1319733209443
 20
190.4732560779799
 30
0.0
 40
4.5
100
AcDbArc
 50
90.0
 51
270.0
  0
ARC
  5
CAB
330
1F
100
AcDbEntity
  8
0
 62
     3
100
AcDbCircle
 10
978.1319733209443
 20
198.3702155374394
 30
0.0
 40
3.396959459459459
100
AcDbArc
 50
270.0
 51
345.2524672773417
  0
ARC
  5
CAC
330
1F
100
AcDbEntity
  8
0
 62
     3
100
AcDbCircle
 10
978.1319733209443
 20
182.5762966185205
 30
0.0
 40
3.396959459459459
100
AcDbArc
 50
14.74753272265835
 51
90.0
  0
LINE
  5
CAE
330
1F
100
AcDbEntity
  8
0
 62
     3
100
AcDbLine
 10
999.6319733209443
 20
172.47325607798
 30
0.0
 11
1016.631973320944
 21
172.47325607798
 31
0.0
  0
LINE
  5
CB3
330
1F
100
AcDbEntity
  8
0
 62
     3
100
AcDbLine
 10
999.6319733209443
 20
172.47325607798
 30
0.0
 11
1000.631973320944
 21
183.4732560779799
 31
0.0
  0
LINE
  5
CB4
330
1F
100
AcDbEntity
  8
0
 62
     3
100
AcDbLine
 10
1000.631973320944
 20
183.4732560779799
 30
0.0
 11
1015.631973320944
 21
183.4732560779799
 31
0.0
  0
LINE
  5
CB5
330
1F
100
AcDbEntity
  8
0
 62
     3
100
AcDbLine
 10
1015.631973320944
 20
183.4732560779799
 30
0.0
 11
1016.631973320944
 21
172.47325607798
 31
0.0
  0
LINE
  5
CB9
330
1F
100
AcDbEntity
  8
0
 62
     3
100
AcDbLine
 10
1015.131973320944
 20
171.3507951243632
 30
0.0
 11
1015.131973320944
 21
172.47325607798
 31
0.0
  0
LINE
  5
CBA
330
1F
100
AcDbEntity
  8
0
 62
     3
100
AcDbLine
 10
1001.131973320944
 20
172.47325607798
 30
0.0
 11
1001.131973320944
 21
171.3507951243631
 31
0.0
  0
ELLIPSE
  5
CBB
330
1F
100
AcDbEntity
  8
0
 62
     3
100
AcDbEllipse
 10
1008.131973320944
 20
182.5204875869879
 30
0.0
 11
7.0
 21
0.0
 31
0.0
210
0.0
220
0.0
230
1.0
 40
0.5424616441439777
 41
3.342078354846398
 42
6.08269960592295
  0
LINE
  5
CBC
330
1F
100
AcDbEntity
  8
0
 62
     3
100
AcDbLine
 10
1015.631973320944
 20
183.4732560779799
 30
0.0
 11
1014.991763099042
 21
181.764286676769
 31
0.0
  0
LINE
  5
CBD
330
1F
100
AcDbEntity
  8
0
 62
     3
100
AcDbLine
 10
1000.631973320944
 20
183.4732560779799
 30
0.0
 11
1001.272183542846
 21
181.764286676769
 31
0.0
  0
LINE
  5
CCD
330
1F
100
AcDbEntity
  8
0
 62
     3
100
AcDbLine
 10
1125.325609780797
 20
170.72325607798
 30
0.0
 11
1136.508006354233
 21
170.72325607798
 31
0.0
  0
LINE
  5
CCE
330
1F
100
AcDbEntity
  8
0
 62
     7
100
AcDbLine
 10
1132.107347668366
 20
172.47325607798
 30
0.0
 11
1132.107347668366
 21
170.72325607798
 31
0.0
  0
LINE
  5
CCF
330
1F
100
AcDbEntity
  8
0
 62
     7
100
AcDbLine
 10
1131.975894288445
 20
172.47325607798
 30
0.0
 11
1131.975894288445
 21
170.72325607798
 31
0.0
  0
LINE
  5
CD0
330
1F
100
AcDbEntity
  8
0
 62
     7
100
AcDbLine
 10
1130.00627878242
 20
172.47325607798
 30
0.0
 11
1130.00627878242
 21
170.72325607798
 31
0.0
  0
ARC
  5
CD1
330
1F
100
AcDbEntity
  8
0
 62
     3
100
AcDbCircle
 10
1132.325609780797
 20
158.22325607798
 30
0.0
 40
5.99999999999994
100
AcDbArc
 50
167.7276878118549
 51
12.2723121881148
  0
ARC
  5
CD2
330
1F
100
AcDbEntity
  8
0
 62
     3
100
AcDbCircle
 10
1176.67905999631
 20
165.4986118812578
 30
0.0
 40
38.95540110849824
100
AcDbArc
 50
176.2830467852838
 51
188.8601047759309
  0
ARC
  5
CD3
330
1F
100
AcDbEntity
  8
0
 62
     3
100
AcDbCircle
 10
1176.679057009445
 20
165.4986120673813
 30
0.0
 40
38.95539812365553
100
AcDbArc
 50
176.2830467546732
 51
188.8601072594869
  0
ARC
  5
CD4
330
1F
100
AcDbEntity
  8
0
 62
     3
100
AcDbCircle
 10
1087.972162552149
 20
165.4986120673813
 30
0.0
 40
38.95539812365553
100
AcDbArc
 50
351.1398927405132
 51
7.707656715940242
  0
LINE
  5
CD9
330
1F
100
AcDbEntity
  8
0
 62
     3
100
AcDbLine
 10
1077.325609780797
 20
221.9732560779799
 30
0.0
 11
1077.325609780797
 21
206.9732560779798
 31
0.0
  0
LINE
  5
CDA
330
1F
100
AcDbEntity
  8
0
 62
     3
100
AcDbLine
 10
1082.325609780797
 20
229.2232560779799
 30
0.0
 11
1082.325609780797
 21
199.7232560779799
 31
0.0
  0
LINE
  5
CDB
330
1F
100
AcDbEntity
  8
0
 62
     3
100
AcDbLine
 10
1080.575609780797
 20
229.2232560779799
 30
0.0
 11
1080.575609780797
 21
199.7232560779799
 31
0.0
  0
LINE
  5
CDE
330
1F
100
AcDbEntity
  8
0
 62
     3
100
AcDbLine
 10
1112.825609780797
 20
224.4732560779799
 30
0.0
 11
1082.325609780797
 21
227.4732560779799
 31
0.0
  0
LINE
  5
CDF
330
1F
100
AcDbEntity
  8
0
 62
     3
100
AcDbLine
 10
1111.07807243623
 20
204.3013671588421
 30
0.0
 11
1082.325609780797
 21
201.4732560779799
 31
0.0
  0
LINE
  5
CE2
330
1F
100
AcDbEntity
  8
0
 62
     3
100
AcDbLine
 10
1112.825609780797
 20
208.7085246645043
 30
0.0
 11
1112.825609780797
 21
224.4732560779799
 31
0.0
  0
CIRCLE
  5
CE3
330
1F
100
AcDbEntity
  8
0
 62
     3
100
AcDbCircle
 10
1008.131973320944
 20
214.4732560779799
 30
0.0
 40
13.35
  0
LINE
  5
CE4
330
1F
100
AcDbEntity
  8
0
 62
     3
100
AcDbLine
 10
1080.575609780797
 20
227.8232560779799
 30
0.0
 11
1080.325609780797
 21
227.8232560779799
 31
0.0
  0
LINE
  5
CE5
330
1F
100
AcDbEntity
  8
0
 62
     3
100
AcDbLine
 10
1080.575609780797
 20
201.1232560779799
 30
0.0
 11
1080.325609780797
 21
201.1232560779799
 31
0.0
  0
LINE
  5
CE6
330
1F
100
AcDbEntity
  8
0
 62
     3
100
AcDbLine
 10
1082.325609780797
 20
229.2232560779799
 30
0.0
 11
1080.575609780797
 21
229.2232560779799
 31
0.0
  0
LINE
  5
CE7
330
1F
100
AcDbEntity
  8
0
 62
     3
100
AcDbLine
 10
1082.325609780797
 20
199.7232560779799
 30
0.0
 11
1080.575609780797
 21
199.7232560779799
 31
0.0
  0
LINE
  5
CEA
330
1F
100
AcDbEntity
  8
0
 62
     7
100
AcDbLine
 10
1080.325609780797
 20
227.8232560779799
 30
0.0
 11
1080.325609780797
 21
201.1232560779799
 31
0.0
  0
ARC
  5
CEB
330
1F
100
AcDbEntity
  8
0
 62
     3
100
AcDbCircle
 10
1099.154359780797
 20
214.4732560779799
 30
0.0
 40
23.08125487408532
100
AcDbArc
 50
144.6625162903161
 51
161.0381203141228
  0
ARC
  5
CEC
330
1F
100
AcDbEntity
  8
0
 62
     3
100
AcDbCircle
 10
1099.154359780797
 20
214.4732560779799
 30
0.0
 40
23.08125487408532
100
AcDbArc
 50
198.9618796858771
 51
215.3374837096838
  0
CIRCLE
  5
CED
330
1F
100
AcDbEntity
  8
0
 62
     3
100
AcDbCircle
 10
1008.131973320944
 20
214.4732560779799
 30
0.0
 40
7.5
  0
CIRCLE
  5
CF0
330
1F
100
AcDbEntity
  8
0
 62
     3
100
AcDbCircle
 10
1008.131973320944
 20
214.4732560779799
 30
0.0
 40
14.75
  0
LINE
  5
CF2
330
1F
100
AcDbEntity
  8
0
 62
     7
100
AcDbLine
 10
1125.825609780797
 20
163.22325607798
 30
0.0
 11
1125.825609780797
 21
153.22325607798
 31
0.0
  0
LINE
  5
CF3
330
1F
100
AcDbEntity
  8
0
 62
     3
100
AcDbLine
 10
1125.325609780797
 20
170.47325607798
 30
0.0
 11
1125.325609780797
 21
149.97325607798
 31
0.0
  0
LINE
  5
D00
330
1F
100
AcDbEntity
  8
0
 62
     3
100
AcDbLine
 10
1126.757845417967
 20
163.22325607798
 30
0.0
 11
1125.325609780797
 21
163.22325607798
 31
0.0
  0
LINE
  5
D01
330
1F
100
AcDbEntity
  8
0
 62
     7
100
AcDbLine
 10
1126.757845417967
 20
153.22325607798
 30
0.0
 11
1125.325609780797
 21
153.22325607798
 31
0.0
  0
ARC
  5
D04
330
1F
100
AcDbEntity
  8
0
 62
     3
100
AcDbCircle
 10
1126.757845417967
 20
143.22325607798
 30
0.0
 40
10.0
100
AcDbArc
 50
69.63586519368373
 51
90.0
  0
ARC
  5
D05
330
1F
100
AcDbEntity
  8
0
 62
     3
100
AcDbCircle
 10
1126.757845417967
 20
173.22325607798
 30
0.0
 40
10.0
100
AcDbArc
 50
270.0
 51
270.5915248677468
  0
ARC
  5
D0D
330
1F
100
AcDbEntity
  8
0
 62
     3
100
AcDbCircle
 10
1118.325609780796
 20
146.4732560779783
 30
0.0
 40
25.00000000000174
100
AcDbArc
 50
73.73979529168967
 51
90.0
  0
LINE
  5
D0E
330
1F
100
AcDbEntity
  8
0
 62
     3
100
AcDbLine
 10
1118.325609780796
 20
145.97325607798
 30
0.0
 11
1095.075609780796
 21
145.97325607798
 31
0.0
  0
LINE
  5
D0F
330
1F
100
AcDbEntity
  8
0
 62
     3
100
AcDbLine
 10
1118.325609780796
 20
145.97325607798
 30
0.0
 11
1125.325609780797
 21
149.97325607798
 31
0.0
  0
ARC
  5
D10
330
1F
100
AcDbEntity
  8
0
 62
     3
100
AcDbCircle
 10
1118.325609780796
 20
146.4732560779783
 30
0.0
 40
24.25000000000173
100
AcDbArc
 50
73.2222631626529
 51
90.0
  0
LINE
  5
D12
330
1F
100
AcDbEntity
  8
0
 62
     3
100
AcDbLine
 10
1095.075609780796
 20
167.47325607798
 30
0.0
 11
1095.075609780796
 21
161.72325607798
 31
0.0
  0
LINE
  5
D13
330
1F
100
AcDbEntity
  8
0
 62
     3
100
AcDbLine
 10
1108.825609780797
 20
149.22325607798
 30
0.0
 11
1095.075609780796
 21
149.22325607798
 31
0.0
  0
LINE
  5
D14
330
1F
100
AcDbEntity
  8
0
 62
     3
100
AcDbLine
 10
1108.825609780797
 20
161.72325607798
 30
0.0
 11
1108.825609780797
 21
149.22325607798
 31
0.0
  0
LINE
  5
D15
330
1F
100
AcDbEntity
  8
0
 62
     3
100
AcDbLine
 10
1108.825609780797
 20
161.72325607798
 30
0.0
 11
1095.075609780796
 21
161.72325607798
 31
0.0
  0
LINE
  5
D16
330
1F
100
AcDbEntity
  8
0
 62
     3
100
AcDbLine
 10
1096.575609780797
 20
161.72325607798
 30
0.0
 11
1096.575609780797
 21
149.22325607798
 31
0.0
  0
LINE
  5
D18
330
1F
100
AcDbEntity
  8
0
 62
     3
100
AcDbLine
 10
1095.075609780796
 20
149.22325607798
 30
0.0
 11
1095.075609780796
 21
145.97325607798
 31
0.0
  0
LINE
  5
D1C
330
1F
100
AcDbEntity
  8
0
 62
     3
100
AcDbLine
 10
1125.325609780797
 20
164.72325607798
 30
0.0
 11
1095.075609780796
 21
164.72325607798
 31
0.0
  0
LINE
  5
D1D
330
1F
100
AcDbEntity
  8
0
 62
     3
100
AcDbLine
 10
1125.325609780797
 20
164.97325607798
 30
0.0
 11
1095.075609780796
 21
164.97325607798
 31
0.0
  0
ARC
  5
D25
330
1F
100
AcDbEntity
  8
0
 62
     3
100
AcDbCircle
 10
1118.325609780796
 20
40.83039893512374
 30
0.0
 40
129.8928571428562
100
AcDbArc
 50
90.0
 51
99.41570448874252
  0
LINE
  5
D26
330
1F
100
AcDbEntity
  8
0
 62
     3
100
AcDbLine
 10
1097.075609780797
 20
168.97325607798
 30
0.0
 11
1095.075609780796
 21
167.47325607798
 31
0.0
  0
ARC
  5
D27
330
1F
100
AcDbEntity
  8
0
 62
     3
100
AcDbCircle
 10
1116.325609780797
 20
39.33039893512378
 30
0.0
 40
129.8928571428562
100
AcDbArc
 50
89.11776451863294
 51
99.41570448874252
  0
ARC
  5
D28
330
1F
100
AcDbEntity
  8
0
 62
     3
100
AcDbCircle
 10
1118.325609780796
 20
144.9578578598118
 30
0.0
 40
24.25000000000173
100
AcDbArc
 50
81.70152306351985
 51
90.0
  0
ARC
  5
D2B
330
1F
100
AcDbEntity
  8
0
 62
     3
100
AcDbCircle
 10
1122.190059676066
 20
171.6420898429845
 30
0.0
 40
2.712731574658215
100
AcDbArc
 50
262.2790839566603
 51
321.9276191159754
  0
ARC
  5
D2C
330
1F
100
AcDbEntity
  8
0
 62
     3
100
AcDbCircle
 10
1116.930675300999
 20
91.87050332202607
 30
0.0
 40
79.61497402202967
100
AcDbArc
 50
88.99606890308312
 51
99.27208009775732
  0
LINE
  5
D2F
330
1F
100
AcDbEntity
  8
0
 62
     3
100
AcDbLine
 10
1104.10287878025
 20
170.4452557871197
 30
0.0
 11
1103.325609780797
 21
169.8542507484007
 31
0.0
  0
LINE
  5
D30
330
1F
100
AcDbEntity
  8
0
  6
CENTER
 62
     7
100
AcDbLine
 10
1125.152241659743
 20
204.47325607798
 30
0.0
 11
1108.998977901851
 21
204.47325607798
 31
0.0
  0
LINE
  5
D35
330
1F
100
AcDbEntity
  8
0
 62
     7
100
AcDbLine
 10
1132.825609780797
 20
167.7232560779798
 30
0.0
 11
1132.825609780797
 21
161.2232560779801
 31
0.0
  0
LINE
  5
D36
330
1F
100
AcDbEntity
  8
0
 62
     7
100
AcDbLine
 10
1131.825609780797
 20
167.7232560779798
 30
0.0
 11
1131.825609780797
 21
161.2232560779801
 31
0.0
  0
LINE
  5
D37
330
1F
100
AcDbEntity
  8
0
 62
     7
100
AcDbLine
 10
1126.575609780797
 20
203.97325607798
 30
0.0
 11
1120.075609780797
 21
203.97325607798
 31
0.0
  0
LINE
  5
D38
330
1F
100
AcDbEntity
  8
0
 62
     7
100
AcDbLine
 10
1126.575609780797
 20
204.97325607798
 30
0.0
 11
1120.075609780797
 21
204.97325607798
 31
0.0
  0
LINE
  5
D39
330
1F
100
AcDbEntity
  8
0
 62
     7
100
AcDbLine
 10
1134.225609780797
 20
167.7232560779802
 30
0.0
 11
1134.225609780797
 21
161.2232560779798
 31
0.0
  0
LINE
  5
D3A
330
1F
100
AcDbEntity
  8
0
 62
     7
100
AcDbLine
 10
1130.425609780797
 20
167.7232560779799
 30
0.0
 11
1130.425609780797
 21
161.2232560779801
 31
0.0
  0
LINE
  5
D3B
330
1F
100
AcDbEntity
  8
0
 62
     7
100
AcDbLine
 10
1126.575609780797
 20
206.37325607798
 30
0.0
 11
1120.075609780797
 21
206.37325607798
 31
0.0
  0
LINE
  5
D3C
330
1F
100
AcDbEntity
  8
0
 62
     7
100
AcDbLine
 10
1126.575609780797
 20
202.57325607798
 30
0.0
 11
1120.075609780797
 21
202.57325607798
 31
0.0
  0
LINE
  5
D3D
330
1F
100
AcDbEntity
  8
0
 62
     7
100
AcDbLine
 10
1126.575609780797
 20
207.37325607798
 30
0.0
 11
1120.075609780797
 21
207.37325607798
 31
0.0
  0
LINE
  5
D3E
330
1F
100
AcDbEntity
  8
0
 62
     7
100
AcDbLine
 10
1126.575609780797
 20
201.57325607798
 30
0.0
 11
1120.075609780797
 21
201.57325607798
 31
0.0
  0
LINE
  5
D3F
330
1F
100
AcDbEntity
  8
0
 62
     7
100
AcDbLine
 10
1135.225609780797
 20
167.7232560779802
 30
0.0
 11
1135.225609780797
 21
161.2232560779798
 31
0.0
  0
LINE
  5
D40
330
1F
100
AcDbEntity
  8
0
 62
     7
100
AcDbLine
 10
1129.425609780797
 20
167.7232560779799
 30
0.0
 11
1129.425609780796
 21
161.2232560779801
 31
0.0
  0
ARC
  5
D41
330
1F
100
AcDbEntity
  8
0
 62
     7
100
AcDbCircle
 10
1126.575609780797
 20
206.8732560779801
 30
0.0
 40
0.4999999999999122
100
AcDbArc
 50
270.0
 51
90.0
  0
ARC
  5
D42
330
1F
100
AcDbEntity
  8
0
 62
     7
100
AcDbCircle
 10
1126.575609780797
 20
204.47325607798
 30
0.0
 40
0.5000000000000126
100
AcDbArc
 50
270.0
 51
90.0
  0
ARC
  5
D43
330
1F
100
AcDbEntity
  8
0
 62
     7
100
AcDbCircle
 10
1126.575609780797
 20
202.07325607798
 30
0.0
 40
0.5000000000000126
100
AcDbArc
 50
270.0
 51
90.0
  0
ARC
  5
D44
330
1F
100
AcDbEntity
  8
0
 62
     7
100
AcDbCircle
 10
1120.075609780797
 20
206.87325607798
 30
0.0
 40
0.5000000000000378
100
AcDbArc
 50
90.0
 51
270.0
  0
ARC
  5
D45
330
1F
100
AcDbEntity
  8
0
 62
     7
100
AcDbCircle
 10
1120.075609780797
 20
204.47325607798
 30
0.0
 40
0.5000000000000126
100
AcDbArc
 50
90.0
 51
270.0
  0
ARC
  5
D46
330
1F
100
AcDbEntity
  8
0
 62
     7
100
AcDbCircle
 10
1120.075609780797
 20
202.07325607798
 30
0.0
 40
0.5000000000000126
100
AcDbArc
 50
90.0
 51
270.0
  0
ARC
  5
D47
330
1F
100
AcDbEntity
  8
0
 62
     7
100
AcDbCircle
 10
1134.725609780797
 20
167.7232560779802
 30
0.0
 40
0.4999999999999613
100
AcDbArc
 50
0.0
 51
180.0
  0
ARC
  5
D48
330
1F
100
AcDbEntity
  8
0
 62
     7
100
AcDbCircle
 10
1132.325609780797
 20
167.7232560779798
 30
0.0
 40
0.4999999999999613
100
AcDbArc
 50
0.0
 51
180.0
  0
ARC
  5
D49
330
1F
100
AcDbEntity
  8
0
 62
     7
100
AcDbCircle
 10
1129.925609780797
 20
167.7232560779799
 30
0.0
 40
0.4999999999999613
100
AcDbArc
 50
0.0
 51
180.0
  0
ARC
  5
D4A
330
1F
100
AcDbEntity
  8
0
 62
     7
100
AcDbCircle
 10
1134.725609780797
 20
161.2232560779798
 30
0.0
 40
0.4999999999999613
100
AcDbArc
 50
180.0
 51
0.0
  0
ARC
  5
D4B
330
1F
100
AcDbEntity
  8
0
 62
     7
100
AcDbCircle
 10
1132.325609780797
 20
161.2232560779801
 30
0.0
 40
0.4999999999999613
100
AcDbArc
 50
180.0
 51
0.0
  0
ARC
  5
D4C
330
1F
100
AcDbEntity
  8
0
 62
     7
100
AcDbCircle
 10
1129.925609780797
 20
161.2232560779801
 30
0.0
 40
0.4999999999999613
100
AcDbArc
 50
180.0
 51
0.0
  0
LINE
  5
D4D
330
1F
100
AcDbEntity
  8
0
 62
     3
100
AcDbLine
 10
1021.131973320944
 20
161.72325607798
 30
0.0
 11
995.1319733209443
 21
161.72325607798
 31
0.0
  0
LINE
  5
D4E
330
1F
100
AcDbEntity
  8
0
 62
     3
100
AcDbLine
 10
1021.131973320944
 20
149.22325607798
 30
0.0
 11
995.1319733209443
 21
149.22325607798
 31
0.0
  0
LINE
  5
D4F
330
1F
100
AcDbEntity
  8
0
 62
     3
100
AcDbLine
 10
1019.631973320944
 20
161.72325607798
 30
0.0
 11
1019.631973320944
 21
149.22325607798
 31
0.0
  0
LINE
  5
D50
330
1F
100
AcDbEntity
  8
0
 62
     3
100
AcDbLine
 10
996.6319733209443
 20
161.72325607798
 30
0.0
 11
996.6319733209443
 21
149.22325607798
 31
0.0
  0
LINE
  5
D51
330
1F
100
AcDbEntity
  8
0
 62
     3
100
AcDbLine
 10
1021.131973320944
 20
161.72325607798
 30
0.0
 11
1021.131973320944
 21
149.22325607798
 31
0.0
  0
LINE
  5
D52
330
1F
100
AcDbEntity
  8
0
 62
     3
100
AcDbLine
 10
995.1319733209443
 20
161.72325607798
 30
0.0
 11
995.1319733209443
 21
149.22325607798
 31
0.0
  0
LINE
  5
D53
330
1F
100
AcDbEntity
  8
0
 62
     3
100
AcDbLine
 10
992.8819733209444
 20
164.72325607798
 30
0.0
 11
1023.381973320944
 21
164.72325607798
 31
0.0
  0
LINE
  5
D54
330
1F
100
AcDbEntity
  8
0
 62
     3
100
AcDbLine
 10
992.8819733209444
 20
164.97325607798
 30
0.0
 11
1023.381973320944
 21
164.97325607798
 31
0.0
  0
LINE
  5
D55
330
1F
100
AcDbEntity
  8
0
 62
     3
100
AcDbLine
 10
1023.381973320944
 20
147.97325607798
 30
0.0
 11
1023.381973320944
 21
169.2078578598135
 31
0.0
  0
LINE
  5
D56
330
1F
100
AcDbEntity
  8
0
 62
     3
100
AcDbLine
 10
992.8819733209444
 20
147.97325607798
 30
0.0
 11
992.8819733209444
 21
169.2078578598135
 31
0.0
  0
LINE
  5
D5C
330
1F
100
AcDbEntity
  8
0
 62
     3
100
AcDbLine
 10
1023.381973320944
 20
147.97325607798
 30
0.0
 11
1022.800900731804
 21
146.47325607798
 31
0.0
  0
LINE
  5
D5D
330
1F
100
AcDbEntity
  8
0
 62
     3
100
AcDbLine
 10
992.8819733209444
 20
147.97325607798
 30
0.0
 11
993.4630459100846
 21
146.47325607798
 31
0.0
  0
ARC
  5
D61
330
1F
100
AcDbEntity
  8
0
 62
     3
100
AcDbCircle
 10
1008.131973320944
 20
235.3768365448857
 30
0.0
 40
67.90358046690568
100
AcDbArc
 50
257.0216328956199
 51
282.9783671043801
  0
ARC
  5
D66
330
1F
100
AcDbEntity
  8
0
 62
     3
100
AcDbCircle
 10
1008.131973320944
 20
216.2946846494081
 30
0.0
 40
47.3214285714281
100
AcDbArc
 50
254.3694129064632
 51
285.6305870935368
  0
LINE
  5
D67
330
1F
100
AcDbEntity
  8
0
 62
     3
100
AcDbLine
 10
1020.881973320944
 20
170.72325607798
 30
0.0
 11
1023.381973320944
 21
169.2078578598135
 31
0.0
  0
LINE
  5
D68
330
1F
100
AcDbEntity
  8
0
 62
     3
100
AcDbLine
 10
995.3819733209442
 20
170.72325607798
 30
0.0
 11
992.8819733209444
 21
169.2078578598135
 31
0.0
  0
ARC
  5
D6D
330
1F
100
AcDbEntity
  8
0
 62
     3
100
AcDbCircle
 10
1008.131973320944
 20
239.9085795991747
 30
0.0
 40
70.05432885077397
100
AcDbArc
 50
260.9659741553275
 51
279.0340258446725
  0
LINE
  5
D6E
330
1F
100
AcDbEntity
  8
0
 62
     3
100
AcDbLine
 10
1019.131973320944
 20
170.72325607798
 30
0.0
 11
1020.881973320944
 21
170.72325607798
 31
0.0
  0
LINE
  5
D6F
330
1F
100
AcDbEntity
  8
0
 62
     3
100
AcDbLine
 10
997.1319733209442
 20
170.72325607798
 30
0.0
 11
995.3819733209442
 21
170.72325607798
 31
0.0
  0
ARC
  5
D74
330
1F
100
AcDbEntity
  8
0
 62
     3
100
AcDbCircle
 10
1008.131973320944
 20
235.1015840908828
 30
0.0
 40
64.65632830376309
100
AcDbArc
 50
261.1026958241222
 51
278.8973041758777
  0
LINE
  5
D75
330
1F
100
AcDbEntity
  8
0
 62
     3
100
AcDbLine
 10
1018.131973320944
 20
171.2232560779801
 30
0.0
 11
1019.131973320944
 21
170.72325607798
 31
0.0
  0
LINE
  5
D76
330
1F
100
AcDbEntity
  8
0
 62
     3
100
AcDbLine
 10
998.1319733209444
 20
171.22325607798
 30
0.0
 11
997.1319733209442
 21
170.72325607798
 31
0.0
  0
ARC
  5
D79
330
1F
100
AcDbEntity
  8
0
 62
     3
100
AcDbCircle
 10
1008.131973320945
 20
-28.65174392204449
 30
0.0
 40
200.1250000000245
100
AcDbArc
 50
87.1358076316762
 51
92.86419236832379
  0
ARC
  5
D7D
330
1F
100
AcDbEntity
  8
0
 62
     3
100
AcDbCircle
 10
1008.131973320944
 20
361.3863366926597
 30
0.0
 40
215.4131139245633
100
AcDbArc
 50
266.0953233586006
 51
273.9046766413994
  0
LINE
  5
D7E
330
1F
100
AcDbEntity
  8
0
 62
     3
100
AcDbLine
 10
1118.325609780796
 20
146.47325607798
 30
0.0
 11
1095.075609780796
 21
146.47325607798
 31
0.0
  0
LINE
  5
D7F
330
1F
100
AcDbEntity
  8
0
 62
     3
100
AcDbLine
 10
1118.325609780796
 20
146.47325607798
 30
0.0
 11
1125.325609780797
 21
150.47325607798
 31
0.0
  0
LINE
  5
D80
330
1F
100
AcDbEntity
  8
0
 62
     3
100
AcDbLine
 10
1118.325609780796
 20
146.47325607798
 30
0.0
 11
1118.325609780796
 21
145.97325607798
 31
0.0
  0
ARC
  5
D83
330
1F
100
AcDbEntity
  8
0
 62
     3
100
AcDbCircle
 10
1118.325609780796
 20
146.4732560779783
 30
0.0
 40
24.75000000000174
100
AcDbArc
 50
73.73979529168967
 51
90.0
  0
ARC
  5
D84
330
1F
100
AcDbEntity
  8
0
 62
     3
100
AcDbCircle
 10
1118.325609780796
 20
40.83039893512374
 30
0.0
 40
130.3928571428562
100
AcDbArc
 50
90.0
 51
96.26205364397449
  0
ARC
  5
D88
330
1F
100
AcDbEntity
  8
0
 62
     3
100
AcDbCircle
 10
1008.131973320944
 20
190.4732560779799
 30
0.0
 40
27.625
100
AcDbArc
 50
122.2384159989592
 51
236.4931828138319
  0
ARC
  5
D89
330
1F
100
AcDbEntity
  8
0
 62
     3
100
AcDbCircle
 10
1008.131973320944
 20
190.4732560779799
 30
0.0
 40
26.75
100
AcDbArc
 50
123.2330211997412
 51
235.2432568829243
  0
ELLIPSE
  5
D8A
330
1F
100
AcDbEntity
  8
0
 62
     3
100
AcDbEllipse
 10
1008.131973320944
 20
205.1732560779799
 30
0.0
 11
0.0
 21
8.549999999999995
 31
0.0
210
0.0
220
0.0
230
1.0
 40
0.9356725146198831
 41
8.278675986627369
 42
9.236161574593976
  0
LINE
  5
D8B
330
1F
100
AcDbEntity
  8
0
 62
     3
100
AcDbLine
 10
1151.825609780797
 20
197.4732560779799
 30
0.0
 11
1153.825609780797
 21
197.4732560779799
 31
0.0
  0
LINE
  5
D8D
330
1F
100
AcDbEntity
  8
0
 62
     3
100
AcDbLine
 10
1151.825609780797
 20
202.9732560779799
 30
0.0
 11
1153.825609780797
 21
202.9732560779799
 31
0.0
  0
LINE
  5
D8E
330
1F
100
AcDbEntity
  8
0
 62
     3
100
AcDbLine
 10
1153.825609780797
 20
197.4732560779799
 30
0.0
 11
1153.825609780797
 21
198.7871154163451
 31
0.0
  0
LINE
  5
D8F
330
1F
100
AcDbEntity
  8
0
 62
     3
100
AcDbLine
 10
1151.825609780797
 20
197.4732560779799
 30
0.0
 11
1151.825609780797
 21
198.7871154163456
 31
0.0
  0
ARC
  5
D91
330
1F
100
AcDbEntity
  8
0
 62
     3
100
AcDbCircle
 10
1152.825609780797
 20
200.2232560779799
 30
0.0
 40
1.75
100
AcDbArc
 50
124.8499045790536
 51
235.1500954209464
  0
ARC
  5
D92
330
1F
100
AcDbEntity
  8
0
 62
     3
100
AcDbCircle
 10
1152.825609780797
 20
200.2232560779799
 30
0.0
 40
1.75
100
AcDbArc
 50
304.8499045790373
 51
55.15009542096258
  0
LINE
  5
D93
330
1F
100
AcDbEntity
  8
0
 62
     3
100
AcDbLine
 10
1151.825609780797
 20
201.6593967396142
 30
0.0
 11
1151.825609780797
 21
202.9732560779799
 31
0.0
  0
LINE
  5
D94
330
1F
100
AcDbEntity
  8
0
 62
     3
100
AcDbLine
 10
1153.825609780797
 20
201.6593967396147
 30
0.0
 11
1153.825609780797
 21
202.9732560779799
 31
0.0
  0
LINE
  5
DCB
330
1F
100
AcDbEntity
  8
0
 62
     7
100
AcDbLine
 10
993.4630459100846
 20
287.5744013972767
 30
0.0
 11
1022.800900731804
 21
287.5744013972767
 31
0.0
  0
LINE
  5
DCC
330
1F
100
AcDbEntity
  8
0
 62
     3
100
AcDbLine
 10
1019.881973320944
 20
280.5744013972767
 30
0.0
 11
996.3819733209444
 21
280.5744013972767
 31
0.0
  0
ARC
  5
DCE
330
1F
100
AcDbEntity
  8
0
 62
     3
100
AcDbCircle
 10
1019.881973320944
 20
284.0744013972767
 30
0.0
 40
3.5
100
AcDbArc
 50
270.0
 51
10.34518907031274
  0
ARC
  5
DCF
330
1F
100
AcDbEntity
  8
0
 62
     3
100
AcDbCircle
 10
996.3819733209444
 20
284.0744013972767
 30
0.0
 40
3.5
100
AcDbArc
 50
169.6548109296872
 51
270.0
  0
ARC
  5
DD1
330
1F
100
AcDbEntity
  8
0
 62
     3
100
AcDbCircle
 10
1008.131973320944
 20
298.3244013972767
 30
0.0
 40
12.5
100
AcDbArc
 50
10.34518907031274
 51
169.6548109296872
  0
LINE
  5
DD2
330
1F
100
AcDbEntity
  8
0
 62
     3
100
AcDbLine
 10
1020.42876970816
 20
300.5691282428758
 30
0.0
 11
1023.325076309364
 21
284.7029249140444
 31
0.0
  0
LINE
  5
DD3
330
1F
100
AcDbEntity
  8
0
 62
     3
100
AcDbLine
 10
995.8351769337282
 20
300.5691282428758
 30
0.0
 11
992.9388703325239
 21
284.7029249140444
 31
0.0
  0
LINE
  5
DD6
330
1F
100
AcDbEntity
  8
0
 62
     3
100
AcDbLine
 10
1007.881973320944
 20
307.3244013972767
 30
0.0
 11
1006.981973320944
 21
307.3244013972767
 31
0.0
  0
LINE
  5
DD7
330
1F
100
AcDbEntity
  8
0
 62
     3
100
AcDbLine
 10
1009.281973320944
 20
305.3244013972767
 30
0.0
 11
1009.281973320944
 21
307.3244013972767
 31
0.0
  0
LINE
  5
DD8
330
1F
100
AcDbEntity
  8
0
 62
     3
100
AcDbLine
 10
1006.981973320944
 20
307.3244013972767
 30
0.0
 11
1006.981973320944
 21
305.3244013972767
 31
0.0
  0
LINE
  5
DD9
330
1F
100
AcDbEntity
  8
0
 62
     3
100
AcDbLine
 10
1006.981973320944
 20
305.3244013972767
 30
0.0
 11
1009.281973320944
 21
305.3244013972767
 31
0.0
  0
LINE
  5
DDA
330
1F
100
AcDbEntity
  8
0
 62
     3
100
AcDbLine
 10
1008.381973320944
 20
306.8244013972767
 30
0.0
 11
1007.881973320944
 21
306.8244013972767
 31
0.0
  0
LINE
  5
DDB
330
1F
100
AcDbEntity
  8
0
 62
     3
100
AcDbLine
 10
1008.381973320944
 20
307.3244013972767
 30
0.0
 11
1008.381973320944
 21
306.8244013972767
 31
0.0
  0
LINE
  5
DDC
330
1F
100
AcDbEntity
  8
0
 62
     3
100
AcDbLine
 10
1007.881973320944
 20
307.3244013972767
 30
0.0
 11
1007.881973320944
 21
306.8244013972767
 31
0.0
  0
LINE
  5
DDD
330
1F
100
AcDbEntity
  8
0
 62
     3
100
AcDbLine
 10
1008.381973320944
 20
307.3244013972767
 30
0.0
 11
1009.281973320944
 21
307.3244013972767
 31
0.0
  0
CIRCLE
  5
DE1
330
1F
100
AcDbEntity
  8
0
 62
     3
100
AcDbCircle
 10
1014.631973320944
 20
297.0744013972767
 30
0.0
 40
2.0
  0
LINE
  5
DE3
330
1F
100
AcDbEntity
  8
0
 62
     7
100
AcDbLine
 10
1015.281973320944
 20
297.8244013972767
 30
0.0
 11
1015.281973320944
 21
295.1829733653389
 31
0.0
  0
LINE
  5
DE4
330
1F
100
AcDbEntity
  8
0
 62
     7
100
AcDbLine
 10
1013.981973320944
 20
297.8244013972767
 30
0.0
 11
1013.981973320944
 21
295.1829733653389
 31
0.0
  0
LINE
  5
DE5
330
1F
100
AcDbEntity
  8
0
 62
     7
100
AcDbLine
 10
1014.981973320944
 20
298.0744013972767
 30
0.0
 11
1014.981973320944
 21
295.1052645305251
 31
0.0
  0
LINE
  5
DE6
330
1F
100
AcDbEntity
  8
0
 62
     7
100
AcDbLine
 10
1014.281973320944
 20
298.0744013972767
 30
0.0
 11
1014.281973320944
 21
295.1052645305251
 31
0.0
  0
LINE
  5
DEC
330
1F
100
AcDbEntity
  8
0
 62
     7
100
AcDbLine
 10
1015.731973320944
 20
297.8244013972767
 30
0.0
 11
1015.281973320944
 21
297.8244013972767
 31
0.0
  0
LINE
  5
DED
330
1F
100
AcDbEntity
  8
0
 62
     7
100
AcDbLine
 10
1014.631973320944
 20
298.8244013972767
 30
0.0
 11
1013.531973320944
 21
297.8244013972767
 31
0.0
  0
LINE
  5
DEE
330
1F
100
AcDbEntity
  8
0
 62
     7
100
AcDbLine
 10
1014.631973320944
 20
298.8244013972767
 30
0.0
 11
1015.731973320944
 21
297.8244013972767
 31
0.0
  0
LINE
  5
DEF
330
1F
100
AcDbEntity
  8
0
 62
     7
100
AcDbLine
 10
1014.981973320944
 20
298.0744013972767
 30
0.0
 11
1014.281973320944
 21
298.0744013972767
 31
0.0
  0
LINE
  5
DF1
330
1F
100
AcDbEntity
  8
0
 62
     7
100
AcDbLine
 10
1013.981973320944
 20
297.8244013972767
 30
0.0
 11
1013.531973320944
 21
297.8244013972767
 31
0.0
  0
ARC
  5
DF2
330
1F
100
AcDbEntity
  8
0
 62
     7
100
AcDbCircle
 10
1014.631973320944
 20
297.0744013972767
 30
0.0
 40
2.625
100
AcDbArc
 50
299.9999999999996
 51
240.0000000000002
  0
LINE
  5
DF4
330
1F
100
AcDbEntity
  8
0
 62
     7
100
AcDbLine
 10
1015.944473320944
 20
294.8010847123425
 30
0.0
 11
1016.444473320942
 21
293.9350593085618
 31
0.0
  0
ARC
  5
DF8
330
1F
100
AcDbEntity
  8
0
 62
     7
100
AcDbCircle
 10
1014.679147160704
 20
297.3292186700673
 30
0.0
 40
2.870570371673306
100
AcDbArc
 50
90.9416189968852
 51
241.7278732740293
  0
ARC
  5
DF9
330
1F
100
AcDbEntity
  8
0
 62
     7
100
AcDbCircle
 10
1014.673992873957
 20
296.8171773285168
 30
0.0
 40
3.382485076705328
100
AcDbArc
 50
301.5623389514411
 51
90.71178583723591
  0
LINE
  5
DFA
330
1F
100
AcDbEntity
  8
0
 62
     7
100
AcDbLine
 10
1000.981973320944
 20
297.8244013972767
 30
0.0
 11
1000.981973320944
 21
295.1829733653389
 31
0.0
  0
LINE
  5
DFB
330
1F
100
AcDbEntity
  8
0
 62
     7
100
AcDbLine
 10
1001.281973320944
 20
298.0744013972767
 30
0.0
 11
1001.281973320944
 21
295.1052645305251
 31
0.0
  0
LINE
  5
DFC
330
1F
100
AcDbEntity
  8
0
 62
     7
100
AcDbLine
 10
1002.281973320944
 20
297.8244013972767
 30
0.0
 11
1002.281973320944
 21
295.1829733653389
 31
0.0
  0
LINE
  5
DFD
330
1F
100
AcDbEntity
  8
0
 62
     7
100
AcDbLine
 10
1001.981973320944
 20
298.0744013972767
 30
0.0
 11
1001.981973320944
 21
295.1052645305251
 31
0.0
  0
CIRCLE
  5
DFE
330
1F
100
AcDbEntity
  8
0
 62
     3
100
AcDbCircle
 10
1001.631973320944
 20
297.0744013972767
 30
0.0
 40
2.0
  0
LINE
  5
DFF
330
1F
100
AcDbEntity
  8
0
 62
     7
100
AcDbLine
 10
1002.731973320944
 20
297.8244013972767
 30
0.0
 11
1002.281973320944
 21
297.8244013972767
 31
0.0
  0
LINE
  5
E00
330
1F
100
AcDbEntity
  8
0
 62
     7
100
AcDbLine
 10
1000.981973320944
 20
297.8244013972767
 30
0.0
 11
1000.531973320944
 21
297.8244013972767
 31
0.0
  0
LINE
  5
E01
330
1F
100
AcDbEntity
  8
0
 62
     7
100
AcDbLine
 10
1001.981973320944
 20
298.0744013972767
 30
0.0
 11
1001.281973320944
 21
298.0744013972767
 31
0.0
  0
LINE
  5
E02
330
1F
100
AcDbEntity
  8
0
 62
     7
100
AcDbLine
 10
1001.631973320944
 20
298.8244013972767
 30
0.0
 11
1000.531973320944
 21
297.8244013972767
 31
0.0
  0
LINE
  5
E03
330
1F
100
AcDbEntity
  8
0
 62
     7
100
AcDbLine
 10
1001.631973320944
 20
298.8244013972767
 30
0.0
 11
1002.731973320944
 21
297.8244013972767
 31
0.0
  0
ARC
  5
E04
330
1F
100
AcDbEntity
  8
0
 62
     7
100
AcDbCircle
 10
1001.631973320944
 20
297.0744013972767
 30
0.0
 40
2.625
100
AcDbArc
 50
299.9999999999996
 51
240.0000000000002
  0
LINE
  5
E05
330
1F
100
AcDbEntity
  8
0
 62
     7
100
AcDbLine
 10
1002.944473320944
 20
294.8010847123425
 30
0.0
 11
1003.444473320942
 21
293.9350593085618
 31
0.0
  0
ARC
  5
E06
330
1F
100
AcDbEntity
  8
0
 62
     7
100
AcDbCircle
 10
1001.679147160704
 20
297.3292186700673
 30
0.0
 40
2.870570371673306
100
AcDbArc
 50
90.9416189968852
 51
241.7278732740293
  0
ARC
  5
E07
330
1F
100
AcDbEntity
  8
0
 62
     7
100
AcDbCircle
 10
1001.673992873957
 20
296.8171773285168
 30
0.0
 40
3.382485076705328
100
AcDbArc
 50
301.5623389514411
 51
90.71178583723591
  0
CIRCLE
  5
E08
330
1F
100
AcDbEntity
  8
0
 62
     7
100
AcDbCircle
 10
1014.631973320944
 20
293.6178413845033
 30
0.0
 40
1.0
  0
LINE
  5
E0C
330
1F
100
AcDbEntity
  8
0
 62
     7
100
AcDbLine
 10
1014.631973320944
 20
293.3408333362034
 30
0.0
 11
1014.248951099385
 21
293.6622271410467
 31
0.0
  0
LINE
  5
E0D
330
1F
100
AcDbEntity
  8
0
 62
     7
100
AcDbLine
 10
1015.27476093063
 20
294.1068777793223
 30
0.0
 11
1014.631973320944
 21
293.3408333362034
 31
0.0
  0
LINE
  5
E11
330
1F
100
AcDbEntity
  8
0
 62
     7
100
AcDbLine
 10
1015.46627204141
 20
293.9461808769006
 30
0.0
 11
1014.662787529302
 21
292.988625323002
 31
0.0
  0
LINE
  5
E12
330
1F
100
AcDbEntity
  8
0
 62
     7
100
AcDbLine
 10
1014.662787529302
 20
292.9886253230021
 30
0.0
 11
1014.088254196963
 21
293.470716030267
 31
0.0
  0
LINE
  5
E15
330
1F
100
AcDbEntity
  8
0
 62
     7
100
AcDbLine
 10
1015.46627204141
 20
293.9461808769006
 30
0.0
 11
1015.27476093063
 21
294.1068777793223
 31
0.0
  0
LINE
  5
E16
330
1F
100
AcDbEntity
  8
0
 62
     7
100
AcDbLine
 10
1014.088254196963
 20
293.4707160302669
 30
0.0
 11
1014.248951099385
 21
293.6622271410467
 31
0.0
  0
LINE
  5
E17
330
1F
100
AcDbEntity
  8
0
 62
     7
100
AcDbLine
 10
1018.596905641948
 20
293.8749730872461
 30
0.0
 11
1018.996905641948
 21
293.8749730872461
 31
0.0
  0
LINE
  5
E19
330
1F
100
AcDbEntity
  8
0
 62
     7
100
AcDbLine
 10
1018.996905641948
 20
295.3749730872461
 30
0.0
 11
1018.596905641948
 21
295.3749730872461
 31
0.0
  0
LINE
  5
E1B
330
1F
100
AcDbEntity
  8
0
 62
     7
100
AcDbLine
 10
1018.046905641948
 20
294.8249730872461
 30
0.0
 11
1018.046905641948
 21
294.424973087246
 31
0.0
  0
LINE
  5
E1C
330
1F
100
AcDbEntity
  8
0
 62
     7
100
AcDbLine
 10
1019.546905641948
 20
294.8249730872461
 30
0.0
 11
1019.546905641948
 21
294.424973087246
 31
0.0
  0
LINE
  5
E21
330
1F
100
AcDbEntity
  8
0
 62
     7
100
AcDbLine
 10
1018.996905641948
 20
295.3749730872461
 30
0.0
 11
1018.996905641948
 21
294.8249730872461
 31
0.0
  0
LINE
  5
E22
330
1F
100
AcDbEntity
  8
0
 62
     7
100
AcDbLine
 10
1018.596905641948
 20
295.3749730872461
 30
0.0
 11
1018.596905641948
 21
294.8249730872461
 31
0.0
  0
LINE
  5
E23
330
1F
100
AcDbEntity
  8
0
 62
     7
100
AcDbLine
 10
1019.546905641948
 20
294.8249730872461
 30
0.0
 11
1018.996905641948
 21
294.8249730872461
 31
0.0
  0
LINE
  5
E24
330
1F
100
AcDbEntity
  8
0
 62
     7
100
AcDbLine
 10
1018.046905641948
 20
294.424973087246
 30
0.0
 11
1018.596905641948
 21
294.424973087246
 31
0.0
  0
LINE
  5
E25
330
1F
100
AcDbEntity
  8
0
 62
     7
100
AcDbLine
 10
1018.996905641948
 20
294.424973087246
 30
0.0
 11
1019.546905641948
 21
294.424973087246
 31
0.0
  0
LINE
  5
E26
330
1F
100
AcDbEntity
  8
0
 62
     7
100
AcDbLine
 10
1018.996905641948
 20
294.424973087246
 30
0.0
 11
1018.996905641948
 21
293.8749730872461
 31
0.0
  0
LINE
  5
E27
330
1F
100
AcDbEntity
  8
0
 62
     7
100
AcDbLine
 10
1018.596905641948
 20
294.8249730872461
 30
0.0
 11
1018.046905641948
 21
294.8249730872461
 31
0.0
  0
LINE
  5
E28
330
1F
100
AcDbEntity
  8
0
 62
     7
100
AcDbLine
 10
1018.596905641948
 20
294.424973087246
 30
0.0
 11
1018.596905641948
 21
293.8749730872461
 31
0.0
  0
LINE
  5
E29
330
1F
100
AcDbEntity
  8
0
 62
     7
100
AcDbLine
 10
1010.670681092172
 20
294.424973087246
 30
0.0
 11
1012.170681092172
 21
294.424973087246
 31
0.0
  0
LINE
  5
E2C
330
1F
100
AcDbEntity
  8
0
 62
     7
100
AcDbLine
 10
1012.170681092172
 20
294.8249730872461
 30
0.0
 11
1010.670681092172
 21
294.8249730872461
 31
0.0
  0
LINE
  5
E2D
330
1F
100
AcDbEntity
  8
0
 62
     7
100
AcDbLine
 10
1012.170681092172
 20
294.8249730872461
 30
0.0
 11
1012.170681092172
 21
294.424973087246
 31
0.0
  0
LINE
  5
E2E
330
1F
100
AcDbEntity
  8
0
 62
     7
100
AcDbLine
 10
1010.670681092172
 20
294.8249730872461
 30
0.0
 11
1010.670681092172
 21
294.424973087246
 31
0.0
  0
ARC
  5
E30
330
1F
100
AcDbEntity
  8
0
 62
     7
100
AcDbCircle
 10
1005.067589769402
 20
293.6178413845033
 30
0.0
 40
0.75
100
AcDbArc
 50
69.59406822687299
 51
110.405931773127
  0
CIRCLE
  5
E31
330
1F
100
AcDbEntity
  8
0
 62
     7
100
AcDbCircle
 10
1005.067589769402
 20
293.6178413845033
 30
0.0
 40
0.5
  0
ARC
  5
E32
330
1F
100
AcDbEntity
  8
0
 62
     7
100
AcDbCircle
 10
1005.067589769402
 20
293.6178413845033
 30
0.0
 40
1.125
100
AcDbArc
 50
113.6206297915414
 51
126.379370208438
  0
LINE
  5
E3B
330
1F
100
AcDbEntity
  8
0
 62
     7
100
AcDbLine
 10
1006.185623758152
 20
293.7428413845033
 30
0.0
 11
1005.807099742289
 21
293.7428413845033
 31
0.0
  0
LINE
  5
E3C
330
1F
100
AcDbEntity
  8
0
 62
     7
100
AcDbLine
 10
1006.185623758152
 20
293.4928413845033
 30
0.0
 11
1005.807099742289
 21
293.4928413845033
 31
0.0
  0
LINE
  5
E3D
330
1F
100
AcDbEntity
  8
0
 62
     7
100
AcDbLine
 10
1004.6168259505
 20
294.6485872210551
 30
0.0
 11
1004.806087958431
 21
294.3207758073758
 31
0.0
  0
LINE
  5
E3E
330
1F
100
AcDbEntity
  8
0
 62
     7
100
AcDbLine
 10
1004.400319599554
 20
294.5235872210551
 30
0.0
 11
1004.589581607485
 21
294.1957758073759
 31
0.0
  0
LINE
  5
E3F
330
1F
100
AcDbEntity
  8
0
 62
     7
100
AcDbLine
 10
1005.73485993925
 20
294.5235872210551
 30
0.0
 11
1005.545597931319
 21
294.1957758073757
 31
0.0
  0
LINE
  5
E40
330
1F
100
AcDbEntity
  8
0
 62
     7
100
AcDbLine
 10
1005.518353588304
 20
294.6485872210551
 30
0.0
 11
1005.329091580372
 21
294.3207758073758
 31
0.0
  0
LINE
  5
E41
330
1F
100
AcDbEntity
  8
0
 62
     7
100
AcDbLine
 10
1004.806087958431
 20
292.9149069616308
 30
0.0
 11
1004.6168259505
 21
292.5870955479515
 31
0.0
  0
LINE
  5
E42
330
1F
100
AcDbEntity
  8
0
 62
     7
100
AcDbLine
 10
1004.589581607485
 20
293.0399069616308
 30
0.0
 11
1004.400319599554
 21
292.7120955479514
 31
0.0
  0
LINE
  5
E43
330
1F
100
AcDbEntity
  8
0
 62
     7
100
AcDbLine
 10
1005.545597931319
 20
293.0399069616308
 30
0.0
 11
1005.73485993925
 21
292.7120955479514
 31
0.0
  0
LINE
  5
E44
330
1F
100
AcDbEntity
  8
0
 62
     7
100
AcDbLine
 10
1005.329091580372
 20
292.9149069616308
 30
0.0
 11
1005.518353588304
 21
292.5870955479515
 31
0.0
  0
LINE
  5
E45
330
1F
100
AcDbEntity
  8
0
 62
     7
100
AcDbLine
 10
1004.328079796514
 20
293.7428413845033
 30
0.0
 11
1003.949555780652
 21
293.7428413845033
 31
0.0
  0
LINE
  5
E46
330
1F
100
AcDbEntity
  8
0
 62
     7
100
AcDbLine
 10
1004.328079796514
 20
293.4928413845033
 30
0.0
 11
1003.949555780652
 21
293.4928413845033
 31
0.0
  0
ARC
  5
E47
330
1F
100
AcDbEntity
  8
0
 62
     7
100
AcDbCircle
 10
1005.067589769402
 20
293.6178413845033
 30
0.0
 40
1.125
100
AcDbArc
 50
173.620629791557
 51
186.379370208443
  0
ARC
  5
E48
330
1F
100
AcDbEntity
  8
0
 62
     7
100
AcDbCircle
 10
1005.067589769402
 20
293.6178413845033
 30
0.0
 40
1.125
100
AcDbArc
 50
233.6206297915611
 51
246.3793702084302
  0
ARC
  5
E49
330
1F
100
AcDbEntity
  8
0
 62
     7
100
AcDbCircle
 10
1005.067589769402
 20
293.6178413845033
 30
0.0
 40
1.125
100
AcDbArc
 50
293.6206297915552
 51
306.3793702084389
  0
ARC
  5
E4A
330
1F
100
AcDbEntity
  8
0
 62
     7
100
AcDbCircle
 10
1005.067589769402
 20
293.6178413845033
 30
0.0
 40
1.125
100
AcDbArc
 50
353.620629791557
 51
6.379370208442987
  0
ARC
  5
E4B
330
1F
100
AcDbEntity
  8
0
 62
     7
100
AcDbCircle
 10
1005.067589769402
 20
293.6178413845033
 30
0.0
 40
1.125
100
AcDbArc
 50
53.62062979156147
 51
66.37937020844472
  0
ARC
  5
E4C
330
1F
100
AcDbEntity
  8
0
 62
     7
100
AcDbCircle
 10
1005.067589769402
 20
293.6178413845033
 30
0.0
 40
0.75
100
AcDbArc
 50
129.5940682268415
 51
170.4059317731401
  0
ARC
  5
E4D
330
1F
100
AcDbEntity
  8
0
 62
     7
100
AcDbCircle
 10
1005.067589769402
 20
293.6178413845033
 30
0.0
 40
0.75
100
AcDbArc
 50
189.5940682268599
 51
230.405931773141
  0
ARC
  5
E4E
330
1F
100
AcDbEntity
  8
0
 62
     7
100
AcDbCircle
 10
1005.067589769402
 20
293.6178413845033
 30
0.0
 40
0.75
100
AcDbArc
 50
249.5940682268451
 51
290.4059317731548
  0
ARC
  5
E4F
330
1F
100
AcDbEntity
  8
0
 62
     7
100
AcDbCircle
 10
1005.067589769402
 20
293.6178413845033
 30
0.0
 40
0.75
100
AcDbArc
 50
309.594068226859
 51
350.4059317731401
  0
ARC
  5
E50
330
1F
100
AcDbEntity
  8
0
 62
     7
100
AcDbCircle
 10
1005.067589769402
 20
293.6178413845033
 30
0.0
 40
0.75
100
AcDbArc
 50
9.594068226859908
 51
50.40593177314312
  0
CIRCLE
  5
E51
330
1F
100
AcDbEntity
  8
0
 62
     7
100
AcDbCircle
 10
1005.067589769402
 20
293.6178413845033
 30
0.0
 40
0.7499999999999579
  0
ARC
  5
E52
330
1F
100
AcDbEntity
  8
0
 62
     7
100
AcDbCircle
 10
999.5070309461739
 20
293.6178413845033
 30
0.0
 40
0.7499999999999579
100
AcDbArc
 50
248.5038868000122
 51
111.4961131999878
  0
ARC
  5
E53
330
1F
100
AcDbEntity
  8
0
 62
     7
100
AcDbCircle
 10
998.957373783096
 20
293.6178413845033
 30
0.0
 40
0.7499999999999579
100
AcDbArc
 50
291.4961131999879
 51
68.50388680001213
  0
TEXT
  5
E55
330
1F
100
AcDbEntity
  8
0
 62
     7
100
AcDbText
 10
999.6292593450323
 20
290.2422347497729
 30
0.0
 40
1.6
  1
LUX
  7
高3.2
100
AcDbText
  0
TEXT
  5
E56
330
1F
100
AcDbEntity
  8
0
 62
     7
100
AcDbText
 10
1012.545034145028
 20
290.2422347497729
 30
0.0
 40
1.6
  1
TIME
  7
高3.2
100
AcDbText
  0
ARC
  5
E57
330
1F
100
AcDbEntity
  8
0
 62
     3
100
AcDbCircle
 10
1109.078609231221
 20
201.592634233641
 30
0.0
 40
2.5
100
AcDbArc
 50
19.80966857254255
 51
95.61758059012822
  0
ARC
  5
E58
330
1F
100
AcDbEntity
  8
0
 62
     3
100
AcDbCircle
 10
1115.325609780797
 20
212.7911584577871
 30
0.0
 40
2.5
100
AcDbArc
 50
180.0
 51
281.881156021013
  0
LINE
  5
E59
330
1F
100
AcDbEntity
  8
0
 62
     3
100
AcDbLine
 10
1167.575609780797
 20
218.59825607798
 30
0.0
 11
1156.075609780797
 21
218.59825607798
 31
0.0
  0
LINE
  5
E5B
330
1F
100
AcDbEntity
  8
0
 62
     3
100
AcDbLine
 10
1167.575609780797
 20
215.0982560779799
 30
0.0
 11
1156.075609780797
 21
215.0982560779799
 31
0.0
  0
ARC
  5
E5F
330
1F
100
AcDbEntity
  8
0
 62
     3
100
AcDbCircle
 10
1156.075609780797
 20
213.59825607798
 30
0.0
 40
1.5
100
AcDbArc
 50
90.0
 51
150.0000000000004
  0
ARC
  5
E60
330
1F
100
AcDbEntity
  8
0
 62
     3
100
AcDbCircle
 10
1156.075609780797
 20
213.59825607798
 30
0.0
 40
5.0
100
AcDbArc
 50
90.0
 51
171.3730734413215
  0
LINE
  5
E61
330
1F
100
AcDbEntity
  8
0
 62
     3
100
AcDbLine
 10
1227.575609780797
 20
215.1982560779799
 30
0.0
 11
1227.575609780797
 21
218.49825607798
 31
0.0
  0
LINE
  5
E62
330
1F
100
AcDbEntity
  8
0
 62
     3
100
AcDbLine
 10
1227.37353718658
 20
218.8482560779799
 30
0.0
 11
1224.575609780797
 21
218.8482560779799
 31
0.0
  0
LINE
  5
E63
330
1F
100
AcDbEntity
  8
0
 62
     3
100
AcDbLine
 10
1227.37353718658
 20
214.8482560779799
 30
0.0
 11
1224.575609780797
 21
214.8482560779799
 31
0.0
  0
LINE
  5
E64
330
1F
100
AcDbEntity
  8
0
 62
     7
100
AcDbLine
 10
1167.575609780797
 20
215.0982560779799
 30
0.0
 11
1167.575609780797
 21
218.59825607798
 31
0.0
  0
LINE
  5
E65
330
1F
100
AcDbEntity
  8
0
 62
     7
100
AcDbLine
 10
1227.575609780797
 20
218.49825607798
 30
0.0
 11
1224.575609780797
 21
218.49825607798
 31
0.0
  0
LINE
  5
E66
330
1F
100
AcDbEntity
  8
0
 62
     7
100
AcDbLine
 10
1227.575609780797
 20
215.1982560779799
 30
0.0
 11
1224.575609780797
 21
215.1982560779799
 31
0.0
  0
LINE
  5
E67
330
1F
100
AcDbEntity
  8
0
 62
     3
100
AcDbLine
 10
1227.575609780797
 20
215.1982560779799
 30
0.0
 11
1227.37353718658
 21
214.8482560779799
 31
0.0
  0
LINE
  5
E68
330
1F
100
AcDbEntity
  8
0
 62
     3
100
AcDbLine
 10
1227.575609780797
 20
218.49825607798
 30
0.0
 11
1227.37353718658
 21
218.8482560779799
 31
0.0
  0
LINE
  5
E69
330
1F
100
AcDbEntity
  8
0
 62
     3
100
AcDbLine
 10
1167.575609780797
 20
218.59825607798
 30
0.0
 11
1167.719947348095
 21
218.84825607798
 31
0.0
  0
LINE
  5
E6A
330
1F
100
AcDbEntity
  8
0
 62
     3
100
AcDbLine
 10
1167.575609780797
 20
215.0982560779799
 30
0.0
 11
1167.719947348095
 21
214.8482560779799
 31
0.0
  0
LINE
  5
E6C
330
1F
100
AcDbEntity
  8
0
 62
     3
100
AcDbLine
 10
1224.575609780797
 20
220.8482560779799
 30
0.0
 11
1224.575609780797
 21
212.8482560779799
 31
0.0
  0
LINE
  5
E6D
330
1F
100
AcDbEntity
  8
0
 62
     3
100
AcDbLine
 10
1219.325609780797
 20
221.5982560779799
 30
0.0
 11
1219.325609780797
 21
175.0982560779799
 31
0.0
  0
LINE
  5
E6E
330
1F
100
AcDbEntity
  8
0
 62
     3
100
AcDbLine
 10
1220.075609780797
 20
221.5982560779799
 30
0.0
 11
1219.325609780797
 21
221.5982560779799
 31
0.0
  0
LINE
  5
E6F
330
1F
100
AcDbEntity
  8
0
 62
     3
100
AcDbLine
 10
1220.075609780797
 20
212.09825607798
 30
0.0
 11
1219.325609780797
 21
212.09825607798
 31
0.0
  0
LINE
  5
E70
330
1F
100
AcDbEntity
  8
0
 62
     3
100
AcDbLine
 10
1224.075609780797
 20
221.3482560779799
 30
0.0
 11
1220.075609780797
 21
221.3482560779799
 31
0.0
  0
LINE
  5
E71
330
1F
100
AcDbEntity
  8
0
 62
     3
100
AcDbLine
 10
1224.075609780797
 20
212.34825607798
 30
0.0
 11
1220.075609780797
 21
212.34825607798
 31
0.0
  0
LINE
  5
E72
330
1F
100
AcDbEntity
  8
0
 62
     3
100
AcDbLine
 10
1220.075609780797
 20
211.59825607798
 30
0.0
 11
1220.075609780797
 21
212.34825607798
 31
0.0
  0
LINE
  5
E73
330
1F
100
AcDbEntity
  8
0
 62
     3
100
AcDbLine
 10
1229.825609780797
 20
222.49825607798
 30
0.0
 11
1229.825609780797
 21
221.0982560779799
 31
0.0
  0
LINE
  5
E74
330
1F
100
AcDbEntity
  8
0
 62
     3
100
AcDbLine
 10
1227.325609780797
 20
224.99825607798
 30
0.0
 11
1225.096930124357
 21
224.99825607798
 31
0.0
  0
LINE
  5
E75
330
1F
100
AcDbEntity
  8
0
 62
     3
100
AcDbLine
 10
1227.325609780797
 20
208.6982560779799
 30
0.0
 11
1225.096930124357
 21
208.6982560779799
 31
0.0
  0
LINE
  5
E76
330
1F
100
AcDbEntity
  8
0
 62
     3
100
AcDbLine
 10
1228.825609780797
 20
220.09825607798
 30
0.0
 11
1224.575609780797
 21
220.09825607798
 31
0.0
  0
LINE
  5
E77
330
1F
100
AcDbEntity
  8
0
 62
     3
100
AcDbLine
 10
1228.825609780797
 20
213.59825607798
 30
0.0
 11
1224.575609780797
 21
213.59825607798
 31
0.0
  0
LINE
  5
E78
330
1F
100
AcDbEntity
  8
0
 62
     3
100
AcDbLine
 10
1221.454289437237
 20
222.59825607798
 30
0.0
 11
1220.575609780797
 21
222.59825607798
 31
0.0
  0
LINE
  5
E79
330
1F
100
AcDbEntity
  8
0
 62
     3
100
AcDbLine
 10
1221.454289437237
 20
211.0982560779799
 30
0.0
 11
1220.575609780797
 21
211.0982560779799
 31
0.0
  0
LINE
  5
E7B
330
1F
100
AcDbEntity
  8
0
 62
     3
100
AcDbLine
 10
1222.514949609017
 20
223.0375959062002
 30
0.0
 11
1224.036269952576
 21
224.5589162497597
 31
0.0
  0
LINE
  5
E7C
330
1F
100
AcDbEntity
  8
0
 62
     3
100
AcDbLine
 10
1222.514949609017
 20
210.6589162497597
 30
0.0
 11
1224.036269952576
 21
209.1375959062002
 31
0.0
  0
ARC
  5
E7D
330
1F
100
AcDbEntity
  8
0
 62
     3
100
AcDbCircle
 10
1227.325609780797
 20
222.4982560779802
 30
0.0
 40
2.5
100
AcDbArc
 50
359.9999999999951
 51
90.0
  0
ARC
  5
E7E
330
1F
100
AcDbEntity
  8
0
 62
     3
100
AcDbCircle
 10
1227.325609780797
 20
211.1982560779796
 30
0.0
 40
2.5
100
AcDbArc
 50
270.0
 51
0.0000000000065138
  0
LINE
  5
E7F
330
1F
100
AcDbEntity
  8
0
 62
     3
100
AcDbLine
 10
1229.825609780797
 20
212.5982560779799
 30
0.0
 11
1229.825609780797
 21
211.19825607798
 31
0.0
  0
ARC
  5
E80
330
1F
100
AcDbEntity
  8
0
 62
     3
100
AcDbCircle
 10
1220.575609780797
 20
211.59825607798
 30
0.0
 40
0.5
100
AcDbArc
 50
180.0
 51
270.0
  0
ARC
  5
E81
330
1F
100
AcDbEntity
  8
0
 62
     3
100
AcDbCircle
 10
1220.575609780797
 20
222.09825607798
 30
0.0
 40
0.5
100
AcDbArc
 50
90.0
 51
180.0
  0
ARC
  5
E82
330
1F
100
AcDbEntity
  8
0
 62
     3
100
AcDbCircle
 10
1221.454289437237
 20
224.09825607798
 30
0.0
 40
1.5
100
AcDbArc
 50
270.0
 51
315.0000000000077
  0
ARC
  5
E83
330
1F
100
AcDbEntity
  8
0
 62
     3
100
AcDbCircle
 10
1221.454289437237
 20
209.59825607798
 30
0.0
 40
1.5
100
AcDbArc
 50
44.99999999999233
 51
90.0
  0
ARC
  5
E84
330
1F
100
AcDbEntity
  8
0
 62
     3
100
AcDbCircle
 10
1225.096930124357
 20
223.4982560779799
 30
0.0
 40
1.5
100
AcDbArc
 50
90.0
 51
135.0000000000076
  0
ARC
  5
E85
330
1F
100
AcDbEntity
  8
0
 62
     3
100
AcDbCircle
 10
1225.096930124357
 20
210.1982560779799
 30
0.0
 40
1.5
100
AcDbArc
 50
224.9999999999975
 51
270.0
  0
ARC
  5
E86
330
1F
100
AcDbEntity
  8
0
 62
     3
100
AcDbCircle
 10
1228.825609780797
 20
221.0982560779799
 30
0.0
 40
1.0
100
AcDbArc
 50
270.0
 51
0.0
  0
ARC
  5
E87
330
1F
100
AcDbEntity
  8
0
 62
     3
100
AcDbCircle
 10
1228.825609780797
 20
212.5982560779799
 30
0.0
 40
1.0
100
AcDbArc
 50
0.0
 51
90.0
  0
LINE
  5
E88
330
1F
100
AcDbEntity
  8
0
 62
     3
100
AcDbLine
 10
1220.075609780797
 20
221.3482560779799
 30
0.0
 11
1220.075609780797
 21
222.09825607798
 31
0.0
  0
ARC
  5
E89
330
1F
100
AcDbEntity
  8
0
 62
     3
100
AcDbCircle
 10
1224.075609780797
 20
220.8482560779799
 30
0.0
 40
0.5
100
AcDbArc
 50
0.0
 51
90.0
  0
ARC
  5
E8A
330
1F
100
AcDbEntity
  8
0
 62
     3
100
AcDbCircle
 10
1224.075609780797
 20
212.8482560779799
 30
0.0
 40
0.5
100
AcDbArc
 50
270.0
 51
0.0
  0
LINE
  5
E8B
330
1F
100
AcDbEntity
  8
0
 62
     3
100
AcDbLine
 10
1205.325609780797
 20
219.59825607798
 30
0.0
 11
1205.320269496617
 21
211.0982560779799
 31
0.0
  0
LINE
  5
E8E
330
1F
100
AcDbEntity
  8
0
 62
     3
100
AcDbLine
 10
1209.325609780797
 20
206.3482560779799
 30
0.0
 11
1209.325609780797
 21
198.3482560779799
 31
0.0
  0
LINE
  5
E8F
330
1F
100
AcDbEntity
  8
0
 62
     3
100
AcDbLine
 10
1213.325609780797
 20
184.5982560779799
 30
0.0
 11
1210.825609780797
 21
184.5982560779799
 31
0.0
  0
LINE
  5
E90
330
1F
100
AcDbEntity
  8
0
 62
     3
100
AcDbLine
 10
1213.325609780797
 20
196.3482560779799
 30
0.0
 11
1210.825609780797
 21
196.3482560779799
 31
0.0
  0
LINE
  5
E91
330
1F
100
AcDbEntity
  8
0
 62
     3
100
AcDbLine
 10
1212.325609780797
 20
207.0982560779799
 30
0.0
 11
1210.075609780797
 21
207.0982560779799
 31
0.0
  0
LINE
  5
E92
330
1F
100
AcDbEntity
  8
0
 62
     3
100
AcDbLine
 10
1212.325609780797
 20
211.0982560779799
 30
0.0
 11
1205.320269496617
 21
211.0982560779799
 31
0.0
  0
LINE
  5
E95
330
1F
100
AcDbEntity
  8
0
 62
     3
100
AcDbLine
 10
1219.325609780797
 20
220.34825607798
 30
0.0
 11
1205.325609780797
 21
219.59825607798
 31
0.0
  0
LINE
  5
E97
330
1F
100
AcDbEntity
  8
0
 62
     3
100
AcDbLine
 10
1219.312259070348
 20
217.84825607798
 30
0.0
 11
1205.312259070349
 21
217.0982560779799
 31
0.0
  0
LINE
  5
E98
330
1F
100
AcDbEntity
  8
0
 62
     3
100
AcDbLine
 10
1212.325609780797
 20
211.0982560779799
 30
0.0
 11
1212.325609780797
 21
207.0982560779799
 31
0.0
  0
LINE
  5
E99
330
1F
100
AcDbEntity
  8
0
 62
     3
100
AcDbLine
 10
1213.325609780797
 20
196.3482560779799
 30
0.0
 11
1213.325609780797
 21
184.5982560779799
 31
0.0
  0
LINE
  5
E9A
330
1F
100
AcDbEntity
  8
0
 62
     3
100
AcDbLine
 10
1209.325609780797
 20
182.5982560779799
 30
0.0
 11
1209.325609780797
 21
175.6339703636942
 31
0.0
  0
LINE
  5
E9F
330
1F
100
AcDbEntity
  8
0
 62
     3
100
AcDbLine
 10
1209.325609780797
 20
198.3482560779799
 30
0.0
 11
1210.825609780797
 21
196.3482560779799
 31
0.0
  0
LINE
  5
EA0
330
1F
100
AcDbEntity
  8
0
 62
     3
100
AcDbLine
 10
1209.325609780797
 20
182.5982560779799
 30
0.0
 11
1210.825609780797
 21
184.5982560779799
 31
0.0
  0
LINE
  5
EA1
330
1F
100
AcDbEntity
  8
0
 62
     3
100
AcDbLine
 10
1210.075609780797
 20
207.0982560779799
 30
0.0
 11
1209.325609780797
 21
206.3482560779799
 31
0.0
  0
LINE
  5
EA2
330
1F
100
AcDbEntity
  8
0
 62
     3
100
AcDbLine
 10
1219.325609780797
 20
175.0982560779799
 30
0.0
 11
1209.325609780797
 21
175.6339703636942
 31
0.0
  0
LINE
  5
ED3
330
1F
100
AcDbEntity
  8
0
 62
     7
100
AcDbLine
 10
1205.322845398397
 20
215.1982560779799
 30
0.0
 11
1167.575609780797
 21
215.1982560779799
 31
0.0
  0
LINE
  5
ED4
330
1F
100
AcDbEntity
  8
0
 62
     3
100
AcDbLine
 10
1205.322625504343
 20
214.8482560779799
 30
0.0
 11
1167.719947348095
 21
214.8482560779799
 31
0.0
  0
LINE
  5
ED5
330
1F
100
AcDbEntity
  8
0
 62
     7
100
AcDbLine
 10
1205.324918685197
 20
218.49825607798
 30
0.0
 11
1167.575609780797
 21
218.49825607798
 31
0.0
  0
LINE
  5
ED6
330
1F
100
AcDbEntity
  8
0
 62
     3
100
AcDbLine
 10
1205.325138579252
 20
218.8482560779799
 30
0.0
 11
1167.719947348095
 21
218.8482560779799
 31
0.0
  0
CIRCLE
  5
ED9
330
1F
100
AcDbEntity
  8
0
 62
     7
100
AcDbCircle
 10
1038.631973320944
 20
190.4732560779799
 30
0.0
 40
1.375
  0
LINE
  5
EDA
330
1F
100
AcDbEntity
  8
0
 62
     7
100
AcDbLine
 10
1039.600219157496
 20
190.7232560779799
 30
0.0
 11
1038.881973320944
 21
190.7232560779799
 31
0.0
  0
LINE
  5
EDB
330
1F
100
AcDbEntity
  8
0
 62
     7
100
AcDbLine
 10
1039.600219157496
 20
190.2232560779799
 30
0.0
 11
1038.881973320944
 21
190.2232560779799
 31
0.0
  0
LINE
  5
EDC
330
1F
100
AcDbEntity
  8
0
 62
     7
100
AcDbLine
 10
1038.881973320944
 20
191.4415019145318
 30
0.0
 11
1038.881973320944
 21
190.7232560779799
 31
0.0
  0
LINE
  5
EDD
330
1F
100
AcDbEntity
  8
0
 62
     7
100
AcDbLine
 10
1038.381973320944
 20
191.4415019145318
 30
0.0
 11
1038.381973320944
 21
190.7232560779799
 31
0.0
  0
ARC
  5
EDE
330
1F
100
AcDbEntity
  8
0
 62
     7
100
AcDbCircle
 10
1038.631973320944
 20
190.4732560779799
 30
0.0
 40
1.0
100
AcDbArc
 50
255.5224878140701
 51
284.4775121859299
  0
ARC
  5
EDF
330
1F
100
AcDbEntity
  8
0
 62
     7
100
AcDbCircle
 10
1038.631973320944
 20
190.4732560779799
 30
0.0
 40
1.0
100
AcDbArc
 50
165.522487814071
 51
194.4775121859274
  0
ARC
  5
EE0
330
1F
100
AcDbEntity
  8
0
 62
     7
100
AcDbCircle
 10
1038.631973320944
 20
190.4732560779799
 30
0.0
 40
1.0
100
AcDbArc
 50
75.52248781407008
 51
104.4775121859299
  0
ARC
  5
EE1
330
1F
100
AcDbEntity
  8
0
 62
     7
100
AcDbCircle
 10
1038.631973320944
 20
190.4732560779799
 30
0.0
 40
1.0
100
AcDbArc
 50
345.5224878140723
 51
14.47751218592901
  0
LINE
  5
EE2
330
1F
100
AcDbEntity
  8
0
 62
     7
100
AcDbLine
 10
1038.381973320944
 20
190.2232560779799
 30
0.0
 11
1037.663727484392
 21
190.2232560779799
 31
0.0
  0
LINE
  5
EE3
330
1F
100
AcDbEntity
  8
0
 62
     7
100
AcDbLine
 10
1038.381973320944
 20
190.2232560779799
 30
0.0
 11
1038.381973320944
 21
189.5050102414281
 31
0.0
  0
LINE
  5
EE4
330
1F
100
AcDbEntity
  8
0
 62
     7
100
AcDbLine
 10
1038.381973320944
 20
190.7232560779799
 30
0.0
 11
1037.663727484392
 21
190.7232560779799
 31
0.0
  0
LINE
  5
EE5
330
1F
100
AcDbEntity
  8
0
 62
     7
100
AcDbLine
 10
1038.881973320944
 20
190.2232560779799
 30
0.0
 11
1038.881973320944
 21
189.5050102414281
 31
0.0
  0
LINE
  5
EE6
330
1F
100
AcDbEntity
  8
0
 62
     7
100
AcDbLine
 10
977.3819733209442
 20
191.4415019145318
 30
0.0
 11
977.3819733209442
 21
190.7232560779799
 31
0.0
  0
LINE
  5
EE7
330
1F
100
AcDbEntity
  8
0
 62
     7
100
AcDbLine
 10
977.3819733209442
 20
190.2232560779799
 30
0.0
 11
977.3819733209442
 21
189.5050102414281
 31
0.0
  0
LINE
  5
EE8
330
1F
100
AcDbEntity
  8
0
 62
     7
100
AcDbLine
 10
977.8819733209443
 20
191.4415019145318
 30
0.0
 11
977.8819733209443
 21
190.7232560779799
 31
0.0
  0
LINE
  5
EE9
330
1F
100
AcDbEntity
  8
0
 62
     7
100
AcDbLine
 10
977.8819733209443
 20
190.2232560779799
 30
0.0
 11
977.8819733209443
 21
189.5050102414281
 31
0.0
  0
LINE
  5
EEA
330
1F
100
AcDbEntity
  8
0
 62
     7
100
AcDbLine
 10
978.600219157496
 20
190.2232560779799
 30
0.0
 11
977.8819733209443
 21
190.2232560779799
 31
0.0
  0
LINE
  5
EEB
330
1F
100
AcDbEntity
  8
0
 62
     7
100
AcDbLine
 10
977.3819733209442
 20
190.2232560779799
 30
0.0
 11
976.6637274843924
 21
190.2232560779799
 31
0.0
  0
LINE
  5
EEC
330
1F
100
AcDbEntity
  8
0
 62
     7
100
AcDbLine
 10
978.600219157496
 20
190.7232560779799
 30
0.0
 11
977.8819733209443
 21
190.7232560779799
 31
0.0
  0
LINE
  5
EED
330
1F
100
AcDbEntity
  8
0
 62
     7
100
AcDbLine
 10
977.3819733209442
 20
190.7232560779799
 30
0.0
 11
976.6637274843924
 21
190.7232560779799
 31
0.0
  0
CIRCLE
  5
EEE
330
1F
100
AcDbEntity
  8
0
 62
     7
100
AcDbCircle
 10
977.6319733209444
 20
190.4732560779799
 30
0.0
 40
1.375
  0
ARC
  5
EEF
330
1F
100
AcDbEntity
  8
0
 62
     7
100
AcDbCircle
 10
977.6319733209444
 20
190.4732560779799
 30
0.0
 40
1.0
100
AcDbArc
 50
255.5224878140701
 51
284.4775121859299
  0
ARC
  5
EF0
330
1F
100
AcDbEntity
  8
0
 62
     7
100
AcDbCircle
 10
977.6319733209444
 20
190.4732560779799
 30
0.0
 40
1.0
100
AcDbArc
 50
345.5224878140723
 51
14.47751218592901
  0
ARC
  5
EF1
330
1F
100
AcDbEntity
  8
0
 62
     7
100
AcDbCircle
 10
977.6319733209444
 20
190.4732560779799
 30
0.0
 40
1.0
100
AcDbArc
 50
75.52248781407008
 51
104.4775121859299
  0
ARC
  5
EF2
330
1F
100
AcDbEntity
  8
0
 62
     7
100
AcDbCircle
 10
977.6319733209444
 20
190.4732560779799
 30
0.0
 40
1.0
100
AcDbArc
 50
165.522487814071
 51
194.4775121859274
  0
LINE
  5
F05
330
1F
100
AcDbEntity
  8
0
 62
     3
100
AcDbLine
 10
1132.825609780797
 20
190.4732560779799
 30
0.0
 11
1133.325609780797
 21
190.4732560779799
 31
0.0
  0
LINE
  5
F06
330
1F
100
AcDbEntity
  8
0
  6
CENTER
 62
     7
100
AcDbLine
 10
1128.214196093546
 20
190.4732560779799
 30
0.0
 11
1224.402594360908
 21
190.4732560779799
 31
0.0
  0
LINE
  5
F07
330
1F
100
AcDbEntity
  8
0
 62
     7
100
AcDbLine
 10
1227.37353718658
 20
218.8482560779799
 30
0.0
 11
1227.37353718658
 21
214.8482560779799
 31
0.0
  0
LINE
  5
F6C
330
1F
100
AcDbEntity
  8
0
 62
     3
100
AcDbLine
 10
1156.325609780797
 20
288.5427870681537
 30
0.0
 11
1156.825609780797
 21
288.5427870681537
 31
0.0
  0
LINE
  5
F6D
330
1F
100
AcDbEntity
  8
0
 62
     3
100
AcDbLine
 10
1156.325609780797
 20
293.5427870681536
 30
0.0
 11
1156.825609780797
 21
293.5427870681536
 31
0.0
  0
LINE
  5
F70
330
1F
100
AcDbEntity
  8
0
 62
     3
100
AcDbLine
 10
1146.825609780797
 20
280.9177870681537
 30
0.0
 11
1149.825609780797
 21
280.9177870681537
 31
0.0
  0
LINE
  5
F71
330
1F
100
AcDbEntity
  8
0
 62
     3
100
AcDbLine
 10
1146.825609780797
 20
301.1677870681536
 30
0.0
 11
1149.825609780797
 21
301.1677870681536
 31
0.0
  0
LINE
  5
F72
330
1F
100
AcDbEntity
  8
0
 62
     3
100
AcDbLine
 10
1149.825609780797
 20
286.0427870681537
 30
0.0
 11
1156.825609780797
 21
285.7927870681536
 31
0.0
  0
LINE
  5
F73
330
1F
100
AcDbEntity
  8
0
 62
     3
100
AcDbLine
 10
1151.825609780797
 20
288.2927870681537
 30
0.0
 11
1153.825609780797
 21
288.2927870681537
 31
0.0
  0
LINE
  5
F74
330
1F
100
AcDbEntity
  8
0
 62
     3
100
AcDbLine
 10
1151.825609780797
 20
293.7927870681535
 30
0.0
 11
1153.825609780797
 21
293.7927870681536
 31
0.0
  0
LINE
  5
F75
330
1F
100
AcDbEntity
  8
0
 62
     3
100
AcDbLine
 10
1149.825609780797
 20
296.0427870681536
 30
0.0
 11
1156.825609780797
 21
296.2927870681536
 31
0.0
  0
LINE
  5
F76
330
1F
100
AcDbEntity
  8
0
 62
     3
100
AcDbLine
 10
1142.825609780797
 20
318.6677870681537
 30
0.0
 11
1142.825609780797
 21
263.4177870681536
 31
0.0
  0
LINE
  5
F77
330
1F
100
AcDbEntity
  8
0
 62
     3
100
AcDbLine
 10
1146.825609780797
 20
286.5427870681537
 30
0.0
 11
1146.825609780797
 21
263.4177870681536
 31
0.0
  0
LINE
  5
F78
330
1F
100
AcDbEntity
  8
0
 62
     3
100
AcDbLine
 10
1149.825609780797
 20
301.1677870681536
 30
0.0
 11
1149.825609780797
 21
280.9177870681537
 31
0.0
  0
LINE
  5
F79
330
1F
100
AcDbEntity
  8
0
 62
     3
100
AcDbLine
 10
1146.825609780797
 20
295.5427870681536
 30
0.0
 11
1146.825609780797
 21
318.6677870681537
 31
0.0
  0
LINE
  5
F7A
330
1F
100
AcDbEntity
  8
0
 62
     3
100
AcDbLine
 10
1156.825609780797
 20
288.5427870681537
 30
0.0
 11
1156.825609780797
 21
257.3011296813797
 31
0.0
  0
LINE
  5
F7C
330
1F
100
AcDbEntity
  8
0
 62
     3
100
AcDbLine
 10
1156.825609780797
 20
293.5427870681536
 30
0.0
 11
1156.825609780797
 21
315.6677870681536
 31
0.0
  0
LINE
  5
F7D
330
1F
100
AcDbEntity
  8
0
 62
     3
100
AcDbLine
 10
1153.825609780797
 20
288.2927870681537
 30
0.0
 11
1153.825609780797
 21
289.6066464065189
 31
0.0
  0
LINE
  5
F7E
330
1F
100
AcDbEntity
  8
0
 62
     3
100
AcDbLine
 10
1153.825609780797
 20
292.4789277297883
 30
0.0
 11
1153.825609780797
 21
293.7927870681536
 31
0.0
  0
LINE
  5
F7F
330
1F
100
AcDbEntity
  8
0
 62
     3
100
AcDbLine
 10
1151.825609780797
 20
288.2927870681537
 30
0.0
 11
1151.825609780797
 21
289.6066464065193
 31
0.0
  0
LINE
  5
F80
330
1F
100
AcDbEntity
  8
0
 62
     3
100
AcDbLine
 10
1151.825609780797
 20
292.4789277297879
 30
0.0
 11
1151.825609780797
 21
293.7927870681536
 31
0.0
  0
LINE
  5
F82
330
1F
100
AcDbEntity
  8
0
 62
     3
100
AcDbLine
 10
1156.325609780797
 20
288.5427870681537
 30
0.0
 11
1156.325609780797
 21
293.5427870681536
 31
0.0
  0
LINE
  5
F84
330
1F
100
AcDbEntity
  8
0
 62
     3
100
AcDbLine
 10
1131.325609780797
 20
298.0427870681536
 30
0.0
 11
1131.325609780797
 21
284.0427870681535
 31
0.0
  0
LINE
  5
F85
330
1F
100
AcDbEntity
  8
0
 62
     3
100
AcDbLine
 10
1129.575609780797
 20
298.0427870681536
 30
0.0
 11
1129.575609780797
 21
284.0427870681535
 31
0.0
  0
LINE
  5
F87
330
1F
100
AcDbEntity
  8
0
 62
     3
100
AcDbLine
 10
1140.325609780797
 20
317.7927870681537
 30
0.0
 11
1140.325609780797
 21
264.2927870681536
 31
0.0
  0
LINE
  5
F89
330
1F
100
AcDbEntity
  8
0
 62
     3
100
AcDbLine
 10
1082.325609780797
 20
276.2927870681537
 30
0.0
 11
1080.575609780797
 21
276.2927870681537
 31
0.0
  0
LINE
  5
F8A
330
1F
100
AcDbEntity
  8
0
 62
     3
100
AcDbLine
 10
1082.325609780797
 20
305.7927870681536
 30
0.0
 11
1080.575609780797
 21
305.7927870681536
 31
0.0
  0
LINE
  5
F8B
330
1F
100
AcDbEntity
  8
0
 62
     3
100
AcDbLine
 10
1129.575609780797
 20
284.0427870681535
 30
0.0
 11
1131.325609780797
 21
284.0427870681535
 31
0.0
  0
LINE
  5
F8C
330
1F
100
AcDbEntity
  8
0
 62
     3
100
AcDbLine
 10
1129.575609780797
 20
298.0427870681536
 30
0.0
 11
1131.325609780797
 21
298.0427870681536
 31
0.0
  0
LINE
  5
F8D
330
1F
100
AcDbEntity
  8
0
 62
     3
100
AcDbLine
 10
1140.325609780797
 20
317.7927870681537
 30
0.0
 11
1142.825609780797
 21
317.7927870681537
 31
0.0
  0
LINE
  5
F8E
330
1F
100
AcDbEntity
  8
0
 62
     3
100
AcDbLine
 10
1140.325609780797
 20
264.2927870681536
 30
0.0
 11
1142.825609780797
 21
264.2927870681536
 31
0.0
  0
ARC
  5
F95
330
1F
100
AcDbEntity
  8
0
 62
     3
100
AcDbCircle
 10
1178.167521545502
 20
291.0427870681536
 30
0.0
 40
46.34191176470567
100
AcDbArc
 50
144.7439612643566
 51
170.0592371487181
  0
LINE
  5
F9F
330
1F
100
AcDbEntity
  8
0
 62
     3
100
AcDbLine
 10
1156.825609780797
 20
314.7927870681536
 30
0.0
 11
1150.325609780797
 21
314.7927870681536
 31
0.0
  0
LINE
  5
FA0
330
1F
100
AcDbEntity
  8
0
  6
PHANTOM
 62
     7
100
AcDbLine
 10
1167.575609780797
 20
319.1677870681536
 30
0.0
 11
1156.075609780797
 21
319.1677870681536
 31
0.0
  0
LINE
  5
FA1
330
1F
100
AcDbEntity
  8
0
  6
PHANTOM
 62
     7
100
AcDbLine
 10
1213.325609780797
 20
285.1677870681537
 30
0.0
 11
1210.825609780797
 21
285.1677870681537
 31
0.0
  0
LINE
  5
FA2
330
1F
100
AcDbEntity
  8
0
  6
PHANTOM
 62
     7
100
AcDbLine
 10
1213.325609780797
 20
296.9177870681536
 30
0.0
 11
1210.825609780797
 21
296.9177870681536
 31
0.0
  0
LINE
  5
FA3
330
1F
100
AcDbEntity
  8
0
  6
PHANTOM
 62
     7
100
AcDbLine
 10
1212.325609780797
 20
307.6677870681536
 30
0.0
 11
1210.075609780797
 21
307.6677870681536
 31
0.0
  0
LINE
  5
FA4
330
1F
100
AcDbEntity
  8
0
  6
PHANTOM
 62
     7
100
AcDbLine
 10
1212.325609780797
 20
311.6677870681536
 30
0.0
 11
1205.320269496617
 21
311.6677870681536
 31
0.0
  0
LINE
  5
FA5
330
1F
100
AcDbEntity
  8
0
  6
PHANTOM
 62
     7
100
AcDbLine
 10
1221.454289437237
 20
311.6677870681536
 30
0.0
 11
1220.575609780797
 21
311.6677870681536
 31
0.0
  0
LINE
  5
FA6
330
1F
100
AcDbEntity
  8
0
  6
PHANTOM
 62
     7
100
AcDbLine
 10
1221.454289437237
 20
323.1677870681537
 30
0.0
 11
1220.575609780797
 21
323.1677870681537
 31
0.0
  0
LINE
  5
FA7
330
1F
100
AcDbEntity
  8
0
  6
PHANTOM
 62
     7
100
AcDbLine
 10
1228.825609780797
 20
314.1677870681537
 30
0.0
 11
1224.575609780797
 21
314.1677870681537
 31
0.0
  0
LINE
  5
FA8
330
1F
100
AcDbEntity
  8
0
  6
PHANTOM
 62
     7
100
AcDbLine
 10
1228.825609780797
 20
320.6677870681537
 30
0.0
 11
1224.575609780797
 21
320.6677870681537
 31
0.0
  0
LINE
  5
FA9
330
1F
100
AcDbEntity
  8
0
  6
PHANTOM
 62
     7
100
AcDbLine
 10
1227.325609780797
 20
309.2677870681537
 30
0.0
 11
1225.096930124357
 21
309.2677870681537
 31
0.0
  0
ARC
  5
FAA
330
1F
100
AcDbEntity
  8
0
  6
PHANTOM
 62
     7
100
AcDbCircle
 10
1225.096930124357
 20
310.7677870681537
 30
0.0
 40
1.5
100
AcDbArc
 50
225.0000000000066
 51
270.0
  0
LINE
  5
FAB
330
1F
100
AcDbEntity
  8
0
  6
PHANTOM
 62
     7
100
AcDbLine
 10
1227.325609780797
 20
325.5677870681536
 30
0.0
 11
1225.096930124357
 21
325.5677870681536
 31
0.0
  0
ARC
  5
FAC
330
1F
100
AcDbEntity
  8
0
  6
PHANTOM
 62
     7
100
AcDbCircle
 10
1225.096930124357
 20
324.0677870681536
 30
0.0
 40
1.5
100
AcDbArc
 50
90.0
 51
134.9999999999933
  0
LINE
  5
FAD
330
1F
100
AcDbEntity
  8
0
  6
PHANTOM
 62
     7
100
AcDbLine
 10
1224.075609780797
 20
312.9177870681536
 30
0.0
 11
1220.075609780797
 21
312.9177870681536
 31
0.0
  0
ARC
  5
FAE
330
1F
100
AcDbEntity
  8
0
  6
PHANTOM
 62
     7
100
AcDbCircle
 10
1224.075609780797
 20
313.4177870681536
 30
0.0
 40
0.5
100
AcDbArc
 50
270.0
 51
0.0
  0
LINE
  5
FAF
330
1F
100
AcDbEntity
  8
0
  6
PHANTOM
 62
     7
100
AcDbLine
 10
1224.075609780797
 20
321.9177870681536
 30
0.0
 11
1220.075609780797
 21
321.9177870681536
 31
0.0
  0
ARC
  5
FB0
330
1F
100
AcDbEntity
  8
0
  6
PHANTOM
 62
     7
100
AcDbCircle
 10
1224.075609780797
 20
321.4177870681536
 30
0.0
 40
0.5
100
AcDbArc
 50
0.0
 51
90.0
  0
LINE
  5
FB1
330
1F
100
AcDbEntity
  8
0
  6
PHANTOM
 62
     7
100
AcDbLine
 10
1220.075609780797
 20
312.6677870681537
 30
0.0
 11
1219.325609780797
 21
312.6677870681537
 31
0.0
  0
LINE
  5
FB2
330
1F
100
AcDbEntity
  8
0
  6
PHANTOM
 62
     7
100
AcDbLine
 10
1220.075609780797
 20
322.1677870681536
 30
0.0
 11
1219.325609780797
 21
322.1677870681536
 31
0.0
  0
LINE
  5
FB3
330
1F
100
AcDbEntity
  8
0
  6
PHANTOM
 62
     7
100
AcDbLine
 10
1227.37353718658
 20
315.4177870681536
 30
0.0
 11
1224.575609780797
 21
315.4177870681536
 31
0.0
  0
LINE
  5
FB4
330
1F
100
AcDbEntity
  8
0
  6
PHANTOM
 62
     7
100
AcDbLine
 10
1205.322625504343
 20
315.4177870681536
 30
0.0
 11
1167.719947348095
 21
315.4177870681536
 31
0.0
  0
LINE
  5
FB5
330
1F
100
AcDbEntity
  8
0
  6
PHANTOM
 62
     7
100
AcDbLine
 10
1227.575609780797
 20
315.7677870681537
 30
0.0
 11
1224.575609780797
 21
315.7677870681537
 31
0.0
  0
LINE
  5
FB6
330
1F
100
AcDbEntity
  8
0
  6
PHANTOM
 62
     7
100
AcDbLine
 10
1205.322845398398
 20
315.7677870681537
 30
0.0
 11
1167.575609780797
 21
315.7677870681537
 31
0.0
  0
LINE
  5
FB7
330
1F
100
AcDbEntity
  8
0
  6
PHANTOM
 62
     7
100
AcDbLine
 10
1227.37353718658
 20
319.4177870681536
 30
0.0
 11
1224.575609780797
 21
319.4177870681536
 31
0.0
  0
LINE
  5
FB8
330
1F
100
AcDbEntity
  8
0
  6
PHANTOM
 62
     7
100
AcDbLine
 10
1205.325138579251
 20
319.4177870681536
 30
0.0
 11
1167.719947348095
 21
319.4177870681536
 31
0.0
  0
LINE
  5
FB9
330
1F
100
AcDbEntity
  8
0
  6
PHANTOM
 62
     7
100
AcDbLine
 10
1227.575609780797
 20
319.0677870681536
 30
0.0
 11
1224.575609780797
 21
319.0677870681536
 31
0.0
  0
LINE
  5
FBA
330
1F
100
AcDbEntity
  8
0
  6
PHANTOM
 62
     7
100
AcDbLine
 10
1205.324918685197
 20
319.0677870681536
 30
0.0
 11
1167.575609780797
 21
319.0677870681536
 31
0.0
  0
LINE
  5
FBB
330
1F
100
AcDbEntity
  8
0
  6
PHANTOM
 62
     7
100
AcDbLine
 10
1167.575609780797
 20
315.6677870681536
 30
0.0
 11
1156.075609780797
 21
315.6677870681536
 31
0.0
  0
ARC
  5
FBC
330
1F
100
AcDbEntity
  8
0
  6
PHANTOM
 62
     7
100
AcDbCircle
 10
1156.075609780797
 20
314.1677870681537
 30
0.0
 40
1.5
100
AcDbArc
 50
90.0
 51
150.0000000000015
  0
ARC
  5
FBD
330
1F
100
AcDbEntity
  8
0
  6
PHANTOM
 62
     7
100
AcDbCircle
 10
1156.075609780797
 20
314.1677870681537
 30
0.0
 40
5.0
100
AcDbArc
 50
90.0
 51
171.3730734413232
  0
LINE
  5
FBE
330
1F
100
AcDbEntity
  8
0
 62
     3
100
AcDbLine
 10
1156.825609780797
 20
267.2927870681537
 30
0.0
 11
1150.325609780797
 21
267.2927870681537
 31
0.0
  0
LINE
  5
FBF
330
1F
100
AcDbEntity
  8
0
 62
     3
100
AcDbLine
 10
1146.825609780797
 20
318.5427870681536
 30
0.0
 11
1149.825609780797
 21
318.5427870681536
 31
0.0
  0
ARC
  5
FC4
330
1F
100
AcDbEntity
  8
0
 62
     3
100
AcDbCircle
 10
1117.075609780797
 20
291.0427870681536
 30
0.0
 40
5.99999999999994
100
AcDbArc
 50
0.0
 51
56.44269023807364
  0
ARC
  5
FC7
330
1F
100
AcDbEntity
  8
0
 62
     3
100
AcDbCircle
 10
1124.350965584075
 20
246.6893368526398
 30
0.0
 40
38.95540110849824
100
AcDbArc
 50
82.29234360198969
 51
98.8601047759306
  0
ARC
  5
FC8
330
1F
100
AcDbEntity
  8
0
 62
     3
100
AcDbCircle
 10
1124.350965770198
 20
246.6893398395054
 30
0.0
 40
38.95539812365553
100
AcDbArc
 50
82.29234328407207
 51
98.8601072594878
  0
ARC
  5
FC9
330
1F
100
AcDbEntity
  8
0
 62
     3
100
AcDbCircle
 10
1124.350965770198
 20
335.3962342968017
 30
0.0
 40
38.95539812365553
100
AcDbArc
 50
271.8015088866708
 51
277.707656715928
  0
LINE
  5
FCC
330
1F
100
AcDbEntity
  8
0
 62
     3
100
AcDbLine
 10
1149.825609780797
 20
318.5427870681536
 30
0.0
 11
1149.825609780797
 21
325.5427870681537
 31
0.0
  0
LINE
  5
FCD
330
1F
100
AcDbEntity
  8
0
 62
     3
100
AcDbLine
 10
1146.825609780797
 20
263.5427870681537
 30
0.0
 11
1149.825609780797
 21
263.5427870681537
 31
0.0
  0
LINE
  5
FCE
330
1F
100
AcDbEntity
  8
0
 62
     3
100
AcDbLine
 10
1149.825609780797
 20
263.5427870681537
 30
0.0
 11
1149.825609780797
 21
256.5427870681536
 31
0.0
  0
LINE
  5
FEB
330
1F
100
AcDbEntity
  8
0
 62
     3
100
AcDbLine
 10
1112.825609780797
 20
281.0427870681536
 30
0.0
 11
1112.825609780797
 21
301.0427870681537
 31
0.0
  0
LINE
  5
FEC
330
1F
100
AcDbEntity
  8
0
 62
     3
100
AcDbLine
 10
1082.325609780797
 20
305.7927870681536
 30
0.0
 11
1082.325609780797
 21
276.2927870681537
 31
0.0
  0
LINE
  5
FED
330
1F
100
AcDbEntity
  8
0
 62
     3
100
AcDbLine
 10
1080.575609780797
 20
305.7927870681536
 30
0.0
 11
1080.575609780797
 21
276.2927870681537
 31
0.0
  0
LINE
  5
FEE
330
1F
100
AcDbEntity
  8
0
 62
     7
100
AcDbLine
 10
1080.325609780797
 20
304.3927870681537
 30
0.0
 11
1080.325609780797
 21
277.6927870681536
 31
0.0
  0
LINE
  5
FEF
330
1F
100
AcDbEntity
  8
0
 62
     3
100
AcDbLine
 10
1077.325609780797
 20
298.5427870681538
 30
0.0
 11
1077.325609780797
 21
283.5427870681535
 31
0.0
  0
LINE
  5
FF0
330
1F
100
AcDbEntity
  8
0
 62
     3
100
AcDbLine
 10
1112.825609780797
 20
301.0427870681537
 30
0.0
 11
1082.325609780797
 21
304.0427870681536
 31
0.0
  0
LINE
  5
FF1
330
1F
100
AcDbEntity
  8
0
 62
     3
100
AcDbLine
 10
1112.825609780797
 20
281.0427870681536
 30
0.0
 11
1082.325609780797
 21
278.0427870681537
 31
0.0
  0
LINE
  5
FF2
330
1F
100
AcDbEntity
  8
0
 62
     3
100
AcDbLine
 10
1080.575609780797
 20
304.3927870681537
 30
0.0
 11
1080.325609780797
 21
304.3927870681537
 31
0.0
  0
LINE
  5
FF3
330
1F
100
AcDbEntity
  8
0
 62
     3
100
AcDbLine
 10
1080.575609780797
 20
277.6927870681536
 30
0.0
 11
1080.325609780797
 21
277.6927870681536
 31
0.0
  0
ARC
  5
FF4
330
1F
100
AcDbEntity
  8
0
 62
     3
100
AcDbCircle
 10
1099.154359780797
 20
291.0427870681536
 30
0.0
 40
23.08125487408532
100
AcDbArc
 50
144.6625162903163
 51
161.0381203141226
  0
ARC
  5
FF5
330
1F
100
AcDbEntity
  8
0
 62
     3
100
AcDbCircle
 10
1099.154359780797
 20
291.0427870681536
 30
0.0
 40
23.08125487408532
100
AcDbArc
 50
198.9618796858773
 51
215.3374837096837
  0
ARC
  5
101F
330
1F
100
AcDbEntity
  8
0
 62
     3
100
AcDbCircle
 10
1152.825609780797
 20
291.0427870681536
 30
0.0
 40
1.75
100
AcDbArc
 50
124.8499045790536
 51
235.1500954209462
  0
ARC
  5
1020
330
1F
100
AcDbEntity
  8
0
 62
     3
100
AcDbCircle
 10
1152.825609780797
 20
291.0427870681536
 30
0.0
 40
1.75
100
AcDbArc
 50
304.849904579037
 51
55.15009542096295
  0
LINE
  5
1021
330
1F
100
AcDbEntity
  8
0
  6
PHANTOM
 62
     7
100
AcDbLine
 10
1227.575609780797
 20
315.7677870681537
 30
0.0
 11
1227.575609780797
 21
319.0677870681536
 31
0.0
  0
LINE
  5
1022
330
1F
100
AcDbEntity
  8
0
  6
PHANTOM
 62
     7
100
AcDbLine
 10
1167.575609780797
 20
315.6677870681536
 30
0.0
 11
1167.575609780797
 21
319.1677870681536
 31
0.0
  0
LINE
  5
1023
330
1F
100
AcDbEntity
  8
0
  6
PHANTOM
 62
     7
100
AcDbLine
 10
1227.575609780797
 20
315.7677870681537
 30
0.0
 11
1227.37353718658
 21
315.4177870681536
 31
0.0
  0
LINE
  5
1024
330
1F
100
AcDbEntity
  8
0
  6
PHANTOM
 62
     7
100
AcDbLine
 10
1227.575609780797
 20
319.0677870681536
 30
0.0
 11
1227.37353718658
 21
319.4177870681536
 31
0.0
  0
LINE
  5
1025
330
1F
100
AcDbEntity
  8
0
  6
PHANTOM
 62
     7
100
AcDbLine
 10
1167.575609780797
 20
319.1677870681536
 30
0.0
 11
1167.719947348095
 21
319.4177870681536
 31
0.0
  0
LINE
  5
1026
330
1F
100
AcDbEntity
  8
0
  6
PHANTOM
 62
     7
100
AcDbLine
 10
1167.575609780797
 20
315.6677870681536
 30
0.0
 11
1167.719947348095
 21
315.4177870681536
 31
0.0
  0
LINE
  5
1027
330
1F
100
AcDbEntity
  8
0
  6
PHANTOM
 62
     7
100
AcDbLine
 10
1224.575609780797
 20
321.4177870681536
 30
0.0
 11
1224.575609780797
 21
313.4177870681536
 31
0.0
  0
LINE
  5
1028
330
1F
100
AcDbEntity
  8
0
  6
PHANTOM
 62
     7
100
AcDbLine
 10
1219.325609780797
 20
322.1677870681536
 30
0.0
 11
1219.325609780797
 21
275.6677870681536
 31
0.0
  0
LINE
  5
1029
330
1F
100
AcDbEntity
  8
0
  6
PHANTOM
 62
     7
100
AcDbLine
 10
1213.325609780797
 20
296.9177870681536
 30
0.0
 11
1213.325609780797
 21
285.1677870681537
 31
0.0
  0
LINE
  5
102A
330
1F
100
AcDbEntity
  8
0
  6
PHANTOM
 62
     7
100
AcDbLine
 10
1212.325609780797
 20
311.6677870681536
 30
0.0
 11
1212.325609780797
 21
307.6677870681536
 31
0.0
  0
LINE
  5
102B
330
1F
100
AcDbEntity
  8
0
  6
PHANTOM
 62
     7
100
AcDbLine
 10
1209.325609780797
 20
306.9177870681536
 30
0.0
 11
1209.325609780797
 21
298.9177870681535
 31
0.0
  0
LINE
  5
102C
330
1F
100
AcDbEntity
  8
0
  6
PHANTOM
 62
     7
100
AcDbLine
 10
1210.075609780797
 20
307.6677870681536
 30
0.0
 11
1209.325609780797
 21
306.9177870681536
 31
0.0
  0
LINE
  5
102D
330
1F
100
AcDbEntity
  8
0
  6
PHANTOM
 62
     7
100
AcDbLine
 10
1209.325609780797
 20
283.1677870681537
 30
0.0
 11
1209.325609780797
 21
276.2035013538679
 31
0.0
  0
LINE
  5
102E
330
1F
100
AcDbEntity
  8
0
  6
PHANTOM
 62
     7
100
AcDbLine
 10
1205.325609780797
 20
320.1677870681536
 30
0.0
 11
1205.320269496617
 21
311.6677870681536
 31
0.0
  0
LINE
  5
102F
330
1F
100
AcDbEntity
  8
0
  6
PHANTOM
 62
     7
100
AcDbLine
 10
1229.825609780797
 20
323.0677870681536
 30
0.0
 11
1229.825609780797
 21
321.6677870681536
 31
0.0
  0
ARC
  5
1030
330
1F
100
AcDbEntity
  8
0
  6
PHANTOM
 62
     7
100
AcDbCircle
 10
1228.825609780797
 20
321.6677870681536
 30
0.0
 40
1.0
100
AcDbArc
 50
270.0
 51
0.0
  0
LINE
  5
1031
330
1F
100
AcDbEntity
  8
0
  6
PHANTOM
 62
     7
100
AcDbLine
 10
1229.825609780797
 20
313.1677870681536
 30
0.0
 11
1229.825609780797
 21
311.7677870681537
 31
0.0
  0
ARC
  5
1032
330
1F
100
AcDbEntity
  8
0
  6
PHANTOM
 62
     7
100
AcDbCircle
 10
1228.825609780797
 20
313.1677870681536
 30
0.0
 40
1.0
100
AcDbArc
 50
0.0
 51
90.0
  0
LINE
  5
1033
330
1F
100
AcDbEntity
  8
0
  6
PHANTOM
 62
     7
100
AcDbLine
 10
1220.075609780797
 20
312.1677870681537
 30
0.0
 11
1220.075609780797
 21
312.9177870681536
 31
0.0
  0
LINE
  5
1034
330
1F
100
AcDbEntity
  8
0
  6
PHANTOM
 62
     7
100
AcDbLine
 10
1220.075609780797
 20
321.9177870681536
 30
0.0
 11
1220.075609780797
 21
322.6677870681537
 31
0.0
  0
ARC
  5
1035
330
1F
100
AcDbEntity
  8
0
  6
PHANTOM
 62
     7
100
AcDbCircle
 10
1220.575609780797
 20
322.6677870681537
 30
0.0
 40
0.5
100
AcDbArc
 50
90.0
 51
180.0
  0
ARC
  5
1036
330
1F
100
AcDbEntity
  8
0
  6
PHANTOM
 62
     7
100
AcDbCircle
 10
1220.575609780797
 20
312.1677870681537
 30
0.0
 40
0.5
100
AcDbArc
 50
180.0
 51
270.0
  0
LINE
  5
1037
330
1F
100
AcDbEntity
  8
0
  6
PHANTOM
 62
     7
100
AcDbLine
 10
1222.514949609017
 20
323.6071268963739
 30
0.0
 11
1224.036269952576
 21
325.1284472399333
 31
0.0
  0
ARC
  5
1038
330
1F
100
AcDbEntity
  8
0
  6
PHANTOM
 62
     7
100
AcDbCircle
 10
1221.454289437237
 20
324.6677870681537
 30
0.0
 40
1.5
100
AcDbArc
 50
270.0
 51
314.9999999999934
  0
LINE
  5
1039
330
1F
100
AcDbEntity
  8
0
  6
PHANTOM
 62
     7
100
AcDbLine
 10
1222.514949609017
 20
311.2284472399334
 30
0.0
 11
1224.036269952576
 21
309.7071268963738
 31
0.0
  0
ARC
  5
103A
330
1F
100
AcDbEntity
  8
0
  6
PHANTOM
 62
     7
100
AcDbCircle
 10
1221.454289437237
 20
310.1677870681537
 30
0.0
 40
1.5
100
AcDbArc
 50
45.00000000000658
 51
90.0
  0
ARC
  5
103B
330
1F
100
AcDbEntity
  8
0
  6
PHANTOM
 62
     7
100
AcDbCircle
 10
1227.325609780797
 20
323.0677870681538
 30
0.0
 40
2.5
100
AcDbArc
 50
359.9999999999935
 51
90.0
  0
ARC
  5
103C
330
1F
100
AcDbEntity
  8
0
  6
PHANTOM
 62
     7
100
AcDbCircle
 10
1227.325609780797
 20
311.7677870681533
 30
0.0
 40
2.5
100
AcDbArc
 50
270.0
 51
0.0000000000065138
  0
LINE
  5
103D
330
1F
100
AcDbEntity
  8
0
  6
PHANTOM
 62
     7
100
AcDbLine
 10
1219.325609780797
 20
320.9177870681537
 30
0.0
 11
1205.325609780797
 21
320.1677870681536
 31
0.0
  0
LINE
  5
103E
330
1F
100
AcDbEntity
  8
0
  6
PHANTOM
 62
     7
100
AcDbLine
 10
1219.312259070348
 20
318.4177870681537
 30
0.0
 11
1205.312259070349
 21
317.6677870681536
 31
0.0
  0
LINE
  5
103F
330
1F
100
AcDbEntity
  8
0
  6
PHANTOM
 62
     7
100
AcDbLine
 10
1209.325609780797
 20
298.9177870681536
 30
0.0
 11
1210.825609780797
 21
296.9177870681536
 31
0.0
  0
LINE
  5
1040
330
1F
100
AcDbEntity
  8
0
  6
PHANTOM
 62
     7
100
AcDbLine
 10
1209.325609780797
 20
283.1677870681537
 30
0.0
 11
1210.825609780797
 21
285.1677870681537
 31
0.0
  0
LINE
  5
1041
330
1F
100
AcDbEntity
  8
0
  6
PHANTOM
 62
     7
100
AcDbLine
 10
1219.325609780797
 20
275.6677870681536
 30
0.0
 11
1209.325609780797
 21
276.2035013538679
 31
0.0
  0
LINE
  5
1046
330
1F
100
AcDbEntity
  8
0
  6
CENTER
 62
     7
100
AcDbLine
 10
1059.943881692511
 20
291.0427870681536
 30
0.0
 11
1224.402594360908
 21
291.0427870681536
 31
0.0
  0
LINE
  5
1047
330
1F
100
AcDbEntity
  8
0
  6
PHANTOM
 62
     7
100
AcDbLine
 10
1227.37353718658
 20
319.4177870681536
 30
0.0
 11
1227.37353718658
 21
315.4177870681536
 31
0.0
  0
LINE
  5
1054
330
1F
100
AcDbEntity
  8
0
 62
     3
100
AcDbLine
 10
1125.575609780797
 20
296.4600905480968
 30
0.0
 11
1125.575609780797
 21
291.0427870681535
 31
0.0
  0
LINE
  5
1055
330
1F
100
AcDbEntity
  8
0
 62
     3
100
AcDbLine
 10
1112.825609780797
 20
291.0427870681536
 30
0.0
 11
1125.575609780797
 21
291.0427870681535
 31
0.0
  0
LINE
  5
1056
330
1F
100
AcDbEntity
  8
0
 62
     3
100
AcDbLine
 10
1112.825609780797
 20
296.0427870681536
 30
0.0
 11
1120.392234571152
 21
296.0427870681535
 31
0.0
  0
ARC
  5
1058
330
1F
100
AcDbEntity
  8
0
 62
     3
100
AcDbCircle
 10
1117.075609780797
 20
291.0427870681536
 30
0.0
 40
5.99999999999994
100
AcDbArc
 50
224.9005279606937
 51
282.2723121881288
  0
LINE
  5
1066
330
1F
100
AcDbEntity
  8
0
 62
     3
100
AcDbLine
 10
1125.325609780797
 20
302.7927870681537
 30
0.0
 11
1125.325609780797
 21
293.0427870681535
 31
0.0
  0
ARC
  5
1067
330
1F
100
AcDbEntity
  8
0
 62
     3
100
AcDbCircle
 10
1121.825609780797
 20
302.7927870681537
 30
0.0
 40
3.5
100
AcDbArc
 50
0.0
 51
100.3451890703193
  0
ARC
  5
1068
330
1F
100
AcDbEntity
  8
0
 62
     3
100
AcDbCircle
 10
1121.825609780797
 20
279.2927870681536
 30
0.0
 40
3.5
100
AcDbArc
 50
259.6548109296807
 51
0.0
  0
ARC
  5
1069
330
1F
100
AcDbEntity
  8
0
 62
     3
100
AcDbCircle
 10
1107.575609780797
 20
291.0427870681536
 30
0.0
 40
12.5
100
AcDbArc
 50
100.3451890703193
 51
117.5293631106083
  0
LINE
  5
106A
330
1F
100
AcDbEntity
  8
0
 62
     3
100
AcDbLine
 10
1105.330882935198
 20
303.3395834553696
 30
0.0
 11
1121.197086264029
 21
306.2358900565741
 31
0.0
  0
LINE
  5
106B
330
1F
100
AcDbEntity
  8
0
 62
     3
100
AcDbLine
 10
1105.330882935198
 20
278.7459906809377
 30
0.0
 11
1121.197086264029
 21
275.8496840797331
 31
0.0
  0
LINE
  5
10BA
330
1F
100
AcDbEntity
  8
0
 62
     3
100
AcDbLine
 10
1125.325609780797
 20
285.6325435087608
 30
0.0
 11
1125.325609780797
 21
279.2927870681536
 31
0.0
  0
LINE
  5
10BB
330
1F
100
AcDbEntity
  8
0
 62
     3
100
AcDbLine
 10
1123.575609780797
 20
293.0427870681535
 30
0.0
 11
1123.575609780797
 21
291.0427870681535
 31
0.0
  0
LINE
  5
10BC
330
1F
100
AcDbEntity
  8
0
 62
     3
100
AcDbLine
 10
1123.575609780797
 20
293.0427870681535
 30
0.0
 11
1125.575609780797
 21
293.0427870681535
 31
0.0
  0
LINE
  5
10C0
330
1F
100
AcDbEntity
  8
0
 62
     3
100
AcDbLine
 10
1131.325609780797
 20
298.0427870681536
 30
0.0
 11
1132.521352089482
 21
299.0427870681537
 31
0.0
  0
LINE
  5
10C1
330
1F
100
AcDbEntity
  8
0
 62
     3
100
AcDbLine
 10
1131.325609780797
 20
284.0427870681535
 30
0.0
 11
1132.521352089482
 21
283.0427870681536
 31
0.0
  0
ELLIPSE
  5
10C3
330
1F
100
AcDbEntity
  8
0
 62
     3
100
AcDbEllipse
 10
1132.521352089482
 20
291.0427870681535
 30
0.0
 11
0.0
 21
7.999999999999943
 31
0.0
210
0.0
220
0.0
230
1.0
 40
0.6948295819765966
 41
3.141592653589792
 42
6.283185307179584
  0
ARC
  5
10C4
330
1F
100
AcDbEntity
  8
0
 62
     3
100
AcDbCircle
 10
1178.167521545502
 20
291.0427870681536
 30
0.0
 40
46.34191176470567
100
AcDbArc
 50
189.9407628512818
 51
215.2560387356433
  0
LINE
  5
10C9
330
1F
100
AcDbEntity
  8
0
 62
     3
100
AcDbLine
 10
1107.016283635391
 20
280.4713779390972
 30
0.0
 11
1124.66711331988
 21
277.2492955371262
 31
0.0
  0
LINE
  5
10CA
330
1F
100
AcDbEntity
  8
0
 62
     3
100
AcDbLine
 10
1107.016283635391
 20
301.6141961972099
 30
0.0
 11
1124.66711331988
 21
304.8362785991808
 31
0.0
  0
LINE
  5
10D1
330
1F
100
AcDbEntity
  8
0
 62
     3
100
AcDbLine
 10
1112.825609780797
 20
300.0742893909585
 30
0.0
 11
1125.325609780797
 21
302.3561101747164
 31
0.0
  0
LINE
  5
10D2
330
1F
100
AcDbEntity
  8
0
 62
     3
100
AcDbLine
 10
1112.825609780797
 20
282.0112847453487
 30
0.0
 11
1125.325609780797
 21
279.7294639615907
 31
0.0
  0
LINE
  5
10D4
330
1F
100
AcDbEntity
  8
0
 62
     3
100
AcDbLine
 10
1112.825609780797
 20
282.799091560632
 30
0.0
 11
1125.325609780797
 21
280.5172707768739
 31
0.0
  0
LINE
  5
10D5
330
1F
100
AcDbEntity
  8
0
 62
     3
100
AcDbLine
 10
1112.825609780797
 20
299.2864825756752
 30
0.0
 11
1125.325609780797
 21
301.5683033594331
 31
0.0
  0
ARC
  5
10E6
330
1F
100
AcDbEntity
  8
0
 62
     3
100
AcDbCircle
 10
1107.575609780797
 20
291.0427870681536
 30
0.0
 40
12.5
100
AcDbArc
 50
242.4706368893918
 51
259.6548109296807
  0
LINE
  5
10E7
330
1F
100
AcDbEntity
  8
0
 62
     3
100
AcDbLine
 10
1146.825609780797
 20
325.5427870681537
 30
0.0
 11
1156.325609780797
 21
325.5427870681537
 31
0.0
  0
LINE
  5
10E8
330
1F
100
AcDbEntity
  8
0
 62
     3
100
AcDbLine
 10
1146.825609780797
 20
256.5427870681536
 30
0.0
 11
1156.325609780797
 21
256.5427870681536
 31
0.0
  0
LINE
  5
10E9
330
1F
100
AcDbEntity
  8
0
 62
     3
100
AcDbLine
 10
1146.825609780797
 20
321.2927870681536
 30
0.0
 11
1146.825609780797
 21
260.7927870681536
 31
0.0
  0
LINE
  5
10EA
330
1F
100
AcDbEntity
  8
0
 62
     3
100
AcDbLine
 10
1146.825609780797
 20
325.5427870681537
 30
0.0
 11
1142.825609780797
 21
318.6677870681537
 31
0.0
  0
LINE
  5
10EB
330
1F
100
AcDbEntity
  8
0
 62
     3
100
AcDbLine
 10
1142.825609780797
 20
263.4177870681536
 30
0.0
 11
1146.825609780797
 21
256.5427870681536
 31
0.0
  0
LINE
  5
1101
330
1F
100
AcDbEntity
  8
0
 62
     3
100
AcDbLine
 10
1150.325609780797
 20
262.2927870681536
 30
0.0
 11
1150.325609780797
 21
267.2927870681537
 31
0.0
  0
LINE
  5
1102
102
{ACAD_REACTORS
330
1044
102
}
330
1F
100
AcDbEntity
  8
0
 62
     3
100
AcDbLine
 10
1156.825609780797
 20
262.2927870681536
 30
0.0
 11
1150.325609780797
 21
262.2927870681536
 31
0.0
  0
LINE
  5
1103
330
1F
100
AcDbEntity
  8
0
 62
     3
100
AcDbLine
 10
1156.825609780797
 20
319.7927870681537
 30
0.0
 11
1150.325609780797
 21
319.7927870681537
 31
0.0
  0
LINE
  5
1104
330
1F
100
AcDbEntity
  8
0
 62
     3
100
AcDbLine
 10
1150.325609780797
 20
314.7927870681536
 30
0.0
 11
1150.325609780797
 21
319.7927870681537
 31
0.0
  0
LINE
  5
1110
330
1F
100
AcDbEntity
  8
0
 62
     3
100
AcDbLine
 10
1156.325609780797
 20
257.3011296813797
 30
0.0
 11
1156.825609780797
 21
257.3011296813797
 31
0.0
  0
LINE
  5
1111
330
1F
100
AcDbEntity
  8
0
 62
     3
100
AcDbLine
 10
1156.325609780797
 20
324.7844444549276
 30
0.0
 11
1156.825609780797
 21
324.7844444549276
 31
0.0
  0
LINE
  5
1112
330
1F
100
AcDbEntity
  8
0
 62
     3
100
AcDbLine
 10
1156.325609780797
 20
257.3011296813797
 30
0.0
 11
1156.325609780797
 21
256.5427870681536
 31
0.0
  0
LINE
  5
1113
330
1F
100
AcDbEntity
  8
0
 62
     3
100
AcDbLine
 10
1156.325609780797
 20
324.7844444549276
 30
0.0
 11
1156.325609780797
 21
325.5427870681537
 31
0.0
  0
LINE
  5
1114
330
1F
100
AcDbEntity
  8
0
 62
     3
100
AcDbLine
 10
1156.825609780797
 20
319.1677870681536
 30
0.0
 11
1156.825609780797
 21
324.7844444549276
 31
0.0
  0
LINE
  5
115D
330
1F
100
AcDbEntity
  8
0
  6
CENTER
 62
     7
100
AcDbLine
 10
1008.131973320944
 20
150.3482560779799
 30
0.0
 11
1008.131973320944
 21
230.59825607798
 31
0.0
  0
LINE
  5
115E
330
1F
100
AcDbEntity
  8
0
  6
CENTER
 62
     7
100
AcDbLine
 10
968.0069733209442
 20
190.4732560779799
 30
0.0
 11
1048.256973320944
 21
190.4732560779799
 31
0.0
  0
ARC
  5
1203
330
1F
100
AcDbEntity
  8
0
 62
     7
100
AcDbCircle
 10
1117.075609780797
 20
204.47325607798
 30
0.0
 40
10.62379183604881
100
AcDbArc
 50
46.3212266918795
 51
314.1640739634914
  0
LINE
  5
1210
330
1F
100
AcDbEntity
  8
0
 62
     7
100
AcDbLine
 10
1122.33698492149
 20
215.0422757202268
 30
0.0
 11
1124.412554700819
 21
212.1566272271739
 31
0.0
  0
LINE
  5
1211
330
1F
100
AcDbEntity
  8
0
 62
     7
100
AcDbLine
 10
1124.412554700819
 20
212.1566272271739
 30
0.0
 11
1120.612255476068
 21
213.423647495662
 31
0.0
  0
LINE
  5
1212
330
1F
100
AcDbEntity
  8
0
 62
     7
100
AcDbLine
 10
1120.687938365773
 20
195.553141084452
 30
0.0
 11
1124.477369617028
 21
196.852304411524
 31
0.0
  0
LINE
  5
1213
330
1F
100
AcDbEntity
  8
0
 62
     7
100
AcDbLine
 10
1124.477369617028
 20
196.852304411524
 30
0.0
 11
1122.17116246776
 21
193.9530745099528
 31
0.0
  0
ARC
  5
121F
330
1F
100
AcDbEntity
  8
0
 62
     7
100
AcDbCircle
 10
1132.325609780797
 20
158.2232560779799
 30
0.0
 40
10.62379183604881
100
AcDbArc
 50
181.1799568331411
 51
314.5149772324836
  0
LINE
  5
1222
330
1F
100
AcDbEntity
  8
0
 62
     7
100
AcDbLine
 10
1135.992500785451
 20
149.3254316436821
 30
0.0
 11
1139.773904400263
 21
150.6477785196121
 31
0.0
  0
LINE
  5
1223
330
1F
100
AcDbEntity
  8
0
 62
     7
100
AcDbLine
 10
1139.773904400263
 20
150.6477785196121
 30
0.0
 11
1137.485496485087
 21
147.7344789038395
 31
0.0
  0
ARC
  5
1228
330
1F
100
AcDbEntity
  8
0
 62
     7
100
AcDbCircle
 10
1008.131973320944
 20
214.47325607798
 30
0.0
 40
18.3467977976894
100
AcDbArc
 50
359.9999999999998
 51
180.0000000000001
  0
LINE
  5
122D
330
1F
100
AcDbEntity
  8
0
 62
     7
100
AcDbLine
 10
1027.068659868732
 20
218.0453735841188
 30
0.0
 11
1026.478771118633
 21
214.4732560779799
 31
0.0
  0
LINE
  5
122E
330
1F
100
AcDbEntity
  8
0
 62
     7
100
AcDbLine
 10
1026.478771118633
 20
214.4732560779799
 30
0.0
 11
1025.039721939011
 21
217.8319268428227
 31
0.0
  0
LINE
  5
122F
330
1F
100
AcDbEntity
  8
0
 62
     7
100
AcDbLine
 10
989.1952867731559
 20
218.0453735841188
 30
0.0
 11
989.7851755232547
 21
214.4732560779799
 31
0.0
  0
LINE
  5
1230
330
1F
100
AcDbEntity
  8
0
 62
     7
100
AcDbLine
 10
989.7851755232547
 20
214.4732560779799
 30
0.0
 11
991.2242247028771
 21
217.8319268428227
 31
0.0
  0
TEXT
  5
1ACD
330
1F
100
AcDbEntity
  8
0
 62
     4
100
AcDbText
 10
1010.163143686009
 20
130.7338273185346
 30
0.0
 40
3.2
  1
A
  7
高3.2
100
AcDbText
  0
CIRCLE
  5
1AD5
330
1F
100
AcDbEntity
  8
0
100
AcDbCircle
 10
1125.993390347336
 20
119.4757804534307
 30
0.0
 40
5.0
  0
TEXT
  5
1AD6
330
1F
100
AcDbEntity
  8
0
 62
     4
100
AcDbText
 10
1123.864586748265
 20
116.5519671241737
 30
0.0
 40
6.299999999999998
  1
3
  7
高6.3
100
AcDbText
  0
LINE
  5
1C0A
330
1F
100
AcDbEntity
  8
0
 62
     3
100
AcDbLine
 10
1145.925609780797
 20
162.8482560779799
 30
0.0
 11
1145.925609780797
 21
139.9880566440374
 31
0.0
  0
LINE
  5
1C76
330
1F
100
AcDbEntity
  8
0
100
AcDbLine
 10
1062.893069222374
 20
73.46392224206043
 30
0.0
 11
949.6698028686182
 21
73.46392224206045
 31
0.0
  0
LINE
  5
1C77
330
1F
100
AcDbEntity
  8
0
100
AcDbLine
 10
1062.893069222374
 20
78.46392224206043
 30
0.0
 11
949.6698028686182
 21
78.46392224206045
 31
0.0
  0
LINE
  5
1C78
330
1F
100
AcDbEntity
  8
0
 62
     7
100
AcDbLine
 10
1062.893069222374
 20
83.46392224206045
 30
0.0
 11
949.6698028686182
 21
83.46392224206045
 31
0.0
  0
TEXT
  5
1C79
330
1F
100
AcDbEntity
  8
0
 62
     3
100
AcDbText
 10
951.1698028686183
 20
68.96392224206045
 30
0.0
 40
3.2
  1
No.
 41
0.8
  7
高3.2
100
AcDbText
  0
TEXT
  5
1C7A
330
1F
100
AcDbEntity
  8
0
 62
     3
100
AcDbText
 10
951.1698028686183
 20
73.96392224206045
 30
0.0
 40
3.2
  1
1
 41
0.8
  7
高3.2
100
AcDbText
  0
TEXT
  5
1C7B
330
1F
100
AcDbEntity
  8
0
 62
     3
100
AcDbText
 10
951.1698028686183
 20
78.96392224206045
 30
0.0
 40
3.2
  1
2
 41
0.8
  7
高3.2
100
AcDbText
  0
LINE
  5
1C7C
330
1F
100
AcDbEntity
  8
0
100
AcDbLine
 10
957.1933060056288
 20
68.46392224206045
 30
0.0
 11
957.1933060056288
 21
88.46392224206041
 31
0.0
  0
TEXT
  5
1C7D
330
1F
100
AcDbEntity
  8
0
 62
     3
100
AcDbText
 10
958.6933060056288
 20
68.96392224206045
 30
0.0
 40
3.2
  1
部品名
 41
0.8
  7
高3.2
100
AcDbText
  0
TEXT
  5
1C7E
330
1F
100
AcDbEntity
  8
0
 62
     3
100
AcDbText
 10
958.6933060056288
 20
73.96392224206045
 30
0.0
 40
3.2
  1
センサーライト
 41
0.8
  7
高3.2
100
AcDbText
  0
TEXT
  5
1C7F
330
1F
100
AcDbEntity
  8
0
 62
     3
100
AcDbText
 10
958.6933060056288
 20
78.96392224206045
 30
0.0
 40
3.2
  1
クランプSET
 41
0.8
  7
高3.2
100
AcDbText
  0
LINE
  5
1C80
330
1F
100
AcDbEntity
  8
0
100
AcDbLine
 10
980.3943034354267
 20
68.46392224206045
 30
0.0
 11
980.3943034354267
 21
88.46392224206041
 31
0.0
  0
TEXT
  5
1C81
330
1F
100
AcDbEntity
  8
0
 62
     3
100
AcDbText
 10
981.8943034354267
 20
68.96392224206048
 30
0.0
 40
3.2
  1
材質
 41
0.8
  7
高3.2
100
AcDbText
  0
TEXT
  5
1C82
330
1F
100
AcDbEntity
  8
0
 62
     3
100
AcDbText
 10
981.8943034354267
 20
73.96392224206045
 30
0.0
 40
3.2
  1
ABS
 41
0.8
  7
高3.2
100
AcDbText
  0
TEXT
  5
1C83
330
1F
100
AcDbEntity
  8
0
 62
     3
100
AcDbText
 10
981.8943034354267
 20
78.96392224206045
 30
0.0
 40
3.2
  1
ABS
 41
0.8
  7
高3.2
100
AcDbText
  0
LINE
  5
1C84
330
1F
100
AcDbEntity
  8
0
100
AcDbLine
 10
994.7910221536478
 20
68.46392224206045
 30
0.0
 11
994.7910221536478
 21
88.46392224206041
 31
0.0
  0
TEXT
  5
1C85
330
1F
100
AcDbEntity
  8
0
 62
     3
100
AcDbText
 10
996.2910221536477
 20
68.96392224206045
 30
0.0
 40
3.2
  1
備考
 41
0.8
  7
高3.2
100
AcDbText
  0
TEXT
  5
1C86
330
1F
100
AcDbEntity
  8
0
 62
     3
100
AcDbText
 10
996.2910221536477
 20
73.96392224206045
 30
0.0
 40
3.2
  1
白
 41
0.8
  7
高3.2
100
AcDbText
  0
TEXT
  5
1C87
330
1F
100
AcDbEntity
  8
0
 62
     3
100
AcDbText
 10
996.2910221536477
 20
78.96392224206045
 30
0.0
 40
3.2
  1
ネジ部M8
 41
0.8
  7
高3.2
100
AcDbText
  0
LINE
  5
1C88
330
1F
100
AcDbEntity
  8
0
100
AcDbLine
 10
1038.141210380914
 20
68.46392224206045
 30
0.0
 11
1038.141210380914
 21
88.46392224206041
 31
0.0
  0
TEXT
  5
1C89
330
1F
100
AcDbEntity
  8
0
 62
     3
100
AcDbText
 10
1039.641210380914
 20
68.96392224206045
 30
0.0
 40
3.2
  1
個数
 41
0.8
  7
高3.2
100
AcDbText
  0
TEXT
  5
1C8A
330
1F
100
AcDbEntity
  8
0
 62
     3
100
AcDbText
 10
1039.641210380914
 20
73.96392224206045
 30
0.0
 40
3.2
  1
1
 41
0.8
  7
高3.2
100
AcDbText
  0
TEXT
  5
1C8B
330
1F
100
AcDbEntity
  8
0
 62
     3
100
AcDbText
 10
1039.641210380914
 20
78.96392224206045
 30
0.0
 40
3.2
  1
1
 41
0.8
  7
高3.2
100
AcDbText
  0
LINE
  5
1C8C
330
1F
100
AcDbEntity
  8
0
100
AcDbLine
 10
1047.228034701827
 20
68.46392224206045
 30
0.0
 11
1047.228034701827
 21
88.46392224206041
 31
0.0
  0
TEXT
  5
1C8D
330
1F
100
AcDbEntity
  8
0
 62
     3
100
AcDbText
 10
1048.728034701827
 20
68.96392224206045
 30
0.0
 40
3.2
  1
コード
 41
0.8
  7
高3.2
100
AcDbText
  0
TEXT
  5
1C8E
330
1F
100
AcDbEntity
  8
0
 62
     3
100
AcDbText
 10
1048.728034701827
 20
73.96392224206045
 30
0.0
 40
3.2
  1
-
 41
0.8
  7
高3.2
100
AcDbText
  0
TEXT
  5
1C8F
330
1F
100
AcDbEntity
  8
0
 62
     3
100
AcDbText
 10
1048.728034701827
 20
78.96392224206045
 30
0.0
 40
3.2
  1
-
 41
0.8
  7
高3.2
100
AcDbText
  0
LINE
  5
1C90
330
1F
100
AcDbEntity
  8
0
 62
     3
100
AcDbLine
 10
1062.893069222374
 20
68.46392224206045
 30
0.0
 11
1062.893069222374
 21
88.46392224206041
 31
0.0
  0
LINE
  5
1C95
330
1F
100
AcDbEntity
  8
0
 62
     3
100
AcDbLine
 10
1062.893069222374
 20
88.4639222420604
 30
0.0
 11
949.6698028686182
 21
88.46392224206041
 31
0.0
  0
TEXT
  5
1C96
330
1F
100
AcDbEntity
  8
0
 62
     3
100
AcDbText
 10
951.1698028686183
 20
83.96392224206042
 30
0.0
 40
3.2
  1
3
 41
0.8
  7
高3.2
100
AcDbText
  0
TEXT
  5
1C97
330
1F
100
AcDbEntity
  8
0
 62
     3
100
AcDbText
 10
958.6933060056288
 20
83.96392224206042
 30
0.0
 40
3.2
  1
電源電線
 41
0.8
  7
高3.2
100
AcDbText
  0
TEXT
  5
1C98
330
1F
100
AcDbEntity
  8
0
 62
     3
100
AcDbText
 10
981.8943034354267
 20
83.96392224206042
 30
0.0
 40
3.2
  1
PVC
 41
0.8
  7
高3.2
100
AcDbText
  0
TEXT
  5
1C99
330
1F
100
AcDbEntity
  8
0
 62
     3
100
AcDbText
 10
996.2910221536477
 20
83.96392224206042
 30
0.0
 40
3.2
  1
VCT0.75sqx2芯x5m
 41
0.8
  7
高3.2
100
AcDbText
  0
TEXT
  5
1C9A
330
1F
100
AcDbEntity
  8
0
 62
     3
100
AcDbText
 10
1039.641210380914
 20
83.96392224206042
 30
0.0
 40
3.2
  1
1
 41
0.8
  7
高3.2
100
AcDbText
  0
TEXT
  5
1C9B
330
1F
100
AcDbEntity
  8
0
 62
     3
100
AcDbText
 10
1048.728034701827
 20
83.96392224206042
 30
0.0
 40
3.2
  1
-●
 41
0.8
  7
高3.2
100
AcDbText
  0
LINE
  5
1CE1
330
1F
100
AcDbEntity
  8
0
  6
PHANTOM
 62
     7
100
AcDbLine
 10
1164.825609780797
 20
184.5982560779799
 30
0.0
 11
1162.325609780797
 21
184.5982560779799
 31
0.0
  0
LINE
  5
1CE2
330
1F
100
AcDbEntity
  8
0
  6
PHANTOM
 62
     7
100
AcDbLine
 10
1164.825609780797
 20
196.3482560779799
 30
0.0
 11
1162.325609780797
 21
196.3482560779799
 31
0.0
  0
LINE
  5
1CE3
330
1F
100
AcDbEntity
  8
0
  6
PHANTOM
 62
     7
100
AcDbLine
 10
1163.825609780797
 20
207.0982560779799
 30
0.0
 11
1161.575609780797
 21
207.0982560779799
 31
0.0
  0
LINE
  5
1CE4
330
1F
100
AcDbEntity
  8
0
  6
PHANTOM
 62
     7
100
AcDbLine
 10
1163.825609780797
 20
211.0982560779799
 30
0.0
 11
1156.820269496617
 21
211.0982560779799
 31
0.0
  0
LINE
  5
1CE5
330
1F
100
AcDbEntity
  8
0
  6
PHANTOM
 62
     7
100
AcDbLine
 10
1170.892382435805
 20
220.3518331844982
 30
0.0
 11
1170.825609780797
 21
175.0982560779799
 31
0.0
  0
LINE
  5
1CE6
330
1F
100
AcDbEntity
  8
0
  6
PHANTOM
 62
     7
100
AcDbLine
 10
1164.825609780797
 20
196.3482560779799
 30
0.0
 11
1164.825609780797
 21
184.5982560779799
 31
0.0
  0
LINE
  5
1CE7
330
1F
100
AcDbEntity
  8
0
  6
PHANTOM
 62
     7
100
AcDbLine
 10
1163.825609780797
 20
211.0982560779799
 30
0.0
 11
1163.825609780797
 21
207.0982560779799
 31
0.0
  0
LINE
  5
1CE8
330
1F
100
AcDbEntity
  8
0
  6
PHANTOM
 62
     7
100
AcDbLine
 10
1160.825609780797
 20
206.3482560779799
 30
0.0
 11
1160.825609780797
 21
198.3482560779799
 31
0.0
  0
LINE
  5
1CE9
330
1F
100
AcDbEntity
  8
0
  6
PHANTOM
 62
     7
100
AcDbLine
 10
1161.575609780797
 20
207.0982560779799
 30
0.0
 11
1160.825609780797
 21
206.3482560779799
 31
0.0
  0
LINE
  5
1CEA
330
1F
100
AcDbEntity
  8
0
  6
PHANTOM
 62
     7
100
AcDbLine
 10
1160.825609780797
 20
182.5982560779799
 30
0.0
 11
1160.825609780797
 21
175.6339703636942
 31
0.0
  0
LINE
  5
1CEC
330
1F
100
AcDbEntity
  8
0
  6
PHANTOM
 62
     7
100
AcDbLine
 10
1170.892382435805
 20
220.3518331844982
 30
0.0
 11
1156.825609780797
 21
219.5982560779799
 31
0.0
  0
LINE
  5
1CED
330
1F
100
AcDbEntity
  8
0
  6
PHANTOM
 62
     7
100
AcDbLine
 10
1170.888694394244
 20
217.8523508274744
 30
0.0
 11
1156.812259070349
 21
217.0982560779799
 31
0.0
  0
LINE
  5
1CEE
330
1F
100
AcDbEntity
  8
0
  6
PHANTOM
 62
     7
100
AcDbLine
 10
1160.825609780797
 20
198.3482560779799
 30
0.0
 11
1162.325609780797
 21
196.3482560779799
 31
0.0
  0
LINE
  5
1CEF
330
1F
100
AcDbEntity
  8
0
  6
PHANTOM
 62
     7
100
AcDbLine
 10
1160.825609780797
 20
182.5982560779799
 30
0.0
 11
1162.325609780797
 21
184.5982560779799
 31
0.0
  0
LINE
  5
1CF0
330
1F
100
AcDbEntity
  8
0
  6
PHANTOM
 62
     7
100
AcDbLine
 10
1170.825609780797
 20
175.0982560779799
 30
0.0
 11
1160.825609780797
 21
175.6339703636942
 31
0.0
  0
TEXT
  5
1D3C
330
1F
100
AcDbEntity
  8
0
 62
     4
100
AcDbText
 10
1140.723430174095
 20
96.70722336458313
 30
0.0
 40
3.2
  1
2Pプラグ
  7
高3.2
100
AcDbText
  0
LINE
  5
1D3D
330
1F
100
AcDbEntity
  8
0
100
AcDbLine
 10
1140.525184187862
 20
95.32018234965812
 30
0.0
 11
1157.904647397857
 21
95.32018234965812
 31
0.0
  0
LINE
  5
1D3E
330
1F
100
AcDbEntity
  8
0
 62
     3
100
AcDbLine
 10
1151.631859927314
 20
130.2513155361495
 30
0.0
 11
1148.125609780797
 21
130.2513155361495
 31
0.0
  0
LINE
  5
1D3F
330
1F
100
AcDbEntity
  8
0
 62
     3
100
AcDbLine
 10
1144.619359634281
 20
130.2513155361495
 30
0.0
 11
1148.125609780797
 21
130.2513155361495
 31
0.0
  0
LINE
  5
1D40
330
1F
100
AcDbEntity
  8
0
100
AcDbLine
 10
1151.419359634281
 20
127.0638158291821
 30
0.0
 11
1146.63811007383
 21
127.0638158291821
 31
0.0
  0
LINE
  5
1D41
330
1F
100
AcDbEntity
  8
0
100
AcDbLine
 10
1151.419359634281
 20
127.7013155361496
 30
0.0
 11
1146.63811007383
 21
127.7013155361496
 31
0.0
  0
LINE
  5
1D42
330
1F
100
AcDbEntity
  8
0
100
AcDbLine
 10
1149.613109487765
 20
125.3638158291825
 30
0.0
 11
1144.831859927314
 21
125.3638158291825
 31
0.0
  0
LINE
  5
1D43
330
1F
100
AcDbEntity
  8
0
100
AcDbLine
 10
1149.613109487765
 20
126.0013155361494
 30
0.0
 11
1144.831859927314
 21
126.0013155361494
 31
0.0
  0
ARC
  5
1D44
330
1F
100
AcDbEntity
  8
0
100
AcDbCircle
 10
1149.613109487765
 20
125.6825662687313
 30
0.0
 40
0.3187504395490672
100
AcDbArc
 50
270.0
 51
90.0
  0
LINE
  5
1D45
330
1F
100
AcDbEntity
  8
0
100
AcDbLine
 10
1149.613109487765
 20
128.976316122215
 30
0.0
 11
1144.831859927314
 21
128.976316122215
 31
0.0
  0
ARC
  5
1D46
330
1F
100
AcDbEntity
  8
0
100
AcDbCircle
 10
1149.613109487765
 20
128.6575656826657
 30
0.0
 40
0.3187504395490672
100
AcDbArc
 50
270.0
 51
90.0
  0
LINE
  5
1D47
330
1F
100
AcDbEntity
  8
0
100
AcDbLine
 10
1149.613109487765
 20
128.3388152431166
 30
0.0
 11
1144.831859927314
 21
128.3388152431166
 31
0.0
  0
ARC
  5
1D48
330
1F
100
AcDbEntity
  8
0
100
AcDbCircle
 10
1146.63811007383
 20
127.3825662687315
 30
0.0
 40
0.3187504395490672
100
AcDbArc
 50
90.0
 51
270.0
  0
LINE
  5
1D49
330
1F
100
AcDbEntity
  8
0
 62
     3
100
AcDbLine
 10
1150.325609780797
 20
138.1288015682867
 30
0.0
 11
1150.325609780797
 21
130.6763161222147
 31
0.0
  0
LINE
  5
1D4A
330
1F
100
AcDbEntity
  8
0
 62
     3
100
AcDbLine
 10
1145.925609780797
 20
138.1288015682867
 30
0.0
 11
1145.925609780797
 21
130.6763161222147
 31
0.0
  0
LINE
  5
1D4B
330
1F
100
AcDbEntity
  8
0
 62
     3
100
AcDbLine
 10
1154.28811007383
 20
113.8888152431171
 30
0.0
 11
1154.500610366862
 21
113.8888152431171
 31
0.0
  0
LINE
  5
1D4C
330
1F
100
AcDbEntity
  8
0
 62
     3
100
AcDbLine
 10
1150.675609780797
 20
123.2388152431172
 30
0.0
 11
1145.575609780798
 21
123.2388152431172
 31
0.0
  0
LINE
  5
1D4D
330
1F
100
AcDbEntity
  8
0
100
AcDbLine
 10
1151.419359634281
 20
124.0888152431169
 30
0.0
 11
1146.63811007383
 21
124.0888152431169
 31
0.0
  0
LINE
  5
1D4E
330
1F
100
AcDbEntity
  8
0
100
AcDbLine
 10
1151.419359634281
 20
124.7263161222148
 30
0.0
 11
1146.63811007383
 21
124.7263161222148
 31
0.0
  0
ARC
  5
1D4F
330
1F
100
AcDbEntity
  8
0
100
AcDbCircle
 10
1146.63811007383
 20
124.4075656826662
 30
0.0
 40
0.3187504395490672
100
AcDbArc
 50
90.0
 51
270.0
  0
CIRCLE
  5
1D50
330
1F
100
AcDbEntity
  8
0
100
AcDbCircle
 10
1148.125609780797
 20
105.3888152431172
 30
0.0
 40
0.7437498534836255
  0
LINE
  5
1D51
330
1F
100
AcDbEntity
  8
0
100
AcDbLine
 10
1146.786859341248
 20
103.6888152431171
 30
0.0
 11
1149.464360220346
 21
103.6888152431171
 31
0.0
  0
LINE
  5
1D52
330
1F
100
AcDbEntity
  8
0
100
AcDbLine
 10
1146.786859341248
 20
103.6888152431171
 30
0.0
 11
1146.786859341248
 21
110.4888152431172
 31
0.0
  0
ARC
  5
1D53
330
1F
100
AcDbEntity
  8
0
100
AcDbCircle
 10
1148.125609780797
 20
105.5848470974973
 30
0.0
 40
2.321031268314493
100
AcDbArc
 50
234.7748439999946
 51
305.2251560000053
  0
LINE
  5
1D54
330
1F
100
AcDbEntity
  8
0
100
AcDbLine
 10
1149.464360220346
 20
103.6888152431171
 30
0.0
 11
1149.464360220346
 21
110.4888152431172
 31
0.0
  0
LINE
  5
1D55
330
1F
100
AcDbEntity
  8
0
 62
     3
100
AcDbLine
 10
1141.750610366863
 20
110.4888152431172
 30
0.0
 11
1154.500610366862
 21
110.4888152431172
 31
0.0
  0
ARC
  5
1D56
330
1F
100
AcDbEntity
  8
0
 62
     3
100
AcDbCircle
 10
1154.500610366862
 20
112.1888152431174
 30
0.0
 40
1.69999999999996
100
AcDbArc
 50
270.0
 51
90.0
  0
ARC
  5
1D57
330
1F
100
AcDbEntity
  8
0
 62
     3
100
AcDbCircle
 10
1141.750610366863
 20
112.1888152431174
 30
0.0
 40
1.69999999999996
100
AcDbArc
 50
90.0
 51
270.0
  0
ARC
  5
1D58
330
1F
100
AcDbEntity
  8
0
 62
     3
100
AcDbCircle
 10
1143.025609780798
 20
115.1638158291827
 30
0.0
 40
1.275000586065399
100
AcDbArc
 50
270.0
 51
0.0
  0
ARC
  5
1D59
330
1F
100
AcDbEntity
  8
0
 62
     3
100
AcDbCircle
 10
1153.225609780797
 20
115.1638158291827
 30
0.0
 40
1.275000586065399
100
AcDbArc
 50
180.0
 51
270.0
  0
LINE
  5
1D5A
330
1F
100
AcDbEntity
  8
0
 62
     3
100
AcDbLine
 10
1151.950610366863
 20
115.1638158291827
 30
0.0
 11
1151.950610366863
 21
121.9638158291822
 31
0.0
  0
ARC
  5
1D5B
330
1F
100
AcDbEntity
  8
0
 62
     3
100
AcDbCircle
 10
1150.675609780797
 20
121.9638158291822
 30
0.0
 40
1.275000586065399
100
AcDbArc
 50
0.0
 51
90.0
  0
LINE
  5
1D5C
330
1F
100
AcDbEntity
  8
0
 62
     3
100
AcDbLine
 10
1144.300610366863
 20
115.1638158291827
 30
0.0
 11
1144.300610366863
 21
121.9638158291822
 31
0.0
  0
ARC
  5
1D5D
330
1F
100
AcDbEntity
  8
0
 62
     3
100
AcDbCircle
 10
1145.575609780798
 20
121.9638158291822
 30
0.0
 40
1.275000586065399
100
AcDbArc
 50
90.0
 51
180.0
  0
LINE
  5
1D5E
330
1F
100
AcDbEntity
  8
0
 62
     3
100
AcDbLine
 10
1144.831859927314
 20
122.9994122024714
 30
0.0
 11
1144.831859927314
 21
130.2513155361495
 31
0.0
  0
LINE
  5
1D5F
330
1F
100
AcDbEntity
  8
0
 62
     3
100
AcDbLine
 10
1151.419359634281
 20
122.9994122024714
 30
0.0
 11
1151.419359634281
 21
130.2513155361495
 31
0.0
  0
ARC
  5
1D60
330
1F
100
AcDbEntity
  8
0
 62
     3
100
AcDbCircle
 10
1151.631859927314
 20
130.463815829182
 30
0.0
 40
0.2125002930327115
100
AcDbArc
 50
270.0
 51
90.0
  0
LINE
  5
1D61
330
1F
100
AcDbEntity
  8
0
 62
     3
100
AcDbLine
 10
1151.631859927314
 20
130.6763161222147
 30
0.0
 11
1148.125609780797
 21
130.6763161222147
 31
0.0
  0
LINE
  5
1D62
330
1F
100
AcDbEntity
  8
0
 62
     3
100
AcDbLine
 10
1144.619359634281
 20
130.6763161222147
 30
0.0
 11
1148.125609780797
 21
130.6763161222147
 31
0.0
  0
ARC
  5
1D63
330
1F
100
AcDbEntity
  8
0
 62
     3
100
AcDbCircle
 10
1144.619359634281
 20
130.463815829182
 30
0.0
 40
0.2125002930327115
100
AcDbArc
 50
90.0
 51
270.0
  0
LINE
  5
1D64
330
1F
100
AcDbEntity
  8
0
 62
     3
100
AcDbLine
 10
1154.28811007383
 20
113.8888152431171
 30
0.0
 11
1141.750610366863
 21
113.8888152431171
 31
0.0
  0
LINE
  5
1D6E
330
1F
100
AcDbEntity
  8
0
100
AcDbLine
 10
1257.664763791715
 20
284.3542574507367
 30
0.0
 11
1294.787084661894
 21
284.3542574507367
 31
0.0
  0
TEXT
  5
1D6F
330
1F
100
AcDbEntity
  8
0
 62
     3
100
AcDbText
 10
1257.664763791715
 20
285.5969423128703
 30
0.0
 40
4.5
  1
主　　仕　　様
  7
高4.5
100
AcDbText
  0
TEXT
  5
1D71
330
1F
100
AcDbEntity
  8
0
 62
     3
100
AcDbText
 10
1251.629688682111
 20
251.5583007579201
 30
0.0
 40
3.2
  1
LED光源
  7
高3.2
100
AcDbText
  0
TEXT
  5
1D72
330
1F
100
AcDbEntity
  8
0
 62
     3
100
AcDbText
 10
1285.427498666183
 20
276.5583007579202
 30
0.0
 40
3.2
  1
SLS-CE10W-1P
  7
高3.2
100
AcDbText
  0
TEXT
  5
1D73
330
1F
100
AcDbEntity
  8
0
 62
     3
100
AcDbText
 10
1285.122417666183
 20
191.5583007579199
 30
0.0
 40
3.2
  1
-20℃～50℃
  7
高3.2
100
AcDbText
  0
TEXT
  5
1D74
330
1F
100
AcDbEntity
  8
0
 62
     3
100
AcDbText
 10
1285.122417666183
 20
221.5583007579201
 30
0.0
 40
3.2
  1
1000Lm
  7
高3.2
100
AcDbText
  0
LINE
  5
1D75
330
1F
100
AcDbEntity
  8
0
 62
     3
100
AcDbLine
 10
1283.836481666182
 20
280.5583007579203
 30
0.0
 11
1283.836481666182
 21
185.5583007579199
 31
0.0
  0
LINE
  5
1D76
330
1F
100
AcDbEntity
  8
0
 62
     3
100
AcDbLine
 10
1250.894786682111
 20
280.5583007579203
 30
0.0
 11
1250.894786682111
 21
185.5583007579199
 31
0.0
  0
TEXT
  5
1D77
330
1F
100
AcDbEntity
  8
0
 62
     3
100
AcDbText
 10
1252.055113682111
 20
256.5583007579202
 30
0.0
 40
3.2
  1
消費　電力
  7
高3.2
100
AcDbText
  0
TEXT
  5
1D78
330
1F
100
AcDbEntity
  8
0
 62
     3
100
AcDbText
 10
1252.055113682111
 20
261.5583007579202
 30
0.0
 40
3.2
  1
定格　電流
  7
高3.2
100
AcDbText
  0
TEXT
  5
1D79
330
1F
100
AcDbEntity
  8
0
 62
     3
100
AcDbText
 10
1252.055113682111
 20
266.5583007579201
 30
0.0
 40
3.2
  1
周　波　数
  7
高3.2
100
AcDbText
  0
TEXT
  5
1D7A
330
1F
100
AcDbEntity
  8
0
 62
     3
100
AcDbText
 10
1252.055113682111
 20
271.55830075792
 30
0.0
 40
3.2
  1
定格　電圧
  7
高3.2
100
AcDbText
  0
TEXT
  5
1D7B
330
1F
100
AcDbEntity
  8
0
 62
     3
100
AcDbText
 10
1252.055113682111
 20
276.5583007579202
 30
0.0
 40
3.2
  1
型　　　式
  7
高3.2
100
AcDbText
  0
TEXT
  5
1D7C
330
1F
100
AcDbEntity
  8
0
 62
     3
100
AcDbText
 10
1252.055113682111
 20
221.5583007579201
 30
0.0
 40
3.2
  1
定格　光束
  7
高3.2
100
AcDbText
  0
TEXT
  5
1D7D
330
1F
100
AcDbEntity
  8
0
 62
     3
100
AcDbText
 10
1252.055113682111
 20
216.5583007579201
 30
0.0
 40
3.2
  1
色　温　度
  7
高3.2
100
AcDbText
  0
TEXT
  5
1D7E
330
1F
100
AcDbEntity
  8
0
 62
     3
100
AcDbText
 10
1285.122417666183
 20
196.5583007579202
 30
0.0
 40
3.2
  1
40000時間
  7
高3.2
100
AcDbText
  0
TEXT
  5
1D7F
330
1F
100
AcDbEntity
  8
0
 62
     3
100
AcDbText
 10
1252.055113682111
 20
196.5583007579202
 30
0.0
 40
3.2
  1
寿　　　命
  7
高3.2
100
AcDbText
  0
TEXT
  5
1D81
330
1F
100
AcDbEntity
  8
0
 62
     3
100
AcDbText
 10
1252.055113682111
 20
191.5583007579199
 30
0.0
 40
3.2
  1
環境　温度
  7
高3.2
100
AcDbText
  0
LINE
  5
1D82
330
1F
100
AcDbEntity
  8
0
100
AcDbLine
 10
1262.529078682111
 20
250.5583007579201
 30
0.0
 11
1262.529078682111
 21
225.5583007579201
 31
0.0
  0
TEXT
  5
1D83
330
1F
100
AcDbEntity
  8
0
 62
     3
100
AcDbText
 10
1264.009185697412
 20
246.5583007579201
 30
0.0
 40
3.2
  1
1m
  7
高3.2
100
AcDbText
  0
TEXT
  5
1D84
330
1F
100
AcDbEntity
  8
0
 62
     3
100
AcDbText
 10
1264.009185697412
 20
241.5583007579201
 30
0.0
 40
3.2
  1
2m
  7
高3.2
100
AcDbText
  0
TEXT
  5
1D85
330
1F
100
AcDbEntity
  8
0
 62
     3
100
AcDbText
 10
1264.009185697412
 20
236.5583007579201
 30
0.0
 40
3.2
  1
3m
  7
高3.2
100
AcDbText
  0
TEXT
  5
1D86
330
1F
100
AcDbEntity
  8
0
 62
     3
100
AcDbText
 10
1264.009185697412
 20
231.5583007579201
 30
0.0
 40
3.2
  1
4m
  7
高3.2
100
AcDbText
  0
TEXT
  5
1D87
330
1F
100
AcDbEntity
  8
0
 62
     3
100
AcDbText
 10
1264.009185697412
 20
226.5583007579201
 30
0.0
 40
3.2
  1
5m
  7
高3.2
100
AcDbText
  0
TEXT
  5
1D88
330
1F
100
AcDbEntity
  8
0
 62
     3
100
AcDbText
 10
1252.055113682111
 20
245.0583007579201
 30
0.0
 40
3.2
  1
照度
  7
高3.2
100
AcDbText
  0
LINE
  5
1D89
330
1F
100
AcDbEntity
  8
0
100
AcDbLine
 10
1250.894786682111
 20
190.5583007579199
 30
0.0
 11
1322.674667708266
 21
190.5583007579199
 31
0.0
  0
LINE
  5
1D8A
330
1F
100
AcDbEntity
  8
0
100
AcDbLine
 10
1250.894786682111
 20
195.5583007579199
 30
0.0
 11
1322.674667708266
 21
195.5583007579199
 31
0.0
  0
LINE
  5
1D8C
330
1F
100
AcDbEntity
  8
0
100
AcDbLine
 10
1250.894786682111
 20
215.5583007579201
 30
0.0
 11
1322.674667708266
 21
215.5583007579201
 31
0.0
  0
LINE
  5
1D8D
330
1F
100
AcDbEntity
  8
0
100
AcDbLine
 10
1250.894786682111
 20
220.5583007579201
 30
0.0
 11
1322.674667708266
 21
220.5583007579201
 31
0.0
  0
LINE
  5
1D8E
330
1F
100
AcDbEntity
  8
0
100
AcDbLine
 10
1250.894786682111
 20
225.5583007579201
 30
0.0
 11
1322.674667708266
 21
225.5583007579201
 31
0.0
  0
LINE
  5
1D8F
330
1F
100
AcDbEntity
  8
0
100
AcDbLine
 10
1262.52907868211
 20
230.5583007579202
 30
0.0
 11
1322.674667708266
 21
230.5583007579202
 31
0.0
  0
LINE
  5
1D90
330
1F
100
AcDbEntity
  8
0
100
AcDbLine
 10
1262.52907868211
 20
235.5583007579201
 30
0.0
 11
1322.674667708266
 21
235.5583007579202
 31
0.0
  0
LINE
  5
1D91
330
1F
100
AcDbEntity
  8
0
100
AcDbLine
 10
1262.52907868211
 20
240.5583007579201
 30
0.0
 11
1322.674667708266
 21
240.5583007579202
 31
0.0
  0
LINE
  5
1D92
330
1F
100
AcDbEntity
  8
0
100
AcDbLine
 10
1262.52907868211
 20
245.5583007579201
 30
0.0
 11
1322.674667708266
 21
245.5583007579201
 31
0.0
  0
LINE
  5
1D93
330
1F
100
AcDbEntity
  8
0
100
AcDbLine
 10
1250.894786682111
 20
250.5583007579201
 30
0.0
 11
1322.674667708266
 21
250.5583007579201
 31
0.0
  0
LINE
  5
1D94
330
1F
100
AcDbEntity
  8
0
100
AcDbLine
 10
1250.894786682111
 20
255.5583007579201
 30
0.0
 11
1322.674667708266
 21
255.5583007579201
 31
0.0
  0
LINE
  5
1D95
330
1F
100
AcDbEntity
  8
0
100
AcDbLine
 10
1250.894786682111
 20
260.5583007579201
 30
0.0
 11
1322.674667708266
 21
260.5583007579201
 31
0.0
  0
LINE
  5
1D96
330
1F
100
AcDbEntity
  8
0
100
AcDbLine
 10
1250.894786682111
 20
265.5583007579202
 30
0.0
 11
1322.674667708266
 21
265.5583007579202
 31
0.0
  0
LINE
  5
1D97
330
1F
100
AcDbEntity
  8
0
100
AcDbLine
 10
1250.894786682111
 20
270.5583007579202
 30
0.0
 11
1322.674667708266
 21
270.5583007579202
 31
0.0
  0
LINE
  5
1D98
330
1F
100
AcDbEntity
  8
0
100
AcDbLine
 10
1250.894786682111
 20
275.55830075792
 30
0.0
 11
1322.674667708266
 21
275.55830075792
 31
0.0
  0
LINE
  5
1D99
330
1F
100
AcDbEntity
  8
0
 62
     3
100
AcDbLine
 10
1250.894786682111
 20
280.5583007579203
 30
0.0
 11
1322.674667708266
 21
280.5583007579203
 31
0.0
  0
TEXT
  5
1D9A
330
1F
100
AcDbEntity
  8
0
 62
     3
100
AcDbText
 10
1285.122417666183
 20
261.5583007579202
 30
0.0
 40
3.2
  1
0.1A
  7
高3.2
100
AcDbText
  0
TEXT
  5
1D9B
330
1F
100
AcDbEntity
  8
0
 62
     3
100
AcDbText
 10
1285.122417666183
 20
246.5583007579201
 30
0.0
 40
3.2
  1
610Lx
  7
高3.2
100
AcDbText
  0
TEXT
  5
1D9C
330
1F
100
AcDbEntity
  8
0
 62
     3
100
AcDbText
 10
1285.122417666183
 20
241.5583007579201
 30
0.0
 40
3.2
  1
155Lx
  7
高3.2
100
AcDbText
  0
TEXT
  5
1D9D
330
1F
100
AcDbEntity
  8
0
 62
     3
100
AcDbText
 10
1285.122417666183
 20
236.5583007579201
 30
0.0
 40
3.2
  1
73Lx
  7
高3.2
100
AcDbText
  0
TEXT
  5
1D9E
330
1F
100
AcDbEntity
  8
0
 62
     3
100
AcDbText
 10
1285.122417666183
 20
231.5583007579201
 30
0.0
 40
3.2
  1
42Lx
  7
高3.2
100
AcDbText
  0
TEXT
  5
1D9F
330
1F
100
AcDbEntity
  8
0
 62
     3
100
AcDbText
 10
1285.122417666183
 20
226.5583007579201
 30
0.0
 40
3.2
  1
29Lx
  7
高3.2
100
AcDbText
  0
TEXT
  5
1DA0
330
1F
100
AcDbEntity
  8
0
 62
     3
100
AcDbText
 10
1285.122417666183
 20
216.5583007579201
 30
0.0
 40
3.2
  1
5000K
  7
高3.2
100
AcDbText
  0
TEXT
  5
1DA1
330
1F
100
AcDbEntity
  8
0
 62
     3
100
AcDbText
 10
1285.122417666183
 20
256.5583007579202
 30
0.0
 40
3.2
  1
9.9W
  7
高3.2
100
AcDbText
  0
TEXT
  5
1DA2
330
1F
100
AcDbEntity
  8
0
 62
     3
100
AcDbText
 10
1285.122417666183
 20
271.55830075792
 30
0.0
 40
3.2
  1
100V
  7
高3.2
100
AcDbText
  0
TEXT
  5
1DA3
330
1F
100
AcDbEntity
  8
0
 62
     3
100
AcDbText
 10
1285.122417666183
 20
266.5583007579201
 30
0.0
 40
3.2
  1
50/60Hz
  7
高3.2
100
AcDbText
  0
TEXT
  5
1DA4
330
1F
100
AcDbEntity
  8
0
 62
     3
100
AcDbText
 10
1285.122417666183
 20
251.5583007579201
 30
0.0
 40
3.2
  1
10W
  7
高3.2
100
AcDbText
  0
LINE
  5
1DA5
330
1F
100
AcDbEntity
  8
0
 62
     3
100
AcDbLine
 10
1322.674667708266
 20
280.5583007579203
 30
0.0
 11
1322.674667708266
 21
185.5583007579199
 31
0.0
  0
TEXT
  5
1DA6
330
1F
100
AcDbEntity
  8
0
100
AcDbText
 10
1251.810994932597
 20
179.4815641552699
 30
0.0
 40
2.5
  1
注１）：寿命は光束が70%%%まで低下するまでの時間です。
  7
高2.5
100
AcDbText
  0
TEXT
  5
1DA7
330
1F
100
AcDbEntity
  8
0
100
AcDbText
 10
1251.810994932597
 20
176.276776830785
 30
0.0
 40
2.5
  1
　　　　表示は設計値であり、製品の寿命を保証するものでは
  7
高2.5
100
AcDbText
  0
TEXT
  5
1DA8
330
1F
100
AcDbEntity
  8
0
 62
     3
100
AcDbText
 10
1285.122417666183
 20
186.5583007579199
 30
0.0
 40
3.2
  1
1.0kg
  7
高3.2
100
AcDbText
  0
TEXT
  5
1DA9
330
1F
100
AcDbEntity
  8
0
 62
     3
100
AcDbText
 10
1252.055113682111
 20
186.5583007579199
 30
0.0
 40
3.2
  1
質　　　量
  7
高3.2
100
AcDbText
  0
LINE
  5
1DAA
330
1F
100
AcDbEntity
  8
0
 62
     3
100
AcDbLine
 10
1250.894786682111
 20
185.5583007579199
 30
0.0
 11
1322.674667708266
 21
185.5583007579199
 31
0.0
  0
TEXT
  5
1DAB
330
1F
100
AcDbEntity
  8
0
 62
     3
100
AcDbText
 10
1252.055113682111
 20
206.5583007579201
 30
0.0
 40
3.2
  1
センサー有効距離
  7
高3.2
100
AcDbText
  0
LINE
  5
1DAC
330
1F
100
AcDbEntity
  8
0
100
AcDbLine
 10
1250.894786682111
 20
205.5583007579201
 30
0.0
 11
1322.674667708266
 21
205.5583007579201
 31
0.0
  0
TEXT
  5
1DAD
330
1F
100
AcDbEntity
  8
0
 62
     3
100
AcDbText
 10
1285.122417666183
 20
206.5583007579201
 30
0.0
 40
3.2
  1
15m(MAX)
  7
高3.2
100
AcDbText
  0
TEXT
  5
1DB1
330
1F
100
AcDbEntity
  8
0
 62
     3
100
AcDbText
 10
1252.055113682111
 20
201.5583007579202
 30
0.0
 40
3.2
  1
点灯時間
  7
高3.2
100
AcDbText
  0
TEXT
  5
1DB2
330
1F
100
AcDbEntity
  8
0
 62
     3
100
AcDbText
 10
1285.122417666183
 20
201.5583007579202
 30
0.0
 40
3.2
  1
5秒～5分
  7
高3.2
100
AcDbText
  0
LINE
  5
1DB3
330
1F
100
AcDbEntity
  8
0
100
AcDbLine
 10
1250.894786682111
 20
200.5583007579202
 30
0.0
 11
1322.674667708266
 21
200.5583007579202
 31
0.0
  0
TEXT
  5
1DB4
330
1F
100
AcDbEntity
  8
0
100
AcDbText
 10
1251.810994932597
 20
173.247069420546
 30
0.0
 40
2.5
  1
　　　　ありません。
  7
高2.5
100
AcDbText
  0
TEXT
  5
1DB5
330
1F
100
AcDbEntity
  8
0
100
AcDbText
 10
1251.810994932597
 20
169.8609255938123
 30
0.0
 40
2.5
  1
注２）：照度は反射率などを含む当社実測値の為、
  7
高2.5
100
AcDbText
  0
TEXT
  5
1DB6
330
1F
100
AcDbEntity
  8
0
100
AcDbText
 10
1251.810994932597
 20
166.4747826190656
 30
0.0
 40
2.5
  1
　　　　使用環境下により異なります。
  7
高2.5
100
AcDbText
  0
LINE
  5
1DBD
330
1F
100
AcDbEntity
  8
0
 62
     3
100
AcDbLine
 10
949.6698028686182
 20
342.4639222420605
 30
0.0
 11
949.6698028686182
 21
68.46392224206048
 31
0.0
  0
LINE
  5
1DBE
330
1F
100
AcDbEntity
  8
0
 62
     3
100
AcDbLine
 10
1339.669802868619
 20
68.46392224206048
 30
0.0
 11
1339.669802868619
 21
342.4639222420605
 31
0.0
  0
LINE
  5
1DBF
330
1F
100
AcDbEntity
  8
0
 62
     3
100
AcDbLine
 10
1062.669802868618
 20
68.46392224206048
 30
0.0
 11
1339.669802868619
 21
68.46392224206048
 31
0.0
  0
LINE
  5
1DC0
330
1F
100
AcDbEntity
  8
0
 62
     3
100
AcDbLine
 10
949.6698028686182
 20
68.46392224206048
 30
0.0
 11
1339.669802868619
 21
68.46392224206048
 31
0.0
  0
LINE
  5
1DC1
330
1F
100
AcDbEntity
  8
0
 62
     3
100
AcDbLine
 10
1127.444692338618
 20
344.9039243820605
 30
0.0
 11
1128.067189348618
 21
344.5789699020604
 31
0.0
  0
LINE
  5
1DC2
330
1F
100
AcDbEntity
  8
0
 62
     3
100
AcDbLine
 10
1127.444692338618
 20
339.5744522820603
 30
0.0
 11
1128.067189348618
 21
339.8994067620605
 31
0.0
  0
LINE
  5
1DC3
330
1F
100
AcDbEntity
  8
0
 62
     3
100
AcDbLine
 10
1128.067189348618
 20
344.5789699020604
 30
0.0
 11
1128.067189348618
 21
339.8994067620605
 31
0.0
  0
LINE
  5
1DC4
330
1F
100
AcDbEntity
  8
0
 62
     3
100
AcDbLine
 10
1129.643642808618
 20
339.5744522820603
 30
0.0
 11
1129.021145798618
 21
339.8994067620605
 31
0.0
  0
LINE
  5
1DC5
330
1F
100
AcDbEntity
  8
0
 62
     3
100
AcDbLine
 10
1129.021145798618
 20
342.7520622120603
 30
0.0
 11
1129.021145798618
 21
339.8994067620605
 31
0.0
  0
LINE
  5
1DC6
330
1F
100
AcDbEntity
  8
0
 62
     3
100
AcDbLine
 10
1133.274875348618
 20
344.9039243820605
 30
0.0
 11
1132.652378348618
 21
344.5789699020604
 31
0.0
  0
LINE
  5
1DC7
330
1F
100
AcDbEntity
  8
0
 62
     3
100
AcDbLine
 10
1131.075924878618
 20
344.9039243820605
 30
0.0
 11
1131.698421888618
 21
344.5789699020604
 31
0.0
  0
LINE
  5
1DC8
330
1F
100
AcDbEntity
  8
0
 62
     3
100
AcDbLine
 10
1131.698421888618
 20
344.5789699020604
 30
0.0
 11
1131.698421888618
 21
342.5184883820605
 31
0.0
  0
LINE
  5
1DC9
330
1F
100
AcDbEntity
  8
0
 62
     3
100
AcDbLine
 10
1132.652378348618
 20
344.5789699020604
 30
0.0
 11
1132.652378348618
 21
339.2722220720604
 31
0.0
  0
LINE
  5
1DCA
330
1F
100
AcDbEntity
  8
0
 62
     3
100
AcDbLine
 10
1133.582442788618
 20
344.9039206320605
 30
0.0
 11
1134.204937548618
 21
344.5789618620604
 31
0.0
  0
LINE
  5
1DCB
330
1F
100
AcDbEntity
  8
0
 62
     3
100
AcDbLine
 10
1133.582331398618
 20
339.5745236720604
 30
0.0
 11
1134.204839748618
 21
339.8994564220605
 31
0.0
  0
LINE
  5
1DCC
330
1F
100
AcDbEntity
  8
0
 62
     3
100
AcDbLine
 10
1134.204937548618
 20
344.5789618620604
 30
0.0
 11
1134.204937548618
 21
339.8994564220605
 31
0.0
  0
LINE
  5
1DCD
330
1F
100
AcDbEntity
  8
0
 62
     3
100
AcDbLine
 10
1136.338923348618
 20
344.9038868120605
 30
0.0
 11
1135.716421788618
 21
344.5789410520605
 31
0.0
  0
LINE
  5
1DCE
330
1F
100
AcDbEntity
  8
0
 62
     3
100
AcDbLine
 10
1135.716421788618
 20
344.5789410520605
 30
0.0
 11
1135.716421788618
 21
339.8994356120604
 31
0.0
  0
LINE
  5
1DCF
330
1F
100
AcDbEntity
  8
0
 62
     3
100
AcDbLine
 10
1136.338923348618
 20
339.5744898520605
 30
0.0
 11
1135.716421788618
 21
339.8994356120604
 31
0.0
  0
LINE
  5
1DD0
330
1F
100
AcDbEntity
  8
0
 62
     3
100
AcDbLine
 10
1141.610713978618
 20
344.9038282420604
 30
0.0
 11
1142.233209858618
 21
344.5788716220605
 31
0.0
  0
LINE
  5
1DD1
330
1F
100
AcDbEntity
  8
0
 62
     3
100
AcDbLine
 10
1142.233209858618
 20
344.5788716220605
 30
0.0
 11
1142.233128188618
 21
339.8993661720605
 31
0.0
  0
LINE
  5
1DD2
330
1F
100
AcDbEntity
  8
0
 62
     3
100
AcDbLine
 10
1141.610620958618
 20
339.5744312820605
 30
0.0
 11
1142.233128188618
 21
339.8993661720605
 31
0.0
  0
LINE
  5
1DD3
330
1F
100
AcDbEntity
  8
0
 62
     3
100
AcDbLine
 10
1144.399658218618
 20
344.9038282420604
 30
0.0
 11
1143.777162328618
 21
344.5788716220605
 31
0.0
  0
LINE
  5
1DD4
330
1F
100
AcDbEntity
  8
0
 62
     3
100
AcDbLine
 10
1144.399751228618
 20
339.5744312820605
 30
0.0
 11
1143.777243998618
 21
339.8993661720605
 31
0.0
  0
LINE
  5
1DD5
330
1F
100
AcDbEntity
  8
0
 62
     3
100
AcDbLine
 10
1144.690698018618
 20
344.9038282420604
 30
0.0
 11
1145.313193898618
 21
344.5788716220605
 31
0.0
  0
LINE
  5
1DD6
330
1F
100
AcDbEntity
  8
0
 62
     3
100
AcDbLine
 10
1144.690604998618
 20
339.5744312820605
 30
0.0
 11
1145.313112228618
 21
339.8993661720605
 31
0.0
  0
LINE
  5
1DD7
330
1F
100
AcDbEntity
  8
0
 62
     3
100
AcDbLine
 10
1147.479642248618
 20
344.9038282420604
 30
0.0
 11
1146.857146368618
 21
344.5788716220605
 31
0.0
  0
LINE
  5
1DD8
330
1F
100
AcDbEntity
  8
0
 62
     3
100
AcDbLine
 10
1146.857146368618
 20
344.5788716220605
 30
0.0
 11
1146.857228038618
 21
339.8993661720605
 31
0.0
  0
LINE
  5
1DD9
330
1F
100
AcDbEntity
  8
0
 62
     3
100
AcDbLine
 10
1147.479735268618
 20
339.5744312820605
 30
0.0
 11
1146.857228038618
 21
339.8993661720605
 31
0.0
  0
LINE
  5
1DDA
330
1F
100
AcDbEntity
  8
0
 62
     3
100
AcDbLine
 10
1145.313158318618
 20
342.5401100220605
 30
0.0
 11
1143.777197908618
 21
342.5401100220605
 31
0.0
  0
LINE
  5
1DDB
330
1F
100
AcDbEntity
  8
0
 62
     3
100
AcDbLine
 10
1145.313147818618
 20
341.9382666420603
 30
0.0
 11
1143.777208408618
 21
341.9382666420603
 31
0.0
  0
LINE
  5
1DDC
330
1F
100
AcDbEntity
  8
0
 62
     3
100
AcDbLine
 10
1145.313193898618
 20
344.5788716220605
 30
0.0
 11
1145.313158318618
 21
342.5401100220605
 31
0.0
  0
LINE
  5
1DDD
330
1F
100
AcDbEntity
  8
0
 62
     3
100
AcDbLine
 10
1145.313147818618
 20
341.9382666420603
 30
0.0
 11
1145.313112228618
 21
339.8993661720605
 31
0.0
  0
LINE
  5
1DDE
330
1F
100
AcDbEntity
  8
0
 62
     3
100
AcDbLine
 10
1143.777162328618
 20
344.5788716220605
 30
0.0
 11
1143.777197908618
 21
342.5401100220605
 31
0.0
  0
LINE
  5
1DDF
330
1F
100
AcDbEntity
  8
0
 62
     3
100
AcDbLine
 10
1143.777208408618
 20
341.9382666420603
 30
0.0
 11
1143.777243998618
 21
339.8993661720605
 31
0.0
  0
LINE
  5
1DE0
330
1F
100
AcDbEntity
  8
0
 62
     3
100
AcDbLine
 10
1147.775298138618
 20
344.9038282420604
 30
0.0
 11
1148.397794028618
 21
344.5788716220605
 31
0.0
  0
LINE
  5
1DE1
330
1F
100
AcDbEntity
  8
0
 62
     3
100
AcDbLine
 10
1148.397794028618
 20
344.5788716220605
 30
0.0
 11
1148.397712348618
 21
339.8993661720605
 31
0.0
  0
LINE
  5
1DE2
330
1F
100
AcDbEntity
  8
0
 62
     3
100
AcDbLine
 10
1147.775205118618
 20
339.5744312820605
 30
0.0
 11
1148.397712348618
 21
339.8993661720605
 31
0.0
  0
LINE
  5
1DE3
330
1F
100
AcDbEntity
  8
0
 62
     3
100
AcDbLine
 10
1150.531741378618
 20
344.9038282420604
 30
0.0
 11
1149.909245488618
 21
344.5788716220605
 31
0.0
  0
LINE
  5
1DE4
330
1F
100
AcDbEntity
  8
0
 62
     3
100
AcDbLine
 10
1149.909245488618
 20
344.5788716220605
 30
0.0
 11
1149.909327168618
 21
339.8993661720605
 31
0.0
  0
LINE
  5
1DE5
330
1F
100
AcDbEntity
  8
0
 62
     3
100
AcDbLine
 10
1150.531834398618
 20
339.5744312820605
 30
0.0
 11
1149.909327168618
 21
339.8993661720605
 31
0.0
  0
LINE
  5
1DE6
330
1F
100
AcDbEntity
  8
0
 62
     3
100
AcDbLine
 10
1150.837969328618
 20
344.9038282420604
 30
0.0
 11
1151.460465218618
 21
344.5788716220605
 31
0.0
  0
LINE
  5
1DE7
330
1F
100
AcDbEntity
  8
0
 62
     3
100
AcDbLine
 10
1151.460465218618
 20
344.5788716220605
 30
0.0
 11
1151.460383548618
 21
339.8993661720605
 31
0.0
  0
LINE
  5
1DE8
330
1F
100
AcDbEntity
  8
0
 62
     3
100
AcDbLine
 10
1150.837876318618
 20
339.5744312820605
 30
0.0
 11
1151.460383548618
 21
339.8993661720605
 31
0.0
  0
ARC
  5
1DE9
330
1F
100
AcDbEntity
  8
0
 62
     3
100
AcDbCircle
 10
1139.622269308618
 20
342.2526022720605
 30
0.0
 40
2.98040844
100
AcDbArc
 50
97.70152351000374
 51
270.0
  0
ARC
  5
1DEA
330
1F
100
AcDbEntity
  8
0
 62
     3
100
AcDbCircle
 10
1158.023127648618
 20
342.2226642320605
 30
0.0
 40
3.012776259999998
100
AcDbArc
 50
0.3142502699992948
 51
69.0055824499965
  0
ARC
  5
1DEB
330
1F
100
AcDbEntity
  8
0
 62
     3
100
AcDbCircle
 10
1158.681235258618
 20
342.2226642320605
 30
0.0
 40
3.012776259999998
100
AcDbArc
 50
110.9944175500034
 51
148.1166110200014
  0
ARC
  5
1DEC
330
1F
100
AcDbEntity
  8
0
 62
     3
100
AcDbCircle
 10
1158.023127648618
 20
342.2557124320605
 30
0.0
 40
3.012776259999998
100
AcDbArc
 50
290.9944175500035
 51
359.6857497300007
  0
ARC
  5
1DED
330
1F
100
AcDbEntity
  8
0
 62
     3
100
AcDbCircle
 10
1158.681235258618
 20
342.2557124320605
 30
0.0
 40
3.012776259999998
100
AcDbArc
 50
211.8833889799985
 51
249.0055824499965
  0
ARC
  5
1DEE
330
1F
100
AcDbEntity
  8
0
 62
     3
100
AcDbCircle
 10
1158.352181458618
 20
343.4717674620605
 30
0.0
 40
1.73438712
100
AcDbArc
 50
64.3651718999996
 51
115.6348281000004
  0
ARC
  5
1DEF
330
1F
100
AcDbEntity
  8
0
 62
     3
100
AcDbCircle
 10
1158.352181458618
 20
341.0066092020605
 30
0.0
 40
1.73438712
100
AcDbArc
 50
244.3651718999996
 51
295.6348281000004
  0
ARC
  5
1DF0
330
1F
100
AcDbEntity
  8
0
 62
     3
100
AcDbCircle
 10
1158.352181458618
 20
343.5047127220603
 30
0.0
 40
0.85122233
100
AcDbArc
 50
19.48660554000132
 51
160.5133944599986
  0
ARC
  5
1DF1
330
1F
100
AcDbEntity
  8
0
 62
     3
100
AcDbCircle
 10
1158.352181458618
 20
341.0066092020605
 30
0.0
 40
1.73438712
100
AcDbArc
 50
244.3651718999996
 51
295.6348281000004
  0
ARC
  5
1DF2
330
1F
100
AcDbEntity
  8
0
 62
     3
100
AcDbCircle
 10
1158.352181458618
 20
340.9736639420604
 30
0.0
 40
0.85122233
100
AcDbArc
 50
199.4866055400013
 51
340.5133944599987
  0
ARC
  5
1DF3
330
1F
100
AcDbEntity
  8
0
 62
     3
100
AcDbCircle
 10
1151.577220738618
 20
310.4848171320605
 30
0.0
 40
37.20000000000001
100
AcDbArc
 50
69.50571480000154
 51
81.6899880700039
  0
ARC
  5
1DF4
330
1F
100
AcDbEntity
  8
0
 62
     3
100
AcDbCircle
 10
1151.577220738618
 20
373.9935595320605
 30
0.0
 40
37.20000000000001
100
AcDbArc
 50
278.3100119300025
 51
290.4942851999985
  0
ARC
  5
1DF5
330
1F
100
AcDbEntity
  8
0
 62
     3
100
AcDbCircle
 10
1163.446083778618
 20
342.2391883320603
 30
0.0
 40
3.299999999999998
100
AcDbArc
 50
290.4942851999985
 51
69.50571480000154
  0
ARC
  5
1DF6
330
1F
100
AcDbEntity
  8
0
 62
     3
100
AcDbCircle
 10
1124.446083778618
 20
342.2391883320603
 30
0.0
 40
3.299999999999998
100
AcDbArc
 50
110.4942851999985
 51
249.5057148000015
  0
ARC
  5
1DF7
330
1F
100
AcDbEntity
  8
0
 62
     3
100
AcDbCircle
 10
1136.314946808618
 20
310.4848171320605
 30
0.0
 40
37.20000000000001
100
AcDbArc
 50
98.31001192999607
 51
110.4942851999985
  0
ARC
  5
1DF8
330
1F
100
AcDbEntity
  8
0
 62
     3
100
AcDbCircle
 10
1136.314946808618
 20
373.9935595320605
 30
0.0
 40
37.20000000000001
100
AcDbArc
 50
249.5057148000015
 51
261.6899880700039
  0
ARC
  5
1DF9
330
1F
100
AcDbEntity
  8
0
 62
     3
100
AcDbCircle
 10
1143.946083778618
 20
258.2391883320604
 30
0.0
 40
89.99999981
100
AcDbArc
 50
81.6899880700039
 51
98.31001192999607
  0
ARC
  5
1DFA
330
1F
100
AcDbEntity
  8
0
 62
     3
100
AcDbCircle
 10
1143.946083778618
 20
426.2391883320603
 30
0.0
 40
89.99999981
100
AcDbArc
 50
261.6899880700039
 51
278.3100119300025
  0
ARC
  5
1DFB
330
1F
100
AcDbEntity
  8
0
 62
     3
100
AcDbCircle
 10
1143.946083778618
 20
258.2391883320604
 30
0.0
 40
89.09999981
100
AcDbArc
 50
81.6899880700039
 51
98.31001192999607
  0
ARC
  5
1DFC
330
1F
100
AcDbEntity
  8
0
 62
     3
100
AcDbCircle
 10
1143.946083778618
 20
426.2391883320603
 30
0.0
 40
89.09999981
100
AcDbArc
 50
261.6899880700039
 51
278.3100119300025
  0
ARC
  5
1DFD
330
1F
100
AcDbEntity
  8
0
 62
     3
100
AcDbCircle
 10
1151.577220738618
 20
373.9935595320605
 30
0.0
 40
36.3
100
AcDbArc
 50
278.3100119300025
 51
290.4942851999985
  0
ARC
  5
1DFE
330
1F
100
AcDbEntity
  8
0
 62
     3
100
AcDbCircle
 10
1151.577220738618
 20
310.4848171320605
 30
0.0
 40
36.3
100
AcDbArc
 50
69.50571480000154
 51
81.6899880700039
  0
ARC
  5
1DFF
330
1F
100
AcDbEntity
  8
0
 62
     3
100
AcDbCircle
 10
1163.446083778618
 20
342.2391883320603
 30
0.0
 40
2.399999999999999
100
AcDbArc
 50
290.4942851999985
 51
69.50571480000154
  0
ARC
  5
1E00
330
1F
100
AcDbEntity
  8
0
 62
     3
100
AcDbCircle
 10
1124.446083778618
 20
342.2391883320603
 30
0.0
 40
2.399999999999999
100
AcDbArc
 50
110.4942851999985
 51
249.5057148000015
  0
ARC
  5
1E01
330
1F
100
AcDbEntity
  8
0
 62
     3
100
AcDbCircle
 10
1136.314946808618
 20
310.4848171320605
 30
0.0
 40
36.3
100
AcDbArc
 50
98.31001192999607
 51
110.4942851999985
  0
ARC
  5
1E02
330
1F
100
AcDbEntity
  8
0
 62
     3
100
AcDbCircle
 10
1136.314946808618
 20
373.9935595320605
 30
0.0
 40
36.3
100
AcDbArc
 50
249.5057148000015
 51
261.6899880700039
  0
LINE
  5
1E03
330
1F
100
AcDbEntity
  8
0
 62
     3
100
AcDbLine
 10
1150.531742498618
 20
339.2722220720604
 30
0.0
 11
1147.775297018618
 21
339.2722220720604
 31
0.0
  0
LINE
  5
1E04
330
1F
100
AcDbEntity
  8
0
 62
     3
100
AcDbLine
 10
1150.531742498618
 20
339.5744522820603
 30
0.0
 11
1150.531742498618
 21
339.2722220720604
 31
0.0
  0
LINE
  5
1E05
330
1F
100
AcDbEntity
  8
0
 62
     3
100
AcDbLine
 10
1147.479643368618
 20
345.2060135620605
 30
0.0
 11
1144.690696898618
 21
345.2060135620605
 31
0.0
  0
LINE
  5
1E06
330
1F
100
AcDbEntity
  8
0
 62
     3
100
AcDbLine
 10
1147.479643368618
 20
345.2060135620605
 30
0.0
 11
1147.479643368618
 21
344.9039243820605
 31
0.0
  0
LINE
  5
1E07
330
1F
100
AcDbEntity
  8
0
 62
     3
100
AcDbLine
 10
1147.479643368618
 20
339.5744522820603
 30
0.0
 11
1147.479643368618
 21
339.2720810520605
 31
0.0
  0
LINE
  5
1E08
330
1F
100
AcDbEntity
  8
0
 62
     3
100
AcDbLine
 10
1147.479643368618
 20
339.2720810520605
 30
0.0
 11
1144.690696898618
 21
339.2720810520605
 31
0.0
  0
LINE
  5
1E09
330
1F
100
AcDbEntity
  8
0
 62
     3
100
AcDbLine
 10
1150.531742498618
 20
345.2061545920604
 30
0.0
 11
1150.531742498618
 21
344.9039243820605
 31
0.0
  0
LINE
  5
1E0A
330
1F
100
AcDbEntity
  8
0
 62
     3
100
AcDbLine
 10
1150.531742498618
 20
345.2061545920604
 30
0.0
 11
1147.775297018618
 21
345.2061545920604
 31
0.0
  0
LINE
  5
1E0B
330
1F
100
AcDbEntity
  8
0
 62
     3
100
AcDbLine
 10
1147.775297018618
 20
345.2061545920604
 30
0.0
 11
1147.775297018618
 21
344.9039243820605
 31
0.0
  0
LINE
  5
1E0C
330
1F
100
AcDbEntity
  8
0
 62
     3
100
AcDbLine
 10
1150.837968208618
 20
339.5744522820603
 30
0.0
 11
1150.837968208618
 21
339.2722220720604
 31
0.0
  0
LINE
  5
1E0D
330
1F
100
AcDbEntity
  8
0
 62
     3
100
AcDbLine
 10
1153.672683298618
 20
339.2722220720604
 30
0.0
 11
1150.837968208618
 21
339.2722220720604
 31
0.0
  0
LINE
  5
1E0E
330
1F
100
AcDbEntity
  8
0
 62
     3
100
AcDbLine
 10
1152.971916688618
 20
344.2521981320605
 30
0.0
 11
1152.971916688618
 21
340.2261785320605
 31
0.0
  0
LINE
  5
1E0F
330
1F
100
AcDbEntity
  8
0
 62
     3
100
AcDbLine
 10
1152.971916688618
 20
340.2261785320605
 30
0.0
 11
1153.243415208618
 21
340.2261785320605
 31
0.0
  0
ARC
  5
1E10
330
1F
100
AcDbEntity
  8
0
 62
     3
100
AcDbCircle
 10
1151.855149868618
 20
342.2391883320603
 30
0.0
 40
2.44529939
100
AcDbArc
 50
304.5919552699958
 51
55.40804473000423
  0
LINE
  5
1E11
330
1F
100
AcDbEntity
  8
0
 62
     3
100
AcDbLine
 10
1153.672683298618
 20
345.2061545920604
 30
0.0
 11
1150.837968208618
 21
345.2061545920604
 31
0.0
  0
LINE
  5
1E12
330
1F
100
AcDbEntity
  8
0
 62
     3
100
AcDbLine
 10
1150.837968208618
 20
345.2061545920604
 30
0.0
 11
1150.837968208618
 21
344.9039243820605
 31
0.0
  0
LINE
  5
1E13
330
1F
100
AcDbEntity
  8
0
 62
     3
100
AcDbLine
 10
1147.775297018618
 20
339.5744522820603
 30
0.0
 11
1147.775297018618
 21
339.2722220720604
 31
0.0
  0
LINE
  5
1E14
330
1F
100
AcDbEntity
  8
0
 62
     3
100
AcDbLine
 10
1152.971916688618
 20
344.2521981320605
 30
0.0
 11
1153.243415208618
 21
344.2521981320605
 31
0.0
  0
LINE
  5
1E15
330
1F
100
AcDbEntity
  8
0
 62
     3
100
AcDbLine
 10
1136.338831448618
 20
339.5744522820603
 30
0.0
 11
1136.338826178618
 21
339.2721938320605
 31
0.0
  0
LINE
  5
1E16
330
1F
100
AcDbEntity
  8
0
 62
     3
100
AcDbLine
 10
1133.582380698618
 20
339.2722503220605
 30
0.0
 11
1136.338826178618
 21
339.2722022120604
 31
0.0
  0
LINE
  5
1E17
330
1F
100
AcDbEntity
  8
0
 62
     3
100
AcDbLine
 10
1127.444692338618
 20
339.2722220720604
 30
0.0
 11
1129.643642808618
 21
339.2722220720604
 31
0.0
  0
ARC
  5
1E18
330
1F
100
AcDbEntity
  8
0
 62
     3
100
AcDbCircle
 10
1120.327631368618
 20
342.3090549420605
 30
0.0
 40
21.01937947
100
AcDbArc
 50
353.8660061899999
 51
357.6940342600001
  0
LINE
  5
1E19
330
1F
100
AcDbEntity
  8
0
 62
     3
100
AcDbLine
 10
1139.922745458618
 20
341.4685297220604
 30
0.0
 11
1141.329989578618
 21
341.4633227520603
 31
0.0
  0
LINE
  5
1E1B
330
1F
100
AcDbEntity
  8
0
 62
     3
100
AcDbLine
 10
1139.928428908618
 20
343.0045507820604
 30
0.0
 11
1141.335673028618
 21
342.9993438120605
 31
0.0
  0
ARC
  5
1E1C
330
1F
100
AcDbEntity
  8
0
 62
     3
100
AcDbCircle
 10
1120.327631368618
 20
342.3090549420605
 30
0.0
 40
21.01937947
100
AcDbArc
 50
1.881965739999571
 51
5.709993809999575
  0
LINE
  5
1E1D
330
1F
100
AcDbEntity
  8
0
 62
     3
100
AcDbLine
 10
1136.338929738618
 20
345.2061263420605
 30
0.0
 11
1136.338924468618
 21
344.9039243820605
 31
0.0
  0
LINE
  5
1E1E
330
1F
100
AcDbEntity
  8
0
 62
     3
100
AcDbLine
 10
1133.582484258618
 20
345.2061828320605
 30
0.0
 11
1136.338929738618
 21
345.2061347220605
 31
0.0
  0
LINE
  5
1E1F
330
1F
100
AcDbEntity
  8
0
 62
     3
100
AcDbLine
 10
1133.582385968618
 20
339.5744522820603
 30
0.0
 11
1133.582380698618
 21
339.2722503220605
 31
0.0
  0
LINE
  5
1E20
330
1F
100
AcDbEntity
  8
0
 62
     3
100
AcDbLine
 10
1133.582484258618
 20
345.2061828320605
 30
0.0
 11
1133.582478988618
 21
344.9039243820605
 31
0.0
  0
LINE
  5
1E21
330
1F
100
AcDbEntity
  8
0
 62
     3
100
AcDbLine
 10
1129.643642808618
 20
339.5744522820603
 30
0.0
 11
1129.643642808618
 21
339.2722220720604
 31
0.0
  0
LINE
  5
1E22
330
1F
100
AcDbEntity
  8
0
 62
     3
100
AcDbLine
 10
1129.021145798618
 20
342.7520622120603
 30
0.0
 11
1131.196045878618
 21
339.2722220720604
 31
0.0
  0
LINE
  5
1E23
330
1F
100
AcDbEntity
  8
0
 62
     3
100
AcDbLine
 10
1131.196045878618
 20
339.2722220720604
 30
0.0
 11
1132.652378348618
 21
339.2722220720604
 31
0.0
  0
LINE
  5
1E24
330
1F
100
AcDbEntity
  8
0
 62
     3
100
AcDbLine
 10
1133.274875348618
 20
345.2061545920604
 30
0.0
 11
1133.274875348618
 21
344.9039243820605
 31
0.0
  0
LINE
  5
1E25
330
1F
100
AcDbEntity
  8
0
 62
     3
100
AcDbLine
 10
1131.075924878618
 20
345.2061545920604
 30
0.0
 11
1133.274875348618
 21
345.2061545920604
 31
0.0
  0
LINE
  5
1E26
330
1F
100
AcDbEntity
  8
0
 62
     3
100
AcDbLine
 10
1131.075924878618
 20
345.2061545920604
 30
0.0
 11
1131.075924878618
 21
344.9039243820605
 31
0.0
  0
LINE
  5
1E27
330
1F
100
AcDbEntity
  8
0
 62
     3
100
AcDbLine
 10
1131.698421888618
 20
342.5184883820605
 30
0.0
 11
1129.934640948618
 21
345.2061545920604
 31
0.0
  0
LINE
  5
1E28
330
1F
100
AcDbEntity
  8
0
 62
     3
100
AcDbLine
 10
1127.444692338618
 20
345.2061545920604
 30
0.0
 11
1129.934640948618
 21
345.2061545920604
 31
0.0
  0
LINE
  5
1E29
330
1F
100
AcDbEntity
  8
0
 62
     3
100
AcDbLine
 10
1141.610712858618
 20
345.2060135620605
 30
0.0
 11
1144.399659338618
 21
345.2060135620605
 31
0.0
  0
LINE
  5
1E2A
330
1F
100
AcDbEntity
  8
0
 62
     3
100
AcDbLine
 10
1141.610712858618
 20
344.9039243820605
 30
0.0
 11
1141.610712858618
 21
345.2060135620605
 31
0.0
  0
LINE
  5
1E2B
330
1F
100
AcDbEntity
  8
0
 62
     3
100
AcDbLine
 10
1141.610712858618
 20
339.2720810520605
 30
0.0
 11
1141.610712858618
 21
339.5744522820603
 31
0.0
  0
LINE
  5
1E2C
330
1F
100
AcDbEntity
  8
0
 62
     3
100
AcDbLine
 10
1141.610712858618
 20
339.2720810520605
 30
0.0
 11
1144.399659338618
 21
339.2720810520605
 31
0.0
  0
LINE
  5
1E2D
330
1F
100
AcDbEntity
  8
0
 62
     3
100
AcDbLine
 10
1144.690696898618
 20
339.5744522820603
 30
0.0
 11
1144.690696898618
 21
339.2720810520605
 31
0.0
  0
LINE
  5
1E2E
330
1F
100
AcDbEntity
  8
0
 62
     3
100
AcDbLine
 10
1144.399659338618
 20
339.5744522820603
 30
0.0
 11
1144.399659338618
 21
339.2720810520605
 31
0.0
  0
LINE
  5
1E2F
330
1F
100
AcDbEntity
  8
0
 62
     3
100
AcDbLine
 10
1144.399659338618
 20
344.9039243820605
 30
0.0
 11
1144.399659338618
 21
345.2060135620605
 31
0.0
  0
LINE
  5
1E30
330
1F
100
AcDbEntity
  8
0
 62
     3
100
AcDbLine
 10
1144.690696898618
 20
344.9039243820605
 30
0.0
 11
1144.690696898618
 21
345.2060135620605
 31
0.0
  0
LINE
  5
1E31
330
1F
100
AcDbEntity
  8
0
 62
     3
100
AcDbLine
 10
1127.444692338618
 20
339.5744522820603
 30
0.0
 11
1127.444692338618
 21
339.2722220720604
 31
0.0
  0
LINE
  5
1E32
330
1F
100
AcDbEntity
  8
0
 62
     3
100
AcDbLine
 10
1127.444692338618
 20
345.2061545920604
 30
0.0
 11
1127.444692338618
 21
344.9039243820605
 31
0.0
  0
ARC
  5
1E33
330
1F
100
AcDbEntity
  8
0
 62
     3
100
AcDbCircle
 10
1153.972683298618
 20
342.8616853420605
 30
0.0
 40
2.344469249999999
100
AcDbArc
 50
17.30874897999993
 51
23.76507095999893
  0
ARC
  5
1E34
330
1F
100
AcDbEntity
  8
0
 62
     3
100
AcDbCircle
 10
1151.975149868618
 20
342.2391883320603
 30
0.0
 40
4.43675086
100
AcDbArc
 50
342.6912510200001
 51
17.30856644000083
  0
ARC
  5
1E35
330
1F
100
AcDbEntity
  8
0
 62
     3
100
AcDbCircle
 10
1153.972683298618
 20
341.6166913220605
 30
0.0
 40
2.344469249999999
100
AcDbArc
 50
336.234929039998
 51
342.6912510200001
  0
ARC
  5
1E36
330
1F
100
AcDbEntity
  8
0
 62
     3
100
AcDbCircle
 10
1153.672683298618
 20
342.8616853420605
 30
0.0
 40
2.344469249999999
100
AcDbArc
 50
17.30874897999993
 51
90.0
  0
ARC
  5
1E37
330
1F
100
AcDbEntity
  8
0
 62
     3
100
AcDbCircle
 10
1151.675149868618
 20
342.2391883320603
 30
0.0
 40
4.43675086
100
AcDbArc
 50
342.6912510200001
 51
17.30856644000083
  0
ARC
  5
1E38
330
1F
100
AcDbEntity
  8
0
 62
     3
100
AcDbCircle
 10
1153.672683298618
 20
341.6166913220605
 30
0.0
 40
2.344469249999999
100
AcDbArc
 50
270.0
 51
342.6912510200001
  0
ARC
  5
1E39
330
1F
100
AcDbEntity
  8
0
 62
     3
100
AcDbCircle
 10
1139.209911328618
 20
342.2391883320603
 30
0.0
 40
2.966966259999998
100
AcDbArc
 50
46.75287961000123
 51
89.74999828999569
  0
ARC
  5
1E3A
330
1F
100
AcDbEntity
  8
0
 62
     3
100
AcDbCircle
 10
1139.209911328618
 20
342.2391883320603
 30
0.0
 40
2.966966259999998
100
AcDbArc
 50
273.9763331500036
 51
312.8231203899988
  0
ARC
  5
1E3B
330
1F
100
AcDbEntity
  8
0
 62
     3
100
AcDbCircle
 10
1155.555351258618
 20
342.1933861520605
 30
0.0
 40
3.936984289999998
100
AcDbArc
 50
0.6665840599997753
 51
23.90392827000137
  0
ARC
  5
1E3C
330
1F
100
AcDbEntity
  8
0
 62
     3
100
AcDbCircle
 10
1161.149011648618
 20
342.1933861520605
 30
0.0
 40
3.936984289999998
100
AcDbArc
 50
156.0960717299986
 51
179.3334159400002
  0
ARC
  5
1E3D
330
1F
100
AcDbEntity
  8
0
 62
     3
100
AcDbCircle
 10
1155.555351258618
 20
342.2849905120604
 30
0.0
 40
3.936984289999998
100
AcDbArc
 50
336.0960717299986
 51
359.3334159400003
  0
ARC
  5
1E3E
330
1F
100
AcDbEntity
  8
0
 62
     3
100
AcDbCircle
 10
1161.149011648618
 20
342.2849905120604
 30
0.0
 40
3.936984289999998
100
AcDbArc
 50
180.6665840599997
 51
203.9039282700014
  0
LINE
  5
1E3F
330
1F
100
AcDbEntity
  8
0
 62
     3
100
AcDbLine
 10
1168.326528048618
 20
342.4639222420605
 30
0.0
 11
1339.669802868618
 21
342.4639222420605
 31
0.0
  0
LINE
  5
1E40
330
1F
100
AcDbEntity
  8
0
 62
     3
100
AcDbLine
 10
1119.772493378618
 20
342.4639222420605
 30
0.0
 11
949.6698028686182
 21
342.4639222420605
 31
0.0
  0
LINE
  5
1E41
330
1F
100
AcDbEntity
  8
0
 62
     3
100
AcDbLine
 10
937.2678790786183
 20
208.9085611920603
 30
0.0
 11
934.6698028686182
 21
207.4085611920605
 31
0.0
  0
LINE
  5
1E42
330
1F
100
AcDbEntity
  8
0
 62
     3
100
AcDbLine
 10
937.2678790786183
 20
208.9085611920603
 30
0.0
 11
934.6698028686182
 21
210.4085611920605
 31
0.0
  0
LINE
  5
1E43
330
1F
100
AcDbEntity
  8
0
 62
     3
100
AcDbLine
 10
934.6698028686182
 20
207.4085611920605
 30
0.0
 11
934.6698028686182
 21
210.4085611920605
 31
0.0
  0
LINE
  5
1E46
330
1F
100
AcDbEntity
  8
0
 62
     3
100
AcDbLine
 10
1287.669802868619
 20
68.46392224206048
 30
0.0
 11
1287.669802868619
 21
108.4639222420604
 31
0.0
  0
LINE
  5
1E47
330
1F
100
AcDbEntity
  8
0
 62
     3
100
AcDbLine
 10
1300.669802868618
 20
78.46392224206048
 30
0.0
 11
1300.669802868618
 21
108.4639222420605
 31
0.0
  0
LINE
  5
1E48
330
1F
100
AcDbEntity
  8
0
 62
     3
100
AcDbLine
 10
1260.669802868618
 20
78.46392224206048
 30
0.0
 11
1260.669802868618
 21
92.46392224206049
 31
0.0
  0
LINE
  5
1E49
330
1F
100
AcDbEntity
  8
0
 62
     3
100
AcDbLine
 10
1270.669802868618
 20
92.46392224206049
 30
0.0
 11
1270.669802868618
 21
68.46392224206048
 31
0.0
  0
LINE
  5
1E4A
330
1F
100
AcDbEntity
  8
0
 62
     3
100
AcDbLine
 10
1241.669802868619
 20
108.4639222420604
 30
0.0
 11
1241.669802868619
 21
85.46392224206048
 31
0.0
  0
LINE
  5
1E4C
330
1F
100
AcDbEntity
  8
0
 62
     3
100
AcDbLine
 10
1313.669802868618
 20
85.46392224206048
 30
0.0
 11
1313.669802868618
 21
108.4639222420604
 31
0.0
  0
LINE
  5
1E4D
330
1F
100
AcDbEntity
  8
0
 62
     3
100
AcDbLine
 10
1339.669802868619
 20
108.4639222420604
 30
0.0
 11
1228.424368228619
 21
108.4639222420605
 31
0.0
  0
LINE
  5
1E4E
330
1F
100
AcDbEntity
  8
0
 62
     3
100
AcDbLine
 10
1339.669802868619
 20
99.4639222420605
 30
0.0
 11
1228.424368228619
 21
99.4639222420605
 31
0.0
  0
LINE
  5
1E4F
330
1F
100
AcDbEntity
  8
0
 62
     3
100
AcDbLine
 10
1339.669802868619
 20
85.46392224206048
 30
0.0
 11
1228.424368228619
 21
85.46392224206048
 31
0.0
  0
LINE
  5
1E50
330
1F
100
AcDbEntity
  8
0
 62
     3
100
AcDbLine
 10
1339.669802868619
 20
78.46392224206048
 30
0.0
 11
1228.366360368618
 21
78.46392224206048
 31
0.0
  0
LINE
  5
1E51
330
1F
100
AcDbEntity
  8
0
 62
     3
100
AcDbLine
 10
1326.669802868619
 20
85.46392224206048
 30
0.0
 11
1326.669802868619
 21
108.4639222420604
 31
0.0
  0
LINE
  5
1E52
330
1F
100
AcDbEntity
  8
0
 62
     3
100
AcDbLine
 10
1228.424368228619
 20
108.4639222420605
 30
0.0
 11
1228.424368228619
 21
68.46392224206048
 31
0.0
  0
LINE
  5
1E53
330
1F
100
AcDbEntity
  8
0
 62
     3
100
AcDbLine
 10
1287.669802868619
 20
92.46392224206049
 30
0.0
 11
1228.424368228619
 21
92.46392224206044
 31
0.0
  0
LINE
  5
1E54
330
1F
100
AcDbEntity
  8
0
 62
     3
100
AcDbLine
 10
1270.948127798618
 20
73.29678350206044
 30
0.0
 11
1287.669802868619
 21
73.29678350206044
 31
0.0
  0
TEXT
  5
1E56
330
1F
100
AcDbEntity
  8
0
 62
     3
100
AcDbText
 10
1271.834128281934
 20
87.53701909542582
 30
0.0
 40
2.5
  1
-
  7
高2.5
100
AcDbText
  0
TEXT
  5
1E57
330
1F
100
AcDbEntity
  8
0
 62
     3
100
AcDbText
 10
1242.866171563871
 20
87.76173664704439
 30
0.0
 40
2.5
  1
-
  7
高2.5
100
AcDbText
  0
TEXT
  5
1E58
330
1F
100
AcDbEntity
  8
0
 62
     3
100
AcDbText
 10
1243.131079318568
 20
100.7761717658183
 30
0.0
 40
3.2
  1
クラブアイ10W
  7
高3.2
100
AcDbText
1001
ACAD
1000
ACAD_MTEXT_DEFINED_HEIGHT_BEGIN
1070
    46
1040
0.0
1000
ACAD_MTEXT_DEFINED_HEIGHT_END
  0
TEXT
  5
1E59
330
1F
100
AcDbEntity
  8
0
 62
     3
100
AcDbText
 10
1329.735391962092
 20
104.977614340764
 30
0.0
 40
2.0
  1
DEF
  7
高2
100
AcDbText
  0
TEXT
  5
1E5A
330
1F
100
AcDbEntity
  8
0
 62
     3
100
AcDbText
 10
1315.796293608384
 20
104.977614340764
 30
0.0
 40
2.0
  1
DESN
  7
高2
100
AcDbText
  0
TEXT
  5
1E5B
330
1F
100
AcDbEntity
  8
0
 62
     3
100
AcDbText
 10
1289.541926668384
 20
104.977614340764
 30
0.0
 40
2.0
  1
APPD
  7
高2
100
AcDbText
  0
TEXT
  5
1E5C
330
1F
100
AcDbEntity
  8
0
 62
     3
100
AcDbText
 10
1302.654662768618
 20
104.9776143407641
 30
0.0
 40
2.0
  1
CHCK
  7
高2
100
AcDbText
  0
TEXT
  5
1E5D
330
1F
100
AcDbEntity
  8
0
 62
     3
100
AcDbText
 10
1261.596968507771
 20
82.63232106529121
 30
0.0
 40
2.0
  1
SCALE
 41
0.8
  7
高2
100
AcDbText
  0
TEXT
  5
1E5E
330
1F
100
AcDbEntity
  8
0
 62
     3
100
AcDbText
 10
1230.108946931665
 20
82.63232106529121
 30
0.0
 40
2.0
  1
3AD　ANGLE
 41
1.5
  7
高2
100
AcDbText
  0
TEXT
  5
1E5F
330
1F
100
AcDbEntity
  8
0
 62
     3
100
AcDbText
 10
1260.86637419862
 20
89.38385913424829
 30
0.0
 40
2.0
  1
REMARKS
 41
0.7
  7
高2
100
AcDbText
  0
TEXT
  5
1E60
330
1F
100
AcDbEntity
  8
0
 62
     3
100
AcDbText
 10
1229.892038578619
 20
89.46392224206048
 30
0.0
 40
2.0
  1
MATERIAL
 41
0.7
  7
高2
100
AcDbText
  0
TEXT
  5
1E61
330
1F
100
AcDbEntity
  8
0
 62
     3
100
AcDbText
 10
1230.468525781373
 20
96.46392224206046
 30
0.0
 40
2.0
  1
MODEL
  7
高2
100
AcDbText
  0
TEXT
  5
1E62
330
1F
100
AcDbEntity
  8
0
 62
     3
100
AcDbText
 10
1230.105446662704
 20
105.1709435926595
 30
0.0
 40
2.0
  1
CONPONENTS
 41
0.5
  7
高2
100
AcDbText
  0
TEXT
  5
1E63
330
1F
100
AcDbEntity
  8
0
 62
     3
100
AcDbText
 10
1242.812562133871
 20
93.55140336987242
 30
0.0
 40
4.5
  1
SLS-CE10W-1P
 41
0.8
  7
高4.5
100
AcDbText
  0
TEXT
  5
1E64
330
1F
100
AcDbEntity
  8
0
 62
     3
100
AcDbText
 10
1290.734848599237
 20
70.50238363742606
 30
0.0
 40
6.299999999999998
  1
SLS-CE10W-1P
 41
0.6
  7
高6.3
100
AcDbText
1001
ACAD
1000
ACAD_MTEXT_DEFINED_HEIGHT_BEGIN
1070
    46
1040
0.0
1000
ACAD_MTEXT_DEFINED_HEIGHT_END
  0
TEXT
  5
1E65
330
1F
100
AcDbEntity
  8
0
 62
     3
100
AcDbText
 10
1304.233312618948
 20
79.56481140029348
 30
0.0
 40
3.2
  1
2013.12.17
  7
高3.2
100
AcDbText
1001
ACAD
1000
ACAD_MTEXT_DEFINED_HEIGHT_BEGIN
1070
    46
1040
0.0
1000
ACAD_MTEXT_DEFINED_HEIGHT_END
  0
TEXT
  5
1E66
330
1F
100
AcDbEntity
  8
0
 62
     3
100
AcDbText
 10
1274.457400763265
 20
79.56483924462834
 30
0.0
 40
3.2
  1
1/2
  7
高3.2
100
AcDbText
  0
TEXT
  5
1E67
330
1F
100
AcDbEntity
  8
0
 62
     3
100
AcDbText
 10
1271.534729738618
 20
69.28080041519644
 30
0.0
 40
3.2
  1
ZK-A3X
 41
0.8
  7
高3.2
100
AcDbText
  0
TEXT
  5
1E68
330
1F
100
AcDbEntity
  8
0
 62
     3
100
AcDbText
 10
1229.255069268618
 20
74.9885426642483
 30
0.0
 40
2.0
  1
NICHIDO IND.CO.LTD
 41
1.3
  7
高2
100
AcDbText
  0
TEXT
  5
1E69
330
1F
100
AcDbEntity
  8
0
 62
     3
100
AcDbText
 10
1230.436592533575
 20
100.6044504499454
 30
0.0
 40
3.2
  1
品 名
  7
高3.2
100
AcDbText
1001
ACAD
1000
ACAD_MTEXT_DEFINED_HEIGHT_BEGIN
1070
    46
1040
0.0
1000
ACAD_MTEXT_DEFINED_HEIGHT_END
  0
TEXT
  5
1E6A
330
1F
100
AcDbEntity
  8
0
 62
     3
100
AcDbText
 10
1230.436592533575
 20
92.9639222420605
 30
0.0
 40
3.2
  1
型 式
  7
高3.2
100
AcDbText
1001
ACAD
1000
ACAD_MTEXT_DEFINED_HEIGHT_BEGIN
1070
    46
1040
3.064735913775952
1000
ACAD_MTEXT_DEFINED_HEIGHT_END
  0
TEXT
  5
1E6B
330
1F
100
AcDbEntity
  8
0
 62
     3
100
AcDbText
 10
1230.436592533575
 20
85.96392224206047
 30
0.0
 40
3.2
  1
材 質
  7
高3.2
100
AcDbText
1001
ACAD
1000
ACAD_MTEXT_DEFINED_HEIGHT_BEGIN
1070
    46
1040
0.0
1000
ACAD_MTEXT_DEFINED_HEIGHT_END
  0
TEXT
  5
1E6C
330
1F
100
AcDbEntity
  8
0
 62
     3
100
AcDbText
 10
1230.131557583576
 20
78.93136223430672
 30
0.0
 40
3.2
  1
第 三 角 法
  7
高3.2
100
AcDbText
1001
ACAD
1000
ACAD_MTEXT_DEFINED_HEIGHT_BEGIN
1070
    46
1040
0.0
1000
ACAD_MTEXT_DEFINED_HEIGHT_END
  0
TEXT
  5
1E6D
330
1F
100
AcDbEntity
  8
0
 62
     3
100
AcDbText
 10
1228.538090191104
 20
69.6044504499454
 30
0.0
 40
3.2
  1
日動工業株式会社
 41
1.199999999999999
  7
高3.2
100
AcDbText
1001
ACAD
1000
ACAD_MTEXT_DEFINED_HEIGHT_BEGIN
1070
    46
1040
0.0
1000
ACAD_MTEXT_DEFINED_HEIGHT_END
  0
TEXT
  5
1E6E
330
1F
100
AcDbEntity
  8
0
 62
     3
100
AcDbText
 10
1262.173714390583
 20
85.84850077522803
 30
0.0
 40
3.2
  1
備考
  7
高3.2
100
AcDbText
1001
ACAD
1000
ACAD_MTEXT_DEFINED_HEIGHT_BEGIN
1070
    46
1040
0.0
1000
ACAD_MTEXT_DEFINED_HEIGHT_END
  0
TEXT
  5
1E6F
330
1F
100
AcDbEntity
  8
0
 62
     3
100
AcDbText
 10
1271.822771837618
 20
74.61015226763077
 30
0.0
 40
2.5
  1
出図コード
  7
高2.5
100
AcDbText
1001
ACAD
1000
ACAD_MTEXT_DEFINED_HEIGHT_BEGIN
1070
    46
1040
0.0
1000
ACAD_MTEXT_DEFINED_HEIGHT_END
  0
TEXT
  5
1E70
330
1F
100
AcDbEntity
  8
0
 62
     3
100
AcDbText
 10
1262.014948272495
 20
78.9171571524734
 30
0.0
 40
3.2
  1
尺度
  7
高3.2
100
AcDbText
1001
ACAD
1000
ACAD_MTEXT_DEFINED_HEIGHT_BEGIN
1070
    46
1040
0.0
1000
ACAD_MTEXT_DEFINED_HEIGHT_END
  0
TEXT
  5
1E71
330
1F
100
AcDbEntity
  8
0
 62
     3
100
AcDbText
 10
1289.161209754274
 20
80.04863560059089
 30
0.0
 40
3.2
  1
作成日
  7
高3.2
100
AcDbText
1001
ACAD
1000
ACAD_MTEXT_DEFINED_HEIGHT_BEGIN
1070
    46
1040
0.0
1000
ACAD_MTEXT_DEFINED_HEIGHT_END
  0
TEXT
  5
1E72
330
1F
100
AcDbEntity
  8
0
 62
     3
100
AcDbText
 10
1289.055683761138
 20
100.6044504499454
 30
0.0
 40
3.2
  1
承 認
  7
高3.2
100
AcDbText
1001
ACAD
1000
ACAD_MTEXT_DEFINED_HEIGHT_BEGIN
1070
    46
1040
0.0
1000
ACAD_MTEXT_DEFINED_HEIGHT_END
  0
TEXT
  5
1E73
330
1F
100
AcDbEntity
  8
0
 62
     3
100
AcDbText
 10
1302.055683761138
 20
100.6044504499454
 30
0.0
 40
3.2
  1
検 図
  7
高3.2
100
AcDbText
1001
ACAD
1000
ACAD_MTEXT_DEFINED_HEIGHT_BEGIN
1070
    46
1040
0.0
1000
ACAD_MTEXT_DEFINED_HEIGHT_END
  0
TEXT
  5
1E74
330
1F
100
AcDbEntity
  8
0
 62
     3
100
AcDbText
 10
1315.055683761138
 20
100.6044504499454
 30
0.0
 40
3.2
  1
設 計
  7
高3.2
100
AcDbText
1001
ACAD
1000
ACAD_MTEXT_DEFINED_HEIGHT_BEGIN
1070
    46
1040
0.0
1000
ACAD_MTEXT_DEFINED_HEIGHT_END
  0
TEXT
  5
1E75
330
1F
100
AcDbEntity
  8
0
 62
     3
100
AcDbText
 10
1328.356320281138
 20
100.6044504499454
 30
0.0
 40
3.2
  1
製 図
  7
高3.2
100
AcDbText
1001
ACAD
1000
ACAD_MTEXT_DEFINED_HEIGHT_BEGIN
1070
    46
1040
0.0
1000
ACAD_MTEXT_DEFINED_HEIGHT_END
  0
TEXT
  5
1E76
330
1F
100
AcDbEntity
  8
0
 62
     3
100
AcDbText
 10
1327.169802868618
 20
332.9639222420603
 30
0.0
 40
3.2
  1
担　当
  7
高3.2
100
AcDbText
  0
TEXT
  5
1E77
330
1F
100
AcDbEntity
  8
0
 62
     3
100
AcDbText
 10
1283.169802868618
 20
332.9639222420603
 30
0.0
 40
3.2
  1
変更・追記内容
  7
高3.2
100
AcDbText
  0
TEXT
  5
1E78
330
1F
100
AcDbEntity
  8
0
 62
     3
100
AcDbText
 10
1258.283317868958
 20
328.2933837321522
 30
0.0
 40
2.0
  1
1
  7
高2
100
AcDbText
  0
TEXT
  5
1E79
330
1F
100
AcDbEntity
  8
0
 62
     3
100
AcDbText
 10
1257.9748063922
 20
323.1235670198793
 30
0.0
 40
2.0
  1
2
  7
高2
100
AcDbText
  0
TEXT
  5
1E7A
330
1F
100
AcDbEntity
  8
0
 62
     3
100
AcDbText
 10
1265.169802868618
 20
332.9639222420603
 30
0.0
 40
3.2
  1
日　付
  7
高3.2
100
AcDbText
  0
TEXT
  5
1E7B
330
1F
100
AcDbEntity
  8
0
 62
     3
100
AcDbText
 10
1265.169802868618
 20
337.9639222420605
 30
0.0
 40
3.2
  1
図　　　　面　　　　略　　　　歴
  7
高3.2
100
AcDbText
  0
TEXT
  5
1E7C
330
1F
100
AcDbEntity
  8
0
 62
     3
100
AcDbText
 10
1255.169802868618
 20
332.9639222420603
 30
0.0
 40
3.2
  1
記号
  7
高3.2
100
AcDbText
  0
LINE
  5
1E7D
330
1F
100
AcDbEntity
  8
0
 62
     7
100
AcDbLine
 10
1258.669802868618
 20
326.2548182420605
 30
0.0
 11
1256.769802868618
 21
322.9639222420605
 31
0.0
  0
LINE
  5
1E7E
330
1F
100
AcDbEntity
  8
0
 62
     7
100
AcDbLine
 10
1258.669802868618
 20
326.2548182420605
 30
0.0
 11
1260.569802868618
 21
322.9639222420605
 31
0.0
  0
LINE
  5
1E7F
330
1F
100
AcDbEntity
  8
0
 62
     7
100
AcDbLine
 10
1256.769802868618
 20
322.9639222420605
 30
0.0
 11
1260.569802868618
 21
322.9639222420605
 31
0.0
  0
LINE
  5
1E80
330
1F
100
AcDbEntity
  8
0
 62
     7
100
AcDbLine
 10
1258.669802868618
 20
331.2548192420605
 30
0.0
 11
1256.769802868618
 21
327.9639222420605
 31
0.0
  0
LINE
  5
1E81
330
1F
100
AcDbEntity
  8
0
 62
     7
100
AcDbLine
 10
1258.669802868618
 20
331.2548192420605
 30
0.0
 11
1260.569802868618
 21
327.9639222420605
 31
0.0
  0
LINE
  5
1E82
330
1F
100
AcDbEntity
  8
0
 62
     7
100
AcDbLine
 10
1256.769802868618
 20
327.9639222420605
 30
0.0
 11
1260.569802868618
 21
327.9639222420605
 31
0.0
  0
LINE
  5
1E83
330
1F
100
AcDbEntity
  8
0
 62
     3
100
AcDbLine
 10
1253.669802868618
 20
337.4639222420605
 30
0.0
 11
1339.669802868618
 21
337.4639222420605
 31
0.0
  0
LINE
  5
1E84
330
1F
100
AcDbEntity
  8
0
 62
     3
100
AcDbLine
 10
1253.669802868618
 20
332.4639222420604
 30
0.0
 11
1339.669802868618
 21
332.4639222420604
 31
0.0
  0
LINE
  5
1E85
330
1F
100
AcDbEntity
  8
0
 62
     7
100
AcDbLine
 10
1253.669802868618
 20
327.4639222420605
 30
0.0
 11
1339.669802868618
 21
327.4639222420605
 31
0.0
  0
LINE
  5
1E86
330
1F
100
AcDbEntity
  8
0
 62
     3
100
AcDbLine
 10
1253.669802868618
 20
322.4639222420603
 30
0.0
 11
1339.669802868618
 21
322.4639222420603
 31
0.0
  0
LINE
  5
1E87
330
1F
100
AcDbEntity
  8
0
 62
     7
100
AcDbLine
 10
1325.669802868618
 20
322.4639222420603
 30
0.0
 11
1325.669802868618
 21
337.4639222420605
 31
0.0
  0
LINE
  5
1E88
330
1F
100
AcDbEntity
  8
0
 62
     7
100
AcDbLine
 10
1281.669802868618
 20
322.4639222420603
 30
0.0
 11
1281.669802868618
 21
337.4639222420605
 31
0.0
  0
LINE
  5
1E89
330
1F
100
AcDbEntity
  8
0
 62
     7
100
AcDbLine
 10
1263.669802868618
 20
322.4639222420603
 30
0.0
 11
1263.669802868618
 21
337.4639222420605
 31
0.0
  0
LINE
  5
1E8A
330
1F
100
AcDbEntity
  8
0
 62
     3
100
AcDbLine
 10
1253.669802868618
 20
322.4639222420603
 30
0.0
 11
1253.669802868618
 21
342.4639222420605
 31
0.0
  0
TEXT
  5
1E8B
330
1F
100
AcDbEntity
  8
0
 62
     4
100
AcDbText
 10
1001.2755620233
 20
274.2248760760019
 30
0.0
 40
3.2
  1
A矢視図
  7
高3.2
100
AcDbText
  0
LINE
  5
1E8C
330
1F
100
AcDbEntity
  8
0
100
AcDbLine
 10
1000.556050661988
 20
273.0391102694775
 30
0.0
 11
1015.394145136454
 21
273.0391102694775
 31
0.0
  0
LINE
  5
1E8D
330
1F
100
AcDbEntity
  8
0
 62
     3
100
AcDbLine
 10
1339.669802868619
 20
114.4639222420605
 30
0.0
 11
1287.669802868619
 21
114.4639222420605
 31
0.0
  0
TEXT
  5
1E90
330
1F
100
AcDbEntity
  8
0
 62
     3
100
AcDbText
 10
1288.812562133871
 20
108.7182203951735
 30
0.0
 40
4.5
  1
コード
  7
高4.5
100
AcDbText
  0
TEXT
  5
1E91
330
1F
100
AcDbEntity
  8
0
 62
     3
100
AcDbText
 10
1314.812562133871
 20
108.7182203951735
 30
0.0
 40
4.5
  1
9325
  7
高4.5
100
AcDbText
  0
TEXT
  5
1E92
330
1F
100
AcDbEntity
  8
0
 62
     3
100
AcDbText
 10
1243.131079318568
 20
104.7356558120122
 30
0.0
 40
3.2
  1
LEDセンサーライト
  7
高3.2
100
AcDbText
1001
ACAD
1000
ACAD_MTEXT_DEFINED_HEIGHT_BEGIN
1070
    46
1040
0.0
1000
ACAD_MTEXT_DEFINED_HEIGHT_END
  0
TEXT
  5
1E93
330
1F
100
AcDbEntity
  8
0
 62
     7
100
AcDbText
 10
1332.375281076645
 20
90.45509294542716
 30
0.0
 40
3.2
  1
I
  7
高3.2
100
AcDbText
  0
CIRCLE
  5
1EC1
330
1F
100
AcDbEntity
  8
0
100
AcDbCircle
 10
1195.332475842207
 20
231.1645338951093
 30
0.0
 40
5.0
  0
TEXT
  5
1EC2
330
1F
100
AcDbEntity
  8
0
 62
     4
100
AcDbText
 10
1193.203672243136
 20
228.2407205658524
 30
0.0
 40
6.299999999999998
  1
2
  7
高6.3
100
AcDbText
  0
CIRCLE
  5
1EC3
330
1F
100
AcDbEntity
  8
0
100
AcDbCircle
 10
1127.359701089559
 20
231.1645338951093
 30
0.0
 40
5.0
  0
TEXT
  5
1EC4
330
1F
100
AcDbEntity
  8
0
 62
     4
100
AcDbText
 10
1126.278146793678
 20
228.150663655485
 30
0.0
 40
6.299999999999998
  1
1
  7
高6.3
100
AcDbText
  0
TEXT
  5
217E
330
1F
100
AcDbEntity
  8
0
 62
     3
100
AcDbText
 10
1252.055113682111
 20
211.5583007579201
 30
0.0
 40
3.2
  1
照　射　角
  7
高3.2
100
AcDbText
  0
LINE
  5
217F
330
1F
100
AcDbEntity
  8
0
100
AcDbLine
 10
1250.894786682111
 20
210.5583007579201
 30
0.0
 11
1322.674667708266
 21
210.5583007579201
 31
0.0
  0
TEXT
  5
2180
330
1F
100
AcDbEntity
  8
0
 62
     3
100
AcDbText
 10
1285.122417666183
 20
211.5583007579201
 30
0.0
 40
3.2
  1
30\U+00B0
  7
高3.2
100
AcDbText
  0
LINE
  5
24CA
330
1F
100
AcDbEntity
  8
0
 62
     3
100
AcDbLine
 10
1313.669802868618
 20
108.4639222420604
 30
0.0
 11
1313.669802868618
 21
114.4639222420605
 31
0.0
  0
LINE
  5
24CB
330
1F
100
AcDbEntity
  8
0
 62
     3
100
AcDbLine
 10
1287.669802868619
 20
108.4639222420604
 30
0.0
 11
1287.669802868619
 21
114.4639222420605
 31
0.0
  0
TEXT
  5
3425
330
1F
100
AcDbEntity
  8
0
 62
     7
100
AcDbText
 10
1265.169802868618
 20
327.9639222420605
 30
0.0
 40
2.5
  1
'20.03.24
 41
0.8
  7
高2.5
100
AcDbText
  0
TEXT
  5
3426
330
1F
100
AcDbEntity
  8
0
 62
     7
100
AcDbText
 10
1283.169802868618
 20
327.9639222420605
 30
0.0
 40
2.5
  1
LED素子変更　lotA9D
 41
0.8
  7
高2.5
100
AcDbText
  0
TEXT
  5
3427
330
1F
100
AcDbEntity
  8
0
 62
     7
100
AcDbText
 10
1327.169802868618
 20
327.9639222420605
 30
0.0
 40
2.5
  1
今村
  7
高2.5
100
AcDbText
  0
TEXT
  5
355D
330
1F
100
AcDbEntity
  8
0
 62
     7
100
AcDbText
 10
1265.169802868618
 20
322.9639222420603
 30
0.0
 40
2.5
  1
'21.01.21
 41
0.8
  7
高2.5
100
AcDbText
  0
TEXT
  5
355E
330
1F
100
AcDbEntity
  8
0
 62
     7
100
AcDbText
 10
1283.169802868618
 20
322.9639222420603
 30
0.0
 40
2.5
  1
電源変更、電源電線VCTFからVCTへ変更　lotB1A
 41
0.5
  7
高2.5
100
AcDbText
  0
TEXT
  5
355F
330
1F
100
AcDbEntity
  8
0
 62
     7
100
AcDbText
 10
1327.169802868618
 20
322.9639222420603
 30
0.0
 40
2.5
  1
今村
  7
高2.5
100
AcDbText
  0
ARC
  5
3573
330
1F
100
AcDbEntity
  8
0
 62
     7
100
AcDbCircle
 10
1149.225609780797
 20
141.1430566440368
 30
0.0
 40
1.594999999999526
100
AcDbArc
 50
226.3971810272847
 51
313.6028189727154
  0
ARC
  5
3574
330
1F
100
AcDbEntity
  8
0
 62
     7
100
AcDbCircle
 10
1149.225609780797
 20
138.8330566440379
 30
0.0
 40
1.594999999999526
100
AcDbArc
 50
46.39718102728552
 51
133.6028189727144
  0
ARC
  5
3575
330
1F
100
AcDbEntity
  8
0
 62
     7
100
AcDbCircle
 10
1147.025609780797
 20
141.1430566440368
 30
0.0
 40
1.594999999999526
100
AcDbArc
 50
226.3971810272852
 51
313.6028189727148
  0
ARC
  5
3577
330
1F
100
AcDbEntity
  8
0
 62
     7
100
AcDbCircle
 10
1147.025609780797
 20
136.9738015682872
 30
0.0
 40
1.594999999999745
100
AcDbArc
 50
46.39718102729271
 51
133.6028189727191
  0
ARC
  5
3578
330
1F
100
AcDbEntity
  8
0
 62
     7
100
AcDbCircle
 10
1147.025609780797
 20
139.2838015682864
 30
0.0
 40
1.594999999999745
100
AcDbArc
 50
226.397181027292
 51
313.6028189727187
  0
ARC
  5
3579
330
1F
100
AcDbEntity
  8
0
 62
     7
100
AcDbCircle
 10
1149.225609780797
 20
136.9738015682874
 30
0.0
 40
1.594999999999745
100
AcDbArc
 50
46.39718102728738
 51
133.6028189727171
  0
TEXT
  5
3583
330
1F
100
AcDbEntity
  8
0
100
AcDbText
 10
950.7080568866824
 20
63.29480925440535
 30
0.0
 40
3.2
  1
コード番号末尾に●の記載がある物は過去に変更があった部品
  7
高3.2
100
AcDbText
  0
LINE
  5
37C3
330
1F
100
AcDbEntity
  8
0
 62
     3
100
AcDbLine
 10
1139.928428908618
 20
343.0045507820604
 30
0.0
 11
1139.901818158618
 21
343.1749333020605
 31
0.0
  0
LINE
  5
37C4
330
1F
100
AcDbEntity
  8
0
 62
     3
100
AcDbLine
 10
1139.901818158618
 20
343.1749333020605
 30
0.0
 11
1139.869859328618
 21
343.3380829920605
 31
0.0
  0
LINE
  5
37C5
330
1F
100
AcDbEntity
  8
0
 62
     3
100
AcDbLine
 10
1139.869859328618
 20
343.3380829920605
 30
0.0
 11
1139.832799428618
 21
343.4927387920605
 31
0.0
  0
LINE
  5
37C6
330
1F
100
AcDbEntity
  8
0
 62
     3
100
AcDbLine
 10
1139.832799428618
 20
343.4927387920605
 30
0.0
 11
1139.790924928618
 21
343.6377052920605
 31
0.0
  0
LINE
  5
37C7
330
1F
100
AcDbEntity
  8
0
 62
     3
100
AcDbLine
 10
1139.790924928618
 20
343.6377052920605
 30
0.0
 11
1139.744559498618
 21
343.7718619820606
 31
0.0
  0
LINE
  5
37C8
330
1F
100
AcDbEntity
  8
0
 62
     3
100
AcDbLine
 10
1139.744559498618
 20
343.7718619820606
 30
0.0
 11
1139.694061508618
 21
343.8941718820603
 31
0.0
  0
LINE
  5
37C9
330
1F
100
AcDbEntity
  8
0
 62
     3
100
AcDbLine
 10
1139.694061508618
 20
343.8941718820603
 30
0.0
 11
1139.639821288618
 21
344.0036896220604
 31
0.0
  0
LINE
  5
37CA
330
1F
100
AcDbEntity
  8
0
 62
     3
100
AcDbLine
 10
1139.639821288618
 20
344.0036896220604
 30
0.0
 11
1139.582258088618
 21
344.0995686720605
 31
0.0
  0
LINE
  5
37CB
330
1F
100
AcDbEntity
  8
0
 62
     3
100
AcDbLine
 10
1139.582258088618
 20
344.0995686720605
 30
0.0
 11
1139.521816838618
 21
344.1810679420604
 31
0.0
  0
LINE
  5
37CC
330
1F
100
AcDbEntity
  8
0
 62
     3
100
AcDbLine
 10
1139.521816838618
 20
344.1810679420604
 30
0.0
 11
1139.458964718618
 21
344.2475574820603
 31
0.0
  0
LINE
  5
37CD
330
1F
100
AcDbEntity
  8
0
 62
     3
100
AcDbLine
 10
1139.458964718618
 20
344.2475574820603
 30
0.0
 11
1139.394187538618
 21
344.2985233620604
 31
0.0
  0
LINE
  5
37CE
330
1F
100
AcDbEntity
  8
0
 62
     3
100
AcDbLine
 10
1139.394187538618
 20
344.2985233620604
 30
0.0
 11
1139.327986008618
 21
344.3335716420605
 31
0.0
  0
LINE
  5
37CF
330
1F
100
AcDbEntity
  8
0
 62
     3
100
AcDbLine
 10
1139.327986008618
 20
344.3335716420605
 30
0.0
 11
1139.260871818618
 21
344.3524314120605
 31
0.0
  0
LINE
  5
37D0
330
1F
100
AcDbEntity
  8
0
 62
     3
100
AcDbLine
 10
1139.260871818618
 20
344.3524314120605
 30
0.0
 11
1139.193363728618
 21
344.3549569120605
 31
0.0
  0
LINE
  5
37D1
330
1F
100
AcDbEntity
  8
0
 62
     3
100
AcDbLine
 10
1139.193363728618
 20
344.3549569120605
 30
0.0
 11
1139.125983538618
 21
344.3411286020603
 31
0.0
  0
LINE
  5
37D2
330
1F
100
AcDbEntity
  8
0
 62
     3
100
AcDbLine
 10
1139.125983538618
 20
344.3411286020603
 30
0.0
 11
1139.059252068618
 21
344.3110533720605
 31
0.0
  0
LINE
  5
37D3
330
1F
100
AcDbEntity
  8
0
 62
     3
100
AcDbLine
 10
1139.059252068618
 20
344.3110533720605
 30
0.0
 11
1138.993685128618
 21
344.2649637020605
 31
0.0
  0
LINE
  5
37D4
330
1F
100
AcDbEntity
  8
0
 62
     3
100
AcDbLine
 10
1138.993685128618
 20
344.2649637020605
 30
0.0
 11
1138.929789488618
 21
344.2032158220605
 31
0.0
  0
LINE
  5
37D5
330
1F
100
AcDbEntity
  8
0
 62
     3
100
AcDbLine
 10
1138.929789488618
 20
344.2032158220605
 30
0.0
 11
1138.868059058618
 21
344.1262870320605
 31
0.0
  0
LINE
  5
37D6
330
1F
100
AcDbEntity
  8
0
 62
     3
100
AcDbLine
 10
1138.868059058618
 20
344.1262870320605
 30
0.0
 11
1138.808970968618
 21
344.0347719320606
 31
0.0
  0
LINE
  5
37D7
330
1F
100
AcDbEntity
  8
0
 62
     3
100
AcDbLine
 10
1138.808970968618
 20
344.0347719320606
 30
0.0
 11
1138.752981938618
 21
343.9293779020605
 31
0.0
  0
LINE
  5
37D8
330
1F
100
AcDbEntity
  8
0
 62
     3
100
AcDbLine
 10
1138.752981938618
 20
343.9293779020605
 30
0.0
 11
1138.700524738618
 21
343.8109195720605
 31
0.0
  0
LINE
  5
37D9
330
1F
100
AcDbEntity
  8
0
 62
     3
100
AcDbLine
 10
1138.700524738618
 20
343.8109195720605
 30
0.0
 11
1138.652004838618
 21
343.6803125620605
 31
0.0
  0
LINE
  5
37DA
330
1F
100
AcDbEntity
  8
0
 62
     3
100
AcDbLine
 10
1138.652004838618
 20
343.6803125620605
 30
0.0
 11
1138.607797258618
 21
343.5385664120603
 31
0.0
  0
LINE
  5
37DB
330
1F
100
AcDbEntity
  8
0
 62
     3
100
AcDbLine
 10
1138.607797258618
 20
343.5385664120603
 30
0.0
 11
1138.568243718618
 21
343.3867767420605
 31
0.0
  0
LINE
  5
37DC
330
1F
100
AcDbEntity
  8
0
 62
     3
100
AcDbLine
 10
1138.568243718618
 20
343.3867767420605
 30
0.0
 11
1138.533649938618
 21
343.2261168020604
 31
0.0
  0
LINE
  5
37DD
330
1F
100
AcDbEntity
  8
0
 62
     3
100
AcDbLine
 10
1138.533649938618
 20
343.2261168020604
 30
0.0
 11
1138.504283308618
 21
343.0578284120605
 31
0.0
  0
LINE
  5
37DE
330
1F
100
AcDbEntity
  8
0
 62
     3
100
AcDbLine
 10
1138.504283308618
 20
343.0578284120605
 30
0.0
 11
1138.480370818618
 21
342.8832123520605
 31
0.0
  0
LINE
  5
37DF
330
1F
100
AcDbEntity
  8
0
 62
     3
100
AcDbLine
 10
1138.480370818618
 20
342.8832123520605
 30
0.0
 11
1138.462097308618
 21
342.7036183220605
 31
0.0
  0
LINE
  5
37E0
330
1F
100
AcDbEntity
  8
0
 62
     3
100
AcDbLine
 10
1138.462097308618
 20
342.7036183220605
 30
0.0
 11
1138.449604008618
 21
342.5204344820605
 31
0.0
  0
LINE
  5
37E1
330
1F
100
AcDbEntity
  8
0
 62
     3
100
AcDbLine
 10
1138.449604008618
 20
342.5204344820605
 30
0.0
 11
1138.442987498618
 21
342.3350767620604
 31
0.0
  0
LINE
  5
37E2
330
1F
100
AcDbEntity
  8
0
 62
     3
100
AcDbLine
 10
1138.442987498618
 20
342.3350767620604
 30
0.0
 11
1138.442298908618
 21
342.1489778620603
 31
0.0
  0
LINE
  5
37E3
330
1F
100
AcDbEntity
  8
0
 62
     3
100
AcDbLine
 10
1138.442298908618
 20
342.1489778620603
 30
0.0
 11
1138.447543568618
 21
341.9635762520605
 31
0.0
  0
LINE
  5
37E4
330
1F
100
AcDbEntity
  8
0
 62
     3
100
AcDbLine
 10
1138.447543568618
 20
341.9635762520605
 30
0.0
 11
1138.458680938618
 21
341.7803049820605
 31
0.0
  0
LINE
  5
37E5
330
1F
100
AcDbEntity
  8
0
 62
     3
100
AcDbLine
 10
1138.458680938618
 20
341.7803049820605
 30
0.0
 11
1138.475624938618
 21
341.6005806420605
 31
0.0
  0
LINE
  5
37E6
330
1F
100
AcDbEntity
  8
0
 62
     3
100
AcDbLine
 10
1138.475624938618
 20
341.6005806420605
 30
0.0
 11
1138.498244588618
 21
341.4257924120605
 31
0.0
  0
LINE
  5
37E7
330
1F
100
AcDbEntity
  8
0
 62
     3
100
AcDbLine
 10
1138.498244588618
 20
341.4257924120605
 30
0.0
 11
1138.526365058618
 21
341.2572913120605
 31
0.0
  0
LINE
  5
37E8
330
1F
100
AcDbEntity
  8
0
 62
     3
100
AcDbLine
 10
1138.526365058618
 20
341.2572913120605
 30
0.0
 11
1138.559768988618
 21
341.0963797720605
 31
0.0
  0
LINE
  5
37E9
330
1F
100
AcDbEntity
  8
0
 62
     3
100
AcDbLine
 10
1138.559768988618
 20
341.0963797720605
 30
0.0
 11
1138.598198188618
 21
340.9443015520605
 31
0.0
  0
LINE
  5
37EA
330
1F
100
AcDbEntity
  8
0
 62
     3
100
AcDbLine
 10
1138.598198188618
 20
340.9443015520605
 30
0.0
 11
1138.641355608618
 21
340.8022321420605
 31
0.0
  0
LINE
  5
37EB
330
1F
100
AcDbEntity
  8
0
 62
     3
100
AcDbLine
 10
1138.641355608618
 20
340.8022321420605
 30
0.0
 11
1138.688907678618
 21
340.6712696620605
 31
0.0
  0
LINE
  5
37EC
330
1F
100
AcDbEntity
  8
0
 62
     3
100
AcDbLine
 10
1138.688907678618
 20
340.6712696620605
 30
0.0
 11
1138.740486828618
 21
340.5524263820605
 31
0.0
  0
LINE
  5
37ED
330
1F
100
AcDbEntity
  8
0
 62
     3
100
AcDbLine
 10
1138.740486828618
 20
340.5524263820605
 30
0.0
 11
1138.795694398618
 21
340.4466209120605
 31
0.0
  0
LINE
  5
37EE
330
1F
100
AcDbEntity
  8
0
 62
     3
100
AcDbLine
 10
1138.795694398618
 20
340.4466209120605
 30
0.0
 11
1138.854103648618
 21
340.3546710520605
 31
0.0
  0
LINE
  5
37EF
330
1F
100
AcDbEntity
  8
0
 62
     3
100
AcDbLine
 10
1138.854103648618
 20
340.3546710520605
 30
0.0
 11
1138.915263108618
 21
340.2772875520605
 31
0.0
  0
LINE
  5
37F0
330
1F
100
AcDbEntity
  8
0
 62
     3
100
AcDbLine
 10
1138.915263108618
 20
340.2772875520605
 30
0.0
 11
1138.978700048618
 21
340.2150685320604
 31
0.0
  0
LINE
  5
37F1
330
1F
100
AcDbEntity
  8
0
 62
     3
100
AcDbLine
 10
1138.978700048618
 20
340.2150685320604
 30
0.0
 11
1139.043924128618
 21
340.1684949220603
 31
0.0
  0
LINE
  5
37F2
330
1F
100
AcDbEntity
  8
0
 62
     3
100
AcDbLine
 10
1139.043924128618
 20
340.1684949220603
 30
0.0
 11
1139.110431208618
 21
340.1379266920605
 31
0.0
  0
LINE
  5
37F3
330
1F
100
AcDbEntity
  8
0
 62
     3
100
AcDbLine
 10
1139.110431208618
 20
340.1379266920605
 30
0.0
 11
1139.177707218618
 21
340.1236001420605
 31
0.0
  0
LINE
  5
37F4
330
1F
100
AcDbEntity
  8
0
 62
     3
100
AcDbLine
 10
1139.177707218618
 20
340.1236001420605
 30
0.0
 11
1139.245232148618
 21
340.1256260020605
 31
0.0
  0
LINE
  5
37F5
330
1F
100
AcDbEntity
  8
0
 62
     3
100
AcDbLine
 10
1139.245232148618
 20
340.1256260020605
 30
0.0
 11
1139.312484068618
 21
340.1439886020605
 31
0.0
  0
LINE
  5
37F6
330
1F
100
AcDbEntity
  8
0
 62
     3
100
AcDbLine
 10
1139.312484068618
 20
340.1439886020605
 30
0.0
 11
1139.378943148618
 21
340.1785460220605
 31
0.0
  0
LINE
  5
37F7
330
1F
100
AcDbEntity
  8
0
 62
     3
100
AcDbLine
 10
1139.378943148618
 20
340.1785460220605
 30
0.0
 11
1139.444095708618
 21
340.2290311520605
 31
0.0
  0
LINE
  5
37F8
330
1F
100
AcDbEntity
  8
0
 62
     3
100
AcDbLine
 10
1139.444095708618
 20
340.2290311520605
 30
0.0
 11
1139.507438138618
 21
340.2950537520605
 31
0.0
  0
LINE
  5
37F9
330
1F
100
AcDbEntity
  8
0
 62
     3
100
AcDbLine
 10
1139.507438138618
 20
340.2950537520605
 30
0.0
 11
1139.568480838618
 21
340.3761035120605
 31
0.0
  0
LINE
  5
37FA
330
1F
100
AcDbEntity
  8
0
 62
     3
100
AcDbLine
 10
1139.568480838618
 20
340.3761035120605
 30
0.0
 11
1139.626751978618
 21
340.4715539620604
 31
0.0
  0
LINE
  5
37FB
330
1F
100
AcDbEntity
  8
0
 62
     3
100
AcDbLine
 10
1139.626751978618
 20
340.4715539620604
 30
0.0
 11
1139.681801158618
 21
340.5806673220605
 31
0.0
  0
LINE
  5
37FC
330
1F
100
AcDbEntity
  8
0
 62
     3
100
AcDbLine
 10
1139.681801158618
 20
340.5806673220605
 30
0.0
 11
1139.733202878618
 21
340.7026001820605
 31
0.0
  0
LINE
  5
37FD
330
1F
100
AcDbEntity
  8
0
 62
     3
100
AcDbLine
 10
1139.733202878618
 20
340.7026001820605
 30
0.0
 11
1139.780559818618
 21
340.8364100920605
 31
0.0
  0
LINE
  5
37FE
330
1F
100
AcDbEntity
  8
0
 62
     3
100
AcDbLine
 10
1139.780559818618
 20
340.8364100920605
 30
0.0
 11
1139.823505938618
 21
340.9810627420605
 31
0.0
  0
LINE
  5
37FF
330
1F
100
AcDbEntity
  8
0
 62
     3
100
AcDbLine
 10
1139.823505938618
 20
340.9810627420605
 30
0.0
 11
1139.861709288618
 21
341.1354400620605
 31
0.0
  0
LINE
  5
3800
330
1F
100
AcDbEntity
  8
0
 62
     3
100
AcDbLine
 10
1139.861709288618
 20
341.1354400620605
 30
0.0
 11
1139.894874578618
 21
341.2983487920605
 31
0.0
  0
LINE
  5
3801
330
1F
100
AcDbEntity
  8
0
 62
     3
100
AcDbLine
 10
1139.894874578618
 20
341.2983487920605
 30
0.0
 11
1139.922745458618
 21
341.4685297220604
 31
0.0
  0
TEXT
  5
3802
330
1F
100
AcDbEntity
  8
0
 62
     4
100
AcDbText
 10
965.1724400857402
 20
309.4640603496982
 30
0.0
 40
3.0
  1
昼夜調整ツマミ
100
AcDbText
1001
ACAD
1000
MTEXTBEGIN
1070
    73
1070
     1
1070
    44
1040
1.0
1070
    74
1070
     0
1000
MTEXTEND
  0
TEXT
  5
3805
330
1F
100
AcDbEntity
  8
0
 62
     4
100
AcDbText
 10
1027.933610977941
 20
309.9234471642785
 30
0.0
 40
3.0
  1
時間設定ツマミ
100
AcDbText
1001
ACAD
1000
MTEXTBEGIN
1070
    73
1070
     1
1070
    44
1040
1.0
1070
    74
1070
     0
1000
MTEXTEND
  0
LINE
  5
3808
330
1F
100
AcDbEntity
  8
0
 62
     7
100
AcDbLine
 10
1167.969947348095
 20
214.8482560779799
 30
0.0
 11
1184.851245720112
 21
214.8482560779799
 31
0.0
  0
LINE
  5
3809
330
1F
100
AcDbEntity
  8
0
 62
     7
100
AcDbLine
 10
1167.969947348095
 20
190.4732560779799
 30
0.0
 11
1184.851245720112
 21
190.4732560779799
 31
0.0
  0
LINE
  5
380A
330
1F
100
AcDbEntity
  8
0
 62
     7
100
AcDbLine
 10
1183.601245720112
 20
212.3482560779799
 30
0.0
 11
1183.601245720112
 21
192.9732560779799
 31
0.0
  0
TEXT
  5
3814
330
1F
100
AcDbEntity
  8
0
 62
     4
100
AcDbText
 10
1059.261896363323
 20
200.3554841285199
 30
0.0
 40
3.0
  1
ライト部
100
AcDbText
1001
ACAD
1000
MTEXTBEGIN
1070
    73
1070
     1
1070
    44
1040
1.0
1070
    74
1070
     0
1000
MTEXTEND
  0
TEXT
  5
3815
330
1F
100
AcDbEntity
  8
0
 62
     4
100
AcDbText
 10
1053.061896363323
 20
195.3554841285199
 30
0.0
 40
3.0
  1
(レンズPC)
100
AcDbText
1001
ACAD
1000
MTEXTBEGIN
1070
    73
1070
     1
1070
    44
1040
1.0
1070
    74
1070
     0
1000
MTEXTEND
  0
TEXT
  5
3818
330
1F
100
AcDbEntity
  8
0
 62
     4
100
AcDbText
 10
1070.601280368304
 20
149.6341099254264
 30
0.0
 40
3.0
  1
センサー部
100
AcDbText
1001
ACAD
1000
MTEXTBEGIN
1070
    73
1070
     1
1070
    44
1040
1.0
1070
    74
1070
     0
1000
MTEXTEND
  0
LINE
  5
381B
330
1F
100
AcDbEntity
  8
0
 62
     7
100
AcDbLine
 10
1156.825609780797
 20
214.59825607798
 30
0.0
 11
1156.825609780797
 21
239.8329874189059
 31
0.0
  0
LINE
  5
381C
330
1F
100
AcDbEntity
  8
0
 62
     7
100
AcDbLine
 10
1077.325609780797
 20
222.2232560779799
 30
0.0
 11
1077.325609780797
 21
239.8329874189059
 31
0.0
  0
LINE
  5
381D
330
1F
100
AcDbEntity
  8
0
 62
     7
100
AcDbLine
 10
1154.325609780797
 20
238.5829874189059
 30
0.0
 11
1079.825609780797
 21
238.5829874189059
 31
0.0
  0
LINE
  5
3821
330
1F
100
AcDbEntity
  8
0
 62
     7
100
AcDbLine
 10
1008.068301814111
 20
229.2220791392494
 30
0.0
 11
958.4199256865677
 21
229.2220791392495
 31
0.0
  0
LINE
  5
3822
330
1F
100
AcDbEntity
  8
0
 62
     7
100
AcDbLine
 10
1007.881973320944
 20
145.9732227680964
 30
0.0
 11
958.4199256865677
 21
145.9732227680964
 31
0.0
  0
LINE
  5
3823
330
1F
100
AcDbEntity
  8
0
 62
     7
100
AcDbLine
 10
959.6699256865676
 20
226.7220791392495
 30
0.0
 11
959.6699256865676
 21
148.4732227680964
 31
0.0
  0
LINE
  5
3827
330
1F
100
AcDbEntity
  8
0
 62
     7
100
AcDbLine
 10
1042.631973320944
 20
190.7232560779799
 30
0.0
 11
1042.631973320944
 21
255.9762636516057
 31
0.0
  0
LINE
  5
3828
330
1F
100
AcDbEntity
  8
0
 62
     7
100
AcDbLine
 10
973.6319733209443
 20
190.7232560779799
 30
0.0
 11
973.6319733209443
 21
255.9762636516057
 31
0.0
  0
LINE
  5
3829
330
1F
100
AcDbEntity
  8
0
 62
     7
100
AcDbLine
 10
1040.131973320944
 20
254.7262636516057
 30
0.0
 11
976.1319733209443
 21
254.7262636516057
 31
0.0
  0
LINE
  5
382D
330
1F
100
AcDbEntity
  8
0
 62
     7
100
AcDbLine
 10
1038.631973320944
 20
190.7232560779799
 30
0.0
 11
1038.631973320944
 21
247.8769973065359
 31
0.0
  0
LINE
  5
382E
330
1F
100
AcDbEntity
  8
0
 62
     7
100
AcDbLine
 10
977.6319733209444
 20
190.7232560779799
 30
0.0
 11
977.6319733209444
 21
247.8769973065359
 31
0.0
  0
LINE
  5
382F
330
1F
100
AcDbEntity
  8
0
 62
     7
100
AcDbLine
 10
1036.131973320944
 20
246.6269973065359
 30
0.0
 11
980.1319733209442
 21
246.6269973065359
 31
0.0
  0
LINE
  5
3833
330
1F
100
AcDbEntity
  8
0
 62
     7
100
AcDbLine
 10
1035.756973320944
 20
190.7232560779799
 30
0.0
 11
1035.756973320944
 21
240.9347675911026
 31
0.0
  0
LINE
  5
3834
330
1F
100
AcDbEntity
  8
0
 62
     7
100
AcDbLine
 10
980.5069733209442
 20
190.7232560779799
 30
0.0
 11
980.5069733209442
 21
240.9347675911026
 31
0.0
  0
LINE
  5
3835
330
1F
100
AcDbEntity
  8
0
 62
     7
100
AcDbLine
 10
1033.256973320944
 20
239.6847675911026
 30
0.0
 11
983.0069733209441
 21
239.6847675911026
 31
0.0
  0
LINE
  5
383B
330
1F
100
AcDbEntity
  8
0
 62
     7
100
AcDbLine
 10
1209.325609780797
 20
275.9535013538679
 30
0.0
 11
1209.325609780797
 21
248.2427526176257
 31
0.0
  0
LINE
  5
383C
330
1F
100
AcDbEntity
  8
0
 62
     7
100
AcDbLine
 10
1156.825609780797
 20
257.0511296813797
 30
0.0
 11
1156.825609780797
 21
248.2427526176257
 31
0.0
  0
LINE
  5
383D
330
1F
100
AcDbEntity
  8
0
 62
     7
100
AcDbLine
 10
1206.825609780797
 20
249.4927526176257
 30
0.0
 11
1159.325609780797
 21
249.4927526176257
 31
0.0
  0
LINE
  5
3841
330
1F
100
AcDbEntity
  8
0
 62
     7
100
AcDbLine
 10
1209.325609780797
 20
175.3839703636942
 30
0.0
 11
1209.325609780797
 21
152.5076045282344
 31
0.0
  0
LINE
  5
3842
330
1F
100
AcDbEntity
  8
0
 62
     7
100
AcDbLine
 10
1156.825609780797
 20
165.5982560779799
 30
0.0
 11
1156.825609780797
 21
152.5076045282344
 31
0.0
  0
LINE
  5
3843
330
1F
100
AcDbEntity
  8
0
 62
     7
100
AcDbLine
 10
1206.825609780797
 20
153.7576045282344
 30
0.0
 11
1159.325609780797
 21
153.7576045282344
 31
0.0
  0
LINE
  5
3847
330
1F
100
AcDbEntity
  8
0
 62
     7
100
AcDbLine
 10
1188.657582484399
 20
220.9415575784436
 30
0.0
 11
1192.59891492051
 21
226.977930894182
 31
0.0
1001
ACAD
1000
DSTYLE
1002
{
1070
   147
1040
0.625
1070
    77
1070
     0
1002
}
  0
LINE
  5
3848
330
1F
100
AcDbEntity
  8
0
  6
ByBlock
 62
     0
370
    -2
100
AcDbLine
 10
1189.218480528147
 20
220.5753301207398
 30
0.0
 11
1187.290802023551
 21
218.8482560779799
 31
0.0
  0
LINE
  5
3849
330
1F
100
AcDbEntity
  8
0
  6
ByBlock
 62
     0
370
    -2
100
AcDbLine
 10
1187.290802023551
 20
218.8482560779799
 30
0.0
 11
1188.096684440651
 21
221.3077850361474
 31
0.0
  0
LINE
  5
384A
330
1F
100
AcDbEntity
  8
0
  6
ByBlock
 62
     0
370
    -2
100
AcDbLine
 10
1187.290802023551
 20
218.8482560779799
 30
0.0
 11
1188.657582484399
 21
220.9415575784436
 31
0.0
  0
LINE
  5
384B
330
1F
100
AcDbEntity
  8
0
 62
     7
100
AcDbLine
 10
1137.659098225721
 20
217.495132942338
 30
0.0
 11
1130.368546022913
 21
227.1711829003886
 31
0.0
1001
ACAD
1000
DSTYLE
1002
{
1070
   147
1040
0.625
1070
    77
1070
     0
1002
}
  0
LINE
  5
384C
330
1F
100
AcDbEntity
  8
0
  6
ByBlock
 62
     0
370
    -2
100
AcDbLine
 10
1138.194105428564
 20
217.8982414378614
 30
0.0
 11
1139.163520692398
 21
215.4984574449776
 31
0.0
  0
LINE
  5
384D
330
1F
100
AcDbEntity
  8
0
  6
ByBlock
 62
     0
370
    -2
100
AcDbLine
 10
1139.163520692398
 20
215.4984574449776
 30
0.0
 11
1137.124091022879
 21
217.0920244468145
 31
0.0
  0
LINE
  5
384E
330
1F
100
AcDbEntity
  8
0
  6
ByBlock
 62
     0
370
    -2
100
AcDbLine
 10
1139.163520692398
 20
215.4984574449776
 30
0.0
 11
1137.659098225721
 21
217.495132942338
 31
0.0
  0
LINE
  5
384F
330
1F
100
AcDbEntity
  8
0
100
AcDbLine
 10
999.1219221604882
 20
300.8093235078296
 30
0.0
 11
992.29744008574
 21
310.9640603496982
 31
0.0
1001
ACAD
1000
DSTYLE
1002
{
1070
   147
1040
0.625
1070
    77
1070
     0
1002
}
  0
LINE
  5
3850
330
1F
100
AcDbEntity
  8
0
100
AcDbLine
 10
992.29744008574
 20
310.9640603496982
 30
0.0
 11
989.79744008574
 21
310.9640603496982
 31
0.0
1001
ACAD
1000
DSTYLE
1002
{
1070
   147
1040
0.625
1070
    77
1070
     0
1002
}
  0
LINE
  5
3851
330
1F
100
AcDbEntity
  8
0
  6
ByBlock
 62
     0
370
    -2
100
AcDbLine
 10
999.6779047408219
 20
301.1829711180478
 30
0.0
 11
1000.516395027408
 21
298.7343667797446
 31
0.0
  0
LINE
  5
3852
330
1F
100
AcDbEntity
  8
0
  6
ByBlock
 62
     0
370
    -2
100
AcDbLine
 10
1000.516395027408
 20
298.7343667797446
 30
0.0
 11
998.5659395801546
 21
300.4356758976113
 31
0.0
  0
LINE
  5
3853
330
1F
100
AcDbEntity
  8
0
  6
ByBlock
 62
     0
370
    -2
100
AcDbLine
 10
1000.516395027408
 20
298.7343667797446
 30
0.0
 11
999.1219221604882
 21
300.8093235078296
 31
0.0
  0
LINE
  5
3854
330
1F
100
AcDbEntity
  8
0
100
AcDbLine
 10
1017.349479826259
 20
300.6545282592077
 30
0.0
 11
1024.808610977941
 21
311.4234471642785
 31
0.0
1001
ACAD
1000
DSTYLE
1002
{
1070
   147
1040
0.625
1070
    77
1070
     0
1002
}
  0
LINE
  5
3855
330
1F
100
AcDbEntity
  8
0
100
AcDbLine
 10
1024.808610977941
 20
311.4234471642785
 30
0.0
 11
1027.308610977941
 21
311.4234471642785
 31
0.0
1001
ACAD
1000
DSTYLE
1002
{
1070
   147
1040
0.625
1070
    77
1070
     0
1002
}
  0
LINE
  5
3856
330
1F
100
AcDbEntity
  8
0
  6
ByBlock
 62
     0
370
    -2
100
AcDbLine
 10
1017.900154587377
 20
300.273101367492
 30
0.0
 11
1015.925974264694
 21
298.5993805963392
 31
0.0
  0
LINE
  5
3857
330
1F
100
AcDbEntity
  8
0
  6
ByBlock
 62
     0
370
    -2
100
AcDbLine
 10
1015.925974264694
 20
298.5993805963392
 30
0.0
 11
1016.798805065141
 21
301.0359551509234
 31
0.0
  0
LINE
  5
3858
330
1F
100
AcDbEntity
  8
0
  6
ByBlock
 62
     0
370
    -2
100
AcDbLine
 10
1015.925974264694
 20
298.5993805963392
 30
0.0
 11
1017.349479826259
 21
300.6545282592077
 31
0.0
  0
TEXT
  5
3859
330
1F
100
AcDbEntity
  8
0
 62
     4
100
AcDbText
 10
1182.976245720112
 20
198.6560820501081
 30
0.0
 40
3.0
  1
48.8
 50
90.0
100
AcDbText
  0
LINE
  5
385A
330
1F
100
AcDbEntity
  8
0
  6
ByBlock
 62
     0
370
    -2
100
AcDbLine
 10
1184.271118220112
 20
192.9732560779799
 30
0.0
 11
1183.601245720112
 21
190.4732560779799
 31
0.0
  0
LINE
  5
385B
330
1F
100
AcDbEntity
  8
0
  6
ByBlock
 62
     0
370
    -2
100
AcDbLine
 10
1183.601245720112
 20
190.4732560779799
 30
0.0
 11
1182.931373220112
 21
192.9732560779799
 31
0.0
  0
LINE
  5
385C
330
1F
100
AcDbEntity
  8
0
  6
ByBlock
 62
     0
370
    -2
100
AcDbLine
 10
1183.601245720112
 20
190.4732560779799
 30
0.0
 11
1183.601245720112
 21
192.9732560779799
 31
0.0
  0
LINE
  5
385D
330
1F
100
AcDbEntity
  8
0
  6
ByBlock
 62
     0
370
    -2
100
AcDbLine
 10
1182.931373220112
 20
212.3482560779799
 30
0.0
 11
1183.601245720112
 21
214.8482560779799
 31
0.0
  0
LINE
  5
385E
330
1F
100
AcDbEntity
  8
0
  6
ByBlock
 62
     0
370
    -2
100
AcDbLine
 10
1183.601245720112
 20
214.8482560779799
 30
0.0
 11
1184.271118220112
 21
212.3482560779799
 31
0.0
  0
LINE
  5
385F
330
1F
100
AcDbEntity
  8
0
  6
ByBlock
 62
     0
370
    -2
100
AcDbLine
 10
1183.601245720112
 20
214.8482560779799
 30
0.0
 11
1183.601245720112
 21
212.3482560779799
 31
0.0
  0
LINE
  5
3860
330
1F
100
AcDbEntity
  8
0
100
AcDbLine
 10
1142.449035848057
 20
124.6994737387892
 30
0.0
 11
1130.759038505849
 21
120.9885916211793
 31
0.0
1001
ACAD
1000
DSTYLE
1002
{
1070
   147
1040
0.625
1070
    77
1070
     0
1002
}
  0
LINE
  5
3861
330
1F
100
AcDbEntity
  8
0
  6
ByBlock
 62
     0
370
    -2
100
AcDbLine
 10
1142.246357728264
 20
125.3379490680018
 30
0.0
 11
1144.831859927314
 21
125.4558793226635
 31
0.0
  0
LINE
  5
3862
330
1F
100
AcDbEntity
  8
0
  6
ByBlock
 62
     0
370
    -2
100
AcDbLine
 10
1144.831859927314
 20
125.4558793226635
 30
0.0
 11
1142.651713967851
 21
124.0609984095765
 31
0.0
  0
LINE
  5
3863
330
1F
100
AcDbEntity
  8
0
  6
ByBlock
 62
     0
370
    -2
100
AcDbLine
 10
1144.831859927314
 20
125.4558793226635
 30
0.0
 11
1142.449035848057
 21
124.6994737387892
 31
0.0
  0
LINE
  5
3864
330
1F
100
AcDbEntity
  8
0
 62
     7
100
AcDbLine
 10
1024.33440516051
 20
156.3326358512945
 30
0.0
 11
1008.131973320944
 21
156.3326358512945
 31
0.0
1001
ACAD
1000
DSTYLE
1002
{
1070
   147
1040
0.625
1070
    77
1070
     0
1002
}
  0
LINE
  5
3865
330
1F
100
AcDbEntity
  8
0
  6
ByBlock
 62
     0
370
    -2
100
AcDbLine
 10
1024.33440516051
 20
157.0025083512945
 30
0.0
 11
1026.83440516051
 21
156.3326358512945
 31
0.0
  0
LINE
  5
3866
330
1F
100
AcDbEntity
  8
0
  6
ByBlock
 62
     0
370
    -2
100
AcDbLine
 10
1026.83440516051
 20
156.3326358512945
 30
0.0
 11
1024.33440516051
 21
155.6627633512945
 31
0.0
  0
LINE
  5
3867
330
1F
100
AcDbEntity
  8
0
  6
ByBlock
 62
     0
370
    -2
100
AcDbLine
 10
1026.83440516051
 20
156.3326358512945
 30
0.0
 11
1024.33440516051
 21
156.3326358512945
 31
0.0
  0
LINE
  5
3868
330
1F
100
AcDbEntity
  8
0
 62
     7
100
AcDbLine
 10
991.9295414813786
 20
156.3326358512945
 30
0.0
 11
1008.131973320944
 21
156.3326358512945
 31
0.0
1001
ACAD
1000
DSTYLE
1002
{
1070
   147
1040
0.625
1070
    77
1070
     0
1002
}
  0
LINE
  5
3869
330
1F
100
AcDbEntity
  8
0
  6
ByBlock
 62
     0
370
    -2
100
AcDbLine
 10
991.9295414813786
 20
155.6627633512945
 30
0.0
 11
989.4295414813786
 21
156.3326358512945
 31
0.0
  0
LINE
  5
386A
330
1F
100
AcDbEntity
  8
0
  6
ByBlock
 62
     0
370
    -2
100
AcDbLine
 10
989.4295414813786
 20
156.3326358512945
 30
0.0
 11
991.9295414813786
 21
157.0025083512945
 31
0.0
  0
LINE
  5
386B
330
1F
100
AcDbEntity
  8
0
  6
ByBlock
 62
     0
370
    -2
100
AcDbLine
 10
989.4295414813786
 20
156.3326358512945
 30
0.0
 11
991.9295414813786
 21
156.3326358512945
 31
0.0
  0
LINE
  5
386C
330
1F
100
AcDbEntity
  8
0
 62
     7
100
AcDbLine
 10
1077.746477141948
 20
201.5970768700474
 30
0.0
 11
1075.986896363323
 21
196.8554841285199
 31
0.0
1001
ACAD
1000
DSTYLE
1002
{
1070
   147
1040
0.625
1070
    77
1070
     0
1002
}
  0
LINE
  5
386D
330
1F
100
AcDbEntity
  8
0
 62
     7
100
AcDbLine
 10
1075.986896363323
 20
196.8554841285199
 30
0.0
 11
1073.486896363323
 21
196.8554841285199
 31
0.0
1001
ACAD
1000
DSTYLE
1002
{
1070
   147
1040
0.625
1070
    77
1070
     0
1002
}
  0
LINE
  5
386E
330
1F
100
AcDbEntity
  8
0
  6
ByBlock
 62
     0
370
    -2
100
AcDbLine
 10
1077.118453355809
 20
201.8301332801712
 30
0.0
 11
1078.616256130203
 21
203.9408952315231
 31
0.0
  0
LINE
  5
386F
330
1F
100
AcDbEntity
  8
0
  6
ByBlock
 62
     0
370
    -2
100
AcDbLine
 10
1078.616256130203
 20
203.9408952315231
 30
0.0
 11
1078.374500928087
 21
201.3640204599235
 31
0.0
  0
LINE
  5
3870
330
1F
100
AcDbEntity
  8
0
  6
ByBlock
 62
     0
370
    -2
100
AcDbLine
 10
1078.616256130203
 20
203.9408952315231
 30
0.0
 11
1077.746477141948
 21
201.5970768700474
 31
0.0
  0
LINE
  5
3871
330
1F
100
AcDbEntity
  8
0
 62
     7
100
AcDbLine
 10
1094.43194466972
 20
153.2377576053526
 30
0.0
 11
1090.926280368304
 21
151.1341099254264
 31
0.0
1001
ACAD
1000
DSTYLE
1002
{
1070
   147
1040
0.625
1070
    77
1070
     0
1002
}
  0
LINE
  5
3872
330
1F
100
AcDbEntity
  8
0
 62
     7
100
AcDbLine
 10
1090.926280368304
 20
151.1341099254264
 30
0.0
 11
1088.426280368304
 21
151.1341099254264
 31
0.0
1001
ACAD
1000
DSTYLE
1002
{
1070
   147
1040
0.625
1070
    77
1070
     0
1002
}
  0
LINE
  5
3873
330
1F
100
AcDbEntity
  8
0
  6
ByBlock
 62
     0
370
    -2
100
AcDbLine
 10
1094.08726810185
 20
153.8121505282006
 30
0.0
 11
1096.575609780797
 21
154.5241089926303
 31
0.0
  0
LINE
  5
3874
330
1F
100
AcDbEntity
  8
0
  6
ByBlock
 62
     0
370
    -2
100
AcDbLine
 10
1096.575609780797
 20
154.5241089926303
 30
0.0
 11
1094.776621237589
 21
152.6633646825047
 31
0.0
  0
LINE
  5
3875
330
1F
100
AcDbEntity
  8
0
  6
ByBlock
 62
     0
370
    -2
100
AcDbLine
 10
1096.575609780797
 20
154.5241089926303
 30
0.0
 11
1094.43194466972
 21
153.2377576053526
 31
0.0
  0
TEXT
  5
3876
330
1F
100
AcDbEntity
  8
0
 62
     4
100
AcDbText
 10
1111.060478685559
 20
239.2079874189059
 30
0.0
 40
3.0
  1
(159)
100
AcDbText
  0
LINE
  5
3877
330
1F
100
AcDbEntity
  8
0
  6
ByBlock
 62
     0
370
    -2
100
AcDbLine
 10
1079.825609780797
 20
237.9131149189059
 30
0.0
 11
1077.325609780797
 21
238.5829874189059
 31
0.0
  0
LINE
  5
3878
330
1F
100
AcDbEntity
  8
0
  6
ByBlock
 62
     0
370
    -2
100
AcDbLine
 10
1077.325609780797
 20
238.5829874189059
 30
0.0
 11
1079.825609780797
 21
239.2528599189059
 31
0.0
  0
LINE
  5
3879
330
1F
100
AcDbEntity
  8
0
  6
ByBlock
 62
     0
370
    -2
100
AcDbLine
 10
1077.325609780797
 20
238.5829874189059
 30
0.0
 11
1079.825609780797
 21
238.5829874189059
 31
0.0
  0
LINE
  5
387A
330
1F
100
AcDbEntity
  8
0
  6
ByBlock
 62
     0
370
    -2
100
AcDbLine
 10
1154.325609780797
 20
239.2528599189059
 30
0.0
 11
1156.825609780797
 21
238.5829874189059
 31
0.0
  0
LINE
  5
387B
330
1F
100
AcDbEntity
  8
0
  6
ByBlock
 62
     0
370
    -2
100
AcDbLine
 10
1156.825609780797
 20
238.5829874189059
 30
0.0
 11
1154.325609780797
 21
237.9131149189059
 31
0.0
  0
LINE
  5
387C
330
1F
100
AcDbEntity
  8
0
  6
ByBlock
 62
     0
370
    -2
100
AcDbLine
 10
1156.825609780797
 20
238.5829874189059
 30
0.0
 11
1154.325609780797
 21
238.5829874189059
 31
0.0
  0
TEXT
  5
387D
330
1F
100
AcDbEntity
  8
0
 62
     4
100
AcDbText
 10
959.0449256865676
 20
182.1418120649978
 30
0.0
 40
3.0
  1
(166.5)
 50
90.0
100
AcDbText
  0
LINE
  5
387E
330
1F
100
AcDbEntity
  8
0
  6
ByBlock
 62
     0
370
    -2
100
AcDbLine
 10
960.3397981865677
 20
148.4732227680964
 30
0.0
 11
959.6699256865676
 21
145.9732227680964
 31
0.0
  0
LINE
  5
387F
330
1F
100
AcDbEntity
  8
0
  6
ByBlock
 62
     0
370
    -2
100
AcDbLine
 10
959.6699256865676
 20
145.9732227680964
 30
0.0
 11
959.0000531865676
 21
148.4732227680964
 31
0.0
  0
LINE
  5
3880
330
1F
100
AcDbEntity
  8
0
  6
ByBlock
 62
     0
370
    -2
100
AcDbLine
 10
959.6699256865676
 20
145.9732227680964
 30
0.0
 11
959.6699256865676
 21
148.4732227680964
 31
0.0
  0
LINE
  5
3881
330
1F
100
AcDbEntity
  8
0
  6
ByBlock
 62
     0
370
    -2
100
AcDbLine
 10
959.0000531865676
 20
226.7220791392495
 30
0.0
 11
959.6699256865676
 21
229.2220791392495
 31
0.0
  0
LINE
  5
3882
330
1F
100
AcDbEntity
  8
0
  6
ByBlock
 62
     0
370
    -2
100
AcDbLine
 10
959.6699256865676
 20
229.2220791392495
 30
0.0
 11
960.3397981865677
 21
226.7220791392495
 31
0.0
  0
LINE
  5
3883
330
1F
100
AcDbEntity
  8
0
  6
ByBlock
 62
     0
370
    -2
100
AcDbLine
 10
959.6699256865676
 20
229.2220791392495
 30
0.0
 11
959.6699256865676
 21
226.7220791392495
 31
0.0
  0
TEXT
  5
3884
330
1F
100
AcDbEntity
  8
0
 62
     4
100
AcDbText
 10
1005.054219096076
 20
255.3512636516057
 30
0.0
 40
3.0
  1
138
100
AcDbText
  0
LINE
  5
3885
330
1F
100
AcDbEntity
  8
0
  6
ByBlock
 62
     0
370
    -2
100
AcDbLine
 10
976.1319733209443
 20
254.0563911516057
 30
0.0
 11
973.6319733209443
 21
254.7262636516057
 31
0.0
  0
LINE
  5
3886
330
1F
100
AcDbEntity
  8
0
  6
ByBlock
 62
     0
370
    -2
100
AcDbLine
 10
973.6319733209443
 20
254.7262636516057
 30
0.0
 11
976.1319733209443
 21
255.3961361516057
 31
0.0
  0
LINE
  5
3887
330
1F
100
AcDbEntity
  8
0
  6
ByBlock
 62
     0
370
    -2
100
AcDbLine
 10
973.6319733209443
 20
254.7262636516057
 30
0.0
 11
976.1319733209443
 21
254.7262636516057
 31
0.0
  0
LINE
  5
3888
330
1F
100
AcDbEntity
  8
0
  6
ByBlock
 62
     0
370
    -2
100
AcDbLine
 10
1040.131973320944
 20
255.3961361516057
 30
0.0
 11
1042.631973320944
 21
254.7262636516057
 31
0.0
  0
LINE
  5
3889
330
1F
100
AcDbEntity
  8
0
  6
ByBlock
 62
     0
370
    -2
100
AcDbLine
 10
1042.631973320944
 20
254.7262636516057
 30
0.0
 11
1040.131973320944
 21
254.0563911516057
 31
0.0
  0
LINE
  5
388A
330
1F
100
AcDbEntity
  8
0
  6
ByBlock
 62
     0
370
    -2
100
AcDbLine
 10
1042.631973320944
 20
254.7262636516057
 30
0.0
 11
1040.131973320944
 21
254.7262636516057
 31
0.0
  0
TEXT
  5
388B
330
1F
100
AcDbEntity
  8
0
 62
     4
100
AcDbText
 10
1005.415415888092
 20
247.2519973065359
 30
0.0
 40
3.0
  1
122
100
AcDbText
  0
LINE
  5
388C
330
1F
100
AcDbEntity
  8
0
  6
ByBlock
 62
     0
370
    -2
100
AcDbLine
 10
980.1319733209442
 20
245.9571248065359
 30
0.0
 11
977.6319733209444
 21
246.6269973065359
 31
0.0
  0
LINE
  5
388D
330
1F
100
AcDbEntity
  8
0
  6
ByBlock
 62
     0
370
    -2
100
AcDbLine
 10
977.6319733209444
 20
246.6269973065359
 30
0.0
 11
980.1319733209442
 21
247.2968698065359
 31
0.0
  0
LINE
  5
388E
330
1F
100
AcDbEntity
  8
0
  6
ByBlock
 62
     0
370
    -2
100
AcDbLine
 10
977.6319733209444
 20
246.6269973065359
 30
0.0
 11
980.1319733209442
 21
246.6269973065359
 31
0.0
  0
LINE
  5
388F
330
1F
100
AcDbEntity
  8
0
  6
ByBlock
 62
     0
370
    -2
100
AcDbLine
 10
1036.131973320944
 20
247.2968698065359
 30
0.0
 11
1038.631973320944
 21
246.6269973065359
 31
0.0
  0
LINE
  5
3890
330
1F
100
AcDbEntity
  8
0
  6
ByBlock
 62
     0
370
    -2
100
AcDbLine
 10
1038.631973320944
 20
246.6269973065359
 30
0.0
 11
1036.131973320944
 21
245.9571248065359
 31
0.0
  0
LINE
  5
3891
330
1F
100
AcDbEntity
  8
0
  6
ByBlock
 62
     0
370
    -2
100
AcDbLine
 10
1038.631973320944
 20
246.6269973065359
 30
0.0
 11
1036.131973320944
 21
246.6269973065359
 31
0.0
  0
TEXT
  5
3892
330
1F
100
AcDbEntity
  8
0
 62
     4
100
AcDbText
 10
1002.98504217814
 20
240.3097675911026
 30
0.0
 40
3.0
  1
\U+2205110.5
100
AcDbText
  0
LINE
  5
3893
330
1F
100
AcDbEntity
  8
0
  6
ByBlock
 62
     0
370
    -2
100
AcDbLine
 10
983.0069733209441
 20
239.0148950911026
 30
0.0
 11
980.5069733209442
 21
239.6847675911026
 31
0.0
  0
LINE
  5
3894
330
1F
100
AcDbEntity
  8
0
  6
ByBlock
 62
     0
370
    -2
100
AcDbLine
 10
980.5069733209442
 20
239.6847675911026
 30
0.0
 11
983.0069733209441
 21
240.3546400911026
 31
0.0
  0
LINE
  5
3895
330
1F
100
AcDbEntity
  8
0
  6
ByBlock
 62
     0
370
    -2
100
AcDbLine
 10
980.5069733209442
 20
239.6847675911026
 30
0.0
 11
983.0069733209441
 21
239.6847675911026
 31
0.0
  0
LINE
  5
3896
330
1F
100
AcDbEntity
  8
0
  6
ByBlock
 62
     0
370
    -2
100
AcDbLine
 10
1033.256973320944
 20
240.3546400911026
 30
0.0
 11
1035.756973320944
 21
239.6847675911026
 31
0.0
  0
LINE
  5
3897
330
1F
100
AcDbEntity
  8
0
  6
ByBlock
 62
     0
370
    -2
100
AcDbLine
 10
1035.756973320944
 20
239.6847675911026
 30
0.0
 11
1033.256973320944
 21
239.0148950911026
 31
0.0
  0
LINE
  5
3898
330
1F
100
AcDbEntity
  8
0
  6
ByBlock
 62
     0
370
    -2
100
AcDbLine
 10
1035.756973320944
 20
239.6847675911026
 30
0.0
 11
1033.256973320944
 21
239.6847675911026
 31
0.0
  0
LINE
  5
3899
330
1F
100
AcDbEntity
  8
0
 62
     7
100
AcDbLine
 10
1008.072670179828
 20
134.4640699113361
 30
0.0
 11
1008.072670179828
 21
128.1398114168428
 31
0.0
1001
ACAD
1000
DSTYLE
1002
{
1070
   147
1040
0.625
1070
    77
1070
     0
1002
}
  0
LINE
  5
389A
330
1F
100
AcDbEntity
  8
0
  6
ByBlock
 62
     0
370
    -2
100
AcDbLine
 10
1007.402797679828
 20
134.4640699113361
 30
0.0
 11
1008.072670179828
 21
136.9640699113361
 31
0.0
  0
LINE
  5
389B
330
1F
100
AcDbEntity
  8
0
  6
ByBlock
 62
     0
370
    -2
100
AcDbLine
 10
1008.072670179828
 20
136.9640699113361
 30
0.0
 11
1008.742542679828
 21
134.4640699113361
 31
0.0
  0
LINE
  5
389C
330
1F
100
AcDbEntity
  8
0
  6
ByBlock
 62
     0
370
    -2
100
AcDbLine
 10
1008.072670179828
 20
136.9640699113361
 30
0.0
 11
1008.072670179828
 21
134.4640699113361
 31
0.0
  0
TEXT
  5
389D
330
1F
100
AcDbEntity
  8
0
 62
     4
100
AcDbText
 10
1175.775609780797
 20
250.1177526176257
 30
0.0
 40
3.0
  1
10～105
100
AcDbText
  0
LINE
  5
389E
330
1F
100
AcDbEntity
  8
0
  6
ByBlock
 62
     0
370
    -2
100
AcDbLine
 10
1159.325609780797
 20
248.8228801176257
 30
0.0
 11
1156.825609780797
 21
249.4927526176257
 31
0.0
  0
LINE
  5
389F
330
1F
100
AcDbEntity
  8
0
  6
ByBlock
 62
     0
370
    -2
100
AcDbLine
 10
1156.825609780797
 20
249.4927526176257
 30
0.0
 11
1159.325609780797
 21
250.1626251176257
 31
0.0
  0
LINE
  5
38A0
330
1F
100
AcDbEntity
  8
0
  6
ByBlock
 62
     0
370
    -2
100
AcDbLine
 10
1156.825609780797
 20
249.4927526176257
 30
0.0
 11
1159.325609780797
 21
249.4927526176257
 31
0.0
  0
LINE
  5
38A1
330
1F
100
AcDbEntity
  8
0
  6
ByBlock
 62
     0
370
    -2
100
AcDbLine
 10
1206.825609780797
 20
250.1626251176257
 30
0.0
 11
1209.325609780797
 21
249.4927526176257
 31
0.0
  0
LINE
  5
38A2
330
1F
100
AcDbEntity
  8
0
  6
ByBlock
 62
     0
370
    -2
100
AcDbLine
 10
1209.325609780797
 20
249.4927526176257
 30
0.0
 11
1206.825609780797
 21
248.8228801176257
 31
0.0
  0
LINE
  5
38A3
330
1F
100
AcDbEntity
  8
0
  6
ByBlock
 62
     0
370
    -2
100
AcDbLine
 10
1209.325609780797
 20
249.4927526176257
 30
0.0
 11
1206.825609780797
 21
249.4927526176257
 31
0.0
  0
TEXT
  5
38A4
330
1F
100
AcDbEntity
  8
0
 62
     4
100
AcDbText
 10
1173.385860113672
 20
154.3826045282344
 30
0.0
 40
3.0
  1
10～105
100
AcDbText
  0
LINE
  5
38A5
330
1F
100
AcDbEntity
  8
0
  6
ByBlock
 62
     0
370
    -2
100
AcDbLine
 10
1159.325609780797
 20
153.0877320282344
 30
0.0
 11
1156.825609780797
 21
153.7576045282344
 31
0.0
  0
LINE
  5
38A6
330
1F
100
AcDbEntity
  8
0
  6
ByBlock
 62
     0
370
    -2
100
AcDbLine
 10
1156.825609780797
 20
153.7576045282344
 30
0.0
 11
1159.325609780797
 21
154.4274770282344
 31
0.0
  0
LINE
  5
38A7
330
1F
100
AcDbEntity
  8
0
  6
ByBlock
 62
     0
370
    -2
100
AcDbLine
 10
1156.825609780797
 20
153.7576045282344
 30
0.0
 11
1159.325609780797
 21
153.7576045282344
 31
0.0
  0
LINE
  5
38A8
330
1F
100
AcDbEntity
  8
0
  6
ByBlock
 62
     0
370
    -2
100
AcDbLine
 10
1206.825609780797
 20
154.4274770282344
 30
0.0
 11
1209.325609780797
 21
153.7576045282344
 31
0.0
  0
LINE
  5
38A9
330
1F
100
AcDbEntity
  8
0
  6
ByBlock
 62
     0
370
    -2
100
AcDbLine
 10
1209.325609780797
 20
153.7576045282344
 30
0.0
 11
1206.825609780797
 21
153.0877320282344
 31
0.0
  0
LINE
  5
38AA
330
1F
100
AcDbEntity
  8
0
  6
ByBlock
 62
     0
370
    -2
100
AcDbLine
 10
1209.325609780797
 20
153.7576045282344
 30
0.0
 11
1206.825609780797
 21
153.7576045282344
 31
0.0
  0
ENDSEC
  0
SECTION
  2
OBJECTS
  0
DICTIONARY
  5
C
330
0
100
AcDbDictionary
281
     1
  3
ACAD_2007HEADERVARS_RT
350
38AE
  3
ACAD_COLOR
350
73
  3
ACAD_GROUP
350
D
  3
ACAD_LAYOUT
350
1A
  3
ACAD_MATERIAL
350
72
  3
ACAD_MLEADERSTYLE
350
168
  3
ACAD_MLINESTYLE
350
17
  3
ACAD_PLOTSETTINGS
350
19
  3
ACAD_PLOTSTYLENAME
350
E
  3
ACAD_SCALELIST
350
156
  3
ACAD_TABLESTYLE
350
86
  3
ACAD_VISUALSTYLE
350
99
  3
AcadDim
350
11FC
  3
ACDB_RECOMPOSE_DATA
350
38AC
  3
AcDbVariableDictionary
350
66
  3
AEC_PROPERTY_SET_DEFS
350
2D7E
  3
DWGPROPS
350
38AD
  0
DICTIONARY
  5
DD
330
2
100
AcDbDictionary
280
     1
281
     1
  3
ACAD_LAYERSTATES
360
DE
  0
DICTIONARY
  5
8E9
330
10
100
AcDbDictionary
280
     1
281
     1
  3
ADSK_XREC_LAYER_RECONCILED
360
B6D
  0
DICTIONARY
  5
324
330
1F
100
AcDbDictionary
280
     1
281
     1
  3
ACAD_SORTENTS
360
325
  0
DICTIONARY
  5
38AE
102
{ACAD_REACTORS
330
C
102
}
330
C
100
AcDbDictionary
281
     1
  3
DIMARCSYM
350
38B0
  3
DIMFXL
350
38AF
  3
DIMJOGANG
350
38B1
  0
DICTIONARY
  5
73
102
{ACAD_REACTORS
330
C
102
}
330
C
100
AcDbDictionary
281
     1
  0
DICTIONARY
  5
D
102
{ACAD_REACTORS
330
C
102
}
330
C
100
AcDbDictionary
281
     1
  0
DICTIONARY
  5
1A
102
{ACAD_REACTORS
330
C
102
}
330
C
100
AcDbDictionary
281
     1
  3
Model
350
22
  3
レイアウト1
350
59
  3
レイアウト2
350
5E
  0
DICTIONARY
  5
72
102
{ACAD_REACTORS
330
C
102
}
330
C
100
AcDbDictionary
281
     1
  3
ByBlock
350
97
  3
ByLayer
350
96
  3
Global
350
98
  0
DICTIONARY
  5
168
102
{ACAD_REACTORS
330
C
102
}
330
C
100
AcDbDictionary
281
     1
  3
Standard
350
169
  0
DICTIONARY
  5
17
102
{ACAD_REACTORS
330
C
102
}
330
C
100
AcDbDictionary
281
     1
  3
Standard
350
18
  0
DICTIONARY
  5
19
102
{ACAD_REACTORS
330
C
102
}
330
C
100
AcDbDictionary
281
     1
  0
ACDBDICTIONARYWDFLT
  5
E
102
{ACAD_REACTORS
330
C
102
}
330
C
100
AcDbDictionary
281
     1
  3
Normal
350
F
100
AcDbDictionaryWithDefault
340
F
  0
DICTIONARY
  5
156
102
{ACAD_REACTORS
330
C
102
}
330
C
100
AcDbDictionary
281
     1
  3
A0
350
157
  3
A1
350
158
  3
A2
350
159
  3
A3
350
15A
  3
A4
350
15B
  3
A5
350
15C
  3
A6
350
15D
  3
A7
350
15E
  3
A8
350
15F
  3
A9
350
160
  3
B0
350
161
  3
B1
350
162
  3
B2
350
163
  3
B3
350
164
  3
B4
350
165
  3
B5
350
166
  3
B6
350
167
  0
DICTIONARY
  5
86
102
{ACAD_REACTORS
330
C
102
}
330
C
100
AcDbDictionary
281
     1
  3
Standard
350
87
  0
DICTIONARY
  5
99
102
{ACAD_REACTORS
330
C
102
}
330
C
100
AcDbDictionary
281
     1
  3
2dWireframe
350
9F
  3
3D Hidden
350
A1
  3
3dWireframe
350
A0
  3
Basic
350
9E
  3
Brighten
350
A5
  3
ColorChange
350
A9
  3
Conceptual
350
A2
  3
Dim
350
A4
  3
EdgeColorOff
350
155
  3
Facepattern
350
A8
  3
Flat
350
9A
  3
FlatWithEdges
350
9B
  3
Gouraud
350
9C
  3
GouraudWithEdges
350
9D
  3
Hidden
350
14D
  3
JitterOff
350
153
  3
Linepattern
350
A7
  3
OverhangOff
350
154
  3
Realistic
350
A3
  3
Shaded
350
152
  3
Shaded with edges
350
151
  3
Shades of Gray
350
14E
  3
Sketchy
350
14F
  3
Thicken
350
A6
  3
Wireframe
350
14C
  3
X-Ray
350
150
  0
XRECORD
  5
11FC
102
{ACAD_REACTORS
330
C
102
}
330
C
100
AcDbXrecord
280
     1
 90
   990106
  3

 60
     0
 61
     0
 62
     1
 63
     3
 64
     0
 65
     0
 66
     0
 67
     3
 68
     1
 69
     0
 70
     0
 71
     0
 72
     0
 40
0.0
170
     0
  0
XRECORD
  5
38AC
102
{ACAD_REACTORS
330
C
102
}
330
C
100
AcDbXrecord
280
     1
 90
        1
330
87
  0
DICTIONARY
  5
66
102
{ACAD_REACTORS
330
C
102
}
330
C
100
AcDbDictionary
281
     1
  3
CANNOSCALE
350
24A
  3
CMLEADERSTYLE
350
248
  3
CTABLESTYLE
350
89
  3
DIMASSOC
350
67
  3
HIDETEXT
350
6B
  3
INDEXCTL
350
B70
  3
LAYEREVAL
350
24C
  3
LAYERNOTIFY
350
24D
  3
LIGHTINGUNITS
350
24B
  3
MSLTSCALE
350
249
  3
SORTENTS
350
B6F
  3
XCLIPFRAME
350
3584
  0
DICTIONARY
  5
2D7E
102
{ACAD_REACTORS
330
C
102
}
330
C
100
AcDbDictionary
281
     1
  0
XRECORD
  5
38AD
102
{ACAD_REACTORS
330
C
102
}
330
C
100
AcDbXrecord
280
     1
  1
DWGPROPS COOKIE
  2

  3

  4

  6

  7

  8
imamura
  9

300
=
301
=
302
=
303
=
304
=
305
=
306
=
307
=
308
=
309
=
 40
0.5244911111111112
 41
2456643.833966805
 42
2459261.672394444
  1

 90
        0
  0
DICTIONARY
  5
DE
102
{ACAD_REACTORS
330
DD
102
}
330
DD
100
AcDbDictionary
281
     1
  0
XRECORD
  5
B6D
102
{ACAD_REACTORS
330
8E9
102
}
330
8E9
100
AcDbXrecord
280
     1
290
     1
  0
SORTENTSTABLE
  5
325
102
{ACAD_REACTORS
330
324
102
}
330
324
100
AcDbSortentsTable
330
1F
331
1D95
  5
386A
331
1D56
  5
3837
331
3425
  5
389E
331
1D91
  5
3866
331
1D52
  5
382F
331
B5F
  5
E79
331
1D8D
  5
3862
331
1D4E
  5
382B
331
1211
  5
1E66
331
1112
  5
1E60
331
1024
  5
1E14
331
10BB
  5
17D5
331
FB5
  5
1DE9
331
F76
  5
17C6
331
EDF
  5
17AC
331
B24
  5
E27
331
1D89
  5
385F
331
1D4A
  5
3827
331
1C9B
  5
37CA
331
1020
  5
1E0F
331
FB1
  5
1DE5
331
F72
  5
17C2
331
B20
  5
E46
331
E7C
  5
179B
331
EDB
  5
E9F
331
106B
  5
1E4C
331
1102
  5
1DF3
331
FAD
  5
1DE1
331
B1C
  5
E43
331
385E
  5
1E79
331
389D
  5
10D6
331
3827
  5
1756
331
E78
  5
E59
331
FA9
  5
1D8F
331
B18
  5
E40
331
385A
  5
1E7B
331
3899
  5
1736
331
37E4
  5
37FD
331
3823
  5
1764
331
E74
  5
E5E
331
37E0
  5
37F9
331
3856
  5
1E81
331
3895
  5
1747
331
E70
  5
E62
331
3852
  5
1E88
331
3891
  5
174F
331
37DC
  5
37F5
331
381B
  5
176F
331
37D8
  5
37F1
331
CE5
  5
F80
331
CA6
  5
EE6
331
C2F
  5
E72
331
E44
  5
1230
331
E05
  5
1045
331
DCE
  5
102A
331
C2B
  5
E73
331
E40
  5
1211
331
E01
  5
1040
331
D1C
  5
E91
331
D18
  5
F8D
331
CD9
  5
F79
331
E3C
  5
1112
331
C9A
  5
EE3
331
DFD
  5
103C
331
DF9
  5
1038
331
D92
  5
FFA
331
D53
  5
FC0
331
1E85
  5
D90
331
1E46
  5
D36
331
1E0F
  5
CDA
331
1E81
  5
D8C
331
1E42
  5
D32
331
1DCC
  5
B5C
331
1E0B
  5
CD6
331
1E7D
  5
D88
331
1E3E
  5
D2E
331
1E07
  5
CD1
331
1DC8
  5
B0A
331
1E79
  5
D80
331
1E3A
  5
D2A
331
1DC4
  5
B05
331
1E03
  5
C9F
331
1DC0
  5
AED
331
1D85
  5
385B
331
1D46
  5
3823
331
1C97
  5
37C6
331
1D81
  5
3857
331
1D42
  5
381F
331
1067
  5
1E46
331
1D7D
  5
3854
331
1D3E
  5
381B
331
1C8F
  5
37C2
331
10EA
  5
1E59
331
FF4
  5
1E0C
331
FA5
  5
17F0
331
F06
  5
17BC
331
1D79
  5
3850
331
1C8B
  5
3583
331
10E6
  5
1E49
331
FF0
  5
1E08
331
FA1
  5
17EC
331
B08
  5
E17
331
355F
  5
38A3
331
E6C
  5
176E
331
ED3
  5
E69
331
1230
  5
1E70
331
FEC
  5
1E02
331
384E
  5
3893
331
388D
  5
1751
331
E68
  5
1749
331
EF2
  5
17BA
331
384A
  5
3898
331
3889
  5
175C
331
E64
  5
172F
331
37D4
  5
37ED
331
37D0
  5
37E9
331
3885
  5
175E
331
E60
  5
E70
331
3881
  5
1766
331
37CC
  5
37E5
331
3842
  5
EBB
331
37C8
  5
37E1
331
D14
  5
F8B
331
BD7
  5
DDC
331
D10
  5
F9A
331
CD1
  5
F70
331
BD3
  5
E25
331
D8E
  5
E1F
331
D4F
  5
DF9
331
CCD
  5
F06
331
E30
  5
115E
331
DF1
  5
1031
331
BC7
  5
D9C
331
D4B
  5
FBC
331
D8A
  5
E76
331
E2C
  5
1104
331
DED
  5
1033
331
D47
  5
FB8
331
BC3
  5
E16
331
E28
  5
10F4
331
1047
  5
1E3C
331
D43
  5
FB4
331
1E75
  5
D7C
331
1E36
  5
D25
331
1DFF
  5
C43
331
1E71
  5
D77
331
1E32
  5
D1A
331
1DFB
  5
C3C
331
1E6D
  5
D6F
331
1E2E
  5
D13
331
1DF7
  5
C38
331
1E69
  5
D68
331
1E2A
  5
D0E
331
1DB4
  5
3886
331
1DF3
  5
C33
331
1D75
  5
384C
331
1C87
  5
3575
331
1D71
  5
3848
331
1C83
  5
355E
331
1DAC
  5
3881
331
1C7F
  5
3425
331
F95
  5
17E7
331
E9F
  5
17A5
331
1DA8
  5
387D
331
1C7B
  5
1EC6
331
103F
  5
1E38
331
B37
  5
E74
331
1228
  5
1E6C
331
10D2
  5
1E53
331
103B
  5
1E34
331
FCC
  5
1DFA
331
B33
  5
E45
331
F8D
  5
17DB
331
EEE
  5
17B5
331
E97
  5
17A4
331
387D
  5
176C
331
AFC
  5
D99
331
FC8
  5
1DF8
331
F89
  5
17D7
331
EEA
  5
17B1
331
3879
  5
1777
331
AF8
  5
E08
331
37FF
  5
3818
331
3875
  5
177B
331
37FB
  5
3814
331
3871
  5
177D
331
D04
  5
F71
331
C3E
  5
EDF
331
37C7
  5
37E0
331
D3F
  5
E99
331
E24
  5
10BF
331
D7E
  5
FF6
331
D00
  5
E8D
331
37C3
  5
37DC
331
D3B
  5
FAF
331
CBD
  5
F05
331
E5F
  5
E6F
331
C36
  5
E48
331
CF0
  5
F86
331
E1C
  5
1101
331
D76
  5
FF3
331
DE5
  5
DE5
331
E5B
  5
E6E
331
C32
  5
E1B
331
CB9
  5
DFB
331
DE1
  5
102F
331
1E65
  5
D5D
331
1DEF
  5
C2B
331
1E61
  5
D58
331
1DEB
  5
C26
331
1EC4
  5
389A
331
1E5D
  5
D54
331
1E26
  5
D07
331
1DE7
  5
BD2
331
1E59
  5
D4E
331
1E22
  5
CFB
331
1DE3
  5
BCD
331
1DA4
  5
3879
331
1CEE
  5
37D7
331
1C77
  5
1EC2
331
1DA0
  5
3875
331
1D61
  5
3842
331
1CEA
  5
37D4
331
1037
  5
1E30
331
1D9C
  5
3871
331
1D5D
  5
383E
331
1CE6
  5
37D0
331
10CA
  5
1E4B
331
1033
  5
1E2C
331
B6A
  5
E7F
331
FC4
  5
1DF5
331
F85
  5
17D3
331
EE6
  5
17AD
331
B2B
  5
DFF
331
E8F
  5
E53
331
1D98
  5
386D
331
1D59
  5
383A
331
1CE2
  5
37CC
331
115D
  5
1E62
331
102F
  5
1E24
331
E8B
  5
178C
331
EE2
  5
EA0
331
102B
  5
1E1D
331
FBC
  5
1DF0
331
F7D
  5
17CD
331
E87
  5
1790
331
37F7
  5
3810
331
386D
  5
1786
331
B62
  5
E29
331
FB8
  5
1DEC
331
F79
  5
17C9
331
E83
  5
17A0
331
37F3
  5
380C
331
3869
  5
1797
331
38A8
  5
ED8
331
3865
  5
179C
331
38A4
  5
EDE
331
37EF
  5
3808
331
382E
  5
174B
331
37EB
  5
3804
331
3861
  5
1E71
331
38A0
  5
10D5
331
D37
  5
FB1
331
CB5
  5
EF0
331
E57
  5
E7E
331
E53
  5
1727
331
D2F
  5
FAA
331
DDD
  5
1025
331
D6E
  5
FD2
331
D2B
  5
FA9
331
E4F
  5
1178
331
CEC
  5
F84
331
DD9
  5
1027
331
E4B
  5
11FF
331
CA9
  5
EE9
331
E0C
  5
10BB
331
D66
  5
FCC
331
E08
  5
1055
331
DD1
  5
102C
331
1E1E
  5
CF4
331
1DDF
  5
BC9
331
1E90
  5
388B
331
1E51
  5
D45
331
1DDB
  5
BC5
331
1E8C
  5
388A
331
1E4D
  5
D3F
331
1E16
  5
CE9
331
1DD7
  5
BC1
331
1E88
  5
D93
331
1E49
  5
D3A
331
1DD3
  5
B63
331
1E12
  5
CDD
331
1D94
  5
3869
331
1D55
  5
3836
331
1D90
  5
3865
331
1D51
  5
382E
331
1027
  5
1E17
331
1D8C
  5
3861
331
1D4D
  5
382A
331
1210
  5
1E65
331
1111
  5
1E5E
331
10BA
  5
1E45
331
1023
  5
1E13
331
FB4
  5
1DE8
331
B23
  5
E49
331
F75
  5
17C5
331
EDE
  5
17A9
331
E7F
  5
178F
331
AE4
  5
D96
331
1D88
  5
385E
331
1D49
  5
3826
331
1C9A
  5
37C9
331
101F
  5
1E0E
331
FB0
  5
1DE4
331
F71
  5
17C1
331
E7B
  5
1795
331
EDA
  5
EA1
331
1101
  5
1E5B
331
106A
  5
1E4A
331
FAC
  5
1DE0
331
F6D
  5
17BF
331
B1B
  5
E42
331
37E7
  5
3800
331
385D
  5
1E78
331
389C
  5
1735
331
E77
  5
E5A
331
FA8
  5
17F3
331
E73
  5
178D
331
3859
  5
1E7E
331
3898
  5
1744
331
37E3
  5
37FC
331
3822
  5
1765
331
37DF
  5
37F8
331
3855
  5
1E85
331
3894
  5
1746
331
37DB
  5
37F4
331
3851
  5
1E87
331
3890
  5
174E
331
D27
  5
FA7
331
CE4
  5
F7F
331
E47
  5
11FD
331
C2E
  5
E84
331
E43
  5
1232
331
E04
  5
1042
331
C2A
  5
E83
331
E3F
  5
1222
331
C9D
  5
EE4
331
E00
  5
103F
331
E3B
  5
1114
331
DFC
  5
103B
331
D56
  5
DF0
331
DF8
  5
1037
331
D91
  5
FF9
331
D52
  5
DF2
331
1E84
  5
D8F
331
1DCF
  5
B5F
331
1E0E
  5
CD9
331
1E80
  5
D8B
331
1E41
  5
D31
331
1DCB
  5
B5B
331
1E0A
  5
CD5
331
1E7C
  5
D83
331
1E3D
  5
D2D
331
1E06
  5
CD0
331
1DC7
  5
B09
331
1E78
  5
D7F
331
1E39
  5
D29
331
1DC3
  5
AFE
331
1E02
  5
C9D
331
2180
  5
389D
331
1D84
  5
385A
331
1D45
  5
3822
331
1C96
  5
37C5
331
1D41
  5
381E
331
1066
  5
1E40
331
1D7C
  5
3853
331
1D3D
  5
37DB
331
1C8E
  5
37C1
331
10E9
  5
1E58
331
FF3
  5
1E0B
331
FA4
  5
17EF
331
F05
  5
17BB
331
ED6
  5
E6B
331
E6F
  5
E64
331
1D78
  5
384F
331
1C8A
  5
3579
331
FEF
  5
1E05
331
B46
  5
E75
331
355E
  5
38A2
331
FA0
  5
17EB
331
B07
  5
E2D
331
FEB
  5
1E01
331
384D
  5
3892
331
388C
  5
1750
331
E67
  5
1737
331
37D7
  5
37F0
331
B03
  5
E2C
331
EF1
  5
17B8
331
3849
  5
3897
331
3888
  5
175B
331
37D3
  5
37EC
331
E63
  5
E66
331
37CF
  5
37E8
331
3884
  5
1761
331
3880
  5
176B
331
37CB
  5
37E4
331
380A
  5
1E77
331
3841
  5
EA3
331
CD4
  5
F74
331
D13
  5
E92
331
BD6
  5
DA0
331
D0F
  5
F9B
331
DF4
  5
1036
331
CD0
  5
F6D
331
D4E
  5
FBF
331
D8D
  5
DDB
331
D4A
  5
FBB
331
D89
  5
E01
331
BC6
  5
D9D
331
DEC
  5
1030
331
EA2
  5
17A7
331
D46
  5
FB7
331
1046
  5
1E3B
331
D42
  5
FB3
331
1E74
  5
D7A
331
1E35
  5
D24
331
1DBF
  5
AE9
331
1DFE
  5
C40
331
1E70
  5
D76
331
1E31
  5
D19
331
1DFA
  5
C3B
331
1E6C
  5
D6E
331
1E2D
  5
D11
331
1DF6
  5
C37
331
1E68
  5
D62
331
1E29
  5
D0D
331
1DB3
  5
3885
331
1DF2
  5
C32
331
1D74
  5
384B
331
1C86
  5
3574
331
1C82
  5
355D
331
1056
  5
1E3F
331
1DAB
  5
3880
331
1C7E
  5
23B4
331
122F
  5
1E6F
331
B3A
  5
E28
331
1C7A
  5
1EC5
331
10D5
  5
1E52
331
103E
  5
1E37
331
B36
  5
E50
331
E9A
  5
178B
331
AFF
  5
E35
331
10D1
  5
1E51
331
103A
  5
1E33
331
F8C
  5
17DA
331
EED
  5
17B4
331
387C
  5
1774
331
B32
  5
E4D
331
EE9
  5
17B0
331
3802
  5
1E92
331
3878
  5
1776
331
E92
  5
E57
331
3874
  5
177A
331
37FE
  5
3817
331
383D
  5
10C7
331
37FA
  5
3813
331
3870
  5
1784
331
E27
  5
10E9
331
C3D
  5
EA3
331
37C6
  5
37DF
331
D3E
  5
FAC
331
E23
  5
10E6
331
D7D
  5
FF5
331
C39
  5
E97
331
CF3
  5
F8A
331
D79
  5
FF4
331
CBC
  5
EF2
331
D3A
  5
E9A
331
E1B
  5
1102
331
C31
  5
E86
331
D75
  5
FF2
331
DE4
  5
DE2
331
1E64
  5
D5C
331
1DEE
  5
C29
331
1E60
  5
D57
331
1DEA
  5
BD7
331
1EC3
  5
3895
331
1E5C
  5
D52
331
1E25
  5
D05
331
1DE6
  5
BD1
331
1E58
  5
D4D
331
1E21
  5
CF9
331
1DE2
  5
BCC
331
1DA7
  5
387C
331
1DA3
  5
3878
331
1D64
  5
3845
331
1CED
  5
37D6
331
1C76
  5
1EC1
331
1D9F
  5
3874
331
1D60
  5
3841
331
1CE9
  5
37D3
331
1223
  5
1E6B
331
1036
  5
1E2F
331
FC7
  5
1DF7
331
B2E
  5
D97
331
AF7
  5
E07
331
1D9B
  5
3870
331
1D5C
  5
383D
331
1CE5
  5
37CF
331
121F
  5
1E69
331
10C9
  5
1E4D
331
1032
  5
1E2B
331
F84
  5
17D2
331
AF3
  5
E05
331
B2A
  5
DFC
331
E8E
  5
1789
331
EE5
  5
DE1
331
1D58
  5
3839
331
1CE1
  5
37CB
331
102E
  5
1E23
331
FBF
  5
1DF4
331
B65
  5
E7C
331
1C0A
  5
E14
331
F80
  5
17D0
331
EE1
  5
17AA
331
AEF
  5
E02
331
E8A
  5
E61
331
10C1
  5
1E4F
331
102A
  5
1E1A
331
FBB
  5
1DEF
331
F7C
  5
17CB
331
3579
  5
38A9
331
E86
  5
178E
331
386C
  5
1785
331
37F6
  5
380F
331
3835
  5
173F
331
B61
  5
E7B
331
F78
  5
17C8
331
3575
  5
38A6
331
E82
  5
1796
331
37F2
  5
380B
331
3868
  5
179A
331
38A7
  5
EDD
331
3864
  5
179F
331
38A3
  5
10CF
331
37EE
  5
3807
331
382D
  5
174A
331
3860
  5
1E74
331
37EA
  5
3803
331
3829
  5
175A
331
D36
  5
E9D
331
E56
  5
172D
331
CB4
  5
EEF
331
E17
  5
10BD
331
E52
  5
1726
331
D6D
  5
FD1
331
DDC
  5
DE7
331
CEB
  5
F81
331
E4E
  5
1160
331
CAC
  5
EEC
331
DD8
  5
DEE
331
E4A
  5
1200
331
CA8
  5
EE8
331
D61
  5
FCB
331
1E93
  5
388E
331
1E54
  5
D4A
331
1E1D
  5
CF3
331
1DDE
  5
BC8
331
1E50
  5
D44
331
1E19
  5
CED
331
1DDA
  5
BC4
331
1E8B
  5
3889
331
1E4C
  5
D3D
331
1E15
  5
CE5
331
1DD6
  5
BC0
331
1E48
  5
D39
331
1DD2
  5
B62
331
1E11
  5
CDC
331
1D97
  5
386C
331
3427
  5
38A0
331
1D93
  5
3868
331
1D54
  5
3833
331
1D8F
  5
3864
331
1D50
  5
382D
331
1213
  5
1E68
331
1026
  5
1E16
331
1114
  5
17CC
331
FB7
  5
1DEB
331
1D4C
  5
3829
331
1AD6
  5
1E93
331
1110
  5
1E5D
331
1022
  5
1E12
331
FB3
  5
1DE7
331
F74
  5
17C4
331
B22
  5
E0F
331
E7E
  5
17A2
331
EDD
  5
DDD
331
1D48
  5
3825
331
1C99
  5
37C8
331
1203
  5
1E64
331
1104
  5
1E5C
331
FAF
  5
1DE3
331
F70
  5
17C0
331
ED9
  5
17A8
331
389F
  5
10D4
331
1069
  5
1E48
331
FAB
  5
1DDB
331
F6C
  5
17BE
331
B51
  5
E78
331
37E6
  5
37FF
331
385C
  5
1E7D
331
389B
  5
1734
331
E76
  5
E5B
331
E72
  5
1791
331
3858
  5
1E83
331
3897
  5
1741
331
37E2
  5
37FB
331
3821
  5
1763
331
3854
  5
1E84
331
3893
  5
1745
331
37DE
  5
37F7
331
381D
  5
1770
331
37DA
  5
37F3
331
3850
  5
1E91
331
D26
  5
FA6
331
CE7
  5
E2E
331
CE3
  5
F7E
331
E46
  5
1113
331
E07
  5
1046
331
C2D
  5
E51
331
CDF
  5
F7D
331
E42
  5
121F
331
E03
  5
1042
331
DCC
  5
1029
331
D5D
  5
FC6
331
C29
  5
E82
331
E3E
  5
1227
331
CDB
  5
F77
331
DFF
  5
103E
331
DFB
  5
103A
331
D94
  5
E20
331
D55
  5
DF1
331
D51
  5
DF5
331
1E87
  5
D92
331
1E83
  5
D8E
331
1DCE
  5
B5E
331
1E0D
  5
CD8
331
1E7F
  5
D8A
331
1E40
  5
D30
331
1DCA
  5
B40
331
1E09
  5
CD4
331
1E7B
  5
D82
331
1E3C
  5
D2C
331
1E05
  5
CAD
331
1DC6
  5
B08
331
1E38
  5
D28
331
1DC2
  5
AF7
331
1E01
  5
C9A
331
1D87
  5
385D
331
217F
  5
389C
331
1D83
  5
3859
331
1D44
  5
3821
331
1C95
  5
37C4
331
1D7F
  5
3856
331
1D40
  5
381D
331
FA7
  5
17F2
331
1D7B
  5
3852
331
1D3C
  5
37DA
331
1C8D
  5
37C0
331
10E8
  5
1E57
331
FF2
  5
1E0A
331
FA3
  5
17EE
331
ED5
  5
E6D
331
E6E
  5
E65
331
1C89
  5
3578
331
FEE
  5
1E04
331
F9F
  5
17E9
331
355D
  5
38A1
331
E6A
  5
176D
331
388F
  5
174D
331
B06
  5
E3F
331
B02
  5
E3D
331
B41
  5
D98
331
384C
  5
3891
331
388B
  5
1753
331
37D6
  5
37EF
331
3815
  5
1788
331
E66
  5
E68
331
24CB
  5
D37
331
EF0
  5
17B7
331
3848
  5
3896
331
3887
  5
1760
331
37D2
  5
37EB
331
E62
  5
E6A
331
3883
  5
1768
331
37CE
  5
37E7
331
37CA
  5
37E3
331
3809
  5
1E76
331
D16
  5
F8E
331
D12
  5
F8C
331
CD3
  5
F73
331
BD5
  5
E24
331
CCF
  5
F6C
331
D0E
  5
E8E
331
E32
  5
11E4
331
D4D
  5
FBE
331
BD1
  5
D9A
331
E2E
  5
1111
331
DEF
  5
1032
331
D49
  5
FBA
331
D88
  5
E4A
331
EA1
  5
178A
331
D45
  5
FB6
331
D84
  5
FA5
331
C40
  5
EE1
331
D80
  5
FF8
331
D41
  5
FB2
331
1041
  5
1E3A
331
1E77
  5
D7E
331
1E73
  5
D79
331
1E34
  5
D21
331
1DBE
  5
AE6
331
1DFD
  5
C3E
331
1E6F
  5
D71
331
1E30
  5
D16
331
1DF9
  5
C3A
331
1E6B
  5
D6D
331
1E2C
  5
D10
331
1DB6
  5
3888
331
1DF5
  5
C35
331
1E28
  5
D09
331
1DB2
  5
3884
331
1DF1
  5
C2F
331
1D77
  5
384E
331
1D73
  5
384A
331
1C85
  5
3573
331
1D6F
  5
3847
331
1C81
  5
3427
331
1055
  5
1E3D
331
1DAA
  5
387F
331
1C7D
  5
23B3
331
122E
  5
1E6E
331
B39
  5
E33
331
1CF0
  5
37D9
331
1C79
  5
1EC4
331
10D4
  5
1E55
331
103D
  5
1E36
331
FCE
  5
1E00
331
E99
  5
1780
331
387F
  5
176A
331
B35
  5
E4F
331
1039
  5
1E32
331
B31
  5
E26
331
F8B
  5
17D9
331
EEC
  5
17B3
331
E95
  5
17A3
331
3805
  5
1E86
331
387B
  5
1773
331
AFA
  5
E0D
331
EE8
  5
17AF
331
3801
  5
381A
331
3877
  5
1775
331
E91
  5
E56
331
3873
  5
1779
331
37FD
  5
3816
331
383C
  5
10C4
331
37F9
  5
3812
331
E26
  5
10F7
331
37C5
  5
37DE
331
D3D
  5
FAD
331
E22
  5
10F2
331
C38
  5
E95
331
CF2
  5
F88
331
CBB
  5
EF1
331
D39
  5
E9C
331
C34
  5
E94
331
C30
  5
E85
331
E59
  5
E52
331
D74
  5
FF1
331
DE3
  5
DE4
331
1E67
  5
D61
331
1E63
  5
D5A
331
1DED
  5
C28
331
1E5F
  5
D56
331
1DE9
  5
BD6
331
1EC2
  5
3890
331
1E5B
  5
D51
331
1E24
  5
D04
331
1DE5
  5
BD0
331
1E20
  5
CF8
331
1DE1
  5
BCB
331
1DA6
  5
387B
331
1DA2
  5
3877
331
1D63
  5
3844
331
1CEC
  5
37D5
331
1D9E
  5
3873
331
1D5F
  5
3840
331
1CE8
  5
37D2
331
1222
  5
1E6A
331
1035
  5
1E2E
331
B6C
  5
E81
331
F87
  5
17D6
331
AF6
  5
E06
331
1D9A
  5
386F
331
1D5B
  5
383C
331
1CE4
  5
37CE
331
1031
  5
1E2A
331
EE4
  5
EA2
331
AF2
  5
E04
331
B29
  5
DFE
331
102D
  5
1E1F
331
10C4
  5
17E8
331
FBE
  5
1DF2
331
F7F
  5
17CF
331
EE0
  5
17AB
331
386F
  5
1783
331
E89
  5
E63
331
10C0
  5
1E4E
331
1029
  5
1E19
331
FBA
  5
1DEE
331
B60
  5
E7A
331
3578
  5
38A8
331
386B
  5
1799
331
38AA
  5
EDA
331
37F5
  5
380E
331
3834
  5
173D
331
E85
  5
E5D
331
3574
  5
38A5
331
E81
  5
1793
331
37F1
  5
380A
331
3867
  5
179E
331
38A6
  5
EDC
331
37ED
  5
3806
331
3863
  5
1E73
331
38A2
  5
10CA
331
37E9
  5
3802
331
3828
  5
1759
331
D35
  5
E9E
331
E55
  5
1728
331
CB3
  5
EEE
331
E16
  5
1067
331
E51
  5
1722
331
E12
  5
10BC
331
DDB
  5
DEC
331
CEA
  5
F78
331
E4D
  5
115F
331
CAB
  5
EEB
331
D68
  5
FCE
331
DD7
  5
DEF
331
E49
  5
11FE
331
DD3
  5
102E
331
1E57
  5
D4C
331
1E92
  5
388D
331
1E53
  5
D49
331
1E1C
  5
CF2
331
1DDD
  5
BC7
331
1E4F
  5
D43
331
1E18
  5
CEC
331
1DD9
  5
BC3
331
1E8A
  5
D95
331
1DD5
  5
B67
331
1E14
  5
CE2
331
1DD1
  5
B61
331
1E10
  5
CDB
331
1D96
  5
386B
331
1D57
  5
3838
331
3426
  5
389F
331
1D92
  5
3867
331
1D53
  5
3830
331
1D8E
  5
3863
331
1D4F
  5
382C
331
1212
  5
1E67
331
1113
  5
1E61
331
10BC
  5
1E3E
331
1025
  5
1E15
331
FB6
  5
1DEA
331
F77
  5
17C7
331
AE6
  5
E00
331
1D8A
  5
3860
331
1D4B
  5
3828
331
1AD5
  5
1E80
331
1021
  5
1E11
331
FB2
  5
1DE6
331
F73
  5
17C3
331
B21
  5
E47
331
E7D
  5
17A1
331
EDC
  5
DE0
331
1C98
  5
37C7
331
1103
  5
17EA
331
FAE
  5
1DE2
331
B1D
  5
E44
331
385F
  5
1E7A
331
389E
  5
10D0
331
E79
  5
E58
331
1068
  5
1E47
331
FAA
  5
1D91
331
B19
  5
E41
331
37E5
  5
37FE
331
385B
  5
1E7C
331
389A
  5
1730
331
E75
  5
E5C
331
37E1
  5
37FA
331
3857
  5
1E82
331
3896
  5
1740
331
E71
  5
E60
331
3853
  5
1E89
331
3892
  5
1748
331
37DD
  5
37F6
331
381C
  5
1771
331
37D9
  5
37F2
331
3818
  5
177F
331
D25
  5
FA3
331
CA7
  5
EE7
331
CE6
  5
E32
331
E45
  5
115D
331
CE2
  5
F75
331
E06
  5
1054
331
DCF
  5
102B
331
CDE
  5
F7A
331
E41
  5
1223
331
C9F
  5
EE5
331
E02
  5
1041
331
DCB
  5
1028
331
D5C
  5
FC5
331
D1D
  5
E90
331
CDA
  5
F76
331
E3D
  5
1231
331
DFE
  5
103D
331
C24
  5
E15
331
DFA
  5
1039
331
D54
  5
FC1
331
D93
  5
E23
331
D50
  5
DF8
331
1E86
  5
D91
331
1E47
  5
D38
331
1E82
  5
D8D
331
1E43
  5
D33
331
1DCD
  5
B5D
331
1E0C
  5
CD7
331
1E7E
  5
D89
331
1E3F
  5
D2F
331
1E08
  5
CD3
331
1DC9
  5
B2E
331
1E7A
  5
D81
331
1E3B
  5
D2B
331
1E04
  5
CA6
331
1DC5
  5
B07
331
1DC1
  5
AF5
331
1E00
  5
C44
331
1D86
  5
385C
331
1D47
  5
3824
331
217E
  5
389B
331
1D82
  5
3858
331
1D43
  5
3820
331
1ACD
  5
1E7F
331
1D7E
  5
3855
331
1D3F
  5
381C
331
1C90
  5
37C3
331
10EB
  5
1E5A
331
FF5
  5
1E0D
331
FA6
  5
17F1
331
F07
  5
17BD
331
1D7A
  5
3851
331
1C8C
  5
37BF
331
10E7
  5
1E56
331
FF1
  5
1E09
331
FA2
  5
17ED
331
B48
  5
E77
331
E6D
  5
177C
331
ED4
  5
E67
331
1C88
  5
3577
331
FED
  5
1E03
331
E69
  5
1762
331
384F
  5
1E90
331
388E
  5
1752
331
1058
  5
1DF6
331
B01
  5
E3C
331
384B
  5
3894
331
388A
  5
175D
331
37D5
  5
37EE
331
3814
  5
1787
331
E65
  5
E6C
331
24CA
  5
D3E
331
3847
  5
3899
331
3886
  5
175F
331
E61
  5
172E
331
37D1
  5
37EA
331
3882
  5
1767
331
37CD
  5
37E6
331
3843
  5
ED3
331
37C9
  5
37E2
331
3808
  5
1E75
331
D15
  5
E93
331
CD2
  5
F72
331
D8F
  5
E21
331
BD4
  5
E1C
331
D0D
  5
F96
331
CCE
  5
F07
331
E31
  5
1190
331
DF2
  5
1035
331
BD0
  5
D9B
331
D4C
  5
FBD
331
D8B
  5
DDA
331
E2D
  5
110E
331
C43
  5
EE2
331
DEE
  5
1034
331
D48
  5
FB9
331
E29
  5
1103
331
EA0
  5
17A6
331
D44
  5
FB5
331
D83
  5
F99
331
BC0
  5
D9E
331
D40
  5
E98
331
1040
  5
1E39
331
1E76
  5
D7D
331
1E37
  5
D27
331
1E72
  5
D78
331
1E33
  5
D1F
331
1DBD
  5
AE4
331
1DFC
  5
C3D
331
1E6E
  5
D70
331
1E2F
  5
D15
331
1DF8
  5
C39
331
1E6A
  5
D69
331
1E2B
  5
D0F
331
1DB5
  5
3887
331
1DF4
  5
C34
331
1DB1
  5
3883
331
1DF0
  5
C2E
331
1D76
  5
384D
331
1D72
  5
3849
331
1C84
  5
355F
331
1DAD
  5
3882
331
1D6E
  5
3846
331
1C80
  5
3426
331
1054
  5
17D4
331
B3C
  5
E38
331
1DA9
  5
387E
331
1C7C
  5
2180
331
122D
  5
1E6D
331
B38
  5
E34
331
BBF
  5
D9F
331
1C78
  5
1EC3
331
103C
  5
1E35
331
FCD
  5
1DFF
331
F8E
  5
17DC
331
EEF
  5
17B6
331
E98
  5
1781
331
387E
  5
1769
331
B34
  5
E4E
331
1038
  5
1E31
331
FC9
  5
1DF9
331
B30
  5
E4C
331
F8A
  5
17D8
331
EEB
  5
17B2
331
387A
  5
1772
331
AF9
  5
E0A
331
3583
  5
38AA
331
3800
  5
3819
331
3876
  5
1778
331
E90
  5
E55
331
3872
  5
177E
331
37FC
  5
3815
331
383B
  5
10C3
331
37F8
  5
3811
331
D05
  5
F8F
331
E25
  5
10DC
331
D7F
  5
FF7
331
D01
  5
E88
331
37C4
  5
37DD
331
D3C
  5
FAE
331
E21
  5
10F6
331
D38
  5
FB0
331
C33
  5
E87
331
CBA
  5
DFA
331
DE6
  5
DE3
331
E19
  5
10EA
331
E58
  5
E7D
331
1E66
  5
D5E
331
1E62
  5
D59
331
1DEC
  5
C27
331
1E5E
  5
D55
331
1E27
  5
D08
331
1DE8
  5
BD5
331
1EC1
  5
388F
331
1E5A
  5
D50
331
1E23
  5
D03
331
1DE4
  5
BCF
331
1DE0
  5
BCA
331
1DA5
  5
387A
331
1CEF
  5
37D8
331
1DA1
  5
3876
331
1D62
  5
3843
331
1D9D
  5
3872
331
1D5E
  5
383F
331
1CE7
  5
37D1
331
1034
  5
1E2D
331
B6B
  5
E80
331
EE7
  5
17AE
331
B2C
  5
DFD
331
1D99
  5
386E
331
1D5A
  5
383B
331
1CE3
  5
37CD
331
115E
  5
1E63
331
1030
  5
1E27
331
B28
  5
E4B
331
F82
  5
17D1
331
AF1
  5
E03
331
EE3
  5
DDF
331
10C3
  5
1E50
331
102C
  5
1E1E
331
FBD
  5
1DF1
331
F7E
  5
17CE
331
E88
  5
1792
331
386E
  5
1782
331
1028
  5
1E18
331
FB9
  5
1DED
331
F7A
  5
17CA
331
3577
  5
38A7
331
386A
  5
1798
331
38A9
  5
ED9
331
37F4
  5
380D
331
3833
  5
1738
331
E84
  5
E5F
331
3573
  5
38A4
331
E80
  5
1794
331
3866
  5
179D
331
38A5
  5
EDB
331
37F0
  5
3809
331
382F
  5
174C
331
37EC
  5
3805
331
3862
  5
1E72
331
38A1
  5
10C9
331
37E8
  5
3801
331
E15
  5
1069
331
D30
  5
FAB
331
D6F
  5
FD3
331
D2C
  5
FA4
331
CED
  5
F85
331
E50
  5
1178
331
CAE
  5
EED
331
E11
  5
1068
331
DDA
  5
1026
331
D28
  5
FA8
331
E4C
  5
115F
331
CAA
  5
EEA
331
E0D
  5
1056
331
DD6
  5
1024
331
D67
  5
FCD
331
E48
  5
11A8
331
DD2
  5
102D
331
1E56
  5
D4B
331
1E1F
  5
CF5
331
1E91
  5
388C
331
1E52
  5
D46
331
1E1B
  5
CF1
331
1DDC
  5
BC6
331
1E4E
  5
D42
331
1E8D
  5
D41
331
1E17
  5
CEB
331
1DD8
  5
BC2
331
1E89
  5
D94
331
1E4A
  5
D3C
331
1DD4
  5
B64
331
1E13
  5
CDE
331
1DD0
  5
B60
  0
XRECORD
  5
38B0
102
{ACAD_REACTORS
330
38AE
102
}
330
38AE
100
AcDbXrecord
280
     1
 70
     2
  0
XRECORD
  5
38AF
102
{ACAD_REACTORS
330
38AE
102
}
330
38AE
100
AcDbXrecord
280
     1
 40
1.25
  0
XRECORD
  5
38B1
102
{ACAD_REACTORS
330
38AE
102
}
330
38AE
100
AcDbXrecord
280
     1
 40
1.570796326794896
  0
LAYOUT
  5
22
102
{ACAD_XDICTIONARY
360
38B2
102
}
102
{ACAD_REACTORS
330
1A
102
}
330
1A
100
AcDbPlotSettings
  1

  2
none_device
  4
ANSI_A_(8.50_x_11.00_Inches)
  6

 40
6.349999904632567
 41
19.04999923706055
 42
6.350006103515625
 43
19.04998779296875
 44
215.8999938964844
 45
279.3999938964844
 46
0.0
 47
0.0
 48
0.0
 49
0.0
140
0.0
141
0.0
142
1.0
143
2.584895464708373
 70
 11952
 72
     0
 73
     1
 74
     0
  7

 75
     0
147
0.3868628397755418
148
0.0
149
0.0
100
AcDbLayout
  1
Model
 70
     1
 71
     0
 10
0.0
 20
0.0
 11
12.0
 21
9.0
 12
0.0
 22
0.0
 32
0.0
 14
0.0
 24
0.0
 34
0.0
 15
0.0
 25
0.0
 35
0.0
146
0.0
 13
0.0
 23
0.0
 33
0.0
 16
1.0
 26
0.0
 36
0.0
 17
0.0
 27
1.0
 37
0.0
 76
     0
330
1F
331
94
  0
LAYOUT
  5
59
102
{ACAD_XDICTIONARY
360
38B4
102
}
102
{ACAD_REACTORS
330
1A
102
}
330
1A
100
AcDbPlotSettings
  1

  2
None
  4

  6

 40
0.0
 41
0.0
 42
0.0
 43
0.0
 44
0.0
 45
0.0
 46
0.0
 47
0.0
 48
0.0
 49
0.0
140
0.0
141
0.0
142
1.0
143
1.0
 70
   688
 72
     0
 73
     0
 74
     5
  7

 75
    16
147
1.0
148
0.0
149
0.0
100
AcDbLayout
  1
レイアウト1
 70
     1
 71
     1
 10
0.0
 20
0.0
 11
12.0
 21
9.0
 12
0.0
 22
0.0
 32
0.0
 14
0.0
 24
0.0
 34
0.0
 15
0.0
 25
0.0
 35
0.0
146
0.0
 13
0.0
 23
0.0
 33
0.0
 16
1.0
 26
0.0
 36
0.0
 17
0.0
 27
1.0
 37
0.0
 76
     0
330
58
  0
LAYOUT
  5
5E
102
{ACAD_XDICTIONARY
360
38B6
102
}
102
{ACAD_REACTORS
330
1A
102
}
330
1A
100
AcDbPlotSettings
  1

  2
None
  4

  6

 40
0.0
 41
0.0
 42
0.0
 43
0.0
 44
0.0
 45
0.0
 46
0.0
 47
0.0
 48
0.0
 49
0.0
140
0.0
141
0.0
142
1.0
143
1.0
 70
   688
 72
     0
 73
     0
 74
     5
  7

 75
    16
147
1.0
148
0.0
149
0.0
100
AcDbLayout
  1
レイアウト2
 70
     1
 71
     2
 10
0.0
 20
0.0
 11
12.0
 21
9.0
 12
0.0
 22
0.0
 32
0.0
 14
0.0
 24
0.0
 34
0.0
 15
0.0
 25
0.0
 35
0.0
146
0.0
 13
0.0
 23
0.0
 33
0.0
 16
1.0
 26
0.0
 36
0.0
 17
0.0
 27
1.0
 37
0.0
 76
     0
330
5D
  0
MATERIAL
  5
97
102
{ACAD_XDICTIONARY
360
C59
102
}
102
{ACAD_REACTORS
330
72
102
}
330
72
100
AcDbMaterial
  1
ByBlock
 73
     1
 78
     1
172
     1
176
     1
270
     1
274
     1
  0
MATERIAL
  5
96
102
{ACAD_XDICTIONARY
360
C57
102
}
102
{ACAD_REACTORS
330
72
102
}
330
72
100
AcDbMaterial
  1
ByLayer
 73
     1
 78
     1
172
     1
176
     1
270
     1
274
     1
  0
MATERIAL
  5
98
102
{ACAD_XDICTIONARY
360
C5B
102
}
102
{ACAD_REACTORS
330
72
102
}
330
72
100
AcDbMaterial
  1
Global
 73
     1
 78
     1
172
     1
176
     1
270
     1
274
     1
  0
MLEADERSTYLE
  5
169
102
{ACAD_REACTORS
330
168
102
}
330
168
100
AcDbMLeaderStyle
170
     2
171
     1
172
     0
 90
        2
 40
0.0
 41
0.0
173
     1
 91
-1056964608
340
14
 92
       -2
290
     1
 42
2.0
291
     1
 43
0.36
  3
Standard
 44
4.0
300

342
11
174
     1
178
     6
175
     1
176
     0
 93
-1056964608
 45
4.0
292
     0
297
     0
 46
4.0
 94
-1056964608
 47
1.0
 49
1.0
140
1.0
293
     1
141
0.0
294
     1
177
     0
142
1.0
295
     0
296
     0
143
0.125
1001
ACAD_MLEADERVER
1070
     2
  0
MLINESTYLE
  5
18
102
{ACAD_REACTORS
330
17
102
}
330
17
100
AcDbMlineStyle
  2
STANDARD
 70
     0
  3

 62
   256
 51
90.0
 52
90.0
 71
     2
 49
0.5
 62
   256
  6
BYLAYER
 49
-0.5
 62
   256
  6
BYLAYER
  0
ACDBPLACEHOLDER
  5
F
102
{ACAD_REACTORS
330
E
102
}
330
E
  0
SCALE
  5
157
102
{ACAD_REACTORS
330
156
102
}
330
156
100
AcDbScale
 70
     0
300
1:1
140
1.0
141
1.0
290
     1
  0
SCALE
  5
158
102
{ACAD_REACTORS
330
156
102
}
330
156
100
AcDbScale
 70
     0
300
1:2
140
1.0
141
2.0
290
     0
  0
SCALE
  5
159
102
{ACAD_REACTORS
330
156
102
}
330
156
100
AcDbScale
 70
     0
300
1:4
140
1.0
141
4.0
290
     0
  0
SCALE
  5
15A
102
{ACAD_REACTORS
330
156
102
}
330
156
100
AcDbScale
 70
     0
300
1:5
140
1.0
141
5.0
290
     0
  0
SCALE
  5
15B
102
{ACAD_REACTORS
330
156
102
}
330
156
100
AcDbScale
 70
     0
300
1:8
140
1.0
141
8.0
290
     0
  0
SCALE
  5
15C
102
{ACAD_REACTORS
330
156
102
}
330
156
100
AcDbScale
 70
     0
300
1:10
140
1.0
141
10.0
290
     0
  0
SCALE
  5
15D
102
{ACAD_REACTORS
330
156
102
}
330
156
100
AcDbScale
 70
     0
300
1:16
140
1.0
141
16.0
290
     0
  0
SCALE
  5
15E
102
{ACAD_REACTORS
330
156
102
}
330
156
100
AcDbScale
 70
     0
300
1:20
140
1.0
141
20.0
290
     0
  0
SCALE
  5
15F
102
{ACAD_REACTORS
330
156
102
}
330
156
100
AcDbScale
 70
     0
300
1:30
140
1.0
141
30.0
290
     0
  0
SCALE
  5
160
102
{ACAD_REACTORS
330
156
102
}
330
156
100
AcDbScale
 70
     0
300
1:40
140
1.0
141
40.0
290
     0
  0
SCALE
  5
161
102
{ACAD_REACTORS
330
156
102
}
330
156
100
AcDbScale
 70
     0
300
1:50
140
1.0
141
50.0
290
     0
  0
SCALE
  5
162
102
{ACAD_REACTORS
330
156
102
}
330
156
100
AcDbScale
 70
     0
300
1:100
140
1.0
141
100.0
290
     0
  0
SCALE
  5
163
102
{ACAD_REACTORS
330
156
102
}
330
156
100
AcDbScale
 70
     0
300
2:1
140
2.0
141
1.0
290
     0
  0
SCALE
  5
164
102
{ACAD_REACTORS
330
156
102
}
330
156
100
AcDbScale
 70
     0
300
4:1
140
4.0
141
1.0
290
     0
  0
SCALE
  5
165
102
{ACAD_REACTORS
330
156
102
}
330
156
100
AcDbScale
 70
     0
300
8:1
140
8.0
141
1.0
290
     0
  0
SCALE
  5
166
102
{ACAD_REACTORS
330
156
102
}
330
156
100
AcDbScale
 70
     0
300
10:1
140
10.0
141
1.0
290
     0
  0
SCALE
  5
167
102
{ACAD_REACTORS
330
156
102
}
330
156
100
AcDbScale
 70
     0
300
100:1
140
100.0
141
1.0
290
     0
  0
TABLESTYLE
  5
87
102
{ACAD_XDICTIONARY
360
C48
102
}
102
{ACAD_REACTORS
330
86
102
}
330
86
100
AcDbTableStyle
  3
Standard
 70
     0
 71
     0
 40
0.06
 41
0.06
280
     0
281
     0
  7
Standard
140
0.18
170
     2
 62
     0
 63
     7
283
     0
274
    -2
284
     1
 64
     0
275
    -2
285
     1
 65
     0
276
    -2
286
     1
 66
     0
277
    -2
287
     1
 67
     0
278
    -2
288
     1
 68
     0
279
    -2
289
     1
 69
     0
  7
Standard
140
0.25
170
     5
 62
     0
 63
     7
283
     0
274
    -2
284
     1
 64
     0
275
    -2
285
     1
 65
     0
276
    -2
286
     1
 66
     0
277
    -2
287
     1
 67
     0
278
    -2
288
     1
 68
     0
279
    -2
289
     1
 69
     0
  7
Standard
140
0.18
170
     5
 62
     0
 63
     7
283
     0
274
    -2
284
     1
 64
     0
275
    -2
285
     1
 65
     0
276
    -2
286
     1
 66
     0
277
    -2
287
     1
 67
     0
278
    -2
288
     1
 68
     0
279
    -2
289
     1
 69
     0
  0
VISUALSTYLE
  5
9F
102
{ACAD_XDICTIONARY
360
38C3
102
}
102
{ACAD_REACTORS
330
99
102
}
330
99
100
AcDbVisualStyle
  2

 70
     4
 71
     0
 72
     2
 73
     1
 90
        0
 40
-0.6
 41
-30.0
 62
     5
 63
     7
 74
     1
 91
        4
 64
     7
 65
   257
 75
     1
175
     1
 42
1.0
 92
        0
 66
   257
 43
1.0
 76
     1
 77
     6
 78
     2
 67
     7
 79
     5
170
     0
171
     0
290
     0
174
     0
 93
        1
 44
0.0
173
     0
291
     0
 45
0.0
1001
ACAD
1000
AcDbSavedByObjectVersion
1070
     0
  0
VISUALSTYLE
  5
A1
102
{ACAD_XDICTIONARY
360
38C7
102
}
102
{ACAD_REACTORS
330
99
102
}
330
99
100
AcDbVisualStyle
  2

 70
     6
 71
     1
 72
     2
 73
     2
 90
        0
 40
-0.6
 41
-30.0
 62
     5
 63
     7
 74
     2
 91
        2
 64
     7
 65
   257
 75
     2
175
     1
 42
40.0
 92
        0
 66
   257
 43
1.0
 76
     1
 77
     6
 78
     2
 67
     7
 79
     3
170
     0
171
     0
290
     0
174
     0
 93
        1
 44
0.0
173
     0
291
     0
 45
0.0
1001
ACAD
1000
AcDbSavedByObjectVersion
1070
     0
  0
VISUALSTYLE
  5
A0
102
{ACAD_XDICTIONARY
360
38C5
102
}
102
{ACAD_REACTORS
330
99
102
}
330
99
100
AcDbVisualStyle
  2

 70
     5
 71
     0
 72
     2
 73
     1
 90
        0
 40
-0.6
 41
-30.0
 62
     5
 63
     7
 74
     1
 91
        4
 64
     7
 65
   257
 75
     1
175
     1
 42
1.0
 92
        0
 66
   257
 43
1.0
 76
     1
 77
     6
 78
     2
 67
     7
 79
     5
170
     0
171
     0
290
     0
174
     0
 93
        1
 44
0.0
173
     0
291
     0
 45
0.0
1001
ACAD
1000
AcDbSavedByObjectVersion
1070
     0
  0
VISUALSTYLE
  5
9E
102
{ACAD_XDICTIONARY
360
38C1
102
}
102
{ACAD_REACTORS
330
99
102
}
330
99
100
AcDbVisualStyle
  2

 70
     7
 71
     1
 72
     0
 73
     1
 90
        0
 40
-0.6
 41
-30.0
 62
     5
 63
     7
 74
     0
 91
        4
 64
     7
 65
   257
 75
     1
175
     1
 42
1.0
 92
        8
 66
     7
 43
1.0
 76
     1
 77
     6
 78
     2
 67
     7
 79
     5
170
     0
171
     0
290
     0
174
     0
 93
        1
 44
0.0
173
     0
291
     1
 45
0.0
1001
ACAD
1000
AcDbSavedByObjectVersion
1070
     0
  0
VISUALSTYLE
  5
A5
102
{ACAD_XDICTIONARY
360
38CF
102
}
102
{ACAD_REACTORS
330
99
102
}
330
99
100
AcDbVisualStyle
  2

 70
    12
 71
     2
 72
     2
 73
     1
 90
        0
 40
-0.6
 41
-30.0
 62
     5
 63
     7
 74
     1
 91
        4
 64
     7
 65
   257
 75
     1
175
     1
 42
1.0
 92
        8
 66
     7
 43
1.0
 76
     1
 77
     6
 78
     2
 67
     7
 79
     5
170
     0
171
     0
290
     0
174
     0
 93
        1
 44
50.0
173
     0
291
     1
 45
0.0
1001
ACAD
1000
AcDbSavedByObjectVersion
1070
     0
  0
VISUALSTYLE
  5
A9
102
{ACAD_XDICTIONARY
360
38D7
102
}
102
{ACAD_REACTORS
330
99
102
}
330
99
100
AcDbVisualStyle
  2

 70
    16
 71
     2
 72
     2
 73
     3
 90
        0
 40
-0.6
 41
-30.0
 62
     5
 63
     8
 74
     1
 91
        4
 64
     7
 65
   257
 75
     1
175
     1
 42
1.0
 92
        8
 66
     8
 43
1.0
 76
     1
 77
     6
 78
     2
 67
     7
 79
     5
170
     0
171
     0
290
     0
174
     0
 93
        1
 44
0.0
173
     0
291
     1
 45
0.0
1001
ACAD
1000
AcDbSavedByObjectVersion
1070
     0
  0
VISUALSTYLE
  5
A2
102
{ACAD_XDICTIONARY
360
38C9
102
}
102
{ACAD_REACTORS
330
99
102
}
330
99
100
AcDbVisualStyle
  2

 70
     9
 71
     3
 72
     2
 73
     1
 90
        0
 40
-0.6
 41
-30.0
 62
     5
 63
     7
 74
     2
 91
        2
 64
     7
 65
   257
 75
     1
175
     1
 42
40.0
 92
        8
 66
     7
 43
1.0
 76
     1
 77
     6
 78
     2
 67
     7
 79
     3
170
     0
171
     0
290
     0
174
     0
 93
        1
 44
0.0
173
     0
291
     0
 45
0.0
1001
ACAD
1000
AcDbSavedByObjectVersion
1070
     0
  0
VISUALSTYLE
  5
A4
102
{ACAD_XDICTIONARY
360
38CD
102
}
102
{ACAD_REACTORS
330
99
102
}
330
99
100
AcDbVisualStyle
  2

 70
    11
 71
     2
 72
     2
 73
     1
 90
        0
 40
-0.6
 41
-30.0
 62
     5
 63
     7
 74
     1
 91
        4
 64
     7
 65
   257
 75
     1
175
     1
 42
1.0
 92
        8
 66
     7
 43
1.0
 76
     1
 77
     6
 78
     2
 67
     7
 79
     5
170
     0
171
     0
290
     0
174
     0
 93
        1
 44
-50.0
173
     0
291
     1
 45
0.0
1001
ACAD
1000
AcDbSavedByObjectVersion
1070
     0
  0
VISUALSTYLE
  5
155
102
{ACAD_XDICTIONARY
360
38EB
102
}
102
{ACAD_REACTORS
330
99
102
}
330
99
100
AcDbVisualStyle
  2

 70
    22
 71
     2
 72
     2
 73
     0
 90
        0
 40
-0.6
 41
-30.0
 62
     5
 63
     7
 74
     1
 91
        4
 64
     7
 65
   257
 75
     1
175
     1
 42
1.0
 92
        8
 66
     7
 43
1.0
 76
     1
 77
     6
 78
     2
 67
     7
 79
     5
170
     0
171
     0
290
     0
174
     0
 93
        1
 44
0.0
173
     0
291
     1
 45
0.0
1001
ACAD
1000
AcDbSavedByObjectVersion
1070
     0
  0
VISUALSTYLE
  5
A8
102
{ACAD_XDICTIONARY
360
38D5
102
}
102
{ACAD_REACTORS
330
99
102
}
330
99
100
AcDbVisualStyle
  2

 70
    15
 71
     2
 72
     2
 73
     1
 90
        0
 40
-0.6
 41
-30.0
 62
     5
 63
     7
 74
     1
 91
        4
 64
     7
 65
   257
 75
     1
175
     1
 42
1.0
 92
        8
 66
     7
 43
1.0
 76
     1
 77
     6
 78
     2
 67
     7
 79
     5
170
     0
171
     0
290
     0
174
     0
 93
        1
 44
0.0
173
     0
291
     1
 45
0.0
1001
ACAD
1000
AcDbSavedByObjectVersion
1070
     0
  0
VISUALSTYLE
  5
9A
102
{ACAD_XDICTIONARY
360
38B9
102
}
102
{ACAD_REACTORS
330
99
102
}
330
99
100
AcDbVisualStyle
  2

 70
     0
 71
     2
 72
     1
 73
     1
 90
        2
 40
-0.6
 41
30.0
 62
     5
 63
     7
 74
     0
 91
        4
 64
     7
 65
   257
 75
     1
175
     1
 42
1.0
 92
        8
 66
     7
 43
1.0
 76
     1
 77
     6
 78
     2
 67
     7
 79
     5
170
     0
171
     0
290
     0
174
     0
 93
        1
 44
0.0
173
     0
291
     1
 45
0.0
1001
ACAD
1000
AcDbSavedByObjectVersion
1070
     0
  0
VISUALSTYLE
  5
9B
102
{ACAD_XDICTIONARY
360
38BB
102
}
102
{ACAD_REACTORS
330
99
102
}
330
99
100
AcDbVisualStyle
  2

 70
     1
 71
     2
 72
     1
 73
     1
 90
        2
 40
-0.6
 41
30.0
 62
     5
 63
     7
 74
     1
 91
        4
 64
     7
 65
   257
 75
     1
175
     1
 42
1.0
 92
        0
 66
   257
 43
1.0
 76
     1
 77
     6
 78
     2
 67
     7
 79
     5
170
     0
171
     0
290
     0
174
     0
 93
        1
 44
0.0
173
     0
291
     1
 45
0.0
1001
ACAD
1000
AcDbSavedByObjectVersion
1070
     0
  0
VISUALSTYLE
  5
9C
102
{ACAD_XDICTIONARY
360
38BD
102
}
102
{ACAD_REACTORS
330
99
102
}
330
99
100
AcDbVisualStyle
  2

 70
     2
 71
     2
 72
     2
 73
     1
 90
        2
 40
-0.6
 41
30.0
 62
     5
 63
     7
 74
     0
 91
        4
 64
     7
 65
   257
 75
     1
175
     1
 42
1.0
 92
        0
 66
     7
 43
1.0
 76
     1
 77
     6
 78
     2
 67
     7
 79
     5
170
     0
171
     0
290
     0
174
     0
 93
        1
 44
0.0
173
     0
291
     1
 45
0.0
1001
ACAD
1000
AcDbSavedByObjectVersion
1070
     0
  0
VISUALSTYLE
  5
9D
102
{ACAD_XDICTIONARY
360
38BF
102
}
102
{ACAD_REACTORS
330
99
102
}
330
99
100
AcDbVisualStyle
  2

 70
     3
 71
     2
 72
     2
 73
     1
 90
        2
 40
-0.6
 41
30.0
 62
     5
 63
     7
 74
     1
 91
        4
 64
     7
 65
   257
 75
     1
175
     1
 42
1.0
 92
        0
 66
   257
 43
1.0
 76
     1
 77
     6
 78
     2
 67
     7
 79
     5
170
     0
171
     0
290
     0
174
     0
 93
        1
 44
0.0
173
     0
291
     1
 45
0.0
1001
ACAD
1000
AcDbSavedByObjectVersion
1070
     0
  0
VISUALSTYLE
  5
14D
102
{ACAD_XDICTIONARY
360
38DB
102
}
102
{ACAD_REACTORS
330
99
102
}
330
99
100
AcDbVisualStyle
  2

 70
     6
 71
     1
 72
     2
 73
     2
 90
        0
 40
-0.6
 41
-30.0
 62
     5
 63
     7
 74
     2
 91
        2
 64
     7
 65
   257
 75
     2
175
     1
 42
40.0
 92
        0
 66
   257
 43
1.0
 76
     1
 77
     6
 78
     2
 67
     7
 79
     3
170
     0
171
     0
290
     0
174
     0
 93
        1
 44
0.0
173
     0
291
     0
 45
0.0
1001
ACAD
1000
AcDbSavedByObjectVersion
1070
     0
  0
VISUALSTYLE
  5
153
102
{ACAD_XDICTIONARY
360
38E7
102
}
102
{ACAD_REACTORS
330
99
102
}
330
99
100
AcDbVisualStyle
  2

 70
    20
 71
     2
 72
     2
 73
     0
 90
        0
 40
-0.6
 41
-30.0
 62
     5
 63
     7
 74
     1
 91
        4
 64
     7
 65
   257
 75
     1
175
     1
 42
1.0
 92
       10
 66
     7
 43
1.0
 76
     1
 77
     6
 78
     2
 67
     7
 79
     5
170
     0
171
     0
290
     0
174
     0
 93
        1
 44
0.0
173
     0
291
     1
 45
0.0
1001
ACAD
1000
AcDbSavedByObjectVersion
1070
     0
  0
VISUALSTYLE
  5
A7
102
{ACAD_XDICTIONARY
360
38D3
102
}
102
{ACAD_REACTORS
330
99
102
}
330
99
100
AcDbVisualStyle
  2

 70
    14
 71
     2
 72
     2
 73
     1
 90
        0
 40
-0.6
 41
-30.0
 62
     5
 63
     7
 74
     1
 91
        4
 64
     7
 65
   257
 75
     7
175
     7
 42
1.0
 92
        8
 66
     7
 43
1.0
 76
     1
 77
     6
 78
     2
 67
     7
 79
     5
170
     0
171
     0
290
     0
174
     0
 93
        1
 44
0.0
173
     0
291
     1
 45
0.0
1001
ACAD
1000
AcDbSavedByObjectVersion
1070
     0
  0
VISUALSTYLE
  5
154
102
{ACAD_XDICTIONARY
360
38E9
102
}
102
{ACAD_REACTORS
330
99
102
}
330
99
100
AcDbVisualStyle
  2

 70
    21
 71
     2
 72
     2
 73
     0
 90
        0
 40
-0.6
 41
-30.0
 62
     5
 63
     7
 74
     1
 91
        4
 64
     7
 65
   257
 75
     1
175
     1
 42
1.0
 92
        9
 66
     7
 43
1.0
 76
     1
 77
     6
 78
     2
 67
     7
 79
     5
170
     0
171
     0
290
     0
174
     0
 93
        1
 44
0.0
173
     0
291
     1
 45
0.0
1001
ACAD
1000
AcDbSavedByObjectVersion
1070
     0
  0
VISUALSTYLE
  5
A3
102
{ACAD_XDICTIONARY
360
38CB
102
}
102
{ACAD_REACTORS
330
99
102
}
330
99
100
AcDbVisualStyle
  2

 70
     8
 71
     2
 72
     2
 73
     1
 90
        0
 40
-0.6
 41
-30.0
 62
     5
 63
     7
 74
     1
 91
        0
 64
     7
 65
   257
 75
     1
175
     1
 42
1.0
 92
        8
 66
     8
 43
1.0
 76
     1
 77
     6
 78
     2
 67
     7
 79
     5
170
     0
171
     0
290
     0
174
     0
 93
       13
 44
0.0
173
     0
291
     0
 45
0.0
1001
ACAD
1000
AcDbSavedByObjectVersion
1070
     0
  0
VISUALSTYLE
  5
152
102
{ACAD_XDICTIONARY
360
38E5
102
}
102
{ACAD_REACTORS
330
99
102
}
330
99
100
AcDbVisualStyle
  2

 70
    27
 71
     2
 72
     2
 73
     1
 90
        2
 40
-0.6
 41
30.0
 62
     5
 63
     7
 74
     0
 91
        4
 64
     7
 65
   257
 75
     1
175
     1
 42
1.0
 92
        8
 66
   257
 43
1.0
 76
     1
 77
     6
 78
     2
 67
     8
 79
     3
170
     0
171
     0
290
     0
174
     0
 93
        5
 44
0.0
173
     0
291
     0
 45
0.0
1001
ACAD
1000
AcDbSavedByObjectVersion
1070
     0
  0
VISUALSTYLE
  5
151
102
{ACAD_XDICTIONARY
360
38E3
102
}
102
{ACAD_REACTORS
330
99
102
}
330
99
100
AcDbVisualStyle
  2

 70
    26
 71
     2
 72
     2
 73
     1
 90
        2
 40
-0.6
 41
30.0
 62
     5
 63
     7
 74
     1
 91
       10
 64
     7
 65
   257
 75
     2
175
     1
 42
1.0
 92
        8
 66
   257
 43
1.0
 76
     1
 77
     6
 78
     2
 67
     7
 79
     3
170
     0
171
     0
290
     0
174
     0
 93
        5
 44
0.0
173
     0
291
     0
 45
0.0
1001
ACAD
1000
AcDbSavedByObjectVersion
1070
     0
  0
VISUALSTYLE
  5
14E
102
{ACAD_XDICTIONARY
360
38DD
102
}
102
{ACAD_REACTORS
330
99
102
}
330
99
100
AcDbVisualStyle
  2

 70
    23
 71
     2
 72
     2
 73
     3
 90
        0
 40
-0.6
 41
-30.0
 62
     5
 63
     7
 74
     2
 91
        2
 64
     7
 65
     7
 75
     1
175
     1
 42
40.0
 92
        8
 66
     7
 43
1.0
 76
     1
 77
     6
 78
     2
 67
     7
 79
     3
170
     0
171
     0
290
     0
174
     0
 93
        1
 44
0.0
173
     0
291
     0
 45
0.0
1001
ACAD
1000
AcDbSavedByObjectVersion
1070
     0
  0
VISUALSTYLE
  5
14F
102
{ACAD_XDICTIONARY
360
38DF
102
}
102
{ACAD_REACTORS
330
99
102
}
330
99
100
AcDbVisualStyle
  2

 70
    24
 71
     1
 72
     2
 73
     2
 90
        0
 40
-0.6
 41
-30.0
 62
     5
 63
     7
 74
     2
 91
        2
 64
     7
 65
     7
 75
     1
175
     1
 42
40.0
 92
       11
 66
     7
 43
1.0
 76
     1
 77
     6
 78
     2
 67
     7
 79
     6
170
     0
171
     0
290
     0
174
     0
 93
        1
 44
0.0
173
     0
291
     0
 45
0.0
1001
ACAD
1000
AcDbSavedByObjectVersion
1070
     0
  0
VISUALSTYLE
  5
A6
102
{ACAD_XDICTIONARY
360
38D1
102
}
102
{ACAD_REACTORS
330
99
102
}
330
99
100
AcDbVisualStyle
  2

 70
    13
 71
     2
 72
     2
 73
     1
 90
        0
 40
-0.6
 41
-30.0
 62
     5
 63
     7
 74
     1
 91
        4
 64
     7
 65
   257
 75
     1
175
     1
 42
1.0
 92
       12
 66
     7
 43
1.0
 76
     1
 77
     6
 78
     2
 67
     7
 79
     5
170
     0
171
     0
290
     0
174
     0
 93
        1
 44
0.0
173
     0
291
     1
 45
0.0
1001
ACAD
1000
AcDbSavedByObjectVersion
1070
     0
  0
VISUALSTYLE
  5
14C
102
{ACAD_XDICTIONARY
360
38D9
102
}
102
{ACAD_REACTORS
330
99
102
}
330
99
100
AcDbVisualStyle
  2

 70
     5
 71
     0
 72
     2
 73
     0
 90
        0
 40
-0.6
 41
-30.0
 62
     5
 63
     7
 74
     1
 91
        4
 64
     7
 65
   257
 75
     1
175
     1
 42
1.0
 92
        0
 66
   257
 43
1.0
 76
     1
 77
     6
 78
     2
 67
     7
 79
     3
170
     0
171
     0
290
     0
174
     0
 93
        1
 44
0.0
173
     0
291
     0
 45
0.0
1001
ACAD
1000
AcDbSavedByObjectVersion
1070
     0
  0
VISUALSTYLE
  5
150
102
{ACAD_XDICTIONARY
360
38E1
102
}
102
{ACAD_REACTORS
330
99
102
}
330
99
100
AcDbVisualStyle
  2

 70
    25
 71
     2
 72
     2
 73
     1
 90
        1
 40
0.5
 41
-30.0
 62
     5
 63
     7
 74
     1
 91
        0
 64
     7
 65
   257
 75
     1
175
     1
 42
1.0
 92
        8
 66
     7
 43
1.0
 76
     1
 77
     6
 78
     2
 67
     7
 79
     3
170
     0
171
     0
290
     0
174
     0
 93
       13
 44
0.0
173
     0
291
     0
 45
0.0
1001
ACAD
1000
AcDbSavedByObjectVersion
1070
     0
  0
DICTIONARYVAR
  5
24A
102
{ACAD_REACTORS
330
66
102
}
330
66
100
DictionaryVariables
280
     0
  1
1:1
  0
DICTIONARYVAR
  5
248
102
{ACAD_REACTORS
330
66
102
}
330
66
100
DictionaryVariables
280
     0
  1
STANDARD
  0
DICTIONARYVAR
  5
89
102
{ACAD_REACTORS
330
66
102
}
330
66
100
DictionaryVariables
280
     0
  1
STANDARD
  0
DICTIONARYVAR
  5
67
102
{ACAD_REACTORS
330
66
102
}
330
66
100
DictionaryVariables
280
     0
  1
2
  0
DICTIONARYVAR
  5
6B
102
{ACAD_REACTORS
330
66
102
}
330
66
100
DictionaryVariables
280
     0
  1
1
  0
DICTIONARYVAR
  5
B70
102
{ACAD_REACTORS
330
66
102
}
330
66
100
DictionaryVariables
280
     0
  1
0
  0
DICTIONARYVAR
  5
24C
102
{ACAD_REACTORS
330
66
102
}
330
66
100
DictionaryVariables
280
     0
  1
1
  0
DICTIONARYVAR
  5
24D
102
{ACAD_REACTORS
330
66
102
}
330
66
100
DictionaryVariables
280
     0
  1
15
  0
DICTIONARYVAR
  5
24B
102
{ACAD_REACTORS
330
66
102
}
330
66
100
DictionaryVariables
280
     0
  1
0
  0
DICTIONARYVAR
  5
249
102
{ACAD_REACTORS
330
66
102
}
330
66
100
DictionaryVariables
280
     0
  1
0
  0
DICTIONARYVAR
  5
B6F
102
{ACAD_REACTORS
330
66
102
}
330
66
100
DictionaryVariables
280
     0
  1
127
  0
DICTIONARYVAR
  5
3584
102
{ACAD_REACTORS
330
66
102
}
330
66
100
DictionaryVariables
280
     0
  1
2
  0
DICTIONARY
  5
38B2
330
22
100
AcDbDictionary
280
     1
281
     1
  3
ACAD_XREC_ROUNDTRIP
360
38B3
  0
DICTIONARY
  5
38B4
330
59
100
AcDbDictionary
280
     1
281
     1
  3
ACAD_XREC_ROUNDTRIP
360
38B5
  0
DICTIONARY
  5
38B6
330
5E
100
AcDbDictionary
280
     1
281
     1
  3
ACAD_XREC_ROUNDTRIP
360
38B7
  0
DICTIONARY
  5
C59
330
97
100
AcDbDictionary
280
     1
281
     1
  3
ACAD_XREC_ROUNDTRIP
360
C5A
  0
DICTIONARY
  5
C57
330
96
100
AcDbDictionary
280
     1
281
     1
  3
ACAD_XREC_ROUNDTRIP
360
C58
  0
DICTIONARY
  5
C5B
330
98
100
AcDbDictionary
280
     1
281
     1
  3
ACAD_XREC_ROUNDTRIP
360
C5C
  0
DICTIONARY
  5
C48
330
87
100
AcDbDictionary
280
     1
281
     1
  3
ACAD_ROUNDTRIP_2008_TABLESTYLE_CELLSTYLEMAP
360
38AB
  3
ACAD_XREC_ROUNDTRIP
360
38B8
  0
DICTIONARY
  5
38C3
330
9F
100
AcDbDictionary
280
     1
281
     1
  3
ACAD_XREC_ROUNDTRIP
360
38C4
  0
DICTIONARY
  5
38C7
330
A1
100
AcDbDictionary
280
     1
281
     1
  3
ACAD_XREC_ROUNDTRIP
360
38C8
  0
DICTIONARY
  5
38C5
330
A0
100
AcDbDictionary
280
     1
281
     1
  3
ACAD_XREC_ROUNDTRIP
360
38C6
  0
DICTIONARY
  5
38C1
330
9E
100
AcDbDictionary
280
     1
281
     1
  3
ACAD_XREC_ROUNDTRIP
360
38C2
  0
DICTIONARY
  5
38CF
330
A5
100
AcDbDictionary
280
     1
281
     1
  3
ACAD_XREC_ROUNDTRIP
360
38D0
  0
DICTIONARY
  5
38D7
330
A9
100
AcDbDictionary
280
     1
281
     1
  3
ACAD_XREC_ROUNDTRIP
360
38D8
  0
DICTIONARY
  5
38C9
330
A2
100
AcDbDictionary
280
     1
281
     1
  3
ACAD_XREC_ROUNDTRIP
360
38CA
  0
DICTIONARY
  5
38CD
330
A4
100
AcDbDictionary
280
     1
281
     1
  3
ACAD_XREC_ROUNDTRIP
360
38CE
  0
DICTIONARY
  5
38EB
330
155
100
AcDbDictionary
280
     1
281
     1
  3
ACAD_XREC_ROUNDTRIP
360
38EC
  0
DICTIONARY
  5
38D5
330
A8
100
AcDbDictionary
280
     1
281
     1
  3
ACAD_XREC_ROUNDTRIP
360
38D6
  0
DICTIONARY
  5
38B9
330
9A
100
AcDbDictionary
280
     1
281
     1
  3
ACAD_XREC_ROUNDTRIP
360
38BA
  0
DICTIONARY
  5
38BB
330
9B
100
AcDbDictionary
280
     1
281
     1
  3
ACAD_XREC_ROUNDTRIP
360
38BC
  0
DICTIONARY
  5
38BD
330
9C
100
AcDbDictionary
280
     1
281
     1
  3
ACAD_XREC_ROUNDTRIP
360
38BE
  0
DICTIONARY
  5
38BF
330
9D
100
AcDbDictionary
280
     1
281
     1
  3
ACAD_XREC_ROUNDTRIP
360
38C0
  0
DICTIONARY
  5
38DB
330
14D
100
AcDbDictionary
280
     1
281
     1
  3
ACAD_XREC_ROUNDTRIP
360
38DC
  0
DICTIONARY
  5
38E7
330
153
100
AcDbDictionary
280
     1
281
     1
  3
ACAD_XREC_ROUNDTRIP
360
38E8
  0
DICTIONARY
  5
38D3
330
A7
100
AcDbDictionary
280
     1
281
     1
  3
ACAD_XREC_ROUNDTRIP
360
38D4
  0
DICTIONARY
  5
38E9
330
154
100
AcDbDictionary
280
     1
281
     1
  3
ACAD_XREC_ROUNDTRIP
360
38EA
  0
DICTIONARY
  5
38CB
330
A3
100
AcDbDictionary
280
     1
281
     1
  3
ACAD_XREC_ROUNDTRIP
360
38CC
  0
DICTIONARY
  5
38E5
330
152
100
AcDbDictionary
280
     1
281
     1
  3
ACAD_XREC_ROUNDTRIP
360
38E6
  0
DICTIONARY
  5
38E3
330
151
100
AcDbDictionary
280
     1
281
     1
  3
ACAD_XREC_ROUNDTRIP
360
38E4
  0
DICTIONARY
  5
38DD
330
14E
100
AcDbDictionary
280
     1
281
     1
  3
ACAD_XREC_ROUNDTRIP
360
38DE
  0
DICTIONARY
  5
38DF
330
14F
100
AcDbDictionary
280
     1
281
     1
  3
ACAD_XREC_ROUNDTRIP
360
38E0
  0
DICTIONARY
  5
38D1
330
A6
100
AcDbDictionary
280
     1
281
     1
  3
ACAD_XREC_ROUNDTRIP
360
38D2
  0
DICTIONARY
  5
38D9
330
14C
100
AcDbDictionary
280
     1
281
     1
  3
ACAD_XREC_ROUNDTRIP
360
38DA
  0
DICTIONARY
  5
38E1
330
150
100
AcDbDictionary
280
     1
281
     1
  3
ACAD_XREC_ROUNDTRIP
360
38E2
  0
XRECORD
  5
38B3
102
{ACAD_REACTORS
330
38B2
102
}
330
38B2
100
AcDbXrecord
280
     1
102
SHADEPLOT
 70
     0
102
SHADEPLOTRESLEVEL
 70
     2
102
SHADEPLOTCUSTOMDPI
 70
   300
  0
XRECORD
  5
38B5
102
{ACAD_REACTORS
330
38B4
102
}
330
38B4
100
AcDbXrecord
280
     1
102
SHADEPLOT
 70
     0
102
SHADEPLOTRESLEVEL
 70
     2
102
SHADEPLOTCUSTOMDPI
 70
   300
  0
XRECORD
  5
38B7
102
{ACAD_REACTORS
330
38B6
102
}
330
38B6
100
AcDbXrecord
280
     1
102
SHADEPLOT
 70
     0
102
SHADEPLOTRESLEVEL
 70
     2
102
SHADEPLOTCUSTOMDPI
 70
   300
  0
XRECORD
  5
C5A
102
{ACAD_REACTORS
330
C59
102
}
330
C59
100
AcDbXrecord
280
     1
102
MATERIAL
148
0.0
149
0.0
149
0.0
 93
        0
 94
      127
282
     0
 72
     1
 77
     1
171
     1
175
     1
179
     1
273
     0
  0
XRECORD
  5
C58
102
{ACAD_REACTORS
330
C57
102
}
330
C57
100
AcDbXrecord
280
     1
102
MATERIAL
148
0.0
149
0.0
149
0.0
 93
        0
 94
      127
282
     0
 72
     1
 77
     1
171
     1
175
     1
179
     1
273
     0
  0
XRECORD
  5
C5C
102
{ACAD_REACTORS
330
C5B
102
}
330
C5B
100
AcDbXrecord
280
     1
102
MATERIAL
148
0.0
149
0.0
149
0.0
 93
        0
 94
      127
282
     0
 72
     1
 77
     1
171
     1
175
     1
179
     1
273
     0
  0
CELLSTYLEMAP
  5
38AB
102
{ACAD_REACTORS
330
C48
102
}
330
C48
100
AcDbCellStyleMap
 90
        3
300
CELLSTYLE
  1
TABLEFORMAT_BEGIN
 90
        5
170
     1
 91
        0
 92
    32768
 62
   257
 93
        1
300
CONTENTFORMAT
  1
CONTENTFORMAT_BEGIN
 90
        0
 91
        0
 92
      512
 93
        0
300

 40
0.0
140
1.0
 94
        5
 62
     0
340
11
144
0.25
309
CONTENTFORMAT_END
171
     1
301
MARGIN
  1
CELLMARGIN_BEGIN
 40
0.06
 40
0.06
 40
0.06
 40
0.06
 40
0.18
 40
0.18
309
CELLMARGIN_END
 94
        6
 95
        1
302
GRIDFORMAT
  1
GRIDFORMAT_BEGIN
 90
        0
 91
        1
 62
     0
 92
       -2
340
0
 93
        0
 40
0.045
309
GRIDFORMAT_END
 95
        2
302
GRIDFORMAT
  1
GRIDFORMAT_BEGIN
 90
        0
 91
        1
 62
     0
 92
       -2
340
0
 93
        0
 40
0.045
309
GRIDFORMAT_END
 95
        4
302
GRIDFORMAT
  1
GRIDFORMAT_BEGIN
 90
        0
 91
        1
 62
     0
 92
       -2
340
0
 93
        0
 40
0.045
309
GRIDFORMAT_END
 95
        8
302
GRIDFORMAT
  1
GRIDFORMAT_BEGIN
 90
        0
 91
        1
 62
     0
 92
       -2
340
0
 93
        0
 40
0.045
309
GRIDFORMAT_END
 95
       16
302
GRIDFORMAT
  1
GRIDFORMAT_BEGIN
 90
        0
 91
        1
 62
     0
 92
       -2
340
0
 93
        0
 40
0.045
309
GRIDFORMAT_END
 95
       32
302
GRIDFORMAT
  1
GRIDFORMAT_BEGIN
 90
        0
 91
        1
 62
     0
 92
       -2
340
0
 93
        0
 40
0.045
309
GRIDFORMAT_END
309
TABLEFORMAT_END
  1
CELLSTYLE_BEGIN
 90
        1
 91
        1
300
_TITLE
309
CELLSTYLE_END
300
CELLSTYLE
  1
TABLEFORMAT_BEGIN
 90
        5
170
     1
 91
        0
 92
        0
 62
   257
 93
        1
300
CONTENTFORMAT
  1
CONTENTFORMAT_BEGIN
 90
        0
 91
        0
 92
      512
 93
        0
300

 40
0.0
140
1.0
 94
        5
 62
     0
340
11
144
0.18
309
CONTENTFORMAT_END
171
     1
301
MARGIN
  1
CELLMARGIN_BEGIN
 40
0.06
 40
0.06
 40
0.06
 40
0.06
 40
0.18
 40
0.18
309
CELLMARGIN_END
 94
        6
 95
        1
302
GRIDFORMAT
  1
GRIDFORMAT_BEGIN
 90
        0
 91
        1
 62
     0
 92
       -2
340
0
 93
        0
 40
0.045
309
GRIDFORMAT_END
 95
        2
302
GRIDFORMAT
  1
GRIDFORMAT_BEGIN
 90
        0
 91
        1
 62
     0
 92
       -2
340
0
 93
        0
 40
0.045
309
GRIDFORMAT_END
 95
        4
302
GRIDFORMAT
  1
GRIDFORMAT_BEGIN
 90
        0
 91
        1
 62
     0
 92
       -2
340
0
 93
        0
 40
0.045
309
GRIDFORMAT_END
 95
        8
302
GRIDFORMAT
  1
GRIDFORMAT_BEGIN
 90
        0
 91
        1
 62
     0
 92
       -2
340
0
 93
        0
 40
0.045
309
GRIDFORMAT_END
 95
       16
302
GRIDFORMAT
  1
GRIDFORMAT_BEGIN
 90
        0
 91
        1
 62
     0
 92
       -2
340
0
 93
        0
 40
0.045
309
GRIDFORMAT_END
 95
       32
302
GRIDFORMAT
  1
GRIDFORMAT_BEGIN
 90
        0
 91
        1
 62
     0
 92
       -2
340
0
 93
        0
 40
0.045
309
GRIDFORMAT_END
309
TABLEFORMAT_END
  1
CELLSTYLE_BEGIN
 90
        2
 91
        1
300
_HEADER
309
CELLSTYLE_END
300
CELLSTYLE
  1
TABLEFORMAT_BEGIN
 90
        5
170
     1
 91
        0
 92
        0
 62
   257
 93
        1
300
CONTENTFORMAT
  1
CONTENTFORMAT_BEGIN
 90
        0
 91
        0
 92
      512
 93
        0
300

 40
0.0
140
1.0
 94
        2
 62
     0
340
11
144
0.18
309
CONTENTFORMAT_END
171
     1
301
MARGIN
  1
CELLMARGIN_BEGIN
 40
0.06
 40
0.06
 40
0.06
 40
0.06
 40
0.18
 40
0.18
309
CELLMARGIN_END
 94
        6
 95
        1
302
GRIDFORMAT
  1
GRIDFORMAT_BEGIN
 90
        0
 91
        1
 62
     0
 92
       -2
340
0
 93
        0
 40
0.045
309
GRIDFORMAT_END
 95
        2
302
GRIDFORMAT
  1
GRIDFORMAT_BEGIN
 90
        0
 91
        1
 62
     0
 92
       -2
340
0
 93
        0
 40
0.045
309
GRIDFORMAT_END
 95
        4
302
GRIDFORMAT
  1
GRIDFORMAT_BEGIN
 90
        0
 91
        1
 62
     0
 92
       -2
340
0
 93
        0
 40
0.045
309
GRIDFORMAT_END
 95
        8
302
GRIDFORMAT
  1
GRIDFORMAT_BEGIN
 90
        0
 91
        1
 62
     0
 92
       -2
340
0
 93
        0
 40
0.045
309
GRIDFORMAT_END
 95
       16
302
GRIDFORMAT
  1
GRIDFORMAT_BEGIN
 90
        0
 91
        1
 62
     0
 92
       -2
340
0
 93
        0
 40
0.045
309
GRIDFORMAT_END
 95
       32
302
GRIDFORMAT
  1
GRIDFORMAT_BEGIN
 90
        0
 91
        1
 62
     0
 92
       -2
340
0
 93
        0
 40
0.045
309
GRIDFORMAT_END
309
TABLEFORMAT_END
  1
CELLSTYLE_BEGIN
 90
        3
 91
        2
300
_DATA
309
CELLSTYLE_END
  0
XRECORD
  5
38B8
102
{ACAD_REACTORS
330
C48
102
}
330
C48
100
AcDbXrecord
280
     1
102
ACAD_ROUNDTRIP_PRE2007_TABLESTYLE
 90
      512
 91
        0
  1

 92
      512
 93
        0
  2

 94
      512
 95
        0
  3

  0
XRECORD
  5
38C4
102
{ACAD_REACTORS
330
38C3
102
}
330
38C3
100
AcDbXrecord
280
     1
102
RTVSPropertyOp0
 70
     1
102
RTVSPropertyOp1
 70
     1
102
RTVSPropertyOp2
 70
     1
102
RTVSPropertyOp3
 70
     1
102
RTVSPropertyOp4
 70
     1
102
RTVSPropertyOp5
 70
     1
102
RTVSPropertyOp6
 70
     1
102
RTVSPropertyOp7
 70
     1
102
RTVSPropertyOp8
 70
     1
102
RTVSPropertyOp9
 70
     1
102
RTVSPropertyOp10
 70
     1
102
RTVSPropertyOp11
 70
     1
102
RTVSPropertyOp12
 70
     1
102
RTVSPropertyOp13
 70
     1
102
RTVSPropertyOp14
 70
     1
102
RTVSPropertyOp15
 70
     1
102
RTVSPropertyOp16
 70
     1
102
RTVSPropertyOp17
 70
     1
102
RTVSPropertyOp18
 70
     1
102
RTVSPropertyOp19
 70
     1
102
RTVSPropertyOp20
 70
     1
102
RTVSPropertyOp21
 70
     1
102
RTVSPropertyOp22
 70
     1
102
RTVSPropertyOp23
 70
     1
102
RTVSPropertyOp24
 70
     1
102
RTVSPropertyOp25
 70
     1
102
RTVSPropertyOp26
 70
     1
102
RTVSPropertyOp27
 70
     1
102
RTVSPropertyOp28
 70
     1
102
RTVSPropertyOp29
 70
     1
102
RTVSPropertyOp30
 70
     1
102
RTVSPropertyOp31
 70
     1
102
RTVSPropertyOp32
 70
     1
  0
XRECORD
  5
38C8
102
{ACAD_REACTORS
330
38C7
102
}
330
38C7
100
AcDbXrecord
280
     1
102
RTVSPropertyOp0
 70
     1
102
RTVSPropertyOp1
 70
     1
102
RTVSPropertyOp2
 70
     1
102
RTVSPropertyOp3
 70
     1
102
RTVSPropertyOp4
 70
     1
102
RTVSPropertyOp5
 70
     1
102
RTVSPropertyOp6
 70
     1
102
RTVSPropertyOp7
 70
     1
102
RTVSPropertyOp8
 70
     1
102
RTVSPropertyOp9
 70
     1
102
RTVSPropertyOp10
 70
     1
102
RTVSPropertyOp11
 70
     1
102
RTVSPropertyOp12
 70
     1
102
RTVSPropertyOp13
 70
     1
102
RTVSPropertyOp14
 70
     1
102
RTVSPropertyOp15
 70
     1
102
RTVSPropertyOp16
 70
     1
102
RTVSPropertyOp17
 70
     1
102
RTVSPropertyOp18
 70
     1
102
RTVSPropertyOp19
 70
     1
102
RTVSPropertyOp20
 70
     1
102
RTVSPropertyOp21
 70
     1
102
RTVSPropertyOp22
 70
     1
102
RTVSPropertyOp23
 70
     1
102
RTVSPropertyOp24
 70
     1
102
RTVSPropertyOp25
 70
     1
102
RTVSPropertyOp26
 70
     1
102
RTVSPropertyOp27
 70
     1
102
RTVSPropertyOp28
 70
     1
102
RTVSPropertyOp29
 70
     1
102
RTVSPropertyOp30
 70
     1
102
RTVSPropertyOp31
 70
     1
102
RTVSPropertyOp32
 70
     1
  0
XRECORD
  5
38C6
102
{ACAD_REACTORS
330
38C5
102
}
330
38C5
100
AcDbXrecord
280
     1
102
RTVSPropertyOp0
 70
     1
102
RTVSPropertyOp1
 70
     1
102
RTVSPropertyOp2
 70
     1
102
RTVSPropertyOp3
 70
     1
102
RTVSPropertyOp4
 70
     1
102
RTVSPropertyOp5
 70
     1
102
RTVSPropertyOp6
 70
     1
102
RTVSPropertyOp7
 70
     1
102
RTVSPropertyOp8
 70
     1
102
RTVSPropertyOp9
 70
     1
102
RTVSPropertyOp10
 70
     1
102
RTVSPropertyOp11
 70
     1
102
RTVSPropertyOp12
 70
     1
102
RTVSPropertyOp13
 70
     1
102
RTVSPropertyOp14
 70
     1
102
RTVSPropertyOp15
 70
     1
102
RTVSPropertyOp16
 70
     1
102
RTVSPropertyOp17
 70
     1
102
RTVSPropertyOp18
 70
     1
102
RTVSPropertyOp19
 70
     1
102
RTVSPropertyOp20
 70
     1
102
RTVSPropertyOp21
 70
     1
102
RTVSPropertyOp22
 70
     1
102
RTVSPropertyOp23
 70
     1
102
RTVSPropertyOp24
 70
     1
102
RTVSPropertyOp25
 70
     1
102
RTVSPropertyOp26
 70
     1
102
RTVSPropertyOp27
 70
     1
102
RTVSPropertyOp28
 70
     1
102
RTVSPropertyOp29
 70
     1
102
RTVSPropertyOp30
 70
     1
102
RTVSPropertyOp31
 70
     1
102
RTVSPropertyOp32
 70
     1
  0
XRECORD
  5
38C2
102
{ACAD_REACTORS
330
38C1
102
}
330
38C1
100
AcDbXrecord
280
     1
102
RTVSPropertyOp0
 70
     1
102
RTVSPropertyOp1
 70
     1
102
RTVSPropertyOp2
 70
     1
102
RTVSPropertyOp3
 70
     1
102
RTVSPropertyOp4
 70
     1
102
RTVSPropertyOp5
 70
     1
102
RTVSPropertyOp6
 70
     1
102
RTVSPropertyOp7
 70
     1
102
RTVSPropertyOp8
 70
     1
102
RTVSPropertyOp9
 70
     1
102
RTVSPropertyOp10
 70
     1
102
RTVSPropertyOp11
 70
     1
102
RTVSPropertyOp12
 70
     1
102
RTVSPropertyOp13
 70
     1
102
RTVSPropertyOp14
 70
     1
102
RTVSPropertyOp15
 70
     1
102
RTVSPropertyOp16
 70
     1
102
RTVSPropertyOp17
 70
     1
102
RTVSPropertyOp18
 70
     1
102
RTVSPropertyOp19
 70
     1
102
RTVSPropertyOp20
 70
     1
102
RTVSPropertyOp21
 70
     1
102
RTVSPropertyOp22
 70
     1
102
RTVSPropertyOp23
 70
     1
102
RTVSPropertyOp24
 70
     1
102
RTVSPropertyOp25
 70
     1
102
RTVSPropertyOp26
 70
     1
102
RTVSPropertyOp27
 70
     1
102
RTVSPropertyOp28
 70
     1
102
RTVSPropertyOp29
 70
     1
102
RTVSPropertyOp30
 70
     1
102
RTVSPropertyOp31
 70
     1
102
RTVSPropertyOp32
 70
     1
  0
XRECORD
  5
38D0
102
{ACAD_REACTORS
330
38CF
102
}
330
38CF
100
AcDbXrecord
280
     1
102
RTVSPropertyOp0
 70
     1
102
RTVSPropertyOp1
 70
     1
102
RTVSPropertyOp2
 70
     1
102
RTVSPropertyOp3
 70
     1
102
RTVSPropertyOp4
 70
     1
102
RTVSPropertyOp5
 70
     1
102
RTVSPropertyOp6
 70
     1
102
RTVSPropertyOp7
 70
     1
102
RTVSPropertyOp8
 70
     1
102
RTVSPropertyOp9
 70
     1
102
RTVSPropertyOp10
 70
     1
102
RTVSPropertyOp11
 70
     1
102
RTVSPropertyOp12
 70
     1
102
RTVSPropertyOp13
 70
     1
102
RTVSPropertyOp14
 70
     1
102
RTVSPropertyOp15
 70
     1
102
RTVSPropertyOp16
 70
     1
102
RTVSPropertyOp17
 70
     1
102
RTVSPropertyOp18
 70
     1
102
RTVSPropertyOp19
 70
     1
102
RTVSPropertyOp20
 70
     1
102
RTVSPropertyOp21
 70
     1
102
RTVSPropertyOp22
 70
     1
102
RTVSPropertyOp23
 70
     1
102
RTVSPropertyOp24
 70
     1
102
RTVSPropertyOp25
 70
     1
102
RTVSPropertyOp26
 70
     1
102
RTVSPropertyOp27
 70
     1
102
RTVSPropertyOp28
 70
     1
102
RTVSPropertyOp29
 70
     1
102
RTVSPropertyOp30
 70
     1
102
RTVSPropertyOp31
 70
     1
102
RTVSPropertyOp32
 70
     1
  0
XRECORD
  5
38D8
102
{ACAD_REACTORS
330
38D7
102
}
330
38D7
100
AcDbXrecord
280
     1
102
RTVSPropertyOp0
 70
     1
102
RTVSPropertyOp1
 70
     1
102
RTVSPropertyOp2
 70
     1
102
RTVSPropertyOp3
 70
     1
102
RTVSPropertyOp4
 70
     1
102
RTVSPropertyOp5
 70
     1
102
RTVSPropertyOp6
 70
     1
102
RTVSPropertyOp7
 70
     1
102
RTVSPropertyOp8
 70
     1
102
RTVSPropertyOp9
 70
     1
102
RTVSPropertyOp10
 70
     1
102
RTVSPropertyOp11
 70
     1
102
RTVSPropertyOp12
 70
     1
102
RTVSPropertyOp13
 70
     1
102
RTVSPropertyOp14
 70
     1
102
RTVSPropertyOp15
 70
     1
102
RTVSPropertyOp16
 70
     1
102
RTVSPropertyOp17
 70
     1
102
RTVSPropertyOp18
 70
     1
102
RTVSPropertyOp19
 70
     1
102
RTVSPropertyOp20
 70
     1
102
RTVSPropertyOp21
 70
     1
102
RTVSPropertyOp22
 70
     1
102
RTVSPropertyOp23
 70
     1
102
RTVSPropertyOp24
 70
     1
102
RTVSPropertyOp25
 70
     1
102
RTVSPropertyOp26
 70
     1
102
RTVSPropertyOp27
 70
     1
102
RTVSPropertyOp28
 70
     1
102
RTVSPropertyOp29
 70
     1
102
RTVSPropertyOp30
 70
     1
102
RTVSPropertyOp31
 70
     1
102
RTVSPropertyOp32
 70
     1
  0
XRECORD
  5
38CA
102
{ACAD_REACTORS
330
38C9
102
}
330
38C9
100
AcDbXrecord
280
     1
102
RTVSPropertyOp0
 70
     1
102
RTVSPropertyOp1
 70
     1
102
RTVSPropertyOp2
 70
     1
102
RTVSPropertyOp3
 70
     1
102
RTVSPropertyOp4
 70
     1
102
RTVSPropertyOp5
 70
     1
102
RTVSPropertyOp6
 70
     1
102
RTVSPropertyOp7
 70
     1
102
RTVSPropertyOp8
 70
     1
102
RTVSPropertyOp9
 70
     1
102
RTVSPropertyOp10
 70
     1
102
RTVSPropertyOp11
 70
     1
102
RTVSPropertyOp12
 70
     1
102
RTVSPropertyOp13
 70
     1
102
RTVSPropertyOp14
 70
     1
102
RTVSPropertyOp15
 70
     1
102
RTVSPropertyOp16
 70
     1
102
RTVSPropertyOp17
 70
     1
102
RTVSPropertyOp18
 70
     1
102
RTVSPropertyOp19
 70
     1
102
RTVSPropertyOp20
 70
     1
102
RTVSPropertyOp21
 70
     1
102
RTVSPropertyOp22
 70
     1
102
RTVSPropertyOp23
 70
     1
102
RTVSPropertyOp24
 70
     1
102
RTVSPropertyOp25
 70
     1
102
RTVSPropertyOp26
 70
     1
102
RTVSPropertyOp27
 70
     1
102
RTVSPropertyOp28
 70
     1
102
RTVSPropertyOp29
 70
     1
102
RTVSPropertyOp30
 70
     1
102
RTVSPropertyOp31
 70
     1
102
RTVSPropertyOp32
 70
     1
  0
XRECORD
  5
38CE
102
{ACAD_REACTORS
330
38CD
102
}
330
38CD
100
AcDbXrecord
280
     1
102
RTVSPropertyOp0
 70
     1
102
RTVSPropertyOp1
 70
     1
102
RTVSPropertyOp2
 70
     1
102
RTVSPropertyOp3
 70
     1
102
RTVSPropertyOp4
 70
     1
102
RTVSPropertyOp5
 70
     1
102
RTVSPropertyOp6
 70
     1
102
RTVSPropertyOp7
 70
     1
102
RTVSPropertyOp8
 70
     1
102
RTVSPropertyOp9
 70
     1
102
RTVSPropertyOp10
 70
     1
102
RTVSPropertyOp11
 70
     1
102
RTVSPropertyOp12
 70
     1
102
RTVSPropertyOp13
 70
     1
102
RTVSPropertyOp14
 70
     1
102
RTVSPropertyOp15
 70
     1
102
RTVSPropertyOp16
 70
     1
102
RTVSPropertyOp17
 70
     1
102
RTVSPropertyOp18
 70
     1
102
RTVSPropertyOp19
 70
     1
102
RTVSPropertyOp20
 70
     1
102
RTVSPropertyOp21
 70
     1
102
RTVSPropertyOp22
 70
     1
102
RTVSPropertyOp23
 70
     1
102
RTVSPropertyOp24
 70
     1
102
RTVSPropertyOp25
 70
     1
102
RTVSPropertyOp26
 70
     1
102
RTVSPropertyOp27
 70
     1
102
RTVSPropertyOp28
 70
     1
102
RTVSPropertyOp29
 70
     1
102
RTVSPropertyOp30
 70
     1
102
RTVSPropertyOp31
 70
     1
102
RTVSPropertyOp32
 70
     1
  0
XRECORD
  5
38EC
102
{ACAD_REACTORS
330
38EB
102
}
330
38EB
100
AcDbXrecord
280
     1
102
RTVSPropertyOp0
 70
     0
102
RTVSPropertyOp1
 70
     0
102
RTVSPropertyOp2
 70
     0
102
RTVSPropertyOp3
 70
     0
102
RTVSPropertyOp4
 70
     0
102
RTVSPropertyOp5
 70
     0
102
RTVSPropertyOp6
 70
     0
102
RTVSPropertyOp7
 70
     0
102
RTVSPropertyOp8
 70
     0
102
RTVSPropertyOp9
 70
     0
102
RTVSPropertyOp10
 70
     0
102
RTVSPropertyOp11
 70
     0
102
RTVSPropertyOp12
 70
     0
102
RTVSPropertyOp13
 70
     0
102
RTVSPropertyOp14
 70
     2
102
RTVSPropertyOp15
 70
     0
102
RTVSPropertyOp16
 70
     0
102
RTVSPropertyOp17
 70
     0
102
RTVSPropertyOp18
 70
     0
102
RTVSPropertyOp19
 70
     0
102
RTVSPropertyOp20
 70
     0
102
RTVSPropertyOp21
 70
     0
102
RTVSPropertyOp22
 70
     0
102
RTVSPropertyOp23
 70
     0
102
RTVSPropertyOp24
 70
     0
102
RTVSPropertyOp25
 70
     0
102
RTVSPropertyOp26
 70
     0
102
RTVSPropertyOp27
 70
     0
102
RTVSPropertyOp28
 70
     1
102
RTVSPropertyOp29
 70
     1
102
RTVSPropertyOp30
 70
     1
102
RTVSPropertyOp31
 70
     1
102
RTVSPropertyOp32
 70
     1
  0
XRECORD
  5
38D6
102
{ACAD_REACTORS
330
38D5
102
}
330
38D5
100
AcDbXrecord
280
     1
102
RTVSPropertyOp0
 70
     1
102
RTVSPropertyOp1
 70
     1
102
RTVSPropertyOp2
 70
     1
102
RTVSPropertyOp3
 70
     1
102
RTVSPropertyOp4
 70
     1
102
RTVSPropertyOp5
 70
     1
102
RTVSPropertyOp6
 70
     1
102
RTVSPropertyOp7
 70
     1
102
RTVSPropertyOp8
 70
     1
102
RTVSPropertyOp9
 70
     1
102
RTVSPropertyOp10
 70
     1
102
RTVSPropertyOp11
 70
     1
102
RTVSPropertyOp12
 70
     1
102
RTVSPropertyOp13
 70
     1
102
RTVSPropertyOp14
 70
     1
102
RTVSPropertyOp15
 70
     1
102
RTVSPropertyOp16
 70
     1
102
RTVSPropertyOp17
 70
     1
102
RTVSPropertyOp18
 70
     1
102
RTVSPropertyOp19
 70
     1
102
RTVSPropertyOp20
 70
     1
102
RTVSPropertyOp21
 70
     1
102
RTVSPropertyOp22
 70
     1
102
RTVSPropertyOp23
 70
     1
102
RTVSPropertyOp24
 70
     1
102
RTVSPropertyOp25
 70
     1
102
RTVSPropertyOp26
 70
     1
102
RTVSPropertyOp27
 70
     1
102
RTVSPropertyOp28
 70
     1
102
RTVSPropertyOp29
 70
     1
102
RTVSPropertyOp30
 70
     1
102
RTVSPropertyOp31
 70
     1
102
RTVSPropertyOp32
 70
     1
  0
XRECORD
  5
38BA
102
{ACAD_REACTORS
330
38B9
102
}
330
38B9
100
AcDbXrecord
280
     1
102
RTVSPropertyOp0
 70
     1
102
RTVSPropertyOp1
 70
     1
102
RTVSPropertyOp2
 70
     1
102
RTVSPropertyOp3
 70
     1
102
RTVSPropertyOp4
 70
     1
102
RTVSPropertyOp5
 70
     1
102
RTVSPropertyOp6
 70
     1
102
RTVSPropertyOp7
 70
     1
102
RTVSPropertyOp8
 70
     1
102
RTVSPropertyOp9
 70
     1
102
RTVSPropertyOp10
 70
     1
102
RTVSPropertyOp11
 70
     1
102
RTVSPropertyOp12
 70
     1
102
RTVSPropertyOp13
 70
     1
102
RTVSPropertyOp14
 70
     1
102
RTVSPropertyOp15
 70
     1
102
RTVSPropertyOp16
 70
     1
102
RTVSPropertyOp17
 70
     1
102
RTVSPropertyOp18
 70
     1
102
RTVSPropertyOp19
 70
     1
102
RTVSPropertyOp20
 70
     1
102
RTVSPropertyOp21
 70
     1
102
RTVSPropertyOp22
 70
     1
102
RTVSPropertyOp23
 70
     1
102
RTVSPropertyOp24
 70
     1
102
RTVSPropertyOp25
 70
     1
102
RTVSPropertyOp26
 70
     1
102
RTVSPropertyOp27
 70
     1
102
RTVSPropertyOp28
 70
     1
102
RTVSPropertyOp29
 70
     1
102
RTVSPropertyOp30
 70
     1
102
RTVSPropertyOp31
 70
     1
102
RTVSPropertyOp32
 70
     1
  0
XRECORD
  5
38BC
102
{ACAD_REACTORS
330
38BB
102
}
330
38BB
100
AcDbXrecord
280
     1
102
RTVSPropertyOp0
 70
     1
102
RTVSPropertyOp1
 70
     1
102
RTVSPropertyOp2
 70
     1
102
RTVSPropertyOp3
 70
     1
102
RTVSPropertyOp4
 70
     1
102
RTVSPropertyOp5
 70
     1
102
RTVSPropertyOp6
 70
     1
102
RTVSPropertyOp7
 70
     1
102
RTVSPropertyOp8
 70
     1
102
RTVSPropertyOp9
 70
     1
102
RTVSPropertyOp10
 70
     1
102
RTVSPropertyOp11
 70
     1
102
RTVSPropertyOp12
 70
     1
102
RTVSPropertyOp13
 70
     1
102
RTVSPropertyOp14
 70
     1
102
RTVSPropertyOp15
 70
     1
102
RTVSPropertyOp16
 70
     1
102
RTVSPropertyOp17
 70
     1
102
RTVSPropertyOp18
 70
     1
102
RTVSPropertyOp19
 70
     1
102
RTVSPropertyOp20
 70
     1
102
RTVSPropertyOp21
 70
     1
102
RTVSPropertyOp22
 70
     1
102
RTVSPropertyOp23
 70
     1
102
RTVSPropertyOp24
 70
     1
102
RTVSPropertyOp25
 70
     1
102
RTVSPropertyOp26
 70
     1
102
RTVSPropertyOp27
 70
     1
102
RTVSPropertyOp28
 70
     1
102
RTVSPropertyOp29
 70
     1
102
RTVSPropertyOp30
 70
     1
102
RTVSPropertyOp31
 70
     1
102
RTVSPropertyOp32
 70
     1
  0
XRECORD
  5
38BE
102
{ACAD_REACTORS
330
38BD
102
}
330
38BD
100
AcDbXrecord
280
     1
102
RTVSPropertyOp0
 70
     1
102
RTVSPropertyOp1
 70
     1
102
RTVSPropertyOp2
 70
     1
102
RTVSPropertyOp3
 70
     1
102
RTVSPropertyOp4
 70
     1
102
RTVSPropertyOp5
 70
     1
102
RTVSPropertyOp6
 70
     1
102
RTVSPropertyOp7
 70
     1
102
RTVSPropertyOp8
 70
     1
102
RTVSPropertyOp9
 70
     1
102
RTVSPropertyOp10
 70
     1
102
RTVSPropertyOp11
 70
     1
102
RTVSPropertyOp12
 70
     1
102
RTVSPropertyOp13
 70
     1
102
RTVSPropertyOp14
 70
     1
102
RTVSPropertyOp15
 70
     1
102
RTVSPropertyOp16
 70
     1
102
RTVSPropertyOp17
 70
     1
102
RTVSPropertyOp18
 70
     1
102
RTVSPropertyOp19
 70
     1
102
RTVSPropertyOp20
 70
     1
102
RTVSPropertyOp21
 70
     1
102
RTVSPropertyOp22
 70
     1
102
RTVSPropertyOp23
 70
     1
102
RTVSPropertyOp24
 70
     1
102
RTVSPropertyOp25
 70
     1
102
RTVSPropertyOp26
 70
     1
102
RTVSPropertyOp27
 70
     1
102
RTVSPropertyOp28
 70
     1
102
RTVSPropertyOp29
 70
     1
102
RTVSPropertyOp30
 70
     1
102
RTVSPropertyOp31
 70
     1
102
RTVSPropertyOp32
 70
     1
  0
XRECORD
  5
38C0
102
{ACAD_REACTORS
330
38BF
102
}
330
38BF
100
AcDbXrecord
280
     1
102
RTVSPropertyOp0
 70
     1
102
RTVSPropertyOp1
 70
     1
102
RTVSPropertyOp2
 70
     1
102
RTVSPropertyOp3
 70
     1
102
RTVSPropertyOp4
 70
     1
102
RTVSPropertyOp5
 70
     1
102
RTVSPropertyOp6
 70
     1
102
RTVSPropertyOp7
 70
     1
102
RTVSPropertyOp8
 70
     1
102
RTVSPropertyOp9
 70
     1
102
RTVSPropertyOp10
 70
     1
102
RTVSPropertyOp11
 70
     1
102
RTVSPropertyOp12
 70
     1
102
RTVSPropertyOp13
 70
     1
102
RTVSPropertyOp14
 70
     1
102
RTVSPropertyOp15
 70
     1
102
RTVSPropertyOp16
 70
     1
102
RTVSPropertyOp17
 70
     1
102
RTVSPropertyOp18
 70
     1
102
RTVSPropertyOp19
 70
     1
102
RTVSPropertyOp20
 70
     1
102
RTVSPropertyOp21
 70
     1
102
RTVSPropertyOp22
 70
     1
102
RTVSPropertyOp23
 70
     1
102
RTVSPropertyOp24
 70
     1
102
RTVSPropertyOp25
 70
     1
102
RTVSPropertyOp26
 70
     1
102
RTVSPropertyOp27
 70
     1
102
RTVSPropertyOp28
 70
     1
102
RTVSPropertyOp29
 70
     1
102
RTVSPropertyOp30
 70
     1
102
RTVSPropertyOp31
 70
     1
102
RTVSPropertyOp32
 70
     1
  0
XRECORD
  5
38DC
102
{ACAD_REACTORS
330
38DB
102
}
330
38DB
100
AcDbXrecord
280
     1
102
RTVSPropertyOp0
 70
     1
102
RTVSPropertyOp1
 70
     1
102
RTVSPropertyOp2
 70
     1
102
RTVSPropertyOp3
 70
     1
102
RTVSPropertyOp4
 70
     1
102
RTVSPropertyOp5
 70
     1
102
RTVSPropertyOp6
 70
     1
102
RTVSPropertyOp7
 70
     1
102
RTVSPropertyOp8
 70
     1
102
RTVSPropertyOp9
 70
     1
102
RTVSPropertyOp10
 70
     1
102
RTVSPropertyOp11
 70
     1
102
RTVSPropertyOp12
 70
     1
102
RTVSPropertyOp13
 70
     1
102
RTVSPropertyOp14
 70
     1
102
RTVSPropertyOp15
 70
     1
102
RTVSPropertyOp16
 70
     1
102
RTVSPropertyOp17
 70
     1
102
RTVSPropertyOp18
 70
     1
102
RTVSPropertyOp19
 70
     1
102
RTVSPropertyOp20
 70
     1
102
RTVSPropertyOp21
 70
     1
102
RTVSPropertyOp22
 70
     1
102
RTVSPropertyOp23
 70
     1
102
RTVSPropertyOp24
 70
     1
102
RTVSPropertyOp25
 70
     1
102
RTVSPropertyOp26
 70
     1
102
RTVSPropertyOp27
 70
     1
102
RTVSPropertyOp28
 70
     1
102
RTVSPropertyOp29
 70
     1
102
RTVSPropertyOp30
 70
     1
102
RTVSPropertyOp31
 70
     1
102
RTVSPropertyOp32
 70
     1
  0
XRECORD
  5
38E8
102
{ACAD_REACTORS
330
38E7
102
}
330
38E7
100
AcDbXrecord
280
     1
102
RTVSPropertyOp0
 70
     0
102
RTVSPropertyOp1
 70
     0
102
RTVSPropertyOp2
 70
     0
102
RTVSPropertyOp3
 70
     0
102
RTVSPropertyOp4
 70
     0
102
RTVSPropertyOp5
 70
     0
102
RTVSPropertyOp6
 70
     0
102
RTVSPropertyOp7
 70
     0
102
RTVSPropertyOp8
 70
     0
102
RTVSPropertyOp9
 70
     0
102
RTVSPropertyOp10
 70
     0
102
RTVSPropertyOp11
 70
     0
102
RTVSPropertyOp12
 70
     0
102
RTVSPropertyOp13
 70
     0
102
RTVSPropertyOp14
 70
     2
102
RTVSPropertyOp15
 70
     0
102
RTVSPropertyOp16
 70
     0
102
RTVSPropertyOp17
 70
     0
102
RTVSPropertyOp18
 70
     0
102
RTVSPropertyOp19
 70
     0
102
RTVSPropertyOp20
 70
     0
102
RTVSPropertyOp21
 70
     0
102
RTVSPropertyOp22
 70
     0
102
RTVSPropertyOp23
 70
     0
102
RTVSPropertyOp24
 70
     0
102
RTVSPropertyOp25
 70
     0
102
RTVSPropertyOp26
 70
     0
102
RTVSPropertyOp27
 70
     0
102
RTVSPropertyOp28
 70
     1
102
RTVSPropertyOp29
 70
     1
102
RTVSPropertyOp30
 70
     1
102
RTVSPropertyOp31
 70
     1
102
RTVSPropertyOp32
 70
     1
  0
XRECORD
  5
38D4
102
{ACAD_REACTORS
330
38D3
102
}
330
38D3
100
AcDbXrecord
280
     1
102
RTVSPropertyOp0
 70
     1
102
RTVSPropertyOp1
 70
     1
102
RTVSPropertyOp2
 70
     1
102
RTVSPropertyOp3
 70
     1
102
RTVSPropertyOp4
 70
     1
102
RTVSPropertyOp5
 70
     1
102
RTVSPropertyOp6
 70
     1
102
RTVSPropertyOp7
 70
     1
102
RTVSPropertyOp8
 70
     1
102
RTVSPropertyOp9
 70
     1
102
RTVSPropertyOp10
 70
     1
102
RTVSPropertyOp11
 70
     1
102
RTVSPropertyOp12
 70
     1
102
RTVSPropertyOp13
 70
     1
102
RTVSPropertyOp14
 70
     1
102
RTVSPropertyOp15
 70
     1
102
RTVSPropertyOp16
 70
     1
102
RTVSPropertyOp17
 70
     1
102
RTVSPropertyOp18
 70
     1
102
RTVSPropertyOp19
 70
     1
102
RTVSPropertyOp20
 70
     1
102
RTVSPropertyOp21
 70
     1
102
RTVSPropertyOp22
 70
     1
102
RTVSPropertyOp23
 70
     1
102
RTVSPropertyOp24
 70
     1
102
RTVSPropertyOp25
 70
     1
102
RTVSPropertyOp26
 70
     1
102
RTVSPropertyOp27
 70
     1
102
RTVSPropertyOp28
 70
     1
102
RTVSPropertyOp29
 70
     1
102
RTVSPropertyOp30
 70
     1
102
RTVSPropertyOp31
 70
     1
102
RTVSPropertyOp32
 70
     1
  0
XRECORD
  5
38EA
102
{ACAD_REACTORS
330
38E9
102
}
330
38E9
100
AcDbXrecord
280
     1
102
RTVSPropertyOp0
 70
     0
102
RTVSPropertyOp1
 70
     0
102
RTVSPropertyOp2
 70
     0
102
RTVSPropertyOp3
 70
     0
102
RTVSPropertyOp4
 70
     0
102
RTVSPropertyOp5
 70
     0
102
RTVSPropertyOp6
 70
     0
102
RTVSPropertyOp7
 70
     0
102
RTVSPropertyOp8
 70
     0
102
RTVSPropertyOp9
 70
     0
102
RTVSPropertyOp10
 70
     0
102
RTVSPropertyOp11
 70
     0
102
RTVSPropertyOp12
 70
     0
102
RTVSPropertyOp13
 70
     0
102
RTVSPropertyOp14
 70
     2
102
RTVSPropertyOp15
 70
     0
102
RTVSPropertyOp16
 70
     0
102
RTVSPropertyOp17
 70
     0
102
RTVSPropertyOp18
 70
     0
102
RTVSPropertyOp19
 70
     0
102
RTVSPropertyOp20
 70
     0
102
RTVSPropertyOp21
 70
     0
102
RTVSPropertyOp22
 70
     0
102
RTVSPropertyOp23
 70
     0
102
RTVSPropertyOp24
 70
     0
102
RTVSPropertyOp25
 70
     0
102
RTVSPropertyOp26
 70
     0
102
RTVSPropertyOp27
 70
     0
102
RTVSPropertyOp28
 70
     1
102
RTVSPropertyOp29
 70
     1
102
RTVSPropertyOp30
 70
     1
102
RTVSPropertyOp31
 70
     1
102
RTVSPropertyOp32
 70
     1
  0
XRECORD
  5
38CC
102
{ACAD_REACTORS
330
38CB
102
}
330
38CB
100
AcDbXrecord
280
     1
102
RTVSPropertyOp0
 70
     1
102
RTVSPropertyOp1
 70
     1
102
RTVSPropertyOp2
 70
     1
102
RTVSPropertyOp3
 70
     1
102
RTVSPropertyOp4
 70
     1
102
RTVSPropertyOp5
 70
     1
102
RTVSPropertyOp6
 70
     1
102
RTVSPropertyOp7
 70
     1
102
RTVSPropertyOp8
 70
     1
102
RTVSPropertyOp9
 70
     1
102
RTVSPropertyOp10
 70
     1
102
RTVSPropertyOp11
 70
     1
102
RTVSPropertyOp12
 70
     1
102
RTVSPropertyOp13
 70
     1
102
RTVSPropertyOp14
 70
     1
102
RTVSPropertyOp15
 70
     1
102
RTVSPropertyOp16
 70
     1
102
RTVSPropertyOp17
 70
     1
102
RTVSPropertyOp18
 70
     1
102
RTVSPropertyOp19
 70
     1
102
RTVSPropertyOp20
 70
     1
102
RTVSPropertyOp21
 70
     1
102
RTVSPropertyOp22
 70
     1
102
RTVSPropertyOp23
 70
     1
102
RTVSPropertyOp24
 70
     1
102
RTVSPropertyOp25
 70
     1
102
RTVSPropertyOp26
 70
     1
102
RTVSPropertyOp27
 70
     1
102
RTVSPropertyOp28
 70
     1
102
RTVSPropertyOp29
 70
     1
102
RTVSPropertyOp30
 70
     1
102
RTVSPropertyOp31
 70
     1
102
RTVSPropertyOp32
 70
     1
  0
XRECORD
  5
38E6
102
{ACAD_REACTORS
330
38E5
102
}
330
38E5
100
AcDbXrecord
280
     1
102
RTVSPropertyOp0
 70
     1
102
RTVSPropertyOp1
 70
     1
102
RTVSPropertyOp2
 70
     1
102
RTVSPropertyOp3
 70
     1
102
RTVSPropertyOp4
 70
     1
102
RTVSPropertyOp5
 70
     1
102
RTVSPropertyOp6
 70
     1
102
RTVSPropertyOp7
 70
     1
102
RTVSPropertyOp8
 70
     1
102
RTVSPropertyOp9
 70
     1
102
RTVSPropertyOp10
 70
     1
102
RTVSPropertyOp11
 70
     1
102
RTVSPropertyOp12
 70
     1
102
RTVSPropertyOp13
 70
     1
102
RTVSPropertyOp14
 70
     1
102
RTVSPropertyOp15
 70
     1
102
RTVSPropertyOp16
 70
     1
102
RTVSPropertyOp17
 70
     1
102
RTVSPropertyOp18
 70
     1
102
RTVSPropertyOp19
 70
     1
102
RTVSPropertyOp20
 70
     1
102
RTVSPropertyOp21
 70
     1
102
RTVSPropertyOp22
 70
     1
102
RTVSPropertyOp23
 70
     1
102
RTVSPropertyOp24
 70
     1
102
RTVSPropertyOp25
 70
     1
102
RTVSPropertyOp26
 70
     1
102
RTVSPropertyOp27
 70
     1
102
RTVSPropertyOp28
 70
     1
102
RTVSPropertyOp29
 70
     1
102
RTVSPropertyOp30
 70
     1
102
RTVSPropertyOp31
 70
     1
102
RTVSPropertyOp32
 70
     1
  0
XRECORD
  5
38E4
102
{ACAD_REACTORS
330
38E3
102
}
330
38E3
100
AcDbXrecord
280
     1
102
RTVSPropertyOp0
 70
     1
102
RTVSPropertyOp1
 70
     1
102
RTVSPropertyOp2
 70
     1
102
RTVSPropertyOp3
 70
     1
102
RTVSPropertyOp4
 70
     1
102
RTVSPropertyOp5
 70
     1
102
RTVSPropertyOp6
 70
     1
102
RTVSPropertyOp7
 70
     1
102
RTVSPropertyOp8
 70
     1
102
RTVSPropertyOp9
 70
     1
102
RTVSPropertyOp10
 70
     1
102
RTVSPropertyOp11
 70
     1
102
RTVSPropertyOp12
 70
     1
102
RTVSPropertyOp13
 70
     1
102
RTVSPropertyOp14
 70
     1
102
RTVSPropertyOp15
 70
     1
102
RTVSPropertyOp16
 70
     1
102
RTVSPropertyOp17
 70
     1
102
RTVSPropertyOp18
 70
     1
102
RTVSPropertyOp19
 70
     1
102
RTVSPropertyOp20
 70
     1
102
RTVSPropertyOp21
 70
     1
102
RTVSPropertyOp22
 70
     1
102
RTVSPropertyOp23
 70
     1
102
RTVSPropertyOp24
 70
     1
102
RTVSPropertyOp25
 70
     1
102
RTVSPropertyOp26
 70
     1
102
RTVSPropertyOp27
 70
     1
102
RTVSPropertyOp28
 70
     1
102
RTVSPropertyOp29
 70
     1
102
RTVSPropertyOp30
 70
     1
102
RTVSPropertyOp31
 70
     1
102
RTVSPropertyOp32
 70
     1
  0
XRECORD
  5
38DE
102
{ACAD_REACTORS
330
38DD
102
}
330
38DD
100
AcDbXrecord
280
     1
102
RTVSPropertyOp0
 70
     1
102
RTVSPropertyOp1
 70
     1
102
RTVSPropertyOp2
 70
     1
102
RTVSPropertyOp3
 70
     1
102
RTVSPropertyOp4
 70
     1
102
RTVSPropertyOp5
 70
     1
102
RTVSPropertyOp6
 70
     1
102
RTVSPropertyOp7
 70
     1
102
RTVSPropertyOp8
 70
     1
102
RTVSPropertyOp9
 70
     1
102
RTVSPropertyOp10
 70
     1
102
RTVSPropertyOp11
 70
     1
102
RTVSPropertyOp12
 70
     1
102
RTVSPropertyOp13
 70
     1
102
RTVSPropertyOp14
 70
     1
102
RTVSPropertyOp15
 70
     1
102
RTVSPropertyOp16
 70
     1
102
RTVSPropertyOp17
 70
     1
102
RTVSPropertyOp18
 70
     1
102
RTVSPropertyOp19
 70
     1
102
RTVSPropertyOp20
 70
     1
102
RTVSPropertyOp21
 70
     1
102
RTVSPropertyOp22
 70
     1
102
RTVSPropertyOp23
 70
     1
102
RTVSPropertyOp24
 70
     1
102
RTVSPropertyOp25
 70
     1
102
RTVSPropertyOp26
 70
     1
102
RTVSPropertyOp27
 70
     1
102
RTVSPropertyOp28
 70
     1
102
RTVSPropertyOp29
 70
     1
102
RTVSPropertyOp30
 70
     1
102
RTVSPropertyOp31
 70
     1
102
RTVSPropertyOp32
 70
     1
  0
XRECORD
  5
38E0
102
{ACAD_REACTORS
330
38DF
102
}
330
38DF
100
AcDbXrecord
280
     1
102
RTVSPropertyOp0
 70
     1
102
RTVSPropertyOp1
 70
     1
102
RTVSPropertyOp2
 70
     1
102
RTVSPropertyOp3
 70
     1
102
RTVSPropertyOp4
 70
     1
102
RTVSPropertyOp5
 70
     1
102
RTVSPropertyOp6
 70
     1
102
RTVSPropertyOp7
 70
     1
102
RTVSPropertyOp8
 70
     1
102
RTVSPropertyOp9
 70
     1
102
RTVSPropertyOp10
 70
     1
102
RTVSPropertyOp11
 70
     1
102
RTVSPropertyOp12
 70
     1
102
RTVSPropertyOp13
 70
     1
102
RTVSPropertyOp14
 70
     1
102
RTVSPropertyOp15
 70
     1
102
RTVSPropertyOp16
 70
     1
102
RTVSPropertyOp17
 70
     1
102
RTVSPropertyOp18
 70
     1
102
RTVSPropertyOp19
 70
     1
102
RTVSPropertyOp20
 70
     1
102
RTVSPropertyOp21
 70
     1
102
RTVSPropertyOp22
 70
     1
102
RTVSPropertyOp23
 70
     1
102
RTVSPropertyOp24
 70
     1
102
RTVSPropertyOp25
 70
     1
102
RTVSPropertyOp26
 70
     1
102
RTVSPropertyOp27
 70
     1
102
RTVSPropertyOp28
 70
     1
102
RTVSPropertyOp29
 70
     1
102
RTVSPropertyOp30
 70
     1
102
RTVSPropertyOp31
 70
     1
102
RTVSPropertyOp32
 70
     1
  0
XRECORD
  5
38D2
102
{ACAD_REACTORS
330
38D1
102
}
330
38D1
100
AcDbXrecord
280
     1
102
RTVSPropertyOp0
 70
     1
102
RTVSPropertyOp1
 70
     1
102
RTVSPropertyOp2
 70
     1
102
RTVSPropertyOp3
 70
     1
102
RTVSPropertyOp4
 70
     1
102
RTVSPropertyOp5
 70
     1
102
RTVSPropertyOp6
 70
     1
102
RTVSPropertyOp7
 70
     1
102
RTVSPropertyOp8
 70
     1
102
RTVSPropertyOp9
 70
     1
102
RTVSPropertyOp10
 70
     1
102
RTVSPropertyOp11
 70
     1
102
RTVSPropertyOp12
 70
     1
102
RTVSPropertyOp13
 70
     1
102
RTVSPropertyOp14
 70
     1
102
RTVSPropertyOp15
 70
     1
102
RTVSPropertyOp16
 70
     1
102
RTVSPropertyOp17
 70
     1
102
RTVSPropertyOp18
 70
     1
102
RTVSPropertyOp19
 70
     1
102
RTVSPropertyOp20
 70
     1
102
RTVSPropertyOp21
 70
     1
102
RTVSPropertyOp22
 70
     1
102
RTVSPropertyOp23
 70
     1
102
RTVSPropertyOp24
 70
     1
102
RTVSPropertyOp25
 70
     1
102
RTVSPropertyOp26
 70
     1
102
RTVSPropertyOp27
 70
     1
102
RTVSPropertyOp28
 70
     1
102
RTVSPropertyOp29
 70
     1
102
RTVSPropertyOp30
 70
     1
102
RTVSPropertyOp31
 70
     1
102
RTVSPropertyOp32
 70
     1
  0
XRECORD
  5
38DA
102
{ACAD_REACTORS
330
38D9
102
}
330
38D9
100
AcDbXrecord
280
     1
102
RTVSPropertyOp0
 70
     1
102
RTVSPropertyOp1
 70
     1
102
RTVSPropertyOp2
 70
     1
102
RTVSPropertyOp3
 70
     1
102
RTVSPropertyOp4
 70
     1
102
RTVSPropertyOp5
 70
     1
102
RTVSPropertyOp6
 70
     1
102
RTVSPropertyOp7
 70
     1
102
RTVSPropertyOp8
 70
     1
102
RTVSPropertyOp9
 70
     1
102
RTVSPropertyOp10
 70
     1
102
RTVSPropertyOp11
 70
     1
102
RTVSPropertyOp12
 70
     1
102
RTVSPropertyOp13
 70
     1
102
RTVSPropertyOp14
 70
     1
102
RTVSPropertyOp15
 70
     1
102
RTVSPropertyOp16
 70
     1
102
RTVSPropertyOp17
 70
     1
102
RTVSPropertyOp18
 70
     1
102
RTVSPropertyOp19
 70
     1
102
RTVSPropertyOp20
 70
     1
102
RTVSPropertyOp21
 70
     1
102
RTVSPropertyOp22
 70
     1
102
RTVSPropertyOp23
 70
     1
102
RTVSPropertyOp24
 70
     1
102
RTVSPropertyOp25
 70
     1
102
RTVSPropertyOp26
 70
     1
102
RTVSPropertyOp27
 70
     1
102
RTVSPropertyOp28
 70
     1
102
RTVSPropertyOp29
 70
     1
102
RTVSPropertyOp30
 70
     1
102
RTVSPropertyOp31
 70
     1
102
RTVSPropertyOp32
 70
     1
  0
XRECORD
  5
38E2
102
{ACAD_REACTORS
330
38E1
102
}
330
38E1
100
AcDbXrecord
280
     1
102
RTVSPropertyOp0
 70
     1
102
RTVSPropertyOp1
 70
     1
102
RTVSPropertyOp2
 70
     1
102
RTVSPropertyOp3
 70
     1
102
RTVSPropertyOp4
 70
     1
102
RTVSPropertyOp5
 70
     1
102
RTVSPropertyOp6
 70
     1
102
RTVSPropertyOp7
 70
     1
102
RTVSPropertyOp8
 70
     1
102
RTVSPropertyOp9
 70
     1
102
RTVSPropertyOp10
 70
     1
102
RTVSPropertyOp11
 70
     1
102
RTVSPropertyOp12
 70
     1
102
RTVSPropertyOp13
 70
     1
102
RTVSPropertyOp14
 70
     1
102
RTVSPropertyOp15
 70
     1
102
RTVSPropertyOp16
 70
     1
102
RTVSPropertyOp17
 70
     1
102
RTVSPropertyOp18
 70
     1
102
RTVSPropertyOp19
 70
     1
102
RTVSPropertyOp20
 70
     1
102
RTVSPropertyOp21
 70
     1
102
RTVSPropertyOp22
 70
     1
102
RTVSPropertyOp23
 70
     1
102
RTVSPropertyOp24
 70
     1
102
RTVSPropertyOp25
 70
     1
102
RTVSPropertyOp26
 70
     1
102
RTVSPropertyOp27
 70
     1
102
RTVSPropertyOp28
 70
     1
102
RTVSPropertyOp29
 70
     1
102
RTVSPropertyOp30
 70
     1
102
RTVSPropertyOp31
 70
     1
102
RTVSPropertyOp32
 70
     1
  0
ENDSEC
  0
EOF
