  0
SECTION
  2
HEADER
  9
$ACADVER
  1
AC1015
  9
$ACADMAINTVER
 70
    20
  9
$DWGCODEPAGE
  3
ANSI_932
  9
$INSBASE
 10
0.0
 20
0.0
 30
0.0
  9
$EXTMIN
 10
1503.325211780021
 20
75.75361520059587
 30
0.0
  9
$EXTMAX
 10
1908.325211780021
 20
354.9366793207531
 30
0.0
  9
$LIMMIN
 10
0.0
 20
0.0
  9
$LIMMAX
 10
12.0
 20
9.0
  9
$ORTHOMODE
 70
     1
  9
$REGENMODE
 70
     1
  9
$FILLMODE
 70
     1
  9
$QTEXTMODE
 70
     0
  9
$MIRRTEXT
 70
     0
  9
$LTSCALE
 40
0.2
  9
$ATTMODE
 70
     1
  9
$TEXTSIZE
 40
3.2
  9
$TRACEWID
 40
0.05
  9
$TEXTSTYLE
  7
高3.2
  9
$CLAYER
  8
0
  9
$CELTYPE
  6
ByLayer
  9
$CECOLOR
 62
   256
  9
$CELTSCALE
 40
1.0
  9
$DISPSILH
 70
     0
  9
$DIMSCALE
 40
1.0
  9
$DIMASZ
 40
2.5
  9
$DIMEXO
 40
0.25
  9
$DIMDLI
 40
0.2
  9
$DIMRND
 40
0.0
  9
$DIMDLE
 40
0.0
  9
$DIMEXE
 40
1.25
  9
$DIMTP
 40
0.0
  9
$DIMTM
 40
0.0
  9
$DIMTXT
 40
3.0
  9
$DIMCEN
 40
0.0
  9
$DIMTSZ
 40
0.0
  9
$DIMTOL
 70
     0
  9
$DIMLIM
 70
     0
  9
$DIMTIH
 70
     0
  9
$DIMTOH
 70
     0
  9
$DIMSE1
 70
     0
  9
$DIMSE2
 70
     0
  9
$DIMTAD
 70
     3
  9
$DIMZIN
 70
     8
  9
$DIMBLK
  1
Open30
  9
$DIMASO
 70
     1
  9
$DIMSHO
 70
     1
  9
$DIMPOST
  1

  9
$DIMAPOST
  1

  9
$DIMALT
 70
     0
  9
$DIMALTD
 70
     3
  9
$DIMALTF
 40
0.03937007874016
  9
$DIMLFAC
 40
1.0
  9
$DIMTOFL
 70
     1
  9
$DIMTVP
 40
0.0
  9
$DIMTIX
 70
     0
  9
$DIMSOXD
 70
     0
  9
$DIMSAH
 70
     0
  9
$DIMBLK1
  1

  9
$DIMBLK2
  1

  9
$DIMSTYLE
  2
1：1
  9
$DIMCLRD
 70
     0
  9
$DIMCLRE
 70
     0
  9
$DIMCLRT
 70
     4
  9
$DIMTFAC
 40
1.0
  9
$DIMGAP
 40
0.625
  9
$DIMJUST
 70
     0
  9
$DIMSD1
 70
     0
  9
$DIMSD2
 70
     0
  9
$DIMTOLJ
 70
     0
  9
$DIMTZIN
 70
     8
  9
$DIMALTZ
 70
     0
  9
$DIMALTTZ
 70
     0
  9
$DIMUPT
 70
     1
  9
$DIMDEC
 70
     2
  9
$DIMTDEC
 70
     2
  9
$DIMALTU
 70
     2
  9
$DIMALTTD
 70
     3
  9
$DIMTXSTY
  7
Standard
  9
$DIMAUNIT
 70
     0
  9
$DIMADEC
 70
     1
  9
$DIMALTRND
 40
0.0
  9
$DIMAZIN
 70
     2
  9
$DIMDSEP
 70
    46
  9
$DIMATFIT
 70
     0
  9
$DIMFRAC
 70
     0
  9
$DIMLDRBLK
  1
Open30
  9
$DIMLUNIT
 70
     2
  9
$DIMLWD
 70
    -2
  9
$DIMLWE
 70
    -2
  9
$DIMTMOVE
 70
     0
  9
$LUNITS
 70
     2
  9
$LUPREC
 70
     4
  9
$SKETCHINC
 40
0.1
  9
$FILLETRAD
 40
0.0
  9
$AUNITS
 70
     0
  9
$AUPREC
 70
     0
  9
$MENU
  1
.
  9
$ELEVATION
 40
0.0
  9
$PELEVATION
 40
0.0
  9
$THICKNESS
 40
0.0
  9
$LIMCHECK
 70
     0
  9
$CHAMFERA
 40
0.0
  9
$CHAMFERB
 40
0.0
  9
$CHAMFERC
 40
0.0
  9
$CHAMFERD
 40
0.0
  9
$SKPOLY
 70
     0
  9
$TDCREATE
 40
2459499.453001158
  9
$TDUCREATE
 40
2459499.078001158
  9
$TDUPDATE
 40
2459611.461087477
  9
$TDUUPDATE
 40
2459611.086087477
  9
$TDINDWG
 40
0.1215581829
  9
$TDUSRTIMER
 40
0.1215567477
  9
$USRTIMER
 70
     1
  9
$ANGBASE
 50
0.0
  9
$ANGDIR
 70
     0
  9
$PDMODE
 70
     0
  9
$PDSIZE
 40
0.0
  9
$PLINEWID
 40
0.0
  9
$SPLFRAME
 70
     0
  9
$SPLINETYPE
 70
     6
  9
$SPLINESEGS
 70
     8
  9
$HANDSEED
  5
1D80
  9
$SURFTAB1
 70
     6
  9
$SURFTAB2
 70
     6
  9
$SURFTYPE
 70
     6
  9
$SURFU
 70
     6
  9
$SURFV
 70
     6
  9
$UCSBASE
  2

  9
$UCSNAME
  2

  9
$UCSORG
 10
0.0
 20
0.0
 30
0.0
  9
$UCSXDIR
 10
1.0
 20
0.0
 30
0.0
  9
$UCSYDIR
 10
0.0
 20
1.0
 30
0.0
  9
$UCSORTHOREF
  2

  9
$UCSORTHOVIEW
 70
     0
  9
$UCSORGTOP
 10
0.0
 20
0.0
 30
0.0
  9
$UCSORGBOTTOM
 10
0.0
 20
0.0
 30
0.0
  9
$UCSORGLEFT
 10
0.0
 20
0.0
 30
0.0
  9
$UCSORGRIGHT
 10
0.0
 20
0.0
 30
0.0
  9
$UCSORGFRONT
 10
0.0
 20
0.0
 30
0.0
  9
$UCSORGBACK
 10
0.0
 20
0.0
 30
0.0
  9
$PUCSBASE
  2

  9
$PUCSNAME
  2

  9
$PUCSORG
 10
0.0
 20
0.0
 30
0.0
  9
$PUCSXDIR
 10
1.0
 20
0.0
 30
0.0
  9
$PUCSYDIR
 10
0.0
 20
1.0
 30
0.0
  9
$PUCSORTHOREF
  2

  9
$PUCSORTHOVIEW
 70
     0
  9
$PUCSORGTOP
 10
0.0
 20
0.0
 30
0.0
  9
$PUCSORGBOTTOM
 10
0.0
 20
0.0
 30
0.0
  9
$PUCSORGLEFT
 10
0.0
 20
0.0
 30
0.0
  9
$PUCSORGRIGHT
 10
0.0
 20
0.0
 30
0.0
  9
$PUCSORGFRONT
 10
0.0
 20
0.0
 30
0.0
  9
$PUCSORGBACK
 10
0.0
 20
0.0
 30
0.0
  9
$USERI1
 70
     0
  9
$USERI2
 70
     0
  9
$USERI3
 70
     0
  9
$USERI4
 70
     0
  9
$USERI5
 70
     0
  9
$USERR1
 40
0.0
  9
$USERR2
 40
0.0
  9
$USERR3
 40
0.0
  9
$USERR4
 40
0.0
  9
$USERR5
 40
0.0
  9
$WORLDVIEW
 70
     1
  9
$SHADEDGE
 70
     3
  9
$SHADEDIF
 70
    70
  9
$TILEMODE
 70
     1
  9
$MAXACTVP
 70
    64
  9
$PINSBASE
 10
0.0
 20
0.0
 30
0.0
  9
$PLIMCHECK
 70
     0
  9
$PEXTMIN
 10
0.0
 20
0.0
 30
0.0
  9
$PEXTMAX
 10
0.0
 20
0.0
 30
0.0
  9
$PLIMMIN
 10
0.0
 20
0.0
  9
$PLIMMAX
 10
12.0
 20
9.0
  9
$UNITMODE
 70
     0
  9
$VISRETAIN
 70
     1
  9
$PLINEGEN
 70
     0
  9
$PSLTSCALE
 70
     1
  9
$TREEDEPTH
 70
  3020
  9
$CMLSTYLE
  2
Standard
  9
$CMLJUST
 70
     0
  9
$CMLSCALE
 40
1.0
  9
$PROXYGRAPHICS
 70
     1
  9
$MEASUREMENT
 70
     1
  9
$CELWEIGHT
370
    -1
  9
$ENDCAPS
280
     0
  9
$JOINSTYLE
280
     0
  9
$LWDISPLAY
290
     0
  9
$INSUNITS
 70
     1
  9
$HYPERLINKBASE
  1

  9
$STYLESHEET
  1

  9
$XEDIT
290
     1
  9
$CEPSNTYPE
380
     0
  9
$PSTYLEMODE
290
     1
  9
$FINGERPRINTGUID
  2
{021B6F6D-371F-446A-AA8E-4CEF17040F1C}
  9
$VERSIONGUID
  2
{BB67BF93-BF4D-4EFB-BD4E-B8191E5CBFB8}
  9
$EXTNAMES
290
     1
  9
$PSVPSCALE
 40
0.0
  9
$OLESTARTUP
290
     0
  0
ENDSEC
  0
SECTION
  2
CLASSES
  0
CLASS
  1
ACDBDICTIONARYWDFLT
  2
AcDbDictionaryWithDefault
  3
ObjectDBX Classes
 90
        0
280
     0
281
     0
  0
CLASS
  1
ACDBPLACEHOLDER
  2
AcDbPlaceHolder
  3
ObjectDBX Classes
 90
        0
280
     0
281
     0
  0
CLASS
  1
LAYOUT
  2
AcDbLayout
  3
ObjectDBX Classes
 90
        0
280
     0
281
     0
  0
CLASS
  1
DICTIONARYVAR
  2
AcDbDictionaryVar
  3
ObjectDBX Classes
 90
        0
280
     0
281
     0
  0
CLASS
  1
TABLESTYLE
  2
AcDbTableStyle
  3
ObjectDBX Classes
 90
     4095
280
     0
281
     0
  0
CLASS
  1
MATERIAL
  2
AcDbMaterial
  3
ObjectDBX Classes
 90
     1153
280
     0
281
     0
  0
CLASS
  1
VISUALSTYLE
  2
AcDbVisualStyle
  3
ObjectDBX Classes
 90
     4095
280
     0
281
     0
  0
CLASS
  1
SORTENTSTABLE
  2
AcDbSortentsTable
  3
ObjectDBX Classes
 90
        0
280
     0
281
     0
  0
CLASS
  1
DIMASSOC
  2
AcDbDimAssoc
  3
"AcDbDimAssoc|Product Desc:     AcDim ARX App For Dimension|Company:          Autodesk, Inc.|WEB Address:      www.autodesk.com"
 90
        0
280
     0
281
     0
  0
CLASS
  1
SCALE
  2
AcDbScale
  3
ObjectDBX Classes
 90
     1153
280
     0
281
     0
  0
CLASS
  1
MLEADERSTYLE
  2
AcDbMLeaderStyle
  3
ACDB_MLEADERSTYLE_CLASS
 90
     4095
280
     0
281
     0
  0
CLASS
  1
CELLSTYLEMAP
  2
AcDbCellStyleMap
  3
ObjectDBX Classes
 90
     1152
280
     0
281
     0
  0
CLASS
  1
AEC_REFEDIT_STATUS_TRACKER
  2
AecDbRefEditStatusTracker
  3
AecArchBase60|Product Desc: Autodesk Architectural Desktop 2007 |Company: Autodesk,Inc. |WEB Address: www.autodesk.com
 90
      129
280
     0
281
     0
  0
CLASS
  1
NPOCOLLECTION
  2
AcDbImpNonPersistentObjectsCollection
  3
ObjectDBX Classes
 90
     1153
280
     0
281
     0
  0
ENDSEC
  0
SECTION
  2
TABLES
  0
TABLE
  2
VPORT
  5
8
102
{ACAD_XDICTIONARY
360
AE9
102
}
330
0
100
AcDbSymbolTable
 70
     1
  0
VPORT
  5
94
330
8
100
AcDbSymbolTableRecord
100
AcDbViewportTableRecord
  2
*Active
 70
     0
 10
0.0
 20
0.0
 11
1.0
 21
1.0
 12
1750.961064701197
 22
202.4845568748609
 13
0.0
 23
0.0
 14
0.5
 24
0.5
 15
0.5
 25
0.5
 16
0.0
 26
0.0
 36
1.0
 17
0.0
 27
0.0
 37
0.0
 40
557.9269726052614
 41
1.563527653213751
 42
50.0
 43
0.0
 44
0.0
 50
0.0
 51
0.0
 71
     0
 72
  1000
 73
     1
 74
     2
 75
     0
 76
     0
 77
     0
 78
     0
281
     0
 65
     1
110
0.0
120
0.0
130
0.0
111
1.0
121
0.0
131
0.0
112
0.0
122
1.0
132
0.0
 79
     0
146
0.0
  0
ENDTAB
  0
TABLE
  2
LTYPE
  5
5
330
0
100
AcDbSymbolTable
 70
     4
  0
LTYPE
  5
14
330
5
100
AcDbSymbolTableRecord
100
AcDbLinetypeTableRecord
  2
ByBlock
 70
     0
  3

 72
    65
 73
     0
 40
0.0
  0
LTYPE
  5
15
330
5
100
AcDbSymbolTableRecord
100
AcDbLinetypeTableRecord
  2
ByLayer
 70
     0
  3

 72
    65
 73
     0
 40
0.0
  0
LTYPE
  5
16
330
5
100
AcDbSymbolTableRecord
100
AcDbLinetypeTableRecord
  2
Continuous
 70
     0
  3
Solid line
 72
    65
 73
     0
 40
0.0
  0
LTYPE
  5
148
330
5
100
AcDbSymbolTableRecord
100
AcDbLinetypeTableRecord
  2
CENTER
 70
     0
  3
Center ____ _ ____ _ ____ _ ____ _ ____ _ ____
 72
    65
 73
     4
 40
50.8
 49
31.75
 74
     0
 49
-6.349999999999997
 74
     0
 49
6.349999999999997
 74
     0
 49
-6.349999999999997
 74
     0
  0
LTYPE
  5
149
330
5
100
AcDbSymbolTableRecord
100
AcDbLinetypeTableRecord
  2
HIDDEN
 70
     0
  3
Hidden __ __ __ __ __ __ __ __ __ __ __ __ __ __
 72
    65
 73
     2
 40
9.524999999999996
 49
6.349999999999997
 74
     0
 49
-3.174999999999998
 74
     0
  0
LTYPE
  5
14A
330
5
100
AcDbSymbolTableRecord
100
AcDbLinetypeTableRecord
  2
PHANTOM
 70
     0
  3
Phantom ______  __  __  ______  __  __  ______
 72
    65
 73
     6
 40
63.5
 49
31.75
 74
     0
 49
-6.349999999999997
 74
     0
 49
6.349999999999997
 74
     0
 49
-6.349999999999997
 74
     0
 49
6.349999999999997
 74
     0
 49
-6.349999999999997
 74
     0
  0
ENDTAB
  0
TABLE
  2
LAYER
  5
2
102
{ACAD_XDICTIONARY
360
DD
102
}
330
0
100
AcDbSymbolTable
 70
     2
  0
LAYER
  5
10
102
{ACAD_XDICTIONARY
360
8E9
102
}
330
2
100
AcDbSymbolTableRecord
100
AcDbLayerTableRecord
  2
0
 70
     0
 62
     7
  6
Continuous
370
    -3
390
F
  0
LAYER
  5
D8
330
2
100
AcDbSymbolTableRecord
100
AcDbLayerTableRecord
  2
Defpoints
 70
     0
 62
     7
  6
Continuous
290
     0
370
    -3
390
F
  0
ENDTAB
  0
TABLE
  2
STYLE
  5
3
330
0
100
AcDbSymbolTable
 70
     6
  0
STYLE
  5
11
330
3
100
AcDbSymbolTableRecord
100
AcDbTextStyleTableRecord
  2
Standard
 70
     0
 40
0.0
 41
1.0
 50
0.0
 71
     0
 42
0.2
  3
txt.shx
  4
bigfont.shx
  0
STYLE
  5
11D
330
3
100
AcDbSymbolTableRecord
100
AcDbTextStyleTableRecord
  2
高3.2
 70
     0
 40
3.2
 41
1.0
 50
0.0
 71
     0
 42
3.2
  3
txt.shx
  4
bigfont.shx
  0
STYLE
  5
11E
330
3
100
AcDbSymbolTableRecord
100
AcDbTextStyleTableRecord
  2
高6.3
 70
     0
 40
6.299999999999998
 41
1.0
 50
0.0
 71
     0
 42
6.299999999999998
  3
txt.shx
  4
bigfont.shx
  0
STYLE
  5
11F
330
3
100
AcDbSymbolTableRecord
100
AcDbTextStyleTableRecord
  2
高2.5
 70
     0
 40
2.5
 41
1.0
 50
0.0
 71
     0
 42
0.2
  3
txt.shx
  4
bigfont.shx
  0
STYLE
  5
146
330
3
100
AcDbSymbolTableRecord
100
AcDbTextStyleTableRecord
  2
高4.5
 70
     0
 40
4.5
 41
1.0
 50
0.0
 71
     0
 42
6.299999999999998
  3
txt.shx
  4
bigfont.shx
  0
STYLE
  5
171
330
3
100
AcDbSymbolTableRecord
100
AcDbTextStyleTableRecord
  2
高2
 70
     0
 40
2.0
 41
1.0
 50
0.0
 71
     0
 42
6.299999999999998
  3
txt.shx
  4
bigfont.shx
  0
ENDTAB
  0
TABLE
  2
VIEW
  5
6
330
0
100
AcDbSymbolTable
 70
     0
  0
ENDTAB
  0
TABLE
  2
UCS
  5
7
330
0
100
AcDbSymbolTable
 70
     0
  0
ENDTAB
  0
TABLE
  2
APPID
  5
9
330
0
100
AcDbSymbolTable
 70
    10
  0
APPID
  5
12
330
9
100
AcDbSymbolTableRecord
100
AcDbRegAppTableRecord
  2
ACAD
 70
     0
  0
APPID
  5
DC
330
9
100
AcDbSymbolTableRecord
100
AcDbRegAppTableRecord
  2
ACAD_DSTYLE_DIMJOGGED_JOGANGLE_SYMBOL
 70
     0
  0
APPID
  5
3A5
330
9
100
AcDbSymbolTableRecord
100
AcDbRegAppTableRecord
  2
ACAD_EXEMPT_FROM_CAD_STANDARDS
 70
     0
  0
APPID
  5
70D
330
9
100
AcDbSymbolTableRecord
100
AcDbRegAppTableRecord
  2
ACAD_DSTYLE_DIMJAG
 70
     0
  0
APPID
  5
70E
330
9
100
AcDbSymbolTableRecord
100
AcDbRegAppTableRecord
  2
ACAD_DSTYLE_DIMBREAK
 70
     0
  0
APPID
  5
70F
330
9
100
AcDbSymbolTableRecord
100
AcDbRegAppTableRecord
  2
ACAD_DSTYLE_DIMTALN
 70
     0
  0
APPID
  5
B18
330
9
100
AcDbSymbolTableRecord
100
AcDbRegAppTableRecord
  2
ACAD_DSTYLE_DIMARC_LENGTH_SYMBOL
 70
     0
  0
APPID
  5
B19
330
9
100
AcDbSymbolTableRecord
100
AcDbRegAppTableRecord
  2
ACAD_DSTYLE_DIMEXT_LENGTH
 70
     0
  0
APPID
  5
B2E
330
9
100
AcDbSymbolTableRecord
100
AcDbRegAppTableRecord
  2
ACAD_MLEADERVER
 70
     0
  0
APPID
  5
1478
330
9
100
AcDbSymbolTableRecord
100
AcDbRegAppTableRecord
  2
ACAD_DSTYLE_DIMRADIAL_EXTENSION
 70
     0
  0
ENDTAB
  0
TABLE
  2
DIMSTYLE
  5
A
330
0
100
AcDbSymbolTable
 70
    11
100
AcDbDimStyleTable
 71
     5
340
D9
340
DB
340
DA
340
127
340
129
  0
DIMSTYLE
105
D9
330
A
100
AcDbSymbolTableRecord
100
AcDbDimStyleTableRecord
  2
1：1
 70
     0
 41
2.5
 42
0.25
 43
0.2
 44
1.25
 73
     0
 74
     0
 77
     3
 78
     8
 79
     2
140
3.0
141
0.0
143
0.03937007874016
147
0.625
171
     3
172
     1
178
     4
179
     1
271
     2
272
     2
274
     3
283
     0
284
     8
288
     1
289
     0
340
11
341
C6
342
C6
1001
ACAD_DSTYLE_DIMARC_LENGTH_SYMBOL
1070
   379
1070
     2
1001
ACAD_DSTYLE_DIMEXT_LENGTH
1070
   378
1040
1.25
1001
ACAD_DSTYLE_DIMJOGGED_JOGANGLE_SYMBOL
1070
   384
1040
1.570796326794896
  0
DIMSTYLE
105
DA
330
A
100
AcDbSymbolTableRecord
100
AcDbDimStyleTableRecord
  2
2：1
 70
     0
 41
2.5
 42
0.25
 43
0.2
 44
1.25
 73
     0
 74
     0
 77
     3
 78
     8
 79
     2
140
3.0
141
0.0
143
0.03937007874016
144
0.5
147
0.625
171
     3
172
     1
178
     4
179
     1
271
     2
272
     2
274
     3
283
     0
284
     8
288
     1
289
     0
340
11
341
C6
342
C6
1001
ACAD_DSTYLE_DIMARC_LENGTH_SYMBOL
1070
   379
1070
     2
1001
ACAD_DSTYLE_DIMEXT_LENGTH
1070
   378
1040
1.25
1001
ACAD_DSTYLE_DIMJOGGED_JOGANGLE_SYMBOL
1070
   384
1040
1.570796326794896
  0
DIMSTYLE
105
DB
330
A
100
AcDbSymbolTableRecord
100
AcDbDimStyleTableRecord
  2
5：1
 70
     0
 41
2.5
 42
0.25
 43
0.2
 44
1.25
 73
     0
 74
     0
 77
     3
 78
     8
 79
     2
140
3.0
141
0.0
143
0.03937007874016
144
0.2
147
0.625
171
     3
172
     1
178
     4
179
     1
271
     2
272
     2
274
     3
283
     0
284
     8
288
     1
289
     0
340
11
341
C6
342
C6
1001
ACAD_DSTYLE_DIMARC_LENGTH_SYMBOL
1070
   379
1070
     2
1001
ACAD_DSTYLE_DIMEXT_LENGTH
1070
   378
1040
1.25
1001
ACAD_DSTYLE_DIMJOGGED_JOGANGLE_SYMBOL
1070
   384
1040
1.570796326794896
  0
DIMSTYLE
105
127
330
A
100
AcDbSymbolTableRecord
100
AcDbDimStyleTableRecord
  2
10：1
 70
     0
 41
2.5
 42
0.25
 43
0.2
 44
1.25
 73
     0
 74
     0
 77
     3
 78
     8
 79
     2
140
3.0
141
0.0
143
0.03937007874016
144
0.1
147
0.625
171
     3
172
     1
178
     4
179
     1
271
     2
272
     2
274
     3
283
     0
284
     8
288
     1
289
     0
340
11
341
C6
342
C6
1001
ACAD_DSTYLE_DIMARC_LENGTH_SYMBOL
1070
   379
1070
     2
1001
ACAD_DSTYLE_DIMEXT_LENGTH
1070
   378
1040
1.25
1001
ACAD_DSTYLE_DIMJOGGED_JOGANGLE_SYMBOL
1070
   384
1040
1.570796326794896
  0
DIMSTYLE
105
128
330
A
100
AcDbSymbolTableRecord
100
AcDbDimStyleTableRecord
  2
1／2
 70
     0
 41
2.5
 42
0.25
 43
0.2
 44
1.25
 73
     0
 74
     0
 77
     3
 78
     8
 79
     2
140
3.0
141
0.0
143
0.03937007874016
144
2.0
147
0.625
171
     3
172
     1
178
     4
179
     1
271
     2
272
     2
274
     3
283
     0
284
     8
288
     1
289
     0
340
11
341
C6
342
C6
1001
ACAD_DSTYLE_DIMARC_LENGTH_SYMBOL
1070
   379
1070
     2
1001
ACAD_DSTYLE_DIMEXT_LENGTH
1070
   378
1040
1.25
1001
ACAD_DSTYLE_DIMJOGGED_JOGANGLE_SYMBOL
1070
   384
1040
1.570796326794896
  0
DIMSTYLE
105
129
330
A
100
AcDbSymbolTableRecord
100
AcDbDimStyleTableRecord
  2
1／5
 70
     0
 41
2.5
 42
0.25
 43
0.2
 44
1.25
 73
     0
 74
     0
 77
     3
 78
     8
 79
     2
140
3.0
141
0.0
143
0.03937007874016
144
5.0
147
0.625
171
     3
172
     1
178
     4
179
     1
271
     2
272
     2
274
     3
283
     0
284
     8
288
     1
289
     0
340
11
341
C6
342
C6
1001
ACAD_DSTYLE_DIMARC_LENGTH_SYMBOL
1070
   379
1070
     2
1001
ACAD_DSTYLE_DIMEXT_LENGTH
1070
   378
1040
1.25
1001
ACAD_DSTYLE_DIMJOGGED_JOGANGLE_SYMBOL
1070
   384
1040
1.570796326794896
  0
DIMSTYLE
105
12A
330
A
100
AcDbSymbolTableRecord
100
AcDbDimStyleTableRecord
  2
1／10
 70
     0
 41
2.5
 42
0.25
 43
0.2
 44
1.25
 73
     0
 74
     0
 77
     3
 78
     8
 79
     2
140
3.0
141
0.0
143
0.03937007874016
144
10.0
147
0.625
171
     3
172
     1
178
     4
179
     1
271
     2
272
     2
274
     3
283
     0
284
     8
288
     1
289
     0
340
11
341
C6
342
C6
1001
ACAD_DSTYLE_DIMARC_LENGTH_SYMBOL
1070
   379
1070
     2
1001
ACAD_DSTYLE_DIMEXT_LENGTH
1070
   378
1040
1.25
1001
ACAD_DSTYLE_DIMJOGGED_JOGANGLE_SYMBOL
1070
   384
1040
1.570796326794896
  0
DIMSTYLE
105
70A
330
A
100
AcDbSymbolTableRecord
100
AcDbDimStyleTableRecord
  2
1／4
 70
     0
 41
2.5
 42
0.25
 43
0.2
 44
1.25
 73
     0
 74
     0
 77
     3
 78
     8
 79
     2
140
3.0
141
0.0
143
0.03937007874016
144
4.0
147
0.625
171
     3
172
     1
178
     4
179
     1
271
     2
272
     2
274
     3
283
     0
284
     8
288
     1
289
     0
340
11
341
C6
342
C6
1001
ACAD_DSTYLE_DIMARC_LENGTH_SYMBOL
1070
   379
1070
     2
1001
ACAD_DSTYLE_DIMEXT_LENGTH
1070
   378
1040
1.25
1001
ACAD_DSTYLE_DIMJOGGED_JOGANGLE_SYMBOL
1070
   384
1040
1.570796326794896
  0
DIMSTYLE
105
70B
330
A
100
AcDbSymbolTableRecord
100
AcDbDimStyleTableRecord
  2
1／3
 70
     0
 41
2.5
 42
0.25
 43
0.2
 44
1.25
 73
     0
 74
     0
 77
     3
 78
     8
 79
     2
140
3.0
141
0.0
143
0.03937007874016
144
3.0
147
0.625
171
     3
172
     1
178
     4
179
     1
271
     2
272
     2
274
     3
283
     0
284
     8
288
     1
289
     0
340
11
341
C6
342
C6
1001
ACAD_DSTYLE_DIMARC_LENGTH_SYMBOL
1070
   379
1070
     2
1001
ACAD_DSTYLE_DIMEXT_LENGTH
1070
   378
1040
1.25
1001
ACAD_DSTYLE_DIMJOGGED_JOGANGLE_SYMBOL
1070
   384
1040
1.570796326794896
  0
DIMSTYLE
105
70C
330
A
100
AcDbSymbolTableRecord
100
AcDbDimStyleTableRecord
  2
FREE
 70
     0
 41
2.5
 42
0.25
 43
0.2
 44
1.25
 73
     0
 74
     0
 77
     3
 78
     8
 79
     2
140
3.0
141
0.0
143
0.03937007874016
147
0.625
171
     3
172
     1
178
     4
179
     1
271
     2
272
     2
274
     3
283
     0
284
     8
288
     1
289
     0
340
11
341
C6
342
C6
1001
ACAD_DSTYLE_DIMBREAK
1070
   391
1040
3.75
1001
ACAD_DSTYLE_DIMJAG
1070
   388
1040
1.5
1001
ACAD_DSTYLE_DIMTALN
1070
   392
1070
     0
1001
ACAD_DSTYLE_DIMARC_LENGTH_SYMBOL
1070
   379
1070
     2
1001
ACAD_DSTYLE_DIMEXT_LENGTH
1070
   378
1040
1.25
1001
ACAD_DSTYLE_DIMJOGGED_JOGANGLE_SYMBOL
1070
   384
1040
1.570796326794896
  0
DIMSTYLE
105
F3B
330
A
100
AcDbSymbolTableRecord
100
AcDbDimStyleTableRecord
  2
ISO-25
 70
     0
 41
2.5
 42
0.625
 43
3.75
 44
1.25
 73
     0
 74
     0
 77
     1
 78
     8
140
2.5
141
2.5
143
0.03937007874016
147
0.625
171
     3
172
     1
271
     2
272
     2
274
     3
278
    44
283
     0
284
     8
340
11
  0
ENDTAB
  0
TABLE
  2
BLOCK_RECORD
  5
1
330
0
100
AcDbSymbolTable
 70
    15
  0
BLOCK_RECORD
  5
1F
102
{ACAD_XDICTIONARY
360
324
102
}
330
1
100
AcDbSymbolTableRecord
100
AcDbBlockTableRecord
  2
*Model_Space
340
22
  0
BLOCK_RECORD
  5
58
330
1
100
AcDbSymbolTableRecord
100
AcDbBlockTableRecord
  2
*Paper_Space
340
59
  0
BLOCK_RECORD
  5
5D
330
1
100
AcDbSymbolTableRecord
100
AcDbBlockTableRecord
  2
*Paper_Space0
340
5E
  0
BLOCK_RECORD
  5
C6
330
1
100
AcDbSymbolTableRecord
100
AcDbBlockTableRecord
  2
_Open30
340
0
102
{BLKREFS
331
10D9
331
10DA
331
115A
331
115B
331
119C
331
119D
331
1C2E
331
1C2F
331
1C37
331
1C38
331
1C40
331
1C41
331
1C49
331
1C4A
331
1C52
331
1C53
331
1C5B
331
1C5C
331
1C64
331
1C65
331
1C6D
331
1C6E
331
1C76
331
1C77
102
}
  0
BLOCK_RECORD
  5
E22
102
{ACAD_XDICTIONARY
360
F2C
102
}
330
1
100
AcDbSymbolTableRecord
100
AcDbBlockTableRecord
  2
A$C769D123E
340
0
1001
ACAD
1000
DesignCenter Data
1002
{
1070
     1
1070
     1
1002
}
  0
BLOCK_RECORD
  5
10B1
330
1
100
AcDbSymbolTableRecord
100
AcDbBlockTableRecord
  2
*D3
340
0
  0
BLOCK_RECORD
  5
10C9
330
1
100
AcDbSymbolTableRecord
100
AcDbBlockTableRecord
  2
*D4
340
0
  0
BLOCK_RECORD
  5
10E1
330
1
100
AcDbSymbolTableRecord
100
AcDbBlockTableRecord
  2
*D5
340
0
  0
BLOCK_RECORD
  5
10FF
330
1
100
AcDbSymbolTableRecord
100
AcDbBlockTableRecord
  2
*D6
340
0
  0
BLOCK_RECORD
  5
1129
330
1
100
AcDbSymbolTableRecord
100
AcDbBlockTableRecord
  2
*D7
340
0
  0
BLOCK_RECORD
  5
114A
330
1
100
AcDbSymbolTableRecord
100
AcDbBlockTableRecord
  2
*D8
340
0
  0
BLOCK_RECORD
  5
1162
330
1
100
AcDbSymbolTableRecord
100
AcDbBlockTableRecord
  2
*D9
340
0
  0
BLOCK_RECORD
  5
118C
330
1
100
AcDbSymbolTableRecord
100
AcDbBlockTableRecord
  2
*D10
340
0
  0
BLOCK_RECORD
  5
11A4
330
1
100
AcDbSymbolTableRecord
100
AcDbBlockTableRecord
  2
*D11
340
0
  0
BLOCK_RECORD
  5
11CE
330
1
100
AcDbSymbolTableRecord
100
AcDbBlockTableRecord
  2
*D12
340
0
  0
BLOCK_RECORD
  5
11E6
330
1
100
AcDbSymbolTableRecord
100
AcDbBlockTableRecord
  2
*D13
340
0
  0
BLOCK_RECORD
  5
147A
330
1
100
AcDbSymbolTableRecord
100
AcDbBlockTableRecord
  2
*D14
340
0
  0
ENDTAB
  0
ENDSEC
  0
SECTION
  2
BLOCKS
  0
BLOCK
  5
20
330
1F
100
AcDbEntity
  8
0
100
AcDbBlockBegin
  2
*Model_Space
 70
     0
 10
0.0
 20
0.0
 30
0.0
  3
*Model_Space
  1

  0
ENDBLK
  5
21
330
1F
100
AcDbEntity
  8
0
100
AcDbBlockEnd
  0
BLOCK
  5
5A
330
58
100
AcDbEntity
 67
     1
  8
0
100
AcDbBlockBegin
  2
*Paper_Space
 70
     0
 10
0.0
 20
0.0
 30
0.0
  3
*Paper_Space
  1

  0
ENDBLK
  5
5B
330
58
100
AcDbEntity
 67
     1
  8
0
100
AcDbBlockEnd
  0
BLOCK
  5
5F
330
5D
100
AcDbEntity
 67
     1
  8
0
100
AcDbBlockBegin
  2
*Paper_Space0
 70
     0
 10
0.0
 20
0.0
 30
0.0
  3
*Paper_Space0
  1

  0
ENDBLK
  5
60
330
5D
100
AcDbEntity
 67
     1
  8
0
100
AcDbBlockEnd
  0
BLOCK
  5
C7
330
C6
100
AcDbEntity
  8
0
100
AcDbBlockBegin
  2
_Open30
 70
     0
 10
0.0
 20
0.0
 30
0.0
  3
_Open30
  1

  0
LINE
  5
C8
330
C6
100
AcDbEntity
  8
0
  6
ByBlock
 62
     0
370
    -2
100
AcDbLine
 10
-1.0
 20
0.267949
 30
0.0
 11
0.0
 21
0.0
 31
0.0
  0
LINE
  5
C9
330
C6
100
AcDbEntity
  8
0
  6
ByBlock
 62
     0
370
    -2
100
AcDbLine
 10
0.0
 20
0.0
 30
0.0
 11
-1.0
 21
-0.267949
 31
0.0
  0
LINE
  5
CA
330
C6
100
AcDbEntity
  8
0
  6
ByBlock
 62
     0
370
    -2
100
AcDbLine
 10
0.0
 20
0.0
 30
0.0
 11
-1.0
 21
0.0
 31
0.0
  0
ENDBLK
  5
CB
330
C6
100
AcDbEntity
  8
0
100
AcDbBlockEnd
  0
BLOCK
  5
F2E
330
E22
100
AcDbEntity
  8
0
100
AcDbBlockBegin
  2
A$C769D123E
 70
     0
 10
0.0
 20
0.0
 30
0.0
  3
A$C769D123E
  1

  0
LINE
  5
E23
330
E22
100
AcDbEntity
  8
0
 62
     3
100
AcDbLine
 10
19.99999818659637
 20
283.9999999941307
 30
0.0
 11
19.99999818659637
 21
9.999999994130716
 31
0.0
  0
LINE
  5
E24
330
E22
100
AcDbEntity
  8
0
 62
     3
100
AcDbLine
 10
409.9999981865964
 20
9.999999994130716
 30
0.0
 11
409.9999981865964
 21
283.9999999941307
 31
0.0
  0
LINE
  5
E25
330
E22
100
AcDbEntity
  8
0
 62
     3
100
AcDbLine
 10
19.99999818659637
 20
9.999999994130716
 30
0.0
 11
409.9999981865964
 21
9.999999994130716
 31
0.0
  0
LINE
  5
E26
330
E22
100
AcDbEntity
  8
0
 62
     3
100
AcDbLine
 10
238.6567233665965
 20
283.9999999941307
 30
0.0
 11
409.9999981865962
 21
283.9999999941307
 31
0.0
  0
LINE
  5
E27
330
E22
100
AcDbEntity
  8
0
 62
     3
100
AcDbLine
 10
190.1026886965965
 20
283.9999999941307
 30
0.0
 11
19.99999818659637
 21
283.9999999941307
 31
0.0
  0
LINE
  5
E28
330
E22
100
AcDbEntity
  8
0
 62
     3
100
AcDbLine
 10
7.598074396596302
 20
150.4446389441306
 30
0.0
 11
4.99999818659637
 21
148.9446389441306
 31
0.0
  0
LINE
  5
E29
330
E22
100
AcDbEntity
  8
0
 62
     3
100
AcDbLine
 10
7.598074396596302
 20
150.4446389441306
 30
0.0
 11
4.99999818659637
 21
151.9446389441307
 31
0.0
  0
LINE
  5
E2A
330
E22
100
AcDbEntity
  8
0
 62
     3
100
AcDbLine
 10
4.99999818659637
 20
148.9446389441306
 30
0.0
 11
4.99999818659637
 21
151.9446389441307
 31
0.0
  0
LINE
  5
E2B
330
E22
100
AcDbEntity
  8
0
 62
   254
370
     0
100
AcDbLine
 10
-0.0000018134035145
 20
-0.0000000058692819
 30
0.0
 11
-0.0000018134035145
 21
291.9999999941307
 31
0.0
  0
LINE
  5
E2C
330
E22
100
AcDbEntity
  8
0
 62
   254
370
     0
100
AcDbLine
 10
-0.0000018134035145
 20
291.9999999941307
 30
0.0
 11
419.9999981865961
 21
291.9999999941307
 31
0.0
  0
LINE
  5
E2D
330
E22
100
AcDbEntity
  8
0
 62
     3
100
AcDbLine
 10
357.9999981865965
 20
9.999999994130716
 30
0.0
 11
357.9999981865965
 21
49.99999999413072
 31
0.0
  0
LINE
  5
E2E
330
E22
100
AcDbEntity
  8
0
 62
     3
100
AcDbLine
 10
370.9999981865966
 20
19.99999999413072
 30
0.0
 11
370.9999981865966
 21
47.9999999941307
 31
0.0
  0
LINE
  5
E2F
330
E22
100
AcDbEntity
  8
0
 62
     3
100
AcDbLine
 10
330.9999981865965
 20
19.99999999413072
 30
0.0
 11
330.9999981865965
 21
33.99999999413072
 31
0.0
  0
LINE
  5
E30
330
E22
100
AcDbEntity
  8
0
 62
     3
100
AcDbLine
 10
340.9999981865965
 20
33.99999999413072
 30
0.0
 11
340.9999981865965
 21
9.999999994130716
 31
0.0
  0
LINE
  5
E31
330
E22
100
AcDbEntity
  8
0
 62
     3
100
AcDbLine
 10
311.9999981865965
 20
49.99999999413072
 30
0.0
 11
311.9999981865965
 21
26.99999999413072
 31
0.0
  0
LINE
  5
E32
330
E22
100
AcDbEntity
  8
0
 62
     3
100
AcDbLine
 10
370.9999981865966
 20
47.9999999941307
 30
0.0
 11
370.9999981865966
 21
49.99999999413072
 31
0.0
  0
LINE
  5
E33
330
E22
100
AcDbEntity
  8
0
 62
     3
100
AcDbLine
 10
383.9999981865966
 20
26.99999999413072
 30
0.0
 11
383.9999981865966
 21
49.99999999413072
 31
0.0
  0
LINE
  5
E34
330
E22
100
AcDbEntity
  8
0
 62
     3
100
AcDbLine
 10
409.9999981865964
 20
49.99999999413072
 30
0.0
 11
298.7545635465965
 21
49.99999999413073
 31
0.0
  0
LINE
  5
E35
330
E22
100
AcDbEntity
  8
0
 62
     3
100
AcDbLine
 10
409.9999981865964
 20
40.9999999941307
 30
0.0
 11
298.7545635465965
 21
40.9999999941307
 31
0.0
  0
LINE
  5
E36
330
E22
100
AcDbEntity
  8
0
 62
     3
100
AcDbLine
 10
409.9999981865964
 20
26.99999999413072
 30
0.0
 11
298.7545635465965
 21
26.99999999413072
 31
0.0
  0
LINE
  5
E37
330
E22
100
AcDbEntity
  8
0
 62
     3
100
AcDbLine
 10
409.9999981865964
 20
19.99999999413072
 30
0.0
 11
298.6965556865964
 21
19.99999999413072
 31
0.0
  0
LINE
  5
E38
330
E22
100
AcDbEntity
  8
0
 62
     3
100
AcDbLine
 10
396.9999981865965
 20
26.99999999413072
 30
0.0
 11
396.9999981865965
 21
49.99999999413072
 31
0.0
  0
LINE
  5
E39
330
E22
100
AcDbEntity
  8
0
 62
     3
100
AcDbLine
 10
298.7545635465965
 20
49.99999999413073
 30
0.0
 11
298.7545635465965
 21
9.999999994130716
 31
0.0
  0
LINE
  5
E3A
330
E22
100
AcDbEntity
  8
0
 62
     3
100
AcDbLine
 10
357.9999981865965
 20
33.99999999413072
 30
0.0
 11
298.7545635465965
 21
33.99999999413071
 31
0.0
  0
LINE
  5
E3B
330
E22
100
AcDbEntity
  8
0
 62
     3
100
AcDbLine
 10
341.2783231165963
 20
14.8328612541307
 30
0.0
 11
357.9999981865965
 21
14.8328612541307
 31
0.0
  0
TEXT
  5
E3C
330
E22
100
AcDbEntity
  8
0
 62
     3
100
AcDbText
 10
342.1643235999122
 20
29.07309684749606
 30
0.0
 40
2.5
  1
******
  7
高2.5
100
AcDbText
  0
TEXT
  5
E3D
330
E22
100
AcDbEntity
  8
0
 62
     3
100
AcDbText
 10
313.1963668818487
 20
29.29781439911463
 30
0.0
 40
2.5
  1
*****
  7
高2.5
100
AcDbText
  0
TEXT
  5
E3E
330
E22
100
AcDbEntity
  8
0
 62
     3
100
AcDbText
 10
313.461274636546
 20
42.3122495178886
 30
0.0
 40
4.5
  1
**********
  7
高4.5
100
AcDbText
1001
ACAD
1000
ACAD_MTEXT_DEFINED_HEIGHT_BEGIN
1070
    46
1040
0.0
1000
ACAD_MTEXT_DEFINED_HEIGHT_END
  0
TEXT
  5
E3F
330
E22
100
AcDbEntity
  8
0
 62
     3
100
AcDbText
 10
400.0655872800703
 20
46.5136920928343
 30
0.0
 40
2.0
  1
DEF
  7
高2
100
AcDbText
  0
TEXT
  5
E40
330
E22
100
AcDbEntity
  8
0
 62
     3
100
AcDbText
 10
386.1264889263623
 20
46.51369209283421
 30
0.0
 40
2.0
  1
DESN
  7
高2
100
AcDbText
  0
TEXT
  5
E41
330
E22
100
AcDbEntity
  8
0
 62
     3
100
AcDbText
 10
359.8721219863622
 20
46.5136920928343
 30
0.0
 40
2.0
  1
APPD
  7
高2
100
AcDbText
  0
TEXT
  5
E42
330
E22
100
AcDbEntity
  8
0
 62
     3
100
AcDbText
 10
372.9848580865964
 20
46.51369209283433
 30
0.0
 40
2.0
  1
CHCK
  7
高2
100
AcDbText
  0
TEXT
  5
E43
330
E22
100
AcDbEntity
  8
0
 62
     3
100
AcDbText
 10
331.9271638257492
 20
24.16839881736144
 30
0.0
 40
2.0
  1
SCALE
 41
0.8
  7
高2
100
AcDbText
  0
TEXT
  5
E44
330
E22
100
AcDbEntity
  8
0
 62
     3
100
AcDbText
 10
300.4391422496427
 20
24.16839881736145
 30
0.0
 40
2.0
  1
3AD　ANGLE
 41
1.5
  7
高2
100
AcDbText
  0
TEXT
  5
E45
330
E22
100
AcDbEntity
  8
0
 62
     3
100
AcDbText
 10
331.196569516598
 20
30.91993688631854
 30
0.0
 40
2.0
  1
REMARKS
 41
0.7
  7
高2
100
AcDbText
  0
TEXT
  5
E46
330
E22
100
AcDbEntity
  8
0
 62
     3
100
AcDbText
 10
300.2222338965964
 20
30.99999999413072
 30
0.0
 40
2.0
  1
MATERIAL
 41
0.7
  7
高2
100
AcDbText
  0
TEXT
  5
E47
330
E22
100
AcDbEntity
  8
0
 62
     3
100
AcDbText
 10
300.7987210993507
 20
37.99999999413071
 30
0.0
 40
2.0
  1
MODEL
  7
高2
100
AcDbText
  0
TEXT
  5
E48
330
E22
100
AcDbEntity
  8
0
 62
     3
100
AcDbText
 10
300.4356419806818
 20
46.7070213447297
 30
0.0
 40
2.0
  1
CONPONENTS
 41
0.5
  7
高2
100
AcDbText
  0
TEXT
  5
E49
330
E22
100
AcDbEntity
  8
0
 62
     3
100
AcDbText
 10
313.1427574518486
 20
35.08748112194266
 30
0.0
 40
4.5
  1
********
  7
高4.5
100
AcDbText
  0
TEXT
  5
E4A
330
E22
100
AcDbEntity
  8
0
 62
     3
100
AcDbText
 10
361.0953416256493
 20
11.14419095096582
 30
0.0
 40
6.299999999999998
  1
*-********
 41
0.6
  7
高6.3
100
AcDbText
1001
ACAD
1000
ACAD_MTEXT_DEFINED_HEIGHT_BEGIN
1070
    46
1040
0.0
1000
ACAD_MTEXT_DEFINED_HEIGHT_END
  0
TEXT
  5
E4B
330
E22
100
AcDbEntity
  8
0
 62
     3
100
AcDbText
 10
374.563507936926
 20
21.10088915236372
 30
0.0
 40
3.2
  1
******
  7
高3.2
100
AcDbText
1001
ACAD
1000
ACAD_MTEXT_DEFINED_HEIGHT_BEGIN
1070
    46
1040
0.0
1000
ACAD_MTEXT_DEFINED_HEIGHT_END
  0
TEXT
  5
E4C
330
E22
100
AcDbEntity
  8
0
 62
     3
100
AcDbText
 10
344.7875960812428
 20
21.10091699669859
 30
0.0
 40
3.2
  1
1/1
  7
高3.2
100
AcDbText
  0
TEXT
  5
E4D
330
E22
100
AcDbEntity
  8
0
 62
     3
100
AcDbText
 10
341.8649250565963
 20
10.81687816726668
 30
0.0
 40
3.2
  1
ZK-A3X
 41
0.8
  7
高3.2
100
AcDbText
  0
TEXT
  5
E4E
330
E22
100
AcDbEntity
  8
0
 62
     3
100
AcDbText
 10
299.5852645865964
 20
16.52462041631854
 30
0.0
 40
2.0
  1
NICHIDO IND.CO.LTD
 41
1.3
  7
高2
100
AcDbText
  0
TEXT
  5
E4F
330
E22
100
AcDbEntity
  8
0
 62
     3
100
AcDbText
 10
300.7667878515535
 20
42.14052820201565
 30
0.0
 40
3.2
  1
品 名
  7
高3.2
100
AcDbText
1001
ACAD
1000
ACAD_MTEXT_DEFINED_HEIGHT_BEGIN
1070
    46
1040
0.0
1000
ACAD_MTEXT_DEFINED_HEIGHT_END
  0
TEXT
  5
E50
330
E22
100
AcDbEntity
  8
0
 62
     3
100
AcDbText
 10
300.7667878515535
 20
34.49999999413071
 30
0.0
 40
3.2
  1
型 式
  7
高3.2
100
AcDbText
1001
ACAD
1000
ACAD_MTEXT_DEFINED_HEIGHT_BEGIN
1070
    46
1040
3.064735913775952
1000
ACAD_MTEXT_DEFINED_HEIGHT_END
  0
TEXT
  5
E51
330
E22
100
AcDbEntity
  8
0
 62
     3
100
AcDbText
 10
300.7667878515535
 20
27.49999999413072
 30
0.0
 40
3.2
  1
材 質
  7
高3.2
100
AcDbText
1001
ACAD
1000
ACAD_MTEXT_DEFINED_HEIGHT_BEGIN
1070
    46
1040
0.0
1000
ACAD_MTEXT_DEFINED_HEIGHT_END
  0
TEXT
  5
E52
330
E22
100
AcDbEntity
  8
0
 62
     3
100
AcDbText
 10
300.4617529015536
 20
20.46743998637696
 30
0.0
 40
3.2
  1
第 三 角 法
  7
高3.2
100
AcDbText
1001
ACAD
1000
ACAD_MTEXT_DEFINED_HEIGHT_BEGIN
1070
    46
1040
0.0
1000
ACAD_MTEXT_DEFINED_HEIGHT_END
  0
TEXT
  5
E53
330
E22
100
AcDbEntity
  8
0
 62
     3
100
AcDbText
 10
298.8682855090824
 20
11.14052820201564
 30
0.0
 40
3.2
  1
日動工業株式会社
 41
1.199999999999999
  7
高3.2
100
AcDbText
1001
ACAD
1000
ACAD_MTEXT_DEFINED_HEIGHT_BEGIN
1070
    46
1040
0.0
1000
ACAD_MTEXT_DEFINED_HEIGHT_END
  0
TEXT
  5
E54
330
E22
100
AcDbEntity
  8
0
 62
     3
100
AcDbText
 10
332.503909708561
 20
27.38457852729828
 30
0.0
 40
3.2
  1
備考
  7
高3.2
100
AcDbText
1001
ACAD
1000
ACAD_MTEXT_DEFINED_HEIGHT_BEGIN
1070
    46
1040
0.0
1000
ACAD_MTEXT_DEFINED_HEIGHT_END
  0
TEXT
  5
E55
330
E22
100
AcDbEntity
  8
0
 62
     3
100
AcDbText
 10
342.1529671555963
 20
16.14623001970101
 30
0.0
 40
2.5
  1
出図コード
  7
高2.5
100
AcDbText
1001
ACAD
1000
ACAD_MTEXT_DEFINED_HEIGHT_BEGIN
1070
    46
1040
0.0
1000
ACAD_MTEXT_DEFINED_HEIGHT_END
  0
TEXT
  5
E56
330
E22
100
AcDbEntity
  8
0
 62
     3
100
AcDbText
 10
332.3451435904735
 20
20.45323490454364
 30
0.0
 40
3.2
  1
尺度
  7
高3.2
100
AcDbText
1001
ACAD
1000
ACAD_MTEXT_DEFINED_HEIGHT_BEGIN
1070
    46
1040
0.0
1000
ACAD_MTEXT_DEFINED_HEIGHT_END
  0
TEXT
  5
E57
330
E22
100
AcDbEntity
  8
0
 62
     3
100
AcDbText
 10
359.4914050722524
 20
21.58471335266113
 30
0.0
 40
3.2
  1
作成日
  7
高3.2
100
AcDbText
1001
ACAD
1000
ACAD_MTEXT_DEFINED_HEIGHT_BEGIN
1070
    46
1040
0.0
1000
ACAD_MTEXT_DEFINED_HEIGHT_END
  0
TEXT
  5
E58
330
E22
100
AcDbEntity
  8
0
 62
     3
100
AcDbText
 10
359.3858790791162
 20
42.14052820201565
 30
0.0
 40
3.2
  1
承 認
  7
高3.2
100
AcDbText
1001
ACAD
1000
ACAD_MTEXT_DEFINED_HEIGHT_BEGIN
1070
    46
1040
0.0
1000
ACAD_MTEXT_DEFINED_HEIGHT_END
  0
TEXT
  5
E59
330
E22
100
AcDbEntity
  8
0
 62
     3
100
AcDbText
 10
372.3858790791162
 20
42.14052820201565
 30
0.0
 40
3.2
  1
検 図
  7
高3.2
100
AcDbText
1001
ACAD
1000
ACAD_MTEXT_DEFINED_HEIGHT_BEGIN
1070
    46
1040
0.0
1000
ACAD_MTEXT_DEFINED_HEIGHT_END
  0
TEXT
  5
E5A
330
E22
100
AcDbEntity
  8
0
 62
     3
100
AcDbText
 10
385.3858790791162
 20
42.14052820201565
 30
0.0
 40
3.2
  1
設 計
  7
高3.2
100
AcDbText
1001
ACAD
1000
ACAD_MTEXT_DEFINED_HEIGHT_BEGIN
1070
    46
1040
0.0
1000
ACAD_MTEXT_DEFINED_HEIGHT_END
  0
TEXT
  5
E5B
330
E22
100
AcDbEntity
  8
0
 62
     3
100
AcDbText
 10
398.6865155991162
 20
42.14052820201565
 30
0.0
 40
3.2
  1
製 図
  7
高3.2
100
AcDbText
1001
ACAD
1000
ACAD_MTEXT_DEFINED_HEIGHT_BEGIN
1070
    46
1040
0.0
1000
ACAD_MTEXT_DEFINED_HEIGHT_END
  0
LINE
  5
E5C
330
E22
100
AcDbEntity
  8
0
 62
     3
100
AcDbLine
 10
198.9789907271299
 20
286.3329566777442
 30
0.0
 11
198.9789907271299
 21
281.5981987292973
 31
0.0
  0
LINE
  5
E5D
330
E22
100
AcDbEntity
  8
0
 62
     3
100
AcDbLine
 10
199.9441995486006
 20
284.4845004919676
 30
0.0
 11
199.9441995486006
 21
281.5981987292973
 31
0.0
  0
LINE
  5
E5E
330
E22
100
AcDbEntity
  8
0
 62
     3
100
AcDbLine
 10
202.6530537345975
 20
286.3329566777442
 30
0.0
 11
202.6530537345975
 21
284.2481715114516
 31
0.0
  0
LINE
  5
E5F
330
E22
100
AcDbEntity
  8
0
 62
     3
100
AcDbLine
 10
203.6182615442728
 20
286.3329566777442
 30
0.0
 11
203.6182615442728
 21
280.9636161488519
 31
0.0
  0
LINE
  5
E60
330
E22
100
AcDbEntity
  8
0
 62
     3
100
AcDbLine
 10
205.1557182373362
 20
286.3004355000498
 30
0.0
 11
205.1557182373362
 21
281.5657352239116
 31
0.0
  0
LINE
  5
E61
330
E22
100
AcDbEntity
  8
0
 62
     3
100
AcDbLine
 10
206.6850300305421
 20
286.3004142523569
 30
0.0
 11
206.6850300305421
 21
281.5657139762189
 31
0.0
  0
LINE
  5
E62
330
E22
100
AcDbEntity
  8
0
 62
     3
100
AcDbLine
 10
212.3469265326846
 20
286.3003434267143
 30
0.0
 11
212.3468435655034
 21
281.5656441623712
 31
0.0
  0
LINE
  5
E63
330
E22
100
AcDbEntity
  8
0
 62
     3
100
AcDbLine
 10
217.0254013665763
 20
286.3003434267143
 30
0.0
 11
217.0254843337575
 21
281.5656441623712
 31
0.0
  0
LINE
  5
E64
330
E22
100
AcDbEntity
  8
0
 62
     3
100
AcDbLine
 10
215.4632021921434
 20
284.2375354573091
 30
0.0
 11
213.9091257071175
 21
284.2375354573091
 31
0.0
  0
LINE
  5
E65
330
E22
100
AcDbEntity
  8
0
 62
     3
100
AcDbLine
 10
215.4631920741945
 20
283.6285927712666
 30
0.0
 11
213.9091368368613
 21
283.6285927712666
 31
0.0
  0
LINE
  5
E66
330
E22
100
AcDbEntity
  8
0
 62
     3
100
AcDbLine
 10
215.4632386167596
 20
286.3003434267143
 30
0.0
 11
215.4632021921434
 21
284.2375354573091
 31
0.0
  0
LINE
  5
E67
330
E22
100
AcDbEntity
  8
0
 62
     3
100
AcDbLine
 10
215.4631920741945
 20
283.6285927712666
 30
0.0
 11
215.4631556495781
 21
281.5656441623712
 31
0.0
  0
LINE
  5
E68
330
E22
100
AcDbEntity
  8
0
 62
     3
100
AcDbLine
 10
213.9090892825013
 20
286.3003434267143
 30
0.0
 11
213.9091257071175
 21
284.2375354573091
 31
0.0
  0
LINE
  5
E69
330
E22
100
AcDbEntity
  8
0
 62
     3
100
AcDbLine
 10
213.9091368368613
 20
283.6285927712666
 30
0.0
 11
213.9091722496825
 21
281.5656441623712
 31
0.0
  0
LINE
  5
E6A
330
E22
100
AcDbEntity
  8
0
 62
     3
100
AcDbLine
 10
218.566574246064
 20
286.3003434267143
 30
0.0
 11
218.5664912788827
 21
281.5656441623712
 31
0.0
  0
LINE
  5
E6B
330
E22
100
AcDbEntity
  8
0
 62
     3
100
AcDbLine
 10
220.0958536618334
 20
286.3003434267143
 30
0.0
 11
220.0959356172195
 21
281.5656441623712
 31
0.0
  0
LINE
  5
E6C
330
E22
100
AcDbEntity
  8
0
 62
     3
100
AcDbLine
 10
221.6547809851429
 20
286.3003434267143
 30
0.0
 11
221.6546990297565
 21
281.5656441623712
 31
0.0
  0
ARC
  5
E6D
330
E22
100
AcDbEntity
  8
0
 62
     3
100
AcDbCircle
 10
210.0510690009655
 20
283.9466363309928
 30
0.0
 40
3.015561595733376
100
AcDbArc
 50
97.70152400000624
 51
266.0248408089489
  0
ARC
  5
E6E
330
E22
100
AcDbEntity
  8
0
 62
     3
100
AcDbCircle
 10
228.2489679580369
 20
283.9163452154633
 30
0.0
 40
3.048311372854727
100
AcDbArc
 50
0.3142499999975672
 51
69.00558200000452
  0
ARC
  5
E6F
330
E22
100
AcDbEntity
  8
0
 62
     3
100
AcDbCircle
 10
228.9148372601874
 20
283.9163452154633
 30
0.0
 40
3.048311372854727
100
AcDbArc
 50
110.9944179999954
 51
148.1166110000009
  0
ARC
  5
E70
330
E22
100
AcDbEntity
  8
0
 62
     3
100
AcDbCircle
 10
228.2489679580369
 20
283.9497830131125
 30
0.0
 40
3.048311372854727
100
AcDbArc
 50
290.9944179999955
 51
359.6857499999992
  0
ARC
  5
E71
330
E22
100
AcDbEntity
  8
0
 62
     3
100
AcDbCircle
 10
228.9148372601874
 20
283.9497830131125
 30
0.0
 40
3.048311372854727
100
AcDbArc
 50
211.8833889999971
 51
249.0055820000045
  0
ARC
  5
E72
330
E22
100
AcDbEntity
  8
0
 62
     3
100
AcDbCircle
 10
228.5819031150095
 20
285.1801812526487
 30
0.0
 40
1.754843910410663
100
AcDbArc
 50
64.36517200000682
 51
115.6348279999931
  0
ARC
  5
E73
330
E22
100
AcDbEntity
  8
0
 62
     3
100
AcDbCircle
 10
228.5819031150095
 20
282.6859469759272
 30
0.0
 40
1.754843910410663
100
AcDbArc
 50
244.3651720000068
 51
295.6348279999931
  0
ARC
  5
E74
330
E22
100
AcDbEntity
  8
0
 62
     3
100
AcDbCircle
 10
228.5819031150095
 20
285.2135158472186
 30
0.0
 40
0.8612620730595795
100
AcDbArc
 50
19.48660600000012
 51
160.5133939999998
  0
ARC
  5
E75
330
E22
100
AcDbEntity
  8
0
 62
     3
100
AcDbCircle
 10
228.5819031150095
 20
282.6526133931521
 30
0.0
 40
0.8612620730595795
100
AcDbArc
 50
199.4866060000001
 51
340.5133939999999
  0
LINE
  5
E76
330
E22
100
AcDbEntity
  8
0
 62
     3
100
AcDbLine
 10
220.6021646478169
 20
280.9311030655166
 30
0.0
 11
218.0602632600805
 21
280.9311030655166
 31
0.0
  0
LINE
  5
E77
330
E22
100
AcDbEntity
  8
0
 62
     3
100
AcDbLine
 10
220.6021646478169
 20
281.2368978362588
 30
0.0
 11
220.6021646478169
 21
280.9311030655166
 31
0.0
  0
LINE
  5
E78
330
E22
100
AcDbEntity
  8
0
 62
     3
100
AcDbLine
 10
217.5317133643546
 20
286.9348824999793
 30
0.0
 11
214.9569276307762
 21
286.9348824999793
 31
0.0
  0
LINE
  5
E79
330
E22
100
AcDbEntity
  8
0
 62
     3
100
AcDbLine
 10
217.5317133643546
 20
286.9348824999793
 30
0.0
 11
217.5317133643546
 21
286.629230392317
 31
0.0
  0
LINE
  5
E7A
330
E22
100
AcDbEntity
  8
0
 62
     3
100
AcDbLine
 10
217.5317133643546
 20
281.2368978362588
 30
0.0
 11
217.5317133643546
 21
280.9309604024365
 31
0.0
  0
LINE
  5
E7B
330
E22
100
AcDbEntity
  8
0
 62
     3
100
AcDbLine
 10
217.5317133643546
 20
280.9309604024365
 30
0.0
 11
214.9569276307762
 21
280.9309604024365
 31
0.0
  0
LINE
  5
E7C
330
E22
100
AcDbEntity
  8
0
 62
     3
100
AcDbLine
 10
220.6021646478169
 20
286.9350251630593
 30
0.0
 11
220.6021646478169
 21
286.629230392317
 31
0.0
  0
LINE
  5
E7D
330
E22
100
AcDbEntity
  8
0
 62
     3
100
AcDbLine
 10
220.6021646478169
 20
286.9350251630593
 30
0.0
 11
218.0602632600805
 21
286.9350251630593
 31
0.0
  0
LINE
  5
E7E
330
E22
100
AcDbEntity
  8
0
 62
     3
100
AcDbLine
 10
218.0602632600805
 20
286.9350251630593
 30
0.0
 11
218.0602632600805
 21
286.629230392317
 31
0.0
  0
LINE
  5
E7F
330
E22
100
AcDbEntity
  8
0
 62
     3
100
AcDbLine
 10
221.1484699991597
 20
281.2368978362588
 30
0.0
 11
221.1484699991597
 21
280.9311030655166
 31
0.0
  0
LINE
  5
E80
330
E22
100
AcDbEntity
  8
0
 62
     3
100
AcDbLine
 10
223.8930918614358
 20
280.9311030655166
 30
0.0
 11
221.1484699991597
 21
280.9311030655166
 31
0.0
  0
LINE
  5
E81
330
E22
100
AcDbEntity
  8
0
 62
     3
100
AcDbLine
 10
223.1840604009124
 20
285.9698173533837
 30
0.0
 11
223.1840604009124
 21
281.896310875192
 31
0.0
  0
LINE
  5
E82
330
E22
100
AcDbEntity
  8
0
 62
     3
100
AcDbLine
 10
223.1840604009124
 20
281.896310875192
 30
0.0
 11
223.4587606909795
 21
281.896310875192
 31
0.0
  0
ARC
  5
E83
330
E22
100
AcDbEntity
  8
0
 62
     3
100
AcDbCircle
 10
222.0541212527883
 20
283.9330641142879
 30
0.0
 40
2.474141041926213
100
AcDbArc
 50
304.591955000008
 51
55.408044999992
  0
LINE
  5
E84
330
E22
100
AcDbEntity
  8
0
 62
     3
100
AcDbLine
 10
223.8930918614358
 20
286.9350251630593
 30
0.0
 11
221.1484699991597
 21
286.9350251630593
 31
0.0
  0
LINE
  5
E85
330
E22
100
AcDbEntity
  8
0
 62
     3
100
AcDbLine
 10
221.1484699991597
 20
286.9350251630593
 30
0.0
 11
221.1484699991597
 21
286.629230392317
 31
0.0
  0
LINE
  5
E86
330
E22
100
AcDbEntity
  8
0
 62
     3
100
AcDbLine
 10
218.0602632600805
 20
281.2368978362588
 30
0.0
 11
218.0602632600805
 21
280.9311030655166
 31
0.0
  0
LINE
  5
E87
330
E22
100
AcDbEntity
  8
0
 62
     3
100
AcDbLine
 10
223.1840604009124
 20
285.9698173533837
 30
0.0
 11
223.4587606909795
 21
285.9698173533837
 31
0.0
  0
LINE
  5
E88
330
E22
100
AcDbEntity
  8
0
 62
     3
100
AcDbLine
 10
207.1912529901553
 20
281.2368882650634
 30
0.0
 11
207.1912469193862
 21
280.9310651640641
 31
0.0
  0
LINE
  5
E89
330
E22
100
AcDbEntity
  8
0
 62
     3
100
AcDbLine
 10
198.4726797411465
 20
280.9636161488519
 30
0.0
 11
200.4505105345838
 21
280.9636161488519
 31
0.0
  0
ARC
  5
E8A
330
E22
100
AcDbEntity
  8
0
 62
     3
100
AcDbCircle
 10
190.5288527955408
 20
284.0037551881305
 30
0.0
 40
21.26730034229026
100
AcDbArc
 50
353.8660059999985
 51
357.6940340000007
  0
LINE
  5
E8B
330
E22
100
AcDbEntity
  8
0
 62
     3
100
AcDbLine
 10
210.3550900952591
 20
283.1533162850495
 30
0.0
 11
211.7789323887391
 21
283.1480478690377
 31
0.0
  0
LINE
  5
E8C
330
E22
100
AcDbEntity
  8
0
 62
     3
100
AcDbLine
 10
210.3608401256404
 20
284.7074544895639
 30
0.0
 11
210.3339152517226
 21
284.8798461271531
 31
0.0
  0
LINE
  5
E8D
330
E22
100
AcDbEntity
  8
0
 62
     3
100
AcDbLine
 10
210.3339152517226
 20
284.8798461271531
 30
0.0
 11
210.3015792987126
 21
285.0449204640707
 31
0.0
  0
LINE
  5
E8E
330
E22
100
AcDbEntity
  8
0
 62
     3
100
AcDbLine
 10
210.3015792987126
 20
285.0449204640707
 30
0.0
 11
210.2640831917445
 21
285.2014006151606
 31
0.0
  0
LINE
  5
E8F
330
E22
100
AcDbEntity
  8
0
 62
     3
100
AcDbLine
 10
210.2640831917445
 20
285.2014006151606
 30
0.0
 11
210.2217142805682
 21
285.34807647373
 31
0.0
  0
LINE
  5
E90
330
E22
100
AcDbEntity
  8
0
 62
     3
100
AcDbLine
 10
210.2217142805682
 20
285.34807647373
 30
0.0
 11
210.174802410319
 21
285.4838158412927
 31
0.0
  0
LINE
  5
E91
330
E22
100
AcDbEntity
  8
0
 62
     3
100
AcDbLine
 10
210.174802410319
 20
285.4838158412927
 30
0.0
 11
210.1237087917736
 21
285.607568474749
 31
0.0
  0
LINE
  5
E92
330
E22
100
AcDbEntity
  8
0
 62
     3
100
AcDbLine
 10
210.1237087917736
 20
285.607568474749
 30
0.0
 11
210.068828024941
 21
285.7183772161294
 31
0.0
  0
LINE
  5
E93
330
E22
100
AcDbEntity
  8
0
 62
     3
100
AcDbLine
 10
210.068828024941
 20
285.7183772161294
 30
0.0
 11
210.0105860754711
 21
285.8153870987485
 31
0.0
  0
LINE
  5
E94
330
E22
100
AcDbEntity
  8
0
 62
     3
100
AcDbLine
 10
210.0105860754711
 20
285.8153870987485
 30
0.0
 11
209.9494321802972
 21
285.8978483825904
 31
0.0
  0
LINE
  5
E95
330
E22
100
AcDbEntity
  8
0
 62
     3
100
AcDbLine
 10
209.9494321802972
 20
285.8978483825904
 30
0.0
 11
209.8858388476344
 21
285.9651216132818
 31
0.0
  0
LINE
  5
E96
330
E22
100
AcDbEntity
  8
0
 62
     3
100
AcDbLine
 10
209.8858388476344
 20
285.9651216132818
 30
0.0
 11
209.8202978098011
 21
286.0166887518374
 31
0.0
  0
LINE
  5
E97
330
E22
100
AcDbEntity
  8
0
 62
     3
100
AcDbLine
 10
209.8202978098011
 20
286.0166887518374
 30
0.0
 11
209.753314964244
 21
286.052150139274
 31
0.0
  0
LINE
  5
E98
330
E22
100
AcDbEntity
  8
0
 62
     3
100
AcDbLine
 10
209.753314964244
 20
286.052150139274
 30
0.0
 11
209.685409361744
 21
286.0712325909704
 31
0.0
  0
LINE
  5
E99
330
E22
100
AcDbEntity
  8
0
 62
     3
100
AcDbLine
 10
209.685409361744
 20
286.0712325909704
 30
0.0
 11
209.6171051120557
 21
286.0737883848722
 31
0.0
  0
LINE
  5
E9A
330
E22
100
AcDbEntity
  8
0
 62
     3
100
AcDbLine
 10
209.6171051120557
 20
286.0737883848722
 30
0.0
 11
209.548930372114
 21
286.0597962732862
 31
0.0
  0
LINE
  5
E9B
330
E22
100
AcDbEntity
  8
0
 62
     3
100
AcDbLine
 10
209.548930372114
 20
286.0597962732862
 30
0.0
 11
209.4814112752633
 21
286.0293665418562
 31
0.0
  0
LINE
  5
E9C
330
E22
100
AcDbEntity
  8
0
 62
     3
100
AcDbLine
 10
209.4814112752633
 20
286.0293665418562
 30
0.0
 11
209.4150709194639
 21
285.9827339269975
 31
0.0
  0
LINE
  5
E9D
330
E22
100
AcDbEntity
  8
0
 62
     3
100
AcDbLine
 10
209.4150709194639
 20
285.9827339269975
 30
0.0
 11
209.3504222847266
 21
285.9202576158974
 31
0.0
  0
LINE
  5
E9E
330
E22
100
AcDbEntity
  8
0
 62
     3
100
AcDbLine
 10
209.3504222847266
 20
285.9202576158974
 30
0.0
 11
209.2879631741398
 21
285.842421246515
 31
0.0
  0
LINE
  5
E9F
330
E22
100
AcDbEntity
  8
0
 62
     3
100
AcDbLine
 10
209.2879631741398
 20
285.842421246515
 30
0.0
 11
209.2281782374571
 21
285.7498268368122
 31
0.0
  0
LINE
  5
EA0
330
E22
100
AcDbEntity
  8
0
 62
     3
100
AcDbLine
 10
209.2281782374571
 20
285.7498268368122
 30
0.0
 11
209.1715288531502
 21
285.6431897257789
 31
0.0
  0
LINE
  5
EA1
330
E22
100
AcDbEntity
  8
0
 62
     3
100
AcDbLine
 10
209.1715288531502
 20
285.6431897257789
 30
0.0
 11
209.1184531284079
 21
285.5233335144585
 31
0.0
  0
LINE
  5
EA2
330
E22
100
AcDbEntity
  8
0
 62
     3
100
AcDbLine
 10
209.1184531284079
 20
285.5233335144585
 30
0.0
 11
209.0693608401625
 21
285.3911860187687
 31
0.0
  0
LINE
  5
EA3
330
E22
100
AcDbEntity
  8
0
 62
     3
100
AcDbLine
 10
209.0693608401625
 20
285.3911860187687
 30
0.0
 11
209.024631411499
 21
285.2477681397571
 31
0.0
  0
LINE
  5
EA4
330
E22
100
AcDbEntity
  8
0
 62
     3
100
AcDbLine
 10
209.024631411499
 20
285.2477681397571
 30
0.0
 11
208.984611888066
 21
285.0941888046277
 31
0.0
  0
LINE
  5
EA5
330
E22
100
AcDbEntity
  8
0
 62
     3
100
AcDbLine
 10
208.984611888066
 20
285.0941888046277
 30
0.0
 11
208.9496098555112
 21
284.9316338369956
 31
0.0
  0
LINE
  5
EA6
330
E22
100
AcDbEntity
  8
0
 62
     3
100
AcDbLine
 10
208.9496098555112
 20
284.9316338369956
 30
0.0
 11
208.9198964748659
 21
284.7613598861189
 31
0.0
  0
LINE
  5
EA7
330
E22
100
AcDbEntity
  8
0
 62
     3
100
AcDbLine
 10
208.9198964748659
 20
284.7613598861189
 30
0.0
 11
208.8957024353663
 21
284.5846843089494
 31
0.0
  0
LINE
  5
EA8
330
E22
100
AcDbEntity
  8
0
 62
     3
100
AcDbLine
 10
208.8957024353663
 20
284.5846843089494
 30
0.0
 11
208.8772128954777
 21
284.4029720167987
 31
0.0
  0
LINE
  5
EA9
330
E22
100
AcDbEntity
  8
0
 62
     3
100
AcDbLine
 10
208.8772128954777
 20
284.4029720167987
 30
0.0
 11
208.8645725418698
 21
284.2176273809794
 31
0.0
  0
LINE
  5
EAA
330
E22
100
AcDbEntity
  8
0
 62
     3
100
AcDbLine
 10
208.8645725418698
 20
284.2176273809794
 30
0.0
 11
208.8578785068528
 21
284.0300841148561
 31
0.0
  0
LINE
  5
EAB
330
E22
100
AcDbEntity
  8
0
 62
     3
100
AcDbLine
 10
208.8578785068528
 20
284.0300841148561
 30
0.0
 11
208.8571813801709
 21
283.8417900969215
 31
0.0
  0
LINE
  5
EAC
330
E22
100
AcDbEntity
  8
0
 62
     3
100
AcDbLine
 10
208.8571813801709
 20
283.8417900969215
 30
0.0
 11
208.8624882443887
 21
283.6542013000278
 31
0.0
  0
LINE
  5
EAD
330
E22
100
AcDbEntity
  8
0
 62
     3
100
AcDbLine
 10
208.8624882443887
 20
283.6542013000278
 30
0.0
 11
208.8737566041207
 21
283.4687686380529
 31
0.0
  0
LINE
  5
EAE
330
E22
100
AcDbEntity
  8
0
 62
     3
100
AcDbLine
 10
208.8737566041207
 20
283.4687686380529
 30
0.0
 11
208.8909004568006
 21
283.286923800771
 31
0.0
  0
LINE
  5
EAF
330
E22
100
AcDbEntity
  8
0
 62
     3
100
AcDbLine
 10
208.8909004568006
 20
283.286923800771
 30
0.0
 11
208.9137872572974
 21
283.1100741948798
 31
0.0
  0
LINE
  5
EB0
330
E22
100
AcDbEntity
  8
0
 62
     3
100
AcDbLine
 10
208.9137872572974
 20
283.1100741948798
 30
0.0
 11
208.9422389297101
 21
282.9395857434857
 31
0.0
  0
LINE
  5
EB1
330
E22
100
AcDbEntity
  8
0
 62
     3
100
AcDbLine
 10
208.9422389297101
 20
282.9395857434857
 30
0.0
 11
208.9760369263413
 21
282.7767768153353
 31
0.0
  0
LINE
  5
EB2
330
E22
100
AcDbEntity
  8
0
 62
     3
100
AcDbLine
 10
208.9760369263413
 20
282.7767768153353
 30
0.0
 11
209.0149191923138
 21
282.6229040596865
 31
0.0
  0
LINE
  5
EB3
330
E22
100
AcDbEntity
  8
0
 62
     3
100
AcDbLine
 10
209.0149191923138
 20
282.6229040596865
 30
0.0
 11
209.0585862363389
 21
282.4791593709244
 31
0.0
  0
LINE
  5
EB4
330
E22
100
AcDbEntity
  8
0
 62
     3
100
AcDbLine
 10
209.0585862363389
 20
282.4791593709244
 30
0.0
 11
209.106699107127
 21
282.3466516762524
 31
0.0
  0
LINE
  5
EB5
330
E22
100
AcDbEntity
  8
0
 62
     3
100
AcDbLine
 10
209.106699107127
 20
282.3466516762524
 30
0.0
 11
209.1588864759526
 21
282.2264069356927
 31
0.0
  0
LINE
  5
EB6
330
E22
100
AcDbEntity
  8
0
 62
     3
100
AcDbLine
 10
209.1588864759526
 20
282.2264069356927
 30
0.0
 11
209.2147456484474
 21
282.1193539769581
 31
0.0
  0
LINE
  5
EB7
330
E22
100
AcDbEntity
  8
0
 62
     3
100
AcDbLine
 10
209.2147456484474
 20
282.1193539769581
 30
0.0
 11
209.2738435763974
 21
282.0263194364764
 31
0.0
  0
LINE
  5
EB8
330
E22
100
AcDbEntity
  8
0
 62
     3
100
AcDbLine
 10
209.2738435763974
 20
282.0263194364764
 30
0.0
 11
209.3357239403051
 21
281.9480227004174
 31
0.0
  0
LINE
  5
EB9
330
E22
100
AcDbEntity
  8
0
 62
     3
100
AcDbLine
 10
209.3357239403051
 20
281.9480227004174
 30
0.0
 11
209.3999091729809
 21
281.8850698339223
 31
0.0
  0
LINE
  5
EBA
330
E22
100
AcDbEntity
  8
0
 62
     3
100
AcDbLine
 10
209.3999091729809
 20
281.8850698339223
 30
0.0
 11
209.4659024831317
 21
281.837947510335
 31
0.0
  0
LINE
  5
EBB
330
E22
100
AcDbEntity
  8
0
 62
     3
100
AcDbLine
 10
209.4659024831317
 20
281.837947510335
 30
0.0
 11
209.5331939261312
 21
281.8070189640224
 31
0.0
  0
LINE
  5
EBC
330
E22
100
AcDbEntity
  8
0
 62
     3
100
AcDbLine
 10
209.5331939261312
 20
281.8070189640224
 30
0.0
 11
209.6012634394042
 21
281.7925229785795
 31
0.0
  0
LINE
  5
EBD
330
E22
100
AcDbEntity
  8
0
 62
     3
100
AcDbLine
 10
209.6012634394042
 20
281.7925229785795
 30
0.0
 11
209.6695848896054
 21
281.7945728750343
 31
0.0
  0
LINE
  5
EBE
330
E22
100
AcDbEntity
  8
0
 62
     3
100
AcDbLine
 10
209.6695848896054
 20
281.7945728750343
 30
0.0
 11
209.737630119801
 21
281.8131514528736
 31
0.0
  0
LINE
  5
EBF
330
E22
100
AcDbEntity
  8
0
 62
     3
100
AcDbLine
 10
209.737630119801
 20
281.8131514528736
 30
0.0
 11
209.8048729966456
 21
281.8481170608123
 31
0.0
  0
LINE
  5
EC0
330
E22
100
AcDbEntity
  8
0
 62
     3
100
AcDbLine
 10
209.8048729966456
 20
281.8481170608123
 30
0.0
 11
209.870794469359
 21
281.8991975260238
 31
0.0
  0
LINE
  5
EC1
330
E22
100
AcDbEntity
  8
0
 62
     3
100
AcDbLine
 10
209.870794469359
 20
281.8991975260238
 30
0.0
 11
209.9348835815197
 21
281.965999260295
 31
0.0
  0
LINE
  5
EC2
330
E22
100
AcDbEntity
  8
0
 62
     3
100
AcDbLine
 10
209.9348835815197
 20
281.965999260295
 30
0.0
 11
209.9966465772197
 21
282.0480042246396
 31
0.0
  0
LINE
  5
EC3
330
E22
100
AcDbEntity
  8
0
 62
     3
100
AcDbLine
 10
209.9966465772197
 20
282.0480042246396
 30
0.0
 11
210.0556048774745
 21
282.1445810590443
 31
0.0
  0
LINE
  5
EC4
330
E22
100
AcDbEntity
  8
0
 62
     3
100
AcDbLine
 10
210.0556048774745
 20
282.1445810590443
 30
0.0
 11
210.1113031745811
 21
282.2549810352876
 31
0.0
  0
LINE
  5
EC5
330
E22
100
AcDbEntity
  8
0
 62
     3
100
AcDbLine
 10
210.1113031745811
 20
282.2549810352876
 30
0.0
 11
210.1633114557105
 21
282.3783522220688
 31
0.0
  0
LINE
  5
EC6
330
E22
100
AcDbEntity
  8
0
 62
     3
100
AcDbLine
 10
210.1633114557105
 20
282.3783522220688
 30
0.0
 11
210.2112270264945
 21
282.5137404968034
 31
0.0
  0
LINE
  5
EC7
330
E22
100
AcDbEntity
  8
0
 62
     3
100
AcDbLine
 10
210.2112270264945
 20
282.5137404968034
 30
0.0
 11
210.2546795700021
 21
282.6600996635711
 31
0.0
  0
LINE
  5
EC8
330
E22
100
AcDbEntity
  8
0
 62
     3
100
AcDbLine
 10
210.2546795700021
 20
282.6600996635711
 30
0.0
 11
210.2933331703284
 21
282.8162975238857
 31
0.0
  0
LINE
  5
EC9
330
E22
100
AcDbEntity
  8
0
 62
     3
100
AcDbLine
 10
210.2933331703284
 20
282.8162975238857
 30
0.0
 11
210.326890359775
 21
282.9811280182338
 31
0.0
  0
LINE
  5
ECA
330
E22
100
AcDbEntity
  8
0
 62
     3
100
AcDbLine
 10
210.326890359775
 20
282.9811280182338
 30
0.0
 11
210.3550900952591
 21
283.1533162850495
 31
0.0
  0
LINE
  5
ECB
330
E22
100
AcDbEntity
  8
0
 62
     3
100
AcDbLine
 10
210.3608401256404
 20
284.7074544895639
 30
0.0
 11
211.7846824191204
 21
284.7021860735519
 31
0.0
  0
ARC
  5
ECC
330
E22
100
AcDbEntity
  8
0
 62
     3
100
AcDbCircle
 10
190.5288527955408
 20
284.0037551881305
 30
0.0
 40
21.26730034229026
100
AcDbArc
 50
1.881965999998799
 51
5.709994000000508
  0
LINE
  5
ECD
330
E22
100
AcDbEntity
  8
0
 62
     3
100
AcDbLine
 10
207.1913521462863
 20
286.9349988766058
 30
0.0
 11
207.1913470873119
 21
286.6292324361205
 31
0.0
  0
LINE
  5
ECE
330
E22
100
AcDbEntity
  8
0
 62
     3
100
AcDbLine
 10
204.6493516026169
 20
281.2368957924554
 30
0.0
 11
204.6493465436422
 21
280.93112935197
 31
0.0
  0
LINE
  5
ECF
330
E22
100
AcDbEntity
  8
0
 62
     3
100
AcDbLine
 10
204.6494507585164
 20
286.9350524616931
 30
0.0
 11
204.6494456995417
 21
286.629228348899
 31
0.0
  0
LINE
  5
ED0
330
E22
100
AcDbEntity
  8
0
 62
     3
100
AcDbLine
 10
200.4505105345838
 20
281.2694109195942
 30
0.0
 11
200.4505105345838
 21
280.9636161488519
 31
0.0
  0
LINE
  5
ED1
330
E22
100
AcDbEntity
  8
0
 62
     3
100
AcDbLine
 10
199.9441995486006
 20
284.4845004919676
 30
0.0
 11
202.1447522630479
 21
280.9636161488519
 31
0.0
  0
LINE
  5
ED2
330
E22
100
AcDbEntity
  8
0
 62
     3
100
AcDbLine
 10
202.1447522630479
 20
280.9636161488519
 30
0.0
 11
203.6182615442728
 21
280.9636161488519
 31
0.0
  0
LINE
  5
ED3
330
E22
100
AcDbEntity
  8
0
 62
     3
100
AcDbLine
 10
204.1245725302563
 20
286.9675382463947
 30
0.0
 11
204.1245725302563
 21
286.6617434756524
 31
0.0
  0
LINE
  5
ED4
330
E22
100
AcDbEntity
  8
0
 62
     3
100
AcDbLine
 10
202.1467427486141
 20
286.9675382463947
 30
0.0
 11
204.1245725302563
 21
286.9675382463947
 31
0.0
  0
LINE
  5
ED5
330
E22
100
AcDbEntity
  8
0
 62
     3
100
AcDbLine
 10
202.1467427486141
 20
286.9675382463947
 30
0.0
 11
202.1467427486141
 21
286.6617434756524
 31
0.0
  0
LINE
  5
ED6
330
E22
100
AcDbEntity
  8
0
 62
     3
100
AcDbLine
 10
202.6530537345975
 20
284.2481715114516
 30
0.0
 11
200.8684691250794
 21
286.9675382463947
 31
0.0
  0
LINE
  5
ED7
330
E22
100
AcDbEntity
  8
0
 62
     3
100
AcDbLine
 10
198.4726797411465
 20
286.9675382463947
 30
0.0
 11
200.8684691250794
 21
286.9675382463947
 31
0.0
  0
LINE
  5
ED8
330
E22
100
AcDbEntity
  8
0
 62
     3
100
AcDbLine
 10
211.8406155467012
 20
286.9348824999793
 30
0.0
 11
214.4154002684847
 21
286.9348824999791
 31
0.0
  0
LINE
  5
ED9
330
E22
100
AcDbEntity
  8
0
 62
     3
100
AcDbLine
 10
211.8406155467012
 20
286.629230392317
 30
0.0
 11
211.8406155467012
 21
286.9348824999793
 31
0.0
  0
LINE
  5
EDA
330
E22
100
AcDbEntity
  8
0
 62
     3
100
AcDbLine
 10
211.8406155467012
 20
280.9309604024365
 30
0.0
 11
211.8406155467012
 21
281.2368978362588
 31
0.0
  0
LINE
  5
EDB
330
E22
100
AcDbEntity
  8
0
 62
     3
100
AcDbLine
 10
211.8406155467012
 20
280.9309604024364
 30
0.0
 11
214.4154002684847
 21
280.9309604024365
 31
0.0
  0
LINE
  5
EDC
330
E22
100
AcDbEntity
  8
0
 62
     3
100
AcDbLine
 10
214.9569276307762
 20
281.2368978362588
 30
0.0
 11
214.9569276307762
 21
280.9309604024365
 31
0.0
  0
LINE
  5
EDD
330
E22
100
AcDbEntity
  8
0
 62
     3
100
AcDbLine
 10
214.4154002684847
 20
281.2368978362588
 30
0.0
 11
214.4154002684847
 21
280.9309604024365
 31
0.0
  0
LINE
  5
EDE
330
E22
100
AcDbEntity
  8
0
 62
     3
100
AcDbLine
 10
214.4154002684847
 20
286.629230392317
 30
0.0
 11
214.4154002684847
 21
286.9348824999793
 31
0.0
  0
LINE
  5
EDF
330
E22
100
AcDbEntity
  8
0
 62
     3
100
AcDbLine
 10
214.9569276307762
 20
286.629230392317
 30
0.0
 11
214.9569276307762
 21
286.9348824999793
 31
0.0
  0
LINE
  5
EE0
330
E22
100
AcDbEntity
  8
0
 62
     3
100
AcDbLine
 10
198.4726797411465
 20
281.2694109195941
 30
0.0
 11
198.4726797411465
 21
280.9636161488519
 31
0.0
  0
LINE
  5
EE1
330
E22
100
AcDbEntity
  8
0
 62
     3
100
AcDbLine
 10
198.4726797411465
 20
286.9675382463947
 30
0.0
 11
198.4726797411465
 21
286.6617434756524
 31
0.0
  0
ARC
  5
EE2
330
E22
100
AcDbEntity
  8
0
 62
     3
100
AcDbCircle
 10
224.150748389565
 20
284.5629034002713
 30
0.0
 40
2.37212176278799
100
AcDbArc
 50
17.30874900000206
 51
23.76507100000091
  0
ARC
  5
EE3
330
E22
100
AcDbEntity
  8
0
 62
     3
100
AcDbCircle
 10
222.12965470004
 20
283.9330641142879
 30
0.0
 40
4.489082006702322
100
AcDbArc
 50
342.691250999998
 51
17.3085660000007
  0
ARC
  5
EE4
330
E22
100
AcDbEntity
  8
0
 62
     3
100
AcDbCircle
 10
224.150748389565
 20
283.3032248283045
 30
0.0
 40
2.37212176278799
100
AcDbArc
 50
336.2349289999991
 51
342.691250999998
  0
ARC
  5
EE5
330
E22
100
AcDbEntity
  8
0
 62
     3
100
AcDbCircle
 10
223.8930918614358
 20
284.5629034002713
 30
0.0
 40
2.37212176278799
100
AcDbArc
 50
17.30874900000206
 51
90.0
  0
ARC
  5
EE6
330
E22
100
AcDbEntity
  8
0
 62
     3
100
AcDbCircle
 10
221.8719930928312
 20
283.9330776767834
 30
0.0
 40
4.489082006702322
100
AcDbArc
 50
342.691250999998
 51
17.3085660000007
  0
ARC
  5
EE7
330
E22
100
AcDbEntity
  8
0
 62
     3
100
AcDbCircle
 10
223.8930918614358
 20
283.3032248283045
 30
0.0
 40
2.37212176278799
100
AcDbArc
 50
270.0
 51
342.691250999998
  0
ARC
  5
EE8
330
E22
100
AcDbEntity
  8
0
 62
     3
100
AcDbCircle
 10
209.6338472821628
 20
283.9330641142879
 30
0.0
 40
3.001961048771398
100
AcDbArc
 50
46.75287999999464
 51
89.74999799999961
  0
ARC
  5
EE9
330
E22
100
AcDbEntity
  8
0
 62
     3
100
AcDbCircle
 10
209.6338472821628
 20
283.9330641142879
 30
0.0
 40
3.001961048771398
100
AcDbArc
 50
273.9763330000016
 51
312.8231199999997
  0
ARC
  5
EEA
330
E22
100
AcDbEntity
  8
0
 62
     3
100
AcDbCircle
 10
225.7520837904888
 20
283.8867218845638
 30
0.0
 40
3.983420308030568
100
AcDbArc
 50
0.6665839999989652
 51
23.90392800000231
  0
ARC
  5
EEB
330
E22
100
AcDbEntity
  8
0
 62
     3
100
AcDbCircle
 10
231.4117214277355
 20
283.8867218845638
 30
0.0
 40
3.983420308030568
100
AcDbArc
 50
156.0960719999977
 51
179.333416000001
  0
ARC
  5
EEC
330
E22
100
AcDbEntity
  8
0
 62
     3
100
AcDbCircle
 10
225.7520837904888
 20
283.979406344012
 30
0.0
 40
3.983420308030568
100
AcDbArc
 50
336.096071999998
 51
359.3334159999978
  0
ARC
  5
EED
330
E22
100
AcDbEntity
  8
0
 62
     3
100
AcDbCircle
 10
231.4117214277355
 20
283.979406344012
 30
0.0
 40
3.983420308030568
100
AcDbArc
 50
180.666583999999
 51
203.9039280000023
  0
LINE
  5
EEE
330
E22
100
AcDbEntity
  8
0
  6
Continuous
 62
     3
100
AcDbLine
 10
198.4726797411465
 20
286.6617434756524
 30
0.0
 11
198.9789907271299
 21
286.3329566777442
 31
0.0
  0
LINE
  5
EEF
330
E22
100
AcDbEntity
  8
0
  6
Continuous
 62
     3
100
AcDbLine
 10
202.1467427486141
 20
286.6617434756524
 30
0.0
 11
202.6530537345975
 21
286.3329566777442
 31
0.0
  0
LINE
  5
EF0
330
E22
100
AcDbEntity
  8
0
  6
Continuous
 62
     3
100
AcDbLine
 10
204.1245725302563
 20
286.6617434756524
 30
0.0
 11
203.6182615442728
 21
286.3329566777442
 31
0.0
  0
LINE
  5
EF1
330
E22
100
AcDbEntity
  8
0
  6
Continuous
 62
     3
100
AcDbLine
 10
204.6494456995417
 20
286.629228348899
 30
0.0
 11
205.1557182373362
 21
286.3004355000498
 31
0.0
  0
LINE
  5
EF2
330
E22
100
AcDbEntity
  8
0
  6
Continuous
 62
     3
100
AcDbLine
 10
207.1913470873119
 20
286.6292324361205
 30
0.0
 11
206.6850300305421
 21
286.3004142523569
 31
0.0
  0
LINE
  5
EF3
330
E22
100
AcDbEntity
  8
0
  6
Continuous
 62
     3
100
AcDbLine
 10
211.8406155467012
 20
286.629230392317
 30
0.0
 11
212.3469265326846
 21
286.3003434267143
 31
0.0
  0
LINE
  5
EF4
330
E22
100
AcDbEntity
  8
0
  6
Continuous
 62
     3
100
AcDbLine
 10
214.4154002684847
 20
286.629230392317
 30
0.0
 11
213.9090892825013
 21
286.3003434267143
 31
0.0
  0
LINE
  5
EF5
330
E22
100
AcDbEntity
  8
0
  6
Continuous
 62
     3
100
AcDbLine
 10
214.9569276307762
 20
286.629230392317
 30
0.0
 11
215.4632386167596
 21
286.3003434267143
 31
0.0
  0
LINE
  5
EF6
330
E22
100
AcDbEntity
  8
0
  6
Continuous
 62
     3
100
AcDbLine
 10
217.5317133643546
 20
286.629230392317
 30
0.0
 11
217.0254013665763
 21
286.3003434267143
 31
0.0
  0
LINE
  5
EF7
330
E22
100
AcDbEntity
  8
0
  6
Continuous
 62
     3
100
AcDbLine
 10
218.0602632600805
 20
286.629230392317
 30
0.0
 11
218.566574246064
 21
286.3003434267143
 31
0.0
  0
LINE
  5
EF8
330
E22
100
AcDbEntity
  8
0
  6
Continuous
 62
     3
100
AcDbLine
 10
220.6021646478169
 20
286.629230392317
 30
0.0
 11
220.0958536618334
 21
286.3003434267143
 31
0.0
  0
LINE
  5
EF9
330
E22
100
AcDbEntity
  8
0
  6
Continuous
 62
     3
100
AcDbLine
 10
221.1484699991597
 20
286.629230392317
 30
0.0
 11
221.6547809851429
 21
286.3003434267143
 31
0.0
  0
LINE
  5
EFA
330
E22
100
AcDbEntity
  8
0
  6
Continuous
 62
     3
100
AcDbLine
 10
221.6546990297565
 20
281.5656441623712
 30
0.0
 11
221.1484699991597
 21
281.2368978362588
 31
0.0
  0
LINE
  5
EFB
330
E22
100
AcDbEntity
  8
0
  6
Continuous
 62
     3
100
AcDbLine
 10
220.0959356172195
 20
281.5656441623712
 30
0.0
 11
220.6021646478169
 21
281.2368978362588
 31
0.0
  0
LINE
  5
EFC
330
E22
100
AcDbEntity
  8
0
  6
Continuous
 62
     3
100
AcDbLine
 10
218.5664912788827
 20
281.5656441623712
 30
0.0
 11
218.0602632600805
 21
281.2368978362588
 31
0.0
  0
LINE
  5
EFD
330
E22
100
AcDbEntity
  8
0
  6
Continuous
 62
     3
100
AcDbLine
 10
217.5317133643546
 20
281.2368978362588
 30
0.0
 11
217.0254843337575
 21
281.5656441623712
 31
0.0
  0
LINE
  5
EFE
330
E22
100
AcDbEntity
  8
0
  6
Continuous
 62
     3
100
AcDbLine
 10
214.9569276307762
 20
281.2368978362588
 30
0.0
 11
215.4631556495781
 21
281.5656441623712
 31
0.0
  0
LINE
  5
EFF
330
E22
100
AcDbEntity
  8
0
  6
Continuous
 62
     3
100
AcDbLine
 10
214.4154002684847
 20
281.2368978362588
 30
0.0
 11
213.9091722496825
 21
281.5656441623712
 31
0.0
  0
LINE
  5
F00
330
E22
100
AcDbEntity
  8
0
  6
Continuous
 62
     3
100
AcDbLine
 10
212.3468435655034
 20
281.5656441623712
 30
0.0
 11
211.8406155467012
 21
281.2368978362588
 31
0.0
  0
LINE
  5
F01
330
E22
100
AcDbEntity
  8
0
  6
Continuous
 62
     3
100
AcDbLine
 10
207.1912529903941
 20
281.2369002883685
 30
0.0
 11
206.6850300305421
 21
281.5657139762189
 31
0.0
  0
LINE
  5
F02
330
E22
100
AcDbEntity
  8
0
  6
Continuous
 62
     3
100
AcDbLine
 10
204.6493516026169
 20
281.2368957924554
 30
0.0
 11
205.1556190814365
 21
281.5657352239116
 31
0.0
  0
LINE
  5
F03
330
E22
100
AcDbEntity
  8
0
  6
Continuous
 62
     3
100
AcDbLine
 10
200.4505105345838
 20
281.2694109195942
 30
0.0
 11
199.9441995486006
 21
281.5981987292973
 31
0.0
  0
LINE
  5
F04
330
E22
100
AcDbEntity
  8
0
  6
Continuous
 62
     3
100
AcDbLine
 10
198.4726797411465
 20
281.2694109195942
 30
0.0
 11
198.9789907271299
 21
281.5981987292973
 31
0.0
  0
LINE
  5
F05
330
E22
100
AcDbEntity
  8
0
  6
Continuous
 62
     3
100
AcDbLine
 10
207.1912469196246
 20
280.9310771873693
 30
0.0
 11
204.6493465436422
 21
280.93112935197
 31
0.0
  0
LINE
  5
F06
330
E22
100
AcDbEntity
  8
0
  6
Continuous
 62
     3
100
AcDbLine
 10
204.6494507585164
 20
286.9350524616931
 30
0.0
 11
207.1913521462863
 21
286.9349988766058
 31
0.0
  0
ARC
  5
F07
330
E22
100
AcDbEntity
  8
0
  6
Continuous
 62
     3
100
AcDbCircle
 10
233.4996944478569
 20
283.9148263707226
 30
0.0
 40
1.5
100
AcDbArc
 50
293.7485430905253
 51
66.2514569094748
  0
ARC
  5
F08
330
E22
100
AcDbEntity
  8
0
  6
Continuous
 62
     3
100
AcDbCircle
 10
233.4996944478569
 20
283.9148263707226
 30
0.0
 40
2.25
100
AcDbArc
 50
293.7485430905253
 51
66.2514569094748
  0
ARC
  5
F09
330
E22
100
AcDbEntity
  8
0
  6
Continuous
 62
     3
100
AcDbCircle
 10
222.0220771115314
 20
257.8281573560539
 30
0.0
 40
30.0
100
AcDbArc
 50
66.2514569094748
 51
81.41597019517911
  0
ARC
  5
F0A
330
E22
100
AcDbEntity
  8
0
  6
Continuous
 62
     3
100
AcDbCircle
 10
222.0220771115314
 20
257.8281573560539
 30
0.0
 40
30.75
100
AcDbArc
 50
66.2514569094748
 51
81.41597019517911
  0
ARC
  5
F0B
330
E22
100
AcDbEntity
  8
0
  6
Continuous
 62
     3
100
AcDbCircle
 10
194.4244079510804
 20
283.9148263707226
 30
0.0
 40
1.5
100
AcDbArc
 50
113.7485430905252
 51
246.2514569094748
  0
ARC
  5
F0C
330
E22
100
AcDbEntity
  8
0
  6
Continuous
 62
     3
100
AcDbCircle
 10
194.4244079510804
 20
283.9148263707226
 30
0.0
 40
2.25
100
AcDbArc
 50
113.7485430905252
 51
246.2514569094748
  0
ARC
  5
F0D
330
E22
100
AcDbEntity
  8
0
  6
Continuous
 62
     3
100
AcDbCircle
 10
205.9020252874061
 20
257.8281573560539
 30
0.0
 40
30.0
100
AcDbArc
 50
98.5840298048209
 51
113.7485430905252
  0
ARC
  5
F0E
330
E22
100
AcDbEntity
  8
0
  6
Continuous
 62
     3
100
AcDbCircle
 10
205.9020252874061
 20
257.8281573560539
 30
0.0
 40
30.75
100
AcDbArc
 50
98.5840298048209
 51
113.7485430905252
  0
ARC
  5
F0F
330
E22
100
AcDbEntity
  8
0
  6
Continuous
 62
     3
100
AcDbCircle
 10
222.0220771115314
 20
310.0014953853913
 30
0.0
 40
30.0
100
AcDbArc
 50
278.5840298048209
 51
293.7485430905253
  0
ARC
  5
F10
330
E22
100
AcDbEntity
  8
0
  6
Continuous
 62
     3
100
AcDbCircle
 10
222.0220771115314
 20
310.0014953853913
 30
0.0
 40
30.75
100
AcDbArc
 50
278.5840298048209
 51
293.7485430905253
  0
ARC
  5
F11
330
E22
100
AcDbEntity
  8
0
  6
Continuous
 62
     3
100
AcDbCircle
 10
205.9020252874061
 20
310.0014953853913
 30
0.0
 40
30.0
100
AcDbArc
 50
246.2514569094748
 51
261.4159701951791
  0
ARC
  5
F12
330
E22
100
AcDbEntity
  8
0
  6
Continuous
 62
     3
100
AcDbCircle
 10
205.9020252874061
 20
310.0014953853913
 30
0.0
 40
30.75
100
AcDbArc
 50
246.2514569094748
 51
261.4159701951791
  0
ARC
  5
F13
330
E22
100
AcDbEntity
  8
0
  6
Continuous
 62
     3
100
AcDbCircle
 10
213.9620511994688
 20
204.4330641142894
 30
0.0
 40
84.74999999999857
100
AcDbArc
 50
81.41597019517911
 51
98.5840298048209
  0
ARC
  5
F14
330
E22
100
AcDbEntity
  8
0
  6
Continuous
 62
     3
100
AcDbCircle
 10
213.9620511994688
 20
204.4330641142906
 30
0.0
 40
83.99999999999733
100
AcDbArc
 50
81.41597019517911
 51
98.5840298048209
  0
ARC
  5
F15
330
E22
100
AcDbEntity
  8
0
  6
Continuous
 62
     3
100
AcDbCircle
 10
213.9620511994688
 20
363.3965886271558
 30
0.0
 40
84.74999999999857
100
AcDbArc
 50
261.4159701951791
 51
278.5840298048209
  0
ARC
  5
F16
330
E22
100
AcDbEntity
  8
0
  6
Continuous
 62
     3
100
AcDbCircle
 10
213.9620511994688
 20
363.3965886271545
 30
0.0
 40
83.99999999999733
100
AcDbArc
 50
261.4159701951791
 51
278.5840298048209
  0
TEXT
  5
F17
330
E22
100
AcDbEntity
  8
0
 62
     3
100
AcDbText
 10
397.4999981865963
 20
274.4999999941307
 30
0.0
 40
3.2
  1
担　当
  7
高3.2
100
AcDbText
  0
TEXT
  5
F18
330
E22
100
AcDbEntity
  8
0
 62
     3
100
AcDbText
 10
353.4999981865963
 20
274.4999999941307
 30
0.0
 40
3.2
  1
変更・追記内容
  7
高3.2
100
AcDbText
  0
TEXT
  5
F19
330
E22
100
AcDbEntity
  8
0
 62
     3
100
AcDbText
 10
328.6135131869355
 20
269.8294614842224
 30
0.0
 40
2.0
  1
1
  7
高2
100
AcDbText
  0
TEXT
  5
F1A
330
E22
100
AcDbEntity
  8
0
 62
     3
100
AcDbText
 10
328.3050017101782
 20
264.6596447719495
 30
0.0
 40
2.0
  1
2
  7
高2
100
AcDbText
  0
TEXT
  5
F1B
330
E22
100
AcDbEntity
  8
0
 62
     3
100
AcDbText
 10
335.4999981865963
 20
274.4999999941307
 30
0.0
 40
3.2
  1
日　付
  7
高3.2
100
AcDbText
  0
TEXT
  5
F1C
330
E22
100
AcDbEntity
  8
0
 62
     3
100
AcDbText
 10
335.4999981865963
 20
279.4999999941307
 30
0.0
 40
3.2
  1
図　　　　面　　　　略　　　　歴
  7
高3.2
100
AcDbText
  0
TEXT
  5
F1D
330
E22
100
AcDbEntity
  8
0
 62
     3
100
AcDbText
 10
325.4999981865962
 20
274.4999999941307
 30
0.0
 40
3.2
  1
記号
  7
高3.2
100
AcDbText
  0
LINE
  5
F1E
330
E22
100
AcDbEntity
  8
0
100
AcDbLine
 10
328.9999981865963
 20
267.7908959941309
 30
0.0
 11
327.0999981865964
 21
264.4999999941307
 31
0.0
  0
LINE
  5
F1F
330
E22
100
AcDbEntity
  8
0
100
AcDbLine
 10
328.9999981865963
 20
267.7908959941309
 30
0.0
 11
330.8999981865961
 21
264.4999999941307
 31
0.0
  0
LINE
  5
F20
330
E22
100
AcDbEntity
  8
0
100
AcDbLine
 10
327.0999981865964
 20
264.4999999941307
 30
0.0
 11
330.8999981865961
 21
264.4999999941307
 31
0.0
  0
LINE
  5
F21
330
E22
100
AcDbEntity
  8
0
100
AcDbLine
 10
328.9999981865963
 20
272.7908969941308
 30
0.0
 11
327.0999981865964
 21
269.4999999941307
 31
0.0
  0
LINE
  5
F22
330
E22
100
AcDbEntity
  8
0
100
AcDbLine
 10
328.9999981865963
 20
272.7908969941308
 30
0.0
 11
330.8999981865961
 21
269.4999999941307
 31
0.0
  0
LINE
  5
F23
330
E22
100
AcDbEntity
  8
0
100
AcDbLine
 10
327.0999981865964
 20
269.4999999941307
 30
0.0
 11
330.8999981865961
 21
269.4999999941307
 31
0.0
  0
LINE
  5
F24
330
E22
100
AcDbEntity
  8
0
 62
     3
100
AcDbLine
 10
323.9999981865963
 20
278.9999999941307
 30
0.0
 11
409.9999981865962
 21
278.9999999941307
 31
0.0
  0
LINE
  5
F25
330
E22
100
AcDbEntity
  8
0
 62
     3
100
AcDbLine
 10
323.9999981865963
 20
273.9999999941307
 30
0.0
 11
409.9999981865962
 21
273.9999999941307
 31
0.0
  0
LINE
  5
F26
330
E22
100
AcDbEntity
  8
0
 62
     7
100
AcDbLine
 10
323.9999981865963
 20
268.9999999941307
 30
0.0
 11
409.9999981865962
 21
268.9999999941307
 31
0.0
  0
LINE
  5
F27
330
E22
100
AcDbEntity
  8
0
 62
     3
100
AcDbLine
 10
323.9999981865963
 20
263.9999999941307
 30
0.0
 11
409.9999981865962
 21
263.9999999941307
 31
0.0
  0
LINE
  5
F28
330
E22
100
AcDbEntity
  8
0
 62
     7
100
AcDbLine
 10
395.9999981865962
 20
263.9999999941307
 30
0.0
 11
395.9999981865962
 21
278.9999999941307
 31
0.0
  0
LINE
  5
F29
330
E22
100
AcDbEntity
  8
0
 62
     7
100
AcDbLine
 10
351.9999981865963
 20
263.9999999941307
 30
0.0
 11
351.9999981865963
 21
278.9999999941307
 31
0.0
  0
LINE
  5
F2A
330
E22
100
AcDbEntity
  8
0
 62
     7
100
AcDbLine
 10
333.9999981865962
 20
263.9999999941307
 30
0.0
 11
333.9999981865962
 21
278.9999999941307
 31
0.0
  0
LINE
  5
F2B
330
E22
100
AcDbEntity
  8
0
 62
     3
100
AcDbLine
 10
323.9999981865963
 20
263.9999999941307
 30
0.0
 11
323.9999981865963
 21
283.9999999941307
 31
0.0
  0
ENDBLK
  5
F2F
330
E22
100
AcDbEntity
  8
0
100
AcDbBlockEnd
  0
BLOCK
  5
10B2
330
10B1
100
AcDbEntity
  8
0
100
AcDbBlockBegin
  2
*D3
 70
     1
 10
0.0
 20
0.0
 30
0.0
  3
*D3
  1

  0
LINE
  5
1C2B
330
10B1
100
AcDbEntity
  8
0
 62
     0
370
    -2
100
AcDbLine
 10
1686.248714970959
 20
273.2631182373579
 30
0.0
 11
1686.248714970959
 21
308.2207449193105
 31
0.0
  0
LINE
  5
1C2C
330
10B1
100
AcDbEntity
  8
0
 62
     0
370
    -2
100
AcDbLine
 10
1558.248714970959
 20
286.963118237358
 30
0.0
 11
1558.248714970959
 21
308.2207449193105
 31
0.0
  0
LINE
  5
1C2D
330
10B1
100
AcDbEntity
  8
0
 62
     0
370
    -2
100
AcDbLine
 10
1683.748714970959
 20
306.9707449193105
 30
0.0
 11
1560.748714970959
 21
306.9707449193105
 31
0.0
  0
INSERT
  5
1C2E
330
10B1
100
AcDbEntity
  8
0
 62
     0
370
    -2
100
AcDbBlockReference
  2
_Open30
 10
1686.248714970959
 20
306.9707449193105
 30
0.0
 41
2.5
 42
2.5
 43
2.5
  0
INSERT
  5
1C2F
330
10B1
100
AcDbEntity
  8
0
 62
     0
370
    -2
100
AcDbBlockReference
  2
_Open30
 10
1558.248714970959
 20
306.9707449193105
 30
0.0
 41
2.5
 42
2.5
 43
2.5
 50
180.0
  0
MTEXT
  5
1C30
330
10B1
100
AcDbEntity
  8
0
 62
     4
100
AcDbMText
 10
1621.553828301284
 20
309.0957449193105
 30
0.0
 40
3.0
 41
0.0
 71
     5
 72
     1
  1
128
 73
     1
 44
1.0
1001
ACAD
1000
MTEXTBEGIN
1070
    73
1070
     1
1070
    44
1040
1.0
1070
    74
1070
     0
1000
MTEXTEND
  0
POINT
  5
1C31
330
10B1
100
AcDbEntity
  8
Defpoints
 62
     0
100
AcDbPoint
 10
1686.248714970959
 20
273.0131182373579
 30
0.0
  0
POINT
  5
1C32
330
10B1
100
AcDbEntity
  8
Defpoints
 62
     0
100
AcDbPoint
 10
1558.248714970959
 20
286.713118237358
 30
0.0
  0
POINT
  5
1C33
330
10B1
100
AcDbEntity
  8
Defpoints
 62
     0
100
AcDbPoint
 10
1558.248714970959
 20
306.9707449193105
 30
0.0
  0
ENDBLK
  5
10B3
330
10B1
100
AcDbEntity
  8
0
100
AcDbBlockEnd
  0
BLOCK
  5
10CA
330
10C9
100
AcDbEntity
  8
0
100
AcDbBlockBegin
  2
*D4
 70
     1
 10
0.0
 20
0.0
 30
0.0
  3
*D4
  1

  0
LINE
  5
10D6
330
10C9
100
AcDbEntity
  8
0
 62
     0
370
    -2
100
AcDbLine
 10
1649.120349939476
 20
303.824773135381
 30
0.0
 11
1649.120349939476
 21
324.5038611473558
 31
0.0
  0
LINE
  5
10D7
330
10C9
100
AcDbEntity
  8
0
 62
     0
370
    -2
100
AcDbLine
 10
1557.120349939476
 20
303.824773135381
 30
0.0
 11
1557.120349939476
 21
324.5038611473558
 31
0.0
  0
LINE
  5
10D8
330
10C9
100
AcDbEntity
  8
0
 62
     0
370
    -2
100
AcDbLine
 10
1646.620349939476
 20
323.2538611473558
 30
0.0
 11
1559.620349939476
 21
323.2538611473558
 31
0.0
  0
INSERT
  5
10D9
330
10C9
100
AcDbEntity
  8
0
 62
     0
370
    -2
100
AcDbBlockReference
  2
_Open30
 10
1649.120349939476
 20
323.2538611473558
 30
0.0
 41
2.5
 42
2.5
 43
2.5
  0
INSERT
  5
10DA
330
10C9
100
AcDbEntity
  8
0
 62
     0
370
    -2
100
AcDbBlockReference
  2
_Open30
 10
1557.120349939476
 20
323.2538611473558
 30
0.0
 41
2.5
 42
2.5
 43
2.5
 50
180.0
  0
MTEXT
  5
10DB
330
10C9
100
AcDbEntity
  8
0
 62
     4
100
AcDbMText
 10
1601.27957924374
 20
325.3788611473558
 30
0.0
 40
3.0
 41
0.0
 71
     5
 72
     1
  1
92
 73
     1
 44
1.0
1001
ACAD
1000
MTEXTBEGIN
1070
    73
1070
     1
1070
    44
1040
1.0
1070
    74
1070
     0
1000
MTEXTEND
  0
POINT
  5
10DC
330
10C9
100
AcDbEntity
  8
Defpoints
 62
     0
100
AcDbPoint
 10
1649.120349939476
 20
303.574773135381
 30
0.0
  0
POINT
  5
10DD
330
10C9
100
AcDbEntity
  8
Defpoints
 62
     0
100
AcDbPoint
 10
1557.120349939476
 20
303.574773135381
 30
0.0
  0
POINT
  5
10DE
330
10C9
100
AcDbEntity
  8
Defpoints
 62
     0
100
AcDbPoint
 10
1557.120349939476
 20
323.2538611473558
 30
0.0
  0
ENDBLK
  5
10CB
330
10C9
100
AcDbEntity
  8
0
100
AcDbBlockEnd
  0
BLOCK
  5
10E2
330
10E1
100
AcDbEntity
  8
0
100
AcDbBlockBegin
  2
*D5
 70
     1
 10
0.0
 20
0.0
 30
0.0
  3
*D5
  1

  0
LINE
  5
1C34
330
10E1
100
AcDbEntity
  8
0
 62
     0
370
    -2
100
AcDbLine
 10
1571.998714970959
 20
294.713118237358
 30
0.0
 11
1539.570849458106
 21
294.713118237358
 31
0.0
  0
LINE
  5
1C35
330
10E1
100
AcDbEntity
  8
0
 62
     0
370
    -2
100
AcDbLine
 10
1571.998714970959
 20
236.713118237358
 30
0.0
 11
1539.570849458106
 21
236.713118237358
 31
0.0
  0
LINE
  5
1C36
330
10E1
100
AcDbEntity
  8
0
 62
     0
370
    -2
100
AcDbLine
 10
1540.820849458106
 20
292.213118237358
 30
0.0
 11
1540.820849458106
 21
239.213118237358
 31
0.0
  0
INSERT
  5
1C37
330
10E1
100
AcDbEntity
  8
0
 62
     0
370
    -2
100
AcDbBlockReference
  2
_Open30
 10
1540.820849458106
 20
294.713118237358
 30
0.0
 41
2.5
 42
2.5
 43
2.5
 50
90.0
  0
INSERT
  5
1C38
330
10E1
100
AcDbEntity
  8
0
 62
     0
370
    -2
100
AcDbBlockReference
  2
_Open30
 10
1540.820849458106
 20
236.713118237358
 30
0.0
 41
2.5
 42
2.5
 43
2.5
 50
270.0
  0
MTEXT
  5
1C39
330
10E1
100
AcDbEntity
  8
0
 62
     4
100
AcDbMText
 10
1538.695849458106
 20
263.7552920565537
 30
0.0
 40
3.0
 41
0.0
 71
     5
 72
     1
  1
58
 11
0.0000000000000001
 21
1.0
 31
0.0
 73
     1
 44
1.0
1001
ACAD
1000
MTEXTBEGIN
1070
    73
1070
     1
1070
    44
1040
1.0
1070
    74
1070
     0
1000
MTEXTEND
  0
POINT
  5
1C3A
330
10E1
100
AcDbEntity
  8
Defpoints
 62
     0
100
AcDbPoint
 10
1572.248714970959
 20
294.713118237358
 30
0.0
  0
POINT
  5
1C3B
330
10E1
100
AcDbEntity
  8
Defpoints
 62
     0
100
AcDbPoint
 10
1572.248714970959
 20
236.713118237358
 30
0.0
  0
POINT
  5
1C3C
330
10E1
100
AcDbEntity
  8
Defpoints
 62
     0
100
AcDbPoint
 10
1540.820849458106
 20
236.713118237358
 30
0.0
  0
ENDBLK
  5
10E3
330
10E1
100
AcDbEntity
  8
0
100
AcDbBlockEnd
  0
BLOCK
  5
1100
330
10FF
100
AcDbEntity
  8
0
100
AcDbBlockBegin
  2
*D6
 70
     1
 10
0.0
 20
0.0
 30
0.0
  3
*D6
  1

  0
LINE
  5
1C3D
330
10FF
100
AcDbEntity
  8
0
 62
     0
370
    -2
100
AcDbLine
 10
1557.303491847579
 20
282.5131182373581
 30
0.0
 11
1549.001866287151
 21
282.5131182373581
 31
0.0
  0
LINE
  5
1C3E
330
10FF
100
AcDbEntity
  8
0
 62
     0
370
    -2
100
AcDbLine
 10
1559.34508032231
 20
265.713118237358
 30
0.0
 11
1549.001866287151
 21
265.713118237358
 31
0.0
  0
LINE
  5
1C3F
330
10FF
100
AcDbEntity
  8
0
 62
     0
370
    -2
100
AcDbLine
 10
1550.251866287151
 20
280.0131182373581
 30
0.0
 11
1550.251866287151
 21
268.213118237358
 31
0.0
  0
INSERT
  5
1C40
330
10FF
100
AcDbEntity
  8
0
 62
     0
370
    -2
100
AcDbBlockReference
  2
_Open30
 10
1550.251866287151
 20
282.5131182373581
 30
0.0
 41
2.5
 42
2.5
 43
2.5
 50
90.0
  0
INSERT
  5
1C41
330
10FF
100
AcDbEntity
  8
0
 62
     0
370
    -2
100
AcDbBlockReference
  2
_Open30
 10
1550.251866287151
 20
265.713118237358
 30
0.0
 41
2.5
 42
2.5
 43
2.5
 50
270.0
  0
MTEXT
  5
1C42
330
10FF
100
AcDbEntity
  8
0
 62
     4
100
AcDbMText
 10
1548.126866287151
 20
274.113118237358
 30
0.0
 40
3.0
 41
0.0
 71
     5
 72
     1
  1
16.8
 11
0.0000000000000001
 21
1.0
 31
0.0
 73
     1
 44
1.0
1001
ACAD
1000
MTEXTBEGIN
1070
    73
1070
     1
1070
    44
1040
1.0
1070
    74
1070
     0
1000
MTEXTEND
  0
POINT
  5
1C43
330
10FF
100
AcDbEntity
  8
Defpoints
 62
     0
100
AcDbPoint
 10
1557.553491847579
 20
282.5131182373581
 30
0.0
  0
POINT
  5
1C44
330
10FF
100
AcDbEntity
  8
Defpoints
 62
     0
100
AcDbPoint
 10
1559.59508032231
 20
265.713118237358
 30
0.0
  0
POINT
  5
1C45
330
10FF
100
AcDbEntity
  8
Defpoints
 62
     0
100
AcDbPoint
 10
1550.251866287151
 20
265.713118237358
 30
0.0
  0
ENDBLK
  5
1101
330
10FF
100
AcDbEntity
  8
0
100
AcDbBlockEnd
  0
BLOCK
  5
112A
330
1129
100
AcDbEntity
  8
0
100
AcDbBlockBegin
  2
*D7
 70
     1
 10
0.0
 20
0.0
 30
0.0
  3
*D7
  1

  0
LINE
  5
1C46
330
1129
100
AcDbEntity
  8
0
 62
     0
370
    -2
100
AcDbLine
 10
1557.303491847579
 20
248.9131182373579
 30
0.0
 11
1549.001866287151
 21
248.9131182373579
 31
0.0
  0
LINE
  5
1C47
330
1129
100
AcDbEntity
  8
0
 62
     0
370
    -2
100
AcDbLine
 10
1559.34508032231
 20
265.713118237358
 30
0.0
 11
1549.001866287151
 21
265.713118237358
 31
0.0
  0
LINE
  5
1C48
330
1129
100
AcDbEntity
  8
0
 62
     0
370
    -2
100
AcDbLine
 10
1550.251866287151
 20
251.4131182373579
 30
0.0
 11
1550.251866287151
 21
263.213118237358
 31
0.0
  0
INSERT
  5
1C49
330
1129
100
AcDbEntity
  8
0
 62
     0
370
    -2
100
AcDbBlockReference
  2
_Open30
 10
1550.251866287151
 20
248.9131182373579
 30
0.0
 41
2.5
 42
2.5
 43
2.5
 50
270.0
  0
INSERT
  5
1C4A
330
1129
100
AcDbEntity
  8
0
 62
     0
370
    -2
100
AcDbBlockReference
  2
_Open30
 10
1550.251866287151
 20
265.713118237358
 30
0.0
 41
2.5
 42
2.5
 43
2.5
 50
90.0
  0
MTEXT
  5
1C4B
330
1129
100
AcDbEntity
  8
0
 62
     4
100
AcDbMText
 10
1548.126866287151
 20
256.5885534267098
 30
0.0
 40
3.0
 41
0.0
 71
     5
 72
     1
  1
16.8
 11
0.0000000000000001
 21
1.0
 31
0.0
 73
     1
 44
1.0
1001
ACAD
1000
MTEXTBEGIN
1070
    73
1070
     1
1070
    44
1040
1.0
1070
    74
1070
     0
1000
MTEXTEND
  0
POINT
  5
1C4C
330
1129
100
AcDbEntity
  8
Defpoints
 62
     0
100
AcDbPoint
 10
1557.553491847579
 20
248.9131182373579
 30
0.0
  0
POINT
  5
1C4D
330
1129
100
AcDbEntity
  8
Defpoints
 62
     0
100
AcDbPoint
 10
1559.59508032231
 20
265.713118237358
 30
0.0
  0
POINT
  5
1C4E
330
1129
100
AcDbEntity
  8
Defpoints
 62
     0
100
AcDbPoint
 10
1550.251866287151
 20
265.713118237358
 30
0.0
  0
ENDBLK
  5
112B
330
1129
100
AcDbEntity
  8
0
100
AcDbBlockEnd
  0
BLOCK
  5
114B
330
114A
100
AcDbEntity
  8
0
100
AcDbBlockBegin
  2
*D8
 70
     1
 10
0.0
 20
0.0
 30
0.0
  3
*D8
  1

  0
LINE
  5
1157
330
114A
100
AcDbEntity
  8
0
 62
     0
370
    -2
100
AcDbLine
 10
1553.120349939476
 20
302.3199962587605
 30
0.0
 11
1553.120349939476
 21
329.8483447878872
 31
0.0
  0
LINE
  5
1158
330
114A
100
AcDbEntity
  8
0
 62
     0
370
    -2
100
AcDbLine
 10
1649.120349939476
 20
303.824773135381
 30
0.0
 11
1649.120349939476
 21
329.8483447878872
 31
0.0
  0
LINE
  5
1159
330
114A
100
AcDbEntity
  8
0
 62
     0
370
    -2
100
AcDbLine
 10
1555.620349939476
 20
328.5983447878872
 30
0.0
 11
1646.620349939476
 21
328.5983447878872
 31
0.0
  0
INSERT
  5
115A
330
114A
100
AcDbEntity
  8
0
 62
     0
370
    -2
100
AcDbBlockReference
  2
_Open30
 10
1553.120349939476
 20
328.5983447878872
 30
0.0
 41
2.5
 42
2.5
 43
2.5
 50
180.0
  0
INSERT
  5
115B
330
114A
100
AcDbEntity
  8
0
 62
     0
370
    -2
100
AcDbBlockReference
  2
_Open30
 10
1649.120349939476
 20
328.5983447878872
 30
0.0
 41
2.5
 42
2.5
 43
2.5
  0
MTEXT
  5
115C
330
114A
100
AcDbEntity
  8
0
 62
     4
100
AcDbMText
 10
1598.213261809007
 20
330.7233447878872
 30
0.0
 40
3.0
 41
0.0
 71
     5
 72
     1
  1
96
 73
     1
 44
1.0
1001
ACAD
1000
MTEXTBEGIN
1070
    73
1070
     1
1070
    44
1040
1.0
1070
    74
1070
     0
1000
MTEXTEND
  0
POINT
  5
115D
330
114A
100
AcDbEntity
  8
Defpoints
 62
     0
100
AcDbPoint
 10
1553.120349939476
 20
302.0699962587605
 30
0.0
  0
POINT
  5
115E
330
114A
100
AcDbEntity
  8
Defpoints
 62
     0
100
AcDbPoint
 10
1649.120349939476
 20
303.574773135381
 30
0.0
  0
POINT
  5
115F
330
114A
100
AcDbEntity
  8
Defpoints
 62
     0
100
AcDbPoint
 10
1649.120349939476
 20
328.5983447878872
 30
0.0
  0
ENDBLK
  5
114C
330
114A
100
AcDbEntity
  8
0
100
AcDbBlockEnd
  0
BLOCK
  5
1163
330
1162
100
AcDbEntity
  8
0
100
AcDbBlockBegin
  2
*D9
 70
     1
 10
0.0
 20
0.0
 30
0.0
  3
*D9
  1

  0
LINE
  5
1C4F
330
1162
100
AcDbEntity
  8
0
 62
     0
370
    -2
100
AcDbLine
 10
1557.998714970959
 20
151.7865660201518
 30
0.0
 11
1542.04623635071
 21
151.7865660201518
 31
0.0
  0
LINE
  5
1C50
330
1162
100
AcDbEntity
  8
0
 62
     0
370
    -2
100
AcDbLine
 10
1557.998714970959
 20
187.7865660201518
 30
0.0
 11
1542.04623635071
 21
187.7865660201518
 31
0.0
  0
LINE
  5
1C51
330
1162
100
AcDbEntity
  8
0
 62
     0
370
    -2
100
AcDbLine
 10
1543.29623635071
 20
154.2865660201518
 30
0.0
 11
1543.29623635071
 21
185.2865660201518
 31
0.0
  0
INSERT
  5
1C52
330
1162
100
AcDbEntity
  8
0
 62
     0
370
    -2
100
AcDbBlockReference
  2
_Open30
 10
1543.29623635071
 20
151.7865660201518
 30
0.0
 41
2.5
 42
2.5
 43
2.5
 50
270.0
  0
INSERT
  5
1C53
330
1162
100
AcDbEntity
  8
0
 62
     0
370
    -2
100
AcDbBlockReference
  2
_Open30
 10
1543.29623635071
 20
187.7865660201518
 30
0.0
 41
2.5
 42
2.5
 43
2.5
 50
90.0
  0
MTEXT
  5
1C54
330
1162
100
AcDbEntity
  8
0
 62
     4
100
AcDbMText
 10
1541.17123635071
 20
169.7865660201518
 30
0.0
 40
3.0
 41
0.0
 71
     5
 72
     1
  1
36
 11
0.0000000000000001
 21
1.0
 31
0.0
 73
     1
 44
1.0
1001
ACAD
1000
MTEXTBEGIN
1070
    73
1070
     1
1070
    44
1040
1.0
1070
    74
1070
     0
1000
MTEXTEND
  0
POINT
  5
1C55
330
1162
100
AcDbEntity
  8
Defpoints
 62
     0
100
AcDbPoint
 10
1558.248714970959
 20
151.7865660201518
 30
0.0
  0
POINT
  5
1C56
330
1162
100
AcDbEntity
  8
Defpoints
 62
     0
100
AcDbPoint
 10
1558.248714970959
 20
187.7865660201518
 30
0.0
  0
POINT
  5
1C57
330
1162
100
AcDbEntity
  8
Defpoints
 62
     0
100
AcDbPoint
 10
1543.29623635071
 20
187.7865660201518
 30
0.0
  0
ENDBLK
  5
1164
330
1162
100
AcDbEntity
  8
0
100
AcDbBlockEnd
  0
BLOCK
  5
118D
330
118C
100
AcDbEntity
  8
0
100
AcDbBlockBegin
  2
*D10
 70
     1
 10
0.0
 20
0.0
 30
0.0
  3
*D10
  1

  0
LINE
  5
1199
330
118C
100
AcDbEntity
  8
0
 62
     0
370
    -2
100
AcDbLine
 10
1649.120349939476
 20
255.324773135381
 30
0.0
 11
1649.120349939476
 21
241.797465980403
 31
0.0
  0
LINE
  5
119A
330
118C
100
AcDbEntity
  8
0
 62
     0
370
    -2
100
AcDbLine
 10
1557.120349939476
 20
255.324773135381
 30
0.0
 11
1557.120349939476
 21
241.797465980403
 31
0.0
  0
LINE
  5
119B
330
118C
100
AcDbEntity
  8
0
 62
     0
370
    -2
100
AcDbLine
 10
1646.620349939476
 20
243.047465980403
 30
0.0
 11
1559.620349939476
 21
243.047465980403
 31
0.0
  0
INSERT
  5
119C
330
118C
100
AcDbEntity
  8
0
 62
     0
370
    -2
100
AcDbBlockReference
  2
_Open30
 10
1649.120349939476
 20
243.047465980403
 30
0.0
 41
2.5
 42
2.5
 43
2.5
  0
INSERT
  5
119D
330
118C
100
AcDbEntity
  8
0
 62
     0
370
    -2
100
AcDbBlockReference
  2
_Open30
 10
1557.120349939476
 20
243.047465980403
 30
0.0
 41
2.5
 42
2.5
 43
2.5
 50
180.0
  0
MTEXT
  5
119E
330
118C
100
AcDbEntity
  8
0
 62
     4
100
AcDbMText
 10
1602.303118298564
 20
245.172465980403
 30
0.0
 40
3.0
 41
0.0
 71
     5
 72
     1
  1
92
 73
     1
 44
1.0
1001
ACAD
1000
MTEXTBEGIN
1070
    73
1070
     1
1070
    44
1040
1.0
1070
    74
1070
     0
1000
MTEXTEND
  0
POINT
  5
119F
330
118C
100
AcDbEntity
  8
Defpoints
 62
     0
100
AcDbPoint
 10
1649.120349939476
 20
255.574773135381
 30
0.0
  0
POINT
  5
11A0
330
118C
100
AcDbEntity
  8
Defpoints
 62
     0
100
AcDbPoint
 10
1557.120349939476
 20
255.574773135381
 30
0.0
  0
POINT
  5
11A1
330
118C
100
AcDbEntity
  8
Defpoints
 62
     0
100
AcDbPoint
 10
1557.120349939476
 20
243.047465980403
 30
0.0
  0
ENDBLK
  5
118E
330
118C
100
AcDbEntity
  8
0
100
AcDbBlockEnd
  0
BLOCK
  5
11A5
330
11A4
100
AcDbEntity
  8
0
100
AcDbBlockBegin
  2
*D11
 70
     1
 10
0.0
 20
0.0
 30
0.0
  3
*D11
  1

  0
LINE
  5
1C58
330
11A4
100
AcDbEntity
  8
0
 62
     0
370
    -2
100
AcDbLine
 10
1662.248714970959
 20
250.463118237358
 30
0.0
 11
1662.248714970959
 21
222.8130675213331
 31
0.0
  0
LINE
  5
1C59
330
11A4
100
AcDbEntity
  8
0
 62
     0
370
    -2
100
AcDbLine
 10
1563.24871497096
 20
242.9678951139785
 30
0.0
 11
1563.24871497096
 21
222.8130675213331
 31
0.0
  0
LINE
  5
1C5A
330
11A4
100
AcDbEntity
  8
0
 62
     0
370
    -2
100
AcDbLine
 10
1659.748714970959
 20
224.0630675213331
 30
0.0
 11
1565.74871497096
 21
224.0630675213331
 31
0.0
  0
INSERT
  5
1C5B
330
11A4
100
AcDbEntity
  8
0
 62
     0
370
    -2
100
AcDbBlockReference
  2
_Open30
 10
1662.248714970959
 20
224.0630675213331
 30
0.0
 41
2.5
 42
2.5
 43
2.5
  0
INSERT
  5
1C5C
330
11A4
100
AcDbEntity
  8
0
 62
     0
370
    -2
100
AcDbBlockReference
  2
_Open30
 10
1563.24871497096
 20
224.0630675213331
 30
0.0
 41
2.5
 42
2.5
 43
2.5
 50
180.0
  0
MTEXT
  5
1C5D
330
11A4
100
AcDbEntity
  8
0
 62
     4
100
AcDbMText
 10
1611.328646561083
 20
226.1880675213331
 30
0.0
 40
3.0
 41
0.0
 71
     5
 72
     1
  1
99
 73
     1
 44
1.0
1001
ACAD
1000
MTEXTBEGIN
1070
    73
1070
     1
1070
    44
1040
1.0
1070
    74
1070
     0
1000
MTEXTEND
  0
POINT
  5
1C5E
330
11A4
100
AcDbEntity
  8
Defpoints
 62
     0
100
AcDbPoint
 10
1662.248714970959
 20
250.713118237358
 30
0.0
  0
POINT
  5
1C5F
330
11A4
100
AcDbEntity
  8
Defpoints
 62
     0
100
AcDbPoint
 10
1563.24871497096
 20
243.2178951139785
 30
0.0
  0
POINT
  5
1C60
330
11A4
100
AcDbEntity
  8
Defpoints
 62
     0
100
AcDbPoint
 10
1563.24871497096
 20
224.0630675213331
 30
0.0
  0
ENDBLK
  5
11A6
330
11A4
100
AcDbEntity
  8
0
100
AcDbBlockEnd
  0
BLOCK
  5
11CF
330
11CE
100
AcDbEntity
  8
0
100
AcDbBlockBegin
  2
*D12
 70
     1
 10
0.0
 20
0.0
 30
0.0
  3
*D12
  1

  0
LINE
  5
1C61
330
11CE
100
AcDbEntity
  8
0
 62
     0
370
    -2
100
AcDbLine
 10
1662.248714970959
 20
250.463118237358
 30
0.0
 11
1662.248714970959
 21
217.5452297889847
 31
0.0
  0
LINE
  5
1C62
330
11CE
100
AcDbEntity
  8
0
 62
     0
370
    -2
100
AcDbLine
 10
1558.248714970959
 20
244.463118237358
 30
0.0
 11
1558.248714970959
 21
217.5452297889847
 31
0.0
  0
LINE
  5
1C63
330
11CE
100
AcDbEntity
  8
0
 62
     0
370
    -2
100
AcDbLine
 10
1659.748714970959
 20
218.7952297889847
 30
0.0
 11
1560.748714970959
 21
218.7952297889847
 31
0.0
  0
INSERT
  5
1C64
330
11CE
100
AcDbEntity
  8
0
 62
     0
370
    -2
100
AcDbBlockReference
  2
_Open30
 10
1662.248714970959
 20
218.7952297889847
 30
0.0
 41
2.5
 42
2.5
 43
2.5
  0
INSERT
  5
1C65
330
11CE
100
AcDbEntity
  8
0
 62
     0
370
    -2
100
AcDbBlockReference
  2
_Open30
 10
1558.248714970959
 20
218.7952297889847
 30
0.0
 41
2.5
 42
2.5
 43
2.5
 50
180.0
  0
MTEXT
  5
1C66
330
11CE
100
AcDbEntity
  8
0
 62
     4
100
AcDbMText
 10
1609.329434459018
 20
220.9202297889847
 30
0.0
 40
3.0
 41
0.0
 71
     5
 72
     1
  1
104
 73
     1
 44
1.0
1001
ACAD
1000
MTEXTBEGIN
1070
    73
1070
     1
1070
    44
1040
1.0
1070
    74
1070
     0
1000
MTEXTEND
  0
POINT
  5
1C67
330
11CE
100
AcDbEntity
  8
Defpoints
 62
     0
100
AcDbPoint
 10
1662.248714970959
 20
250.713118237358
 30
0.0
  0
POINT
  5
1C68
330
11CE
100
AcDbEntity
  8
Defpoints
 62
     0
100
AcDbPoint
 10
1558.248714970959
 20
244.713118237358
 30
0.0
  0
POINT
  5
1C69
330
11CE
100
AcDbEntity
  8
Defpoints
 62
     0
100
AcDbPoint
 10
1558.248714970959
 20
218.7952297889847
 30
0.0
  0
ENDBLK
  5
11D0
330
11CE
100
AcDbEntity
  8
0
100
AcDbBlockEnd
  0
BLOCK
  5
11E7
330
11E6
100
AcDbEntity
  8
0
100
AcDbBlockBegin
  2
*D13
 70
     1
 10
0.0
 20
0.0
 30
0.0
  3
*D13
  1

  0
LINE
  5
1C6A
330
11E6
100
AcDbEntity
  8
0
 62
     0
370
    -2
100
AcDbLine
 10
1686.248714970959
 20
273.2631182373579
 30
0.0
 11
1686.248714970959
 21
308.2207449193105
 31
0.0
  0
LINE
  5
1C6B
330
11E6
100
AcDbEntity
  8
0
 62
     0
370
    -2
100
AcDbLine
 10
1836.2487149707
 20
266.5631182985275
 30
0.0
 11
1836.2487149707
 21
308.2207449193105
 31
0.0
  0
LINE
  5
1C6C
330
11E6
100
AcDbEntity
  8
0
 62
     0
370
    -2
100
AcDbLine
 10
1688.748714970959
 20
306.9707449193105
 30
0.0
 11
1833.7487149707
 21
306.9707449193105
 31
0.0
  0
INSERT
  5
1C6D
330
11E6
100
AcDbEntity
  8
0
 62
     0
370
    -2
100
AcDbBlockReference
  2
_Open30
 10
1686.248714970959
 20
306.9707449193105
 30
0.0
 41
2.5
 42
2.5
 43
2.5
 50
180.0
  0
INSERT
  5
1C6E
330
11E6
100
AcDbEntity
  8
0
 62
     0
370
    -2
100
AcDbBlockReference
  2
_Open30
 10
1836.2487149707
 20
306.9707449193105
 30
0.0
 41
2.5
 42
2.5
 43
2.5
  0
MTEXT
  5
1C6F
330
11E6
100
AcDbEntity
  8
0
 62
     4
100
AcDbMText
 10
1761.24871497083
 20
309.0957449193105
 30
0.0
 40
3.0
 41
0.0
 71
     5
 72
     1
  1
150
 73
     1
 44
1.0
1001
ACAD
1000
MTEXTBEGIN
1070
    73
1070
     1
1070
    44
1040
1.0
1070
    74
1070
     0
1000
MTEXTEND
  0
POINT
  5
1C70
330
11E6
100
AcDbEntity
  8
Defpoints
 62
     0
100
AcDbPoint
 10
1686.248714970959
 20
273.0131182373579
 30
0.0
  0
POINT
  5
1C71
330
11E6
100
AcDbEntity
  8
Defpoints
 62
     0
100
AcDbPoint
 10
1836.2487149707
 20
266.3131182985275
 30
0.0
  0
POINT
  5
1C72
330
11E6
100
AcDbEntity
  8
Defpoints
 62
     0
100
AcDbPoint
 10
1836.2487149707
 20
306.9707449193105
 30
0.0
  0
ENDBLK
  5
11E8
330
11E6
100
AcDbEntity
  8
0
100
AcDbBlockEnd
  0
BLOCK
  5
147B
330
147A
100
AcDbEntity
  8
0
100
AcDbBlockBegin
  2
*D14
 70
     1
 10
0.0
 20
0.0
 30
0.0
  3
*D14
  1

  0
LINE
  5
1C73
330
147A
100
AcDbEntity
  8
0
 62
     0
370
    -2
100
AcDbLine
 10
1567.228305007135
 20
251.0137998276903
 30
0.0
 11
1569.439188360566
 21
252.1808451556528
 31
0.0
  0
LINE
  5
1C74
330
147A
100
AcDbEntity
  8
0
 62
     0
370
    -2
100
AcDbLine
 10
1559.269124934782
 20
246.8124366470259
 30
0.0
 11
1542.864370452318
 21
238.1529603135433
 31
0.0
  0
LINE
  5
1C75
330
147A
100
AcDbEntity
  8
0
 62
     0
370
    -2
100
AcDbLine
 10
1565.017421653703
 20
249.8467544997278
 30
0.0
 11
1561.480008288214
 21
247.9794819749884
 31
0.0
  0
INSERT
  5
1C76
330
147A
100
AcDbEntity
  8
0
 62
     0
370
    -2
100
AcDbBlockReference
  2
_Open30
 10
1565.017421653703
 20
249.8467544997278
 30
0.0
 41
2.5
 42
2.5
 43
2.5
 50
207.8279519749282
  0
INSERT
  5
1C77
330
147A
100
AcDbEntity
  8
0
 62
     0
370
    -2
100
AcDbBlockReference
  2
_Open30
 10
1561.480008288214
 20
247.9794819749884
 30
0.0
 41
2.5
 42
2.5
 43
2.5
 50
27.82795197492814
  0
MTEXT
  5
1C78
102
{ACAD_XDICTIONARY
360
1D7E
102
}
330
147A
100
AcDbEntity
  8
0
 62
     4
100
AcDbMText
 10
1548.969317488065
 20
243.77842666672
 30
0.0
 40
3.0
 41
0.0
 71
     5
 72
     1
  1
2-\U+22054穴
 11
0.8843533413726307
 21
0.466818131185008
 31
0.0
 73
     1
 44
1.0
1001
ACAD
1000
MTEXTBEGIN
1070
    73
1070
     1
1070
    44
1040
1.0
1070
    74
1070
     0
1000
MTEXTEND
  0
POINT
  5
1C79
330
147A
100
AcDbEntity
  8
Defpoints
 62
     0
100
AcDbPoint
 10
1561.480008288214
 20
247.9794819749884
 30
0.0
  0
POINT
  5
1C7A
330
147A
100
AcDbEntity
  8
Defpoints
 62
     0
100
AcDbPoint
 10
1565.017421653703
 20
249.8467544997278
 30
0.0
  0
ENDBLK
  5
147C
330
147A
100
AcDbEntity
  8
0
100
AcDbBlockEnd
  0
ENDSEC
  0
SECTION
  2
ENTITIES
  0
LINE
  5
FE1
330
1F
100
AcDbEntity
  8
0
 62
     3
100
AcDbLine
 10
1662.248714970959
 20
250.713118237358
 30
0.0
 11
1664.248714970959
 21
250.713118237358
 31
0.0
  0
LINE
  5
FE2
330
1F
100
AcDbEntity
  8
0
 62
     3
100
AcDbLine
 10
1664.248714970959
 20
280.713118237358
 30
0.0
 11
1662.248714970959
 21
280.713118237358
 31
0.0
  0
LINE
  5
FE3
330
1F
100
AcDbEntity
  8
0
 62
     3
100
AcDbLine
 10
1659.248714970959
 20
253.2131182373581
 30
0.0
 11
1662.248714970959
 21
253.2131182373581
 31
0.0
  0
LINE
  5
FE4
330
1F
100
AcDbEntity
  8
0
 62
     3
100
AcDbLine
 10
1662.248714970959
 20
278.213118237358
 30
0.0
 11
1659.248714970959
 21
278.213118237358
 31
0.0
  0
LINE
  5
FE5
330
1F
100
AcDbEntity
  8
0
 62
     3
100
AcDbLine
 10
1680.248714970959
 20
254.413118237358
 30
0.0
 11
1682.248714970959
 21
254.413118237358
 31
0.0
  0
LINE
  5
FE6
330
1F
100
AcDbEntity
  8
0
 62
     3
100
AcDbLine
 10
1682.248714970959
 20
277.0131182373579
 30
0.0
 11
1680.248714970959
 21
277.0131182373579
 31
0.0
  0
ARC
  5
FE7
330
1F
100
AcDbEntity
  8
0
 62
     3
100
AcDbCircle
 10
1682.248714970959
 20
273.0131182373579
 30
0.0
 40
4.0
100
AcDbArc
 50
0.0
 51
90.0
  0
ARC
  5
FE8
330
1F
100
AcDbEntity
  8
0
 62
     3
100
AcDbCircle
 10
1682.248714970959
 20
258.413118237358
 30
0.0
 40
4.0
100
AcDbArc
 50
270.0
 51
0.0
  0
LINE
  5
FE9
330
1F
100
AcDbEntity
  8
0
 62
     3
100
AcDbLine
 10
1686.248714970959
 20
261.563118237358
 30
0.0
 11
1694.248714970959
 21
261.563118237358
 31
0.0
  0
LINE
  5
FEA
330
1F
100
AcDbEntity
  8
0
 62
     3
100
AcDbLine
 10
1694.248714970959
 20
269.863118237358
 30
0.0
 11
1686.248714970959
 21
269.863118237358
 31
0.0
  0
CIRCLE
  5
FEB
330
1F
100
AcDbEntity
  8
0
 62
     3
100
AcDbCircle
 10
1654.248714970959
 20
241.713118237358
 30
0.0
 40
4.0
  0
CIRCLE
  5
FEC
330
1F
100
AcDbEntity
  8
0
 62
     3
100
AcDbCircle
 10
1572.248714970959
 20
289.713118237358
 30
0.0
 40
4.0
  0
CIRCLE
  5
FED
330
1F
100
AcDbEntity
  8
0
 62
     3
100
AcDbCircle
 10
1572.248714970959
 20
241.713118237358
 30
0.0
 40
4.0
  0
CIRCLE
  5
FEE
330
1F
100
AcDbEntity
  8
0
 62
     3
100
AcDbCircle
 10
1654.248714970959
 20
289.713118237358
 30
0.0
 40
4.0
  0
LINE
  5
FEF
330
1F
100
AcDbEntity
  8
0
 62
     3
100
AcDbLine
 10
1567.248714970959
 20
288.713118237358
 30
0.0
 11
1560.248714970959
 21
288.713118237358
 31
0.0
  0
LINE
  5
FF0
330
1F
100
AcDbEntity
  8
0
 62
     3
100
AcDbLine
 10
1567.248714970959
 20
289.713118237358
 30
0.0
 11
1567.248714970959
 21
288.713118237358
 31
0.0
  0
LINE
  5
FF1
330
1F
100
AcDbEntity
  8
0
 62
     3
100
AcDbLine
 10
1659.248714970959
 20
241.713118237358
 30
0.0
 11
1659.248714970959
 21
289.713118237358
 31
0.0
  0
LINE
  5
FF2
330
1F
100
AcDbEntity
  8
0
 62
     3
100
AcDbLine
 10
1567.248714970959
 20
276.3131182373579
 30
0.0
 11
1567.248714970959
 21
241.7131182373581
 31
0.0
  0
LINE
  5
FF3
330
1F
100
AcDbEntity
  8
0
 62
     3
100
AcDbLine
 10
1560.248714970959
 20
276.313118237358
 30
0.0
 11
1567.248714970959
 21
276.3131182373579
 31
0.0
  0
LINE
  5
FF4
330
1F
100
AcDbEntity
  8
0
 62
     3
100
AcDbLine
 10
1558.248714970959
 20
286.713118237358
 30
0.0
 11
1558.248714970959
 21
278.313118237358
 31
0.0
  0
CIRCLE
  5
FF5
330
1F
100
AcDbEntity
  8
0
 62
     3
100
AcDbCircle
 10
1593.248714970959
 20
253.713118237358
 30
0.0
 40
9.0
  0
ARC
  5
FF6
330
1F
100
AcDbEntity
  8
0
 62
     3
100
AcDbCircle
 10
1654.248714970959
 20
241.713118237358
 30
0.0
 40
5.0
100
AcDbArc
 50
270.0
 51
0.0
  0
ARC
  5
FF7
330
1F
100
AcDbEntity
  8
0
 62
     3
100
AcDbCircle
 10
1560.248714970959
 20
286.713118237358
 30
0.0
 40
2.0
100
AcDbArc
 50
90.0
 51
180.0
  0
CIRCLE
  5
FF8
330
1F
100
AcDbEntity
  8
0
 62
     3
100
AcDbCircle
 10
1563.248714970959
 20
282.5131182373581
 30
0.0
 40
2.0
  0
LINE
  5
FF9
330
1F
100
AcDbEntity
  8
0
 62
     3
100
AcDbLine
 10
1654.248714970959
 20
294.713118237358
 30
0.0
 11
1572.248714970959
 21
294.713118237358
 31
0.0
  0
ARC
  5
FFA
330
1F
100
AcDbEntity
  8
0
 62
     3
100
AcDbCircle
 10
1654.248714970959
 20
289.713118237358
 30
0.0
 40
5.0
100
AcDbArc
 50
0.0
 51
90.0
  0
ARC
  5
FFB
330
1F
100
AcDbEntity
  8
0
 62
     3
100
AcDbCircle
 10
1560.248714970959
 20
278.3131182373579
 30
0.0
 40
2.0
100
AcDbArc
 50
179.9999999999966
 51
270.0
  0
LINE
  5
FFC
330
1F
100
AcDbEntity
  8
0
 62
     3
100
AcDbLine
 10
1572.248714970959
 20
236.713118237358
 30
0.0
 11
1654.248714970959
 21
236.713118237358
 31
0.0
  0
ARC
  5
FFD
330
1F
100
AcDbEntity
  8
0
 62
     3
100
AcDbCircle
 10
1572.248714970959
 20
241.713118237358
 30
0.0
 40
5.0
100
AcDbArc
 50
180.0
 51
270.0
  0
ARC
  5
FFE
330
1F
100
AcDbEntity
  8
0
 62
     3
100
AcDbCircle
 10
1572.248714970959
 20
289.713118237358
 30
0.0
 40
5.0
100
AcDbArc
 50
90.0
 51
180.0
  0
LINE
  5
FFF
330
1F
100
AcDbEntity
  8
0
 62
     3
100
AcDbLine
 10
1662.248714970959
 20
280.713118237358
 30
0.0
 11
1662.248714970959
 21
250.713118237358
 31
0.0
  0
LINE
  5
1000
330
1F
100
AcDbEntity
  8
0
 62
     3
100
AcDbLine
 10
1664.248714970959
 20
280.713118237358
 30
0.0
 11
1664.248714970959
 21
250.713118237358
 31
0.0
  0
LINE
  5
1002
330
1F
100
AcDbEntity
  8
0
 62
     3
100
AcDbLine
 10
1678.748714970959
 20
266.685897925661
 30
0.0
 11
1669.748714970959
 21
266.685897925661
 31
0.0
  0
LINE
  5
1003
330
1F
100
AcDbEntity
  8
0
 62
     3
100
AcDbLine
 10
1678.748714970959
 20
266.685897925661
 30
0.0
 11
1678.748714970959
 21
264.740338549055
 31
0.0
  0
LINE
  5
1004
330
1F
100
AcDbEntity
  8
0
 62
     3
100
AcDbLine
 10
1678.748714970959
 20
264.740338549055
 30
0.0
 11
1669.748714970959
 21
264.740338549055
 31
0.0
  0
LINE
  5
1009
330
1F
100
AcDbEntity
  8
0
 62
     3
100
AcDbLine
 10
1678.748714970959
 20
254.885897925661
 30
0.0
 11
1669.748714970959
 21
254.885897925661
 31
0.0
  0
LINE
  5
100B
330
1F
100
AcDbEntity
  8
0
 62
     3
100
AcDbLine
 10
1678.748714970959
 20
276.540338549055
 30
0.0
 11
1669.748714970959
 21
276.540338549055
 31
0.0
  0
LINE
  5
100E
330
1F
100
AcDbEntity
  8
0
 62
     3
100
AcDbLine
 10
1669.748714970959
 20
266.7711560203586
 30
0.0
 11
1664.248714970959
 21
266.7711560203586
 31
0.0
  0
LINE
  5
100F
330
1F
100
AcDbEntity
  8
0
 62
     3
100
AcDbLine
 10
1669.748714970959
 20
264.6550804543575
 30
0.0
 11
1664.248714970959
 21
264.6550804543575
 31
0.0
  0
LINE
  5
1010
330
1F
100
AcDbEntity
  8
0
 62
     3
100
AcDbLine
 10
1669.748714970959
 20
276.4050804543574
 30
0.0
 11
1664.248714970959
 21
276.4050804543574
 31
0.0
  0
LINE
  5
1011
330
1F
100
AcDbEntity
  8
0
 62
     3
100
AcDbLine
 10
1669.748714970959
 20
255.0211560203586
 30
0.0
 11
1664.248714970959
 21
255.0211560203586
 31
0.0
  0
LINE
  5
1012
330
1F
100
AcDbEntity
  8
0
 62
     3
100
AcDbLine
 10
1686.248714970959
 20
273.0131182373579
 30
0.0
 11
1686.248714970959
 21
258.413118359697
 31
0.0
  0
LINE
  5
1014
330
1F
100
AcDbEntity
  8
0
 62
     3
100
AcDbLine
 10
1678.748714970959
 20
277.5131182373581
 30
0.0
 11
1678.748714970959
 21
276.540338549055
 31
0.0
  0
LINE
  5
1017
330
1F
100
AcDbEntity
  8
0
 62
     3
100
AcDbLine
 10
1678.748714970959
 20
254.885897925661
 30
0.0
 11
1678.748714970959
 21
253.913118237358
 31
0.0
  0
LINE
  5
1018
330
1F
100
AcDbEntity
  8
0
 62
     3
100
AcDbLine
 10
1680.248714970959
 20
253.913118237358
 30
0.0
 11
1680.248714970959
 21
277.5131182373581
 31
0.0
  0
LINE
  5
1019
330
1F
100
AcDbEntity
  8
0
 62
     3
100
AcDbLine
 10
1669.748714970959
 20
253.963118237358
 30
0.0
 11
1664.248714970959
 21
253.963118237358
 31
0.0
  0
LINE
  5
101A
330
1F
100
AcDbEntity
  8
0
 62
     3
100
AcDbLine
 10
1669.748714970959
 20
277.463118237358
 30
0.0
 11
1664.248714970959
 21
277.463118237358
 31
0.0
  0
LINE
  5
101B
330
1F
100
AcDbEntity
  8
0
 62
     3
100
AcDbLine
 10
1680.248714970959
 20
253.913118237358
 30
0.0
 11
1669.748714970959
 21
253.913118237358
 31
0.0
  0
LINE
  5
101D
330
1F
100
AcDbEntity
  8
0
 62
     3
100
AcDbLine
 10
1680.248714970959
 20
277.5131182373581
 30
0.0
 11
1669.748714970959
 21
277.5131182373581
 31
0.0
  0
LINE
  5
101E
330
1F
100
AcDbEntity
  8
0
 62
     3
100
AcDbLine
 10
1669.748714970959
 20
277.5131182373581
 30
0.0
 11
1669.748714970959
 21
253.913118237358
 31
0.0
  0
LINE
  5
101F
330
1F
100
AcDbEntity
  8
0
 62
     3
100
AcDbLine
 10
1694.248714970959
 20
269.863118237358
 30
0.0
 11
1694.248714970959
 21
261.563118237358
 31
0.0
  0
LINE
  5
1020
330
1F
100
AcDbEntity
  8
0
 62
     3
100
AcDbLine
 10
1562.748714970959
 20
244.5131182373581
 30
0.0
 11
1562.748714970959
 21
242.713118237358
 31
0.0
  0
LINE
  5
1021
330
1F
100
AcDbEntity
  8
0
 62
     3
100
AcDbLine
 10
1567.248714970959
 20
244.5131182373581
 30
0.0
 11
1562.748714970959
 21
244.5131182373581
 31
0.0
  0
LINE
  5
1023
330
1F
100
AcDbEntity
  8
0
 62
     3
100
AcDbLine
 10
1562.748714970959
 20
253.313118237358
 30
0.0
 11
1567.248714970959
 21
253.313118237358
 31
0.0
  0
LINE
  5
1024
330
1F
100
AcDbEntity
  8
0
 62
     3
100
AcDbLine
 10
1562.748714970959
 20
253.313118237358
 30
0.0
 11
1562.748714970959
 21
255.113118237358
 31
0.0
  0
ARC
  5
1026
330
1F
100
AcDbEntity
  8
0
 62
     3
100
AcDbCircle
 10
1560.248714970959
 20
253.1131182373581
 30
0.0
 40
2.0
100
AcDbArc
 50
90.0
 51
180.0000000000032
  0
CIRCLE
  5
1027
330
1F
100
AcDbEntity
  8
0
 62
     3
100
AcDbCircle
 10
1563.248714970959
 20
248.9131182373579
 30
0.0
 40
2.0
  0
LINE
  5
1028
330
1F
100
AcDbEntity
  8
0
 62
     3
100
AcDbLine
 10
1558.248714970959
 20
244.713118237358
 30
0.0
 11
1558.248714970959
 21
253.113118237358
 31
0.0
  0
ARC
  5
1029
330
1F
100
AcDbEntity
  8
0
 62
     3
100
AcDbCircle
 10
1560.248714970959
 20
244.713118237358
 30
0.0
 40
2.0
100
AcDbArc
 50
180.0
 51
270.0
  0
LINE
  5
102A
330
1F
100
AcDbEntity
  8
0
 62
     3
100
AcDbLine
 10
1560.248714970959
 20
255.113118237358
 30
0.0
 11
1567.248714970959
 21
255.113118237358
 31
0.0
  0
LINE
  5
102B
330
1F
100
AcDbEntity
  8
0
 62
     3
100
AcDbLine
 10
1567.248714970959
 20
242.713118237358
 30
0.0
 11
1560.248714970959
 21
242.713118237358
 31
0.0
  0
LINE
  5
102C
330
1F
100
AcDbEntity
  8
0
 62
     3
100
AcDbLine
 10
1658.248714970959
 20
187.7865660201518
 30
0.0
 11
1658.248714970959
 21
189.5865660201518
 31
0.0
  0
LINE
  5
102D
330
1F
100
AcDbEntity
  8
0
 62
     3
100
AcDbLine
 10
1650.248714970959
 20
189.5865660201518
 30
0.0
 11
1650.248714970959
 21
187.7865660201518
 31
0.0
  0
LINE
  5
102E
330
1F
100
AcDbEntity
  8
0
 62
     3
100
AcDbLine
 10
1576.248714970959
 20
187.7865660201518
 30
0.0
 11
1576.248714970959
 21
189.5865660201518
 31
0.0
  0
LINE
  5
102F
330
1F
100
AcDbEntity
  8
0
 62
     3
100
AcDbLine
 10
1568.248714970959
 20
189.5865660201518
 30
0.0
 11
1568.248714970959
 21
187.7865660201518
 31
0.0
  0
LINE
  5
1030
330
1F
100
AcDbEntity
  8
0
 62
     3
100
AcDbLine
 10
1662.248714970959
 20
150.7865660201518
 30
0.0
 11
1664.248714970959
 21
150.7865660201518
 31
0.0
  0
LINE
  5
1031
330
1F
100
AcDbEntity
  8
0
 62
     3
100
AcDbLine
 10
1664.248714970959
 20
180.7865660201518
 30
0.0
 11
1662.248714970959
 21
180.7865660201518
 31
0.0
  0
LINE
  5
1032
330
1F
100
AcDbEntity
  8
0
 62
     3
100
AcDbLine
 10
1659.03054327619
 20
153.2865660201518
 30
0.0
 11
1662.248714970959
 21
153.2865660201518
 31
0.0
  0
LINE
  5
1033
330
1F
100
AcDbEntity
  8
0
 62
     3
100
AcDbLine
 10
1662.248714970959
 20
178.2865660201518
 30
0.0
 11
1567.248714970959
 21
178.2865660201518
 31
0.0
  0
ARC
  5
1034
330
1F
100
AcDbEntity
  8
0
 62
     3
100
AcDbCircle
 10
1682.248714970959
 20
173.0865660201518
 30
0.0
 40
4.000000000000055
100
AcDbArc
 50
0.0
 51
90.0
  0
ARC
  5
1035
330
1F
100
AcDbEntity
  8
0
 62
     3
100
AcDbCircle
 10
1682.248714970959
 20
158.4865660201518
 30
0.0
 40
4.0
100
AcDbArc
 50
270.0
 51
0.0
  0
LINE
  5
1036
330
1F
100
AcDbEntity
  8
0
 62
     3
100
AcDbLine
 10
1680.248714970959
 20
154.4865660201518
 30
0.0
 11
1682.248714970959
 21
154.4865660201518
 31
0.0
  0
LINE
  5
1037
330
1F
100
AcDbEntity
  8
0
 62
     3
100
AcDbLine
 10
1682.248714970959
 20
177.0865660201518
 30
0.0
 11
1680.248714970959
 21
177.0865660201518
 31
0.0
  0
LINE
  5
1038
330
1F
100
AcDbEntity
  8
0
 62
     3
100
AcDbLine
 10
1680.248714970959
 20
177.5865660201518
 30
0.0
 11
1678.748714970959
 21
178.8865660201518
 31
0.0
  0
LINE
  5
1039
330
1F
100
AcDbEntity
  8
0
 62
     3
100
AcDbLine
 10
1678.748714970959
 20
152.6865660201518
 30
0.0
 11
1680.248714970959
 21
153.9865660201518
 31
0.0
  0
LINE
  5
103A
330
1F
100
AcDbEntity
  8
0
 62
     3
100
AcDbLine
 10
1686.248714970959
 20
161.6365660201518
 30
0.0
 11
1694.248714970959
 21
161.6365660201518
 31
0.0
  0
LINE
  5
103B
330
1F
100
AcDbEntity
  8
0
 62
     3
100
AcDbLine
 10
1694.248714970959
 20
169.9365660201518
 30
0.0
 11
1686.248714970959
 21
169.9365660201518
 31
0.0
  0
LINE
  5
103C
330
1F
100
AcDbEntity
  8
0
 62
     3
100
AcDbLine
 10
1669.748714970959
 20
178.7865660201518
 30
0.0
 11
1664.248714970959
 21
178.7865660201518
 31
0.0
  0
LINE
  5
103D
330
1F
100
AcDbEntity
  8
0
 62
     3
100
AcDbLine
 10
1664.248714970959
 20
152.7865660201518
 30
0.0
 11
1669.748714970959
 21
152.7865660201518
 31
0.0
  0
LINE
  5
103E
330
1F
100
AcDbEntity
  8
0
 62
     3
100
AcDbLine
 10
1678.748714970959
 20
178.8865660201518
 30
0.0
 11
1669.748714970959
 21
178.8865660201518
 31
0.0
  0
LINE
  5
103F
330
1F
100
AcDbEntity
  8
0
 62
     3
100
AcDbLine
 10
1669.748714970959
 20
152.6865660201518
 30
0.0
 11
1678.748714970959
 21
152.6865660201518
 31
0.0
  0
LINE
  5
1042
330
1F
100
AcDbEntity
  8
0
 62
     3
100
AcDbLine
 10
1567.479976967415
 20
151.7865660201518
 30
0.0
 11
1567.248714970959
 21
178.2865660201518
 31
0.0
  0
LINE
  5
1043
330
1F
100
AcDbEntity
  8
0
 62
     3
100
AcDbLine
 10
1659.017452974504
 20
151.7865660201518
 30
0.0
 11
1659.248714970959
 21
178.2865660201518
 31
0.0
  0
LINE
  5
1046
330
1F
100
AcDbEntity
  8
0
 62
     3
100
AcDbLine
 10
1659.248714970959
 20
187.7865660201518
 30
0.0
 11
1659.248714970959
 21
178.2865660201518
 31
0.0
  0
LINE
  5
1048
330
1F
100
AcDbEntity
  8
0
 62
     3
100
AcDbLine
 10
1567.248714970959
 20
187.7865660201518
 30
0.0
 11
1567.248714970959
 21
178.2865660201518
 31
0.0
  0
LINE
  5
104B
330
1F
100
AcDbEntity
  8
0
 62
     3
100
AcDbLine
 10
1650.248714970959
 20
189.5865660201518
 30
0.0
 11
1658.248714970959
 21
189.5865660201518
 31
0.0
  0
LINE
  5
104D
330
1F
100
AcDbEntity
  8
0
 62
     3
100
AcDbLine
 10
1568.248714970959
 20
189.5865660201518
 30
0.0
 11
1576.248714970959
 21
189.5865660201518
 31
0.0
  0
LINE
  5
104E
330
1F
100
AcDbEntity
  8
0
 62
     3
100
AcDbLine
 10
1567.424533866479
 20
158.1397161153694
 30
0.0
 11
1562.748714970959
 21
154.4865660201518
 31
0.0
  0
LINE
  5
104F
330
1F
100
AcDbEntity
  8
0
 62
     3
100
AcDbLine
 10
1562.748714970959
 20
154.4865660201518
 30
0.0
 11
1560.248714970959
 21
154.4865660201518
 31
0.0
  0
LINE
  5
1051
330
1F
100
AcDbEntity
  8
0
 62
     3
100
AcDbLine
 10
1558.248714970959
 20
151.7865660201518
 30
0.0
 11
1558.248714970959
 21
154.4865660201518
 31
0.0
  0
LINE
  5
1052
330
1F
100
AcDbEntity
  8
0
 62
     3
100
AcDbLine
 10
1558.248714970959
 20
154.4865660201518
 30
0.0
 11
1560.248714970959
 21
154.4865660201518
 31
0.0
  0
LINE
  5
1053
330
1F
100
AcDbEntity
  8
0
 62
     3
100
AcDbLine
 10
1659.017452974504
 20
151.7865660201518
 30
0.0
 11
1558.248714970959
 21
151.7865660201518
 31
0.0
  0
LINE
  5
1054
330
1F
100
AcDbEntity
  8
0
 62
     3
100
AcDbLine
 10
1662.248714970959
 20
180.7865660201518
 30
0.0
 11
1662.248714970959
 21
150.7865660201518
 31
0.0
  0
LINE
  5
1055
330
1F
100
AcDbEntity
  8
0
 62
     3
100
AcDbLine
 10
1664.248714970959
 20
180.7865660201518
 30
0.0
 11
1664.248714970959
 21
150.7865660201518
 31
0.0
  0
LINE
  5
1059
330
1F
100
AcDbEntity
  8
0
 62
     3
100
AcDbLine
 10
1678.748714970959
 20
160.097102073522
 30
0.0
 11
1678.748714970959
 21
158.4121982288103
 31
0.0
  0
LINE
  5
105D
330
1F
100
AcDbEntity
  8
0
 62
     3
100
AcDbLine
 10
1678.748714970959
 20
173.1609338114933
 30
0.0
 11
1678.748714970959
 21
171.4760299667816
 31
0.0
  0
LINE
  5
105F
330
1F
100
AcDbEntity
  8
0
 62
     3
100
AcDbLine
 10
1678.748714970959
 20
171.4760299667816
 30
0.0
 11
1669.748714970959
 21
171.4760299667816
 31
0.0
  0
LINE
  5
1060
330
1F
100
AcDbEntity
  8
0
 62
     3
100
AcDbLine
 10
1678.748714970959
 20
160.097102073522
 30
0.0
 11
1669.748714970959
 21
160.097102073522
 31
0.0
  0
LINE
  5
1061
330
1F
100
AcDbEntity
  8
0
 62
     3
100
AcDbLine
 10
1678.748714970959
 20
173.1609338114933
 30
0.0
 11
1669.748714970959
 21
173.1609338114933
 31
0.0
  0
LINE
  5
1063
330
1F
100
AcDbEntity
  8
0
 62
     3
100
AcDbLine
 10
1678.748714970959
 20
158.4121982288103
 30
0.0
 11
1669.748714970959
 21
158.4121982288103
 31
0.0
  0
LINE
  5
1065
330
1F
100
AcDbEntity
  8
0
 62
     3
100
AcDbLine
 10
1669.748714970959
 20
171.3487148854735
 30
0.0
 11
1664.248714970959
 21
171.3487148854735
 31
0.0
  0
LINE
  5
1066
330
1F
100
AcDbEntity
  8
0
 62
     3
100
AcDbLine
 10
1669.748714970959
 20
160.22441715483
 30
0.0
 11
1664.248714970959
 21
160.22441715483
 31
0.0
  0
LINE
  5
1067
330
1F
100
AcDbEntity
  8
0
 62
     3
100
AcDbLine
 10
1669.748714970959
 20
173.1812900819581
 30
0.0
 11
1664.248714970959
 21
173.1812900819581
 31
0.0
  0
LINE
  5
1068
330
1F
100
AcDbEntity
  8
0
 62
     3
100
AcDbLine
 10
1669.748714970959
 20
158.3918419583455
 30
0.0
 11
1664.248714970959
 21
158.3918419583455
 31
0.0
  0
LINE
  5
1069
330
1F
100
AcDbEntity
  8
0
 62
     3
100
AcDbLine
 10
1686.248714970959
 20
173.0865660201518
 30
0.0
 11
1686.248714970959
 21
158.4865660201518
 31
0.0
  0
LINE
  5
106B
330
1F
100
AcDbEntity
  8
0
 62
     3
100
AcDbLine
 10
1678.748714970959
 20
152.7227342821805
 30
0.0
 11
1669.748714970959
 21
152.7227342821805
 31
0.0
  0
LINE
  5
106D
330
1F
100
AcDbEntity
  8
0
 62
     3
100
AcDbLine
 10
1678.748714970959
 20
178.850397758123
 30
0.0
 11
1669.748714970959
 21
178.850397758123
 31
0.0
  0
LINE
  5
1070
330
1F
100
AcDbEntity
  8
0
 62
     3
100
AcDbLine
 10
1669.748714970959
 20
152.8296930930236
 30
0.0
 11
1664.248714970959
 21
152.8296930930236
 31
0.0
  0
LINE
  5
1071
330
1F
100
AcDbEntity
  8
0
 62
     3
100
AcDbLine
 10
1669.748714970959
 20
178.7434389472798
 30
0.0
 11
1664.248714970959
 21
178.7434389472798
 31
0.0
  0
LINE
  5
1072
330
1F
100
AcDbEntity
  8
0
 62
     3
100
AcDbLine
 10
1678.748714970959
 20
178.8865660201518
 30
0.0
 11
1678.748714970959
 21
178.850397758123
 31
0.0
  0
LINE
  5
1073
330
1F
100
AcDbEntity
  8
0
 62
     3
100
AcDbLine
 10
1680.248714970959
 20
153.9865660201518
 30
0.0
 11
1680.248714970959
 21
177.5865660201518
 31
0.0
  0
LINE
  5
1074
330
1F
100
AcDbEntity
  8
0
 62
     3
100
AcDbLine
 10
1678.748714970959
 20
152.7227342821805
 30
0.0
 11
1678.748714970959
 21
152.6865660201518
 31
0.0
  0
LINE
  5
1076
330
1F
100
AcDbEntity
  8
0
 62
     3
100
AcDbLine
 10
1694.248714970959
 20
169.9365660201517
 30
0.0
 11
1694.248714970959
 21
161.6365660201518
 31
0.0
  0
LINE
  5
1077
330
1F
100
AcDbEntity
  8
0
 62
     3
100
AcDbLine
 10
1669.748714970959
 20
178.8865660201518
 30
0.0
 11
1669.748714970959
 21
152.6865660201518
 31
0.0
  0
LINE
  5
1079
330
1F
100
AcDbEntity
  8
0
 62
     3
100
AcDbLine
 10
1562.748714970959
 20
185.0865660201518
 30
0.0
 11
1567.248714970959
 21
181.5707807008715
 31
0.0
  0
LINE
  5
107A
330
1F
100
AcDbEntity
  8
0
 62
     3
100
AcDbLine
 10
1560.248714970959
 20
185.0865660201518
 30
0.0
 11
1562.748714970959
 21
185.0865660201518
 31
0.0
  0
LINE
  5
107C
330
1F
100
AcDbEntity
  8
0
 62
     3
100
AcDbLine
 10
1558.248714970959
 20
185.0865660201518
 30
0.0
 11
1558.248714970959
 21
187.7865660201518
 31
0.0
  0
LINE
  5
107D
330
1F
100
AcDbEntity
  8
0
 62
     3
100
AcDbLine
 10
1560.248714970959
 20
185.0865660201518
 30
0.0
 11
1558.248714970959
 21
185.0865660201518
 31
0.0
  0
LINE
  5
107E
330
1F
100
AcDbEntity
  8
0
 62
     3
100
AcDbLine
 10
1558.248714970959
 20
187.7865660201518
 30
0.0
 11
1659.248714970959
 21
187.7865660201518
 31
0.0
  0
LINE
  5
1080
330
1F
100
AcDbEntity
  8
0
 62
     3
100
AcDbLine
 10
1826.248714970959
 20
265.7131182942198
 30
0.0
 11
1836.24871497096
 21
265.7131182985275
 31
0.0
  0
LINE
  5
1081
330
1F
100
AcDbEntity
  8
0
 62
     3
100
AcDbLine
 10
1826.248714970959
 20
266.9631182942199
 30
0.0
 11
1826.248714970959
 21
264.4631182942198
 31
0.0
  0
LINE
  5
1082
330
1F
100
AcDbEntity
  8
0
 62
     3
100
AcDbLine
 10
1722.87842190596
 20
266.9631182496909
 30
0.0
 11
1826.248714970959
 21
266.9631182942199
 31
0.0
  0
LINE
  5
1083
330
1F
100
AcDbEntity
  8
0
 62
     3
100
AcDbLine
 10
1694.303291150133
 20
264.4631182373816
 30
0.0
 11
1826.248714970959
 21
264.4631182942198
 31
0.0
  0
LINE
  5
1084
330
1F
100
AcDbEntity
  8
0
 62
     3
100
AcDbLine
 10
1826.248714970959
 20
266.3131182942198
 30
0.0
 11
1836.2487149707
 21
266.3131182985275
 31
0.0
  0
LINE
  5
1085
330
1F
100
AcDbEntity
  8
0
 62
     3
100
AcDbLine
 10
1826.248714970959
 20
265.1131182942198
 30
0.0
 11
1836.248714971219
 21
265.1131182985275
 31
0.0
  0
LINE
  5
1087
330
1F
100
AcDbEntity
  8
0
 62
     3
100
AcDbLine
 10
1825.637470435679
 20
278.462919709309
 30
0.0
 11
1825.855359792549
 21
275.9724329640796
 31
0.0
  0
LINE
  5
1088
330
1F
100
AcDbEntity
  8
0
 62
     3
100
AcDbLine
 10
1825.746415114114
 20
277.2176763366943
 30
0.0
 11
1835.708362094655
 21
278.0892337684622
 31
0.0
  0
LINE
  5
1089
330
1F
100
AcDbEntity
  8
0
 62
     3
100
AcDbLine
 10
1825.798708559762
 20
276.6199595178392
 30
0.0
 11
1835.760655540562
 21
277.4915169496296
 31
0.0
  0
LINE
  5
108A
330
1F
100
AcDbEntity
  8
0
 62
     3
100
AcDbLine
 10
1825.694121668465
 20
277.8153931555494
 30
0.0
 11
1835.656068648749
 21
278.6869505872947
 31
0.0
  0
LINE
  5
108B
330
1F
100
AcDbEntity
  8
0
 62
     3
100
AcDbLine
 10
1694.248714970959
 20
264.4583434403815
 30
0.0
 11
1825.855359792549
 21
275.9724329640796
 31
0.0
  0
LINE
  5
108C
330
1F
100
AcDbEntity
  8
0
 62
     3
100
AcDbLine
 10
1708.590027392181
 20
268.2225952975
 30
0.0
 11
1825.637470435679
 21
278.462919709309
 31
0.0
  0
LINE
  5
108E
330
1F
100
AcDbEntity
  8
0
 62
     3
100
AcDbLine
 10
1825.85535980246
 20
255.4538036239272
 30
0.0
 11
1825.637470445591
 21
252.9633168786978
 31
0.0
  0
LINE
  5
108F
330
1F
100
AcDbEntity
  8
0
 62
     3
100
AcDbLine
 10
1825.746415124027
 20
254.2085602513125
 30
0.0
 11
1835.708362105319
 21
253.3370028281273
 31
0.0
  0
LINE
  5
1090
330
1F
100
AcDbEntity
  8
0
 62
     3
100
AcDbLine
 10
1825.694121678377
 20
253.6108434324575
 30
0.0
 11
1835.656068659927
 21
252.7392860092497
 31
0.0
  0
LINE
  5
1091
330
1F
100
AcDbEntity
  8
0
 62
     3
100
AcDbLine
 10
1825.798708569674
 20
254.8062770701676
 30
0.0
 11
1835.76065555071
 21
253.9347196470048
 31
0.0
  0
LINE
  5
1092
330
1F
100
AcDbEntity
  8
0
 62
     3
100
AcDbLine
 10
1694.248714970959
 20
264.4583434404762
 30
0.0
 11
1825.637470445591
 21
252.9633168786978
 31
0.0
  0
LINE
  5
1093
330
1F
100
AcDbEntity
  8
0
 62
     3
100
AcDbLine
 10
1722.878421907036
 20
264.4631182496909
 30
0.0
 11
1825.85535980246
 21
255.4538036239272
 31
0.0
  0
LINE
  5
1095
330
1F
100
AcDbEntity
  8
0
 62
     3
100
AcDbLine
 10
1824.46039858582
 20
242.7725685325863
 30
0.0
 11
1824.026278141653
 21
240.3105491500559
 31
0.0
  0
LINE
  5
1096
330
1F
100
AcDbEntity
  8
0
 62
     3
100
AcDbLine
 10
1824.243338363737
 20
241.5415588413211
 30
0.0
 11
1834.091415894608
 21
239.8050770688941
 31
0.0
  0
LINE
  5
1097
330
1F
100
AcDbEntity
  8
0
 62
     3
100
AcDbLine
 10
1824.139149457138
 20
240.9506741895138
 30
0.0
 11
1833.987226988261
 21
239.2141924170418
 31
0.0
  0
LINE
  5
1098
330
1F
100
AcDbEntity
  8
0
 62
     3
100
AcDbLine
 10
1824.347527270338
 20
242.1324434931284
 30
0.0
 11
1834.195604800953
 21
240.3959617207463
 31
0.0
  0
LINE
  5
1099
330
1F
100
AcDbEntity
  8
0
 62
     3
100
AcDbLine
 10
1694.248714970959
 20
263.1938349700038
 30
0.0
 11
1824.026278141653
 21
240.3105491500559
 31
0.0
  0
LINE
  5
109A
330
1F
100
AcDbEntity
  8
0
 62
     3
100
AcDbLine
 10
1708.590027364081
 20
263.2036411922194
 30
0.0
 11
1824.46039858582
 21
242.7725685325864
 31
0.0
  0
LINE
  5
109C
330
1F
100
AcDbEntity
  8
0
 62
     3
100
AcDbLine
 10
1824.026278136074
 20
291.115687436656
 30
0.0
 11
1824.460398580241
 21
288.6536680541254
 31
0.0
  0
LINE
  5
109D
330
1F
100
AcDbEntity
  8
0
 62
     3
100
AcDbLine
 10
1824.243338358158
 20
289.8846777453908
 30
0.0
 11
1834.091415887532
 21
291.6211595263023
 31
0.0
  0
LINE
  5
109E
330
1F
100
AcDbEntity
  8
0
 62
     3
100
AcDbLine
 10
1824.347527264759
 20
289.2937930935834
 30
0.0
 11
1834.195604794388
 21
291.0302748745398
 31
0.0
  0
LINE
  5
109F
330
1F
100
AcDbEntity
  8
0
 62
     3
100
AcDbLine
 10
1824.139149451558
 20
290.4755623971981
 30
0.0
 11
1833.987226980677
 21
292.2120441780647
 31
0.0
  0
LINE
  5
10A0
330
1F
100
AcDbEntity
  8
0
 62
     3
100
AcDbLine
 10
1694.248714970959
 20
265.6938349724994
 30
0.0
 11
1824.460398580241
 21
288.6536680541254
 31
0.0
  0
LINE
  5
10A1
330
1F
100
AcDbEntity
  8
0
 62
     3
100
AcDbLine
 10
1694.248714970959
 20
268.2324015024065
 30
0.0
 11
1824.026278136074
 21
291.1156874366559
 31
0.0
  0
ARC
  5
10A9
330
1F
100
AcDbEntity
  8
0
 62
     3
100
AcDbCircle
 10
1671.406214970955
 20
271.6131182373584
 30
0.0
 40
8.842500000003848
100
AcDbArc
 50
326.1362213840872
 51
33.86377861590727
  0
ARC
  5
10AA
330
1F
100
AcDbEntity
  8
0
 62
     3
100
AcDbCircle
 10
1671.406214970955
 20
259.8131182373584
 30
0.0
 40
8.842500000003626
100
AcDbArc
 50
326.1362213840869
 51
33.86377861590779
  0
ARC
  5
10AB
330
1F
100
AcDbEntity
  8
0
 62
     3
100
AcDbCircle
 10
1675.991623404998
 20
155.9943561559614
 30
0.0
 40
4.278441724283982
100
AcDbArc
 50
310.1218203216758
 51
354.2736731203131
  0
ARC
  5
10AC
330
1F
100
AcDbEntity
  8
0
 62
     3
100
AcDbCircle
 10
1675.991610412765
 20
155.1405695043496
 30
0.0
 40
4.278455335227735
100
AcDbArc
 50
5.726400804108742
 51
49.8781057538753
  0
ARC
  5
10AD
330
1F
100
AcDbEntity
  8
0
 62
     3
100
AcDbCircle
 10
1668.708714970962
 20
165.7865660201516
 30
0.0
 40
11.5399999999975
100
AcDbArc
 50
330.4606535385397
 51
29.53934646146246
  0
ARC
  5
10AE
330
1F
100
AcDbEntity
  8
0
 62
     3
100
AcDbCircle
 10
1675.991623404998
 20
176.432555685274
 30
0.0
 40
4.278441724283966
100
AcDbArc
 50
310.1218203216772
 51
354.2736731203149
  0
ARC
  5
10AF
330
1F
100
AcDbEntity
  8
0
 62
     3
100
AcDbCircle
 10
1675.991610412765
 20
175.5787690336623
 30
0.0
 40
4.278455335227761
100
AcDbArc
 50
5.726400804112119
 51
49.87810575387555
  0
LINE
  5
10F8
330
1F
100
AcDbEntity
  8
0
  6
CENTER
100
AcDbLine
 10
1695.334534040328
 20
265.713118237358
 30
0.0
 11
1559.59508032231
 21
265.713118237358
 31
0.0
  0
LINE
  5
10F9
330
1F
100
AcDbEntity
  8
0
  6
CENTER
 62
     7
100
AcDbLine
 10
1563.24871497096
 20
276.8178951139786
 30
0.0
 11
1563.248714970959
 21
288.2083413607375
 31
0.0
  0
LINE
  5
10FA
330
1F
100
AcDbEntity
  8
0
  6
CENTER
 62
     7
100
AcDbLine
 10
1557.553491847579
 20
282.5131182373581
 30
0.0
 11
1568.94393809434
 21
282.5131182373581
 31
0.0
  0
LINE
  5
10FC
330
1F
100
AcDbEntity
  8
0
  6
CENTER
 62
     7
100
AcDbLine
 10
1563.24871497096
 20
243.2178951139785
 30
0.0
 11
1563.248714970959
 21
254.6083413607374
 31
0.0
  0
LINE
  5
10FD
330
1F
100
AcDbEntity
  8
0
  6
CENTER
 62
     7
100
AcDbLine
 10
1557.553491847579
 20
248.9131182373579
 30
0.0
 11
1568.94393809434
 21
248.9131182373579
 31
0.0
  0
LINE
  5
12CB
330
1F
100
AcDbEntity
  8
0
 62
     3
100
AcDbLine
 10
1763.155979388898
 20
145.9934300527177
 30
0.0
 11
1839.055979388898
 21
145.9934300527177
 31
0.0
  0
LINE
  5
12CC
330
1F
100
AcDbEntity
  8
0
 62
     7
100
AcDbLine
 10
1763.155979388898
 20
151.4934300527176
 30
0.0
 11
1839.055979388898
 21
151.4934300527176
 31
0.0
  0
TEXT
  5
12D0
330
1F
100
AcDbEntity
  8
0
 62
     3
100
AcDbText
 10
1764.655979388898
 20
152.4934300527176
 30
0.0
 40
3.2
  1
使用環境温度
 41
0.8
  7
高3.2
100
AcDbText
  0
TEXT
  5
12D8
330
1F
100
AcDbEntity
  8
0
 62
     3
100
AcDbText
 10
1764.655979388898
 20
146.9934300527176
 30
0.0
 40
3.2
  1
質　　　量
  7
高3.2
100
AcDbText
  0
TEXT
  5
12DA
330
1F
100
AcDbEntity
  8
0
 62
     3
100
AcDbText
 10
1764.655979388898
 20
185.4934300527177
 30
0.0
 40
3.2
  1
入力電圧範囲
 41
0.8
  7
高3.2
100
AcDbText
  0
TEXT
  5
12DB
330
1F
100
AcDbEntity
  8
0
 62
     3
100
AcDbText
 10
1764.655979388898
 20
190.9934300527177
 30
0.0
 40
3.2
  1
材　　　質
  7
高3.2
100
AcDbText
  0
LINE
  5
12DF
330
1F
100
AcDbEntity
  8
0
 62
     7
100
AcDbLine
 10
1763.155979388898
 20
167.9934300527177
 30
0.0
 11
1839.055979388898
 21
167.9934300527177
 31
0.0
  0
LINE
  5
12E1
330
1F
100
AcDbEntity
  8
0
 62
     7
100
AcDbLine
 10
1763.155979388898
 20
184.4934300527177
 30
0.0
 11
1839.055979388898
 21
184.4934300527177
 31
0.0
  0
LINE
  5
12E2
330
1F
100
AcDbEntity
  8
0
 62
     7
100
AcDbLine
 10
1763.155979388898
 20
189.9934300527177
 30
0.0
 11
1839.055979388898
 21
189.9934300527177
 31
0.0
  0
LINE
  5
12E6
330
1F
100
AcDbEntity
  8
0
 62
     7
100
AcDbLine
 10
1763.155979388898
 20
195.4934300527177
 30
0.0
 11
1839.055979388898
 21
195.4934300527177
 31
0.0
  0
TEXT
  5
12F0
330
1F
100
AcDbEntity
  8
0
 62
     3
100
AcDbText
 10
1789.584074961663
 20
190.9934300527177
 30
0.0
 40
3.2
  1
樹脂ケース
  7
高3.2
100
AcDbText
  0
TEXT
  5
12F3
330
1F
100
AcDbEntity
  8
0
 62
     3
100
AcDbText
 10
1789.584074961663
 20
168.9934300527176
 30
0.0
 40
3.2
  1
リモコン:30m
  7
高3.2
100
AcDbText
  0
TEXT
  5
12F4
330
1F
100
AcDbEntity
  8
0
 62
     3
100
AcDbText
 10
1789.584074961663
 20
146.9934300527176
 30
0.0
 40
3.2
  1
134g
  7
高3.2
100
AcDbText
  0
TEXT
  5
1304
330
1F
100
AcDbEntity
  8
0
 62
     3
100
AcDbText
 10
1789.584074961663
 20
152.4934300527176
 30
0.0
 40
3.2
  1
0～45℃
  7
高3.2
100
AcDbText
  0
LINE
  5
1305
330
1F
100
AcDbEntity
  8
0
 62
     3
100
AcDbLine
 10
1763.155979388898
 20
200.9934300527177
 30
0.0
 11
1763.155979388898
 21
145.9934300527177
 31
0.0
  0
LINE
  5
1306
330
1F
100
AcDbEntity
  8
0
 62
     7
100
AcDbLine
 10
1788.084074961663
 20
145.9934300527177
 30
0.0
 11
1788.084074961663
 21
200.9934300527177
 31
0.0
  0
LINE
  5
1307
330
1F
100
AcDbEntity
  8
0
 62
     3
100
AcDbLine
 10
1839.055979388898
 20
145.9934300527177
 30
0.0
 11
1839.055979388898
 21
200.9934300527177
 31
0.0
  0
TEXT
  5
1308
330
1F
100
AcDbEntity
  8
0
 62
     3
100
AcDbText
 10
1782.324356871028
 20
205.7272419297476
 30
0.0
 40
4.5
  1
主　　仕　　様
  7
高4.5
100
AcDbText
  0
LINE
  5
1309
330
1F
100
AcDbEntity
  8
0
100
AcDbLine
 10
1781.223442503272
 20
204.8614888459049
 30
0.0
 11
1819.81566278296
 21
204.8614888459049
 31
0.0
  0
TEXT
  5
1315
330
1F
100
AcDbEntity
  8
0
 62
     3
100
AcDbText
 10
1764.655979388898
 20
196.4934300527177
 30
0.0
 40
3.2
  1
型　　　式
  7
高3.2
100
AcDbText
  0
LINE
  5
1316
330
1F
100
AcDbEntity
  8
0
 62
     3
100
AcDbLine
 10
1763.155979388898
 20
200.9934300527177
 30
0.0
 11
1839.055979388898
 21
200.9934300527177
 31
0.0
  0
TEXT
  5
1317
330
1F
100
AcDbEntity
  8
0
 62
     3
100
AcDbText
 10
1789.584074961663
 20
196.4934300527177
 30
0.0
 40
3.2
  1
SK-BT2-DD
  7
高3.2
100
AcDbText
  0
TEXT
  5
131A
330
1F
100
AcDbEntity
  8
0
 62
     3
100
AcDbText
 10
1789.584074961663
 20
185.4934300527177
 30
0.0
 40
3.2
  1
AC85～305V,50/60Hz
 41
0.8
  7
高3.2
100
AcDbText
  0
TEXT
  5
131B
330
1F
100
AcDbEntity
  8
0
 62
     4
100
AcDbText
 10
1839.626216310067
 20
289.7221382121095
 30
0.0
 40
3.2
  1
茶：L　AC　IN
  7
高3.2
100
AcDbText
  0
TEXT
  5
131C
330
1F
100
AcDbEntity
  8
0
 62
     4
100
AcDbText
 10
1839.626216310067
 20
276.7395533469953
 30
0.0
 40
3.2
  1
青：N　AC　IN&OUT
  7
高3.2
100
AcDbText
  0
TEXT
  5
131D
330
1F
100
AcDbEntity
  8
0
 62
     4
100
AcDbText
 10
1839.626216310067
 20
264.0298807627693
 30
0.0
 40
3.2
  1
黒：L　AC　OUT
  7
高3.2
100
AcDbText
  0
TEXT
  5
131E
330
1F
100
AcDbEntity
  8
0
 62
     4
100
AcDbText
 10
1839.626216310067
 20
250.6928303531011
 30
0.0
 40
3.2
  1
黄/緑：＋
  7
高3.2
100
AcDbText
  0
TEXT
  5
131F
330
1F
100
AcDbEntity
  8
0
 62
     4
100
AcDbText
 10
1839.626216310067
 20
238.1216715221947
 30
0.0
 40
3.2
  1
灰：-
  7
高3.2
100
AcDbText
  0
TEXT
  5
1320
330
1F
100
AcDbEntity
  8
0
 62
     4
100
AcDbText
 10
1858.262236285425
 20
242.9781414571279
 30
0.0
 40
3.2
  1
0～10V　OUT
  7
高3.2
100
AcDbText
  0
LINE
  5
1369
330
1F
100
AcDbEntity
  8
0
 62
     3
100
AcDbLine
 10
1518.325211780021
 20
349.7536152005959
 30
0.0
 11
1518.325211780021
 21
75.75361520059587
 31
0.0
  0
LINE
  5
136A
330
1F
100
AcDbEntity
  8
0
 62
     3
100
AcDbLine
 10
1908.325211780021
 20
75.75361520059587
 30
0.0
 11
1908.325211780021
 21
349.7536152005959
 31
0.0
  0
LINE
  5
136B
330
1F
100
AcDbEntity
  8
0
 62
     3
100
AcDbLine
 10
1518.325211780021
 20
75.75361520059587
 30
0.0
 11
1908.325211780021
 21
75.75361520059587
 31
0.0
  0
LINE
  5
136C
330
1F
100
AcDbEntity
  8
0
 62
     3
100
AcDbLine
 10
1736.981936960021
 20
349.7536152005959
 30
0.0
 11
1908.325211780021
 21
349.7536152005959
 31
0.0
  0
LINE
  5
136D
330
1F
100
AcDbEntity
  8
0
 62
     3
100
AcDbLine
 10
1688.427902290021
 20
349.7536152005959
 30
0.0
 11
1518.325211780021
 21
349.7536152005959
 31
0.0
  0
LINE
  5
136E
330
1F
100
AcDbEntity
  8
0
 62
     3
100
AcDbLine
 10
1505.923287990021
 20
216.1982541505958
 30
0.0
 11
1503.325211780021
 21
214.6982541505958
 31
0.0
  0
LINE
  5
136F
330
1F
100
AcDbEntity
  8
0
 62
     3
100
AcDbLine
 10
1505.923287990021
 20
216.1982541505958
 30
0.0
 11
1503.325211780021
 21
217.6982541505958
 31
0.0
  0
LINE
  5
1370
330
1F
100
AcDbEntity
  8
0
 62
     3
100
AcDbLine
 10
1503.325211780021
 20
214.6982541505958
 30
0.0
 11
1503.325211780021
 21
217.6982541505958
 31
0.0
  0
LINE
  5
1373
330
1F
100
AcDbEntity
  8
0
 62
     3
100
AcDbLine
 10
1856.325211780021
 20
75.75361520059587
 30
0.0
 11
1856.325211780021
 21
115.7536152005959
 31
0.0
  0
LINE
  5
1374
330
1F
100
AcDbEntity
  8
0
 62
     3
100
AcDbLine
 10
1869.325211780021
 20
85.75361520059587
 30
0.0
 11
1869.325211780021
 21
113.7536152005959
 31
0.0
  0
LINE
  5
1375
330
1F
100
AcDbEntity
  8
0
 62
     3
100
AcDbLine
 10
1829.325211780021
 20
85.75361520059587
 30
0.0
 11
1829.325211780021
 21
99.75361520059587
 31
0.0
  0
LINE
  5
1376
330
1F
100
AcDbEntity
  8
0
 62
     3
100
AcDbLine
 10
1839.325211780021
 20
99.75361520059587
 30
0.0
 11
1839.325211780021
 21
75.75361520059587
 31
0.0
  0
LINE
  5
1377
330
1F
100
AcDbEntity
  8
0
 62
     3
100
AcDbLine
 10
1810.325211780021
 20
115.7536152005959
 30
0.0
 11
1810.325211780021
 21
92.75361520059588
 31
0.0
  0
LINE
  5
1378
330
1F
100
AcDbEntity
  8
0
 62
     3
100
AcDbLine
 10
1869.325211780021
 20
113.7536152005959
 30
0.0
 11
1869.325211780021
 21
115.7536152005959
 31
0.0
  0
LINE
  5
1379
330
1F
100
AcDbEntity
  8
0
 62
     3
100
AcDbLine
 10
1882.325211780021
 20
92.75361520059588
 30
0.0
 11
1882.325211780021
 21
115.7536152005959
 31
0.0
  0
LINE
  5
137A
330
1F
100
AcDbEntity
  8
0
 62
     3
100
AcDbLine
 10
1908.325211780021
 20
115.7536152005959
 30
0.0
 11
1797.079777140021
 21
115.7536152005959
 31
0.0
  0
LINE
  5
137B
330
1F
100
AcDbEntity
  8
0
 62
     3
100
AcDbLine
 10
1908.325211780021
 20
106.7536152005958
 30
0.0
 11
1797.079777140021
 21
106.7536152005958
 31
0.0
  0
LINE
  5
137C
330
1F
100
AcDbEntity
  8
0
 62
     3
100
AcDbLine
 10
1908.325211780021
 20
92.75361520059588
 30
0.0
 11
1797.079777140021
 21
92.75361520059588
 31
0.0
  0
LINE
  5
137D
330
1F
100
AcDbEntity
  8
0
 62
     3
100
AcDbLine
 10
1908.325211780021
 20
85.75361520059587
 30
0.0
 11
1797.021769280021
 21
85.75361520059587
 31
0.0
  0
LINE
  5
137E
330
1F
100
AcDbEntity
  8
0
 62
     3
100
AcDbLine
 10
1895.325211780021
 20
92.75361520059588
 30
0.0
 11
1895.325211780021
 21
115.7536152005959
 31
0.0
  0
LINE
  5
137F
330
1F
100
AcDbEntity
  8
0
 62
     3
100
AcDbLine
 10
1797.079777140021
 20
115.7536152005959
 30
0.0
 11
1797.079777140021
 21
75.75361520059587
 31
0.0
  0
LINE
  5
1380
330
1F
100
AcDbEntity
  8
0
 62
     3
100
AcDbLine
 10
1856.325211780021
 20
99.75361520059587
 30
0.0
 11
1797.079777140021
 21
99.75361520059584
 31
0.0
  0
LINE
  5
1381
330
1F
100
AcDbEntity
  8
0
 62
     3
100
AcDbLine
 10
1839.603536710021
 20
80.58647646059586
 30
0.0
 11
1856.325211780021
 21
80.58647646059586
 31
0.0
  0
TEXT
  5
1382
330
1F
100
AcDbEntity
  8
0
 62
     3
100
AcDbText
 10
1840.489537193337
 20
94.82671205396121
 30
0.0
 40
2.5
  1
-
  7
高2.5
100
AcDbText
  0
TEXT
  5
1383
330
1F
100
AcDbEntity
  8
0
 62
     3
100
AcDbText
 10
1811.521580475274
 20
95.0514296055798
 30
0.0
 40
2.5
  1
-
  7
高2.5
100
AcDbText
  0
TEXT
  5
1384
330
1F
100
AcDbEntity
  8
0
 62
     3
100
AcDbText
 10
1813.150114667466
 20
108.0658647243537
 30
0.0
 40
4.5
  1
調光器
  7
高4.5
100
AcDbText
1001
ACAD
1000
ACAD_MTEXT_DEFINED_HEIGHT_BEGIN
1070
    46
1040
0.0
1000
ACAD_MTEXT_DEFINED_HEIGHT_END
  0
TEXT
  5
1385
330
1F
100
AcDbEntity
  8
0
 62
     3
100
AcDbText
 10
1898.390800873495
 20
112.2673072992994
 30
0.0
 40
2.0
  1
DEF
  7
高2
100
AcDbText
  0
TEXT
  5
1386
330
1F
100
AcDbEntity
  8
0
 62
     3
100
AcDbText
 10
1884.451702519787
 20
112.2673072992993
 30
0.0
 40
2.0
  1
DESN
  7
高2
100
AcDbText
  0
TEXT
  5
1387
330
1F
100
AcDbEntity
  8
0
 62
     3
100
AcDbText
 10
1858.197335579787
 20
112.2673072992994
 30
0.0
 40
2.0
  1
APPD
  7
高2
100
AcDbText
  0
TEXT
  5
1388
330
1F
100
AcDbEntity
  8
0
 62
     3
100
AcDbText
 10
1871.310071680021
 20
112.2673072992995
 30
0.0
 40
2.0
  1
CHCK
  7
高2
100
AcDbText
  0
TEXT
  5
1389
330
1F
100
AcDbEntity
  8
0
 62
     3
100
AcDbText
 10
1830.252377419174
 20
89.9220140238266
 30
0.0
 40
2.0
  1
SCALE
 41
0.8
  7
高2
100
AcDbText
  0
TEXT
  5
138A
330
1F
100
AcDbEntity
  8
0
 62
     3
100
AcDbText
 10
1798.764355843067
 20
89.9220140238266
 30
0.0
 40
2.0
  1
3AD　ANGLE
 41
1.5
  7
高2
100
AcDbText
  0
TEXT
  5
138B
330
1F
100
AcDbEntity
  8
0
 62
     3
100
AcDbText
 10
1829.521783110022
 20
96.67355209278369
 30
0.0
 40
2.0
  1
REMARKS
 41
0.7
  7
高2
100
AcDbText
  0
TEXT
  5
138C
330
1F
100
AcDbEntity
  8
0
 62
     3
100
AcDbText
 10
1798.547447490021
 20
96.75361520059588
 30
0.0
 40
2.0
  1
MATERIAL
 41
0.7
  7
高2
100
AcDbText
  0
TEXT
  5
138D
330
1F
100
AcDbEntity
  8
0
 62
     3
100
AcDbText
 10
1799.123934692775
 20
103.7536152005958
 30
0.0
 40
2.0
  1
MODEL
  7
高2
100
AcDbText
  0
TEXT
  5
138E
330
1F
100
AcDbEntity
  8
0
 62
     3
100
AcDbText
 10
1798.760855574107
 20
112.4606365511949
 30
0.0
 40
2.0
  1
CONPONENTS
 41
0.5
  7
高2
100
AcDbText
  0
TEXT
  5
138F
330
1F
100
AcDbEntity
  8
0
 62
     3
100
AcDbText
 10
1811.467971045274
 20
100.8410963284078
 30
0.0
 40
4.5
  1
SK-BT2-DD
  7
高4.5
100
AcDbText
  0
TEXT
  5
1390
330
1F
100
AcDbEntity
  8
0
 62
     3
100
AcDbText
 10
1859.420555219074
 20
76.89780615743098
 30
0.0
 40
6.299999999999998
  1
SK-BT2-DD
 41
0.8
  7
高6.3
100
AcDbText
1001
ACAD
1000
ACAD_MTEXT_DEFINED_HEIGHT_BEGIN
1070
    46
1040
0.0
1000
ACAD_MTEXT_DEFINED_HEIGHT_END
  0
TEXT
  5
1391
330
1F
100
AcDbEntity
  8
0
 62
     3
100
AcDbText
 10
1872.888721530351
 20
86.85450435882886
 30
0.0
 40
3.2
  1
2021.10.11
  7
高3.2
100
AcDbText
1001
ACAD
1000
ACAD_MTEXT_DEFINED_HEIGHT_BEGIN
1070
    46
1040
0.0
1000
ACAD_MTEXT_DEFINED_HEIGHT_END
  0
TEXT
  5
1392
330
1F
100
AcDbEntity
  8
0
 62
     3
100
AcDbText
 10
1843.112809674667
 20
86.85453220316373
 30
0.0
 40
3.2
  1
1/1
  7
高3.2
100
AcDbText
  0
TEXT
  5
1393
330
1F
100
AcDbEntity
  8
0
 62
     3
100
AcDbText
 10
1840.190138650021
 20
76.57049337373184
 30
0.0
 40
3.2
  1
ZK-A3X
 41
0.8
  7
高3.2
100
AcDbText
  0
TEXT
  5
1394
330
1F
100
AcDbEntity
  8
0
 62
     3
100
AcDbText
 10
1797.910478180021
 20
82.2782356227837
 30
0.0
 40
2.0
  1
NICHIDO IND.CO.LTD
 41
1.3
  7
高2
100
AcDbText
  0
TEXT
  5
1395
330
1F
100
AcDbEntity
  8
0
 62
     3
100
AcDbText
 10
1799.092001444978
 20
107.8941434084808
 30
0.0
 40
3.2
  1
品 名
  7
高3.2
100
AcDbText
1001
ACAD
1000
ACAD_MTEXT_DEFINED_HEIGHT_BEGIN
1070
    46
1040
0.0
1000
ACAD_MTEXT_DEFINED_HEIGHT_END
  0
TEXT
  5
1396
330
1F
100
AcDbEntity
  8
0
 62
     3
100
AcDbText
 10
1799.092001444978
 20
100.2536152005958
 30
0.0
 40
3.2
  1
型 式
  7
高3.2
100
AcDbText
1001
ACAD
1000
ACAD_MTEXT_DEFINED_HEIGHT_BEGIN
1070
    46
1040
3.064735913775952
1000
ACAD_MTEXT_DEFINED_HEIGHT_END
  0
TEXT
  5
1397
330
1F
100
AcDbEntity
  8
0
 62
     3
100
AcDbText
 10
1799.092001444978
 20
93.25361520059587
 30
0.0
 40
3.2
  1
材 質
  7
高3.2
100
AcDbText
1001
ACAD
1000
ACAD_MTEXT_DEFINED_HEIGHT_BEGIN
1070
    46
1040
0.0
1000
ACAD_MTEXT_DEFINED_HEIGHT_END
  0
TEXT
  5
1398
330
1F
100
AcDbEntity
  8
0
 62
     3
100
AcDbText
 10
1798.786966494978
 20
86.22105519284209
 30
0.0
 40
3.2
  1
第 三 角 法
  7
高3.2
100
AcDbText
1001
ACAD
1000
ACAD_MTEXT_DEFINED_HEIGHT_BEGIN
1070
    46
1040
0.0
1000
ACAD_MTEXT_DEFINED_HEIGHT_END
  0
TEXT
  5
1399
330
1F
100
AcDbEntity
  8
0
 62
     3
100
AcDbText
 10
1797.193499102507
 20
76.8941434084808
 30
0.0
 40
3.2
  1
日動工業株式会社
 41
1.199999999999999
  7
高3.2
100
AcDbText
1001
ACAD
1000
ACAD_MTEXT_DEFINED_HEIGHT_BEGIN
1070
    46
1040
0.0
1000
ACAD_MTEXT_DEFINED_HEIGHT_END
  0
TEXT
  5
139A
330
1F
100
AcDbEntity
  8
0
 62
     3
100
AcDbText
 10
1830.829123301986
 20
93.13819373376345
 30
0.0
 40
3.2
  1
備考
  7
高3.2
100
AcDbText
1001
ACAD
1000
ACAD_MTEXT_DEFINED_HEIGHT_BEGIN
1070
    46
1040
0.0
1000
ACAD_MTEXT_DEFINED_HEIGHT_END
  0
TEXT
  5
139B
330
1F
100
AcDbEntity
  8
0
 62
     3
100
AcDbText
 10
1840.478180749021
 20
81.89984522616617
 30
0.0
 40
2.5
  1
出図コード
  7
高2.5
100
AcDbText
1001
ACAD
1000
ACAD_MTEXT_DEFINED_HEIGHT_BEGIN
1070
    46
1040
0.0
1000
ACAD_MTEXT_DEFINED_HEIGHT_END
  0
TEXT
  5
139C
330
1F
100
AcDbEntity
  8
0
 62
     3
100
AcDbText
 10
1830.670357183898
 20
86.2068501110088
 30
0.0
 40
3.2
  1
尺度
  7
高3.2
100
AcDbText
1001
ACAD
1000
ACAD_MTEXT_DEFINED_HEIGHT_BEGIN
1070
    46
1040
0.0
1000
ACAD_MTEXT_DEFINED_HEIGHT_END
  0
TEXT
  5
139D
330
1F
100
AcDbEntity
  8
0
 62
     3
100
AcDbText
 10
1857.816618665677
 20
87.33832855912629
 30
0.0
 40
3.2
  1
作成日
  7
高3.2
100
AcDbText
1001
ACAD
1000
ACAD_MTEXT_DEFINED_HEIGHT_BEGIN
1070
    46
1040
0.0
1000
ACAD_MTEXT_DEFINED_HEIGHT_END
  0
TEXT
  5
139E
330
1F
100
AcDbEntity
  8
0
 62
     3
100
AcDbText
 10
1857.711092672541
 20
107.8941434084808
 30
0.0
 40
3.2
  1
承 認
  7
高3.2
100
AcDbText
1001
ACAD
1000
ACAD_MTEXT_DEFINED_HEIGHT_BEGIN
1070
    46
1040
0.0
1000
ACAD_MTEXT_DEFINED_HEIGHT_END
  0
TEXT
  5
139F
330
1F
100
AcDbEntity
  8
0
 62
     3
100
AcDbText
 10
1870.711092672541
 20
107.8941434084808
 30
0.0
 40
3.2
  1
検 図
  7
高3.2
100
AcDbText
1001
ACAD
1000
ACAD_MTEXT_DEFINED_HEIGHT_BEGIN
1070
    46
1040
0.0
1000
ACAD_MTEXT_DEFINED_HEIGHT_END
  0
TEXT
  5
13A0
330
1F
100
AcDbEntity
  8
0
 62
     3
100
AcDbText
 10
1883.711092672541
 20
107.8941434084808
 30
0.0
 40
3.2
  1
設 計
  7
高3.2
100
AcDbText
1001
ACAD
1000
ACAD_MTEXT_DEFINED_HEIGHT_BEGIN
1070
    46
1040
0.0
1000
ACAD_MTEXT_DEFINED_HEIGHT_END
  0
TEXT
  5
13A1
330
1F
100
AcDbEntity
  8
0
 62
     3
100
AcDbText
 10
1897.011729192541
 20
107.8941434084808
 30
0.0
 40
3.2
  1
製 図
  7
高3.2
100
AcDbText
1001
ACAD
1000
ACAD_MTEXT_DEFINED_HEIGHT_BEGIN
1070
    46
1040
0.0
1000
ACAD_MTEXT_DEFINED_HEIGHT_END
  0
LINE
  5
13A2
330
1F
100
AcDbEntity
  8
0
 62
     3
100
AcDbLine
 10
1697.304204320555
 20
352.0865718842094
 30
0.0
 11
1697.304204320555
 21
347.3518139357624
 31
0.0
  0
LINE
  5
13A3
330
1F
100
AcDbEntity
  8
0
 62
     3
100
AcDbLine
 10
1698.269413142025
 20
350.2381156984327
 30
0.0
 11
1698.269413142025
 21
347.3518139357624
 31
0.0
  0
LINE
  5
13A4
330
1F
100
AcDbEntity
  8
0
 62
     3
100
AcDbLine
 10
1700.978267328022
 20
352.0865718842094
 30
0.0
 11
1700.978267328022
 21
350.0017867179167
 31
0.0
  0
LINE
  5
13A5
330
1F
100
AcDbEntity
  8
0
 62
     3
100
AcDbLine
 10
1701.943475137698
 20
352.0865718842094
 30
0.0
 11
1701.943475137698
 21
346.7172313553172
 31
0.0
  0
LINE
  5
13A6
330
1F
100
AcDbEntity
  8
0
 62
     3
100
AcDbLine
 10
1703.480931830761
 20
352.0540507065148
 30
0.0
 11
1703.480931830761
 21
347.3193504303768
 31
0.0
  0
LINE
  5
13A7
330
1F
100
AcDbEntity
  8
0
 62
     3
100
AcDbLine
 10
1705.010243623967
 20
352.0540294588221
 30
0.0
 11
1705.010243623967
 21
347.3193291826841
 31
0.0
  0
LINE
  5
13A8
330
1F
100
AcDbEntity
  8
0
 62
     3
100
AcDbLine
 10
1710.672140126109
 20
352.0539586331794
 30
0.0
 11
1710.672057158928
 21
347.3192593688363
 31
0.0
  0
LINE
  5
13A9
330
1F
100
AcDbEntity
  8
0
 62
     3
100
AcDbLine
 10
1715.350614960001
 20
352.0539586331794
 30
0.0
 11
1715.350697927182
 21
347.3192593688363
 31
0.0
  0
LINE
  5
13AA
330
1F
100
AcDbEntity
  8
0
 62
     3
100
AcDbLine
 10
1713.788415785568
 20
349.9911506637744
 30
0.0
 11
1712.234339300542
 21
349.9911506637744
 31
0.0
  0
LINE
  5
13AB
330
1F
100
AcDbEntity
  8
0
 62
     3
100
AcDbLine
 10
1713.788405667619
 20
349.3822079777317
 30
0.0
 11
1712.234350430286
 21
349.3822079777317
 31
0.0
  0
LINE
  5
13AC
330
1F
100
AcDbEntity
  8
0
 62
     3
100
AcDbLine
 10
1713.788452210184
 20
352.0539586331794
 30
0.0
 11
1713.788415785568
 21
349.9911506637744
 31
0.0
  0
LINE
  5
13AD
330
1F
100
AcDbEntity
  8
0
 62
     3
100
AcDbLine
 10
1713.788405667619
 20
349.3822079777317
 30
0.0
 11
1713.788369243003
 21
347.3192593688363
 31
0.0
  0
LINE
  5
13AE
330
1F
100
AcDbEntity
  8
0
 62
     3
100
AcDbLine
 10
1712.234302875926
 20
352.0539586331794
 30
0.0
 11
1712.234339300542
 21
349.9911506637744
 31
0.0
  0
LINE
  5
13AF
330
1F
100
AcDbEntity
  8
0
 62
     3
100
AcDbLine
 10
1712.234350430286
 20
349.3822079777317
 30
0.0
 11
1712.234385843107
 21
347.3192593688363
 31
0.0
  0
LINE
  5
13B0
330
1F
100
AcDbEntity
  8
0
 62
     3
100
AcDbLine
 10
1716.891787839489
 20
352.0539586331794
 30
0.0
 11
1716.891704872308
 21
347.3192593688363
 31
0.0
  0
LINE
  5
13B1
330
1F
100
AcDbEntity
  8
0
 62
     3
100
AcDbLine
 10
1718.421067255258
 20
352.0539586331794
 30
0.0
 11
1718.421149210644
 21
347.3192593688363
 31
0.0
  0
LINE
  5
13B2
330
1F
100
AcDbEntity
  8
0
 62
     3
100
AcDbLine
 10
1719.979994578568
 20
352.0539586331794
 30
0.0
 11
1719.979912623182
 21
347.3192593688363
 31
0.0
  0
ARC
  5
13B3
330
1F
100
AcDbEntity
  8
0
 62
     3
100
AcDbCircle
 10
1708.37628259439
 20
349.700251537458
 30
0.0
 40
3.015561595733376
100
AcDbArc
 50
97.70152400000622
 51
266.0248408089489
  0
ARC
  5
13B4
330
1F
100
AcDbEntity
  8
0
 62
     3
100
AcDbCircle
 10
1726.574181551462
 20
349.6699604219285
 30
0.0
 40
3.048311372854727
100
AcDbArc
 50
0.3142499999976029
 51
69.00558200000452
  0
ARC
  5
13B5
330
1F
100
AcDbEntity
  8
0
 62
     3
100
AcDbCircle
 10
1727.240050853612
 20
349.6699604219285
 30
0.0
 40
3.048311372854727
100
AcDbArc
 50
110.9944179999954
 51
148.1166110000016
  0
ARC
  5
13B6
330
1F
100
AcDbEntity
  8
0
 62
     3
100
AcDbCircle
 10
1726.574181551462
 20
349.7033982195777
 30
0.0
 40
3.048311372854727
100
AcDbArc
 50
290.9944179999955
 51
359.6857499999992
  0
ARC
  5
13B7
330
1F
100
AcDbEntity
  8
0
 62
     3
100
AcDbCircle
 10
1727.240050853612
 20
349.7033982195777
 30
0.0
 40
3.048311372854727
100
AcDbArc
 50
211.8833889999971
 51
249.0055820000045
  0
ARC
  5
13B8
330
1F
100
AcDbEntity
  8
0
 62
     3
100
AcDbCircle
 10
1726.907116708434
 20
350.9337964591139
 30
0.0
 40
1.754843910410663
100
AcDbArc
 50
64.36517200000719
 51
115.6348279999928
  0
ARC
  5
13B9
330
1F
100
AcDbEntity
  8
0
 62
     3
100
AcDbCircle
 10
1726.907116708434
 20
348.4395621823924
 30
0.0
 40
1.754843910410663
100
AcDbArc
 50
244.3651720000072
 51
295.6348279999928
  0
ARC
  5
13BA
330
1F
100
AcDbEntity
  8
0
 62
     3
100
AcDbCircle
 10
1726.907116708434
 20
350.9671310536838
 30
0.0
 40
0.8612620730595795
100
AcDbArc
 50
19.48660600000152
 51
160.5133939999984
  0
ARC
  5
13BB
330
1F
100
AcDbEntity
  8
0
 62
     3
100
AcDbCircle
 10
1726.907116708434
 20
348.4062285996173
 30
0.0
 40
0.8612620730595795
100
AcDbArc
 50
199.4866060000015
 51
340.5133939999985
  0
LINE
  5
13BC
330
1F
100
AcDbEntity
  8
0
 62
     3
100
AcDbLine
 10
1718.927378241241
 20
346.6847182719817
 30
0.0
 11
1716.385476853506
 21
346.6847182719817
 31
0.0
  0
LINE
  5
13BD
330
1F
100
AcDbEntity
  8
0
 62
     3
100
AcDbLine
 10
1718.927378241241
 20
346.990513042724
 30
0.0
 11
1718.927378241241
 21
346.6847182719817
 31
0.0
  0
LINE
  5
13BE
330
1F
100
AcDbEntity
  8
0
 62
     3
100
AcDbLine
 10
1715.856926957779
 20
352.6884977064445
 30
0.0
 11
1713.282141224201
 21
352.6884977064445
 31
0.0
  0
LINE
  5
13BF
330
1F
100
AcDbEntity
  8
0
 62
     3
100
AcDbLine
 10
1715.856926957779
 20
352.6884977064445
 30
0.0
 11
1715.856926957779
 21
352.3828455987822
 31
0.0
  0
LINE
  5
13C0
330
1F
100
AcDbEntity
  8
0
 62
     3
100
AcDbLine
 10
1715.856926957779
 20
346.990513042724
 30
0.0
 11
1715.856926957779
 21
346.6845756089016
 31
0.0
  0
LINE
  5
13C1
330
1F
100
AcDbEntity
  8
0
 62
     3
100
AcDbLine
 10
1715.856926957779
 20
346.6845756089016
 30
0.0
 11
1713.282141224201
 21
346.6845756089016
 31
0.0
  0
LINE
  5
13C2
330
1F
100
AcDbEntity
  8
0
 62
     3
100
AcDbLine
 10
1718.927378241241
 20
352.6886403695244
 30
0.0
 11
1718.927378241241
 21
352.3828455987822
 31
0.0
  0
LINE
  5
13C3
330
1F
100
AcDbEntity
  8
0
 62
     3
100
AcDbLine
 10
1718.927378241241
 20
352.6886403695244
 30
0.0
 11
1716.385476853506
 21
352.6886403695244
 31
0.0
  0
LINE
  5
13C4
330
1F
100
AcDbEntity
  8
0
 62
     3
100
AcDbLine
 10
1716.385476853506
 20
352.6886403695244
 30
0.0
 11
1716.385476853506
 21
352.3828455987822
 31
0.0
  0
LINE
  5
13C5
330
1F
100
AcDbEntity
  8
0
 62
     3
100
AcDbLine
 10
1719.473683592585
 20
346.990513042724
 30
0.0
 11
1719.473683592585
 21
346.6847182719817
 31
0.0
  0
LINE
  5
13C6
330
1F
100
AcDbEntity
  8
0
 62
     3
100
AcDbLine
 10
1722.218305454861
 20
346.6847182719817
 30
0.0
 11
1719.473683592585
 21
346.6847182719817
 31
0.0
  0
LINE
  5
13C7
330
1F
100
AcDbEntity
  8
0
 62
     3
100
AcDbLine
 10
1721.509273994337
 20
351.7234325598488
 30
0.0
 11
1721.509273994337
 21
347.6499260816571
 31
0.0
  0
LINE
  5
13C8
330
1F
100
AcDbEntity
  8
0
 62
     3
100
AcDbLine
 10
1721.509273994337
 20
347.6499260816571
 30
0.0
 11
1721.783974284404
 21
347.6499260816571
 31
0.0
  0
ARC
  5
13C9
330
1F
100
AcDbEntity
  8
0
 62
     3
100
AcDbCircle
 10
1720.379334846213
 20
349.6866793207531
 30
0.0
 40
2.474141041926213
100
AcDbArc
 50
304.5919550000087
 51
55.40804499999131
  0
LINE
  5
13CA
330
1F
100
AcDbEntity
  8
0
 62
     3
100
AcDbLine
 10
1722.218305454861
 20
352.6886403695244
 30
0.0
 11
1719.473683592585
 21
352.6886403695244
 31
0.0
  0
LINE
  5
13CB
330
1F
100
AcDbEntity
  8
0
 62
     3
100
AcDbLine
 10
1719.473683592585
 20
352.6886403695244
 30
0.0
 11
1719.473683592585
 21
352.3828455987822
 31
0.0
  0
LINE
  5
13CC
330
1F
100
AcDbEntity
  8
0
 62
     3
100
AcDbLine
 10
1716.385476853506
 20
346.990513042724
 30
0.0
 11
1716.385476853506
 21
346.6847182719817
 31
0.0
  0
LINE
  5
13CD
330
1F
100
AcDbEntity
  8
0
 62
     3
100
AcDbLine
 10
1721.509273994337
 20
351.7234325598488
 30
0.0
 11
1721.783974284404
 21
351.7234325598488
 31
0.0
  0
LINE
  5
13CE
330
1F
100
AcDbEntity
  8
0
 62
     3
100
AcDbLine
 10
1705.51646658358
 20
346.9905034715286
 30
0.0
 11
1705.516460512811
 21
346.6846803705294
 31
0.0
  0
LINE
  5
13CF
330
1F
100
AcDbEntity
  8
0
 62
     3
100
AcDbLine
 10
1696.797893334571
 20
346.7172313553172
 30
0.0
 11
1698.775724128008
 21
346.7172313553172
 31
0.0
  0
ARC
  5
13D0
330
1F
100
AcDbEntity
  8
0
 62
     3
100
AcDbCircle
 10
1688.854066388965
 20
349.7573703945956
 30
0.0
 40
21.26730034229026
100
AcDbArc
 50
353.8660059999985
 51
357.6940340000007
  0
LINE
  5
13D1
330
1F
100
AcDbEntity
  8
0
 62
     3
100
AcDbLine
 10
1708.680303688684
 20
348.9069314915146
 30
0.0
 11
1710.104145982164
 21
348.9016630755029
 31
0.0
  0
LINE
  5
13D2
330
1F
100
AcDbEntity
  8
0
 62
     3
100
AcDbLine
 10
1708.686053719065
 20
350.461069696029
 30
0.0
 11
1708.659128845147
 21
350.6334613336183
 31
0.0
  0
LINE
  5
13D3
330
1F
100
AcDbEntity
  8
0
 62
     3
100
AcDbLine
 10
1708.659128845147
 20
350.6334613336183
 30
0.0
 11
1708.626792892137
 21
350.7985356705358
 31
0.0
  0
LINE
  5
13D4
330
1F
100
AcDbEntity
  8
0
 62
     3
100
AcDbLine
 10
1708.626792892137
 20
350.7985356705358
 30
0.0
 11
1708.589296785169
 21
350.9550158216259
 31
0.0
  0
LINE
  5
13D5
330
1F
100
AcDbEntity
  8
0
 62
     3
100
AcDbLine
 10
1708.589296785169
 20
350.9550158216259
 30
0.0
 11
1708.546927873993
 21
351.1016916801952
 31
0.0
  0
LINE
  5
13D6
330
1F
100
AcDbEntity
  8
0
 62
     3
100
AcDbLine
 10
1708.546927873993
 20
351.1016916801952
 30
0.0
 11
1708.500016003744
 21
351.2374310477579
 31
0.0
  0
LINE
  5
13D7
330
1F
100
AcDbEntity
  8
0
 62
     3
100
AcDbLine
 10
1708.500016003744
 20
351.2374310477579
 30
0.0
 11
1708.448922385198
 21
351.3611836812142
 31
0.0
  0
LINE
  5
13D8
330
1F
100
AcDbEntity
  8
0
 62
     3
100
AcDbLine
 10
1708.448922385198
 20
351.3611836812142
 30
0.0
 11
1708.394041618366
 21
351.4719924225945
 31
0.0
  0
LINE
  5
13D9
330
1F
100
AcDbEntity
  8
0
 62
     3
100
AcDbLine
 10
1708.394041618366
 20
351.4719924225945
 30
0.0
 11
1708.335799668895
 21
351.5690023052137
 31
0.0
  0
LINE
  5
13DA
330
1F
100
AcDbEntity
  8
0
 62
     3
100
AcDbLine
 10
1708.335799668895
 20
351.5690023052137
 30
0.0
 11
1708.274645773722
 21
351.6514635890555
 31
0.0
  0
LINE
  5
13DB
330
1F
100
AcDbEntity
  8
0
 62
     3
100
AcDbLine
 10
1708.274645773722
 20
351.6514635890555
 30
0.0
 11
1708.211052441059
 21
351.718736819747
 31
0.0
  0
LINE
  5
13DC
330
1F
100
AcDbEntity
  8
0
 62
     3
100
AcDbLine
 10
1708.211052441059
 20
351.718736819747
 30
0.0
 11
1708.145511403226
 21
351.7703039583026
 31
0.0
  0
LINE
  5
13DD
330
1F
100
AcDbEntity
  8
0
 62
     3
100
AcDbLine
 10
1708.145511403226
 20
351.7703039583026
 30
0.0
 11
1708.078528557669
 21
351.8057653457392
 31
0.0
  0
LINE
  5
13DE
330
1F
100
AcDbEntity
  8
0
 62
     3
100
AcDbLine
 10
1708.078528557669
 20
351.8057653457392
 30
0.0
 11
1708.010622955169
 21
351.8248477974355
 31
0.0
  0
LINE
  5
13DF
330
1F
100
AcDbEntity
  8
0
 62
     3
100
AcDbLine
 10
1708.010622955169
 20
351.8248477974355
 30
0.0
 11
1707.94231870548
 21
351.8274035913373
 31
0.0
  0
LINE
  5
13E0
330
1F
100
AcDbEntity
  8
0
 62
     3
100
AcDbLine
 10
1707.94231870548
 20
351.8274035913373
 30
0.0
 11
1707.874143965539
 21
351.8134114797513
 31
0.0
  0
LINE
  5
13E1
330
1F
100
AcDbEntity
  8
0
 62
     3
100
AcDbLine
 10
1707.874143965539
 20
351.8134114797513
 30
0.0
 11
1707.806624868688
 21
351.7829817483214
 31
0.0
  0
LINE
  5
13E2
330
1F
100
AcDbEntity
  8
0
 62
     3
100
AcDbLine
 10
1707.806624868688
 20
351.7829817483214
 30
0.0
 11
1707.740284512889
 21
351.7363491334627
 31
0.0
  0
LINE
  5
13E3
330
1F
100
AcDbEntity
  8
0
 62
     3
100
AcDbLine
 10
1707.740284512889
 20
351.7363491334627
 30
0.0
 11
1707.675635878151
 21
351.6738728223625
 31
0.0
  0
LINE
  5
13E4
330
1F
100
AcDbEntity
  8
0
 62
     3
100
AcDbLine
 10
1707.675635878151
 20
351.6738728223625
 30
0.0
 11
1707.613176767565
 21
351.5960364529802
 31
0.0
  0
LINE
  5
13E5
330
1F
100
AcDbEntity
  8
0
 62
     3
100
AcDbLine
 10
1707.613176767565
 20
351.5960364529802
 30
0.0
 11
1707.553391830882
 21
351.5034420432773
 31
0.0
  0
LINE
  5
13E6
330
1F
100
AcDbEntity
  8
0
 62
     3
100
AcDbLine
 10
1707.553391830882
 20
351.5034420432773
 30
0.0
 11
1707.496742446575
 21
351.3968049322441
 31
0.0
  0
LINE
  5
13E7
330
1F
100
AcDbEntity
  8
0
 62
     3
100
AcDbLine
 10
1707.496742446575
 20
351.3968049322441
 30
0.0
 11
1707.443666721833
 21
351.2769487209236
 31
0.0
  0
LINE
  5
13E8
330
1F
100
AcDbEntity
  8
0
 62
     3
100
AcDbLine
 10
1707.443666721833
 20
351.2769487209236
 30
0.0
 11
1707.394574433587
 21
351.1448012252338
 31
0.0
  0
LINE
  5
13E9
330
1F
100
AcDbEntity
  8
0
 62
     3
100
AcDbLine
 10
1707.394574433587
 20
351.1448012252338
 30
0.0
 11
1707.349845004924
 21
351.0013833462223
 31
0.0
  0
LINE
  5
13EA
330
1F
100
AcDbEntity
  8
0
 62
     3
100
AcDbLine
 10
1707.349845004924
 20
351.0013833462223
 30
0.0
 11
1707.309825481491
 21
350.8478040110928
 31
0.0
  0
LINE
  5
13EB
330
1F
100
AcDbEntity
  8
0
 62
     3
100
AcDbLine
 10
1707.309825481491
 20
350.8478040110928
 30
0.0
 11
1707.274823448936
 21
350.6852490434607
 31
0.0
  0
LINE
  5
13EC
330
1F
100
AcDbEntity
  8
0
 62
     3
100
AcDbLine
 10
1707.274823448936
 20
350.6852490434607
 30
0.0
 11
1707.245110068291
 21
350.514975092584
 31
0.0
  0
LINE
  5
13ED
330
1F
100
AcDbEntity
  8
0
 62
     3
100
AcDbLine
 10
1707.245110068291
 20
350.514975092584
 30
0.0
 11
1707.220916028791
 21
350.3382995154146
 31
0.0
  0
LINE
  5
13EE
330
1F
100
AcDbEntity
  8
0
 62
     3
100
AcDbLine
 10
1707.220916028791
 20
350.3382995154146
 30
0.0
 11
1707.202426488902
 21
350.1565872232638
 31
0.0
  0
LINE
  5
13EF
330
1F
100
AcDbEntity
  8
0
 62
     3
100
AcDbLine
 10
1707.202426488902
 20
350.1565872232638
 30
0.0
 11
1707.189786135295
 21
349.9712425874446
 31
0.0
  0
LINE
  5
13F0
330
1F
100
AcDbEntity
  8
0
 62
     3
100
AcDbLine
 10
1707.189786135295
 20
349.9712425874446
 30
0.0
 11
1707.183092100278
 21
349.7836993213212
 31
0.0
  0
LINE
  5
13F1
330
1F
100
AcDbEntity
  8
0
 62
     3
100
AcDbLine
 10
1707.183092100278
 20
349.7836993213212
 30
0.0
 11
1707.182394973596
 21
349.5954053033866
 31
0.0
  0
LINE
  5
13F2
330
1F
100
AcDbEntity
  8
0
 62
     3
100
AcDbLine
 10
1707.182394973596
 20
349.5954053033866
 30
0.0
 11
1707.187701837813
 21
349.407816506493
 31
0.0
  0
LINE
  5
13F3
330
1F
100
AcDbEntity
  8
0
 62
     3
100
AcDbLine
 10
1707.187701837813
 20
349.407816506493
 30
0.0
 11
1707.198970197546
 21
349.222383844518
 31
0.0
  0
LINE
  5
13F4
330
1F
100
AcDbEntity
  8
0
 62
     3
100
AcDbLine
 10
1707.198970197546
 20
349.222383844518
 30
0.0
 11
1707.216114050225
 21
349.0405390072362
 31
0.0
  0
LINE
  5
13F5
330
1F
100
AcDbEntity
  8
0
 62
     3
100
AcDbLine
 10
1707.216114050225
 20
349.0405390072362
 30
0.0
 11
1707.239000850722
 21
348.863689401345
 31
0.0
  0
LINE
  5
13F6
330
1F
100
AcDbEntity
  8
0
 62
     3
100
AcDbLine
 10
1707.239000850722
 20
348.863689401345
 30
0.0
 11
1707.267452523135
 21
348.6932009499508
 31
0.0
  0
LINE
  5
13F7
330
1F
100
AcDbEntity
  8
0
 62
     3
100
AcDbLine
 10
1707.267452523135
 20
348.6932009499508
 30
0.0
 11
1707.301250519766
 21
348.5303920218004
 31
0.0
  0
LINE
  5
13F8
330
1F
100
AcDbEntity
  8
0
 62
     3
100
AcDbLine
 10
1707.301250519766
 20
348.5303920218004
 30
0.0
 11
1707.340132785738
 21
348.3765192661516
 31
0.0
  0
LINE
  5
13F9
330
1F
100
AcDbEntity
  8
0
 62
     3
100
AcDbLine
 10
1707.340132785738
 20
348.3765192661516
 30
0.0
 11
1707.383799829764
 21
348.2327745773895
 31
0.0
  0
LINE
  5
13FA
330
1F
100
AcDbEntity
  8
0
 62
     3
100
AcDbLine
 10
1707.383799829764
 20
348.2327745773895
 30
0.0
 11
1707.431912700552
 21
348.1002668827175
 31
0.0
  0
LINE
  5
13FB
330
1F
100
AcDbEntity
  8
0
 62
     3
100
AcDbLine
 10
1707.431912700552
 20
348.1002668827175
 30
0.0
 11
1707.484100069377
 21
347.9800221421579
 31
0.0
  0
LINE
  5
13FC
330
1F
100
AcDbEntity
  8
0
 62
     3
100
AcDbLine
 10
1707.484100069377
 20
347.9800221421579
 30
0.0
 11
1707.539959241872
 21
347.8729691834232
 31
0.0
  0
LINE
  5
13FD
330
1F
100
AcDbEntity
  8
0
 62
     3
100
AcDbLine
 10
1707.539959241872
 20
347.8729691834232
 30
0.0
 11
1707.599057169822
 21
347.7799346429416
 31
0.0
  0
LINE
  5
13FE
330
1F
100
AcDbEntity
  8
0
 62
     3
100
AcDbLine
 10
1707.599057169822
 20
347.7799346429416
 30
0.0
 11
1707.66093753373
 21
347.7016379068826
 31
0.0
  0
LINE
  5
13FF
330
1F
100
AcDbEntity
  8
0
 62
     3
100
AcDbLine
 10
1707.66093753373
 20
347.7016379068826
 30
0.0
 11
1707.725122766406
 21
347.6386850403874
 31
0.0
  0
LINE
  5
1400
330
1F
100
AcDbEntity
  8
0
 62
     3
100
AcDbLine
 10
1707.725122766406
 20
347.6386850403874
 30
0.0
 11
1707.791116076556
 21
347.5915627168002
 31
0.0
  0
LINE
  5
1401
330
1F
100
AcDbEntity
  8
0
 62
     3
100
AcDbLine
 10
1707.791116076556
 20
347.5915627168002
 30
0.0
 11
1707.858407519556
 21
347.5606341704876
 31
0.0
  0
LINE
  5
1402
330
1F
100
AcDbEntity
  8
0
 62
     3
100
AcDbLine
 10
1707.858407519556
 20
347.5606341704876
 30
0.0
 11
1707.926477032829
 21
347.5461381850446
 31
0.0
  0
LINE
  5
1403
330
1F
100
AcDbEntity
  8
0
 62
     3
100
AcDbLine
 10
1707.926477032829
 20
347.5461381850446
 30
0.0
 11
1707.99479848303
 21
347.5481880814994
 31
0.0
  0
LINE
  5
1404
330
1F
100
AcDbEntity
  8
0
 62
     3
100
AcDbLine
 10
1707.99479848303
 20
347.5481880814994
 30
0.0
 11
1708.062843713226
 21
347.5667666593387
 31
0.0
  0
LINE
  5
1405
330
1F
100
AcDbEntity
  8
0
 62
     3
100
AcDbLine
 10
1708.062843713226
 20
347.5667666593387
 30
0.0
 11
1708.13008659007
 21
347.6017322672774
 31
0.0
  0
LINE
  5
1406
330
1F
100
AcDbEntity
  8
0
 62
     3
100
AcDbLine
 10
1708.13008659007
 20
347.6017322672774
 30
0.0
 11
1708.196008062784
 21
347.6528127324891
 31
0.0
  0
LINE
  5
1407
330
1F
100
AcDbEntity
  8
0
 62
     3
100
AcDbLine
 10
1708.196008062784
 20
347.6528127324891
 30
0.0
 11
1708.260097174944
 21
347.7196144667601
 31
0.0
  0
LINE
  5
1408
330
1F
100
AcDbEntity
  8
0
 62
     3
100
AcDbLine
 10
1708.260097174944
 20
347.7196144667601
 30
0.0
 11
1708.321860170644
 21
347.8016194311047
 31
0.0
  0
LINE
  5
1409
330
1F
100
AcDbEntity
  8
0
 62
     3
100
AcDbLine
 10
1708.321860170644
 20
347.8016194311047
 30
0.0
 11
1708.380818470899
 21
347.8981962655093
 31
0.0
  0
LINE
  5
140A
330
1F
100
AcDbEntity
  8
0
 62
     3
100
AcDbLine
 10
1708.380818470899
 20
347.8981962655093
 30
0.0
 11
1708.436516768006
 21
348.0085962417527
 31
0.0
  0
LINE
  5
140B
330
1F
100
AcDbEntity
  8
0
 62
     3
100
AcDbLine
 10
1708.436516768006
 20
348.0085962417527
 30
0.0
 11
1708.488525049135
 21
348.131967428534
 31
0.0
  0
LINE
  5
140C
330
1F
100
AcDbEntity
  8
0
 62
     3
100
AcDbLine
 10
1708.488525049135
 20
348.131967428534
 30
0.0
 11
1708.536440619919
 21
348.2673557032687
 31
0.0
  0
LINE
  5
140D
330
1F
100
AcDbEntity
  8
0
 62
     3
100
AcDbLine
 10
1708.536440619919
 20
348.2673557032687
 30
0.0
 11
1708.579893163427
 21
348.4137148700363
 31
0.0
  0
LINE
  5
140E
330
1F
100
AcDbEntity
  8
0
 62
     3
100
AcDbLine
 10
1708.579893163427
 20
348.4137148700363
 30
0.0
 11
1708.618546763753
 21
348.5699127303508
 31
0.0
  0
LINE
  5
140F
330
1F
100
AcDbEntity
  8
0
 62
     3
100
AcDbLine
 10
1708.618546763753
 20
348.5699127303508
 30
0.0
 11
1708.6521039532
 21
348.734743224699
 31
0.0
  0
LINE
  5
1410
330
1F
100
AcDbEntity
  8
0
 62
     3
100
AcDbLine
 10
1708.6521039532
 20
348.734743224699
 30
0.0
 11
1708.680303688684
 21
348.9069314915146
 31
0.0
  0
LINE
  5
1411
330
1F
100
AcDbEntity
  8
0
 62
     3
100
AcDbLine
 10
1708.686053719065
 20
350.461069696029
 30
0.0
 11
1710.109896012545
 21
350.455801280017
 31
0.0
  0
ARC
  5
1412
330
1F
100
AcDbEntity
  8
0
 62
     3
100
AcDbCircle
 10
1688.854066388965
 20
349.7573703945956
 30
0.0
 40
21.26730034229026
100
AcDbArc
 50
1.881965999999014
 51
5.709994000001157
  0
LINE
  5
1413
330
1F
100
AcDbEntity
  8
0
 62
     3
100
AcDbLine
 10
1705.516565739711
 20
352.6886140830709
 30
0.0
 11
1705.516560680736
 21
352.3828476425856
 31
0.0
  0
LINE
  5
1414
330
1F
100
AcDbEntity
  8
0
 62
     3
100
AcDbLine
 10
1702.974565196042
 20
346.9905109989205
 30
0.0
 11
1702.974560137067
 21
346.6847445584352
 31
0.0
  0
LINE
  5
1415
330
1F
100
AcDbEntity
  8
0
 62
     3
100
AcDbLine
 10
1702.974664351941
 20
352.6886676681584
 30
0.0
 11
1702.974659292966
 21
352.3828435553642
 31
0.0
  0
LINE
  5
1416
330
1F
100
AcDbEntity
  8
0
 62
     3
100
AcDbLine
 10
1698.775724128008
 20
347.0230261260593
 30
0.0
 11
1698.775724128008
 21
346.7172313553172
 31
0.0
  0
LINE
  5
1417
330
1F
100
AcDbEntity
  8
0
 62
     3
100
AcDbLine
 10
1698.269413142025
 20
350.2381156984327
 30
0.0
 11
1700.469965856473
 21
346.7172313553172
 31
0.0
  0
LINE
  5
1418
330
1F
100
AcDbEntity
  8
0
 62
     3
100
AcDbLine
 10
1700.469965856473
 20
346.7172313553172
 30
0.0
 11
1701.943475137698
 21
346.7172313553172
 31
0.0
  0
LINE
  5
1419
330
1F
100
AcDbEntity
  8
0
 62
     3
100
AcDbLine
 10
1702.449786123681
 20
352.7211534528598
 30
0.0
 11
1702.449786123681
 21
352.4153586821175
 31
0.0
  0
LINE
  5
141A
330
1F
100
AcDbEntity
  8
0
 62
     3
100
AcDbLine
 10
1700.471956342038
 20
352.7211534528598
 30
0.0
 11
1702.449786123681
 21
352.7211534528598
 31
0.0
  0
LINE
  5
141B
330
1F
100
AcDbEntity
  8
0
 62
     3
100
AcDbLine
 10
1700.471956342038
 20
352.7211534528598
 30
0.0
 11
1700.471956342038
 21
352.4153586821175
 31
0.0
  0
LINE
  5
141C
330
1F
100
AcDbEntity
  8
0
 62
     3
100
AcDbLine
 10
1700.978267328022
 20
350.0017867179167
 30
0.0
 11
1699.193682718504
 21
352.7211534528598
 31
0.0
  0
LINE
  5
141D
330
1F
100
AcDbEntity
  8
0
 62
     3
100
AcDbLine
 10
1696.797893334571
 20
352.7211534528598
 30
0.0
 11
1699.193682718504
 21
352.7211534528598
 31
0.0
  0
LINE
  5
141E
330
1F
100
AcDbEntity
  8
0
 62
     3
100
AcDbLine
 10
1710.165829140126
 20
352.6884977064445
 30
0.0
 11
1712.74061386191
 21
352.6884977064444
 31
0.0
  0
LINE
  5
141F
330
1F
100
AcDbEntity
  8
0
 62
     3
100
AcDbLine
 10
1710.165829140126
 20
352.3828455987822
 30
0.0
 11
1710.165829140126
 21
352.6884977064445
 31
0.0
  0
LINE
  5
1420
330
1F
100
AcDbEntity
  8
0
 62
     3
100
AcDbLine
 10
1710.165829140126
 20
346.6845756089016
 30
0.0
 11
1710.165829140126
 21
346.990513042724
 31
0.0
  0
LINE
  5
1421
330
1F
100
AcDbEntity
  8
0
 62
     3
100
AcDbLine
 10
1710.165829140126
 20
346.6845756089016
 30
0.0
 11
1712.74061386191
 21
346.6845756089016
 31
0.0
  0
LINE
  5
1422
330
1F
100
AcDbEntity
  8
0
 62
     3
100
AcDbLine
 10
1713.282141224201
 20
346.990513042724
 30
0.0
 11
1713.282141224201
 21
346.6845756089016
 31
0.0
  0
LINE
  5
1423
330
1F
100
AcDbEntity
  8
0
 62
     3
100
AcDbLine
 10
1712.74061386191
 20
346.990513042724
 30
0.0
 11
1712.74061386191
 21
346.6845756089016
 31
0.0
  0
LINE
  5
1424
330
1F
100
AcDbEntity
  8
0
 62
     3
100
AcDbLine
 10
1712.74061386191
 20
352.3828455987822
 30
0.0
 11
1712.74061386191
 21
352.6884977064445
 31
0.0
  0
LINE
  5
1425
330
1F
100
AcDbEntity
  8
0
 62
     3
100
AcDbLine
 10
1713.282141224201
 20
352.3828455987822
 30
0.0
 11
1713.282141224201
 21
352.6884977064445
 31
0.0
  0
LINE
  5
1426
330
1F
100
AcDbEntity
  8
0
 62
     3
100
AcDbLine
 10
1696.797893334571
 20
347.0230261260593
 30
0.0
 11
1696.797893334571
 21
346.7172313553172
 31
0.0
  0
LINE
  5
1427
330
1F
100
AcDbEntity
  8
0
 62
     3
100
AcDbLine
 10
1696.797893334571
 20
352.7211534528598
 30
0.0
 11
1696.797893334571
 21
352.4153586821175
 31
0.0
  0
ARC
  5
1428
330
1F
100
AcDbEntity
  8
0
 62
     3
100
AcDbCircle
 10
1722.47596198299
 20
350.3165186067365
 30
0.0
 40
2.37212176278799
100
AcDbArc
 50
17.3087490000009
 51
23.76507100000316
  0
ARC
  5
1429
330
1F
100
AcDbEntity
  8
0
 62
     3
100
AcDbCircle
 10
1720.454868293465
 20
349.6866793207531
 30
0.0
 40
4.489082006702322
100
AcDbArc
 50
342.691250999999
 51
17.30856600000147
  0
ARC
  5
142A
330
1F
100
AcDbEntity
  8
0
 62
     3
100
AcDbCircle
 10
1722.47596198299
 20
349.0568400347697
 30
0.0
 40
2.37212176278799
100
AcDbArc
 50
336.2349289999968
 51
342.691250999999
  0
ARC
  5
142B
330
1F
100
AcDbEntity
  8
0
 62
     3
100
AcDbCircle
 10
1722.218305454861
 20
350.3165186067365
 30
0.0
 40
2.37212176278799
100
AcDbArc
 50
17.3087490000009
 51
90.0
  0
ARC
  5
142C
330
1F
100
AcDbEntity
  8
0
 62
     3
100
AcDbCircle
 10
1720.197206686256
 20
349.6866928832485
 30
0.0
 40
4.489082006702322
100
AcDbArc
 50
342.691250999999
 51
17.30856600000147
  0
ARC
  5
142D
330
1F
100
AcDbEntity
  8
0
 62
     3
100
AcDbCircle
 10
1722.218305454861
 20
349.0568400347697
 30
0.0
 40
2.37212176278799
100
AcDbArc
 50
270.0
 51
342.691250999999
  0
ARC
  5
142E
330
1F
100
AcDbEntity
  8
0
 62
     3
100
AcDbCircle
 10
1707.959060875588
 20
349.6866793207531
 30
0.0
 40
3.001961048771398
100
AcDbArc
 50
46.75287999999379
 51
89.74999799999961
  0
ARC
  5
142F
330
1F
100
AcDbEntity
  8
0
 62
     3
100
AcDbCircle
 10
1707.959060875588
 20
349.6866793207531
 30
0.0
 40
3.001961048771398
100
AcDbArc
 50
273.9763330000016
 51
312.8231200000002
  0
ARC
  5
1430
330
1F
100
AcDbEntity
  8
0
 62
     3
100
AcDbCircle
 10
1724.077297383914
 20
349.6403370910289
 30
0.0
 40
3.983420308030568
100
AcDbArc
 50
0.6665839999990411
 51
23.90392800000231
  0
ARC
  5
1431
330
1F
100
AcDbEntity
  8
0
 62
     3
100
AcDbCircle
 10
1729.73693502116
 20
349.6403370910289
 30
0.0
 40
3.983420308030568
100
AcDbArc
 50
156.0960719999977
 51
179.3334160000009
  0
ARC
  5
1432
330
1F
100
AcDbEntity
  8
0
 62
     3
100
AcDbCircle
 10
1724.077297383914
 20
349.7330215504772
 30
0.0
 40
3.983420308030568
100
AcDbArc
 50
336.0960719999984
 51
359.3334159999977
  0
ARC
  5
1433
330
1F
100
AcDbEntity
  8
0
 62
     3
100
AcDbCircle
 10
1729.73693502116
 20
349.7330215504772
 30
0.0
 40
3.983420308030568
100
AcDbArc
 50
180.666583999999
 51
203.9039280000023
  0
LINE
  5
1434
330
1F
100
AcDbEntity
  8
0
  6
Continuous
 62
     3
100
AcDbLine
 10
1696.797893334571
 20
352.4153586821175
 30
0.0
 11
1697.304204320555
 21
352.0865718842094
 31
0.0
  0
LINE
  5
1435
330
1F
100
AcDbEntity
  8
0
  6
Continuous
 62
     3
100
AcDbLine
 10
1700.471956342038
 20
352.4153586821175
 30
0.0
 11
1700.978267328022
 21
352.0865718842094
 31
0.0
  0
LINE
  5
1436
330
1F
100
AcDbEntity
  8
0
  6
Continuous
 62
     3
100
AcDbLine
 10
1702.449786123681
 20
352.4153586821175
 30
0.0
 11
1701.943475137698
 21
352.0865718842094
 31
0.0
  0
LINE
  5
1437
330
1F
100
AcDbEntity
  8
0
  6
Continuous
 62
     3
100
AcDbLine
 10
1702.974659292966
 20
352.3828435553642
 30
0.0
 11
1703.480931830761
 21
352.0540507065148
 31
0.0
  0
LINE
  5
1438
330
1F
100
AcDbEntity
  8
0
  6
Continuous
 62
     3
100
AcDbLine
 10
1705.516560680736
 20
352.3828476425856
 30
0.0
 11
1705.010243623967
 21
352.0540294588221
 31
0.0
  0
LINE
  5
1439
330
1F
100
AcDbEntity
  8
0
  6
Continuous
 62
     3
100
AcDbLine
 10
1710.165829140126
 20
352.3828455987822
 30
0.0
 11
1710.672140126109
 21
352.0539586331794
 31
0.0
  0
LINE
  5
143A
330
1F
100
AcDbEntity
  8
0
  6
Continuous
 62
     3
100
AcDbLine
 10
1712.74061386191
 20
352.3828455987822
 30
0.0
 11
1712.234302875926
 21
352.0539586331794
 31
0.0
  0
LINE
  5
143B
330
1F
100
AcDbEntity
  8
0
  6
Continuous
 62
     3
100
AcDbLine
 10
1713.282141224201
 20
352.3828455987822
 30
0.0
 11
1713.788452210184
 21
352.0539586331794
 31
0.0
  0
LINE
  5
143C
330
1F
100
AcDbEntity
  8
0
  6
Continuous
 62
     3
100
AcDbLine
 10
1715.856926957779
 20
352.3828455987822
 30
0.0
 11
1715.350614960001
 21
352.0539586331794
 31
0.0
  0
LINE
  5
143D
330
1F
100
AcDbEntity
  8
0
  6
Continuous
 62
     3
100
AcDbLine
 10
1716.385476853506
 20
352.3828455987822
 30
0.0
 11
1716.891787839489
 21
352.0539586331794
 31
0.0
  0
LINE
  5
143E
330
1F
100
AcDbEntity
  8
0
  6
Continuous
 62
     3
100
AcDbLine
 10
1718.927378241241
 20
352.3828455987822
 30
0.0
 11
1718.421067255258
 21
352.0539586331794
 31
0.0
  0
LINE
  5
143F
330
1F
100
AcDbEntity
  8
0
  6
Continuous
 62
     3
100
AcDbLine
 10
1719.473683592585
 20
352.3828455987822
 30
0.0
 11
1719.979994578568
 21
352.0539586331794
 31
0.0
  0
LINE
  5
1440
330
1F
100
AcDbEntity
  8
0
  6
Continuous
 62
     3
100
AcDbLine
 10
1719.979912623182
 20
347.3192593688363
 30
0.0
 11
1719.473683592585
 21
346.990513042724
 31
0.0
  0
LINE
  5
1441
330
1F
100
AcDbEntity
  8
0
  6
Continuous
 62
     3
100
AcDbLine
 10
1718.421149210644
 20
347.3192593688363
 30
0.0
 11
1718.927378241241
 21
346.990513042724
 31
0.0
  0
LINE
  5
1442
330
1F
100
AcDbEntity
  8
0
  6
Continuous
 62
     3
100
AcDbLine
 10
1716.891704872308
 20
347.3192593688363
 30
0.0
 11
1716.385476853506
 21
346.990513042724
 31
0.0
  0
LINE
  5
1443
330
1F
100
AcDbEntity
  8
0
  6
Continuous
 62
     3
100
AcDbLine
 10
1715.856926957779
 20
346.990513042724
 30
0.0
 11
1715.350697927182
 21
347.3192593688363
 31
0.0
  0
LINE
  5
1444
330
1F
100
AcDbEntity
  8
0
  6
Continuous
 62
     3
100
AcDbLine
 10
1713.282141224201
 20
346.990513042724
 30
0.0
 11
1713.788369243003
 21
347.3192593688363
 31
0.0
  0
LINE
  5
1445
330
1F
100
AcDbEntity
  8
0
  6
Continuous
 62
     3
100
AcDbLine
 10
1712.74061386191
 20
346.990513042724
 30
0.0
 11
1712.234385843107
 21
347.3192593688363
 31
0.0
  0
LINE
  5
1446
330
1F
100
AcDbEntity
  8
0
  6
Continuous
 62
     3
100
AcDbLine
 10
1710.672057158928
 20
347.3192593688363
 30
0.0
 11
1710.165829140126
 21
346.990513042724
 31
0.0
  0
LINE
  5
1447
330
1F
100
AcDbEntity
  8
0
  6
Continuous
 62
     3
100
AcDbLine
 10
1705.516466583819
 20
346.9905154948337
 30
0.0
 11
1705.010243623967
 21
347.3193291826841
 31
0.0
  0
LINE
  5
1448
330
1F
100
AcDbEntity
  8
0
  6
Continuous
 62
     3
100
AcDbLine
 10
1702.974565196042
 20
346.9905109989205
 30
0.0
 11
1703.480832674861
 21
347.3193504303768
 31
0.0
  0
LINE
  5
1449
330
1F
100
AcDbEntity
  8
0
  6
Continuous
 62
     3
100
AcDbLine
 10
1698.775724128008
 20
347.0230261260593
 30
0.0
 11
1698.269413142025
 21
347.3518139357624
 31
0.0
  0
LINE
  5
144A
330
1F
100
AcDbEntity
  8
0
  6
Continuous
 62
     3
100
AcDbLine
 10
1696.797893334571
 20
347.0230261260593
 30
0.0
 11
1697.304204320555
 21
347.3518139357624
 31
0.0
  0
LINE
  5
144B
330
1F
100
AcDbEntity
  8
0
  6
Continuous
 62
     3
100
AcDbLine
 10
1705.516460513049
 20
346.6846923938346
 30
0.0
 11
1702.974560137067
 21
346.6847445584352
 31
0.0
  0
LINE
  5
144C
330
1F
100
AcDbEntity
  8
0
  6
Continuous
 62
     3
100
AcDbLine
 10
1702.974664351941
 20
352.6886676681584
 30
0.0
 11
1705.516565739711
 21
352.6886140830709
 31
0.0
  0
ARC
  5
144D
330
1F
100
AcDbEntity
  8
0
  6
Continuous
 62
     3
100
AcDbCircle
 10
1731.824908041282
 20
349.6684415771877
 30
0.0
 40
1.5
100
AcDbArc
 50
293.7485430905253
 51
66.25145690947462
  0
ARC
  5
144E
330
1F
100
AcDbEntity
  8
0
  6
Continuous
 62
     3
100
AcDbCircle
 10
1731.824908041282
 20
349.6684415771877
 30
0.0
 40
2.25
100
AcDbArc
 50
293.7485430905253
 51
66.25145690947462
  0
ARC
  5
144F
330
1F
100
AcDbEntity
  8
0
  6
Continuous
 62
     3
100
AcDbCircle
 10
1720.347290704956
 20
323.581772562519
 30
0.0
 40
30.0
100
AcDbArc
 50
66.25145690947462
 51
81.41597019517911
  0
ARC
  5
1450
330
1F
100
AcDbEntity
  8
0
  6
Continuous
 62
     3
100
AcDbCircle
 10
1720.347290704956
 20
323.581772562519
 30
0.0
 40
30.75
100
AcDbArc
 50
66.25145690947462
 51
81.41597019517911
  0
ARC
  5
1451
330
1F
100
AcDbEntity
  8
0
  6
Continuous
 62
     3
100
AcDbCircle
 10
1692.749621544505
 20
349.6684415771877
 30
0.0
 40
1.5
100
AcDbArc
 50
113.7485430905254
 51
246.2514569094746
  0
ARC
  5
1452
330
1F
100
AcDbEntity
  8
0
  6
Continuous
 62
     3
100
AcDbCircle
 10
1692.749621544505
 20
349.6684415771877
 30
0.0
 40
2.25
100
AcDbArc
 50
113.7485430905254
 51
246.2514569094746
  0
ARC
  5
1453
330
1F
100
AcDbEntity
  8
0
  6
Continuous
 62
     3
100
AcDbCircle
 10
1704.227238880831
 20
323.581772562519
 30
0.0
 40
30.0
100
AcDbArc
 50
98.5840298048209
 51
113.7485430905254
  0
ARC
  5
1454
330
1F
100
AcDbEntity
  8
0
  6
Continuous
 62
     3
100
AcDbCircle
 10
1704.227238880831
 20
323.581772562519
 30
0.0
 40
30.75
100
AcDbArc
 50
98.5840298048209
 51
113.7485430905254
  0
ARC
  5
1455
330
1F
100
AcDbEntity
  8
0
  6
Continuous
 62
     3
100
AcDbCircle
 10
1720.347290704956
 20
375.7551105918565
 30
0.0
 40
30.0
100
AcDbArc
 50
278.5840298048209
 51
293.7485430905253
  0
ARC
  5
1456
330
1F
100
AcDbEntity
  8
0
  6
Continuous
 62
     3
100
AcDbCircle
 10
1720.347290704956
 20
375.7551105918565
 30
0.0
 40
30.75
100
AcDbArc
 50
278.5840298048209
 51
293.7485430905253
  0
ARC
  5
1457
330
1F
100
AcDbEntity
  8
0
  6
Continuous
 62
     3
100
AcDbCircle
 10
1704.227238880831
 20
375.7551105918565
 30
0.0
 40
30.0
100
AcDbArc
 50
246.2514569094746
 51
261.4159701951791
  0
ARC
  5
1458
330
1F
100
AcDbEntity
  8
0
  6
Continuous
 62
     3
100
AcDbCircle
 10
1704.227238880831
 20
375.7551105918565
 30
0.0
 40
30.75
100
AcDbArc
 50
246.2514569094746
 51
261.4159701951791
  0
ARC
  5
1459
330
1F
100
AcDbEntity
  8
0
  6
Continuous
 62
     3
100
AcDbCircle
 10
1712.287264792893
 20
270.1866793207545
 30
0.0
 40
84.74999999999857
100
AcDbArc
 50
81.41597019517911
 51
98.5840298048209
  0
ARC
  5
145A
330
1F
100
AcDbEntity
  8
0
  6
Continuous
 62
     3
100
AcDbCircle
 10
1712.287264792893
 20
270.1866793207558
 30
0.0
 40
83.99999999999733
100
AcDbArc
 50
81.41597019517911
 51
98.5840298048209
  0
ARC
  5
145B
330
1F
100
AcDbEntity
  8
0
  6
Continuous
 62
     3
100
AcDbCircle
 10
1712.287264792893
 20
429.1502038336209
 30
0.0
 40
84.74999999999857
100
AcDbArc
 50
261.4159701951791
 51
278.5840298048209
  0
ARC
  5
145C
330
1F
100
AcDbEntity
  8
0
  6
Continuous
 62
     3
100
AcDbCircle
 10
1712.287264792893
 20
429.1502038336196
 30
0.0
 40
83.99999999999733
100
AcDbArc
 50
261.4159701951791
 51
278.5840298048209
  0
TEXT
  5
145D
330
1F
100
AcDbEntity
  8
0
 62
     3
100
AcDbText
 10
1895.825211780021
 20
340.2536152005958
 30
0.0
 40
3.2
  1
担　当
  7
高3.2
100
AcDbText
  0
TEXT
  5
145E
330
1F
100
AcDbEntity
  8
0
 62
     3
100
AcDbText
 10
1851.825211780021
 20
340.2536152005958
 30
0.0
 40
3.2
  1
変更・追記内容
  7
高3.2
100
AcDbText
  0
TEXT
  5
145F
330
1F
100
AcDbEntity
  8
0
 62
     3
100
AcDbText
 10
1826.93872678036
 20
335.5830766906876
 30
0.0
 40
2.0
  1
1
  7
高2
100
AcDbText
  0
TEXT
  5
1460
330
1F
100
AcDbEntity
  8
0
 62
     3
100
AcDbText
 10
1826.630215303603
 20
330.4132599784147
 30
0.0
 40
2.0
  1
2
  7
高2
100
AcDbText
  0
TEXT
  5
1461
330
1F
100
AcDbEntity
  8
0
 62
     3
100
AcDbText
 10
1833.825211780021
 20
340.2536152005958
 30
0.0
 40
3.2
  1
日　付
  7
高3.2
100
AcDbText
  0
TEXT
  5
1462
330
1F
100
AcDbEntity
  8
0
 62
     3
100
AcDbText
 10
1833.825211780021
 20
345.2536152005958
 30
0.0
 40
3.2
  1
図　　　　面　　　　略　　　　歴
  7
高3.2
100
AcDbText
  0
TEXT
  5
1463
330
1F
100
AcDbEntity
  8
0
 62
     3
100
AcDbText
 10
1823.825211780021
 20
340.2536152005958
 30
0.0
 40
3.2
  1
記号
  7
高3.2
100
AcDbText
  0
LINE
  5
1464
330
1F
100
AcDbEntity
  8
0
100
AcDbLine
 10
1827.325211780021
 20
333.544511200596
 30
0.0
 11
1825.425211780021
 21
330.2536152005958
 31
0.0
  0
LINE
  5
1465
330
1F
100
AcDbEntity
  8
0
100
AcDbLine
 10
1827.325211780021
 20
333.544511200596
 30
0.0
 11
1829.225211780021
 21
330.2536152005958
 31
0.0
  0
LINE
  5
1466
330
1F
100
AcDbEntity
  8
0
100
AcDbLine
 10
1825.425211780021
 20
330.2536152005958
 30
0.0
 11
1829.225211780021
 21
330.2536152005958
 31
0.0
  0
LINE
  5
1467
330
1F
100
AcDbEntity
  8
0
100
AcDbLine
 10
1827.325211780021
 20
338.5445122005959
 30
0.0
 11
1825.425211780021
 21
335.2536152005959
 31
0.0
  0
LINE
  5
1468
330
1F
100
AcDbEntity
  8
0
100
AcDbLine
 10
1827.325211780021
 20
338.5445122005959
 30
0.0
 11
1829.225211780021
 21
335.2536152005959
 31
0.0
  0
LINE
  5
1469
330
1F
100
AcDbEntity
  8
0
100
AcDbLine
 10
1825.425211780021
 20
335.2536152005959
 30
0.0
 11
1829.225211780021
 21
335.2536152005959
 31
0.0
  0
LINE
  5
146A
330
1F
100
AcDbEntity
  8
0
 62
     3
100
AcDbLine
 10
1822.325211780021
 20
344.7536152005958
 30
0.0
 11
1908.325211780021
 21
344.7536152005958
 31
0.0
  0
LINE
  5
146B
330
1F
100
AcDbEntity
  8
0
 62
     3
100
AcDbLine
 10
1822.325211780021
 20
339.7536152005959
 30
0.0
 11
1908.325211780021
 21
339.7536152005959
 31
0.0
  0
LINE
  5
146C
330
1F
100
AcDbEntity
  8
0
 62
     7
100
AcDbLine
 10
1822.325211780021
 20
334.7536152005958
 30
0.0
 11
1908.325211780021
 21
334.7536152005958
 31
0.0
  0
LINE
  5
146D
330
1F
100
AcDbEntity
  8
0
 62
     3
100
AcDbLine
 10
1822.325211780021
 20
329.7536152005958
 30
0.0
 11
1908.325211780021
 21
329.7536152005958
 31
0.0
  0
LINE
  5
146E
330
1F
100
AcDbEntity
  8
0
 62
     7
100
AcDbLine
 10
1894.325211780021
 20
329.7536152005958
 30
0.0
 11
1894.325211780021
 21
344.7536152005958
 31
0.0
  0
LINE
  5
146F
330
1F
100
AcDbEntity
  8
0
 62
     7
100
AcDbLine
 10
1850.325211780021
 20
329.7536152005958
 30
0.0
 11
1850.325211780021
 21
344.7536152005958
 31
0.0
  0
LINE
  5
1470
330
1F
100
AcDbEntity
  8
0
 62
     7
100
AcDbLine
 10
1832.325211780021
 20
329.7536152005958
 30
0.0
 11
1832.325211780021
 21
344.7536152005958
 31
0.0
  0
LINE
  5
1471
330
1F
100
AcDbEntity
  8
0
 62
     3
100
AcDbLine
 10
1822.325211780021
 20
329.7536152005958
 30
0.0
 11
1822.325211780021
 21
349.7536152005959
 31
0.0
  0
LINE
  5
1472
330
1F
100
AcDbEntity
  8
0
 62
     3
100
AcDbLine
 10
1908.325211780021
 20
121.7536152005958
 30
0.0
 11
1856.325211780022
 21
121.7536152005958
 31
0.0
  0
LINE
  5
1473
330
1F
100
AcDbEntity
  8
0
 62
     3
100
AcDbLine
 10
1882.325211780021
 20
115.7536152005959
 30
0.0
 11
1882.325211780021
 21
121.7536152005958
 31
0.0
  0
LINE
  5
1474
330
1F
100
AcDbEntity
  8
0
 62
     3
100
AcDbLine
 10
1856.325211780021
 20
115.7536152005959
 30
0.0
 11
1856.325211780022
 21
121.7536152005958
 31
0.0
  0
TEXT
  5
1475
330
1F
100
AcDbEntity
  8
0
 62
     3
100
AcDbText
 10
1861.736574531957
 20
116.2751155352252
 30
0.0
 40
4.5
  1
コード
  7
高4.5
100
AcDbText
  0
TEXT
  5
1476
330
1F
100
AcDbEntity
  8
0
 62
     3
100
AcDbText
 10
1886.11374540926
 20
116.2751155352252
 30
0.0
 40
4.5
  1
14385
  7
高4.5
100
AcDbText
  0
TEXT
  5
1477
330
1F
100
AcDbEntity
  8
0
100
AcDbText
 10
1900.912458189826
 20
97.7486565290733
 30
0.0
 40
3.2
  1
I
  7
高3.2
100
AcDbText
  0
TEXT
  5
1865
330
1F
100
AcDbEntity
  8
0
 62
     3
100
AcDbText
 10
1764.655979388898
 20
179.9934300527176
 30
0.0
 40
3.2
  1
調光　方式
  7
高3.2
100
AcDbText
  0
TEXT
  5
1866
330
1F
100
AcDbEntity
  8
0
 62
     3
100
AcDbText
 10
1789.584074961663
 20
179.9934300527176
 30
0.0
 40
3.2
  1
PWM制御
  7
高3.2
100
AcDbText
  0
LINE
  5
1867
330
1F
100
AcDbEntity
  8
0
 62
     7
100
AcDbLine
 10
1763.155979388898
 20
178.9934300527177
 30
0.0
 11
1839.055979388898
 21
178.9934300527177
 31
0.0
  0
TEXT
  5
1870
330
1F
100
AcDbEntity
  8
0
 62
     3
100
AcDbText
 10
1764.655979388898
 20
163.4934300527176
 30
0.0
 40
3.2
  1
最大　負荷
  7
高3.2
100
AcDbText
  0
LINE
  5
1871
330
1F
100
AcDbEntity
  8
0
 62
     7
100
AcDbLine
 10
1788.084074961663
 20
162.4934300527177
 30
0.0
 11
1839.055979388898
 21
162.4934300527177
 31
0.0
  0
TEXT
  5
1872
330
1F
100
AcDbEntity
  8
0
 62
     3
100
AcDbText
 10
1789.584074961663
 20
163.4934300527176
 30
0.0
 40
3.2
  1
100V:1000W
  7
高3.2
100
AcDbText
  0
LINE
  5
1874
330
1F
100
AcDbEntity
  8
0
 62
     7
100
AcDbLine
 10
1763.155979388898
 20
156.9934300527177
 30
0.0
 11
1839.055979388898
 21
156.9934300527177
 31
0.0
  0
TEXT
  5
187C
330
1F
100
AcDbEntity
  8
0
 62
     3
100
AcDbText
 10
1789.584074961663
 20
157.9934300527176
 30
0.0
 40
3.2
  1
200V:2000W
  7
高3.2
100
AcDbText
  0
TEXT
  5
187D
330
1F
100
AcDbEntity
  8
0
 62
     3
100
AcDbText
 10
1764.655979388898
 20
174.4934300527176
 30
0.0
 40
3.2
  1
有効　距離
  7
高3.2
100
AcDbText
  0
LINE
  5
187E
330
1F
100
AcDbEntity
  8
0
 62
     7
100
AcDbLine
 10
1788.084074961663
 20
173.4934300527177
 30
0.0
 11
1839.055979388898
 21
173.4934300527177
 31
0.0
  0
TEXT
  5
187F
330
1F
100
AcDbEntity
  8
0
 62
     3
100
AcDbText
 10
1789.584074961663
 20
174.4934300527176
 30
0.0
 40
3.2
  1
調光器:30m
  7
高3.2
100
AcDbText
  0
LINE
  5
1CC3
330
1F
100
AcDbEntity
  8
0
100
AcDbLine
 10
1567.228305007135
 20
251.0137998276903
 30
0.0
 11
1569.439188360566
 21
252.1808451556528
 31
0.0
  0
LINE
  5
1CC6
330
1F
100
AcDbEntity
  8
0
100
AcDbLine
 10
1559.269124934782
 20
246.8124366470259
 30
0.0
 11
1542.864370452318
 21
238.1529603135433
 31
0.0
  0
LINE
  5
1CC7
330
1F
100
AcDbEntity
  8
0
100
AcDbLine
 10
1565.017421653703
 20
249.8467544997278
 30
0.0
 11
1561.480008288214
 21
247.9794819749884
 31
0.0
  0
LINE
  5
1CCB
330
1F
100
AcDbEntity
  8
0
100
AcDbLine
 10
1686.248714970959
 20
273.2631182373579
 30
0.0
 11
1686.248714970959
 21
308.2207449193105
 31
0.0
  0
LINE
  5
1CCC
330
1F
100
AcDbEntity
  8
0
100
AcDbLine
 10
1836.2487149707
 20
266.5631182985275
 30
0.0
 11
1836.2487149707
 21
308.2207449193105
 31
0.0
  0
LINE
  5
1CCD
330
1F
100
AcDbEntity
  8
0
100
AcDbLine
 10
1688.748714970959
 20
306.9707449193105
 30
0.0
 11
1833.7487149707
 21
306.9707449193105
 31
0.0
  0
LINE
  5
1CD1
330
1F
100
AcDbEntity
  8
0
100
AcDbLine
 10
1662.248714970959
 20
250.463118237358
 30
0.0
 11
1662.248714970959
 21
217.5452297889847
 31
0.0
  0
LINE
  5
1CD2
330
1F
100
AcDbEntity
  8
0
100
AcDbLine
 10
1558.248714970959
 20
244.463118237358
 30
0.0
 11
1558.248714970959
 21
217.5452297889847
 31
0.0
  0
LINE
  5
1CD3
330
1F
100
AcDbEntity
  8
0
100
AcDbLine
 10
1659.748714970959
 20
218.7952297889847
 30
0.0
 11
1560.748714970959
 21
218.7952297889847
 31
0.0
  0
LINE
  5
1CD7
330
1F
100
AcDbEntity
  8
0
100
AcDbLine
 10
1662.248714970959
 20
250.463118237358
 30
0.0
 11
1662.248714970959
 21
222.8130675213331
 31
0.0
  0
LINE
  5
1CD8
330
1F
100
AcDbEntity
  8
0
100
AcDbLine
 10
1563.24871497096
 20
242.9678951139785
 30
0.0
 11
1563.24871497096
 21
222.8130675213331
 31
0.0
  0
LINE
  5
1CD9
330
1F
100
AcDbEntity
  8
0
100
AcDbLine
 10
1659.748714970959
 20
224.0630675213331
 30
0.0
 11
1565.74871497096
 21
224.0630675213331
 31
0.0
  0
LINE
  5
1CDD
330
1F
100
AcDbEntity
  8
0
100
AcDbLine
 10
1557.998714970959
 20
151.7865660201518
 30
0.0
 11
1542.04623635071
 21
151.7865660201518
 31
0.0
  0
LINE
  5
1CDE
330
1F
100
AcDbEntity
  8
0
100
AcDbLine
 10
1557.998714970959
 20
187.7865660201518
 30
0.0
 11
1542.04623635071
 21
187.7865660201518
 31
0.0
  0
LINE
  5
1CDF
330
1F
100
AcDbEntity
  8
0
100
AcDbLine
 10
1543.29623635071
 20
154.2865660201518
 30
0.0
 11
1543.29623635071
 21
185.2865660201518
 31
0.0
  0
LINE
  5
1CE3
330
1F
100
AcDbEntity
  8
0
100
AcDbLine
 10
1557.303491847579
 20
248.9131182373579
 30
0.0
 11
1549.001866287151
 21
248.9131182373579
 31
0.0
  0
LINE
  5
1CE4
330
1F
100
AcDbEntity
  8
0
100
AcDbLine
 10
1559.34508032231
 20
265.713118237358
 30
0.0
 11
1549.001866287151
 21
265.713118237358
 31
0.0
  0
LINE
  5
1CE5
330
1F
100
AcDbEntity
  8
0
100
AcDbLine
 10
1550.251866287151
 20
251.4131182373579
 30
0.0
 11
1550.251866287151
 21
263.213118237358
 31
0.0
  0
LINE
  5
1CE9
330
1F
100
AcDbEntity
  8
0
100
AcDbLine
 10
1557.303491847579
 20
282.5131182373581
 30
0.0
 11
1549.001866287151
 21
282.5131182373581
 31
0.0
  0
LINE
  5
1CEA
330
1F
100
AcDbEntity
  8
0
100
AcDbLine
 10
1559.34508032231
 20
265.713118237358
 30
0.0
 11
1549.001866287151
 21
265.713118237358
 31
0.0
  0
LINE
  5
1CEB
330
1F
100
AcDbEntity
  8
0
100
AcDbLine
 10
1550.251866287151
 20
280.0131182373581
 30
0.0
 11
1550.251866287151
 21
268.213118237358
 31
0.0
  0
LINE
  5
1CEF
330
1F
100
AcDbEntity
  8
0
100
AcDbLine
 10
1571.998714970959
 20
294.713118237358
 30
0.0
 11
1539.570849458106
 21
294.713118237358
 31
0.0
  0
LINE
  5
1CF0
330
1F
100
AcDbEntity
  8
0
100
AcDbLine
 10
1571.998714970959
 20
236.713118237358
 30
0.0
 11
1539.570849458106
 21
236.713118237358
 31
0.0
  0
LINE
  5
1CF1
330
1F
100
AcDbEntity
  8
0
100
AcDbLine
 10
1540.820849458106
 20
292.213118237358
 30
0.0
 11
1540.820849458106
 21
239.213118237358
 31
0.0
  0
LINE
  5
1CF5
330
1F
100
AcDbEntity
  8
0
100
AcDbLine
 10
1686.248714970959
 20
273.2631182373579
 30
0.0
 11
1686.248714970959
 21
308.2207449193105
 31
0.0
  0
LINE
  5
1CF6
330
1F
100
AcDbEntity
  8
0
100
AcDbLine
 10
1558.248714970959
 20
286.963118237358
 30
0.0
 11
1558.248714970959
 21
308.2207449193105
 31
0.0
  0
LINE
  5
1CF7
330
1F
100
AcDbEntity
  8
0
100
AcDbLine
 10
1683.748714970959
 20
306.9707449193105
 30
0.0
 11
1560.748714970959
 21
306.9707449193105
 31
0.0
  0
TEXT
  5
1CFB
330
1F
100
AcDbEntity
  8
0
 62
     4
100
AcDbText
 10
1543.125329958686
 20
238.997442483892
 30
0.0
 40
3.0
  1
2-\U+22054穴
 50
27.82795197492814
100
AcDbText
  0
LINE
  5
1CFC
330
1F
100
AcDbEntity
  8
0
  6
ByBlock
 62
     0
370
    -2
100
AcDbLine
 10
1558.9564163062
 20
247.4048406306945
 30
0.0
 11
1561.480008288214
 21
247.9794819749884
 31
0.0
  0
LINE
  5
1CFD
330
1F
100
AcDbEntity
  8
0
  6
ByBlock
 62
     0
370
    -2
100
AcDbLine
 10
1561.480008288214
 20
247.9794819749884
 30
0.0
 11
1559.581833563364
 21
246.2200326633572
 31
0.0
  0
LINE
  5
1CFE
330
1F
100
AcDbEntity
  8
0
  6
ByBlock
 62
     0
370
    -2
100
AcDbLine
 10
1561.480008288214
 20
247.9794819749884
 30
0.0
 11
1559.269124934782
 21
246.8124366470259
 31
0.0
  0
LINE
  5
1CFF
330
1F
100
AcDbEntity
  8
0
  6
ByBlock
 62
     0
370
    -2
100
AcDbLine
 10
1567.541013635717
 20
250.4213958440217
 30
0.0
 11
1565.017421653703
 21
249.8467544997278
 31
0.0
  0
LINE
  5
1D00
330
1F
100
AcDbEntity
  8
0
  6
ByBlock
 62
     0
370
    -2
100
AcDbLine
 10
1565.017421653703
 20
249.8467544997278
 30
0.0
 11
1566.915596378552
 21
251.606203811359
 31
0.0
  0
LINE
  5
1D01
330
1F
100
AcDbEntity
  8
0
  6
ByBlock
 62
     0
370
    -2
100
AcDbLine
 10
1565.017421653703
 20
249.8467544997278
 30
0.0
 11
1567.228305007135
 21
251.0137998276903
 31
0.0
  0
TEXT
  5
1D02
330
1F
100
AcDbEntity
  8
0
 62
     4
100
AcDbText
 10
1757.99871497083
 20
307.5957449193105
 30
0.0
 40
3.0
  1
150
100
AcDbText
  0
LINE
  5
1D03
330
1F
100
AcDbEntity
  8
0
  6
ByBlock
 62
     0
370
    -2
100
AcDbLine
 10
1833.7487149707
 20
307.6406174193105
 30
0.0
 11
1836.2487149707
 21
306.9707449193105
 31
0.0
  0
LINE
  5
1D04
330
1F
100
AcDbEntity
  8
0
  6
ByBlock
 62
     0
370
    -2
100
AcDbLine
 10
1836.2487149707
 20
306.9707449193105
 30
0.0
 11
1833.7487149707
 21
306.3008724193105
 31
0.0
  0
LINE
  5
1D05
330
1F
100
AcDbEntity
  8
0
  6
ByBlock
 62
     0
370
    -2
100
AcDbLine
 10
1836.2487149707
 20
306.9707449193105
 30
0.0
 11
1833.7487149707
 21
306.9707449193105
 31
0.0
  0
LINE
  5
1D06
330
1F
100
AcDbEntity
  8
0
  6
ByBlock
 62
     0
370
    -2
100
AcDbLine
 10
1688.748714970959
 20
306.3008724193105
 30
0.0
 11
1686.248714970959
 21
306.9707449193105
 31
0.0
  0
LINE
  5
1D07
330
1F
100
AcDbEntity
  8
0
  6
ByBlock
 62
     0
370
    -2
100
AcDbLine
 10
1686.248714970959
 20
306.9707449193105
 30
0.0
 11
1688.748714970959
 21
307.6406174193105
 31
0.0
  0
LINE
  5
1D08
330
1F
100
AcDbEntity
  8
0
  6
ByBlock
 62
     0
370
    -2
100
AcDbLine
 10
1686.248714970959
 20
306.9707449193105
 30
0.0
 11
1688.748714970959
 21
306.9707449193105
 31
0.0
  0
TEXT
  5
1D09
330
1F
100
AcDbEntity
  8
0
 62
     4
100
AcDbText
 10
1606.079434459018
 20
219.4202297889847
 30
0.0
 40
3.0
  1
104
100
AcDbText
  0
LINE
  5
1D0A
330
1F
100
AcDbEntity
  8
0
  6
ByBlock
 62
     0
370
    -2
100
AcDbLine
 10
1560.748714970959
 20
218.1253572889847
 30
0.0
 11
1558.248714970959
 21
218.7952297889847
 31
0.0
  0
LINE
  5
1D0B
330
1F
100
AcDbEntity
  8
0
  6
ByBlock
 62
     0
370
    -2
100
AcDbLine
 10
1558.248714970959
 20
218.7952297889847
 30
0.0
 11
1560.748714970959
 21
219.4651022889847
 31
0.0
  0
LINE
  5
1D0C
330
1F
100
AcDbEntity
  8
0
  6
ByBlock
 62
     0
370
    -2
100
AcDbLine
 10
1558.248714970959
 20
218.7952297889847
 30
0.0
 11
1560.748714970959
 21
218.7952297889847
 31
0.0
  0
LINE
  5
1D0D
330
1F
100
AcDbEntity
  8
0
  6
ByBlock
 62
     0
370
    -2
100
AcDbLine
 10
1659.748714970959
 20
219.4651022889847
 30
0.0
 11
1662.248714970959
 21
218.7952297889847
 31
0.0
  0
LINE
  5
1D0E
330
1F
100
AcDbEntity
  8
0
  6
ByBlock
 62
     0
370
    -2
100
AcDbLine
 10
1662.248714970959
 20
218.7952297889847
 30
0.0
 11
1659.748714970959
 21
218.1253572889847
 31
0.0
  0
LINE
  5
1D0F
330
1F
100
AcDbEntity
  8
0
  6
ByBlock
 62
     0
370
    -2
100
AcDbLine
 10
1662.248714970959
 20
218.7952297889847
 30
0.0
 11
1659.748714970959
 21
218.7952297889847
 31
0.0
  0
TEXT
  5
1D10
330
1F
100
AcDbEntity
  8
0
 62
     4
100
AcDbText
 10
1608.828646561083
 20
224.6880675213331
 30
0.0
 40
3.0
  1
99
100
AcDbText
  0
LINE
  5
1D11
330
1F
100
AcDbEntity
  8
0
  6
ByBlock
 62
     0
370
    -2
100
AcDbLine
 10
1565.74871497096
 20
223.3931950213331
 30
0.0
 11
1563.24871497096
 21
224.0630675213331
 31
0.0
  0
LINE
  5
1D12
330
1F
100
AcDbEntity
  8
0
  6
ByBlock
 62
     0
370
    -2
100
AcDbLine
 10
1563.24871497096
 20
224.0630675213331
 30
0.0
 11
1565.74871497096
 21
224.7329400213331
 31
0.0
  0
LINE
  5
1D13
330
1F
100
AcDbEntity
  8
0
  6
ByBlock
 62
     0
370
    -2
100
AcDbLine
 10
1563.24871497096
 20
224.0630675213331
 30
0.0
 11
1565.74871497096
 21
224.0630675213331
 31
0.0
  0
LINE
  5
1D14
330
1F
100
AcDbEntity
  8
0
  6
ByBlock
 62
     0
370
    -2
100
AcDbLine
 10
1659.748714970959
 20
224.7329400213331
 30
0.0
 11
1662.248714970959
 21
224.0630675213331
 31
0.0
  0
LINE
  5
1D15
330
1F
100
AcDbEntity
  8
0
  6
ByBlock
 62
     0
370
    -2
100
AcDbLine
 10
1662.248714970959
 20
224.0630675213331
 30
0.0
 11
1659.748714970959
 21
223.3931950213331
 31
0.0
  0
LINE
  5
1D16
330
1F
100
AcDbEntity
  8
0
  6
ByBlock
 62
     0
370
    -2
100
AcDbLine
 10
1662.248714970959
 20
224.0630675213331
 30
0.0
 11
1659.748714970959
 21
224.0630675213331
 31
0.0
  0
TEXT
  5
1D17
330
1F
100
AcDbEntity
  8
0
 62
     4
100
AcDbText
 10
1542.67123635071
 20
167.2865660201518
 30
0.0
 40
3.0
  1
36
 50
90.0
100
AcDbText
  0
LINE
  5
1D18
330
1F
100
AcDbEntity
  8
0
  6
ByBlock
 62
     0
370
    -2
100
AcDbLine
 10
1542.62636385071
 20
185.2865660201518
 30
0.0
 11
1543.29623635071
 21
187.7865660201518
 31
0.0
  0
LINE
  5
1D19
330
1F
100
AcDbEntity
  8
0
  6
ByBlock
 62
     0
370
    -2
100
AcDbLine
 10
1543.29623635071
 20
187.7865660201518
 30
0.0
 11
1543.96610885071
 21
185.2865660201518
 31
0.0
  0
LINE
  5
1D1A
330
1F
100
AcDbEntity
  8
0
  6
ByBlock
 62
     0
370
    -2
100
AcDbLine
 10
1543.29623635071
 20
187.7865660201518
 30
0.0
 11
1543.29623635071
 21
185.2865660201518
 31
0.0
  0
LINE
  5
1D1B
330
1F
100
AcDbEntity
  8
0
  6
ByBlock
 62
     0
370
    -2
100
AcDbLine
 10
1543.96610885071
 20
154.2865660201518
 30
0.0
 11
1543.29623635071
 21
151.7865660201518
 31
0.0
  0
LINE
  5
1D1C
330
1F
100
AcDbEntity
  8
0
  6
ByBlock
 62
     0
370
    -2
100
AcDbLine
 10
1543.29623635071
 20
151.7865660201518
 30
0.0
 11
1542.62636385071
 21
154.2865660201518
 31
0.0
  0
LINE
  5
1D1D
330
1F
100
AcDbEntity
  8
0
  6
ByBlock
 62
     0
370
    -2
100
AcDbLine
 10
1543.29623635071
 20
151.7865660201518
 30
0.0
 11
1543.29623635071
 21
154.2865660201518
 31
0.0
  0
TEXT
  5
1D1E
330
1F
100
AcDbEntity
  8
0
 62
     4
100
AcDbText
 10
1549.626866287151
 20
252.5885534267098
 30
0.0
 40
3.0
  1
16.8
 50
90.0
100
AcDbText
  0
LINE
  5
1D1F
330
1F
100
AcDbEntity
  8
0
  6
ByBlock
 62
     0
370
    -2
100
AcDbLine
 10
1549.581993787151
 20
263.213118237358
 30
0.0
 11
1550.251866287151
 21
265.713118237358
 31
0.0
  0
LINE
  5
1D20
330
1F
100
AcDbEntity
  8
0
  6
ByBlock
 62
     0
370
    -2
100
AcDbLine
 10
1550.251866287151
 20
265.713118237358
 30
0.0
 11
1550.921738787151
 21
263.213118237358
 31
0.0
  0
LINE
  5
1D21
330
1F
100
AcDbEntity
  8
0
  6
ByBlock
 62
     0
370
    -2
100
AcDbLine
 10
1550.251866287151
 20
265.713118237358
 30
0.0
 11
1550.251866287151
 21
263.213118237358
 31
0.0
  0
LINE
  5
1D22
330
1F
100
AcDbEntity
  8
0
  6
ByBlock
 62
     0
370
    -2
100
AcDbLine
 10
1550.921738787151
 20
251.4131182373579
 30
0.0
 11
1550.251866287151
 21
248.9131182373579
 31
0.0
  0
LINE
  5
1D23
330
1F
100
AcDbEntity
  8
0
  6
ByBlock
 62
     0
370
    -2
100
AcDbLine
 10
1550.251866287151
 20
248.9131182373579
 30
0.0
 11
1549.581993787151
 21
251.4131182373579
 31
0.0
  0
LINE
  5
1D24
330
1F
100
AcDbEntity
  8
0
  6
ByBlock
 62
     0
370
    -2
100
AcDbLine
 10
1550.251866287151
 20
248.9131182373579
 30
0.0
 11
1550.251866287151
 21
251.4131182373579
 31
0.0
  0
TEXT
  5
1D25
330
1F
100
AcDbEntity
  8
0
 62
     4
100
AcDbText
 10
1549.626866287151
 20
270.113118237358
 30
0.0
 40
3.0
  1
16.8
 50
90.0
100
AcDbText
  0
LINE
  5
1D26
330
1F
100
AcDbEntity
  8
0
  6
ByBlock
 62
     0
370
    -2
100
AcDbLine
 10
1550.921738787151
 20
268.213118237358
 30
0.0
 11
1550.251866287151
 21
265.713118237358
 31
0.0
  0
LINE
  5
1D27
330
1F
100
AcDbEntity
  8
0
  6
ByBlock
 62
     0
370
    -2
100
AcDbLine
 10
1550.251866287151
 20
265.713118237358
 30
0.0
 11
1549.581993787151
 21
268.213118237358
 31
0.0
  0
LINE
  5
1D28
330
1F
100
AcDbEntity
  8
0
  6
ByBlock
 62
     0
370
    -2
100
AcDbLine
 10
1550.251866287151
 20
265.713118237358
 30
0.0
 11
1550.251866287151
 21
268.213118237358
 31
0.0
  0
LINE
  5
1D29
330
1F
100
AcDbEntity
  8
0
  6
ByBlock
 62
     0
370
    -2
100
AcDbLine
 10
1549.581993787151
 20
280.0131182373581
 30
0.0
 11
1550.251866287151
 21
282.5131182373581
 31
0.0
  0
LINE
  5
1D2A
330
1F
100
AcDbEntity
  8
0
  6
ByBlock
 62
     0
370
    -2
100
AcDbLine
 10
1550.251866287151
 20
282.5131182373581
 30
0.0
 11
1550.921738787151
 21
280.0131182373581
 31
0.0
  0
LINE
  5
1D2B
330
1F
100
AcDbEntity
  8
0
  6
ByBlock
 62
     0
370
    -2
100
AcDbLine
 10
1550.251866287151
 20
282.5131182373581
 30
0.0
 11
1550.251866287151
 21
280.0131182373581
 31
0.0
  0
TEXT
  5
1D2C
330
1F
100
AcDbEntity
  8
0
 62
     4
100
AcDbText
 10
1540.195849458106
 20
261.2552920565537
 30
0.0
 40
3.0
  1
58
 50
90.0
100
AcDbText
  0
LINE
  5
1D2D
330
1F
100
AcDbEntity
  8
0
  6
ByBlock
 62
     0
370
    -2
100
AcDbLine
 10
1541.490721958106
 20
239.213118237358
 30
0.0
 11
1540.820849458106
 21
236.713118237358
 31
0.0
  0
LINE
  5
1D2E
330
1F
100
AcDbEntity
  8
0
  6
ByBlock
 62
     0
370
    -2
100
AcDbLine
 10
1540.820849458106
 20
236.713118237358
 30
0.0
 11
1540.150976958106
 21
239.213118237358
 31
0.0
  0
LINE
  5
1D2F
330
1F
100
AcDbEntity
  8
0
  6
ByBlock
 62
     0
370
    -2
100
AcDbLine
 10
1540.820849458106
 20
236.713118237358
 30
0.0
 11
1540.820849458106
 21
239.213118237358
 31
0.0
  0
LINE
  5
1D30
330
1F
100
AcDbEntity
  8
0
  6
ByBlock
 62
     0
370
    -2
100
AcDbLine
 10
1540.150976958106
 20
292.213118237358
 30
0.0
 11
1540.820849458106
 21
294.713118237358
 31
0.0
  0
LINE
  5
1D31
330
1F
100
AcDbEntity
  8
0
  6
ByBlock
 62
     0
370
    -2
100
AcDbLine
 10
1540.820849458106
 20
294.713118237358
 30
0.0
 11
1541.490721958106
 21
292.213118237358
 31
0.0
  0
LINE
  5
1D32
330
1F
100
AcDbEntity
  8
0
  6
ByBlock
 62
     0
370
    -2
100
AcDbLine
 10
1540.820849458106
 20
294.713118237358
 30
0.0
 11
1540.820849458106
 21
292.213118237358
 31
0.0
  0
TEXT
  5
1D33
330
1F
100
AcDbEntity
  8
0
 62
     4
100
AcDbText
 10
1618.053828301284
 20
307.5957449193105
 30
0.0
 40
3.0
  1
128
100
AcDbText
  0
LINE
  5
1D34
330
1F
100
AcDbEntity
  8
0
  6
ByBlock
 62
     0
370
    -2
100
AcDbLine
 10
1560.748714970959
 20
306.3008724193105
 30
0.0
 11
1558.248714970959
 21
306.9707449193105
 31
0.0
  0
LINE
  5
1D35
330
1F
100
AcDbEntity
  8
0
  6
ByBlock
 62
     0
370
    -2
100
AcDbLine
 10
1558.248714970959
 20
306.9707449193105
 30
0.0
 11
1560.748714970959
 21
307.6406174193105
 31
0.0
  0
LINE
  5
1D36
330
1F
100
AcDbEntity
  8
0
  6
ByBlock
 62
     0
370
    -2
100
AcDbLine
 10
1558.248714970959
 20
306.9707449193105
 30
0.0
 11
1560.748714970959
 21
306.9707449193105
 31
0.0
  0
LINE
  5
1D37
330
1F
100
AcDbEntity
  8
0
  6
ByBlock
 62
     0
370
    -2
100
AcDbLine
 10
1683.748714970959
 20
307.6406174193105
 30
0.0
 11
1686.248714970959
 21
306.9707449193105
 31
0.0
  0
LINE
  5
1D38
330
1F
100
AcDbEntity
  8
0
  6
ByBlock
 62
     0
370
    -2
100
AcDbLine
 10
1686.248714970959
 20
306.9707449193105
 30
0.0
 11
1683.748714970959
 21
306.3008724193105
 31
0.0
  0
LINE
  5
1D39
330
1F
100
AcDbEntity
  8
0
  6
ByBlock
 62
     0
370
    -2
100
AcDbLine
 10
1686.248714970959
 20
306.9707449193105
 30
0.0
 11
1683.748714970959
 21
306.9707449193105
 31
0.0
  0
ENDSEC
  0
SECTION
  2
OBJECTS
  0
DICTIONARY
  5
C
330
0
100
AcDbDictionary
281
     1
  3
ACAD_2007HEADERVARS_RT
350
1D3E
  3
ACAD_COLOR
350
73
  3
ACAD_GROUP
350
D
  3
ACAD_LAYOUT
350
1A
  3
ACAD_MATERIAL
350
72
  3
ACAD_MLEADERSTYLE
350
168
  3
ACAD_MLINESTYLE
350
17
  3
ACAD_PLOTSETTINGS
350
19
  3
ACAD_PLOTSTYLENAME
350
E
  3
ACAD_SCALELIST
350
156
  3
ACAD_TABLESTYLE
350
86
  3
ACAD_VISUALSTYLE
350
99
  3
ACDB_RECOMPOSE_DATA
350
1D3C
  3
AcDbVariableDictionary
350
66
  3
AEC_PROPERTY_SET_DEFS
350
FDD
  3
DWGPROPS
350
1D3D
  0
DICTIONARY
  5
AE9
330
8
100
AcDbDictionary
280
     1
281
     1
  0
DICTIONARY
  5
DD
330
2
100
AcDbDictionary
280
     1
281
     1
  3
ACAD_LAYERSTATES
360
DE
  0
DICTIONARY
  5
8E9
330
10
100
AcDbDictionary
280
     1
281
     1
  3
ADSK_XREC_LAYER_RECONCILED
360
14AF
  0
DICTIONARY
  5
324
330
1F
100
AcDbDictionary
280
     1
281
     1
  3
ACAD_SORTENTS
360
325
  0
DICTIONARY
  5
F2C
330
E22
100
AcDbDictionary
280
     1
281
     1
  3
ACAD_SORTENTS
360
F2D
  0
DICTIONARY
  5
1D7E
330
1C78
100
AcDbDictionary
280
     1
281
     1
  3
ACAD_MTEXT_RT
360
1D7F
  0
DICTIONARY
  5
1D3E
102
{ACAD_REACTORS
330
C
102
}
330
C
100
AcDbDictionary
281
     1
  3
DIMARCSYM
350
1D40
  3
DIMFXL
350
1D3F
  3
DIMJOGANG
350
1D41
  0
DICTIONARY
  5
73
102
{ACAD_REACTORS
330
C
102
}
330
C
100
AcDbDictionary
281
     1
  0
DICTIONARY
  5
D
102
{ACAD_REACTORS
330
C
102
}
330
C
100
AcDbDictionary
281
     1
  0
DICTIONARY
  5
1A
102
{ACAD_REACTORS
330
C
102
}
330
C
100
AcDbDictionary
281
     1
  3
Model
350
22
  3
レイアウト1
350
59
  3
レイアウト2
350
5E
  0
DICTIONARY
  5
72
102
{ACAD_REACTORS
330
C
102
}
330
C
100
AcDbDictionary
281
     1
  3
ByBlock
350
97
  3
ByLayer
350
96
  3
Global
350
98
  0
DICTIONARY
  5
168
102
{ACAD_REACTORS
330
C
102
}
330
C
100
AcDbDictionary
281
     1
  3
Standard
350
169
  0
DICTIONARY
  5
17
102
{ACAD_REACTORS
330
C
102
}
330
C
100
AcDbDictionary
281
     1
  3
Standard
350
18
  0
DICTIONARY
  5
19
102
{ACAD_REACTORS
330
C
102
}
330
C
100
AcDbDictionary
281
     1
  0
ACDBDICTIONARYWDFLT
  5
E
102
{ACAD_REACTORS
330
C
102
}
330
C
100
AcDbDictionary
281
     1
  3
Normal
350
F
100
AcDbDictionaryWithDefault
340
F
  0
DICTIONARY
  5
156
102
{ACAD_REACTORS
330
C
102
}
330
C
100
AcDbDictionary
281
     1
  3
A0
350
157
  3
A1
350
158
  3
A2
350
159
  3
A3
350
15A
  3
A4
350
15B
  3
A5
350
15C
  3
A6
350
15D
  3
A7
350
15E
  3
A8
350
15F
  3
A9
350
160
  3
B0
350
161
  3
B1
350
162
  3
B2
350
163
  3
B3
350
164
  3
B4
350
165
  3
B5
350
166
  3
B6
350
167
  0
DICTIONARY
  5
86
102
{ACAD_REACTORS
330
C
102
}
330
C
100
AcDbDictionary
281
     1
  3
Standard
350
87
  3
部品表
350
D97
  0
DICTIONARY
  5
99
102
{ACAD_REACTORS
330
C
102
}
330
C
100
AcDbDictionary
281
     1
  3
2dWireframe
350
9F
  3
3D Hidden
350
A1
  3
3dWireframe
350
A0
  3
Basic
350
9E
  3
Brighten
350
A5
  3
ColorChange
350
A9
  3
Conceptual
350
A2
  3
Dim
350
A4
  3
EdgeColorOff
350
155
  3
Facepattern
350
A8
  3
Flat
350
9A
  3
FlatWithEdges
350
9B
  3
Gouraud
350
9C
  3
GouraudWithEdges
350
9D
  3
Hidden
350
14D
  3
JitterOff
350
153
  3
Linepattern
350
A7
  3
OverhangOff
350
154
  3
Realistic
350
A3
  3
Shaded
350
152
  3
Shaded with edges
350
151
  3
Shades of Gray
350
14E
  3
Sketchy
350
14F
  3
Thicken
350
A6
  3
Wireframe
350
14C
  3
X-Ray
350
150
  0
XRECORD
  5
1D3C
102
{ACAD_REACTORS
330
C
102
}
330
C
100
AcDbXrecord
280
     1
 90
        1
330
87
330
D97
  0
DICTIONARY
  5
66
102
{ACAD_REACTORS
330
C
102
}
330
C
100
AcDbDictionary
281
     1
  3
CANNOSCALE
350
24A
  3
CMLEADERSTYLE
350
248
  3
CTABLESTYLE
350
89
  3
DIMASSOC
350
67
  3
HIDETEXT
350
6B
  3
INDEXCTL
350
B30
  3
LAYEREVAL
350
24C
  3
LAYERNOTIFY
350
24D
  3
LIGHTINGUNITS
350
24B
  3
MSLTSCALE
350
249
  3
SORTENTS
350
B2F
  3
XCLIPFRAME
350
1C7C
  0
DICTIONARY
  5
FDD
102
{ACAD_REACTORS
330
C
102
}
330
C
100
AcDbDictionary
281
     1
  0
XRECORD
  5
1D3D
102
{ACAD_REACTORS
330
C
102
}
330
C
100
AcDbXrecord
280
     1
  1
DWGPROPS COOKIE
  2

  3

  4

  6

  7

  8
imamura
  9

300
=
301
=
302
=
303
=
304
=
305
=
306
=
307
=
308
=
309
=
 40
0.1215580671296296
 41
2459499.453001158
 42
2459611.461087477
  1

 90
        0
  0
DICTIONARY
  5
DE
102
{ACAD_REACTORS
330
DD
102
}
330
DD
100
AcDbDictionary
281
     1
  0
XRECORD
  5
14AF
102
{ACAD_REACTORS
330
8E9
102
}
330
8E9
100
AcDbXrecord
280
     1
290
     1
  0
SORTENTSTABLE
  5
325
102
{ACAD_REACTORS
330
324
102
}
330
324
100
AcDbSortentsTable
330
1F
331
108F
  5
142A
331
108B
  5
1427
331
FEE
  5
13B3
331
139F
  5
1026
331
139B
  5
1021
331
FEA
  5
13AF
331
13CE
  5
1068
331
140D
  5
1161
331
1021
  5
13DB
331
1054
  5
1403
331
1397
  5
101C
331
FE6
  5
13AB
331
13CA
  5
1062
331
1409
  5
10FC
331
101D
  5
13D7
331
1019
  5
13D4
331
1405
  5
10E0
331
1393
  5
1016
331
FE2
  5
13A7
331
1401
  5
10AD
331
1CFF
  5
1D28
331
1CFB
  5
1D2E
331
1D36
  5
145D
331
1CF7
  5
1446
331
1D32
  5
1469
331
1447
  5
137B
331
1872
  5
1D34
331
1443
  5
1377
331
1866
  5
1D30
331
143F
  5
1373
331
143B
  5
136F
331
12D8
  5
1D06
331
1087
  5
1423
331
1083
  5
1421
331
138F
  5
1010
331
138B
  5
1009
331
13FD
  5
10A9
331
1011
  5
13CE
331
1387
  5
1000
331
13C6
  5
1057
331
13F9
  5
109E
331
1009
  5
13C9
331
1048
  5
13FB
331
1434
  5
1320
331
1383
  5
FFC
331
13C2
  5
1053
331
13F5
  5
1099
331
13F1
  5
1095
331
1430
  5
131C
331
1D2E
  5
146E
331
1D2A
  5
1CC8
331
1D26
  5
1CCA
331
1CEF
  5
1461
331
1D22
  5
1CD1
331
1CEB
  5
187E
331
1476
  5
1D23
331
1472
  5
FF3
331
131F
  5
1D1E
331
12D0
  5
1D05
331
146E
  5
13A2
331
131B
  5
1D1A
331
12CC
  5
1D04
331
146A
  5
139E
331
10AE
  5
1440
331
1077
  5
1418
331
10AA
  5
143C
331
13BE
  5
104D
331
137F
  5
FF8
331
1073
  5
1415
331
137B
  5
FF4
331
13BA
  5
1044
331
13ED
  5
1090
331
142C
  5
1316
331
103C
  5
13F4
331
106B
  5
1410
331
1377
  5
FEF
331
13B6
  5
103E
331
13E9
  5
108B
331
1428
  5
1307
331
1038
  5
13F0
331
1424
  5
12F4
331
1373
  5
FEB
331
13B2
  5
103A
331
13E5
  5
1087
331
13E1
  5
1082
331
1420
  5
12EE
331
10FC
  5
1867
331
10F8
  5
1474
331
1D1E
  5
1CD7
331
1D1A
  5
1CE0
331
1CE3
  5
1CCE
331
1D16
  5
1CE7
331
1CDF
  5
1CDA
331
1D12
  5
1CE9
331
1317
  5
1D18
331
1466
  5
139A
331
1462
  5
1396
331
145E
  5
1392
331
145A
  5
138E
331
1067
  5
140D
331
109E
  5
1437
331
109A
  5
1434
331
13AE
  5
1036
331
FFD
  5
13C2
331
1034
  5
13EC
331
136F
  5
FE7
331
1063
  5
140A
331
105F
  5
1407
331
1096
  5
1430
331
13AA
  5
1032
331
FF9
  5
13BE
331
1030
  5
13E8
331
13DD
  5
107E
331
141C
  5
12E2
331
136B
  5
FE3
331
102C
  5
13E4
331
1092
  5
142D
331
13A6
  5
102E
331
FF5
  5
13BA
331
13D9
  5
1078
331
1418
  5
12DD
331
FF1
  5
13B6
331
1028
  5
13E0
331
1414
  5
12D8
331
13A2
  5
102A
331
13D5
  5
1073
331
13D1
  5
106B
331
1410
  5
11E5
331
1D0E
  5
1CF3
331
1CD7
  5
1CE2
331
1D0A
  5
1CF5
331
1CD3
  5
1CF1
331
1D06
  5
1CFC
331
1CCB
  5
1CF9
331
1307
  5
1D13
331
1456
  5
138A
331
1452
  5
1386
331
187D
  5
1D37
331
144E
  5
1382
331
12F3
  5
1D0E
331
144A
  5
137E
331
108E
  5
1429
331
108A
  5
1426
331
FED
  5
13B2
331
1024
  5
13DD
331
139E
  5
1025
331
139A
  5
1020
331
FE9
  5
13AE
331
13CD
  5
1067
331
140C
  5
1128
331
1020
  5
13DA
331
1053
  5
1402
331
1396
  5
101B
331
FE5
  5
13AA
331
13C9
  5
1061
331
1408
  5
10FA
331
1018
  5
13D3
331
1404
  5
10B0
331
1392
  5
1014
331
FE1
  5
13A6
331
1400
  5
10AC
331
1CFE
  5
1D2D
331
1CC7
  5
1D27
331
1CC3
  5
1D25
331
1D39
  5
1452
331
1D35
  5
145A
331
1CF6
  5
1445
331
1D31
  5
1468
331
1446
  5
137A
331
1871
  5
1D33
331
1442
  5
1376
331
1865
  5
1D2F
331
12DF
  5
1D09
331
143E
  5
1372
331
12DB
  5
1D08
331
143A
  5
136E
331
1082
  5
1422
331
1014
  5
13D1
331
138E
  5
100F
331
104F
  5
13FF
331
107E
  5
141D
331
138A
  5
1004
331
13FC
  5
10A1
331
1010
  5
13CD
331
104B
  5
13FC
331
107A
  5
141A
331
1437
  5
136B
331
1386
  5
FFF
331
13C5
  5
1056
331
13F8
  5
109D
331
13F4
  5
1098
331
1433
  5
131F
331
1382
  5
FFB
331
13C1
  5
1051
331
13F0
  5
1093
331
1D2D
  5
146A
331
1D29
  5
187F
331
1D25
  5
1CCD
331
1D21
  5
1CD6
331
1CEA
  5
187D
331
1475
  5
1D22
331
1471
  5
13A5
331
131E
  5
1D1D
331
146D
  5
13A1
331
131A
  5
1D19
331
12CB
  5
1D03
331
1469
  5
139D
331
10AD
  5
143F
331
1076
  5
1417
331
1072
  5
1414
331
10A9
  5
143B
331
13BD
  5
104A
331
1004
  5
13C8
331
1043
  5
13F9
331
142F
  5
131B
331
137E
  5
FF7
331
137A
  5
FF2
331
13B9
  5
1041
331
1000
  5
13C5
331
13EC
  5
108F
331
142B
  5
1315
331
103F
  5
13F7
331
103B
  5
13F3
331
1427
  5
1306
331
1376
  5
FEE
331
13B5
  5
103D
331
13E8
  5
108A
331
10A1
  5
143A
331
1423
  5
12F3
331
13B1
  5
1039
331
13E4
  5
1085
331
13E0
  5
1081
331
1D1D
  5
1CDD
331
1D19
  5
1CDF
331
1D15
  5
1CE6
331
1CDE
  5
1CD9
331
1D11
  5
1CE8
331
1316
  5
1D17
331
1465
  5
1399
331
1461
  5
1395
331
145D
  5
1391
331
1459
  5
138D
331
109D
  5
1436
331
1037
  5
13EF
331
1066
  5
140C
331
1099
  5
1433
331
13AD
  5
1035
331
FFC
  5
13C1
331
1033
  5
13EB
331
141F
  5
12E6
331
136E
  5
FE6
331
1095
  5
142F
331
136A
  5
FE2
331
13A9
  5
1031
331
FF8
  5
13BD
331
13DC
  5
107C
331
141B
  5
12E1
331
102F
  5
13E7
331
102B
  5
13E3
331
1091
  5
142C
331
13A5
  5
102D
331
FF4
  5
13B9
331
13D8
  5
1076
331
1417
  5
12DB
331
FF0
  5
13B5
331
1413
  5
12D0
331
13A1
  5
1029
331
13D4
  5
1072
331
13D0
  5
106A
331
1D0D
  5
1CF2
331
1D09
  5
1CF8
331
1CD2
  5
1CF0
331
1D05
  5
1D01
331
1D01
  5
1D2A
331
1306
  5
1D12
331
1455
  5
1389
331
1451
  5
1385
331
187C
  5
1D36
331
144D
  5
1381
331
1449
  5
137D
331
1027
  5
13DF
331
1089
  5
1425
331
139D
  5
1023
331
FEC
  5
13B1
331
140F
  5
11CD
331
1023
  5
13DC
331
1399
  5
101F
331
FE8
  5
13AD
331
13CC
  5
1065
331
140B
  5
10FE
331
101F
  5
13D9
331
101B
  5
13D6
331
1052
  5
1401
331
1395
  5
101A
331
FE4
  5
13A9
331
13C8
  5
105F
331
1407
  5
10F9
331
1403
  5
10AF
331
1391
  5
1012
331
1CFD
  5
1D2C
331
1CC6
  5
1D26
331
1D38
  5
1451
331
1D34
  5
1459
331
1CF5
  5
1444
331
1D30
  5
1464
331
1CF1
  5
1463
331
1874
  5
1D35
331
12E6
  5
1D0C
331
1445
  5
1379
331
1870
  5
1D32
331
12E2
  5
1D0B
331
1441
  5
1375
331
143D
  5
1371
331
12DA
  5
1D07
331
1439
  5
136D
331
1017
  5
13D2
331
1085
  5
141F
331
1081
  5
13D0
331
13FF
  5
10AB
331
138D
  5
100E
331
104E
  5
13FE
331
107D
  5
141C
331
1389
  5
1003
331
13FB
  5
10A0
331
100F
  5
13CC
331
100B
  5
13CA
331
1079
  5
1419
331
1436
  5
136A
331
1385
  5
FFE
331
13C4
  5
1055
331
13F7
  5
109C
331
13F3
  5
1097
331
1432
  5
131E
331
1381
  5
FFA
331
13C0
  5
1050
331
1D2C
  5
1470
331
1D28
  5
1CCC
331
1D24
  5
1CD3
331
1D20
  5
1CD5
331
1CE9
  5
1871
331
1474
  5
1D21
331
1470
  5
13A4
331
131D
  5
1D1C
331
146C
  5
13A0
331
1468
  5
139C
331
10AC
  5
143E
331
1046
  5
13FA
331
1071
  5
1413
331
13BC
  5
1048
331
1003
  5
13C7
331
1042
  5
13F8
331
13EF
  5
1092
331
142E
  5
131A
331
137D
  5
FF6
331
103E
  5
13F6
331
106D
  5
1411
331
1379
  5
FF1
331
13B8
  5
1040
331
13EB
  5
108E
331
142A
  5
1309
331
103A
  5
13F2
331
1069
  5
140F
331
1426
  5
1305
331
1375
  5
FED
331
13B4
  5
103C
331
13E7
  5
1089
331
10A0
  5
1439
331
13E3
  5
1084
331
1422
  5
12F2
331
13B0
  5
1038
331
10FA
  5
1476
331
1D1C
  5
1CDC
331
1CE5
  5
1CD0
331
1D18
  5
1CDE
331
1D14
  5
1CE5
331
1CDD
  5
1CD8
331
1D10
  5
1CEB
331
1CD9
  5
1CE4
331
1315
  5
1D16
331
1464
  5
1398
331
1460
  5
1394
331
145C
  5
1390
331
1309
  5
1D15
331
1458
  5
138C
331
109C
  5
1435
331
FFF
  5
13C4
331
1036
  5
13EE
331
1065
  5
140B
331
1061
  5
1409
331
1098
  5
1432
331
13AC
  5
1034
331
FFB
  5
13C0
331
1032
  5
13EA
331
13DF
  5
1080
331
141E
  5
12E5
331
136D
  5
FE5
331
105D
  5
1406
331
1369
  5
FE1
331
13A8
  5
1030
331
FF7
  5
13BC
331
13DB
  5
107B
331
141A
  5
12E0
331
102E
  5
13E6
331
102A
  5
13E2
331
1059
  5
1405
331
1090
  5
142B
331
1416
  5
12DA
331
13A4
  5
102C
331
13D7
  5
1075
331
FF3
  5
13B8
331
1412
  5
12CC
331
13A0
  5
1028
331
13D3
  5
106F
331
1D0C
  5
1CF7
331
1D08
  5
1CFE
331
1CD1
  5
1CEC
331
1D04
  5
1D00
331
1CCD
  5
1CFB
331
1D00
  5
1D29
331
1305
  5
1D11
331
1454
  5
1388
331
187F
  5
1D39
331
1450
  5
1384
331
144C
  5
1380
331
1448
  5
137C
331
108C
  5
1428
331
FEF
  5
13B4
331
1026
  5
13DE
331
1088
  5
1424
331
139C
  5
1022
331
FEB
  5
13B0
331
13CF
  5
1069
331
140E
  5
11A3
331
1055
  5
1404
331
1398
  5
101D
331
FE7
  5
13AC
331
13CB
  5
1063
331
140A
  5
10FD
331
101E
  5
13D8
331
101A
  5
13D5
331
1051
  5
1400
331
1394
  5
1019
331
FE3
  5
13A8
331
1406
  5
10F8
331
1402
  5
10AE
331
1390
  5
1011
331
1CFC
  5
1D2B
331
1D37
  5
1450
331
1D33
  5
145F
331
1CF0
  5
1462
331
1444
  5
1378
331
1867
  5
1D31
331
12E1
  5
1D0A
331
1440
  5
1374
331
143C
  5
1370
331
1438
  5
136C
331
1084
  5
1420
331
1080
  5
141E
331
138C
  5
100B
331
13FE
  5
10AA
331
1012
  5
13CF
331
104D
  5
13FD
331
107C
  5
141B
331
1388
  5
1002
331
13C7
  5
105B
331
13FA
  5
109F
331
100E
  5
13CB
331
1435
  5
1369
331
1384
  5
FFD
331
13C3
  5
1054
331
13F6
  5
109A
331
13F2
  5
1096
331
1431
  5
131D
331
1380
  5
FF9
331
1D2F
  5
146F
331
1D2B
  5
1CC9
331
1D27
  5
1CCB
331
1D23
  5
1CD2
331
1477
  5
1D24
331
1473
  5
1D20
331
146F
  5
13A3
331
131C
  5
1D1B
331
146B
  5
139F
331
10AF
  5
1441
331
10AB
  5
143D
331
13BF
  5
104F
331
1074
  5
1416
331
1070
  5
1412
331
13BB
  5
1045
331
1002
  5
13C6
331
13EE
  5
1091
331
142D
  5
1317
331
137C
  5
FF5
331
103D
  5
13F5
331
1378
  5
FF0
331
13B7
  5
103F
331
13EA
  5
108C
331
1429
  5
1308
331
1039
  5
13F1
331
1068
  5
140E
331
1425
  5
1304
331
1374
  5
FEC
331
13B3
  5
103B
331
13E6
  5
1088
331
13E2
  5
1083
331
1421
  5
12F0
331
1370
  5
FE8
331
10FD
  5
1870
331
10F9
  5
1475
331
1D1F
  5
1CD4
331
1D1B
  5
1CDB
331
1CE4
  5
1CCF
331
1D17
  5
1CE1
331
1D13
  5
1CEA
331
1CD8
  5
1CE3
331
1467
  5
139B
331
1463
  5
1397
331
145F
  5
1393
331
145B
  5
138F
331
1308
  5
1D14
331
109F
  5
1438
331
FFE
  5
13C3
331
1035
  5
13ED
331
13AF
  5
1037
331
1060
  5
1408
331
1097
  5
1431
331
13AB
  5
1033
331
FFA
  5
13BF
331
1031
  5
13E9
331
13DE
  5
107F
331
141D
  5
12E3
331
136C
  5
FE4
331
102D
  5
13E5
331
1093
  5
142E
331
13A7
  5
102F
331
FF6
  5
13BB
331
13DA
  5
1079
331
1419
  5
12DF
331
1029
  5
13E1
331
1415
  5
12D9
331
13A3
  5
102B
331
13D6
  5
1074
331
FF2
  5
13B7
331
1320
  5
1D1F
331
13D2
  5
106D
331
1411
  5
12CB
331
1D0F
  5
1CF4
331
1D0B
  5
1CF6
331
1D07
  5
1CFD
331
1D03
  5
1CFF
331
1CCC
  5
1CFA
331
1457
  5
138B
331
1304
  5
1D10
331
1453
  5
1387
331
187E
  5
1D38
331
144F
  5
1383
331
12F4
  5
1D0F
331
144B
  5
137F
331
12F0
  5
1D0D
  0
SORTENTSTABLE
  5
F2D
102
{ACAD_REACTORS
330
F2C
102
}
330
F2C
100
AcDbSortentsTable
330
E22
  0
XRECORD
  5
1D7F
102
{ACAD_REACTORS
330
1D7E
102
}
330
1D7E
100
AcDbXrecord
280
     1
 40
310.0
  1
2-\U+22054穴
  0
XRECORD
  5
1D40
102
{ACAD_REACTORS
330
1D3E
102
}
330
1D3E
100
AcDbXrecord
280
     1
 70
     2
  0
XRECORD
  5
1D3F
102
{ACAD_REACTORS
330
1D3E
102
}
330
1D3E
100
AcDbXrecord
280
     1
 40
1.25
  0
XRECORD
  5
1D41
102
{ACAD_REACTORS
330
1D3E
102
}
330
1D3E
100
AcDbXrecord
280
     1
 40
1.570796326794896
  0
LAYOUT
  5
22
102
{ACAD_XDICTIONARY
360
1D42
102
}
102
{ACAD_REACTORS
330
1A
102
}
330
1A
100
AcDbPlotSettings
  1

  2
none_device
  4
ANSI_A_(8.50_x_11.00_Inches)
  6

 40
6.349999904632567
 41
19.04999923706055
 42
6.350006103515625
 43
19.04998779296875
 44
215.8999938964844
 45
279.3999938964844
 46
0.0
 47
0.0
 48
0.0
 49
0.0
140
0.0
141
0.0
142
1.0
143
2.584895464708373
 70
 11952
 72
     0
 73
     1
 74
     0
  7

 75
     0
147
0.3868628397755418
148
0.0
149
0.0
100
AcDbLayout
  1
Model
 70
     1
 71
     0
 10
0.0
 20
0.0
 11
12.0
 21
9.0
 12
0.0
 22
0.0
 32
0.0
 14
0.0
 24
0.0
 34
0.0
 15
0.0
 25
0.0
 35
0.0
146
0.0
 13
0.0
 23
0.0
 33
0.0
 16
1.0
 26
0.0
 36
0.0
 17
0.0
 27
1.0
 37
0.0
 76
     0
330
1F
331
94
  0
LAYOUT
  5
59
102
{ACAD_XDICTIONARY
360
1D44
102
}
102
{ACAD_REACTORS
330
1A
102
}
330
1A
100
AcDbPlotSettings
  1

  2
None
  4

  6

 40
0.0
 41
0.0
 42
0.0
 43
0.0
 44
0.0
 45
0.0
 46
0.0
 47
0.0
 48
0.0
 49
0.0
140
0.0
141
0.0
142
1.0
143
1.0
 70
   688
 72
     0
 73
     0
 74
     5
  7

 75
    16
147
1.0
148
0.0
149
0.0
100
AcDbLayout
  1
レイアウト1
 70
     1
 71
     1
 10
0.0
 20
0.0
 11
12.0
 21
9.0
 12
0.0
 22
0.0
 32
0.0
 14
0.0
 24
0.0
 34
0.0
 15
0.0
 25
0.0
 35
0.0
146
0.0
 13
0.0
 23
0.0
 33
0.0
 16
1.0
 26
0.0
 36
0.0
 17
0.0
 27
1.0
 37
0.0
 76
     0
330
58
  0
LAYOUT
  5
5E
102
{ACAD_XDICTIONARY
360
1D46
102
}
102
{ACAD_REACTORS
330
1A
102
}
330
1A
100
AcDbPlotSettings
  1

  2
None
  4

  6

 40
0.0
 41
0.0
 42
0.0
 43
0.0
 44
0.0
 45
0.0
 46
0.0
 47
0.0
 48
0.0
 49
0.0
140
0.0
141
0.0
142
1.0
143
1.0
 70
   688
 72
     0
 73
     0
 74
     5
  7

 75
    16
147
1.0
148
0.0
149
0.0
100
AcDbLayout
  1
レイアウト2
 70
     1
 71
     2
 10
0.0
 20
0.0
 11
12.0
 21
9.0
 12
0.0
 22
0.0
 32
0.0
 14
0.0
 24
0.0
 34
0.0
 15
0.0
 25
0.0
 35
0.0
146
0.0
 13
0.0
 23
0.0
 33
0.0
 16
1.0
 26
0.0
 36
0.0
 17
0.0
 27
1.0
 37
0.0
 76
     0
330
5D
  0
MATERIAL
  5
97
102
{ACAD_XDICTIONARY
360
155A
102
}
102
{ACAD_REACTORS
330
72
102
}
330
72
100
AcDbMaterial
  1
ByBlock
 73
     1
 78
     1
172
     1
176
     1
270
     1
274
     1
  0
MATERIAL
  5
96
102
{ACAD_XDICTIONARY
360
1558
102
}
102
{ACAD_REACTORS
330
72
102
}
330
72
100
AcDbMaterial
  1
ByLayer
 73
     1
 78
     1
172
     1
176
     1
270
     1
274
     1
  0
MATERIAL
  5
98
102
{ACAD_XDICTIONARY
360
155C
102
}
102
{ACAD_REACTORS
330
72
102
}
330
72
100
AcDbMaterial
  1
Global
 73
     1
 78
     1
172
     1
176
     1
270
     1
274
     1
  0
MLEADERSTYLE
  5
169
102
{ACAD_REACTORS
330
168
102
}
330
168
100
AcDbMLeaderStyle
170
     2
171
     1
172
     0
 90
        2
 40
0.0
 41
0.0
173
     1
 91
-1056964608
340
14
 92
       -2
290
     1
 42
2.0
291
     1
 43
0.36
  3
Standard
 44
4.0
300

342
11
174
     1
178
     6
175
     1
176
     0
 93
-1056964608
 45
4.0
292
     0
297
     0
 46
4.0
 94
-1056964608
 47
1.0
 49
1.0
140
1.0
293
     1
141
0.0
294
     1
177
     0
142
1.0
295
     0
296
     0
143
0.125
1001
ACAD_MLEADERVER
1070
     2
  0
MLINESTYLE
  5
18
102
{ACAD_REACTORS
330
17
102
}
330
17
100
AcDbMlineStyle
  2
STANDARD
 70
     0
  3

 62
   256
 51
90.0
 52
90.0
 71
     2
 49
0.5
 62
   256
  6
BYLAYER
 49
-0.5
 62
   256
  6
BYLAYER
  0
ACDBPLACEHOLDER
  5
F
102
{ACAD_REACTORS
330
E
102
}
330
E
  0
SCALE
  5
157
102
{ACAD_REACTORS
330
156
102
}
330
156
100
AcDbScale
 70
     0
300
1:1
140
1.0
141
1.0
290
     1
  0
SCALE
  5
158
102
{ACAD_REACTORS
330
156
102
}
330
156
100
AcDbScale
 70
     0
300
1:2
140
1.0
141
2.0
290
     0
  0
SCALE
  5
159
102
{ACAD_REACTORS
330
156
102
}
330
156
100
AcDbScale
 70
     0
300
1:4
140
1.0
141
4.0
290
     0
  0
SCALE
  5
15A
102
{ACAD_REACTORS
330
156
102
}
330
156
100
AcDbScale
 70
     0
300
1:5
140
1.0
141
5.0
290
     0
  0
SCALE
  5
15B
102
{ACAD_REACTORS
330
156
102
}
330
156
100
AcDbScale
 70
     0
300
1:8
140
1.0
141
8.0
290
     0
  0
SCALE
  5
15C
102
{ACAD_REACTORS
330
156
102
}
330
156
100
AcDbScale
 70
     0
300
1:10
140
1.0
141
10.0
290
     0
  0
SCALE
  5
15D
102
{ACAD_REACTORS
330
156
102
}
330
156
100
AcDbScale
 70
     0
300
1:16
140
1.0
141
16.0
290
     0
  0
SCALE
  5
15E
102
{ACAD_REACTORS
330
156
102
}
330
156
100
AcDbScale
 70
     0
300
1:20
140
1.0
141
20.0
290
     0
  0
SCALE
  5
15F
102
{ACAD_REACTORS
330
156
102
}
330
156
100
AcDbScale
 70
     0
300
1:30
140
1.0
141
30.0
290
     0
  0
SCALE
  5
160
102
{ACAD_REACTORS
330
156
102
}
330
156
100
AcDbScale
 70
     0
300
1:40
140
1.0
141
40.0
290
     0
  0
SCALE
  5
161
102
{ACAD_REACTORS
330
156
102
}
330
156
100
AcDbScale
 70
     0
300
1:50
140
1.0
141
50.0
290
     0
  0
SCALE
  5
162
102
{ACAD_REACTORS
330
156
102
}
330
156
100
AcDbScale
 70
     0
300
1:100
140
1.0
141
100.0
290
     0
  0
SCALE
  5
163
102
{ACAD_REACTORS
330
156
102
}
330
156
100
AcDbScale
 70
     0
300
2:1
140
2.0
141
1.0
290
     0
  0
SCALE
  5
164
102
{ACAD_REACTORS
330
156
102
}
330
156
100
AcDbScale
 70
     0
300
4:1
140
4.0
141
1.0
290
     0
  0
SCALE
  5
165
102
{ACAD_REACTORS
330
156
102
}
330
156
100
AcDbScale
 70
     0
300
8:1
140
8.0
141
1.0
290
     0
  0
SCALE
  5
166
102
{ACAD_REACTORS
330
156
102
}
330
156
100
AcDbScale
 70
     0
300
10:1
140
10.0
141
1.0
290
     0
  0
SCALE
  5
167
102
{ACAD_REACTORS
330
156
102
}
330
156
100
AcDbScale
 70
     0
300
100:1
140
100.0
141
1.0
290
     0
  0
TABLESTYLE
  5
87
102
{ACAD_XDICTIONARY
360
AE1
102
}
102
{ACAD_REACTORS
330
86
102
}
330
86
100
AcDbTableStyle
  3
Standard
 70
     0
 71
     0
 40
0.06
 41
0.06
280
     0
281
     0
  7
Standard
140
0.18
170
     2
 62
     0
 63
     7
283
     0
274
    -2
284
     1
 64
     0
275
    -2
285
     1
 65
     0
276
    -2
286
     1
 66
     0
277
    -2
287
     1
 67
     0
278
    -2
288
     1
 68
     0
279
    -2
289
     1
 69
     0
  7
Standard
140
0.25
170
     5
 62
     0
 63
     7
283
     0
274
    -2
284
     1
 64
     0
275
    -2
285
     1
 65
     0
276
    -2
286
     1
 66
     0
277
    -2
287
     1
 67
     0
278
    -2
288
     1
 68
     0
279
    -2
289
     1
 69
     0
  7
Standard
140
0.18
170
     5
 62
     0
 63
     7
283
     0
274
    -2
284
     1
 64
     0
275
    -2
285
     1
 65
     0
276
    -2
286
     1
 66
     0
277
    -2
287
     1
 67
     0
278
    -2
288
     1
 68
     0
279
    -2
289
     1
 69
     0
  0
TABLESTYLE
  5
D97
102
{ACAD_XDICTIONARY
360
D98
102
}
102
{ACAD_REACTORS
330
86
102
}
330
86
100
AcDbTableStyle
  3
Standard
 70
     1
 71
     0
 40
1.5
 41
0.5
280
     0
281
     0
  7
高3.2
140
0.18
170
     7
 62
     3
 63
     7
283
     0
274
    -2
284
     1
 64
     3
275
    -2
285
     1
 65
     7
276
    -2
286
     1
 66
     3
277
    -2
287
     1
 67
     3
278
    -2
288
     1
 68
     7
279
    -2
289
     1
 69
     3
  7
高3.2
140
0.25
170
     8
 62
     3
 63
     7
283
     0
274
    -2
284
     1
 64
     0
275
    -2
285
     1
 65
     0
276
    -2
286
     1
 66
     0
277
    -2
287
     1
 67
     0
278
    -2
288
     1
 68
     0
279
    -2
289
     1
 69
     0
  7
高3.2
140
0.18
170
     7
 62
     3
 63
     7
283
     0
274
    -2
284
     1
 64
     3
275
    -2
285
     1
 65
     7
276
    -2
286
     1
 66
     3
277
    -2
287
     1
 67
     3
278
    -2
288
     1
 68
     7
279
    -2
289
     1
 69
     3
  0
VISUALSTYLE
  5
9F
102
{ACAD_XDICTIONARY
360
1D53
102
}
102
{ACAD_REACTORS
330
99
102
}
330
99
100
AcDbVisualStyle
  2

 70
     4
 71
     0
 72
     2
 73
     1
 90
        0
 40
-0.6
 41
-30.0
 62
     5
 63
     7
 74
     1
 91
        4
 64
     7
 65
   257
 75
     1
175
     1
 42
1.0
 92
        0
 66
   257
 43
1.0
 76
     1
 77
     6
 78
     2
 67
     7
 79
     5
170
     0
171
     0
290
     0
174
     0
 93
        1
 44
0.0
173
     0
291
     0
 45
0.0
1001
ACAD
1000
AcDbSavedByObjectVersion
1070
     0
  0
VISUALSTYLE
  5
A1
102
{ACAD_XDICTIONARY
360
1D57
102
}
102
{ACAD_REACTORS
330
99
102
}
330
99
100
AcDbVisualStyle
  2

 70
     6
 71
     1
 72
     2
 73
     2
 90
        0
 40
-0.6
 41
-30.0
 62
     5
 63
     7
 74
     2
 91
        2
 64
     7
 65
   257
 75
     2
175
     1
 42
40.0
 92
        0
 66
   257
 43
1.0
 76
     1
 77
     6
 78
     2
 67
     7
 79
     3
170
     0
171
     0
290
     0
174
     0
 93
        1
 44
0.0
173
     0
291
     0
 45
0.0
1001
ACAD
1000
AcDbSavedByObjectVersion
1070
     0
  0
VISUALSTYLE
  5
A0
102
{ACAD_XDICTIONARY
360
1D55
102
}
102
{ACAD_REACTORS
330
99
102
}
330
99
100
AcDbVisualStyle
  2

 70
     5
 71
     0
 72
     2
 73
     1
 90
        0
 40
-0.6
 41
-30.0
 62
     5
 63
     7
 74
     1
 91
        4
 64
     7
 65
   257
 75
     1
175
     1
 42
1.0
 92
        0
 66
   257
 43
1.0
 76
     1
 77
     6
 78
     2
 67
     7
 79
     5
170
     0
171
     0
290
     0
174
     0
 93
        1
 44
0.0
173
     0
291
     0
 45
0.0
1001
ACAD
1000
AcDbSavedByObjectVersion
1070
     0
  0
VISUALSTYLE
  5
9E
102
{ACAD_XDICTIONARY
360
1D51
102
}
102
{ACAD_REACTORS
330
99
102
}
330
99
100
AcDbVisualStyle
  2

 70
     7
 71
     1
 72
     0
 73
     1
 90
        0
 40
-0.6
 41
-30.0
 62
     5
 63
     7
 74
     0
 91
        4
 64
     7
 65
   257
 75
     1
175
     1
 42
1.0
 92
        8
 66
     7
 43
1.0
 76
     1
 77
     6
 78
     2
 67
     7
 79
     5
170
     0
171
     0
290
     0
174
     0
 93
        1
 44
0.0
173
     0
291
     1
 45
0.0
1001
ACAD
1000
AcDbSavedByObjectVersion
1070
     0
  0
VISUALSTYLE
  5
A5
102
{ACAD_XDICTIONARY
360
1D5F
102
}
102
{ACAD_REACTORS
330
99
102
}
330
99
100
AcDbVisualStyle
  2

 70
    12
 71
     2
 72
     2
 73
     1
 90
        0
 40
-0.6
 41
-30.0
 62
     5
 63
     7
 74
     1
 91
        4
 64
     7
 65
   257
 75
     1
175
     1
 42
1.0
 92
        8
 66
     7
 43
1.0
 76
     1
 77
     6
 78
     2
 67
     7
 79
     5
170
     0
171
     0
290
     0
174
     0
 93
        1
 44
50.0
173
     0
291
     1
 45
0.0
1001
ACAD
1000
AcDbSavedByObjectVersion
1070
     0
  0
VISUALSTYLE
  5
A9
102
{ACAD_XDICTIONARY
360
1D67
102
}
102
{ACAD_REACTORS
330
99
102
}
330
99
100
AcDbVisualStyle
  2

 70
    16
 71
     2
 72
     2
 73
     3
 90
        0
 40
-0.6
 41
-30.0
 62
     5
 63
     8
 74
     1
 91
        4
 64
     7
 65
   257
 75
     1
175
     1
 42
1.0
 92
        8
 66
     8
 43
1.0
 76
     1
 77
     6
 78
     2
 67
     7
 79
     5
170
     0
171
     0
290
     0
174
     0
 93
        1
 44
0.0
173
     0
291
     1
 45
0.0
1001
ACAD
1000
AcDbSavedByObjectVersion
1070
     0
  0
VISUALSTYLE
  5
A2
102
{ACAD_XDICTIONARY
360
1D59
102
}
102
{ACAD_REACTORS
330
99
102
}
330
99
100
AcDbVisualStyle
  2

 70
     9
 71
     3
 72
     2
 73
     1
 90
        0
 40
-0.6
 41
-30.0
 62
     5
 63
     7
 74
     2
 91
        2
 64
     7
 65
   257
 75
     1
175
     1
 42
40.0
 92
        8
 66
     7
 43
1.0
 76
     1
 77
     6
 78
     2
 67
     7
 79
     3
170
     0
171
     0
290
     0
174
     0
 93
        1
 44
0.0
173
     0
291
     0
 45
0.0
1001
ACAD
1000
AcDbSavedByObjectVersion
1070
     0
  0
VISUALSTYLE
  5
A4
102
{ACAD_XDICTIONARY
360
1D5D
102
}
102
{ACAD_REACTORS
330
99
102
}
330
99
100
AcDbVisualStyle
  2

 70
    11
 71
     2
 72
     2
 73
     1
 90
        0
 40
-0.6
 41
-30.0
 62
     5
 63
     7
 74
     1
 91
        4
 64
     7
 65
   257
 75
     1
175
     1
 42
1.0
 92
        8
 66
     7
 43
1.0
 76
     1
 77
     6
 78
     2
 67
     7
 79
     5
170
     0
171
     0
290
     0
174
     0
 93
        1
 44
-50.0
173
     0
291
     1
 45
0.0
1001
ACAD
1000
AcDbSavedByObjectVersion
1070
     0
  0
VISUALSTYLE
  5
155
102
{ACAD_XDICTIONARY
360
1D7B
102
}
102
{ACAD_REACTORS
330
99
102
}
330
99
100
AcDbVisualStyle
  2

 70
    22
 71
     2
 72
     2
 73
     0
 90
        0
 40
-0.6
 41
-30.0
 62
     5
 63
     7
 74
     1
 91
        4
 64
     7
 65
   257
 75
     1
175
     1
 42
1.0
 92
        8
 66
     7
 43
1.0
 76
     1
 77
     6
 78
     2
 67
     7
 79
     5
170
     0
171
     0
290
     0
174
     0
 93
        1
 44
0.0
173
     0
291
     1
 45
0.0
1001
ACAD
1000
AcDbSavedByObjectVersion
1070
     0
  0
VISUALSTYLE
  5
A8
102
{ACAD_XDICTIONARY
360
1D65
102
}
102
{ACAD_REACTORS
330
99
102
}
330
99
100
AcDbVisualStyle
  2

 70
    15
 71
     2
 72
     2
 73
     1
 90
        0
 40
-0.6
 41
-30.0
 62
     5
 63
     7
 74
     1
 91
        4
 64
     7
 65
   257
 75
     1
175
     1
 42
1.0
 92
        8
 66
     7
 43
1.0
 76
     1
 77
     6
 78
     2
 67
     7
 79
     5
170
     0
171
     0
290
     0
174
     0
 93
        1
 44
0.0
173
     0
291
     1
 45
0.0
1001
ACAD
1000
AcDbSavedByObjectVersion
1070
     0
  0
VISUALSTYLE
  5
9A
102
{ACAD_XDICTIONARY
360
1D49
102
}
102
{ACAD_REACTORS
330
99
102
}
330
99
100
AcDbVisualStyle
  2

 70
     0
 71
     2
 72
     1
 73
     1
 90
        2
 40
-0.6
 41
30.0
 62
     5
 63
     7
 74
     0
 91
        4
 64
     7
 65
   257
 75
     1
175
     1
 42
1.0
 92
        8
 66
     7
 43
1.0
 76
     1
 77
     6
 78
     2
 67
     7
 79
     5
170
     0
171
     0
290
     0
174
     0
 93
        1
 44
0.0
173
     0
291
     1
 45
0.0
1001
ACAD
1000
AcDbSavedByObjectVersion
1070
     0
  0
VISUALSTYLE
  5
9B
102
{ACAD_XDICTIONARY
360
1D4B
102
}
102
{ACAD_REACTORS
330
99
102
}
330
99
100
AcDbVisualStyle
  2

 70
     1
 71
     2
 72
     1
 73
     1
 90
        2
 40
-0.6
 41
30.0
 62
     5
 63
     7
 74
     1
 91
        4
 64
     7
 65
   257
 75
     1
175
     1
 42
1.0
 92
        0
 66
   257
 43
1.0
 76
     1
 77
     6
 78
     2
 67
     7
 79
     5
170
     0
171
     0
290
     0
174
     0
 93
        1
 44
0.0
173
     0
291
     1
 45
0.0
1001
ACAD
1000
AcDbSavedByObjectVersion
1070
     0
  0
VISUALSTYLE
  5
9C
102
{ACAD_XDICTIONARY
360
1D4D
102
}
102
{ACAD_REACTORS
330
99
102
}
330
99
100
AcDbVisualStyle
  2

 70
     2
 71
     2
 72
     2
 73
     1
 90
        2
 40
-0.6
 41
30.0
 62
     5
 63
     7
 74
     0
 91
        4
 64
     7
 65
   257
 75
     1
175
     1
 42
1.0
 92
        0
 66
     7
 43
1.0
 76
     1
 77
     6
 78
     2
 67
     7
 79
     5
170
     0
171
     0
290
     0
174
     0
 93
        1
 44
0.0
173
     0
291
     1
 45
0.0
1001
ACAD
1000
AcDbSavedByObjectVersion
1070
     0
  0
VISUALSTYLE
  5
9D
102
{ACAD_XDICTIONARY
360
1D4F
102
}
102
{ACAD_REACTORS
330
99
102
}
330
99
100
AcDbVisualStyle
  2

 70
     3
 71
     2
 72
     2
 73
     1
 90
        2
 40
-0.6
 41
30.0
 62
     5
 63
     7
 74
     1
 91
        4
 64
     7
 65
   257
 75
     1
175
     1
 42
1.0
 92
        0
 66
   257
 43
1.0
 76
     1
 77
     6
 78
     2
 67
     7
 79
     5
170
     0
171
     0
290
     0
174
     0
 93
        1
 44
0.0
173
     0
291
     1
 45
0.0
1001
ACAD
1000
AcDbSavedByObjectVersion
1070
     0
  0
VISUALSTYLE
  5
14D
102
{ACAD_XDICTIONARY
360
1D6B
102
}
102
{ACAD_REACTORS
330
99
102
}
330
99
100
AcDbVisualStyle
  2

 70
     6
 71
     1
 72
     2
 73
     2
 90
        0
 40
-0.6
 41
-30.0
 62
     5
 63
     7
 74
     2
 91
        2
 64
     7
 65
   257
 75
     2
175
     1
 42
40.0
 92
        0
 66
   257
 43
1.0
 76
     1
 77
     6
 78
     2
 67
     7
 79
     3
170
     0
171
     0
290
     0
174
     0
 93
        1
 44
0.0
173
     0
291
     0
 45
0.0
1001
ACAD
1000
AcDbSavedByObjectVersion
1070
     0
  0
VISUALSTYLE
  5
153
102
{ACAD_XDICTIONARY
360
1D77
102
}
102
{ACAD_REACTORS
330
99
102
}
330
99
100
AcDbVisualStyle
  2

 70
    20
 71
     2
 72
     2
 73
     0
 90
        0
 40
-0.6
 41
-30.0
 62
     5
 63
     7
 74
     1
 91
        4
 64
     7
 65
   257
 75
     1
175
     1
 42
1.0
 92
       10
 66
     7
 43
1.0
 76
     1
 77
     6
 78
     2
 67
     7
 79
     5
170
     0
171
     0
290
     0
174
     0
 93
        1
 44
0.0
173
     0
291
     1
 45
0.0
1001
ACAD
1000
AcDbSavedByObjectVersion
1070
     0
  0
VISUALSTYLE
  5
A7
102
{ACAD_XDICTIONARY
360
1D63
102
}
102
{ACAD_REACTORS
330
99
102
}
330
99
100
AcDbVisualStyle
  2

 70
    14
 71
     2
 72
     2
 73
     1
 90
        0
 40
-0.6
 41
-30.0
 62
     5
 63
     7
 74
     1
 91
        4
 64
     7
 65
   257
 75
     7
175
     7
 42
1.0
 92
        8
 66
     7
 43
1.0
 76
     1
 77
     6
 78
     2
 67
     7
 79
     5
170
     0
171
     0
290
     0
174
     0
 93
        1
 44
0.0
173
     0
291
     1
 45
0.0
1001
ACAD
1000
AcDbSavedByObjectVersion
1070
     0
  0
VISUALSTYLE
  5
154
102
{ACAD_XDICTIONARY
360
1D79
102
}
102
{ACAD_REACTORS
330
99
102
}
330
99
100
AcDbVisualStyle
  2

 70
    21
 71
     2
 72
     2
 73
     0
 90
        0
 40
-0.6
 41
-30.0
 62
     5
 63
     7
 74
     1
 91
        4
 64
     7
 65
   257
 75
     1
175
     1
 42
1.0
 92
        9
 66
     7
 43
1.0
 76
     1
 77
     6
 78
     2
 67
     7
 79
     5
170
     0
171
     0
290
     0
174
     0
 93
        1
 44
0.0
173
     0
291
     1
 45
0.0
1001
ACAD
1000
AcDbSavedByObjectVersion
1070
     0
  0
VISUALSTYLE
  5
A3
102
{ACAD_XDICTIONARY
360
1D5B
102
}
102
{ACAD_REACTORS
330
99
102
}
330
99
100
AcDbVisualStyle
  2

 70
     8
 71
     2
 72
     2
 73
     1
 90
        0
 40
-0.6
 41
-30.0
 62
     5
 63
     7
 74
     1
 91
        0
 64
     7
 65
   257
 75
     1
175
     1
 42
1.0
 92
        8
 66
     8
 43
1.0
 76
     1
 77
     6
 78
     2
 67
     7
 79
     5
170
     0
171
     0
290
     0
174
     0
 93
       13
 44
0.0
173
     0
291
     0
 45
0.0
1001
ACAD
1000
AcDbSavedByObjectVersion
1070
     0
  0
VISUALSTYLE
  5
152
102
{ACAD_XDICTIONARY
360
1D75
102
}
102
{ACAD_REACTORS
330
99
102
}
330
99
100
AcDbVisualStyle
  2

 70
    27
 71
     2
 72
     2
 73
     1
 90
        2
 40
-0.6
 41
30.0
 62
     5
 63
     7
 74
     0
 91
        4
 64
     7
 65
   257
 75
     1
175
     1
 42
1.0
 92
        8
 66
   257
 43
1.0
 76
     1
 77
     6
 78
     2
 67
     8
 79
     3
170
     0
171
     0
290
     0
174
     0
 93
        5
 44
0.0
173
     0
291
     0
 45
0.0
1001
ACAD
1000
AcDbSavedByObjectVersion
1070
     0
  0
VISUALSTYLE
  5
151
102
{ACAD_XDICTIONARY
360
1D73
102
}
102
{ACAD_REACTORS
330
99
102
}
330
99
100
AcDbVisualStyle
  2

 70
    26
 71
     2
 72
     2
 73
     1
 90
        2
 40
-0.6
 41
30.0
 62
     5
 63
     7
 74
     1
 91
       10
 64
     7
 65
   257
 75
     2
175
     1
 42
1.0
 92
        8
 66
   257
 43
1.0
 76
     1
 77
     6
 78
     2
 67
     7
 79
     3
170
     0
171
     0
290
     0
174
     0
 93
        5
 44
0.0
173
     0
291
     0
 45
0.0
1001
ACAD
1000
AcDbSavedByObjectVersion
1070
     0
  0
VISUALSTYLE
  5
14E
102
{ACAD_XDICTIONARY
360
1D6D
102
}
102
{ACAD_REACTORS
330
99
102
}
330
99
100
AcDbVisualStyle
  2

 70
    23
 71
     2
 72
     2
 73
     3
 90
        0
 40
-0.6
 41
-30.0
 62
     5
 63
     7
 74
     2
 91
        2
 64
     7
 65
     7
 75
     1
175
     1
 42
40.0
 92
        8
 66
     7
 43
1.0
 76
     1
 77
     6
 78
     2
 67
     7
 79
     3
170
     0
171
     0
290
     0
174
     0
 93
        1
 44
0.0
173
     0
291
     0
 45
0.0
1001
ACAD
1000
AcDbSavedByObjectVersion
1070
     0
  0
VISUALSTYLE
  5
14F
102
{ACAD_XDICTIONARY
360
1D6F
102
}
102
{ACAD_REACTORS
330
99
102
}
330
99
100
AcDbVisualStyle
  2

 70
    24
 71
     1
 72
     2
 73
     2
 90
        0
 40
-0.6
 41
-30.0
 62
     5
 63
     7
 74
     2
 91
        2
 64
     7
 65
     7
 75
     1
175
     1
 42
40.0
 92
       11
 66
     7
 43
1.0
 76
     1
 77
     6
 78
     2
 67
     7
 79
     6
170
     0
171
     0
290
     0
174
     0
 93
        1
 44
0.0
173
     0
291
     0
 45
0.0
1001
ACAD
1000
AcDbSavedByObjectVersion
1070
     0
  0
VISUALSTYLE
  5
A6
102
{ACAD_XDICTIONARY
360
1D61
102
}
102
{ACAD_REACTORS
330
99
102
}
330
99
100
AcDbVisualStyle
  2

 70
    13
 71
     2
 72
     2
 73
     1
 90
        0
 40
-0.6
 41
-30.0
 62
     5
 63
     7
 74
     1
 91
        4
 64
     7
 65
   257
 75
     1
175
     1
 42
1.0
 92
       12
 66
     7
 43
1.0
 76
     1
 77
     6
 78
     2
 67
     7
 79
     5
170
     0
171
     0
290
     0
174
     0
 93
        1
 44
0.0
173
     0
291
     1
 45
0.0
1001
ACAD
1000
AcDbSavedByObjectVersion
1070
     0
  0
VISUALSTYLE
  5
14C
102
{ACAD_XDICTIONARY
360
1D69
102
}
102
{ACAD_REACTORS
330
99
102
}
330
99
100
AcDbVisualStyle
  2

 70
     5
 71
     0
 72
     2
 73
     0
 90
        0
 40
-0.6
 41
-30.0
 62
     5
 63
     7
 74
     1
 91
        4
 64
     7
 65
   257
 75
     1
175
     1
 42
1.0
 92
        0
 66
   257
 43
1.0
 76
     1
 77
     6
 78
     2
 67
     7
 79
     3
170
     0
171
     0
290
     0
174
     0
 93
        1
 44
0.0
173
     0
291
     0
 45
0.0
1001
ACAD
1000
AcDbSavedByObjectVersion
1070
     0
  0
VISUALSTYLE
  5
150
102
{ACAD_XDICTIONARY
360
1D71
102
}
102
{ACAD_REACTORS
330
99
102
}
330
99
100
AcDbVisualStyle
  2

 70
    25
 71
     2
 72
     2
 73
     1
 90
        1
 40
0.5
 41
-30.0
 62
     5
 63
     7
 74
     1
 91
        0
 64
     7
 65
   257
 75
     1
175
     1
 42
1.0
 92
        8
 66
     7
 43
1.0
 76
     1
 77
     6
 78
     2
 67
     7
 79
     3
170
     0
171
     0
290
     0
174
     0
 93
       13
 44
0.0
173
     0
291
     0
 45
0.0
1001
ACAD
1000
AcDbSavedByObjectVersion
1070
     0
  0
DICTIONARYVAR
  5
24A
102
{ACAD_REACTORS
330
66
102
}
330
66
100
DictionaryVariables
280
     0
  1
1:1
  0
DICTIONARYVAR
  5
248
102
{ACAD_REACTORS
330
66
102
}
330
66
100
DictionaryVariables
280
     0
  1
STANDARD
  0
DICTIONARYVAR
  5
89
102
{ACAD_REACTORS
330
66
102
}
330
66
100
DictionaryVariables
280
     0
  1
STANDARD
  0
DICTIONARYVAR
  5
67
102
{ACAD_REACTORS
330
66
102
}
330
66
100
DictionaryVariables
280
     0
  1
2
  0
DICTIONARYVAR
  5
6B
102
{ACAD_REACTORS
330
66
102
}
330
66
100
DictionaryVariables
280
     0
  1
1
  0
DICTIONARYVAR
  5
B30
102
{ACAD_REACTORS
330
66
102
}
330
66
100
DictionaryVariables
280
     0
  1
0
  0
DICTIONARYVAR
  5
24C
102
{ACAD_REACTORS
330
66
102
}
330
66
100
DictionaryVariables
280
     0
  1
1
  0
DICTIONARYVAR
  5
24D
102
{ACAD_REACTORS
330
66
102
}
330
66
100
DictionaryVariables
280
     0
  1
15
  0
DICTIONARYVAR
  5
24B
102
{ACAD_REACTORS
330
66
102
}
330
66
100
DictionaryVariables
280
     0
  1
0
  0
DICTIONARYVAR
  5
249
102
{ACAD_REACTORS
330
66
102
}
330
66
100
DictionaryVariables
280
     0
  1
0
  0
DICTIONARYVAR
  5
B2F
102
{ACAD_REACTORS
330
66
102
}
330
66
100
DictionaryVariables
280
     0
  1
127
  0
DICTIONARYVAR
  5
1C7C
102
{ACAD_REACTORS
330
66
102
}
330
66
100
DictionaryVariables
280
     0
  1
2
  0
DICTIONARY
  5
1D42
330
22
100
AcDbDictionary
280
     1
281
     1
  3
ACAD_XREC_ROUNDTRIP
360
1D43
  0
DICTIONARY
  5
1D44
330
59
100
AcDbDictionary
280
     1
281
     1
  3
ACAD_XREC_ROUNDTRIP
360
1D45
  0
DICTIONARY
  5
1D46
330
5E
100
AcDbDictionary
280
     1
281
     1
  3
ACAD_XREC_ROUNDTRIP
360
1D47
  0
DICTIONARY
  5
155A
330
97
100
AcDbDictionary
280
     1
281
     1
  3
ACAD_XREC_ROUNDTRIP
360
155B
  0
DICTIONARY
  5
1558
330
96
100
AcDbDictionary
280
     1
281
     1
  3
ACAD_XREC_ROUNDTRIP
360
1559
  0
DICTIONARY
  5
155C
330
98
100
AcDbDictionary
280
     1
281
     1
  3
ACAD_XREC_ROUNDTRIP
360
155D
  0
DICTIONARY
  5
AE1
330
87
100
AcDbDictionary
280
     1
281
     1
  3
ACAD_ROUNDTRIP_2008_TABLESTYLE_CELLSTYLEMAP
360
1D3A
  3
ACAD_XREC_ROUNDTRIP
360
1D48
  0
DICTIONARY
  5
D98
330
D97
100
AcDbDictionary
280
     1
281
     1
  3
ACAD_ROUNDTRIP_2008_TABLESTYLE_CELLSTYLEMAP
360
1D3B
  3
ACAD_XREC_ROUNDTRIP
360
1D7D
  0
DICTIONARY
  5
1D53
330
9F
100
AcDbDictionary
280
     1
281
     1
  3
ACAD_XREC_ROUNDTRIP
360
1D54
  0
DICTIONARY
  5
1D57
330
A1
100
AcDbDictionary
280
     1
281
     1
  3
ACAD_XREC_ROUNDTRIP
360
1D58
  0
DICTIONARY
  5
1D55
330
A0
100
AcDbDictionary
280
     1
281
     1
  3
ACAD_XREC_ROUNDTRIP
360
1D56
  0
DICTIONARY
  5
1D51
330
9E
100
AcDbDictionary
280
     1
281
     1
  3
ACAD_XREC_ROUNDTRIP
360
1D52
  0
DICTIONARY
  5
1D5F
330
A5
100
AcDbDictionary
280
     1
281
     1
  3
ACAD_XREC_ROUNDTRIP
360
1D60
  0
DICTIONARY
  5
1D67
330
A9
100
AcDbDictionary
280
     1
281
     1
  3
ACAD_XREC_ROUNDTRIP
360
1D68
  0
DICTIONARY
  5
1D59
330
A2
100
AcDbDictionary
280
     1
281
     1
  3
ACAD_XREC_ROUNDTRIP
360
1D5A
  0
DICTIONARY
  5
1D5D
330
A4
100
AcDbDictionary
280
     1
281
     1
  3
ACAD_XREC_ROUNDTRIP
360
1D5E
  0
DICTIONARY
  5
1D7B
330
155
100
AcDbDictionary
280
     1
281
     1
  3
ACAD_XREC_ROUNDTRIP
360
1D7C
  0
DICTIONARY
  5
1D65
330
A8
100
AcDbDictionary
280
     1
281
     1
  3
ACAD_XREC_ROUNDTRIP
360
1D66
  0
DICTIONARY
  5
1D49
330
9A
100
AcDbDictionary
280
     1
281
     1
  3
ACAD_XREC_ROUNDTRIP
360
1D4A
  0
DICTIONARY
  5
1D4B
330
9B
100
AcDbDictionary
280
     1
281
     1
  3
ACAD_XREC_ROUNDTRIP
360
1D4C
  0
DICTIONARY
  5
1D4D
330
9C
100
AcDbDictionary
280
     1
281
     1
  3
ACAD_XREC_ROUNDTRIP
360
1D4E
  0
DICTIONARY
  5
1D4F
330
9D
100
AcDbDictionary
280
     1
281
     1
  3
ACAD_XREC_ROUNDTRIP
360
1D50
  0
DICTIONARY
  5
1D6B
330
14D
100
AcDbDictionary
280
     1
281
     1
  3
ACAD_XREC_ROUNDTRIP
360
1D6C
  0
DICTIONARY
  5
1D77
330
153
100
AcDbDictionary
280
     1
281
     1
  3
ACAD_XREC_ROUNDTRIP
360
1D78
  0
DICTIONARY
  5
1D63
330
A7
100
AcDbDictionary
280
     1
281
     1
  3
ACAD_XREC_ROUNDTRIP
360
1D64
  0
DICTIONARY
  5
1D79
330
154
100
AcDbDictionary
280
     1
281
     1
  3
ACAD_XREC_ROUNDTRIP
360
1D7A
  0
DICTIONARY
  5
1D5B
330
A3
100
AcDbDictionary
280
     1
281
     1
  3
ACAD_XREC_ROUNDTRIP
360
1D5C
  0
DICTIONARY
  5
1D75
330
152
100
AcDbDictionary
280
     1
281
     1
  3
ACAD_XREC_ROUNDTRIP
360
1D76
  0
DICTIONARY
  5
1D73
330
151
100
AcDbDictionary
280
     1
281
     1
  3
ACAD_XREC_ROUNDTRIP
360
1D74
  0
DICTIONARY
  5
1D6D
330
14E
100
AcDbDictionary
280
     1
281
     1
  3
ACAD_XREC_ROUNDTRIP
360
1D6E
  0
DICTIONARY
  5
1D6F
330
14F
100
AcDbDictionary
280
     1
281
     1
  3
ACAD_XREC_ROUNDTRIP
360
1D70
  0
DICTIONARY
  5
1D61
330
A6
100
AcDbDictionary
280
     1
281
     1
  3
ACAD_XREC_ROUNDTRIP
360
1D62
  0
DICTIONARY
  5
1D69
330
14C
100
AcDbDictionary
280
     1
281
     1
  3
ACAD_XREC_ROUNDTRIP
360
1D6A
  0
DICTIONARY
  5
1D71
330
150
100
AcDbDictionary
280
     1
281
     1
  3
ACAD_XREC_ROUNDTRIP
360
1D72
  0
XRECORD
  5
1D43
102
{ACAD_REACTORS
330
1D42
102
}
330
1D42
100
AcDbXrecord
280
     1
102
SHADEPLOT
 70
     0
102
SHADEPLOTRESLEVEL
 70
     2
102
SHADEPLOTCUSTOMDPI
 70
   300
  0
XRECORD
  5
1D45
102
{ACAD_REACTORS
330
1D44
102
}
330
1D44
100
AcDbXrecord
280
     1
102
SHADEPLOT
 70
     0
102
SHADEPLOTRESLEVEL
 70
     2
102
SHADEPLOTCUSTOMDPI
 70
   300
  0
XRECORD
  5
1D47
102
{ACAD_REACTORS
330
1D46
102
}
330
1D46
100
AcDbXrecord
280
     1
102
SHADEPLOT
 70
     0
102
SHADEPLOTRESLEVEL
 70
     2
102
SHADEPLOTCUSTOMDPI
 70
   300
  0
XRECORD
  5
155B
102
{ACAD_REACTORS
330
155A
102
}
330
155A
100
AcDbXrecord
280
     1
102
MATERIAL
148
0.0
149
0.0
149
0.0
 93
        0
 94
      127
282
     0
 72
     1
 77
     1
171
     1
175
     1
179
     1
273
     0
  0
XRECORD
  5
1559
102
{ACAD_REACTORS
330
1558
102
}
330
1558
100
AcDbXrecord
280
     1
102
MATERIAL
148
0.0
149
0.0
149
0.0
 93
        0
 94
      127
282
     0
 72
     1
 77
     1
171
     1
175
     1
179
     1
273
     0
  0
XRECORD
  5
155D
102
{ACAD_REACTORS
330
155C
102
}
330
155C
100
AcDbXrecord
280
     1
102
MATERIAL
148
0.0
149
0.0
149
0.0
 93
        0
 94
      127
282
     0
 72
     1
 77
     1
171
     1
175
     1
179
     1
273
     0
  0
CELLSTYLEMAP
  5
1D3A
102
{ACAD_REACTORS
330
AE1
102
}
330
AE1
100
AcDbCellStyleMap
 90
        3
300
CELLSTYLE
  1
TABLEFORMAT_BEGIN
 90
        5
170
     1
 91
        0
 92
    32768
 62
   257
 93
        1
300
CONTENTFORMAT
  1
CONTENTFORMAT_BEGIN
 90
        0
 91
        0
 92
      512
 93
        0
300

 40
0.0
140
1.0
 94
        5
 62
     0
340
11
144
0.25
309
CONTENTFORMAT_END
171
     1
301
MARGIN
  1
CELLMARGIN_BEGIN
 40
0.06
 40
0.06
 40
0.06
 40
0.06
 40
0.18
 40
0.18
309
CELLMARGIN_END
 94
        6
 95
        1
302
GRIDFORMAT
  1
GRIDFORMAT_BEGIN
 90
        0
 91
        1
 62
     0
 92
       -2
340
0
 93
        0
 40
0.045
309
GRIDFORMAT_END
 95
        2
302
GRIDFORMAT
  1
GRIDFORMAT_BEGIN
 90
        0
 91
        1
 62
     0
 92
       -2
340
0
 93
        0
 40
0.045
309
GRIDFORMAT_END
 95
        4
302
GRIDFORMAT
  1
GRIDFORMAT_BEGIN
 90
        0
 91
        1
 62
     0
 92
       -2
340
0
 93
        0
 40
0.045
309
GRIDFORMAT_END
 95
        8
302
GRIDFORMAT
  1
GRIDFORMAT_BEGIN
 90
        0
 91
        1
 62
     0
 92
       -2
340
0
 93
        0
 40
0.045
309
GRIDFORMAT_END
 95
       16
302
GRIDFORMAT
  1
GRIDFORMAT_BEGIN
 90
        0
 91
        1
 62
     0
 92
       -2
340
0
 93
        0
 40
0.045
309
GRIDFORMAT_END
 95
       32
302
GRIDFORMAT
  1
GRIDFORMAT_BEGIN
 90
        0
 91
        1
 62
     0
 92
       -2
340
0
 93
        0
 40
0.045
309
GRIDFORMAT_END
309
TABLEFORMAT_END
  1
CELLSTYLE_BEGIN
 90
        1
 91
        1
300
_TITLE
309
CELLSTYLE_END
300
CELLSTYLE
  1
TABLEFORMAT_BEGIN
 90
        5
170
     1
 91
        0
 92
        0
 62
   257
 93
        1
300
CONTENTFORMAT
  1
CONTENTFORMAT_BEGIN
 90
        0
 91
        0
 92
      512
 93
        0
300

 40
0.0
140
1.0
 94
        5
 62
     0
340
11
144
0.18
309
CONTENTFORMAT_END
171
     1
301
MARGIN
  1
CELLMARGIN_BEGIN
 40
0.06
 40
0.06
 40
0.06
 40
0.06
 40
0.18
 40
0.18
309
CELLMARGIN_END
 94
        6
 95
        1
302
GRIDFORMAT
  1
GRIDFORMAT_BEGIN
 90
        0
 91
        1
 62
     0
 92
       -2
340
0
 93
        0
 40
0.045
309
GRIDFORMAT_END
 95
        2
302
GRIDFORMAT
  1
GRIDFORMAT_BEGIN
 90
        0
 91
        1
 62
     0
 92
       -2
340
0
 93
        0
 40
0.045
309
GRIDFORMAT_END
 95
        4
302
GRIDFORMAT
  1
GRIDFORMAT_BEGIN
 90
        0
 91
        1
 62
     0
 92
       -2
340
0
 93
        0
 40
0.045
309
GRIDFORMAT_END
 95
        8
302
GRIDFORMAT
  1
GRIDFORMAT_BEGIN
 90
        0
 91
        1
 62
     0
 92
       -2
340
0
 93
        0
 40
0.045
309
GRIDFORMAT_END
 95
       16
302
GRIDFORMAT
  1
GRIDFORMAT_BEGIN
 90
        0
 91
        1
 62
     0
 92
       -2
340
0
 93
        0
 40
0.045
309
GRIDFORMAT_END
 95
       32
302
GRIDFORMAT
  1
GRIDFORMAT_BEGIN
 90
        0
 91
        1
 62
     0
 92
       -2
340
0
 93
        0
 40
0.045
309
GRIDFORMAT_END
309
TABLEFORMAT_END
  1
CELLSTYLE_BEGIN
 90
        2
 91
        1
300
_HEADER
309
CELLSTYLE_END
300
CELLSTYLE
  1
TABLEFORMAT_BEGIN
 90
        5
170
     1
 91
        0
 92
        0
 62
   257
 93
        1
300
CONTENTFORMAT
  1
CONTENTFORMAT_BEGIN
 90
        0
 91
        0
 92
      512
 93
        0
300

 40
0.0
140
1.0
 94
        2
 62
     0
340
11
144
0.18
309
CONTENTFORMAT_END
171
     1
301
MARGIN
  1
CELLMARGIN_BEGIN
 40
0.06
 40
0.06
 40
0.06
 40
0.06
 40
0.18
 40
0.18
309
CELLMARGIN_END
 94
        6
 95
        1
302
GRIDFORMAT
  1
GRIDFORMAT_BEGIN
 90
        0
 91
        1
 62
     0
 92
       -2
340
0
 93
        0
 40
0.045
309
GRIDFORMAT_END
 95
        2
302
GRIDFORMAT
  1
GRIDFORMAT_BEGIN
 90
        0
 91
        1
 62
     0
 92
       -2
340
0
 93
        0
 40
0.045
309
GRIDFORMAT_END
 95
        4
302
GRIDFORMAT
  1
GRIDFORMAT_BEGIN
 90
        0
 91
        1
 62
     0
 92
       -2
340
0
 93
        0
 40
0.045
309
GRIDFORMAT_END
 95
        8
302
GRIDFORMAT
  1
GRIDFORMAT_BEGIN
 90
        0
 91
        1
 62
     0
 92
       -2
340
0
 93
        0
 40
0.045
309
GRIDFORMAT_END
 95
       16
302
GRIDFORMAT
  1
GRIDFORMAT_BEGIN
 90
        0
 91
        1
 62
     0
 92
       -2
340
0
 93
        0
 40
0.045
309
GRIDFORMAT_END
 95
       32
302
GRIDFORMAT
  1
GRIDFORMAT_BEGIN
 90
        0
 91
        1
 62
     0
 92
       -2
340
0
 93
        0
 40
0.045
309
GRIDFORMAT_END
309
TABLEFORMAT_END
  1
CELLSTYLE_BEGIN
 90
        3
 91
        2
300
_DATA
309
CELLSTYLE_END
  0
XRECORD
  5
1D48
102
{ACAD_REACTORS
330
AE1
102
}
330
AE1
100
AcDbXrecord
280
     1
102
ACAD_ROUNDTRIP_PRE2007_TABLESTYLE
 90
      512
 91
        0
  1

 92
      512
 93
        0
  2

 94
      512
 95
        0
  3

  0
CELLSTYLEMAP
  5
1D3B
102
{ACAD_REACTORS
330
D98
102
}
330
D98
100
AcDbCellStyleMap
 90
        3
300
CELLSTYLE
  1
TABLEFORMAT_BEGIN
 90
        5
170
     1
 91
        0
 92
    32768
 62
   257
 93
        1
300
CONTENTFORMAT
  1
CONTENTFORMAT_BEGIN
 90
        0
 91
        0
 92
      512
 93
        0
300

 40
0.0
140
1.0
 94
        8
 62
     3
340
11D
144
0.25
309
CONTENTFORMAT_END
171
     1
301
MARGIN
  1
CELLMARGIN_BEGIN
 40
0.5
 40
10.0
 40
0.06
 40
0.06
 40
0.18
 40
0.18
309
CELLMARGIN_END
 94
        6
 95
        1
302
GRIDFORMAT
  1
GRIDFORMAT_BEGIN
 90
        0
 91
        1
 62
     0
 92
       -2
340
0
 93
        0
 40
0.045
309
GRIDFORMAT_END
 95
        2
302
GRIDFORMAT
  1
GRIDFORMAT_BEGIN
 90
        0
 91
        1
 62
     0
 92
       -2
340
0
 93
        0
 40
0.045
309
GRIDFORMAT_END
 95
        4
302
GRIDFORMAT
  1
GRIDFORMAT_BEGIN
 90
        0
 91
        1
 62
     0
 92
       -2
340
0
 93
        0
 40
0.045
309
GRIDFORMAT_END
 95
        8
302
GRIDFORMAT
  1
GRIDFORMAT_BEGIN
 90
        0
 91
        1
 62
     0
 92
       -2
340
0
 93
        0
 40
0.045
309
GRIDFORMAT_END
 95
       16
302
GRIDFORMAT
  1
GRIDFORMAT_BEGIN
 90
        0
 91
        1
 62
     0
 92
       -2
340
0
 93
        0
 40
0.045
309
GRIDFORMAT_END
 95
       32
302
GRIDFORMAT
  1
GRIDFORMAT_BEGIN
 90
        0
 91
        1
 62
     0
 92
       -2
340
0
 93
        0
 40
0.045
309
GRIDFORMAT_END
309
TABLEFORMAT_END
  1
CELLSTYLE_BEGIN
 90
        1
 91
        1
300
_TITLE
309
CELLSTYLE_END
300
CELLSTYLE
  1
TABLEFORMAT_BEGIN
 90
        5
170
     1
 91
        0
 92
        0
 62
   257
 93
        1
300
CONTENTFORMAT
  1
CONTENTFORMAT_BEGIN
 90
        0
 91
        0
 92
      512
 93
        0
300

 40
0.0
140
1.0
 94
        7
 62
     3
340
11D
144
0.18
309
CONTENTFORMAT_END
171
     1
301
MARGIN
  1
CELLMARGIN_BEGIN
 40
0.5
 40
1.5
 40
0.06
 40
0.06
 40
0.18
 40
0.18
309
CELLMARGIN_END
 94
        6
 95
        1
302
GRIDFORMAT
  1
GRIDFORMAT_BEGIN
 90
        0
 91
        1
 62
     3
 92
       -2
340
14
 93
        0
 40
0.045
309
GRIDFORMAT_END
 95
        2
302
GRIDFORMAT
  1
GRIDFORMAT_BEGIN
 90
        0
 91
        1
 62
     7
 92
       -2
340
14
 93
        0
 40
0.045
309
GRIDFORMAT_END
 95
        4
302
GRIDFORMAT
  1
GRIDFORMAT_BEGIN
 90
        0
 91
        1
 62
     3
 92
       -2
340
14
 93
        0
 40
0.045
309
GRIDFORMAT_END
 95
        8
302
GRIDFORMAT
  1
GRIDFORMAT_BEGIN
 90
        0
 91
        1
 62
     3
 92
       -2
340
14
 93
        0
 40
0.045
309
GRIDFORMAT_END
 95
       16
302
GRIDFORMAT
  1
GRIDFORMAT_BEGIN
 90
        0
 91
        1
 62
     7
 92
       -2
340
14
 93
        0
 40
0.045
309
GRIDFORMAT_END
 95
       32
302
GRIDFORMAT
  1
GRIDFORMAT_BEGIN
 90
        0
 91
        1
 62
     3
 92
       -2
340
14
 93
        0
 40
0.045
309
GRIDFORMAT_END
309
TABLEFORMAT_END
  1
CELLSTYLE_BEGIN
 90
        2
 91
        1
300
_HEADER
309
CELLSTYLE_END
300
CELLSTYLE
  1
TABLEFORMAT_BEGIN
 90
        5
170
     1
 91
        0
 92
        0
 62
   257
 93
        1
300
CONTENTFORMAT
  1
CONTENTFORMAT_BEGIN
 90
        0
 91
        0
 92
      512
 93
        0
300

 40
0.0
140
1.0
 94
        7
 62
     3
340
11D
144
0.18
309
CONTENTFORMAT_END
171
     1
301
MARGIN
  1
CELLMARGIN_BEGIN
 40
0.5
 40
1.5
 40
0.06
 40
0.06
 40
0.18
 40
0.18
309
CELLMARGIN_END
 94
        6
 95
        1
302
GRIDFORMAT
  1
GRIDFORMAT_BEGIN
 90
        0
 91
        1
 62
     3
 92
       -2
340
14
 93
        0
 40
0.045
309
GRIDFORMAT_END
 95
        2
302
GRIDFORMAT
  1
GRIDFORMAT_BEGIN
 90
        0
 91
        1
 62
     7
 92
       -2
340
14
 93
        0
 40
0.045
309
GRIDFORMAT_END
 95
        4
302
GRIDFORMAT
  1
GRIDFORMAT_BEGIN
 90
        0
 91
        1
 62
     3
 92
       -2
340
14
 93
        0
 40
0.045
309
GRIDFORMAT_END
 95
        8
302
GRIDFORMAT
  1
GRIDFORMAT_BEGIN
 90
        0
 91
        1
 62
     3
 92
       -2
340
14
 93
        0
 40
0.045
309
GRIDFORMAT_END
 95
       16
302
GRIDFORMAT
  1
GRIDFORMAT_BEGIN
 90
        0
 91
        1
 62
     7
 92
       -2
340
14
 93
        0
 40
0.045
309
GRIDFORMAT_END
 95
       32
302
GRIDFORMAT
  1
GRIDFORMAT_BEGIN
 90
        0
 91
        1
 62
     3
 92
       -2
340
14
 93
        0
 40
0.045
309
GRIDFORMAT_END
309
TABLEFORMAT_END
  1
CELLSTYLE_BEGIN
 90
        3
 91
        2
300
_DATA
309
CELLSTYLE_END
  0
XRECORD
  5
1D7D
102
{ACAD_REACTORS
330
D98
102
}
330
D98
100
AcDbXrecord
280
     1
102
ACAD_ROUNDTRIP_PRE2007_TABLESTYLE
 90
      512
 91
        0
  1

 92
      512
 93
        0
  2

 94
      512
 95
        0
  3

  0
XRECORD
  5
1D54
102
{ACAD_REACTORS
330
1D53
102
}
330
1D53
100
AcDbXrecord
280
     1
102
RTVSPropertyOp0
 70
     1
102
RTVSPropertyOp1
 70
     1
102
RTVSPropertyOp2
 70
     1
102
RTVSPropertyOp3
 70
     1
102
RTVSPropertyOp4
 70
     1
102
RTVSPropertyOp5
 70
     1
102
RTVSPropertyOp6
 70
     1
102
RTVSPropertyOp7
 70
     1
102
RTVSPropertyOp8
 70
     1
102
RTVSPropertyOp9
 70
     1
102
RTVSPropertyOp10
 70
     1
102
RTVSPropertyOp11
 70
     1
102
RTVSPropertyOp12
 70
     1
102
RTVSPropertyOp13
 70
     1
102
RTVSPropertyOp14
 70
     1
102
RTVSPropertyOp15
 70
     1
102
RTVSPropertyOp16
 70
     1
102
RTVSPropertyOp17
 70
     1
102
RTVSPropertyOp18
 70
     1
102
RTVSPropertyOp19
 70
     1
102
RTVSPropertyOp20
 70
     1
102
RTVSPropertyOp21
 70
     1
102
RTVSPropertyOp22
 70
     1
102
RTVSPropertyOp23
 70
     1
102
RTVSPropertyOp24
 70
     1
102
RTVSPropertyOp25
 70
     1
102
RTVSPropertyOp26
 70
     1
102
RTVSPropertyOp27
 70
     1
102
RTVSPropertyOp28
 70
     1
102
RTVSPropertyOp29
 70
     1
102
RTVSPropertyOp30
 70
     1
102
RTVSPropertyOp31
 70
     1
102
RTVSPropertyOp32
 70
     1
  0
XRECORD
  5
1D58
102
{ACAD_REACTORS
330
1D57
102
}
330
1D57
100
AcDbXrecord
280
     1
102
RTVSPropertyOp0
 70
     1
102
RTVSPropertyOp1
 70
     1
102
RTVSPropertyOp2
 70
     1
102
RTVSPropertyOp3
 70
     1
102
RTVSPropertyOp4
 70
     1
102
RTVSPropertyOp5
 70
     1
102
RTVSPropertyOp6
 70
     1
102
RTVSPropertyOp7
 70
     1
102
RTVSPropertyOp8
 70
     1
102
RTVSPropertyOp9
 70
     1
102
RTVSPropertyOp10
 70
     1
102
RTVSPropertyOp11
 70
     1
102
RTVSPropertyOp12
 70
     1
102
RTVSPropertyOp13
 70
     1
102
RTVSPropertyOp14
 70
     1
102
RTVSPropertyOp15
 70
     1
102
RTVSPropertyOp16
 70
     1
102
RTVSPropertyOp17
 70
     1
102
RTVSPropertyOp18
 70
     1
102
RTVSPropertyOp19
 70
     1
102
RTVSPropertyOp20
 70
     1
102
RTVSPropertyOp21
 70
     1
102
RTVSPropertyOp22
 70
     1
102
RTVSPropertyOp23
 70
     1
102
RTVSPropertyOp24
 70
     1
102
RTVSPropertyOp25
 70
     1
102
RTVSPropertyOp26
 70
     1
102
RTVSPropertyOp27
 70
     1
102
RTVSPropertyOp28
 70
     1
102
RTVSPropertyOp29
 70
     1
102
RTVSPropertyOp30
 70
     1
102
RTVSPropertyOp31
 70
     1
102
RTVSPropertyOp32
 70
     1
  0
XRECORD
  5
1D56
102
{ACAD_REACTORS
330
1D55
102
}
330
1D55
100
AcDbXrecord
280
     1
102
RTVSPropertyOp0
 70
     1
102
RTVSPropertyOp1
 70
     1
102
RTVSPropertyOp2
 70
     1
102
RTVSPropertyOp3
 70
     1
102
RTVSPropertyOp4
 70
     1
102
RTVSPropertyOp5
 70
     1
102
RTVSPropertyOp6
 70
     1
102
RTVSPropertyOp7
 70
     1
102
RTVSPropertyOp8
 70
     1
102
RTVSPropertyOp9
 70
     1
102
RTVSPropertyOp10
 70
     1
102
RTVSPropertyOp11
 70
     1
102
RTVSPropertyOp12
 70
     1
102
RTVSPropertyOp13
 70
     1
102
RTVSPropertyOp14
 70
     1
102
RTVSPropertyOp15
 70
     1
102
RTVSPropertyOp16
 70
     1
102
RTVSPropertyOp17
 70
     1
102
RTVSPropertyOp18
 70
     1
102
RTVSPropertyOp19
 70
     1
102
RTVSPropertyOp20
 70
     1
102
RTVSPropertyOp21
 70
     1
102
RTVSPropertyOp22
 70
     1
102
RTVSPropertyOp23
 70
     1
102
RTVSPropertyOp24
 70
     1
102
RTVSPropertyOp25
 70
     1
102
RTVSPropertyOp26
 70
     1
102
RTVSPropertyOp27
 70
     1
102
RTVSPropertyOp28
 70
     1
102
RTVSPropertyOp29
 70
     1
102
RTVSPropertyOp30
 70
     1
102
RTVSPropertyOp31
 70
     1
102
RTVSPropertyOp32
 70
     1
  0
XRECORD
  5
1D52
102
{ACAD_REACTORS
330
1D51
102
}
330
1D51
100
AcDbXrecord
280
     1
102
RTVSPropertyOp0
 70
     1
102
RTVSPropertyOp1
 70
     1
102
RTVSPropertyOp2
 70
     1
102
RTVSPropertyOp3
 70
     1
102
RTVSPropertyOp4
 70
     1
102
RTVSPropertyOp5
 70
     1
102
RTVSPropertyOp6
 70
     1
102
RTVSPropertyOp7
 70
     1
102
RTVSPropertyOp8
 70
     1
102
RTVSPropertyOp9
 70
     1
102
RTVSPropertyOp10
 70
     1
102
RTVSPropertyOp11
 70
     1
102
RTVSPropertyOp12
 70
     1
102
RTVSPropertyOp13
 70
     1
102
RTVSPropertyOp14
 70
     1
102
RTVSPropertyOp15
 70
     1
102
RTVSPropertyOp16
 70
     1
102
RTVSPropertyOp17
 70
     1
102
RTVSPropertyOp18
 70
     1
102
RTVSPropertyOp19
 70
     1
102
RTVSPropertyOp20
 70
     1
102
RTVSPropertyOp21
 70
     1
102
RTVSPropertyOp22
 70
     1
102
RTVSPropertyOp23
 70
     1
102
RTVSPropertyOp24
 70
     1
102
RTVSPropertyOp25
 70
     1
102
RTVSPropertyOp26
 70
     1
102
RTVSPropertyOp27
 70
     1
102
RTVSPropertyOp28
 70
     1
102
RTVSPropertyOp29
 70
     1
102
RTVSPropertyOp30
 70
     1
102
RTVSPropertyOp31
 70
     1
102
RTVSPropertyOp32
 70
     1
  0
XRECORD
  5
1D60
102
{ACAD_REACTORS
330
1D5F
102
}
330
1D5F
100
AcDbXrecord
280
     1
102
RTVSPropertyOp0
 70
     1
102
RTVSPropertyOp1
 70
     1
102
RTVSPropertyOp2
 70
     1
102
RTVSPropertyOp3
 70
     1
102
RTVSPropertyOp4
 70
     1
102
RTVSPropertyOp5
 70
     1
102
RTVSPropertyOp6
 70
     1
102
RTVSPropertyOp7
 70
     1
102
RTVSPropertyOp8
 70
     1
102
RTVSPropertyOp9
 70
     1
102
RTVSPropertyOp10
 70
     1
102
RTVSPropertyOp11
 70
     1
102
RTVSPropertyOp12
 70
     1
102
RTVSPropertyOp13
 70
     1
102
RTVSPropertyOp14
 70
     1
102
RTVSPropertyOp15
 70
     1
102
RTVSPropertyOp16
 70
     1
102
RTVSPropertyOp17
 70
     1
102
RTVSPropertyOp18
 70
     1
102
RTVSPropertyOp19
 70
     1
102
RTVSPropertyOp20
 70
     1
102
RTVSPropertyOp21
 70
     1
102
RTVSPropertyOp22
 70
     1
102
RTVSPropertyOp23
 70
     1
102
RTVSPropertyOp24
 70
     1
102
RTVSPropertyOp25
 70
     1
102
RTVSPropertyOp26
 70
     1
102
RTVSPropertyOp27
 70
     1
102
RTVSPropertyOp28
 70
     1
102
RTVSPropertyOp29
 70
     1
102
RTVSPropertyOp30
 70
     1
102
RTVSPropertyOp31
 70
     1
102
RTVSPropertyOp32
 70
     1
  0
XRECORD
  5
1D68
102
{ACAD_REACTORS
330
1D67
102
}
330
1D67
100
AcDbXrecord
280
     1
102
RTVSPropertyOp0
 70
     1
102
RTVSPropertyOp1
 70
     1
102
RTVSPropertyOp2
 70
     1
102
RTVSPropertyOp3
 70
     1
102
RTVSPropertyOp4
 70
     1
102
RTVSPropertyOp5
 70
     1
102
RTVSPropertyOp6
 70
     1
102
RTVSPropertyOp7
 70
     1
102
RTVSPropertyOp8
 70
     1
102
RTVSPropertyOp9
 70
     1
102
RTVSPropertyOp10
 70
     1
102
RTVSPropertyOp11
 70
     1
102
RTVSPropertyOp12
 70
     1
102
RTVSPropertyOp13
 70
     1
102
RTVSPropertyOp14
 70
     1
102
RTVSPropertyOp15
 70
     1
102
RTVSPropertyOp16
 70
     1
102
RTVSPropertyOp17
 70
     1
102
RTVSPropertyOp18
 70
     1
102
RTVSPropertyOp19
 70
     1
102
RTVSPropertyOp20
 70
     1
102
RTVSPropertyOp21
 70
     1
102
RTVSPropertyOp22
 70
     1
102
RTVSPropertyOp23
 70
     1
102
RTVSPropertyOp24
 70
     1
102
RTVSPropertyOp25
 70
     1
102
RTVSPropertyOp26
 70
     1
102
RTVSPropertyOp27
 70
     1
102
RTVSPropertyOp28
 70
     1
102
RTVSPropertyOp29
 70
     1
102
RTVSPropertyOp30
 70
     1
102
RTVSPropertyOp31
 70
     1
102
RTVSPropertyOp32
 70
     1
  0
XRECORD
  5
1D5A
102
{ACAD_REACTORS
330
1D59
102
}
330
1D59
100
AcDbXrecord
280
     1
102
RTVSPropertyOp0
 70
     1
102
RTVSPropertyOp1
 70
     1
102
RTVSPropertyOp2
 70
     1
102
RTVSPropertyOp3
 70
     1
102
RTVSPropertyOp4
 70
     1
102
RTVSPropertyOp5
 70
     1
102
RTVSPropertyOp6
 70
     1
102
RTVSPropertyOp7
 70
     1
102
RTVSPropertyOp8
 70
     1
102
RTVSPropertyOp9
 70
     1
102
RTVSPropertyOp10
 70
     1
102
RTVSPropertyOp11
 70
     1
102
RTVSPropertyOp12
 70
     1
102
RTVSPropertyOp13
 70
     1
102
RTVSPropertyOp14
 70
     1
102
RTVSPropertyOp15
 70
     1
102
RTVSPropertyOp16
 70
     1
102
RTVSPropertyOp17
 70
     1
102
RTVSPropertyOp18
 70
     1
102
RTVSPropertyOp19
 70
     1
102
RTVSPropertyOp20
 70
     1
102
RTVSPropertyOp21
 70
     1
102
RTVSPropertyOp22
 70
     1
102
RTVSPropertyOp23
 70
     1
102
RTVSPropertyOp24
 70
     1
102
RTVSPropertyOp25
 70
     1
102
RTVSPropertyOp26
 70
     1
102
RTVSPropertyOp27
 70
     1
102
RTVSPropertyOp28
 70
     1
102
RTVSPropertyOp29
 70
     1
102
RTVSPropertyOp30
 70
     1
102
RTVSPropertyOp31
 70
     1
102
RTVSPropertyOp32
 70
     1
  0
XRECORD
  5
1D5E
102
{ACAD_REACTORS
330
1D5D
102
}
330
1D5D
100
AcDbXrecord
280
     1
102
RTVSPropertyOp0
 70
     1
102
RTVSPropertyOp1
 70
     1
102
RTVSPropertyOp2
 70
     1
102
RTVSPropertyOp3
 70
     1
102
RTVSPropertyOp4
 70
     1
102
RTVSPropertyOp5
 70
     1
102
RTVSPropertyOp6
 70
     1
102
RTVSPropertyOp7
 70
     1
102
RTVSPropertyOp8
 70
     1
102
RTVSPropertyOp9
 70
     1
102
RTVSPropertyOp10
 70
     1
102
RTVSPropertyOp11
 70
     1
102
RTVSPropertyOp12
 70
     1
102
RTVSPropertyOp13
 70
     1
102
RTVSPropertyOp14
 70
     1
102
RTVSPropertyOp15
 70
     1
102
RTVSPropertyOp16
 70
     1
102
RTVSPropertyOp17
 70
     1
102
RTVSPropertyOp18
 70
     1
102
RTVSPropertyOp19
 70
     1
102
RTVSPropertyOp20
 70
     1
102
RTVSPropertyOp21
 70
     1
102
RTVSPropertyOp22
 70
     1
102
RTVSPropertyOp23
 70
     1
102
RTVSPropertyOp24
 70
     1
102
RTVSPropertyOp25
 70
     1
102
RTVSPropertyOp26
 70
     1
102
RTVSPropertyOp27
 70
     1
102
RTVSPropertyOp28
 70
     1
102
RTVSPropertyOp29
 70
     1
102
RTVSPropertyOp30
 70
     1
102
RTVSPropertyOp31
 70
     1
102
RTVSPropertyOp32
 70
     1
  0
XRECORD
  5
1D7C
102
{ACAD_REACTORS
330
1D7B
102
}
330
1D7B
100
AcDbXrecord
280
     1
102
RTVSPropertyOp0
 70
     0
102
RTVSPropertyOp1
 70
     0
102
RTVSPropertyOp2
 70
     0
102
RTVSPropertyOp3
 70
     0
102
RTVSPropertyOp4
 70
     0
102
RTVSPropertyOp5
 70
     0
102
RTVSPropertyOp6
 70
     0
102
RTVSPropertyOp7
 70
     0
102
RTVSPropertyOp8
 70
     0
102
RTVSPropertyOp9
 70
     0
102
RTVSPropertyOp10
 70
     0
102
RTVSPropertyOp11
 70
     0
102
RTVSPropertyOp12
 70
     0
102
RTVSPropertyOp13
 70
     0
102
RTVSPropertyOp14
 70
     2
102
RTVSPropertyOp15
 70
     0
102
RTVSPropertyOp16
 70
     0
102
RTVSPropertyOp17
 70
     0
102
RTVSPropertyOp18
 70
     0
102
RTVSPropertyOp19
 70
     0
102
RTVSPropertyOp20
 70
     0
102
RTVSPropertyOp21
 70
     0
102
RTVSPropertyOp22
 70
     0
102
RTVSPropertyOp23
 70
     0
102
RTVSPropertyOp24
 70
     0
102
RTVSPropertyOp25
 70
     0
102
RTVSPropertyOp26
 70
     0
102
RTVSPropertyOp27
 70
     0
102
RTVSPropertyOp28
 70
     1
102
RTVSPropertyOp29
 70
     1
102
RTVSPropertyOp30
 70
     1
102
RTVSPropertyOp31
 70
     1
102
RTVSPropertyOp32
 70
     1
  0
XRECORD
  5
1D66
102
{ACAD_REACTORS
330
1D65
102
}
330
1D65
100
AcDbXrecord
280
     1
102
RTVSPropertyOp0
 70
     1
102
RTVSPropertyOp1
 70
     1
102
RTVSPropertyOp2
 70
     1
102
RTVSPropertyOp3
 70
     1
102
RTVSPropertyOp4
 70
     1
102
RTVSPropertyOp5
 70
     1
102
RTVSPropertyOp6
 70
     1
102
RTVSPropertyOp7
 70
     1
102
RTVSPropertyOp8
 70
     1
102
RTVSPropertyOp9
 70
     1
102
RTVSPropertyOp10
 70
     1
102
RTVSPropertyOp11
 70
     1
102
RTVSPropertyOp12
 70
     1
102
RTVSPropertyOp13
 70
     1
102
RTVSPropertyOp14
 70
     1
102
RTVSPropertyOp15
 70
     1
102
RTVSPropertyOp16
 70
     1
102
RTVSPropertyOp17
 70
     1
102
RTVSPropertyOp18
 70
     1
102
RTVSPropertyOp19
 70
     1
102
RTVSPropertyOp20
 70
     1
102
RTVSPropertyOp21
 70
     1
102
RTVSPropertyOp22
 70
     1
102
RTVSPropertyOp23
 70
     1
102
RTVSPropertyOp24
 70
     1
102
RTVSPropertyOp25
 70
     1
102
RTVSPropertyOp26
 70
     1
102
RTVSPropertyOp27
 70
     1
102
RTVSPropertyOp28
 70
     1
102
RTVSPropertyOp29
 70
     1
102
RTVSPropertyOp30
 70
     1
102
RTVSPropertyOp31
 70
     1
102
RTVSPropertyOp32
 70
     1
  0
XRECORD
  5
1D4A
102
{ACAD_REACTORS
330
1D49
102
}
330
1D49
100
AcDbXrecord
280
     1
102
RTVSPropertyOp0
 70
     1
102
RTVSPropertyOp1
 70
     1
102
RTVSPropertyOp2
 70
     1
102
RTVSPropertyOp3
 70
     1
102
RTVSPropertyOp4
 70
     1
102
RTVSPropertyOp5
 70
     1
102
RTVSPropertyOp6
 70
     1
102
RTVSPropertyOp7
 70
     1
102
RTVSPropertyOp8
 70
     1
102
RTVSPropertyOp9
 70
     1
102
RTVSPropertyOp10
 70
     1
102
RTVSPropertyOp11
 70
     1
102
RTVSPropertyOp12
 70
     1
102
RTVSPropertyOp13
 70
     1
102
RTVSPropertyOp14
 70
     1
102
RTVSPropertyOp15
 70
     1
102
RTVSPropertyOp16
 70
     1
102
RTVSPropertyOp17
 70
     1
102
RTVSPropertyOp18
 70
     1
102
RTVSPropertyOp19
 70
     1
102
RTVSPropertyOp20
 70
     1
102
RTVSPropertyOp21
 70
     1
102
RTVSPropertyOp22
 70
     1
102
RTVSPropertyOp23
 70
     1
102
RTVSPropertyOp24
 70
     1
102
RTVSPropertyOp25
 70
     1
102
RTVSPropertyOp26
 70
     1
102
RTVSPropertyOp27
 70
     1
102
RTVSPropertyOp28
 70
     1
102
RTVSPropertyOp29
 70
     1
102
RTVSPropertyOp30
 70
     1
102
RTVSPropertyOp31
 70
     1
102
RTVSPropertyOp32
 70
     1
  0
XRECORD
  5
1D4C
102
{ACAD_REACTORS
330
1D4B
102
}
330
1D4B
100
AcDbXrecord
280
     1
102
RTVSPropertyOp0
 70
     1
102
RTVSPropertyOp1
 70
     1
102
RTVSPropertyOp2
 70
     1
102
RTVSPropertyOp3
 70
     1
102
RTVSPropertyOp4
 70
     1
102
RTVSPropertyOp5
 70
     1
102
RTVSPropertyOp6
 70
     1
102
RTVSPropertyOp7
 70
     1
102
RTVSPropertyOp8
 70
     1
102
RTVSPropertyOp9
 70
     1
102
RTVSPropertyOp10
 70
     1
102
RTVSPropertyOp11
 70
     1
102
RTVSPropertyOp12
 70
     1
102
RTVSPropertyOp13
 70
     1
102
RTVSPropertyOp14
 70
     1
102
RTVSPropertyOp15
 70
     1
102
RTVSPropertyOp16
 70
     1
102
RTVSPropertyOp17
 70
     1
102
RTVSPropertyOp18
 70
     1
102
RTVSPropertyOp19
 70
     1
102
RTVSPropertyOp20
 70
     1
102
RTVSPropertyOp21
 70
     1
102
RTVSPropertyOp22
 70
     1
102
RTVSPropertyOp23
 70
     1
102
RTVSPropertyOp24
 70
     1
102
RTVSPropertyOp25
 70
     1
102
RTVSPropertyOp26
 70
     1
102
RTVSPropertyOp27
 70
     1
102
RTVSPropertyOp28
 70
     1
102
RTVSPropertyOp29
 70
     1
102
RTVSPropertyOp30
 70
     1
102
RTVSPropertyOp31
 70
     1
102
RTVSPropertyOp32
 70
     1
  0
XRECORD
  5
1D4E
102
{ACAD_REACTORS
330
1D4D
102
}
330
1D4D
100
AcDbXrecord
280
     1
102
RTVSPropertyOp0
 70
     1
102
RTVSPropertyOp1
 70
     1
102
RTVSPropertyOp2
 70
     1
102
RTVSPropertyOp3
 70
     1
102
RTVSPropertyOp4
 70
     1
102
RTVSPropertyOp5
 70
     1
102
RTVSPropertyOp6
 70
     1
102
RTVSPropertyOp7
 70
     1
102
RTVSPropertyOp8
 70
     1
102
RTVSPropertyOp9
 70
     1
102
RTVSPropertyOp10
 70
     1
102
RTVSPropertyOp11
 70
     1
102
RTVSPropertyOp12
 70
     1
102
RTVSPropertyOp13
 70
     1
102
RTVSPropertyOp14
 70
     1
102
RTVSPropertyOp15
 70
     1
102
RTVSPropertyOp16
 70
     1
102
RTVSPropertyOp17
 70
     1
102
RTVSPropertyOp18
 70
     1
102
RTVSPropertyOp19
 70
     1
102
RTVSPropertyOp20
 70
     1
102
RTVSPropertyOp21
 70
     1
102
RTVSPropertyOp22
 70
     1
102
RTVSPropertyOp23
 70
     1
102
RTVSPropertyOp24
 70
     1
102
RTVSPropertyOp25
 70
     1
102
RTVSPropertyOp26
 70
     1
102
RTVSPropertyOp27
 70
     1
102
RTVSPropertyOp28
 70
     1
102
RTVSPropertyOp29
 70
     1
102
RTVSPropertyOp30
 70
     1
102
RTVSPropertyOp31
 70
     1
102
RTVSPropertyOp32
 70
     1
  0
XRECORD
  5
1D50
102
{ACAD_REACTORS
330
1D4F
102
}
330
1D4F
100
AcDbXrecord
280
     1
102
RTVSPropertyOp0
 70
     1
102
RTVSPropertyOp1
 70
     1
102
RTVSPropertyOp2
 70
     1
102
RTVSPropertyOp3
 70
     1
102
RTVSPropertyOp4
 70
     1
102
RTVSPropertyOp5
 70
     1
102
RTVSPropertyOp6
 70
     1
102
RTVSPropertyOp7
 70
     1
102
RTVSPropertyOp8
 70
     1
102
RTVSPropertyOp9
 70
     1
102
RTVSPropertyOp10
 70
     1
102
RTVSPropertyOp11
 70
     1
102
RTVSPropertyOp12
 70
     1
102
RTVSPropertyOp13
 70
     1
102
RTVSPropertyOp14
 70
     1
102
RTVSPropertyOp15
 70
     1
102
RTVSPropertyOp16
 70
     1
102
RTVSPropertyOp17
 70
     1
102
RTVSPropertyOp18
 70
     1
102
RTVSPropertyOp19
 70
     1
102
RTVSPropertyOp20
 70
     1
102
RTVSPropertyOp21
 70
     1
102
RTVSPropertyOp22
 70
     1
102
RTVSPropertyOp23
 70
     1
102
RTVSPropertyOp24
 70
     1
102
RTVSPropertyOp25
 70
     1
102
RTVSPropertyOp26
 70
     1
102
RTVSPropertyOp27
 70
     1
102
RTVSPropertyOp28
 70
     1
102
RTVSPropertyOp29
 70
     1
102
RTVSPropertyOp30
 70
     1
102
RTVSPropertyOp31
 70
     1
102
RTVSPropertyOp32
 70
     1
  0
XRECORD
  5
1D6C
102
{ACAD_REACTORS
330
1D6B
102
}
330
1D6B
100
AcDbXrecord
280
     1
102
RTVSPropertyOp0
 70
     1
102
RTVSPropertyOp1
 70
     1
102
RTVSPropertyOp2
 70
     1
102
RTVSPropertyOp3
 70
     1
102
RTVSPropertyOp4
 70
     1
102
RTVSPropertyOp5
 70
     1
102
RTVSPropertyOp6
 70
     1
102
RTVSPropertyOp7
 70
     1
102
RTVSPropertyOp8
 70
     1
102
RTVSPropertyOp9
 70
     1
102
RTVSPropertyOp10
 70
     1
102
RTVSPropertyOp11
 70
     1
102
RTVSPropertyOp12
 70
     1
102
RTVSPropertyOp13
 70
     1
102
RTVSPropertyOp14
 70
     1
102
RTVSPropertyOp15
 70
     1
102
RTVSPropertyOp16
 70
     1
102
RTVSPropertyOp17
 70
     1
102
RTVSPropertyOp18
 70
     1
102
RTVSPropertyOp19
 70
     1
102
RTVSPropertyOp20
 70
     1
102
RTVSPropertyOp21
 70
     1
102
RTVSPropertyOp22
 70
     1
102
RTVSPropertyOp23
 70
     1
102
RTVSPropertyOp24
 70
     1
102
RTVSPropertyOp25
 70
     1
102
RTVSPropertyOp26
 70
     1
102
RTVSPropertyOp27
 70
     1
102
RTVSPropertyOp28
 70
     1
102
RTVSPropertyOp29
 70
     1
102
RTVSPropertyOp30
 70
     1
102
RTVSPropertyOp31
 70
     1
102
RTVSPropertyOp32
 70
     1
  0
XRECORD
  5
1D78
102
{ACAD_REACTORS
330
1D77
102
}
330
1D77
100
AcDbXrecord
280
     1
102
RTVSPropertyOp0
 70
     0
102
RTVSPropertyOp1
 70
     0
102
RTVSPropertyOp2
 70
     0
102
RTVSPropertyOp3
 70
     0
102
RTVSPropertyOp4
 70
     0
102
RTVSPropertyOp5
 70
     0
102
RTVSPropertyOp6
 70
     0
102
RTVSPropertyOp7
 70
     0
102
RTVSPropertyOp8
 70
     0
102
RTVSPropertyOp9
 70
     0
102
RTVSPropertyOp10
 70
     0
102
RTVSPropertyOp11
 70
     0
102
RTVSPropertyOp12
 70
     0
102
RTVSPropertyOp13
 70
     0
102
RTVSPropertyOp14
 70
     2
102
RTVSPropertyOp15
 70
     0
102
RTVSPropertyOp16
 70
     0
102
RTVSPropertyOp17
 70
     0
102
RTVSPropertyOp18
 70
     0
102
RTVSPropertyOp19
 70
     0
102
RTVSPropertyOp20
 70
     0
102
RTVSPropertyOp21
 70
     0
102
RTVSPropertyOp22
 70
     0
102
RTVSPropertyOp23
 70
     0
102
RTVSPropertyOp24
 70
     0
102
RTVSPropertyOp25
 70
     0
102
RTVSPropertyOp26
 70
     0
102
RTVSPropertyOp27
 70
     0
102
RTVSPropertyOp28
 70
     1
102
RTVSPropertyOp29
 70
     1
102
RTVSPropertyOp30
 70
     1
102
RTVSPropertyOp31
 70
     1
102
RTVSPropertyOp32
 70
     1
  0
XRECORD
  5
1D64
102
{ACAD_REACTORS
330
1D63
102
}
330
1D63
100
AcDbXrecord
280
     1
102
RTVSPropertyOp0
 70
     1
102
RTVSPropertyOp1
 70
     1
102
RTVSPropertyOp2
 70
     1
102
RTVSPropertyOp3
 70
     1
102
RTVSPropertyOp4
 70
     1
102
RTVSPropertyOp5
 70
     1
102
RTVSPropertyOp6
 70
     1
102
RTVSPropertyOp7
 70
     1
102
RTVSPropertyOp8
 70
     1
102
RTVSPropertyOp9
 70
     1
102
RTVSPropertyOp10
 70
     1
102
RTVSPropertyOp11
 70
     1
102
RTVSPropertyOp12
 70
     1
102
RTVSPropertyOp13
 70
     1
102
RTVSPropertyOp14
 70
     1
102
RTVSPropertyOp15
 70
     1
102
RTVSPropertyOp16
 70
     1
102
RTVSPropertyOp17
 70
     1
102
RTVSPropertyOp18
 70
     1
102
RTVSPropertyOp19
 70
     1
102
RTVSPropertyOp20
 70
     1
102
RTVSPropertyOp21
 70
     1
102
RTVSPropertyOp22
 70
     1
102
RTVSPropertyOp23
 70
     1
102
RTVSPropertyOp24
 70
     1
102
RTVSPropertyOp25
 70
     1
102
RTVSPropertyOp26
 70
     1
102
RTVSPropertyOp27
 70
     1
102
RTVSPropertyOp28
 70
     1
102
RTVSPropertyOp29
 70
     1
102
RTVSPropertyOp30
 70
     1
102
RTVSPropertyOp31
 70
     1
102
RTVSPropertyOp32
 70
     1
  0
XRECORD
  5
1D7A
102
{ACAD_REACTORS
330
1D79
102
}
330
1D79
100
AcDbXrecord
280
     1
102
RTVSPropertyOp0
 70
     0
102
RTVSPropertyOp1
 70
     0
102
RTVSPropertyOp2
 70
     0
102
RTVSPropertyOp3
 70
     0
102
RTVSPropertyOp4
 70
     0
102
RTVSPropertyOp5
 70
     0
102
RTVSPropertyOp6
 70
     0
102
RTVSPropertyOp7
 70
     0
102
RTVSPropertyOp8
 70
     0
102
RTVSPropertyOp9
 70
     0
102
RTVSPropertyOp10
 70
     0
102
RTVSPropertyOp11
 70
     0
102
RTVSPropertyOp12
 70
     0
102
RTVSPropertyOp13
 70
     0
102
RTVSPropertyOp14
 70
     2
102
RTVSPropertyOp15
 70
     0
102
RTVSPropertyOp16
 70
     0
102
RTVSPropertyOp17
 70
     0
102
RTVSPropertyOp18
 70
     0
102
RTVSPropertyOp19
 70
     0
102
RTVSPropertyOp20
 70
     0
102
RTVSPropertyOp21
 70
     0
102
RTVSPropertyOp22
 70
     0
102
RTVSPropertyOp23
 70
     0
102
RTVSPropertyOp24
 70
     0
102
RTVSPropertyOp25
 70
     0
102
RTVSPropertyOp26
 70
     0
102
RTVSPropertyOp27
 70
     0
102
RTVSPropertyOp28
 70
     1
102
RTVSPropertyOp29
 70
     1
102
RTVSPropertyOp30
 70
     1
102
RTVSPropertyOp31
 70
     1
102
RTVSPropertyOp32
 70
     1
  0
XRECORD
  5
1D5C
102
{ACAD_REACTORS
330
1D5B
102
}
330
1D5B
100
AcDbXrecord
280
     1
102
RTVSPropertyOp0
 70
     1
102
RTVSPropertyOp1
 70
     1
102
RTVSPropertyOp2
 70
     1
102
RTVSPropertyOp3
 70
     1
102
RTVSPropertyOp4
 70
     1
102
RTVSPropertyOp5
 70
     1
102
RTVSPropertyOp6
 70
     1
102
RTVSPropertyOp7
 70
     1
102
RTVSPropertyOp8
 70
     1
102
RTVSPropertyOp9
 70
     1
102
RTVSPropertyOp10
 70
     1
102
RTVSPropertyOp11
 70
     1
102
RTVSPropertyOp12
 70
     1
102
RTVSPropertyOp13
 70
     1
102
RTVSPropertyOp14
 70
     1
102
RTVSPropertyOp15
 70
     1
102
RTVSPropertyOp16
 70
     1
102
RTVSPropertyOp17
 70
     1
102
RTVSPropertyOp18
 70
     1
102
RTVSPropertyOp19
 70
     1
102
RTVSPropertyOp20
 70
     1
102
RTVSPropertyOp21
 70
     1
102
RTVSPropertyOp22
 70
     1
102
RTVSPropertyOp23
 70
     1
102
RTVSPropertyOp24
 70
     1
102
RTVSPropertyOp25
 70
     1
102
RTVSPropertyOp26
 70
     1
102
RTVSPropertyOp27
 70
     1
102
RTVSPropertyOp28
 70
     1
102
RTVSPropertyOp29
 70
     1
102
RTVSPropertyOp30
 70
     1
102
RTVSPropertyOp31
 70
     1
102
RTVSPropertyOp32
 70
     1
  0
XRECORD
  5
1D76
102
{ACAD_REACTORS
330
1D75
102
}
330
1D75
100
AcDbXrecord
280
     1
102
RTVSPropertyOp0
 70
     1
102
RTVSPropertyOp1
 70
     1
102
RTVSPropertyOp2
 70
     1
102
RTVSPropertyOp3
 70
     1
102
RTVSPropertyOp4
 70
     1
102
RTVSPropertyOp5
 70
     1
102
RTVSPropertyOp6
 70
     1
102
RTVSPropertyOp7
 70
     1
102
RTVSPropertyOp8
 70
     1
102
RTVSPropertyOp9
 70
     1
102
RTVSPropertyOp10
 70
     1
102
RTVSPropertyOp11
 70
     1
102
RTVSPropertyOp12
 70
     1
102
RTVSPropertyOp13
 70
     1
102
RTVSPropertyOp14
 70
     1
102
RTVSPropertyOp15
 70
     1
102
RTVSPropertyOp16
 70
     1
102
RTVSPropertyOp17
 70
     1
102
RTVSPropertyOp18
 70
     1
102
RTVSPropertyOp19
 70
     1
102
RTVSPropertyOp20
 70
     1
102
RTVSPropertyOp21
 70
     1
102
RTVSPropertyOp22
 70
     1
102
RTVSPropertyOp23
 70
     1
102
RTVSPropertyOp24
 70
     1
102
RTVSPropertyOp25
 70
     1
102
RTVSPropertyOp26
 70
     1
102
RTVSPropertyOp27
 70
     1
102
RTVSPropertyOp28
 70
     1
102
RTVSPropertyOp29
 70
     1
102
RTVSPropertyOp30
 70
     1
102
RTVSPropertyOp31
 70
     1
102
RTVSPropertyOp32
 70
     1
  0
XRECORD
  5
1D74
102
{ACAD_REACTORS
330
1D73
102
}
330
1D73
100
AcDbXrecord
280
     1
102
RTVSPropertyOp0
 70
     1
102
RTVSPropertyOp1
 70
     1
102
RTVSPropertyOp2
 70
     1
102
RTVSPropertyOp3
 70
     1
102
RTVSPropertyOp4
 70
     1
102
RTVSPropertyOp5
 70
     1
102
RTVSPropertyOp6
 70
     1
102
RTVSPropertyOp7
 70
     1
102
RTVSPropertyOp8
 70
     1
102
RTVSPropertyOp9
 70
     1
102
RTVSPropertyOp10
 70
     1
102
RTVSPropertyOp11
 70
     1
102
RTVSPropertyOp12
 70
     1
102
RTVSPropertyOp13
 70
     1
102
RTVSPropertyOp14
 70
     1
102
RTVSPropertyOp15
 70
     1
102
RTVSPropertyOp16
 70
     1
102
RTVSPropertyOp17
 70
     1
102
RTVSPropertyOp18
 70
     1
102
RTVSPropertyOp19
 70
     1
102
RTVSPropertyOp20
 70
     1
102
RTVSPropertyOp21
 70
     1
102
RTVSPropertyOp22
 70
     1
102
RTVSPropertyOp23
 70
     1
102
RTVSPropertyOp24
 70
     1
102
RTVSPropertyOp25
 70
     1
102
RTVSPropertyOp26
 70
     1
102
RTVSPropertyOp27
 70
     1
102
RTVSPropertyOp28
 70
     1
102
RTVSPropertyOp29
 70
     1
102
RTVSPropertyOp30
 70
     1
102
RTVSPropertyOp31
 70
     1
102
RTVSPropertyOp32
 70
     1
  0
XRECORD
  5
1D6E
102
{ACAD_REACTORS
330
1D6D
102
}
330
1D6D
100
AcDbXrecord
280
     1
102
RTVSPropertyOp0
 70
     1
102
RTVSPropertyOp1
 70
     1
102
RTVSPropertyOp2
 70
     1
102
RTVSPropertyOp3
 70
     1
102
RTVSPropertyOp4
 70
     1
102
RTVSPropertyOp5
 70
     1
102
RTVSPropertyOp6
 70
     1
102
RTVSPropertyOp7
 70
     1
102
RTVSPropertyOp8
 70
     1
102
RTVSPropertyOp9
 70
     1
102
RTVSPropertyOp10
 70
     1
102
RTVSPropertyOp11
 70
     1
102
RTVSPropertyOp12
 70
     1
102
RTVSPropertyOp13
 70
     1
102
RTVSPropertyOp14
 70
     1
102
RTVSPropertyOp15
 70
     1
102
RTVSPropertyOp16
 70
     1
102
RTVSPropertyOp17
 70
     1
102
RTVSPropertyOp18
 70
     1
102
RTVSPropertyOp19
 70
     1
102
RTVSPropertyOp20
 70
     1
102
RTVSPropertyOp21
 70
     1
102
RTVSPropertyOp22
 70
     1
102
RTVSPropertyOp23
 70
     1
102
RTVSPropertyOp24
 70
     1
102
RTVSPropertyOp25
 70
     1
102
RTVSPropertyOp26
 70
     1
102
RTVSPropertyOp27
 70
     1
102
RTVSPropertyOp28
 70
     1
102
RTVSPropertyOp29
 70
     1
102
RTVSPropertyOp30
 70
     1
102
RTVSPropertyOp31
 70
     1
102
RTVSPropertyOp32
 70
     1
  0
XRECORD
  5
1D70
102
{ACAD_REACTORS
330
1D6F
102
}
330
1D6F
100
AcDbXrecord
280
     1
102
RTVSPropertyOp0
 70
     1
102
RTVSPropertyOp1
 70
     1
102
RTVSPropertyOp2
 70
     1
102
RTVSPropertyOp3
 70
     1
102
RTVSPropertyOp4
 70
     1
102
RTVSPropertyOp5
 70
     1
102
RTVSPropertyOp6
 70
     1
102
RTVSPropertyOp7
 70
     1
102
RTVSPropertyOp8
 70
     1
102
RTVSPropertyOp9
 70
     1
102
RTVSPropertyOp10
 70
     1
102
RTVSPropertyOp11
 70
     1
102
RTVSPropertyOp12
 70
     1
102
RTVSPropertyOp13
 70
     1
102
RTVSPropertyOp14
 70
     1
102
RTVSPropertyOp15
 70
     1
102
RTVSPropertyOp16
 70
     1
102
RTVSPropertyOp17
 70
     1
102
RTVSPropertyOp18
 70
     1
102
RTVSPropertyOp19
 70
     1
102
RTVSPropertyOp20
 70
     1
102
RTVSPropertyOp21
 70
     1
102
RTVSPropertyOp22
 70
     1
102
RTVSPropertyOp23
 70
     1
102
RTVSPropertyOp24
 70
     1
102
RTVSPropertyOp25
 70
     1
102
RTVSPropertyOp26
 70
     1
102
RTVSPropertyOp27
 70
     1
102
RTVSPropertyOp28
 70
     1
102
RTVSPropertyOp29
 70
     1
102
RTVSPropertyOp30
 70
     1
102
RTVSPropertyOp31
 70
     1
102
RTVSPropertyOp32
 70
     1
  0
XRECORD
  5
1D62
102
{ACAD_REACTORS
330
1D61
102
}
330
1D61
100
AcDbXrecord
280
     1
102
RTVSPropertyOp0
 70
     1
102
RTVSPropertyOp1
 70
     1
102
RTVSPropertyOp2
 70
     1
102
RTVSPropertyOp3
 70
     1
102
RTVSPropertyOp4
 70
     1
102
RTVSPropertyOp5
 70
     1
102
RTVSPropertyOp6
 70
     1
102
RTVSPropertyOp7
 70
     1
102
RTVSPropertyOp8
 70
     1
102
RTVSPropertyOp9
 70
     1
102
RTVSPropertyOp10
 70
     1
102
RTVSPropertyOp11
 70
     1
102
RTVSPropertyOp12
 70
     1
102
RTVSPropertyOp13
 70
     1
102
RTVSPropertyOp14
 70
     1
102
RTVSPropertyOp15
 70
     1
102
RTVSPropertyOp16
 70
     1
102
RTVSPropertyOp17
 70
     1
102
RTVSPropertyOp18
 70
     1
102
RTVSPropertyOp19
 70
     1
102
RTVSPropertyOp20
 70
     1
102
RTVSPropertyOp21
 70
     1
102
RTVSPropertyOp22
 70
     1
102
RTVSPropertyOp23
 70
     1
102
RTVSPropertyOp24
 70
     1
102
RTVSPropertyOp25
 70
     1
102
RTVSPropertyOp26
 70
     1
102
RTVSPropertyOp27
 70
     1
102
RTVSPropertyOp28
 70
     1
102
RTVSPropertyOp29
 70
     1
102
RTVSPropertyOp30
 70
     1
102
RTVSPropertyOp31
 70
     1
102
RTVSPropertyOp32
 70
     1
  0
XRECORD
  5
1D6A
102
{ACAD_REACTORS
330
1D69
102
}
330
1D69
100
AcDbXrecord
280
     1
102
RTVSPropertyOp0
 70
     1
102
RTVSPropertyOp1
 70
     1
102
RTVSPropertyOp2
 70
     1
102
RTVSPropertyOp3
 70
     1
102
RTVSPropertyOp4
 70
     1
102
RTVSPropertyOp5
 70
     1
102
RTVSPropertyOp6
 70
     1
102
RTVSPropertyOp7
 70
     1
102
RTVSPropertyOp8
 70
     1
102
RTVSPropertyOp9
 70
     1
102
RTVSPropertyOp10
 70
     1
102
RTVSPropertyOp11
 70
     1
102
RTVSPropertyOp12
 70
     1
102
RTVSPropertyOp13
 70
     1
102
RTVSPropertyOp14
 70
     1
102
RTVSPropertyOp15
 70
     1
102
RTVSPropertyOp16
 70
     1
102
RTVSPropertyOp17
 70
     1
102
RTVSPropertyOp18
 70
     1
102
RTVSPropertyOp19
 70
     1
102
RTVSPropertyOp20
 70
     1
102
RTVSPropertyOp21
 70
     1
102
RTVSPropertyOp22
 70
     1
102
RTVSPropertyOp23
 70
     1
102
RTVSPropertyOp24
 70
     1
102
RTVSPropertyOp25
 70
     1
102
RTVSPropertyOp26
 70
     1
102
RTVSPropertyOp27
 70
     1
102
RTVSPropertyOp28
 70
     1
102
RTVSPropertyOp29
 70
     1
102
RTVSPropertyOp30
 70
     1
102
RTVSPropertyOp31
 70
     1
102
RTVSPropertyOp32
 70
     1
  0
XRECORD
  5
1D72
102
{ACAD_REACTORS
330
1D71
102
}
330
1D71
100
AcDbXrecord
280
     1
102
RTVSPropertyOp0
 70
     1
102
RTVSPropertyOp1
 70
     1
102
RTVSPropertyOp2
 70
     1
102
RTVSPropertyOp3
 70
     1
102
RTVSPropertyOp4
 70
     1
102
RTVSPropertyOp5
 70
     1
102
RTVSPropertyOp6
 70
     1
102
RTVSPropertyOp7
 70
     1
102
RTVSPropertyOp8
 70
     1
102
RTVSPropertyOp9
 70
     1
102
RTVSPropertyOp10
 70
     1
102
RTVSPropertyOp11
 70
     1
102
RTVSPropertyOp12
 70
     1
102
RTVSPropertyOp13
 70
     1
102
RTVSPropertyOp14
 70
     1
102
RTVSPropertyOp15
 70
     1
102
RTVSPropertyOp16
 70
     1
102
RTVSPropertyOp17
 70
     1
102
RTVSPropertyOp18
 70
     1
102
RTVSPropertyOp19
 70
     1
102
RTVSPropertyOp20
 70
     1
102
RTVSPropertyOp21
 70
     1
102
RTVSPropertyOp22
 70
     1
102
RTVSPropertyOp23
 70
     1
102
RTVSPropertyOp24
 70
     1
102
RTVSPropertyOp25
 70
     1
102
RTVSPropertyOp26
 70
     1
102
RTVSPropertyOp27
 70
     1
102
RTVSPropertyOp28
 70
     1
102
RTVSPropertyOp29
 70
     1
102
RTVSPropertyOp30
 70
     1
102
RTVSPropertyOp31
 70
     1
102
RTVSPropertyOp32
 70
     1
  0
ENDSEC
  0
EOF
