  0
SECTION
  2
HEADER
  9
$ACADVER
  1
AC1015
  9
$ACADMAINTVER
 70
    20
  9
$DWGCODEPAGE
  3
ANSI_932
  9
$INSBASE
 10
0.0
 20
0.0
 30
0.0
  9
$EXTMIN
 10
673.9087391787877
 20
-294.0582604731767
 30
-0.0015258207003583
  9
$EXTMAX
 10
1078.93043794381
 20
-19.98193908302312
 30
0.0000000349246037
  9
$LIMMIN
 10
233.301246
 20
-289.698479
  9
$LIMMAX
 10
638.329125
 20
-15.492452
  9
$ORTHOMODE
 70
     1
  9
$REGENMODE
 70
     1
  9
$FILLMODE
 70
     1
  9
$QTEXTMODE
 70
     0
  9
$MIRRTEXT
 70
     0
  9
$LTSCALE
 40
6.750430999999997
  9
$ATTMODE
 70
     1
  9
$TEXTSIZE
 40
3.2
  9
$TRACEWID
 40
0.05
  9
$TEXTSTYLE
  7
高3.2
  9
$CLAYER
  8
0
  9
$CELTYPE
  6
CONTINUOUS
  9
$CECOLOR
 62
   256
  9
$CELTSCALE
 40
1.0
  9
$DISPSILH
 70
     0
  9
$DIMSCALE
 40
1.0
  9
$DIMASZ
 40
2.5
  9
$DIMEXO
 40
0.25
  9
$DIMDLI
 40
0.2
  9
$DIMRND
 40
0.0
  9
$DIMDLE
 40
0.0
  9
$DIMEXE
 40
1.25
  9
$DIMTP
 40
0.0
  9
$DIMTM
 40
0.0
  9
$DIMTXT
 40
3.0
  9
$DIMCEN
 40
0.0
  9
$DIMTSZ
 40
0.0
  9
$DIMTOL
 70
     0
  9
$DIMLIM
 70
     0
  9
$DIMTIH
 70
     0
  9
$DIMTOH
 70
     0
  9
$DIMSE1
 70
     0
  9
$DIMSE2
 70
     0
  9
$DIMTAD
 70
     3
  9
$DIMZIN
 70
     8
  9
$DIMBLK
  1
Open30
  9
$DIMASO
 70
     1
  9
$DIMSHO
 70
     1
  9
$DIMPOST
  1

  9
$DIMAPOST
  1

  9
$DIMALT
 70
     0
  9
$DIMALTD
 70
     3
  9
$DIMALTF
 40
0.03937007874016
  9
$DIMLFAC
 40
1.0
  9
$DIMTOFL
 70
     1
  9
$DIMTVP
 40
0.0
  9
$DIMTIX
 70
     0
  9
$DIMSOXD
 70
     0
  9
$DIMSAH
 70
     0
  9
$DIMBLK1
  1

  9
$DIMBLK2
  1

  9
$DIMSTYLE
  2
1：1
  9
$DIMCLRD
 70
     0
  9
$DIMCLRE
 70
     0
  9
$DIMCLRT
 70
     4
  9
$DIMTFAC
 40
1.0
  9
$DIMGAP
 40
0.625
  9
$DIMJUST
 70
     0
  9
$DIMSD1
 70
     0
  9
$DIMSD2
 70
     0
  9
$DIMTOLJ
 70
     0
  9
$DIMTZIN
 70
     8
  9
$DIMALTZ
 70
     0
  9
$DIMALTTZ
 70
     0
  9
$DIMUPT
 70
     1
  9
$DIMDEC
 70
     2
  9
$DIMTDEC
 70
     2
  9
$DIMALTU
 70
     2
  9
$DIMALTTD
 70
     3
  9
$DIMTXSTY
  7
STANDARD
  9
$DIMAUNIT
 70
     0
  9
$DIMADEC
 70
     1
  9
$DIMALTRND
 40
0.0
  9
$DIMAZIN
 70
     2
  9
$DIMDSEP
 70
    46
  9
$DIMATFIT
 70
     0
  9
$DIMFRAC
 70
     0
  9
$DIMLDRBLK
  1
Open30
  9
$DIMLUNIT
 70
     2
  9
$DIMLWD
 70
    -2
  9
$DIMLWE
 70
    -2
  9
$DIMTMOVE
 70
     0
  9
$LUNITS
 70
     2
  9
$LUPREC
 70
     4
  9
$SKETCHINC
 40
0.1
  9
$FILLETRAD
 40
0.0
  9
$AUNITS
 70
     0
  9
$AUPREC
 70
     0
  9
$MENU
  1
.
  9
$ELEVATION
 40
0.0
  9
$PELEVATION
 40
0.0
  9
$THICKNESS
 40
0.0
  9
$LIMCHECK
 70
     0
  9
$CHAMFERA
 40
0.0
  9
$CHAMFERB
 40
0.0
  9
$CHAMFERC
 40
0.0
  9
$CHAMFERD
 40
0.0
  9
$SKPOLY
 70
     0
  9
$TDCREATE
 40
2456352.654038889
  9
$TDUCREATE
 40
2456352.279038889
  9
$TDUPDATE
 40
2457074.468410058
  9
$TDUUPDATE
 40
2457074.093410058
  9
$TDINDWG
 40
0.1112759259
  9
$TDUSRTIMER
 40
0.1112745949
  9
$USRTIMER
 70
     1
  9
$ANGBASE
 50
0.0
  9
$ANGDIR
 70
     0
  9
$PDMODE
 70
     0
  9
$PDSIZE
 40
0.0
  9
$PLINEWID
 40
0.0
  9
$SPLFRAME
 70
     0
  9
$SPLINETYPE
 70
     6
  9
$SPLINESEGS
 70
     8
  9
$HANDSEED
  5
1554
  9
$SURFTAB1
 70
     6
  9
$SURFTAB2
 70
     6
  9
$SURFTYPE
 70
     6
  9
$SURFU
 70
     6
  9
$SURFV
 70
     6
  9
$UCSBASE
  2

  9
$UCSNAME
  2

  9
$UCSORG
 10
0.0
 20
0.0
 30
0.0
  9
$UCSXDIR
 10
1.0
 20
0.0
 30
0.0
  9
$UCSYDIR
 10
0.0
 20
1.0
 30
0.0
  9
$UCSORTHOREF
  2

  9
$UCSORTHOVIEW
 70
     0
  9
$UCSORGTOP
 10
0.0
 20
0.0
 30
0.0
  9
$UCSORGBOTTOM
 10
0.0
 20
0.0
 30
0.0
  9
$UCSORGLEFT
 10
0.0
 20
0.0
 30
0.0
  9
$UCSORGRIGHT
 10
0.0
 20
0.0
 30
0.0
  9
$UCSORGFRONT
 10
0.0
 20
0.0
 30
0.0
  9
$UCSORGBACK
 10
0.0
 20
0.0
 30
0.0
  9
$PUCSBASE
  2

  9
$PUCSNAME
  2

  9
$PUCSORG
 10
0.0
 20
0.0
 30
0.0
  9
$PUCSXDIR
 10
1.0
 20
0.0
 30
0.0
  9
$PUCSYDIR
 10
0.0
 20
1.0
 30
0.0
  9
$PUCSORTHOREF
  2

  9
$PUCSORTHOVIEW
 70
     0
  9
$PUCSORGTOP
 10
0.0
 20
0.0
 30
0.0
  9
$PUCSORGBOTTOM
 10
0.0
 20
0.0
 30
0.0
  9
$PUCSORGLEFT
 10
0.0
 20
0.0
 30
0.0
  9
$PUCSORGRIGHT
 10
0.0
 20
0.0
 30
0.0
  9
$PUCSORGFRONT
 10
0.0
 20
0.0
 30
0.0
  9
$PUCSORGBACK
 10
0.0
 20
0.0
 30
0.0
  9
$USERI1
 70
     0
  9
$USERI2
 70
     0
  9
$USERI3
 70
     0
  9
$USERI4
 70
     0
  9
$USERI5
 70
     0
  9
$USERR1
 40
0.0
  9
$USERR2
 40
0.0
  9
$USERR3
 40
0.0
  9
$USERR4
 40
0.0
  9
$USERR5
 40
0.0
  9
$WORLDVIEW
 70
     1
  9
$SHADEDGE
 70
     3
  9
$SHADEDIF
 70
    70
  9
$TILEMODE
 70
     1
  9
$MAXACTVP
 70
    64
  9
$PINSBASE
 10
0.0
 20
0.0
 30
0.0
  9
$PLIMCHECK
 70
     0
  9
$PEXTMIN
 10
1.000000000000000E+20
 20
1.000000000000000E+20
 30
1.000000000000000E+20
  9
$PEXTMAX
 10
-1.000000000000000E+20
 20
-1.000000000000000E+20
 30
-1.000000000000000E+20
  9
$PLIMMIN
 10
0.0
 20
0.0
  9
$PLIMMAX
 10
12.0
 20
9.0
  9
$UNITMODE
 70
     0
  9
$VISRETAIN
 70
     1
  9
$PLINEGEN
 70
     0
  9
$PSLTSCALE
 70
     1
  9
$TREEDEPTH
 70
  3020
  9
$CMLSTYLE
  2
Standard
  9
$CMLJUST
 70
     0
  9
$CMLSCALE
 40
1.0
  9
$PROXYGRAPHICS
 70
     1
  9
$MEASUREMENT
 70
     0
  9
$CELWEIGHT
370
    -1
  9
$ENDCAPS
280
     0
  9
$JOINSTYLE
280
     0
  9
$LWDISPLAY
290
     0
  9
$INSUNITS
 70
     0
  9
$HYPERLINKBASE
  1

  9
$STYLESHEET
  1
n-plot.ctb
  9
$XEDIT
290
     1
  9
$CEPSNTYPE
380
     0
  9
$PSTYLEMODE
290
     1
  9
$FINGERPRINTGUID
  2
{4AD07C16-3B81-4674-8393-CE9F337B33A5}
  9
$VERSIONGUID
  2
{AE7A7B61-B302-4BB3-991F-A77FF707A2EC}
  9
$EXTNAMES
290
     1
  9
$PSVPSCALE
 40
0.0
  9
$OLESTARTUP
290
     0
  0
ENDSEC
  0
SECTION
  2
CLASSES
  0
CLASS
  1
ACDBDICTIONARYWDFLT
  2
AcDbDictionaryWithDefault
  3
ObjectDBX Classes
 90
        0
280
     0
281
     0
  0
CLASS
  1
MATERIAL
  2
AcDbMaterial
  3
ObjectDBX Classes
 90
     1153
280
     0
281
     0
  0
CLASS
  1
VISUALSTYLE
  2
AcDbVisualStyle
  3
ObjectDBX Classes
 90
     4095
280
     0
281
     0
  0
CLASS
  1
SCALE
  2
AcDbScale
  3
ObjectDBX Classes
 90
     1153
280
     0
281
     0
  0
CLASS
  1
TABLESTYLE
  2
AcDbTableStyle
  3
ObjectDBX Classes
 90
     4095
280
     0
281
     0
  0
CLASS
  1
MLEADERSTYLE
  2
AcDbMLeaderStyle
  3
ACDB_MLEADERSTYLE_CLASS
 90
     4095
280
     0
281
     0
  0
CLASS
  1
SORTENTSTABLE
  2
AcDbSortentsTable
  3
ObjectDBX Classes
 90
        0
280
     0
281
     0
  0
CLASS
  1
DICTIONARYVAR
  2
AcDbDictionaryVar
  3
ObjectDBX Classes
 90
        0
280
     0
281
     0
  0
CLASS
  1
CELLSTYLEMAP
  2
AcDbCellStyleMap
  3
ObjectDBX Classes
 90
     1152
280
     0
281
     0
  0
CLASS
  1
ACDBPLACEHOLDER
  2
AcDbPlaceHolder
  3
ObjectDBX Classes
 90
        0
280
     0
281
     0
  0
CLASS
  1
LAYOUT
  2
AcDbLayout
  3
ObjectDBX Classes
 90
        0
280
     0
281
     0
  0
ENDSEC
  0
SECTION
  2
TABLES
  0
TABLE
  2
VPORT
  5
8
330
0
100
AcDbSymbolTable
 70
     1
  0
VPORT
  5
8B
330
8
100
AcDbSymbolTableRecord
100
AcDbViewportTableRecord
  2
*Active
 70
     0
 10
0.0
 20
0.0
 11
1.0
 21
1.0
 12
895.9930988746604
 22
-173.0419172569999
 13
0.0
 23
0.0
 14
1.0
 24
1.0
 15
0.0
 25
0.0
 16
0.0
 26
0.0
 36
1.0
 17
0.0
 27
0.0
 37
0.0
 40
514.1409565284482
 41
1.614084507042253
 42
50.0
 43
0.0
 44
0.0
 50
0.0
 51
0.0
 71
     0
 72
   100
 73
     1
 74
     1
 75
     0
 76
     0
 77
     0
 78
     0
281
     0
 65
     1
110
0.0
120
0.0
130
0.0
111
1.0
121
0.0
131
0.0
112
0.0
122
1.0
132
0.0
 79
     0
146
0.0
  0
ENDTAB
  0
TABLE
  2
LTYPE
  5
5
330
0
100
AcDbSymbolTable
 70
     3
  0
LTYPE
  5
5A
330
5
100
AcDbSymbolTableRecord
100
AcDbLinetypeTableRecord
  2
ByBlock
 70
     0
  3

 72
    65
 73
     0
 40
0.0
  0
LTYPE
  5
5B
330
5
100
AcDbSymbolTableRecord
100
AcDbLinetypeTableRecord
  2
ByLayer
 70
     0
  3

 72
    65
 73
     0
 40
0.0
  0
LTYPE
  5
5C
330
5
100
AcDbSymbolTableRecord
100
AcDbLinetypeTableRecord
  2
CONTINUOUS
 70
     0
  3
Solid-line
 72
    65
 73
     0
 40
0.0
  0
LTYPE
  5
BA5
330
5
100
AcDbSymbolTableRecord
100
AcDbLinetypeTableRecord
  2
CENTER
 70
     0
  3
Center ____ _ ____ _ ____ _ ____ _ ____ _ ____
 72
    65
 73
     4
 40
50.8
 49
31.75
 74
     0
 49
-6.349999999999998
 74
     0
 49
6.349999999999998
 74
     0
 49
-6.349999999999998
 74
     0
  0
ENDTAB
  0
TABLE
  2
LAYER
  5
2
102
{ACAD_XDICTIONARY
360
3D9
102
}
330
0
100
AcDbSymbolTable
 70
     2
  0
LAYER
  5
54
102
{ACAD_XDICTIONARY
360
58A
102
}
330
2
100
AcDbSymbolTableRecord
100
AcDbLayerTableRecord
  2
0
 70
     0
 62
     7
  6
CONTINUOUS
370
    -3
390
F
  0
LAYER
  5
3C2
330
2
100
AcDbSymbolTableRecord
100
AcDbLayerTableRecord
  2
Defpoints
 70
     0
 62
     7
  6
CONTINUOUS
290
     0
370
    -3
390
F
  0
ENDTAB
  0
TABLE
  2
STYLE
  5
3
330
0
100
AcDbSymbolTable
 70
     7
  0
STYLE
  5
55
330
3
100
AcDbSymbolTableRecord
100
AcDbTextStyleTableRecord
  2
STANDARD
 70
     0
 40
0.0
 41
1.0
 50
0.0
 71
     0
 42
0.2
  3
TXT
  4
BIGFONT
  0
STYLE
  5
3C3
330
3
100
AcDbSymbolTableRecord
100
AcDbTextStyleTableRecord
  2
高3.2
 70
     0
 40
3.2
 41
1.0
 50
0.0
 71
     0
 42
3.2
  3
txt.shx
  4
bigfont.shx
  0
STYLE
  5
3C4
330
3
100
AcDbSymbolTableRecord
100
AcDbTextStyleTableRecord
  2
高6.3
 70
     0
 40
6.299999999999998
 41
1.0
 50
0.0
 71
     0
 42
6.299999999999998
  3
txt.shx
  4
bigfont.shx
  0
STYLE
  5
3C6
330
3
100
AcDbSymbolTableRecord
100
AcDbTextStyleTableRecord
  2
高4.5
 70
     0
 40
4.5
 41
1.0
 50
0.0
 71
     0
 42
6.299999999999998
  3
txt.shx
  4
bigfont.shx
  0
STYLE
  5
3C7
330
3
100
AcDbSymbolTableRecord
100
AcDbTextStyleTableRecord
  2
高2
 70
     0
 40
2.0
 41
1.0
 50
0.0
 71
     0
 42
2.0
  3
txt.shx
  4
bigfont.shx
  0
STYLE
  5
BA6
330
3
100
AcDbSymbolTableRecord
100
AcDbTextStyleTableRecord
  2
高2.5
 70
     0
 40
2.5
 41
1.0
 50
0.0
 71
     0
 42
0.2
  3
txt.shx
  4
bigfont.shx
  0
ENDTAB
  0
TABLE
  2
VIEW
  5
6
330
0
100
AcDbSymbolTable
 70
     0
  0
ENDTAB
  0
TABLE
  2
UCS
  5
7
330
0
100
AcDbSymbolTable
 70
     0
  0
ENDTAB
  0
TABLE
  2
APPID
  5
9
330
0
100
AcDbSymbolTable
 70
    11
  0
APPID
  5
56
330
9
100
AcDbSymbolTableRecord
100
AcDbRegAppTableRecord
  2
ACAD
 70
     0
  0
APPID
  5
5D
330
9
100
AcDbSymbolTableRecord
100
AcDbRegAppTableRecord
  2
AcadAnnotative
 70
     0
  0
APPID
  5
3D2
330
9
100
AcDbSymbolTableRecord
100
AcDbRegAppTableRecord
  2
ACAD_DSTYLE_DIMJOGGED_JOGANGLE_SYMBOL
 70
     0
  0
APPID
  5
3D3
330
9
100
AcDbSymbolTableRecord
100
AcDbRegAppTableRecord
  2
ACAD_DSTYLE_DIMJAG
 70
     0
  0
APPID
  5
3D4
330
9
100
AcDbSymbolTableRecord
100
AcDbRegAppTableRecord
  2
ACAD_DSTYLE_DIMBREAK
 70
     0
  0
APPID
  5
3D5
330
9
100
AcDbSymbolTableRecord
100
AcDbRegAppTableRecord
  2
ACAD_DSTYLE_DIMTALN
 70
     0
  0
APPID
  5
519
330
9
100
AcDbSymbolTableRecord
100
AcDbRegAppTableRecord
  2
ACAD_EXEMPT_FROM_CAD_STANDARDS
 70
     0
  0
APPID
  5
5D0
330
9
100
AcDbSymbolTableRecord
100
AcDbRegAppTableRecord
  2
ACAD_MLEADERVER
 70
     0
  0
APPID
  5
5D5
330
9
100
AcDbSymbolTableRecord
100
AcDbRegAppTableRecord
  2
ACAD_DSTYLE_DIMARC_LENGTH_SYMBOL
 70
     0
  0
APPID
  5
5D6
330
9
100
AcDbSymbolTableRecord
100
AcDbRegAppTableRecord
  2
ACAD_DSTYLE_DIMEXT_LENGTH
 70
     0
  0
APPID
  5
BA7
330
9
100
AcDbSymbolTableRecord
100
AcDbRegAppTableRecord
  2
ACAD_PSEXT
 70
     0
  0
ENDTAB
  0
TABLE
  2
DIMSTYLE
  5
A
330
0
100
AcDbSymbolTable
 70
     5
100
AcDbDimStyleTable
 71
     1
340
3D1
  0
DIMSTYLE
105
57
330
A
100
AcDbSymbolTableRecord
100
AcDbDimStyleTableRecord
  2
Standard
 70
     0
340
55
  0
DIMSTYLE
105
3D1
330
A
100
AcDbSymbolTableRecord
100
AcDbDimStyleTableRecord
  2
FREE
 70
     0
 41
2.5
 42
0.25
 43
0.2
 44
1.25
 73
     0
 74
     0
 77
     3
 78
     8
 79
     2
140
3.0
141
0.0
143
0.03937007874016
147
0.625
171
     3
172
     1
178
     4
179
     1
271
     2
272
     2
274
     3
283
     0
284
     8
288
     1
289
     0
340
55
341
332
342
332
1001
ACAD_DSTYLE_DIMBREAK
1070
   391
1040
3.75
1001
ACAD_DSTYLE_DIMJAG
1070
   388
1040
1.5
1001
ACAD_DSTYLE_DIMTALN
1070
   392
1070
     0
1001
ACAD_DSTYLE_DIMARC_LENGTH_SYMBOL
1070
   379
1070
     2
1001
ACAD_DSTYLE_DIMEXT_LENGTH
1070
   378
1040
1.25
1001
ACAD_DSTYLE_DIMJOGGED_JOGANGLE_SYMBOL
1070
   384
1040
1.570796326794896
  0
DIMSTYLE
105
999
330
A
100
AcDbSymbolTableRecord
100
AcDbDimStyleTableRecord
  2
1：1
 70
     0
 41
2.5
 42
0.25
 43
0.2
 44
1.25
 73
     0
 74
     0
 77
     3
 78
     8
 79
     2
140
3.0
141
0.0
143
0.03937007874016
147
0.625
171
     3
172
     1
178
     4
179
     1
271
     2
272
     2
274
     3
283
     0
284
     8
288
     1
289
     0
340
55
341
332
342
332
1001
ACAD_DSTYLE_DIMARC_LENGTH_SYMBOL
1070
   379
1070
     2
1001
ACAD_DSTYLE_DIMEXT_LENGTH
1070
   378
1040
1.25
1001
ACAD_DSTYLE_DIMJOGGED_JOGANGLE_SYMBOL
1070
   384
1040
1.570796326794896
  0
DIMSTYLE
105
99A
330
A
100
AcDbSymbolTableRecord
100
AcDbDimStyleTableRecord
  2
1／2
 70
     0
 41
2.5
 42
0.25
 43
0.2
 44
1.25
 73
     0
 74
     0
 77
     3
 78
     8
 79
     2
140
3.0
141
0.0
143
0.03937007874016
144
2.0
147
0.625
171
     3
172
     1
178
     4
179
     1
271
     2
272
     2
274
     3
283
     0
284
     8
288
     1
289
     0
340
55
341
332
342
332
1001
ACAD_DSTYLE_DIMARC_LENGTH_SYMBOL
1070
   379
1070
     2
1001
ACAD_DSTYLE_DIMEXT_LENGTH
1070
   378
1040
1.25
1001
ACAD_DSTYLE_DIMJOGGED_JOGANGLE_SYMBOL
1070
   384
1040
1.570796326794896
  0
ENDTAB
  0
TABLE
  2
BLOCK_RECORD
  5
1
330
0
100
AcDbSymbolTable
 70
    17
  0
BLOCK_RECORD
  5
6B
102
{ACAD_XDICTIONARY
360
661
102
}
330
1
100
AcDbSymbolTableRecord
100
AcDbBlockTableRecord
  2
*Model_Space
340
6E
  0
BLOCK_RECORD
  5
67
330
1
100
AcDbSymbolTableRecord
100
AcDbBlockTableRecord
  2
*Paper_Space
340
6A
  0
BLOCK_RECORD
  5
332
330
1
100
AcDbSymbolTableRecord
100
AcDbBlockTableRecord
  2
_Open30
340
0
102
{BLKREFS
331
B4A
331
B4B
331
B53
331
B54
331
B5C
331
B5D
331
B68
331
B69
331
B74
331
B75
331
B82
331
B83
331
B8E
331
B8F
331
B9A
331
B9B
331
1343
331
1344
331
134C
331
134D
331
1357
331
1358
331
1360
331
1361
331
1369
331
136A
102
}
  0
BLOCK_RECORD
  5
51B
330
1
100
AcDbSymbolTableRecord
100
AcDbBlockTableRecord
  2
*D1
340
0
  0
BLOCK_RECORD
  5
528
330
1
100
AcDbSymbolTableRecord
100
AcDbBlockTableRecord
  2
*D2
340
0
  0
BLOCK_RECORD
  5
535
330
1
100
AcDbSymbolTableRecord
100
AcDbBlockTableRecord
  2
*D3
340
0
  0
BLOCK_RECORD
  5
B63
330
1
100
AcDbSymbolTableRecord
100
AcDbBlockTableRecord
  2
*D4
340
0
  0
BLOCK_RECORD
  5
B6F
330
1
100
AcDbSymbolTableRecord
100
AcDbBlockTableRecord
  2
*D5
340
0
  0
BLOCK_RECORD
  5
B7B
330
1
100
AcDbSymbolTableRecord
100
AcDbBlockTableRecord
  2
*D6
340
0
  0
BLOCK_RECORD
  5
B89
330
1
100
AcDbSymbolTableRecord
100
AcDbBlockTableRecord
  2
*D7
340
0
  0
BLOCK_RECORD
  5
B95
330
1
100
AcDbSymbolTableRecord
100
AcDbBlockTableRecord
  2
*D8
340
0
  0
BLOCK_RECORD
  5
BA1
330
1
100
AcDbSymbolTableRecord
100
AcDbBlockTableRecord
  2
_DotSmall
340
0
  0
BLOCK_RECORD
  5
1302
330
1
100
AcDbSymbolTableRecord
100
AcDbBlockTableRecord
  2
*D11
340
0
  0
BLOCK_RECORD
  5
130E
330
1
100
AcDbSymbolTableRecord
100
AcDbBlockTableRecord
  2
*D12
340
0
  0
BLOCK_RECORD
  5
131A
330
1
100
AcDbSymbolTableRecord
100
AcDbBlockTableRecord
  2
*D13
340
0
  0
BLOCK_RECORD
  5
1328
330
1
100
AcDbSymbolTableRecord
100
AcDbBlockTableRecord
  2
*D14
340
0
  0
BLOCK_RECORD
  5
1334
330
1
100
AcDbSymbolTableRecord
100
AcDbBlockTableRecord
  2
*D15
340
0
  0
ENDTAB
  0
ENDSEC
  0
SECTION
  2
BLOCKS
  0
BLOCK
  5
6C
330
6B
100
AcDbEntity
  8
0
100
AcDbBlockBegin
  2
*Model_Space
 70
     0
 10
0.0
 20
0.0
 30
0.0
  3
*Model_Space
  1

  0
ENDBLK
  5
6D
330
6B
100
AcDbEntity
  8
0
100
AcDbBlockEnd
  0
BLOCK
  5
68
330
67
100
AcDbEntity
 67
     1
  8
0
100
AcDbBlockBegin
  2
*Paper_Space
 70
     0
 10
0.0
 20
0.0
 30
0.0
  3
*Paper_Space
  1

  0
ENDBLK
  5
69
330
67
100
AcDbEntity
 67
     1
  8
0
100
AcDbBlockEnd
  0
BLOCK
  5
333
330
332
100
AcDbEntity
  8
0
100
AcDbBlockBegin
  2
_Open30
 70
     0
 10
0.0
 20
0.0
 30
0.0
  3
_Open30
  1

  0
LINE
  5
334
330
332
100
AcDbEntity
  8
0
  6
ByBlock
 62
     0
370
    -2
100
AcDbLine
 10
-1.0
 20
0.267949
 30
0.0
 11
0.0
 21
0.0
 31
0.0
  0
LINE
  5
335
330
332
100
AcDbEntity
  8
0
  6
ByBlock
 62
     0
370
    -2
100
AcDbLine
 10
0.0
 20
0.0
 30
0.0
 11
-1.0
 21
-0.267949
 31
0.0
  0
LINE
  5
336
330
332
100
AcDbEntity
  8
0
  6
ByBlock
 62
     0
370
    -2
100
AcDbLine
 10
0.0
 20
0.0
 30
0.0
 11
-1.0
 21
0.0
 31
0.0
  0
ENDBLK
  5
337
330
332
100
AcDbEntity
  8
0
100
AcDbBlockEnd
  0
BLOCK
  5
51C
330
51B
100
AcDbEntity
  8
0
100
AcDbBlockBegin
  2
*D1
 70
     1
 10
0.0
 20
0.0
 30
0.0
  3
*D1
  1

  0
LINE
  5
B59
330
51B
100
AcDbEntity
  8
0
 62
     0
370
    -2
100
AcDbLine
 10
613.8887409999999
 20
-97.91062886030303
 30
0.0
 11
621.340041
 21
-97.91062886030303
 31
0.0
  0
LINE
  5
B5A
330
51B
100
AcDbEntity
  8
0
 62
     0
370
    -2
100
AcDbLine
 10
604.3652019999997
 20
-67.07156686030301
 30
0.0
 11
621.340041
 21
-67.07156686030302
 31
0.0
  0
LINE
  5
B5B
330
51B
100
AcDbEntity
  8
0
 62
     0
370
    -2
100
AcDbLine
 10
620.090041
 20
-95.41062886030303
 30
0.0
 11
620.090041
 21
-69.57156686030302
 31
0.0
  0
INSERT
  5
B5C
330
51B
100
AcDbEntity
  8
0
 62
     0
370
    -2
100
AcDbBlockReference
  2
_Open30
 10
620.090041
 20
-97.91062886030303
 30
0.0
 41
2.5
 42
2.5
 43
2.5
 50
270.0
  0
INSERT
  5
B5D
330
51B
100
AcDbEntity
  8
0
 62
     0
370
    -2
100
AcDbBlockReference
  2
_Open30
 10
620.090041
 20
-67.07156686030302
 30
0.0
 41
2.5
 42
2.5
 43
2.5
 50
90.0
  0
MTEXT
  5
B5E
330
51B
100
AcDbEntity
  8
0
 62
     4
100
AcDbMText
 10
617.965041
 20
-82.49109786030293
 30
0.0
 40
3.0
 41
0.0
 71
     5
 72
     1
  1
48
 11
0.0000000000000001
 21
1.0
 31
0.0
 73
     1
 44
1.0
1001
ACAD
1000
MTEXTBEGIN
1070
    73
1070
     1
1070
    44
1040
1.0
1070
    74
1070
     0
1000
MTEXTEND
  0
POINT
  5
B5F
330
51B
100
AcDbEntity
  8
Defpoints
 62
     0
100
AcDbPoint
 10
613.638741
 20
-97.91062886030303
 30
0.0
  0
POINT
  5
B60
330
51B
100
AcDbEntity
  8
Defpoints
 62
     0
100
AcDbPoint
 10
604.1152019999997
 20
-67.07156686030301
 30
0.0
  0
POINT
  5
B61
330
51B
100
AcDbEntity
  8
Defpoints
 62
     0
100
AcDbPoint
 10
620.090041
 20
-67.07156686030302
 30
0.0
  0
ENDBLK
  5
51D
330
51B
100
AcDbEntity
  8
0
100
AcDbBlockEnd
  0
BLOCK
  5
529
330
528
100
AcDbEntity
  8
0
100
AcDbBlockBegin
  2
*D2
 70
     1
 10
0.0
 20
0.0
 30
0.0
  3
*D2
  1

  0
LINE
  5
B50
330
528
100
AcDbEntity
  8
0
 62
     0
370
    -2
100
AcDbLine
 10
367.999804
 20
-65.39239286030301
 30
0.0
 11
367.999804
 21
-55.78308186030302
 31
0.0
  0
LINE
  5
B51
330
528
100
AcDbEntity
  8
0
 62
     0
370
    -2
100
AcDbLine
 10
523.868554
 20
-65.39239286030301
 30
0.0
 11
523.868554
 21
-55.78308186030302
 31
0.0
  0
LINE
  5
B52
330
528
100
AcDbEntity
  8
0
 62
     0
370
    -2
100
AcDbLine
 10
370.499804
 20
-57.03308186030302
 30
0.0
 11
521.368554
 21
-57.03308186030302
 31
0.0
  0
INSERT
  5
B53
330
528
100
AcDbEntity
  8
0
 62
     0
370
    -2
100
AcDbBlockReference
  2
_Open30
 10
367.999804
 20
-57.03308186030302
 30
0.0
 41
2.5
 42
2.5
 43
2.5
 50
180.0
  0
INSERT
  5
B54
330
528
100
AcDbEntity
  8
0
 62
     0
370
    -2
100
AcDbBlockReference
  2
_Open30
 10
523.868554
 20
-57.03308186030302
 30
0.0
 41
2.5
 42
2.5
 43
2.5
  0
MTEXT
  5
B55
330
528
100
AcDbEntity
  8
0
 62
     4
100
AcDbMText
 10
445.9341789999999
 20
-54.90808186030302
 30
0.0
 40
3.0
 41
0.0
 71
     5
 72
     1
  1
166
 73
     1
 44
1.0
1001
ACAD
1000
MTEXTBEGIN
1070
    73
1070
     1
1070
    44
1040
1.0
1070
    74
1070
     0
1000
MTEXTEND
  0
POINT
  5
B56
330
528
100
AcDbEntity
  8
Defpoints
 62
     0
100
AcDbPoint
 10
367.999804
 20
-65.64239286030302
 30
0.0
  0
POINT
  5
B57
330
528
100
AcDbEntity
  8
Defpoints
 62
     0
100
AcDbPoint
 10
523.868554
 20
-65.64239286030302
 30
0.0
  0
POINT
  5
B58
330
528
100
AcDbEntity
  8
Defpoints
 62
     0
100
AcDbPoint
 10
523.868554
 20
-57.03308186030302
 30
0.0
  0
ENDBLK
  5
52A
330
528
100
AcDbEntity
  8
0
100
AcDbBlockEnd
  0
BLOCK
  5
536
330
535
100
AcDbEntity
  8
0
100
AcDbBlockBegin
  2
*D3
 70
     1
 10
0.0
 20
0.0
 30
0.0
  3
*D3
  1

  0
LINE
  5
B47
330
535
100
AcDbEntity
  8
0
 62
     0
370
    -2
100
AcDbLine
 10
284.167218
 20
-70.40750386030301
 30
0.0
 11
284.167218
 21
-55.78308186030302
 31
0.0
  0
LINE
  5
B48
330
535
100
AcDbEntity
  8
0
 62
     0
370
    -2
100
AcDbLine
 10
344.167218
 20
-70.38406686030301
 30
0.0
 11
344.167218
 21
-55.78308186030302
 31
0.0
  0
LINE
  5
B49
330
535
100
AcDbEntity
  8
0
 62
     0
370
    -2
100
AcDbLine
 10
286.667218
 20
-57.03308186030302
 30
0.0
 11
341.667218
 21
-57.03308186030302
 31
0.0
  0
INSERT
  5
B4A
330
535
100
AcDbEntity
  8
0
 62
     0
370
    -2
100
AcDbBlockReference
  2
_Open30
 10
284.167218
 20
-57.03308186030302
 30
0.0
 41
2.5
 42
2.5
 43
2.5
 50
180.0
  0
INSERT
  5
B4B
330
535
100
AcDbEntity
  8
0
 62
     0
370
    -2
100
AcDbBlockReference
  2
_Open30
 10
344.167218
 20
-57.03308186030302
 30
0.0
 41
2.5
 42
2.5
 43
2.5
  0
MTEXT
  5
B4C
330
535
100
AcDbEntity
  8
0
 62
     4
100
AcDbMText
 10
314.167218
 20
-54.90808186030302
 30
0.0
 40
3.0
 41
0.0
 71
     5
 72
     1
  1
95.5
 73
     1
 44
1.0
1001
ACAD
1000
MTEXTBEGIN
1070
    73
1070
     1
1070
    44
1040
1.0
1070
    74
1070
     0
1000
MTEXTEND
  0
POINT
  5
B4D
330
535
100
AcDbEntity
  8
Defpoints
 62
     0
100
AcDbPoint
 10
284.167218
 20
-70.65750386030301
 30
0.0
  0
POINT
  5
B4E
330
535
100
AcDbEntity
  8
Defpoints
 62
     0
100
AcDbPoint
 10
344.167218
 20
-70.63406686030301
 30
0.0
  0
POINT
  5
B4F
330
535
100
AcDbEntity
  8
Defpoints
 62
     0
100
AcDbPoint
 10
344.167218
 20
-57.03308186030302
 30
0.0
  0
ENDBLK
  5
537
330
535
100
AcDbEntity
  8
0
100
AcDbBlockEnd
  0
BLOCK
  5
B64
330
B63
100
AcDbEntity
  8
0
100
AcDbBlockBegin
  2
*D4
 70
     1
 10
0.0
 20
0.0
 30
0.0
  3
*D4
  1

  0
LINE
  5
B65
330
B63
100
AcDbEntity
  8
0
  6
Continuous
 62
     0
370
    -2
100
AcDbLine
 10
562.2932064458669
 20
-62.44657689213362
 30
0.0
 11
562.2932064458669
 21
-45.47266247588345
 31
0.0
  0
LINE
  5
B66
330
B63
100
AcDbEntity
  8
0
  6
Continuous
 62
     0
370
    -2
100
AcDbLine
 10
419.2932064458672
 20
-62.44657689213362
 30
0.0
 11
419.2932064458672
 21
-45.47266247588345
 31
0.0
  0
LINE
  5
B67
330
B63
100
AcDbEntity
  8
0
  6
Continuous
 62
     0
370
    -2
100
AcDbLine
 10
559.7932064458668
 20
-46.72266247588345
 30
0.0
 11
421.7932064458672
 21
-46.72266247588345
 31
0.0
  0
INSERT
  5
B68
330
B63
100
AcDbEntity
  8
0
  6
Continuous
 62
     0
370
    -2
100
AcDbBlockReference
  2
_Open30
 10
562.2932064458669
 20
-46.72266247588345
 30
0.0
 41
2.5
 42
2.5
 43
2.5
  0
INSERT
  5
B69
330
B63
100
AcDbEntity
  8
0
  6
Continuous
 62
     0
370
    -2
100
AcDbBlockReference
  2
_Open30
 10
419.2932064458672
 20
-46.72266247588345
 30
0.0
 41
2.5
 42
2.5
 43
2.5
 50
180.0
  0
MTEXT
  5
B6A
330
B63
100
AcDbEntity
  8
0
  6
Continuous
 62
     4
100
AcDbMText
 10
488.7381570085215
 20
-44.59766247588345
 30
0.0
 40
3.0
 41
0.0
 71
     5
 72
     1
  1
143
 73
     1
 44
1.0
1001
ACAD
1000
MTEXTBEGIN
1070
    73
1070
     1
1070
    44
1040
1.0
1070
    74
1070
     0
1000
MTEXTEND
  0
POINT
  5
B6B
330
B63
100
AcDbEntity
  8
Defpoints
  6
Continuous
 62
     0
100
AcDbPoint
 10
562.2932064458669
 20
-62.69657689213363
 30
0.0
  0
POINT
  5
B6C
330
B63
100
AcDbEntity
  8
Defpoints
  6
Continuous
 62
     0
100
AcDbPoint
 10
419.2932064458672
 20
-62.69657689213363
 30
0.0
  0
POINT
  5
B6D
330
B63
100
AcDbEntity
  8
Defpoints
  6
Continuous
 62
     0
100
AcDbPoint
 10
419.2932064458672
 20
-46.72266247588345
 30
0.0
  0
ENDBLK
  5
B6E
330
B63
100
AcDbEntity
  8
0
100
AcDbBlockEnd
  0
BLOCK
  5
B70
330
B6F
100
AcDbEntity
  8
0
100
AcDbBlockBegin
  2
*D5
 70
     1
 10
0.0
 20
0.0
 30
0.0
  3
*D5
  1

  0
LINE
  5
B71
330
B6F
100
AcDbEntity
  8
0
  6
Continuous
 62
     0
370
    -2
100
AcDbLine
 10
579.2932064458669
 20
-71.44657689213359
 30
0.0
 11
579.2932064458669
 21
-45.47266247588345
 31
0.0
  0
LINE
  5
B72
330
B6F
100
AcDbEntity
  8
0
  6
Continuous
 62
     0
370
    -2
100
AcDbLine
 10
562.2932064458669
 20
-62.44657689213362
 30
0.0
 11
562.2932064458669
 21
-45.47266247588345
 31
0.0
  0
LINE
  5
B73
330
B6F
100
AcDbEntity
  8
0
  6
Continuous
 62
     0
370
    -2
100
AcDbLine
 10
576.7932064458668
 20
-46.72266247588345
 30
0.0
 11
564.7932064458668
 21
-46.72266247588345
 31
0.0
  0
INSERT
  5
B74
330
B6F
100
AcDbEntity
  8
0
  6
Continuous
 62
     0
370
    -2
100
AcDbBlockReference
  2
_Open30
 10
579.2932064458669
 20
-46.72266247588345
 30
0.0
 41
2.5
 42
2.5
 43
2.5
  0
INSERT
  5
B75
330
B6F
100
AcDbEntity
  8
0
  6
Continuous
 62
     0
370
    -2
100
AcDbBlockReference
  2
_Open30
 10
562.2932064458669
 20
-46.72266247588345
 30
0.0
 41
2.5
 42
2.5
 43
2.5
 50
180.0
  0
MTEXT
  5
B76
330
B6F
100
AcDbEntity
  8
0
  6
Continuous
 62
     4
100
AcDbMText
 10
570.3479036725814
 20
-44.59766247588345
 30
0.0
 40
3.0
 41
0.0
 71
     5
 72
     1
  1
(17)
 73
     1
 44
1.0
1001
ACAD
1000
MTEXTBEGIN
1070
    73
1070
     1
1070
    44
1040
1.0
1070
    74
1070
     0
1000
MTEXTEND
  0
POINT
  5
B77
330
B6F
100
AcDbEntity
  8
Defpoints
  6
Continuous
 62
     0
100
AcDbPoint
 10
579.2932064458669
 20
-71.69657689213359
 30
0.0
  0
POINT
  5
B78
330
B6F
100
AcDbEntity
  8
Defpoints
  6
Continuous
 62
     0
100
AcDbPoint
 10
562.2932064458669
 20
-62.69657689213363
 30
0.0
  0
POINT
  5
B79
330
B6F
100
AcDbEntity
  8
Defpoints
  6
Continuous
 62
     0
100
AcDbPoint
 10
562.2932064458669
 20
-46.72266247588345
 30
0.0
  0
ENDBLK
  5
B7A
330
B6F
100
AcDbEntity
  8
0
100
AcDbBlockEnd
  0
BLOCK
  5
B7C
330
B7B
100
AcDbEntity
  8
0
100
AcDbBlockBegin
  2
*D6
 70
     1
 10
0.0
 20
0.0
 30
0.0
  3
*D6
  1

  0
LINE
  5
B7D
330
B7B
100
AcDbEntity
  8
0
  6
Continuous
 62
     0
370
    -2
100
AcDbLine
 10
413.2932064458673
 20
-89.79657689213359
 30
0.0
 11
413.2932064458673
 21
-45.47266247588345
 31
0.0
  0
LINE
  5
B7E
330
B7B
100
AcDbEntity
  8
0
  6
Continuous
 62
     0
370
    -2
100
AcDbLine
 10
419.2932064458672
 20
-62.44657689213362
 30
0.0
 11
419.2932064458672
 21
-45.47266247588345
 31
0.0
  0
LINE
  5
B7F
330
B7B
100
AcDbEntity
  8
0
  6
Continuous
 62
     0
370
    -2
100
AcDbLine
 10
410.7932064458672
 20
-46.72266247588345
 30
0.0
 11
408.2932064458673
 21
-46.72266247588345
 31
0.0
  0
LINE
  5
B80
330
B7B
100
AcDbEntity
  8
0
  6
Continuous
 62
     0
370
    -2
100
AcDbLine
 10
421.7932064458672
 20
-46.72266247588345
 30
0.0
 11
424.2932064458671
 21
-46.72266247588345
 31
0.0
  0
LINE
  5
B81
330
B7B
100
AcDbEntity
  8
0
  6
Continuous
 62
     0
370
    -2
100
AcDbLine
 10
413.2932064458673
 20
-46.72266247588345
 30
0.0
 11
419.2932064458672
 21
-46.72266247588345
 31
0.0
  0
INSERT
  5
B82
330
B7B
100
AcDbEntity
  8
0
  6
Continuous
 62
     0
370
    -2
100
AcDbBlockReference
  2
_Open30
 10
413.2932064458673
 20
-46.72266247588345
 30
0.0
 41
2.5
 42
2.5
 43
2.5
  0
INSERT
  5
B83
330
B7B
100
AcDbEntity
  8
0
  6
Continuous
 62
     0
370
    -2
100
AcDbBlockReference
  2
_Open30
 10
419.2932064458672
 20
-46.72266247588345
 30
0.0
 41
2.5
 42
2.5
 43
2.5
 50
180.0
  0
MTEXT
  5
B84
330
B7B
100
AcDbEntity
  8
0
  6
Continuous
 62
     4
100
AcDbMText
 10
416.2932064458672
 20
-44.59766247588345
 30
0.0
 40
3.0
 41
0.0
 71
     5
 72
     1
  1
(6)
 73
     1
 44
1.0
1001
ACAD
1000
MTEXTBEGIN
1070
    73
1070
     1
1070
    44
1040
1.0
1070
    74
1070
     0
1000
MTEXTEND
  0
POINT
  5
B85
330
B7B
100
AcDbEntity
  8
Defpoints
  6
Continuous
 62
     0
100
AcDbPoint
 10
413.2932064458673
 20
-90.04657689213358
 30
0.0
  0
POINT
  5
B86
330
B7B
100
AcDbEntity
  8
Defpoints
  6
Continuous
 62
     0
100
AcDbPoint
 10
419.2932064458672
 20
-62.69657689213363
 30
0.0
  0
POINT
  5
B87
330
B7B
100
AcDbEntity
  8
Defpoints
  6
Continuous
 62
     0
100
AcDbPoint
 10
419.2932064458672
 20
-46.72266247588345
 30
0.0
  0
ENDBLK
  5
B88
330
B7B
100
AcDbEntity
  8
0
100
AcDbBlockEnd
  0
BLOCK
  5
B8A
330
B89
100
AcDbEntity
  8
0
100
AcDbBlockBegin
  2
*D7
 70
     1
 10
0.0
 20
0.0
 30
0.0
  3
*D7
  1

  0
LINE
  5
B8B
330
B89
100
AcDbEntity
  8
0
  6
Continuous
 62
     0
370
    -2
100
AcDbLine
 10
419.0432064458672
 20
-110.6965768921336
 30
0.0
 11
403.7963896669951
 21
-110.6965768921336
 31
0.0
  0
LINE
  5
B8C
330
B89
100
AcDbEntity
  8
0
  6
Continuous
 62
     0
370
    -2
100
AcDbLine
 10
419.0432064458673
 20
-62.69657689213364
 30
0.0
 11
403.7963896669951
 21
-62.69657689213364
 31
0.0
  0
LINE
  5
B8D
330
B89
100
AcDbEntity
  8
0
  6
Continuous
 62
     0
370
    -2
100
AcDbLine
 10
405.0463896669951
 20
-108.1965768921335
 30
0.0
 11
405.0463896669951
 21
-65.19657689213364
 31
0.0
  0
INSERT
  5
B8E
330
B89
100
AcDbEntity
  8
0
  6
Continuous
 62
     0
370
    -2
100
AcDbBlockReference
  2
_Open30
 10
405.0463896669951
 20
-110.6965768921336
 30
0.0
 41
2.5
 42
2.5
 43
2.5
 50
270.0
  0
INSERT
  5
B8F
330
B89
100
AcDbEntity
  8
0
  6
Continuous
 62
     0
370
    -2
100
AcDbBlockReference
  2
_Open30
 10
405.0463896669951
 20
-62.69657689213364
 30
0.0
 41
2.5
 42
2.5
 43
2.5
 50
90.0
  0
MTEXT
  5
B90
330
B89
100
AcDbEntity
  8
0
  6
Continuous
 62
     4
100
AcDbMText
 10
402.9213896669951
 20
-87.89654951066655
 30
0.0
 40
3.0
 41
0.0
 71
     5
 72
     1
  1
48
 11
0.0000000000000001
 21
1.0
 31
0.0
 73
     1
 44
1.0
1001
ACAD
1000
MTEXTBEGIN
1070
    73
1070
     1
1070
    44
1040
1.0
1070
    74
1070
     0
1000
MTEXTEND
  0
POINT
  5
B91
330
B89
100
AcDbEntity
  8
Defpoints
  6
Continuous
 62
     0
100
AcDbPoint
 10
419.2932064458672
 20
-110.6965768921336
 30
0.0
  0
POINT
  5
B92
330
B89
100
AcDbEntity
  8
Defpoints
  6
Continuous
 62
     0
100
AcDbPoint
 10
419.2932064458672
 20
-62.69657689213364
 30
0.0
  0
POINT
  5
B93
330
B89
100
AcDbEntity
  8
Defpoints
  6
Continuous
 62
     0
100
AcDbPoint
 10
405.0463896669951
 20
-62.69657689213364
 30
0.0
  0
ENDBLK
  5
B94
330
B89
100
AcDbEntity
  8
0
100
AcDbBlockEnd
  0
BLOCK
  5
B96
330
B95
100
AcDbEntity
  8
0
100
AcDbBlockBegin
  2
*D8
 70
     1
 10
0.0
 20
0.0
 30
0.0
  3
*D8
  1

  0
LINE
  5
B97
330
B95
100
AcDbEntity
  8
0
  6
Continuous
 62
     0
370
    -2
100
AcDbLine
 10
377.1973662041473
 20
-72.46119253573175
 30
0.0
 11
377.1973662041473
 21
-45.466283843974
 31
0.0
  0
LINE
  5
B98
330
B95
100
AcDbEntity
  8
0
  6
Continuous
 62
     0
370
    -2
100
AcDbLine
 10
281.1973662041473
 20
-72.46119253573175
 30
0.0
 11
281.1973662041473
 21
-45.466283843974
 31
0.0
  0
LINE
  5
B99
330
B95
100
AcDbEntity
  8
0
  6
Continuous
 62
     0
370
    -2
100
AcDbLine
 10
374.6973662041473
 20
-46.716283843974
 30
0.0
 11
283.6973662041473
 21
-46.716283843974
 31
0.0
  0
INSERT
  5
B9A
330
B95
100
AcDbEntity
  8
0
  6
Continuous
 62
     0
370
    -2
100
AcDbBlockReference
  2
_Open30
 10
377.1973662041473
 20
-46.716283843974
 30
0.0
 41
2.5
 42
2.5
 43
2.5
  0
INSERT
  5
B9B
330
B95
100
AcDbEntity
  8
0
  6
Continuous
 62
     0
370
    -2
100
AcDbBlockReference
  2
_Open30
 10
281.1973662041473
 20
-46.716283843974
 30
0.0
 41
2.5
 42
2.5
 43
2.5
 50
180.0
  0
MTEXT
  5
B9C
330
B95
100
AcDbEntity
  8
0
  6
Continuous
 62
     4
100
AcDbMText
 10
327.0099765905645
 20
-44.59128384397399
 30
0.0
 40
3.0
 41
0.0
 71
     5
 72
     1
  1
96
 73
     1
 44
1.0
1001
ACAD
1000
MTEXTBEGIN
1070
    73
1070
     1
1070
    44
1040
1.0
1070
    74
1070
     0
1000
MTEXTEND
  0
POINT
  5
B9D
330
B95
100
AcDbEntity
  8
Defpoints
  6
Continuous
 62
     0
100
AcDbPoint
 10
377.1973662041473
 20
-72.71119253573175
 30
0.0
  0
POINT
  5
B9E
330
B95
100
AcDbEntity
  8
Defpoints
  6
Continuous
 62
     0
100
AcDbPoint
 10
281.1973662041473
 20
-72.71119253573175
 30
0.0
  0
POINT
  5
B9F
330
B95
100
AcDbEntity
  8
Defpoints
  6
Continuous
 62
     0
100
AcDbPoint
 10
281.1973662041473
 20
-46.716283843974
 30
0.0
  0
ENDBLK
  5
BA0
330
B95
100
AcDbEntity
  8
0
100
AcDbBlockEnd
  0
BLOCK
  5
BA2
330
BA1
100
AcDbEntity
  8
0
100
AcDbBlockBegin
  2
_DotSmall
 70
     0
 10
0.0
 20
0.0
 30
0.0
  3
_DotSmall
  1

  0
LWPOLYLINE
  5
BA3
330
BA1
100
AcDbEntity
  8
0
  6
ByBlock
 62
     0
100
AcDbPolyline
 90
        2
 70
     1
 43
0.5
 10
-0.0625
 20
0.0
 42
1.0
 10
0.0625
 20
0.0
 42
1.0
  0
ENDBLK
  5
BA4
330
BA1
100
AcDbEntity
  8
0
100
AcDbBlockEnd
  0
BLOCK
  5
1303
330
1302
100
AcDbEntity
  8
0
100
AcDbBlockBegin
  2
*D11
 70
     1
 10
0.0
 20
0.0
 30
0.0
  3
*D11
  1

  0
LINE
  5
1340
330
1302
100
AcDbEntity
  8
0
  6
Continuous
 62
     0
370
    -2
100
AcDbLine
 10
1002.900026179176
 20
-66.94373548858152
 30
0.0
 11
1002.900026179176
 21
-49.96982107233134
 31
0.0
  0
LINE
  5
1341
330
1302
100
AcDbEntity
  8
0
  6
Continuous
 62
     0
370
    -2
100
AcDbLine
 10
859.9000261791767
 20
-66.94373548858152
 30
0.0
 11
859.9000261791767
 21
-49.96982107233134
 31
0.0
  0
LINE
  5
1342
330
1302
100
AcDbEntity
  8
0
  6
Continuous
 62
     0
370
    -2
100
AcDbLine
 10
1000.400026179176
 20
-51.21982107233134
 30
0.0
 11
862.4000261791767
 21
-51.21982107233134
 31
0.0
  0
INSERT
  5
1343
330
1302
100
AcDbEntity
  8
0
  6
Continuous
 62
     0
370
    -2
100
AcDbBlockReference
  2
_Open30
 10
1002.900026179176
 20
-51.21982107233134
 30
0.0
 41
2.5
 42
2.5
 43
2.5
  0
INSERT
  5
1344
330
1302
100
AcDbEntity
  8
0
  6
Continuous
 62
     0
370
    -2
100
AcDbBlockReference
  2
_Open30
 10
859.9000261791767
 20
-51.21982107233134
 30
0.0
 41
2.5
 42
2.5
 43
2.5
 50
180.0
  0
MTEXT
  5
1345
330
1302
100
AcDbEntity
  8
0
  6
Continuous
 62
     4
100
AcDbMText
 10
929.344976741831
 20
-49.09482107233134
 30
0.0
 40
3.0
 41
0.0
 71
     5
 72
     1
  1
143
 73
     1
 44
1.0
1001
ACAD
1000
MTEXTBEGIN
1070
    73
1070
     1
1070
    44
1040
1.0
1070
    74
1070
     0
1000
MTEXTEND
  0
POINT
  5
1346
330
1302
100
AcDbEntity
  8
Defpoints
  6
Continuous
 62
     0
100
AcDbPoint
 10
1002.900026179176
 20
-67.19373548858152
 30
0.0
  0
POINT
  5
1347
330
1302
100
AcDbEntity
  8
Defpoints
  6
Continuous
 62
     0
100
AcDbPoint
 10
859.9000261791767
 20
-67.19373548858152
 30
0.0
  0
POINT
  5
1348
330
1302
100
AcDbEntity
  8
Defpoints
  6
Continuous
 62
     0
100
AcDbPoint
 10
859.9000261791767
 20
-51.21982107233134
 30
0.0
  0
ENDBLK
  5
1304
330
1302
100
AcDbEntity
  8
0
100
AcDbBlockEnd
  0
BLOCK
  5
130F
330
130E
100
AcDbEntity
  8
0
100
AcDbBlockBegin
  2
*D12
 70
     1
 10
0.0
 20
0.0
 30
0.0
  3
*D12
  1

  0
LINE
  5
1349
330
130E
100
AcDbEntity
  8
0
  6
Continuous
 62
     0
370
    -2
100
AcDbLine
 10
1019.900026179176
 20
-75.94373548858147
 30
0.0
 11
1019.900026179176
 21
-49.96982107233134
 31
0.0
  0
LINE
  5
134A
330
130E
100
AcDbEntity
  8
0
  6
Continuous
 62
     0
370
    -2
100
AcDbLine
 10
1002.900026179176
 20
-66.94373548858152
 30
0.0
 11
1002.900026179176
 21
-49.96982107233134
 31
0.0
  0
LINE
  5
134B
330
130E
100
AcDbEntity
  8
0
  6
Continuous
 62
     0
370
    -2
100
AcDbLine
 10
1017.400026179176
 20
-51.21982107233134
 30
0.0
 11
1005.400026179176
 21
-51.21982107233134
 31
0.0
  0
INSERT
  5
134C
330
130E
100
AcDbEntity
  8
0
  6
Continuous
 62
     0
370
    -2
100
AcDbBlockReference
  2
_Open30
 10
1019.900026179176
 20
-51.21982107233134
 30
0.0
 41
2.5
 42
2.5
 43
2.5
  0
INSERT
  5
134D
330
130E
100
AcDbEntity
  8
0
  6
Continuous
 62
     0
370
    -2
100
AcDbBlockReference
  2
_Open30
 10
1002.900026179176
 20
-51.21982107233134
 30
0.0
 41
2.5
 42
2.5
 43
2.5
 50
180.0
  0
MTEXT
  5
134E
330
130E
100
AcDbEntity
  8
0
  6
Continuous
 62
     4
100
AcDbMText
 10
1010.954723405891
 20
-49.09482107233134
 30
0.0
 40
3.0
 41
0.0
 71
     5
 72
     1
  1
(17)
 73
     1
 44
1.0
1001
ACAD
1000
MTEXTBEGIN
1070
    73
1070
     1
1070
    44
1040
1.0
1070
    74
1070
     0
1000
MTEXTEND
  0
POINT
  5
134F
330
130E
100
AcDbEntity
  8
Defpoints
  6
Continuous
 62
     0
100
AcDbPoint
 10
1019.900026179176
 20
-76.19373548858146
 30
0.0
  0
POINT
  5
1350
330
130E
100
AcDbEntity
  8
Defpoints
  6
Continuous
 62
     0
100
AcDbPoint
 10
1002.900026179176
 20
-67.19373548858152
 30
0.0
  0
POINT
  5
1351
330
130E
100
AcDbEntity
  8
Defpoints
  6
Continuous
 62
     0
100
AcDbPoint
 10
1002.900026179176
 20
-51.21982107233134
 30
0.0
  0
ENDBLK
  5
1310
330
130E
100
AcDbEntity
  8
0
100
AcDbBlockEnd
  0
BLOCK
  5
131B
330
131A
100
AcDbEntity
  8
0
100
AcDbBlockBegin
  2
*D13
 70
     1
 10
0.0
 20
0.0
 30
0.0
  3
*D13
  1

  0
LINE
  5
1352
330
131A
100
AcDbEntity
  8
0
  6
Continuous
 62
     0
370
    -2
100
AcDbLine
 10
853.9000261791768
 20
-94.2937354885815
 30
0.0
 11
853.9000261791768
 21
-49.96982107233134
 31
0.0
  0
LINE
  5
1353
330
131A
100
AcDbEntity
  8
0
  6
Continuous
 62
     0
370
    -2
100
AcDbLine
 10
859.9000261791767
 20
-66.94373548858152
 30
0.0
 11
859.9000261791767
 21
-49.96982107233134
 31
0.0
  0
LINE
  5
1354
330
131A
100
AcDbEntity
  8
0
  6
Continuous
 62
     0
370
    -2
100
AcDbLine
 10
851.4000261791768
 20
-51.21982107233134
 30
0.0
 11
848.9000261791769
 21
-51.21982107233134
 31
0.0
  0
LINE
  5
1355
330
131A
100
AcDbEntity
  8
0
  6
Continuous
 62
     0
370
    -2
100
AcDbLine
 10
862.4000261791767
 20
-51.21982107233134
 30
0.0
 11
864.9000261791767
 21
-51.21982107233134
 31
0.0
  0
LINE
  5
1356
330
131A
100
AcDbEntity
  8
0
  6
Continuous
 62
     0
370
    -2
100
AcDbLine
 10
853.9000261791768
 20
-51.21982107233134
 30
0.0
 11
859.9000261791767
 21
-51.21982107233134
 31
0.0
  0
INSERT
  5
1357
330
131A
100
AcDbEntity
  8
0
  6
Continuous
 62
     0
370
    -2
100
AcDbBlockReference
  2
_Open30
 10
853.9000261791768
 20
-51.21982107233134
 30
0.0
 41
2.5
 42
2.5
 43
2.5
  0
INSERT
  5
1358
330
131A
100
AcDbEntity
  8
0
  6
Continuous
 62
     0
370
    -2
100
AcDbBlockReference
  2
_Open30
 10
859.9000261791767
 20
-51.21982107233134
 30
0.0
 41
2.5
 42
2.5
 43
2.5
 50
180.0
  0
MTEXT
  5
1359
330
131A
100
AcDbEntity
  8
0
  6
Continuous
 62
     4
100
AcDbMText
 10
856.9000261791769
 20
-49.09482107233134
 30
0.0
 40
3.0
 41
0.0
 71
     5
 72
     1
  1
(6)
 73
     1
 44
1.0
1001
ACAD
1000
MTEXTBEGIN
1070
    73
1070
     1
1070
    44
1040
1.0
1070
    74
1070
     0
1000
MTEXTEND
  0
POINT
  5
135A
330
131A
100
AcDbEntity
  8
Defpoints
  6
Continuous
 62
     0
100
AcDbPoint
 10
853.9000261791768
 20
-94.54373548858148
 30
0.0
  0
POINT
  5
135B
330
131A
100
AcDbEntity
  8
Defpoints
  6
Continuous
 62
     0
100
AcDbPoint
 10
859.9000261791767
 20
-67.19373548858152
 30
0.0
  0
POINT
  5
135C
330
131A
100
AcDbEntity
  8
Defpoints
  6
Continuous
 62
     0
100
AcDbPoint
 10
859.9000261791767
 20
-51.21982107233134
 30
0.0
  0
ENDBLK
  5
131C
330
131A
100
AcDbEntity
  8
0
100
AcDbBlockEnd
  0
BLOCK
  5
1329
330
1328
100
AcDbEntity
  8
0
100
AcDbBlockBegin
  2
*D14
 70
     1
 10
0.0
 20
0.0
 30
0.0
  3
*D14
  1

  0
LINE
  5
135D
330
1328
100
AcDbEntity
  8
0
  6
Continuous
 62
     0
370
    -2
100
AcDbLine
 10
859.6500261791767
 20
-115.1937354885814
 30
0.0
 11
844.4032094003045
 21
-115.1937354885814
 31
0.0
  0
LINE
  5
135E
330
1328
100
AcDbEntity
  8
0
  6
Continuous
 62
     0
370
    -2
100
AcDbLine
 10
859.6500261791769
 20
-67.19373548858152
 30
0.0
 11
844.4032094003045
 21
-67.19373548858152
 31
0.0
  0
LINE
  5
135F
330
1328
100
AcDbEntity
  8
0
  6
Continuous
 62
     0
370
    -2
100
AcDbLine
 10
845.6532094003046
 20
-112.6937354885814
 30
0.0
 11
845.6532094003046
 21
-69.69373548858152
 31
0.0
  0
INSERT
  5
1360
330
1328
100
AcDbEntity
  8
0
  6
Continuous
 62
     0
370
    -2
100
AcDbBlockReference
  2
_Open30
 10
845.6532094003046
 20
-115.1937354885814
 30
0.0
 41
2.5
 42
2.5
 43
2.5
 50
270.0
  0
INSERT
  5
1361
330
1328
100
AcDbEntity
  8
0
  6
Continuous
 62
     0
370
    -2
100
AcDbBlockReference
  2
_Open30
 10
845.6532094003046
 20
-67.19373548858152
 30
0.0
 41
2.5
 42
2.5
 43
2.5
 50
90.0
  0
MTEXT
  5
1362
330
1328
100
AcDbEntity
  8
0
  6
Continuous
 62
     4
100
AcDbMText
 10
843.5282094003046
 20
-92.39370810711443
 30
0.0
 40
3.0
 41
0.0
 71
     5
 72
     1
  1
48
 11
0.0000000000000001
 21
1.0
 31
0.0
 73
     1
 44
1.0
1001
ACAD
1000
MTEXTBEGIN
1070
    73
1070
     1
1070
    44
1040
1.0
1070
    74
1070
     0
1000
MTEXTEND
  0
POINT
  5
1363
330
1328
100
AcDbEntity
  8
Defpoints
  6
Continuous
 62
     0
100
AcDbPoint
 10
859.9000261791767
 20
-115.1937354885814
 30
0.0
  0
POINT
  5
1364
330
1328
100
AcDbEntity
  8
Defpoints
  6
Continuous
 62
     0
100
AcDbPoint
 10
859.9000261791768
 20
-67.19373548858152
 30
0.0
  0
POINT
  5
1365
330
1328
100
AcDbEntity
  8
Defpoints
  6
Continuous
 62
     0
100
AcDbPoint
 10
845.6532094003046
 20
-67.19373548858152
 30
0.0
  0
ENDBLK
  5
132A
330
1328
100
AcDbEntity
  8
0
100
AcDbBlockEnd
  0
BLOCK
  5
1335
330
1334
100
AcDbEntity
  8
0
100
AcDbBlockBegin
  2
*D15
 70
     1
 10
0.0
 20
0.0
 30
0.0
  3
*D15
  1

  0
LINE
  5
1366
330
1334
100
AcDbEntity
  8
0
  6
Continuous
 62
     0
370
    -2
100
AcDbLine
 10
817.8041859374568
 20
-76.95835113217964
 30
0.0
 11
817.8041859374568
 21
-49.96344244042188
 31
0.0
  0
LINE
  5
1367
330
1334
100
AcDbEntity
  8
0
  6
Continuous
 62
     0
370
    -2
100
AcDbLine
 10
721.8041859374568
 20
-76.95835113217964
 30
0.0
 11
721.8041859374568
 21
-49.96344244042188
 31
0.0
  0
LINE
  5
1368
330
1334
100
AcDbEntity
  8
0
  6
Continuous
 62
     0
370
    -2
100
AcDbLine
 10
815.3041859374567
 20
-51.21344244042188
 30
0.0
 11
724.3041859374568
 21
-51.21344244042188
 31
0.0
  0
INSERT
  5
1369
330
1334
100
AcDbEntity
  8
0
  6
Continuous
 62
     0
370
    -2
100
AcDbBlockReference
  2
_Open30
 10
817.8041859374568
 20
-51.21344244042188
 30
0.0
 41
2.5
 42
2.5
 43
2.5
  0
INSERT
  5
136A
330
1334
100
AcDbEntity
  8
0
  6
Continuous
 62
     0
370
    -2
100
AcDbBlockReference
  2
_Open30
 10
721.8041859374568
 20
-51.21344244042188
 30
0.0
 41
2.5
 42
2.5
 43
2.5
 50
180.0
  0
MTEXT
  5
136B
330
1334
100
AcDbEntity
  8
0
  6
Continuous
 62
     4
100
AcDbMText
 10
767.616796323874
 20
-49.08844244042189
 30
0.0
 40
3.0
 41
0.0
 71
     5
 72
     1
  1
96
 73
     1
 44
1.0
1001
ACAD
1000
MTEXTBEGIN
1070
    73
1070
     1
1070
    44
1040
1.0
1070
    74
1070
     0
1000
MTEXTEND
  0
POINT
  5
136C
330
1334
100
AcDbEntity
  8
Defpoints
  6
Continuous
 62
     0
100
AcDbPoint
 10
817.8041859374568
 20
-77.20835113217964
 30
0.0
  0
POINT
  5
136D
330
1334
100
AcDbEntity
  8
Defpoints
  6
Continuous
 62
     0
100
AcDbPoint
 10
721.8041859374568
 20
-77.20835113217964
 30
0.0
  0
POINT
  5
136E
330
1334
100
AcDbEntity
  8
Defpoints
  6
Continuous
 62
     0
100
AcDbPoint
 10
721.8041859374568
 20
-51.21344244042188
 30
0.0
  0
ENDBLK
  5
1336
330
1334
100
AcDbEntity
  8
0
100
AcDbBlockEnd
  0
ENDSEC
  0
SECTION
  2
ENTITIES
  0
TEXT
  5
F58
330
6B
100
AcDbEntity
  8
0
 62
     3
100
AcDbText
 10
982.8855047971257
 20
-262.1810648948794
 30
0.0
 40
4.5
  1
矩形波インバータ
  7
高4.5
100
AcDbText
  0
TEXT
  5
F59
330
6B
100
AcDbEntity
  8
0
 62
     3
100
AcDbText
 10
1013.937466733309
 20
-283.6355005964478
 30
0.0
 40
3.2
  1
1/1
  7
高3.2
100
AcDbText
  0
LINE
  5
F5A
330
6B
100
AcDbEntity
  8
0
 62
     3
100
AcDbLine
 10
1055.514515903315
 20
-131.6421429546156
 30
0.0
 11
1055.514515903315
 21
-241.6421429546157
 31
0.0
  0
LINE
  5
F5B
330
6B
100
AcDbEntity
  8
0
 62
     3
100
AcDbLine
 10
966.4388506184062
 20
-131.6421429546156
 30
0.0
 11
1055.514515903315
 21
-131.6421429546156
 31
0.0
  0
LINE
  5
F5C
330
6B
100
AcDbEntity
  8
0
 62
     3
100
AcDbLine
 10
966.4388506184062
 20
-131.6421429546156
 30
0.0
 11
966.4388506184062
 21
-241.6421429546157
 31
0.0
  0
TEXT
  5
F5D
330
6B
100
AcDbEntity
  8
0
 62
     3
100
AcDbText
 10
1043.924038733309
 20
-283.6355005964478
 30
0.0
 40
3.2
  1
2008.9.18
  7
高3.2
100
AcDbText
  0
LINE
  5
F5E
330
6B
100
AcDbEntity
  8
0
 62
     3
100
AcDbLine
 10
1053.209695733309
 20
-277.3802495964479
 30
0.0
 11
1053.209695733309
 21
-254.3802495964479
 31
0.0
  0
LINE
  5
F5F
330
6B
100
AcDbEntity
  8
0
 62
     3
100
AcDbLine
 10
1000.156085733309
 20
-284.3802495964479
 30
0.0
 11
1000.156085733309
 21
-270.3802495964479
 31
0.0
  0
TEXT
  5
F60
330
6B
100
AcDbEntity
  8
0
 62
     3
100
AcDbText
 10
1029.220013733309
 20
-258.1751335964479
 30
0.0
 40
2.0
  1
A
 41
0.7
100
AcDbText
  0
TEXT
  5
F61
330
6B
100
AcDbEntity
  8
0
 62
     3
100
AcDbText
 10
1031.755299733309
 20
-258.1751335964479
 30
0.0
 40
2.0
  1
P
 41
0.7
100
AcDbText
  0
TEXT
  5
F62
330
6B
100
AcDbEntity
  8
0
 62
     3
100
AcDbText
 10
1034.290585733309
 20
-258.1751335964479
 30
0.0
 40
2.0
  1
P
 41
0.7
100
AcDbText
  0
TEXT
  5
F63
330
6B
100
AcDbEntity
  8
0
 62
     3
100
AcDbText
 10
1036.825872733309
 20
-258.1751335964479
 30
0.0
 40
2.0
  1
D
 41
0.7
100
AcDbText
  0
TEXT
  5
F64
330
6B
100
AcDbEntity
  8
0
 62
     3
100
AcDbText
 10
1042.19455573331
 20
-258.1751335964479
 30
0.0
 40
2.0
  1
C
 41
0.7
100
AcDbText
  0
TEXT
  5
F65
330
6B
100
AcDbEntity
  8
0
 62
     3
100
AcDbText
 10
1044.729841733309
 20
-258.1751335964479
 30
0.0
 40
2.0
  1
H
 41
0.7
100
AcDbText
  0
TEXT
  5
F66
330
6B
100
AcDbEntity
  8
0
 62
     3
100
AcDbText
 10
1047.265127733309
 20
-258.1751335964479
 30
0.0
 40
2.0
  1
C
 41
0.7
100
AcDbText
  0
TEXT
  5
F67
330
6B
100
AcDbEntity
  8
0
 62
     3
100
AcDbText
 10
1049.800413733309
 20
-258.1751335964479
 30
0.0
 40
2.0
  1
K
 41
0.7
100
AcDbText
  0
TEXT
  5
F68
330
6B
100
AcDbEntity
  8
0
 62
     3
100
AcDbText
 10
1055.474380733309
 20
-258.1751335964479
 30
0.0
 40
2.0
  1
DESN
 41
1.216762999999998
100
AcDbText
  0
TEXT
  5
F69
330
6B
100
AcDbEntity
  8
0
 62
     3
100
AcDbText
 10
970.4680217333093
 20
-287.5216315964479
 30
0.0
 40
2.0
  1
NICHIDO IND.CO.LTD
 41
1.274876
100
AcDbText
  0
LINE
  5
F6A
330
6B
100
AcDbEntity
  8
0
 62
     3
100
AcDbLine
 10
980.8510517333095
 20
-254.3802495964479
 30
0.0
 11
980.8510517333095
 21
-277.3802495964479
 31
0.0
  0
LINE
  5
F6B
330
6B
100
AcDbEntity
  8
0
 62
     3
100
AcDbLine
 10
1027.209695733309
 20
-254.3802495964479
 30
0.0
 11
1027.209695733309
 21
-294.0459715964479
 31
0.0
  0
LINE
  5
F6C
330
6B
100
AcDbEntity
  8
0
 62
     3
100
AcDbLine
 10
1040.209695733309
 20
-254.3802495964479
 30
0.0
 11
1040.209695733309
 21
-284.3802495964479
 31
0.0
  0
TEXT
  5
F6D
330
6B
100
AcDbEntity
  8
0
 62
     3
100
AcDbText
 10
1028.322140733309
 20
-283.5155625964479
 30
0.0
 40
3.2
  1
作成日
 41
1.017225999999997
100
AcDbText
  0
LINE
  5
F6E
330
6B
100
AcDbEntity
  8
0
 62
     3
100
AcDbLine
 10
1078.909058733309
 20
-254.3802495964479
 30
0.0
 11
967.6056167333094
 21
-254.3802495964479
 31
0.0
  0
LINE
  5
F6F
330
6B
100
AcDbEntity
  8
0
 62
     3
100
AcDbLine
 10
1078.909058733309
 20
-248.3802495964479
 30
0.0
 11
1027.209695733309
 21
-248.3802495964479
 31
0.0
  0
LINE
  5
F70
330
6B
100
AcDbEntity
  8
0
 62
     3
100
AcDbLine
 10
1066.209695733309
 20
-277.3802495964479
 30
0.0
 11
1066.209695733309
 21
-254.3802495964479
 31
0.0
  0
TEXT
  5
F71
330
6B
100
AcDbEntity
  8
0
 62
     3
100
AcDbText
 10
1069.533498733309
 20
-258.0893145964479
 30
0.0
 40
1.8
  1
D
 41
0.666667
100
AcDbText
  0
TEXT
  5
F72
330
6B
100
AcDbEntity
  8
0
 62
     3
100
AcDbText
 10
1072.350126733309
 20
-258.0893145964479
 30
0.0
 40
1.8
  1
E
 41
0.666667
100
AcDbText
  0
TEXT
  5
F73
330
6B
100
AcDbEntity
  8
0
 62
     3
100
AcDbText
 10
1075.166755733309
 20
-258.0893145964479
 30
0.0
 40
1.8
  1
F
 41
0.666667
100
AcDbText
  0
TEXT
  5
F74
330
6B
100
AcDbEntity
  8
0
 62
     3
100
AcDbText
 10
1069.533498733309
 20
-262.0818685964479
 30
0.0
 40
3.2
  1
製図
 41
1.076369
100
AcDbText
  0
LINE
  5
F75
330
6B
100
AcDbEntity
  8
0
 62
     3
100
AcDbLine
 10
967.6056167333094
 20
-254.3802495964479
 30
0.0
 11
967.6056167333094
 21
-294.0459715964479
 31
0.0
  0
TEXT
  5
F76
330
6B
100
AcDbEntity
  8
0
 62
     3
100
AcDbText
 10
968.9822697333093
 20
-293.7135065964479
 30
0.0
 40
5.0
  1
日動工業株式会社
 41
0.833333
100
AcDbText
  0
LINE
  5
F77
330
6B
100
AcDbEntity
  8
0
 62
     3
100
AcDbLine
 10
1010.488020733309
 20
-270.3802495964479
 30
0.0
 11
1010.488020733309
 21
-294.0459715964479
 31
0.0
  0
LINE
  5
F78
330
6B
100
AcDbEntity
  8
0
 62
     3
100
AcDbLine
 10
1010.488020733309
 20
-289.2131105964479
 30
0.0
 11
1027.209695733309
 21
-289.2131105964479
 31
0.0
  0
TEXT
  5
F79
330
6B
100
AcDbEntity
  8
0
 62
     3
100
AcDbText
 10
1011.074622733309
 20
-288.396680596448
 30
0.0
 40
3.2
  1
出図コード
 41
0.8356860000000001
100
AcDbText
  0
LINE
  5
F7A
330
6B
100
AcDbEntity
  8
0
 62
     3
100
AcDbLine
 10
967.6056167333094
 20
-284.3802495964479
 30
0.0
 11
1078.909058733309
 21
-284.3802495964479
 31
0.0
  0
LINE
  5
F7B
330
6B
100
AcDbEntity
  8
0
 62
     3
100
AcDbLine
 10
967.6056167333094
 20
-263.3802495964479
 30
0.0
 11
1078.909058733309
 21
-263.3802495964479
 31
0.0
  0
LINE
  5
F7C
330
6B
100
AcDbEntity
  8
0
 62
     3
100
AcDbLine
 10
967.6056167333092
 20
-270.3802495964479
 30
0.0
 11
1027.209695733309
 21
-270.3802495964479
 31
0.0
  0
LINE
  5
F7D
330
6B
100
AcDbEntity
  8
0
 62
     3
100
AcDbLine
 10
967.6056167333094
 20
-277.3802495964479
 30
0.0
 11
1078.909058733309
 21
-277.3802495964479
 31
0.0
  0
LINE
  5
F7E
330
6B
100
AcDbEntity
  8
0
 62
     3
100
AcDbLine
 10
1078.909058733309
 20
-19.99061059644788
 30
0.0
 11
1078.909058733309
 21
-294.0459715964479
 31
0.0
  0
LINE
  5
F7F
330
6B
100
AcDbEntity
  8
0
 62
     3
100
AcDbLine
 10
688.9090587333095
 20
-19.99061059644788
 30
0.0
 11
688.9090587333095
 21
-294.0459715964479
 31
0.0
  0
LINE
  5
F80
330
6B
100
AcDbEntity
  8
0
 62
     3
100
AcDbLine
 10
1078.909058733309
 20
-294.0459715964479
 30
0.0
 11
688.9090587333095
 21
-294.0459715964479
 31
0.0
  0
TEXT
  5
F81
330
6B
100
AcDbEntity
  8
0
 62
     3
100
AcDbText
 10
1010.942073733309
 20
-293.5862232505773
 30
0.0
 40
3.2
  1
ZK-A3X
 41
0.8112849999999999
100
AcDbText
  0
TEXT
  5
F82
330
6B
100
AcDbEntity
  8
0
 62
     3
100
AcDbText
 10
969.4230137333095
 20
-258.2107235964479
 30
0.0
 40
2.0
  1
CONPONENTS
 41
0.5331600000000001
100
AcDbText
  0
TEXT
  5
F83
330
6B
100
AcDbEntity
  8
0
 62
     3
100
AcDbText
 10
969.0732867333094
 20
-277.1429005964479
 30
0.0
 40
3.0
  1
材
 41
0.833333
100
AcDbText
  0
TEXT
  5
F84
330
6B
100
AcDbEntity
  8
0
 62
     3
100
AcDbText
 10
976.6089297333094
 20
-277.1429005964479
 30
0.0
 40
3.0
  1
質
 41
0.833333
100
AcDbText
  0
TEXT
  5
F85
330
6B
100
AcDbEntity
  8
0
 62
     3
100
AcDbText
 10
969.1613577333095
 20
-266.5183755964479
 30
0.0
 40
2.0
  1
MODEL
 41
1.031072999999999
100
AcDbText
  0
TEXT
  5
F86
330
6B
100
AcDbEntity
  8
0
 62
     3
100
AcDbText
 10
969.0732867333094
 20
-273.4605925964479
 30
0.0
 40
2.0
  1
MATERIAL
 41
0.659278
100
AcDbText
  0
TEXT
  5
F87
330
6B
100
AcDbEntity
  8
0
 62
     3
100
AcDbText
 10
1000.380567733309
 20
-277.1429005964479
 30
0.0
 40
3.0
  1
備
 41
0.833333
100
AcDbText
  0
TEXT
  5
F88
330
6B
100
AcDbEntity
  8
0
 62
     3
100
AcDbText
 10
1007.113568733309
 20
-277.1429005964479
 30
0.0
 40
3.0
  1
考
 41
0.833333
100
AcDbText
  0
TEXT
  5
F89
330
6B
100
AcDbEntity
  8
0
 62
     3
100
AcDbText
 10
1000.636614765772
 20
-273.4605925964479
 30
0.0
 40
2.0
  1
REMARKS
 41
0.675794
100
AcDbText
  0
TEXT
  5
F8A
330
6B
100
AcDbEntity
  8
0
 62
     3
100
AcDbText
 10
970.6630157333094
 20
-280.3807125964479
 30
0.0
 40
2.0
  1
3AD
 41
1.42614
100
AcDbText
  0
TEXT
  5
F8B
330
6B
100
AcDbEntity
  8
0
 62
     3
100
AcDbText
 10
979.9739957333095
 20
-280.2149795964479
 30
0.0
 40
2.0
  1
ANGLE
 41
1.669883999999995
100
AcDbText
  0
TEXT
  5
F8C
330
6B
100
AcDbEntity
  8
0
 62
     3
100
AcDbText
 10
1000.907882733309
 20
-280.5918205964479
 30
0.0
 40
2.0
  1
SCALE
 41
0.7719630000000001
100
AcDbText
  0
TEXT
  5
F8D
330
6B
100
AcDbEntity
  8
0
 62
     3
100
AcDbText
 10
970.3491457333093
 20
-284.3802495964479
 30
0.0
 40
3.0
  1
第
 41
0.833333
100
AcDbText
  0
TEXT
  5
F8E
330
6B
100
AcDbEntity
  8
0
 62
     3
100
AcDbText
 10
978.1359957333094
 20
-284.3802495964479
 30
0.0
 40
3.0
  1
三
 41
0.833333
100
AcDbText
  0
TEXT
  5
F8F
330
6B
100
AcDbEntity
  8
0
 62
     3
100
AcDbText
 10
985.9228457333093
 20
-284.3802495964479
 30
0.0
 40
3.0
  1
角
 41
0.833333
100
AcDbText
  0
TEXT
  5
F90
330
6B
100
AcDbEntity
  8
0
 62
     3
100
AcDbText
 10
993.7096957333093
 20
-284.3802495964479
 30
0.0
 40
3.0
  1
法
 41
0.833333
100
AcDbText
  0
TEXT
  5
F91
330
6B
100
AcDbEntity
  8
0
 62
     3
100
AcDbText
 10
1000.771087733309
 20
-284.0918205964479
 30
0.0
 40
3.0
  1
尺
 41
0.833333
100
AcDbText
  0
TEXT
  5
F92
330
6B
100
AcDbEntity
  8
0
 62
     3
100
AcDbText
 10
1007.504089733309
 20
-284.0918205964479
 30
0.0
 40
3.0
  1
度
 41
0.833333
100
AcDbText
  0
TEXT
  5
F93
330
6B
100
AcDbEntity
  8
0
 62
     3
100
AcDbText
 10
1030.087359733309
 20
-261.9225205964479
 30
0.0
 40
3.0
  1
承認
 41
1.089472999999999
100
AcDbText
  0
TEXT
  5
F94
330
6B
100
AcDbEntity
  8
0
 62
     3
100
AcDbText
 10
1043.330239733309
 20
-261.9802495964479
 30
0.0
 40
3.0
  1
検図
 41
0.931761
100
AcDbText
  0
TEXT
  5
F95
330
6B
100
AcDbEntity
  8
0
 62
     3
100
AcDbText
 10
1056.330636733309
 20
-261.9802495964479
 30
0.0
 40
3.0
  1
設
 41
0.833333
100
AcDbText
  0
TEXT
  5
F96
330
6B
100
AcDbEntity
  8
0
 62
     3
100
AcDbText
 10
1060.820504733309
 20
-261.9802495964479
 30
0.0
 40
3.0
  1
計
 41
0.833333
100
AcDbText
  0
TEXT
  5
F97
330
6B
100
AcDbEntity
  8
0
 62
     3
100
AcDbText
 10
969.4931197333096
 20
-261.8076975964479
 30
0.0
 40
3.0
  1
品
 41
0.833333
100
AcDbText
  0
TEXT
  5
F98
330
6B
100
AcDbEntity
  8
0
 62
     3
100
AcDbText
 10
977.0287627333093
 20
-261.8076975964479
 30
0.0
 40
3.0
  1
名
 41
0.833333
100
AcDbText
  0
TEXT
  5
F99
330
6B
100
AcDbEntity
  8
0
 62
     3
100
AcDbText
 10
969.1613577333095
 20
-270.0319160477204
 30
0.0
 40
3.0
  1
型
 41
0.833333
100
AcDbText
  0
TEXT
  5
F9A
330
6B
100
AcDbEntity
  8
0
 62
     3
100
AcDbText
 10
976.7094477333094
 20
-270.0319160477204
 30
0.0
 40
3.0
  1
式
 41
0.833333
100
AcDbText
  0
LINE
  5
F9B
330
6B
100
AcDbEntity
  8
0
 62
     3
100
AcDbLine
 10
676.5071357333095
 20
-153.5459715964479
 30
0.0
 11
673.9090587333095
 21
-155.0459715964479
 31
0.0
  0
LINE
  5
F9C
330
6B
100
AcDbEntity
  8
0
 62
     3
100
AcDbLine
 10
676.5071357333095
 20
-153.5459715964479
 30
0.0
 11
673.9090587333095
 21
-152.0459715964479
 31
0.0
  0
LINE
  5
F9D
330
6B
100
AcDbEntity
  8
0
 62
     3
100
AcDbLine
 10
673.9090587333095
 20
-155.0459715964479
 30
0.0
 11
673.9090587333095
 21
-152.0459715964479
 31
0.0
  0
LINE
  5
F9E
330
6B
100
AcDbEntity
  8
0
 62
     3
100
AcDbLine
 10
688.9090587333095
 20
-19.99061059644788
 30
0.0
 11
1078.909058733309
 21
-19.99061059644788
 31
0.0
  0
LINE
  5
F9F
330
6B
100
AcDbEntity
  8
0
 62
     7
100
AcDbLine
 10
966.4388506184062
 20
-236.1421429546157
 30
0.0
 11
1055.514515903315
 21
-236.1421429546157
 31
0.0
  0
LINE
  5
FA0
330
6B
100
AcDbEntity
  8
0
 62
     3
100
AcDbLine
 10
1027.209695733309
 20
-254.3802495964479
 30
0.0
 11
1027.209695733309
 21
-248.3802495964479
 31
0.0
  0
LINE
  5
FA1
330
6B
100
AcDbEntity
  8
0
 62
     7
100
AcDbLine
 10
966.4388506184062
 20
-142.6421429546157
 30
0.0
 11
1055.514515903315
 21
-142.6421429546157
 31
0.0
  0
LINE
  5
FA2
330
6B
100
AcDbEntity
  8
0
 62
     7
100
AcDbLine
 10
966.4388506184062
 20
-148.1421429546157
 30
0.0
 11
1055.514515903315
 21
-148.1421429546157
 31
0.0
  0
LINE
  5
FA3
330
6B
100
AcDbEntity
  8
0
 62
     7
100
AcDbLine
 10
966.4388506184062
 20
-153.6421429546157
 30
0.0
 11
1055.514515903315
 21
-153.6421429546157
 31
0.0
  0
LINE
  5
FA4
330
6B
100
AcDbEntity
  8
0
 62
     7
100
AcDbLine
 10
966.4388506184062
 20
-159.1421429546157
 30
0.0
 11
1055.514515903315
 21
-159.1421429546157
 31
0.0
  0
LINE
  5
FA5
330
6B
100
AcDbEntity
  8
0
 62
     7
100
AcDbLine
 10
966.4388506184062
 20
-164.6421429546157
 30
0.0
 11
1055.514515903315
 21
-164.6421429546157
 31
0.0
  0
LINE
  5
FA6
330
6B
100
AcDbEntity
  8
0
 62
     7
100
AcDbLine
 10
966.4388506184062
 20
-170.1421429546157
 30
0.0
 11
1055.514515903315
 21
-170.1421429546157
 31
0.0
  0
LINE
  5
FA7
330
6B
100
AcDbEntity
  8
0
 62
     7
100
AcDbLine
 10
966.4388506184062
 20
-175.6421429546157
 30
0.0
 11
1055.514515903315
 21
-175.6421429546157
 31
0.0
  0
LINE
  5
FA8
330
6B
100
AcDbEntity
  8
0
 62
     7
100
AcDbLine
 10
966.4388506184062
 20
-181.1421429546157
 30
0.0
 11
1055.514515903315
 21
-181.1421429546157
 31
0.0
  0
LINE
  5
FA9
330
6B
100
AcDbEntity
  8
0
 62
     7
100
AcDbLine
 10
966.4388506184062
 20
-225.1421429546157
 30
0.0
 11
1055.514515903315
 21
-225.1421429546157
 31
0.0
  0
LINE
  5
FAA
330
6B
100
AcDbEntity
  8
0
 62
     7
100
AcDbLine
 10
966.4388506184062
 20
-230.6421429546157
 30
0.0
 11
1055.514515903315
 21
-230.6421429546157
 31
0.0
  0
LINE
  5
FAB
330
6B
100
AcDbEntity
  8
0
 62
     7
100
AcDbLine
 10
992.7361935073127
 20
-131.6421429546156
 30
0.0
 11
992.7361935073127
 21
-241.6421429546157
 31
0.0
  0
LINE
  5
FAC
330
6B
100
AcDbEntity
  8
0
 62
     7
100
AcDbLine
 10
966.4388506184062
 20
-137.1421429546157
 30
0.0
 11
1055.514515903315
 21
-137.1421429546157
 31
0.0
  0
TEXT
  5
FAD
330
6B
100
AcDbEntity
  8
0
 62
     3
100
AcDbText
 10
968.4388506184061
 20
-136.1421429546157
 30
0.0
 40
3.2
  1
型　　式
  7
高3.2
100
AcDbText
  0
TEXT
  5
FAE
330
6B
100
AcDbEntity
  8
0
 62
     3
100
AcDbText
 10
968.4388506184061
 20
-141.6421429546157
 30
0.0
 40
3.2
  1
定格入力電圧
  7
高3.2
100
AcDbText
  0
TEXT
  5
FAF
330
6B
100
AcDbEntity
  8
0
 62
     3
100
AcDbText
 10
968.4388506184061
 20
-147.1421429546157
 30
0.0
 40
3.2
  1
入力電圧範囲
  7
高3.2
100
AcDbText
  0
TEXT
  5
FB0
330
6B
100
AcDbEntity
  8
0
 62
     3
100
AcDbText
 10
968.4388506184061
 20
-152.6421429546157
 30
0.0
 40
3.2
  1
出力電圧
  7
高3.2
100
AcDbText
  0
TEXT
  5
FB1
330
6B
100
AcDbEntity
  8
0
 62
     3
100
AcDbText
 10
968.4388506184061
 20
-158.1421429546157
 30
0.0
 40
3.2
  1
最大出力
  7
高3.2
100
AcDbText
  0
TEXT
  5
FB2
330
6B
100
AcDbEntity
  8
0
 62
     3
100
AcDbText
 10
968.4388506184061
 20
-163.6421429546157
 30
0.0
 40
3.2
  1
定格出力
  7
高3.2
100
AcDbText
  0
TEXT
  5
FB3
330
6B
100
AcDbEntity
  8
0
 62
     3
100
AcDbText
 10
968.4388506184061
 20
-169.1421429546157
 30
0.0
 40
3.2
  1
出力周波数
  7
高3.2
100
AcDbText
  0
TEXT
  5
FB4
330
6B
100
AcDbEntity
  8
0
 62
     3
100
AcDbText
 10
968.4388506184061
 20
-174.6421429546157
 30
0.0
 40
3.2
  1
出力波形
  7
高3.2
100
AcDbText
  0
TEXT
  5
FB5
330
6B
100
AcDbEntity
  8
0
 62
     3
100
AcDbText
 10
968.4388506184061
 20
-180.1421429546157
 30
0.0
 40
3.2
  1
変換効率
  7
高3.2
100
AcDbText
  0
TEXT
  5
FB6
330
6B
100
AcDbEntity
  8
0
 62
     3
100
AcDbText
 10
968.4388506184061
 20
-229.6421429546157
 30
0.0
 40
3.2
  1
本体寸法
  7
高3.2
100
AcDbText
  0
TEXT
  5
FB7
330
6B
100
AcDbEntity
  8
0
 62
     3
100
AcDbText
 10
968.4388506184061
 20
-235.1421429546157
 30
0.0
 40
3.2
  1
本体質量
  7
高3.2
100
AcDbText
  0
TEXT
  5
FB8
330
6B
100
AcDbEntity
  8
0
 62
     3
100
AcDbText
 10
994.7361935073129
 20
-136.1421429546157
 30
0.0
 40
3.2
  1
SIS-300N-B
  7
高3.2
100
AcDbText
  0
TEXT
  5
FB9
330
6B
100
AcDbEntity
  8
0
 62
     3
100
AcDbText
 10
994.7361935073129
 20
-141.6421429546157
 30
0.0
 40
3.2
  1
DC24V
  7
高3.2
100
AcDbText
  0
TEXT
  5
FBA
330
6B
100
AcDbEntity
  8
0
 62
     3
100
AcDbText
 10
994.7361935073129
 20
-147.1421429546157
 30
0.0
 40
3.2
  1
DC22V～30V
  7
高3.2
100
AcDbText
  0
TEXT
  5
FBB
330
6B
100
AcDbEntity
  8
0
 62
     3
100
AcDbText
 10
994.7361935073129
 20
-152.6421429546157
 30
0.0
 40
3.2
  1
AC100V%%p10%
  7
高3.2
100
AcDbText
  0
TEXT
  5
FBC
330
6B
100
AcDbEntity
  8
0
 62
     3
100
AcDbText
 10
994.7361935073129
 20
-158.1421429546157
 30
0.0
 40
3.2
  1
300W
  7
高3.2
100
AcDbText
  0
TEXT
  5
FBD
330
6B
100
AcDbEntity
  8
0
 62
     3
100
AcDbText
 10
994.7361935073129
 20
-163.6421429546157
 30
0.0
 40
3.2
  1
270W
  7
高3.2
100
AcDbText
  0
TEXT
  5
FBE
330
6B
100
AcDbEntity
  8
0
 62
     3
100
AcDbText
 10
994.7361935073129
 20
-169.1421429546157
 30
0.0
 40
3.2
  1
50Hzまたは60Hz(出荷時設定)
  7
高3.2
100
AcDbText
  0
TEXT
  5
FBF
330
6B
100
AcDbEntity
  8
0
 62
     3
100
AcDbText
 10
994.7361935073129
 20
-174.6421429546157
 30
0.0
 40
3.2
  1
矩形波
  7
高3.2
100
AcDbText
  0
TEXT
  5
FC0
330
6B
100
AcDbEntity
  8
0
 62
     3
100
AcDbText
 10
994.7361935073129
 20
-180.1421429546157
 30
0.0
 40
3.2
  1
最大85%%%
  7
高3.2
100
AcDbText
  0
TEXT
  5
FC1
330
6B
100
AcDbEntity
  8
0
 62
     3
100
AcDbText
 10
994.7361935073129
 20
-229.6421429546157
 30
0.0
 40
3.2
  1
W96xD143xH48
  7
高3.2
100
AcDbText
  0
TEXT
  5
FC2
330
6B
100
AcDbEntity
  8
0
 62
     3
100
AcDbText
 10
994.7361935073129
 20
-235.1421429546157
 30
0.0
 40
3.2
  1
0.66kg
  7
高3.2
100
AcDbText
  0
TEXT
  5
FC3
330
6B
100
AcDbEntity
  8
0
 62
     3
100
AcDbText
 10
994.7361935073129
 20
-207.6421429546157
 30
0.0
 40
3.2
  1
温度異常保護
  7
高3.2
100
AcDbText
  0
TEXT
  5
FC4
330
6B
100
AcDbEntity
  8
0
 62
     3
100
AcDbText
 10
974.1570507138257
 20
-128.2882689546157
 30
0.0
 40
4.5
  1
主　仕　様　(DC24V用)
  7
高4.5
100
AcDbText
  0
LINE
  5
FC5
330
6B
100
AcDbEntity
  8
0
100
AcDbLine
 10
974.1570507138257
 20
-129.0390829195533
 30
0.0
 11
1039.726394404368
 21
-129.0390829195533
 31
0.0
  0
LINE
  5
FC6
330
6B
100
AcDbEntity
  8
0
 62
     3
100
AcDbLine
 10
1053.209695733309
 20
-254.3802495964479
 30
0.0
 11
1053.209695733309
 21
-248.3802495964479
 31
0.0
  0
TEXT
  5
FC7
330
6B
100
AcDbEntity
  8
0
 62
     3
100
AcDbText
 10
1032.63751510959
 20
-253.8088229750648
 30
0.0
 40
4.5
  1
コード
  7
高4.5
100
AcDbText
  0
TEXT
  5
FC8
330
6B
100
AcDbEntity
  8
0
 62
     3
100
AcDbText
 10
983.3781016809258
 20
-269.576737659904
 30
0.0
 40
4.5
  1
SIS-300N-B
  7
高4.5
100
AcDbText
  0
TEXT
  5
FC9
330
6B
100
AcDbEntity
  8
0
 62
     3
100
AcDbText
 10
1029.809129733309
 20
-293.2159420296255
 30
0.0
 40
6.299999999999998
  1
SIS-300N-B
 41
0.8
  7
高6.3
100
AcDbText
  0
TEXT
  5
FCA
330
6B
100
AcDbEntity
  8
0
 62
     3
100
AcDbText
 10
1057.747547703531
 20
-253.8088229750648
 30
0.0
 40
4.5
  1
6438
  7
高4.5
100
AcDbText
  0
TEXT
  5
FCB
330
6B
100
AcDbEntity
  8
0
 62
     3
100
AcDbText
 10
1066.409058733309
 20
-29.49061059644788
 30
0.0
 40
3.2
  1
担　当
  7
高3.2
100
AcDbText
  0
TEXT
  5
FCC
330
6B
100
AcDbEntity
  8
0
 62
     3
100
AcDbText
 10
1022.409058733309
 20
-29.49061059644788
 30
0.0
 40
3.2
  1
変更・追記内容
  7
高3.2
100
AcDbText
  0
TEXT
  5
FCD
330
6B
100
AcDbEntity
  8
0
 62
     3
100
AcDbText
 10
997.5225737336486
 20
-34.16114910635617
 30
0.0
 40
2.0
  1
1
  7
高2
100
AcDbText
  0
TEXT
  5
FCE
330
6B
100
AcDbEntity
  8
0
 62
     3
100
AcDbText
 10
997.2140622568913
 20
-39.33096581862907
 30
0.0
 40
2.0
  1
2
  7
高2
100
AcDbText
  0
TEXT
  5
FCF
330
6B
100
AcDbEntity
  8
0
 62
     3
100
AcDbText
 10
1004.409058733309
 20
-29.49061059644788
 30
0.0
 40
3.2
  1
日　付
  7
高3.2
100
AcDbText
  0
TEXT
  5
FD0
330
6B
100
AcDbEntity
  8
0
 62
     3
100
AcDbText
 10
1004.409058733309
 20
-24.49061059644788
 30
0.0
 40
3.2
  1
図　　　　面　　　　略　　　　歴
  7
高3.2
100
AcDbText
  0
TEXT
  5
FD1
330
6B
100
AcDbEntity
  8
0
 62
     3
100
AcDbText
 10
994.4090587333095
 20
-29.49061059644788
 30
0.0
 40
3.2
  1
記号
  7
高3.2
100
AcDbText
  0
LINE
  5
FD2
330
6B
100
AcDbEntity
  8
0
100
AcDbLine
 10
997.9090587333095
 20
-36.19971459644779
 30
0.0
 11
996.0090587333095
 21
-39.49061059644788
 31
0.0
  0
LINE
  5
FD3
330
6B
100
AcDbEntity
  8
0
100
AcDbLine
 10
997.9090587333095
 20
-36.19971459644779
 30
0.0
 11
999.8090587333093
 21
-39.49061059644788
 31
0.0
  0
LINE
  5
FD4
330
6B
100
AcDbEntity
  8
0
100
AcDbLine
 10
996.0090587333095
 20
-39.49061059644788
 30
0.0
 11
999.8090587333093
 21
-39.49061059644788
 31
0.0
  0
LINE
  5
FD5
330
6B
100
AcDbEntity
  8
0
100
AcDbLine
 10
997.9090587333095
 20
-31.19971359644779
 30
0.0
 11
996.0090587333095
 21
-34.49061059644788
 31
0.0
  0
LINE
  5
FD6
330
6B
100
AcDbEntity
  8
0
100
AcDbLine
 10
997.9090587333095
 20
-31.19971359644779
 30
0.0
 11
999.8090587333093
 21
-34.49061059644788
 31
0.0
  0
LINE
  5
FD7
330
6B
100
AcDbEntity
  8
0
100
AcDbLine
 10
996.0090587333095
 20
-34.49061059644788
 30
0.0
 11
999.8090587333093
 21
-34.49061059644788
 31
0.0
  0
LINE
  5
FD8
330
6B
100
AcDbEntity
  8
0
 62
     3
100
AcDbLine
 10
992.9090587333094
 20
-24.99061059644788
 30
0.0
 11
1078.909058733309
 21
-24.99061059644788
 31
0.0
  0
LINE
  5
FD9
330
6B
100
AcDbEntity
  8
0
 62
     3
100
AcDbLine
 10
992.9090587333094
 20
-29.99061059644788
 30
0.0
 11
1078.909058733309
 21
-29.99061059644788
 31
0.0
  0
LINE
  5
FDA
330
6B
100
AcDbEntity
  8
0
 62
     7
100
AcDbLine
 10
992.9090587333094
 20
-34.99061059644788
 30
0.0
 11
1078.909058733309
 21
-34.99061059644788
 31
0.0
  0
LINE
  5
FDB
330
6B
100
AcDbEntity
  8
0
 62
     3
100
AcDbLine
 10
992.9090587333094
 20
-39.99061059644791
 30
0.0
 11
1078.909058733309
 21
-39.99061059644791
 31
0.0
  0
LINE
  5
FDC
330
6B
100
AcDbEntity
  8
0
 62
     7
100
AcDbLine
 10
1064.909058733309
 20
-39.99061059644791
 30
0.0
 11
1064.909058733309
 21
-24.99061059644788
 31
0.0
  0
LINE
  5
FDD
330
6B
100
AcDbEntity
  8
0
 62
     7
100
AcDbLine
 10
1020.909058733309
 20
-39.99061059644791
 30
0.0
 11
1020.909058733309
 21
-24.99061059644788
 31
0.0
  0
LINE
  5
FDE
330
6B
100
AcDbEntity
  8
0
 62
     7
100
AcDbLine
 10
1002.909058733309
 20
-39.99061059644791
 30
0.0
 11
1002.909058733309
 21
-24.99061059644788
 31
0.0
  0
LINE
  5
FDF
330
6B
100
AcDbEntity
  8
0
 62
     3
100
AcDbLine
 10
992.9090587333094
 20
-39.99061059644791
 30
0.0
 11
992.9090587333094
 21
-19.99061059644788
 31
0.0
  0
TEXT
  5
FE0
330
6B
100
AcDbEntity
  8
0
 62
     3
100
AcDbText
 10
968.4388506184061
 20
-185.6421429546156
 30
0.0
 40
3.2
  1
保護回路
  7
高3.2
100
AcDbText
  0
TEXT
  5
FE1
330
6B
100
AcDbEntity
  8
0
 62
     3
100
AcDbText
 10
994.7361935073129
 20
-185.6421429546156
 30
0.0
 40
3.2
  1
入力過電圧保護
  7
高3.2
100
AcDbText
  0
TEXT
  5
FE2
330
6B
100
AcDbEntity
  8
0
  6
Continuous
100
AcDbText
 10
967.7335475168822
 20
-246.1464439506988
 30
0.0
 40
3.2
  1
※蛍光灯への使用不可。
  7
高3.2
100
AcDbText
  0
LINE
  5
FE3
330
6B
100
AcDbEntity
  8
0
 62
     7
100
AcDbLine
 10
992.7361935073127
 20
-186.6421429546156
 30
0.0
 11
1055.514515903315
 21
-186.6421429546156
 31
0.0
  0
TEXT
  5
FE4
330
6B
100
AcDbEntity
  8
0
 62
     3
100
AcDbText
 10
994.7361935073129
 20
-191.1421429546157
 30
0.0
 40
3.2
  1
入力減電圧保護
  7
高3.2
100
AcDbText
  0
LINE
  5
FE5
330
6B
100
AcDbEntity
  8
0
 62
     7
100
AcDbLine
 10
992.7361935073127
 20
-192.1421429546157
 30
0.0
 11
1055.514515903315
 21
-192.1421429546157
 31
0.0
  0
TEXT
  5
FE6
330
6B
100
AcDbEntity
  8
0
 62
     3
100
AcDbText
 10
994.7361935073129
 20
-196.6421429546157
 30
0.0
 40
3.2
  1
出力過負荷保護
  7
高3.2
100
AcDbText
  0
LINE
  5
FE7
330
6B
100
AcDbEntity
  8
0
 62
     7
100
AcDbLine
 10
992.7361935073127
 20
-197.6421429546157
 30
0.0
 11
1055.514515903315
 21
-197.6421429546157
 31
0.0
  0
TEXT
  5
FE8
330
6B
100
AcDbEntity
  8
0
 62
     3
100
AcDbText
 10
994.7361935073129
 20
-202.1421429546157
 30
0.0
 40
3.2
  1
入力逆接続保護
  7
高3.2
100
AcDbText
  0
LINE
  5
FE9
330
6B
100
AcDbEntity
  8
0
 62
     7
100
AcDbLine
 10
992.7361935073127
 20
-203.1421429546157
 30
0.0
 11
1055.514515903315
 21
-203.1421429546157
 31
0.0
  0
TEXT
  5
FEA
330
6B
100
AcDbEntity
  8
0
 62
     3
100
AcDbText
 10
994.7361935073129
 20
-213.1421429546157
 30
0.0
 40
3.2
  1
屋内型
  7
高3.2
100
AcDbText
  0
LINE
  5
FEB
330
6B
100
AcDbEntity
  8
0
 62
     7
100
AcDbLine
 10
966.4388506184062
 20
-208.6421429546157
 30
0.0
 11
1055.514515903315
 21
-208.6421429546157
 31
0.0
  0
TEXT
  5
FEC
330
6B
100
AcDbEntity
  8
0
 62
     3
100
AcDbText
 10
994.7361935073129
 20
-218.6421429546157
 30
0.0
 40
3.2
  1
過熱防止クーリングファン
  7
高3.2
100
AcDbText
  0
LINE
  5
FED
330
6B
100
AcDbEntity
  8
0
 62
     7
100
AcDbLine
 10
992.7361935073127
 20
-214.1421429546157
 30
0.0
 11
1055.514515903315
 21
-214.1421429546157
 31
0.0
  0
TEXT
  5
FEE
330
6B
100
AcDbEntity
  8
0
 62
     3
100
AcDbText
 10
994.7361935073129
 20
-224.1421429546157
 30
0.0
 40
3.2
  1
ACC線付
  7
高3.2
100
AcDbText
  0
LINE
  5
FEF
330
6B
100
AcDbEntity
  8
0
 62
     7
100
AcDbLine
 10
992.7361935073127
 20
-219.6421429546157
 30
0.0
 11
1055.514515903315
 21
-219.6421429546157
 31
0.0
  0
TEXT
  5
FF0
330
6B
100
AcDbEntity
  8
0
 62
     3
100
AcDbText
 10
968.4388506184061
 20
-213.1421429546157
 30
0.0
 40
3.2
  1
備考
  7
高3.2
100
AcDbText
  0
LINE
  5
FF1
330
6B
100
AcDbEntity
  8
0
 62
     3
100
AcDbLine
 10
966.4388506184062
 20
-241.6421429546157
 30
0.0
 11
1055.514515903315
 21
-241.6421429546157
 31
0.0
  0
TEXT
  5
FF2
330
6B
100
AcDbEntity
  8
0
 62
     3
100
AcDbText
 10
968.4388506184061
 20
-240.6421429546157
 30
0.0
 40
3.2
  1
付属品
  7
高3.2
100
AcDbText
  0
TEXT
  5
FF3
330
6B
100
AcDbEntity
  8
0
 62
     3
100
AcDbText
 10
994.7361935073129
 20
-240.6421429546157
 30
0.0
 40
3.2
  1
ワニ口クリップ付き線 赤黒
  7
高3.2
100
AcDbText
  0
LINE
  5
FF4
330
6B
100
AcDbEntity
  8
0
  6
Continuous
 62
     3
100
AcDbLine
 10
809.8041859374568
 20
-115.1937354885814
 30
0.0
 11
729.8041859374568
 21
-115.1937354885814
 31
0.0
  0
LINE
  5
FF5
330
6B
100
AcDbEntity
  8
0
  6
Continuous
100
AcDbLine
 10
807.8041859374566
 20
-113.1937354885814
 30
0.0
 11
804.8041859374569
 21
-113.1937354885814
 31
0.0
  0
LINE
  5
FF6
330
6B
100
AcDbEntity
  8
0
  6
Continuous
100
AcDbLine
 10
799.8041859374568
 20
-113.1937354885814
 30
0.0
 11
796.8041859374568
 21
-113.1937354885814
 31
0.0
  0
LINE
  5
FF7
330
6B
100
AcDbEntity
  8
0
  6
Continuous
100
AcDbLine
 10
791.8041859374568
 20
-113.1937354885814
 30
0.0
 11
788.8041859374568
 21
-113.1937354885814
 31
0.0
  0
LINE
  5
FF8
330
6B
100
AcDbEntity
  8
0
  6
Continuous
100
AcDbLine
 10
783.8041859374568
 20
-113.1937354885814
 30
0.0
 11
780.8041859374569
 21
-113.1937354885814
 31
0.0
  0
LINE
  5
FF9
330
6B
100
AcDbEntity
  8
0
  6
Continuous
100
AcDbLine
 10
775.8041859374568
 20
-113.1937354885814
 30
0.0
 11
772.8041859374569
 21
-113.1937354885814
 31
0.0
  0
LINE
  5
FFA
330
6B
100
AcDbEntity
  8
0
  6
Continuous
100
AcDbLine
 10
807.8041859374566
 20
-111.1937354885815
 30
0.0
 11
804.8041859374569
 21
-111.1937354885815
 31
0.0
  0
LINE
  5
FFB
330
6B
100
AcDbEntity
  8
0
  6
Continuous
100
AcDbLine
 10
799.8041859374568
 20
-111.1937354885815
 30
0.0
 11
796.8041859374568
 21
-111.1937354885815
 31
0.0
  0
LINE
  5
FFC
330
6B
100
AcDbEntity
  8
0
  6
Continuous
100
AcDbLine
 10
791.8041859374568
 20
-111.1937354885815
 30
0.0
 11
788.8041859374568
 21
-111.1937354885815
 31
0.0
  0
LINE
  5
FFD
330
6B
100
AcDbEntity
  8
0
  6
Continuous
100
AcDbLine
 10
783.8041859374568
 20
-111.1937354885815
 30
0.0
 11
780.8041859374569
 21
-111.1937354885815
 31
0.0
  0
LINE
  5
FFE
330
6B
100
AcDbEntity
  8
0
  6
Continuous
100
AcDbLine
 10
775.8041859374568
 20
-111.1937354885815
 30
0.0
 11
772.8041859374569
 21
-111.1937354885815
 31
0.0
  0
LINE
  5
FFF
330
6B
100
AcDbEntity
  8
0
  6
Continuous
 62
     3
100
AcDbLine
 10
806.6041859374569
 20
-108.8937354885815
 30
0.0
 11
792.0041859374569
 21
-108.8937354885815
 31
0.0
  0
LINE
  5
1000
330
6B
100
AcDbEntity
  8
0
  6
Continuous
 62
     3
100
AcDbLine
 10
806.6041859374569
 20
-88.19373548858152
 30
0.0
 11
792.0041859374569
 21
-88.19373548858152
 31
0.0
  0
LINE
  5
1001
330
6B
100
AcDbEntity
  8
0
  6
Continuous
 62
     3
100
AcDbLine
 10
788.9041859374568
 20
-110.6937354885815
 30
0.0
 11
763.7041859374568
 21
-110.6937354885815
 31
0.0
  0
ARC
  5
1002
330
6B
100
AcDbEntity
  8
0
  6
Continuous
 62
     3
100
AcDbCircle
 10
763.7041859374568
 20
-109.6937354885815
 30
0.0
 40
1.0
100
AcDbArc
 50
180.0
 51
270.0
  0
LINE
  5
1003
330
6B
100
AcDbEntity
  8
0
  6
Continuous
100
AcDbLine
 10
787.4041859374568
 20
-109.1937354885815
 30
0.0
 11
765.2041859374567
 21
-109.1937354885815
 31
0.0
  0
ARC
  5
1004
330
6B
100
AcDbEntity
  8
0
  6
Continuous
100
AcDbCircle
 10
765.2041859374567
 20
-108.1937354885815
 30
0.0
 40
1.0
100
AcDbArc
 50
180.0
 51
270.0
  0
LINE
  5
1005
330
6B
100
AcDbEntity
  8
0
  6
Continuous
 62
     3
100
AcDbLine
 10
757.9041859374568
 20
-110.6937354885815
 30
0.0
 11
732.7041859374568
 21
-110.6937354885815
 31
0.0
  0
ARC
  5
1006
330
6B
100
AcDbEntity
  8
0
  6
Continuous
 62
     3
100
AcDbCircle
 10
732.7041859374568
 20
-109.6937354885815
 30
0.0
 40
1.0
100
AcDbArc
 50
180.0
 51
270.0
  0
LINE
  5
1007
330
6B
100
AcDbEntity
  8
0
  6
Continuous
100
AcDbLine
 10
756.4041859374569
 20
-109.1937354885815
 30
0.0
 11
734.2041859374567
 21
-109.1937354885815
 31
0.0
  0
ARC
  5
1008
330
6B
100
AcDbEntity
  8
0
  6
Continuous
100
AcDbCircle
 10
734.2041859374567
 20
-108.1937354885815
 30
0.0
 40
1.0
100
AcDbArc
 50
180.0
 51
270.0
  0
LINE
  5
1009
330
6B
100
AcDbEntity
  8
0
  6
Continuous
 62
     3
100
AcDbLine
 10
788.9041859374568
 20
-83.49373548858153
 30
0.0
 11
763.7041859374568
 21
-83.49373548858151
 31
0.0
  0
ARC
  5
100A
330
6B
100
AcDbEntity
  8
0
  6
Continuous
 62
     3
100
AcDbCircle
 10
788.9041859374568
 20
-84.49373548858153
 30
0.0
 40
1.0
100
AcDbArc
 50
0.0
 51
90.0
  0
LINE
  5
100B
330
6B
100
AcDbEntity
  8
0
  6
Continuous
100
AcDbLine
 10
787.4041859374568
 20
-84.99373548858153
 30
0.0
 11
765.2041859374568
 21
-84.99373548858153
 31
0.0
  0
ARC
  5
100C
330
6B
100
AcDbEntity
  8
0
  6
Continuous
100
AcDbCircle
 10
787.4041859374568
 20
-85.99373548858153
 30
0.0
 40
1.0
100
AcDbArc
 50
0.0
 51
90.0
  0
LINE
  5
100D
330
6B
100
AcDbEntity
  8
0
  6
Continuous
 62
     3
100
AcDbLine
 10
757.9041859374568
 20
-83.49373548858151
 30
0.0
 11
732.7041859374568
 21
-83.49373548858151
 31
0.0
  0
ARC
  5
100E
330
6B
100
AcDbEntity
  8
0
  6
Continuous
 62
     3
100
AcDbCircle
 10
757.9041859374568
 20
-84.49373548858153
 30
0.0
 40
1.0
100
AcDbArc
 50
0.0
 51
90.0
  0
LINE
  5
100F
330
6B
100
AcDbEntity
  8
0
  6
Continuous
100
AcDbLine
 10
756.4041859374569
 20
-84.99373548858153
 30
0.0
 11
734.2041859374567
 21
-84.99373548858153
 31
0.0
  0
ARC
  5
1010
330
6B
100
AcDbEntity
  8
0
  6
Continuous
100
AcDbCircle
 10
756.4041859374569
 20
-85.99373548858151
 30
0.0
 40
1.0
100
AcDbArc
 50
0.0
 51
90.0
  0
LINE
  5
1011
330
6B
100
AcDbEntity
  8
0
  6
Continuous
 62
     3
100
AcDbLine
 10
721.8041859374568
 20
-96.19373548858153
 30
0.0
 11
724.8041859374568
 21
-96.19373548858153
 31
0.0
  0
LINE
  5
1012
330
6B
100
AcDbEntity
  8
0
  6
Continuous
 62
     3
100
AcDbLine
 10
814.8041859374568
 20
-96.19373548858153
 30
0.0
 11
817.8041859374568
 21
-96.19373548858153
 31
0.0
  0
LINE
  5
1013
330
6B
100
AcDbEntity
  8
0
  6
Continuous
 62
     3
100
AcDbLine
 10
721.8041859374568
 20
-87.69373548858153
 30
0.0
 11
724.8041859374568
 21
-87.69373548858153
 31
0.0
  0
LINE
  5
1014
330
6B
100
AcDbEntity
  8
0
  6
Continuous
 62
     3
100
AcDbLine
 10
814.8041859374568
 20
-87.69373548858153
 30
0.0
 11
817.8041859374568
 21
-87.69373548858153
 31
0.0
  0
LINE
  5
1015
330
6B
100
AcDbEntity
  8
0
  6
Continuous
 62
     3
100
AcDbLine
 10
753.3041859374568
 20
-67.59373548858153
 30
0.0
 11
786.3041859374568
 21
-67.59373548858153
 31
0.0
  0
LINE
  5
1016
330
6B
100
AcDbEntity
  8
0
  6
Continuous
 62
     3
100
AcDbLine
 10
724.8041859374568
 20
-87.69373548858153
 30
0.0
 11
724.8041859374568
 21
-96.19373548858153
 31
0.0
  0
LINE
  5
1017
330
6B
100
AcDbEntity
  8
0
  6
Continuous
 62
     3
100
AcDbLine
 10
814.8041859374568
 20
-96.19373548858153
 30
0.0
 11
814.8041859374568
 21
-87.69373548858153
 31
0.0
  0
LINE
  5
1018
330
6B
100
AcDbEntity
  8
0
  6
Continuous
 62
     3
100
AcDbLine
 10
721.8041859374568
 20
-77.20835113217964
 30
0.0
 11
721.8041859374568
 21
-87.69373548858153
 31
0.0
  0
LINE
  5
1019
330
6B
100
AcDbEntity
  8
0
  6
Continuous
 62
     3
100
AcDbLine
 10
721.8041859374568
 20
-96.19373548858153
 30
0.0
 11
721.8041859374568
 21
-107.1937354885815
 31
0.0
  0
LINE
  5
101A
330
6B
100
AcDbEntity
  8
0
  6
Continuous
 62
     3
100
AcDbLine
 10
731.7041859374568
 20
-84.49373548858153
 30
0.0
 11
731.7041859374568
 21
-109.6937354885815
 31
0.0
  0
ARC
  5
101B
330
6B
100
AcDbEntity
  8
0
  6
Continuous
 62
     3
100
AcDbCircle
 10
732.7041859374568
 20
-84.49373548858153
 30
0.0
 40
1.0
100
AcDbArc
 50
90.0
 51
180.0
  0
LINE
  5
101C
330
6B
100
AcDbEntity
  8
0
  6
Continuous
100
AcDbLine
 10
733.2041859374568
 20
-85.99373548858151
 30
0.0
 11
733.2041859374568
 21
-108.1937354885815
 31
0.0
  0
ARC
  5
101D
330
6B
100
AcDbEntity
  8
0
  6
Continuous
100
AcDbCircle
 10
734.2041859374567
 20
-85.99373548858151
 30
0.0
 40
1.0
100
AcDbArc
 50
90.0
 51
180.0
  0
LINE
  5
101E
330
6B
100
AcDbEntity
  8
0
  6
Continuous
 62
     3
100
AcDbLine
 10
758.9041859374568
 20
-84.49373548858153
 30
0.0
 11
758.9041859374568
 21
-109.6937354885815
 31
0.0
  0
ARC
  5
101F
330
6B
100
AcDbEntity
  8
0
  6
Continuous
 62
     3
100
AcDbCircle
 10
757.9041859374568
 20
-109.6937354885815
 30
0.0
 40
1.0
100
AcDbArc
 50
270.0
 51
0.0
  0
LINE
  5
1020
330
6B
100
AcDbEntity
  8
0
  6
Continuous
100
AcDbLine
 10
757.4041859374569
 20
-85.99373548858151
 30
0.0
 11
757.4041859374569
 21
-108.1937354885815
 31
0.0
  0
ARC
  5
1021
330
6B
100
AcDbEntity
  8
0
  6
Continuous
100
AcDbCircle
 10
756.4041859374569
 20
-108.1937354885815
 30
0.0
 40
1.0
100
AcDbArc
 50
270.0
 51
0.0
  0
LINE
  5
1022
330
6B
100
AcDbEntity
  8
0
  6
Continuous
 62
     3
100
AcDbLine
 10
762.7041859374568
 20
-84.49373548858153
 30
0.0
 11
762.7041859374567
 21
-109.6937354885815
 31
0.0
  0
ARC
  5
1023
330
6B
100
AcDbEntity
  8
0
  6
Continuous
 62
     3
100
AcDbCircle
 10
763.7041859374568
 20
-84.49373548858153
 30
0.0
 40
1.0
100
AcDbArc
 50
90.0
 51
180.0
  0
LINE
  5
1024
330
6B
100
AcDbEntity
  8
0
  6
Continuous
100
AcDbLine
 10
764.2041859374568
 20
-85.99373548858151
 30
0.0
 11
764.2041859374568
 21
-108.1937354885815
 31
0.0
  0
ARC
  5
1025
330
6B
100
AcDbEntity
  8
0
  6
Continuous
100
AcDbCircle
 10
765.2041859374568
 20
-85.99373548858151
 30
0.0
 40
1.0
100
AcDbArc
 50
90.0
 51
180.0
  0
LINE
  5
1026
330
6B
100
AcDbEntity
  8
0
  6
Continuous
 62
     3
100
AcDbLine
 10
789.9041859374569
 20
-84.49373548858153
 30
0.0
 11
789.9041859374569
 21
-109.6937354885815
 31
0.0
  0
ARC
  5
1027
330
6B
100
AcDbEntity
  8
0
  6
Continuous
 62
     3
100
AcDbCircle
 10
788.9041859374568
 20
-109.6937354885815
 30
0.0
 40
1.0
100
AcDbArc
 50
270.0
 51
0.0
  0
LINE
  5
1028
330
6B
100
AcDbEntity
  8
0
  6
Continuous
100
AcDbLine
 10
788.4041859374568
 20
-85.99373548858153
 30
0.0
 11
788.4041859374568
 21
-108.1937354885815
 31
0.0
  0
ARC
  5
1029
330
6B
100
AcDbEntity
  8
0
  6
Continuous
100
AcDbCircle
 10
787.4041859374568
 20
-108.1937354885815
 30
0.0
 40
1.0
100
AcDbArc
 50
270.0
 51
0.0
  0
LINE
  5
102A
330
6B
100
AcDbEntity
  8
0
  6
Continuous
 62
     3
100
AcDbLine
 10
792.0041859374569
 20
-88.19373548858152
 30
0.0
 11
792.0041859374569
 21
-108.8937354885815
 31
0.0
  0
LINE
  5
102B
330
6B
100
AcDbEntity
  8
0
  6
Continuous
 62
     3
100
AcDbLine
 10
817.8041859374568
 20
-77.20835113217964
 30
0.0
 11
817.8041859374568
 21
-87.69373548858153
 31
0.0
  0
LINE
  5
102C
330
6B
100
AcDbEntity
  8
0
  6
Continuous
 62
     3
100
AcDbLine
 10
817.8041859374568
 20
-96.19373548858153
 30
0.0
 11
817.8041859374568
 21
-107.1937354885815
 31
0.0
  0
LINE
  5
102D
330
6B
100
AcDbEntity
  8
0
  6
Continuous
 62
     3
100
AcDbLine
 10
806.6041859374569
 20
-88.19373548858152
 30
0.0
 11
806.6041859374569
 21
-108.8937354885815
 31
0.0
  0
LINE
  5
102E
330
6B
100
AcDbEntity
  8
0
  6
Continuous
 62
     3
100
AcDbLine
 10
753.3041859374568
 20
-67.59373548858153
 30
0.0
 11
753.3041859374568
 21
-67.19373548858152
 31
0.0
  0
LINE
  5
102F
330
6B
100
AcDbEntity
  8
0
  6
Continuous
 62
     3
100
AcDbLine
 10
786.3041859374568
 20
-67.19373548858152
 30
0.0
 11
786.3041859374568
 21
-67.59373548858153
 31
0.0
  0
ARC
  5
1030
330
6B
100
AcDbEntity
  8
0
  6
Continuous
 62
     3
100
AcDbCircle
 10
769.8041859374568
 20
-407.3187354885797
 30
0.0
 40
340.5249853167882
100
AcDbArc
 50
83.09106155916541
 51
85.06444806498715
  0
ARC
  5
1031
330
6B
100
AcDbEntity
  8
0
  6
Continuous
 62
     3
100
AcDbCircle
 10
769.8041859374568
 20
-407.3187354885797
 30
0.0
 40
340.5249853167882
100
AcDbArc
 50
85.19905383026957
 51
85.64674072912199
  0
ARC
  5
1032
330
6B
100
AcDbEntity
  8
0
  6
Continuous
 62
     3
100
AcDbCircle
 10
769.8041859374568
 20
-407.3187354885797
 30
0.0
 40
340.5249853167882
100
AcDbArc
 50
85.78134649440519
 51
86.07684719255296
  0
ARC
  5
1033
330
6B
100
AcDbEntity
  8
0
  6
Continuous
 62
     3
100
AcDbCircle
 10
769.8041859374568
 20
-407.3187354885797
 30
0.0
 40
340.5249853167882
100
AcDbArc
 50
86.2114529578343
 51
87.22266873506343
  0
ARC
  5
1034
330
6B
100
AcDbEntity
  8
0
  6
Continuous
 62
     3
100
AcDbCircle
 10
769.8041859374568
 20
-407.3187354885797
 30
0.0
 40
340.5249853167882
100
AcDbArc
 50
92.77733126493656
 51
93.78854704216569
  0
ARC
  5
1035
330
6B
100
AcDbEntity
  8
0
  6
Continuous
 62
     3
100
AcDbCircle
 10
769.8041859374568
 20
-407.3187354885797
 30
0.0
 40
340.5249853167882
100
AcDbArc
 50
93.92315280744703
 51
94.2186535055948
  0
ARC
  5
1036
330
6B
100
AcDbEntity
  8
0
  6
Continuous
 62
     3
100
AcDbCircle
 10
769.8041859374568
 20
-407.3187354885797
 30
0.0
 40
340.5249853167882
100
AcDbArc
 50
94.353259270878
 51
94.80094616973042
  0
ARC
  5
1037
330
6B
100
AcDbEntity
  8
0
  6
Continuous
 62
     3
100
AcDbCircle
 10
769.8041859374568
 20
-407.3187354885797
 30
0.0
 40
340.5249853167882
100
AcDbArc
 50
94.93555193501284
 51
96.90893844083459
  0
CIRCLE
  5
1038
330
6B
100
AcDbEntity
  8
0
  6
Continuous
100
AcDbCircle
 10
811.3041859374568
 20
-74.19373548858152
 30
0.0
 40
2.75
  0
ARC
  5
1039
330
6B
100
AcDbEntity
  8
0
  6
Continuous
 62
     3
100
AcDbCircle
 10
809.8041859374568
 20
-77.2083511321797
 30
0.0
 40
8.0
100
AcDbArc
 50
0.0
 51
83.09106155916541
  0
ARC
  5
103A
330
6B
100
AcDbEntity
  8
0
  6
Continuous
 62
     3
100
AcDbCircle
 10
729.8041859374567
 20
-77.20835113217976
 30
0.0
 40
8.0
100
AcDbArc
 50
96.90893844082811
 51
180.0
  0
ARC
  5
103B
330
6B
100
AcDbEntity
  8
0
  6
Continuous
 62
     3
100
AcDbCircle
 10
792.7032962240439
 20
-67.5645649871987
 30
0.0
 40
0.4
100
AcDbArc
 50
176.1778015165126
 51
356.1104986338723
  0
ARC
  5
103C
330
6B
100
AcDbEntity
  8
0
  6
Continuous
 62
     3
100
AcDbCircle
 10
795.2530848186523
 20
-67.74603462655012
 30
0.0
 40
0.4
100
AcDbArc
 50
175.7476950530838
 51
355.6803921704464
  0
ARC
  5
103D
330
6B
100
AcDbEntity
  8
0
  6
Continuous
 62
     3
100
AcDbCircle
 10
798.7027627972024
 20
-68.02220164173928
 30
0.0
 40
0.4
100
AcDbArc
 50
175.1654023889456
 51
355.0980995063091
  0
ARC
  5
103E
330
6B
100
AcDbEntity
  8
0
  6
Continuous
 62
     3
100
AcDbCircle
 10
746.9050756508697
 20
-67.56456498719874
 30
0.0
 40
0.4
100
AcDbArc
 50
183.8895013661277
 51
3.822198483487352
  0
ARC
  5
103F
330
6B
100
AcDbEntity
  8
0
  6
Continuous
 62
     3
100
AcDbCircle
 10
744.3552870562613
 20
-67.74603462655012
 30
0.0
 40
0.4
100
AcDbArc
 50
184.3196078295536
 51
4.252304946912902
  0
ARC
  5
1040
330
6B
100
AcDbEntity
  8
0
  6
Continuous
 62
     3
100
AcDbCircle
 10
740.9056090777112
 20
-68.02220164173931
 30
0.0
 40
0.4
100
AcDbArc
 50
184.9019004936909
 51
4.834597611051127
  0
CIRCLE
  5
1041
330
6B
100
AcDbEntity
  8
0
  6
Continuous
100
AcDbCircle
 10
728.3041859374568
 20
-74.19373548858152
 30
0.0
 40
2.75
  0
CIRCLE
  5
1042
330
6B
100
AcDbEntity
  8
0
  6
Continuous
100
AcDbCircle
 10
726.3041859374568
 20
-104.1937354885815
 30
0.0
 40
2.75
  0
CIRCLE
  5
1043
330
6B
100
AcDbEntity
  8
0
  6
Continuous
100
AcDbCircle
 10
813.3041859374568
 20
-104.1937354885815
 30
0.0
 40
2.75
  0
ARC
  5
1044
330
6B
100
AcDbEntity
  8
0
  6
Continuous
 62
     3
100
AcDbCircle
 10
809.8041859374568
 20
-107.1937354885815
 30
0.0
 40
8.0
100
AcDbArc
 50
270.0
 51
0.0
  0
ARC
  5
1045
330
6B
100
AcDbEntity
  8
0
  6
Continuous
 62
     3
100
AcDbCircle
 10
729.8041859374567
 20
-107.1937354885815
 30
0.0
 40
8.0
100
AcDbArc
 50
180.0
 51
270.0
  0
LINE
  5
1046
330
6B
100
AcDbEntity
  8
0
 62
     3
100
AcDbLine
 10
771.054185937457
 20
-96.54373548858155
 30
0.0
 11
768.8541859374574
 21
-96.54373548858155
 31
0.0
  0
LINE
  5
1047
330
6B
100
AcDbEntity
  8
0
 62
     7
100
AcDbLine
 10
772.0541859374571
 20
-97.54373548858152
 30
0.0
 11
767.8541859374574
 21
-97.54373548858152
 31
0.0
  0
LINE
  5
1048
330
6B
100
AcDbEntity
  8
0
 62
     3
100
AcDbLine
 10
771.054185937457
 20
-87.84373548858155
 30
0.0
 11
768.8541859374574
 21
-87.84373548858155
 31
0.0
  0
LINE
  5
1049
330
6B
100
AcDbEntity
  8
0
 62
     7
100
AcDbLine
 10
772.0541859374571
 20
-86.84373548858156
 30
0.0
 11
767.8541859374574
 21
-86.84373548858156
 31
0.0
  0
LINE
  5
104A
330
6B
100
AcDbEntity
  8
0
 62
     3
100
AcDbLine
 10
783.7541859374568
 20
-95.69373548858152
 30
0.0
 11
781.5541859374572
 21
-95.69373548858152
 31
0.0
  0
LINE
  5
104B
330
6B
100
AcDbEntity
  8
0
 62
     7
100
AcDbLine
 10
784.7541859374569
 20
-96.69373548858153
 30
0.0
 11
780.5541859374568
 21
-96.69373548858153
 31
0.0
  0
LINE
  5
104C
330
6B
100
AcDbEntity
  8
0
 62
     3
100
AcDbLine
 10
783.7541859374568
 20
-88.69373548858153
 30
0.0
 11
781.5541859374572
 21
-88.69373548858153
 31
0.0
  0
LINE
  5
104D
330
6B
100
AcDbEntity
  8
0
 62
     7
100
AcDbLine
 10
784.7541859374569
 20
-87.69373548858153
 30
0.0
 11
780.5541859374568
 21
-87.69373548858153
 31
0.0
  0
LINE
  5
104E
330
6B
100
AcDbEntity
  8
0
 62
     3
100
AcDbLine
 10
768.8541859374574
 20
-96.54373548858155
 30
0.0
 11
768.8541859374574
 21
-87.84373548858155
 31
0.0
  0
LINE
  5
104F
330
6B
100
AcDbEntity
  8
0
 62
     7
100
AcDbLine
 10
767.8541859374574
 20
-97.54373548858152
 30
0.0
 11
767.8541859374574
 21
-86.84373548858156
 31
0.0
  0
LINE
  5
1050
330
6B
100
AcDbEntity
  8
0
 62
     3
100
AcDbLine
 10
771.054185937457
 20
-96.54373548858155
 30
0.0
 11
771.054185937457
 21
-87.84373548858155
 31
0.0
  0
LINE
  5
1051
330
6B
100
AcDbEntity
  8
0
 62
     7
100
AcDbLine
 10
772.0541859374571
 20
-97.54373548858152
 30
0.0
 11
772.0541859374571
 21
-86.84373548858156
 31
0.0
  0
LINE
  5
1052
330
6B
100
AcDbEntity
  8
0
 62
     3
100
AcDbLine
 10
783.7541859374568
 20
-95.69373548858152
 30
0.0
 11
783.7541859374568
 21
-88.69373548858153
 31
0.0
  0
LINE
  5
1053
330
6B
100
AcDbEntity
  8
0
 62
     7
100
AcDbLine
 10
784.7541859374569
 20
-96.69373548858153
 30
0.0
 11
784.7541859374569
 21
-87.69373548858153
 31
0.0
  0
LINE
  5
1054
330
6B
100
AcDbEntity
  8
0
 62
     3
100
AcDbLine
 10
781.5541859374572
 20
-95.69373548858152
 30
0.0
 11
781.5541859374572
 21
-88.69373548858153
 31
0.0
  0
LINE
  5
1055
330
6B
100
AcDbEntity
  8
0
 62
     7
100
AcDbLine
 10
780.5541859374568
 20
-96.69373548858153
 30
0.0
 11
780.5541859374568
 21
-87.69373548858153
 31
0.0
  0
LINE
  5
1056
330
6B
100
AcDbEntity
  8
0
100
AcDbLine
 10
783.7541859374568
 20
-88.69373548858153
 30
0.0
 11
784.7541859374569
 21
-87.69373548858153
 31
0.0
  0
LINE
  5
1057
330
6B
100
AcDbEntity
  8
0
100
AcDbLine
 10
781.5541859374572
 20
-88.69373548858153
 30
0.0
 11
780.5541859374568
 21
-87.69373548858153
 31
0.0
  0
LINE
  5
1058
330
6B
100
AcDbEntity
  8
0
100
AcDbLine
 10
783.7541859374568
 20
-95.69373548858152
 30
0.0
 11
784.7541859374569
 21
-96.69373548858153
 31
0.0
  0
LINE
  5
1059
330
6B
100
AcDbEntity
  8
0
100
AcDbLine
 10
781.5541859374572
 20
-95.69373548858152
 30
0.0
 11
780.5541859374568
 21
-96.69373548858153
 31
0.0
  0
LINE
  5
105A
330
6B
100
AcDbEntity
  8
0
100
AcDbLine
 10
771.054185937457
 20
-87.84373548858155
 30
0.0
 11
772.0541859374571
 21
-86.84373548858156
 31
0.0
  0
LINE
  5
105B
330
6B
100
AcDbEntity
  8
0
100
AcDbLine
 10
768.8541859374574
 20
-87.84373548858155
 30
0.0
 11
767.8541859374574
 21
-86.84373548858156
 31
0.0
  0
LINE
  5
105C
330
6B
100
AcDbEntity
  8
0
100
AcDbLine
 10
768.8541859374574
 20
-96.54373548858155
 30
0.0
 11
767.8541859374574
 21
-97.54373548858152
 31
0.0
  0
LINE
  5
105D
330
6B
100
AcDbEntity
  8
0
100
AcDbLine
 10
771.054185937457
 20
-96.54373548858155
 30
0.0
 11
772.0541859374571
 21
-97.54373548858152
 31
0.0
  0
ARC
  5
105E
330
6B
100
AcDbEntity
  8
0
 62
     3
100
AcDbCircle
 10
776.3041859374566
 20
-104.0953556008844
 30
0.0
 40
2.7
100
AcDbArc
 50
0.0
 51
180.0
  0
ARC
  5
105F
330
6B
100
AcDbEntity
  8
0
100
AcDbCircle
 10
776.3041859374566
 20
-104.0953556008844
 30
0.0
 40
3.7
100
AcDbArc
 50
0.0
 51
180.0
  0
LINE
  5
1060
330
6B
100
AcDbEntity
  8
0
 62
     3
100
AcDbLine
 10
779.0041859374562
 20
-106.7953556008843
 30
0.0
 11
773.6041859374569
 21
-106.7953556008843
 31
0.0
  0
LINE
  5
1061
330
6B
100
AcDbEntity
  8
0
100
AcDbLine
 10
780.0041859374564
 20
-107.7953556008843
 30
0.0
 11
772.6041859374569
 21
-107.7953556008843
 31
0.0
  0
LINE
  5
1062
330
6B
100
AcDbEntity
  8
0
 62
     3
100
AcDbLine
 10
779.0041859374562
 20
-104.0953556008844
 30
0.0
 11
779.0041859374562
 21
-106.7953556008843
 31
0.0
  0
LINE
  5
1063
330
6B
100
AcDbEntity
  8
0
100
AcDbLine
 10
780.0041859374564
 20
-104.0953556008844
 30
0.0
 11
780.0041859374564
 21
-107.7953556008843
 31
0.0
  0
LINE
  5
1064
330
6B
100
AcDbEntity
  8
0
 62
     3
100
AcDbLine
 10
773.6041859374569
 20
-104.0953556008844
 30
0.0
 11
773.6041859374569
 21
-106.7953556008843
 31
0.0
  0
LINE
  5
1065
330
6B
100
AcDbEntity
  8
0
100
AcDbLine
 10
772.6041859374569
 20
-104.0953556008844
 30
0.0
 11
772.6041859374569
 21
-107.7953556008843
 31
0.0
  0
LINE
  5
1066
330
6B
100
AcDbEntity
  8
0
100
AcDbLine
 10
779.0041859374562
 20
-106.7953556008843
 30
0.0
 11
780.0041859374564
 21
-107.7953556008843
 31
0.0
  0
LINE
  5
1067
330
6B
100
AcDbEntity
  8
0
100
AcDbLine
 10
773.6041859374569
 20
-106.7953556008843
 30
0.0
 11
772.6041859374569
 21
-107.7953556008843
 31
0.0
  0
LINE
  5
1068
330
6B
100
AcDbEntity
  8
0
 62
     3
100
AcDbLine
 10
740.0541859374571
 20
-96.54373548858149
 30
0.0
 11
737.8541859374571
 21
-96.54373548858149
 31
0.0
  0
LINE
  5
1069
330
6B
100
AcDbEntity
  8
0
 62
     7
100
AcDbLine
 10
741.054185937457
 20
-97.54373548858149
 30
0.0
 11
736.8541859374573
 21
-97.54373548858149
 31
0.0
  0
LINE
  5
106A
330
6B
100
AcDbEntity
  8
0
 62
     3
100
AcDbLine
 10
740.0541859374571
 20
-87.84373548858155
 30
0.0
 11
737.8541859374571
 21
-87.84373548858155
 31
0.0
  0
LINE
  5
106B
330
6B
100
AcDbEntity
  8
0
 62
     7
100
AcDbLine
 10
741.054185937457
 20
-86.8437354885815
 30
0.0
 11
736.8541859374573
 21
-86.8437354885815
 31
0.0
  0
LINE
  5
106C
330
6B
100
AcDbEntity
  8
0
 62
     3
100
AcDbLine
 10
752.7541859374569
 20
-95.69373548858152
 30
0.0
 11
750.554185937457
 21
-95.69373548858152
 31
0.0
  0
LINE
  5
106D
330
6B
100
AcDbEntity
  8
0
 62
     7
100
AcDbLine
 10
753.7541859374568
 20
-96.69373548858153
 30
0.0
 11
749.554185937457
 21
-96.69373548858153
 31
0.0
  0
LINE
  5
106E
330
6B
100
AcDbEntity
  8
0
 62
     3
100
AcDbLine
 10
752.7541859374569
 20
-88.69373548858153
 30
0.0
 11
750.554185937457
 21
-88.69373548858153
 31
0.0
  0
LINE
  5
106F
330
6B
100
AcDbEntity
  8
0
 62
     7
100
AcDbLine
 10
753.7541859374568
 20
-87.69373548858153
 30
0.0
 11
749.554185937457
 21
-87.69373548858153
 31
0.0
  0
LINE
  5
1070
330
6B
100
AcDbEntity
  8
0
 62
     3
100
AcDbLine
 10
737.8541859374571
 20
-96.54373548858149
 30
0.0
 11
737.8541859374571
 21
-87.84373548858155
 31
0.0
  0
LINE
  5
1071
330
6B
100
AcDbEntity
  8
0
 62
     7
100
AcDbLine
 10
736.8541859374573
 20
-97.54373548858149
 30
0.0
 11
736.8541859374573
 21
-86.8437354885815
 31
0.0
  0
LINE
  5
1072
330
6B
100
AcDbEntity
  8
0
 62
     3
100
AcDbLine
 10
740.0541859374571
 20
-96.54373548858149
 30
0.0
 11
740.0541859374571
 21
-87.84373548858155
 31
0.0
  0
LINE
  5
1073
330
6B
100
AcDbEntity
  8
0
 62
     7
100
AcDbLine
 10
741.054185937457
 20
-97.54373548858149
 30
0.0
 11
741.054185937457
 21
-86.8437354885815
 31
0.0
  0
LINE
  5
1074
330
6B
100
AcDbEntity
  8
0
 62
     3
100
AcDbLine
 10
752.7541859374569
 20
-95.69373548858152
 30
0.0
 11
752.7541859374569
 21
-88.69373548858153
 31
0.0
  0
LINE
  5
1075
330
6B
100
AcDbEntity
  8
0
 62
     7
100
AcDbLine
 10
753.7541859374568
 20
-96.69373548858153
 30
0.0
 11
753.7541859374568
 21
-87.69373548858153
 31
0.0
  0
LINE
  5
1076
330
6B
100
AcDbEntity
  8
0
 62
     3
100
AcDbLine
 10
750.554185937457
 20
-95.69373548858152
 30
0.0
 11
750.554185937457
 21
-88.69373548858153
 31
0.0
  0
LINE
  5
1077
330
6B
100
AcDbEntity
  8
0
 62
     7
100
AcDbLine
 10
749.554185937457
 20
-96.69373548858153
 30
0.0
 11
749.554185937457
 21
-87.69373548858153
 31
0.0
  0
LINE
  5
1078
330
6B
100
AcDbEntity
  8
0
100
AcDbLine
 10
752.7541859374569
 20
-88.69373548858153
 30
0.0
 11
753.7541859374568
 21
-87.69373548858153
 31
0.0
  0
LINE
  5
1079
330
6B
100
AcDbEntity
  8
0
100
AcDbLine
 10
750.554185937457
 20
-88.69373548858153
 30
0.0
 11
749.554185937457
 21
-87.69373548858153
 31
0.0
  0
LINE
  5
107A
330
6B
100
AcDbEntity
  8
0
100
AcDbLine
 10
752.7541859374569
 20
-95.69373548858152
 30
0.0
 11
753.7541859374568
 21
-96.69373548858153
 31
0.0
  0
LINE
  5
107B
330
6B
100
AcDbEntity
  8
0
100
AcDbLine
 10
750.554185937457
 20
-95.69373548858152
 30
0.0
 11
749.554185937457
 21
-96.69373548858153
 31
0.0
  0
LINE
  5
107C
330
6B
100
AcDbEntity
  8
0
100
AcDbLine
 10
740.0541859374571
 20
-87.84373548858155
 30
0.0
 11
741.054185937457
 21
-86.8437354885815
 31
0.0
  0
LINE
  5
107D
330
6B
100
AcDbEntity
  8
0
100
AcDbLine
 10
737.8541859374571
 20
-87.84373548858155
 30
0.0
 11
736.8541859374573
 21
-86.8437354885815
 31
0.0
  0
LINE
  5
107E
330
6B
100
AcDbEntity
  8
0
100
AcDbLine
 10
737.8541859374571
 20
-96.54373548858149
 30
0.0
 11
736.8541859374573
 21
-97.54373548858149
 31
0.0
  0
LINE
  5
107F
330
6B
100
AcDbEntity
  8
0
100
AcDbLine
 10
740.0541859374571
 20
-96.54373548858149
 30
0.0
 11
741.054185937457
 21
-97.54373548858149
 31
0.0
  0
ARC
  5
1080
330
6B
100
AcDbEntity
  8
0
 62
     3
100
AcDbCircle
 10
745.3041859374567
 20
-104.0953556008843
 30
0.0
 40
2.7
100
AcDbArc
 50
0.0
 51
180.0
  0
ARC
  5
1081
330
6B
100
AcDbEntity
  8
0
100
AcDbCircle
 10
745.3041859374567
 20
-104.0953556008843
 30
0.0
 40
3.7
100
AcDbArc
 50
0.0
 51
180.0
  0
LINE
  5
1082
330
6B
100
AcDbEntity
  8
0
 62
     3
100
AcDbLine
 10
748.0041859374564
 20
-106.7953556008843
 30
0.0
 11
742.6041859374569
 21
-106.7953556008843
 31
0.0
  0
LINE
  5
1083
330
6B
100
AcDbEntity
  8
0
100
AcDbLine
 10
749.0041859374564
 20
-107.7953556008843
 30
0.0
 11
741.6041859374569
 21
-107.7953556008843
 31
0.0
  0
LINE
  5
1084
330
6B
100
AcDbEntity
  8
0
 62
     3
100
AcDbLine
 10
748.0041859374564
 20
-104.0953556008843
 30
0.0
 11
748.0041859374564
 21
-106.7953556008843
 31
0.0
  0
LINE
  5
1085
330
6B
100
AcDbEntity
  8
0
100
AcDbLine
 10
749.0041859374564
 20
-104.0953556008843
 30
0.0
 11
749.0041859374564
 21
-107.7953556008843
 31
0.0
  0
LINE
  5
1086
330
6B
100
AcDbEntity
  8
0
 62
     3
100
AcDbLine
 10
742.6041859374569
 20
-104.0953556008843
 30
0.0
 11
742.6041859374569
 21
-106.7953556008843
 31
0.0
  0
LINE
  5
1087
330
6B
100
AcDbEntity
  8
0
100
AcDbLine
 10
741.6041859374569
 20
-104.0953556008843
 30
0.0
 11
741.6041859374569
 21
-107.7953556008843
 31
0.0
  0
LINE
  5
1088
330
6B
100
AcDbEntity
  8
0
100
AcDbLine
 10
748.0041859374564
 20
-106.7953556008843
 30
0.0
 11
749.0041859374564
 21
-107.7953556008843
 31
0.0
  0
LINE
  5
1089
330
6B
100
AcDbEntity
  8
0
100
AcDbLine
 10
742.6041859374569
 20
-106.7953556008843
 30
0.0
 11
741.6041859374569
 21
-107.7953556008843
 31
0.0
  0
LINE
  5
108A
330
6B
100
AcDbEntity
  8
0
  6
Continuous
 62
     3
100
AcDbLine
 10
794.8041859374568
 20
-106.5437354885815
 30
0.0
 11
803.8041859374569
 21
-106.5437354885815
 31
0.0
  0
LINE
  5
108B
330
6B
100
AcDbEntity
  8
0
  6
Continuous
 62
     3
100
AcDbLine
 10
794.8041859374568
 20
-90.5437354885815
 30
0.0
 11
803.8041859374569
 21
-90.5437354885815
 31
0.0
  0
LINE
  5
108C
330
6B
100
AcDbEntity
  8
0
  6
Continuous
 62
     3
100
AcDbLine
 10
794.8041859374568
 20
-94.54373548858152
 30
0.0
 11
803.8041859374569
 21
-94.54373548858152
 31
0.0
  0
ARC
  5
108D
330
6B
100
AcDbEntity
  8
0
  6
Continuous
 62
     3
100
AcDbCircle
 10
858.5541859374568
 20
-98.54373548858152
 30
0.0
 40
64.25
100
AcDbArc
 50
172.8473312500053
 51
187.1526687499947
  0
ARC
  5
108E
330
6B
100
AcDbEntity
  8
0
  6
Continuous
 62
     3
100
AcDbCircle
 10
740.0541859374568
 20
-98.54373548858152
 30
0.0
 40
64.25
100
AcDbArc
 50
352.8473312500052
 51
7.152668749994726
  0
ARC
  5
108F
330
6B
100
AcDbEntity
  8
0
  6
Continuous
 62
     3
100
AcDbCircle
 10
777.8620885681523
 20
-92.54373548858159
 30
0.0
 40
26.01907792214161
100
AcDbArc
 50
355.5915154170959
 51
4.408484582904121
  0
ARC
  5
1090
330
6B
100
AcDbEntity
  8
0
  6
Continuous
 62
     3
100
AcDbCircle
 10
749.8614740373969
 20
-100.5437354885816
 30
0.0
 40
54.2753734868113
100
AcDbArc
 50
353.6531297790863
 51
6.34687022091369
  0
ARC
  5
1091
330
6B
100
AcDbEntity
  8
0
  6
Continuous
 62
     3
100
AcDbCircle
 10
820.7462833067614
 20
-92.54373548858159
 30
0.0
 40
26.01907792214161
100
AcDbArc
 50
175.5915154170959
 51
184.4084845829041
  0
ARC
  5
1092
330
6B
100
AcDbEntity
  8
0
  6
Continuous
 62
     3
100
AcDbCircle
 10
848.7468978375169
 20
-100.5437354885816
 30
0.0
 40
54.2753734868113
100
AcDbArc
 50
173.6531297790863
 51
186.3468702209137
  0
CIRCLE
  5
1093
330
6B
100
AcDbEntity
  8
0
  6
Continuous
 62
     3
100
AcDbCircle
 10
795.3041859374568
 20
-78.89373548858168
 30
0.0
 40
1.499999999999943
  0
CIRCLE
  5
1094
330
6B
100
AcDbEntity
  8
0
  6
Continuous
 62
     3
100
AcDbCircle
 10
787.3041859374568
 20
-78.89373548858157
 30
0.0
 40
1.500000000000115
  0
ARC
  5
1095
330
6B
100
AcDbEntity
  8
0
  6
Continuous
100
AcDbCircle
 10
772.8041859374569
 20
-112.1937354885814
 30
0.0
 40
0.9999999999999431
100
AcDbArc
 50
90.0
 51
270.0
  0
ARC
  5
1096
330
6B
100
AcDbEntity
  8
0
  6
Continuous
100
AcDbCircle
 10
775.8041859374568
 20
-112.1937354885816
 30
0.0
 40
1.000000000000113
100
AcDbArc
 50
270.0
 51
90.0
  0
ARC
  5
1097
330
6B
100
AcDbEntity
  8
0
  6
Continuous
100
AcDbCircle
 10
780.8041859374569
 20
-112.1937354885816
 30
0.0
 40
1.000000000000055
100
AcDbArc
 50
90.0
 51
270.0
  0
ARC
  5
1098
330
6B
100
AcDbEntity
  8
0
  6
Continuous
100
AcDbCircle
 10
783.8041859374568
 20
-112.1937354885815
 30
0.0
 40
1.0
100
AcDbArc
 50
270.0
 51
90.0
  0
ARC
  5
1099
330
6B
100
AcDbEntity
  8
0
  6
Continuous
100
AcDbCircle
 10
788.8041859374568
 20
-112.1937354885815
 30
0.0
 40
1.0
100
AcDbArc
 50
90.0
 51
270.0
  0
ARC
  5
109A
330
6B
100
AcDbEntity
  8
0
  6
Continuous
100
AcDbCircle
 10
791.8041859374568
 20
-112.1937354885815
 30
0.0
 40
1.0
100
AcDbArc
 50
270.0
 51
90.0
  0
ARC
  5
109B
330
6B
100
AcDbEntity
  8
0
  6
Continuous
100
AcDbCircle
 10
796.8041859374568
 20
-112.1937354885815
 30
0.0
 40
1.0
100
AcDbArc
 50
90.0
 51
270.0
  0
ARC
  5
109C
330
6B
100
AcDbEntity
  8
0
  6
Continuous
100
AcDbCircle
 10
799.8041859374568
 20
-112.1937354885816
 30
0.0
 40
1.000000000000055
100
AcDbArc
 50
270.0
 51
90.0
  0
ARC
  5
109D
330
6B
100
AcDbEntity
  8
0
  6
Continuous
100
AcDbCircle
 10
804.8041859374569
 20
-112.1937354885816
 30
0.0
 40
1.000000000000113
100
AcDbArc
 50
90.0
 51
270.0
  0
ARC
  5
109E
330
6B
100
AcDbEntity
  8
0
  6
Continuous
100
AcDbCircle
 10
807.8041859374566
 20
-112.1937354885816
 30
0.0
 40
1.000000000000055
100
AcDbArc
 50
270.0
 51
90.0
  0
LINE
  5
109F
330
6B
100
AcDbEntity
  8
0
  6
Continuous
100
AcDbLine
 10
731.804185937457
 20
-113.1937354885814
 30
0.0
 11
734.8041859374568
 21
-113.1937354885814
 31
0.0
  0
LINE
  5
10A0
330
6B
100
AcDbEntity
  8
0
  6
Continuous
100
AcDbLine
 10
739.8041859374568
 20
-113.1937354885814
 30
0.0
 11
742.8041859374568
 21
-113.1937354885814
 31
0.0
  0
LINE
  5
10A1
330
6B
100
AcDbEntity
  8
0
  6
Continuous
100
AcDbLine
 10
747.8041859374569
 20
-113.1937354885814
 30
0.0
 11
750.8041859374568
 21
-113.1937354885814
 31
0.0
  0
LINE
  5
10A2
330
6B
100
AcDbEntity
  8
0
  6
Continuous
100
AcDbLine
 10
755.8041859374569
 20
-113.1937354885814
 30
0.0
 11
758.8041859374567
 21
-113.1937354885814
 31
0.0
  0
LINE
  5
10A3
330
6B
100
AcDbEntity
  8
0
  6
Continuous
100
AcDbLine
 10
763.8041859374568
 20
-113.1937354885814
 30
0.0
 11
766.8041859374567
 21
-113.1937354885814
 31
0.0
  0
LINE
  5
10A4
330
6B
100
AcDbEntity
  8
0
  6
Continuous
100
AcDbLine
 10
731.804185937457
 20
-111.1937354885815
 30
0.0
 11
734.8041859374568
 21
-111.1937354885815
 31
0.0
  0
LINE
  5
10A5
330
6B
100
AcDbEntity
  8
0
  6
Continuous
100
AcDbLine
 10
739.8041859374568
 20
-111.1937354885815
 30
0.0
 11
742.8041859374568
 21
-111.1937354885815
 31
0.0
  0
LINE
  5
10A6
330
6B
100
AcDbEntity
  8
0
  6
Continuous
100
AcDbLine
 10
747.8041859374569
 20
-111.1937354885815
 30
0.0
 11
750.8041859374568
 21
-111.1937354885815
 31
0.0
  0
LINE
  5
10A7
330
6B
100
AcDbEntity
  8
0
  6
Continuous
100
AcDbLine
 10
755.8041859374569
 20
-111.1937354885815
 30
0.0
 11
758.8041859374567
 21
-111.1937354885815
 31
0.0
  0
LINE
  5
10A8
330
6B
100
AcDbEntity
  8
0
  6
Continuous
100
AcDbLine
 10
763.8041859374568
 20
-111.1937354885815
 30
0.0
 11
766.8041859374567
 21
-111.1937354885815
 31
0.0
  0
ARC
  5
10A9
330
6B
100
AcDbEntity
  8
0
  6
Continuous
100
AcDbCircle
 10
766.8041859374567
 20
-112.1937354885814
 30
0.0
 40
0.9999999999999431
100
AcDbArc
 50
270.0
 51
90.0
  0
ARC
  5
10AA
330
6B
100
AcDbEntity
  8
0
  6
Continuous
100
AcDbCircle
 10
763.8041859374568
 20
-112.1937354885816
 30
0.0
 40
1.000000000000113
100
AcDbArc
 50
90.0
 51
270.0
  0
ARC
  5
10AB
330
6B
100
AcDbEntity
  8
0
  6
Continuous
100
AcDbCircle
 10
758.8041859374567
 20
-112.1937354885816
 30
0.0
 40
1.000000000000055
100
AcDbArc
 50
270.0
 51
90.0
  0
ARC
  5
10AC
330
6B
100
AcDbEntity
  8
0
  6
Continuous
100
AcDbCircle
 10
755.8041859374569
 20
-112.1937354885815
 30
0.0
 40
1.0
100
AcDbArc
 50
90.0
 51
270.0
  0
ARC
  5
10AD
330
6B
100
AcDbEntity
  8
0
  6
Continuous
100
AcDbCircle
 10
750.8041859374568
 20
-112.1937354885815
 30
0.0
 40
1.0
100
AcDbArc
 50
270.0
 51
90.0
  0
ARC
  5
10AE
330
6B
100
AcDbEntity
  8
0
  6
Continuous
100
AcDbCircle
 10
747.8041859374569
 20
-112.1937354885815
 30
0.0
 40
1.0
100
AcDbArc
 50
90.0
 51
270.0
  0
ARC
  5
10AF
330
6B
100
AcDbEntity
  8
0
  6
Continuous
100
AcDbCircle
 10
742.8041859374568
 20
-112.1937354885815
 30
0.0
 40
1.0
100
AcDbArc
 50
270.0
 51
90.0
  0
ARC
  5
10B0
330
6B
100
AcDbEntity
  8
0
  6
Continuous
100
AcDbCircle
 10
739.8041859374568
 20
-112.1937354885816
 30
0.0
 40
1.000000000000055
100
AcDbArc
 50
90.0
 51
270.0
  0
ARC
  5
10B1
330
6B
100
AcDbEntity
  8
0
  6
Continuous
100
AcDbCircle
 10
734.8041859374568
 20
-112.1937354885816
 30
0.0
 40
1.000000000000113
100
AcDbArc
 50
270.0
 51
90.0
  0
ARC
  5
10B2
330
6B
100
AcDbEntity
  8
0
  6
Continuous
100
AcDbCircle
 10
731.804185937457
 20
-112.1937354885816
 30
0.0
 40
1.000000000000055
100
AcDbArc
 50
90.0
 51
270.0
  0
LINE
  5
10B3
330
6B
100
AcDbEntity
  8
0
  6
Continuous
100
AcDbLine
 10
807.8041859374566
 20
-78.19373548858152
 30
0.0
 11
804.8041859374569
 21
-78.19373548858152
 31
0.0
  0
LINE
  5
10B4
330
6B
100
AcDbEntity
  8
0
  6
Continuous
100
AcDbLine
 10
783.8041859374568
 20
-78.19373548858152
 30
0.0
 11
780.8041859374569
 21
-78.19373548858152
 31
0.0
  0
LINE
  5
10B5
330
6B
100
AcDbEntity
  8
0
  6
Continuous
100
AcDbLine
 10
775.8041859374568
 20
-78.19373548858152
 30
0.0
 11
772.8041859374569
 21
-78.19373548858152
 31
0.0
  0
LINE
  5
10B6
330
6B
100
AcDbEntity
  8
0
  6
Continuous
100
AcDbLine
 10
807.8041859374566
 20
-76.19373548858153
 30
0.0
 11
804.8041859374569
 21
-76.19373548858153
 31
0.0
  0
LINE
  5
10B7
330
6B
100
AcDbEntity
  8
0
  6
Continuous
100
AcDbLine
 10
783.8041859374568
 20
-76.19373548858153
 30
0.0
 11
780.8041859374569
 21
-76.19373548858153
 31
0.0
  0
LINE
  5
10B8
330
6B
100
AcDbEntity
  8
0
  6
Continuous
100
AcDbLine
 10
775.8041859374568
 20
-76.19373548858153
 30
0.0
 11
772.8041859374569
 21
-76.19373548858153
 31
0.0
  0
ARC
  5
10B9
330
6B
100
AcDbEntity
  8
0
  6
Continuous
100
AcDbCircle
 10
772.8041859374569
 20
-77.19373548858147
 30
0.0
 40
0.9999999999999431
100
AcDbArc
 50
90.0
 51
270.0
  0
ARC
  5
10BA
330
6B
100
AcDbEntity
  8
0
  6
Continuous
100
AcDbCircle
 10
775.8041859374568
 20
-77.19373548858164
 30
0.0
 40
1.000000000000113
100
AcDbArc
 50
270.0
 51
90.0
  0
ARC
  5
10BB
330
6B
100
AcDbEntity
  8
0
  6
Continuous
100
AcDbCircle
 10
780.8041859374569
 20
-77.19373548858158
 30
0.0
 40
1.000000000000055
100
AcDbArc
 50
90.0
 51
270.0
  0
ARC
  5
10BC
330
6B
100
AcDbEntity
  8
0
  6
Continuous
100
AcDbCircle
 10
783.8041859374568
 20
-77.19373548858152
 30
0.0
 40
1.0
100
AcDbArc
 50
270.0
 51
90.0
  0
ARC
  5
10BD
330
6B
100
AcDbEntity
  8
0
  6
Continuous
100
AcDbCircle
 10
804.8041859374569
 20
-77.19373548858164
 30
0.0
 40
1.000000000000113
100
AcDbArc
 50
90.0
 51
270.0
  0
ARC
  5
10BE
330
6B
100
AcDbEntity
  8
0
  6
Continuous
100
AcDbCircle
 10
807.8041859374566
 20
-77.19373548858158
 30
0.0
 40
1.000000000000055
100
AcDbArc
 50
270.0
 51
90.0
  0
LINE
  5
10BF
330
6B
100
AcDbEntity
  8
0
  6
Continuous
100
AcDbLine
 10
731.804185937457
 20
-78.19373548858152
 30
0.0
 11
734.8041859374568
 21
-78.19373548858152
 31
0.0
  0
LINE
  5
10C0
330
6B
100
AcDbEntity
  8
0
  6
Continuous
100
AcDbLine
 10
739.8041859374568
 20
-78.19373548858152
 30
0.0
 11
742.8041859374568
 21
-78.19373548858152
 31
0.0
  0
LINE
  5
10C1
330
6B
100
AcDbEntity
  8
0
  6
Continuous
100
AcDbLine
 10
747.8041859374569
 20
-78.19373548858152
 30
0.0
 11
750.8041859374568
 21
-78.19373548858152
 31
0.0
  0
LINE
  5
10C2
330
6B
100
AcDbEntity
  8
0
  6
Continuous
100
AcDbLine
 10
755.8041859374569
 20
-78.19373548858152
 30
0.0
 11
758.8041859374567
 21
-78.19373548858152
 31
0.0
  0
LINE
  5
10C3
330
6B
100
AcDbEntity
  8
0
  6
Continuous
100
AcDbLine
 10
763.8041859374568
 20
-78.19373548858152
 30
0.0
 11
766.8041859374567
 21
-78.19373548858152
 31
0.0
  0
LINE
  5
10C4
330
6B
100
AcDbEntity
  8
0
  6
Continuous
100
AcDbLine
 10
731.804185937457
 20
-76.19373548858153
 30
0.0
 11
734.8041859374568
 21
-76.19373548858153
 31
0.0
  0
LINE
  5
10C5
330
6B
100
AcDbEntity
  8
0
  6
Continuous
100
AcDbLine
 10
739.8041859374568
 20
-76.19373548858153
 30
0.0
 11
742.8041859374568
 21
-76.19373548858153
 31
0.0
  0
LINE
  5
10C6
330
6B
100
AcDbEntity
  8
0
  6
Continuous
100
AcDbLine
 10
747.8041859374569
 20
-76.19373548858153
 30
0.0
 11
750.8041859374568
 21
-76.19373548858153
 31
0.0
  0
LINE
  5
10C7
330
6B
100
AcDbEntity
  8
0
  6
Continuous
100
AcDbLine
 10
755.8041859374569
 20
-76.19373548858153
 30
0.0
 11
758.8041859374567
 21
-76.19373548858153
 31
0.0
  0
LINE
  5
10C8
330
6B
100
AcDbEntity
  8
0
  6
Continuous
100
AcDbLine
 10
763.8041859374568
 20
-76.19373548858153
 30
0.0
 11
766.8041859374567
 21
-76.19373548858153
 31
0.0
  0
ARC
  5
10C9
330
6B
100
AcDbEntity
  8
0
  6
Continuous
100
AcDbCircle
 10
766.8041859374567
 20
-77.19373548858147
 30
0.0
 40
0.9999999999999431
100
AcDbArc
 50
270.0
 51
90.0
  0
ARC
  5
10CA
330
6B
100
AcDbEntity
  8
0
  6
Continuous
100
AcDbCircle
 10
763.8041859374568
 20
-77.19373548858164
 30
0.0
 40
1.000000000000113
100
AcDbArc
 50
90.0
 51
270.0
  0
ARC
  5
10CB
330
6B
100
AcDbEntity
  8
0
  6
Continuous
100
AcDbCircle
 10
758.8041859374567
 20
-77.19373548858158
 30
0.0
 40
1.000000000000055
100
AcDbArc
 50
270.0
 51
90.0
  0
ARC
  5
10CC
330
6B
100
AcDbEntity
  8
0
  6
Continuous
100
AcDbCircle
 10
755.8041859374569
 20
-77.19373548858152
 30
0.0
 40
1.0
100
AcDbArc
 50
90.0
 51
270.0
  0
ARC
  5
10CD
330
6B
100
AcDbEntity
  8
0
  6
Continuous
100
AcDbCircle
 10
750.8041859374568
 20
-77.19373548858152
 30
0.0
 40
1.0
100
AcDbArc
 50
270.0
 51
90.0
  0
ARC
  5
10CE
330
6B
100
AcDbEntity
  8
0
  6
Continuous
100
AcDbCircle
 10
747.8041859374569
 20
-77.19373548858152
 30
0.0
 40
1.0
100
AcDbArc
 50
90.0
 51
270.0
  0
ARC
  5
10CF
330
6B
100
AcDbEntity
  8
0
  6
Continuous
100
AcDbCircle
 10
742.8041859374568
 20
-77.19373548858152
 30
0.0
 40
1.0
100
AcDbArc
 50
270.0
 51
90.0
  0
ARC
  5
10D0
330
6B
100
AcDbEntity
  8
0
  6
Continuous
100
AcDbCircle
 10
739.8041859374568
 20
-77.19373548858158
 30
0.0
 40
1.000000000000055
100
AcDbArc
 50
90.0
 51
270.0
  0
ARC
  5
10D1
330
6B
100
AcDbEntity
  8
0
  6
Continuous
100
AcDbCircle
 10
734.8041859374568
 20
-77.19373548858164
 30
0.0
 40
1.000000000000113
100
AcDbArc
 50
270.0
 51
90.0
  0
ARC
  5
10D2
330
6B
100
AcDbEntity
  8
0
  6
Continuous
100
AcDbCircle
 10
731.804185937457
 20
-77.19373548858158
 30
0.0
 40
1.000000000000055
100
AcDbArc
 50
90.0
 51
270.0
  0
LINE
  5
10D3
330
6B
100
AcDbEntity
  8
0
  6
Continuous
100
AcDbLine
 10
799.8041859374568
 20
-73.19373548858152
 30
0.0
 11
796.8041859374568
 21
-73.19373548858152
 31
0.0
  0
LINE
  5
10D4
330
6B
100
AcDbEntity
  8
0
  6
Continuous
100
AcDbLine
 10
791.8041859374568
 20
-73.19373548858152
 30
0.0
 11
788.8041859374568
 21
-73.19373548858152
 31
0.0
  0
LINE
  5
10D5
330
6B
100
AcDbEntity
  8
0
  6
Continuous
100
AcDbLine
 10
783.8041859374568
 20
-73.19373548858152
 30
0.0
 11
780.8041859374569
 21
-73.19373548858152
 31
0.0
  0
LINE
  5
10D6
330
6B
100
AcDbEntity
  8
0
  6
Continuous
100
AcDbLine
 10
775.8041859374568
 20
-73.19373548858152
 30
0.0
 11
772.8041859374569
 21
-73.19373548858152
 31
0.0
  0
LINE
  5
10D7
330
6B
100
AcDbEntity
  8
0
  6
Continuous
100
AcDbLine
 10
799.8041859374568
 20
-71.19373548858153
 30
0.0
 11
796.8041859374568
 21
-71.19373548858153
 31
0.0
  0
LINE
  5
10D8
330
6B
100
AcDbEntity
  8
0
  6
Continuous
100
AcDbLine
 10
791.8041859374568
 20
-71.19373548858153
 30
0.0
 11
788.8041859374568
 21
-71.19373548858153
 31
0.0
  0
LINE
  5
10D9
330
6B
100
AcDbEntity
  8
0
  6
Continuous
100
AcDbLine
 10
783.8041859374568
 20
-71.19373548858153
 30
0.0
 11
780.8041859374569
 21
-71.19373548858153
 31
0.0
  0
LINE
  5
10DA
330
6B
100
AcDbEntity
  8
0
  6
Continuous
100
AcDbLine
 10
775.8041859374568
 20
-71.19373548858153
 30
0.0
 11
772.8041859374569
 21
-71.19373548858153
 31
0.0
  0
ARC
  5
10DB
330
6B
100
AcDbEntity
  8
0
  6
Continuous
100
AcDbCircle
 10
772.8041859374569
 20
-72.19373548858147
 30
0.0
 40
0.9999999999999431
100
AcDbArc
 50
90.0
 51
270.0
  0
ARC
  5
10DC
330
6B
100
AcDbEntity
  8
0
  6
Continuous
100
AcDbCircle
 10
775.8041859374568
 20
-72.19373548858164
 30
0.0
 40
1.000000000000113
100
AcDbArc
 50
270.0
 51
90.0
  0
ARC
  5
10DD
330
6B
100
AcDbEntity
  8
0
  6
Continuous
100
AcDbCircle
 10
780.8041859374569
 20
-72.19373548858158
 30
0.0
 40
1.000000000000055
100
AcDbArc
 50
90.0
 51
270.0
  0
ARC
  5
10DE
330
6B
100
AcDbEntity
  8
0
  6
Continuous
100
AcDbCircle
 10
783.8041859374568
 20
-72.19373548858152
 30
0.0
 40
1.0
100
AcDbArc
 50
270.0
 51
90.0
  0
ARC
  5
10DF
330
6B
100
AcDbEntity
  8
0
  6
Continuous
100
AcDbCircle
 10
788.8041859374568
 20
-72.19373548858152
 30
0.0
 40
1.0
100
AcDbArc
 50
90.0
 51
270.0
  0
ARC
  5
10E0
330
6B
100
AcDbEntity
  8
0
  6
Continuous
100
AcDbCircle
 10
791.8041859374568
 20
-72.19373548858152
 30
0.0
 40
1.0
100
AcDbArc
 50
270.0
 51
90.0
  0
ARC
  5
10E1
330
6B
100
AcDbEntity
  8
0
  6
Continuous
100
AcDbCircle
 10
796.8041859374568
 20
-72.19373548858152
 30
0.0
 40
1.0
100
AcDbArc
 50
90.0
 51
270.0
  0
ARC
  5
10E2
330
6B
100
AcDbEntity
  8
0
  6
Continuous
100
AcDbCircle
 10
799.8041859374568
 20
-72.19373548858158
 30
0.0
 40
1.000000000000055
100
AcDbArc
 50
270.0
 51
90.0
  0
LINE
  5
10E3
330
6B
100
AcDbEntity
  8
0
  6
Continuous
100
AcDbLine
 10
739.8041859374568
 20
-73.19373548858152
 30
0.0
 11
742.8041859374568
 21
-73.19373548858152
 31
0.0
  0
LINE
  5
10E4
330
6B
100
AcDbEntity
  8
0
  6
Continuous
100
AcDbLine
 10
747.8041859374569
 20
-73.19373548858152
 30
0.0
 11
750.8041859374568
 21
-73.19373548858152
 31
0.0
  0
LINE
  5
10E5
330
6B
100
AcDbEntity
  8
0
  6
Continuous
100
AcDbLine
 10
755.8041859374569
 20
-73.19373548858152
 30
0.0
 11
758.8041859374567
 21
-73.19373548858152
 31
0.0
  0
LINE
  5
10E6
330
6B
100
AcDbEntity
  8
0
  6
Continuous
100
AcDbLine
 10
763.8041859374568
 20
-73.19373548858152
 30
0.0
 11
766.8041859374567
 21
-73.19373548858152
 31
0.0
  0
LINE
  5
10E7
330
6B
100
AcDbEntity
  8
0
  6
Continuous
100
AcDbLine
 10
739.8041859374568
 20
-71.19373548858153
 30
0.0
 11
742.8041859374568
 21
-71.19373548858153
 31
0.0
  0
LINE
  5
10E8
330
6B
100
AcDbEntity
  8
0
  6
Continuous
100
AcDbLine
 10
747.8041859374569
 20
-71.19373548858153
 30
0.0
 11
750.8041859374568
 21
-71.19373548858153
 31
0.0
  0
LINE
  5
10E9
330
6B
100
AcDbEntity
  8
0
  6
Continuous
100
AcDbLine
 10
755.8041859374569
 20
-71.19373548858153
 30
0.0
 11
758.8041859374567
 21
-71.19373548858153
 31
0.0
  0
LINE
  5
10EA
330
6B
100
AcDbEntity
  8
0
  6
Continuous
100
AcDbLine
 10
763.8041859374568
 20
-71.19373548858153
 30
0.0
 11
766.8041859374567
 21
-71.19373548858153
 31
0.0
  0
ARC
  5
10EB
330
6B
100
AcDbEntity
  8
0
  6
Continuous
100
AcDbCircle
 10
766.8041859374567
 20
-72.19373548858147
 30
0.0
 40
0.9999999999999431
100
AcDbArc
 50
270.0
 51
90.0
  0
ARC
  5
10EC
330
6B
100
AcDbEntity
  8
0
  6
Continuous
100
AcDbCircle
 10
763.8041859374568
 20
-72.19373548858164
 30
0.0
 40
1.000000000000113
100
AcDbArc
 50
90.0
 51
270.0
  0
ARC
  5
10ED
330
6B
100
AcDbEntity
  8
0
  6
Continuous
100
AcDbCircle
 10
758.8041859374567
 20
-72.19373548858158
 30
0.0
 40
1.000000000000055
100
AcDbArc
 50
270.0
 51
90.0
  0
ARC
  5
10EE
330
6B
100
AcDbEntity
  8
0
  6
Continuous
100
AcDbCircle
 10
755.8041859374569
 20
-72.19373548858152
 30
0.0
 40
1.0
100
AcDbArc
 50
90.0
 51
270.0
  0
ARC
  5
10EF
330
6B
100
AcDbEntity
  8
0
  6
Continuous
100
AcDbCircle
 10
750.8041859374568
 20
-72.19373548858152
 30
0.0
 40
1.0
100
AcDbArc
 50
270.0
 51
90.0
  0
ARC
  5
10F0
330
6B
100
AcDbEntity
  8
0
  6
Continuous
100
AcDbCircle
 10
747.8041859374569
 20
-72.19373548858152
 30
0.0
 40
1.0
100
AcDbArc
 50
90.0
 51
270.0
  0
ARC
  5
10F1
330
6B
100
AcDbEntity
  8
0
  6
Continuous
100
AcDbCircle
 10
742.8041859374568
 20
-72.19373548858152
 30
0.0
 40
1.0
100
AcDbArc
 50
270.0
 51
90.0
  0
ARC
  5
10F2
330
6B
100
AcDbEntity
  8
0
  6
Continuous
100
AcDbCircle
 10
739.8041859374568
 20
-72.19373548858158
 30
0.0
 40
1.000000000000055
100
AcDbArc
 50
90.0
 51
270.0
  0
CIRCLE
  5
10F3
330
6B
100
AcDbEntity
  8
0
  6
Continuous
100
AcDbCircle
 10
804.8041859374569
 20
-72.19373548858147
 30
0.0
 40
1.0
  0
CIRCLE
  5
10F4
330
6B
100
AcDbEntity
  8
0
  6
Continuous
100
AcDbCircle
 10
734.8041859374568
 20
-72.19373548858147
 30
0.0
 40
1.0
  0
CIRCLE
  5
10F5
330
6B
100
AcDbEntity
  8
0
  6
Continuous
100
AcDbCircle
 10
809.3041859374569
 20
-82.19373548858152
 30
0.0
 40
1.0
  0
CIRCLE
  5
10F6
330
6B
100
AcDbEntity
  8
0
  6
Continuous
100
AcDbCircle
 10
809.3041859374569
 20
-87.19373548858152
 30
0.0
 40
1.0
  0
CIRCLE
  5
10F7
330
6B
100
AcDbEntity
  8
0
  6
Continuous
100
AcDbCircle
 10
809.3041859374569
 20
-92.19373548858152
 30
0.0
 40
1.0
  0
CIRCLE
  5
10F8
330
6B
100
AcDbEntity
  8
0
  6
Continuous
100
AcDbCircle
 10
809.3041859374569
 20
-97.19373548858152
 30
0.0
 40
1.0
  0
CIRCLE
  5
10F9
330
6B
100
AcDbEntity
  8
0
  6
Continuous
100
AcDbCircle
 10
809.3041859374569
 20
-102.1937354885815
 30
0.0
 40
1.0
  0
CIRCLE
  5
10FA
330
6B
100
AcDbEntity
  8
0
  6
Continuous
100
AcDbCircle
 10
730.3041859374568
 20
-102.1937354885815
 30
0.0
 40
1.0
  0
CIRCLE
  5
10FB
330
6B
100
AcDbEntity
  8
0
  6
Continuous
100
AcDbCircle
 10
730.3041859374568
 20
-97.19373548858152
 30
0.0
 40
1.0
  0
CIRCLE
  5
10FC
330
6B
100
AcDbEntity
  8
0
  6
Continuous
100
AcDbCircle
 10
730.3041859374568
 20
-92.19373548858152
 30
0.0
 40
1.0
  0
CIRCLE
  5
10FD
330
6B
100
AcDbEntity
  8
0
  6
Continuous
100
AcDbCircle
 10
730.3041859374568
 20
-87.19373548858152
 30
0.0
 40
1.0
  0
CIRCLE
  5
10FE
330
6B
100
AcDbEntity
  8
0
  6
Continuous
100
AcDbCircle
 10
730.3041859374568
 20
-82.19373548858152
 30
0.0
 40
1.0
  0
LINE
  5
10FF
330
6B
100
AcDbEntity
  8
0
  6
Continuous
100
AcDbLine
 10
809.8899723750836
 20
-74.69373548858152
 30
0.0
 11
810.8041859374568
 21
-74.69373548858152
 31
0.0
  0
LINE
  5
1100
330
6B
100
AcDbEntity
  8
0
  6
Continuous
100
AcDbLine
 10
811.8041859374567
 20
-74.69373548858152
 30
0.0
 11
812.7183994998299
 21
-74.69373548858152
 31
0.0
  0
LINE
  5
1101
330
6B
100
AcDbEntity
  8
0
  6
Continuous
100
AcDbLine
 10
809.8899723750836
 20
-73.69373548858153
 30
0.0
 11
810.8041859374568
 21
-73.69373548858153
 31
0.0
  0
LINE
  5
1102
330
6B
100
AcDbEntity
  8
0
  6
Continuous
100
AcDbLine
 10
811.8041859374567
 20
-73.69373548858153
 30
0.0
 11
812.7183994998299
 21
-73.69373548858153
 31
0.0
  0
LINE
  5
1103
330
6B
100
AcDbEntity
  8
0
  6
Continuous
100
AcDbLine
 10
810.8041859374568
 20
-72.77952192620841
 30
0.0
 11
810.8041859374568
 21
-73.69373548858153
 31
0.0
  0
LINE
  5
1104
330
6B
100
AcDbEntity
  8
0
  6
Continuous
100
AcDbLine
 10
810.8041859374568
 20
-74.69373548858152
 30
0.0
 11
810.8041859374568
 21
-75.60794905095463
 31
0.0
  0
LINE
  5
1105
330
6B
100
AcDbEntity
  8
0
  6
Continuous
100
AcDbLine
 10
811.8041859374567
 20
-75.60794905095463
 30
0.0
 11
811.8041859374567
 21
-74.69373548858152
 31
0.0
  0
LINE
  5
1106
330
6B
100
AcDbEntity
  8
0
  6
Continuous
100
AcDbLine
 10
811.8041859374567
 20
-73.69373548858153
 30
0.0
 11
811.8041859374567
 21
-72.77952192620841
 31
0.0
  0
ARC
  5
1107
330
6B
100
AcDbEntity
  8
0
  6
Continuous
100
AcDbCircle
 10
811.3041859374568
 20
-74.19373548858152
 30
0.0
 40
1.5
100
AcDbArc
 50
160.5287793655112
 51
199.4712206344888
  0
ARC
  5
1108
330
6B
100
AcDbEntity
  8
0
  6
Continuous
100
AcDbCircle
 10
811.3041859374568
 20
-74.19373548858152
 30
0.0
 40
1.5
100
AcDbArc
 50
250.5287793655071
 51
289.471220634493
  0
ARC
  5
1109
330
6B
100
AcDbEntity
  8
0
  6
Continuous
100
AcDbCircle
 10
811.3041859374568
 20
-74.19373548858152
 30
0.0
 40
1.5
100
AcDbArc
 50
340.5287793655112
 51
19.4712206344888
  0
ARC
  5
110A
330
6B
100
AcDbEntity
  8
0
  6
Continuous
100
AcDbCircle
 10
811.3041859374568
 20
-74.19373548858152
 30
0.0
 40
1.5
100
AcDbArc
 50
70.52877936550705
 51
109.4712206344929
  0
LINE
  5
110B
330
6B
100
AcDbEntity
  8
0
  6
Continuous
100
AcDbLine
 10
726.8899723750839
 20
-74.69373548858152
 30
0.0
 11
727.8041859374568
 21
-74.69373548858152
 31
0.0
  0
LINE
  5
110C
330
6B
100
AcDbEntity
  8
0
  6
Continuous
100
AcDbLine
 10
728.8041859374568
 20
-74.69373548858152
 30
0.0
 11
729.7183994998299
 21
-74.69373548858152
 31
0.0
  0
LINE
  5
110D
330
6B
100
AcDbEntity
  8
0
  6
Continuous
100
AcDbLine
 10
726.8899723750839
 20
-73.69373548858153
 30
0.0
 11
727.8041859374568
 21
-73.69373548858153
 31
0.0
  0
LINE
  5
110E
330
6B
100
AcDbEntity
  8
0
  6
Continuous
100
AcDbLine
 10
728.8041859374568
 20
-73.69373548858153
 30
0.0
 11
729.7183994998299
 21
-73.69373548858153
 31
0.0
  0
LINE
  5
110F
330
6B
100
AcDbEntity
  8
0
  6
Continuous
100
AcDbLine
 10
727.8041859374568
 20
-72.77952192620841
 30
0.0
 11
727.8041859374568
 21
-73.69373548858153
 31
0.0
  0
LINE
  5
1110
330
6B
100
AcDbEntity
  8
0
  6
Continuous
100
AcDbLine
 10
727.8041859374568
 20
-74.69373548858152
 30
0.0
 11
727.8041859374568
 21
-75.60794905095463
 31
0.0
  0
LINE
  5
1111
330
6B
100
AcDbEntity
  8
0
  6
Continuous
100
AcDbLine
 10
728.8041859374568
 20
-75.60794905095463
 30
0.0
 11
728.8041859374568
 21
-74.69373548858152
 31
0.0
  0
LINE
  5
1112
330
6B
100
AcDbEntity
  8
0
  6
Continuous
100
AcDbLine
 10
728.8041859374568
 20
-73.69373548858153
 30
0.0
 11
728.8041859374568
 21
-72.77952192620841
 31
0.0
  0
ARC
  5
1113
330
6B
100
AcDbEntity
  8
0
  6
Continuous
100
AcDbCircle
 10
728.3041859374568
 20
-74.19373548858152
 30
0.0
 40
1.5
100
AcDbArc
 50
160.5287793655112
 51
199.4712206344888
  0
ARC
  5
1114
330
6B
100
AcDbEntity
  8
0
  6
Continuous
100
AcDbCircle
 10
728.3041859374568
 20
-74.19373548858152
 30
0.0
 40
1.5
100
AcDbArc
 50
250.5287793655071
 51
289.471220634493
  0
ARC
  5
1115
330
6B
100
AcDbEntity
  8
0
  6
Continuous
100
AcDbCircle
 10
728.3041859374568
 20
-74.19373548858152
 30
0.0
 40
1.5
100
AcDbArc
 50
340.5287793655112
 51
19.4712206344888
  0
ARC
  5
1116
330
6B
100
AcDbEntity
  8
0
  6
Continuous
100
AcDbCircle
 10
728.3041859374568
 20
-74.19373548858152
 30
0.0
 40
1.5
100
AcDbArc
 50
70.52877936550705
 51
109.4712206344929
  0
LINE
  5
1117
330
6B
100
AcDbEntity
  8
0
  6
Continuous
100
AcDbLine
 10
724.8899723750836
 20
-104.6937354885815
 30
0.0
 11
725.8041859374568
 21
-104.6937354885815
 31
0.0
  0
LINE
  5
1118
330
6B
100
AcDbEntity
  8
0
  6
Continuous
100
AcDbLine
 10
726.8041859374569
 20
-104.6937354885815
 30
0.0
 11
727.7183994998297
 21
-104.6937354885815
 31
0.0
  0
LINE
  5
1119
330
6B
100
AcDbEntity
  8
0
  6
Continuous
100
AcDbLine
 10
724.8899723750836
 20
-103.6937354885815
 30
0.0
 11
725.8041859374568
 21
-103.6937354885815
 31
0.0
  0
LINE
  5
111A
330
6B
100
AcDbEntity
  8
0
  6
Continuous
100
AcDbLine
 10
726.8041859374569
 20
-103.6937354885815
 30
0.0
 11
727.7183994998297
 21
-103.6937354885815
 31
0.0
  0
LINE
  5
111B
330
6B
100
AcDbEntity
  8
0
  6
Continuous
100
AcDbLine
 10
725.8041859374568
 20
-102.7795219262084
 30
0.0
 11
725.8041859374568
 21
-103.6937354885815
 31
0.0
  0
LINE
  5
111C
330
6B
100
AcDbEntity
  8
0
  6
Continuous
100
AcDbLine
 10
725.8041859374568
 20
-104.6937354885815
 30
0.0
 11
725.8041859374568
 21
-105.6079490509546
 31
0.0
  0
LINE
  5
111D
330
6B
100
AcDbEntity
  8
0
  6
Continuous
100
AcDbLine
 10
726.8041859374569
 20
-105.6079490509546
 30
0.0
 11
726.8041859374569
 21
-104.6937354885815
 31
0.0
  0
LINE
  5
111E
330
6B
100
AcDbEntity
  8
0
  6
Continuous
100
AcDbLine
 10
726.8041859374569
 20
-103.6937354885815
 30
0.0
 11
726.8041859374569
 21
-102.7795219262084
 31
0.0
  0
ARC
  5
111F
330
6B
100
AcDbEntity
  8
0
  6
Continuous
100
AcDbCircle
 10
726.3041859374568
 20
-104.1937354885815
 30
0.0
 40
1.5
100
AcDbArc
 50
160.5287793655112
 51
199.4712206344888
  0
ARC
  5
1120
330
6B
100
AcDbEntity
  8
0
  6
Continuous
100
AcDbCircle
 10
726.3041859374568
 20
-104.1937354885815
 30
0.0
 40
1.5
100
AcDbArc
 50
250.5287793655071
 51
289.471220634493
  0
ARC
  5
1121
330
6B
100
AcDbEntity
  8
0
  6
Continuous
100
AcDbCircle
 10
726.3041859374568
 20
-104.1937354885815
 30
0.0
 40
1.5
100
AcDbArc
 50
340.5287793655112
 51
19.4712206344888
  0
ARC
  5
1122
330
6B
100
AcDbEntity
  8
0
  6
Continuous
100
AcDbCircle
 10
726.3041859374568
 20
-104.1937354885815
 30
0.0
 40
1.5
100
AcDbArc
 50
70.52877936550705
 51
109.4712206344929
  0
LINE
  5
1123
330
6B
100
AcDbEntity
  8
0
  6
Continuous
100
AcDbLine
 10
811.8899723750839
 20
-104.6937354885815
 30
0.0
 11
812.8041859374569
 21
-104.6937354885815
 31
0.0
  0
LINE
  5
1124
330
6B
100
AcDbEntity
  8
0
  6
Continuous
100
AcDbLine
 10
813.8041859374569
 20
-104.6937354885815
 30
0.0
 11
814.7183994998298
 21
-104.6937354885815
 31
0.0
  0
LINE
  5
1125
330
6B
100
AcDbEntity
  8
0
  6
Continuous
100
AcDbLine
 10
811.8899723750839
 20
-103.6937354885815
 30
0.0
 11
812.8041859374569
 21
-103.6937354885815
 31
0.0
  0
LINE
  5
1126
330
6B
100
AcDbEntity
  8
0
  6
Continuous
100
AcDbLine
 10
813.8041859374569
 20
-103.6937354885815
 30
0.0
 11
814.7183994998298
 21
-103.6937354885815
 31
0.0
  0
LINE
  5
1127
330
6B
100
AcDbEntity
  8
0
  6
Continuous
100
AcDbLine
 10
812.8041859374569
 20
-102.7795219262084
 30
0.0
 11
812.8041859374569
 21
-103.6937354885815
 31
0.0
  0
LINE
  5
1128
330
6B
100
AcDbEntity
  8
0
  6
Continuous
100
AcDbLine
 10
812.8041859374569
 20
-104.6937354885815
 30
0.0
 11
812.8041859374569
 21
-105.6079490509546
 31
0.0
  0
LINE
  5
1129
330
6B
100
AcDbEntity
  8
0
  6
Continuous
100
AcDbLine
 10
813.8041859374569
 20
-105.6079490509546
 30
0.0
 11
813.8041859374569
 21
-104.6937354885815
 31
0.0
  0
LINE
  5
112A
330
6B
100
AcDbEntity
  8
0
  6
Continuous
100
AcDbLine
 10
813.8041859374569
 20
-103.6937354885815
 30
0.0
 11
813.8041859374569
 21
-102.7795219262084
 31
0.0
  0
ARC
  5
112B
330
6B
100
AcDbEntity
  8
0
  6
Continuous
100
AcDbCircle
 10
813.3041859374568
 20
-104.1937354885815
 30
0.0
 40
1.5
100
AcDbArc
 50
160.5287793655112
 51
199.4712206344888
  0
ARC
  5
112C
330
6B
100
AcDbEntity
  8
0
  6
Continuous
100
AcDbCircle
 10
813.3041859374568
 20
-104.1937354885815
 30
0.0
 40
1.5
100
AcDbArc
 50
250.5287793655071
 51
289.471220634493
  0
ARC
  5
112D
330
6B
100
AcDbEntity
  8
0
  6
Continuous
100
AcDbCircle
 10
813.3041859374568
 20
-104.1937354885815
 30
0.0
 40
1.5
100
AcDbArc
 50
340.5287793655112
 51
19.4712206344888
  0
ARC
  5
112E
330
6B
100
AcDbEntity
  8
0
  6
Continuous
100
AcDbCircle
 10
813.3041859374568
 20
-104.1937354885815
 30
0.0
 40
1.5
100
AcDbArc
 50
70.52877936550705
 51
109.4712206344929
  0
LINE
  5
112F
330
6B
100
AcDbEntity
  8
0
  6
Continuous
 62
     3
100
AcDbLine
 10
859.9000261791767
 20
-115.1937354885814
 30
0.0
 11
859.9000261791767
 21
-67.19373548858152
 31
0.0
  0
LINE
  5
1130
330
6B
100
AcDbEntity
  8
0
  6
Continuous
100
AcDbLine
 10
857.9000261791771
 20
-108.8937354885815
 30
0.0
 11
857.9000261791771
 21
-105.9501522956069
 31
0.0
  0
LINE
  5
1131
330
6B
100
AcDbEntity
  8
0
  6
Continuous
100
AcDbLine
 10
857.9000261791771
 20
-102.4373186815561
 30
0.0
 11
857.9000261791771
 21
-88.19373548858152
 31
0.0
  0
LINE
  5
1132
330
6B
100
AcDbEntity
  8
0
  6
Continuous
 62
     3
100
AcDbLine
 10
860.9000261791766
 20
-115.1937354885814
 30
0.0
 11
860.9000261791766
 21
-67.19373548858152
 31
0.0
  0
LINE
  5
1133
330
6B
100
AcDbEntity
  8
0
  6
Continuous
 62
     3
100
AcDbLine
 10
1002.900026179176
 20
-115.1937354885814
 30
0.0
 11
1002.900026179176
 21
-67.19373548858152
 31
0.0
  0
LINE
  5
1134
330
6B
100
AcDbEntity
  8
0
  6
Continuous
100
AcDbLine
 10
1005.900026179176
 20
-82.19373548858152
 30
0.0
 11
1005.900026179176
 21
-75.49373548858151
 31
0.0
  0
LINE
  5
1135
330
6B
100
AcDbEntity
  8
0
  6
Continuous
100
AcDbLine
 10
1008.900026179176
 20
-105.6937354885814
 30
0.0
 11
1008.900026179176
 21
-105.1937354885815
 31
0.0
  0
LINE
  5
1136
330
6B
100
AcDbEntity
  8
0
  6
Continuous
100
AcDbLine
 10
1008.900026179176
 20
-82.19373548858152
 30
0.0
 11
1008.900026179176
 21
-75.49373548858151
 31
0.0
  0
LINE
  5
1137
330
6B
100
AcDbEntity
  8
0
  6
Continuous
100
AcDbLine
 10
1019.300026179176
 20
-102.1937354885815
 30
0.0
 11
1019.300026179176
 21
-85.19373548858153
 31
0.0
  0
LINE
  5
1138
330
6B
100
AcDbEntity
  8
0
  6
Continuous
100
AcDbLine
 10
1009.300026179176
 20
-105.1937354885815
 30
0.0
 11
1009.300026179176
 21
-82.19373548858152
 31
0.0
  0
LINE
  5
1139
330
6B
100
AcDbEntity
  8
0
  6
Continuous
100
AcDbLine
 10
1005.600026179176
 20
-111.6937354885816
 30
0.0
 11
1005.600026179176
 21
-75.69373548858178
 31
0.0
  0
LINE
  5
113A
330
6B
100
AcDbEntity
  8
0
  6
Continuous
 62
     3
100
AcDbLine
 10
1001.900026179176
 20
-115.1937354885814
 30
0.0
 11
1001.900026179176
 21
-67.19373548858152
 31
0.0
  0
LINE
  5
113B
330
6B
100
AcDbEntity
  8
0
  6
Continuous
 62
     3
100
AcDbLine
 10
1002.900026179176
 20
-67.19373548858152
 30
0.0
 11
859.9000261791767
 21
-67.19373548858152
 31
0.0
  0
LINE
  5
113C
330
6B
100
AcDbEntity
  8
0
  6
Continuous
100
AcDbLine
 10
1002.900026179176
 20
-67.53790079509855
 30
0.0
 11
859.9000261791767
 21
-67.53790079509855
 31
0.0
  0
LINE
  5
113D
330
6B
100
AcDbEntity
  8
0
  6
Continuous
100
AcDbLine
 10
1002.900026179176
 20
-67.59169797844641
 30
0.0
 11
859.9000261791767
 21
-67.59169797844641
 31
0.0
  0
LINE
  5
113E
330
6B
100
AcDbEntity
  8
0
  6
Continuous
100
AcDbLine
 10
1002.900026179176
 20
-67.71740393319169
 30
0.0
 11
859.9000261791767
 21
-67.71740393319169
 31
0.0
  0
LINE
  5
113F
330
6B
100
AcDbEntity
  8
0
  6
Continuous
100
AcDbLine
 10
1002.900026179176
 20
-67.77616261867291
 30
0.0
 11
859.9000261791767
 21
-67.77616261867291
 31
0.0
  0
LINE
  5
1140
330
6B
100
AcDbEntity
  8
0
  6
Continuous
100
AcDbLine
 10
1002.900026179176
 20
-67.98848982073661
 30
0.0
 11
859.9000261791767
 21
-67.98848982073661
 31
0.0
  0
LINE
  5
1141
330
6B
100
AcDbEntity
  8
0
  6
Continuous
100
AcDbLine
 10
1002.900026179176
 20
-68.05638163043392
 30
0.0
 11
859.9000261791767
 21
-68.05638163043392
 31
0.0
  0
LINE
  5
1142
330
6B
100
AcDbEntity
  8
0
  6
Continuous
 62
     3
100
AcDbLine
 10
859.9000261791767
 20
-115.1937354885814
 30
0.0
 11
1002.900026179176
 21
-115.1937354885814
 31
0.0
  0
LINE
  5
1143
330
6B
100
AcDbEntity
  8
0
  6
Continuous
 62
     3
100
AcDbLine
 10
859.9000261791767
 20
-87.69373548858153
 30
0.0
 11
1002.900026179176
 21
-87.69373548858153
 31
0.0
  0
LINE
  5
1144
330
6B
100
AcDbEntity
  8
0
  6
Continuous
 62
     7
100
AcDbLine
 10
860.9000261791766
 20
-86.19373548858153
 30
0.0
 11
1001.900026179176
 21
-86.19373548858153
 31
0.0
  0
LINE
  5
1145
330
6B
100
AcDbEntity
  8
0
  6
Continuous
 62
     7
100
AcDbLine
 10
860.9000261791766
 20
-84.69373548858152
 30
0.0
 11
1001.900026179176
 21
-84.69373548858152
 31
0.0
  0
LINE
  5
1146
330
6B
100
AcDbEntity
  8
0
  6
Continuous
 62
     7
100
AcDbLine
 10
860.9000261791766
 20
-83.19373548858152
 30
0.0
 11
1001.900026179176
 21
-83.19373548858152
 31
0.0
  0
LINE
  5
1147
330
6B
100
AcDbEntity
  8
0
  6
Continuous
 62
     7
100
AcDbLine
 10
860.9000261791766
 20
-81.69373548858152
 30
0.0
 11
1001.900026179176
 21
-81.69373548858152
 31
0.0
  0
LINE
  5
1148
330
6B
100
AcDbEntity
  8
0
  6
Continuous
 62
     7
100
AcDbLine
 10
860.9000261791766
 20
-80.19373548858153
 30
0.0
 11
1001.900026179176
 21
-80.19373548858153
 31
0.0
  0
LINE
  5
1149
330
6B
100
AcDbEntity
  8
0
  6
Continuous
 62
     7
100
AcDbLine
 10
860.9000261791766
 20
-78.19373548858152
 30
0.0
 11
1001.900026179176
 21
-78.19373548858152
 31
0.0
  0
LINE
  5
114A
330
6B
100
AcDbEntity
  8
0
  6
Continuous
 62
     3
100
AcDbLine
 10
859.9000261791767
 20
-96.19373548858153
 30
0.0
 11
1002.900026179176
 21
-96.19373548858153
 31
0.0
  0
LINE
  5
114B
330
6B
100
AcDbEntity
  8
0
  6
Continuous
 62
     7
100
AcDbLine
 10
860.9000261791766
 20
-97.69373548858153
 30
0.0
 11
1001.900026179176
 21
-97.69373548858153
 31
0.0
  0
LINE
  5
114C
330
6B
100
AcDbEntity
  8
0
  6
Continuous
 62
     7
100
AcDbLine
 10
860.9000261791766
 20
-99.19373548858153
 30
0.0
 11
1001.900026179176
 21
-99.19373548858153
 31
0.0
  0
LINE
  5
114D
330
6B
100
AcDbEntity
  8
0
  6
Continuous
 62
     7
100
AcDbLine
 10
860.9000261791766
 20
-100.6937354885815
 30
0.0
 11
1001.900026179176
 21
-100.6937354885815
 31
0.0
  0
LINE
  5
114E
330
6B
100
AcDbEntity
  8
0
  6
Continuous
 62
     7
100
AcDbLine
 10
860.9000261791766
 20
-102.1937354885815
 30
0.0
 11
1001.900026179176
 21
-102.1937354885815
 31
0.0
  0
LINE
  5
114F
330
6B
100
AcDbEntity
  8
0
  6
Continuous
100
AcDbLine
 10
859.9000261791767
 20
-71.44373548858152
 30
0.0
 11
858.9286324793969
 21
-71.44373548858152
 31
0.0
  0
LINE
  5
1150
330
6B
100
AcDbEntity
  8
0
  6
Continuous
100
AcDbLine
 10
1002.900026179176
 20
-71.44373548858152
 30
0.0
 11
1003.871419878956
 21
-71.44373548858152
 31
0.0
  0
LINE
  5
1151
330
6B
100
AcDbEntity
  8
0
  6
Continuous
100
AcDbLine
 10
859.9000261791767
 20
-76.94373548858152
 30
0.0
 11
858.9286324793969
 21
-76.94373548858152
 31
0.0
  0
LINE
  5
1152
330
6B
100
AcDbEntity
  8
0
  6
Continuous
100
AcDbLine
 10
1002.900026179176
 20
-76.94373548858152
 30
0.0
 11
1003.871419878956
 21
-76.94373548858152
 31
0.0
  0
LINE
  5
1153
330
6B
100
AcDbEntity
  8
0
  6
Continuous
100
AcDbLine
 10
859.9000261791767
 20
-101.4437354885815
 30
0.0
 11
858.9286324793972
 21
-101.4437354885815
 31
0.0
  0
LINE
  5
1154
330
6B
100
AcDbEntity
  8
0
  6
Continuous
100
AcDbLine
 10
1002.900026179176
 20
-101.4437354885815
 30
0.0
 11
1003.871419878956
 21
-101.4437354885815
 31
0.0
  0
LINE
  5
1155
330
6B
100
AcDbEntity
  8
0
  6
Continuous
100
AcDbLine
 10
859.9000261791767
 20
-106.9437354885815
 30
0.0
 11
858.9286324793972
 21
-106.9437354885815
 31
0.0
  0
LINE
  5
1156
330
6B
100
AcDbEntity
  8
0
  6
Continuous
100
AcDbLine
 10
1002.900026179176
 20
-106.9437354885815
 30
0.0
 11
1003.871419878956
 21
-106.9437354885815
 31
0.0
  0
ARC
  5
1157
330
6B
100
AcDbEntity
  8
0
  6
Continuous
100
AcDbCircle
 10
865.512526179177
 20
-104.1937354885815
 30
0.0
 40
7.812500000000111
100
AcDbArc
 50
165.114943900483
 51
194.885056099517
  0
ARC
  5
1158
330
6B
100
AcDbEntity
  8
0
  6
Continuous
100
AcDbCircle
 10
865.5125261791768
 20
-74.1937354885815
 30
0.0
 40
7.812499999999992
100
AcDbArc
 50
165.114943900483
 51
194.885056099517
  0
ARC
  5
1159
330
6B
100
AcDbEntity
  8
0
  6
Continuous
100
AcDbCircle
 10
997.2875261791761
 20
-74.19373548858152
 30
0.0
 40
7.8125
100
AcDbArc
 50
345.114943900483
 51
14.88505609951699
  0
ARC
  5
115A
330
6B
100
AcDbEntity
  8
0
  6
Continuous
100
AcDbCircle
 10
997.2875261791761
 20
-104.1937354885815
 30
0.0
 40
7.812500000000004
100
AcDbArc
 50
345.114943900483
 51
14.88505609951699
  0
ARC
  5
115B
330
6B
100
AcDbEntity
  8
0
  6
Continuous
100
AcDbCircle
 10
858.9286324793969
 20
-72.44373548858169
 30
0.0
 40
1.0
100
AcDbArc
 50
90.0
 51
165.1149439004736
  0
ARC
  5
115C
330
6B
100
AcDbEntity
  8
0
  6
Continuous
100
AcDbCircle
 10
858.9286324793972
 20
-75.94373548858152
 30
0.0
 40
1.0
100
AcDbArc
 50
194.8850560995138
 51
269.9999999999935
  0
ARC
  5
115D
330
6B
100
AcDbEntity
  8
0
  6
Continuous
100
AcDbCircle
 10
858.9286324793969
 20
-102.4437354885816
 30
0.0
 40
1.0
100
AcDbArc
 50
89.99999999999349
 51
165.1149439004736
  0
ARC
  5
115E
330
6B
100
AcDbEntity
  8
0
  6
Continuous
100
AcDbCircle
 10
858.9286324793974
 20
-105.9437354885813
 30
0.0
 40
1.0
100
AcDbArc
 50
194.8850560995264
 51
269.999999999987
  0
ARC
  5
115F
330
6B
100
AcDbEntity
  8
0
  6
Continuous
100
AcDbCircle
 10
1003.871419878956
 20
-72.44373548858161
 30
0.0
 40
1.0
100
AcDbArc
 50
14.88505609952014
 51
90.0
  0
ARC
  5
1160
330
6B
100
AcDbEntity
  8
0
  6
Continuous
100
AcDbCircle
 10
1003.871419878956
 20
-75.94373548858143
 30
0.0
 40
1.0
100
AcDbArc
 50
270.0
 51
345.1149439004767
  0
ARC
  5
1161
330
6B
100
AcDbEntity
  8
0
  6
Continuous
100
AcDbCircle
 10
1003.871419878956
 20
-102.4437354885815
 30
0.0
 40
1.0
100
AcDbArc
 50
14.88505609951699
 51
90.0
  0
ARC
  5
1162
330
6B
100
AcDbEntity
  8
0
  6
Continuous
100
AcDbCircle
 10
1003.871419878956
 20
-105.9437354885814
 30
0.0
 40
1.0
100
AcDbArc
 50
270.0
 51
345.1149439004767
  0
CIRCLE
  5
1163
330
6B
100
AcDbEntity
  8
0
  6
Continuous
100
AcDbCircle
 10
865.4000261791766
 20
-90.19373548858153
 30
0.0
 40
1.5
  0
CIRCLE
  5
1164
330
6B
100
AcDbEntity
  8
0
  6
Continuous
100
AcDbCircle
 10
877.4000261791771
 20
-90.19373548858153
 30
0.0
 40
1.5
  0
CIRCLE
  5
1165
330
6B
100
AcDbEntity
  8
0
  6
Continuous
100
AcDbCircle
 10
884.9000261791767
 20
-90.19373548858153
 30
0.0
 40
1.5
  0
CIRCLE
  5
1166
330
6B
100
AcDbEntity
  8
0
  6
Continuous
100
AcDbCircle
 10
892.9000261791767
 20
-90.19373548858153
 30
0.0
 40
1.5
  0
CIRCLE
  5
1167
330
6B
100
AcDbEntity
  8
0
  6
Continuous
100
AcDbCircle
 10
871.4000261791767
 20
-93.69373548858153
 30
0.0
 40
1.5
  0
CIRCLE
  5
1168
330
6B
100
AcDbEntity
  8
0
  6
Continuous
100
AcDbCircle
 10
880.9000261791771
 20
-93.69373548858153
 30
0.0
 40
1.5
  0
CIRCLE
  5
1169
330
6B
100
AcDbEntity
  8
0
  6
Continuous
100
AcDbCircle
 10
888.9000261791771
 20
-93.69373548858153
 30
0.0
 40
1.5
  0
CIRCLE
  5
116A
330
6B
100
AcDbEntity
  8
0
  6
Continuous
100
AcDbCircle
 10
897.4000261791767
 20
-93.69373548858153
 30
0.0
 40
2.5
  0
CIRCLE
  5
116B
330
6B
100
AcDbEntity
  8
0
  6
Continuous
100
AcDbCircle
 10
904.9000261791771
 20
-91.94373548858152
 30
0.0
 40
1.5
  0
LINE
  5
116C
330
6B
100
AcDbEntity
  8
0
  6
Continuous
100
AcDbLine
 10
895.9858126168038
 20
-94.19373548858152
 30
0.0
 11
896.9000261791771
 21
-94.19373548858152
 31
0.0
  0
LINE
  5
116D
330
6B
100
AcDbEntity
  8
0
  6
Continuous
100
AcDbLine
 10
897.9000261791771
 20
-94.19373548858152
 30
0.0
 11
898.8142397415499
 21
-94.19373548858152
 31
0.0
  0
LINE
  5
116E
330
6B
100
AcDbEntity
  8
0
  6
Continuous
100
AcDbLine
 10
895.9858126168038
 20
-93.19373548858152
 30
0.0
 11
896.9000261791771
 21
-93.19373548858152
 31
0.0
  0
LINE
  5
116F
330
6B
100
AcDbEntity
  8
0
  6
Continuous
100
AcDbLine
 10
897.9000261791771
 20
-93.19373548858152
 30
0.0
 11
898.8142397415499
 21
-93.19373548858152
 31
0.0
  0
LINE
  5
1170
330
6B
100
AcDbEntity
  8
0
  6
Continuous
100
AcDbLine
 10
896.9000261791771
 20
-92.27952192620842
 30
0.0
 11
896.9000261791771
 21
-93.19373548858152
 31
0.0
  0
LINE
  5
1171
330
6B
100
AcDbEntity
  8
0
  6
Continuous
100
AcDbLine
 10
896.9000261791771
 20
-94.19373548858152
 30
0.0
 11
896.9000261791771
 21
-95.10794905095464
 31
0.0
  0
LINE
  5
1172
330
6B
100
AcDbEntity
  8
0
  6
Continuous
100
AcDbLine
 10
897.9000261791771
 20
-95.10794905095464
 30
0.0
 11
897.9000261791771
 21
-94.19373548858152
 31
0.0
  0
LINE
  5
1173
330
6B
100
AcDbEntity
  8
0
  6
Continuous
100
AcDbLine
 10
897.9000261791771
 20
-93.19373548858152
 30
0.0
 11
897.9000261791771
 21
-92.27952192620842
 31
0.0
  0
ARC
  5
1174
330
6B
100
AcDbEntity
  8
0
  6
Continuous
100
AcDbCircle
 10
897.4000261791767
 20
-93.69373548858153
 30
0.0
 40
1.5
100
AcDbArc
 50
160.5287793655112
 51
199.4712206344888
  0
ARC
  5
1175
330
6B
100
AcDbEntity
  8
0
  6
Continuous
100
AcDbCircle
 10
897.4000261791767
 20
-93.69373548858153
 30
0.0
 40
1.5
100
AcDbArc
 50
250.5287793655071
 51
289.471220634493
  0
ARC
  5
1176
330
6B
100
AcDbEntity
  8
0
  6
Continuous
100
AcDbCircle
 10
897.4000261791767
 20
-93.69373548858153
 30
0.0
 40
1.5
100
AcDbArc
 50
340.5287793655112
 51
19.4712206344888
  0
ARC
  5
1177
330
6B
100
AcDbEntity
  8
0
  6
Continuous
100
AcDbCircle
 10
897.4000261791767
 20
-93.69373548858153
 30
0.0
 40
1.5
100
AcDbArc
 50
70.52877936550705
 51
109.4712206344929
  0
CIRCLE
  5
1178
330
6B
100
AcDbEntity
  8
0
  6
Continuous
100
AcDbCircle
 10
928.4000261791771
 20
-91.94373548858152
 30
0.0
 40
2.5
  0
LINE
  5
1179
330
6B
100
AcDbEntity
  8
0
  6
Continuous
100
AcDbLine
 10
926.9858126168037
 20
-92.44373548858153
 30
0.0
 11
927.900026179177
 21
-92.44373548858153
 31
0.0
  0
LINE
  5
117A
330
6B
100
AcDbEntity
  8
0
  6
Continuous
100
AcDbLine
 10
928.9000261791768
 20
-92.44373548858153
 30
0.0
 11
929.8142397415498
 21
-92.44373548858153
 31
0.0
  0
LINE
  5
117B
330
6B
100
AcDbEntity
  8
0
  6
Continuous
100
AcDbLine
 10
926.9858126168037
 20
-91.44373548858153
 30
0.0
 11
927.900026179177
 21
-91.44373548858153
 31
0.0
  0
LINE
  5
117C
330
6B
100
AcDbEntity
  8
0
  6
Continuous
100
AcDbLine
 10
928.9000261791768
 20
-91.44373548858153
 30
0.0
 11
929.8142397415498
 21
-91.44373548858153
 31
0.0
  0
LINE
  5
117D
330
6B
100
AcDbEntity
  8
0
  6
Continuous
100
AcDbLine
 10
927.9000261791766
 20
-90.52952192620841
 30
0.0
 11
927.900026179177
 21
-91.44373548858153
 31
0.0
  0
LINE
  5
117E
330
6B
100
AcDbEntity
  8
0
  6
Continuous
100
AcDbLine
 10
927.900026179177
 20
-92.44373548858153
 30
0.0
 11
927.9000261791766
 21
-93.35794905095463
 31
0.0
  0
LINE
  5
117F
330
6B
100
AcDbEntity
  8
0
  6
Continuous
100
AcDbLine
 10
928.9000261791768
 20
-93.35794905095463
 30
0.0
 11
928.9000261791768
 21
-92.44373548858153
 31
0.0
  0
LINE
  5
1180
330
6B
100
AcDbEntity
  8
0
  6
Continuous
100
AcDbLine
 10
928.9000261791768
 20
-91.44373548858153
 30
0.0
 11
928.9000261791768
 21
-90.52952192620841
 31
0.0
  0
ARC
  5
1181
330
6B
100
AcDbEntity
  8
0
  6
Continuous
100
AcDbCircle
 10
928.4000261791771
 20
-91.94373548858152
 30
0.0
 40
1.5
100
AcDbArc
 50
160.5287793655112
 51
199.4712206344888
  0
ARC
  5
1182
330
6B
100
AcDbEntity
  8
0
  6
Continuous
100
AcDbCircle
 10
928.4000261791771
 20
-91.94373548858152
 30
0.0
 40
1.5
100
AcDbArc
 50
250.5287793655071
 51
289.471220634493
  0
ARC
  5
1183
330
6B
100
AcDbEntity
  8
0
  6
Continuous
100
AcDbCircle
 10
928.4000261791771
 20
-91.94373548858152
 30
0.0
 40
1.5
100
AcDbArc
 50
340.5287793655112
 51
19.4712206344888
  0
ARC
  5
1184
330
6B
100
AcDbEntity
  8
0
  6
Continuous
100
AcDbCircle
 10
928.4000261791771
 20
-91.94373548858152
 30
0.0
 40
1.5
100
AcDbArc
 50
70.52877936550705
 51
109.4712206344929
  0
CIRCLE
  5
1185
330
6B
100
AcDbEntity
  8
0
  6
Continuous
100
AcDbCircle
 10
962.9000261791762
 20
-91.94373548858152
 30
0.0
 40
2.5
  0
LINE
  5
1186
330
6B
100
AcDbEntity
  8
0
  6
Continuous
100
AcDbLine
 10
961.4858126168034
 20
-92.44373548858153
 30
0.0
 11
962.4000261791762
 21
-92.44373548858153
 31
0.0
  0
LINE
  5
1187
330
6B
100
AcDbEntity
  8
0
  6
Continuous
100
AcDbLine
 10
963.4000261791763
 20
-92.44373548858153
 30
0.0
 11
964.3142397415495
 21
-92.44373548858153
 31
0.0
  0
LINE
  5
1188
330
6B
100
AcDbEntity
  8
0
  6
Continuous
100
AcDbLine
 10
961.4858126168034
 20
-91.44373548858153
 30
0.0
 11
962.4000261791762
 21
-91.44373548858153
 31
0.0
  0
LINE
  5
1189
330
6B
100
AcDbEntity
  8
0
  6
Continuous
100
AcDbLine
 10
963.4000261791763
 20
-91.44373548858153
 30
0.0
 11
964.3142397415495
 21
-91.44373548858153
 31
0.0
  0
LINE
  5
118A
330
6B
100
AcDbEntity
  8
0
  6
Continuous
100
AcDbLine
 10
962.4000261791762
 20
-90.52952192620841
 30
0.0
 11
962.4000261791762
 21
-91.44373548858153
 31
0.0
  0
LINE
  5
118B
330
6B
100
AcDbEntity
  8
0
  6
Continuous
100
AcDbLine
 10
962.4000261791762
 20
-92.44373548858153
 30
0.0
 11
962.4000261791762
 21
-93.35794905095463
 31
0.0
  0
LINE
  5
118C
330
6B
100
AcDbEntity
  8
0
  6
Continuous
100
AcDbLine
 10
963.4000261791763
 20
-93.35794905095463
 30
0.0
 11
963.4000261791763
 21
-92.44373548858153
 31
0.0
  0
LINE
  5
118D
330
6B
100
AcDbEntity
  8
0
  6
Continuous
100
AcDbLine
 10
963.4000261791763
 20
-91.44373548858153
 30
0.0
 11
963.4000261791763
 21
-90.52952192620841
 31
0.0
  0
ARC
  5
118E
330
6B
100
AcDbEntity
  8
0
  6
Continuous
100
AcDbCircle
 10
962.9000261791762
 20
-91.94373548858152
 30
0.0
 40
1.5
100
AcDbArc
 50
160.5287793655112
 51
199.4712206344888
  0
ARC
  5
118F
330
6B
100
AcDbEntity
  8
0
  6
Continuous
100
AcDbCircle
 10
962.9000261791762
 20
-91.94373548858152
 30
0.0
 40
1.5
100
AcDbArc
 50
250.5287793655071
 51
289.471220634493
  0
ARC
  5
1190
330
6B
100
AcDbEntity
  8
0
  6
Continuous
100
AcDbCircle
 10
962.9000261791762
 20
-91.94373548858152
 30
0.0
 40
1.5
100
AcDbArc
 50
340.5287793655112
 51
19.4712206344888
  0
ARC
  5
1191
330
6B
100
AcDbEntity
  8
0
  6
Continuous
100
AcDbCircle
 10
962.9000261791762
 20
-91.94373548858152
 30
0.0
 40
1.5
100
AcDbArc
 50
70.52877936550705
 51
109.4712206344929
  0
LINE
  5
1192
330
6B
100
AcDbEntity
  8
0
  6
Continuous
100
AcDbLine
 10
858.4000261791768
 20
-77.39373548858174
 30
0.0
 11
859.9000261791767
 21
-77.39373548858174
 31
0.0
  0
LINE
  5
1193
330
6B
100
AcDbEntity
  8
0
  6
Continuous
100
AcDbLine
 10
858.4000261791768
 20
-80.39373548858163
 30
0.0
 11
859.9000261791767
 21
-80.39373548858163
 31
0.0
  0
ARC
  5
1194
330
6B
100
AcDbEntity
  8
0
  6
Continuous
100
AcDbCircle
 10
858.4000261791768
 20
-78.89373548858168
 30
0.0
 40
1.499999999999943
100
AcDbArc
 50
90.0
 51
270.0
  0
LINE
  5
1195
330
6B
100
AcDbEntity
  8
0
  6
Continuous
100
AcDbLine
 10
859.9000261791767
 20
-83.49373548858153
 30
0.0
 11
855.9000261791771
 21
-84.99373548858153
 31
0.0
  0
LINE
  5
1196
330
6B
100
AcDbEntity
  8
0
  6
Continuous
100
AcDbLine
 10
855.9000261791771
 20
-84.99373548858153
 30
0.0
 11
855.9000261791771
 21
-91.91288175975675
 31
0.0
  0
LINE
  5
1197
330
6B
100
AcDbEntity
  8
0
  6
Continuous
100
AcDbLine
 10
855.9000261791771
 20
-98.05569017417724
 30
0.0
 11
855.9000261791771
 21
-109.1937354885815
 31
0.0
  0
LINE
  5
1198
330
6B
100
AcDbEntity
  8
0
  6
Continuous
100
AcDbLine
 10
855.9000261791771
 20
-109.1937354885815
 30
0.0
 11
859.9000261791767
 21
-110.6937354885815
 31
0.0
  0
LINE
  5
1199
330
6B
100
AcDbEntity
  8
0
  6
Continuous
100
AcDbLine
 10
857.9000261791771
 20
-88.19373548858152
 30
0.0
 11
859.9000261791767
 21
-88.19373548858152
 31
0.0
  0
LINE
  5
119A
330
6B
100
AcDbEntity
  8
0
  6
Continuous
100
AcDbLine
 10
857.9000261791771
 20
-108.8937354885815
 30
0.0
 11
859.9000261791767
 21
-108.8937354885815
 31
0.0
  0
ARC
  5
119B
330
6B
100
AcDbEntity
  8
0
  6
Continuous
100
AcDbCircle
 10
861.9252133386396
 20
-98.56892264804443
 30
0.0
 40
8.978071096461173
100
AcDbArc
 50
116.6369354518707
 51
153.3630645481249
  0
ARC
  5
119C
330
6B
100
AcDbEntity
  8
0
  6
Continuous
100
AcDbCircle
 10
835.5167777404929
 20
-107.3381516348093
 30
0.0
 40
22.39734153155755
100
AcDbArc
 50
2.03266273933762
 51
4.044129277640087
  0
ARC
  5
119D
330
6B
100
AcDbEntity
  8
0
  6
Continuous
100
AcDbCircle
 10
835.5167777404929
 20
-107.3381516348093
 30
0.0
 40
22.39734153155755
100
AcDbArc
 50
7.924643940366604
 51
34.83723490650443
  0
LINE
  5
119E
330
6B
100
AcDbEntity
  8
0
  6
Continuous
 62
     3
100
AcDbLine
 10
837.6452379162724
 20
-213.0339625667498
 30
0.0
 11
917.6452379162723
 21
-213.0339625667498
 31
0.0
  0
LINE
  5
119F
330
6B
100
AcDbEntity
  8
0
  6
Continuous
 62
     3
100
AcDbLine
 10
888.1452379162723
 20
-203.0339625667498
 30
0.0
 11
900.1452379162724
 21
-203.0339625667498
 31
0.0
  0
LINE
  5
11A0
330
6B
100
AcDbEntity
  8
0
  6
Continuous
 62
     3
100
AcDbLine
 10
888.1452379162723
 20
-180.0339625667498
 30
0.0
 11
900.1452379162724
 21
-180.0339625667498
 31
0.0
  0
LINE
  5
11A1
330
6B
100
AcDbEntity
  8
0
  6
Continuous
100
AcDbLine
 10
892.4415654125324
 20
-177.9339625667498
 30
0.0
 11
893.7452379162722
 21
-177.9339625667498
 31
0.0
  0
LINE
  5
11A2
330
6B
100
AcDbEntity
  8
0
  6
Continuous
100
AcDbLine
 10
894.5452379162725
 20
-177.9339625667498
 30
0.0
 11
895.8489104200126
 21
-177.9339625667498
 31
0.0
  0
LINE
  5
11A3
330
6B
100
AcDbEntity
  8
0
  6
Continuous
100
AcDbLine
 10
892.4415654125324
 20
-177.1339625667498
 30
0.0
 11
893.7452379162722
 21
-177.1339625667498
 31
0.0
  0
LINE
  5
11A4
330
6B
100
AcDbEntity
  8
0
  6
Continuous
100
AcDbLine
 10
894.5452379162725
 20
-177.1339625667498
 30
0.0
 11
895.8489104200126
 21
-177.1339625667498
 31
0.0
  0
LINE
  5
11A5
330
6B
100
AcDbEntity
  8
0
  6
Continuous
 62
     3
100
AcDbLine
 10
925.6452379162723
 20
-194.0339625667498
 30
0.0
 11
922.6452379162724
 21
-194.0339625667498
 31
0.0
  0
LINE
  5
11A6
330
6B
100
AcDbEntity
  8
0
  6
Continuous
 62
     3
100
AcDbLine
 10
832.6452379162724
 20
-194.0339625667498
 30
0.0
 11
829.6452379162724
 21
-194.0339625667498
 31
0.0
  0
LINE
  5
11A7
330
6B
100
AcDbEntity
  8
0
  6
Continuous
 62
     3
100
AcDbLine
 10
925.6452379162723
 20
-185.5339625667498
 30
0.0
 11
922.6452379162724
 21
-185.5339625667498
 31
0.0
  0
LINE
  5
11A8
330
6B
100
AcDbEntity
  8
0
  6
Continuous
 62
     3
100
AcDbLine
 10
832.6452379162724
 20
-185.5339625667498
 30
0.0
 11
829.6452379162724
 21
-185.5339625667498
 31
0.0
  0
LINE
  5
11A9
330
6B
100
AcDbEntity
  8
0
  6
Continuous
 62
     3
100
AcDbLine
 10
894.1452379162724
 20
-165.4339625667498
 30
0.0
 11
890.045237916272
 21
-165.4339625667498
 31
0.0
  0
LINE
  5
11AA
330
6B
100
AcDbEntity
  8
0
  6
Continuous
 62
     3
100
AcDbLine
 10
887.2452379162721
 20
-165.4339625667498
 30
0.0
 11
861.1452379162724
 21
-165.4339625667498
 31
0.0
  0
LINE
  5
11AB
330
6B
100
AcDbEntity
  8
0
  6
Continuous
 62
     3
100
AcDbLine
 10
922.6452379162724
 20
-185.5339625667498
 30
0.0
 11
922.6452379162724
 21
-194.0339625667498
 31
0.0
  0
LINE
  5
11AC
330
6B
100
AcDbEntity
  8
0
  6
Continuous
 62
     3
100
AcDbLine
 10
832.6452379162724
 20
-194.0339625667498
 30
0.0
 11
832.6452379162724
 21
-185.5339625667498
 31
0.0
  0
LINE
  5
11AD
330
6B
100
AcDbEntity
  8
0
  6
Continuous
 62
     3
100
AcDbLine
 10
925.6452379162723
 20
-175.0485782103479
 30
0.0
 11
925.6452379162723
 21
-185.5339625667498
 31
0.0
  0
LINE
  5
11AE
330
6B
100
AcDbEntity
  8
0
  6
Continuous
 62
     3
100
AcDbLine
 10
925.6452379162723
 20
-194.0339625667498
 30
0.0
 11
925.6452379162723
 21
-205.0339625667498
 31
0.0
  0
LINE
  5
11AF
330
6B
100
AcDbEntity
  8
0
  6
Continuous
 62
     3
100
AcDbLine
 10
900.1452379162724
 20
-180.0339625667498
 30
0.0
 11
900.1452379162724
 21
-203.0339625667498
 31
0.0
  0
LINE
  5
11B0
330
6B
100
AcDbEntity
  8
0
  6
Continuous
100
AcDbLine
 10
893.7452379162722
 20
-175.8302900630098
 30
0.0
 11
893.7452379162722
 21
-177.1339625667498
 31
0.0
  0
LINE
  5
11B1
330
6B
100
AcDbEntity
  8
0
  6
Continuous
100
AcDbLine
 10
893.7452379162722
 20
-177.9339625667498
 30
0.0
 11
893.7452379162722
 21
-179.2376350704899
 31
0.0
  0
LINE
  5
11B2
330
6B
100
AcDbEntity
  8
0
  6
Continuous
100
AcDbLine
 10
894.5452379162725
 20
-175.8302900630097
 30
0.0
 11
894.5452379162725
 21
-177.1339625667498
 31
0.0
  0
LINE
  5
11B3
330
6B
100
AcDbEntity
  8
0
  6
Continuous
100
AcDbLine
 10
894.5452379162725
 20
-177.9339625667498
 30
0.0
 11
894.5452379162725
 21
-179.2376350704899
 31
0.0
  0
LINE
  5
11B4
330
6B
100
AcDbEntity
  8
0
  6
Continuous
 62
     3
100
AcDbLine
 10
889.6452379162724
 20
-178.0339625667499
 30
0.0
 11
889.6452379162724
 21
-180.0339625667498
 31
0.0
  0
LINE
  5
11B5
330
6B
100
AcDbEntity
  8
0
  6
Continuous
 62
     3
100
AcDbLine
 10
889.6452379162726
 20
-203.0339625667498
 30
0.0
 11
889.6452379162726
 21
-205.0339625667497
 31
0.0
  0
LINE
  5
11B6
330
6B
100
AcDbEntity
  8
0
  6
Continuous
 62
     3
100
AcDbLine
 10
898.6452379162724
 20
-178.0339625667499
 30
0.0
 11
898.6452379162724
 21
-180.0339625667498
 31
0.0
  0
LINE
  5
11B7
330
6B
100
AcDbEntity
  8
0
  6
Continuous
 62
     3
100
AcDbLine
 10
898.6452379162724
 20
-203.0339625667498
 30
0.0
 11
898.6452379162725
 21
-205.0339625667497
 31
0.0
  0
LINE
  5
11B8
330
6B
100
AcDbEntity
  8
0
  6
Continuous
 62
     3
100
AcDbLine
 10
890.1452379162726
 20
-184.0339625667498
 30
0.0
 11
890.1452379162725
 21
-199.0339625667499
 31
0.0
  0
LINE
  5
11B9
330
6B
100
AcDbEntity
  8
0
  6
Continuous
 62
     3
100
AcDbLine
 10
898.1452379162725
 20
-184.0339625667498
 30
0.0
 11
898.1452379162725
 21
-199.0339625667499
 31
0.0
  0
LINE
  5
11BA
330
6B
100
AcDbEntity
  8
0
  6
Continuous
 62
     3
100
AcDbLine
 10
888.1452379162723
 20
-180.0339625667498
 30
0.0
 11
888.1452379162723
 21
-203.0339625667498
 31
0.0
  0
LINE
  5
11BB
330
6B
100
AcDbEntity
  8
0
  6
Continuous
 62
     3
100
AcDbLine
 10
829.6452379162724
 20
-175.0485782103479
 30
0.0
 11
829.6452379162724
 21
-185.5339625667498
 31
0.0
  0
LINE
  5
11BC
330
6B
100
AcDbEntity
  8
0
  6
Continuous
 62
     3
100
AcDbLine
 10
829.6452379162724
 20
-194.0339625667498
 30
0.0
 11
829.6452379162724
 21
-205.0339625667498
 31
0.0
  0
LINE
  5
11BD
330
6B
100
AcDbEntity
  8
0
  6
Continuous
 62
     3
100
AcDbLine
 10
894.1452379162724
 20
-165.4339625667498
 30
0.0
 11
894.1452379162724
 21
-165.0339625667498
 31
0.0
  0
LINE
  5
11BE
330
6B
100
AcDbEntity
  8
0
  6
Continuous
 62
     3
100
AcDbLine
 10
861.1452379162724
 20
-165.0339625667498
 30
0.0
 11
861.1452379162724
 21
-165.4339625667498
 31
0.0
  0
ARC
  5
11BF
330
6B
100
AcDbEntity
  8
0
  6
Continuous
 62
     3
100
AcDbCircle
 10
877.6452379162725
 20
-505.158962566748
 30
0.0
 40
340.5249853167882
100
AcDbArc
 50
94.93555193501284
 51
96.90893844082811
  0
ARC
  5
11C0
330
6B
100
AcDbEntity
  8
0
  6
Continuous
 62
     3
100
AcDbCircle
 10
877.6452379162725
 20
-505.158962566748
 30
0.0
 40
340.5249853167882
100
AcDbArc
 50
94.35325927087154
 51
94.80094616973042
  0
ARC
  5
11C1
330
6B
100
AcDbEntity
  8
0
  6
Continuous
 62
     3
100
AcDbCircle
 10
877.6452379162725
 20
-505.158962566748
 30
0.0
 40
340.5249853167882
100
AcDbArc
 50
93.92315280744703
 51
94.2186535055948
  0
ARC
  5
11C2
330
6B
100
AcDbEntity
  8
0
  6
Continuous
 62
     3
100
AcDbCircle
 10
877.6452379162725
 20
-505.158962566748
 30
0.0
 40
340.5249853167882
100
AcDbArc
 50
92.77733126493656
 51
93.78854704216569
  0
ARC
  5
11C3
330
6B
100
AcDbEntity
  8
0
  6
Continuous
 62
     3
100
AcDbCircle
 10
877.6452379162725
 20
-505.158962566748
 30
0.0
 40
340.5249853167882
100
AcDbArc
 50
86.2114529578343
 51
87.22266873506343
  0
ARC
  5
11C4
330
6B
100
AcDbEntity
  8
0
  6
Continuous
 62
     3
100
AcDbCircle
 10
877.6452379162725
 20
-505.158962566748
 30
0.0
 40
340.5249853167882
100
AcDbArc
 50
85.78134649440519
 51
86.07684719255296
  0
ARC
  5
11C5
330
6B
100
AcDbEntity
  8
0
  6
Continuous
 62
     3
100
AcDbCircle
 10
877.6452379162725
 20
-505.158962566748
 30
0.0
 40
340.5249853167882
100
AcDbArc
 50
85.19905383026957
 51
85.64674072912847
  0
ARC
  5
11C6
330
6B
100
AcDbEntity
  8
0
  6
Continuous
 62
     3
100
AcDbCircle
 10
877.6452379162725
 20
-505.158962566748
 30
0.0
 40
340.5249853167882
100
AcDbArc
 50
83.0910615591719
 51
85.06444806498715
  0
CIRCLE
  5
11C7
330
6B
100
AcDbEntity
  8
0
  6
Continuous
100
AcDbCircle
 10
836.1452379162724
 20
-172.0339625667498
 30
0.0
 40
2.75
  0
ARC
  5
11C8
330
6B
100
AcDbEntity
  8
0
  6
Continuous
 62
     3
100
AcDbCircle
 10
837.6452379162724
 20
-175.048578210348
 30
0.0
 40
8.0
100
AcDbArc
 50
96.90893844082811
 51
180.0
  0
ARC
  5
11C9
330
6B
100
AcDbEntity
  8
0
  6
Continuous
 62
     3
100
AcDbCircle
 10
917.6452379162723
 20
-175.048578210348
 30
0.0
 40
8.0
100
AcDbArc
 50
0.0
 51
83.0910615591719
  0
ARC
  5
11CA
330
6B
100
AcDbEntity
  8
0
  6
Continuous
 62
     3
100
AcDbCircle
 10
854.7461276296855
 20
-165.404792065367
 30
0.0
 40
0.4
100
AcDbArc
 50
183.8895013661277
 51
3.822198483487352
  0
ARC
  5
11CB
330
6B
100
AcDbEntity
  8
0
  6
Continuous
 62
     3
100
AcDbCircle
 10
852.1963390350766
 20
-165.5862617047184
 30
0.0
 40
0.4
100
AcDbArc
 50
184.3196078295536
 51
4.25230494691615
  0
ARC
  5
11CC
330
6B
100
AcDbEntity
  8
0
  6
Continuous
 62
     3
100
AcDbCircle
 10
848.7466610565265
 20
-165.8624287199076
 30
0.0
 40
0.4
100
AcDbArc
 50
184.9019004936909
 51
4.834597611054372
  0
ARC
  5
11CD
330
6B
100
AcDbEntity
  8
0
  6
Continuous
 62
     3
100
AcDbCircle
 10
900.5443482028594
 20
-165.404792065367
 30
0.0
 40
0.4
100
AcDbArc
 50
176.1778015165126
 51
356.1104986338723
  0
ARC
  5
11CE
330
6B
100
AcDbEntity
  8
0
  6
Continuous
 62
     3
100
AcDbCircle
 10
903.0941367974676
 20
-165.5862617047184
 30
0.0
 40
0.4
100
AcDbArc
 50
175.7476950530871
 51
355.6803921704431
  0
ARC
  5
11CF
330
6B
100
AcDbEntity
  8
0
  6
Continuous
 62
     3
100
AcDbCircle
 10
906.5438147760175
 20
-165.8624287199076
 30
0.0
 40
0.4
100
AcDbArc
 50
175.1654023889489
 51
355.0980995063091
  0
CIRCLE
  5
11D0
330
6B
100
AcDbEntity
  8
0
  6
Continuous
100
AcDbCircle
 10
919.1452379162724
 20
-172.0339625667498
 30
0.0
 40
2.75
  0
CIRCLE
  5
11D1
330
6B
100
AcDbEntity
  8
0
  6
Continuous
100
AcDbCircle
 10
921.1452379162723
 20
-202.0339625667499
 30
0.0
 40
2.75
  0
CIRCLE
  5
11D2
330
6B
100
AcDbEntity
  8
0
  6
Continuous
100
AcDbCircle
 10
834.1452379162724
 20
-202.0339625667499
 30
0.0
 40
2.75
  0
ARC
  5
11D3
330
6B
100
AcDbEntity
  8
0
  6
Continuous
 62
     3
100
AcDbCircle
 10
837.6452379162724
 20
-205.0339625667499
 30
0.0
 40
8.0
100
AcDbArc
 50
180.0
 51
270.0
  0
ARC
  5
11D4
330
6B
100
AcDbEntity
  8
0
  6
Continuous
 62
     3
100
AcDbCircle
 10
917.6452379162723
 20
-205.0339625667499
 30
0.0
 40
8.0
100
AcDbArc
 50
270.0
 51
0.0
  0
LINE
  5
11D5
330
6B
100
AcDbEntity
  8
0
  6
Continuous
100
AcDbLine
 10
837.5594514786454
 20
-172.5339625667498
 30
0.0
 11
836.6452379162724
 21
-172.5339625667498
 31
0.0
  0
LINE
  5
11D6
330
6B
100
AcDbEntity
  8
0
  6
Continuous
100
AcDbLine
 10
835.6452379162725
 20
-172.5339625667498
 30
0.0
 11
834.7310243538995
 21
-172.5339625667498
 31
0.0
  0
LINE
  5
11D7
330
6B
100
AcDbEntity
  8
0
  6
Continuous
100
AcDbLine
 10
837.5594514786454
 20
-171.5339625667498
 30
0.0
 11
836.6452379162724
 21
-171.5339625667498
 31
0.0
  0
LINE
  5
11D8
330
6B
100
AcDbEntity
  8
0
  6
Continuous
100
AcDbLine
 10
835.6452379162725
 20
-171.5339625667498
 30
0.0
 11
834.7310243538995
 21
-171.5339625667498
 31
0.0
  0
LINE
  5
11D9
330
6B
100
AcDbEntity
  8
0
  6
Continuous
100
AcDbLine
 10
836.6452379162724
 20
-170.6197490043767
 30
0.0
 11
836.6452379162724
 21
-171.5339625667498
 31
0.0
  0
LINE
  5
11DA
330
6B
100
AcDbEntity
  8
0
  6
Continuous
100
AcDbLine
 10
836.6452379162724
 20
-172.5339625667498
 30
0.0
 11
836.6452379162724
 21
-173.4481761291229
 31
0.0
  0
LINE
  5
11DB
330
6B
100
AcDbEntity
  8
0
  6
Continuous
100
AcDbLine
 10
835.6452379162725
 20
-173.4481761291229
 30
0.0
 11
835.6452379162725
 21
-172.5339625667498
 31
0.0
  0
LINE
  5
11DC
330
6B
100
AcDbEntity
  8
0
  6
Continuous
100
AcDbLine
 10
835.6452379162725
 20
-171.5339625667498
 30
0.0
 11
835.6452379162725
 21
-170.6197490043767
 31
0.0
  0
ARC
  5
11DD
330
6B
100
AcDbEntity
  8
0
  6
Continuous
100
AcDbCircle
 10
836.1452379162724
 20
-172.0339625667498
 30
0.0
 40
1.5
100
AcDbArc
 50
340.5287793655112
 51
19.4712206344888
  0
ARC
  5
11DE
330
6B
100
AcDbEntity
  8
0
  6
Continuous
100
AcDbCircle
 10
836.1452379162724
 20
-172.0339625667498
 30
0.0
 40
1.5
100
AcDbArc
 50
250.5287793655142
 51
289.4712206344857
  0
ARC
  5
11DF
330
6B
100
AcDbEntity
  8
0
  6
Continuous
100
AcDbCircle
 10
836.1452379162724
 20
-172.0339625667498
 30
0.0
 40
1.5
100
AcDbArc
 50
160.5287793655112
 51
199.4712206344888
  0
ARC
  5
11E0
330
6B
100
AcDbEntity
  8
0
  6
Continuous
100
AcDbCircle
 10
836.1452379162724
 20
-172.0339625667498
 30
0.0
 40
1.5
100
AcDbArc
 50
70.52877936551428
 51
109.4712206344857
  0
LINE
  5
11E1
330
6B
100
AcDbEntity
  8
0
  6
Continuous
100
AcDbLine
 10
920.5594514786454
 20
-172.5339625667498
 30
0.0
 11
919.6452379162725
 21
-172.5339625667498
 31
0.0
  0
LINE
  5
11E2
330
6B
100
AcDbEntity
  8
0
  6
Continuous
100
AcDbLine
 10
918.6452379162725
 20
-172.5339625667498
 30
0.0
 11
917.7310243538995
 21
-172.5339625667498
 31
0.0
  0
LINE
  5
11E3
330
6B
100
AcDbEntity
  8
0
  6
Continuous
100
AcDbLine
 10
920.5594514786454
 20
-171.5339625667498
 30
0.0
 11
919.6452379162725
 21
-171.5339625667498
 31
0.0
  0
LINE
  5
11E4
330
6B
100
AcDbEntity
  8
0
  6
Continuous
100
AcDbLine
 10
918.6452379162725
 20
-171.5339625667498
 30
0.0
 11
917.7310243538995
 21
-171.5339625667498
 31
0.0
  0
LINE
  5
11E5
330
6B
100
AcDbEntity
  8
0
  6
Continuous
100
AcDbLine
 10
919.6452379162725
 20
-170.6197490043767
 30
0.0
 11
919.6452379162725
 21
-171.5339625667498
 31
0.0
  0
LINE
  5
11E6
330
6B
100
AcDbEntity
  8
0
  6
Continuous
100
AcDbLine
 10
919.6452379162725
 20
-172.5339625667498
 30
0.0
 11
919.6452379162725
 21
-173.4481761291229
 31
0.0
  0
LINE
  5
11E7
330
6B
100
AcDbEntity
  8
0
  6
Continuous
100
AcDbLine
 10
918.6452379162725
 20
-173.4481761291229
 30
0.0
 11
918.6452379162725
 21
-172.5339625667498
 31
0.0
  0
LINE
  5
11E8
330
6B
100
AcDbEntity
  8
0
  6
Continuous
100
AcDbLine
 10
918.6452379162725
 20
-171.5339625667498
 30
0.0
 11
918.6452379162725
 21
-170.6197490043767
 31
0.0
  0
ARC
  5
11E9
330
6B
100
AcDbEntity
  8
0
  6
Continuous
100
AcDbCircle
 10
919.1452379162724
 20
-172.0339625667498
 30
0.0
 40
1.5
100
AcDbArc
 50
340.5287793655112
 51
19.4712206344888
  0
ARC
  5
11EA
330
6B
100
AcDbEntity
  8
0
  6
Continuous
100
AcDbCircle
 10
919.1452379162724
 20
-172.0339625667498
 30
0.0
 40
1.5
100
AcDbArc
 50
250.5287793655142
 51
289.4712206344857
  0
ARC
  5
11EB
330
6B
100
AcDbEntity
  8
0
  6
Continuous
100
AcDbCircle
 10
919.1452379162724
 20
-172.0339625667498
 30
0.0
 40
1.5
100
AcDbArc
 50
160.5287793655112
 51
199.4712206344888
  0
ARC
  5
11EC
330
6B
100
AcDbEntity
  8
0
  6
Continuous
100
AcDbCircle
 10
919.1452379162724
 20
-172.0339625667498
 30
0.0
 40
1.5
100
AcDbArc
 50
70.52877936551428
 51
109.4712206344857
  0
LINE
  5
11ED
330
6B
100
AcDbEntity
  8
0
  6
Continuous
100
AcDbLine
 10
922.5594514786456
 20
-202.5339625667498
 30
0.0
 11
921.6452379162724
 21
-202.5339625667498
 31
0.0
  0
LINE
  5
11EE
330
6B
100
AcDbEntity
  8
0
  6
Continuous
100
AcDbLine
 10
920.6452379162724
 20
-202.5339625667498
 30
0.0
 11
919.7310243538995
 21
-202.5339625667498
 31
0.0
  0
LINE
  5
11EF
330
6B
100
AcDbEntity
  8
0
  6
Continuous
100
AcDbLine
 10
922.5594514786456
 20
-201.5339625667498
 30
0.0
 11
921.6452379162724
 21
-201.5339625667498
 31
0.0
  0
LINE
  5
11F0
330
6B
100
AcDbEntity
  8
0
  6
Continuous
100
AcDbLine
 10
920.6452379162724
 20
-201.5339625667498
 30
0.0
 11
919.7310243538995
 21
-201.5339625667498
 31
0.0
  0
LINE
  5
11F1
330
6B
100
AcDbEntity
  8
0
  6
Continuous
100
AcDbLine
 10
921.6452379162724
 20
-200.6197490043767
 30
0.0
 11
921.6452379162724
 21
-201.5339625667498
 31
0.0
  0
LINE
  5
11F2
330
6B
100
AcDbEntity
  8
0
  6
Continuous
100
AcDbLine
 10
921.6452379162724
 20
-202.5339625667498
 30
0.0
 11
921.6452379162724
 21
-203.4481761291229
 31
0.0
  0
LINE
  5
11F3
330
6B
100
AcDbEntity
  8
0
  6
Continuous
100
AcDbLine
 10
920.6452379162724
 20
-203.4481761291229
 30
0.0
 11
920.6452379162724
 21
-202.5339625667498
 31
0.0
  0
LINE
  5
11F4
330
6B
100
AcDbEntity
  8
0
  6
Continuous
100
AcDbLine
 10
920.6452379162724
 20
-201.5339625667498
 30
0.0
 11
920.6452379162724
 21
-200.6197490043767
 31
0.0
  0
ARC
  5
11F5
330
6B
100
AcDbEntity
  8
0
  6
Continuous
100
AcDbCircle
 10
921.1452379162723
 20
-202.0339625667499
 30
0.0
 40
1.5
100
AcDbArc
 50
340.5287793655112
 51
19.4712206344888
  0
ARC
  5
11F6
330
6B
100
AcDbEntity
  8
0
  6
Continuous
100
AcDbCircle
 10
921.1452379162723
 20
-202.0339625667499
 30
0.0
 40
1.5
100
AcDbArc
 50
250.5287793655142
 51
289.4712206344857
  0
ARC
  5
11F7
330
6B
100
AcDbEntity
  8
0
  6
Continuous
100
AcDbCircle
 10
921.1452379162723
 20
-202.0339625667499
 30
0.0
 40
1.5
100
AcDbArc
 50
160.5287793655112
 51
199.4712206344888
  0
ARC
  5
11F8
330
6B
100
AcDbEntity
  8
0
  6
Continuous
100
AcDbCircle
 10
921.1452379162723
 20
-202.0339625667499
 30
0.0
 40
1.5
100
AcDbArc
 50
70.52877936551428
 51
109.4712206344857
  0
LINE
  5
11F9
330
6B
100
AcDbEntity
  8
0
  6
Continuous
100
AcDbLine
 10
835.5594514786455
 20
-202.5339625667498
 30
0.0
 11
834.6452379162723
 21
-202.5339625667498
 31
0.0
  0
LINE
  5
11FA
330
6B
100
AcDbEntity
  8
0
  6
Continuous
100
AcDbLine
 10
833.6452379162723
 20
-202.5339625667498
 30
0.0
 11
832.7310243538995
 21
-202.5339625667498
 31
0.0
  0
LINE
  5
11FB
330
6B
100
AcDbEntity
  8
0
  6
Continuous
100
AcDbLine
 10
835.5594514786455
 20
-201.5339625667498
 30
0.0
 11
834.6452379162723
 21
-201.5339625667498
 31
0.0
  0
LINE
  5
11FC
330
6B
100
AcDbEntity
  8
0
  6
Continuous
100
AcDbLine
 10
833.6452379162723
 20
-201.5339625667498
 30
0.0
 11
832.7310243538995
 21
-201.5339625667498
 31
0.0
  0
LINE
  5
11FD
330
6B
100
AcDbEntity
  8
0
  6
Continuous
100
AcDbLine
 10
834.6452379162723
 20
-200.6197490043767
 30
0.0
 11
834.6452379162723
 21
-201.5339625667498
 31
0.0
  0
LINE
  5
11FE
330
6B
100
AcDbEntity
  8
0
  6
Continuous
100
AcDbLine
 10
834.6452379162723
 20
-202.5339625667498
 30
0.0
 11
834.6452379162723
 21
-203.4481761291229
 31
0.0
  0
LINE
  5
11FF
330
6B
100
AcDbEntity
  8
0
  6
Continuous
100
AcDbLine
 10
833.6452379162723
 20
-203.4481761291229
 30
0.0
 11
833.6452379162723
 21
-202.5339625667498
 31
0.0
  0
LINE
  5
1200
330
6B
100
AcDbEntity
  8
0
  6
Continuous
100
AcDbLine
 10
833.6452379162723
 20
-201.5339625667498
 30
0.0
 11
833.6452379162723
 21
-200.6197490043767
 31
0.0
  0
ARC
  5
1201
330
6B
100
AcDbEntity
  8
0
  6
Continuous
100
AcDbCircle
 10
834.1452379162724
 20
-202.0339625667499
 30
0.0
 40
1.5
100
AcDbArc
 50
340.5287793655112
 51
19.4712206344888
  0
ARC
  5
1202
330
6B
100
AcDbEntity
  8
0
  6
Continuous
100
AcDbCircle
 10
834.1452379162724
 20
-202.0339625667499
 30
0.0
 40
1.5
100
AcDbArc
 50
250.5287793655142
 51
289.4712206344857
  0
ARC
  5
1203
330
6B
100
AcDbEntity
  8
0
  6
Continuous
100
AcDbCircle
 10
834.1452379162724
 20
-202.0339625667499
 30
0.0
 40
1.5
100
AcDbArc
 50
160.5287793655112
 51
199.4712206344888
  0
ARC
  5
1204
330
6B
100
AcDbEntity
  8
0
  6
Continuous
100
AcDbCircle
 10
834.1452379162724
 20
-202.0339625667499
 30
0.0
 40
1.5
100
AcDbArc
 50
70.52877936551428
 51
109.4712206344857
  0
ARC
  5
1205
330
6B
100
AcDbEntity
  8
0
  6
Continuous
 62
     3
100
AcDbCircle
 10
864.6452379162724
 20
-189.5339625667498
 30
0.0
 40
19.0
100
AcDbArc
 50
336.0423284190519
 51
83.95767158094248
  0
ARC
  5
1206
330
6B
100
AcDbEntity
  8
0
  6
Continuous
 62
     3
100
AcDbCircle
 10
864.6452379162724
 20
-189.5339625667498
 30
0.0
 40
19.0
100
AcDbArc
 50
96.04232841905105
 51
203.9576715809482
  0
ARC
  5
1207
330
6B
100
AcDbEntity
  8
0
  6
Continuous
 62
     3
100
AcDbCircle
 10
864.6452379162724
 20
-189.5339625667498
 30
0.0
 40
19.0
100
AcDbArc
 50
216.0423284190526
 51
323.9576715809473
  0
ARC
  5
1208
330
6B
100
AcDbEntity
  8
0
  6
Continuous
 62
     3
100
AcDbCircle
 10
864.6452379162724
 20
-189.5339625667498
 30
0.0
 40
12.75
100
AcDbArc
 50
339.0248453709718
 51
80.97515462902947
  0
ARC
  5
1209
330
6B
100
AcDbEntity
  8
0
  6
Continuous
 62
     3
100
AcDbCircle
 10
864.6452379162724
 20
-189.5339625667498
 30
0.0
 40
12.75
100
AcDbArc
 50
99.02484537097052
 51
200.9751546290282
  0
ARC
  5
120A
330
6B
100
AcDbEntity
  8
0
  6
Continuous
 62
     3
100
AcDbCircle
 10
864.6452379162724
 20
-189.5339625667498
 30
0.0
 40
12.75
100
AcDbArc
 50
219.0248453709712
 51
320.9751546290288
  0
LINE
  5
120B
330
6B
100
AcDbEntity
  8
0
 62
     3
100
AcDbLine
 10
862.6452379162724
 20
-176.9418023072868
 30
0.0
 11
862.6452379162724
 21
-170.6395189390586
 31
0.0
  0
LINE
  5
120C
330
6B
100
AcDbEntity
  8
0
 62
     3
100
AcDbLine
 10
866.6452379162723
 20
-176.9418023072868
 30
0.0
 11
866.6452379162723
 21
-170.6395189390586
 31
0.0
  0
LINE
  5
120D
330
6B
100
AcDbEntity
  8
0
  6
CENTER
 62
     7
100
AcDbLine
 10
848.1452379162725
 20
-175.7277036635979
 30
0.0
 11
848.1452379162725
 21
-174.0339625667498
 31
0.0
  0
LINE
  5
120E
330
6B
100
AcDbEntity
  8
0
  6
CENTER
 62
     7
100
AcDbLine
 10
848.1452379162725
 20
-173.0339625667498
 30
0.0
 11
848.1452379162725
 21
-171.3402214699018
 31
0.0
  0
LINE
  5
120F
330
6B
100
AcDbEntity
  8
0
  6
CENTER
 62
     7
100
AcDbLine
 10
849.1452379162724
 20
-175.7277036635979
 30
0.0
 11
849.1452379162724
 21
-174.0339625667498
 31
0.0
  0
LINE
  5
1210
330
6B
100
AcDbEntity
  8
0
  6
CENTER
 62
     7
100
AcDbLine
 10
849.1452379162724
 20
-173.0339625667498
 30
0.0
 11
849.1452379162724
 21
-171.3402214699018
 31
0.0
  0
LINE
  5
1211
330
6B
100
AcDbEntity
  8
0
  6
CENTER
 62
     7
100
AcDbLine
 10
846.4514968194244
 20
-174.0339625667498
 30
0.0
 11
848.1452379162725
 21
-174.0339625667498
 31
0.0
  0
LINE
  5
1212
330
6B
100
AcDbEntity
  8
0
  6
CENTER
 62
     7
100
AcDbLine
 10
849.1452379162724
 20
-174.0339625667498
 30
0.0
 11
850.8389790131204
 21
-174.0339625667498
 31
0.0
  0
LINE
  5
1213
330
6B
100
AcDbEntity
  8
0
  6
CENTER
 62
     7
100
AcDbLine
 10
846.4514968194244
 20
-173.0339625667498
 30
0.0
 11
848.1452379162725
 21
-173.0339625667498
 31
0.0
  0
LINE
  5
1214
330
6B
100
AcDbEntity
  8
0
  6
CENTER
 62
     7
100
AcDbLine
 10
849.1452379162724
 20
-173.0339625667498
 30
0.0
 11
850.8389790131204
 21
-173.0339625667498
 31
0.0
  0
CIRCLE
  5
1215
330
6B
100
AcDbEntity
  8
0
  6
Continuous
100
AcDbCircle
 10
848.6452379162724
 20
-173.5339625667498
 30
0.0
 40
3.5
  0
ARC
  5
1216
330
6B
100
AcDbEntity
  8
0
  6
Continuous
100
AcDbCircle
 10
848.6452379162724
 20
-173.5339625667498
 30
0.0
 40
2.25
100
AcDbArc
 50
257.1604115930987
 51
282.8395884069013
  0
ARC
  5
1217
330
6B
100
AcDbEntity
  8
0
  6
Continuous
100
AcDbCircle
 10
848.6452379162724
 20
-173.5339625667498
 30
0.0
 40
2.25
100
AcDbArc
 50
347.1604115930956
 51
12.83958840690443
  0
ARC
  5
1218
330
6B
100
AcDbEntity
  8
0
  6
Continuous
100
AcDbCircle
 10
848.6452379162724
 20
-173.5339625667498
 30
0.0
 40
2.25
100
AcDbArc
 50
77.16041159309874
 51
102.8395884069012
  0
ARC
  5
1219
330
6B
100
AcDbEntity
  8
0
  6
Continuous
100
AcDbCircle
 10
848.6452379162724
 20
-173.5339625667498
 30
0.0
 40
2.25
100
AcDbArc
 50
167.1604115930955
 51
192.8395884069044
  0
LINE
  5
121A
330
6B
100
AcDbEntity
  8
0
  6
CENTER
 62
     7
100
AcDbLine
 10
880.1452379162723
 20
-175.7277036635979
 30
0.0
 11
880.1452379162723
 21
-174.0339625667498
 31
0.0
  0
LINE
  5
121B
330
6B
100
AcDbEntity
  8
0
  6
CENTER
 62
     7
100
AcDbLine
 10
880.1452379162723
 20
-173.0339625667498
 30
0.0
 11
880.1452379162723
 21
-171.3402214699018
 31
0.0
  0
LINE
  5
121C
330
6B
100
AcDbEntity
  8
0
  6
CENTER
 62
     7
100
AcDbLine
 10
881.1452379162725
 20
-175.7277036635979
 30
0.0
 11
881.1452379162725
 21
-174.0339625667498
 31
0.0
  0
LINE
  5
121D
330
6B
100
AcDbEntity
  8
0
  6
CENTER
 62
     7
100
AcDbLine
 10
881.1452379162725
 20
-173.0339625667498
 30
0.0
 11
881.1452379162725
 21
-171.3402214699018
 31
0.0
  0
LINE
  5
121E
330
6B
100
AcDbEntity
  8
0
  6
CENTER
 62
     7
100
AcDbLine
 10
878.4514968194244
 20
-174.0339625667498
 30
0.0
 11
880.1452379162723
 21
-174.0339625667498
 31
0.0
  0
LINE
  5
121F
330
6B
100
AcDbEntity
  8
0
  6
CENTER
 62
     7
100
AcDbLine
 10
881.1452379162725
 20
-174.0339625667498
 30
0.0
 11
882.8389790131204
 21
-174.0339625667498
 31
0.0
  0
LINE
  5
1220
330
6B
100
AcDbEntity
  8
0
  6
CENTER
 62
     7
100
AcDbLine
 10
878.4514968194244
 20
-173.0339625667498
 30
0.0
 11
880.1452379162723
 21
-173.0339625667498
 31
0.0
  0
LINE
  5
1221
330
6B
100
AcDbEntity
  8
0
  6
CENTER
 62
     7
100
AcDbLine
 10
881.1452379162725
 20
-173.0339625667498
 30
0.0
 11
882.8389790131204
 21
-173.0339625667498
 31
0.0
  0
CIRCLE
  5
1222
330
6B
100
AcDbEntity
  8
0
  6
Continuous
100
AcDbCircle
 10
880.6452379162724
 20
-173.5339625667498
 30
0.0
 40
3.5
  0
ARC
  5
1223
330
6B
100
AcDbEntity
  8
0
  6
Continuous
100
AcDbCircle
 10
880.6452379162724
 20
-173.5339625667498
 30
0.0
 40
2.25
100
AcDbArc
 50
257.1604115930987
 51
282.8395884069013
  0
ARC
  5
1224
330
6B
100
AcDbEntity
  8
0
  6
Continuous
100
AcDbCircle
 10
880.6452379162724
 20
-173.5339625667498
 30
0.0
 40
2.25
100
AcDbArc
 50
347.1604115930956
 51
12.83958840690443
  0
ARC
  5
1225
330
6B
100
AcDbEntity
  8
0
  6
Continuous
100
AcDbCircle
 10
880.6452379162724
 20
-173.5339625667498
 30
0.0
 40
2.25
100
AcDbArc
 50
77.16041159309874
 51
102.8395884069012
  0
ARC
  5
1226
330
6B
100
AcDbEntity
  8
0
  6
Continuous
100
AcDbCircle
 10
880.6452379162724
 20
-173.5339625667498
 30
0.0
 40
2.25
100
AcDbArc
 50
167.1604115930955
 51
192.8395884069044
  0
LINE
  5
1227
330
6B
100
AcDbEntity
  8
0
  6
CENTER
 62
     7
100
AcDbLine
 10
848.1452379162725
 20
-207.7277036635979
 30
0.0
 11
848.1452379162725
 21
-206.0339625667498
 31
0.0
  0
LINE
  5
1228
330
6B
100
AcDbEntity
  8
0
  6
CENTER
 62
     7
100
AcDbLine
 10
848.1452379162725
 20
-205.0339625667498
 30
0.0
 11
848.1452379162725
 21
-203.3402214699018
 31
0.0
  0
LINE
  5
1229
330
6B
100
AcDbEntity
  8
0
  6
CENTER
 62
     7
100
AcDbLine
 10
849.1452379162724
 20
-207.7277036635979
 30
0.0
 11
849.1452379162724
 21
-206.0339625667498
 31
0.0
  0
LINE
  5
122A
330
6B
100
AcDbEntity
  8
0
  6
CENTER
 62
     7
100
AcDbLine
 10
849.1452379162724
 20
-205.0339625667498
 30
0.0
 11
849.1452379162724
 21
-203.3402214699018
 31
0.0
  0
LINE
  5
122B
330
6B
100
AcDbEntity
  8
0
  6
CENTER
 62
     7
100
AcDbLine
 10
846.4514968194244
 20
-206.0339625667498
 30
0.0
 11
848.1452379162725
 21
-206.0339625667498
 31
0.0
  0
LINE
  5
122C
330
6B
100
AcDbEntity
  8
0
  6
CENTER
 62
     7
100
AcDbLine
 10
849.1452379162724
 20
-206.0339625667498
 30
0.0
 11
850.8389790131204
 21
-206.0339625667498
 31
0.0
  0
LINE
  5
122D
330
6B
100
AcDbEntity
  8
0
  6
CENTER
 62
     7
100
AcDbLine
 10
846.4514968194244
 20
-205.0339625667498
 30
0.0
 11
848.1452379162725
 21
-205.0339625667498
 31
0.0
  0
LINE
  5
122E
330
6B
100
AcDbEntity
  8
0
  6
CENTER
 62
     7
100
AcDbLine
 10
849.1452379162724
 20
-205.0339625667498
 30
0.0
 11
850.8389790131204
 21
-205.0339625667498
 31
0.0
  0
CIRCLE
  5
122F
330
6B
100
AcDbEntity
  8
0
  6
Continuous
100
AcDbCircle
 10
848.6452379162724
 20
-205.5339625667498
 30
0.0
 40
3.5
  0
ARC
  5
1230
330
6B
100
AcDbEntity
  8
0
  6
Continuous
100
AcDbCircle
 10
848.6452379162724
 20
-205.5339625667498
 30
0.0
 40
2.25
100
AcDbArc
 50
257.1604115930987
 51
282.8395884069013
  0
ARC
  5
1231
330
6B
100
AcDbEntity
  8
0
  6
Continuous
100
AcDbCircle
 10
848.6452379162724
 20
-205.5339625667498
 30
0.0
 40
2.25
100
AcDbArc
 50
347.1604115930956
 51
12.83958840690443
  0
ARC
  5
1232
330
6B
100
AcDbEntity
  8
0
  6
Continuous
100
AcDbCircle
 10
848.6452379162724
 20
-205.5339625667498
 30
0.0
 40
2.25
100
AcDbArc
 50
77.16041159309874
 51
102.8395884069012
  0
ARC
  5
1233
330
6B
100
AcDbEntity
  8
0
  6
Continuous
100
AcDbCircle
 10
848.6452379162724
 20
-205.5339625667498
 30
0.0
 40
2.25
100
AcDbArc
 50
167.1604115930955
 51
192.8395884069044
  0
LINE
  5
1234
330
6B
100
AcDbEntity
  8
0
  6
CENTER
 62
     7
100
AcDbLine
 10
880.1452379162723
 20
-207.7277036635979
 30
0.0
 11
880.1452379162723
 21
-206.0339625667498
 31
0.0
  0
LINE
  5
1235
330
6B
100
AcDbEntity
  8
0
  6
CENTER
 62
     7
100
AcDbLine
 10
880.1452379162723
 20
-205.0339625667498
 30
0.0
 11
880.1452379162723
 21
-203.3402214699018
 31
0.0
  0
LINE
  5
1236
330
6B
100
AcDbEntity
  8
0
  6
CENTER
 62
     7
100
AcDbLine
 10
881.1452379162725
 20
-207.7277036635979
 30
0.0
 11
881.1452379162725
 21
-206.0339625667498
 31
0.0
  0
LINE
  5
1237
330
6B
100
AcDbEntity
  8
0
  6
CENTER
 62
     7
100
AcDbLine
 10
881.1452379162725
 20
-205.0339625667498
 30
0.0
 11
881.1452379162725
 21
-203.3402214699018
 31
0.0
  0
LINE
  5
1238
330
6B
100
AcDbEntity
  8
0
  6
CENTER
 62
     7
100
AcDbLine
 10
878.4514968194244
 20
-206.0339625667498
 30
0.0
 11
880.1452379162723
 21
-206.0339625667498
 31
0.0
  0
LINE
  5
1239
330
6B
100
AcDbEntity
  8
0
  6
CENTER
 62
     7
100
AcDbLine
 10
881.1452379162725
 20
-206.0339625667498
 30
0.0
 11
882.8389790131204
 21
-206.0339625667498
 31
0.0
  0
LINE
  5
123A
330
6B
100
AcDbEntity
  8
0
  6
CENTER
 62
     7
100
AcDbLine
 10
878.4514968194244
 20
-205.0339625667498
 30
0.0
 11
880.1452379162723
 21
-205.0339625667498
 31
0.0
  0
LINE
  5
123B
330
6B
100
AcDbEntity
  8
0
  6
CENTER
 62
     7
100
AcDbLine
 10
881.1452379162725
 20
-205.0339625667498
 30
0.0
 11
882.8389790131204
 21
-205.0339625667498
 31
0.0
  0
CIRCLE
  5
123C
330
6B
100
AcDbEntity
  8
0
  6
Continuous
100
AcDbCircle
 10
880.6452379162724
 20
-205.5339625667498
 30
0.0
 40
3.5
  0
ARC
  5
123D
330
6B
100
AcDbEntity
  8
0
  6
Continuous
100
AcDbCircle
 10
880.6452379162724
 20
-205.5339625667498
 30
0.0
 40
2.25
100
AcDbArc
 50
257.1604115930987
 51
282.8395884069013
  0
ARC
  5
123E
330
6B
100
AcDbEntity
  8
0
  6
Continuous
100
AcDbCircle
 10
880.6452379162724
 20
-205.5339625667498
 30
0.0
 40
2.25
100
AcDbArc
 50
347.1604115930956
 51
12.83958840690443
  0
ARC
  5
123F
330
6B
100
AcDbEntity
  8
0
  6
Continuous
100
AcDbCircle
 10
880.6452379162724
 20
-205.5339625667498
 30
0.0
 40
2.25
100
AcDbArc
 50
77.16041159309874
 51
102.8395884069012
  0
ARC
  5
1240
330
6B
100
AcDbEntity
  8
0
  6
Continuous
100
AcDbCircle
 10
880.6452379162724
 20
-205.5339625667498
 30
0.0
 40
2.25
100
AcDbArc
 50
167.1604115930955
 51
192.8395884069044
  0
LINE
  5
1241
330
6B
100
AcDbEntity
  8
0
 62
     3
100
AcDbLine
 10
854.7401072430526
 20
-197.56209350405
 30
0.0
 11
849.2821697443186
 21
-200.713235188164
 31
0.0
  0
LINE
  5
1242
330
6B
100
AcDbEntity
  8
0
 62
     3
100
AcDbLine
 10
852.7401072430524
 20
-194.0979918889125
 30
0.0
 11
847.2821697443187
 21
-197.2491335730265
 31
0.0
  0
LINE
  5
1243
330
6B
100
AcDbEntity
  8
0
 62
     3
100
AcDbLine
 10
876.5503685894925
 20
-194.0979918889127
 30
0.0
 11
882.0083060882254
 21
-197.2491335730269
 31
0.0
  0
LINE
  5
1244
330
6B
100
AcDbEntity
  8
0
 62
     3
100
AcDbLine
 10
874.5503685894925
 20
-197.5620935040503
 30
0.0
 11
880.0083060882254
 21
-200.7132351881643
 31
0.0
  0
LINE
  5
1245
330
6B
100
AcDbEntity
  8
0
  6
Continuous
100
AcDbLine
 10
1004.124998339498
 20
-79.19373548858152
 30
0.0
 11
1002.900026179176
 21
-79.19373548858152
 31
0.0
  0
LINE
  5
1246
330
6B
100
AcDbEntity
  8
0
  6
Continuous
100
AcDbLine
 10
1004.124998339498
 20
-111.1937354885815
 30
0.0
 11
1002.900026179176
 21
-111.1937354885815
 31
0.0
  0
ARC
  5
1247
330
6B
100
AcDbEntity
  8
0
  6
Continuous
100
AcDbCircle
 10
992.9000261791763
 20
-75.69373548858152
 30
0.0
 40
12.49999999999999
100
AcDbArc
 50
347.4441422014141
 51
12.55585779858582
  0
ARC
  5
1248
330
6B
100
AcDbEntity
  8
0
  6
Continuous
100
AcDbCircle
 10
992.9000261791763
 20
-107.6937354885815
 30
0.0
 40
12.5
100
AcDbArc
 50
347.4441422014141
 51
12.55585779858582
  0
ARC
  5
1249
330
6B
100
AcDbEntity
  8
0
  6
Continuous
100
AcDbCircle
 10
1004.124998339498
 20
-105.1937354885819
 30
0.0
 40
1.0
100
AcDbArc
 50
12.55585779860171
 51
18.95160721987905
  0
ARC
  5
124A
330
6B
100
AcDbEntity
  8
0
  6
Continuous
100
AcDbCircle
 10
1004.124998339498
 20
-110.1937354885814
 30
0.0
 40
1.0
100
AcDbArc
 50
270.000000000013
 51
347.444142201411
  0
ARC
  5
124B
330
6B
100
AcDbEntity
  8
0
  6
Continuous
100
AcDbCircle
 10
1004.124998339498
 20
-78.19373548858141
 30
0.0
 40
1.0
100
AcDbArc
 50
269.999999999987
 51
347.4441422014046
  0
ARC
  5
124C
330
6B
100
AcDbEntity
  8
0
  6
Continuous
100
AcDbCircle
 10
1004.124998339498
 20
-73.1937354885817
 30
0.0
 40
1.0
100
AcDbArc
 50
12.55585779859218
 51
35.59296975121288
  0
CIRCLE
  5
124D
330
6B
100
AcDbEntity
  8
0
  6
Continuous
 62
     3
100
AcDbCircle
 10
909.6452379162725
 20
-179.0339625667497
 30
0.0
 40
6.5
  0
CIRCLE
  5
124E
330
6B
100
AcDbEntity
  8
0
  6
Continuous
 62
     3
100
AcDbCircle
 10
909.6452379162725
 20
-197.0339625667498
 30
0.0
 40
6.5
  0
CIRCLE
  5
124F
330
6B
100
AcDbEntity
  8
0
  6
Continuous
 62
     3
100
AcDbCircle
 10
909.6452379162725
 20
-179.0339625667497
 30
0.0
 40
3.5
  0
CIRCLE
  5
1250
330
6B
100
AcDbEntity
  8
0
  6
Continuous
100
AcDbCircle
 10
909.6452379162725
 20
-179.0339625667497
 30
0.0
 40
2.35
  0
CIRCLE
  5
1251
330
6B
100
AcDbEntity
  8
0
  6
Continuous
 62
     3
100
AcDbCircle
 10
909.6452379162725
 20
-197.0339625667498
 30
0.0
 40
3.5
  0
CIRCLE
  5
1252
330
6B
100
AcDbEntity
  8
0
  6
Continuous
100
AcDbCircle
 10
909.6452379162725
 20
-197.0339625667498
 30
0.0
 40
2.35
  0
ARC
  5
1253
330
6B
100
AcDbEntity
  8
0
  6
Continuous
 62
     3
100
AcDbCircle
 10
894.1452379162724
 20
-184.0339625667498
 30
0.0
 40
3.999999999999961
100
AcDbArc
 50
0.0
 51
180.0
  0
ARC
  5
1254
330
6B
100
AcDbEntity
  8
0
  6
Continuous
 62
     3
100
AcDbCircle
 10
894.1452379162726
 20
-199.0339625667499
 30
0.0
 40
3.999999999999804
100
AcDbArc
 50
180.0
 51
0.0
  0
ARC
  5
1255
330
6B
100
AcDbEntity
  8
0
  6
Continuous
 62
     3
100
AcDbCircle
 10
894.1452379162726
 20
-178.0339625667499
 30
0.0
 40
4.499999999999858
100
AcDbArc
 50
0.0
 51
180.0
  0
ARC
  5
1256
330
6B
100
AcDbEntity
  8
0
  6
Continuous
 62
     3
100
AcDbCircle
 10
894.1452379162722
 20
-205.0339625667497
 30
0.0
 40
4.500000000000174
100
AcDbArc
 50
180.0
 51
0.0
  0
CIRCLE
  5
1257
330
6B
100
AcDbEntity
  8
0
  6
Continuous
100
AcDbCircle
 10
894.1452379162724
 20
-177.5339625667498
 30
0.0
 40
2.5
  0
CIRCLE
  5
1258
330
6B
100
AcDbEntity
  8
0
  6
Continuous
100
AcDbCircle
 10
894.1452379162724
 20
-205.5339625667498
 30
0.0
 40
2.5
  0
ARC
  5
1259
330
6B
100
AcDbEntity
  8
0
  6
Continuous
100
AcDbCircle
 10
894.1452379162724
 20
-177.5339625667498
 30
0.0
 40
1.75
100
AcDbArc
 50
166.7870196398434
 51
193.2129803601565
  0
ARC
  5
125A
330
6B
100
AcDbEntity
  8
0
  6
Continuous
100
AcDbCircle
 10
894.1452379162724
 20
-177.5339625667498
 30
0.0
 40
1.75
100
AcDbArc
 50
256.7870196398363
 51
283.2129803601636
  0
ARC
  5
125B
330
6B
100
AcDbEntity
  8
0
  6
Continuous
100
AcDbCircle
 10
894.1452379162724
 20
-177.5339625667498
 30
0.0
 40
1.75
100
AcDbArc
 50
346.7870196398435
 51
13.21298036015654
  0
ARC
  5
125C
330
6B
100
AcDbEntity
  8
0
  6
Continuous
100
AcDbCircle
 10
894.1452379162724
 20
-177.5339625667498
 30
0.0
 40
1.75
100
AcDbArc
 50
76.78701963983638
 51
103.2129803601636
  0
LINE
  5
125D
330
6B
100
AcDbEntity
  8
0
  6
Continuous
100
AcDbLine
 10
892.4415654125324
 20
-205.9339625667498
 30
0.0
 11
893.7452379162722
 21
-205.9339625667498
 31
0.0
  0
LINE
  5
125E
330
6B
100
AcDbEntity
  8
0
  6
Continuous
100
AcDbLine
 10
894.5452379162725
 20
-205.9339625667498
 30
0.0
 11
895.8489104200126
 21
-205.9339625667498
 31
0.0
  0
LINE
  5
125F
330
6B
100
AcDbEntity
  8
0
  6
Continuous
100
AcDbLine
 10
892.4415654125324
 20
-205.1339625667498
 30
0.0
 11
893.7452379162722
 21
-205.1339625667498
 31
0.0
  0
LINE
  5
1260
330
6B
100
AcDbEntity
  8
0
  6
Continuous
100
AcDbLine
 10
894.5452379162725
 20
-205.1339625667498
 30
0.0
 11
895.8489104200126
 21
-205.1339625667498
 31
0.0
  0
LINE
  5
1261
330
6B
100
AcDbEntity
  8
0
  6
Continuous
100
AcDbLine
 10
893.7452379162722
 20
-203.8302900630098
 30
0.0
 11
893.7452379162722
 21
-205.1339625667498
 31
0.0
  0
LINE
  5
1262
330
6B
100
AcDbEntity
  8
0
  6
Continuous
100
AcDbLine
 10
893.7452379162722
 20
-205.9339625667498
 30
0.0
 11
893.7452379162722
 21
-207.2376350704899
 31
0.0
  0
LINE
  5
1263
330
6B
100
AcDbEntity
  8
0
  6
Continuous
100
AcDbLine
 10
894.5452379162725
 20
-203.8302900630097
 30
0.0
 11
894.5452379162725
 21
-205.1339625667498
 31
0.0
  0
LINE
  5
1264
330
6B
100
AcDbEntity
  8
0
  6
Continuous
100
AcDbLine
 10
894.5452379162725
 20
-205.9339625667498
 30
0.0
 11
894.5452379162725
 21
-207.2376350704899
 31
0.0
  0
ARC
  5
1265
330
6B
100
AcDbEntity
  8
0
  6
Continuous
100
AcDbCircle
 10
894.1452379162724
 20
-205.5339625667498
 30
0.0
 40
1.75
100
AcDbArc
 50
166.7870196398434
 51
193.2129803601565
  0
ARC
  5
1266
330
6B
100
AcDbEntity
  8
0
  6
Continuous
100
AcDbCircle
 10
894.1452379162724
 20
-205.5339625667498
 30
0.0
 40
1.75
100
AcDbArc
 50
256.7870196398363
 51
283.2129803601636
  0
ARC
  5
1267
330
6B
100
AcDbEntity
  8
0
  6
Continuous
100
AcDbCircle
 10
894.1452379162724
 20
-205.5339625667498
 30
0.0
 40
1.75
100
AcDbArc
 50
346.7870196398435
 51
13.21298036015654
  0
ARC
  5
1268
330
6B
100
AcDbEntity
  8
0
  6
Continuous
100
AcDbCircle
 10
894.1452379162724
 20
-205.5339625667498
 30
0.0
 40
1.75
100
AcDbArc
 50
76.78701963983638
 51
103.2129803601636
  0
ARC
  5
1269
330
6B
100
AcDbEntity
  8
0
  6
Continuous
 62
     3
100
AcDbCircle
 10
888.6452379162722
 20
-171.9339625667498
 30
0.0
 40
1.399999999999999
100
AcDbArc
 50
180.0
 51
0.0
  0
LINE
  5
126A
330
6B
100
AcDbEntity
  8
0
  6
Continuous
 62
     3
100
AcDbLine
 10
887.9452379162721
 20
-155.3316227382791
 30
0.0
 11
887.9452379162721
 21
-145.3316227382791
 31
0.0
  0
LINE
  5
126B
330
6B
100
AcDbEntity
  8
0
  6
Continuous
 62
     3
100
AcDbLine
 10
889.3452379162722
 20
-155.3316227382791
 30
0.0
 11
889.3452379162722
 21
-145.3316227382791
 31
0.0
  0
LINE
  5
126C
330
6B
100
AcDbEntity
  8
0
  6
Continuous
 62
     3
100
AcDbLine
 10
887.2452379162721
 20
-171.9339625667498
 30
0.0
 11
887.2452379162721
 21
-162.5289753607836
 31
0.0
  0
LINE
  5
126D
330
6B
100
AcDbEntity
  8
0
  6
Continuous
 62
     3
100
AcDbLine
 10
887.2452379162721
 20
-160.5849279394907
 30
0.0
 11
887.2452379162721
 21
-155.3316227382791
 31
0.0
  0
LINE
  5
126E
330
6B
100
AcDbEntity
  8
0
  6
Continuous
 62
     3
100
AcDbLine
 10
890.0452379162723
 20
-171.9339625667498
 30
0.0
 11
890.0452379162723
 21
-162.5289753607836
 31
0.0
  0
LINE
  5
126F
330
6B
100
AcDbEntity
  8
0
  6
Continuous
 62
     3
100
AcDbLine
 10
890.0452379162723
 20
-160.5849279394907
 30
0.0
 11
890.0452379162723
 21
-155.3316227382791
 31
0.0
  0
LINE
  5
1270
330
6B
100
AcDbEntity
  8
0
  6
Continuous
 62
     3
100
AcDbLine
 10
887.2452379162721
 20
-155.3316227382791
 30
0.0
 11
890.0452379162723
 21
-155.3316227382791
 31
0.0
  0
LINE
  5
1271
330
6B
100
AcDbEntity
  8
0
  6
Continuous
 62
     3
100
AcDbLine
 10
887.9452379162721
 20
-145.3316227382791
 30
0.0
 11
889.3452379162722
 21
-145.3316227382791
 31
0.0
  0
ARC
  5
1272
330
6B
100
AcDbEntity
  8
0
  6
Continuous
100
AcDbCircle
 10
888.6452379162722
 20
-171.9339625667498
 30
0.0
 40
3.713403679353011
100
AcDbArc
 50
112.1487589424707
 51
67.85124105753658
  0
TEXT
  5
1273
330
6B
100
AcDbEntity
  8
0
  6
Continuous
100
AcDbText
 10
861.0756427282817
 20
-190.8929142164268
 30
0.0
 40
3.2
  1
FAN
 41
0.8
  7
高3.2
100
AcDbText
  0
TEXT
  5
1274
330
6B
100
AcDbEntity
  8
0
  6
Continuous
100
AcDbText
 10
894.2130459655672
 20
-172.3090864636397
 30
0.0
 40
4.5
  1
ACC
 41
0.8
  7
高4.5
100
AcDbText
  0
TEXT
  5
1275
330
6B
100
AcDbEntity
  8
0
  6
Continuous
100
AcDbText
 10
907.9538818370448
 20
-171.2855396034673
 30
0.0
 40
4.5
  1
+
  7
高4.5
100
AcDbText
  0
TEXT
  5
1276
330
6B
100
AcDbEntity
  8
0
  6
Continuous
100
AcDbText
 10
907.9538818370448
 20
-208.8998515546512
 30
0.0
 40
4.5
  1
-
  7
高4.5
100
AcDbText
  0
TEXT
  5
1277
330
6B
100
AcDbEntity
  8
0
  6
Continuous
100
AcDbText
 10
884.3079694863995
 20
-185.7682590285929
 30
0.0
 40
3.2
  1
FUSE
 50
270.0
 41
0.8
  7
高3.2
100
AcDbText
  0
TEXT
  5
1278
330
6B
100
AcDbEntity
  8
0
  6
Continuous
100
AcDbText
 10
921.2962070503404
 20
-197.2510807539423
 30
0.0
 40
3.2
  1
INPUT 24V
 50
90.0
 41
0.8
  7
高3.2
100
AcDbText
  0
ARC
  5
1279
330
6B
100
AcDbEntity
  8
0
  6
Continuous
100
AcDbCircle
 10
889.3452379162722
 20
-159.8499279394905
 30
0.0
 40
1.015000000000164
100
AcDbArc
 50
226.3971810273013
 51
313.6028189726987
  0
ARC
  5
127A
330
6B
100
AcDbEntity
  8
0
  6
Continuous
100
AcDbCircle
 10
889.3452379162722
 20
-161.3199279394908
 30
0.0
 40
1.015000000000164
100
AcDbArc
 50
46.39718102730131
 51
133.6028189726987
  0
ARC
  5
127B
330
6B
100
AcDbEntity
  8
0
  6
Continuous
100
AcDbCircle
 10
887.9452379162721
 20
-159.8499279394905
 30
0.0
 40
1.015000000000164
100
AcDbArc
 50
226.3971810272921
 51
313.6028189727079
  0
ARC
  5
127C
330
6B
100
AcDbEntity
  8
0
  6
Continuous
100
AcDbCircle
 10
887.9452379162721
 20
-163.2639753607839
 30
0.0
 40
1.015000000000288
100
AcDbArc
 50
46.39718102731053
 51
133.6028189726895
  0
ARC
  5
127D
330
6B
100
AcDbEntity
  8
0
  6
Continuous
100
AcDbCircle
 10
887.9452379162721
 20
-161.7939753607832
 30
0.0
 40
1.015000000000288
100
AcDbArc
 50
226.3971810273105
 51
313.6028189726895
  0
ARC
  5
127E
330
6B
100
AcDbEntity
  8
0
  6
Continuous
100
AcDbCircle
 10
889.3452379162722
 20
-163.2639753607839
 30
0.0
 40
1.015000000000288
100
AcDbArc
 50
46.39718102731277
 51
133.6028189726872
  0
LINE
  5
127F
330
6B
100
AcDbEntity
  8
0
  6
Continuous
100
AcDbLine
 10
1016.300026179176
 20
-82.19373548858152
 30
0.0
 11
1005.600026179176
 21
-82.19373548858152
 31
0.0
  0
LINE
  5
1280
330
6B
100
AcDbEntity
  8
0
  6
Continuous
100
AcDbLine
 10
1016.300026179176
 20
-105.1937354885815
 30
0.0
 11
1005.600026179176
 21
-105.1937354885815
 31
0.0
  0
LINE
  5
1281
330
6B
100
AcDbEntity
  8
0
  6
Continuous
100
AcDbLine
 10
1005.600026179176
 20
-75.69373548858178
 30
0.0
 11
1005.400026179176
 21
-75.69373548858178
 31
0.0
  0
LINE
  5
1282
330
6B
100
AcDbEntity
  8
0
  6
Continuous
100
AcDbLine
 10
1005.600026179176
 20
-111.6937354885816
 30
0.0
 11
1002.900026179176
 21
-111.6937354885816
 31
0.0
  0
ARC
  5
1283
330
6B
100
AcDbEntity
  8
0
  6
Continuous
100
AcDbCircle
 10
1016.300026179176
 20
-85.19373548858167
 30
0.0
 40
3.0
100
AcDbArc
 50
0.0000000000032569
 51
90.0
  0
ARC
  5
1284
330
6B
100
AcDbEntity
  8
0
  6
Continuous
100
AcDbCircle
 10
1016.300026179177
 20
-102.1937354885814
 30
0.0
 40
3.0
100
AcDbArc
 50
269.9999999999935
 51
359.9999999999968
  0
LINE
  5
1285
330
6B
100
AcDbEntity
  8
0
  6
Continuous
100
AcDbLine
 10
1017.900026179176
 20
-105.6937354885814
 30
0.0
 11
1008.900026179176
 21
-105.6937354885814
 31
0.0
  0
CIRCLE
  5
1286
330
6B
100
AcDbEntity
  8
0
  6
Continuous
100
AcDbCircle
 10
909.6452379162725
 20
-179.0339625667497
 30
0.0
 40
5.0
  0
CIRCLE
  5
1287
330
6B
100
AcDbEntity
  8
0
  6
Continuous
100
AcDbCircle
 10
909.6452379162725
 20
-197.0339625667498
 30
0.0
 40
5.0
  0
LINE
  5
1288
330
6B
100
AcDbEntity
  8
0
  6
Continuous
100
AcDbLine
 10
1018.966692845843
 20
-75.49373548858153
 30
0.0
 11
1019.900026179176
 21
-76.19373548858146
 31
0.0
  0
LINE
  5
1289
330
6B
100
AcDbEntity
  8
0
  6
Continuous
100
AcDbLine
 10
1019.900026179176
 20
-76.19373548858146
 30
0.0
 11
1019.900026179176
 21
-86.19373548858147
 31
0.0
  0
LINE
  5
128A
330
6B
100
AcDbEntity
  8
0
  6
Continuous
100
AcDbLine
 10
1019.900026179176
 20
-86.19373548858147
 30
0.0
 11
1019.300026179176
 21
-86.64373548858142
 31
0.0
  0
LINE
  5
128B
330
6B
100
AcDbEntity
  8
0
  6
Continuous
100
AcDbLine
 10
1017.900026179176
 20
-82.65601998049172
 30
0.0
 11
1017.900026179176
 21
-75.49373548858153
 31
0.0
  0
LINE
  5
128C
330
6B
100
AcDbEntity
  8
0
  6
Continuous
100
AcDbLine
 10
1019.300026179176
 20
-93.74373548858168
 30
0.0
 11
1019.900026179176
 21
-94.19373548858146
 31
0.0
  0
LINE
  5
128D
330
6B
100
AcDbEntity
  8
0
  6
Continuous
100
AcDbLine
 10
1019.900026179176
 20
-94.19373548858146
 30
0.0
 11
1019.900026179176
 21
-104.1937354885814
 31
0.0
  0
LINE
  5
128E
330
6B
100
AcDbEntity
  8
0
  6
Continuous
100
AcDbLine
 10
1019.900026179176
 20
-104.1937354885814
 30
0.0
 11
1017.900026179176
 21
-105.6937354885814
 31
0.0
  0
LINE
  5
128F
330
6B
100
AcDbEntity
  8
0
  6
Continuous
100
AcDbLine
 10
1017.900026179176
 20
-105.6937354885814
 30
0.0
 11
1017.900026179176
 21
-104.7314509966715
 31
0.0
  0
LINE
  5
1290
330
6B
100
AcDbEntity
  8
0
  6
Continuous
100
AcDbLine
 10
1023.285270870917
 20
-72.69373548858152
 30
0.0
 11
1004.991023743282
 21
-72.69373548858152
 31
0.0
  0
LINE
  5
1291
330
6B
100
AcDbEntity
  8
0
  6
Continuous
100
AcDbLine
 10
1023.285270870917
 20
-75.49373548858153
 30
0.0
 11
1005.398426076763
 21
-75.49373548858153
 31
0.0
  0
ARC
  5
1292
330
6B
100
AcDbEntity
  8
0
  6
Continuous
100
AcDbCircle
 10
1023.285270870917
 20
-69.09373548858153
 30
0.0
 40
3.6
100
AcDbArc
 50
270.0
 51
0.0
  0
ARC
  5
1293
330
6B
100
AcDbEntity
  8
0
  6
Continuous
100
AcDbCircle
 10
1023.285270870917
 20
-69.09373548858153
 30
0.0
 40
6.4
100
AcDbArc
 50
270.0
 51
0.0
  0
LINE
  5
1294
330
6B
100
AcDbEntity
  8
0
  6
Continuous
100
AcDbLine
 10
1027.585270870917
 20
-57.49139566011081
 30
0.0
 11
1027.585270870917
 21
-47.49139566011081
 31
0.0
  0
LINE
  5
1295
330
6B
100
AcDbEntity
  8
0
  6
Continuous
100
AcDbLine
 10
1028.985270870917
 20
-57.49139566011081
 30
0.0
 11
1028.985270870917
 21
-47.49139566011081
 31
0.0
  0
LINE
  5
1296
330
6B
100
AcDbEntity
  8
0
  6
Continuous
100
AcDbLine
 10
1026.885270870917
 20
-62.74470086132237
 30
0.0
 11
1026.885270870917
 21
-57.49139566011081
 31
0.0
  0
LINE
  5
1297
330
6B
100
AcDbEntity
  8
0
  6
Continuous
100
AcDbLine
 10
1029.685270870918
 20
-62.74470086132237
 30
0.0
 11
1029.685270870918
 21
-57.49139566011081
 31
0.0
  0
LINE
  5
1298
330
6B
100
AcDbEntity
  8
0
  6
Continuous
100
AcDbLine
 10
1026.885270870917
 20
-57.49139566011081
 30
0.0
 11
1029.685270870918
 21
-57.49139566011081
 31
0.0
  0
LINE
  5
1299
330
6B
100
AcDbEntity
  8
0
  6
Continuous
100
AcDbLine
 10
1027.585270870917
 20
-47.49139566011081
 30
0.0
 11
1028.985270870917
 21
-47.49139566011081
 31
0.0
  0
ARC
  5
129A
330
6B
100
AcDbEntity
  8
0
  6
Continuous
100
AcDbCircle
 10
1028.985270870917
 20
-62.00970086132219
 30
0.0
 40
1.015000000000164
100
AcDbArc
 50
226.3971810273013
 51
313.6028189726987
  0
ARC
  5
129B
330
6B
100
AcDbEntity
  8
0
  6
Continuous
100
AcDbCircle
 10
1028.985270870917
 20
-63.47970086132256
 30
0.0
 40
1.015000000000164
100
AcDbArc
 50
46.39718102730131
 51
133.6028189726987
  0
ARC
  5
129C
330
6B
100
AcDbEntity
  8
0
  6
Continuous
100
AcDbCircle
 10
1027.585270870917
 20
-62.00970086132219
 30
0.0
 40
1.015000000000164
100
AcDbArc
 50
226.3971810272921
 51
313.6028189727079
  0
ARC
  5
129D
330
6B
100
AcDbEntity
  8
0
  6
Continuous
100
AcDbCircle
 10
1027.585270870917
 20
-65.42374828261563
 30
0.0
 40
1.015000000000288
100
AcDbArc
 50
46.39718102730356
 51
133.6028189726964
  0
ARC
  5
129E
330
6B
100
AcDbEntity
  8
0
  6
Continuous
100
AcDbCircle
 10
1027.585270870917
 20
-63.95374828261492
 30
0.0
 40
1.015000000000288
100
AcDbArc
 50
226.3971810273035
 51
313.6028189726895
  0
ARC
  5
129F
330
6B
100
AcDbEntity
  8
0
  6
Continuous
100
AcDbCircle
 10
1028.985270870917
 20
-65.42374828261563
 30
0.0
 40
1.015000000000288
100
AcDbArc
 50
46.39718102731277
 51
133.6028189726872
  0
LINE
  5
12A0
330
6B
100
AcDbEntity
  8
0
  6
Continuous
100
AcDbLine
 10
1026.885270870917
 20
-64.68874828261528
 30
0.0
 11
1026.885270870917
 21
-69.09373548858153
 31
0.0
  0
LINE
  5
12A1
330
6B
100
AcDbEntity
  8
0
  6
Continuous
100
AcDbLine
 10
1029.685270870918
 20
-64.68874828261528
 30
0.0
 11
1029.685270870918
 21
-69.09373548858153
 31
0.0
  0
LINE
  5
12A2
330
6B
100
AcDbEntity
  8
0
  6
Continuous
100
AcDbLine
 10
1006.391528801305
 20
-110.1937354885815
 30
0.0
 11
1005.600026179176
 21
-110.1937354885815
 31
0.0
  0
LINE
  5
12A3
330
6B
100
AcDbEntity
  8
0
  6
Continuous
100
AcDbLine
 10
1006.391528801306
 20
-77.19373548858152
 30
0.0
 11
1005.600026179176
 21
-77.19373548858152
 31
0.0
  0
ARC
  5
12A4
330
6B
100
AcDbEntity
  8
0
  6
Continuous
100
AcDbCircle
 10
1001.100026179176
 20
-79.69373548858152
 30
0.0
 40
6.499999999999785
100
AcDbArc
 50
344.1733798681282
 51
15.82662013187179
  0
ARC
  5
12A5
330
6B
100
AcDbEntity
  8
0
  6
Continuous
100
AcDbCircle
 10
1006.391528801306
 20
-81.19373548858153
 30
0.0
 40
1.0
100
AcDbArc
 50
270.0
 51
344.1733798681282
  0
ARC
  5
12A6
330
6B
100
AcDbEntity
  8
0
  6
Continuous
100
AcDbCircle
 10
1001.100026179176
 20
-107.6937354885815
 30
0.0
 40
6.5
100
AcDbArc
 50
344.1733798681282
 51
15.82662013187179
  0
ARC
  5
12A7
330
6B
100
AcDbEntity
  8
0
  6
Continuous
100
AcDbCircle
 10
1006.391528801305
 20
-106.1937354885815
 30
0.0
 40
1.0
100
AcDbArc
 50
15.82662013187179
 51
90.0
  0
ARC
  5
12A8
330
6B
100
AcDbEntity
  8
0
  6
Continuous
100
AcDbCircle
 10
1006.391528801305
 20
-109.1937354885816
 30
0.0
 40
1.0
100
AcDbArc
 50
270.0
 51
344.1733798681331
  0
ARC
  5
12A9
330
6B
100
AcDbEntity
  8
0
  6
Continuous
100
AcDbCircle
 10
1006.391528801306
 20
-78.19373548858084
 30
0.0
 40
1.0
100
AcDbArc
 50
15.82662013183691
 51
90.0
  0
TEXT
  5
12B1
330
6B
100
AcDbEntity
  8
0
  6
Continuous
100
AcDbText
 10
750.2932459566145
 20
-82.64272656564072
 30
0.0
 40
3.2
  1
AC OUTPUT
 41
0.8
  7
高3.2
100
AcDbText
  0
TEXT
  5
12B2
330
6B
100
AcDbEntity
  8
0
  6
Continuous
100
AcDbText
 10
798.940936920002
 20
-87.55146434984522
 30
0.0
 40
2.0
  1
I
  7
高2
100
AcDbText
  0
TEXT
  5
12B3
330
6B
100
AcDbEntity
  8
0
  6
Continuous
100
AcDbText
 10
799.053991810064
 20
-111.0132462096856
 30
0.0
 40
2.0
  1
0
  7
高2
100
AcDbText
  0
TEXT
  5
12B4
330
6B
100
AcDbEntity
  8
0
  6
Continuous
100
AcDbText
 10
781.8797838872919
 20
-82.64272656564072
 30
0.0
 40
2.0
  1
POWER
 41
0.8
  7
高2
100
AcDbText
  0
TEXT
  5
12B5
330
6B
100
AcDbEntity
  8
0
  6
Continuous
100
AcDbText
 10
792.4758185824248
 20
-82.64272656564072
 30
0.0
 40
2.0
  1
FAULT
 41
0.8
  7
高2
100
AcDbText
  0
LINE
  5
12C7
330
6B
100
AcDbEntity
  8
0
  6
Continuous
 62
     3
100
AcDbLine
 10
703.3751382078897
 20
-208.3921022885462
 30
0.0
 11
705.9808654972511
 21
-209.1159154244798
 31
0.0
  0
CIRCLE
  5
12C8
330
6B
100
AcDbEntity
  8
0
  6
Continuous
 62
     3
100
AcDbCircle
 10
733.2441934064176
 20
-216.689062065915
 30
0.0
 40
3.0
  0
ARC
  5
12C9
330
6B
100
AcDbEntity
  8
0
  6
Continuous
 62
     3
100
AcDbCircle
 10
715.6933867530145
 20
-220.1364740760487
 30
0.0
 40
17.01968025265374
100
AcDbArc
 50
50.23499254341177
 51
136.366205499561
  0
ARC
  5
12CA
330
6B
100
AcDbEntity
  8
0
  6
Continuous
 62
     3
100
AcDbCircle
 10
715.6933867530145
 20
-220.1364740760487
 30
0.0
 40
13.51968025265374
100
AcDbArc
 50
53.42107817623028
 51
122.6381663606181
  0
LINE
  5
12CB
330
6B
100
AcDbEntity
  8
0
  6
Continuous
 62
     3
100
AcDbLine
 10
721.288878227887
 20
-218.1402987404667
 30
0.0
 11
732.1522064421702
 21
-213.8948601279882
 31
0.0
  0
LINE
  5
12CC
330
6B
100
AcDbEntity
  8
0
  6
Continuous
 62
     3
100
AcDbLine
 10
737.9549548833372
 20
-223.1844285222833
 30
0.0
 11
736.1551332049205
 21
-215.9635074577068
 31
0.0
  0
ARC
  5
12CD
330
6B
100
AcDbEntity
  8
0
  6
Continuous
 62
     3
100
AcDbCircle
 10
719.9858638146028
 20
-204.6835566543315
 30
0.0
 40
17.01968025265374
100
AcDbArc
 50
192.5855725069282
 51
278.716785463084
  0
ARC
  5
12CE
330
6B
100
AcDbEntity
  8
0
  6
Continuous
 62
     3
100
AcDbCircle
 10
719.9858638146028
 20
-204.6835566543315
 30
0.0
 40
13.51968025265374
100
AcDbArc
 50
206.3136116458748
 51
275.5306998302749
  0
LINE
  5
12CF
330
6B
100
AcDbEntity
  8
0
  6
Continuous
 62
     3
100
AcDbLine
 10
723.7501629280171
 20
-209.2796738199926
 30
0.0
 11
728.4266038582678
 21
-215.3508427469845
 31
0.0
  0
ARC
  5
12D0
330
6B
100
AcDbEntity
  8
0
  6
Continuous
 62
     3
100
AcDbCircle
 10
705.1779339058947
 20
-212.0064691533626
 30
0.0
 40
3.0
100
AcDbArc
 50
26.31361164580483
 51
74.47588900327068
  0
ARC
  5
12D1
330
6B
100
AcDbEntity
  8
0
  6
Continuous
 62
     3
100
AcDbCircle
 10
706.7837970886067
 20
-206.2253616955961
 30
0.0
 40
3.0
100
AcDbArc
 50
254.4758890032233
 51
302.6381663606813
  0
LINE
  5
12D2
330
6B
100
AcDbEntity
  8
0
  6
Continuous
 62
     3
100
AcDbLine
 10
726.5798611981416
 20
-207.0538829696157
 30
0.0
 11
748.5798611981437
 21
-207.0538829696157
 31
0.0
  0
LINE
  5
12D3
330
6B
100
AcDbEntity
  8
0
  6
Continuous
 62
     3
100
AcDbLine
 10
740.630106425745
 20
-213.5538829696157
 30
0.0
 11
748.5798611981436
 21
-213.5538829696157
 31
0.0
  0
LINE
  5
12D4
330
6B
100
AcDbEntity
  8
0
  6
Continuous
 62
     3
100
AcDbLine
 10
722.5652032413495
 20
-221.5066516140634
 30
0.0
 11
741.4133407771692
 21
-232.8533564851246
 31
0.0
  0
LINE
  5
12D5
330
6B
100
AcDbEntity
  8
0
  6
Continuous
 62
     3
100
AcDbLine
 10
737.9549548833374
 20
-223.184428522283
 30
0.0
 11
744.765776307255
 21
-227.2845885768151
 31
0.0
  0
LINE
  5
12D6
330
6B
100
AcDbEntity
  8
0
  6
Continuous
 62
     3
100
AcDbLine
 10
745.2815356195761
 20
-226.4278550524598
 30
0.0
 11
777.8374095450779
 21
-246.0267089206537
 31
0.0
  0
LINE
  5
12D7
330
6B
100
AcDbEntity
  8
0
  6
Continuous
 62
     3
100
AcDbLine
 10
739.608183184046
 20
-235.8519238203682
 30
0.0
 11
772.1640571095481
 21
-255.4507776885621
 31
0.0
  0
LINE
  5
12D8
330
6B
100
AcDbEntity
  8
0
  6
Continuous
 62
     3
100
AcDbLine
 10
740.630106425745
 20
-213.5538829696154
 30
0.0
 11
736.5659659234603
 21
-217.6117766539826
 31
0.0
  0
LINE
  5
12D9
330
6B
100
AcDbEntity
  8
0
  6
Continuous
 62
     3
100
AcDbLine
 10
772.1640571095477
 20
-255.4507776885631
 30
0.0
 11
777.8374095450772
 21
-246.0267089206546
 31
0.0
  0
LINE
  5
12DA
330
6B
100
AcDbEntity
  8
0
  6
Continuous
 62
     3
100
AcDbLine
 10
739.6081831840458
 20
-235.8519238203684
 30
0.0
 11
745.2815356195758
 21
-226.4278550524601
 31
0.0
  0
LINE
  5
12DB
330
6B
100
AcDbEntity
  8
0
  6
Continuous
 62
     3
100
AcDbLine
 10
748.5798611981437
 20
-214.5538829696159
 30
0.0
 11
786.5798611981435
 21
-214.5538829696168
 31
0.0
  0
LINE
  5
12DC
330
6B
100
AcDbEntity
  8
0
  6
Continuous
 62
     3
100
AcDbLine
 10
748.5798611981437
 20
-203.5538829696159
 30
0.0
 11
786.5798611981438
 21
-203.5538829696168
 31
0.0
  0
LINE
  5
12DD
330
6B
100
AcDbEntity
  8
0
  6
Continuous
 62
     3
100
AcDbLine
 10
786.5798611981438
 20
-203.5538829696159
 30
0.0
 11
786.5798611981435
 21
-214.5538829696158
 31
0.0
  0
LINE
  5
12DE
330
6B
100
AcDbEntity
  8
0
  6
Continuous
 62
     3
100
AcDbLine
 10
748.5798611981437
 20
-203.5538829696157
 30
0.0
 11
748.5798611981436
 21
-214.5538829696157
 31
0.0
  0
LINE
  5
12DF
330
6B
100
AcDbEntity
  8
0
  6
Continuous
 62
     3
100
AcDbLine
 10
750.2630306509083
 20
-174.5157530159176
 30
0.0
 11
730.2630306509083
 21
-174.5157530159176
 31
0.0
  0
LINE
  5
12E0
330
6B
100
AcDbEntity
  8
0
  6
Continuous
 62
     3
100
AcDbLine
 10
750.2630306509083
 20
-183.5157530159176
 30
0.0
 11
730.2630306509083
 21
-183.5157530159176
 31
0.0
  0
LINE
  5
12E1
330
6B
100
AcDbEntity
  8
0
  6
Continuous
 62
     3
100
AcDbLine
 10
730.2630306509083
 20
-175.5157530159176
 30
0.0
 11
729.1364278233128
 21
-175.5157530159177
 31
0.0
  0
LINE
  5
12E2
330
6B
100
AcDbEntity
  8
0
  6
Continuous
 62
     3
100
AcDbLine
 10
730.2630306509083
 20
-182.5157530159176
 30
0.0
 11
729.1364278233128
 21
-182.5157530159177
 31
0.0
  0
LINE
  5
12E3
330
6B
100
AcDbEntity
  8
0
  6
Continuous
 62
     3
100
AcDbLine
 10
750.2630306509083
 20
-183.5157530159176
 30
0.0
 11
750.2630306509083
 21
-174.5157530159176
 31
0.0
  0
LINE
  5
12E4
330
6B
100
AcDbEntity
  8
0
  6
Continuous
 62
     3
100
AcDbLine
 10
730.2630306509083
 20
-174.5157530159176
 30
0.0
 11
730.2630306509083
 21
-183.5157530159176
 31
0.0
  0
ARC
  5
12E5
330
6B
100
AcDbEntity
  8
0
  6
Continuous
 62
     3
100
AcDbCircle
 10
724.2630306509084
 20
-179.0157530159176
 30
0.0
 40
6.0
100
AcDbArc
 50
35.68533471264553
 51
324.3146652873545
  0
CIRCLE
  5
12E6
330
6B
100
AcDbEntity
  8
0
  6
Continuous
 62
     3
100
AcDbCircle
 10
724.2630306509084
 20
-179.0157530159176
 30
0.0
 40
3.399999999999999
  0
LINE
  5
12E7
330
6B
100
AcDbEntity
  8
0
  6
Continuous
 62
     3
100
AcDbLine
 10
750.2630306509083
 20
-181.0157530159176
 30
0.0
 11
796.5257746391669
 21
-181.0157530159176
 31
0.0
  0
LINE
  5
12E8
330
6B
100
AcDbEntity
  8
0
  6
Continuous
 62
     3
100
AcDbLine
 10
750.2630306509083
 20
-177.0157530159176
 30
0.0
 11
796.5257746391669
 21
-177.0157530159176
 31
0.0
  0
LINE
  5
12E9
330
6B
100
AcDbEntity
  8
0
  6
Continuous
 62
     3
100
AcDbLine
 10
804.5257746391669
 20
-189.0157530159176
 30
0.0
 11
804.5257746391669
 21
-193.2622103647776
 31
0.0
  0
LINE
  5
12EA
330
6B
100
AcDbEntity
  8
0
  6
Continuous
 62
     3
100
AcDbLine
 10
804.5257746391669
 20
-196.3258759348248
 30
0.0
 11
804.5257746391669
 21
-199.0538829696158
 31
0.0
  0
LINE
  5
12EB
330
6B
100
AcDbEntity
  8
0
  6
Continuous
 62
     3
100
AcDbLine
 10
808.5257746391668
 20
-189.0157530159176
 30
0.0
 11
808.5257746391668
 21
-193.2622103647776
 31
0.0
  0
LINE
  5
12EC
330
6B
100
AcDbEntity
  8
0
  6
Continuous
 62
     3
100
AcDbLine
 10
808.5257746391668
 20
-196.3258759348248
 30
0.0
 11
808.5257746391668
 21
-199.0538829696158
 31
0.0
  0
ARC
  5
12ED
330
6B
100
AcDbEntity
  8
0
  6
Continuous
 62
     3
100
AcDbCircle
 10
796.5257746391669
 20
-189.0157530159176
 30
0.0
 40
8.0
100
AcDbArc
 50
0.0
 51
90.0
  0
ARC
  5
12EE
330
6B
100
AcDbEntity
  8
0
  6
Continuous
 62
     3
100
AcDbCircle
 10
796.5257746391669
 20
-189.0157530159176
 30
0.0
 40
12.0
100
AcDbArc
 50
0.0
 51
90.0
  0
ARC
  5
12EF
330
6B
100
AcDbEntity
  8
0
  6
Continuous
 62
     3
100
AcDbCircle
 10
796.5257746391669
 20
-199.0538829696158
 30
0.0
 40
8.0
100
AcDbArc
 50
270.0
 51
0.0
  0
ARC
  5
12F0
330
6B
100
AcDbEntity
  8
0
  6
Continuous
 62
     3
100
AcDbCircle
 10
796.5257746391669
 20
-199.0538829696158
 30
0.0
 40
12.0
100
AcDbArc
 50
270.0
 51
0.0
  0
LINE
  5
12F1
330
6B
100
AcDbEntity
  8
0
  6
Continuous
 62
     3
100
AcDbLine
 10
786.5798611981436
 20
-207.0538829696158
 30
0.0
 11
796.5257746391669
 21
-207.0538829696158
 31
0.0
  0
LINE
  5
12F2
330
6B
100
AcDbEntity
  8
0
  6
Continuous
 62
     3
100
AcDbLine
 10
786.5798611981436
 20
-211.0538829696158
 30
0.0
 11
796.5257746391669
 21
-211.0538829696158
 31
0.0
  0
ARC
  5
12F3
330
6B
100
AcDbEntity
  8
0
  6
Continuous
100
AcDbCircle
 10
807.5257746391669
 20
-192.2122103647776
 30
0.0
 40
1.449999999999946
100
AcDbArc
 50
226.3971810272944
 51
313.6028189727057
  0
ARC
  5
12F4
330
6B
100
AcDbEntity
  8
0
  6
Continuous
100
AcDbCircle
 10
807.5257746391669
 20
-194.3122103647775
 30
0.0
 40
1.449999999999946
100
AcDbArc
 50
46.39718102729435
 51
133.6028189727079
  0
ARC
  5
12F5
330
6B
100
AcDbEntity
  8
0
  6
Continuous
100
AcDbCircle
 10
805.5257746391669
 20
-192.2122103647779
 30
0.0
 40
1.449999999999946
100
AcDbArc
 50
226.3971810272944
 51
313.6028189727148
  0
ARC
  5
12F6
330
6B
100
AcDbEntity
  8
0
  6
Continuous
100
AcDbCircle
 10
805.5257746391669
 20
-197.3758759348248
 30
0.0
 40
1.449999999999967
100
AcDbArc
 50
46.39718102729435
 51
133.6028189727056
  0
ARC
  5
12F7
330
6B
100
AcDbEntity
  8
0
  6
Continuous
100
AcDbCircle
 10
805.5257746391669
 20
-195.2758759348248
 30
0.0
 40
1.449999999999967
100
AcDbArc
 50
226.3971810272944
 51
313.6028189727057
  0
ARC
  5
12F8
330
6B
100
AcDbEntity
  8
0
  6
Continuous
100
AcDbCircle
 10
807.5257746391669
 20
-197.3758759348248
 30
0.0
 40
1.449999999999967
100
AcDbArc
 50
46.39718102729435
 51
133.6028189727056
  0
TEXT
  5
12FC
330
6B
100
AcDbEntity
  8
0
  6
Continuous
 62
     4
100
AcDbText
 10
1037.954085032679
 20
-88.33114032012941
 30
0.0
 40
3.2
  1
A
  7
高3.2
100
AcDbText
  0
TEXT
  5
12FD
330
6B
100
AcDbEntity
  8
0
  6
Continuous
 62
     4
100
AcDbText
 10
868.9529558010582
 20
-226.709373607408
 30
0.0
 40
3.2
  1
A矢視図
  7
高3.2
100
AcDbText
  0
LINE
  5
12FE
330
6B
100
AcDbEntity
  8
0
  6
Continuous
100
AcDbLine
 10
868.2433188066697
 20
-227.7089887063616
 30
0.0
 11
883.3253540777745
 21
-227.7089887063616
 31
0.0
  0
TEXT
  5
12FF
330
6B
100
AcDbEntity
  8
0
  6
Continuous
100
AcDbText
 10
1004.409058733309
 20
-34.49061059644788
 30
0.0
 40
2.5
  1
'15.02.20
  7
高2.5
100
AcDbText
  0
TEXT
  5
1300
330
6B
100
AcDbEntity
  8
0
  6
Continuous
100
AcDbText
 10
1022.409058733309
 20
-34.49061059644788
 30
0.0
 40
2.5
  1
'08.6月　形状仕様変更
  7
高2.5
100
AcDbText
  0
TEXT
  5
1301
330
6B
100
AcDbEntity
  8
0
  6
Continuous
100
AcDbText
 10
1066.409058733309
 20
-34.49061059644833
 30
0.0
 40
2.5
  1
今村
  7
高2.5
100
AcDbText
  0
TEXT
  5
1477
330
6B
100
AcDbEntity
  8
0
  6
Continuous
 62
     4
100
AcDbText
 10
761.0500259386709
 20
-163.0473486646699
 30
0.0
 40
3.0
  1
ワニ口クリップ付き線(約1000mm)
100
AcDbText
  0
TEXT
  5
1478
330
6B
100
AcDbEntity
  8
0
  6
Continuous
 62
     4
100
AcDbText
 10
761.4500259386709
 20
-168.0473486646699
 30
0.0
 40
3.0
  1
赤、黒:各1本
100
AcDbText
  0
TEXT
  5
147B
330
6B
100
AcDbEntity
  8
0
  6
Continuous
 62
     4
100
AcDbText
 10
829.8233926476985
 20
-220.7176275776317
 30
0.0
 40
3.0
  1
クーリングファン
100
AcDbText
  0
TEXT
  5
147E
330
6B
100
AcDbEntity
  8
0
  6
Continuous
 62
     4
100
AcDbText
 10
909.6853094192029
 20
-220.1582058623142
 30
0.0
 40
3.0
  1
入力側ヒューズ
100
AcDbText
  0
TEXT
  5
147F
330
6B
100
AcDbEntity
  8
0
  6
Continuous
 62
     4
100
AcDbText
 10
909.6853094192029
 20
-225.1582058623142
 30
0.0
 40
3.0
  1
(ブレード35A)
100
AcDbText
  0
TEXT
  5
1482
330
6B
100
AcDbEntity
  8
0
  6
Continuous
 62
     4
100
AcDbText
 10
930.7715766852698
 20
-201.0523065898929
 30
0.0
 40
3.0
  1
DC入力端子(-)
100
AcDbText
  0
TEXT
  5
1485
330
6B
100
AcDbEntity
  8
0
  6
Continuous
 62
     4
100
AcDbText
 10
929.6345342222807
 20
-174.032383768393
 30
0.0
 40
3.0
  1
DC入力端子(+)
100
AcDbText
  0
TEXT
  5
1488
330
6B
100
AcDbEntity
  8
0
  6
Continuous
 62
     4
100
AcDbText
 10
898.9056589869223
 20
-155.4194656963662
 30
0.0
 40
3.0
  1
ACC線(280mm)
100
AcDbText
  0
TEXT
  5
148D
330
6B
100
AcDbEntity
  8
0
  6
Continuous
 62
     4
100
AcDbText
 10
762.7803025955692
 20
-128.3355746574227
 30
0.0
 40
3.0
  1
出力コンセント
100
AcDbText
  0
TEXT
  5
148E
330
6B
100
AcDbEntity
  8
0
  6
Continuous
 62
     4
100
AcDbText
 10
762.9803025955693
 20
-133.3355746574227
 30
0.0
 40
3.0
  1
(AC100V)
100
AcDbText
  0
TEXT
  5
1491
330
6B
100
AcDbEntity
  8
0
  6
Continuous
 62
     4
100
AcDbText
 10
773.4880082383499
 20
-59.60202597682496
 30
0.0
 40
3.0
  1
異常ランプ
100
AcDbText
  0
TEXT
  5
1494
330
6B
100
AcDbEntity
  8
0
  6
Continuous
 62
     4
100
AcDbText
 10
765.9893411489149
 20
-64.05491277889883
 30
0.0
 40
3.0
  1
電源ランプ
100
AcDbText
  0
TEXT
  5
1497
330
6B
100
AcDbEntity
  8
0
  6
Continuous
 62
     4
100
AcDbText
 10
807.1684322446067
 20
-127.4188568010195
 30
0.0
 40
3.0
  1
電源スイッチ
100
AcDbText
  0
LINE
  5
149A
330
6B
100
AcDbEntity
  8
0
  6
Continuous
100
AcDbLine
 10
817.8041859374568
 20
-76.95835113217964
 30
0.0
 11
817.8041859374568
 21
-49.96344244042188
 31
0.0
  0
LINE
  5
149B
330
6B
100
AcDbEntity
  8
0
  6
Continuous
100
AcDbLine
 10
721.8041859374568
 20
-76.95835113217964
 30
0.0
 11
721.8041859374568
 21
-49.96344244042188
 31
0.0
  0
LINE
  5
149C
330
6B
100
AcDbEntity
  8
0
  6
Continuous
100
AcDbLine
 10
815.3041859374567
 20
-51.21344244042188
 30
0.0
 11
724.3041859374568
 21
-51.21344244042188
 31
0.0
  0
LINE
  5
14A0
330
6B
100
AcDbEntity
  8
0
  6
Continuous
100
AcDbLine
 10
859.6500261791767
 20
-115.1937354885814
 30
0.0
 11
844.4032094003045
 21
-115.1937354885814
 31
0.0
  0
LINE
  5
14A1
330
6B
100
AcDbEntity
  8
0
  6
Continuous
100
AcDbLine
 10
859.6500261791769
 20
-67.19373548858152
 30
0.0
 11
844.4032094003045
 21
-67.19373548858152
 31
0.0
  0
LINE
  5
14A2
330
6B
100
AcDbEntity
  8
0
  6
Continuous
100
AcDbLine
 10
845.6532094003046
 20
-112.6937354885814
 30
0.0
 11
845.6532094003046
 21
-69.69373548858152
 31
0.0
  0
LINE
  5
14A6
330
6B
100
AcDbEntity
  8
0
  6
Continuous
100
AcDbLine
 10
853.9000261791768
 20
-94.2937354885815
 30
0.0
 11
853.9000261791768
 21
-49.96982107233134
 31
0.0
  0
LINE
  5
14A7
330
6B
100
AcDbEntity
  8
0
  6
Continuous
100
AcDbLine
 10
859.9000261791767
 20
-66.94373548858152
 30
0.0
 11
859.9000261791767
 21
-49.96982107233134
 31
0.0
  0
LINE
  5
14A8
330
6B
100
AcDbEntity
  8
0
  6
Continuous
100
AcDbLine
 10
851.4000261791768
 20
-51.21982107233134
 30
0.0
 11
848.9000261791769
 21
-51.21982107233134
 31
0.0
  0
LINE
  5
14A9
330
6B
100
AcDbEntity
  8
0
  6
Continuous
100
AcDbLine
 10
862.4000261791767
 20
-51.21982107233134
 30
0.0
 11
864.9000261791767
 21
-51.21982107233134
 31
0.0
  0
LINE
  5
14AA
330
6B
100
AcDbEntity
  8
0
  6
Continuous
100
AcDbLine
 10
853.9000261791768
 20
-51.21982107233134
 30
0.0
 11
859.9000261791767
 21
-51.21982107233134
 31
0.0
  0
LINE
  5
14AE
330
6B
100
AcDbEntity
  8
0
  6
Continuous
100
AcDbLine
 10
1019.900026179176
 20
-75.94373548858147
 30
0.0
 11
1019.900026179176
 21
-49.96982107233134
 31
0.0
  0
LINE
  5
14AF
330
6B
100
AcDbEntity
  8
0
  6
Continuous
100
AcDbLine
 10
1002.900026179176
 20
-66.94373548858152
 30
0.0
 11
1002.900026179176
 21
-49.96982107233134
 31
0.0
  0
LINE
  5
14B0
330
6B
100
AcDbEntity
  8
0
  6
Continuous
100
AcDbLine
 10
1017.400026179176
 20
-51.21982107233134
 30
0.0
 11
1005.400026179176
 21
-51.21982107233134
 31
0.0
  0
LINE
  5
14B4
330
6B
100
AcDbEntity
  8
0
  6
Continuous
100
AcDbLine
 10
1002.900026179176
 20
-66.94373548858152
 30
0.0
 11
1002.900026179176
 21
-49.96982107233134
 31
0.0
  0
LINE
  5
14B5
330
6B
100
AcDbEntity
  8
0
  6
Continuous
100
AcDbLine
 10
859.9000261791767
 20
-66.94373548858152
 30
0.0
 11
859.9000261791767
 21
-49.96982107233134
 31
0.0
  0
LINE
  5
14B6
330
6B
100
AcDbEntity
  8
0
  6
Continuous
100
AcDbLine
 10
1000.400026179176
 20
-51.21982107233134
 30
0.0
 11
862.4000261791767
 21
-51.21982107233134
 31
0.0
  0
LINE
  5
14BA
330
6B
100
AcDbEntity
  8
0
  6
Continuous
100
AcDbLine
 10
1034.037344565144
 20
-89.7982327942425
 30
0.0
 11
1042.13089524135
 21
-89.7982327942425
 31
0.0
1001
ACAD
1000
DSTYLE
1002
{
1070
   147
1040
0.625
1070
    77
1070
     0
1002
}
  0
LINE
  5
14BB
330
6B
100
AcDbEntity
  8
0
  6
ByBlock
 62
     0
370
    -2
100
AcDbLine
 10
1034.037344565144
 20
-90.46810529424249
 30
0.0
 11
1031.537344565144
 21
-89.7982327942425
 31
0.0
  0
LINE
  5
14BC
330
6B
100
AcDbEntity
  8
0
  6
ByBlock
 62
     0
370
    -2
100
AcDbLine
 10
1031.537344565144
 20
-89.7982327942425
 30
0.0
 11
1034.037344565144
 21
-89.1283602942425
 31
0.0
  0
LINE
  5
14BD
330
6B
100
AcDbEntity
  8
0
  6
ByBlock
 62
     0
370
    -2
100
AcDbLine
 10
1031.537344565144
 20
-89.7982327942425
 30
0.0
 11
1034.037344565144
 21
-89.7982327942425
 31
0.0
  0
LINE
  5
14BE
330
6B
100
AcDbEntity
  8
0
  6
Continuous
100
AcDbLine
 10
754.4880134512579
 20
-174.6169917593658
 30
0.0
 11
758.3250259386709
 21
-161.5473486646699
 31
0.0
1001
ACAD
1000
DSTYLE
1002
{
1070
   147
1040
0.625
1070
    77
1070
     0
1002
}
  0
LINE
  5
14BF
330
6B
100
AcDbEntity
  8
0
  6
Continuous
100
AcDbLine
 10
758.3250259386709
 20
-161.5473486646699
 30
0.0
 11
760.8250259386709
 21
-161.5473486646699
 31
0.0
1001
ACAD
1000
DSTYLE
1002
{
1070
   147
1040
0.625
1070
    77
1070
     0
1002
}
  0
LINE
  5
14C0
330
6B
100
AcDbEntity
  8
0
  6
ByBlock
 62
     0
370
    -2
100
AcDbLine
 10
755.1307591311898
 20
-174.8056903475568
 30
0.0
 11
753.7837802270587
 21
-177.0157530159176
 31
0.0
  0
LINE
  5
14C1
330
6B
100
AcDbEntity
  8
0
  6
ByBlock
 62
     0
370
    -2
100
AcDbLine
 10
753.7837802270587
 20
-177.0157530159176
 30
0.0
 11
753.8452677713262
 21
-174.4282931711749
 31
0.0
  0
LINE
  5
14C2
330
6B
100
AcDbEntity
  8
0
  6
ByBlock
 62
     0
370
    -2
100
AcDbLine
 10
753.7837802270587
 20
-177.0157530159176
 30
0.0
 11
754.4880134512579
 21
-174.6169917593658
 31
0.0
  0
LINE
  5
14C3
330
6B
100
AcDbEntity
  8
0
  6
Continuous
100
AcDbLine
 10
864.6416428846764
 20
-205.0697423289872
 30
0.0
 11
860.7483926476984
 21
-219.2176275776317
 31
0.0
1001
ACAD
1000
DSTYLE
1002
{
1070
   341
1005
BA1
1070
   147
1040
0.625
1070
    77
1070
     0
1002
}
  0
LINE
  5
14C4
330
6B
100
AcDbEntity
  8
0
  6
Continuous
100
AcDbLine
 10
860.7483926476984
 20
-219.2176275776317
 30
0.0
 11
858.2483926476983
 21
-219.2176275776317
 31
0.0
1001
ACAD
1000
DSTYLE
1002
{
1070
   341
1005
BA1
1070
   147
1040
0.625
1070
    77
1070
     0
1002
}
  0
LINE
  5
14C6
330
6B
100
AcDbEntity
  8
0
  6
Continuous
100
AcDbLine
 10
897.8467838559902
 20
-204.3684363114476
 30
0.0
 11
906.5603094192029
 21
-218.6582058623142
 31
0.0
1001
ACAD
1000
DSTYLE
1002
{
1070
   147
1040
0.625
1070
    77
1070
     0
1002
}
  0
LINE
  5
14C7
330
6B
100
AcDbEntity
  8
0
  6
Continuous
100
AcDbLine
 10
906.5603094192029
 20
-218.6582058623142
 30
0.0
 11
909.0603094192029
 21
-218.6582058623142
 31
0.0
1001
ACAD
1000
DSTYLE
1002
{
1070
   147
1040
0.625
1070
    77
1070
     0
1002
}
  0
LINE
  5
14C8
330
6B
100
AcDbEntity
  8
0
  6
ByBlock
 62
     0
370
    -2
100
AcDbLine
 10
897.274853750572
 20
-204.7171842444491
 30
0.0
 11
896.5452379162725
 21
-202.2339625667498
 31
0.0
  0
LINE
  5
14C9
330
6B
100
AcDbEntity
  8
0
  6
ByBlock
 62
     0
370
    -2
100
AcDbLine
 10
896.5452379162725
 20
-202.2339625667498
 30
0.0
 11
898.4187139614082
 21
-204.0196883784463
 31
0.0
  0
LINE
  5
14CA
330
6B
100
AcDbEntity
  8
0
  6
ByBlock
 62
     0
370
    -2
100
AcDbLine
 10
896.5452379162725
 20
-202.2339625667498
 30
0.0
 11
897.8467838559902
 21
-204.3684363114476
 31
0.0
  0
LINE
  5
14CB
330
6B
100
AcDbEntity
  8
0
  6
Continuous
100
AcDbLine
 10
918.5780954961519
 20
-198.1312571751339
 30
0.0
 11
930.1465766852698
 21
-199.5523065898929
 31
0.0
1001
ACAD
1000
DSTYLE
1002
{
1070
   147
1040
0.625
1070
    77
1070
     0
1002
}
  0
LINE
  5
14CC
330
6B
100
AcDbEntity
  8
0
  6
ByBlock
 62
     0
370
    -2
100
AcDbLine
 10
918.4964235536458
 20
-198.7961322461537
 30
0.0
 11
916.0967461684077
 21
-197.8264531172494
 31
0.0
  0
LINE
  5
14CD
330
6B
100
AcDbEntity
  8
0
  6
ByBlock
 62
     0
370
    -2
100
AcDbLine
 10
916.0967461684077
 20
-197.8264531172494
 30
0.0
 11
918.6597674386581
 21
-197.4663821041142
 31
0.0
  0
LINE
  5
14CE
330
6B
100
AcDbEntity
  8
0
  6
ByBlock
 62
     0
370
    -2
100
AcDbLine
 10
916.0967461684077
 20
-197.8264531172494
 30
0.0
 11
918.5780954961519
 21
-198.1312571751339
 31
0.0
  0
LINE
  5
14CF
330
6B
100
AcDbEntity
  8
0
  6
Continuous
100
AcDbLine
 10
918.0427912847541
 20
-175.7965102623131
 30
0.0
 11
926.5095342222807
 21
-172.532383768393
 31
0.0
1001
ACAD
1000
DSTYLE
1002
{
1070
   147
1040
0.625
1070
    77
1070
     0
1002
}
  0
LINE
  5
14D0
330
6B
100
AcDbEntity
  8
0
  6
Continuous
100
AcDbLine
 10
926.5095342222807
 20
-172.532383768393
 30
0.0
 11
929.0095342222807
 21
-172.532383768393
 31
0.0
1001
ACAD
1000
DSTYLE
1002
{
1070
   147
1040
0.625
1070
    77
1070
     0
1002
}
  0
LINE
  5
14D1
330
6B
100
AcDbEntity
  8
0
  6
ByBlock
 62
     0
370
    -2
100
AcDbLine
 10
918.2837557590655
 20
-176.4215424921829
 30
0.0
 11
915.7101375712869
 21
-176.695802569101
 31
0.0
  0
LINE
  5
14D2
330
6B
100
AcDbEntity
  8
0
  6
ByBlock
 62
     0
370
    -2
100
AcDbLine
 10
915.7101375712869
 20
-176.695802569101
 30
0.0
 11
917.8018268104425
 21
-175.1714780324433
 31
0.0
  0
LINE
  5
14D3
330
6B
100
AcDbEntity
  8
0
  6
ByBlock
 62
     0
370
    -2
100
AcDbLine
 10
915.7101375712869
 20
-176.695802569101
 30
0.0
 11
918.0427912847541
 21
-175.7965102623131
 31
0.0
  0
LINE
  5
14D4
330
6B
100
AcDbEntity
  8
0
  6
Continuous
100
AcDbLine
 10
892.0892888037471
 20
-156.5188810324444
 30
0.0
 11
895.7806589869223
 21
-153.9194656963662
 31
0.0
1001
ACAD
1000
DSTYLE
1002
{
1070
   147
1040
0.625
1070
    77
1070
     0
1002
}
  0
LINE
  5
14D5
330
6B
100
AcDbEntity
  8
0
  6
Continuous
100
AcDbLine
 10
895.7806589869223
 20
-153.9194656963662
 30
0.0
 11
898.2806589869223
 21
-153.9194656963662
 31
0.0
1001
ACAD
1000
DSTYLE
1002
{
1070
   147
1040
0.625
1070
    77
1070
     0
1002
}
  0
LINE
  5
14D6
330
6B
100
AcDbEntity
  8
0
  6
ByBlock
 62
     0
370
    -2
100
AcDbLine
 10
892.4749730687635
 20
-157.0665824236924
 30
0.0
 11
890.0452379162723
 21
-157.9582753388849
 31
0.0
  0
LINE
  5
14D7
330
6B
100
AcDbEntity
  8
0
  6
ByBlock
 62
     0
370
    -2
100
AcDbLine
 10
890.0452379162723
 20
-157.9582753388849
 30
0.0
 11
891.7036045387307
 21
-155.9711796411964
 31
0.0
  0
LINE
  5
14D8
330
6B
100
AcDbEntity
  8
0
  6
ByBlock
 62
     0
370
    -2
100
AcDbLine
 10
890.0452379162723
 20
-157.9582753388849
 30
0.0
 11
892.0892888037471
 21
-156.5188810324444
 31
0.0
  0
LINE
  5
14D9
330
6B
100
AcDbEntity
  8
0
  6
Continuous
100
AcDbLine
 10
768.8601548568792
 20
-112.7979970066414
 30
0.0
 11
759.8553025955693
 21
-126.8355746574227
 31
0.0
1001
ACAD
1000
DSTYLE
1002
{
1070
   147
1040
0.625
1070
    77
1070
     0
1002
}
  0
LINE
  5
14DA
330
6B
100
AcDbEntity
  8
0
  6
ByBlock
 62
     0
370
    -2
100
AcDbLine
 10
768.2963200873766
 20
-112.4363071962289
 30
0.0
 11
770.2100005753273
 21
-110.6937354885815
 31
0.0
  0
LINE
  5
14DB
330
6B
100
AcDbEntity
  8
0
  6
ByBlock
 62
     0
370
    -2
100
AcDbLine
 10
770.2100005753273
 20
-110.6937354885815
 30
0.0
 11
769.4239896263818
 21
-113.1596868170538
 31
0.0
  0
LINE
  5
14DC
330
6B
100
AcDbEntity
  8
0
  6
ByBlock
 62
     0
370
    -2
100
AcDbLine
 10
770.2100005753273
 20
-110.6937354885815
 30
0.0
 11
768.8601548568792
 21
-112.7979970066414
 31
0.0
  0
LINE
  5
14DD
330
6B
100
AcDbEntity
  8
0
  6
Continuous
100
AcDbLine
 10
746.9780883366724
 20
-112.5506282582104
 30
0.0
 11
759.8553025955693
 21
-126.8355746574227
 31
0.0
1001
ACAD
1000
DSTYLE
1002
{
1070
   147
1040
0.625
1070
    77
1070
     0
1002
}
  0
LINE
  5
14DE
330
6B
100
AcDbEntity
  8
0
  6
Continuous
100
AcDbLine
 10
759.8553025955693
 20
-126.8355746574227
 30
0.0
 11
762.3553025955693
 21
-126.8355746574227
 31
0.0
1001
ACAD
1000
DSTYLE
1002
{
1070
   147
1040
0.625
1070
    77
1070
     0
1002
}
  0
LINE
  5
14DF
330
6B
100
AcDbEntity
  8
0
  6
ByBlock
 62
     0
370
    -2
100
AcDbLine
 10
746.4805357759431
 20
-112.9991487321778
 30
0.0
 11
745.3041859374568
 21
-110.6937354885815
 31
0.0
  0
LINE
  5
14E0
330
6B
100
AcDbEntity
  8
0
  6
ByBlock
 62
     0
370
    -2
100
AcDbLine
 10
745.3041859374568
 20
-110.6937354885815
 30
0.0
 11
747.4756408974018
 21
-112.102107784243
 31
0.0
  0
LINE
  5
14E1
330
6B
100
AcDbEntity
  8
0
  6
ByBlock
 62
     0
370
    -2
100
AcDbLine
 10
745.3041859374568
 20
-110.6937354885815
 30
0.0
 11
746.9780883366724
 21
-112.5506282582104
 31
0.0
  0
LINE
  5
14E2
330
6B
100
AcDbEntity
  8
0
  6
Continuous
100
AcDbLine
 10
795.0180416316454
 20
-74.9039834366051
 30
0.0
 11
793.81300823835
 21
-58.10202597682496
 31
0.0
1001
ACAD
1000
DSTYLE
1002
{
1070
   147
1040
0.625
1070
    77
1070
     0
1002
}
  0
LINE
  5
14E3
330
6B
100
AcDbEntity
  8
0
  6
Continuous
100
AcDbLine
 10
793.81300823835
 20
-58.10202597682496
 30
0.0
 11
791.3130082383499
 21
-58.10202597682496
 31
0.0
1001
ACAD
1000
DSTYLE
1002
{
1070
   147
1040
0.625
1070
    77
1070
     0
1002
}
  0
LINE
  5
14E4
330
6B
100
AcDbEntity
  8
0
  6
ByBlock
 62
     0
370
    -2
100
AcDbLine
 10
795.6861979270049
 20
-74.85606338623144
 30
0.0
 11
795.1968818227777
 21
-77.39757846909049
 31
0.0
  0
LINE
  5
14E5
330
6B
100
AcDbEntity
  8
0
  6
ByBlock
 62
     0
370
    -2
100
AcDbLine
 10
795.1968818227777
 20
-77.39757846909049
 30
0.0
 11
794.3498853362861
 21
-74.95190348697875
 31
0.0
  0
LINE
  5
14E6
330
6B
100
AcDbEntity
  8
0
  6
ByBlock
 62
     0
370
    -2
100
AcDbLine
 10
795.1968818227777
 20
-77.39757846909049
 30
0.0
 11
795.0180416316454
 21
-74.9039834366051
 31
0.0
  0
LINE
  5
14E7
330
6B
100
AcDbEntity
  8
0
  6
Continuous
100
AcDbLine
 10
787.0622998935232
 20
-74.90105579422202
 30
0.0
 11
786.314341148915
 21
-62.55491277889882
 31
0.0
1001
ACAD
1000
DSTYLE
1002
{
1070
   147
1040
0.625
1070
    77
1070
     0
1002
}
  0
LINE
  5
14E8
330
6B
100
AcDbEntity
  8
0
  6
Continuous
100
AcDbLine
 10
786.314341148915
 20
-62.55491277889882
 30
0.0
 11
783.8143411489149
 21
-62.55491277889882
 31
0.0
1001
ACAD
1000
DSTYLE
1002
{
1070
   147
1040
0.625
1070
    77
1070
     0
1002
}
  0
LINE
  5
14E9
330
6B
100
AcDbEntity
  8
0
  6
ByBlock
 62
     0
370
    -2
100
AcDbLine
 10
787.7309464756631
 20
-74.86054759198077
 30
0.0
 11
787.2134786709818
 21
-77.39648060319666
 31
0.0
  0
LINE
  5
14EA
330
6B
100
AcDbEntity
  8
0
  6
ByBlock
 62
     0
370
    -2
100
AcDbLine
 10
787.2134786709818
 20
-77.39648060319666
 30
0.0
 11
786.3936533113833
 21
-74.94156399646326
 31
0.0
  0
LINE
  5
14EB
330
6B
100
AcDbEntity
  8
0
  6
ByBlock
 62
     0
370
    -2
100
AcDbLine
 10
787.2134786709818
 20
-77.39648060319666
 30
0.0
 11
787.0622998935232
 21
-74.90105579422202
 31
0.0
  0
LINE
  5
14EC
330
6B
100
AcDbEntity
  8
0
  6
Continuous
100
AcDbLine
 10
803.2032916557962
 20
-111.3895664326336
 30
0.0
 11
804.0434322446067
 21
-125.9188568010195
 31
0.0
1001
ACAD
1000
DSTYLE
1002
{
1070
   147
1040
0.625
1070
    77
1070
     0
1002
}
  0
LINE
  5
14ED
330
6B
100
AcDbEntity
  8
0
  6
Continuous
100
AcDbLine
 10
804.0434322446067
 20
-125.9188568010195
 30
0.0
 11
806.5434322446067
 21
-125.9188568010195
 31
0.0
1001
ACAD
1000
DSTYLE
1002
{
1070
   147
1040
0.625
1070
    77
1070
     0
1002
}
  0
LINE
  5
14EE
330
6B
100
AcDbEntity
  8
0
  6
ByBlock
 62
     0
370
    -2
100
AcDbLine
 10
802.5345362501685
 20
-111.428236494695
 30
0.0
 11
803.0589729158068
 21
-108.8937354885815
 31
0.0
  0
LINE
  5
14EF
330
6B
100
AcDbEntity
  8
0
  6
ByBlock
 62
     0
370
    -2
100
AcDbLine
 10
803.0589729158068
 20
-108.8937354885815
 30
0.0
 11
803.8720470614242
 21
-111.3508963705721
 31
0.0
  0
LINE
  5
14F0
330
6B
100
AcDbEntity
  8
0
  6
ByBlock
 62
     0
370
    -2
100
AcDbLine
 10
803.0589729158068
 20
-108.8937354885815
 30
0.0
 11
803.2032916557962
 21
-111.3895664326336
 31
0.0
  0
TEXT
  5
14F1
330
6B
100
AcDbEntity
  8
0
  6
Continuous
 62
     4
100
AcDbText
 10
765.116796323874
 20
-50.58844244042188
 30
0.0
 40
3.0
  1
96
100
AcDbText
  0
LINE
  5
14F2
330
6B
100
AcDbEntity
  8
0
  6
ByBlock
 62
     0
370
    -2
100
AcDbLine
 10
724.3041859374568
 20
-51.88331494042188
 30
0.0
 11
721.8041859374568
 21
-51.21344244042188
 31
0.0
  0
LINE
  5
14F3
330
6B
100
AcDbEntity
  8
0
  6
ByBlock
 62
     0
370
    -2
100
AcDbLine
 10
721.8041859374568
 20
-51.21344244042188
 30
0.0
 11
724.3041859374568
 21
-50.54356994042189
 31
0.0
  0
LINE
  5
14F4
330
6B
100
AcDbEntity
  8
0
  6
ByBlock
 62
     0
370
    -2
100
AcDbLine
 10
721.8041859374568
 20
-51.21344244042188
 30
0.0
 11
724.3041859374568
 21
-51.21344244042188
 31
0.0
  0
LINE
  5
14F5
330
6B
100
AcDbEntity
  8
0
  6
ByBlock
 62
     0
370
    -2
100
AcDbLine
 10
815.3041859374567
 20
-50.54356994042189
 30
0.0
 11
817.8041859374568
 21
-51.21344244042188
 31
0.0
  0
LINE
  5
14F6
330
6B
100
AcDbEntity
  8
0
  6
ByBlock
 62
     0
370
    -2
100
AcDbLine
 10
817.8041859374568
 20
-51.21344244042188
 30
0.0
 11
815.3041859374567
 21
-51.88331494042188
 31
0.0
  0
LINE
  5
14F7
330
6B
100
AcDbEntity
  8
0
  6
ByBlock
 62
     0
370
    -2
100
AcDbLine
 10
817.8041859374568
 20
-51.21344244042188
 30
0.0
 11
815.3041859374567
 21
-51.21344244042188
 31
0.0
  0
TEXT
  5
14F8
330
6B
100
AcDbEntity
  8
0
  6
Continuous
 62
     4
100
AcDbText
 10
845.0282094003046
 20
-94.89370810711443
 30
0.0
 40
3.0
  1
48
 50
90.0
100
AcDbText
  0
LINE
  5
14F9
330
6B
100
AcDbEntity
  8
0
  6
ByBlock
 62
     0
370
    -2
100
AcDbLine
 10
844.9833369003046
 20
-69.69373548858152
 30
0.0
 11
845.6532094003046
 21
-67.19373548858152
 31
0.0
  0
LINE
  5
14FA
330
6B
100
AcDbEntity
  8
0
  6
ByBlock
 62
     0
370
    -2
100
AcDbLine
 10
845.6532094003046
 20
-67.19373548858152
 30
0.0
 11
846.3230819003046
 21
-69.69373548858152
 31
0.0
  0
LINE
  5
14FB
330
6B
100
AcDbEntity
  8
0
  6
ByBlock
 62
     0
370
    -2
100
AcDbLine
 10
845.6532094003046
 20
-67.19373548858152
 30
0.0
 11
845.6532094003046
 21
-69.69373548858152
 31
0.0
  0
LINE
  5
14FC
330
6B
100
AcDbEntity
  8
0
  6
ByBlock
 62
     0
370
    -2
100
AcDbLine
 10
846.3230819003046
 20
-112.6937354885814
 30
0.0
 11
845.6532094003046
 21
-115.1937354885814
 31
0.0
  0
LINE
  5
14FD
330
6B
100
AcDbEntity
  8
0
  6
ByBlock
 62
     0
370
    -2
100
AcDbLine
 10
845.6532094003046
 20
-115.1937354885814
 30
0.0
 11
844.9833369003046
 21
-112.6937354885814
 31
0.0
  0
LINE
  5
14FE
330
6B
100
AcDbEntity
  8
0
  6
ByBlock
 62
     0
370
    -2
100
AcDbLine
 10
845.6532094003046
 20
-115.1937354885814
 30
0.0
 11
845.6532094003046
 21
-112.6937354885814
 31
0.0
  0
TEXT
  5
14FF
330
6B
100
AcDbEntity
  8
0
  6
Continuous
 62
     4
100
AcDbText
 10
853.9000261791768
 20
-50.59482107233134
 30
0.0
 40
3.0
  1
(6)
100
AcDbText
  0
LINE
  5
1500
330
6B
100
AcDbEntity
  8
0
  6
ByBlock
 62
     0
370
    -2
100
AcDbLine
 10
862.4000261791767
 20
-51.88969357233133
 30
0.0
 11
859.9000261791767
 21
-51.21982107233134
 31
0.0
  0
LINE
  5
1501
330
6B
100
AcDbEntity
  8
0
  6
ByBlock
 62
     0
370
    -2
100
AcDbLine
 10
859.9000261791767
 20
-51.21982107233134
 30
0.0
 11
862.4000261791767
 21
-50.54994857233134
 31
0.0
  0
LINE
  5
1502
330
6B
100
AcDbEntity
  8
0
  6
ByBlock
 62
     0
370
    -2
100
AcDbLine
 10
859.9000261791767
 20
-51.21982107233134
 30
0.0
 11
862.4000261791767
 21
-51.21982107233134
 31
0.0
  0
LINE
  5
1503
330
6B
100
AcDbEntity
  8
0
  6
ByBlock
 62
     0
370
    -2
100
AcDbLine
 10
851.4000261791768
 20
-50.54994857233134
 30
0.0
 11
853.9000261791768
 21
-51.21982107233134
 31
0.0
  0
LINE
  5
1504
330
6B
100
AcDbEntity
  8
0
  6
ByBlock
 62
     0
370
    -2
100
AcDbLine
 10
853.9000261791768
 20
-51.21982107233134
 30
0.0
 11
851.4000261791768
 21
-51.88969357233133
 31
0.0
  0
LINE
  5
1505
330
6B
100
AcDbEntity
  8
0
  6
ByBlock
 62
     0
370
    -2
100
AcDbLine
 10
853.9000261791768
 20
-51.21982107233134
 30
0.0
 11
851.4000261791768
 21
-51.21982107233134
 31
0.0
  0
TEXT
  5
1506
330
6B
100
AcDbEntity
  8
0
  6
Continuous
 62
     4
100
AcDbText
 10
1006.954723405891
 20
-50.59482107233134
 30
0.0
 40
3.0
  1
(17)
100
AcDbText
  0
LINE
  5
1507
330
6B
100
AcDbEntity
  8
0
  6
ByBlock
 62
     0
370
    -2
100
AcDbLine
 10
1005.400026179176
 20
-51.88969357233133
 30
0.0
 11
1002.900026179176
 21
-51.21982107233134
 31
0.0
  0
LINE
  5
1508
330
6B
100
AcDbEntity
  8
0
  6
ByBlock
 62
     0
370
    -2
100
AcDbLine
 10
1002.900026179176
 20
-51.21982107233134
 30
0.0
 11
1005.400026179176
 21
-50.54994857233134
 31
0.0
  0
LINE
  5
1509
330
6B
100
AcDbEntity
  8
0
  6
ByBlock
 62
     0
370
    -2
100
AcDbLine
 10
1002.900026179176
 20
-51.21982107233134
 30
0.0
 11
1005.400026179176
 21
-51.21982107233134
 31
0.0
  0
LINE
  5
150A
330
6B
100
AcDbEntity
  8
0
  6
ByBlock
 62
     0
370
    -2
100
AcDbLine
 10
1017.400026179176
 20
-50.54994857233134
 30
0.0
 11
1019.900026179176
 21
-51.21982107233134
 31
0.0
  0
LINE
  5
150B
330
6B
100
AcDbEntity
  8
0
  6
ByBlock
 62
     0
370
    -2
100
AcDbLine
 10
1019.900026179176
 20
-51.21982107233134
 30
0.0
 11
1017.400026179176
 21
-51.88969357233133
 31
0.0
  0
LINE
  5
150C
330
6B
100
AcDbEntity
  8
0
  6
ByBlock
 62
     0
370
    -2
100
AcDbLine
 10
1019.900026179176
 20
-51.21982107233134
 30
0.0
 11
1017.400026179176
 21
-51.21982107233134
 31
0.0
  0
TEXT
  5
150D
330
6B
100
AcDbEntity
  8
0
  6
Continuous
 62
     4
100
AcDbText
 10
925.844976741831
 20
-50.59482107233134
 30
0.0
 40
3.0
  1
143
100
AcDbText
  0
LINE
  5
150E
330
6B
100
AcDbEntity
  8
0
  6
ByBlock
 62
     0
370
    -2
100
AcDbLine
 10
862.4000261791767
 20
-51.88969357233133
 30
0.0
 11
859.9000261791767
 21
-51.21982107233134
 31
0.0
  0
LINE
  5
150F
330
6B
100
AcDbEntity
  8
0
  6
ByBlock
 62
     0
370
    -2
100
AcDbLine
 10
859.9000261791767
 20
-51.21982107233134
 30
0.0
 11
862.4000261791767
 21
-50.54994857233134
 31
0.0
  0
LINE
  5
1510
330
6B
100
AcDbEntity
  8
0
  6
ByBlock
 62
     0
370
    -2
100
AcDbLine
 10
859.9000261791767
 20
-51.21982107233134
 30
0.0
 11
862.4000261791767
 21
-51.21982107233134
 31
0.0
  0
LINE
  5
1511
330
6B
100
AcDbEntity
  8
0
  6
ByBlock
 62
     0
370
    -2
100
AcDbLine
 10
1000.400026179176
 20
-50.54994857233134
 30
0.0
 11
1002.900026179176
 21
-51.21982107233134
 31
0.0
  0
LINE
  5
1512
330
6B
100
AcDbEntity
  8
0
  6
ByBlock
 62
     0
370
    -2
100
AcDbLine
 10
1002.900026179176
 20
-51.21982107233134
 30
0.0
 11
1000.400026179176
 21
-51.88969357233133
 31
0.0
  0
LINE
  5
1513
330
6B
100
AcDbEntity
  8
0
  6
ByBlock
 62
     0
370
    -2
100
AcDbLine
 10
1002.900026179176
 20
-51.21982107233134
 30
0.0
 11
1000.400026179176
 21
-51.21982107233134
 31
0.0
  0
ARC
  5
1514
330
6B
100
AcDbEntity
  8
0
  6
ByBlock
 62
     0
100
AcDbCircle
 10
864.6416428846764
 20
-205.0697423289872
 30
0.0
 40
0.1562500000000114
100
AcDbArc
 50
254.6140286346528
 51
74.61402863465278
  0
ARC
  5
1515
330
6B
100
AcDbEntity
  8
0
  6
ByBlock
 62
     0
100
AcDbCircle
 10
864.6416428846764
 20
-205.0697423289872
 30
0.0
 40
0.1562500000000114
100
AcDbArc
 50
74.61402863465278
 51
254.6140286346528
  0
ENDSEC
  0
SECTION
  2
OBJECTS
  0
DICTIONARY
  5
C
330
0
100
AcDbDictionary
281
     1
  3
ACAD_2007HEADERVARS_RT
350
1519
  3
ACAD_COLOR
350
62
  3
ACAD_GROUP
350
D
  3
ACAD_LAYOUT
350
61
  3
ACAD_MATERIAL
350
10
  3
ACAD_MLEADERSTYLE
350
65
  3
ACAD_MLINESTYLE
350
5E
  3
ACAD_PLOTSETTINGS
350
60
  3
ACAD_PLOTSTYLENAME
350
E
  3
ACAD_SCALELIST
350
42
  3
ACAD_TABLESTYLE
350
63
  3
ACAD_VISUALSTYLE
350
29
  3
ACDB_RECOMPOSE_DATA
350
1517
  3
AcDbVariableDictionary
350
58C
  3
DWGPROPS
350
1518
  0
DICTIONARY
  5
3D9
330
2
100
AcDbDictionary
280
     1
281
     1
  3
ACAD_LAYERSTATES
360
3DA
  0
DICTIONARY
  5
58A
330
54
100
AcDbDictionary
280
     1
281
     1
  3
ADSK_XREC_LAYER_RECONCILED
360
58B
  0
DICTIONARY
  5
661
330
6B
100
AcDbDictionary
280
     1
281
     1
  3
ACAD_SORTENTS
360
662
  0
DICTIONARY
  5
1519
102
{ACAD_REACTORS
330
C
102
}
330
C
100
AcDbDictionary
281
     1
  3
DIMARCSYM
350
151B
  3
DIMFXL
350
151A
  3
DIMJOGANG
350
151C
  0
DICTIONARY
  5
62
102
{ACAD_REACTORS
330
C
102
}
330
C
100
AcDbDictionary
281
     1
  0
DICTIONARY
  5
D
102
{ACAD_REACTORS
330
C
102
}
330
C
100
AcDbDictionary
281
     1
  0
DICTIONARY
  5
61
102
{ACAD_REACTORS
330
C
102
}
330
C
100
AcDbDictionary
281
     1
  3
Model
350
6E
  3
レイアウト1
350
6A
  0
DICTIONARY
  5
10
102
{ACAD_REACTORS
330
C
102
}
330
C
100
AcDbDictionary
281
     1
  3
ByBlock
350
19
  3
ByLayer
350
11
  3
Global
350
21
  0
DICTIONARY
  5
65
102
{ACAD_REACTORS
330
C
102
}
330
C
100
AcDbDictionary
281
     1
  3
Standard
350
66
  0
DICTIONARY
  5
5E
102
{ACAD_REACTORS
330
C
102
}
330
C
100
AcDbDictionary
281
     1
  3
Standard
350
5F
  0
DICTIONARY
  5
60
102
{ACAD_REACTORS
330
C
102
}
330
C
100
AcDbDictionary
281
     1
  0
ACDBDICTIONARYWDFLT
  5
E
102
{ACAD_REACTORS
330
C
102
}
330
C
100
AcDbDictionary
281
     1
  3
Normal
350
F
100
AcDbDictionaryWithDefault
340
F
  0
DICTIONARY
  5
42
102
{ACAD_REACTORS
330
C
102
}
330
C
100
AcDbDictionary
281
     1
  3
A0
350
43
  3
A1
350
44
  3
A2
350
45
  3
A3
350
46
  3
A4
350
47
  3
A5
350
48
  3
A6
350
49
  3
A7
350
4A
  3
A8
350
4B
  3
A9
350
4C
  3
B0
350
4D
  3
B1
350
4E
  3
B2
350
4F
  3
B3
350
50
  3
B4
350
51
  3
B5
350
52
  3
B6
350
53
  0
DICTIONARY
  5
63
102
{ACAD_REACTORS
330
C
102
}
330
C
100
AcDbDictionary
281
     1
  3
Standard
350
64
  0
DICTIONARY
  5
29
102
{ACAD_REACTORS
330
C
102
}
330
C
100
AcDbDictionary
281
     1
  3
2dWireframe
350
2F
  3
3dWireframe
350
3D6
  3
Basic
350
2E
  3
Brighten
350
35
  3
ColorChange
350
39
  3
Conceptual
350
32
  3
Dim
350
34
  3
EdgeColorOff
350
41
  3
Facepattern
350
38
  3
Flat
350
2A
  3
FlatWithEdges
350
2B
  3
Gouraud
350
2C
  3
GouraudWithEdges
350
2D
  3
Hidden
350
31
  3
JitterOff
350
3F
  3
Linepattern
350
37
  3
OverhangOff
350
40
  3
Realistic
350
33
  3
Shaded
350
3E
  3
Shaded with edges
350
3D
  3
Shades of Gray
350
3A
  3
Sketchy
350
3B
  3
Thicken
350
36
  3
Wireframe
350
30
  3
X-Ray
350
3C
  0
XRECORD
  5
1517
102
{ACAD_REACTORS
330
C
102
}
330
C
100
AcDbXrecord
280
     1
 90
        1
330
64
  0
DICTIONARY
  5
58C
102
{ACAD_REACTORS
330
C
102
}
330
C
100
AcDbDictionary
281
     1
  3
CANNOSCALE
350
58F
  3
CMLEADERSTYLE
350
58E
  3
CTABLESTYLE
350
58D
  3
DIMASSOC
350
592
  3
INDEXCTL
350
591
  3
SORTENTS
350
590
  3
XCLIPFRAME
350
13F0
  0
XRECORD
  5
1518
102
{ACAD_REACTORS
330
C
102
}
330
C
100
AcDbXrecord
280
     1
  1
DWGPROPS COOKIE
  2

  3

  4

  6

  7

  8
imamura
  9

300
=
301
=
302
=
303
=
304
=
305
=
306
=
307
=
308
=
309
=
 40
0.111275775462963
 41
2456352.654038889
 42
2457074.468410058
  1

 90
        0
  0
DICTIONARY
  5
3DA
102
{ACAD_REACTORS
330
3D9
102
}
330
3D9
100
AcDbDictionary
281
     1
  0
XRECORD
  5
58B
102
{ACAD_REACTORS
330
58A
102
}
330
58A
100
AcDbXrecord
280
     1
290
     1
  0
SORTENTSTABLE
  5
662
102
{ACAD_REACTORS
330
661
102
}
330
661
100
AcDbSortentsTable
330
6B
331
1087
  5
1087
331
10FD
  5
10FD
331
1083
  5
1083
331
10BE
  5
10BE
331
11EE
  5
11EE
331
1174
  5
1174
331
10F9
  5
10F9
331
107F
  5
107F
331
10BA
  5
10BA
331
1134
  5
1134
331
11AF
  5
11AF
331
11EA
  5
11EA
331
1170
  5
1170
331
10F5
  5
10F5
331
107B
  5
107B
331
100E
  5
100E
331
F94
  5
F94
331
1130
  5
1130
331
11AB
  5
11AB
331
1225
  5
1225
331
11E6
  5
11E6
331
116C
  5
116C
331
10F1
  5
10F1
331
FCF
  5
FCF
331
100A
  5
100A
331
F90
  5
F90
331
1221
  5
1221
331
11E2
  5
11E2
331
1168
  5
1168
331
FCB
  5
FCB
331
1045
  5
1045
331
1006
  5
1006
331
F8C
  5
F8C
331
1041
  5
1041
331
1002
  5
1002
331
F88
  5
F88
331
14BC
  5
150D
331
14F7
  5
148A
331
14F3
  5
148C
331
14B4
  5
12B1
331
14B0
  5
12D7
331
12DF
  5
14EB
331
1265
  5
1265
331
12DB
  5
14E7
331
1261
  5
1261
331
129C
  5
129C
331
12D7
  5
14E3
331
125D
  5
125D
331
1298
  5
1298
331
12D3
  5
14DF
331
1259
  5
1259
331
10B6
  5
10B6
331
1077
  5
1077
331
10B2
  5
10B2
331
112C
  5
112C
331
11A7
  5
11A7
331
10ED
  5
10ED
331
1073
  5
1073
331
10AE
  5
10AE
331
1128
  5
1128
331
11A3
  5
11A3
331
121D
  5
121D
331
11DE
  5
11DE
331
1164
  5
1164
331
10E9
  5
10E9
331
106F
  5
106F
331
FC7
  5
FC7
331
10AA
  5
10AA
331
1124
  5
1124
331
119F
  5
119F
331
1219
  5
1219
331
11DA
  5
11DA
331
1160
  5
1160
331
10E5
  5
10E5
331
106B
  5
106B
331
FC3
  5
FC3
331
103D
  5
103D
331
FFE
  5
FFE
331
F84
  5
F84
331
1120
  5
1120
331
119B
  5
119B
331
1215
  5
1215
331
11D6
  5
11D6
331
115C
  5
115C
331
10E1
  5
10E1
331
FBF
  5
FBF
331
1039
  5
1039
331
FFA
  5
FFA
331
F80
  5
F80
331
1211
  5
1211
331
11D2
  5
11D2
331
1158
  5
1158
331
FBB
  5
FBB
331
1035
  5
1035
331
FF6
  5
FF6
331
F7C
  5
F7C
331
1031
  5
1031
331
14EF
  5
1490
331
FF2
  5
FF2
331
F78
  5
F78
331
14EB
  5
149C
331
14E7
  5
149D
331
14A8
  5
12E9
331
14E3
  5
14A4
331
14A0
  5
147B
331
1294
  5
1294
331
12CF
  5
14DB
331
1255
  5
1255
331
1290
  5
1290
331
12CB
  5
14D7
331
1251
  5
1251
331
128C
  5
128C
331
12C7
  5
14D3
331
124D
  5
124D
331
1288
  5
1288
331
1249
  5
1249
331
10A6
  5
10A6
331
1067
  5
1067
331
10A2
  5
10A2
331
111C
  5
111C
331
1197
  5
1197
331
10DD
  5
10DD
331
1063
  5
1063
331
109E
  5
109E
331
1118
  5
1118
331
1193
  5
1193
331
120D
  5
120D
331
11CE
  5
11CE
331
1154
  5
1154
331
10D9
  5
10D9
331
105F
  5
105F
331
FB7
  5
FB7
331
109A
  5
109A
331
1114
  5
1114
331
118F
  5
118F
331
1209
  5
1209
331
11CA
  5
11CA
331
1150
  5
1150
331
10D5
  5
10D5
331
105B
  5
105B
331
FB3
  5
FB3
331
102D
  5
102D
331
FEE
  5
FEE
331
F74
  5
F74
331
1110
  5
1110
331
118B
  5
118B
331
1205
  5
1205
331
11C6
  5
11C6
331
114C
  5
114C
331
10D1
  5
10D1
331
FAF
  5
FAF
331
1029
  5
1029
331
FEA
  5
FEA
331
F70
  5
F70
331
1201
  5
1201
331
11C2
  5
11C2
331
1148
  5
1148
331
FAB
  5
FAB
331
1025
  5
1025
331
FE6
  5
FE6
331
F6C
  5
F6C
331
1021
  5
1021
331
14DF
  5
14A6
331
FE2
  5
FE2
331
F68
  5
F68
331
14DB
  5
14B0
331
149C
  5
1487
331
14D7
  5
14B6
331
14D3
  5
14BD
331
1494
  5
149F
331
1513
  5
12CA
331
150F
  5
12CF
331
150B
  5
12DC
331
1284
  5
1284
331
12FE
  5
1512
331
1245
  5
1245
331
1280
  5
1280
331
1241
  5
1241
331
127C
  5
127C
331
12F6
  5
1502
331
123D
  5
123D
331
1278
  5
1278
331
12F2
  5
14FE
331
12B3
  5
1497
331
1239
  5
1239
331
1096
  5
1096
331
1057
  5
1057
331
1092
  5
1092
331
110C
  5
110C
331
1187
  5
1187
331
10CD
  5
10CD
331
1053
  5
1053
331
108E
  5
108E
331
1108
  5
1108
331
1183
  5
1183
331
11FD
  5
11FD
331
11BE
  5
11BE
331
1144
  5
1144
331
10C9
  5
10C9
331
104F
  5
104F
331
FA7
  5
FA7
331
108A
  5
108A
331
1104
  5
1104
331
117F
  5
117F
331
11F9
  5
11F9
331
11BA
  5
11BA
331
1140
  5
1140
331
10C5
  5
10C5
331
104B
  5
104B
331
FA3
  5
FA3
331
101D
  5
101D
331
FDE
  5
FDE
331
F64
  5
F64
331
1100
  5
1100
331
117B
  5
117B
331
11F5
  5
11F5
331
11B6
  5
11B6
331
113C
  5
113C
331
10C1
  5
10C1
331
F9F
  5
F9F
331
1019
  5
1019
331
FDA
  5
FDA
331
F60
  5
F60
331
11F1
  5
11F1
331
11B2
  5
11B2
331
1138
  5
1138
331
F9B
  5
F9B
331
1015
  5
1015
331
FD6
  5
FD6
331
F5C
  5
F5C
331
1011
  5
1011
331
14CF
  5
14BE
331
FD2
  5
FD2
331
F58
  5
F58
331
14CB
  5
14C4
331
14C7
  5
14CA
331
1488
  5
14BA
331
1507
  5
12DE
331
14C3
  5
14D0
331
1503
  5
12F2
331
14FF
  5
1478
331
14FB
  5
1483
331
1274
  5
1274
331
12EE
  5
14FA
331
1235
  5
1235
331
1270
  5
1270
331
12EA
  5
14F6
331
1231
  5
1231
331
126C
  5
126C
331
12E6
  5
14F2
331
12A7
  5
12A7
331
122D
  5
122D
331
1268
  5
1268
331
12E2
  5
14EE
331
12A3
  5
12A3
331
1229
  5
1229
331
1086
  5
1086
331
1177
  5
1177
331
10FC
  5
10FC
331
1082
  5
1082
331
10BD
  5
10BD
331
1137
  5
1137
331
11ED
  5
11ED
331
1173
  5
1173
331
10F8
  5
10F8
331
107E
  5
107E
331
F97
  5
F97
331
10B9
  5
10B9
331
1133
  5
1133
331
11AE
  5
11AE
331
11E9
  5
11E9
331
116F
  5
116F
331
10F4
  5
10F4
331
107A
  5
107A
331
100D
  5
100D
331
F93
  5
F93
331
11AA
  5
11AA
331
1224
  5
1224
331
11E5
  5
11E5
331
116B
  5
116B
331
10F0
  5
10F0
331
FCE
  5
FCE
331
1009
  5
1009
331
F8F
  5
F8F
331
1220
  5
1220
331
11E1
  5
11E1
331
FCA
  5
FCA
331
1044
  5
1044
331
1005
  5
1005
331
F8B
  5
F8B
331
1040
  5
1040
331
14BF
  5
1509
331
1001
  5
1001
331
14BB
  5
150C
331
14F6
  5
1489
331
1478
  5
150B
331
14F2
  5
148B
331
12DE
  5
14EA
331
1264
  5
1264
331
129F
  5
129F
331
12DA
  5
14E6
331
1260
  5
1260
331
129B
  5
129B
331
12D6
  5
14E2
331
125C
  5
125C
331
12D2
  5
14DE
331
1258
  5
1258
331
10B5
  5
10B5
331
112F
  5
112F
331
1076
  5
1076
331
10B1
  5
10B1
331
112B
  5
112B
331
11A6
  5
11A6
331
1167
  5
1167
331
10EC
  5
10EC
331
1072
  5
1072
331
10AD
  5
10AD
331
1127
  5
1127
331
11A2
  5
11A2
331
121C
  5
121C
331
11DD
  5
11DD
331
1163
  5
1163
331
10E8
  5
10E8
331
106E
  5
106E
331
FC6
  5
FC6
331
F87
  5
F87
331
10A9
  5
10A9
331
1123
  5
1123
331
119E
  5
119E
331
1218
  5
1218
331
11D9
  5
11D9
331
115F
  5
115F
331
10E4
  5
10E4
331
106A
  5
106A
331
FC2
  5
FC2
331
103C
  5
103C
331
FFD
  5
FFD
331
F83
  5
F83
331
119A
  5
119A
331
1214
  5
1214
331
11D5
  5
11D5
331
115B
  5
115B
331
10E0
  5
10E0
331
FBE
  5
FBE
331
1038
  5
1038
331
FF9
  5
FF9
331
F7F
  5
F7F
331
1210
  5
1210
331
11D1
  5
11D1
331
FBA
  5
FBA
331
1034
  5
1034
331
FF5
  5
FF5
331
F7B
  5
F7B
331
1030
  5
1030
331
14EE
  5
148F
331
14AF
  5
12D6
331
FF1
  5
FF1
331
14EA
  5
149B
331
14E6
  5
14A2
331
14A7
  5
12E8
331
14E2
  5
14A3
331
1297
  5
1297
331
1293
  5
1293
331
12CE
  5
14DA
331
1254
  5
1254
331
128F
  5
128F
331
12CA
  5
14D6
331
1250
  5
1250
331
128B
  5
128B
331
124C
  5
124C
331
1301
  5
1515
331
1248
  5
1248
331
10A5
  5
10A5
331
111F
  5
111F
331
1066
  5
1066
331
10A1
  5
10A1
331
111B
  5
111B
331
1196
  5
1196
331
1157
  5
1157
331
10DC
  5
10DC
331
1062
  5
1062
331
109D
  5
109D
331
1117
  5
1117
331
1192
  5
1192
331
120C
  5
120C
331
11CD
  5
11CD
331
1153
  5
1153
331
10D8
  5
10D8
331
105E
  5
105E
331
FB6
  5
FB6
331
F77
  5
F77
331
1099
  5
1099
331
1113
  5
1113
331
118E
  5
118E
331
1208
  5
1208
331
11C9
  5
11C9
331
114F
  5
114F
331
10D4
  5
10D4
331
105A
  5
105A
331
FB2
  5
FB2
331
102C
  5
102C
331
FED
  5
FED
331
F73
  5
F73
331
118A
  5
118A
331
1204
  5
1204
331
11C5
  5
11C5
331
114B
  5
114B
331
10D0
  5
10D0
331
FAE
  5
FAE
331
1028
  5
1028
331
FE9
  5
FE9
331
F6F
  5
F6F
331
1200
  5
1200
331
11C1
  5
11C1
331
FAA
  5
FAA
331
1024
  5
1024
331
FE5
  5
FE5
331
F6B
  5
F6B
331
1020
  5
1020
331
14DE
  5
14AA
331
FE1
  5
FE1
331
14DA
  5
14AD
331
149B
  5
1486
331
14D6
  5
14B5
331
1497
  5
1494
331
14D2
  5
14BC
331
1512
  5
12C9
331
150E
  5
12CE
331
150A
  5
12D8
331
1287
  5
1287
331
1283
  5
1283
331
12FD
  5
1511
331
1244
  5
1244
331
127F
  5
127F
331
1240
  5
1240
331
127B
  5
127B
331
12F5
  5
1501
331
123C
  5
123C
331
12F1
  5
14FD
331
12B2
  5
1496
331
1238
  5
1238
331
1095
  5
1095
331
110F
  5
110F
331
1056
  5
1056
331
1091
  5
1091
331
110B
  5
110B
331
1186
  5
1186
331
1147
  5
1147
331
10CC
  5
10CC
331
1052
  5
1052
331
108D
  5
108D
331
1107
  5
1107
331
1182
  5
1182
331
11FC
  5
11FC
331
11BD
  5
11BD
331
1143
  5
1143
331
10C8
  5
10C8
331
104E
  5
104E
331
FA6
  5
FA6
331
F67
  5
F67
331
1089
  5
1089
331
1103
  5
1103
331
117E
  5
117E
331
11F8
  5
11F8
331
11B9
  5
11B9
331
113F
  5
113F
331
10C4
  5
10C4
331
104A
  5
104A
331
FA2
  5
FA2
331
101C
  5
101C
331
FDD
  5
FDD
331
F63
  5
F63
331
117A
  5
117A
331
11F4
  5
11F4
331
11B5
  5
11B5
331
113B
  5
113B
331
10C0
  5
10C0
331
F9E
  5
F9E
331
1018
  5
1018
331
FD9
  5
FD9
331
F5F
  5
F5F
331
11F0
  5
11F0
331
11B1
  5
11B1
331
F9A
  5
F9A
331
1014
  5
1014
331
FD5
  5
FD5
331
F5B
  5
F5B
331
1010
  5
1010
331
14CE
  5
14C3
331
FD1
  5
FD1
331
14CA
  5
14C8
331
14C6
  5
14C9
331
1506
  5
12E6
331
14C2
  5
1507
331
1502
  5
1477
331
14FE
  5
1480
331
14FA
  5
1482
331
1277
  5
1277
331
1273
  5
1273
331
12ED
  5
14F9
331
1234
  5
1234
331
126F
  5
126F
331
12E9
  5
14F5
331
1230
  5
1230
331
126B
  5
126B
331
12E5
  5
14F1
331
12A6
  5
12A6
331
122C
  5
122C
331
12E1
  5
14ED
331
12A2
  5
12A2
331
1228
  5
1228
331
10FF
  5
10FF
331
1085
  5
1085
331
1176
  5
1176
331
10FB
  5
10FB
331
1081
  5
1081
331
10BC
  5
10BC
331
1136
  5
1136
331
11EC
  5
11EC
331
1172
  5
1172
331
10F7
  5
10F7
331
107D
  5
107D
331
F96
  5
F96
331
10B8
  5
10B8
331
1132
  5
1132
331
11AD
  5
11AD
331
1227
  5
1227
331
11E8
  5
11E8
331
116E
  5
116E
331
10F3
  5
10F3
331
1079
  5
1079
331
100C
  5
100C
331
F92
  5
F92
331
11A9
  5
11A9
331
1223
  5
1223
331
11E4
  5
11E4
331
116A
  5
116A
331
FCD
  5
FCD
331
1047
  5
1047
331
1008
  5
1008
331
F8E
  5
F8E
331
11E0
  5
11E0
331
FC9
  5
FC9
331
1043
  5
1043
331
1004
  5
1004
331
F8A
  5
F8A
331
14BE
  5
1508
331
1000
  5
1000
331
14BA
  5
150F
331
147F
  5
14CC
331
147B
  5
14D2
331
14F5
  5
1488
331
14B6
  5
12B3
331
14F1
  5
148E
331
1267
  5
1267
331
12DD
  5
14E9
331
1263
  5
1263
331
129E
  5
129E
331
12D9
  5
14E5
331
125F
  5
125F
331
129A
  5
129A
331
12D5
  5
14E1
331
125B
  5
125B
331
12D1
  5
14DD
331
10B4
  5
10B4
331
112E
  5
112E
331
10EF
  5
10EF
331
1075
  5
1075
331
10B0
  5
10B0
331
112A
  5
112A
331
11A5
  5
11A5
331
121F
  5
121F
331
1166
  5
1166
331
10EB
  5
10EB
331
1071
  5
1071
331
10AC
  5
10AC
331
1126
  5
1126
331
11A1
  5
11A1
331
121B
  5
121B
331
11DC
  5
11DC
331
1162
  5
1162
331
10E7
  5
10E7
331
106D
  5
106D
331
FC5
  5
FC5
331
103F
  5
103F
331
F86
  5
F86
331
10A8
  5
10A8
331
1122
  5
1122
331
119D
  5
119D
331
1217
  5
1217
331
11D8
  5
11D8
331
115E
  5
115E
331
10E3
  5
10E3
331
1069
  5
1069
331
FC1
  5
FC1
331
103B
  5
103B
331
FFC
  5
FFC
331
F82
  5
F82
331
1199
  5
1199
331
1213
  5
1213
331
11D4
  5
11D4
331
115A
  5
115A
331
FBD
  5
FBD
331
1037
  5
1037
331
FF8
  5
FF8
331
F7E
  5
F7E
331
11D0
  5
11D0
331
FB9
  5
FB9
331
1033
  5
1033
331
1477
  5
150A
331
FF4
  5
FF4
331
F7A
  5
F7A
331
14ED
  5
1493
331
14AE
  5
12D2
331
FF0
  5
FF0
331
14E9
  5
149A
331
14AA
  5
12EF
331
14E5
  5
14A1
331
14A6
  5
12E7
331
14E1
  5
14A8
331
14A2
  5
147D
331
1296
  5
1296
331
1257
  5
1257
331
1292
  5
1292
331
12CD
  5
14D9
331
1253
  5
1253
331
128E
  5
128E
331
12C9
  5
14D5
331
124F
  5
124F
331
128A
  5
128A
331
124B
  5
124B
331
1300
  5
1514
331
10A4
  5
10A4
331
111E
  5
111E
331
10DF
  5
10DF
331
1065
  5
1065
331
10A0
  5
10A0
331
111A
  5
111A
331
1195
  5
1195
331
120F
  5
120F
331
1156
  5
1156
331
10DB
  5
10DB
331
1061
  5
1061
331
109C
  5
109C
331
1116
  5
1116
331
1191
  5
1191
331
120B
  5
120B
331
11CC
  5
11CC
331
1152
  5
1152
331
10D7
  5
10D7
331
105D
  5
105D
331
FB5
  5
FB5
331
102F
  5
102F
331
F76
  5
F76
331
1098
  5
1098
331
1112
  5
1112
331
118D
  5
118D
331
1207
  5
1207
331
11C8
  5
11C8
331
114E
  5
114E
331
10D3
  5
10D3
331
1059
  5
1059
331
FB1
  5
FB1
331
102B
  5
102B
331
FEC
  5
FEC
331
F72
  5
F72
331
1189
  5
1189
331
1203
  5
1203
331
11C4
  5
11C4
331
114A
  5
114A
331
FAD
  5
FAD
331
1027
  5
1027
331
FE8
  5
FE8
331
F6E
  5
F6E
331
11C0
  5
11C0
331
FA9
  5
FA9
331
1023
  5
1023
331
FE4
  5
FE4
331
F6A
  5
F6A
331
14DD
  5
14A9
331
FE0
  5
FE0
331
14D9
  5
14B4
331
149A
  5
1485
331
1515
  5
14CF
331
14D5
  5
14B9
331
14D1
  5
14BB
331
1511
  5
12C8
331
150D
  5
12D1
331
1509
  5
12E5
331
1286
  5
1286
331
1247
  5
1247
331
1282
  5
1282
331
12FC
  5
1510
331
1243
  5
1243
331
127E
  5
127E
331
12F8
  5
1504
331
123F
  5
123F
331
127A
  5
127A
331
12F4
  5
1500
331
12B5
  5
1499
331
123B
  5
123B
331
12F0
  5
14FC
331
12B1
  5
1495
331
1094
  5
1094
331
110E
  5
110E
331
10CF
  5
10CF
331
1055
  5
1055
331
1090
  5
1090
331
110A
  5
110A
331
1185
  5
1185
331
11FF
  5
11FF
331
1146
  5
1146
331
10CB
  5
10CB
331
1051
  5
1051
331
108C
  5
108C
331
1106
  5
1106
331
1181
  5
1181
331
11FB
  5
11FB
331
11BC
  5
11BC
331
1142
  5
1142
331
10C7
  5
10C7
331
104D
  5
104D
331
FA5
  5
FA5
331
101F
  5
101F
331
F66
  5
F66
331
1088
  5
1088
331
1102
  5
1102
331
117D
  5
117D
331
11F7
  5
11F7
331
11B8
  5
11B8
331
113E
  5
113E
331
10C3
  5
10C3
331
1049
  5
1049
331
FA1
  5
FA1
331
101B
  5
101B
331
FDC
  5
FDC
331
F62
  5
F62
331
1179
  5
1179
331
11F3
  5
11F3
331
11B4
  5
11B4
331
113A
  5
113A
331
F9D
  5
F9D
331
1017
  5
1017
331
FD8
  5
FD8
331
F5E
  5
F5E
331
11B0
  5
11B0
331
F99
  5
F99
331
1013
  5
1013
331
FD4
  5
FD4
331
F5A
  5
F5A
331
14CD
  5
14C2
331
148E
  5
14AC
331
FD0
  5
FD0
331
14C9
  5
14C7
331
1505
  5
12F8
331
14C1
  5
1506
331
1482
  5
14C5
331
1501
  5
1301
331
14FD
  5
147F
331
14F9
  5
1481
331
1276
  5
1276
331
1237
  5
1237
331
1272
  5
1272
331
12EC
  5
14F8
331
1233
  5
1233
331
126E
  5
126E
331
12E8
  5
14F4
331
12A9
  5
12A9
331
122F
  5
122F
331
126A
  5
126A
331
12E4
  5
14F0
331
12A5
  5
12A5
331
122B
  5
122B
331
12E0
  5
14EC
331
12A1
  5
12A1
331
10FE
  5
10FE
331
1084
  5
1084
331
10BF
  5
10BF
331
11EF
  5
11EF
331
1175
  5
1175
331
10FA
  5
10FA
331
1080
  5
1080
331
10BB
  5
10BB
331
1135
  5
1135
331
11EB
  5
11EB
331
1171
  5
1171
331
10F6
  5
10F6
331
107C
  5
107C
331
100F
  5
100F
331
F95
  5
F95
331
1131
  5
1131
331
11AC
  5
11AC
331
1226
  5
1226
331
11E7
  5
11E7
331
116D
  5
116D
331
10F2
  5
10F2
331
1078
  5
1078
331
100B
  5
100B
331
F91
  5
F91
331
11A8
  5
11A8
331
1222
  5
1222
331
11E3
  5
11E3
331
1169
  5
1169
331
FCC
  5
FCC
331
1046
  5
1046
331
1007
  5
1007
331
F8D
  5
F8D
331
FC8
  5
FC8
331
1042
  5
1042
331
1003
  5
1003
331
F89
  5
F89
331
14BD
  5
150E
331
147E
  5
14CB
331
14F4
  5
148D
331
14B5
  5
12B2
331
14F0
  5
1491
331
1266
  5
1266
331
12DC
  5
14E8
331
1262
  5
1262
331
129D
  5
129D
331
12D8
  5
14E4
331
125E
  5
125E
331
1299
  5
1299
331
12D4
  5
14E0
331
125A
  5
125A
331
12D0
  5
14DC
331
10B7
  5
10B7
331
10B3
  5
10B3
331
112D
  5
112D
331
10EE
  5
10EE
331
1074
  5
1074
331
10AF
  5
10AF
331
1129
  5
1129
331
11A4
  5
11A4
331
121E
  5
121E
331
11DF
  5
11DF
331
1165
  5
1165
331
10EA
  5
10EA
331
1070
  5
1070
331
10AB
  5
10AB
331
1125
  5
1125
331
11A0
  5
11A0
331
121A
  5
121A
331
11DB
  5
11DB
331
1161
  5
1161
331
10E6
  5
10E6
331
106C
  5
106C
331
FC4
  5
FC4
331
103E
  5
103E
331
FFF
  5
FFF
331
F85
  5
F85
331
1121
  5
1121
331
119C
  5
119C
331
1216
  5
1216
331
11D7
  5
11D7
331
115D
  5
115D
331
10E2
  5
10E2
331
1068
  5
1068
331
FC0
  5
FC0
331
103A
  5
103A
331
FFB
  5
FFB
331
F81
  5
F81
331
1198
  5
1198
331
1212
  5
1212
331
11D3
  5
11D3
331
1159
  5
1159
331
FBC
  5
FBC
331
1036
  5
1036
331
FF7
  5
FF7
331
F7D
  5
F7D
331
FB8
  5
FB8
331
1032
  5
1032
331
FF3
  5
FF3
331
F79
  5
F79
331
14EC
  5
1492
331
14E8
  5
149E
331
14A9
  5
12EC
331
14E4
  5
14A0
331
14E0
  5
14A7
331
14A1
  5
147C
331
1295
  5
1295
331
1256
  5
1256
331
1291
  5
1291
331
12CC
  5
14D8
331
1252
  5
1252
331
128D
  5
128D
331
12C8
  5
14D4
331
124E
  5
124E
331
1289
  5
1289
331
124A
  5
124A
331
10A7
  5
10A7
331
10A3
  5
10A3
331
111D
  5
111D
331
10DE
  5
10DE
331
1064
  5
1064
331
109F
  5
109F
331
1119
  5
1119
331
1194
  5
1194
331
120E
  5
120E
331
11CF
  5
11CF
331
1155
  5
1155
331
10DA
  5
10DA
331
1060
  5
1060
331
109B
  5
109B
331
1115
  5
1115
331
1190
  5
1190
331
120A
  5
120A
331
11CB
  5
11CB
331
1151
  5
1151
331
10D6
  5
10D6
331
105C
  5
105C
331
FB4
  5
FB4
331
102E
  5
102E
331
FEF
  5
FEF
331
F75
  5
F75
331
1111
  5
1111
331
118C
  5
118C
331
1206
  5
1206
331
11C7
  5
11C7
331
114D
  5
114D
331
10D2
  5
10D2
331
1058
  5
1058
331
FB0
  5
FB0
331
102A
  5
102A
331
FEB
  5
FEB
331
F71
  5
F71
331
1188
  5
1188
331
1202
  5
1202
331
11C3
  5
11C3
331
1149
  5
1149
331
FAC
  5
FAC
331
1026
  5
1026
331
FE7
  5
FE7
331
F6D
  5
F6D
331
FA8
  5
FA8
331
1022
  5
1022
331
FE3
  5
FE3
331
F69
  5
F69
331
14DC
  5
14B1
331
14D8
  5
14B7
331
1514
  5
14CE
331
14D4
  5
14B8
331
14D0
  5
14BF
331
1491
  5
14A5
331
1510
  5
12D0
331
150C
  5
12DD
331
1508
  5
12E4
331
1285
  5
1285
331
12FF
  5
1513
331
1246
  5
1246
331
1281
  5
1281
331
1242
  5
1242
331
127D
  5
127D
331
12F7
  5
1503
331
123E
  5
123E
331
1279
  5
1279
331
12F3
  5
14FF
331
12B4
  5
1498
331
123A
  5
123A
331
1097
  5
1097
331
1093
  5
1093
331
110D
  5
110D
331
10CE
  5
10CE
331
1054
  5
1054
331
108F
  5
108F
331
1109
  5
1109
331
1184
  5
1184
331
11FE
  5
11FE
331
11BF
  5
11BF
331
1145
  5
1145
331
10CA
  5
10CA
331
1050
  5
1050
331
108B
  5
108B
331
1105
  5
1105
331
1180
  5
1180
331
11FA
  5
11FA
331
11BB
  5
11BB
331
1141
  5
1141
331
10C6
  5
10C6
331
104C
  5
104C
331
FA4
  5
FA4
331
101E
  5
101E
331
FDF
  5
FDF
331
F65
  5
F65
331
1101
  5
1101
331
117C
  5
117C
331
11F6
  5
11F6
331
11B7
  5
11B7
331
113D
  5
113D
331
10C2
  5
10C2
331
1048
  5
1048
331
FA0
  5
FA0
331
101A
  5
101A
331
FDB
  5
FDB
331
F61
  5
F61
331
1178
  5
1178
331
11F2
  5
11F2
331
11B3
  5
11B3
331
1139
  5
1139
331
F9C
  5
F9C
331
1016
  5
1016
331
FD7
  5
FD7
331
F5D
  5
F5D
331
F98
  5
F98
331
1012
  5
1012
331
FD3
  5
FD3
331
F59
  5
F59
331
14CC
  5
14C1
331
148D
  5
14AB
331
14C8
  5
14C6
331
14C4
  5
14D1
331
1485
  5
14C0
331
1504
  5
12F3
331
14C0
  5
1505
331
1500
  5
12FE
331
14FC
  5
147E
331
14F8
  5
1484
331
1275
  5
1275
331
12EF
  5
14FB
331
1236
  5
1236
331
1271
  5
1271
331
12EB
  5
14F7
331
1232
  5
1232
331
126D
  5
126D
331
12E7
  5
14F3
331
12A8
  5
12A8
331
122E
  5
122E
331
1269
  5
1269
331
12E3
  5
14EF
331
12A4
  5
12A4
331
122A
  5
122A
331
12A0
  5
12A0
  0
XRECORD
  5
151B
102
{ACAD_REACTORS
330
1519
102
}
330
1519
100
AcDbXrecord
280
     1
 70
     2
  0
XRECORD
  5
151A
102
{ACAD_REACTORS
330
1519
102
}
330
1519
100
AcDbXrecord
280
     1
 40
1.25
  0
XRECORD
  5
151C
102
{ACAD_REACTORS
330
1519
102
}
330
1519
100
AcDbXrecord
280
     1
 40
1.570796326794896
  0
LAYOUT
  5
6E
102
{ACAD_XDICTIONARY
360
1550
102
}
102
{ACAD_REACTORS
330
61
102
}
330
61
100
AcDbPlotSettings
  1

  2
none_device
  4
Letter_(8.50_x_11.00_Inches)
  6

 40
6.349999904632568
 41
6.349999904632568
 42
6.350006103515625
 43
6.350006103515625
 44
215.8999938964844
 45
279.3999938964844
 46
0.0
 47
0.0
 48
0.0
 49
0.0
140
0.0
141
0.0
142
1.0
143
49.39684467970149
 70
 11952
 72
     0
 73
     1
 74
     0
  7

 75
     0
147
0.0202442080356385
148
-15978.02698751612
149
8131.385841410446
100
AcDbLayout
  1
Model
 70
     1
 71
     0
 10
0.0
 20
0.0
 11
12.0
 21
9.0
 12
0.0
 22
0.0
 32
0.0
 14
0.0
 24
0.0
 34
0.0
 15
0.0
 25
0.0
 35
0.0
146
0.0
 13
0.0
 23
0.0
 33
0.0
 16
1.0
 26
0.0
 36
0.0
 17
0.0
 27
1.0
 37
0.0
 76
     0
330
6B
331
8B
1001
ACAD_PSEXT
1000
なし
1000
なし
1000
適切ではありません
1000
新しいプロッタ環境設定名を選択しない限り、レイアウトは印刷されません。
1070
     0
  0
LAYOUT
  5
6A
102
{ACAD_XDICTIONARY
360
154E
102
}
102
{ACAD_REACTORS
330
61
102
}
330
61
100
AcDbPlotSettings
  1

  2
FX DP 205
  4

  6

 40
0.0
 41
0.0
 42
0.0
 43
0.0
 44
0.0
 45
0.0
 46
0.0
 47
0.0
 48
0.0
 49
0.0
140
0.0
141
0.0
142
1.0
143
1.0
 70
   688
 72
     0
 73
     0
 74
     5
  7

 75
    16
147
1.0
148
0.0
149
0.0
100
AcDbLayout
  1
レイアウト1
 70
     1
 71
     1
 10
0.0
 20
0.0
 11
12.0
 21
9.0
 12
0.0
 22
0.0
 32
0.0
 14
1.000000000000000E+20
 24
1.000000000000000E+20
 34
1.000000000000000E+20
 15
-1.000000000000000E+20
 25
-1.000000000000000E+20
 35
-1.000000000000000E+20
146
0.0
 13
0.0
 23
0.0
 33
0.0
 16
1.0
 26
0.0
 36
0.0
 17
0.0
 27
1.0
 37
0.0
 76
     0
330
67
  0
MATERIAL
  5
19
102
{ACAD_XDICTIONARY
360
1A
102
}
102
{ACAD_REACTORS
330
10
102
}
330
10
100
AcDbMaterial
  1
ByBlock
 72
     0
 43
0.0208333333333333
 43
0.0
 43
0.0
 43
0.0
 43
0.0
 43
0.0208333333333333
 43
0.0
 43
0.0
 43
0.0
 43
0.0
 43
1.0
 43
0.0
 43
0.0
 43
0.0
 43
0.0
 43
1.0
 77
     0
 47
0.0208333333333333
 47
0.0
 47
0.0
 47
0.0
 47
0.0
 47
0.0208333333333333
 47
0.0
 47
0.0
 47
0.0
 47
0.0
 47
1.0
 47
0.0
 47
0.0
 47
0.0
 47
0.0
 47
1.0
171
     0
 49
0.0208333333333333
 49
0.0
 49
0.0
 49
0.0
 49
0.0
 49
0.0208333333333333
 49
0.0
 49
0.0
 49
0.0
 49
0.0
 49
1.0
 49
0.0
 49
0.0
 49
0.0
 49
0.0
 49
1.0
175
     0
142
0.0208333333333333
142
0.0
142
0.0
142
0.0
142
0.0
142
0.0208333333333333
142
0.0
142
0.0
142
0.0
142
0.0
142
1.0
142
0.0
142
0.0
142
0.0
142
0.0
142
1.0
179
     0
144
0.0208333333333333
144
0.0
144
0.0
144
0.0
144
0.0
144
0.0208333333333333
144
0.0
144
0.0
144
0.0
144
0.0
144
1.0
144
0.0
144
0.0
144
0.0
144
0.0
144
1.0
147
0.0208333333333333
147
0.0
147
0.0
147
0.0
147
0.0
147
0.0208333333333333
147
0.0
147
0.0
147
0.0
147
0.0
147
1.0
147
0.0
147
0.0
147
0.0
147
0.0
147
1.0
  0
MATERIAL
  5
11
102
{ACAD_XDICTIONARY
360
12
102
}
102
{ACAD_REACTORS
330
10
102
}
330
10
100
AcDbMaterial
  1
ByLayer
 72
     0
 43
0.0208333333333333
 43
0.0
 43
0.0
 43
0.0
 43
0.0
 43
0.0208333333333333
 43
0.0
 43
0.0
 43
0.0
 43
0.0
 43
1.0
 43
0.0
 43
0.0
 43
0.0
 43
0.0
 43
1.0
 77
     0
 47
0.0208333333333333
 47
0.0
 47
0.0
 47
0.0
 47
0.0
 47
0.0208333333333333
 47
0.0
 47
0.0
 47
0.0
 47
0.0
 47
1.0
 47
0.0
 47
0.0
 47
0.0
 47
0.0
 47
1.0
171
     0
 49
0.0208333333333333
 49
0.0
 49
0.0
 49
0.0
 49
0.0
 49
0.0208333333333333
 49
0.0
 49
0.0
 49
0.0
 49
0.0
 49
1.0
 49
0.0
 49
0.0
 49
0.0
 49
0.0
 49
1.0
175
     0
142
0.0208333333333333
142
0.0
142
0.0
142
0.0
142
0.0
142
0.0208333333333333
142
0.0
142
0.0
142
0.0
142
0.0
142
1.0
142
0.0
142
0.0
142
0.0
142
0.0
142
1.0
179
     0
144
0.0208333333333333
144
0.0
144
0.0
144
0.0
144
0.0
144
0.0208333333333333
144
0.0
144
0.0
144
0.0
144
0.0
144
1.0
144
0.0
144
0.0
144
0.0
144
0.0
144
1.0
147
0.0208333333333333
147
0.0
147
0.0
147
0.0
147
0.0
147
0.0208333333333333
147
0.0
147
0.0
147
0.0
147
0.0
147
1.0
147
0.0
147
0.0
147
0.0
147
0.0
147
1.0
  0
MATERIAL
  5
21
102
{ACAD_XDICTIONARY
360
22
102
}
102
{ACAD_REACTORS
330
10
102
}
330
10
100
AcDbMaterial
  1
Global
 72
     0
 43
0.0208333333333333
 43
0.0
 43
0.0
 43
0.0
 43
0.0
 43
0.0208333333333333
 43
0.0
 43
0.0
 43
0.0
 43
0.0
 43
1.0
 43
0.0
 43
0.0
 43
0.0
 43
0.0
 43
1.0
 77
     0
 47
0.0208333333333333
 47
0.0
 47
0.0
 47
0.0
 47
0.0
 47
0.0208333333333333
 47
0.0
 47
0.0
 47
0.0
 47
0.0
 47
1.0
 47
0.0
 47
0.0
 47
0.0
 47
0.0
 47
1.0
171
     0
 49
0.0208333333333333
 49
0.0
 49
0.0
 49
0.0
 49
0.0
 49
0.0208333333333333
 49
0.0
 49
0.0
 49
0.0
 49
0.0
 49
1.0
 49
0.0
 49
0.0
 49
0.0
 49
0.0
 49
1.0
175
     0
142
0.0208333333333333
142
0.0
142
0.0
142
0.0
142
0.0
142
0.0208333333333333
142
0.0
142
0.0
142
0.0
142
0.0
142
1.0
142
0.0
142
0.0
142
0.0
142
0.0
142
1.0
179
     0
144
0.0208333333333333
144
0.0
144
0.0
144
0.0
144
0.0
144
0.0208333333333333
144
0.0
144
0.0
144
0.0
144
0.0
144
1.0
144
0.0
144
0.0
144
0.0
144
0.0
144
1.0
147
0.0208333333333333
147
0.0
147
0.0
147
0.0
147
0.0
147
0.0208333333333333
147
0.0
147
0.0
147
0.0
147
0.0
147
1.0
147
0.0
147
0.0
147
0.0
147
0.0
147
1.0
  0
MLEADERSTYLE
  5
66
102
{ACAD_REACTORS
330
65
102
}
330
65
100
AcDbMLeaderStyle
170
     2
171
     1
172
     0
 90
        2
 40
0.0
 41
0.0
173
     1
 91
-1056964608
340
5A
 92
       -2
290
     1
 42
0.09
291
     1
 43
0.36
  3
Standard
 44
0.18
300

342
55
174
     1
178
     6
175
     1
176
     0
 93
-1056964608
 45
0.18
292
     0
297
     0
 46
0.18
 94
-1056964608
 47
1.0
 49
1.0
140
1.0
293
     1
141
0.0
294
     1
177
     0
142
1.0
295
     0
296
     0
143
0.125
1001
ACAD_MLEADERVER
1070
     2
  0
MLINESTYLE
  5
5F
102
{ACAD_REACTORS
330
5E
102
}
330
5E
100
AcDbMlineStyle
  2
STANDARD
 70
     0
  3

 62
   256
 51
90.0
 52
90.0
 71
     2
 49
0.5
 62
   256
  6
BYLAYER
 49
-0.5
 62
   256
  6
BYLAYER
  0
ACDBPLACEHOLDER
  5
F
102
{ACAD_REACTORS
330
E
102
}
330
E
  0
SCALE
  5
43
102
{ACAD_REACTORS
330
42
102
}
330
42
100
AcDbScale
 70
     0
300
1:1
140
1.0
141
1.0
290
     1
  0
SCALE
  5
44
102
{ACAD_REACTORS
330
42
102
}
330
42
100
AcDbScale
 70
     0
300
1/128" = 1'-0"
140
0.0078125
141
12.0
290
     0
  0
SCALE
  5
45
102
{ACAD_REACTORS
330
42
102
}
330
42
100
AcDbScale
 70
     0
300
1/64" = 1'-0"
140
0.015625
141
12.0
290
     0
  0
SCALE
  5
46
102
{ACAD_REACTORS
330
42
102
}
330
42
100
AcDbScale
 70
     0
300
1/32" = 1'-0"
140
0.03125
141
12.0
290
     0
  0
SCALE
  5
47
102
{ACAD_REACTORS
330
42
102
}
330
42
100
AcDbScale
 70
     0
300
1/16" = 1'-0"
140
0.0625
141
12.0
290
     0
  0
SCALE
  5
48
102
{ACAD_REACTORS
330
42
102
}
330
42
100
AcDbScale
 70
     0
300
3/32" = 1'-0"
140
0.09375
141
12.0
290
     0
  0
SCALE
  5
49
102
{ACAD_REACTORS
330
42
102
}
330
42
100
AcDbScale
 70
     0
300
1/8" = 1'-0"
140
0.125
141
12.0
290
     0
  0
SCALE
  5
4A
102
{ACAD_REACTORS
330
42
102
}
330
42
100
AcDbScale
 70
     0
300
3/16" = 1'-0"
140
0.1875
141
12.0
290
     0
  0
SCALE
  5
4B
102
{ACAD_REACTORS
330
42
102
}
330
42
100
AcDbScale
 70
     0
300
1/4" = 1'-0"
140
0.25
141
12.0
290
     0
  0
SCALE
  5
4C
102
{ACAD_REACTORS
330
42
102
}
330
42
100
AcDbScale
 70
     0
300
3/8" = 1'-0"
140
0.375
141
12.0
290
     0
  0
SCALE
  5
4D
102
{ACAD_REACTORS
330
42
102
}
330
42
100
AcDbScale
 70
     0
300
1/2" = 1'-0"
140
0.5
141
12.0
290
     0
  0
SCALE
  5
4E
102
{ACAD_REACTORS
330
42
102
}
330
42
100
AcDbScale
 70
     0
300
3/4" = 1'-0"
140
0.75
141
12.0
290
     0
  0
SCALE
  5
4F
102
{ACAD_REACTORS
330
42
102
}
330
42
100
AcDbScale
 70
     0
300
1" = 1'-0"
140
1.0
141
12.0
290
     0
  0
SCALE
  5
50
102
{ACAD_REACTORS
330
42
102
}
330
42
100
AcDbScale
 70
     0
300
1-1/2" = 1'-0"
140
1.5
141
12.0
290
     0
  0
SCALE
  5
51
102
{ACAD_REACTORS
330
42
102
}
330
42
100
AcDbScale
 70
     0
300
3" = 1'-0"
140
3.0
141
12.0
290
     0
  0
SCALE
  5
52
102
{ACAD_REACTORS
330
42
102
}
330
42
100
AcDbScale
 70
     0
300
6" = 1'-0"
140
6.0
141
12.0
290
     0
  0
SCALE
  5
53
102
{ACAD_REACTORS
330
42
102
}
330
42
100
AcDbScale
 70
     0
300
1'-0" = 1'-0"
140
12.0
141
12.0
290
     0
  0
TABLESTYLE
  5
64
102
{ACAD_XDICTIONARY
360
594
102
}
102
{ACAD_REACTORS
330
63
102
}
330
63
100
AcDbTableStyle
  3
Standard
 70
     0
 71
     0
 40
0.06
 41
0.06
280
     0
281
     0
  7
STANDARD
140
0.18
170
     2
 62
     0
 63
     7
283
     0
274
    -2
284
     1
 64
     0
275
    -2
285
     1
 65
     0
276
    -2
286
     1
 66
     0
277
    -2
287
     1
 67
     0
278
    -2
288
     1
 68
     0
279
    -2
289
     1
 69
     0
  7
STANDARD
140
0.25
170
     5
 62
     0
 63
     7
283
     0
274
    -2
284
     1
 64
     0
275
    -2
285
     1
 65
     0
276
    -2
286
     1
 66
     0
277
    -2
287
     1
 67
     0
278
    -2
288
     1
 68
     0
279
    -2
289
     1
 69
     0
  7
STANDARD
140
0.18
170
     5
 62
     0
 63
     7
283
     0
274
    -2
284
     1
 64
     0
275
    -2
285
     1
 65
     0
276
    -2
286
     1
 66
     0
277
    -2
287
     1
 67
     0
278
    -2
288
     1
 68
     0
279
    -2
289
     1
 69
     0
  0
VISUALSTYLE
  5
2F
102
{ACAD_XDICTIONARY
360
1527
102
}
102
{ACAD_REACTORS
330
29
102
}
330
29
100
AcDbVisualStyle
  2

 70
     4
 71
     0
 72
     2
 73
     0
 90
        0
 40
-0.6
 41
-30.0
 62
     5
 63
     7
 74
     1
 91
        4
 64
     7
 65
   257
 75
     1
175
     1
 42
1.0
 92
        0
 66
   257
 43
1.0
 76
     1
 77
     6
 78
     2
 67
     7
 79
     5
170
     0
171
     0
290
     0
174
     0
 93
        1
 44
0.0
173
     0
291
     0
 45
0.0
1001
ACAD
1000
AcDbSavedByObjectVersion
1070
     0
  0
VISUALSTYLE
  5
3D6
102
{ACAD_XDICTIONARY
360
1552
102
}
102
{ACAD_REACTORS
330
29
102
}
330
29
100
AcDbVisualStyle
  2

 70
     5
 71
     0
 72
     2
 73
     1
 90
        0
 40
-0.6
 41
-30.0
 62
     5
 63
     7
 74
     1
 91
        4
 64
     7
 65
   257
 75
     1
175
     1
 42
1.0
 92
        0
 66
   257
 43
1.0
 76
     1
 77
     6
 78
     2
 67
     7
 79
     5
170
     0
171
     0
290
     0
174
     0
 93
        1
 44
0.0
173
     0
291
     0
 45
0.0
1001
ACAD
1000
AcDbSavedByObjectVersion
1070
     0
  0
VISUALSTYLE
  5
2E
102
{ACAD_XDICTIONARY
360
1525
102
}
102
{ACAD_REACTORS
330
29
102
}
330
29
100
AcDbVisualStyle
  2

 70
     7
 71
     1
 72
     0
 73
     1
 90
        0
 40
-0.6
 41
-30.0
 62
     5
 63
     7
 74
     0
 91
        4
 64
     7
 65
   257
 75
     1
175
     1
 42
1.0
 92
        8
 66
     7
 43
1.0
 76
     1
 77
     6
 78
     2
 67
     7
 79
     5
170
     0
171
     0
290
     0
174
     0
 93
        1
 44
0.0
173
     0
291
     1
 45
0.0
1001
ACAD
1000
AcDbSavedByObjectVersion
1070
     0
  0
VISUALSTYLE
  5
35
102
{ACAD_XDICTIONARY
360
1533
102
}
102
{ACAD_REACTORS
330
29
102
}
330
29
100
AcDbVisualStyle
  2

 70
    12
 71
     2
 72
     2
 73
     0
 90
        0
 40
-0.6
 41
-30.0
 62
     5
 63
     7
 74
     1
 91
        4
 64
     7
 65
   257
 75
     1
175
     1
 42
1.0
 92
        8
 66
     7
 43
1.0
 76
     1
 77
     6
 78
     2
 67
     7
 79
     5
170
     0
171
     0
290
     0
174
     0
 93
        1
 44
50.0
173
     0
291
     1
 45
0.0
1001
ACAD
1000
AcDbSavedByObjectVersion
1070
     0
  0
VISUALSTYLE
  5
39
102
{ACAD_XDICTIONARY
360
153B
102
}
102
{ACAD_REACTORS
330
29
102
}
330
29
100
AcDbVisualStyle
  2

 70
    16
 71
     2
 72
     2
 73
     3
 90
        0
 40
-0.6
 41
-30.0
 62
     5
 63
     8
 74
     1
 91
        4
 64
     7
 65
   257
 75
     1
175
     1
 42
1.0
 92
        8
 66
     8
 43
1.0
 76
     1
 77
     6
 78
     2
 67
     7
 79
     5
170
     0
171
     0
290
     0
174
     0
 93
        1
 44
0.0
173
     0
291
     1
 45
0.0
1001
ACAD
1000
AcDbSavedByObjectVersion
1070
     0
  0
VISUALSTYLE
  5
32
102
{ACAD_XDICTIONARY
360
152D
102
}
102
{ACAD_REACTORS
330
29
102
}
330
29
100
AcDbVisualStyle
  2

 70
     9
 71
     3
 72
     2
 73
     0
 90
        0
 40
-0.6
 41
-30.0
 62
     5
 63
     7
 74
     2
 91
        2
 64
     7
 65
   257
 75
     1
175
     1
 42
179.0
 92
        8
 66
     7
 43
1.0
 76
     1
 77
     6
 78
     2
 67
     7
 79
     3
170
     0
171
     0
290
     0
174
     0
 93
        1
 44
0.0
173
     0
291
     0
 45
0.0
1001
ACAD
1000
AcDbSavedByObjectVersion
1070
     0
  0
VISUALSTYLE
  5
34
102
{ACAD_XDICTIONARY
360
1531
102
}
102
{ACAD_REACTORS
330
29
102
}
330
29
100
AcDbVisualStyle
  2

 70
    11
 71
     2
 72
     2
 73
     0
 90
        0
 40
-0.6
 41
-30.0
 62
     5
 63
     7
 74
     1
 91
        4
 64
     7
 65
   257
 75
     1
175
     1
 42
1.0
 92
        8
 66
     7
 43
1.0
 76
     1
 77
     6
 78
     2
 67
     7
 79
     5
170
     0
171
     0
290
     0
174
     0
 93
        1
 44
-50.0
173
     0
291
     1
 45
0.0
1001
ACAD
1000
AcDbSavedByObjectVersion
1070
     0
  0
VISUALSTYLE
  5
41
102
{ACAD_XDICTIONARY
360
154B
102
}
102
{ACAD_REACTORS
330
29
102
}
330
29
100
AcDbVisualStyle
  2

 70
    22
 71
     2
 72
     2
 73
     0
 90
        0
 40
-0.6
 41
-30.0
 62
     5
 63
     7
 74
     1
 91
        4
 64
     7
 65
   257
 75
     1
175
     1
 42
1.0
 92
        8
 66
     7
 43
1.0
 76
     1
 77
     6
 78
     2
 67
     7
 79
     5
170
     0
171
     0
290
     0
174
     0
 93
        1
 44
0.0
173
     0
291
     1
 45
0.0
1001
ACAD
1000
AcDbSavedByObjectVersion
1070
     0
  0
VISUALSTYLE
  5
38
102
{ACAD_XDICTIONARY
360
1539
102
}
102
{ACAD_REACTORS
330
29
102
}
330
29
100
AcDbVisualStyle
  2

 70
    15
 71
     2
 72
     2
 73
     0
 90
        0
 40
-0.6
 41
-30.0
 62
     5
 63
     7
 74
     1
 91
        4
 64
     7
 65
   257
 75
     1
175
     1
 42
1.0
 92
        8
 66
     7
 43
1.0
 76
     1
 77
     6
 78
     2
 67
     7
 79
     5
170
     0
171
     0
290
     0
174
     0
 93
        1
 44
0.0
173
     0
291
     1
 45
0.0
1001
ACAD
1000
AcDbSavedByObjectVersion
1070
     0
  0
VISUALSTYLE
  5
2A
102
{ACAD_XDICTIONARY
360
151D
102
}
102
{ACAD_REACTORS
330
29
102
}
330
29
100
AcDbVisualStyle
  2

 70
     0
 71
     2
 72
     1
 73
     1
 90
        2
 40
-0.6
 41
30.0
 62
     5
 63
     7
 74
     0
 91
        0
 64
     7
 65
   257
 75
     1
175
     1
 42
1.0
 92
        8
 66
     7
 43
1.0
 76
     1
 77
     6
 78
     2
 67
     7
 79
     5
170
     0
171
     0
290
     0
174
     0
 93
       13
 44
0.0
173
     0
291
     1
 45
0.0
1001
ACAD
1000
AcDbSavedByObjectVersion
1070
     0
  0
VISUALSTYLE
  5
2B
102
{ACAD_XDICTIONARY
360
151F
102
}
102
{ACAD_REACTORS
330
29
102
}
330
29
100
AcDbVisualStyle
  2

 70
     1
 71
     2
 72
     1
 73
     1
 90
        2
 40
-0.6
 41
30.0
 62
     5
 63
     7
 74
     1
 91
        0
 64
     7
 65
   257
 75
     1
175
     1
 42
1.0
 92
        0
 66
   257
 43
1.0
 76
     1
 77
     6
 78
     2
 67
     7
 79
     5
170
     0
171
     0
290
     0
174
     0
 93
       13
 44
0.0
173
     0
291
     1
 45
0.0
1001
ACAD
1000
AcDbSavedByObjectVersion
1070
     0
  0
VISUALSTYLE
  5
2C
102
{ACAD_XDICTIONARY
360
1521
102
}
102
{ACAD_REACTORS
330
29
102
}
330
29
100
AcDbVisualStyle
  2

 70
     2
 71
     2
 72
     2
 73
     1
 90
        2
 40
-0.6
 41
30.0
 62
     5
 63
     7
 74
     0
 91
        0
 64
     7
 65
   257
 75
     1
175
     1
 42
1.0
 92
        0
 66
     7
 43
1.0
 76
     1
 77
     6
 78
     2
 67
     7
 79
     5
170
     0
171
     0
290
     0
174
     0
 93
       13
 44
0.0
173
     0
291
     1
 45
0.0
1001
ACAD
1000
AcDbSavedByObjectVersion
1070
     0
  0
VISUALSTYLE
  5
2D
102
{ACAD_XDICTIONARY
360
1523
102
}
102
{ACAD_REACTORS
330
29
102
}
330
29
100
AcDbVisualStyle
  2

 70
     3
 71
     2
 72
     2
 73
     1
 90
        2
 40
-0.6
 41
30.0
 62
     5
 63
     7
 74
     1
 91
        0
 64
     7
 65
   257
 75
     1
175
     1
 42
1.0
 92
        0
 66
   257
 43
1.0
 76
     1
 77
     6
 78
     2
 67
     7
 79
     5
170
     0
171
     0
290
     0
174
     0
 93
       13
 44
0.0
173
     0
291
     1
 45
0.0
1001
ACAD
1000
AcDbSavedByObjectVersion
1070
     0
  0
VISUALSTYLE
  5
31
102
{ACAD_XDICTIONARY
360
152B
102
}
102
{ACAD_REACTORS
330
29
102
}
330
29
100
AcDbVisualStyle
  2

 70
     6
 71
     1
 72
     2
 73
     2
 90
        0
 40
-0.6
 41
-30.0
 62
     5
 63
     7
 74
     2
 91
        2
 64
     7
 65
   257
 75
     2
175
     1
 42
40.0
 92
        0
 66
   257
 43
1.0
 76
     1
 77
     6
 78
     2
 67
     7
 79
     3
170
     0
171
     0
290
     0
174
     0
 93
        1
 44
0.0
173
     0
291
     0
 45
0.0
1001
ACAD
1000
AcDbSavedByObjectVersion
1070
     0
  0
VISUALSTYLE
  5
3F
102
{ACAD_XDICTIONARY
360
1547
102
}
102
{ACAD_REACTORS
330
29
102
}
330
29
100
AcDbVisualStyle
  2

 70
    20
 71
     2
 72
     2
 73
     0
 90
        0
 40
-0.6
 41
-30.0
 62
     5
 63
     7
 74
     1
 91
        4
 64
     7
 65
   257
 75
     1
175
     1
 42
1.0
 92
       10
 66
     7
 43
1.0
 76
     1
 77
     6
 78
     2
 67
     7
 79
     5
170
     0
171
     0
290
     0
174
     0
 93
        1
 44
0.0
173
     0
291
     1
 45
0.0
1001
ACAD
1000
AcDbSavedByObjectVersion
1070
     0
  0
VISUALSTYLE
  5
37
102
{ACAD_XDICTIONARY
360
1537
102
}
102
{ACAD_REACTORS
330
29
102
}
330
29
100
AcDbVisualStyle
  2

 70
    14
 71
     2
 72
     2
 73
     0
 90
        0
 40
-0.6
 41
-30.0
 62
     5
 63
     7
 74
     1
 91
        4
 64
     7
 65
   257
 75
     7
175
     7
 42
1.0
 92
        8
 66
     7
 43
1.0
 76
     1
 77
     6
 78
     2
 67
     7
 79
     5
170
     0
171
     0
290
     0
174
     0
 93
        1
 44
0.0
173
     0
291
     1
 45
0.0
1001
ACAD
1000
AcDbSavedByObjectVersion
1070
     0
  0
VISUALSTYLE
  5
40
102
{ACAD_XDICTIONARY
360
1549
102
}
102
{ACAD_REACTORS
330
29
102
}
330
29
100
AcDbVisualStyle
  2

 70
    21
 71
     2
 72
     2
 73
     0
 90
        0
 40
-0.6
 41
-30.0
 62
     5
 63
     7
 74
     1
 91
        4
 64
     7
 65
   257
 75
     1
175
     1
 42
1.0
 92
        9
 66
     7
 43
1.0
 76
     1
 77
     6
 78
     2
 67
     7
 79
     5
170
     0
171
     0
290
     0
174
     0
 93
        1
 44
0.0
173
     0
291
     1
 45
0.0
1001
ACAD
1000
AcDbSavedByObjectVersion
1070
     0
  0
VISUALSTYLE
  5
33
102
{ACAD_XDICTIONARY
360
152F
102
}
102
{ACAD_REACTORS
330
29
102
}
330
29
100
AcDbVisualStyle
  2

 70
     8
 71
     2
 72
     3
 73
     0
 90
        2
 40
-0.6
 41
30.0
 62
     5
 63
     7
 74
     0
 91
        0
 64
     7
 65
   257
 75
     1
175
     1
 42
1.0
 92
        8
 66
   257
 43
1.0
 76
     1
 77
     6
 78
     2
 67
     7
 79
     3
170
     0
171
     0
290
     0
174
     0
 93
       13
 44
0.0
173
     0
291
     0
 45
0.0
1001
ACAD
1000
AcDbSavedByObjectVersion
1070
     0
  0
VISUALSTYLE
  5
3E
102
{ACAD_XDICTIONARY
360
1545
102
}
102
{ACAD_REACTORS
330
29
102
}
330
29
100
AcDbVisualStyle
  2

 70
    27
 71
     2
 72
     2
 73
     1
 90
        2
 40
-0.6
 41
30.0
 62
     5
 63
     7
 74
     0
 91
        4
 64
     7
 65
   257
 75
     1
175
     1
 42
1.0
 92
        8
 66
   257
 43
1.0
 76
     1
 77
     6
 78
     2
 67
     8
 79
     3
170
     0
171
     0
290
     0
174
     0
 93
        5
 44
0.0
173
     0
291
     0
 45
0.0
1001
ACAD
1000
AcDbSavedByObjectVersion
1070
     0
  0
VISUALSTYLE
  5
3D
102
{ACAD_XDICTIONARY
360
1543
102
}
102
{ACAD_REACTORS
330
29
102
}
330
29
100
AcDbVisualStyle
  2

 70
    26
 71
     2
 72
     2
 73
     1
 90
        2
 40
-0.6
 41
30.0
 62
     5
 63
     7
 74
     1
 91
       10
 64
     7
 65
   257
 75
     2
175
     1
 42
1.0
 92
        8
 66
   257
 43
1.0
 76
     1
 77
     6
 78
     2
 67
     7
 79
     3
170
     0
171
     0
290
     0
174
     0
 93
        5
 44
0.0
173
     0
291
     0
 45
0.0
1001
ACAD
1000
AcDbSavedByObjectVersion
1070
     0
  0
VISUALSTYLE
  5
3A
102
{ACAD_XDICTIONARY
360
153D
102
}
102
{ACAD_REACTORS
330
29
102
}
330
29
100
AcDbVisualStyle
  2

 70
    23
 71
     2
 72
     2
 73
     3
 90
        0
 40
-0.6
 41
-30.0
 62
     5
 63
     7
 74
     2
 91
        2
 64
     7
 65
     7
 75
     1
175
     1
 42
40.0
 92
        8
 66
     7
 43
1.0
 76
     1
 77
     6
 78
     2
 67
     7
 79
     3
170
     0
171
     0
290
     0
174
     0
 93
        1
 44
0.0
173
     0
291
     0
 45
0.0
1001
ACAD
1000
AcDbSavedByObjectVersion
1070
     0
  0
VISUALSTYLE
  5
3B
102
{ACAD_XDICTIONARY
360
153F
102
}
102
{ACAD_REACTORS
330
29
102
}
330
29
100
AcDbVisualStyle
  2

 70
    24
 71
     1
 72
     2
 73
     2
 90
        0
 40
-0.6
 41
-30.0
 62
     5
 63
     7
 74
     2
 91
        2
 64
     7
 65
     7
 75
     1
175
     1
 42
40.0
 92
       11
 66
     7
 43
1.0
 76
     1
 77
     6
 78
     2
 67
     7
 79
     6
170
     0
171
     0
290
     0
174
     0
 93
        1
 44
0.0
173
     0
291
     0
 45
0.0
1001
ACAD
1000
AcDbSavedByObjectVersion
1070
     0
  0
VISUALSTYLE
  5
36
102
{ACAD_XDICTIONARY
360
1535
102
}
102
{ACAD_REACTORS
330
29
102
}
330
29
100
AcDbVisualStyle
  2

 70
    13
 71
     2
 72
     2
 73
     0
 90
        0
 40
-0.6
 41
-30.0
 62
     5
 63
     7
 74
     1
 91
        4
 64
     7
 65
   257
 75
     1
175
     1
 42
1.0
 92
       12
 66
     7
 43
1.0
 76
     1
 77
     6
 78
     2
 67
     7
 79
     5
170
     0
171
     0
290
     0
174
     0
 93
        1
 44
0.0
173
     0
291
     1
 45
0.0
1001
ACAD
1000
AcDbSavedByObjectVersion
1070
     0
  0
VISUALSTYLE
  5
30
102
{ACAD_XDICTIONARY
360
1529
102
}
102
{ACAD_REACTORS
330
29
102
}
330
29
100
AcDbVisualStyle
  2

 70
     5
 71
     0
 72
     2
 73
     0
 90
        0
 40
-0.6
 41
-30.0
 62
     5
 63
     7
 74
     1
 91
        4
 64
     7
 65
   257
 75
     1
175
     1
 42
1.0
 92
        0
 66
   257
 43
1.0
 76
     1
 77
     6
 78
     2
 67
     7
 79
     3
170
     0
171
     0
290
     0
174
     0
 93
        1
 44
0.0
173
     0
291
     0
 45
0.0
1001
ACAD
1000
AcDbSavedByObjectVersion
1070
     0
  0
VISUALSTYLE
  5
3C
102
{ACAD_XDICTIONARY
360
1541
102
}
102
{ACAD_REACTORS
330
29
102
}
330
29
100
AcDbVisualStyle
  2

 70
    25
 71
     2
 72
     2
 73
     1
 90
        1
 40
0.5
 41
-30.0
 62
     5
 63
     7
 74
     1
 91
        0
 64
     7
 65
   257
 75
     1
175
     1
 42
1.0
 92
        8
 66
     7
 43
1.0
 76
     1
 77
     6
 78
     2
 67
     7
 79
     3
170
     0
171
     0
290
     0
174
     0
 93
       13
 44
0.0
173
     0
291
     0
 45
0.0
1001
ACAD
1000
AcDbSavedByObjectVersion
1070
     0
  0
DICTIONARYVAR
  5
58F
102
{ACAD_REACTORS
330
58C
102
}
330
58C
100
DictionaryVariables
280
     0
  1
1:1
  0
DICTIONARYVAR
  5
58E
102
{ACAD_REACTORS
330
58C
102
}
330
58C
100
DictionaryVariables
280
     0
  1
STANDARD
  0
DICTIONARYVAR
  5
58D
102
{ACAD_REACTORS
330
58C
102
}
330
58C
100
DictionaryVariables
280
     0
  1
STANDARD
  0
DICTIONARYVAR
  5
592
102
{ACAD_REACTORS
330
58C
102
}
330
58C
100
DictionaryVariables
280
     0
  1
1
  0
DICTIONARYVAR
  5
591
102
{ACAD_REACTORS
330
58C
102
}
330
58C
100
DictionaryVariables
280
     0
  1
0
  0
DICTIONARYVAR
  5
590
102
{ACAD_REACTORS
330
58C
102
}
330
58C
100
DictionaryVariables
280
     0
  1
127
  0
DICTIONARYVAR
  5
13F0
102
{ACAD_REACTORS
330
58C
102
}
330
58C
100
DictionaryVariables
280
     0
  1
2
  0
DICTIONARY
  5
1550
330
6E
100
AcDbDictionary
280
     1
281
     1
  3
ACAD_XREC_ROUNDTRIP
360
1551
  0
DICTIONARY
  5
154E
330
6A
100
AcDbDictionary
280
     1
281
     1
  3
ACAD_XREC_ROUNDTRIP
360
154F
  0
DICTIONARY
  5
1A
330
19
100
AcDbDictionary
280
     1
281
     1
  3
ACAD_XREC_ROUNDTRIP
360
59D
  3
BUMPTILE
360
1C
  3
DIFFUSETILE
360
1B
  3
OPACITYTILE
360
1F
  3
REFLECTIONTILE
360
1E
  3
REFRACTIONTILE
360
20
  3
SPECULARTILE
360
1D
  0
DICTIONARY
  5
12
330
11
100
AcDbDictionary
280
     1
281
     1
  3
ACAD_XREC_ROUNDTRIP
360
59C
  3
BUMPTILE
360
14
  3
DIFFUSETILE
360
13
  3
OPACITYTILE
360
17
  3
REFLECTIONTILE
360
16
  3
REFRACTIONTILE
360
18
  3
SPECULARTILE
360
15
  0
DICTIONARY
  5
22
330
21
100
AcDbDictionary
280
     1
281
     1
  3
ACAD_XREC_ROUNDTRIP
360
59E
  3
BUMPTILE
360
24
  3
DIFFUSETILE
360
23
  3
OPACITYTILE
360
27
  3
REFLECTIONTILE
360
26
  3
REFRACTIONTILE
360
28
  3
SPECULARTILE
360
25
  0
DICTIONARY
  5
594
330
64
100
AcDbDictionary
280
     1
281
     1
  3
ACAD_ROUNDTRIP_2008_TABLESTYLE_CELLSTYLEMAP
360
1516
  3
ACAD_XREC_ROUNDTRIP
360
154D
  0
DICTIONARY
  5
1527
330
2F
100
AcDbDictionary
280
     1
281
     1
  3
ACAD_XREC_ROUNDTRIP
360
1528
  0
DICTIONARY
  5
1552
330
3D6
100
AcDbDictionary
280
     1
281
     1
  3
ACAD_XREC_ROUNDTRIP
360
1553
  0
DICTIONARY
  5
1525
330
2E
100
AcDbDictionary
280
     1
281
     1
  3
ACAD_XREC_ROUNDTRIP
360
1526
  0
DICTIONARY
  5
1533
330
35
100
AcDbDictionary
280
     1
281
     1
  3
ACAD_XREC_ROUNDTRIP
360
1534
  0
DICTIONARY
  5
153B
330
39
100
AcDbDictionary
280
     1
281
     1
  3
ACAD_XREC_ROUNDTRIP
360
153C
  0
DICTIONARY
  5
152D
330
32
100
AcDbDictionary
280
     1
281
     1
  3
ACAD_XREC_ROUNDTRIP
360
152E
  0
DICTIONARY
  5
1531
330
34
100
AcDbDictionary
280
     1
281
     1
  3
ACAD_XREC_ROUNDTRIP
360
1532
  0
DICTIONARY
  5
154B
330
41
100
AcDbDictionary
280
     1
281
     1
  3
ACAD_XREC_ROUNDTRIP
360
154C
  0
DICTIONARY
  5
1539
330
38
100
AcDbDictionary
280
     1
281
     1
  3
ACAD_XREC_ROUNDTRIP
360
153A
  0
DICTIONARY
  5
151D
330
2A
100
AcDbDictionary
280
     1
281
     1
  3
ACAD_XREC_ROUNDTRIP
360
151E
  0
DICTIONARY
  5
151F
330
2B
100
AcDbDictionary
280
     1
281
     1
  3
ACAD_XREC_ROUNDTRIP
360
1520
  0
DICTIONARY
  5
1521
330
2C
100
AcDbDictionary
280
     1
281
     1
  3
ACAD_XREC_ROUNDTRIP
360
1522
  0
DICTIONARY
  5
1523
330
2D
100
AcDbDictionary
280
     1
281
     1
  3
ACAD_XREC_ROUNDTRIP
360
1524
  0
DICTIONARY
  5
152B
330
31
100
AcDbDictionary
280
     1
281
     1
  3
ACAD_XREC_ROUNDTRIP
360
152C
  0
DICTIONARY
  5
1547
330
3F
100
AcDbDictionary
280
     1
281
     1
  3
ACAD_XREC_ROUNDTRIP
360
1548
  0
DICTIONARY
  5
1537
330
37
100
AcDbDictionary
280
     1
281
     1
  3
ACAD_XREC_ROUNDTRIP
360
1538
  0
DICTIONARY
  5
1549
330
40
100
AcDbDictionary
280
     1
281
     1
  3
ACAD_XREC_ROUNDTRIP
360
154A
  0
DICTIONARY
  5
152F
330
33
100
AcDbDictionary
280
     1
281
     1
  3
ACAD_XREC_ROUNDTRIP
360
1530
  0
DICTIONARY
  5
1545
330
3E
100
AcDbDictionary
280
     1
281
     1
  3
ACAD_XREC_ROUNDTRIP
360
1546
  0
DICTIONARY
  5
1543
330
3D
100
AcDbDictionary
280
     1
281
     1
  3
ACAD_XREC_ROUNDTRIP
360
1544
  0
DICTIONARY
  5
153D
330
3A
100
AcDbDictionary
280
     1
281
     1
  3
ACAD_XREC_ROUNDTRIP
360
153E
  0
DICTIONARY
  5
153F
330
3B
100
AcDbDictionary
280
     1
281
     1
  3
ACAD_XREC_ROUNDTRIP
360
1540
  0
DICTIONARY
  5
1535
330
36
100
AcDbDictionary
280
     1
281
     1
  3
ACAD_XREC_ROUNDTRIP
360
1536
  0
DICTIONARY
  5
1529
330
30
100
AcDbDictionary
280
     1
281
     1
  3
ACAD_XREC_ROUNDTRIP
360
152A
  0
DICTIONARY
  5
1541
330
3C
100
AcDbDictionary
280
     1
281
     1
  3
ACAD_XREC_ROUNDTRIP
360
1542
  0
XRECORD
  5
1551
102
{ACAD_REACTORS
330
1550
102
}
330
1550
100
AcDbXrecord
280
     1
102
SHADEPLOT
 70
     0
102
SHADEPLOTRESLEVEL
 70
     2
102
SHADEPLOTCUSTOMDPI
 70
   300
  0
XRECORD
  5
154F
102
{ACAD_REACTORS
330
154E
102
}
330
154E
100
AcDbXrecord
280
     1
102
SHADEPLOT
 70
     0
102
SHADEPLOTRESLEVEL
 70
     2
102
SHADEPLOTCUSTOMDPI
 70
   300
  0
XRECORD
  5
59D
102
{ACAD_REACTORS
330
1A
102
}
330
1A
100
AcDbXrecord
280
     1
102
MATERIAL
148
0.0
149
0.0
149
0.0
 93
        0
 94
      127
282
     0
 72
     0
 77
     0
171
     0
175
     0
179
     0
273
     0
  0
XRECORD
  5
1C
102
{ACAD_REACTORS
330
1A
102
}
330
1A
100
AcDbXrecord
280
     1
270
     1
271
     1
  0
XRECORD
  5
1B
102
{ACAD_REACTORS
330
1A
102
}
330
1A
100
AcDbXrecord
280
     1
270
     1
271
     1
  0
XRECORD
  5
1F
102
{ACAD_REACTORS
330
1A
102
}
330
1A
100
AcDbXrecord
280
     1
270
     1
271
     1
  0
XRECORD
  5
1E
102
{ACAD_REACTORS
330
1A
102
}
330
1A
100
AcDbXrecord
280
     1
270
     1
271
     1
  0
XRECORD
  5
20
102
{ACAD_REACTORS
330
1A
102
}
330
1A
100
AcDbXrecord
280
     1
270
     1
271
     1
  0
XRECORD
  5
1D
102
{ACAD_REACTORS
330
1A
102
}
330
1A
100
AcDbXrecord
280
     1
270
     1
271
     1
  0
XRECORD
  5
59C
102
{ACAD_REACTORS
330
12
102
}
330
12
100
AcDbXrecord
280
     1
102
MATERIAL
148
0.0
149
0.0
149
0.0
 93
        0
 94
      127
282
     0
 72
     0
 77
     0
171
     0
175
     0
179
     0
273
     0
  0
XRECORD
  5
14
102
{ACAD_REACTORS
330
12
102
}
330
12
100
AcDbXrecord
280
     1
270
     1
271
     1
  0
XRECORD
  5
13
102
{ACAD_REACTORS
330
12
102
}
330
12
100
AcDbXrecord
280
     1
270
     1
271
     1
  0
XRECORD
  5
17
102
{ACAD_REACTORS
330
12
102
}
330
12
100
AcDbXrecord
280
     1
270
     1
271
     1
  0
XRECORD
  5
16
102
{ACAD_REACTORS
330
12
102
}
330
12
100
AcDbXrecord
280
     1
270
     1
271
     1
  0
XRECORD
  5
18
102
{ACAD_REACTORS
330
12
102
}
330
12
100
AcDbXrecord
280
     1
270
     1
271
     1
  0
XRECORD
  5
15
102
{ACAD_REACTORS
330
12
102
}
330
12
100
AcDbXrecord
280
     1
270
     1
271
     1
  0
XRECORD
  5
59E
102
{ACAD_REACTORS
330
22
102
}
330
22
100
AcDbXrecord
280
     1
102
MATERIAL
148
0.0
149
0.0
149
0.0
 93
        0
 94
      127
282
     0
 72
     0
 77
     0
171
     0
175
     0
179
     0
273
     0
  0
XRECORD
  5
24
102
{ACAD_REACTORS
330
22
102
}
330
22
100
AcDbXrecord
280
     1
270
     1
271
     1
  0
XRECORD
  5
23
102
{ACAD_REACTORS
330
22
102
}
330
22
100
AcDbXrecord
280
     1
270
     1
271
     1
  0
XRECORD
  5
27
102
{ACAD_REACTORS
330
22
102
}
330
22
100
AcDbXrecord
280
     1
270
     1
271
     1
  0
XRECORD
  5
26
102
{ACAD_REACTORS
330
22
102
}
330
22
100
AcDbXrecord
280
     1
270
     1
271
     1
  0
XRECORD
  5
28
102
{ACAD_REACTORS
330
22
102
}
330
22
100
AcDbXrecord
280
     1
270
     1
271
     1
  0
XRECORD
  5
25
102
{ACAD_REACTORS
330
22
102
}
330
22
100
AcDbXrecord
280
     1
270
     1
271
     1
  0
CELLSTYLEMAP
  5
1516
102
{ACAD_REACTORS
330
594
102
}
330
594
100
AcDbCellStyleMap
 90
        3
300
CELLSTYLE
  1
TABLEFORMAT_BEGIN
 90
        5
170
     1
 91
        0
 92
    32768
 62
   257
 93
        1
300
CONTENTFORMAT
  1
CONTENTFORMAT_BEGIN
 90
        0
 91
        0
 92
      512
 93
        0
300

 40
0.0
140
1.0
 94
        5
 62
     0
340
55
144
0.25
309
CONTENTFORMAT_END
171
     1
301
MARGIN
  1
CELLMARGIN_BEGIN
 40
0.06
 40
0.06
 40
0.06
 40
0.06
 40
0.18
 40
0.18
309
CELLMARGIN_END
 94
        6
 95
        1
302
GRIDFORMAT
  1
GRIDFORMAT_BEGIN
 90
        0
 91
        1
 62
     0
 92
       -2
340
0
 93
        0
 40
0.045
309
GRIDFORMAT_END
 95
        2
302
GRIDFORMAT
  1
GRIDFORMAT_BEGIN
 90
        0
 91
        1
 62
     0
 92
       -2
340
0
 93
        0
 40
0.045
309
GRIDFORMAT_END
 95
        4
302
GRIDFORMAT
  1
GRIDFORMAT_BEGIN
 90
        0
 91
        1
 62
     0
 92
       -2
340
0
 93
        0
 40
0.045
309
GRIDFORMAT_END
 95
        8
302
GRIDFORMAT
  1
GRIDFORMAT_BEGIN
 90
        0
 91
        1
 62
     0
 92
       -2
340
0
 93
        0
 40
0.045
309
GRIDFORMAT_END
 95
       16
302
GRIDFORMAT
  1
GRIDFORMAT_BEGIN
 90
        0
 91
        1
 62
     0
 92
       -2
340
0
 93
        0
 40
0.045
309
GRIDFORMAT_END
 95
       32
302
GRIDFORMAT
  1
GRIDFORMAT_BEGIN
 90
        0
 91
        1
 62
     0
 92
       -2
340
0
 93
        0
 40
0.045
309
GRIDFORMAT_END
309
TABLEFORMAT_END
  1
CELLSTYLE_BEGIN
 90
        1
 91
        1
300
_TITLE
309
CELLSTYLE_END
300
CELLSTYLE
  1
TABLEFORMAT_BEGIN
 90
        5
170
     1
 91
        0
 92
        0
 62
   257
 93
        1
300
CONTENTFORMAT
  1
CONTENTFORMAT_BEGIN
 90
        0
 91
        0
 92
      512
 93
        0
300

 40
0.0
140
1.0
 94
        5
 62
     0
340
55
144
0.18
309
CONTENTFORMAT_END
171
     1
301
MARGIN
  1
CELLMARGIN_BEGIN
 40
0.06
 40
0.06
 40
0.06
 40
0.06
 40
0.18
 40
0.18
309
CELLMARGIN_END
 94
        6
 95
        1
302
GRIDFORMAT
  1
GRIDFORMAT_BEGIN
 90
        0
 91
        1
 62
     0
 92
       -2
340
0
 93
        0
 40
0.045
309
GRIDFORMAT_END
 95
        2
302
GRIDFORMAT
  1
GRIDFORMAT_BEGIN
 90
        0
 91
        1
 62
     0
 92
       -2
340
0
 93
        0
 40
0.045
309
GRIDFORMAT_END
 95
        4
302
GRIDFORMAT
  1
GRIDFORMAT_BEGIN
 90
        0
 91
        1
 62
     0
 92
       -2
340
0
 93
        0
 40
0.045
309
GRIDFORMAT_END
 95
        8
302
GRIDFORMAT
  1
GRIDFORMAT_BEGIN
 90
        0
 91
        1
 62
     0
 92
       -2
340
0
 93
        0
 40
0.045
309
GRIDFORMAT_END
 95
       16
302
GRIDFORMAT
  1
GRIDFORMAT_BEGIN
 90
        0
 91
        1
 62
     0
 92
       -2
340
0
 93
        0
 40
0.045
309
GRIDFORMAT_END
 95
       32
302
GRIDFORMAT
  1
GRIDFORMAT_BEGIN
 90
        0
 91
        1
 62
     0
 92
       -2
340
0
 93
        0
 40
0.045
309
GRIDFORMAT_END
309
TABLEFORMAT_END
  1
CELLSTYLE_BEGIN
 90
        2
 91
        1
300
_HEADER
309
CELLSTYLE_END
300
CELLSTYLE
  1
TABLEFORMAT_BEGIN
 90
        5
170
     1
 91
        0
 92
        0
 62
   257
 93
        1
300
CONTENTFORMAT
  1
CONTENTFORMAT_BEGIN
 90
        0
 91
        0
 92
      512
 93
        0
300

 40
0.0
140
1.0
 94
        2
 62
     0
340
55
144
0.18
309
CONTENTFORMAT_END
171
     1
301
MARGIN
  1
CELLMARGIN_BEGIN
 40
0.06
 40
0.06
 40
0.06
 40
0.06
 40
0.18
 40
0.18
309
CELLMARGIN_END
 94
        6
 95
        1
302
GRIDFORMAT
  1
GRIDFORMAT_BEGIN
 90
        0
 91
        1
 62
     0
 92
       -2
340
0
 93
        0
 40
0.045
309
GRIDFORMAT_END
 95
        2
302
GRIDFORMAT
  1
GRIDFORMAT_BEGIN
 90
        0
 91
        1
 62
     0
 92
       -2
340
0
 93
        0
 40
0.045
309
GRIDFORMAT_END
 95
        4
302
GRIDFORMAT
  1
GRIDFORMAT_BEGIN
 90
        0
 91
        1
 62
     0
 92
       -2
340
0
 93
        0
 40
0.045
309
GRIDFORMAT_END
 95
        8
302
GRIDFORMAT
  1
GRIDFORMAT_BEGIN
 90
        0
 91
        1
 62
     0
 92
       -2
340
0
 93
        0
 40
0.045
309
GRIDFORMAT_END
 95
       16
302
GRIDFORMAT
  1
GRIDFORMAT_BEGIN
 90
        0
 91
        1
 62
     0
 92
       -2
340
0
 93
        0
 40
0.045
309
GRIDFORMAT_END
 95
       32
302
GRIDFORMAT
  1
GRIDFORMAT_BEGIN
 90
        0
 91
        1
 62
     0
 92
       -2
340
0
 93
        0
 40
0.045
309
GRIDFORMAT_END
309
TABLEFORMAT_END
  1
CELLSTYLE_BEGIN
 90
        3
 91
        2
300
_DATA
309
CELLSTYLE_END
  0
XRECORD
  5
154D
102
{ACAD_REACTORS
330
594
102
}
330
594
100
AcDbXrecord
280
     1
102
ACAD_ROUNDTRIP_PRE2007_TABLESTYLE
 90
      512
 91
        0
  1

 92
      512
 93
        0
  2

 94
      512
 95
        0
  3

  0
XRECORD
  5
1528
102
{ACAD_REACTORS
330
1527
102
}
330
1527
100
AcDbXrecord
280
     1
102
RTVSPropertyOp0
 70
     1
102
RTVSPropertyOp1
 70
     1
102
RTVSPropertyOp2
 70
     1
102
RTVSPropertyOp3
 70
     1
102
RTVSPropertyOp4
 70
     1
102
RTVSPropertyOp5
 70
     1
102
RTVSPropertyOp6
 70
     1
102
RTVSPropertyOp7
 70
     1
102
RTVSPropertyOp8
 70
     1
102
RTVSPropertyOp9
 70
     1
102
RTVSPropertyOp10
 70
     1
102
RTVSPropertyOp11
 70
     1
102
RTVSPropertyOp12
 70
     1
102
RTVSPropertyOp13
 70
     1
102
RTVSPropertyOp14
 70
     1
102
RTVSPropertyOp15
 70
     1
102
RTVSPropertyOp16
 70
     1
102
RTVSPropertyOp17
 70
     1
102
RTVSPropertyOp18
 70
     1
102
RTVSPropertyOp19
 70
     1
102
RTVSPropertyOp20
 70
     1
102
RTVSPropertyOp21
 70
     1
102
RTVSPropertyOp22
 70
     1
102
RTVSPropertyOp23
 70
     1
102
RTVSPropertyOp24
 70
     1
102
RTVSPropertyOp25
 70
     1
102
RTVSPropertyOp26
 70
     1
102
RTVSPropertyOp27
 70
     1
102
RTVSPropertyOp28
 70
     1
102
RTVSPropertyOp29
 70
     1
102
RTVSPropertyOp30
 70
     1
102
RTVSPropertyOp31
 70
     1
102
RTVSPropertyOp32
 70
     1
  0
XRECORD
  5
1553
102
{ACAD_REACTORS
330
1552
102
}
330
1552
100
AcDbXrecord
280
     1
102
RTVSPropertyOp0
 70
     1
102
RTVSPropertyOp1
 70
     1
102
RTVSPropertyOp2
 70
     1
102
RTVSPropertyOp3
 70
     1
102
RTVSPropertyOp4
 70
     1
102
RTVSPropertyOp5
 70
     1
102
RTVSPropertyOp6
 70
     1
102
RTVSPropertyOp7
 70
     1
102
RTVSPropertyOp8
 70
     1
102
RTVSPropertyOp9
 70
     1
102
RTVSPropertyOp10
 70
     1
102
RTVSPropertyOp11
 70
     1
102
RTVSPropertyOp12
 70
     1
102
RTVSPropertyOp13
 70
     1
102
RTVSPropertyOp14
 70
     1
102
RTVSPropertyOp15
 70
     1
102
RTVSPropertyOp16
 70
     1
102
RTVSPropertyOp17
 70
     1
102
RTVSPropertyOp18
 70
     1
102
RTVSPropertyOp19
 70
     1
102
RTVSPropertyOp20
 70
     1
102
RTVSPropertyOp21
 70
     1
102
RTVSPropertyOp22
 70
     1
102
RTVSPropertyOp23
 70
     1
102
RTVSPropertyOp24
 70
     1
102
RTVSPropertyOp25
 70
     1
102
RTVSPropertyOp26
 70
     1
102
RTVSPropertyOp27
 70
     1
102
RTVSPropertyOp28
 70
     1
102
RTVSPropertyOp29
 70
     1
102
RTVSPropertyOp30
 70
     1
102
RTVSPropertyOp31
 70
     1
102
RTVSPropertyOp32
 70
     1
  0
XRECORD
  5
1526
102
{ACAD_REACTORS
330
1525
102
}
330
1525
100
AcDbXrecord
280
     1
102
RTVSPropertyOp0
 70
     1
102
RTVSPropertyOp1
 70
     1
102
RTVSPropertyOp2
 70
     1
102
RTVSPropertyOp3
 70
     1
102
RTVSPropertyOp4
 70
     1
102
RTVSPropertyOp5
 70
     1
102
RTVSPropertyOp6
 70
     1
102
RTVSPropertyOp7
 70
     1
102
RTVSPropertyOp8
 70
     1
102
RTVSPropertyOp9
 70
     1
102
RTVSPropertyOp10
 70
     1
102
RTVSPropertyOp11
 70
     1
102
RTVSPropertyOp12
 70
     1
102
RTVSPropertyOp13
 70
     1
102
RTVSPropertyOp14
 70
     1
102
RTVSPropertyOp15
 70
     1
102
RTVSPropertyOp16
 70
     1
102
RTVSPropertyOp17
 70
     1
102
RTVSPropertyOp18
 70
     1
102
RTVSPropertyOp19
 70
     1
102
RTVSPropertyOp20
 70
     1
102
RTVSPropertyOp21
 70
     1
102
RTVSPropertyOp22
 70
     1
102
RTVSPropertyOp23
 70
     1
102
RTVSPropertyOp24
 70
     1
102
RTVSPropertyOp25
 70
     1
102
RTVSPropertyOp26
 70
     1
102
RTVSPropertyOp27
 70
     1
102
RTVSPropertyOp28
 70
     1
102
RTVSPropertyOp29
 70
     1
102
RTVSPropertyOp30
 70
     1
102
RTVSPropertyOp31
 70
     1
102
RTVSPropertyOp32
 70
     1
  0
XRECORD
  5
1534
102
{ACAD_REACTORS
330
1533
102
}
330
1533
100
AcDbXrecord
280
     1
102
RTVSPropertyOp0
 70
     1
102
RTVSPropertyOp1
 70
     1
102
RTVSPropertyOp2
 70
     1
102
RTVSPropertyOp3
 70
     1
102
RTVSPropertyOp4
 70
     1
102
RTVSPropertyOp5
 70
     1
102
RTVSPropertyOp6
 70
     1
102
RTVSPropertyOp7
 70
     1
102
RTVSPropertyOp8
 70
     1
102
RTVSPropertyOp9
 70
     1
102
RTVSPropertyOp10
 70
     1
102
RTVSPropertyOp11
 70
     1
102
RTVSPropertyOp12
 70
     1
102
RTVSPropertyOp13
 70
     1
102
RTVSPropertyOp14
 70
     1
102
RTVSPropertyOp15
 70
     1
102
RTVSPropertyOp16
 70
     1
102
RTVSPropertyOp17
 70
     1
102
RTVSPropertyOp18
 70
     1
102
RTVSPropertyOp19
 70
     1
102
RTVSPropertyOp20
 70
     1
102
RTVSPropertyOp21
 70
     1
102
RTVSPropertyOp22
 70
     1
102
RTVSPropertyOp23
 70
     1
102
RTVSPropertyOp24
 70
     1
102
RTVSPropertyOp25
 70
     1
102
RTVSPropertyOp26
 70
     1
102
RTVSPropertyOp27
 70
     1
102
RTVSPropertyOp28
 70
     1
102
RTVSPropertyOp29
 70
     1
102
RTVSPropertyOp30
 70
     1
102
RTVSPropertyOp31
 70
     1
102
RTVSPropertyOp32
 70
     1
  0
XRECORD
  5
153C
102
{ACAD_REACTORS
330
153B
102
}
330
153B
100
AcDbXrecord
280
     1
102
RTVSPropertyOp0
 70
     1
102
RTVSPropertyOp1
 70
     1
102
RTVSPropertyOp2
 70
     1
102
RTVSPropertyOp3
 70
     1
102
RTVSPropertyOp4
 70
     1
102
RTVSPropertyOp5
 70
     1
102
RTVSPropertyOp6
 70
     1
102
RTVSPropertyOp7
 70
     1
102
RTVSPropertyOp8
 70
     1
102
RTVSPropertyOp9
 70
     1
102
RTVSPropertyOp10
 70
     1
102
RTVSPropertyOp11
 70
     1
102
RTVSPropertyOp12
 70
     1
102
RTVSPropertyOp13
 70
     1
102
RTVSPropertyOp14
 70
     1
102
RTVSPropertyOp15
 70
     1
102
RTVSPropertyOp16
 70
     1
102
RTVSPropertyOp17
 70
     1
102
RTVSPropertyOp18
 70
     1
102
RTVSPropertyOp19
 70
     1
102
RTVSPropertyOp20
 70
     1
102
RTVSPropertyOp21
 70
     1
102
RTVSPropertyOp22
 70
     1
102
RTVSPropertyOp23
 70
     1
102
RTVSPropertyOp24
 70
     1
102
RTVSPropertyOp25
 70
     1
102
RTVSPropertyOp26
 70
     1
102
RTVSPropertyOp27
 70
     1
102
RTVSPropertyOp28
 70
     1
102
RTVSPropertyOp29
 70
     1
102
RTVSPropertyOp30
 70
     1
102
RTVSPropertyOp31
 70
     1
102
RTVSPropertyOp32
 70
     1
  0
XRECORD
  5
152E
102
{ACAD_REACTORS
330
152D
102
}
330
152D
100
AcDbXrecord
280
     1
102
RTVSPropertyOp0
 70
     1
102
RTVSPropertyOp1
 70
     1
102
RTVSPropertyOp2
 70
     1
102
RTVSPropertyOp3
 70
     1
102
RTVSPropertyOp4
 70
     1
102
RTVSPropertyOp5
 70
     1
102
RTVSPropertyOp6
 70
     1
102
RTVSPropertyOp7
 70
     1
102
RTVSPropertyOp8
 70
     1
102
RTVSPropertyOp9
 70
     1
102
RTVSPropertyOp10
 70
     1
102
RTVSPropertyOp11
 70
     1
102
RTVSPropertyOp12
 70
     1
102
RTVSPropertyOp13
 70
     1
102
RTVSPropertyOp14
 70
     1
102
RTVSPropertyOp15
 70
     1
102
RTVSPropertyOp16
 70
     1
102
RTVSPropertyOp17
 70
     1
102
RTVSPropertyOp18
 70
     1
102
RTVSPropertyOp19
 70
     1
102
RTVSPropertyOp20
 70
     1
102
RTVSPropertyOp21
 70
     1
102
RTVSPropertyOp22
 70
     1
102
RTVSPropertyOp23
 70
     1
102
RTVSPropertyOp24
 70
     1
102
RTVSPropertyOp25
 70
     1
102
RTVSPropertyOp26
 70
     1
102
RTVSPropertyOp27
 70
     1
102
RTVSPropertyOp28
 70
     1
102
RTVSPropertyOp29
 70
     1
102
RTVSPropertyOp30
 70
     1
102
RTVSPropertyOp31
 70
     1
102
RTVSPropertyOp32
 70
     1
  0
XRECORD
  5
1532
102
{ACAD_REACTORS
330
1531
102
}
330
1531
100
AcDbXrecord
280
     1
102
RTVSPropertyOp0
 70
     1
102
RTVSPropertyOp1
 70
     1
102
RTVSPropertyOp2
 70
     1
102
RTVSPropertyOp3
 70
     1
102
RTVSPropertyOp4
 70
     1
102
RTVSPropertyOp5
 70
     1
102
RTVSPropertyOp6
 70
     1
102
RTVSPropertyOp7
 70
     1
102
RTVSPropertyOp8
 70
     1
102
RTVSPropertyOp9
 70
     1
102
RTVSPropertyOp10
 70
     1
102
RTVSPropertyOp11
 70
     1
102
RTVSPropertyOp12
 70
     1
102
RTVSPropertyOp13
 70
     1
102
RTVSPropertyOp14
 70
     1
102
RTVSPropertyOp15
 70
     1
102
RTVSPropertyOp16
 70
     1
102
RTVSPropertyOp17
 70
     1
102
RTVSPropertyOp18
 70
     1
102
RTVSPropertyOp19
 70
     1
102
RTVSPropertyOp20
 70
     1
102
RTVSPropertyOp21
 70
     1
102
RTVSPropertyOp22
 70
     1
102
RTVSPropertyOp23
 70
     1
102
RTVSPropertyOp24
 70
     1
102
RTVSPropertyOp25
 70
     1
102
RTVSPropertyOp26
 70
     1
102
RTVSPropertyOp27
 70
     1
102
RTVSPropertyOp28
 70
     1
102
RTVSPropertyOp29
 70
     1
102
RTVSPropertyOp30
 70
     1
102
RTVSPropertyOp31
 70
     1
102
RTVSPropertyOp32
 70
     1
  0
XRECORD
  5
154C
102
{ACAD_REACTORS
330
154B
102
}
330
154B
100
AcDbXrecord
280
     1
102
RTVSPropertyOp0
 70
     0
102
RTVSPropertyOp1
 70
     0
102
RTVSPropertyOp2
 70
     0
102
RTVSPropertyOp3
 70
     0
102
RTVSPropertyOp4
 70
     0
102
RTVSPropertyOp5
 70
     0
102
RTVSPropertyOp6
 70
     0
102
RTVSPropertyOp7
 70
     0
102
RTVSPropertyOp8
 70
     0
102
RTVSPropertyOp9
 70
     0
102
RTVSPropertyOp10
 70
     0
102
RTVSPropertyOp11
 70
     0
102
RTVSPropertyOp12
 70
     0
102
RTVSPropertyOp13
 70
     0
102
RTVSPropertyOp14
 70
     2
102
RTVSPropertyOp15
 70
     0
102
RTVSPropertyOp16
 70
     0
102
RTVSPropertyOp17
 70
     0
102
RTVSPropertyOp18
 70
     0
102
RTVSPropertyOp19
 70
     0
102
RTVSPropertyOp20
 70
     0
102
RTVSPropertyOp21
 70
     0
102
RTVSPropertyOp22
 70
     0
102
RTVSPropertyOp23
 70
     0
102
RTVSPropertyOp24
 70
     0
102
RTVSPropertyOp25
 70
     0
102
RTVSPropertyOp26
 70
     0
102
RTVSPropertyOp27
 70
     0
102
RTVSPropertyOp28
 70
     0
102
RTVSPropertyOp29
 70
     0
102
RTVSPropertyOp30
 70
     0
102
RTVSPropertyOp31
 70
     0
102
RTVSPropertyOp32
 70
     0
  0
XRECORD
  5
153A
102
{ACAD_REACTORS
330
1539
102
}
330
1539
100
AcDbXrecord
280
     1
102
RTVSPropertyOp0
 70
     1
102
RTVSPropertyOp1
 70
     1
102
RTVSPropertyOp2
 70
     1
102
RTVSPropertyOp3
 70
     1
102
RTVSPropertyOp4
 70
     1
102
RTVSPropertyOp5
 70
     1
102
RTVSPropertyOp6
 70
     1
102
RTVSPropertyOp7
 70
     1
102
RTVSPropertyOp8
 70
     1
102
RTVSPropertyOp9
 70
     1
102
RTVSPropertyOp10
 70
     1
102
RTVSPropertyOp11
 70
     1
102
RTVSPropertyOp12
 70
     1
102
RTVSPropertyOp13
 70
     1
102
RTVSPropertyOp14
 70
     1
102
RTVSPropertyOp15
 70
     1
102
RTVSPropertyOp16
 70
     1
102
RTVSPropertyOp17
 70
     1
102
RTVSPropertyOp18
 70
     1
102
RTVSPropertyOp19
 70
     1
102
RTVSPropertyOp20
 70
     1
102
RTVSPropertyOp21
 70
     1
102
RTVSPropertyOp22
 70
     1
102
RTVSPropertyOp23
 70
     1
102
RTVSPropertyOp24
 70
     1
102
RTVSPropertyOp25
 70
     1
102
RTVSPropertyOp26
 70
     1
102
RTVSPropertyOp27
 70
     1
102
RTVSPropertyOp28
 70
     1
102
RTVSPropertyOp29
 70
     1
102
RTVSPropertyOp30
 70
     1
102
RTVSPropertyOp31
 70
     1
102
RTVSPropertyOp32
 70
     1
  0
XRECORD
  5
151E
102
{ACAD_REACTORS
330
151D
102
}
330
151D
100
AcDbXrecord
280
     1
102
RTVSPropertyOp0
 70
     1
102
RTVSPropertyOp1
 70
     1
102
RTVSPropertyOp2
 70
     1
102
RTVSPropertyOp3
 70
     1
102
RTVSPropertyOp4
 70
     1
102
RTVSPropertyOp5
 70
     1
102
RTVSPropertyOp6
 70
     1
102
RTVSPropertyOp7
 70
     1
102
RTVSPropertyOp8
 70
     1
102
RTVSPropertyOp9
 70
     1
102
RTVSPropertyOp10
 70
     1
102
RTVSPropertyOp11
 70
     1
102
RTVSPropertyOp12
 70
     1
102
RTVSPropertyOp13
 70
     1
102
RTVSPropertyOp14
 70
     1
102
RTVSPropertyOp15
 70
     1
102
RTVSPropertyOp16
 70
     1
102
RTVSPropertyOp17
 70
     1
102
RTVSPropertyOp18
 70
     1
102
RTVSPropertyOp19
 70
     1
102
RTVSPropertyOp20
 70
     1
102
RTVSPropertyOp21
 70
     1
102
RTVSPropertyOp22
 70
     1
102
RTVSPropertyOp23
 70
     1
102
RTVSPropertyOp24
 70
     1
102
RTVSPropertyOp25
 70
     1
102
RTVSPropertyOp26
 70
     1
102
RTVSPropertyOp27
 70
     1
102
RTVSPropertyOp28
 70
     1
102
RTVSPropertyOp29
 70
     1
102
RTVSPropertyOp30
 70
     1
102
RTVSPropertyOp31
 70
     1
102
RTVSPropertyOp32
 70
     1
  0
XRECORD
  5
1520
102
{ACAD_REACTORS
330
151F
102
}
330
151F
100
AcDbXrecord
280
     1
102
RTVSPropertyOp0
 70
     1
102
RTVSPropertyOp1
 70
     1
102
RTVSPropertyOp2
 70
     1
102
RTVSPropertyOp3
 70
     1
102
RTVSPropertyOp4
 70
     1
102
RTVSPropertyOp5
 70
     1
102
RTVSPropertyOp6
 70
     1
102
RTVSPropertyOp7
 70
     1
102
RTVSPropertyOp8
 70
     1
102
RTVSPropertyOp9
 70
     1
102
RTVSPropertyOp10
 70
     1
102
RTVSPropertyOp11
 70
     1
102
RTVSPropertyOp12
 70
     1
102
RTVSPropertyOp13
 70
     1
102
RTVSPropertyOp14
 70
     1
102
RTVSPropertyOp15
 70
     1
102
RTVSPropertyOp16
 70
     1
102
RTVSPropertyOp17
 70
     1
102
RTVSPropertyOp18
 70
     1
102
RTVSPropertyOp19
 70
     1
102
RTVSPropertyOp20
 70
     1
102
RTVSPropertyOp21
 70
     1
102
RTVSPropertyOp22
 70
     1
102
RTVSPropertyOp23
 70
     1
102
RTVSPropertyOp24
 70
     1
102
RTVSPropertyOp25
 70
     1
102
RTVSPropertyOp26
 70
     1
102
RTVSPropertyOp27
 70
     1
102
RTVSPropertyOp28
 70
     1
102
RTVSPropertyOp29
 70
     1
102
RTVSPropertyOp30
 70
     1
102
RTVSPropertyOp31
 70
     1
102
RTVSPropertyOp32
 70
     1
  0
XRECORD
  5
1522
102
{ACAD_REACTORS
330
1521
102
}
330
1521
100
AcDbXrecord
280
     1
102
RTVSPropertyOp0
 70
     1
102
RTVSPropertyOp1
 70
     1
102
RTVSPropertyOp2
 70
     1
102
RTVSPropertyOp3
 70
     1
102
RTVSPropertyOp4
 70
     1
102
RTVSPropertyOp5
 70
     1
102
RTVSPropertyOp6
 70
     1
102
RTVSPropertyOp7
 70
     1
102
RTVSPropertyOp8
 70
     1
102
RTVSPropertyOp9
 70
     1
102
RTVSPropertyOp10
 70
     1
102
RTVSPropertyOp11
 70
     1
102
RTVSPropertyOp12
 70
     1
102
RTVSPropertyOp13
 70
     1
102
RTVSPropertyOp14
 70
     1
102
RTVSPropertyOp15
 70
     1
102
RTVSPropertyOp16
 70
     1
102
RTVSPropertyOp17
 70
     1
102
RTVSPropertyOp18
 70
     1
102
RTVSPropertyOp19
 70
     1
102
RTVSPropertyOp20
 70
     1
102
RTVSPropertyOp21
 70
     1
102
RTVSPropertyOp22
 70
     1
102
RTVSPropertyOp23
 70
     1
102
RTVSPropertyOp24
 70
     1
102
RTVSPropertyOp25
 70
     1
102
RTVSPropertyOp26
 70
     1
102
RTVSPropertyOp27
 70
     1
102
RTVSPropertyOp28
 70
     1
102
RTVSPropertyOp29
 70
     1
102
RTVSPropertyOp30
 70
     1
102
RTVSPropertyOp31
 70
     1
102
RTVSPropertyOp32
 70
     1
  0
XRECORD
  5
1524
102
{ACAD_REACTORS
330
1523
102
}
330
1523
100
AcDbXrecord
280
     1
102
RTVSPropertyOp0
 70
     1
102
RTVSPropertyOp1
 70
     1
102
RTVSPropertyOp2
 70
     1
102
RTVSPropertyOp3
 70
     1
102
RTVSPropertyOp4
 70
     1
102
RTVSPropertyOp5
 70
     1
102
RTVSPropertyOp6
 70
     1
102
RTVSPropertyOp7
 70
     1
102
RTVSPropertyOp8
 70
     1
102
RTVSPropertyOp9
 70
     1
102
RTVSPropertyOp10
 70
     1
102
RTVSPropertyOp11
 70
     1
102
RTVSPropertyOp12
 70
     1
102
RTVSPropertyOp13
 70
     1
102
RTVSPropertyOp14
 70
     1
102
RTVSPropertyOp15
 70
     1
102
RTVSPropertyOp16
 70
     1
102
RTVSPropertyOp17
 70
     1
102
RTVSPropertyOp18
 70
     1
102
RTVSPropertyOp19
 70
     1
102
RTVSPropertyOp20
 70
     1
102
RTVSPropertyOp21
 70
     1
102
RTVSPropertyOp22
 70
     1
102
RTVSPropertyOp23
 70
     1
102
RTVSPropertyOp24
 70
     1
102
RTVSPropertyOp25
 70
     1
102
RTVSPropertyOp26
 70
     1
102
RTVSPropertyOp27
 70
     1
102
RTVSPropertyOp28
 70
     1
102
RTVSPropertyOp29
 70
     1
102
RTVSPropertyOp30
 70
     1
102
RTVSPropertyOp31
 70
     1
102
RTVSPropertyOp32
 70
     1
  0
XRECORD
  5
152C
102
{ACAD_REACTORS
330
152B
102
}
330
152B
100
AcDbXrecord
280
     1
102
RTVSPropertyOp0
 70
     1
102
RTVSPropertyOp1
 70
     1
102
RTVSPropertyOp2
 70
     1
102
RTVSPropertyOp3
 70
     1
102
RTVSPropertyOp4
 70
     1
102
RTVSPropertyOp5
 70
     1
102
RTVSPropertyOp6
 70
     1
102
RTVSPropertyOp7
 70
     1
102
RTVSPropertyOp8
 70
     1
102
RTVSPropertyOp9
 70
     1
102
RTVSPropertyOp10
 70
     1
102
RTVSPropertyOp11
 70
     1
102
RTVSPropertyOp12
 70
     1
102
RTVSPropertyOp13
 70
     1
102
RTVSPropertyOp14
 70
     1
102
RTVSPropertyOp15
 70
     1
102
RTVSPropertyOp16
 70
     1
102
RTVSPropertyOp17
 70
     1
102
RTVSPropertyOp18
 70
     1
102
RTVSPropertyOp19
 70
     1
102
RTVSPropertyOp20
 70
     1
102
RTVSPropertyOp21
 70
     1
102
RTVSPropertyOp22
 70
     1
102
RTVSPropertyOp23
 70
     1
102
RTVSPropertyOp24
 70
     1
102
RTVSPropertyOp25
 70
     1
102
RTVSPropertyOp26
 70
     1
102
RTVSPropertyOp27
 70
     1
102
RTVSPropertyOp28
 70
     1
102
RTVSPropertyOp29
 70
     1
102
RTVSPropertyOp30
 70
     1
102
RTVSPropertyOp31
 70
     1
102
RTVSPropertyOp32
 70
     1
  0
XRECORD
  5
1548
102
{ACAD_REACTORS
330
1547
102
}
330
1547
100
AcDbXrecord
280
     1
102
RTVSPropertyOp0
 70
     0
102
RTVSPropertyOp1
 70
     0
102
RTVSPropertyOp2
 70
     0
102
RTVSPropertyOp3
 70
     0
102
RTVSPropertyOp4
 70
     0
102
RTVSPropertyOp5
 70
     0
102
RTVSPropertyOp6
 70
     0
102
RTVSPropertyOp7
 70
     0
102
RTVSPropertyOp8
 70
     0
102
RTVSPropertyOp9
 70
     0
102
RTVSPropertyOp10
 70
     0
102
RTVSPropertyOp11
 70
     0
102
RTVSPropertyOp12
 70
     0
102
RTVSPropertyOp13
 70
     0
102
RTVSPropertyOp14
 70
     2
102
RTVSPropertyOp15
 70
     0
102
RTVSPropertyOp16
 70
     0
102
RTVSPropertyOp17
 70
     0
102
RTVSPropertyOp18
 70
     0
102
RTVSPropertyOp19
 70
     0
102
RTVSPropertyOp20
 70
     0
102
RTVSPropertyOp21
 70
     0
102
RTVSPropertyOp22
 70
     0
102
RTVSPropertyOp23
 70
     0
102
RTVSPropertyOp24
 70
     0
102
RTVSPropertyOp25
 70
     0
102
RTVSPropertyOp26
 70
     0
102
RTVSPropertyOp27
 70
     0
102
RTVSPropertyOp28
 70
     0
102
RTVSPropertyOp29
 70
     0
102
RTVSPropertyOp30
 70
     0
102
RTVSPropertyOp31
 70
     0
102
RTVSPropertyOp32
 70
     0
  0
XRECORD
  5
1538
102
{ACAD_REACTORS
330
1537
102
}
330
1537
100
AcDbXrecord
280
     1
102
RTVSPropertyOp0
 70
     1
102
RTVSPropertyOp1
 70
     1
102
RTVSPropertyOp2
 70
     1
102
RTVSPropertyOp3
 70
     1
102
RTVSPropertyOp4
 70
     1
102
RTVSPropertyOp5
 70
     1
102
RTVSPropertyOp6
 70
     1
102
RTVSPropertyOp7
 70
     1
102
RTVSPropertyOp8
 70
     1
102
RTVSPropertyOp9
 70
     1
102
RTVSPropertyOp10
 70
     1
102
RTVSPropertyOp11
 70
     1
102
RTVSPropertyOp12
 70
     1
102
RTVSPropertyOp13
 70
     1
102
RTVSPropertyOp14
 70
     1
102
RTVSPropertyOp15
 70
     1
102
RTVSPropertyOp16
 70
     1
102
RTVSPropertyOp17
 70
     1
102
RTVSPropertyOp18
 70
     1
102
RTVSPropertyOp19
 70
     1
102
RTVSPropertyOp20
 70
     1
102
RTVSPropertyOp21
 70
     1
102
RTVSPropertyOp22
 70
     1
102
RTVSPropertyOp23
 70
     1
102
RTVSPropertyOp24
 70
     1
102
RTVSPropertyOp25
 70
     1
102
RTVSPropertyOp26
 70
     1
102
RTVSPropertyOp27
 70
     1
102
RTVSPropertyOp28
 70
     1
102
RTVSPropertyOp29
 70
     1
102
RTVSPropertyOp30
 70
     1
102
RTVSPropertyOp31
 70
     1
102
RTVSPropertyOp32
 70
     1
  0
XRECORD
  5
154A
102
{ACAD_REACTORS
330
1549
102
}
330
1549
100
AcDbXrecord
280
     1
102
RTVSPropertyOp0
 70
     0
102
RTVSPropertyOp1
 70
     0
102
RTVSPropertyOp2
 70
     0
102
RTVSPropertyOp3
 70
     0
102
RTVSPropertyOp4
 70
     0
102
RTVSPropertyOp5
 70
     0
102
RTVSPropertyOp6
 70
     0
102
RTVSPropertyOp7
 70
     0
102
RTVSPropertyOp8
 70
     0
102
RTVSPropertyOp9
 70
     0
102
RTVSPropertyOp10
 70
     0
102
RTVSPropertyOp11
 70
     0
102
RTVSPropertyOp12
 70
     0
102
RTVSPropertyOp13
 70
     0
102
RTVSPropertyOp14
 70
     2
102
RTVSPropertyOp15
 70
     0
102
RTVSPropertyOp16
 70
     0
102
RTVSPropertyOp17
 70
     0
102
RTVSPropertyOp18
 70
     0
102
RTVSPropertyOp19
 70
     0
102
RTVSPropertyOp20
 70
     0
102
RTVSPropertyOp21
 70
     0
102
RTVSPropertyOp22
 70
     0
102
RTVSPropertyOp23
 70
     0
102
RTVSPropertyOp24
 70
     0
102
RTVSPropertyOp25
 70
     0
102
RTVSPropertyOp26
 70
     0
102
RTVSPropertyOp27
 70
     0
102
RTVSPropertyOp28
 70
     0
102
RTVSPropertyOp29
 70
     0
102
RTVSPropertyOp30
 70
     0
102
RTVSPropertyOp31
 70
     0
102
RTVSPropertyOp32
 70
     0
  0
XRECORD
  5
1530
102
{ACAD_REACTORS
330
152F
102
}
330
152F
100
AcDbXrecord
280
     1
102
RTVSPropertyOp0
 70
     1
102
RTVSPropertyOp1
 70
     1
102
RTVSPropertyOp2
 70
     1
102
RTVSPropertyOp3
 70
     1
102
RTVSPropertyOp4
 70
     1
102
RTVSPropertyOp5
 70
     1
102
RTVSPropertyOp6
 70
     1
102
RTVSPropertyOp7
 70
     1
102
RTVSPropertyOp8
 70
     1
102
RTVSPropertyOp9
 70
     1
102
RTVSPropertyOp10
 70
     1
102
RTVSPropertyOp11
 70
     1
102
RTVSPropertyOp12
 70
     1
102
RTVSPropertyOp13
 70
     1
102
RTVSPropertyOp14
 70
     1
102
RTVSPropertyOp15
 70
     1
102
RTVSPropertyOp16
 70
     1
102
RTVSPropertyOp17
 70
     1
102
RTVSPropertyOp18
 70
     1
102
RTVSPropertyOp19
 70
     1
102
RTVSPropertyOp20
 70
     1
102
RTVSPropertyOp21
 70
     1
102
RTVSPropertyOp22
 70
     1
102
RTVSPropertyOp23
 70
     1
102
RTVSPropertyOp24
 70
     1
102
RTVSPropertyOp25
 70
     1
102
RTVSPropertyOp26
 70
     1
102
RTVSPropertyOp27
 70
     1
102
RTVSPropertyOp28
 70
     1
102
RTVSPropertyOp29
 70
     1
102
RTVSPropertyOp30
 70
     1
102
RTVSPropertyOp31
 70
     1
102
RTVSPropertyOp32
 70
     1
  0
XRECORD
  5
1546
102
{ACAD_REACTORS
330
1545
102
}
330
1545
100
AcDbXrecord
280
     1
102
RTVSPropertyOp0
 70
     1
102
RTVSPropertyOp1
 70
     1
102
RTVSPropertyOp2
 70
     1
102
RTVSPropertyOp3
 70
     1
102
RTVSPropertyOp4
 70
     1
102
RTVSPropertyOp5
 70
     1
102
RTVSPropertyOp6
 70
     1
102
RTVSPropertyOp7
 70
     1
102
RTVSPropertyOp8
 70
     1
102
RTVSPropertyOp9
 70
     1
102
RTVSPropertyOp10
 70
     1
102
RTVSPropertyOp11
 70
     1
102
RTVSPropertyOp12
 70
     1
102
RTVSPropertyOp13
 70
     1
102
RTVSPropertyOp14
 70
     1
102
RTVSPropertyOp15
 70
     1
102
RTVSPropertyOp16
 70
     1
102
RTVSPropertyOp17
 70
     1
102
RTVSPropertyOp18
 70
     1
102
RTVSPropertyOp19
 70
     1
102
RTVSPropertyOp20
 70
     1
102
RTVSPropertyOp21
 70
     1
102
RTVSPropertyOp22
 70
     1
102
RTVSPropertyOp23
 70
     1
102
RTVSPropertyOp24
 70
     1
102
RTVSPropertyOp25
 70
     1
102
RTVSPropertyOp26
 70
     1
102
RTVSPropertyOp27
 70
     1
102
RTVSPropertyOp28
 70
     1
102
RTVSPropertyOp29
 70
     1
102
RTVSPropertyOp30
 70
     1
102
RTVSPropertyOp31
 70
     1
102
RTVSPropertyOp32
 70
     1
  0
XRECORD
  5
1544
102
{ACAD_REACTORS
330
1543
102
}
330
1543
100
AcDbXrecord
280
     1
102
RTVSPropertyOp0
 70
     1
102
RTVSPropertyOp1
 70
     1
102
RTVSPropertyOp2
 70
     1
102
RTVSPropertyOp3
 70
     1
102
RTVSPropertyOp4
 70
     1
102
RTVSPropertyOp5
 70
     1
102
RTVSPropertyOp6
 70
     1
102
RTVSPropertyOp7
 70
     1
102
RTVSPropertyOp8
 70
     1
102
RTVSPropertyOp9
 70
     1
102
RTVSPropertyOp10
 70
     1
102
RTVSPropertyOp11
 70
     1
102
RTVSPropertyOp12
 70
     1
102
RTVSPropertyOp13
 70
     1
102
RTVSPropertyOp14
 70
     1
102
RTVSPropertyOp15
 70
     1
102
RTVSPropertyOp16
 70
     1
102
RTVSPropertyOp17
 70
     1
102
RTVSPropertyOp18
 70
     1
102
RTVSPropertyOp19
 70
     1
102
RTVSPropertyOp20
 70
     1
102
RTVSPropertyOp21
 70
     1
102
RTVSPropertyOp22
 70
     1
102
RTVSPropertyOp23
 70
     1
102
RTVSPropertyOp24
 70
     1
102
RTVSPropertyOp25
 70
     1
102
RTVSPropertyOp26
 70
     1
102
RTVSPropertyOp27
 70
     1
102
RTVSPropertyOp28
 70
     1
102
RTVSPropertyOp29
 70
     1
102
RTVSPropertyOp30
 70
     1
102
RTVSPropertyOp31
 70
     1
102
RTVSPropertyOp32
 70
     1
  0
XRECORD
  5
153E
102
{ACAD_REACTORS
330
153D
102
}
330
153D
100
AcDbXrecord
280
     1
102
RTVSPropertyOp0
 70
     1
102
RTVSPropertyOp1
 70
     1
102
RTVSPropertyOp2
 70
     1
102
RTVSPropertyOp3
 70
     1
102
RTVSPropertyOp4
 70
     1
102
RTVSPropertyOp5
 70
     1
102
RTVSPropertyOp6
 70
     1
102
RTVSPropertyOp7
 70
     1
102
RTVSPropertyOp8
 70
     1
102
RTVSPropertyOp9
 70
     1
102
RTVSPropertyOp10
 70
     1
102
RTVSPropertyOp11
 70
     1
102
RTVSPropertyOp12
 70
     1
102
RTVSPropertyOp13
 70
     1
102
RTVSPropertyOp14
 70
     1
102
RTVSPropertyOp15
 70
     1
102
RTVSPropertyOp16
 70
     1
102
RTVSPropertyOp17
 70
     1
102
RTVSPropertyOp18
 70
     1
102
RTVSPropertyOp19
 70
     1
102
RTVSPropertyOp20
 70
     1
102
RTVSPropertyOp21
 70
     1
102
RTVSPropertyOp22
 70
     1
102
RTVSPropertyOp23
 70
     1
102
RTVSPropertyOp24
 70
     1
102
RTVSPropertyOp25
 70
     1
102
RTVSPropertyOp26
 70
     1
102
RTVSPropertyOp27
 70
     1
102
RTVSPropertyOp28
 70
     1
102
RTVSPropertyOp29
 70
     1
102
RTVSPropertyOp30
 70
     1
102
RTVSPropertyOp31
 70
     1
102
RTVSPropertyOp32
 70
     1
  0
XRECORD
  5
1540
102
{ACAD_REACTORS
330
153F
102
}
330
153F
100
AcDbXrecord
280
     1
102
RTVSPropertyOp0
 70
     1
102
RTVSPropertyOp1
 70
     1
102
RTVSPropertyOp2
 70
     1
102
RTVSPropertyOp3
 70
     1
102
RTVSPropertyOp4
 70
     1
102
RTVSPropertyOp5
 70
     1
102
RTVSPropertyOp6
 70
     1
102
RTVSPropertyOp7
 70
     1
102
RTVSPropertyOp8
 70
     1
102
RTVSPropertyOp9
 70
     1
102
RTVSPropertyOp10
 70
     1
102
RTVSPropertyOp11
 70
     1
102
RTVSPropertyOp12
 70
     1
102
RTVSPropertyOp13
 70
     1
102
RTVSPropertyOp14
 70
     1
102
RTVSPropertyOp15
 70
     1
102
RTVSPropertyOp16
 70
     1
102
RTVSPropertyOp17
 70
     1
102
RTVSPropertyOp18
 70
     1
102
RTVSPropertyOp19
 70
     1
102
RTVSPropertyOp20
 70
     1
102
RTVSPropertyOp21
 70
     1
102
RTVSPropertyOp22
 70
     1
102
RTVSPropertyOp23
 70
     1
102
RTVSPropertyOp24
 70
     1
102
RTVSPropertyOp25
 70
     1
102
RTVSPropertyOp26
 70
     1
102
RTVSPropertyOp27
 70
     1
102
RTVSPropertyOp28
 70
     1
102
RTVSPropertyOp29
 70
     1
102
RTVSPropertyOp30
 70
     1
102
RTVSPropertyOp31
 70
     1
102
RTVSPropertyOp32
 70
     1
  0
XRECORD
  5
1536
102
{ACAD_REACTORS
330
1535
102
}
330
1535
100
AcDbXrecord
280
     1
102
RTVSPropertyOp0
 70
     1
102
RTVSPropertyOp1
 70
     1
102
RTVSPropertyOp2
 70
     1
102
RTVSPropertyOp3
 70
     1
102
RTVSPropertyOp4
 70
     1
102
RTVSPropertyOp5
 70
     1
102
RTVSPropertyOp6
 70
     1
102
RTVSPropertyOp7
 70
     1
102
RTVSPropertyOp8
 70
     1
102
RTVSPropertyOp9
 70
     1
102
RTVSPropertyOp10
 70
     1
102
RTVSPropertyOp11
 70
     1
102
RTVSPropertyOp12
 70
     1
102
RTVSPropertyOp13
 70
     1
102
RTVSPropertyOp14
 70
     1
102
RTVSPropertyOp15
 70
     1
102
RTVSPropertyOp16
 70
     1
102
RTVSPropertyOp17
 70
     1
102
RTVSPropertyOp18
 70
     1
102
RTVSPropertyOp19
 70
     1
102
RTVSPropertyOp20
 70
     1
102
RTVSPropertyOp21
 70
     1
102
RTVSPropertyOp22
 70
     1
102
RTVSPropertyOp23
 70
     1
102
RTVSPropertyOp24
 70
     1
102
RTVSPropertyOp25
 70
     1
102
RTVSPropertyOp26
 70
     1
102
RTVSPropertyOp27
 70
     1
102
RTVSPropertyOp28
 70
     1
102
RTVSPropertyOp29
 70
     1
102
RTVSPropertyOp30
 70
     1
102
RTVSPropertyOp31
 70
     1
102
RTVSPropertyOp32
 70
     1
  0
XRECORD
  5
152A
102
{ACAD_REACTORS
330
1529
102
}
330
1529
100
AcDbXrecord
280
     1
102
RTVSPropertyOp0
 70
     1
102
RTVSPropertyOp1
 70
     1
102
RTVSPropertyOp2
 70
     1
102
RTVSPropertyOp3
 70
     1
102
RTVSPropertyOp4
 70
     1
102
RTVSPropertyOp5
 70
     1
102
RTVSPropertyOp6
 70
     1
102
RTVSPropertyOp7
 70
     1
102
RTVSPropertyOp8
 70
     1
102
RTVSPropertyOp9
 70
     1
102
RTVSPropertyOp10
 70
     1
102
RTVSPropertyOp11
 70
     1
102
RTVSPropertyOp12
 70
     1
102
RTVSPropertyOp13
 70
     1
102
RTVSPropertyOp14
 70
     1
102
RTVSPropertyOp15
 70
     1
102
RTVSPropertyOp16
 70
     1
102
RTVSPropertyOp17
 70
     1
102
RTVSPropertyOp18
 70
     1
102
RTVSPropertyOp19
 70
     1
102
RTVSPropertyOp20
 70
     1
102
RTVSPropertyOp21
 70
     1
102
RTVSPropertyOp22
 70
     1
102
RTVSPropertyOp23
 70
     1
102
RTVSPropertyOp24
 70
     1
102
RTVSPropertyOp25
 70
     1
102
RTVSPropertyOp26
 70
     1
102
RTVSPropertyOp27
 70
     1
102
RTVSPropertyOp28
 70
     1
102
RTVSPropertyOp29
 70
     1
102
RTVSPropertyOp30
 70
     1
102
RTVSPropertyOp31
 70
     1
102
RTVSPropertyOp32
 70
     1
  0
XRECORD
  5
1542
102
{ACAD_REACTORS
330
1541
102
}
330
1541
100
AcDbXrecord
280
     1
102
RTVSPropertyOp0
 70
     1
102
RTVSPropertyOp1
 70
     1
102
RTVSPropertyOp2
 70
     1
102
RTVSPropertyOp3
 70
     1
102
RTVSPropertyOp4
 70
     1
102
RTVSPropertyOp5
 70
     1
102
RTVSPropertyOp6
 70
     1
102
RTVSPropertyOp7
 70
     1
102
RTVSPropertyOp8
 70
     1
102
RTVSPropertyOp9
 70
     1
102
RTVSPropertyOp10
 70
     1
102
RTVSPropertyOp11
 70
     1
102
RTVSPropertyOp12
 70
     1
102
RTVSPropertyOp13
 70
     1
102
RTVSPropertyOp14
 70
     1
102
RTVSPropertyOp15
 70
     1
102
RTVSPropertyOp16
 70
     1
102
RTVSPropertyOp17
 70
     1
102
RTVSPropertyOp18
 70
     1
102
RTVSPropertyOp19
 70
     1
102
RTVSPropertyOp20
 70
     1
102
RTVSPropertyOp21
 70
     1
102
RTVSPropertyOp22
 70
     1
102
RTVSPropertyOp23
 70
     1
102
RTVSPropertyOp24
 70
     1
102
RTVSPropertyOp25
 70
     1
102
RTVSPropertyOp26
 70
     1
102
RTVSPropertyOp27
 70
     1
102
RTVSPropertyOp28
 70
     1
102
RTVSPropertyOp29
 70
     1
102
RTVSPropertyOp30
 70
     1
102
RTVSPropertyOp31
 70
     1
102
RTVSPropertyOp32
 70
     1
  0
ENDSEC
  0
EOF
