  0
SECTION
  2
HEADER
  9
$ACADVER
  1
AC1015
  9
$ACADMAINTVER
 70
    20
  9
$DWGCODEPAGE
  3
ANSI_932
  9
$INSBASE
 10
0.0
 20
0.0
 30
0.0
  9
$EXTMIN
 10
35.0504222113708
 20
17.55615958979334
 30
0.0
  9
$EXTMAX
 10
440.0504222113708
 20
297.3314254897933
 30
0.0
  9
$LIMMIN
 10
0.0
 20
0.0
  9
$LIMMAX
 10
12.0
 20
9.0
  9
$ORTHOMODE
 70
     0
  9
$REGENMODE
 70
     1
  9
$FILLMODE
 70
     1
  9
$QTEXTMODE
 70
     0
  9
$MIRRTEXT
 70
     0
  9
$LTSCALE
 40
2.0
  9
$ATTMODE
 70
     1
  9
$TEXTSIZE
 40
3.2
  9
$TRACEWID
 40
0.05
  9
$TEXTSTYLE
  7
高3.2
  9
$CLAYER
  8
0
  9
$CELTYPE
  6
ByLayer
  9
$CECOLOR
 62
   256
  9
$CELTSCALE
 40
1.0
  9
$DISPSILH
 70
     0
  9
$DIMSCALE
 40
1.0
  9
$DIMASZ
 40
2.5
  9
$DIMEXO
 40
0.25
  9
$DIMDLI
 40
0.2
  9
$DIMRND
 40
0.0
  9
$DIMDLE
 40
0.0
  9
$DIMEXE
 40
1.25
  9
$DIMTP
 40
0.0
  9
$DIMTM
 40
0.0
  9
$DIMTXT
 40
3.0
  9
$DIMCEN
 40
0.0
  9
$DIMTSZ
 40
0.0
  9
$DIMTOL
 70
     0
  9
$DIMLIM
 70
     0
  9
$DIMTIH
 70
     0
  9
$DIMTOH
 70
     0
  9
$DIMSE1
 70
     0
  9
$DIMSE2
 70
     0
  9
$DIMTAD
 70
     3
  9
$DIMZIN
 70
     8
  9
$DIMBLK
  1
OPEN30
  9
$DIMASO
 70
     1
  9
$DIMSHO
 70
     1
  9
$DIMPOST
  1

  9
$DIMAPOST
  1

  9
$DIMALT
 70
     0
  9
$DIMALTD
 70
     3
  9
$DIMALTF
 40
0.03937007874016
  9
$DIMLFAC
 40
2.0
  9
$DIMTOFL
 70
     1
  9
$DIMTVP
 40
0.0
  9
$DIMTIX
 70
     0
  9
$DIMSOXD
 70
     0
  9
$DIMSAH
 70
     0
  9
$DIMBLK1
  1

  9
$DIMBLK2
  1

  9
$DIMSTYLE
  2
1／2
  9
$DIMCLRD
 70
     0
  9
$DIMCLRE
 70
     0
  9
$DIMCLRT
 70
     4
  9
$DIMTFAC
 40
1.0
  9
$DIMGAP
 40
0.625
  9
$DIMJUST
 70
     0
  9
$DIMSD1
 70
     0
  9
$DIMSD2
 70
     0
  9
$DIMTOLJ
 70
     0
  9
$DIMTZIN
 70
     8
  9
$DIMALTZ
 70
     0
  9
$DIMALTTZ
 70
     0
  9
$DIMUPT
 70
     1
  9
$DIMDEC
 70
     2
  9
$DIMTDEC
 70
     2
  9
$DIMALTU
 70
     2
  9
$DIMALTTD
 70
     3
  9
$DIMTXSTY
  7
STANDARD
  9
$DIMAUNIT
 70
     0
  9
$DIMADEC
 70
     1
  9
$DIMALTRND
 40
0.0
  9
$DIMAZIN
 70
     2
  9
$DIMDSEP
 70
    46
  9
$DIMATFIT
 70
     0
  9
$DIMFRAC
 70
     0
  9
$DIMLDRBLK
  1
OPEN30
  9
$DIMLUNIT
 70
     2
  9
$DIMLWD
 70
    -2
  9
$DIMLWE
 70
    -2
  9
$DIMTMOVE
 70
     0
  9
$LUNITS
 70
     2
  9
$LUPREC
 70
     4
  9
$SKETCHINC
 40
0.1
  9
$FILLETRAD
 40
0.0
  9
$AUNITS
 70
     0
  9
$AUPREC
 70
     0
  9
$MENU
  1
.
  9
$ELEVATION
 40
0.0
  9
$PELEVATION
 40
0.0
  9
$THICKNESS
 40
0.0
  9
$LIMCHECK
 70
     0
  9
$CHAMFERA
 40
2.0
  9
$CHAMFERB
 40
2.0
  9
$CHAMFERC
 40
0.0
  9
$CHAMFERD
 40
0.0
  9
$SKPOLY
 70
     0
  9
$TDCREATE
 40
2455894.599291875
  9
$TDUCREATE
 40
2455894.224291875
  9
$TDUPDATE
 40
2458340.667736285
  9
$TDUUPDATE
 40
2458340.292736285
  9
$TDINDWG
 40
1.0170894097
  9
$TDUSRTIMER
 40
1.0170845718
  9
$USRTIMER
 70
     1
  9
$ANGBASE
 50
0.0
  9
$ANGDIR
 70
     0
  9
$PDMODE
 70
     0
  9
$PDSIZE
 40
0.0
  9
$PLINEWID
 40
0.0
  9
$SPLFRAME
 70
     0
  9
$SPLINETYPE
 70
     6
  9
$SPLINESEGS
 70
     8
  9
$HANDSEED
  5
6DE3
  9
$SURFTAB1
 70
     6
  9
$SURFTAB2
 70
     6
  9
$SURFTYPE
 70
     6
  9
$SURFU
 70
     6
  9
$SURFV
 70
     6
  9
$UCSBASE
  2

  9
$UCSNAME
  2

  9
$UCSORG
 10
0.0
 20
0.0
 30
0.0
  9
$UCSXDIR
 10
1.0
 20
0.0
 30
0.0
  9
$UCSYDIR
 10
0.0
 20
1.0
 30
0.0
  9
$UCSORTHOREF
  2

  9
$UCSORTHOVIEW
 70
     0
  9
$UCSORGTOP
 10
0.0
 20
0.0
 30
0.0
  9
$UCSORGBOTTOM
 10
0.0
 20
0.0
 30
0.0
  9
$UCSORGLEFT
 10
0.0
 20
0.0
 30
0.0
  9
$UCSORGRIGHT
 10
0.0
 20
0.0
 30
0.0
  9
$UCSORGFRONT
 10
0.0
 20
0.0
 30
0.0
  9
$UCSORGBACK
 10
0.0
 20
0.0
 30
0.0
  9
$PUCSBASE
  2

  9
$PUCSNAME
  2

  9
$PUCSORG
 10
0.0
 20
0.0
 30
0.0
  9
$PUCSXDIR
 10
1.0
 20
0.0
 30
0.0
  9
$PUCSYDIR
 10
0.0
 20
1.0
 30
0.0
  9
$PUCSORTHOREF
  2

  9
$PUCSORTHOVIEW
 70
     0
  9
$PUCSORGTOP
 10
0.0
 20
0.0
 30
0.0
  9
$PUCSORGBOTTOM
 10
0.0
 20
0.0
 30
0.0
  9
$PUCSORGLEFT
 10
0.0
 20
0.0
 30
0.0
  9
$PUCSORGRIGHT
 10
0.0
 20
0.0
 30
0.0
  9
$PUCSORGFRONT
 10
0.0
 20
0.0
 30
0.0
  9
$PUCSORGBACK
 10
0.0
 20
0.0
 30
0.0
  9
$USERI1
 70
     0
  9
$USERI2
 70
     0
  9
$USERI3
 70
     0
  9
$USERI4
 70
     0
  9
$USERI5
 70
     0
  9
$USERR1
 40
0.0
  9
$USERR2
 40
0.0
  9
$USERR3
 40
0.0
  9
$USERR4
 40
0.0
  9
$USERR5
 40
0.0
  9
$WORLDVIEW
 70
     1
  9
$SHADEDGE
 70
     3
  9
$SHADEDIF
 70
    70
  9
$TILEMODE
 70
     1
  9
$MAXACTVP
 70
    64
  9
$PINSBASE
 10
0.0
 20
0.0
 30
0.0
  9
$PLIMCHECK
 70
     0
  9
$PEXTMIN
 10
0.0
 20
0.0
 30
0.0
  9
$PEXTMAX
 10
0.0
 20
0.0
 30
0.0
  9
$PLIMMIN
 10
0.0
 20
0.0
  9
$PLIMMAX
 10
12.0
 20
9.0
  9
$UNITMODE
 70
     0
  9
$VISRETAIN
 70
     1
  9
$PLINEGEN
 70
     0
  9
$PSLTSCALE
 70
     1
  9
$TREEDEPTH
 70
  3020
  9
$CMLSTYLE
  2
Standard
  9
$CMLJUST
 70
     0
  9
$CMLSCALE
 40
1.0
  9
$PROXYGRAPHICS
 70
     1
  9
$MEASUREMENT
 70
     0
  9
$CELWEIGHT
370
    -1
  9
$ENDCAPS
280
     0
  9
$JOINSTYLE
280
     0
  9
$LWDISPLAY
290
     0
  9
$INSUNITS
 70
     0
  9
$HYPERLINKBASE
  1

  9
$STYLESHEET
  1
N-PLOT.CTB
  9
$XEDIT
290
     1
  9
$CEPSNTYPE
380
     0
  9
$PSTYLEMODE
290
     1
  9
$FINGERPRINTGUID
  2
{DA8AC90B-972E-4A8E-9AFF-7814461E835C}
  9
$VERSIONGUID
  2
{BBC52C55-11B6-4309-9B3A-1FE3D8BB0F3E}
  9
$EXTNAMES
290
     1
  9
$PSVPSCALE
 40
0.0
  9
$OLESTARTUP
290
     0
  0
ENDSEC
  0
SECTION
  2
CLASSES
  0
CLASS
  1
ACDBDICTIONARYWDFLT
  2
AcDbDictionaryWithDefault
  3
ObjectDBX Classes
 90
        0
280
     0
281
     0
  0
CLASS
  1
MATERIAL
  2
AcDbMaterial
  3
ObjectDBX Classes
 90
     1153
280
     0
281
     0
  0
CLASS
  1
VISUALSTYLE
  2
AcDbVisualStyle
  3
ObjectDBX Classes
 90
     4095
280
     0
281
     0
  0
CLASS
  1
SCALE
  2
AcDbScale
  3
ObjectDBX Classes
 90
     1153
280
     0
281
     0
  0
CLASS
  1
TABLESTYLE
  2
AcDbTableStyle
  3
ObjectDBX Classes
 90
     4095
280
     0
281
     0
  0
CLASS
  1
MLEADERSTYLE
  2
AcDbMLeaderStyle
  3
ACDB_MLEADERSTYLE_CLASS
 90
     4095
280
     0
281
     0
  0
CLASS
  1
DICTIONARYVAR
  2
AcDbDictionaryVar
  3
ObjectDBX Classes
 90
        0
280
     0
281
     0
  0
CLASS
  1
CELLSTYLEMAP
  2
AcDbCellStyleMap
  3
ObjectDBX Classes
 90
     1152
280
     0
281
     0
  0
CLASS
  1
SORTENTSTABLE
  2
AcDbSortentsTable
  3
ObjectDBX Classes
 90
        0
280
     0
281
     0
  0
CLASS
  1
ACDBPLACEHOLDER
  2
AcDbPlaceHolder
  3
ObjectDBX Classes
 90
        0
280
     0
281
     0
  0
CLASS
  1
LAYOUT
  2
AcDbLayout
  3
ObjectDBX Classes
 90
        0
280
     0
281
     0
  0
CLASS
  1
EXACXREFPANELOBJECT
  2
ExAcXREFPanelObject
  3
EXAC_ESW
 90
    33793
280
     0
281
     0
  0
CLASS
  1
NPOCOLLECTION
  2
AcDbImpNonPersistentObjectsCollection
  3
ObjectDBX Classes
 90
     1153
280
     0
281
     0
  0
CLASS
  1
DIMASSOC
  2
AcDbDimAssoc
  3
"AcDbDimAssoc|Product Desc:     AcDim ARX App For Dimension|Company:          Autodesk, Inc.|WEB Address:      www.autodesk.com"
 90
        0
280
     0
281
     0
  0
CLASS
  1
AEC_REFEDIT_STATUS_TRACKER
  2
AecDbRefEditStatusTracker
  3
AecArchBase60|Product Desc: Autodesk Architectural Desktop 2007 |Company: Autodesk,Inc. |WEB Address: www.autodesk.com
 90
      129
280
     0
281
     0
  0
ENDSEC
  0
SECTION
  2
TABLES
  0
TABLE
  2
VPORT
  5
28FB
330
0
100
AcDbSymbolTable
 70
     1
  0
VPORT
  5
2963
330
28FB
100
AcDbSymbolTableRecord
100
AcDbViewportTableRecord
  2
*ACTIVE
 70
     0
 10
0.0
 20
0.0
 11
1.0
 21
1.0
 12
247.7641296720796
 22
172.1352646280154
 13
0.0
 23
0.0
 14
0.5
 24
0.5
 15
0.5
 25
0.5
 16
0.0
 26
0.0
 36
1.0
 17
0.0
 27
0.0
 37
0.0
 40
510.0219049437769
 41
1.481481481481481
 42
50.0
 43
0.0
 44
0.0
 50
0.0
 51
0.0
 71
     0
 72
  1000
 73
     1
 74
     2
 75
     0
 76
     0
 77
     0
 78
     0
281
     0
 65
     1
110
0.0
120
0.0
130
0.0
111
1.0
121
0.0
131
0.0
112
0.0
122
1.0
132
0.0
 79
     0
146
0.0
  0
ENDTAB
  0
TABLE
  2
LTYPE
  5
28F8
330
0
100
AcDbSymbolTable
 70
     5
  0
LTYPE
  5
294D
330
28F8
100
AcDbSymbolTableRecord
100
AcDbLinetypeTableRecord
  2
ByBlock
 70
     0
  3

 72
    65
 73
     0
 40
0.0
  0
LTYPE
  5
294E
330
28F8
100
AcDbSymbolTableRecord
100
AcDbLinetypeTableRecord
  2
ByLayer
 70
     0
  3

 72
    65
 73
     0
 40
0.0
  0
LTYPE
  5
294F
330
28F8
100
AcDbSymbolTableRecord
100
AcDbLinetypeTableRecord
  2
CONTINUOUS
 70
     0
  3
Solid line
 72
    65
 73
     0
 40
0.0
  0
LTYPE
  5
430D
330
28F8
100
AcDbSymbolTableRecord
100
AcDbLinetypeTableRecord
  2
PHANTOM
 70
     0
  3
Phantom ______  __  __  ______  __  __  ______
 72
    65
 73
     6
 40
2.5
 49
1.25
 74
     0
 49
-0.25
 74
     0
 49
0.25
 74
     0
 49
-0.25
 74
     0
 49
0.25
 74
     0
 49
-0.25
 74
     0
  0
LTYPE
  5
430E
330
28F8
100
AcDbSymbolTableRecord
100
AcDbLinetypeTableRecord
  2
CENTER
 70
     0
  3
Center ____ _ ____ _ ____ _ ____ _ ____ _ ____
 72
    65
 73
     4
 40
2.0
 49
1.25
 74
     0
 49
-0.25
 74
     0
 49
0.25
 74
     0
 49
-0.25
 74
     0
  0
LTYPE
  5
52F7
330
28F8
100
AcDbSymbolTableRecord
100
AcDbLinetypeTableRecord
  2
HIDDEN
 70
     0
  3
Hidden __ __ __ __ __ __ __ __ __ __ __ __ __ _
 72
    65
 73
     2
 40
0.375
 49
0.25
 74
     0
 49
-0.125
 74
     0
  0
ENDTAB
  0
TABLE
  2
LAYER
  5
28F5
102
{ACAD_XDICTIONARY
360
2BBD
102
}
330
0
100
AcDbSymbolTable
 70
     2
  0
LAYER
  5
2947
102
{ACAD_XDICTIONARY
360
2A49
102
}
330
28F5
100
AcDbSymbolTableRecord
100
AcDbLayerTableRecord
  2
0
 70
     0
 62
     7
  6
CONTINUOUS
370
    -3
390
2902
  0
LAYER
  5
2967
330
28F5
100
AcDbSymbolTableRecord
100
AcDbLayerTableRecord
  2
DEFPOINTS
 70
     0
 62
     7
  6
CONTINUOUS
290
     0
370
    -3
390
2902
  0
ENDTAB
  0
TABLE
  2
STYLE
  5
28F6
330
0
100
AcDbSymbolTable
 70
     7
  0
STYLE
  5
2948
330
28F6
100
AcDbSymbolTableRecord
100
AcDbTextStyleTableRecord
  2
STANDARD
 70
     0
 40
0.0
 41
1.0
 50
0.0
 71
     0
 42
0.2
  3
txt.shx
  4
bigfont.shx
  0
STYLE
  5
296D
330
28F6
100
AcDbSymbolTableRecord
100
AcDbTextStyleTableRecord
  2
高2
 70
     0
 40
2.0
 41
1.0
 50
0.0
 71
     0
 42
6.299999999999998
  3
txt.shx
  4
bigfont.shx
  0
STYLE
  5
2BB6
330
28F6
100
AcDbSymbolTableRecord
100
AcDbTextStyleTableRecord
  2
高3.2
 70
     0
 40
3.2
 41
1.0
 50
0.0
 71
     0
 42
3.2
  3
txt.shx
  4
bigfont.shx
  0
STYLE
  5
2BB7
330
28F6
100
AcDbSymbolTableRecord
100
AcDbTextStyleTableRecord
  2
高2.5
 70
     0
 40
2.5
 41
1.0
 50
0.0
 71
     0
 42
0.2
  3
txt.shx
  4
bigfont.shx
  0
STYLE
  5
2C97
330
28F6
100
AcDbSymbolTableRecord
100
AcDbTextStyleTableRecord
  2
高6.3
 70
     0
 40
6.299999999999998
 41
1.0
 50
0.0
 71
     0
 42
6.299999999999998
  3
txt.shx
  4
bigfont.shx
  0
STYLE
  5
2C98
330
28F6
100
AcDbSymbolTableRecord
100
AcDbTextStyleTableRecord
  2
高4.5
 70
     0
 40
4.5
 41
1.0
 50
0.0
 71
     0
 42
6.299999999999998
  3
txt.shx
  4
bigfont.shx
  0
STYLE
  5
52F6
330
28F6
100
AcDbSymbolTableRecord
100
AcDbTextStyleTableRecord
  2

 70
     1
 40
0.0
 41
1.0
 50
0.0
 71
     0
 42
3.2
  3
ltypeshp.shx
  4

  0
ENDTAB
  0
TABLE
  2
VIEW
  5
28F9
330
0
100
AcDbSymbolTable
 70
     0
  0
ENDTAB
  0
TABLE
  2
UCS
  5
28FA
330
0
100
AcDbSymbolTable
 70
     0
  0
ENDTAB
  0
TABLE
  2
APPID
  5
28FC
330
0
100
AcDbSymbolTable
 70
    18
  0
APPID
  5
2949
330
28FC
100
AcDbSymbolTableRecord
100
AcDbRegAppTableRecord
  2
ACAD
 70
     0
  0
APPID
  5
2950
330
28FC
100
AcDbSymbolTableRecord
100
AcDbRegAppTableRecord
  2
AcadAnnotative
 70
     0
  0
APPID
  5
296E
330
28FC
100
AcDbSymbolTableRecord
100
AcDbRegAppTableRecord
  2
ACAD_DSTYLE_DIMJOGGED_JOGA
 70
     0
  0
APPID
  5
296F
330
28FC
100
AcDbSymbolTableRecord
100
AcDbRegAppTableRecord
  2
GRADIENTCOLOR1ACI
 70
     0
  0
APPID
  5
2970
330
28FC
100
AcDbSymbolTableRecord
100
AcDbRegAppTableRecord
  2
GRADIENTCOLOR2ACI
 70
     0
  0
APPID
  5
2971
330
28FC
100
AcDbSymbolTableRecord
100
AcDbRegAppTableRecord
  2
ACAD_EXEMPT_FROM_CAD_STANDARDS
 70
     0
  0
APPID
  5
2972
330
28FC
100
AcDbSymbolTableRecord
100
AcDbRegAppTableRecord
  2
ACAUTHENVIRON
 70
     0
  0
APPID
  5
2973
330
28FC
100
AcDbSymbolTableRecord
100
AcDbRegAppTableRecord
  2
ACDBDYNAMICBLOCKTRUENAME
 70
     0
  0
APPID
  5
2974
330
28FC
100
AcDbSymbolTableRecord
100
AcDbRegAppTableRecord
  2
ACDBDYNAMICBLOCKGUID
 70
     0
  0
APPID
  5
2975
330
28FC
100
AcDbSymbolTableRecord
100
AcDbRegAppTableRecord
  2
ACAD_MLEADERVER
 70
     0
  0
APPID
  5
2BBB
330
28FC
100
AcDbSymbolTableRecord
100
AcDbRegAppTableRecord
  2
ACAD_DSTYLE_DIMJOGGED_JOGANGLE_SYMBOL
 70
     0
  0
APPID
  5
2BBC
330
28FC
100
AcDbSymbolTableRecord
100
AcDbRegAppTableRecord
  2
ACAD_PSEXT
 70
     0
  0
APPID
  5
2CA0
330
28FC
100
AcDbSymbolTableRecord
100
AcDbRegAppTableRecord
  2
ACAD_DSTYLE_DIMJAG
 70
     0
  0
APPID
  5
2CA1
330
28FC
100
AcDbSymbolTableRecord
100
AcDbRegAppTableRecord
  2
ACAD_DSTYLE_DIMBREAK
 70
     0
  0
APPID
  5
2CA2
330
28FC
100
AcDbSymbolTableRecord
100
AcDbRegAppTableRecord
  2
ACAD_DSTYLE_DIMTALN
 70
     0
  0
APPID
  5
2F83
330
28FC
100
AcDbSymbolTableRecord
100
AcDbRegAppTableRecord
  2
ACAD_DSTYLE_DIMARC_LENGTH_SYMBOL
 70
     0
  0
APPID
  5
2F84
330
28FC
100
AcDbSymbolTableRecord
100
AcDbRegAppTableRecord
  2
ACAD_DSTYLE_DIMEXT_LENGTH
 70
     0
  0
APPID
  5
31C2
330
28FC
100
AcDbSymbolTableRecord
100
AcDbRegAppTableRecord
  2
AcadAnnoPO
 70
     0
  0
ENDTAB
  0
TABLE
  2
DIMSTYLE
  5
28FD
330
0
100
AcDbSymbolTable
 70
     7
100
AcDbDimStyleTable
 71
     2
340
2BB8
340
2BBA
  0
DIMSTYLE
105
294A
330
28FD
100
AcDbSymbolTableRecord
100
AcDbDimStyleTableRecord
  2
Standard
 70
     0
340
2948
  0
DIMSTYLE
105
2BB8
330
28FD
100
AcDbSymbolTableRecord
100
AcDbDimStyleTableRecord
  2
1／2
 70
     0
 41
2.5
 42
0.25
 43
0.2
 44
1.25
 73
     0
 74
     0
 77
     3
 78
     8
 79
     2
140
3.0
141
0.0
143
0.03937007874016
144
2.0
147
0.625
171
     3
172
     1
178
     4
179
     1
271
     2
272
     2
274
     3
283
     0
284
     8
288
     1
289
     0
340
2948
341
2984
342
2984
1001
ACAD_DSTYLE_DIMARC_LENGTH_SYMBOL
1070
   379
1070
     2
1001
ACAD_DSTYLE_DIMEXT_LENGTH
1070
   378
1040
1.25
1001
ACAD_DSTYLE_DIMJOGGED_JOGANGLE_SYMBOL
1070
   384
1040
1.570796326794896
  0
DIMSTYLE
105
2BBA
330
28FD
100
AcDbSymbolTableRecord
100
AcDbDimStyleTableRecord
  2
1：1
 70
     0
 41
2.5
 42
0.25
 43
0.2
 44
1.25
 73
     0
 74
     0
 77
     3
 78
     8
 79
     2
140
3.0
141
0.0
143
0.03937007874016
147
0.625
171
     3
172
     1
178
     4
179
     1
271
     2
272
     2
274
     3
283
     0
284
     8
288
     1
289
     0
340
2948
341
2984
342
2984
1001
ACAD_DSTYLE_DIMARC_LENGTH_SYMBOL
1070
   379
1070
     2
1001
ACAD_DSTYLE_DIMEXT_LENGTH
1070
   378
1040
1.25
1001
ACAD_DSTYLE_DIMJOGGED_JOGANGLE_SYMBOL
1070
   384
1040
1.570796326794896
  0
DIMSTYLE
105
5884
330
28FD
100
AcDbSymbolTableRecord
100
AcDbDimStyleTableRecord
  2
2：1
 70
     0
 41
2.5
 42
0.25
 43
0.2
 44
1.25
 73
     0
 74
     0
 77
     3
 78
     8
 79
     2
140
3.0
141
0.0
143
0.03937007874016
144
0.5
147
0.625
171
     3
172
     1
178
     4
179
     1
271
     2
272
     2
274
     3
283
     0
284
     8
288
     1
289
     0
340
2948
341
2984
342
2984
1001
ACAD_DSTYLE_DIMARC_LENGTH_SYMBOL
1070
   379
1070
     2
1001
ACAD_DSTYLE_DIMEXT_LENGTH
1070
   378
1040
1.25
1001
ACAD_DSTYLE_DIMJOGGED_JOGANGLE_SYMBOL
1070
   384
1040
1.570796326794896
  0
DIMSTYLE
105
5885
330
28FD
100
AcDbSymbolTableRecord
100
AcDbDimStyleTableRecord
  2
5：1
 70
     0
 41
2.5
 42
0.25
 43
0.2
 44
1.25
 73
     0
 74
     0
 77
     3
 78
     8
 79
     2
140
3.0
141
0.0
143
0.03937007874016
144
0.2
147
0.625
171
     3
172
     1
178
     4
179
     1
271
     2
272
     2
274
     3
283
     0
284
     8
288
     1
289
     0
340
2948
341
2984
342
2984
1001
ACAD_DSTYLE_DIMARC_LENGTH_SYMBOL
1070
   379
1070
     2
1001
ACAD_DSTYLE_DIMEXT_LENGTH
1070
   378
1040
1.25
1001
ACAD_DSTYLE_DIMJOGGED_JOGANGLE_SYMBOL
1070
   384
1040
1.570796326794896
  0
DIMSTYLE
105
5886
330
28FD
100
AcDbSymbolTableRecord
100
AcDbDimStyleTableRecord
  2
10：1
 70
     0
 41
2.5
 42
0.25
 43
0.2
 44
1.25
 73
     0
 74
     0
 77
     3
 78
     8
 79
     2
140
3.0
141
0.0
143
0.03937007874016
144
0.1
147
0.625
171
     3
172
     1
178
     4
179
     1
271
     2
272
     2
274
     3
283
     0
284
     8
288
     1
289
     0
340
2948
341
2984
342
2984
1001
ACAD_DSTYLE_DIMARC_LENGTH_SYMBOL
1070
   379
1070
     2
1001
ACAD_DSTYLE_DIMEXT_LENGTH
1070
   378
1040
1.25
1001
ACAD_DSTYLE_DIMJOGGED_JOGANGLE_SYMBOL
1070
   384
1040
1.570796326794896
  0
DIMSTYLE
105
5887
330
28FD
100
AcDbSymbolTableRecord
100
AcDbDimStyleTableRecord
  2
FREE
 70
     0
 41
2.5
 42
0.25
 43
0.2
 44
1.25
 73
     0
 74
     0
 77
     3
 78
     8
 79
     2
140
3.0
141
0.0
143
0.03937007874016
147
0.625
171
     3
172
     1
178
     4
179
     1
271
     2
272
     2
274
     3
283
     0
284
     8
288
     1
289
     0
340
2948
341
2984
342
2984
1001
ACAD_DSTYLE_DIMBREAK
1070
   391
1040
3.75
1001
ACAD_DSTYLE_DIMJAG
1070
   388
1040
1.5
1001
ACAD_DSTYLE_DIMTALN
1070
   392
1070
     0
1001
ACAD_DSTYLE_DIMARC_LENGTH_SYMBOL
1070
   379
1070
     2
1001
ACAD_DSTYLE_DIMEXT_LENGTH
1070
   378
1040
1.25
1001
ACAD_DSTYLE_DIMJOGGED_JOGANGLE_SYMBOL
1070
   384
1040
1.570796326794896
  0
ENDTAB
  0
TABLE
  2
BLOCK_RECORD
  5
28F4
330
0
100
AcDbSymbolTable
 70
    38
  0
BLOCK_RECORD
  5
295E
102
{ACAD_XDICTIONARY
360
32D4
102
}
330
28F4
100
AcDbSymbolTableRecord
100
AcDbBlockTableRecord
  2
*Model_Space
340
2961
  0
BLOCK_RECORD
  5
295A
330
28F4
100
AcDbSymbolTableRecord
100
AcDbBlockTableRecord
  2
*Paper_Space
340
295D
  0
BLOCK_RECORD
  5
2984
330
28F4
100
AcDbSymbolTableRecord
100
AcDbBlockTableRecord
  2
_OPEN30
340
0
102
{BLKREFS
331
4D66
331
4D67
331
4D6F
331
4D70
331
4D78
331
4D79
331
4D81
331
4D82
331
4D8A
331
4D8B
331
4D93
331
4D94
331
4D9C
331
4D9D
331
4DA5
331
4DA6
331
4DAE
331
4DAF
331
4DB7
331
4DB8
331
4DC2
331
4DC3
331
4DCD
331
4DCE
331
4DD6
331
4DD7
331
4DDF
331
4DE0
331
4DE8
331
4DE9
331
4DF3
331
4DF4
331
57CA
331
57CB
331
57D3
331
57D4
331
57DC
331
57DD
331
57E5
331
57E6
331
57ED
331
57EE
331
57F8
331
57F9
331
5801
331
5802
331
580C
331
580D
331
5865
331
5866
331
5871
331
5872
331
587D
331
587E
331
6C19
331
6C1A
331
6C22
331
6C23
331
6C2B
331
6C2C
331
6C34
331
6C35
331
6C3D
331
6C3E
331
6C46
331
6C47
331
6C4D
331
6C4E
331
6C56
331
6C57
102
}
  0
BLOCK_RECORD
  5
29CF
330
28F4
100
AcDbSymbolTableRecord
100
AcDbBlockTableRecord
  2
_DOTSMALL
340
0
  0
BLOCK_RECORD
  5
4322
330
28F4
100
AcDbSymbolTableRecord
100
AcDbBlockTableRecord
  2
*D2
340
0
  0
BLOCK_RECORD
  5
432F
330
28F4
100
AcDbSymbolTableRecord
100
AcDbBlockTableRecord
  2
*D3
340
0
  0
BLOCK_RECORD
  5
433C
330
28F4
100
AcDbSymbolTableRecord
100
AcDbBlockTableRecord
  2
*D4
340
0
  0
BLOCK_RECORD
  5
4349
330
28F4
100
AcDbSymbolTableRecord
100
AcDbBlockTableRecord
  2
*D5
340
0
  0
BLOCK_RECORD
  5
4356
330
28F4
100
AcDbSymbolTableRecord
100
AcDbBlockTableRecord
  2
*D6
340
0
  0
BLOCK_RECORD
  5
4363
330
28F4
100
AcDbSymbolTableRecord
100
AcDbBlockTableRecord
  2
*D7
340
0
  0
BLOCK_RECORD
  5
4370
330
28F4
100
AcDbSymbolTableRecord
100
AcDbBlockTableRecord
  2
*D8
340
0
  0
BLOCK_RECORD
  5
4390
330
28F4
100
AcDbSymbolTableRecord
100
AcDbBlockTableRecord
  2
*D9
340
0
  0
BLOCK_RECORD
  5
43A6
330
28F4
100
AcDbSymbolTableRecord
100
AcDbBlockTableRecord
  2
*D10
340
0
  0
BLOCK_RECORD
  5
43BC
330
28F4
100
AcDbSymbolTableRecord
100
AcDbBlockTableRecord
  2
*D11
340
0
  0
BLOCK_RECORD
  5
43CB
330
28F4
100
AcDbSymbolTableRecord
100
AcDbBlockTableRecord
  2
*D12
340
0
  0
BLOCK_RECORD
  5
43DA
330
28F4
100
AcDbSymbolTableRecord
100
AcDbBlockTableRecord
  2
*D13
340
0
  0
BLOCK_RECORD
  5
43E7
330
28F4
100
AcDbSymbolTableRecord
100
AcDbBlockTableRecord
  2
*D14
340
0
  0
BLOCK_RECORD
  5
43F6
330
28F4
100
AcDbSymbolTableRecord
100
AcDbBlockTableRecord
  2
*D15
340
0
  0
BLOCK_RECORD
  5
4403
330
28F4
100
AcDbSymbolTableRecord
100
AcDbBlockTableRecord
  2
*D16
340
0
  0
BLOCK_RECORD
  5
45C9
330
28F4
100
AcDbSymbolTableRecord
100
AcDbBlockTableRecord
  2
*D17
340
0
  0
BLOCK_RECORD
  5
520E
102
{ACAD_XDICTIONARY
360
524B
102
}
330
28F4
100
AcDbSymbolTableRecord
100
AcDbBlockTableRecord
  2
A$C535C4466
340
0
  0
BLOCK_RECORD
  5
532D
330
28F4
100
AcDbSymbolTableRecord
100
AcDbBlockTableRecord
  2
*D19
340
0
  0
BLOCK_RECORD
  5
537A
330
28F4
100
AcDbSymbolTableRecord
100
AcDbBlockTableRecord
  2
*D20
340
0
  0
BLOCK_RECORD
  5
5387
330
28F4
100
AcDbSymbolTableRecord
100
AcDbBlockTableRecord
  2
*D21
340
0
  0
BLOCK_RECORD
  5
5394
330
28F4
100
AcDbSymbolTableRecord
100
AcDbBlockTableRecord
  2
*D22
340
0
  0
BLOCK_RECORD
  5
53A7
330
28F4
100
AcDbSymbolTableRecord
100
AcDbBlockTableRecord
  2
*D23
340
0
  0
BLOCK_RECORD
  5
569D
330
28F4
100
AcDbSymbolTableRecord
100
AcDbBlockTableRecord
  2
*D24
340
0
  0
BLOCK_RECORD
  5
56C9
330
28F4
100
AcDbSymbolTableRecord
100
AcDbBlockTableRecord
  2
*D25
340
0
  0
BLOCK_RECORD
  5
56D6
330
28F4
100
AcDbSymbolTableRecord
100
AcDbBlockTableRecord
  2
*D26
340
0
  0
BLOCK_RECORD
  5
5860
330
28F4
100
AcDbSymbolTableRecord
100
AcDbBlockTableRecord
  2
*D27
340
0
  0
BLOCK_RECORD
  5
586C
330
28F4
100
AcDbSymbolTableRecord
100
AcDbBlockTableRecord
  2
*D28
340
0
  0
BLOCK_RECORD
  5
5878
330
28F4
100
AcDbSymbolTableRecord
100
AcDbBlockTableRecord
  2
*D29
340
0
  0
BLOCK_RECORD
  5
5DB1
330
28F4
100
AcDbSymbolTableRecord
100
AcDbBlockTableRecord
  2
*D30
340
0
  0
BLOCK_RECORD
  5
5DBD
330
28F4
100
AcDbSymbolTableRecord
100
AcDbBlockTableRecord
  2
*D31
340
0
  0
BLOCK_RECORD
  5
5DD2
330
28F4
100
AcDbSymbolTableRecord
100
AcDbBlockTableRecord
  2
*D32
340
0
  0
BLOCK_RECORD
  5
5DFD
330
28F4
100
AcDbSymbolTableRecord
100
AcDbBlockTableRecord
  2
*D33
340
0
  0
BLOCK_RECORD
  5
5E0A
330
28F4
100
AcDbSymbolTableRecord
100
AcDbBlockTableRecord
  2
*D34
340
0
  0
BLOCK_RECORD
  5
5E17
330
28F4
100
AcDbSymbolTableRecord
100
AcDbBlockTableRecord
  2
*D35
340
0
  0
BLOCK_RECORD
  5
5E24
330
28F4
100
AcDbSymbolTableRecord
100
AcDbBlockTableRecord
  2
*D36
340
0
  0
BLOCK_RECORD
  5
5E31
330
28F4
100
AcDbSymbolTableRecord
100
AcDbBlockTableRecord
  2
*D37
340
0
  0
ENDTAB
  0
ENDSEC
  0
SECTION
  2
BLOCKS
  0
BLOCK
  5
295F
330
295E
100
AcDbEntity
  8
0
100
AcDbBlockBegin
  2
*Model_Space
 70
     0
 10
0.0
 20
0.0
 30
0.0
  3
*Model_Space
  1

  0
ENDBLK
  5
2960
330
295E
100
AcDbEntity
  8
0
100
AcDbBlockEnd
  0
BLOCK
  5
295B
330
295A
100
AcDbEntity
 67
     1
  8
0
100
AcDbBlockBegin
  2
*Paper_Space
 70
     0
 10
0.0
 20
0.0
 30
0.0
  3
*Paper_Space
  1

  0
ENDBLK
  5
295C
330
295A
100
AcDbEntity
 67
     1
  8
0
100
AcDbBlockEnd
  0
BLOCK
  5
2985
330
2984
100
AcDbEntity
  8
0
100
AcDbBlockBegin
  2
_OPEN30
 70
     0
 10
0.0
 20
0.0
 30
0.0
  3
_OPEN30
  1

  0
LINE
  5
C8
330
2984
100
AcDbEntity
  8
0
  6
ByBlock
 62
     0
100
AcDbLine
 10
-1.0
 20
0.267949
 30
0.0
 11
0.0
 21
0.0
 31
0.0
  0
LINE
  5
C9
330
2984
100
AcDbEntity
  8
0
  6
ByBlock
 62
     0
100
AcDbLine
 10
0.0
 20
0.0
 30
0.0
 11
-1.0
 21
-0.267949
 31
0.0
  0
LINE
  5
CA
330
2984
100
AcDbEntity
  8
0
  6
ByBlock
 62
     0
100
AcDbLine
 10
0.0
 20
0.0
 30
0.0
 11
-1.0
 21
0.0
 31
0.0
  0
ENDBLK
  5
CB
330
2984
100
AcDbEntity
  8
0
100
AcDbBlockEnd
  0
BLOCK
  5
29D0
330
29CF
100
AcDbEntity
  8
0
100
AcDbBlockBegin
  2
_DOTSMALL
 70
     0
 10
0.0
 20
0.0
 30
0.0
  3
_DOTSMALL
  1

  0
LWPOLYLINE
  5
1219
330
29CF
100
AcDbEntity
  8
0
  6
ByBlock
 62
     0
100
AcDbPolyline
 90
        2
 70
     1
 43
0.5
 10
-0.0625
 20
0.0
 42
1.0
 10
0.0625
 20
0.0
 42
1.0
  0
ENDBLK
  5
121B
330
29CF
100
AcDbEntity
  8
0
100
AcDbBlockEnd
  0
BLOCK
  5
4323
330
4322
100
AcDbEntity
  8
0
100
AcDbBlockBegin
  2
*D2
 70
     1
 10
0.0
 20
0.0
 30
0.0
  3
*D2
  1

  0
LINE
  5
4D63
330
4322
100
AcDbEntity
  8
0
 62
     0
370
    -2
100
AcDbLine
 10
406.3809297035128
 20
199.8887117158313
 30
0.0
 11
406.3809297035128
 21
235.8385423252189
 31
0.0
  0
LINE
  5
4D64
330
4322
100
AcDbEntity
  8
0
 62
     0
370
    -2
100
AcDbLine
 10
373.380929703513
 20
199.8887117158313
 30
0.0
 11
373.380929703513
 21
235.8385423252189
 31
0.0
  0
LINE
  5
4D65
330
4322
100
AcDbEntity
  8
0
 62
     0
370
    -2
100
AcDbLine
 10
403.8809297035126
 20
234.5885423252189
 30
0.0
 11
375.880929703513
 21
234.5885423252189
 31
0.0
  0
INSERT
  5
4D66
330
4322
100
AcDbEntity
  8
0
 62
     0
370
    -2
100
AcDbBlockReference
  2
_OPEN30
 10
406.3809297035128
 20
234.5885423252189
 30
0.0
 41
2.5
 42
2.5
 43
2.5
  0
INSERT
  5
4D67
330
4322
100
AcDbEntity
  8
0
 62
     0
370
    -2
100
AcDbBlockReference
  2
_OPEN30
 10
373.380929703513
 20
234.5885423252189
 30
0.0
 41
2.5
 42
2.5
 43
2.5
 50
180.0
  0
MTEXT
  5
4D68
330
4322
100
AcDbEntity
  8
0
 62
     4
100
AcDbMText
 10
390.1144995991119
 20
236.7135423252189
 30
0.0
 40
3.0
 41
0.0
 71
     5
 72
     1
  1
33
 73
     1
 44
1.0
1001
ACAD
1000
MTEXTBEGIN
1070
    73
1070
     1
1070
    44
1040
1.0
1070
    74
1070
     0
1000
MTEXTEND
  0
POINT
  5
4D69
330
4322
100
AcDbEntity
  8
DEFPOINTS
 62
     0
100
AcDbPoint
 10
406.3809297035128
 20
199.6387117158313
 30
0.0
  0
POINT
  5
4D6A
330
4322
100
AcDbEntity
  8
DEFPOINTS
 62
     0
100
AcDbPoint
 10
373.380929703513
 20
199.6387117158313
 30
0.0
  0
POINT
  5
4D6B
330
4322
100
AcDbEntity
  8
DEFPOINTS
 62
     0
100
AcDbPoint
 10
373.380929703513
 20
234.5885423252189
 30
0.0
  0
ENDBLK
  5
4324
330
4322
100
AcDbEntity
  8
0
100
AcDbBlockEnd
  0
BLOCK
  5
4330
330
432F
100
AcDbEntity
  8
0
100
AcDbBlockBegin
  2
*D3
 70
     1
 10
0.0
 20
0.0
 30
0.0
  3
*D3
  1

  0
LINE
  5
4D6C
330
432F
100
AcDbEntity
  8
0
 62
     0
370
    -2
100
AcDbLine
 10
374.1309297035129
 20
200.6387117158315
 30
0.0
 11
341.7122841573084
 21
200.6387117158315
 31
0.0
  0
LINE
  5
4D6D
330
432F
100
AcDbEntity
  8
0
 62
     0
370
    -2
100
AcDbLine
 10
374.1309297035129
 20
187.1387117158315
 30
0.0
 11
341.7122841573084
 21
187.1387117158315
 31
0.0
  0
LINE
  5
4D6E
330
432F
100
AcDbEntity
  8
0
 62
     0
370
    -2
100
AcDbLine
 10
342.9622841573084
 20
198.1387117158315
 30
0.0
 11
342.9622841573084
 21
189.6387117158315
 31
0.0
  0
INSERT
  5
4D6F
330
432F
100
AcDbEntity
  8
0
 62
     0
370
    -2
100
AcDbBlockReference
  2
_OPEN30
 10
342.9622841573084
 20
200.6387117158315
 30
0.0
 41
2.5
 42
2.5
 43
2.5
 50
90.0
  0
INSERT
  5
4D70
330
432F
100
AcDbEntity
  8
0
 62
     0
370
    -2
100
AcDbBlockReference
  2
_OPEN30
 10
342.9622841573084
 20
187.1387117158315
 30
0.0
 41
2.5
 42
2.5
 43
2.5
 50
270.0
  0
MTEXT
  5
4D71
330
432F
100
AcDbEntity
  8
0
 62
     4
100
AcDbMText
 10
340.8372841573084
 20
194.1488888647086
 30
0.0
 40
3.0
 41
0.0
 71
     5
 72
     1
  1
13.5
 11
0.0000000000000001
 21
1.0
 31
0.0
 73
     1
 44
1.0
1001
ACAD
1000
MTEXTBEGIN
1070
    73
1070
     1
1070
    44
1040
1.0
1070
    74
1070
     0
1000
MTEXTEND
  0
POINT
  5
4D72
330
432F
100
AcDbEntity
  8
DEFPOINTS
 62
     0
100
AcDbPoint
 10
374.3809297035129
 20
200.6387117158315
 30
0.0
  0
POINT
  5
4D73
330
432F
100
AcDbEntity
  8
DEFPOINTS
 62
     0
100
AcDbPoint
 10
374.3809297035129
 20
187.1387117158315
 30
0.0
  0
POINT
  5
4D74
330
432F
100
AcDbEntity
  8
DEFPOINTS
 62
     0
100
AcDbPoint
 10
342.9622841573084
 20
187.1387117158315
 30
0.0
  0
ENDBLK
  5
4331
330
432F
100
AcDbEntity
  8
0
100
AcDbBlockEnd
  0
BLOCK
  5
433D
330
433C
100
AcDbEntity
  8
0
100
AcDbBlockBegin
  2
*D4
 70
     1
 10
0.0
 20
0.0
 30
0.0
  3
*D4
  1

  0
LINE
  5
4D75
330
433C
100
AcDbEntity
  8
0
 62
     0
370
    -2
100
AcDbLine
 10
359.130929703513
 20
221.8887117158315
 30
0.0
 11
335.5698510355367
 21
221.8887117158315
 31
0.0
  0
LINE
  5
4D76
330
433C
100
AcDbEntity
  8
0
 62
     0
370
    -2
100
AcDbLine
 10
359.130929703513
 20
165.8887117158315
 30
0.0
 11
335.5698510355367
 21
165.8887117158315
 31
0.0
  0
LINE
  5
4D77
330
433C
100
AcDbEntity
  8
0
 62
     0
370
    -2
100
AcDbLine
 10
336.8198510355366
 20
219.3887117158315
 30
0.0
 11
336.8198510355366
 21
168.3887117158315
 31
0.0
  0
INSERT
  5
4D78
330
433C
100
AcDbEntity
  8
0
 62
     0
370
    -2
100
AcDbBlockReference
  2
_OPEN30
 10
336.8198510355366
 20
221.8887117158315
 30
0.0
 41
2.5
 42
2.5
 43
2.5
 50
90.0
  0
INSERT
  5
4D79
330
433C
100
AcDbEntity
  8
0
 62
     0
370
    -2
100
AcDbBlockReference
  2
_OPEN30
 10
336.8198510355366
 20
165.8887117158315
 30
0.0
 41
2.5
 42
2.5
 43
2.5
 50
270.0
  0
MTEXT
  5
4D7A
330
433C
100
AcDbEntity
  8
0
 62
     4
100
AcDbMText
 10
334.6948510355366
 20
194.3294232929313
 30
0.0
 40
3.0
 41
0.0
 71
     5
 72
     1
  1
56
 11
0.0000000000000001
 21
1.0
 31
0.0
 73
     1
 44
1.0
1001
ACAD
1000
MTEXTBEGIN
1070
    73
1070
     1
1070
    44
1040
1.0
1070
    74
1070
     0
1000
MTEXTEND
  0
POINT
  5
4D7B
330
433C
100
AcDbEntity
  8
DEFPOINTS
 62
     0
100
AcDbPoint
 10
359.380929703513
 20
221.8887117158315
 30
0.0
  0
POINT
  5
4D7C
330
433C
100
AcDbEntity
  8
DEFPOINTS
 62
     0
100
AcDbPoint
 10
359.380929703513
 20
165.8887117158315
 30
0.0
  0
POINT
  5
4D7D
330
433C
100
AcDbEntity
  8
DEFPOINTS
 62
     0
100
AcDbPoint
 10
336.8198510355366
 20
165.8887117158315
 30
0.0
  0
ENDBLK
  5
433E
330
433C
100
AcDbEntity
  8
0
100
AcDbBlockEnd
  0
BLOCK
  5
434A
330
4349
100
AcDbEntity
  8
0
100
AcDbBlockBegin
  2
*D5
 70
     1
 10
0.0
 20
0.0
 30
0.0
  3
*D5
  1

  0
LINE
  5
4D7E
330
4349
100
AcDbEntity
  8
0
 62
     0
370
    -2
100
AcDbLine
 10
354.3809297035129
 20
217.1387117158315
 30
0.0
 11
354.3809297035129
 21
241.6156348579336
 31
0.0
  0
LINE
  5
4D7F
330
4349
100
AcDbEntity
  8
0
 62
     0
370
    -2
100
AcDbLine
 10
425.3809297035129
 20
217.1387117158314
 30
0.0
 11
425.3809297035129
 21
241.6156348579336
 31
0.0
  0
LINE
  5
4D80
330
4349
100
AcDbEntity
  8
0
 62
     0
370
    -2
100
AcDbLine
 10
356.8809297035129
 20
240.3656348579336
 30
0.0
 11
422.8809297035128
 21
240.3656348579336
 31
0.0
  0
INSERT
  5
4D81
330
4349
100
AcDbEntity
  8
0
 62
     0
370
    -2
100
AcDbBlockReference
  2
_OPEN30
 10
354.3809297035129
 20
240.3656348579336
 30
0.0
 41
2.5
 42
2.5
 43
2.5
 50
180.0
  0
INSERT
  5
4D82
330
4349
100
AcDbEntity
  8
0
 62
     0
370
    -2
100
AcDbBlockReference
  2
_OPEN30
 10
425.3809297035129
 20
240.3656348579336
 30
0.0
 41
2.5
 42
2.5
 43
2.5
  0
MTEXT
  5
4D83
330
4349
100
AcDbEntity
  8
0
 62
     4
100
AcDbMText
 10
389.5725217100874
 20
242.4906348579336
 30
0.0
 40
3.0
 41
0.0
 71
     5
 72
     1
  1
71
 73
     1
 44
1.0
1001
ACAD
1000
MTEXTBEGIN
1070
    73
1070
     1
1070
    44
1040
1.0
1070
    74
1070
     0
1000
MTEXTEND
  0
POINT
  5
4D84
330
4349
100
AcDbEntity
  8
DEFPOINTS
 62
     0
100
AcDbPoint
 10
354.3809297035129
 20
216.8887117158315
 30
0.0
  0
POINT
  5
4D85
330
4349
100
AcDbEntity
  8
DEFPOINTS
 62
     0
100
AcDbPoint
 10
425.3809297035129
 20
216.8887117158314
 30
0.0
  0
POINT
  5
4D86
330
4349
100
AcDbEntity
  8
DEFPOINTS
 62
     0
100
AcDbPoint
 10
425.3809297035129
 20
240.3656348579336
 30
0.0
  0
ENDBLK
  5
434B
330
4349
100
AcDbEntity
  8
0
100
AcDbBlockEnd
  0
BLOCK
  5
4357
330
4356
100
AcDbEntity
  8
0
100
AcDbBlockBegin
  2
*D6
 70
     1
 10
0.0
 20
0.0
 30
0.0
  3
*D6
  1

  0
LINE
  5
4D87
330
4356
100
AcDbEntity
  8
0
 62
     0
370
    -2
100
AcDbLine
 10
348.630929703513
 20
206.1387117158313
 30
0.0
 11
348.630929703513
 21
248.7716900081345
 31
0.0
  0
LINE
  5
4D88
330
4356
100
AcDbEntity
  8
0
 62
     0
370
    -2
100
AcDbLine
 10
431.1309297035129
 20
206.1387117158313
 30
0.0
 11
431.1309297035129
 21
248.7716900081345
 31
0.0
  0
LINE
  5
4D89
330
4356
100
AcDbEntity
  8
0
 62
     0
370
    -2
100
AcDbLine
 10
351.130929703513
 20
247.5216900081345
 30
0.0
 11
428.6309297035129
 21
247.5216900081345
 31
0.0
  0
INSERT
  5
4D8A
330
4356
100
AcDbEntity
  8
0
 62
     0
370
    -2
100
AcDbBlockReference
  2
_OPEN30
 10
348.630929703513
 20
247.5216900081345
 30
0.0
 41
2.5
 42
2.5
 43
2.5
 50
180.0
  0
INSERT
  5
4D8B
330
4356
100
AcDbEntity
  8
0
 62
     0
370
    -2
100
AcDbBlockReference
  2
_OPEN30
 10
431.1309297035129
 20
247.5216900081345
 30
0.0
 41
2.5
 42
2.5
 43
2.5
  0
MTEXT
  5
4D8C
330
4356
100
AcDbEntity
  8
0
 62
     4
100
AcDbMText
 10
388.7390667557436
 20
249.6466900081345
 30
0.0
 40
3.0
 41
0.0
 71
     5
 72
     1
  1
82.5
 73
     1
 44
1.0
1001
ACAD
1000
MTEXTBEGIN
1070
    73
1070
     1
1070
    44
1040
1.0
1070
    74
1070
     0
1000
MTEXTEND
  0
POINT
  5
4D8D
330
4356
100
AcDbEntity
  8
DEFPOINTS
 62
     0
100
AcDbPoint
 10
348.630929703513
 20
205.8887117158313
 30
0.0
  0
POINT
  5
4D8E
330
4356
100
AcDbEntity
  8
DEFPOINTS
 62
     0
100
AcDbPoint
 10
431.1309297035129
 20
205.8887117158313
 30
0.0
  0
POINT
  5
4D8F
330
4356
100
AcDbEntity
  8
DEFPOINTS
 62
     0
100
AcDbPoint
 10
431.1309297035129
 20
247.5216900081345
 30
0.0
  0
ENDBLK
  5
4358
330
4356
100
AcDbEntity
  8
0
100
AcDbBlockEnd
  0
BLOCK
  5
4364
330
4363
100
AcDbEntity
  8
0
100
AcDbBlockBegin
  2
*D7
 70
     1
 10
0.0
 20
0.0
 30
0.0
  3
*D7
  1

  0
LINE
  5
4D90
330
4363
100
AcDbEntity
  8
0
 62
     0
370
    -2
100
AcDbLine
 10
377.630929703513
 20
227.3887117158315
 30
0.0
 11
330.0549116153336
 21
227.3887117158315
 31
0.0
  0
LINE
  5
4D91
330
4363
100
AcDbEntity
  8
0
 62
     0
370
    -2
100
AcDbLine
 10
359.130929703513
 20
165.8887117158315
 30
0.0
 11
330.0549116153336
 21
165.8887117158315
 31
0.0
  0
LINE
  5
4D92
330
4363
100
AcDbEntity
  8
0
 62
     0
370
    -2
100
AcDbLine
 10
331.3049116153337
 20
224.8887117158315
 30
0.0
 11
331.3049116153337
 21
168.3887117158315
 31
0.0
  0
INSERT
  5
4D93
330
4363
100
AcDbEntity
  8
0
 62
     0
370
    -2
100
AcDbBlockReference
  2
_OPEN30
 10
331.3049116153337
 20
227.3887117158315
 30
0.0
 41
2.5
 42
2.5
 43
2.5
 50
90.0
  0
INSERT
  5
4D94
330
4363
100
AcDbEntity
  8
0
 62
     0
370
    -2
100
AcDbBlockReference
  2
_OPEN30
 10
331.3049116153337
 20
165.8887117158315
 30
0.0
 41
2.5
 42
2.5
 43
2.5
 50
270.0
  0
MTEXT
  5
4D95
330
4363
100
AcDbEntity
  8
0
 62
     4
100
AcDbMText
 10
329.1799116153336
 20
197.5645835565346
 30
0.0
 40
3.0
 41
0.0
 71
     5
 72
     1
  1
61.5
 11
0.0000000000000001
 21
1.0
 31
0.0
 73
     1
 44
1.0
1001
ACAD
1000
MTEXTBEGIN
1070
    73
1070
     1
1070
    44
1040
1.0
1070
    74
1070
     0
1000
MTEXTEND
  0
POINT
  5
4D96
330
4363
100
AcDbEntity
  8
DEFPOINTS
 62
     0
100
AcDbPoint
 10
377.880929703513
 20
227.3887117158315
 30
0.0
  0
POINT
  5
4D97
330
4363
100
AcDbEntity
  8
DEFPOINTS
 62
     0
100
AcDbPoint
 10
359.380929703513
 20
165.8887117158315
 30
0.0
  0
POINT
  5
4D98
330
4363
100
AcDbEntity
  8
DEFPOINTS
 62
     0
100
AcDbPoint
 10
331.3049116153337
 20
165.8887117158315
 30
0.0
  0
ENDBLK
  5
4365
330
4363
100
AcDbEntity
  8
0
100
AcDbBlockEnd
  0
BLOCK
  5
4371
330
4370
100
AcDbEntity
  8
0
100
AcDbBlockBegin
  2
*D8
 70
     1
 10
0.0
 20
0.0
 30
0.0
  3
*D8
  1

  0
LINE
  5
4D99
330
4370
100
AcDbEntity
  8
0
 62
     0
370
    -2
100
AcDbLine
 10
294.4806099150467
 20
180.6387117158314
 30
0.0
 11
294.4806099150467
 21
170.3896972931411
 31
0.0
  0
LINE
  5
4D9A
330
4370
100
AcDbEntity
  8
0
 62
     0
370
    -2
100
AcDbLine
 10
310.2306099150467
 20
190.7637117158314
 30
0.0
 11
310.2306099150467
 21
170.3896972931411
 31
0.0
  0
LINE
  5
4D9B
330
4370
100
AcDbEntity
  8
0
 62
     0
370
    -2
100
AcDbLine
 10
296.9806099150467
 20
171.6396972931411
 30
0.0
 11
307.7306099150467
 21
171.6396972931411
 31
0.0
  0
INSERT
  5
4D9C
330
4370
100
AcDbEntity
  8
0
 62
     0
370
    -2
100
AcDbBlockReference
  2
_OPEN30
 10
294.4806099150467
 20
171.6396972931411
 30
0.0
 41
2.5
 42
2.5
 43
2.5
 50
180.0
  0
INSERT
  5
4D9D
330
4370
100
AcDbEntity
  8
0
 62
     0
370
    -2
100
AcDbBlockReference
  2
_OPEN30
 10
310.2306099150467
 20
171.6396972931411
 30
0.0
 41
2.5
 42
2.5
 43
2.5
  0
MTEXT
  5
4D9E
330
4370
100
AcDbEntity
  8
0
 62
     4
100
AcDbMText
 10
302.3556099150467
 20
173.7646972931411
 30
0.0
 40
3.0
 41
0.0
 71
     5
 72
     1
  1
31.5
 73
     1
 44
1.0
1001
ACAD
1000
MTEXTBEGIN
1070
    73
1070
     1
1070
    44
1040
1.0
1070
    74
1070
     0
1000
MTEXTEND
  0
POINT
  5
4D9F
330
4370
100
AcDbEntity
  8
DEFPOINTS
 62
     0
100
AcDbPoint
 10
294.4806099150467
 20
180.8887117158314
 30
0.0
  0
POINT
  5
4DA0
330
4370
100
AcDbEntity
  8
DEFPOINTS
 62
     0
100
AcDbPoint
 10
310.2306099150467
 20
191.0137117158314
 30
0.0
  0
POINT
  5
4DA1
330
4370
100
AcDbEntity
  8
DEFPOINTS
 62
     0
100
AcDbPoint
 10
310.2306099150467
 20
171.6396972931411
 30
0.0
  0
ENDBLK
  5
4372
330
4370
100
AcDbEntity
  8
0
100
AcDbBlockEnd
  0
BLOCK
  5
4391
330
4390
100
AcDbEntity
  8
0
100
AcDbBlockBegin
  2
*D9
 70
     1
 10
0.0
 20
0.0
 30
0.0
  3
*D9
  1

  0
LINE
  5
4DA2
330
4390
100
AcDbEntity
  8
0
 62
     0
370
    -2
100
AcDbLine
 10
192.4539952388375
 20
194.1387117158314
 30
0.0
 11
192.4539952388375
 21
210.5106681116893
 31
0.0
  0
LINE
  5
4DA3
330
4390
100
AcDbEntity
  8
0
 62
     0
370
    -2
100
AcDbLine
 10
220.9539952388376
 20
199.8887117158314
 30
0.0
 11
220.9539952388376
 21
210.5106681116893
 31
0.0
  0
LINE
  5
4DA4
330
4390
100
AcDbEntity
  8
0
 62
     0
370
    -2
100
AcDbLine
 10
194.9539952388375
 20
209.2606681116893
 30
0.0
 11
218.4539952388376
 21
209.2606681116893
 31
0.0
  0
INSERT
  5
4DA5
330
4390
100
AcDbEntity
  8
0
 62
     0
370
    -2
100
AcDbBlockReference
  2
_OPEN30
 10
192.4539952388375
 20
209.2606681116893
 30
0.0
 41
2.5
 42
2.5
 43
2.5
 50
180.0
  0
INSERT
  5
4DA6
330
4390
100
AcDbEntity
  8
0
 62
     0
370
    -2
100
AcDbBlockReference
  2
_OPEN30
 10
220.9539952388376
 20
209.2606681116893
 30
0.0
 41
2.5
 42
2.5
 43
2.5
  0
MTEXT
  5
4DA7
330
4390
100
AcDbEntity
  8
0
 62
     4
100
AcDbMText
 10
206.4039699102488
 20
211.3856681116893
 30
0.0
 40
3.0
 41
0.0
 71
     5
 72
     1
  1
57
 73
     1
 44
1.0
1001
ACAD
1000
MTEXTBEGIN
1070
    73
1070
     1
1070
    44
1040
1.0
1070
    74
1070
     0
1000
MTEXTEND
  0
POINT
  5
4DA8
330
4390
100
AcDbEntity
  8
DEFPOINTS
 62
     0
100
AcDbPoint
 10
192.4539952388375
 20
193.8887117158315
 30
0.0
  0
POINT
  5
4DA9
330
4390
100
AcDbEntity
  8
DEFPOINTS
 62
     0
100
AcDbPoint
 10
220.9539952388376
 20
199.6387117158314
 30
0.0
  0
POINT
  5
4DAA
330
4390
100
AcDbEntity
  8
DEFPOINTS
 62
     0
100
AcDbPoint
 10
220.9539952388376
 20
209.2606681116893
 30
0.0
  0
ENDBLK
  5
4392
330
4390
100
AcDbEntity
  8
0
100
AcDbBlockEnd
  0
BLOCK
  5
43A7
330
43A6
100
AcDbEntity
  8
0
100
AcDbBlockBegin
  2
*D10
 70
     1
 10
0.0
 20
0.0
 30
0.0
  3
*D10
  1

  0
LINE
  5
4DAB
330
43A6
100
AcDbEntity
  8
0
 62
     0
370
    -2
100
AcDbLine
 10
220.9539952388376
 20
199.8887117158314
 30
0.0
 11
220.9539952388376
 21
215.2159574802477
 31
0.0
  0
LINE
  5
4DAC
330
43A6
100
AcDbEntity
  8
0
 62
     0
370
    -2
100
AcDbLine
 10
188.9539952388375
 20
194.1387117158314
 30
0.0
 11
188.9539952388375
 21
215.2159574802477
 31
0.0
  0
LINE
  5
4DAD
330
43A6
100
AcDbEntity
  8
0
 62
     0
370
    -2
100
AcDbLine
 10
218.4539952388376
 20
213.9659574802477
 30
0.0
 11
191.4539952388375
 21
213.9659574802477
 31
0.0
  0
INSERT
  5
4DAE
330
43A6
100
AcDbEntity
  8
0
 62
     0
370
    -2
100
AcDbBlockReference
  2
_OPEN30
 10
220.9539952388376
 20
213.9659574802477
 30
0.0
 41
2.5
 42
2.5
 43
2.5
  0
INSERT
  5
4DAF
330
43A6
100
AcDbEntity
  8
0
 62
     0
370
    -2
100
AcDbBlockReference
  2
_OPEN30
 10
188.9539952388375
 20
213.9659574802477
 30
0.0
 41
2.5
 42
2.5
 43
2.5
 50
180.0
  0
MTEXT
  5
4DB0
330
43A6
100
AcDbEntity
  8
0
 62
     4
100
AcDbMText
 10
205.1193058241372
 20
216.0909574802477
 30
0.0
 40
3.0
 41
0.0
 71
     5
 72
     1
  1
64
 73
     1
 44
1.0
1001
ACAD
1000
MTEXTBEGIN
1070
    73
1070
     1
1070
    44
1040
1.0
1070
    74
1070
     0
1000
MTEXTEND
  0
POINT
  5
4DB1
330
43A6
100
AcDbEntity
  8
DEFPOINTS
 62
     0
100
AcDbPoint
 10
220.9539952388376
 20
199.6387117158314
 30
0.0
  0
POINT
  5
4DB2
330
43A6
100
AcDbEntity
  8
DEFPOINTS
 62
     0
100
AcDbPoint
 10
188.9539952388375
 20
193.8887117158315
 30
0.0
  0
POINT
  5
4DB3
330
43A6
100
AcDbEntity
  8
DEFPOINTS
 62
     0
100
AcDbPoint
 10
188.9539952388375
 20
213.9659574802477
 30
0.0
  0
ENDBLK
  5
43A8
330
43A6
100
AcDbEntity
  8
0
100
AcDbBlockEnd
  0
BLOCK
  5
43BD
330
43BC
100
AcDbEntity
  8
0
100
AcDbBlockBegin
  2
*D11
 70
     1
 10
0.0
 20
0.0
 30
0.0
  3
*D11
  1

  0
LINE
  5
4DB4
330
43BC
100
AcDbEntity
  8
0
 62
     0
370
    -2
100
AcDbLine
 10
185.5070395752493
 20
193.8887117158314
 30
0.0
 11
178.4693225057442
 21
193.8887117158314
 31
0.0
  0
LINE
  5
4DB5
330
43BC
100
AcDbEntity
  8
0
 62
     0
370
    -2
100
AcDbLine
 10
189.6294743534897
 20
177.6353076262632
 30
0.0
 11
185.2452535884363
 21
174.2099789590949
 31
0.0
  0
ARC
  5
4DB6
330
43BC
100
AcDbEntity
  8
0
 62
     0
370
    -2
100
AcDbCircle
 10
210.432882912586
 20
193.8887117158314
 30
0.0
 40
30.71356040684172
100
AcDbArc
 50
184.665008534418
 51
213.3349914655812
  0
INSERT
  5
4DB7
330
43BC
100
AcDbEntity
  8
0
 62
     0
370
    -2
100
AcDbBlockReference
  2
_OPEN30
 10
179.7193225057442
 20
193.8887117158314
 30
0.0
 41
2.5
 42
2.5
 43
2.5
 50
92.33250426720898
  0
INSERT
  5
4DB8
330
43BC
100
AcDbEntity
  8
0
 62
     0
370
    -2
100
AcDbBlockReference
  2
_OPEN30
 10
186.2302670304448
 20
174.9795558032519
 30
0.0
 41
2.5
 42
2.5
 43
2.5
 50
305.6674957327901
  0
MTEXT
  5
4DB9
330
43BC
100
AcDbEntity
  8
0
 62
     4
100
AcDbMText
 10
183.2586417271184
 20
185.0080359459546
 30
0.0
 40
3.0
 41
0.0
 71
     5
 72
     1
  1
38\U+00B0
 11
0.3106373893437295
 21
-0.9505284910731042
 31
0.0
 73
     1
 44
1.0
1001
ACAD
1000
MTEXTBEGIN
1070
    73
1070
     1
1070
    44
1040
1.0
1070
    74
1070
     0
1000
MTEXTEND
  0
POINT
  5
4DBA
330
43BC
100
AcDbEntity
  8
DEFPOINTS
 62
     0
100
AcDbPoint
 10
182.6729298215285
 20
180.7468778541893
 30
0.0
  0
POINT
  5
4DBB
330
43BC
100
AcDbEntity
  8
DEFPOINTS
 62
     0
100
AcDbPoint
 10
200.7520806898676
 20
186.3252400861675
 30
0.0
  0
POINT
  5
4DBC
330
43BC
100
AcDbEntity
  8
DEFPOINTS
 62
     0
100
AcDbPoint
 10
207.6358509023815
 20
193.8887117158314
 30
0.0
  0
POINT
  5
4DBD
330
43BC
100
AcDbEntity
  8
DEFPOINTS
 62
     0
100
AcDbPoint
 10
185.7570395752493
 20
193.8887117158314
 30
0.0
  0
POINT
  5
4DBE
330
43BC
100
AcDbEntity
  8
DEFPOINTS
 62
     0
100
AcDbPoint
 10
189.8264770418914
 20
177.7892229950946
 30
0.0
  0
ENDBLK
  5
43BE
330
43BC
100
AcDbEntity
  8
0
100
AcDbBlockEnd
  0
BLOCK
  5
43CC
330
43CB
100
AcDbEntity
  8
0
100
AcDbBlockBegin
  2
*D12
 70
     1
 10
0.0
 20
0.0
 30
0.0
  3
*D12
  1

  0
LINE
  5
4DBF
330
43CB
100
AcDbEntity
  8
0
 62
     0
370
    -2
100
AcDbLine
 10
185.5070395752493
 20
193.8887117158314
 30
0.0
 11
170.4434827256726
 21
193.8887117158315
 31
0.0
  0
LINE
  5
4DC0
330
43CB
100
AcDbEntity
  8
0
 62
     0
370
    -2
100
AcDbLine
 10
197.1114620214743
 20
166.5772431711254
 30
0.0
 11
194.531165220224
 21
159.4879359742
 31
0.0
  0
ARC
  5
4DC1
330
43CB
100
AcDbEntity
  8
0
 62
     0
370
    -2
100
AcDbCircle
 10
207.0520236258456
 20
193.8887117158315
 30
0.0
 40
35.35854090017301
100
AcDbArc
 50
184.0519008441846
 51
245.9480991558143
  0
INSERT
  5
4DC2
330
43CB
100
AcDbEntity
  8
0
 62
     0
370
    -2
100
AcDbBlockReference
  2
_OPEN30
 10
171.6934827256725
 20
193.8887117158315
 30
0.0
 41
2.5
 42
2.5
 43
2.5
 50
92.02595042209235
  0
INSERT
  5
4DC3
330
43CB
100
AcDbEntity
  8
0
 62
     0
370
    -2
100
AcDbBlockReference
  2
_OPEN30
 10
194.9586903993813
 20
160.6625517501823
 30
0.0
 41
2.5
 42
2.5
 43
2.5
 50
337.9740495779067
  0
MTEXT
  5
4DC4
330
43CB
100
AcDbEntity
  8
0
 62
     4
100
AcDbMText
 10
180.7178647324314
 20
173.6160622555391
 30
0.0
 40
3.0
 41
0.0
 71
     5
 72
     1
  1
70\U+00B0
 11
0.6100057024073136
 21
-0.7923970236128857
 31
0.0
 73
     1
 44
1.0
1001
ACAD
1000
MTEXTBEGIN
1070
    73
1070
     1
1070
    44
1040
1.0
1070
    74
1070
     0
1000
MTEXTEND
  0
POINT
  5
4DC5
330
43CB
100
AcDbEntity
  8
DEFPOINTS
 62
     0
100
AcDbPoint
 10
174.5852418555216
 20
179.8839091086052
 30
0.0
  0
POINT
  5
4DC6
330
43CB
100
AcDbEntity
  8
DEFPOINTS
 62
     0
100
AcDbPoint
 10
207.6358509023815
 20
193.8887117158315
 30
0.0
  0
POINT
  5
4DC7
330
43CB
100
AcDbEntity
  8
DEFPOINTS
 62
     0
100
AcDbPoint
 10
201.2781429836081
 20
178.0251050286587
 30
0.0
  0
POINT
  5
4DC8
330
43CB
100
AcDbEntity
  8
DEFPOINTS
 62
     0
100
AcDbPoint
 10
197.1969670573058
 20
166.8121663263219
 30
0.0
  0
POINT
  5
4DC9
330
43CB
100
AcDbEntity
  8
DEFPOINTS
 62
     0
100
AcDbPoint
 10
185.7570395752493
 20
193.8887117158314
 30
0.0
  0
ENDBLK
  5
43CD
330
43CB
100
AcDbEntity
  8
0
100
AcDbBlockEnd
  0
BLOCK
  5
43DB
330
43DA
100
AcDbEntity
  8
0
100
AcDbBlockBegin
  2
*D13
 70
     1
 10
0.0
 20
0.0
 30
0.0
  3
*D13
  1

  0
LINE
  5
4DCA
330
43DA
100
AcDbEntity
  8
0
 62
     0
370
    -2
100
AcDbLine
 10
149.264039911814
 20
204.6387117158315
 30
0.0
 11
149.264039911814
 21
230.6562059214398
 31
0.0
  0
LINE
  5
4DCB
330
43DA
100
AcDbEntity
  8
0
 62
     0
370
    -2
100
AcDbLine
 10
74.26403991181371
 20
204.6387117158307
 30
0.0
 11
74.26403991181371
 21
230.6562059214398
 31
0.0
  0
LINE
  5
4DCC
330
43DA
100
AcDbEntity
  8
0
 62
     0
370
    -2
100
AcDbLine
 10
146.764039911814
 20
229.4062059214398
 30
0.0
 11
76.76403991181371
 21
229.4062059214398
 31
0.0
  0
INSERT
  5
4DCD
330
43DA
100
AcDbEntity
  8
0
 62
     0
370
    -2
100
AcDbBlockReference
  2
_OPEN30
 10
149.264039911814
 20
229.4062059214398
 30
0.0
 41
2.5
 42
2.5
 43
2.5
  0
INSERT
  5
4DCE
330
43DA
100
AcDbEntity
  8
0
 62
     0
370
    -2
100
AcDbBlockReference
  2
_OPEN30
 10
74.26403991181371
 20
229.4062059214398
 30
0.0
 41
2.5
 42
2.5
 43
2.5
 50
180.0
  0
MTEXT
  5
4DCF
330
43DA
100
AcDbEntity
  8
0
 62
     4
100
AcDbMText
 10
112.9211175802863
 20
231.5312059214398
 30
0.0
 40
3.0
 41
0.0
 71
     5
 72
     1
  1
75
 73
     1
 44
1.0
1001
ACAD
1000
MTEXTBEGIN
1070
    73
1070
     1
1070
    44
1040
1.0
1070
    74
1070
     0
1000
MTEXTEND
  0
POINT
  5
4DD0
330
43DA
100
AcDbEntity
  8
DEFPOINTS
 62
     0
100
AcDbPoint
 10
149.264039911814
 20
204.3887117158315
 30
0.0
  0
POINT
  5
4DD1
330
43DA
100
AcDbEntity
  8
DEFPOINTS
 62
     0
100
AcDbPoint
 10
74.26403991181371
 20
204.3887117158307
 30
0.0
  0
POINT
  5
4DD2
330
43DA
100
AcDbEntity
  8
DEFPOINTS
 62
     0
100
AcDbPoint
 10
74.26403991181371
 20
229.4062059214398
 30
0.0
  0
ENDBLK
  5
43DC
330
43DA
100
AcDbEntity
  8
0
100
AcDbBlockEnd
  0
BLOCK
  5
43E8
330
43E7
100
AcDbEntity
  8
0
100
AcDbBlockBegin
  2
*D14
 70
     1
 10
0.0
 20
0.0
 30
0.0
  3
*D14
  1

  0
LINE
  5
4DD3
330
43E7
100
AcDbEntity
  8
0
 62
     0
370
    -2
100
AcDbLine
 10
154.264039911814
 20
204.6387117158315
 30
0.0
 11
154.264039911814
 21
238.9579318905794
 31
0.0
  0
LINE
  5
4DD4
330
43E7
100
AcDbEntity
  8
0
 62
     0
370
    -2
100
AcDbLine
 10
69.26403991181382
 20
204.6387117158315
 30
0.0
 11
69.26403991181382
 21
238.9579318905794
 31
0.0
  0
LINE
  5
4DD5
330
43E7
100
AcDbEntity
  8
0
 62
     0
370
    -2
100
AcDbLine
 10
151.764039911814
 20
237.7079318905794
 30
0.0
 11
71.76403991181381
 21
237.7079318905794
 31
0.0
  0
INSERT
  5
4DD6
330
43E7
100
AcDbEntity
  8
0
 62
     0
370
    -2
100
AcDbBlockReference
  2
_OPEN30
 10
154.264039911814
 20
237.7079318905794
 30
0.0
 41
2.5
 42
2.5
 43
2.5
  0
INSERT
  5
4DD7
330
43E7
100
AcDbEntity
  8
0
 62
     0
370
    -2
100
AcDbBlockReference
  2
_OPEN30
 10
69.26403991181382
 20
237.7079318905794
 30
0.0
 41
2.5
 42
2.5
 43
2.5
 50
180.0
  0
MTEXT
  5
4DD8
330
43E7
100
AcDbEntity
  8
0
 62
     4
100
AcDbMText
 10
113.1057295402431
 20
239.8329318905794
 30
0.0
 40
3.0
 41
0.0
 71
     5
 72
     1
  1
85
 73
     1
 44
1.0
1001
ACAD
1000
MTEXTBEGIN
1070
    73
1070
     1
1070
    44
1040
1.0
1070
    74
1070
     0
1000
MTEXTEND
  0
POINT
  5
4DD9
330
43E7
100
AcDbEntity
  8
DEFPOINTS
 62
     0
100
AcDbPoint
 10
154.264039911814
 20
204.3887117158315
 30
0.0
  0
POINT
  5
4DDA
330
43E7
100
AcDbEntity
  8
DEFPOINTS
 62
     0
100
AcDbPoint
 10
69.26403991181382
 20
204.3887117158315
 30
0.0
  0
POINT
  5
4DDB
330
43E7
100
AcDbEntity
  8
DEFPOINTS
 62
     0
100
AcDbPoint
 10
69.26403991181382
 20
237.7079318905794
 30
0.0
  0
ENDBLK
  5
43E9
330
43E7
100
AcDbEntity
  8
0
100
AcDbBlockEnd
  0
BLOCK
  5
43F7
330
43F6
100
AcDbEntity
  8
0
100
AcDbBlockBegin
  2
*D15
 70
     1
 10
0.0
 20
0.0
 30
0.0
  3
*D15
  1

  0
LINE
  5
4DDC
330
43F6
100
AcDbEntity
  8
0
 62
     0
370
    -2
100
AcDbLine
 10
112.0140399118137
 20
217.3887117158315
 30
0.0
 11
168.7935317868343
 21
217.3887117158315
 31
0.0
  0
LINE
  5
4DDD
330
43F6
100
AcDbEntity
  8
0
 62
     0
370
    -2
100
AcDbLine
 10
103.0140399118138
 20
172.8887117158315
 30
0.0
 11
168.7935317868343
 21
172.8887117158315
 31
0.0
  0
LINE
  5
4DDE
330
43F6
100
AcDbEntity
  8
0
 62
     0
370
    -2
100
AcDbLine
 10
167.5435317868343
 20
214.8887117158315
 30
0.0
 11
167.5435317868343
 21
175.3887117158314
 31
0.0
  0
INSERT
  5
4DDF
330
43F6
100
AcDbEntity
  8
0
 62
     0
370
    -2
100
AcDbBlockReference
  2
_OPEN30
 10
167.5435317868343
 20
217.3887117158315
 30
0.0
 41
2.5
 42
2.5
 43
2.5
 50
90.0
  0
INSERT
  5
4DE0
330
43F6
100
AcDbEntity
  8
0
 62
     0
370
    -2
100
AcDbBlockReference
  2
_OPEN30
 10
167.5435317868343
 20
172.8887117158315
 30
0.0
 41
2.5
 42
2.5
 43
2.5
 50
270.0
  0
MTEXT
  5
4DE1
330
43F6
100
AcDbEntity
  8
0
 62
     4
100
AcDbMText
 10
165.4185317868343
 20
193.8069116561589
 30
0.0
 40
3.0
 41
0.0
 71
     5
 72
     1
  1
44.5
 11
0.0000000000000001
 21
1.0
 31
0.0
 73
     1
 44
1.0
1001
ACAD
1000
MTEXTBEGIN
1070
    73
1070
     1
1070
    44
1040
1.0
1070
    74
1070
     0
1000
MTEXTEND
  0
POINT
  5
4DE2
330
43F6
100
AcDbEntity
  8
DEFPOINTS
 62
     0
100
AcDbPoint
 10
111.7640399118137
 20
217.3887117158315
 30
0.0
  0
POINT
  5
4DE3
330
43F6
100
AcDbEntity
  8
DEFPOINTS
 62
     0
100
AcDbPoint
 10
102.7640399118138
 20
172.8887117158315
 30
0.0
  0
POINT
  5
4DE4
330
43F6
100
AcDbEntity
  8
DEFPOINTS
 62
     0
100
AcDbPoint
 10
167.5435317868343
 20
172.8887117158315
 30
0.0
  0
ENDBLK
  5
43F8
330
43F6
100
AcDbEntity
  8
0
100
AcDbBlockEnd
  0
BLOCK
  5
4404
330
4403
100
AcDbEntity
  8
0
100
AcDbBlockBegin
  2
*D16
 70
     1
 10
0.0
 20
0.0
 30
0.0
  3
*D16
  1

  0
LINE
  5
4DE5
330
4403
100
AcDbEntity
  8
0
 62
     0
370
    -2
100
AcDbLine
 10
112.0140399118139
 20
211.8887117158317
 30
0.0
 11
162.6032575938336
 21
211.8887117158317
 31
0.0
  0
LINE
  5
4DE6
330
4403
100
AcDbEntity
  8
0
 62
     0
370
    -2
100
AcDbLine
 10
112.0140399118153
 20
175.8887117158312
 30
0.0
 11
162.6032575938336
 21
175.8887117158312
 31
0.0
  0
LINE
  5
4DE7
330
4403
100
AcDbEntity
  8
0
 62
     0
370
    -2
100
AcDbLine
 10
161.3532575938336
 20
209.3887117158317
 30
0.0
 11
161.3532575938336
 21
178.3887117158312
 31
0.0
  0
INSERT
  5
4DE8
330
4403
100
AcDbEntity
  8
0
 62
     0
370
    -2
100
AcDbBlockReference
  2
_OPEN30
 10
161.3532575938336
 20
211.8887117158317
 30
0.0
 41
2.5
 42
2.5
 43
2.5
 50
90.0
  0
INSERT
  5
4DE9
330
4403
100
AcDbEntity
  8
0
 62
     0
370
    -2
100
AcDbBlockReference
  2
_OPEN30
 10
161.3532575938336
 20
175.8887117158312
 30
0.0
 41
2.5
 42
2.5
 43
2.5
 50
270.0
  0
MTEXT
  5
4DEA
330
4403
100
AcDbEntity
  8
0
 62
     4
100
AcDbMText
 10
159.2282575938336
 20
194.3242408648234
 30
0.0
 40
3.0
 41
0.0
 71
     5
 72
     1
  1
36
 11
0.0000000000000001
 21
1.0
 31
0.0
 73
     1
 44
1.0
1001
ACAD
1000
MTEXTBEGIN
1070
    73
1070
     1
1070
    44
1040
1.0
1070
    74
1070
     0
1000
MTEXTEND
  0
POINT
  5
4DEB
330
4403
100
AcDbEntity
  8
DEFPOINTS
 62
     0
100
AcDbPoint
 10
111.7640399118139
 20
211.8887117158317
 30
0.0
  0
POINT
  5
4DEC
330
4403
100
AcDbEntity
  8
DEFPOINTS
 62
     0
100
AcDbPoint
 10
111.7640399118153
 20
175.8887117158312
 30
0.0
  0
POINT
  5
4DED
330
4403
100
AcDbEntity
  8
DEFPOINTS
 62
     0
100
AcDbPoint
 10
161.3532575938336
 20
175.8887117158312
 30
0.0
  0
ENDBLK
  5
4405
330
4403
100
AcDbEntity
  8
0
100
AcDbBlockEnd
  0
BLOCK
  5
45CA
330
45C9
100
AcDbEntity
  8
0
100
AcDbBlockBegin
  2
*D17
 70
     1
 10
0.0
 20
0.0
 30
0.0
  3
*D17
  1

  0
LINE
  5
4DEE
330
45C9
100
AcDbEntity
  8
0
 62
     0
370
    -2
100
AcDbLine
 10
245.433137533076
 20
198.8887117158315
 30
0.0
 11
247.1323061684179
 21
198.8887117158315
 31
0.0
  0
LINE
  5
4DEF
330
45C9
100
AcDbEntity
  8
0
 62
     0
370
    -2
100
AcDbLine
 10
245.433137533076
 20
188.8887117158315
 30
0.0
 11
247.1323061684179
 21
188.8887117158315
 31
0.0
  0
LINE
  5
4DF0
330
45C9
100
AcDbEntity
  8
0
 62
     0
370
    -2
100
AcDbLine
 10
245.8823061684179
 20
186.3887117158315
 30
0.0
 11
245.8823061684179
 21
183.8887117158314
 31
0.0
  0
LINE
  5
4DF1
330
45C9
100
AcDbEntity
  8
0
 62
     0
370
    -2
100
AcDbLine
 10
245.882306168418
 20
201.3887117158315
 30
0.0
 11
245.882306168418
 21
209.6387117158315
 31
0.0
  0
LINE
  5
4DF2
330
45C9
100
AcDbEntity
  8
0
 62
     0
370
    -2
100
AcDbLine
 10
245.8823061684179
 20
188.8887117158315
 30
0.0
 11
245.882306168418
 21
198.8887117158315
 31
0.0
  0
INSERT
  5
4DF3
330
45C9
100
AcDbEntity
  8
0
 62
     0
370
    -2
100
AcDbBlockReference
  2
_OPEN30
 10
245.8823061684179
 20
188.8887117158315
 30
0.0
 41
2.5
 42
2.5
 43
2.5
 50
90.0
  0
INSERT
  5
4DF4
330
45C9
100
AcDbEntity
  8
0
 62
     0
370
    -2
100
AcDbBlockReference
  2
_OPEN30
 10
245.882306168418
 20
198.8887117158315
 30
0.0
 41
2.5
 42
2.5
 43
2.5
 50
270.0
  0
MTEXT
  5
4DF5
330
45C9
100
AcDbEntity
  8
0
 62
     4
100
AcDbMText
 10
243.7573061684179
 20
206.7637117158315
 30
0.0
 40
3.0
 41
0.0
 71
     5
 72
     1
  1
20
 11
0.0000000000000001
 21
1.0
 31
0.0
 73
     1
 44
1.0
1001
ACAD
1000
MTEXTBEGIN
1070
    73
1070
     1
1070
    44
1040
1.0
1070
    74
1070
     0
1000
MTEXTEND
  0
POINT
  5
4DF6
330
45C9
100
AcDbEntity
  8
DEFPOINTS
 62
     0
100
AcDbPoint
 10
245.183137533076
 20
198.8887117158315
 30
0.0
  0
POINT
  5
4DF7
330
45C9
100
AcDbEntity
  8
DEFPOINTS
 62
     0
100
AcDbPoint
 10
245.183137533076
 20
188.8887117158315
 30
0.0
  0
POINT
  5
4DF8
330
45C9
100
AcDbEntity
  8
DEFPOINTS
 62
     0
100
AcDbPoint
 10
245.8823061684179
 20
188.8887117158315
 30
0.0
  0
ENDBLK
  5
45CB
330
45C9
100
AcDbEntity
  8
0
100
AcDbBlockEnd
  0
BLOCK
  5
524D
330
520E
100
AcDbEntity
  8
0
100
AcDbBlockBegin
  2
A$C535C4466
 70
     0
 10
0.0
 20
0.0
 30
0.0
  3
A$C535C4466
  1

  0
LINE
  5
520F
330
520E
100
AcDbEntity
  8
0
100
AcDbLine
 10
32.21092599999997
 20
-13.0
 30
0.0
 11
45.21092599999997
 21
-13.0
 31
0.0
  0
LINE
  5
5210
330
520E
100
AcDbEntity
  8
0
100
AcDbLine
 10
32.21092599999997
 20
13.0
 30
0.0
 11
45.21092599999997
 21
13.0
 31
0.0
  0
ARC
  5
5211
330
520E
100
AcDbEntity
  8
0
100
AcDbCircle
 10
45.21092599999997
 20
12.5
 30
0.0
 40
0.5
100
AcDbArc
 50
0.0
 51
90.0
  0
LINE
  5
5212
330
520E
100
AcDbEntity
  8
0
100
AcDbLine
 10
0.5
 20
-12.5
 30
0.0
 11
184.8108500000001
 21
-12.5
 31
0.0
  0
ARC
  5
5213
330
520E
100
AcDbEntity
  8
0
100
AcDbCircle
 10
0.5
 20
-12.0
 30
0.0
 40
0.5
100
AcDbArc
 50
180.0
 51
270.0
  0
LINE
  5
5214
330
520E
100
AcDbEntity
  8
0
100
AcDbLine
 10
0.5
 20
12.5
 30
0.0
 11
184.8108500000001
 21
12.5
 31
0.0
  0
ARC
  5
5215
330
520E
100
AcDbEntity
  8
0
100
AcDbCircle
 10
184.8108500000001
 20
12.0
 30
0.0
 40
0.5
100
AcDbArc
 50
0.0
 51
90.0
  0
LINE
  5
5216
330
520E
100
AcDbEntity
  8
0
100
AcDbLine
 10
0.0
 20
-12.0
 30
0.0
 11
0.0
 21
12.0
 31
0.0
  0
ARC
  5
5217
330
520E
100
AcDbEntity
  8
0
100
AcDbCircle
 10
0.5
 20
12.0
 30
0.0
 40
0.5
100
AcDbArc
 50
90.0
 51
180.0
  0
LINE
  5
5218
330
520E
100
AcDbEntity
  8
0
100
AcDbLine
 10
35.71092599999996
 20
13.0
 30
0.0
 11
35.71092599999996
 21
12.0
 31
0.0
  0
LINE
  5
5219
330
520E
100
AcDbEntity
  8
0
100
AcDbLine
 10
35.71092599999996
 20
-12.0
 30
0.0
 11
35.71092599999996
 21
-13.0
 31
0.0
  0
LINE
  5
521A
330
520E
100
AcDbEntity
  8
0
100
AcDbLine
 10
41.71092599999997
 20
13.0
 30
0.0
 11
41.71092599999997
 21
12.0
 31
0.0
  0
LINE
  5
521B
330
520E
100
AcDbEntity
  8
0
100
AcDbLine
 10
41.71092599999997
 20
-12.0
 30
0.0
 11
41.71092599999997
 21
-13.0
 31
0.0
  0
LINE
  5
521C
330
520E
100
AcDbEntity
  8
0
100
AcDbLine
 10
31.71092599999997
 20
12.5
 30
0.0
 11
31.71092599999997
 21
-12.5
 31
0.0
  0
ARC
  5
521D
330
520E
100
AcDbEntity
  8
0
100
AcDbCircle
 10
32.21092599999997
 20
-12.5
 30
0.0
 40
0.5
100
AcDbArc
 50
180.0
 51
270.0
  0
ARC
  5
521E
330
520E
100
AcDbEntity
  8
0
100
AcDbCircle
 10
32.21092599999997
 20
12.5
 30
0.0
 40
0.5
100
AcDbArc
 50
90.0
 51
180.0
  0
LINE
  5
521F
330
520E
100
AcDbEntity
  8
0
100
AcDbLine
 10
45.71092599999997
 20
12.5
 30
0.0
 11
45.71092599999997
 21
-12.5
 31
0.0
  0
ARC
  5
5220
330
520E
100
AcDbEntity
  8
0
100
AcDbCircle
 10
45.21092599999997
 20
-12.5
 30
0.0
 40
0.5
100
AcDbArc
 50
270.0
 51
0.0
  0
ARC
  5
5221
330
520E
100
AcDbEntity
  8
0
100
AcDbCircle
 10
38.71092599999975
 20
-44.24999999999999
 30
0.0
 40
61.0
100
AcDbArc
 50
81.0348240000027
 51
98.96517599999727
  0
ARC
  5
5222
330
520E
100
AcDbEntity
  8
0
100
AcDbCircle
 10
29.51671199999942
 20
14.02920999999992
 30
0.0
 40
2.0
100
AcDbArc
 50
98.96517599999727
 51
173.4255040000008
  0
ARC
  5
5223
330
520E
100
AcDbEntity
  8
0
100
AcDbCircle
 10
151.242176
 20
0.0
 30
0.0
 40
124.53125
100
AcDbArc
 50
173.4255040000008
 51
186.574495999999
  0
ARC
  5
5224
330
520E
100
AcDbEntity
  8
0
100
AcDbCircle
 10
38.71092599999975
 20
44.24999999999999
 30
0.0
 40
61.0
100
AcDbArc
 50
261.0348240000027
 51
278.9651759999973
  0
ARC
  5
5225
330
520E
100
AcDbEntity
  8
0
100
AcDbCircle
 10
29.51671199999942
 20
-14.02921200000003
 30
0.0
 40
2.0
100
AcDbArc
 50
186.574495999999
 51
261.0348240000027
  0
ARC
  5
5226
330
520E
100
AcDbEntity
  8
0
100
AcDbCircle
 10
47.90514000000029
 20
-14.02921200000003
 30
0.0
 40
2.0
100
AcDbArc
 50
278.9651759999973
 51
353.4255040000009
  0
ARC
  5
5227
330
520E
100
AcDbEntity
  8
0
100
AcDbCircle
 10
-73.82032400000003
 20
0.0
 30
0.0
 40
124.53125
100
AcDbArc
 50
353.4255040000009
 51
6.574495999999187
  0
ARC
  5
5228
330
520E
100
AcDbEntity
  8
0
100
AcDbCircle
 10
47.90514000000029
 20
14.02920999999992
 30
0.0
 40
2.0
100
AcDbArc
 50
6.574495999999187
 51
81.0348240000027
  0
ARC
  5
5229
330
520E
100
AcDbEntity
  8
0
100
AcDbCircle
 10
90.93107999999935
 20
0.0
 30
0.0
 40
96.95964400000001
100
AcDbArc
 50
151.9721600000005
 51
162.148107000002
  0
ARC
  5
522A
330
520E
100
AcDbEntity
  8
0
100
AcDbCircle
 10
90.93107999999935
 20
0.0
 30
0.0
 40
96.95964400000001
100
AcDbArc
 50
352.787416000002
 51
142.0342589999985
  0
ARC
  5
522B
330
520E
100
AcDbEntity
  8
0
100
AcDbCircle
 10
185.139324
 20
-11.92229200000008
 30
0.0
 40
2.0
100
AcDbArc
 50
196.7893591125858
 51
352.787416000002
  0
ARC
  5
522C
330
520E
100
AcDbEntity
  8
0
100
AcDbCircle
 10
90.93107999999935
 20
0.0
 30
0.0
 40
95.95964399999997
100
AcDbArc
 50
152.7122970000005
 51
162.148107000002
  0
ARC
  5
522D
330
520E
100
AcDbEntity
  8
0
100
AcDbCircle
 10
90.93107999999935
 20
0.0
 30
0.0
 40
95.95964399999997
100
AcDbArc
 50
352.787416000002
 51
141.3225469999979
  0
ARC
  5
522E
330
520E
100
AcDbEntity
  8
0
100
AcDbCircle
 10
90.93107999999935
 20
0.0
 30
0.0
 40
94.959644
100
AcDbArc
 50
9.271550000000667
 51
12.55547999999909
  0
ARC
  5
522F
330
520E
100
AcDbEntity
  8
0
100
AcDbCircle
 10
183.6632199999994
 20
15.13819399999988
 30
0.0
 40
2.0
100
AcDbArc
 50
308.2531459999992
 51
9.271550000000667
  0
ARC
  5
5230
330
520E
100
AcDbEntity
  8
0
100
AcDbCircle
 10
183.6632199999994
 20
15.13819399999988
 30
0.0
 40
1.0
100
AcDbArc
 50
308.2531459999992
 51
9.271550000000667
  0
ARC
  5
5231
330
520E
100
AcDbEntity
  8
0
100
AcDbCircle
 10
185.139324
 20
-11.92229200000008
 30
0.0
 40
1.0
100
AcDbArc
 50
215.2894965144271
 51
352.787416000002
  0
LINE
  5
5232
330
520E
100
AcDbEntity
  8
0
100
AcDbLine
 10
15.86629999999945
 20
63.52874199999996
 30
0.0
 11
14.79185399999937
 21
64.22123599999986
 31
0.0
  0
LINE
  5
5233
330
520E
100
AcDbEntity
  8
0
100
AcDbLine
 10
2.864503999999442
 20
43.35565799999995
 30
0.0
 11
1.790058000000043
 21
44.04815199999996
 31
0.0
  0
ARC
  5
5234
330
520E
100
AcDbEntity
  8
0
100
AcDbCircle
 10
3.406246000000008
 20
44.19620399999984
 30
0.0
 40
1.0
100
AcDbArc
 50
237.1977299999993
 51
327.1977299999993
  0
LINE
  5
5235
330
520E
100
AcDbEntity
  8
0
100
AcDbLine
 10
4.246790000000371
 20
43.65446199999996
 30
0.0
 11
16.16510399999924
 21
62.14645599999993
 31
0.0
  0
ARC
  5
5236
330
520E
100
AcDbEntity
  8
0
100
AcDbCircle
 10
15.32455800000002
 20
62.68819599999996
 30
0.0
 40
1.0
100
AcDbArc
 50
327.1977299999993
 51
57.19772999999932
  0
ARC
  5
5237
330
520E
100
AcDbEntity
  8
0
100
AcDbCircle
 10
37.10339199999999
 20
35.56472999999994
 30
0.0
 40
37.0
100
AcDbArc
 50
129.4061400000011
 51
164.9893210000005
  0
ARC
  5
5238
330
520E
100
AcDbEntity
  8
0
100
AcDbCircle
 10
2.33179999999993
 20
44.88869799999998
 30
0.0
 40
1.0
100
AcDbArc
 50
164.9893210000005
 51
237.1977299999993
  0
ARC
  5
5239
330
520E
100
AcDbEntity
  8
0
100
AcDbCircle
 10
14.25011199999926
 20
63.38068999999996
 30
0.0
 40
1.0
100
AcDbArc
 50
57.19772999999932
 51
129.4061400000011
  0
ARC
  5
523A
330
520E
100
AcDbEntity
  8
0
100
AcDbCircle
 10
10.20905799999923
 20
52.51300599999989
 30
0.0
 40
7.786282
100
AcDbArc
 50
94.76763899999832
 51
200.7957320000019
  0
ARC
  5
523B
330
520E
100
AcDbEntity
  8
0
100
AcDbCircle
 10
10.20905799999923
 20
52.51300599999989
 30
0.0
 40
6.786282
100
AcDbArc
 50
104.1712689999997
 51
191.3921019999983
  0
ARC
  5
523C
330
520E
100
AcDbEntity
  8
0
100
AcDbCircle
 10
10.20905799999923
 20
52.51300599999989
 30
0.0
 40
5.786281999999996
100
AcDbArc
 50
119.8312760000008
 51
175.7320950000002
  0
ARC
  5
523D
330
520E
100
AcDbEntity
  8
0
100
AcDbCircle
 10
-26.56311600000004
 20
38.49333000000001
 30
0.0
 40
32.679548
100
AcDbArc
 50
341.2490069999997
 51
12.21461699999803
  0
ARC
  5
523E
330
520E
100
AcDbEntity
  8
0
100
AcDbCircle
 10
-26.56311600000004
 20
38.49333000000001
 30
0.0
 40
33.679548
100
AcDbArc
 50
341.2490069999997
 51
13.89056199999933
  0
ARC
  5
523F
330
520E
100
AcDbEntity
  8
0
100
AcDbCircle
 10
1.971317999999428
 20
28.65075799999988
 30
0.0
 40
2.5
100
AcDbArc
 50
162.148107000002
 51
218.3691649999985
  0
ARC
  5
5240
330
520E
100
AcDbEntity
  8
0
100
AcDbCircle
 10
1.971317999999428
 20
28.65075799999988
 30
0.0
 40
3.5
100
AcDbArc
 50
162.148107000002
 51
245.613886000001
  0
ARC
  5
5241
330
520E
100
AcDbEntity
  8
0
100
AcDbCircle
 10
8.431370000000013
 20
92.37885399999994
 30
0.0
 40
33.286288
100
AcDbArc
 50
280.6169329999989
 51
297.2284750000005
  0
ARC
  5
5242
330
520E
100
AcDbEntity
  8
0
100
AcDbCircle
 10
8.431370000000013
 20
92.37885399999994
 30
0.0
 40
34.286288
100
AcDbArc
 50
279.055529999999
 51
297.2284750000005
  0
LINE
  5
5243
330
520E
100
AcDbEntity
  8
0
100
AcDbLine
 10
23.66117600000007
 20
62.78104799999994
 30
0.0
 11
24.11871399999973
 21
61.89185999999995
 31
0.0
  0
LINE
  5
5244
330
520E
100
AcDbEntity
  8
0
100
AcDbLine
 10
185.31085
 20
12.0
 30
0.0
 11
185.31085
 21
-12.0
 31
0.0
  0
ARC
  5
5245
330
520E
100
AcDbEntity
  8
0
100
AcDbCircle
 10
184.8108500000001
 20
-12.0
 30
0.0
 40
0.5
100
AcDbArc
 50
270.0
 51
0.0
  0
ARC
  5
5246
330
520E
100
AcDbEntity
  8
0
100
AcDbCircle
 10
186.1374539999999
 20
12.0
 30
0.0
 40
1.996258
100
AcDbArc
 50
128.2531459999991
 51
165.4947551703559
  0
ARC
  5
5247
330
520E
100
AcDbEntity
  8
0
100
AcDbCircle
 10
186.1374539999999
 20
12.0
 30
0.0
 40
2.996258
100
AcDbArc
 50
128.2531459999991
 51
170.393836353551
  0
LINE
  5
5248
330
520E
100
AcDbEntity
  8
0
100
AcDbLine
 10
183.619858
 20
20.64278999999988
 30
0.0
 11
184.5929779999994
 21
20.87348599999996
 31
0.0
  0
ARC
  5
5249
330
520E
100
AcDbEntity
  8
0
100
AcDbCircle
 10
1.971317999999428
 20
28.65075799999988
 30
0.0
 40
3.5
100
AcDbArc
 50
298.1232779999981
 51
344.1133560000007
  0
ARC
  5
524A
330
520E
100
AcDbEntity
  8
0
100
AcDbCircle
 10
1.971317999999428
 20
28.65075799999988
 30
0.0
 40
2.5
100
AcDbArc
 50
307.7903999999977
 51
344.634003999998
  0
ENDBLK
  5
524E
330
520E
100
AcDbEntity
  8
0
100
AcDbBlockEnd
  0
BLOCK
  5
532E
330
532D
100
AcDbEntity
  8
0
100
AcDbBlockBegin
  2
*D19
 70
     1
 10
0.0
 20
0.0
 30
0.0
  3
*D19
  1

  0
LINE
  5
57C7
330
532D
100
AcDbEntity
  8
0
 62
     0
370
    -2
100
AcDbLine
 10
97.36493546602538
 20
189.2800681143598
 30
0.0
 11
97.36493546602538
 21
212.0650448398894
 31
0.0
  0
LINE
  5
57C8
330
532D
100
AcDbEntity
  8
0
 62
     0
370
    -2
100
AcDbLine
 10
147.3649354660254
 20
189.2800681143598
 30
0.0
 11
147.3649354660254
 21
212.0650448398894
 31
0.0
  0
LINE
  5
57C9
330
532D
100
AcDbEntity
  8
0
 62
     0
370
    -2
100
AcDbLine
 10
99.86493546602538
 20
210.8150448398894
 30
0.0
 11
144.8649354660254
 21
210.8150448398894
 31
0.0
  0
INSERT
  5
57CA
330
532D
100
AcDbEntity
  8
0
 62
     0
370
    -2
100
AcDbBlockReference
  2
_OPEN30
 10
97.36493546602538
 20
210.8150448398894
 30
0.0
 41
2.5
 42
2.5
 43
2.5
 50
180.0
  0
INSERT
  5
57CB
330
532D
100
AcDbEntity
  8
0
 62
     0
370
    -2
100
AcDbBlockReference
  2
_OPEN30
 10
147.3649354660254
 20
210.8150448398894
 30
0.0
 41
2.5
 42
2.5
 43
2.5
  0
MTEXT
  5
57CC
330
532D
100
AcDbEntity
  8
0
 62
     4
100
AcDbMText
 10
121.2573454188514
 20
212.9400448398894
 30
0.0
 40
3.0
 41
0.0
 71
     5
 72
     1
  1
100
 73
     1
 44
1.0
1001
ACAD
1000
MTEXTBEGIN
1070
    73
1070
     1
1070
    44
1040
1.0
1070
    74
1070
     0
1000
MTEXTEND
  0
POINT
  5
57CD
330
532D
100
AcDbEntity
  8
DEFPOINTS
 62
     0
100
AcDbPoint
 10
97.36493546602538
 20
189.0300681143598
 30
0.0
  0
POINT
  5
57CE
330
532D
100
AcDbEntity
  8
DEFPOINTS
 62
     0
100
AcDbPoint
 10
147.3649354660254
 20
189.0300681143598
 30
0.0
  0
POINT
  5
57CF
330
532D
100
AcDbEntity
  8
DEFPOINTS
 62
     0
100
AcDbPoint
 10
147.3649354660254
 20
210.8150448398894
 30
0.0
  0
ENDBLK
  5
532F
330
532D
100
AcDbEntity
  8
0
100
AcDbBlockEnd
  0
BLOCK
  5
537B
330
537A
100
AcDbEntity
  8
0
100
AcDbBlockBegin
  2
*D20
 70
     1
 10
0.0
 20
0.0
 30
0.0
  3
*D20
  1

  0
LINE
  5
57D0
330
537A
100
AcDbEntity
  8
0
 62
     0
370
    -2
100
AcDbLine
 10
122.1149354660276
 20
199.5867555918689
 30
0.0
 11
87.29177981265822
 21
199.5867555918689
 31
0.0
  0
LINE
  5
57D1
330
537A
100
AcDbEntity
  8
0
 62
     0
370
    -2
100
AcDbLine
 10
99.18913937969307
 20
176.486755591869
 30
0.0
 11
87.29177981265822
 21
176.486755591869
 31
0.0
  0
LINE
  5
57D2
330
537A
100
AcDbEntity
  8
0
 62
     0
370
    -2
100
AcDbLine
 10
88.54177981265822
 20
197.0867555918689
 30
0.0
 11
88.54177981265822
 21
178.986755591869
 31
0.0
  0
INSERT
  5
57D3
330
537A
100
AcDbEntity
  8
0
 62
     0
370
    -2
100
AcDbBlockReference
  2
_OPEN30
 10
88.54177981265822
 20
199.5867555918689
 30
0.0
 41
2.5
 42
2.5
 43
2.5
 50
90.0
  0
INSERT
  5
57D4
330
537A
100
AcDbEntity
  8
0
 62
     0
370
    -2
100
AcDbBlockReference
  2
_OPEN30
 10
88.54177981265822
 20
176.486755591869
 30
0.0
 41
2.5
 42
2.5
 43
2.5
 50
270.0
  0
MTEXT
  5
57D5
330
537A
100
AcDbEntity
  8
0
 62
     4
100
AcDbMText
 10
86.4167798126582
 20
188.5394638902398
 30
0.0
 40
3.0
 41
0.0
 71
     5
 72
     1
  1
46.2
 11
0.0000000000000001
 21
1.0
 31
0.0
 73
     1
 44
1.0
1001
ACAD
1000
MTEXTBEGIN
1070
    73
1070
     1
1070
    44
1040
1.0
1070
    74
1070
     0
1000
MTEXTEND
  0
POINT
  5
57D6
330
537A
100
AcDbEntity
  8
DEFPOINTS
 62
     0
100
AcDbPoint
 10
122.3649354660276
 20
199.5867555918689
 30
0.0
  0
POINT
  5
57D7
330
537A
100
AcDbEntity
  8
DEFPOINTS
 62
     0
100
AcDbPoint
 10
99.43913937969307
 20
176.486755591869
 30
0.0
  0
POINT
  5
57D8
330
537A
100
AcDbEntity
  8
DEFPOINTS
 62
     0
100
AcDbPoint
 10
88.54177981265822
 20
176.486755591869
 30
0.0
  0
ENDBLK
  5
537C
330
537A
100
AcDbEntity
  8
0
100
AcDbBlockEnd
  0
BLOCK
  5
5388
330
5387
100
AcDbEntity
  8
0
100
AcDbBlockBegin
  2
*D21
 70
     1
 10
0.0
 20
0.0
 30
0.0
  3
*D21
  1

  0
LINE
  5
57D9
330
5387
100
AcDbEntity
  8
0
 62
     0
370
    -2
100
AcDbLine
 10
122.1149354660276
 20
199.5867555918689
 30
0.0
 11
81.13188410942759
 21
199.5867555918689
 31
0.0
  0
LINE
  5
57DA
330
5387
100
AcDbEntity
  8
0
 62
     0
370
    -2
100
AcDbLine
 10
116.8649354660254
 20
174.7367555918689
 30
0.0
 11
81.13188410942759
 21
174.7367555918689
 31
0.0
  0
LINE
  5
57DB
330
5387
100
AcDbEntity
  8
0
 62
     0
370
    -2
100
AcDbLine
 10
82.38188410942759
 20
197.0867555918689
 30
0.0
 11
82.38188410942759
 21
177.2367555918689
 31
0.0
  0
INSERT
  5
57DC
330
5387
100
AcDbEntity
  8
0
 62
     0
370
    -2
100
AcDbBlockReference
  2
_OPEN30
 10
82.38188410942759
 20
199.5867555918689
 30
0.0
 41
2.5
 42
2.5
 43
2.5
 50
90.0
  0
INSERT
  5
57DD
330
5387
100
AcDbEntity
  8
0
 62
     0
370
    -2
100
AcDbBlockReference
  2
_OPEN30
 10
82.38188410942759
 20
174.7367555918689
 30
0.0
 41
2.5
 42
2.5
 43
2.5
 50
270.0
  0
MTEXT
  5
57DE
330
5387
100
AcDbEntity
  8
0
 62
     4
100
AcDbMText
 10
80.25688410942754
 20
187.7582669960611
 30
0.0
 40
3.0
 41
0.0
 71
     5
 72
     1
  1
49.7
 11
0.0000000000000001
 21
1.0
 31
0.0
 73
     1
 44
1.0
1001
ACAD
1000
MTEXTBEGIN
1070
    73
1070
     1
1070
    44
1040
1.0
1070
    74
1070
     0
1000
MTEXTEND
  0
POINT
  5
57DF
330
5387
100
AcDbEntity
  8
DEFPOINTS
 62
     0
100
AcDbPoint
 10
122.3649354660276
 20
199.5867555918689
 30
0.0
  0
POINT
  5
57E0
330
5387
100
AcDbEntity
  8
DEFPOINTS
 62
     0
100
AcDbPoint
 10
117.1149354660254
 20
174.7367555918689
 30
0.0
  0
POINT
  5
57E1
330
5387
100
AcDbEntity
  8
DEFPOINTS
 62
     0
100
AcDbPoint
 10
82.38188410942759
 20
174.7367555918689
 30
0.0
  0
ENDBLK
  5
5389
330
5387
100
AcDbEntity
  8
0
100
AcDbBlockEnd
  0
BLOCK
  5
5395
330
5394
100
AcDbEntity
  8
0
100
AcDbBlockBegin
  2
*D22
 70
     1
 10
0.0
 20
0.0
 30
0.0
  3
*D22
  1

  0
LINE
  5
57E2
330
5394
100
AcDbEntity
  8
0
 62
     0
370
    -2
100
AcDbLine
 10
207.9359067988792
 20
198.8367555918689
 30
0.0
 11
207.9359067988792
 21
204.9124305843716
 31
0.0
  0
LINE
  5
57E3
330
5394
100
AcDbEntity
  8
0
 62
     0
370
    -2
100
AcDbLine
 10
191.4359067988791
 20
195.0971287761323
 30
0.0
 11
191.4359067988791
 21
204.9124305843716
 31
0.0
  0
LINE
  5
57E4
330
5394
100
AcDbEntity
  8
0
 62
     0
370
    -2
100
AcDbLine
 10
205.4359067988792
 20
203.6624305843716
 30
0.0
 11
193.9359067988791
 21
203.6624305843716
 31
0.0
  0
INSERT
  5
57E5
330
5394
100
AcDbEntity
  8
0
 62
     0
370
    -2
100
AcDbBlockReference
  2
_OPEN30
 10
207.9359067988792
 20
203.6624305843716
 30
0.0
 41
2.5
 42
2.5
 43
2.5
  0
INSERT
  5
57E6
330
5394
100
AcDbEntity
  8
0
 62
     0
370
    -2
100
AcDbBlockReference
  2
_OPEN30
 10
191.4359067988791
 20
203.6624305843716
 30
0.0
 41
2.5
 42
2.5
 43
2.5
 50
180.0
  0
MTEXT
  5
57E7
330
5394
100
AcDbEntity
  8
0
 62
     4
100
AcDbMText
 10
200.0853983021484
 20
205.7874305843716
 30
0.0
 40
3.0
 41
0.0
 71
     5
 72
     1
  1
33
 73
     1
 44
1.0
1001
ACAD
1000
MTEXTBEGIN
1070
    73
1070
     1
1070
    44
1040
1.0
1070
    74
1070
     0
1000
MTEXTEND
  0
POINT
  5
57E8
330
5394
100
AcDbEntity
  8
DEFPOINTS
 62
     0
100
AcDbPoint
 10
207.9359067988792
 20
198.5867555918689
 30
0.0
  0
POINT
  5
57E9
330
5394
100
AcDbEntity
  8
DEFPOINTS
 62
     0
100
AcDbPoint
 10
191.4359067988791
 20
194.8471287761323
 30
0.0
  0
POINT
  5
57EA
330
5394
100
AcDbEntity
  8
DEFPOINTS
 62
     0
100
AcDbPoint
 10
191.4359067988791
 20
203.6624305843716
 30
0.0
  0
ENDBLK
  5
5396
330
5394
100
AcDbEntity
  8
0
100
AcDbBlockEnd
  0
BLOCK
  5
53A8
330
53A7
100
AcDbEntity
  8
0
100
AcDbBlockBegin
  2
*D23
 70
     1
 10
0.0
 20
0.0
 30
0.0
  3
*D23
  1

  0
LINE
  5
57EB
330
53A7
100
AcDbEntity
  8
0
 62
     0
370
    -2
100
AcDbLine
 10
174.1850015204776
 20
187.5971287761323
 30
0.0
 11
166.8309136303658
 21
187.5971287761322
 31
0.0
  0
ARC
  5
57EC
330
53A7
100
AcDbEntity
  8
0
 62
     0
370
    -2
100
AcDbCircle
 10
198.9005394626928
 20
187.5971287761323
 30
0.0
 40
30.81962583232694
100
AcDbArc
 50
184.6489451263717
 51
260.3510548736289
  0
INSERT
  5
57ED
330
53A7
100
AcDbEntity
  8
0
 62
     0
370
    -2
100
AcDbBlockReference
  2
_OPEN30
 10
168.0809136303658
 20
187.5971287761323
 30
0.0
 41
2.5
 42
2.5
 43
2.5
 50
92.32447256318588
  0
INSERT
  5
57EE
330
53A7
100
AcDbEntity
  8
0
 62
     0
370
    -2
100
AcDbBlockReference
  2
_OPEN30
 10
196.2144320820716
 20
156.8947809247968
 30
0.0
 41
2.5
 42
2.5
 43
2.5
 50
352.6755274368148
  0
MTEXT
  5
57EF
330
53A7
100
AcDbEntity
  8
0
 62
     4
100
AcDbMText
 10
177.7446421482719
 20
168.2113205526167
 30
0.0
 40
3.0
 41
0.0
 71
     5
 72
     1
  1
85\U+00B0
 11
0.6755902076156655
 21
-0.7372773368101192
 31
0.0
 73
     1
 44
1.0
1001
ACAD
1000
MTEXTBEGIN
1070
    73
1070
     1
1070
    44
1040
1.0
1070
    74
1070
     0
1000
MTEXTEND
  0
POINT
  5
57F0
330
53A7
100
AcDbEntity
  8
DEFPOINTS
 62
     0
100
AcDbPoint
 10
171.7730619294282
 20
172.9701229606259
 30
0.0
  0
POINT
  5
57F1
330
53A7
100
AcDbEntity
  8
DEFPOINTS
 62
     0
100
AcDbPoint
 10
174.4350015204777
 20
187.5971287761323
 30
0.0
  0
POINT
  5
57F2
330
53A7
100
AcDbEntity
  8
DEFPOINTS
 62
     0
100
AcDbPoint
 10
196.072625312676
 20
155.2739221337181
 30
0.0
  0
POINT
  5
57F3
330
53A7
100
AcDbEntity
  8
DEFPOINTS
 62
     0
100
AcDbPoint
 10
196.6967744918604
 20
162.4079798965216
 30
0.0
  0
POINT
  5
57F4
330
53A7
100
AcDbEntity
  8
DEFPOINTS
 62
     0
100
AcDbPoint
 10
191.6859067988791
 20
187.5971287761323
 30
0.0
  0
ENDBLK
  5
53A9
330
53A7
100
AcDbEntity
  8
0
100
AcDbBlockEnd
  0
BLOCK
  5
569E
330
569D
100
AcDbEntity
  8
0
100
AcDbBlockBegin
  2
*D24
 70
     1
 10
0.0
 20
0.0
 30
0.0
  3
*D24
  1

  0
LINE
  5
57F5
330
569D
100
AcDbEntity
  8
0
 62
     0
370
    -2
100
AcDbLine
 10
168.5319959825372
 20
107.7659263070829
 30
0.0
 11
168.5319959825372
 21
118.7702288413401
 31
0.0
  0
LINE
  5
57F6
330
569D
100
AcDbEntity
  8
0
 62
     0
370
    -2
100
AcDbLine
 10
251.0794728242529
 20
107.7659263070829
 30
0.0
 11
251.0794728242529
 21
118.7702288413401
 31
0.0
  0
LINE
  5
57F7
330
569D
100
AcDbEntity
  8
0
 62
     0
370
    -2
100
AcDbLine
 10
171.0319959825372
 20
117.5202288413401
 30
0.0
 11
248.5794728242529
 21
117.5202288413401
 31
0.0
  0
INSERT
  5
57F8
330
569D
100
AcDbEntity
  8
0
 62
     0
370
    -2
100
AcDbBlockReference
  2
_OPEN30
 10
168.5319959825372
 20
117.5202288413401
 30
0.0
 41
2.5
 42
2.5
 43
2.5
 50
180.0
  0
INSERT
  5
57F9
330
569D
100
AcDbEntity
  8
0
 62
     0
370
    -2
100
AcDbBlockReference
  2
_OPEN30
 10
251.0794728242529
 20
117.5202288413401
 30
0.0
 41
2.5
 42
2.5
 43
2.5
  0
MTEXT
  5
57FA
330
569D
100
AcDbEntity
  8
0
 62
     4
100
AcDbMText
 10
210.0083749101209
 20
119.6452288413401
 30
0.0
 40
3.0
 41
0.0
 71
     5
 72
     1
  1
(1140)
 73
     1
 44
1.0
1001
ACAD
1000
MTEXTBEGIN
1070
    73
1070
     1
1070
    44
1040
1.0
1070
    74
1070
     0
1000
MTEXTEND
  0
POINT
  5
57FB
330
569D
100
AcDbEntity
  8
DEFPOINTS
 62
     0
100
AcDbPoint
 10
168.5319959825372
 20
107.5159263070829
 30
0.0
  0
POINT
  5
57FC
330
569D
100
AcDbEntity
  8
DEFPOINTS
 62
     0
100
AcDbPoint
 10
251.0794728242529
 20
107.5159263070829
 30
0.0
  0
POINT
  5
57FD
330
569D
100
AcDbEntity
  8
DEFPOINTS
 62
     0
100
AcDbPoint
 10
251.0794728242529
 20
117.5202288413401
 30
0.0
  0
ENDBLK
  5
569F
330
569D
100
AcDbEntity
  8
0
100
AcDbBlockEnd
  0
BLOCK
  5
56CA
330
56C9
100
AcDbEntity
  8
0
100
AcDbBlockBegin
  2
*D25
 70
     1
 10
0.0
 20
0.0
 30
0.0
  3
*D25
  1

  0
LINE
  5
57FE
330
56C9
100
AcDbEntity
  8
0
 62
     0
370
    -2
100
AcDbLine
 10
131.456162208221
 20
113.4159263070829
 30
0.0
 11
131.456162208221
 21
123.1422436688144
 31
0.0
  0
LINE
  5
57FF
330
56C9
100
AcDbEntity
  8
0
 62
     0
370
    -2
100
AcDbLine
 10
117.206162208221
 20
112.4159263070829
 30
0.0
 11
117.206162208221
 21
123.1422436688144
 31
0.0
  0
LINE
  5
5800
330
56C9
100
AcDbEntity
  8
0
 62
     0
370
    -2
100
AcDbLine
 10
128.956162208221
 20
121.8922436688144
 30
0.0
 11
119.706162208221
 21
121.8922436688144
 31
0.0
  0
INSERT
  5
5801
330
56C9
100
AcDbEntity
  8
0
 62
     0
370
    -2
100
AcDbBlockReference
  2
_OPEN30
 10
131.456162208221
 20
121.8922436688144
 30
0.0
 41
2.5
 42
2.5
 43
2.5
  0
INSERT
  5
5802
330
56C9
100
AcDbEntity
  8
0
 62
     0
370
    -2
100
AcDbBlockReference
  2
_OPEN30
 10
117.206162208221
 20
121.8922436688144
 30
0.0
 41
2.5
 42
2.5
 43
2.5
 50
180.0
  0
MTEXT
  5
5803
330
56C9
100
AcDbEntity
  8
0
 62
     4
100
AcDbMText
 10
124.2505444385651
 20
124.0172436688144
 30
0.0
 40
3.0
 41
0.0
 71
     5
 72
     1
  1
28.5
 73
     1
 44
1.0
1001
ACAD
1000
MTEXTBEGIN
1070
    73
1070
     1
1070
    44
1040
1.0
1070
    74
1070
     0
1000
MTEXTEND
  0
POINT
  5
5804
330
56C9
100
AcDbEntity
  8
DEFPOINTS
 62
     0
100
AcDbPoint
 10
131.456162208221
 20
113.1659263070829
 30
0.0
  0
POINT
  5
5805
330
56C9
100
AcDbEntity
  8
DEFPOINTS
 62
     0
100
AcDbPoint
 10
117.206162208221
 20
112.1659263070829
 30
0.0
  0
POINT
  5
5806
330
56C9
100
AcDbEntity
  8
DEFPOINTS
 62
     0
100
AcDbPoint
 10
117.206162208221
 20
121.8922436688144
 30
0.0
  0
ENDBLK
  5
56CB
330
56C9
100
AcDbEntity
  8
0
100
AcDbBlockEnd
  0
BLOCK
  5
56D7
330
56D6
100
AcDbEntity
  8
0
100
AcDbBlockBegin
  2
*D26
 70
     1
 10
0.0
 20
0.0
 30
0.0
  3
*D26
  1

  0
LINE
  5
5807
330
56D6
100
AcDbEntity
  8
0
 62
     0
370
    -2
100
AcDbLine
 10
131.706162208221
 20
113.1659263070829
 30
0.0
 11
139.9306026443982
 21
113.1659263070829
 31
0.0
  0
LINE
  5
5808
330
56D6
100
AcDbEntity
  8
0
 62
     0
370
    -2
100
AcDbLine
 10
131.706162208221
 20
98.86592630708296
 30
0.0
 11
139.9306026443982
 21
98.86592630708296
 31
0.0
  0
LINE
  5
5809
330
56D6
100
AcDbEntity
  8
0
 62
     0
370
    -2
100
AcDbLine
 10
138.6806026443982
 20
96.36592630708296
 30
0.0
 11
138.6806026443982
 21
93.86592630708296
 31
0.0
  0
LINE
  5
580A
330
56D6
100
AcDbEntity
  8
0
 62
     0
370
    -2
100
AcDbLine
 10
138.6806026443982
 20
115.6659263070829
 30
0.0
 11
138.6806026443982
 21
131.815926307083
 31
0.0
  0
LINE
  5
580B
330
56D6
100
AcDbEntity
  8
0
 62
     0
370
    -2
100
AcDbLine
 10
138.6806026443982
 20
98.86592630708296
 30
0.0
 11
138.6806026443982
 21
113.1659263070829
 31
0.0
  0
INSERT
  5
580C
330
56D6
100
AcDbEntity
  8
0
 62
     0
370
    -2
100
AcDbBlockReference
  2
_OPEN30
 10
138.6806026443982
 20
98.86592630708296
 30
0.0
 41
2.5
 42
2.5
 43
2.5
 50
90.0
  0
INSERT
  5
580D
330
56D6
100
AcDbEntity
  8
0
 62
     0
370
    -2
100
AcDbBlockReference
  2
_OPEN30
 10
138.6806026443982
 20
113.1659263070829
 30
0.0
 41
2.5
 42
2.5
 43
2.5
 50
270.0
  0
MTEXT
  5
580E
330
56D6
100
AcDbEntity
  8
0
 62
     4
100
AcDbMText
 10
136.5556026443982
 20
124.990926307083
 30
0.0
 40
3.0
 41
0.0
 71
     5
 72
     1
  1
□28.6
 11
0.0000000000000001
 21
1.0
 31
0.0
 73
     1
 44
1.0
1001
ACAD
1000
MTEXTBEGIN
1070
    73
1070
     1
1070
    44
1040
1.0
1070
    74
1070
     0
1000
MTEXTEND
  0
POINT
  5
580F
330
56D6
100
AcDbEntity
  8
DEFPOINTS
 62
     0
100
AcDbPoint
 10
131.456162208221
 20
113.1659263070829
 30
0.0
  0
POINT
  5
5810
330
56D6
100
AcDbEntity
  8
DEFPOINTS
 62
     0
100
AcDbPoint
 10
131.456162208221
 20
98.86592630708296
 30
0.0
  0
POINT
  5
5811
330
56D6
100
AcDbEntity
  8
DEFPOINTS
 62
     0
100
AcDbPoint
 10
138.6806026443982
 20
98.86592630708296
 30
0.0
  0
ENDBLK
  5
56D8
330
56D6
100
AcDbEntity
  8
0
100
AcDbBlockEnd
  0
BLOCK
  5
5861
330
5860
100
AcDbEntity
  8
0
100
AcDbBlockBegin
  2
*D27
 70
     1
 10
0.0
 20
0.0
 30
0.0
  3
*D27
  1

  0
LINE
  5
5862
330
5860
100
AcDbEntity
  8
0
 62
     0
370
    -2
100
AcDbLine
 10
2020.968942802048
 20
1194.577239855269
 30
0.0
 11
2020.968942802048
 21
1178.309561148268
 31
0.0
  0
LINE
  5
5863
330
5860
100
AcDbEntity
  8
0
 62
     0
370
    -2
100
AcDbLine
 10
1982.968942802048
 20
1193.975020391798
 30
0.0
 11
1982.968942802048
 21
1178.309561148268
 31
0.0
  0
LINE
  5
5864
330
5860
100
AcDbEntity
  8
0
 62
     0
370
    -2
100
AcDbLine
 10
2018.468942802048
 20
1179.559561148268
 30
0.0
 11
1985.468942802048
 21
1179.559561148268
 31
0.0
  0
INSERT
  5
5865
330
5860
100
AcDbEntity
  8
0
 62
     0
370
    -2
100
AcDbBlockReference
  2
_OPEN30
 10
2020.968942802048
 20
1179.559561148268
 30
0.0
 41
2.5
 42
2.5
 43
2.5
  0
INSERT
  5
5866
330
5860
100
AcDbEntity
  8
0
 62
     0
370
    -2
100
AcDbBlockReference
  2
_OPEN30
 10
1982.968942802048
 20
1179.559561148268
 30
0.0
 41
2.5
 42
2.5
 43
2.5
 50
180.0
  0
MTEXT
  5
5867
330
5860
100
AcDbEntity
  8
0
 62
     4
100
AcDbMText
 10
1993.080995142756
 20
1181.684561148268
 30
0.0
 40
3.0
 41
0.0
 71
     5
 72
     1
  1
38
 73
     1
 44
1.0
1001
ACAD
1000
MTEXTBEGIN
1070
    73
1070
     1
1070
    44
1040
1.0
1070
    74
1070
     0
1000
MTEXTEND
  0
POINT
  5
5868
330
5860
100
AcDbEntity
  8
DEFPOINTS
 62
     0
100
AcDbPoint
 10
2020.968942802048
 20
1194.827239855269
 30
0.0
  0
POINT
  5
5869
330
5860
100
AcDbEntity
  8
DEFPOINTS
 62
     0
100
AcDbPoint
 10
1982.968942802048
 20
1194.225020391798
 30
0.0
  0
POINT
  5
586A
330
5860
100
AcDbEntity
  8
DEFPOINTS
 62
     0
100
AcDbPoint
 10
1982.968942802048
 20
1179.559561148268
 30
0.0
  0
ENDBLK
  5
586B
330
5860
100
AcDbEntity
  8
0
100
AcDbBlockEnd
  0
BLOCK
  5
586D
330
586C
100
AcDbEntity
  8
0
100
AcDbBlockBegin
  2
*D28
 70
     1
 10
0.0
 20
0.0
 30
0.0
  3
*D28
  1

  0
LINE
  5
586E
330
586C
100
AcDbEntity
  8
0
 62
     0
370
    -2
100
AcDbLine
 10
1987.109829696583
 20
1227.228016574667
 30
0.0
 11
2032.680843481722
 21
1227.228016574667
 31
0.0
  0
LINE
  5
586F
330
586C
100
AcDbEntity
  8
0
 62
     0
370
    -2
100
AcDbLine
 10
1987.218942802048
 20
1190.225020391798
 30
0.0
 11
2032.680843481722
 21
1190.225020391798
 31
0.0
  0
LINE
  5
5870
330
586C
100
AcDbEntity
  8
0
 62
     0
370
    -2
100
AcDbLine
 10
2031.430843481722
 20
1224.728016574667
 30
0.0
 11
2031.430843481722
 21
1192.725020391798
 31
0.0
  0
INSERT
  5
5871
330
586C
100
AcDbEntity
  8
0
 62
     0
370
    -2
100
AcDbBlockReference
  2
_OPEN30
 10
2031.430843481722
 20
1227.228016574667
 30
0.0
 41
2.5
 42
2.5
 43
2.5
 50
90.0
  0
INSERT
  5
5872
330
586C
100
AcDbEntity
  8
0
 62
     0
370
    -2
100
AcDbBlockReference
  2
_OPEN30
 10
2031.430843481722
 20
1190.225020391798
 30
0.0
 41
2.5
 42
2.5
 43
2.5
 50
270.0
  0
MTEXT
  5
5873
330
586C
100
AcDbEntity
  8
0
 62
     4
100
AcDbMText
 10
2029.305843481722
 20
1207.763018433101
 30
0.0
 40
3.0
 41
0.0
 71
     5
 72
     1
  1
37
 11
0.0000000000000001
 21
1.0
 31
0.0
 73
     1
 44
1.0
1001
ACAD
1000
MTEXTBEGIN
1070
    73
1070
     1
1070
    44
1040
1.0
1070
    74
1070
     0
1000
MTEXTEND
  0
POINT
  5
5874
330
586C
100
AcDbEntity
  8
DEFPOINTS
 62
     0
100
AcDbPoint
 10
1986.859829696584
 20
1227.228016574667
 30
0.0
  0
POINT
  5
5875
330
586C
100
AcDbEntity
  8
DEFPOINTS
 62
     0
100
AcDbPoint
 10
1986.968942802048
 20
1190.225020391798
 30
0.0
  0
POINT
  5
5876
330
586C
100
AcDbEntity
  8
DEFPOINTS
 62
     0
100
AcDbPoint
 10
2031.430843481722
 20
1190.225020391798
 30
0.0
  0
ENDBLK
  5
5877
330
586C
100
AcDbEntity
  8
0
100
AcDbBlockEnd
  0
BLOCK
  5
5879
330
5878
100
AcDbEntity
  8
0
100
AcDbBlockBegin
  2
*D29
 70
     1
 10
0.0
 20
0.0
 30
0.0
  3
*D29
  1

  0
LINE
  5
587A
330
5878
100
AcDbEntity
  8
0
 62
     0
370
    -2
100
AcDbLine
 10
2340.041755426404
 20
1211.725020391797
 30
0.0
 11
2340.041755426404
 21
1230.014438553464
 31
0.0
  0
LINE
  5
587B
330
5878
100
AcDbEntity
  8
0
 62
     0
370
    -2
100
AcDbLine
 10
2101.386205923102
 20
1211.975020391797
 30
0.0
 11
2101.386205923102
 21
1230.014438553464
 31
0.0
  0
LINE
  5
587C
330
5878
100
AcDbEntity
  8
0
 62
     0
370
    -2
100
AcDbLine
 10
2337.541755426404
 20
1228.764438553464
 30
0.0
 11
2103.886205923101
 21
1228.764438553464
 31
0.0
  0
INSERT
  5
587D
330
5878
100
AcDbEntity
  8
0
 62
     0
370
    -2
100
AcDbBlockReference
  2
_OPEN30
 10
2340.041755426404
 20
1228.764438553464
 30
0.0
 41
2.5
 42
2.5
 43
2.5
  0
INSERT
  5
587E
330
5878
100
AcDbEntity
  8
0
 62
     0
370
    -2
100
AcDbBlockReference
  2
_OPEN30
 10
2101.386205923102
 20
1228.764438553464
 30
0.0
 41
2.5
 42
2.5
 43
2.5
 50
180.0
  0
MTEXT
  5
587F
330
5878
100
AcDbEntity
  8
0
 62
     4
100
AcDbMText
 10
2192.389650738221
 20
1230.889438553464
 30
0.0
 40
3.0
 41
0.0
 71
     5
 72
     1
  1
(930)
 73
     1
 44
1.0
1001
ACAD
1000
MTEXTBEGIN
1070
    73
1070
     1
1070
    44
1040
1.0
1070
    74
1070
     0
1000
MTEXTEND
  0
POINT
  5
5880
330
5878
100
AcDbEntity
  8
DEFPOINTS
 62
     0
100
AcDbPoint
 10
2340.041755426404
 20
1211.475020391797
 30
0.0
  0
POINT
  5
5881
330
5878
100
AcDbEntity
  8
DEFPOINTS
 62
     0
100
AcDbPoint
 10
2101.386205923102
 20
1211.725020391797
 30
0.0
  0
POINT
  5
5882
330
5878
100
AcDbEntity
  8
DEFPOINTS
 62
     0
100
AcDbPoint
 10
2101.386205923102
 20
1228.764438553464
 30
0.0
  0
ENDBLK
  5
5883
330
5878
100
AcDbEntity
  8
0
100
AcDbBlockEnd
  0
BLOCK
  5
5DB2
330
5DB1
100
AcDbEntity
  8
0
100
AcDbBlockBegin
  2
*D30
 70
     1
 10
0.0
 20
0.0
 30
0.0
  3
*D30
  1

  0
LINE
  5
6C1F
330
5DB1
100
AcDbEntity
  8
0
 62
     0
370
    -2
100
AcDbLine
 10
114.6137776584498
 20
117.2310157091893
 30
0.0
 11
137.8992845510187
 21
117.2310157091893
 31
0.0
  0
LINE
  5
6C20
330
5DB1
100
AcDbEntity
  8
0
 62
     0
370
    -2
100
AcDbLine
 10
114.6683342111817
 20
98.7295176177551
 30
0.0
 11
137.8992845510187
 21
98.7295176177551
 31
0.0
  0
LINE
  5
6C21
330
5DB1
100
AcDbEntity
  8
0
 62
     0
370
    -2
100
AcDbLine
 10
136.6492845510187
 20
114.7310157091893
 30
0.0
 11
136.6492845510187
 21
101.2295176177551
 31
0.0
  0
INSERT
  5
6C22
330
5DB1
100
AcDbEntity
  8
0
 62
     0
370
    -2
100
AcDbBlockReference
  2
_OPEN30
 10
136.6492845510187
 20
117.2310157091893
 30
0.0
 41
2.5
 42
2.5
 43
2.5
 50
90.0
  0
INSERT
  5
6C23
330
5DB1
100
AcDbEntity
  8
0
 62
     0
370
    -2
100
AcDbBlockReference
  2
_OPEN30
 10
136.6492845510187
 20
98.7295176177551
 30
0.0
 41
2.5
 42
2.5
 43
2.5
 50
270.0
  0
MTEXT
  5
6C24
330
5DB1
100
AcDbEntity
  8
0
 62
     4
100
AcDbMText
 10
134.5242845510187
 20
107.4985166384067
 30
0.0
 40
3.0
 41
0.0
 71
     5
 72
     1
  1
37
 11
0.0000000000000001
 21
1.0
 31
0.0
 73
     1
 44
1.0
1001
ACAD
1000
MTEXTBEGIN
1070
    73
1070
     1
1070
    44
1040
1.0
1070
    74
1070
     0
1000
MTEXTEND
  0
POINT
  5
6C25
330
5DB1
100
AcDbEntity
  8
DEFPOINTS
 62
     0
100
AcDbPoint
 10
114.3637776584498
 20
117.2310157091893
 30
0.0
  0
POINT
  5
6C26
330
5DB1
100
AcDbEntity
  8
DEFPOINTS
 62
     0
100
AcDbPoint
 10
114.4183342111817
 20
98.7295176177551
 30
0.0
  0
POINT
  5
6C27
330
5DB1
100
AcDbEntity
  8
DEFPOINTS
 62
     0
100
AcDbPoint
 10
136.6492845510187
 20
98.7295176177551
 30
0.0
  0
ENDBLK
  5
5DB3
330
5DB1
100
AcDbEntity
  8
0
100
AcDbBlockEnd
  0
BLOCK
  5
5DBE
330
5DBD
100
AcDbEntity
  8
0
100
AcDbBlockBegin
  2
*D31
 70
     1
 10
0.0
 20
0.0
 30
0.0
  3
*D31
  1

  0
LINE
  5
6C16
330
5DBD
100
AcDbEntity
  8
0
 62
     0
370
    -2
100
AcDbLine
 10
131.4183342111815
 20
100.7806273494904
 30
0.0
 11
131.4183342111815
 21
92.14678799599022
 31
0.0
  0
LINE
  5
6C17
330
5DBD
100
AcDbEntity
  8
0
 62
     0
370
    -2
100
AcDbLine
 10
112.4183342111817
 20
100.4795176177551
 30
0.0
 11
112.4183342111817
 21
92.14678799599022
 31
0.0
  0
LINE
  5
6C18
330
5DBD
100
AcDbEntity
  8
0
 62
     0
370
    -2
100
AcDbLine
 10
128.9183342111815
 20
93.39678799599022
 30
0.0
 11
114.9183342111817
 21
93.39678799599022
 31
0.0
  0
INSERT
  5
6C19
330
5DBD
100
AcDbEntity
  8
0
 62
     0
370
    -2
100
AcDbBlockReference
  2
_OPEN30
 10
131.4183342111815
 20
93.39678799599022
 30
0.0
 41
2.5
 42
2.5
 43
2.5
  0
INSERT
  5
6C1A
330
5DBD
100
AcDbEntity
  8
0
 62
     0
370
    -2
100
AcDbBlockReference
  2
_OPEN30
 10
112.4183342111817
 20
93.39678799599022
 30
0.0
 41
2.5
 42
2.5
 43
2.5
 50
180.0
  0
MTEXT
  5
6C1B
330
5DBD
100
AcDbEntity
  8
0
 62
     4
100
AcDbMText
 10
121.9183342111816
 20
95.52178799599023
 30
0.0
 40
3.0
 41
0.0
 71
     5
 72
     1
  1
38
 73
     1
 44
1.0
1001
ACAD
1000
MTEXTBEGIN
1070
    73
1070
     1
1070
    44
1040
1.0
1070
    74
1070
     0
1000
MTEXTEND
  0
POINT
  5
6C1C
330
5DBD
100
AcDbEntity
  8
DEFPOINTS
 62
     0
100
AcDbPoint
 10
131.4183342111815
 20
101.0306273494904
 30
0.0
  0
POINT
  5
6C1D
330
5DBD
100
AcDbEntity
  8
DEFPOINTS
 62
     0
100
AcDbPoint
 10
112.4183342111817
 20
100.7295176177551
 30
0.0
  0
POINT
  5
6C1E
330
5DBD
100
AcDbEntity
  8
DEFPOINTS
 62
     0
100
AcDbPoint
 10
112.4183342111817
 20
93.39678799599022
 30
0.0
  0
ENDBLK
  5
5DBF
330
5DBD
100
AcDbEntity
  8
0
100
AcDbBlockEnd
  0
BLOCK
  5
5DD3
330
5DD2
100
AcDbEntity
  8
0
100
AcDbBlockBegin
  2
*D32
 70
     1
 10
0.0
 20
0.0
 30
0.0
  3
*D32
  1

  0
LINE
  5
6C28
330
5DD2
100
AcDbEntity
  8
0
 62
     0
370
    -2
100
AcDbLine
 10
290.9547405233598
 20
109.6045176177544
 30
0.0
 11
290.9547405233598
 21
119.2492266985879
 31
0.0
  0
LINE
  5
6C29
330
5DD2
100
AcDbEntity
  8
0
 62
     0
370
    -2
100
AcDbLine
 10
171.6269657717084
 20
109.7295176177544
 30
0.0
 11
171.6269657717084
 21
119.2492266985879
 31
0.0
  0
LINE
  5
6C2A
330
5DD2
100
AcDbEntity
  8
0
 62
     0
370
    -2
100
AcDbLine
 10
288.4547405233598
 20
117.9992266985879
 30
0.0
 11
174.1269657717084
 21
117.9992266985879
 31
0.0
  0
INSERT
  5
6C2B
330
5DD2
100
AcDbEntity
  8
0
 62
     0
370
    -2
100
AcDbBlockReference
  2
_OPEN30
 10
290.9547405233598
 20
117.9992266985879
 30
0.0
 41
2.5
 42
2.5
 43
2.5
  0
INSERT
  5
6C2C
330
5DD2
100
AcDbEntity
  8
0
 62
     0
370
    -2
100
AcDbBlockReference
  2
_OPEN30
 10
171.6269657717084
 20
117.9992266985879
 30
0.0
 41
2.5
 42
2.5
 43
2.5
 50
180.0
  0
MTEXT
  5
6C2D
330
5DD2
100
AcDbEntity
  8
0
 62
     4
100
AcDbMText
 10
231.2908531475341
 20
120.1242266985879
 30
0.0
 40
3.0
 41
0.0
 71
     5
 72
     1
  1
(930)
 73
     1
 44
1.0
1001
ACAD
1000
MTEXTBEGIN
1070
    73
1070
     1
1070
    44
1040
1.0
1070
    74
1070
     0
1000
MTEXTEND
  0
POINT
  5
6C2E
330
5DD2
100
AcDbEntity
  8
DEFPOINTS
 62
     0
100
AcDbPoint
 10
290.9547405233598
 20
109.3545176177544
 30
0.0
  0
POINT
  5
6C2F
330
5DD2
100
AcDbEntity
  8
DEFPOINTS
 62
     0
100
AcDbPoint
 10
171.6269657717084
 20
109.4795176177544
 30
0.0
  0
POINT
  5
6C30
330
5DD2
100
AcDbEntity
  8
DEFPOINTS
 62
     0
100
AcDbPoint
 10
171.6269657717084
 20
117.9992266985879
 30
0.0
  0
ENDBLK
  5
5DD4
330
5DD2
100
AcDbEntity
  8
0
100
AcDbBlockEnd
  0
BLOCK
  5
5DFE
330
5DFD
100
AcDbEntity
  8
0
100
AcDbBlockBegin
  2
*D33
 70
     1
 10
0.0
 20
0.0
 30
0.0
  3
*D33
  1

  0
LINE
  5
6C31
330
5DFD
100
AcDbEntity
  8
0
 62
     0
370
    -2
100
AcDbLine
 10
163.8961204048795
 20
174.1594365321671
 30
0.0
 11
163.8961204048795
 21
192.0897603472396
 31
0.0
  0
LINE
  5
6C32
330
5DFD
100
AcDbEntity
  8
0
 62
     0
370
    -2
100
AcDbLine
 10
114.8961204048795
 20
174.0978167265622
 30
0.0
 11
114.8961204048795
 21
192.0897603472396
 31
0.0
  0
LINE
  5
6C33
330
5DFD
100
AcDbEntity
  8
0
 62
     0
370
    -2
100
AcDbLine
 10
161.3961204048795
 20
190.8397603472396
 30
0.0
 11
117.3961204048795
 21
190.8397603472396
 31
0.0
  0
INSERT
  5
6C34
330
5DFD
100
AcDbEntity
  8
0
 62
     0
370
    -2
100
AcDbBlockReference
  2
_OPEN30
 10
163.8961204048795
 20
190.8397603472396
 30
0.0
 41
2.5
 42
2.5
 43
2.5
  0
INSERT
  5
6C35
330
5DFD
100
AcDbEntity
  8
0
 62
     0
370
    -2
100
AcDbBlockReference
  2
_OPEN30
 10
114.8961204048795
 20
190.8397603472396
 30
0.0
 41
2.5
 42
2.5
 43
2.5
 50
180.0
  0
MTEXT
  5
6C36
330
5DFD
100
AcDbEntity
  8
0
 62
     4
100
AcDbMText
 10
141.1012905316193
 20
192.9647603472396
 30
0.0
 40
3.0
 41
0.0
 71
     5
 72
     1
  1
98
 73
     1
 44
1.0
1001
ACAD
1000
MTEXTBEGIN
1070
    73
1070
     1
1070
    44
1040
1.0
1070
    74
1070
     0
1000
MTEXTEND
  0
POINT
  5
6C37
330
5DFD
100
AcDbEntity
  8
DEFPOINTS
 62
     0
100
AcDbPoint
 10
163.8961204048795
 20
173.9094365321671
 30
0.0
  0
POINT
  5
6C38
330
5DFD
100
AcDbEntity
  8
DEFPOINTS
 62
     0
100
AcDbPoint
 10
114.8961204048795
 20
173.8478167265622
 30
0.0
  0
POINT
  5
6C39
330
5DFD
100
AcDbEntity
  8
DEFPOINTS
 62
     0
100
AcDbPoint
 10
114.8961204048795
 20
190.8397603472396
 30
0.0
  0
ENDBLK
  5
5DFF
330
5DFD
100
AcDbEntity
  8
0
100
AcDbBlockEnd
  0
BLOCK
  5
5E0B
330
5E0A
100
AcDbEntity
  8
0
100
AcDbBlockBegin
  2
*D34
 70
     1
 10
0.0
 20
0.0
 30
0.0
  3
*D34
  1

  0
LINE
  5
6C3A
330
5E0A
100
AcDbEntity
  8
0
 62
     0
370
    -2
100
AcDbLine
 10
153.8961204048787
 20
178.4094365321671
 30
0.0
 11
172.7298271888871
 21
178.4094365321671
 31
0.0
  0
LINE
  5
6C3B
330
5E0A
100
AcDbEntity
  8
0
 62
     0
370
    -2
100
AcDbLine
 10
145.8961204048787
 20
157.9094365321671
 30
0.0
 11
172.7298271888871
 21
157.9094365321671
 31
0.0
  0
LINE
  5
6C3C
330
5E0A
100
AcDbEntity
  8
0
 62
     0
370
    -2
100
AcDbLine
 10
171.4798271888871
 20
175.9094365321671
 30
0.0
 11
171.4798271888871
 21
160.4094365321671
 31
0.0
  0
INSERT
  5
6C3D
330
5E0A
100
AcDbEntity
  8
0
 62
     0
370
    -2
100
AcDbBlockReference
  2
_OPEN30
 10
171.4798271888871
 20
178.4094365321671
 30
0.0
 41
2.5
 42
2.5
 43
2.5
 50
90.0
  0
INSERT
  5
6C3E
330
5E0A
100
AcDbEntity
  8
0
 62
     0
370
    -2
100
AcDbBlockReference
  2
_OPEN30
 10
171.4798271888871
 20
157.9094365321671
 30
0.0
 41
2.5
 42
2.5
 43
2.5
 50
270.0
  0
MTEXT
  5
6C3F
330
5E0A
100
AcDbEntity
  8
0
 62
     4
100
AcDbMText
 10
169.3548271888871
 20
168.5464312049314
 30
0.0
 40
3.0
 41
0.0
 71
     5
 72
     1
  1
41
 11
0.0000000000000001
 21
1.0
 31
0.0
 73
     1
 44
1.0
1001
ACAD
1000
MTEXTBEGIN
1070
    73
1070
     1
1070
    44
1040
1.0
1070
    74
1070
     0
1000
MTEXTEND
  0
POINT
  5
6C40
330
5E0A
100
AcDbEntity
  8
DEFPOINTS
 62
     0
100
AcDbPoint
 10
153.6461204048787
 20
178.4094365321671
 30
0.0
  0
POINT
  5
6C41
330
5E0A
100
AcDbEntity
  8
DEFPOINTS
 62
     0
100
AcDbPoint
 10
145.6461204048787
 20
157.9094365321671
 30
0.0
  0
POINT
  5
6C42
330
5E0A
100
AcDbEntity
  8
DEFPOINTS
 62
     0
100
AcDbPoint
 10
171.4798271888871
 20
157.9094365321671
 30
0.0
  0
ENDBLK
  5
5E0C
330
5E0A
100
AcDbEntity
  8
0
100
AcDbBlockEnd
  0
BLOCK
  5
5E18
330
5E17
100
AcDbEntity
  8
0
100
AcDbBlockBegin
  2
*D35
 70
     1
 10
0.0
 20
0.0
 30
0.0
  3
*D35
  1

  0
LINE
  5
6C43
330
5E17
100
AcDbEntity
  8
0
 62
     0
370
    -2
100
AcDbLine
 10
158.8961204048787
 20
210.8663817950798
 30
0.0
 11
176.884621303564
 21
210.8663817950798
 31
0.0
  0
LINE
  5
6C44
330
5E17
100
AcDbEntity
  8
0
 62
     0
370
    -2
100
AcDbLine
 10
154.3961204048806
 20
234.8663817950801
 30
0.0
 11
176.884621303564
 21
234.8663817950801
 31
0.0
  0
LINE
  5
6C45
330
5E17
100
AcDbEntity
  8
0
 62
     0
370
    -2
100
AcDbLine
 10
175.634621303564
 20
213.3663817950798
 30
0.0
 11
175.634621303564
 21
232.3663817950801
 31
0.0
  0
INSERT
  5
6C46
330
5E17
100
AcDbEntity
  8
0
 62
     0
370
    -2
100
AcDbBlockReference
  2
_OPEN30
 10
175.634621303564
 20
210.8663817950798
 30
0.0
 41
2.5
 42
2.5
 43
2.5
 50
270.0
  0
INSERT
  5
6C47
330
5E17
100
AcDbEntity
  8
0
 62
     0
370
    -2
100
AcDbBlockReference
  2
_OPEN30
 10
175.634621303564
 20
234.8663817950801
 30
0.0
 41
2.5
 42
2.5
 43
2.5
 50
90.0
  0
MTEXT
  5
6C48
330
5E17
100
AcDbEntity
  8
0
 62
     4
100
AcDbMText
 10
173.509621303564
 20
222.3237881609554
 30
0.0
 40
3.0
 41
0.0
 71
     5
 72
     1
  1
48
 11
0.0000000000000001
 21
1.0
 31
0.0
 73
     1
 44
1.0
1001
ACAD
1000
MTEXTBEGIN
1070
    73
1070
     1
1070
    44
1040
1.0
1070
    74
1070
     0
1000
MTEXTEND
  0
POINT
  5
6C49
330
5E17
100
AcDbEntity
  8
DEFPOINTS
 62
     0
100
AcDbPoint
 10
158.6461204048787
 20
210.8663817950798
 30
0.0
  0
POINT
  5
6C4A
330
5E17
100
AcDbEntity
  8
DEFPOINTS
 62
     0
100
AcDbPoint
 10
154.1461204048806
 20
234.8663817950801
 30
0.0
  0
POINT
  5
6C4B
330
5E17
100
AcDbEntity
  8
DEFPOINTS
 62
     0
100
AcDbPoint
 10
175.634621303564
 20
234.8663817950801
 30
0.0
  0
ENDBLK
  5
5E19
330
5E17
100
AcDbEntity
  8
0
100
AcDbBlockEnd
  0
BLOCK
  5
5E25
330
5E24
100
AcDbEntity
  8
0
100
AcDbBlockBegin
  2
*D36
 70
     1
 10
0.0
 20
0.0
 30
0.0
  3
*D36
  1

  0
ARC
  5
6C4C
330
5E24
100
AcDbEntity
  8
0
 62
     0
370
    -2
100
AcDbCircle
 10
211.8978556729226
 20
168.4094365321667
 30
0.0
 40
25.23242929761341
100
AcDbArc
 50
150.6791242933096
 51
174.3208757066903
  0
INSERT
  5
6C4D
330
5E24
100
AcDbEntity
  8
0
 62
     0
370
    -2
100
AcDbBlockReference
  2
_OPEN30
 10
191.2286596314051
 20
182.8821634091715
 30
0.0
 41
2.5
 42
2.5
 43
2.5
 50
57.83956214665478
  0
INSERT
  5
6C4E
330
5E24
100
AcDbEntity
  8
0
 62
     0
370
    -2
100
AcDbBlockReference
  2
_OPEN30
 10
186.6654263753092
 20
168.4094365321667
 30
0.0
 41
2.5
 42
2.5
 43
2.5
 50
267.1604378533452
  0
MTEXT
  5
6C4F
330
5E24
100
AcDbEntity
  8
0
 62
     4
100
AcDbMText
 10
185.8066116228925
 20
176.6359741814871
 30
0.0
 40
3.0
 41
0.0
 71
     5
 72
     1
  1
35\U+00B0
 11
0.3007057995042734
 21
0.9537169507482268
 31
0.0
 73
     1
 44
1.0
1001
ACAD
1000
MTEXTBEGIN
1070
    73
1070
     1
1070
    44
1040
1.0
1070
    74
1070
     0
1000
MTEXTEND
  0
POINT
  5
6C50
330
5E24
100
AcDbEntity
  8
DEFPOINTS
 62
     0
100
AcDbPoint
 10
188.7290326761363
 20
178.403491224965
 30
0.0
  0
POINT
  5
6C51
330
5E24
100
AcDbEntity
  8
DEFPOINTS
 62
     0
100
AcDbPoint
 10
211.8978556729217
 20
168.4094365321667
 30
0.0
  0
POINT
  5
6C52
330
5E24
100
AcDbEntity
  8
DEFPOINTS
 62
     0
100
AcDbPoint
 10
211.8978556729219
 20
168.4094365321672
 30
0.0
  0
POINT
  5
6C53
330
5E24
100
AcDbEntity
  8
DEFPOINTS
 62
     0
100
AcDbPoint
 10
189.1520839046907
 20
184.3361973866803
 30
0.0
  0
POINT
  5
6C54
330
5E24
100
AcDbEntity
  8
DEFPOINTS
 62
     0
100
AcDbPoint
 10
184.1134699994542
 20
168.4094365321667
 30
0.0
  0
ENDBLK
  5
5E26
330
5E24
100
AcDbEntity
  8
0
100
AcDbBlockEnd
  0
BLOCK
  5
5E32
330
5E31
100
AcDbEntity
  8
0
100
AcDbBlockBegin
  2
*D37
 70
     1
 10
0.0
 20
0.0
 30
0.0
  3
*D37
  1

  0
ARC
  5
6C55
330
5E31
100
AcDbEntity
  8
0
 62
     0
370
    -2
100
AcDbCircle
 10
211.8978556729217
 20
168.4094365321667
 30
0.0
 40
25.16475369596338
100
AcDbArc
 50
185.6944097360784
 51
229.3055902639215
  0
INSERT
  5
6C56
330
5E31
100
AcDbEntity
  8
0
 62
     0
370
    -2
100
AcDbBlockReference
  2
_OPEN30
 10
186.7331019769582
 20
168.4094365321667
 30
0.0
 41
2.5
 42
2.5
 43
2.5
 50
92.84720486803923
  0
INSERT
  5
6C57
330
5E31
100
AcDbEntity
  8
0
 62
     0
370
    -2
100
AcDbBlockReference
  2
_OPEN30
 10
197.4639459263391
 20
147.7956770980894
 30
0.0
 41
2.5
 42
2.5
 43
2.5
 50
322.1527951319607
  0
MTEXT
  5
6C58
330
5E31
100
AcDbEntity
  8
0
 62
     4
100
AcDbMText
 10
191.4613445508441
 20
157.7708622137789
 30
0.0
 40
3.0
 41
0.0
 71
     5
 72
     1
  1
55\U+00B0
 11
0.4617486132350343
 21
-0.8870108331782214
 31
0.0
 73
     1
 44
1.0
1001
ACAD
1000
MTEXTBEGIN
1070
    73
1070
     1
1070
    44
1040
1.0
1070
    74
1070
     0
1000
MTEXTEND
  0
POINT
  5
6C59
330
5E31
100
AcDbEntity
  8
DEFPOINTS
 62
     0
100
AcDbPoint
 10
188.0103983497011
 20
160.4939952172545
 30
0.0
  0
POINT
  5
6C5A
330
5E31
100
AcDbEntity
  8
DEFPOINTS
 62
     0
100
AcDbPoint
 10
211.8978556729217
 20
168.4094365321667
 30
0.0
  0
POINT
  5
6C5B
330
5E31
100
AcDbEntity
  8
DEFPOINTS
 62
     0
100
AcDbPoint
 10
211.8978556729219
 20
168.409436532167
 30
0.0
  0
POINT
  5
6C5C
330
5E31
100
AcDbEntity
  8
DEFPOINTS
 62
     0
100
AcDbPoint
 10
196.0220298277259
 20
145.7364074959655
 30
0.0
  0
POINT
  5
6C5D
330
5E31
100
AcDbEntity
  8
DEFPOINTS
 62
     0
100
AcDbPoint
 10
184.1134699994542
 20
168.4094365321667
 30
0.0
  0
ENDBLK
  5
5E33
330
5E31
100
AcDbEntity
  8
0
100
AcDbBlockEnd
  0
ENDSEC
  0
SECTION
  2
ENTITIES
  0
LINE
  5
159D
330
295E
100
AcDbEntity
  8
0
 62
     3
100
AcDbLine
 10
388.3510587313709
 20
17.55615958979334
 30
0.0
 11
388.3510587313709
 21
63.22188211979332
 31
0.0
  0
LINE
  5
159E
330
295E
100
AcDbEntity
  8
0
 62
     3
100
AcDbLine
 10
401.3510587313708
 20
27.22188211979331
 30
0.0
 11
401.3510587313708
 21
57.22188211979332
 31
0.0
  0
LINE
  5
159F
330
295E
100
AcDbEntity
  8
0
 62
     3
100
AcDbLine
 10
361.2974493013709
 20
27.22188211979331
 30
0.0
 11
361.2974493013709
 21
41.22188211979329
 31
0.0
  0
LINE
  5
15A0
330
295E
100
AcDbEntity
  8
0
 62
     3
100
AcDbLine
 10
371.6293836613709
 20
41.22188211979329
 30
0.0
 11
371.6293836613709
 21
17.55615958979334
 31
0.0
  0
LINE
  5
15A1
330
295E
100
AcDbEntity
  8
0
 62
     3
100
AcDbLine
 10
341.9924143513708
 20
57.2218821197933
 30
0.0
 11
341.9924143513708
 21
34.22188211979332
 31
0.0
  0
LINE
  5
15A3
330
295E
100
AcDbEntity
  8
0
 62
     3
100
AcDbLine
 10
414.3510587313707
 20
34.22188211979332
 30
0.0
 11
414.3510587313707
 21
63.22188211979332
 31
0.0
  0
LINE
  5
15A4
330
295E
100
AcDbEntity
  8
0
 62
     3
100
AcDbLine
 10
440.0504222113708
 20
57.22188211979332
 30
0.0
 11
328.7469797113709
 21
57.22188211979332
 31
0.0
  0
LINE
  5
15A5
330
295E
100
AcDbEntity
  8
0
 62
     3
100
AcDbLine
 10
440.0504222113708
 20
48.2218821197933
 30
0.0
 11
328.7469797113709
 21
48.2218821197933
 31
0.0
  0
LINE
  5
15A6
330
295E
100
AcDbEntity
  8
0
 62
     3
100
AcDbLine
 10
440.0504222113708
 20
34.22188211979332
 30
0.0
 11
328.7469797113709
 21
34.22188211979332
 31
0.0
  0
LINE
  5
15A7
330
295E
100
AcDbEntity
  8
0
 62
     3
100
AcDbLine
 10
440.0504222113708
 20
27.22188211979331
 30
0.0
 11
328.7469797113709
 21
27.22188211979331
 31
0.0
  0
LINE
  5
15A8
330
295E
100
AcDbEntity
  8
0
 62
     3
100
AcDbLine
 10
427.3510587313706
 20
34.22188211979332
 30
0.0
 11
427.3510587313706
 21
57.22188211979332
 31
0.0
  0
LINE
  5
15A9
330
295E
100
AcDbEntity
  8
0
 62
     3
100
AcDbLine
 10
328.7469797113709
 20
57.22188211979332
 30
0.0
 11
328.7469797113709
 21
17.55615958979334
 31
0.0
  0
LINE
  5
15AA
330
295E
100
AcDbEntity
  8
0
 62
     3
100
AcDbLine
 10
388.3510587313709
 20
41.22188211979329
 30
0.0
 11
328.7469797113709
 21
41.22188211979329
 31
0.0
  0
LINE
  5
15AB
330
295E
100
AcDbEntity
  8
0
 62
     3
100
AcDbLine
 10
371.6293836613709
 20
22.38902084979333
 30
0.0
 11
388.3510587313709
 21
22.38902084979333
 31
0.0
  0
LINE
  5
15B5
330
295E
100
AcDbEntity
  8
0
 62
     3
100
AcDbLine
 10
50.05042221137079
 20
291.5561595897933
 30
0.0
 11
50.05042221137079
 21
17.55615958979334
 31
0.0
  0
LINE
  5
15B6
330
295E
100
AcDbEntity
  8
0
 62
     3
100
AcDbLine
 10
440.0504222113708
 20
17.55615958979334
 30
0.0
 11
440.0504222113708
 21
291.5561595897933
 31
0.0
  0
LINE
  5
15B9
330
295E
100
AcDbEntity
  8
0
 62
     3
100
AcDbLine
 10
50.05042221137079
 20
17.55615958979334
 30
0.0
 11
440.0504222113708
 21
17.55615958979334
 31
0.0
  0
TEXT
  5
15BA
330
295E
100
AcDbEntity
  8
0
 62
     3
100
AcDbText
 10
373.7567766407278
 20
36.29497897315868
 30
0.0
 40
3.2
  1
-
  7
高3.2
100
AcDbText
  0
TEXT
  5
15BB
330
295E
100
AcDbEntity
  8
0
 62
     3
100
AcDbText
 10
343.6208817815627
 20
37.85540943097192
 30
0.0
 40
2.5
  1
TPE
  7
高2.5
100
AcDbText
  0
TEXT
  5
15BC
330
295E
100
AcDbEntity
  8
0
 62
     3
100
AcDbText
 10
343.8123351813205
 20
49.5341316435512
 30
0.0
 40
4.5
  1
充電式LEDヘッドライト
 41
0.7
  7
高4.5
100
AcDbText
1001
ACAD
1000
ACAD_MTEXT_DEFINED_HEIGHT_BEGIN
1070
    46
1040
0.0
1000
ACAD_MTEXT_DEFINED_HEIGHT_END
  0
TEXT
  5
15BD
330
295E
100
AcDbEntity
  8
0
 62
     3
100
AcDbText
 10
430.1160113048449
 20
53.73557421849689
 30
0.0
 40
2.0
  1
DEF
  7
高2
100
AcDbText
  0
TEXT
  5
15BE
330
295E
100
AcDbEntity
  8
0
 62
     3
100
AcDbText
 10
416.4775494711366
 20
53.73557421849682
 30
0.0
 40
2.0
  1
DESN
  7
高2
100
AcDbText
  0
TEXT
  5
15BF
330
295E
100
AcDbEntity
  8
0
 62
     3
100
AcDbText
 10
390.2231825311364
 20
53.73557421849689
 30
0.0
 40
2.0
  1
APPD
  7
高2
100
AcDbText
  0
TEXT
  5
15C0
330
295E
100
AcDbEntity
  8
0
 62
     3
100
AcDbText
 10
403.3359186313708
 20
53.73557421849692
 30
0.0
 40
2.0
  1
CHCK
  7
高2
100
AcDbText
  0
TEXT
  5
15C1
330
295E
100
AcDbEntity
  8
0
 62
     3
100
AcDbText
 10
362.5565493005236
 20
31.39028094302403
 30
0.0
 40
2.0
  1
SCALE
 41
0.8
  7
高2
100
AcDbText
  0
TEXT
  5
15C2
330
295E
100
AcDbEntity
  8
0
 62
     3
100
AcDbText
 10
340.9437561542516
 20
31.39028094302395
 30
0.0
 40
2.0
  1
ANGLE
 41
1.5
  7
高2
100
AcDbText
  0
TEXT
  5
15C3
330
295E
100
AcDbEntity
  8
0
 62
     3
100
AcDbText
 10
330.4315584144169
 20
31.39028094302405
 30
0.0
 40
2.0
  1
3AD
 41
1.5
  7
高2
100
AcDbText
  0
TEXT
  5
15C4
330
295E
100
AcDbEntity
  8
0
 62
     3
100
AcDbText
 10
361.8259549913722
 20
38.14181901198113
 30
0.0
 40
2.0
  1
REMARKS
 41
0.7
  7
高2
100
AcDbText
  0
TEXT
  5
15C5
330
295E
100
AcDbEntity
  8
0
 62
     3
100
AcDbText
 10
330.2146500613708
 20
38.14181901198113
 30
0.0
 40
2.0
  1
MATERIAL
 41
0.7
  7
高2
100
AcDbText
  0
TEXT
  5
15C6
330
295E
100
AcDbEntity
  8
0
 62
     3
100
AcDbText
 10
330.1702059511263
 20
45.47762165412247
 30
0.0
 40
2.0
  1
MODEL
  7
高2
100
AcDbText
  0
TEXT
  5
15C7
330
295E
100
AcDbEntity
  8
0
 62
     3
100
AcDbText
 10
330.4280581454562
 20
53.92890347039234
 30
0.0
 40
2.0
  1
CONPONENTS
 41
0.5
  7
高2
100
AcDbText
  0
TEXT
  5
15C8
330
295E
100
AcDbEntity
  8
0
 62
     3
100
AcDbText
 10
343.4938179966231
 20
42.30936324760525
 30
0.0
 40
4.5
  1
SHL-A2W-CH
 41
0.9
  7
高4.5
100
AcDbText
  0
TEXT
  5
15C9
330
295E
100
AcDbEntity
  8
0
 62
     3
100
AcDbText
 10
390.5181309708067
 20
18.8821257910709
 30
0.0
 40
6.299999999999998
  1
SHL-A2W-CH
 41
0.7
  7
高6.3
100
AcDbText
1001
ACAD
1000
ACAD_MTEXT_DEFINED_HEIGHT_BEGIN
1070
    46
1040
0.0
1000
ACAD_MTEXT_DEFINED_HEIGHT_END
  0
TEXT
  5
15CA
330
295E
100
AcDbEntity
  8
0
 62
     3
100
AcDbText
 10
404.9145684817004
 20
28.32277127802632
 30
0.0
 40
3.2
  1
2018.07.27
  7
高3.2
100
AcDbText
1001
ACAD
1000
ACAD_MTEXT_DEFINED_HEIGHT_BEGIN
1070
    46
1040
0.0
1000
ACAD_MTEXT_DEFINED_HEIGHT_END
  0
TEXT
  5
15CB
330
295E
100
AcDbEntity
  8
0
 62
     3
100
AcDbText
 10
375.1386566260172
 20
29.12831328849325
 30
0.0
 40
2.5
  1
1/2
  7
高2.5
100
AcDbText
  0
TEXT
  5
15CC
330
295E
100
AcDbEntity
  8
0
 62
     3
100
AcDbText
 10
372.2159856013708
 20
18.3730377629293
 30
0.0
 40
3.2
  1
ZK-A3X
 41
0.8
  7
高3.2
100
AcDbText
  0
TEXT
  5
15CD
330
295E
100
AcDbEntity
  8
0
 62
     3
100
AcDbText
 10
330.2146500613708
 20
24.08078001198117
 30
0.0
 40
2.0
  1
NICHIDO IND.CO.LTD
 41
1.3
  7
高2
100
AcDbText
  0
TEXT
  5
15CE
330
295E
100
AcDbEntity
  8
0
 62
     3
100
AcDbText
 10
330.759204016328
 20
49.36241032767824
 30
0.0
 40
3.2
  1
品 名
  7
高3.2
100
AcDbText
1001
ACAD
1000
ACAD_MTEXT_DEFINED_HEIGHT_BEGIN
1070
    46
1040
0.0
1000
ACAD_MTEXT_DEFINED_HEIGHT_END
  0
TEXT
  5
15CF
330
295E
100
AcDbEntity
  8
0
 62
     3
100
AcDbText
 10
330.759204016328
 20
41.83193833253594
 30
0.0
 40
3.2
  1
型 式
  7
高3.2
100
AcDbText
1001
ACAD
1000
ACAD_MTEXT_DEFINED_HEIGHT_BEGIN
1070
    46
1040
3.064735913775952
1000
ACAD_MTEXT_DEFINED_HEIGHT_END
  0
TEXT
  5
15D0
330
295E
100
AcDbEntity
  8
0
 62
     3
100
AcDbText
 10
330.759204016328
 20
34.4698987050235
 30
0.0
 40
3.2
  1
材 質
  7
高3.2
100
AcDbText
1001
ACAD
1000
ACAD_MTEXT_DEFINED_HEIGHT_BEGIN
1070
    46
1040
0.0
1000
ACAD_MTEXT_DEFINED_HEIGHT_END
  0
TEXT
  5
15D1
330
295E
100
AcDbEntity
  8
0
 62
     3
100
AcDbText
 10
330.759204016328
 20
27.68932211203956
 30
0.0
 40
3.2
  1
第 三 角 法
  7
高3.2
100
AcDbText
1001
ACAD
1000
ACAD_MTEXT_DEFINED_HEIGHT_BEGIN
1070
    46
1040
0.0
1000
ACAD_MTEXT_DEFINED_HEIGHT_END
  0
TEXT
  5
15D2
330
295E
100
AcDbEntity
  8
0
 62
     3
100
AcDbText
 10
329.4976709838568
 20
18.69668779767826
 30
0.0
 40
3.2
  1
日動工業株式会社
  7
高3.2
100
AcDbText
1001
ACAD
1000
ACAD_MTEXT_DEFINED_HEIGHT_BEGIN
1070
    46
1040
0.0
1000
ACAD_MTEXT_DEFINED_HEIGHT_END
  0
TEXT
  5
15D3
330
295E
100
AcDbEntity
  8
0
 62
     3
100
AcDbText
 10
363.1332951833353
 20
34.60646065296087
 30
0.0
 40
3.2
  1
備考
  7
高3.2
100
AcDbText
1001
ACAD
1000
ACAD_MTEXT_DEFINED_HEIGHT_BEGIN
1070
    46
1040
0.0
1000
ACAD_MTEXT_DEFINED_HEIGHT_END
  0
TEXT
  5
15D4
330
295E
100
AcDbEntity
  8
0
 62
     3
100
AcDbText
 10
372.5040277003708
 20
23.70238961536363
 30
0.0
 40
2.5
  1
出図コード
  7
高2.5
100
AcDbText
1001
ACAD
1000
ACAD_MTEXT_DEFINED_HEIGHT_BEGIN
1070
    46
1040
0.0
1000
ACAD_MTEXT_DEFINED_HEIGHT_END
  0
TEXT
  5
15D5
330
295E
100
AcDbEntity
  8
0
 62
     3
100
AcDbText
 10
362.9745290652476
 20
27.67511703020623
 30
0.0
 40
3.2
  1
尺度
  7
高3.2
100
AcDbText
1001
ACAD
1000
ACAD_MTEXT_DEFINED_HEIGHT_BEGIN
1070
    46
1040
0.0
1000
ACAD_MTEXT_DEFINED_HEIGHT_END
  0
TEXT
  5
15D6
330
295E
100
AcDbEntity
  8
0
 62
     3
100
AcDbText
 10
389.8424656170266
 20
28.80659547832372
 30
0.0
 40
3.2
  1
作成日
  7
高3.2
100
AcDbText
1001
ACAD
1000
ACAD_MTEXT_DEFINED_HEIGHT_BEGIN
1070
    46
1040
0.0
1000
ACAD_MTEXT_DEFINED_HEIGHT_END
  0
TEXT
  5
15DF
330
295E
100
AcDbEntity
  8
0
 62
     3
100
AcDbText
 10
389.7369396238906
 20
49.36241032767824
 30
0.0
 40
3.2
  1
承 認
  7
高3.2
100
AcDbText
1001
ACAD
1000
ACAD_MTEXT_DEFINED_HEIGHT_BEGIN
1070
    46
1040
0.0
1000
ACAD_MTEXT_DEFINED_HEIGHT_END
  0
TEXT
  5
15E0
330
295E
100
AcDbEntity
  8
0
 62
     3
100
AcDbText
 10
402.7369396238904
 20
49.36241032767824
 30
0.0
 40
3.2
  1
検 図
  7
高3.2
100
AcDbText
1001
ACAD
1000
ACAD_MTEXT_DEFINED_HEIGHT_BEGIN
1070
    46
1040
0.0
1000
ACAD_MTEXT_DEFINED_HEIGHT_END
  0
TEXT
  5
15E1
330
295E
100
AcDbEntity
  8
0
 62
     3
100
AcDbText
 10
415.7369396238904
 20
49.36241032767824
 30
0.0
 40
3.2
  1
設 計
  7
高3.2
100
AcDbText
1001
ACAD
1000
ACAD_MTEXT_DEFINED_HEIGHT_BEGIN
1070
    46
1040
0.0
1000
ACAD_MTEXT_DEFINED_HEIGHT_END
  0
TEXT
  5
15E2
330
295E
100
AcDbEntity
  8
0
 62
     3
100
AcDbText
 10
428.7369396238905
 20
49.36241032767824
 30
0.0
 40
3.2
  1
製 図
  7
高3.2
100
AcDbText
1001
ACAD
1000
ACAD_MTEXT_DEFINED_HEIGHT_BEGIN
1070
    46
1040
0.0
1000
ACAD_MTEXT_DEFINED_HEIGHT_END
  0
LINE
  5
15E8
330
295E
100
AcDbEntity
  8
0
 62
     3
100
AcDbLine
 10
227.8253116813707
 20
293.9961617297933
 30
0.0
 11
228.4478086913708
 21
293.6712072497932
 31
0.0
  0
LINE
  5
15E9
330
295E
100
AcDbEntity
  8
0
 62
     3
100
AcDbLine
 10
227.8253116813707
 20
288.6666896297933
 30
0.0
 11
228.4478086913708
 21
288.9916441097934
 31
0.0
  0
LINE
  5
15EA
330
295E
100
AcDbEntity
  8
0
 62
     3
100
AcDbLine
 10
228.4478086913708
 20
293.6712072497932
 30
0.0
 11
228.4478086913708
 21
288.9916441097934
 31
0.0
  0
LINE
  5
15EB
330
295E
100
AcDbEntity
  8
0
 62
     3
100
AcDbLine
 10
230.0242621513707
 20
288.6666896297933
 30
0.0
 11
229.4017651413708
 21
288.9916441097934
 31
0.0
  0
LINE
  5
15EC
330
295E
100
AcDbEntity
  8
0
 62
     3
100
AcDbLine
 10
229.4017651413708
 20
291.8442995597932
 30
0.0
 11
229.4017651413708
 21
288.9916441097934
 31
0.0
  0
LINE
  5
15ED
330
295E
100
AcDbEntity
  8
0
 62
     3
100
AcDbLine
 10
233.6554946913708
 20
293.9961617297933
 30
0.0
 11
233.0329976913708
 21
293.6712072497932
 31
0.0
  0
LINE
  5
15EE
330
295E
100
AcDbEntity
  8
0
 62
     3
100
AcDbLine
 10
231.4565442213708
 20
293.9961617297933
 30
0.0
 11
232.0790412313709
 21
293.6712072497932
 31
0.0
  0
LINE
  5
15EF
330
295E
100
AcDbEntity
  8
0
 62
     3
100
AcDbLine
 10
232.0790412313709
 20
293.6712072497932
 30
0.0
 11
232.0790412313709
 21
291.6107257297932
 31
0.0
  0
LINE
  5
15F0
330
295E
100
AcDbEntity
  8
0
 62
     3
100
AcDbLine
 10
233.0329976913708
 20
293.6712072497932
 30
0.0
 11
233.0329976913708
 21
288.3644594197932
 31
0.0
  0
LINE
  5
15F1
330
295E
100
AcDbEntity
  8
0
 62
     3
100
AcDbLine
 10
233.9630621313709
 20
293.9961579797934
 30
0.0
 11
234.5855568913707
 21
293.6711992097933
 31
0.0
  0
LINE
  5
15F2
330
295E
100
AcDbEntity
  8
0
 62
     3
100
AcDbLine
 10
233.9629507413708
 20
288.6667610197932
 30
0.0
 11
234.5854590913708
 21
288.9916937697933
 31
0.0
  0
LINE
  5
15F3
330
295E
100
AcDbEntity
  8
0
 62
     3
100
AcDbLine
 10
234.5855568913707
 20
293.6711992097933
 30
0.0
 11
234.5855568913707
 21
288.9916937697933
 31
0.0
  0
LINE
  5
15F4
330
295E
100
AcDbEntity
  8
0
 62
     3
100
AcDbLine
 10
236.7195426913708
 20
293.9961241597932
 30
0.0
 11
236.0970411313708
 21
293.6711783997932
 31
0.0
  0
LINE
  5
15F5
330
295E
100
AcDbEntity
  8
0
 62
     3
100
AcDbLine
 10
236.0970411313708
 20
293.6711783997932
 30
0.0
 11
236.0970411313708
 21
288.9916729597932
 31
0.0
  0
LINE
  5
15F6
330
295E
100
AcDbEntity
  8
0
 62
     3
100
AcDbLine
 10
236.7195426913708
 20
288.6667271997932
 30
0.0
 11
236.0970411313708
 21
288.9916729597932
 31
0.0
  0
LINE
  5
15F7
330
295E
100
AcDbEntity
  8
0
 62
     3
100
AcDbLine
 10
241.9913333213708
 20
293.9960655897932
 30
0.0
 11
242.6138292013708
 21
293.6711089697933
 31
0.0
  0
LINE
  5
15F8
330
295E
100
AcDbEntity
  8
0
 62
     3
100
AcDbLine
 10
242.6138292013708
 20
293.6711089697933
 30
0.0
 11
242.6137475313708
 21
288.9916035197932
 31
0.0
  0
LINE
  5
15F9
330
295E
100
AcDbEntity
  8
0
 62
     3
100
AcDbLine
 10
241.9912403013708
 20
288.6666686297933
 30
0.0
 11
242.6137475313708
 21
288.9916035197932
 31
0.0
  0
LINE
  5
15FA
330
295E
100
AcDbEntity
  8
0
 62
     3
100
AcDbLine
 10
244.7802775613708
 20
293.9960655897932
 30
0.0
 11
244.1577816713708
 21
293.6711089697933
 31
0.0
  0
LINE
  5
15FB
330
295E
100
AcDbEntity
  8
0
 62
     3
100
AcDbLine
 10
244.7803705713708
 20
288.6666686297933
 30
0.0
 11
244.1578633413708
 21
288.9916035197932
 31
0.0
  0
LINE
  5
15FC
330
295E
100
AcDbEntity
  8
0
 62
     3
100
AcDbLine
 10
245.0713173613708
 20
293.9960655897932
 30
0.0
 11
245.6938132413708
 21
293.6711089697933
 31
0.0
  0
LINE
  5
15FD
330
295E
100
AcDbEntity
  8
0
 62
     3
100
AcDbLine
 10
245.0712243413708
 20
288.6666686297933
 30
0.0
 11
245.6937315713708
 21
288.9916035197932
 31
0.0
  0
LINE
  5
15FE
330
295E
100
AcDbEntity
  8
0
 62
     3
100
AcDbLine
 10
247.8602615913708
 20
293.9960655897932
 30
0.0
 11
247.2377657113708
 21
293.6711089697933
 31
0.0
  0
LINE
  5
15FF
330
295E
100
AcDbEntity
  8
0
 62
     3
100
AcDbLine
 10
247.2377657113708
 20
293.6711089697933
 30
0.0
 11
247.2378473813708
 21
288.9916035197932
 31
0.0
  0
LINE
  5
1600
330
295E
100
AcDbEntity
  8
0
 62
     3
100
AcDbLine
 10
247.8603546113708
 20
288.6666686297933
 30
0.0
 11
247.2378473813708
 21
288.9916035197932
 31
0.0
  0
LINE
  5
1601
330
295E
100
AcDbEntity
  8
0
 62
     3
100
AcDbLine
 10
245.6937776613709
 20
291.6323473697934
 30
0.0
 11
244.1578172513708
 21
291.6323473697934
 31
0.0
  0
LINE
  5
1602
330
295E
100
AcDbEntity
  8
0
 62
     3
100
AcDbLine
 10
245.6937671613708
 20
291.0305039897933
 30
0.0
 11
244.1578277513709
 21
291.0305039897933
 31
0.0
  0
LINE
  5
1603
330
295E
100
AcDbEntity
  8
0
 62
     3
100
AcDbLine
 10
245.6938132413708
 20
293.6711089697933
 30
0.0
 11
245.6937776613709
 21
291.6323473697934
 31
0.0
  0
LINE
  5
1604
330
295E
100
AcDbEntity
  8
0
 62
     3
100
AcDbLine
 10
245.6937671613708
 20
291.0305039897933
 30
0.0
 11
245.6937315713708
 21
288.9916035197932
 31
0.0
  0
LINE
  5
1605
330
295E
100
AcDbEntity
  8
0
 62
     3
100
AcDbLine
 10
244.1577816713708
 20
293.6711089697933
 30
0.0
 11
244.1578172513708
 21
291.6323473697934
 31
0.0
  0
LINE
  5
1606
330
295E
100
AcDbEntity
  8
0
 62
     3
100
AcDbLine
 10
244.1578277513709
 20
291.0305039897933
 30
0.0
 11
244.1578633413708
 21
288.9916035197932
 31
0.0
  0
LINE
  5
1607
330
295E
100
AcDbEntity
  8
0
 62
     3
100
AcDbLine
 10
248.1559174813708
 20
293.9960655897932
 30
0.0
 11
248.7784133713708
 21
293.6711089697933
 31
0.0
  0
LINE
  5
1608
330
295E
100
AcDbEntity
  8
0
 62
     3
100
AcDbLine
 10
248.7784133713708
 20
293.6711089697933
 30
0.0
 11
248.7783316913708
 21
288.9916035197932
 31
0.0
  0
LINE
  5
1609
330
295E
100
AcDbEntity
  8
0
 62
     3
100
AcDbLine
 10
248.1558244613708
 20
288.6666686297933
 30
0.0
 11
248.7783316913708
 21
288.9916035197932
 31
0.0
  0
LINE
  5
160A
330
295E
100
AcDbEntity
  8
0
 62
     3
100
AcDbLine
 10
250.9123607213707
 20
293.9960655897932
 30
0.0
 11
250.2898648313708
 21
293.6711089697933
 31
0.0
  0
LINE
  5
160B
330
295E
100
AcDbEntity
  8
0
 62
     3
100
AcDbLine
 10
250.2898648313708
 20
293.6711089697933
 30
0.0
 11
250.2899465113708
 21
288.9916035197932
 31
0.0
  0
LINE
  5
160C
330
295E
100
AcDbEntity
  8
0
 62
     3
100
AcDbLine
 10
250.9124537413708
 20
288.6666686297933
 30
0.0
 11
250.2899465113708
 21
288.9916035197932
 31
0.0
  0
LINE
  5
160D
330
295E
100
AcDbEntity
  8
0
 62
     3
100
AcDbLine
 10
251.2185886713707
 20
293.9960655897932
 30
0.0
 11
251.8410845613707
 21
293.6711089697933
 31
0.0
  0
LINE
  5
160E
330
295E
100
AcDbEntity
  8
0
 62
     3
100
AcDbLine
 10
251.8410845613707
 20
293.6711089697933
 30
0.0
 11
251.8410028913709
 21
288.9916035197932
 31
0.0
  0
LINE
  5
160F
330
295E
100
AcDbEntity
  8
0
 62
     3
100
AcDbLine
 10
251.2184956613708
 20
288.6666686297933
 30
0.0
 11
251.8410028913709
 21
288.9916035197932
 31
0.0
  0
ARC
  5
1610
330
295E
100
AcDbEntity
  8
0
 62
     3
100
AcDbCircle
 10
240.0028886513708
 20
291.3448396197932
 30
0.0
 40
2.98040844
100
AcDbArc
 50
97.70152351000051
 51
270.0
  0
ARC
  5
1611
330
295E
100
AcDbEntity
  8
0
 62
     3
100
AcDbCircle
 10
258.4037469913708
 20
291.3149015797932
 30
0.0
 40
3.012776259999998
100
AcDbArc
 50
0.3142502699992814
 51
69.00558244999962
  0
ARC
  5
1612
330
295E
100
AcDbEntity
  8
0
 62
     3
100
AcDbCircle
 10
259.0618546013709
 20
291.3149015797932
 30
0.0
 40
3.012776259999998
100
AcDbArc
 50
110.9944175500004
 51
148.1166110199997
  0
ARC
  5
1613
330
295E
100
AcDbEntity
  8
0
 62
     3
100
AcDbCircle
 10
258.4037469913708
 20
291.3479497797932
 30
0.0
 40
3.012776259999998
100
AcDbArc
 50
290.9944175500003
 51
359.6857497300007
  0
ARC
  5
1614
330
295E
100
AcDbEntity
  8
0
 62
     3
100
AcDbCircle
 10
259.0618546013709
 20
291.3479497797932
 30
0.0
 40
3.012776259999998
100
AcDbArc
 50
211.8833889800002
 51
249.0055824499996
  0
ARC
  5
1615
330
295E
100
AcDbEntity
  8
0
 62
     3
100
AcDbCircle
 10
258.7328008013708
 20
292.5640048097934
 30
0.0
 40
1.73438712
100
AcDbArc
 50
64.36517189999968
 51
115.6348281000003
  0
ARC
  5
1616
330
295E
100
AcDbEntity
  8
0
 62
     3
100
AcDbCircle
 10
258.7328008013708
 20
290.0988465497932
 30
0.0
 40
1.73438712
100
AcDbArc
 50
244.3651718999997
 51
295.6348281000003
  0
ARC
  5
1617
330
295E
100
AcDbEntity
  8
0
 62
     3
100
AcDbCircle
 10
258.7328008013708
 20
292.5969500697933
 30
0.0
 40
0.85122233
100
AcDbArc
 50
19.48660554000021
 51
160.5133944599996
  0
ARC
  5
1618
330
295E
100
AcDbEntity
  8
0
 62
     3
100
AcDbCircle
 10
258.7328008013708
 20
290.0988465497932
 30
0.0
 40
1.73438712
100
AcDbArc
 50
244.3651718999997
 51
295.6348281000003
  0
ARC
  5
1619
330
295E
100
AcDbEntity
  8
0
 62
     3
100
AcDbCircle
 10
258.7328008013708
 20
290.0659012897932
 30
0.0
 40
0.85122233
100
AcDbArc
 50
199.4866055400002
 51
340.5133944599997
  0
ARC
  5
161A
330
295E
100
AcDbEntity
  8
0
 62
     3
100
AcDbCircle
 10
251.9578400813708
 20
259.5770544797933
 30
0.0
 40
37.20000000000001
100
AcDbArc
 50
69.50571480000146
 51
81.68998807000065
  0
ARC
  5
161B
330
295E
100
AcDbEntity
  8
0
 62
     3
100
AcDbCircle
 10
251.9578400813708
 20
323.0857968797932
 30
0.0
 40
37.20000000000001
100
AcDbArc
 50
278.3100119299994
 51
290.4942851999985
  0
ARC
  5
161C
330
295E
100
AcDbEntity
  8
0
 62
     3
100
AcDbCircle
 10
263.8267031213707
 20
291.3314256797932
 30
0.0
 40
3.299999999999998
100
AcDbArc
 50
290.4942851999985
 51
69.50571480000146
  0
ARC
  5
161D
330
295E
100
AcDbEntity
  8
0
 62
     3
100
AcDbCircle
 10
224.8267031213708
 20
291.3314256797932
 30
0.0
 40
3.299999999999998
100
AcDbArc
 50
110.4942851999985
 51
249.5057148000014
  0
ARC
  5
161E
330
295E
100
AcDbEntity
  8
0
 62
     3
100
AcDbCircle
 10
236.6955661513708
 20
259.5770544797933
 30
0.0
 40
37.20000000000001
100
AcDbArc
 50
98.31001192999934
 51
110.4942851999985
  0
ARC
  5
161F
330
295E
100
AcDbEntity
  8
0
 62
     3
100
AcDbCircle
 10
236.6955661513708
 20
323.0857968797932
 30
0.0
 40
37.20000000000001
100
AcDbArc
 50
249.5057148000014
 51
261.6899880700007
  0
ARC
  5
1620
330
295E
100
AcDbEntity
  8
0
 62
     3
100
AcDbCircle
 10
244.3267031213708
 20
207.3314256797933
 30
0.0
 40
89.99999981
100
AcDbArc
 50
81.68998807000065
 51
98.31001192999934
  0
ARC
  5
1621
330
295E
100
AcDbEntity
  8
0
 62
     3
100
AcDbCircle
 10
244.3267031213708
 20
375.3314256797933
 30
0.0
 40
89.99999981
100
AcDbArc
 50
261.6899880700007
 51
278.3100119299994
  0
ARC
  5
1622
330
295E
100
AcDbEntity
  8
0
 62
     3
100
AcDbCircle
 10
244.3267031213708
 20
207.3314256797933
 30
0.0
 40
89.09999981
100
AcDbArc
 50
81.68998807000065
 51
98.31001192999934
  0
ARC
  5
1623
330
295E
100
AcDbEntity
  8
0
 62
     3
100
AcDbCircle
 10
244.3267031213708
 20
375.3314256797933
 30
0.0
 40
89.09999981
100
AcDbArc
 50
261.6899880700007
 51
278.3100119299994
  0
ARC
  5
1624
330
295E
100
AcDbEntity
  8
0
 62
     3
100
AcDbCircle
 10
251.9578400813708
 20
323.0857968797932
 30
0.0
 40
36.3
100
AcDbArc
 50
278.3100119299994
 51
290.4942851999985
  0
ARC
  5
1625
330
295E
100
AcDbEntity
  8
0
 62
     3
100
AcDbCircle
 10
251.9578400813708
 20
259.5770544797933
 30
0.0
 40
36.3
100
AcDbArc
 50
69.50571480000146
 51
81.68998807000065
  0
ARC
  5
1626
330
295E
100
AcDbEntity
  8
0
 62
     3
100
AcDbCircle
 10
263.8267031213707
 20
291.3314256797932
 30
0.0
 40
2.399999999999999
100
AcDbArc
 50
290.4942851999985
 51
69.50571480000146
  0
ARC
  5
1627
330
295E
100
AcDbEntity
  8
0
 62
     3
100
AcDbCircle
 10
224.8267031213708
 20
291.3314256797932
 30
0.0
 40
2.399999999999999
100
AcDbArc
 50
110.4942851999985
 51
249.5057148000014
  0
ARC
  5
1628
330
295E
100
AcDbEntity
  8
0
 62
     3
100
AcDbCircle
 10
236.6955661513708
 20
259.5770544797933
 30
0.0
 40
36.3
100
AcDbArc
 50
98.31001192999934
 51
110.4942851999985
  0
ARC
  5
1629
330
295E
100
AcDbEntity
  8
0
 62
     3
100
AcDbCircle
 10
236.6955661513708
 20
323.0857968797932
 30
0.0
 40
36.3
100
AcDbArc
 50
249.5057148000014
 51
261.6899880700007
  0
LINE
  5
162A
330
295E
100
AcDbEntity
  8
0
 62
     3
100
AcDbLine
 10
250.9123618413708
 20
288.3644594197932
 30
0.0
 11
248.1559163613708
 21
288.3644594197932
 31
0.0
  0
LINE
  5
162B
330
295E
100
AcDbEntity
  8
0
 62
     3
100
AcDbLine
 10
250.9123618413708
 20
288.6666896297933
 30
0.0
 11
250.9123618413708
 21
288.3644594197932
 31
0.0
  0
LINE
  5
162C
330
295E
100
AcDbEntity
  8
0
 62
     3
100
AcDbLine
 10
247.8602627113708
 20
294.2982509097933
 30
0.0
 11
245.0713162413708
 21
294.2982509097933
 31
0.0
  0
LINE
  5
162D
330
295E
100
AcDbEntity
  8
0
 62
     3
100
AcDbLine
 10
247.8602627113708
 20
294.2982509097933
 30
0.0
 11
247.8602627113708
 21
293.9961617297933
 31
0.0
  0
LINE
  5
162E
330
295E
100
AcDbEntity
  8
0
 62
     3
100
AcDbLine
 10
247.8602627113708
 20
288.6666896297933
 30
0.0
 11
247.8602627113708
 21
288.3643183997932
 31
0.0
  0
LINE
  5
162F
330
295E
100
AcDbEntity
  8
0
 62
     3
100
AcDbLine
 10
247.8602627113708
 20
288.3643183997932
 30
0.0
 11
245.0713162413708
 21
288.3643183997932
 31
0.0
  0
LINE
  5
1630
330
295E
100
AcDbEntity
  8
0
 62
     3
100
AcDbLine
 10
250.9123618413708
 20
294.2983919397932
 30
0.0
 11
250.9123618413708
 21
293.9961617297933
 31
0.0
  0
LINE
  5
1631
330
295E
100
AcDbEntity
  8
0
 62
     3
100
AcDbLine
 10
250.9123618413708
 20
294.2983919397932
 30
0.0
 11
248.1559163613708
 21
294.2983919397932
 31
0.0
  0
LINE
  5
1632
330
295E
100
AcDbEntity
  8
0
 62
     3
100
AcDbLine
 10
248.1559163613708
 20
294.2983919397932
 30
0.0
 11
248.1559163613708
 21
293.9961617297933
 31
0.0
  0
LINE
  5
1633
330
295E
100
AcDbEntity
  8
0
 62
     3
100
AcDbLine
 10
251.2185875513708
 20
288.6666896297933
 30
0.0
 11
251.2185875513708
 21
288.3644594197932
 31
0.0
  0
LINE
  5
1634
330
295E
100
AcDbEntity
  8
0
 62
     3
100
AcDbLine
 10
254.0533026413708
 20
288.3644594197932
 30
0.0
 11
251.2185875513708
 21
288.3644594197932
 31
0.0
  0
LINE
  5
1635
330
295E
100
AcDbEntity
  8
0
 62
     3
100
AcDbLine
 10
253.3525360313709
 20
293.3444354797932
 30
0.0
 11
253.3525360313709
 21
289.3184158797932
 31
0.0
  0
LINE
  5
1636
330
295E
100
AcDbEntity
  8
0
 62
     3
100
AcDbLine
 10
253.3525360313709
 20
289.3184158797932
 30
0.0
 11
253.6240345513709
 21
289.3184158797932
 31
0.0
  0
ARC
  5
1637
330
295E
100
AcDbEntity
  8
0
 62
     3
100
AcDbCircle
 10
252.2357692113708
 20
291.3314256797932
 30
0.0
 40
2.44529939
100
AcDbArc
 50
304.5919552699984
 51
55.40804473000154
  0
LINE
  5
1638
330
295E
100
AcDbEntity
  8
0
 62
     3
100
AcDbLine
 10
254.0533026413708
 20
294.2983919397932
 30
0.0
 11
251.2185875513708
 21
294.2983919397932
 31
0.0
  0
LINE
  5
1639
330
295E
100
AcDbEntity
  8
0
 62
     3
100
AcDbLine
 10
251.2185875513708
 20
294.2983919397932
 30
0.0
 11
251.2185875513708
 21
293.9961617297933
 31
0.0
  0
LINE
  5
163A
330
295E
100
AcDbEntity
  8
0
 62
     3
100
AcDbLine
 10
248.1559163613708
 20
288.6666896297933
 30
0.0
 11
248.1559163613708
 21
288.3644594197932
 31
0.0
  0
LINE
  5
163B
330
295E
100
AcDbEntity
  8
0
 62
     3
100
AcDbLine
 10
253.3525360313709
 20
293.3444354797932
 30
0.0
 11
253.6240345513709
 21
293.3444354797932
 31
0.0
  0
LINE
  5
163C
330
295E
100
AcDbEntity
  8
0
 62
     3
100
AcDbLine
 10
236.7194507913708
 20
288.6666896297933
 30
0.0
 11
236.7194455213708
 21
288.3644311797933
 31
0.0
  0
LINE
  5
163D
330
295E
100
AcDbEntity
  8
0
 62
     3
100
AcDbLine
 10
233.9630000413708
 20
288.3644876697932
 30
0.0
 11
236.7194455213708
 21
288.3644395597933
 31
0.0
  0
LINE
  5
163E
330
295E
100
AcDbEntity
  8
0
 62
     3
100
AcDbLine
 10
227.8253116813707
 20
288.3644594197932
 30
0.0
 11
230.0242621513707
 21
288.3644594197932
 31
0.0
  0
ARC
  5
163F
330
295E
100
AcDbEntity
  8
0
 62
     3
100
AcDbCircle
 10
220.7082507113707
 20
291.4012922897932
 30
0.0
 40
21.01937947
100
AcDbArc
 50
353.8660061900002
 51
357.6940342600001
  0
LINE
  5
1640
330
295E
100
AcDbEntity
  8
0
 62
     3
100
AcDbLine
 10
240.3033648013708
 20
290.5607670697932
 30
0.0
 11
241.7106089213707
 21
290.5555600997933
 31
0.0
  0
LINE
  5
1642
330
295E
100
AcDbEntity
  8
0
 62
     3
100
AcDbLine
 10
240.3090482513708
 20
292.0967881297933
 30
0.0
 11
241.7162923713708
 21
292.0915811597934
 31
0.0
  0
ARC
  5
1643
330
295E
100
AcDbEntity
  8
0
 62
     3
100
AcDbCircle
 10
220.7082507113707
 20
291.4012922897932
 30
0.0
 40
21.01937947
100
AcDbArc
 50
1.881965739999665
 51
5.709993809999617
  0
LINE
  5
1644
330
295E
100
AcDbEntity
  8
0
 62
     3
100
AcDbLine
 10
236.7195490813708
 20
294.2983636897933
 30
0.0
 11
236.7195438113709
 21
293.9961617297933
 31
0.0
  0
LINE
  5
1645
330
295E
100
AcDbEntity
  8
0
 62
     3
100
AcDbLine
 10
233.9631036013708
 20
294.2984201797933
 30
0.0
 11
236.7195490813708
 21
294.2983720697934
 31
0.0
  0
LINE
  5
1646
330
295E
100
AcDbEntity
  8
0
 62
     3
100
AcDbLine
 10
233.9630053113708
 20
288.6666896297933
 30
0.0
 11
233.9630000413708
 21
288.3644876697932
 31
0.0
  0
LINE
  5
1647
330
295E
100
AcDbEntity
  8
0
 62
     3
100
AcDbLine
 10
233.9631036013708
 20
294.2984201797933
 30
0.0
 11
233.9630983313708
 21
293.9961617297933
 31
0.0
  0
LINE
  5
1648
330
295E
100
AcDbEntity
  8
0
 62
     3
100
AcDbLine
 10
230.0242621513707
 20
288.6666896297933
 30
0.0
 11
230.0242621513707
 21
288.3644594197932
 31
0.0
  0
LINE
  5
1649
330
295E
100
AcDbEntity
  8
0
 62
     3
100
AcDbLine
 10
229.4017651413708
 20
291.8442995597932
 30
0.0
 11
231.5766652213708
 21
288.3644594197932
 31
0.0
  0
LINE
  5
164A
330
295E
100
AcDbEntity
  8
0
 62
     3
100
AcDbLine
 10
231.5766652213708
 20
288.3644594197932
 30
0.0
 11
233.0329976913708
 21
288.3644594197932
 31
0.0
  0
LINE
  5
164B
330
295E
100
AcDbEntity
  8
0
 62
     3
100
AcDbLine
 10
233.6554946913708
 20
294.2983919397932
 30
0.0
 11
233.6554946913708
 21
293.9961617297933
 31
0.0
  0
LINE
  5
164C
330
295E
100
AcDbEntity
  8
0
 62
     3
100
AcDbLine
 10
231.4565442213708
 20
294.2983919397932
 30
0.0
 11
233.6554946913708
 21
294.2983919397932
 31
0.0
  0
LINE
  5
164D
330
295E
100
AcDbEntity
  8
0
 62
     3
100
AcDbLine
 10
231.4565442213708
 20
294.2983919397932
 30
0.0
 11
231.4565442213708
 21
293.9961617297933
 31
0.0
  0
LINE
  5
164E
330
295E
100
AcDbEntity
  8
0
 62
     3
100
AcDbLine
 10
232.0790412313709
 20
291.6107257297932
 30
0.0
 11
230.3152602913708
 21
294.2983919397932
 31
0.0
  0
LINE
  5
164F
330
295E
100
AcDbEntity
  8
0
 62
     3
100
AcDbLine
 10
227.8253116813707
 20
294.2983919397932
 30
0.0
 11
230.3152602913708
 21
294.2983919397932
 31
0.0
  0
LINE
  5
1650
330
295E
100
AcDbEntity
  8
0
 62
     3
100
AcDbLine
 10
241.9913322013708
 20
294.2982509097933
 30
0.0
 11
244.7802786813708
 21
294.2982509097933
 31
0.0
  0
LINE
  5
1651
330
295E
100
AcDbEntity
  8
0
 62
     3
100
AcDbLine
 10
241.9913322013708
 20
293.9961617297933
 30
0.0
 11
241.9913322013708
 21
294.2982509097933
 31
0.0
  0
LINE
  5
1652
330
295E
100
AcDbEntity
  8
0
 62
     3
100
AcDbLine
 10
241.9913322013708
 20
288.3643183997932
 30
0.0
 11
241.9913322013708
 21
288.6666896297933
 31
0.0
  0
LINE
  5
1653
330
295E
100
AcDbEntity
  8
0
 62
     3
100
AcDbLine
 10
241.9913322013708
 20
288.3643183997932
 30
0.0
 11
244.7802786813708
 21
288.3643183997932
 31
0.0
  0
LINE
  5
1654
330
295E
100
AcDbEntity
  8
0
 62
     3
100
AcDbLine
 10
245.0713162413708
 20
288.6666896297933
 30
0.0
 11
245.0713162413708
 21
288.3643183997932
 31
0.0
  0
LINE
  5
1655
330
295E
100
AcDbEntity
  8
0
 62
     3
100
AcDbLine
 10
244.7802786813708
 20
288.6666896297933
 30
0.0
 11
244.7802786813708
 21
288.3643183997932
 31
0.0
  0
LINE
  5
1656
330
295E
100
AcDbEntity
  8
0
 62
     3
100
AcDbLine
 10
244.7802786813708
 20
293.9961617297933
 30
0.0
 11
244.7802786813708
 21
294.2982509097933
 31
0.0
  0
LINE
  5
1657
330
295E
100
AcDbEntity
  8
0
 62
     3
100
AcDbLine
 10
245.0713162413708
 20
293.9961617297933
 30
0.0
 11
245.0713162413708
 21
294.2982509097933
 31
0.0
  0
LINE
  5
1658
330
295E
100
AcDbEntity
  8
0
 62
     3
100
AcDbLine
 10
227.8253116813707
 20
288.6666896297933
 30
0.0
 11
227.8253116813707
 21
288.3644594197932
 31
0.0
  0
LINE
  5
1659
330
295E
100
AcDbEntity
  8
0
 62
     3
100
AcDbLine
 10
227.8253116813707
 20
294.2983919397932
 30
0.0
 11
227.8253116813707
 21
293.9961617297933
 31
0.0
  0
ARC
  5
165A
330
295E
100
AcDbEntity
  8
0
 62
     3
100
AcDbCircle
 10
254.3533026413708
 20
291.9539226897932
 30
0.0
 40
2.344469249999999
100
AcDbArc
 50
17.30874897999991
 51
23.76507096000029
  0
ARC
  5
165B
330
295E
100
AcDbEntity
  8
0
 62
     3
100
AcDbCircle
 10
252.3557692113708
 20
291.3314256797932
 30
0.0
 40
4.43675086
100
AcDbArc
 50
342.6912510200001
 51
17.30856643999989
  0
ARC
  5
165C
330
295E
100
AcDbEntity
  8
0
 62
     3
100
AcDbCircle
 10
254.3533026413708
 20
290.7089286697932
 30
0.0
 40
2.344469249999999
100
AcDbArc
 50
336.2349290399997
 51
342.6912510200001
  0
ARC
  5
165D
330
295E
100
AcDbEntity
  8
0
 62
     3
100
AcDbCircle
 10
254.0533026413708
 20
291.9539226897932
 30
0.0
 40
2.344469249999999
100
AcDbArc
 50
17.30874897999991
 51
90.0
  0
ARC
  5
165E
330
295E
100
AcDbEntity
  8
0
 62
     3
100
AcDbCircle
 10
252.0557692113708
 20
291.3314256797932
 30
0.0
 40
4.43675086
100
AcDbArc
 50
342.6912510200001
 51
17.30856643999989
  0
ARC
  5
165F
330
295E
100
AcDbEntity
  8
0
 62
     3
100
AcDbCircle
 10
254.0533026413708
 20
290.7089286697932
 30
0.0
 40
2.344469249999999
100
AcDbArc
 50
270.0
 51
342.6912510200001
  0
ARC
  5
1660
330
295E
100
AcDbEntity
  8
0
 62
     3
100
AcDbCircle
 10
239.5905306713707
 20
291.3314256797932
 30
0.0
 40
2.966966259999998
100
AcDbArc
 50
46.75287961000086
 51
89.74999828999893
  0
ARC
  5
1661
330
295E
100
AcDbEntity
  8
0
 62
     3
100
AcDbCircle
 10
239.5905306713707
 20
291.3314256797932
 30
0.0
 40
2.966966259999998
100
AcDbArc
 50
273.9763331500004
 51
312.8231203899988
  0
ARC
  5
1662
330
295E
100
AcDbEntity
  8
0
 62
     3
100
AcDbCircle
 10
255.9359706013708
 20
291.2856234997934
 30
0.0
 40
3.936984289999998
100
AcDbArc
 50
0.6665840599997991
 51
23.90392827000139
  0
ARC
  5
1663
330
295E
100
AcDbEntity
  8
0
 62
     3
100
AcDbCircle
 10
261.5296309913708
 20
291.2856234997934
 30
0.0
 40
3.936984289999998
100
AcDbArc
 50
156.0960717299986
 51
179.3334159400002
  0
ARC
  5
1664
330
295E
100
AcDbEntity
  8
0
 62
     3
100
AcDbCircle
 10
255.9359706013708
 20
291.3772278597932
 30
0.0
 40
3.936984289999998
100
AcDbArc
 50
336.0960717299985
 51
359.3334159400002
  0
ARC
  5
1665
330
295E
100
AcDbEntity
  8
0
 62
     3
100
AcDbCircle
 10
261.5296309913708
 20
291.3772278597932
 30
0.0
 40
3.936984289999998
100
AcDbArc
 50
180.6665840599997
 51
203.9039282700014
  0
LINE
  5
1666
330
295E
100
AcDbEntity
  8
0
 62
     3
100
AcDbLine
 10
268.7071473913708
 20
291.5561595897933
 30
0.0
 11
440.0504222113708
 21
291.5561595897933
 31
0.0
  0
LINE
  5
1667
330
295E
100
AcDbEntity
  8
0
 62
     3
100
AcDbLine
 10
220.1531127213708
 20
291.5561595897933
 30
0.0
 11
50.05042221137079
 21
291.5561595897933
 31
0.0
  0
LINE
  5
1668
330
295E
100
AcDbEntity
  8
0
 62
     3
100
AcDbLine
 10
37.64849842137079
 20
158.0007985397933
 30
0.0
 11
35.0504222113708
 21
156.5007985397933
 31
0.0
  0
LINE
  5
1669
330
295E
100
AcDbEntity
  8
0
 62
     3
100
AcDbLine
 10
37.64849842137079
 20
158.0007985397933
 30
0.0
 11
35.0504222113708
 21
159.5007985397933
 31
0.0
  0
LINE
  5
166A
330
295E
100
AcDbEntity
  8
0
 62
     3
100
AcDbLine
 10
35.0504222113708
 20
156.5007985397933
 30
0.0
 11
35.0504222113708
 21
159.5007985397933
 31
0.0
  0
LINE
  5
16B5
330
295E
100
AcDbEntity
  8
0
 62
     3
100
AcDbLine
 10
440.0504222113708
 20
63.22188211979332
 30
0.0
 11
388.3510587313709
 21
63.22188211979332
 31
0.0
  0
TEXT
  5
16B6
330
295E
100
AcDbEntity
  8
0
 62
     3
100
AcDbText
 10
393.3700468830819
 20
57.80192207558894
 30
0.0
 40
4.5
  1
コード
  7
高4.5
100
AcDbText
  0
TEXT
  5
16B7
330
295E
100
AcDbEntity
  8
0
 62
     3
100
AcDbText
 10
416.9922827422535
 20
57.80192207558894
 30
0.0
 40
4.5
  1
12811
  7
高4.5
100
AcDbText
  0
TEXT
  5
2A48
330
295E
100
AcDbEntity
  8
0
 62
     7
100
AcDbText
 10
432.4599349069603
 20
38.14568858529379
 30
0.0
 40
3.2
  1
I
  7
高3.2
100
AcDbText
  0
TEXT
  5
3823
330
295E
100
AcDbEntity
  8
0
 62
     3
100
AcDbText
 10
427.5504222113708
 20
282.0561595897933
 30
0.0
 40
3.2
  1
担　当
  7
高3.2
100
AcDbText
  0
TEXT
  5
3824
330
295E
100
AcDbEntity
  8
0
 62
     3
100
AcDbText
 10
383.5504222113709
 20
282.0561595897933
 30
0.0
 40
3.2
  1
変更・追記内容
  7
高3.2
100
AcDbText
  0
TEXT
  5
3825
330
295E
100
AcDbEntity
  8
0
 62
     3
100
AcDbText
 10
358.6639372117101
 20
277.385621079885
 30
0.0
 40
2.0
  1
1
  7
高2
100
AcDbText
  0
TEXT
  5
3826
330
295E
100
AcDbEntity
  8
0
 62
     3
100
AcDbText
 10
358.3554257349529
 20
272.2158043676121
 30
0.0
 40
2.0
  1
2
  7
高2
100
AcDbText
  0
TEXT
  5
3827
330
295E
100
AcDbEntity
  8
0
 62
     3
100
AcDbText
 10
365.5504222113709
 20
282.0561595897933
 30
0.0
 40
3.2
  1
日　付
  7
高3.2
100
AcDbText
  0
TEXT
  5
3828
330
295E
100
AcDbEntity
  8
0
 62
     3
100
AcDbText
 10
365.5504222113709
 20
287.0561595897933
 30
0.0
 40
3.2
  1
図　　　　面　　　　略　　　　歴
  7
高3.2
100
AcDbText
  0
TEXT
  5
3829
330
295E
100
AcDbEntity
  8
0
 62
     3
100
AcDbText
 10
355.5504222113709
 20
282.0561595897933
 30
0.0
 40
3.2
  1
記号
  7
高3.2
100
AcDbText
  0
LINE
  5
382A
330
295E
100
AcDbEntity
  8
0
100
AcDbLine
 10
359.0504222113708
 20
275.3470555897934
 30
0.0
 11
357.1504222113708
 21
272.0561595897933
 31
0.0
  0
LINE
  5
382B
330
295E
100
AcDbEntity
  8
0
100
AcDbLine
 10
359.0504222113708
 20
275.3470555897934
 30
0.0
 11
360.9504222113709
 21
272.0561595897933
 31
0.0
  0
LINE
  5
382C
330
295E
100
AcDbEntity
  8
0
100
AcDbLine
 10
357.1504222113708
 20
272.0561595897933
 30
0.0
 11
360.9504222113709
 21
272.0561595897933
 31
0.0
  0
LINE
  5
382D
330
295E
100
AcDbEntity
  8
0
100
AcDbLine
 10
359.0504222113708
 20
280.3470565897934
 30
0.0
 11
357.1504222113708
 21
277.0561595897933
 31
0.0
  0
LINE
  5
382E
330
295E
100
AcDbEntity
  8
0
100
AcDbLine
 10
359.0504222113708
 20
280.3470565897934
 30
0.0
 11
360.9504222113709
 21
277.0561595897933
 31
0.0
  0
LINE
  5
382F
330
295E
100
AcDbEntity
  8
0
100
AcDbLine
 10
357.1504222113708
 20
277.0561595897933
 30
0.0
 11
360.9504222113709
 21
277.0561595897933
 31
0.0
  0
LINE
  5
3830
330
295E
100
AcDbEntity
  8
0
 62
     3
100
AcDbLine
 10
354.0504222113709
 20
286.5561595897933
 30
0.0
 11
440.0504222113708
 21
286.5561595897933
 31
0.0
  0
LINE
  5
3831
330
295E
100
AcDbEntity
  8
0
 62
     3
100
AcDbLine
 10
354.0504222113709
 20
281.5561595897933
 30
0.0
 11
440.0504222113708
 21
281.5561595897933
 31
0.0
  0
LINE
  5
3832
330
295E
100
AcDbEntity
  8
0
 62
     7
100
AcDbLine
 10
354.0504222113709
 20
276.5561595897933
 30
0.0
 11
440.0504222113708
 21
276.5561595897933
 31
0.0
  0
LINE
  5
3833
330
295E
100
AcDbEntity
  8
0
 62
     3
100
AcDbLine
 10
354.0504222113709
 20
271.5561595897933
 30
0.0
 11
440.0504222113708
 21
271.5561595897933
 31
0.0
  0
LINE
  5
3834
330
295E
100
AcDbEntity
  8
0
 62
     7
100
AcDbLine
 10
426.0504222113707
 20
271.5561595897933
 30
0.0
 11
426.0504222113708
 21
286.5561595897933
 31
0.0
  0
LINE
  5
3835
330
295E
100
AcDbEntity
  8
0
 62
     7
100
AcDbLine
 10
382.0504222113708
 20
271.5561595897933
 30
0.0
 11
382.0504222113708
 21
286.5561595897933
 31
0.0
  0
LINE
  5
3836
330
295E
100
AcDbEntity
  8
0
 62
     7
100
AcDbLine
 10
364.0504222113709
 20
271.5561595897933
 30
0.0
 11
364.0504222113709
 21
286.5561595897933
 31
0.0
  0
LINE
  5
3837
330
295E
100
AcDbEntity
  8
0
 62
     3
100
AcDbLine
 10
354.0504222113709
 20
271.5561595897933
 30
0.0
 11
354.0504222113709
 21
291.5561595897933
 31
0.0
  0
LINE
  5
4EA7
330
295E
100
AcDbEntity
  8
0
 62
     3
100
AcDbLine
 10
413.4704271608057
 20
242.367611088282
 30
0.0
 11
332.0277514891099
 21
242.367611088282
 31
0.0
  0
LINE
  5
4EA8
330
295E
100
AcDbEntity
  8
0
 62
     7
100
AcDbLine
 10
413.4704271608057
 20
209.3676110882822
 30
0.0
 11
332.0277514891099
 21
209.3676110882822
 31
0.0
  0
LINE
  5
4EA9
330
295E
100
AcDbEntity
  8
0
 62
     7
100
AcDbLine
 10
413.4704271608057
 20
143.3676110882806
 30
0.0
 11
332.0277514891099
 21
143.3676110882806
 31
0.0
  0
TEXT
  5
4EAA
330
295E
100
AcDbEntity
  8
0
 62
     3
100
AcDbText
 10
333.5277514891095
 20
155.3676110882805
 30
0.0
 40
3.2
  1
充電　時間
  7
高3.2
100
AcDbText
  0
TEXT
  5
4EAB
330
295E
100
AcDbEntity
  8
0
 62
     3
100
AcDbText
 10
333.5277514891099
 20
237.867611088282
 30
0.0
 40
3.2
  1
型　　　式
  7
高3.2
100
AcDbText
  0
TEXT
  5
4EAC
330
295E
100
AcDbEntity
  8
0
 62
     3
100
AcDbText
 10
333.5277514891097
 20
193.8676110882809
 30
0.0
 40
3.2
  1
定格　光束
  7
高3.2
100
AcDbText
  0
TEXT
  5
4EAD
330
295E
100
AcDbEntity
  8
0
 62
     3
100
AcDbText
 10
333.5277514891099
 20
149.8676110882805
 30
0.0
 40
3.2
  1
蓄　電　池
  7
高3.2
100
AcDbText
  0
LINE
  5
4EAE
330
295E
100
AcDbEntity
  8
0
 62
     7
100
AcDbLine
 10
413.4704271608057
 20
137.8676110882806
 30
0.0
 11
357.3965141552684
 21
137.8676110882806
 31
0.0
  0
TEXT
  5
4EAF
330
295E
100
AcDbEntity
  8
0
 62
     3
100
AcDbText
 10
358.8965141552677
 20
149.8676110882805
 30
0.0
 40
3.2
  1
リチウムイオンバッテリー
 41
0.8
  7
高3.2
100
AcDbText
  0
LINE
  5
4EB0
330
295E
100
AcDbEntity
  8
0
 62
     7
100
AcDbLine
 10
413.4704271608057
 20
198.3676110882814
 30
0.0
 11
332.0277514891099
 21
198.3676110882814
 31
0.0
  0
LINE
  5
4EB1
330
295E
100
AcDbEntity
  8
0
 62
     3
100
AcDbLine
 10
332.0277514891099
 20
242.367611088282
 30
0.0
 11
332.0277514891095
 21
104.8676110882808
 31
0.0
  0
LINE
  5
4EB2
330
295E
100
AcDbEntity
  8
0
 62
     7
100
AcDbLine
 10
357.396514155268
 20
104.8676110882808
 30
0.0
 11
357.396514155268
 21
242.367611088282
 31
0.0
  0
TEXT
  5
4EB3
330
295E
100
AcDbEntity
  8
0
 62
     3
100
AcDbText
 10
358.896514155268
 20
237.867611088282
 30
0.0
 40
3.2
  1
SHL-A2W-CH
 41
0.8
  7
高3.2
100
AcDbText
  0
TEXT
  5
4EB4
330
295E
100
AcDbEntity
  8
0
 62
     3
100
AcDbText
 10
358.896514155268
 20
105.8676110882808
 30
0.0
 40
3.2
  1
145g
 41
0.8
  7
高3.2
100
AcDbText
  0
TEXT
  5
4EB5
330
295E
100
AcDbEntity
  8
0
 62
     3
100
AcDbText
 10
333.5277514891099
 20
105.8676110882808
 30
0.0
 40
3.2
  1
本体　質量
  7
高3.2
100
AcDbText
  0
LINE
  5
4EB6
330
295E
100
AcDbEntity
  8
0
 62
     7
100
AcDbLine
 10
413.4704271608057
 20
132.3676110882806
 30
0.0
 11
332.0277514891099
 21
132.3676110882806
 31
0.0
  0
TEXT
  5
4EB7
330
295E
100
AcDbEntity
  8
0
 62
     3
100
AcDbText
 10
358.896514155268
 20
138.8676110882806
 30
0.0
 40
3.2
  1
入力AC100-240V 50/60Hz
 41
0.8
  7
高3.2
100
AcDbText
  0
TEXT
  5
4EB8
330
295E
100
AcDbEntity
  8
0
 62
     3
100
AcDbText
 10
358.8965141552677
 20
155.3676110882805
 30
0.0
 40
3.2
  1
2.5時間
 41
0.8
  7
高3.2
100
AcDbText
  0
LINE
  5
4EB9
330
295E
100
AcDbEntity
  8
0
 62
     7
100
AcDbLine
 10
413.4704271608057
 20
126.8676110882807
 30
0.0
 11
332.0277514891099
 21
126.8676110882807
 31
0.0
  0
LINE
  5
4EBA
330
295E
100
AcDbEntity
  8
0
 62
     3
100
AcDbLine
 10
413.4704271608057
 20
104.8676110882808
 30
0.0
 11
332.0277514891099
 21
104.8676110882808
 31
0.0
  0
TEXT
  5
4EBB
330
295E
100
AcDbEntity
  8
0
 62
     3
100
AcDbText
 10
358.8965141552677
 20
188.3676110882807
 30
0.0
 40
3.2
  1
80Lx
 41
0.8
  7
高3.2
100
AcDbText
  0
TEXT
  5
4EBC
330
295E
100
AcDbEntity
  8
0
 62
     3
100
AcDbText
 10
358.896514155268
 20
133.3676110882806
 30
0.0
 40
3.2
  1
出力DC5V 1A
 41
0.8
  7
高3.2
100
AcDbText
  0
TEXT
  5
4EBD
330
295E
100
AcDbEntity
  8
0
 62
     3
100
AcDbText
 10
358.8965141552677
 20
193.8676110882809
 30
0.0
 40
3.2
  1
200Lm
 41
0.8
  7
高3.2
100
AcDbText
  0
TEXT
  5
4EBE
330
295E
100
AcDbEntity
  8
0
 62
     3
100
AcDbText
 10
333.5277514891104
 20
188.3676110882806
 30
0.0
 40
3.2
  1
照度
  7
高3.2
100
AcDbText
  0
TEXT
  5
4EBF
330
295E
100
AcDbEntity
  8
0
 62
     3
100
AcDbText
 10
333.5277514891099
 20
138.8676110882806
 30
0.0
 40
3.2
  1
ACアダプター
 41
0.8
  7
高3.2
100
AcDbText
  0
TEXT
  5
4EC0
330
295E
100
AcDbEntity
  8
0
 62
     3
100
AcDbText
 10
343.2068955772243
 20
188.3676110882807
 30
0.0
 40
3.2
  1
1m
  7
高3.2
100
AcDbText
  0
LINE
  5
4EC1
330
295E
100
AcDbEntity
  8
0
 62
     7
100
AcDbLine
 10
413.4704271608057
 20
187.3676110882808
 30
0.0
 11
341.7068955772238
 21
187.3676110882808
 31
0.0
  0
TEXT
  5
4EC2
330
295E
100
AcDbEntity
  8
0
 62
     3
100
AcDbText
 10
358.8965141552677
 20
182.8676110882807
 30
0.0
 40
3.2
  1
20Lx
 41
0.8
  7
高3.2
100
AcDbText
  0
TEXT
  5
4EC3
330
295E
100
AcDbEntity
  8
0
 62
     3
100
AcDbText
 10
343.2068955772243
 20
182.8676110882807
 30
0.0
 40
3.2
  1
2m
  7
高3.2
100
AcDbText
  0
LINE
  5
4EC4
330
295E
100
AcDbEntity
  8
0
 62
     7
100
AcDbLine
 10
413.4704271608057
 20
181.8676110882807
 30
0.0
 11
341.7068955772238
 21
181.8676110882807
 31
0.0
  0
TEXT
  5
4EC5
330
295E
100
AcDbEntity
  8
0
 62
     3
100
AcDbText
 10
358.8965141552677
 20
177.3676110882805
 30
0.0
 40
3.2
  1
10Lx
 41
0.8
  7
高3.2
100
AcDbText
  0
TEXT
  5
4EC6
330
295E
100
AcDbEntity
  8
0
 62
     3
100
AcDbText
 10
343.2068955772243
 20
177.3676110882805
 30
0.0
 40
3.2
  1
3m
  7
高3.2
100
AcDbText
  0
LINE
  5
4EC7
330
295E
100
AcDbEntity
  8
0
 62
     7
100
AcDbLine
 10
413.4704271608057
 20
176.3676110882808
 30
0.0
 11
341.7068955772238
 21
176.3676110882808
 31
0.0
  0
TEXT
  5
4EC8
330
295E
100
AcDbEntity
  8
0
 62
     3
100
AcDbText
 10
358.8965141552677
 20
171.8676110882807
 30
0.0
 40
3.2
  1
5Lx
 41
0.8
  7
高3.2
100
AcDbText
  0
TEXT
  5
4EC9
330
295E
100
AcDbEntity
  8
0
 62
     3
100
AcDbText
 10
343.2068955772243
 20
171.8676110882807
 30
0.0
 40
3.2
  1
4m
  7
高3.2
100
AcDbText
  0
LINE
  5
4ECA
330
295E
100
AcDbEntity
  8
0
 62
     7
100
AcDbLine
 10
413.4704271608057
 20
170.8676110882807
 30
0.0
 11
341.7068955772238
 21
170.8676110882807
 31
0.0
  0
TEXT
  5
4ECB
330
295E
100
AcDbEntity
  8
0
 62
     3
100
AcDbText
 10
358.8965141552677
 20
166.3676110882805
 30
0.0
 40
3.2
  1
3Lx
 41
0.8
  7
高3.2
100
AcDbText
  0
TEXT
  5
4ECC
330
295E
100
AcDbEntity
  8
0
 62
     3
100
AcDbText
 10
343.2068955772243
 20
166.3676110882805
 30
0.0
 40
3.2
  1
5m
  7
高3.2
100
AcDbText
  0
LINE
  5
4ECD
330
295E
100
AcDbEntity
  8
0
 62
     7
100
AcDbLine
 10
413.4704271608057
 20
154.3676110882805
 30
0.0
 11
332.0277514891099
 21
154.3676110882805
 31
0.0
  0
TEXT
  5
4ECE
330
295E
100
AcDbEntity
  8
0
 62
     3
100
AcDbText
 10
358.8965141552677
 20
116.867611088281
 30
0.0
 40
3.2
  1
500回(充放電回数)
 41
0.8
  7
高3.2
100
AcDbText
  0
TEXT
  5
4ECF
330
295E
100
AcDbEntity
  8
0
 62
     3
100
AcDbText
 10
333.5277514891095
 20
116.867611088281
 30
0.0
 40
3.2
  1
電池　寿命
  7
高3.2
100
AcDbText
  0
LINE
  5
4ED0
330
295E
100
AcDbEntity
  8
0
 62
     7
100
AcDbLine
 10
413.4704271608057
 20
165.3676110882803
 30
0.0
 11
332.0277514891099
 21
165.3676110882803
 31
0.0
  0
TEXT
  5
4ED1
330
295E
100
AcDbEntity
  8
0
 62
     3
100
AcDbText
 10
358.8965141552679
 20
221.3676110882837
 30
0.0
 40
3.2
  1
6000K
 41
0.8
  7
高3.2
100
AcDbText
  0
TEXT
  5
4ED2
330
295E
100
AcDbEntity
  8
0
 62
     3
100
AcDbText
 10
333.5277514891099
 20
221.3676110882837
 30
0.0
 40
3.2
  1
色　温　度
  7
高3.2
100
AcDbText
  0
TEXT
  5
4ED3
330
295E
100
AcDbEntity
  8
0
 62
     3
100
AcDbText
 10
333.5277514891099
 20
111.3676110882811
 30
0.0
 40
3.2
  1
使用環境温度
  7
高3.2
100
AcDbText
  0
TEXT
  5
4ED4
330
295E
100
AcDbEntity
  8
0
 62
     3
100
AcDbText
 10
358.896514155268
 20
111.3676110882811
 30
0.0
 40
3.2
  1
0～40℃
 41
0.8
  7
高3.2
100
AcDbText
  0
TEXT
  5
4ED5
330
295E
100
AcDbEntity
  8
0
 62
     3
100
AcDbText
 10
333.5277514891095
 20
127.8676110882808
 30
0.0
 40
3.2
  1
本体防水規格
  7
高3.2
100
AcDbText
  0
LINE
  5
4ED6
330
295E
100
AcDbEntity
  8
0
 62
     7
100
AcDbLine
 10
413.4704271608057
 20
121.367611088281
 30
0.0
 11
332.0277514891099
 21
121.3676110882808
 31
0.0
  0
TEXT
  5
4ED7
330
295E
100
AcDbEntity
  8
0
 62
     3
100
AcDbText
 10
358.8965141552677
 20
127.8676110882808
 30
0.0
 40
3.2
  1
IP 54
 41
0.8
  7
高3.2
100
AcDbText
  0
LINE
  5
4ED8
330
295E
100
AcDbEntity
  8
0
 62
     7
100
AcDbLine
 10
413.4704271608057
 20
115.867611088281
 30
0.0
 11
332.0277514891099
 21
115.867611088281
 31
0.0
  0
TEXT
  5
4ED9
330
295E
100
AcDbEntity
  8
0
 62
     3
100
AcDbText
 10
358.8965141552677
 20
144.3676110882806
 30
0.0
 40
3.2
  1
DC3.7V　1.2Ah
 41
0.8
  7
高3.2
100
AcDbText
  0
LINE
  5
4EDA
330
295E
100
AcDbEntity
  8
0
 62
     7
100
AcDbLine
 10
341.7068955772243
 20
165.3676110882805
 30
0.0
 11
341.7068955772243
 21
192.8676110882807
 31
0.0
  0
LINE
  5
4EDB
330
295E
100
AcDbEntity
  8
0
 62
     3
100
AcDbLine
 10
413.4704271608057
 20
242.367611088282
 30
0.0
 11
413.4704271608057
 21
104.8676110882808
 31
0.0
  0
LINE
  5
4EDC
330
295E
100
AcDbEntity
  8
0
 62
     7
100
AcDbLine
 10
413.4704271608057
 20
110.3676110882811
 30
0.0
 11
332.0277514891099
 21
110.3676110882811
 31
0.0
  0
LINE
  5
4EDD
330
295E
100
AcDbEntity
  8
0
 62
     7
100
AcDbLine
 10
413.4704271608057
 20
148.8676110882805
 30
0.0
 11
357.3965141552684
 21
148.8676110882805
 31
0.0
  0
LINE
  5
4EDE
330
295E
100
AcDbEntity
  8
0
 62
     7
100
AcDbLine
 10
413.4704271608057
 20
236.8676110882801
 30
0.0
 11
332.0277514891099
 21
236.8676110882801
 31
0.0
  0
TEXT
  5
4EDF
330
295E
100
AcDbEntity
  8
0
 62
     3
100
AcDbText
 10
358.8965141552677
 20
122.3676110882808
 30
0.0
 40
3.2
  1
50000時間
 41
0.8
  7
高3.2
100
AcDbText
  0
TEXT
  5
4EE0
330
295E
100
AcDbEntity
  8
0
 62
     3
100
AcDbText
 10
333.5277514891095
 20
122.3676110882808
 30
0.0
 40
3.2
  1
球　寿　命
  7
高3.2
100
AcDbText
  0
LINE
  5
4EE1
330
295E
100
AcDbEntity
  8
0
 62
     7
100
AcDbLine
 10
413.4704271608057
 20
225.8676110882831
 30
0.0
 11
332.0277514891099
 21
225.8676110882831
 31
0.0
  0
TEXT
  5
4EE2
330
295E
100
AcDbEntity
  8
0
 62
     3
100
AcDbText
 10
358.896514155268
 20
226.8676110882833
 30
0.0
 40
3.2
  1
LED
 41
0.8
  7
高3.2
100
AcDbText
  0
TEXT
  5
4EE3
330
295E
100
AcDbEntity
  8
0
 62
     3
100
AcDbText
 10
333.5277514891099
 20
226.8676110882833
 30
0.0
 40
3.2
  1
光　　　源
  7
高3.2
100
AcDbText
  0
LINE
  5
4EE4
330
295E
100
AcDbEntity
  8
0
 62
     7
100
AcDbLine
 10
413.4704271608057
 20
214.8676110882818
 30
0.0
 11
332.0277514891099
 21
214.8676110882818
 31
0.0
  0
TEXT
  5
4EE5
330
295E
100
AcDbEntity
  8
0
 62
     3
100
AcDbText
 10
358.8965141552679
 20
210.3676110882823
 30
0.0
 40
3.2
  1
上下140\U+00B0　左右160\U+00B0
 41
0.8
  7
高3.2
100
AcDbText
  0
TEXT
  5
4EE6
330
295E
100
AcDbEntity
  8
0
 62
     3
100
AcDbText
 10
333.5277514891099
 20
210.3676110882823
 30
0.0
 40
3.2
  1
照射　角度
  7
高3.2
100
AcDbText
  0
TEXT
  5
4EE7
330
295E
100
AcDbEntity
  8
0
 62
     3
100
AcDbText
 10
347.2395898510126
 20
247.3370043084164
 30
0.0
 40
4.5
  1
主　　仕　　様
  7
高4.5
100
AcDbText
  0
LINE
  5
4EE8
330
295E
100
AcDbEntity
  8
0
100
AcDbLine
 10
346.138675483257
 20
246.4712512245737
 30
0.0
 11
384.7308957629443
 21
246.4712512245737
 31
0.0
  0
TEXT
  5
4EE9
330
295E
100
AcDbEntity
  8
0
 62
     7
100
AcDbText
 10
331.0768252870071
 20
91.14254723753878
 30
0.0
 40
2.5
  1
注３）照度は当社実測値の為、使用環境下により異なります。
 41
0.8
  7
高2.5
100
AcDbText
  0
TEXT
  5
4EEA
330
295E
100
AcDbEntity
  8
0
 62
     7
100
AcDbText
 10
331.0768252870071
 20
88.14254723753881
 30
0.0
 40
2.5
  1
注４）連続点灯時間は満充電時から1m照度が10Lx切るまでの時間です。
 41
0.8
  7
高2.5
100
AcDbText
  0
TEXT
  5
4EEB
330
295E
100
AcDbEntity
  8
0
 62
     7
100
AcDbText
 10
331.0768252870071
 20
85.14254723753879
 30
0.0
 40
2.5
  1
注５）球寿命は光束が70%%%に低下するまでの時間です。
 41
0.8
  7
高2.5
100
AcDbText
  0
TEXT
  5
4EEC
330
295E
100
AcDbEntity
  8
0
 62
     7
100
AcDbText
 10
331.0768252870071
 20
82.1425472375388
 30
0.0
 40
2.5
  1
　　　表示は設計値であり、製品の寿命を保証するものではありません。
 41
0.8
  7
高2.5
100
AcDbText
  0
TEXT
  5
4EED
330
295E
100
AcDbEntity
  8
0
 62
     7
100
AcDbText
 10
331.0768252870071
 20
94.14254723753879
 30
0.0
 40
2.5
  1
注２）LEDの光色、明るさにはバラツキがあります。
 41
0.8
  7
高2.5
100
AcDbText
  0
TEXT
  5
4EEE
330
295E
100
AcDbEntity
  8
0
 62
     7
100
AcDbText
 10
331.0768252870071
 20
97.14254723753882
 30
0.0
 40
2.5
  1
注１）当器具のLED素子交換はできません。
 41
0.8
  7
高2.5
100
AcDbText
  0
TEXT
  5
4EEF
330
295E
100
AcDbEntity
  8
0
 62
     7
100
AcDbText
 10
331.0768252870071
 20
79.14254723753879
 30
0.0
 40
2.5
  1
注６）安全にご使用いただくため、取扱説明書をご参照ください。
 41
0.8
  7
高2.5
100
AcDbText
  0
TEXT
  5
4EF0
330
295E
100
AcDbEntity
  8
0
 62
     7
100
AcDbText
 10
331.0768252870071
 20
76.14254723753879
 30
0.0
 40
2.5
  1
注７）仕様変更は予告なく行う場合があります。予めご了承ください。
 41
0.8
  7
高2.5
100
AcDbText
  0
TEXT
  5
4EF1
330
295E
100
AcDbEntity
  8
0
 62
     3
100
AcDbText
 10
333.5277514891099
 20
160.8676110882795
 30
0.0
 40
3.2
  1
連続点灯時間
  7
高3.2
100
AcDbText
  0
TEXT
  5
4EF2
330
295E
100
AcDbEntity
  8
0
 62
     3
100
AcDbText
 10
358.896514155268
 20
160.8676110882795
 30
0.0
 40
3.2
  1
2時間
 41
0.8
  7
高3.2
100
AcDbText
  0
LINE
  5
4EF3
330
295E
100
AcDbEntity
  8
0
 62
     7
100
AcDbLine
 10
413.4704271608057
 20
159.8676110882795
 30
0.0
 11
332.0277514891099
 21
159.8676110882795
 31
0.0
  0
TEXT
  5
4EF5
330
295E
100
AcDbEntity
  8
0
 62
     3
100
AcDbText
 10
358.8965141552679
 20
204.8676110882823
 30
0.0
 40
3.2
  1
LOW→HIGH→OFF
 41
0.8
  7
高3.2
100
AcDbText
  0
TEXT
  5
4EF6
330
295E
100
AcDbEntity
  8
0
 62
     3
100
AcDbText
 10
333.5277514891099
 20
204.8676110882823
 30
0.0
 40
3.2
  1
点灯パターン
  7
高3.2
100
AcDbText
  0
LINE
  5
4EF7
330
295E
100
AcDbEntity
  8
0
 62
     7
100
AcDbLine
 10
413.4704271608057
 20
203.8676110882818
 30
0.0
 11
332.0277514891098
 21
203.8676110882819
 31
0.0
  0
TEXT
  5
4EFC
330
295E
100
AcDbEntity
  8
0
 62
     3
100
AcDbText
 10
358.8965141552677
 20
199.3676110882811
 30
0.0
 40
3.2
  1
HIGH
 41
0.8
  7
高3.2
100
AcDbText
  0
LINE
  5
4EFD
330
295E
100
AcDbEntity
  8
0
 62
     7
100
AcDbLine
 10
413.4704271608057
 20
192.8676110882807
 30
0.0
 11
332.0277514891098
 21
192.8676110882809
 31
0.0
  0
LINE
  5
4F00
330
295E
100
AcDbEntity
  8
0
 62
     7
100
AcDbLine
 10
385.4334706580369
 20
159.8676110882795
 30
0.0
 11
385.4334706580369
 21
203.8676110882819
 31
0.0
  0
TEXT
  5
4F01
330
295E
100
AcDbEntity
  8
0
 62
     3
100
AcDbText
 10
386.9334706580364
 20
188.3676110882807
 30
0.0
 40
3.2
  1
40Lx
 41
0.8
  7
高3.2
100
AcDbText
  0
TEXT
  5
4F08
330
295E
100
AcDbEntity
  8
0
 62
     3
100
AcDbText
 10
386.9334706580364
 20
182.8676110882807
 30
0.0
 40
3.2
  1
10Lx
 41
0.8
  7
高3.2
100
AcDbText
  0
TEXT
  5
4F09
330
295E
100
AcDbEntity
  8
0
 62
     3
100
AcDbText
 10
386.9334706580364
 20
177.3676110882805
 30
0.0
 40
3.2
  1
5Lx
 41
0.8
  7
高3.2
100
AcDbText
  0
TEXT
  5
4F0A
330
295E
100
AcDbEntity
  8
0
 62
     3
100
AcDbText
 10
386.9334706580364
 20
171.8676110882805
 30
0.0
 40
3.2
  1
3Lx
 41
0.8
  7
高3.2
100
AcDbText
  0
TEXT
  5
4F0B
330
295E
100
AcDbEntity
  8
0
 62
     3
100
AcDbText
 10
386.9334706580364
 20
166.3676110882805
 30
0.0
 40
3.2
  1
2Lx
 41
0.8
  7
高3.2
100
AcDbText
  0
TEXT
  5
4F0C
330
295E
100
AcDbEntity
  8
0
 62
     3
100
AcDbText
 10
386.9334706580369
 20
160.8676110882795
 30
0.0
 40
3.2
  1
4時間
 41
0.8
  7
高3.2
100
AcDbText
  0
TEXT
  5
4F0D
330
295E
100
AcDbEntity
  8
0
 62
     3
100
AcDbText
 10
386.9334706580364
 20
199.3676110882811
 30
0.0
 40
3.2
  1
LOW
 41
0.8
  7
高3.2
100
AcDbText
  0
TEXT
  5
585A
330
295E
100
AcDbEntity
  8
0
 62
     3
100
AcDbText
 10
386.9334706580366
 20
193.8676110882808
 30
0.0
 40
3.2
  1
100Lm
 41
0.8
  7
高3.2
100
AcDbText
  0
TEXT
  5
585F
330
295E
100
AcDbEntity
  8
0
 62
     3
100
AcDbText
 10
343.6208817815627
 20
34.66373613632095
 30
0.0
 40
2.5
  1
PC
  7
高2.5
100
AcDbText
  0
ARC
  5
5CB4
330
295E
100
AcDbEntity
  8
0
 62
     3
100
AcDbCircle
 10
96.87819188438894
 20
168.4094365321671
 30
0.0
 40
5.125
100
AcDbArc
 50
145.6326732768025
 51
214.3673267231974
  0
ARC
  5
5CB5
330
295E
100
AcDbEntity
  8
0
 62
     3
100
AcDbCircle
 10
96.87819188438894
 20
168.4094365321671
 30
0.0
 40
5.125
100
AcDbArc
 50
265.6326732768009
 51
334.3673267231965
  0
ARC
  5
5CB6
330
295E
100
AcDbEntity
  8
0
 62
     3
100
AcDbCircle
 10
96.87819188438894
 20
168.4094365321671
 30
0.0
 40
5.125
100
AcDbArc
 50
25.63267327680352
 51
94.3673267231991
  0
ARC
  5
5CB7
330
295E
100
AcDbEntity
  8
0
 62
     3
100
AcDbCircle
 10
102.0031918843889
 20
168.4094365321671
 30
0.0
 40
1.0
100
AcDbArc
 50
326.9252699327938
 51
33.07473006719436
  0
ARC
  5
5CB8
330
295E
100
AcDbEntity
  8
0
 62
     3
100
AcDbCircle
 10
94.31569188438913
 20
172.8478167265622
 30
0.0
 40
0.9999999999999998
100
AcDbArc
 50
86.92526993279605
 51
153.0747300671899
  0
ARC
  5
5CB9
330
295E
100
AcDbEntity
  8
0
 62
     3
100
AcDbCircle
 10
94.31569188438905
 20
163.9710563377718
 30
0.0
 40
1.0
100
AcDbArc
 50
206.9252699327978
 51
273.074730067204
  0
ARC
  5
5CBA
330
295E
100
AcDbEntity
  8
0
 62
     3
100
AcDbCircle
 10
93.78995659027168
 20
163.0604560970284
 30
0.0
 40
10.8014705882347
100
AcDbArc
 50
33.07473006720618
 51
86.92526993279605
  0
ARC
  5
5CBB
330
295E
100
AcDbEntity
  8
0
 62
     3
100
AcDbCircle
 10
103.0546624726227
 20
168.4094365321669
 30
0.0
 40
10.80147058823378
100
AcDbArc
 50
153.0747300672021
 51
206.9252699327978
  0
ARC
  5
5CBC
330
295E
100
AcDbEntity
  8
0
 62
     3
100
AcDbCircle
 10
93.78995659027099
 20
173.7584169673066
 30
0.0
 40
10.80147058823572
100
AcDbArc
 50
273.074730067204
 51
326.9252699327938
  0
ARC
  5
5CCB
330
295E
100
AcDbEntity
  8
0
100
AcDbCircle
 10
96.87819188438894
 20
168.4094365321671
 30
0.0
 40
3.0
100
AcDbArc
 50
119.9999999999999
 51
344.9999999999905
  0
ARC
  5
5CCC
330
295E
100
AcDbEntity
  8
0
100
AcDbCircle
 10
96.87819188438894
 20
168.4094365321671
 30
0.0
 40
2.25
100
AcDbArc
 50
119.9999999999999
 51
345.0000000000056
  0
CIRCLE
  5
5CCD
330
295E
100
AcDbEntity
  8
0
100
AcDbCircle
 10
99.50319188438893
 20
168.4094365321671
 30
0.0
 40
0.375
  0
LINE
  5
5CCE
330
295E
100
AcDbEntity
  8
0
100
AcDbLine
 10
99.05152499353926
 20
167.8270936806864
 30
0.0
 11
99.77596936325607
 21
167.6329793968596
 31
0.0
  0
LINE
  5
5CCF
330
295E
100
AcDbEntity
  8
0
100
AcDbLine
 10
95.32819188438896
 20
171.0941152838989
 30
0.0
 11
95.37819188438893
 21
171.0075127435204
 31
0.0
  0
LINE
  5
5CD0
330
295E
100
AcDbEntity
  8
0
100
AcDbLine
 10
95.75319188438893
 20
170.3579936906821
 30
0.0
 11
95.80319188438897
 21
170.2713911503037
 31
0.0
  0
LINE
  5
5CD1
330
295E
100
AcDbEntity
  8
0
100
AcDbLine
 10
96.21521093722732
 20
171.0577532171012
 30
0.0
 11
95.32819188438896
 21
171.0941152838989
 31
0.0
  0
LINE
  5
5CD2
330
295E
100
AcDbEntity
  8
0
100
AcDbLine
 10
96.21521093722732
 20
171.0577532171012
 30
0.0
 11
95.80319188438897
 21
170.2713911503037
 31
0.0
  0
ARC
  5
5CD3
330
295E
100
AcDbEntity
  8
0
100
AcDbCircle
 10
96.87819188438894
 20
168.4094365321671
 30
0.0
 40
3.75
100
AcDbArc
 50
354.2608295227253
 51
5.739170477274669
  0
ARC
  5
5CD4
330
295E
100
AcDbEntity
  8
0
100
AcDbCircle
 10
100.6093947735387
 20
165.5212769802643
 30
0.0
 40
3.263159551902958
100
AcDbArc
 50
62.26145433715275
 51
90.0
  0
ARC
  5
5CD5
330
295E
100
AcDbEntity
  8
0
100
AcDbCircle
 10
100.6093947735387
 20
171.29759608407
 30
0.0
 40
3.263159551902958
100
AcDbArc
 50
270.0
 51
297.7385456628474
  0
LINE
  5
5CD6
330
295E
100
AcDbEntity
  8
0
100
AcDbLine
 10
99.72922628851335
 20
169.7131726352563
 30
0.0
 11
98.78953366772758
 21
169.3711524919306
 31
0.0
  0
LINE
  5
5CD7
330
295E
100
AcDbEntity
  8
0
100
AcDbLine
 10
98.75533165339493
 20
169.4651217540093
 30
0.0
 11
98.28548534300194
 21
169.2941116823464
 31
0.0
  0
LINE
  5
5CD8
330
295E
100
AcDbEntity
  8
0
100
AcDbLine
 10
99.69502427418072
 20
169.8071418973349
 30
0.0
 11
100.1648705845738
 21
169.9781519689978
 31
0.0
  0
LINE
  5
5CD9
330
295E
100
AcDbEntity
  8
0
100
AcDbLine
 10
99.90023636017625
 20
169.2433263248633
 30
0.0
 11
98.96054373939044
 21
168.9013061815377
 31
0.0
  0
LINE
  5
5CDA
330
295E
100
AcDbEntity
  8
0
100
AcDbLine
 10
98.99474575372302
 20
168.807336919459
 30
0.0
 11
98.52489944333001
 21
168.636326847796
 31
0.0
  0
LINE
  5
5CDB
330
295E
100
AcDbEntity
  8
0
100
AcDbLine
 10
99.93443837450875
 20
169.1493570627847
 30
0.0
 11
100.4042846849017
 21
169.3203671344476
 31
0.0
  0
LINE
  5
5CDC
330
295E
100
AcDbEntity
  8
0
100
AcDbLine
 10
98.28548534300194
 20
169.2941116823464
 30
0.0
 11
98.52489944333001
 21
168.636326847796
 31
0.0
  0
LINE
  5
5CDD
330
295E
100
AcDbEntity
  8
0
100
AcDbLine
 10
98.96054373939044
 20
168.9013061815377
 30
0.0
 11
98.99474575372302
 21
168.807336919459
 31
0.0
  0
LINE
  5
5CDE
330
295E
100
AcDbEntity
  8
0
100
AcDbLine
 10
98.78953366772758
 20
169.3711524919306
 30
0.0
 11
98.75533165339504
 21
169.4651217540093
 31
0.0
  0
LINE
  5
5CDF
330
295E
100
AcDbEntity
  8
0
100
AcDbLine
 10
100.4042846849017
 20
169.3203671344476
 30
0.0
 11
100.1648705845738
 21
169.9781519689978
 31
0.0
  0
LINE
  5
5CE0
330
295E
100
AcDbEntity
  8
0
100
AcDbLine
 10
99.90023636017625
 20
169.2433263248633
 30
0.0
 11
99.93443837450875
 21
169.1493570627847
 31
0.0
  0
LINE
  5
5CE1
330
295E
100
AcDbEntity
  8
0
100
AcDbLine
 10
99.72922628851335
 20
169.7131726352563
 30
0.0
 11
99.69502427418079
 21
169.8071418973349
 31
0.0
  0
LINE
  5
5CE2
330
295E
100
AcDbEntity
  8
0
100
AcDbLine
 10
97.61593235796976
 20
170.4372405152091
 30
0.0
 11
98.11593235796976
 21
171.3032659189934
 31
0.0
  0
LINE
  5
5CE3
330
295E
100
AcDbEntity
  8
0
100
AcDbLine
 10
97.27932981759137
 20
170.0542278133168
 30
0.0
 11
97.52932981759137
 21
170.487240515209
 31
0.0
  0
LINE
  5
5CE4
330
295E
100
AcDbEntity
  8
0
100
AcDbLine
 10
98.02932981759136
 20
171.3532659189934
 30
0.0
 11
98.27932981759136
 21
171.7862786208856
 31
0.0
  0
LINE
  5
5CE5
330
295E
100
AcDbEntity
  8
0
100
AcDbLine
 10
98.26545141080806
 20
170.0622405152091
 30
0.0
 11
98.76545141080805
 21
170.9282659189934
 31
0.0
  0
LINE
  5
5CE6
330
295E
100
AcDbEntity
  8
0
100
AcDbLine
 10
98.10205395118643
 20
169.5792278133169
 30
0.0
 11
98.35205395118649
 21
170.0122405152091
 31
0.0
  0
LINE
  5
5CE7
330
295E
100
AcDbEntity
  8
0
100
AcDbLine
 10
98.85205395118646
 20
170.8782659189934
 30
0.0
 11
99.10205395118644
 21
171.3112786208857
 31
0.0
  0
LINE
  5
5CE8
330
295E
100
AcDbEntity
  8
0
100
AcDbLine
 10
97.27932981759137
 20
170.0542278133168
 30
0.0
 11
98.10205395118643
 21
169.5792278133169
 31
0.0
  0
LINE
  5
5CE9
330
295E
100
AcDbEntity
  8
0
100
AcDbLine
 10
98.26545141080806
 20
170.0622405152091
 30
0.0
 11
98.35205395118649
 21
170.0122405152091
 31
0.0
  0
LINE
  5
5CEA
330
295E
100
AcDbEntity
  8
0
100
AcDbLine
 10
97.61593235796976
 20
170.4372405152091
 30
0.0
 11
97.52932981759137
 21
170.487240515209
 31
0.0
  0
LINE
  5
5CEB
330
295E
100
AcDbEntity
  8
0
100
AcDbLine
 10
98.27932981759136
 20
171.7862786208856
 30
0.0
 11
99.10205395118644
 21
171.3112786208857
 31
0.0
  0
LINE
  5
5CEC
330
295E
100
AcDbEntity
  8
0
100
AcDbLine
 10
98.76545141080805
 20
170.9282659189934
 30
0.0
 11
98.85205395118646
 21
170.8782659189934
 31
0.0
  0
LINE
  5
5CED
330
295E
100
AcDbEntity
  8
0
100
AcDbLine
 10
98.11593235796976
 20
171.3032659189934
 30
0.0
 11
98.02932981759136
 21
171.3532659189934
 31
0.0
  0
LINE
  5
5CEE
330
295E
100
AcDbEntity
  8
0
 62
     3
100
AcDbLine
 10
112.4183342111815
 20
115.2295176177537
 30
0.0
 11
112.4183342111815
 21
100.7295176177551
 31
0.0
  0
LINE
  5
5CEF
330
295E
100
AcDbEntity
  8
0
100
AcDbLine
 10
103.9183342111815
 20
104.4295176177544
 30
0.0
 11
103.9183342111815
 21
105.1795176177545
 31
0.0
  0
LINE
  5
5CF0
330
295E
100
AcDbEntity
  8
0
100
AcDbLine
 10
103.9183342111815
 20
110.7795176177543
 30
0.0
 11
103.9183342111815
 21
111.5295176177544
 31
0.0
  0
LINE
  5
5CF1
330
295E
100
AcDbEntity
  8
0
 62
     3
100
AcDbLine
 10
131.4183342111815
 20
114.9284078860184
 30
0.0
 11
131.4183342111815
 21
101.0306273494904
 31
0.0
  0
LINE
  5
5CF2
330
295E
100
AcDbEntity
  8
0
100
AcDbLine
 10
295.4547405233597
 20
107.7295176177544
 30
0.0
 11
294.8547405233599
 21
107.7295176177544
 31
0.0
  0
LINE
  5
5CF3
330
295E
100
AcDbEntity
  8
0
100
AcDbLine
 10
294.1547405233598
 20
107.7295176177544
 30
0.0
 11
293.5547405233599
 21
107.7295176177544
 31
0.0
  0
LINE
  5
5CF4
330
295E
100
AcDbEntity
  8
0
100
AcDbLine
 10
292.8547405233599
 20
107.7295176177544
 30
0.0
 11
292.2547405233599
 21
107.7295176177544
 31
0.0
  0
LINE
  5
5CF5
330
295E
100
AcDbEntity
  8
0
100
AcDbLine
 10
295.4547405233597
 20
108.2295176177544
 30
0.0
 11
294.8547405233599
 21
108.2295176177544
 31
0.0
  0
LINE
  5
5CF6
330
295E
100
AcDbEntity
  8
0
100
AcDbLine
 10
294.1547405233598
 20
108.2295176177544
 30
0.0
 11
293.5547405233599
 21
108.2295176177544
 31
0.0
  0
LINE
  5
5CF7
330
295E
100
AcDbEntity
  8
0
100
AcDbLine
 10
292.8547405233599
 20
108.2295176177544
 30
0.0
 11
292.2547405233599
 21
108.2295176177544
 31
0.0
  0
LINE
  5
5CF8
330
295E
100
AcDbEntity
  8
0
 62
     3
100
AcDbLine
 10
303.9547405233598
 20
107.1045176177544
 30
0.0
 11
308.7047405233598
 21
107.1045176177544
 31
0.0
  0
LINE
  5
5CF9
330
295E
100
AcDbEntity
  8
0
 62
     3
100
AcDbLine
 10
303.9547405233598
 20
108.8545176177544
 30
0.0
 11
308.7047405233598
 21
108.8545176177544
 31
0.0
  0
LINE
  5
5CFA
330
295E
100
AcDbEntity
  8
0
 62
     3
100
AcDbLine
 10
297.9547405233597
 20
105.9795176177544
 30
0.0
 11
303.9547405233598
 21
105.9795176177544
 31
0.0
  0
LINE
  5
5CFB
330
295E
100
AcDbEntity
  8
0
 62
     3
100
AcDbLine
 10
297.9547405233597
 20
109.9795176177544
 30
0.0
 11
303.9547405233598
 21
109.9795176177544
 31
0.0
  0
LINE
  5
5CFC
330
295E
100
AcDbEntity
  8
0
 62
     3
100
AcDbLine
 10
171.6269657717084
 20
107.1045176177544
 30
0.0
 11
230.4071125356363
 21
107.1045176177545
 31
0.0
  0
LINE
  5
5CFD
330
295E
100
AcDbEntity
  8
0
100
AcDbLine
 10
292.2547405233599
 20
107.1045176177545
 30
0.0
 11
292.8547405233599
 21
107.1045176177544
 31
0.0
  0
LINE
  5
5CFE
330
295E
100
AcDbEntity
  8
0
100
AcDbLine
 10
293.5547405233599
 20
107.1045176177544
 30
0.0
 11
294.15474052336
 21
107.1045176177544
 31
0.0
  0
LINE
  5
5CFF
330
295E
100
AcDbEntity
  8
0
100
AcDbLine
 10
294.8547405233601
 20
107.1045176177544
 30
0.0
 11
295.4547405233597
 21
107.1045176177544
 31
0.0
  0
LINE
  5
5D00
330
295E
100
AcDbEntity
  8
0
 62
     3
100
AcDbLine
 10
171.6269657717084
 20
108.8545176177544
 30
0.0
 11
230.4071125356363
 21
108.8545176177545
 31
0.0
  0
LINE
  5
5D01
330
295E
100
AcDbEntity
  8
0
100
AcDbLine
 10
292.2547405233599
 20
108.8545176177545
 30
0.0
 11
292.8547405233599
 21
108.8545176177545
 31
0.0
  0
LINE
  5
5D02
330
295E
100
AcDbEntity
  8
0
100
AcDbLine
 10
293.5547405233599
 20
108.8545176177545
 30
0.0
 11
294.15474052336
 21
108.8545176177545
 31
0.0
  0
LINE
  5
5D03
330
295E
100
AcDbEntity
  8
0
100
AcDbLine
 10
294.8547405233601
 20
108.8545176177545
 30
0.0
 11
295.4547405233597
 21
108.8545176177544
 31
0.0
  0
LINE
  5
5D04
330
295E
100
AcDbEntity
  8
0
100
AcDbLine
 10
155.1269657717084
 20
107.1045176177544
 30
0.0
 11
156.1269657717084
 21
107.1045176177544
 31
0.0
  0
LINE
  5
5D05
330
295E
100
AcDbEntity
  8
0
100
AcDbLine
 10
155.1269657717084
 20
105.8545176177544
 30
0.0
 11
156.1269657717084
 21
105.8545176177544
 31
0.0
  0
LINE
  5
5D06
330
295E
100
AcDbEntity
  8
0
100
AcDbLine
 10
156.1269657717084
 20
108.8545176177544
 30
0.0
 11
155.1269657717084
 21
108.8545176177544
 31
0.0
  0
LINE
  5
5D07
330
295E
100
AcDbEntity
  8
0
100
AcDbLine
 10
156.1269657717084
 20
110.1045176177544
 30
0.0
 11
155.1269657717084
 21
110.1045176177544
 31
0.0
  0
LINE
  5
5D08
330
295E
100
AcDbEntity
  8
0
 62
     3
100
AcDbLine
 10
171.6269657717084
 20
106.4795176177544
 30
0.0
 11
167.8769657717084
 21
106.4795176177544
 31
0.0
  0
LINE
  5
5D09
330
295E
100
AcDbEntity
  8
0
 62
     3
100
AcDbLine
 10
171.6269657717084
 20
109.4795176177544
 30
0.0
 11
167.8769657717084
 21
109.4795176177544
 31
0.0
  0
LINE
  5
5D0A
330
295E
100
AcDbEntity
  8
0
 62
     3
100
AcDbLine
 10
158.6269657717084
 20
103.9795176177544
 30
0.0
 11
166.3769657717084
 21
103.9795176177544
 31
0.0
  0
ARC
  5
5D0B
330
295E
100
AcDbEntity
  8
0
 62
     3
100
AcDbCircle
 10
166.3769657717084
 20
105.4795176177544
 30
0.0
 40
1.5
100
AcDbArc
 50
270.0
 51
0.0
  0
LINE
  5
5D0C
330
295E
100
AcDbEntity
  8
0
 62
     3
100
AcDbLine
 10
158.6269657717084
 20
111.9795176177544
 30
0.0
 11
166.3769657717084
 21
111.9795176177544
 31
0.0
  0
LINE
  5
5D0D
330
295E
100
AcDbEntity
  8
0
 62
     3
100
AcDbLine
 10
158.6269657717084
 20
104.9795176177544
 30
0.0
 11
152.6269657717084
 21
104.9795176177544
 31
0.0
  0
LINE
  5
5D0E
330
295E
100
AcDbEntity
  8
0
 62
     3
100
AcDbLine
 10
158.6269657717084
 20
110.9795176177544
 30
0.0
 11
152.6269657717084
 21
110.9795176177544
 31
0.0
  0
LINE
  5
5D0F
330
295E
100
AcDbEntity
  8
0
100
AcDbLine
 10
103.9183342111815
 20
104.4295176177544
 30
0.0
 11
112.4183342111815
 21
104.4295176177544
 31
0.0
  0
LINE
  5
5D10
330
295E
100
AcDbEntity
  8
0
100
AcDbLine
 10
103.9183342111815
 20
105.1795176177545
 30
0.0
 11
112.4183342111815
 21
105.1795176177545
 31
0.0
  0
LINE
  5
5D11
330
295E
100
AcDbEntity
  8
0
100
AcDbLine
 10
103.9183342111815
 20
110.7795176177543
 30
0.0
 11
112.4183342111815
 21
110.7795176177543
 31
0.0
  0
LINE
  5
5D12
330
295E
100
AcDbEntity
  8
0
100
AcDbLine
 10
103.9183342111815
 20
111.5295176177544
 30
0.0
 11
112.4183342111815
 21
111.5295176177544
 31
0.0
  0
LINE
  5
5D13
330
295E
100
AcDbEntity
  8
0
 62
     3
100
AcDbLine
 10
129.4584740887487
 20
99.03103019249744
 30
0.0
 11
114.4584740887486
 21
98.72992046076781
 31
0.0
  0
LINE
  5
5D14
330
295E
100
AcDbEntity
  8
0
 62
     3
100
AcDbLine
 10
129.4584740887487
 20
116.9280050430114
 30
0.0
 11
114.4584740887486
 21
117.229114774741
 31
0.0
  0
ARC
  5
5D15
330
295E
100
AcDbEntity
  8
0
 62
     3
100
AcDbCircle
 10
129.4183342111812
 20
114.9284078860184
 30
0.0
 40
2.0
100
AcDbArc
 50
0.0
 51
88.84999999999001
  0
ARC
  5
5D16
330
295E
100
AcDbEntity
  8
0
 62
     3
100
AcDbCircle
 10
129.4183342111815
 20
101.0306273494904
 30
0.0
 40
2.0
100
AcDbArc
 50
271.1499999999969
 51
0.0
  0
ARC
  5
5D17
330
295E
100
AcDbEntity
  8
0
 62
     3
100
AcDbCircle
 10
114.4183342111817
 20
115.2295176177535
 30
0.0
 40
2.0
100
AcDbArc
 50
88.85000000000307
 51
179.999999999987
  0
ARC
  5
5D18
330
295E
100
AcDbEntity
  8
0
 62
     3
100
AcDbCircle
 10
114.4183342111817
 20
100.7295176177551
 30
0.0
 40
2.0
100
AcDbArc
 50
180.0
 51
271.1499999999969
  0
TEXT
  5
5D1D
330
295E
100
AcDbEntity
  8
0
 62
     3
100
AcDbText
 10
116.9571274234264
 20
102.6079569977848
 30
0.0
 40
1.25
  1
38x37x22.5
100
AcDbText
  0
LINE
  5
5D1E
330
295E
100
AcDbEntity
  8
0
 62
     3
100
AcDbLine
 10
152.6269657717084
 20
110.9795176177544
 30
0.0
 11
152.6269657717084
 21
104.9795176177544
 31
0.0
  0
LINE
  5
5D1F
330
295E
100
AcDbEntity
  8
0
100
AcDbLine
 10
155.1269657717084
 20
110.1045176177544
 30
0.0
 11
155.1269657717084
 21
108.8545176177544
 31
0.0
  0
LINE
  5
5D20
330
295E
100
AcDbEntity
  8
0
100
AcDbLine
 10
155.1269657717084
 20
107.1045176177544
 30
0.0
 11
155.1269657717084
 21
105.8545176177544
 31
0.0
  0
LINE
  5
5D21
330
295E
100
AcDbEntity
  8
0
100
AcDbLine
 10
156.1269657717084
 20
110.1045176177544
 30
0.0
 11
156.1269657717084
 21
108.8545176177544
 31
0.0
  0
LINE
  5
5D22
330
295E
100
AcDbEntity
  8
0
100
AcDbLine
 10
156.1269657717084
 20
107.1045176177544
 30
0.0
 11
156.1269657717084
 21
105.8545176177544
 31
0.0
  0
LINE
  5
5D23
330
295E
100
AcDbEntity
  8
0
 62
     3
100
AcDbLine
 10
171.6269657717084
 20
109.4795176177544
 30
0.0
 11
171.6269657717084
 21
106.4795176177544
 31
0.0
  0
LINE
  5
5D24
330
295E
100
AcDbEntity
  8
0
 62
     3
100
AcDbLine
 10
158.6269657717084
 20
103.9795176177544
 30
0.0
 11
158.6269657717084
 21
111.9795176177544
 31
0.0
  0
LINE
  5
5D25
330
295E
100
AcDbEntity
  8
0
 62
     3
100
AcDbLine
 10
167.8769657717084
 20
105.4795176177544
 30
0.0
 11
167.8769657717084
 21
110.4795176177544
 31
0.0
  0
ARC
  5
5D26
330
295E
100
AcDbEntity
  8
0
 62
     3
100
AcDbCircle
 10
166.3769657717084
 20
110.4795176177544
 30
0.0
 40
1.5
100
AcDbArc
 50
0.0
 51
90.0
  0
LINE
  5
5D27
330
295E
100
AcDbEntity
  8
0
 62
     3
100
AcDbLine
 10
303.9547405233598
 20
105.9795176177544
 30
0.0
 11
303.9547405233598
 21
109.9795176177544
 31
0.0
  0
LINE
  5
5D28
330
295E
100
AcDbEntity
  8
0
 62
     3
100
AcDbLine
 10
308.7047405233598
 20
107.1045176177544
 30
0.0
 11
308.7047405233598
 21
108.8545176177544
 31
0.0
  0
LINE
  5
5D29
330
295E
100
AcDbEntity
  8
0
100
AcDbLine
 10
308.4547405233597
 20
107.1045176177544
 30
0.0
 11
308.4547405233597
 21
108.8545176177544
 31
0.0
  0
LINE
  5
5D2A
330
295E
100
AcDbEntity
  8
0
100
AcDbLine
 10
297.9547405233597
 20
105.9795176177544
 30
0.0
 11
297.9547405233597
 21
109.9795176177544
 31
0.0
  0
LINE
  5
5D2B
330
295E
100
AcDbEntity
  8
0
100
AcDbLine
 10
295.4547405233597
 20
106.2027319034687
 30
0.0
 11
295.4547405233597
 21
107.7295176177544
 31
0.0
  0
LINE
  5
5D2C
330
295E
100
AcDbEntity
  8
0
100
AcDbLine
 10
295.4547405233597
 20
108.2295176177544
 30
0.0
 11
295.4547405233597
 21
109.7563033320401
 31
0.0
  0
LINE
  5
5D2D
330
295E
100
AcDbEntity
  8
0
100
AcDbLine
 10
294.8547405233599
 20
106.2563033320401
 30
0.0
 11
294.8547405233599
 21
107.7295176177544
 31
0.0
  0
LINE
  5
5D2E
330
295E
100
AcDbEntity
  8
0
100
AcDbLine
 10
294.8547405233599
 20
108.2295176177544
 30
0.0
 11
294.8547405233599
 21
109.7027319034687
 31
0.0
  0
LINE
  5
5D2F
330
295E
100
AcDbEntity
  8
0
100
AcDbLine
 10
294.1547405233598
 20
106.3188033320401
 30
0.0
 11
294.1547405233598
 21
107.7295176177544
 31
0.0
  0
LINE
  5
5D30
330
295E
100
AcDbEntity
  8
0
100
AcDbLine
 10
294.1547405233598
 20
108.2295176177544
 30
0.0
 11
294.1547405233598
 21
109.6402319034687
 31
0.0
  0
LINE
  5
5D31
330
295E
100
AcDbEntity
  8
0
100
AcDbLine
 10
293.5547405233599
 20
106.3723747606115
 30
0.0
 11
293.5547405233599
 21
107.7295176177544
 31
0.0
  0
LINE
  5
5D32
330
295E
100
AcDbEntity
  8
0
100
AcDbLine
 10
293.5547405233599
 20
108.2295176177544
 30
0.0
 11
293.5547405233599
 21
109.5866604748973
 31
0.0
  0
LINE
  5
5D33
330
295E
100
AcDbEntity
  8
0
 62
     3
100
AcDbLine
 10
297.9547405233597
 20
109.9795176177544
 30
0.0
 11
295.4547405233597
 21
109.7563033320401
 31
0.0
  0
LINE
  5
5D34
330
295E
100
AcDbEntity
  8
0
 62
     3
100
AcDbLine
 10
294.8547405233599
 20
109.7027319034687
 30
0.0
 11
294.1547405233598
 21
109.6402319034687
 31
0.0
  0
LINE
  5
5D35
330
295E
100
AcDbEntity
  8
0
 62
     3
100
AcDbLine
 10
293.5547405233599
 20
109.5866604748973
 30
0.0
 11
292.8547405233599
 21
109.5241604748973
 31
0.0
  0
LINE
  5
5D36
330
295E
100
AcDbEntity
  8
0
 62
     3
100
AcDbLine
 10
292.2547405233599
 20
109.4705890463258
 30
0.0
 11
290.9547405233598
 21
109.3545176177544
 31
0.0
  0
LINE
  5
5D37
330
295E
100
AcDbEntity
  8
0
 62
     3
100
AcDbLine
 10
290.9547405233598
 20
109.3545176177544
 30
0.0
 11
290.9547405233598
 21
106.6045176177544
 31
0.0
  0
LINE
  5
5D38
330
295E
100
AcDbEntity
  8
0
 62
     3
100
AcDbLine
 10
290.9547405233598
 20
106.6045176177544
 30
0.0
 11
292.2547405233599
 21
106.488446189183
 31
0.0
  0
LINE
  5
5D39
330
295E
100
AcDbEntity
  8
0
 62
     3
100
AcDbLine
 10
292.8547405233599
 20
106.4348747606115
 30
0.0
 11
293.5547405233599
 21
106.3723747606115
 31
0.0
  0
LINE
  5
5D3A
330
295E
100
AcDbEntity
  8
0
 62
     3
100
AcDbLine
 10
294.1547405233598
 20
106.3188033320401
 30
0.0
 11
294.8547405233599
 21
106.2563033320401
 31
0.0
  0
LINE
  5
5D3B
330
295E
100
AcDbEntity
  8
0
 62
     3
100
AcDbLine
 10
295.4547405233597
 20
106.2027319034686
 30
0.0
 11
297.9547405233597
 21
105.9795176177544
 31
0.0
  0
LINE
  5
5D3C
330
295E
100
AcDbEntity
  8
0
100
AcDbLine
 10
292.8547405233599
 20
106.4348747606115
 30
0.0
 11
292.8547405233599
 21
107.7295176177544
 31
0.0
  0
LINE
  5
5D3D
330
295E
100
AcDbEntity
  8
0
100
AcDbLine
 10
292.8547405233599
 20
108.2295176177544
 30
0.0
 11
292.8547405233599
 21
109.5241604748973
 31
0.0
  0
LINE
  5
5D3E
330
295E
100
AcDbEntity
  8
0
100
AcDbLine
 10
292.2547405233599
 20
106.488446189183
 30
0.0
 11
292.2547405233599
 21
107.7295176177544
 31
0.0
  0
LINE
  5
5D3F
330
295E
100
AcDbEntity
  8
0
100
AcDbLine
 10
292.2547405233599
 20
108.2295176177544
 30
0.0
 11
292.2547405233599
 21
109.4705890463258
 31
0.0
  0
LINE
  5
5D83
330
295E
100
AcDbEntity
  8
0
  6
CENTER
100
AcDbLine
 10
211.897855672922
 20
168.409436532167
 30
0.0
 11
195.9613867521307
 21
145.6498002084316
 31
0.0
  0
LINE
  5
5D84
330
295E
100
AcDbEntity
  8
0
  6
CENTER
100
AcDbLine
 10
211.897855672922
 20
168.4094365321672
 30
0.0
 11
189.1382193491871
 21
184.3459054529579
 31
0.0
  0
LINE
  5
5DDE
330
295E
100
AcDbEntity
  8
0
  6
CENTER
100
AcDbLine
 10
211.8978556729217
 20
168.4094365321667
 30
0.0
 11
184.1134699994542
 21
168.4094365321667
 31
0.0
  0
LINE
  5
5EFD
330
295E
100
AcDbEntity
  8
0
 62
     3
100
AcDbLine
 10
232.6253567512963
 20
108.8545176177545
 30
0.0
 11
290.9547405233598
 21
108.8545176177545
 31
0.0
  0
LINE
  5
5EFE
330
295E
100
AcDbEntity
  8
0
 62
     3
100
AcDbLine
 10
232.6253567512963
 20
107.1045176177545
 30
0.0
 11
290.9547405233598
 21
107.1045176177545
 31
0.0
  0
ARC
  5
5F00
330
295E
100
AcDbEntity
  8
0
100
AcDbCircle
 10
229.9477375356364
 20
108.4170176177544
 30
0.0
 40
0.6343749999999852
100
AcDbArc
 50
316.3971810272952
 51
43.60281897270664
  0
ARC
  5
5F01
330
295E
100
AcDbEntity
  8
0
100
AcDbCircle
 10
230.8664875356363
 20
108.4170176177544
 30
0.0
 40
0.6343749999999852
100
AcDbArc
 50
136.3971810272923
 51
223.6028189727045
  0
ARC
  5
5F02
330
295E
100
AcDbEntity
  8
0
100
AcDbCircle
 10
229.9477375356364
 20
107.5420176177544
 30
0.0
 40
0.6343749999999852
100
AcDbArc
 50
316.3971810272922
 51
43.60281897270446
  0
ARC
  5
5F04
330
295E
100
AcDbEntity
  8
0
100
AcDbCircle
 10
233.0847317512962
 20
107.5420176177545
 30
0.0
 40
0.6343749999999547
100
AcDbArc
 50
136.3971810272925
 51
223.6028189727075
  0
ARC
  5
5F05
330
295E
100
AcDbEntity
  8
0
100
AcDbCircle
 10
232.1659817512963
 20
107.5420176177545
 30
0.0
 40
0.6343749999999547
100
AcDbArc
 50
316.3971810272918
 51
43.60281897270815
  0
ARC
  5
5F06
330
295E
100
AcDbEntity
  8
0
100
AcDbCircle
 10
233.0847317512962
 20
108.4170176177545
 30
0.0
 40
0.6343749999999547
100
AcDbArc
 50
136.3971810272909
 51
223.6028189727079
  0
TEXT
  5
5F56
330
295E
100
AcDbEntity
  8
0
 62
     3
100
AcDbText
 10
358.8965141552679
 20
215.8676110882841
 30
0.0
 40
3.2
  1
Ra83
 41
0.8
  7
高3.2
100
AcDbText
  0
TEXT
  5
5F57
330
295E
100
AcDbEntity
  8
0
 62
     3
100
AcDbText
 10
333.5277514891099
 20
215.8676110882841
 30
0.0
 40
3.2
  1
平均演色評価数
 41
0.8
  7
高3.2
100
AcDbText
  0
LINE
  5
5F58
330
295E
100
AcDbEntity
  8
0
 62
     7
100
AcDbLine
 10
413.4704271608057
 20
220.3676110882836
 30
0.0
 11
332.0277514891099
 21
220.3676110882836
 31
0.0
  0
LINE
  5
617E
330
295E
100
AcDbEntity
  8
0
 62
     3
100
AcDbLine
 10
137.6461204048787
 20
159.0680178662755
 30
0.0
 11
137.6461204048787
 21
157.9094365321671
 31
0.0
  0
LINE
  5
617F
330
295E
100
AcDbEntity
  8
0
 62
     3
100
AcDbLine
 10
145.6461204048787
 20
159.0680178662755
 30
0.0
 11
145.6461204048787
 21
157.9094365321671
 31
0.0
  0
LINE
  5
6180
330
295E
100
AcDbEntity
  8
0
100
AcDbLine
 10
124.6461204048787
 20
169.2440586427466
 30
0.0
 11
124.6461204048787
 21
167.5748144215875
 31
0.0
  0
LINE
  5
6181
330
295E
100
AcDbEntity
  8
0
 62
     3
100
AcDbLine
 10
125.6461204048787
 20
169.2440586427466
 30
0.0
 11
125.6461204048787
 21
167.5748144215875
 31
0.0
  0
LINE
  5
6182
330
295E
100
AcDbEntity
  8
0
100
AcDbLine
 10
158.6461204048787
 20
167.5748144215875
 30
0.0
 11
158.6461204048787
 21
169.2440586427465
 31
0.0
  0
LINE
  5
6183
330
295E
100
AcDbEntity
  8
0
 62
     3
100
AcDbLine
 10
157.6461204048787
 20
167.5748144215875
 30
0.0
 11
157.6461204048787
 21
169.2440586427465
 31
0.0
  0
LINE
  5
6184
330
295E
100
AcDbEntity
  8
0
 62
     3
100
AcDbLine
 10
163.8961204048787
 20
225.1163817950797
 30
0.0
 11
163.8961204048787
 21
214.1163817950799
 31
0.0
  0
LINE
  5
6185
330
295E
100
AcDbEntity
  8
0
 62
     3
100
AcDbLine
 10
163.8961204048787
 20
173.9094365321671
 30
0.0
 11
163.8961204048787
 21
162.9094365321671
 31
0.0
  0
LINE
  5
6186
330
295E
100
AcDbEntity
  8
0
 62
     3
100
AcDbLine
 10
160.8961204048787
 20
176.3954096830398
 30
0.0
 11
160.8961204048787
 21
160.4234633812943
 31
0.0
  0
LINE
  5
6187
330
295E
100
AcDbEntity
  8
0
100
AcDbLine
 10
161.3961204048787
 20
176.8333495756453
 30
0.0
 11
161.3961204048788
 21
159.9855234886889
 31
0.0
  0
LINE
  5
6188
330
295E
100
AcDbEntity
  8
0
 62
     3
100
AcDbLine
 10
162.3961204048787
 20
176.6594365321671
 30
0.0
 11
162.3961204048787
 21
160.1594365321671
 31
0.0
  0
LINE
  5
6189
330
295E
100
AcDbEntity
  8
0
 62
     3
100
AcDbLine
 10
163.3961204048787
 20
175.1594365321668
 30
0.0
 11
163.3961204048787
 21
173.9094365321671
 31
0.0
  0
LINE
  5
618A
330
295E
100
AcDbEntity
  8
0
 62
     3
100
AcDbLine
 10
163.3961204048787
 20
162.9094365321671
 30
0.0
 11
163.3961204048787
 21
161.6594365321671
 31
0.0
  0
LINE
  5
618B
330
295E
100
AcDbEntity
  8
0
 62
     3
100
AcDbLine
 10
114.8961204048787
 20
224.2413817950797
 30
0.0
 11
114.8961204048787
 21
213.4913817950797
 31
0.0
  0
LINE
  5
618C
330
295E
100
AcDbEntity
  8
0
 62
     3
100
AcDbLine
 10
114.8961204048787
 20
173.8478167265622
 30
0.0
 11
114.8961204048787
 21
162.9710563377716
 31
0.0
  0
LINE
  5
618D
330
295E
100
AcDbEntity
  8
0
 62
     3
100
AcDbLine
 10
162.3961204048787
 20
213.8663817950797
 30
0.0
 11
161.3961204048788
 21
213.8663817950797
 31
0.0
  0
LINE
  5
618E
330
295E
100
AcDbEntity
  8
0
 62
     3
100
AcDbLine
 10
163.8961204048787
 20
214.1163817950797
 30
0.0
 11
162.3961204048787
 21
214.1163817950797
 31
0.0
  0
LINE
  5
618F
330
295E
100
AcDbEntity
  8
0
 62
     3
100
AcDbLine
 10
163.8961204048787
 20
225.1163817950797
 30
0.0
 11
163.3961204048787
 21
225.1163817950797
 31
0.0
  0
LINE
  5
6190
330
295E
100
AcDbEntity
  8
0
 62
     3
100
AcDbLine
 10
302.8351036382214
 20
160.9094365321671
 30
0.0
 11
265.4494850599679
 21
160.9094365321671
 31
0.0
  0
LINE
  5
6191
330
295E
100
AcDbEntity
  8
0
 62
     3
100
AcDbLine
 10
257.9018660123484
 20
160.9094365321671
 30
0.0
 11
223.3351036382214
 21
160.9094365321671
 31
0.0
  0
LINE
  5
6192
330
295E
100
AcDbEntity
  8
0
 62
     3
100
AcDbLine
 10
302.8351036382214
 20
175.9094365321671
 30
0.0
 11
264.7351993456823
 21
175.9094365321671
 31
0.0
  0
LINE
  5
6193
330
295E
100
AcDbEntity
  8
0
 62
     3
100
AcDbLine
 10
258.6161517266341
 20
175.9094365321671
 30
0.0
 11
223.3351036382214
 21
175.9094365321671
 31
0.0
  0
LINE
  5
6194
330
295E
100
AcDbEntity
  8
0
 62
     3
100
AcDbLine
 10
264.6756755361582
 20
177.159436532167
 30
0.0
 11
258.675675536158
 21
177.1594365321671
 31
0.0
  0
LINE
  5
6195
330
295E
100
AcDbEntity
  8
0
 62
     3
100
AcDbLine
 10
265.5090088694917
 20
159.6594365321671
 30
0.0
 11
257.8423422028247
 21
159.6594365321671
 31
0.0
  0
LINE
  5
6196
330
295E
100
AcDbEntity
  8
0
 62
     3
100
AcDbLine
 10
265.2351993456822
 20
165.4094365321671
 30
0.0
 11
258.1161517266342
 21
165.4094365321671
 31
0.0
  0
LINE
  5
6197
330
295E
100
AcDbEntity
  8
0
 62
     3
100
AcDbLine
 10
265.9256755361584
 20
150.9094365321671
 30
0.0
 11
257.425675536158
 21
150.9094365321671
 31
0.0
  0
LINE
  5
6198
330
295E
100
AcDbEntity
  8
0
100
AcDbLine
 10
148.5248000613192
 20
176.4094365321671
 30
0.0
 11
134.7674407484383
 21
176.4094365321671
 31
0.0
  0
LINE
  5
6199
330
295E
100
AcDbEntity
  8
0
 62
     3
100
AcDbLine
 10
148.5248000613192
 20
175.4094365321671
 30
0.0
 11
134.7674407484383
 21
175.4094365321671
 31
0.0
  0
LINE
  5
619A
330
295E
100
AcDbEntity
  8
0
 62
     3
100
AcDbLine
 10
153.6461204048787
 20
158.4094365321671
 30
0.0
 11
145.6461204048787
 21
158.4094365321671
 31
0.0
  0
LINE
  5
619B
330
295E
100
AcDbEntity
  8
0
 62
     3
100
AcDbLine
 10
137.6461204048787
 20
158.4094365321671
 30
0.0
 11
129.6461204048787
 21
158.4094365321671
 31
0.0
  0
LINE
  5
619C
330
295E
100
AcDbEntity
  8
0
 62
     3
100
AcDbLine
 10
129.6461204048787
 20
178.4094365321671
 30
0.0
 11
153.6461204048787
 21
178.4094365321671
 31
0.0
  0
LINE
  5
619D
330
295E
100
AcDbEntity
  8
0
 62
     3
100
AcDbLine
 10
162.3961204048788
 20
162.9094365321671
 30
0.0
 11
163.8961204048787
 21
162.9094365321671
 31
0.0
  0
LINE
  5
619E
330
295E
100
AcDbEntity
  8
0
 62
     3
100
AcDbLine
 10
162.3961204048788
 20
173.9094365321671
 30
0.0
 11
163.8961204048787
 21
173.9094365321671
 31
0.0
  0
LINE
  5
619F
330
295E
100
AcDbEntity
  8
0
 62
     3
100
AcDbLine
 10
163.3961204048787
 20
161.6594365321671
 30
0.0
 11
162.3961204048787
 21
160.1594365321671
 31
0.0
  0
LINE
  5
61A0
330
295E
100
AcDbEntity
  8
0
 62
     3
100
AcDbLine
 10
163.3961204048787
 20
175.1594365321671
 30
0.0
 11
162.3961204048787
 21
176.6594365321671
 31
0.0
  0
LINE
  5
61A1
330
295E
100
AcDbEntity
  8
0
 62
     3
100
AcDbLine
 10
139.6461204048787
 20
228.3663817950797
 30
0.0
 11
139.6461204048787
 21
229.6517389390648
 31
0.0
  0
LINE
  5
61A2
330
295E
100
AcDbEntity
  8
0
 62
     3
100
AcDbLine
 10
143.6461204048787
 20
228.3663817950797
 30
0.0
 11
143.6461204048787
 21
229.6517389390648
 31
0.0
  0
LINE
  5
61A3
330
295E
100
AcDbEntity
  8
0
 62
     3
100
AcDbLine
 10
141.0211204048787
 20
232.1199932407735
 30
0.0
 11
141.0211204048787
 21
229.6198336676756
 31
0.0
  0
LINE
  5
61A4
330
295E
100
AcDbEntity
  8
0
 62
     3
100
AcDbLine
 10
142.2711204048787
 20
232.1199932407735
 30
0.0
 11
142.2711204048787
 21
229.6198336676756
 31
0.0
  0
LINE
  5
61A5
330
295E
100
AcDbEntity
  8
0
 62
     3
100
AcDbLine
 10
122.8961204048787
 20
174.6594365321671
 30
0.0
 11
122.8961204048787
 21
162.1594365321671
 31
0.0
  0
LINE
  5
61A6
330
295E
100
AcDbEntity
  8
0
 62
     3
100
AcDbLine
 10
160.3961204048787
 20
162.1594365321671
 30
0.0
 11
160.3961204048787
 21
174.6594365321671
 31
0.0
  0
LINE
  5
61A7
330
295E
100
AcDbEntity
  8
0
 62
     3
100
AcDbLine
 10
162.3961204048787
 20
176.6594365321671
 30
0.0
 11
158.5781204048784
 21
177.323436532167
 31
0.0
  0
LINE
  5
61A8
330
295E
100
AcDbEntity
  8
0
 62
     3
100
AcDbLine
 10
162.3961204048787
 20
160.1594365321671
 30
0.0
 11
158.5781204048787
 21
159.4954365321671
 31
0.0
  0
LINE
  5
61A9
330
295E
100
AcDbEntity
  8
0
 62
     3
100
AcDbLine
 10
119.3961204048787
 20
173.9094365321671
 30
0.0
 11
119.3961204048787
 21
162.9094365321671
 31
0.0
  0
LINE
  5
61AA
330
295E
100
AcDbEntity
  8
0
100
AcDbLine
 10
115.8961204048787
 20
173.5344365321671
 30
0.0
 11
115.8961204048787
 21
170.6265112972381
 31
0.0
  0
LINE
  5
61AB
330
295E
100
AcDbEntity
  8
0
100
AcDbLine
 10
115.8961204048787
 20
166.1923617670849
 30
0.0
 11
115.8961204048787
 21
163.2844365321671
 31
0.0
  0
LINE
  5
61AC
330
295E
100
AcDbEntity
  8
0
 62
     3
100
AcDbLine
 10
122.3961204048787
 20
176.3954096830398
 30
0.0
 11
122.3961204048787
 21
160.4234633812943
 31
0.0
  0
LINE
  5
61AD
330
295E
100
AcDbEntity
  8
0
100
AcDbLine
 10
121.8961204048787
 20
176.8333495756453
 30
0.0
 11
121.8961204048788
 21
159.9855234886889
 31
0.0
  0
LINE
  5
61AE
330
295E
100
AcDbEntity
  8
0
 62
     3
100
AcDbLine
 10
120.8961204048787
 20
176.6594365321671
 30
0.0
 11
120.8961204048787
 21
160.1594365321671
 31
0.0
  0
LINE
  5
61AF
330
295E
100
AcDbEntity
  8
0
 62
     3
100
AcDbLine
 10
119.8961204048787
 20
175.1594365321668
 30
0.0
 11
119.8961204048787
 21
173.9094365321671
 31
0.0
  0
LINE
  5
61B0
330
295E
100
AcDbEntity
  8
0
 62
     3
100
AcDbLine
 10
119.8961204048787
 20
162.9094365321671
 30
0.0
 11
119.8961204048787
 21
161.6594365321671
 31
0.0
  0
LINE
  5
61B1
330
295E
100
AcDbEntity
  8
0
 62
     3
100
AcDbLine
 10
120.8961204048786
 20
162.9094365321671
 30
0.0
 11
119.3961204048787
 21
162.9094365321671
 31
0.0
  0
LINE
  5
61B2
330
295E
100
AcDbEntity
  8
0
 62
     3
100
AcDbLine
 10
120.8961204048786
 20
173.9094365321671
 30
0.0
 11
119.3961204048787
 21
173.9094365321671
 31
0.0
  0
LINE
  5
61B3
330
295E
100
AcDbEntity
  8
0
 62
     3
100
AcDbLine
 10
119.8961204048787
 20
161.6594365321671
 30
0.0
 11
120.8961204048787
 21
160.1594365321671
 31
0.0
  0
LINE
  5
61B4
330
295E
100
AcDbEntity
  8
0
 62
     3
100
AcDbLine
 10
119.8961204048787
 20
175.1594365321671
 30
0.0
 11
120.8961204048787
 21
176.6594365321671
 31
0.0
  0
LINE
  5
61B5
330
295E
100
AcDbEntity
  8
0
 62
     3
100
AcDbLine
 10
120.8961204048787
 20
176.6594365321671
 30
0.0
 11
124.7141204048787
 21
177.3234365321671
 31
0.0
  0
LINE
  5
61B6
330
295E
100
AcDbEntity
  8
0
 62
     3
100
AcDbLine
 10
120.8961204048787
 20
160.1594365321671
 30
0.0
 11
124.7141204048784
 21
159.495436532167
 31
0.0
  0
ARC
  5
61B7
330
295E
100
AcDbEntity
  8
0
 62
     3
100
AcDbCircle
 10
141.6461204048787
 20
286.1997151284141
 30
0.0
 40
52.83333333333438
100
AcDbArc
 50
256.3144531747374
 51
283.6855468252626
  0
ARC
  5
61B8
330
295E
100
AcDbEntity
  8
0
 62
     3
100
AcDbCircle
 10
141.6461204048787
 20
286.1997151284141
 30
0.0
 40
54.08333333333438
100
AcDbArc
 50
255.6860874678916
 51
284.3139125321067
  0
ARC
  5
61B9
330
295E
100
AcDbEntity
  8
0
 62
     3
100
AcDbCircle
 10
141.6461204048787
 20
286.1997151284141
 30
0.0
 40
55.08333333333435
100
AcDbArc
 50
255.6860874678916
 51
269.349882651534
  0
ARC
  5
61BA
330
295E
100
AcDbEntity
  8
0
 62
     3
100
AcDbCircle
 10
141.6461204048787
 20
286.1997151284141
 30
0.0
 40
55.08333333333435
100
AcDbArc
 50
270.650117348466
 51
284.3139125321067
  0
ARC
  5
61BB
330
295E
100
AcDbEntity
  8
0
 62
     3
100
AcDbCircle
 10
141.6461204048787
 20
286.1997151284141
 30
0.0
 40
55.58333333333436
100
AcDbArc
 50
269.3557310312137
 51
270.6442689687863
  0
ARC
  5
61BC
330
295E
100
AcDbEntity
  8
0
100
AcDbCircle
 10
141.6461204048787
 20
286.1997151284141
 30
0.0
 40
56.08333333333437
100
AcDbArc
 50
255.6860874678916
 51
269.3614751241899
  0
ARC
  5
61BD
330
295E
100
AcDbEntity
  8
0
100
AcDbCircle
 10
141.6461204048787
 20
286.1997151284141
 30
0.0
 40
56.08333333333437
100
AcDbArc
 50
270.6385248758101
 51
284.3139125321067
  0
ARC
  5
61BE
330
295E
100
AcDbEntity
  8
0
 62
     3
100
AcDbCircle
 10
141.6461204048787
 20
286.1997151284141
 30
0.0
 40
56.58333333333438
100
AcDbArc
 50
255.6860874678916
 51
269.3671176952912
  0
ARC
  5
61BF
330
295E
100
AcDbEntity
  8
0
 62
     3
100
AcDbCircle
 10
141.6461204048787
 20
286.1997151284141
 30
0.0
 40
56.58333333333438
100
AcDbArc
 50
270.6328823047088
 51
284.3139125321067
  0
LINE
  5
61C0
330
295E
100
AcDbEntity
  8
0
 62
     3
100
AcDbLine
 10
160.8961204048787
 20
160.4234633812943
 30
0.0
 11
159.4473488670335
 21
160.171503113843
 31
0.0
  0
LINE
  5
61C1
330
295E
100
AcDbEntity
  8
0
 62
     3
100
AcDbLine
 10
160.8961204048787
 20
176.3954096830398
 30
0.0
 11
159.4473488670337
 21
176.6473699504911
 31
0.0
  0
LINE
  5
61C2
330
295E
100
AcDbEntity
  8
0
 62
     3
100
AcDbLine
 10
122.3961204048787
 20
176.3954096830398
 30
0.0
 11
123.844891942724
 21
176.6473699504911
 31
0.0
  0
LINE
  5
61C3
330
295E
100
AcDbEntity
  8
0
 62
     3
100
AcDbLine
 10
122.3961204048787
 20
160.4234633812943
 30
0.0
 11
123.8448919427241
 21
160.1715031138429
 31
0.0
  0
LINE
  5
61C4
330
295E
100
AcDbEntity
  8
0
 62
     3
100
AcDbLine
 10
162.3961204048787
 20
213.8663817950797
 30
0.0
 11
162.3961204048787
 21
226.684396677947
 31
0.0
  0
LINE
  5
61C5
330
295E
100
AcDbEntity
  8
0
 62
     3
100
AcDbLine
 10
163.3961204048787
 20
225.1163817950797
 30
0.0
 11
163.3961204048787
 21
226.684396677947
 31
0.0
  0
LINE
  5
61C6
330
295E
100
AcDbEntity
  8
0
100
AcDbLine
 10
161.3961204048788
 20
213.8663817950797
 30
0.0
 11
161.3961204048788
 21
226.6843966779468
 31
0.0
  0
LINE
  5
61C7
330
295E
100
AcDbEntity
  8
0
 62
     3
100
AcDbLine
 10
160.8961204048787
 20
214.3663817950799
 30
0.0
 11
160.8961204048787
 21
226.684396677947
 31
0.0
  0
LINE
  5
61C8
330
295E
100
AcDbEntity
  8
0
 62
     3
100
AcDbLine
 10
160.8961204048787
 20
214.3663817950799
 30
0.0
 11
161.3961204048788
 21
213.8663817950797
 31
0.0
  0
LINE
  5
61C9
330
295E
100
AcDbEntity
  8
0
 62
     3
100
AcDbLine
 10
163.3961204048787
 20
225.1163817950797
 30
0.0
 11
162.3961204048787
 21
219.6163817950798
 31
0.0
  0
LINE
  5
61CA
330
295E
100
AcDbEntity
  8
0
 62
     3
100
AcDbLine
 10
157.6620187783508
 20
230.7206340273092
 30
0.0
 11
160.779142626438
 21
227.0057904827902
 31
0.0
  0
LINE
  5
61CB
330
295E
100
AcDbEntity
  8
0
100
AcDbLine
 10
158.0450409999103
 20
231.0420278321525
 30
0.0
 11
161.1621648479976
 21
227.3271842876332
 31
0.0
  0
LINE
  5
61CC
330
295E
100
AcDbEntity
  8
0
 62
     3
100
AcDbLine
 10
158.8110854430292
 20
231.6848154418391
 30
0.0
 11
161.9282092911165
 21
227.9699718973201
 31
0.0
  0
LINE
  5
61CD
330
295E
100
AcDbEntity
  8
0
 62
     3
100
AcDbLine
 10
159.5771298861482
 20
232.3276030515257
 30
0.0
 11
162.6942537342354
 21
228.6127595070067
 31
0.0
  0
ARC
  5
61CE
330
295E
100
AcDbEntity
  8
0
 62
     3
100
AcDbCircle
 10
156.1299298921134
 20
229.4350588079367
 30
0.0
 40
2.0
100
AcDbArc
 50
39.99999999999552
 51
104.3139125321336
  0
ARC
  5
61CF
330
295E
100
AcDbEntity
  8
0
100
AcDbCircle
 10
156.1299298921136
 20
229.4350588079364
 30
0.0
 40
2.5
100
AcDbArc
 50
40.00000000000385
 51
104.3139125321178
  0
ARC
  5
61D0
330
295E
100
AcDbEntity
  8
0
 62
     3
100
AcDbCircle
 10
156.1299298921141
 20
229.4350588079377
 30
0.0
 40
3.5
100
AcDbArc
 50
39.99999999999158
 51
104.3139125321178
  0
ARC
  5
61D1
330
295E
100
AcDbEntity
  8
0
 62
     3
100
AcDbCircle
 10
156.1299298921141
 20
229.4350588079377
 30
0.0
 40
4.5
100
AcDbArc
 50
39.99999999999552
 51
104.3139125321178
  0
LINE
  5
61D2
330
295E
100
AcDbEntity
  8
0
 62
     3
100
AcDbLine
 10
154.1461204048787
 20
234.8663817950797
 30
0.0
 11
154.4418617297998
 21
233.6518707540703
 31
0.0
  0
ARC
  5
61D3
330
295E
100
AcDbEntity
  8
0
 62
     3
100
AcDbCircle
 10
160.3961204048794
 20
226.6843966779472
 30
0.0
 40
0.5
100
AcDbArc
 50
359.999999999974
 51
40.00000000003371
  0
ARC
  5
61D4
330
295E
100
AcDbEntity
  8
0
100
AcDbCircle
 10
160.3961204048784
 20
226.6843966779467
 30
0.0
 40
1.0
100
AcDbArc
 50
0.0000000000065138
 51
39.99999999999158
  0
ARC
  5
61D5
330
295E
100
AcDbEntity
  8
0
 62
     3
100
AcDbCircle
 10
160.3961204048772
 20
226.6843966779465
 30
0.0
 40
2.0
100
AcDbArc
 50
0.0000000000130276
 51
39.99999999998279
  0
ARC
  5
61D6
330
295E
100
AcDbEntity
  8
0
 62
     3
100
AcDbCircle
 10
160.3961204048792
 20
226.6843966779469
 30
0.0
 40
3.0
100
AcDbArc
 50
0.0
 51
40.0000000000166
  0
LINE
  5
61D7
330
295E
100
AcDbEntity
  8
0
 62
     3
100
AcDbLine
 10
119.3961204048787
 20
225.1163817950797
 30
0.0
 11
119.3961204048787
 21
213.4913817950797
 31
0.0
  0
LINE
  5
61D8
330
295E
100
AcDbEntity
  8
0
 62
     3
100
AcDbLine
 10
120.8961204048787
 20
213.8663817950797
 30
0.0
 11
121.8961204048786
 21
213.8663817950797
 31
0.0
  0
LINE
  5
61D9
330
295E
100
AcDbEntity
  8
0
 62
     3
100
AcDbLine
 10
119.3961204048787
 20
214.1163817950797
 30
0.0
 11
120.8961204048787
 21
214.1163817950797
 31
0.0
  0
LINE
  5
61DA
330
295E
100
AcDbEntity
  8
0
 62
     3
100
AcDbLine
 10
119.3961204048787
 20
225.1163817950797
 30
0.0
 11
119.8961204048787
 21
225.1163817950797
 31
0.0
  0
LINE
  5
61DB
330
295E
100
AcDbEntity
  8
0
 62
     3
100
AcDbLine
 10
120.8961204048787
 20
213.8663817950797
 30
0.0
 11
120.8961204048787
 21
226.684396677947
 31
0.0
  0
LINE
  5
61DC
330
295E
100
AcDbEntity
  8
0
 62
     3
100
AcDbLine
 10
119.8961204048787
 20
225.1163817950797
 30
0.0
 11
119.8961204048787
 21
226.684396677947
 31
0.0
  0
LINE
  5
61DD
330
295E
100
AcDbEntity
  8
0
100
AcDbLine
 10
121.8961204048786
 20
213.8663817950797
 30
0.0
 11
121.8961204048786
 21
226.6843966779468
 31
0.0
  0
LINE
  5
61DE
330
295E
100
AcDbEntity
  8
0
 62
     3
100
AcDbLine
 10
122.3961204048787
 20
214.3663817950799
 30
0.0
 11
122.3961204048787
 21
226.684396677947
 31
0.0
  0
LINE
  5
61DF
330
295E
100
AcDbEntity
  8
0
 62
     3
100
AcDbLine
 10
122.3961204048787
 20
214.3663817950799
 30
0.0
 11
121.8961204048786
 21
213.8663817950797
 31
0.0
  0
LINE
  5
61E0
330
295E
100
AcDbEntity
  8
0
 62
     3
100
AcDbLine
 10
119.8961204048787
 20
225.1163817950797
 30
0.0
 11
120.8961204048787
 21
219.6163817950798
 31
0.0
  0
LINE
  5
61E1
330
295E
100
AcDbEntity
  8
0
 62
     3
100
AcDbLine
 10
125.6302220314067
 20
230.7206340273092
 30
0.0
 11
122.5130981833195
 21
227.0057904827902
 31
0.0
  0
LINE
  5
61E2
330
295E
100
AcDbEntity
  8
0
100
AcDbLine
 10
125.2471998098472
 20
231.0420278321525
 30
0.0
 11
122.1300759617598
 21
227.3271842876332
 31
0.0
  0
LINE
  5
61E3
330
295E
100
AcDbEntity
  8
0
 62
     3
100
AcDbLine
 10
124.4811553667282
 20
231.6848154418391
 30
0.0
 11
121.364031518641
 21
227.9699718973201
 31
0.0
  0
LINE
  5
61E4
330
295E
100
AcDbEntity
  8
0
 62
     3
100
AcDbLine
 10
123.7151109236092
 20
232.3276030515257
 30
0.0
 11
120.597987075522
 21
228.6127595070067
 31
0.0
  0
ARC
  5
61E5
330
295E
100
AcDbEntity
  8
0
 62
     3
100
AcDbCircle
 10
127.162310917644
 20
229.4350588079367
 30
0.0
 40
2.0
100
AcDbArc
 50
75.6860874678664
 51
140.0000000000044
  0
ARC
  5
61E6
330
295E
100
AcDbEntity
  8
0
100
AcDbCircle
 10
127.1623109176438
 20
229.4350588079364
 30
0.0
 40
2.5
100
AcDbArc
 50
75.6860874678664
 51
139.9999999999961
  0
ARC
  5
61E7
330
295E
100
AcDbEntity
  8
0
 62
     3
100
AcDbCircle
 10
127.1623109176434
 20
229.4350588079377
 30
0.0
 40
3.5
100
AcDbArc
 50
75.6860874678664
 51
140.0000000000044
  0
ARC
  5
61E8
330
295E
100
AcDbEntity
  8
0
 62
     3
100
AcDbCircle
 10
127.1623109176434
 20
229.4350588079377
 30
0.0
 40
4.5
100
AcDbArc
 50
75.68608746789327
 51
140.0000000000044
  0
ARC
  5
61E9
330
295E
100
AcDbEntity
  8
0
 62
     3
100
AcDbCircle
 10
122.896120404878
 20
226.6843966779472
 30
0.0
 40
0.5
100
AcDbArc
 50
139.9999999999619
 51
180.000000000026
  0
ARC
  5
61EA
330
295E
100
AcDbEntity
  8
0
100
AcDbCircle
 10
122.8961204048791
 20
226.6843966779467
 30
0.0
 40
1.0
100
AcDbArc
 50
140.0000000000044
 51
179.9999999999935
  0
ARC
  5
61EB
330
295E
100
AcDbEntity
  8
0
 62
     3
100
AcDbCircle
 10
122.8961204048802
 20
226.6843966779465
 30
0.0
 40
2.0
100
AcDbArc
 50
140.0000000000044
 51
179.9999999999804
  0
ARC
  5
61EC
330
295E
100
AcDbEntity
  8
0
 62
     3
100
AcDbCircle
 10
122.8961204048783
 20
226.6843966779469
 30
0.0
 40
3.0
100
AcDbArc
 50
139.9999999999961
 51
179.9999999999935
  0
LINE
  5
61ED
330
295E
100
AcDbEntity
  8
0
 62
     3
100
AcDbLine
 10
129.1461204048787
 20
234.8663817950797
 30
0.0
 11
128.8503790799576
 21
233.6518707540703
 31
0.0
  0
LINE
  5
61EE
330
295E
100
AcDbEntity
  8
0
 62
     3
100
AcDbLine
 10
160.3961204048787
 20
224.8663817950797
 30
0.0
 11
160.1461204048787
 21
212.8663817950797
 31
0.0
  0
LINE
  5
61EF
330
295E
100
AcDbEntity
  8
0
 62
     3
100
AcDbLine
 10
122.8961204048787
 20
224.8663817950797
 30
0.0
 11
123.1461204048787
 21
212.8663817950797
 31
0.0
  0
LINE
  5
61F0
330
295E
100
AcDbEntity
  8
0
 62
     3
100
AcDbLine
 10
119.3961204048787
 20
173.8478167265622
 30
0.0
 11
114.8961204048787
 21
173.8478167265622
 31
0.0
  0
LINE
  5
61F1
330
295E
100
AcDbEntity
  8
0
 62
     3
100
AcDbLine
 10
119.3961204048787
 20
162.9710563377716
 30
0.0
 11
114.8961204048787
 21
162.9710563377716
 31
0.0
  0
LINE
  5
61F2
330
295E
100
AcDbEntity
  8
0
100
AcDbLine
 10
119.3961204048787
 20
173.5344365321671
 30
0.0
 11
115.8961204048787
 21
173.5344365321671
 31
0.0
  0
LINE
  5
61F3
330
295E
100
AcDbEntity
  8
0
100
AcDbLine
 10
119.3961204048787
 20
163.2844365321671
 30
0.0
 11
115.8961204048787
 21
163.2844365321671
 31
0.0
  0
LINE
  5
61F4
330
295E
100
AcDbEntity
  8
0
100
AcDbLine
 10
119.3961204048787
 20
170.6265112972381
 30
0.0
 11
115.8961204048787
 21
170.6265112972381
 31
0.0
  0
LINE
  5
61F5
330
295E
100
AcDbEntity
  8
0
100
AcDbLine
 10
119.3961204048787
 20
166.1923617670849
 30
0.0
 11
115.8961204048787
 21
166.1923617670849
 31
0.0
  0
LINE
  5
61F6
330
295E
100
AcDbEntity
  8
0
100
AcDbLine
 10
119.3961204048787
 20
214.9957536466474
 30
0.0
 11
115.8961204048787
 21
214.9957536466474
 31
0.0
  0
LINE
  5
61F7
330
295E
100
AcDbEntity
  8
0
100
AcDbLine
 10
119.3961204048787
 20
220.0066528006551
 30
0.0
 11
115.8961204048787
 21
220.0066528006551
 31
0.0
  0
LINE
  5
61F8
330
295E
100
AcDbEntity
  8
0
100
AcDbLine
 10
119.3961204048787
 20
223.8467389379367
 30
0.0
 11
115.8961204048787
 21
223.8467389379367
 31
0.0
  0
LINE
  5
61F9
330
295E
100
AcDbEntity
  8
0
100
AcDbLine
 10
119.3961204048787
 20
224.7413817950798
 30
0.0
 11
115.8961204048787
 21
224.7413817950798
 31
0.0
  0
LINE
  5
61FA
330
295E
100
AcDbEntity
  8
0
100
AcDbLine
 10
115.8961204048787
 20
214.9957536466474
 30
0.0
 11
115.8961204048787
 21
220.0066528006551
 31
0.0
  0
LINE
  5
61FB
330
295E
100
AcDbEntity
  8
0
100
AcDbLine
 10
115.8961204048787
 20
223.8467389379367
 30
0.0
 11
115.8961204048787
 21
224.7413817950798
 31
0.0
  0
LINE
  5
61FC
330
295E
100
AcDbEntity
  8
0
 62
     3
100
AcDbLine
 10
115.8961204048787
 20
224.2413817950797
 30
0.0
 11
114.8961204048787
 21
224.2413817950797
 31
0.0
  0
LINE
  5
61FD
330
295E
100
AcDbEntity
  8
0
 62
     3
100
AcDbLine
 10
114.8961204048787
 20
213.4913817950797
 30
0.0
 11
119.3961204048787
 21
213.4913817950797
 31
0.0
  0
ELLIPSE
  5
61FE
330
295E
100
AcDbEntity
  8
0
 62
     3
100
AcDbEllipse
 10
153.6461204048787
 20
174.6594365321671
 30
0.0
 11
6.749999999999886
 21
0.0
 31
0.0
210
0.0
220
0.0
230
1.0
 40
0.555555555555565
 41
0.0
 42
1.570796326794896
  0
ELLIPSE
  5
61FF
330
295E
100
AcDbEntity
  8
0
 62
     3
100
AcDbEllipse
 10
129.6461204048787
 20
174.6594365321671
 30
0.0
 11
-6.75
 21
0.0
 31
0.0
210
0.0
220
0.0
230
1.0
 40
0.5555555555555556
 41
4.712388980384688
 42
6.283185307179584
  0
ELLIPSE
  5
6200
330
295E
100
AcDbEntity
  8
0
 62
     3
100
AcDbEllipse
 10
153.6461204048787
 20
162.1594365321671
 30
0.0
 11
6.749999999999886
 21
0.0
 31
0.0
210
0.0
220
0.0
230
1.0
 40
0.555555555555565
 41
4.712388980384688
 42
6.283185307179584
  0
ELLIPSE
  5
6201
330
295E
100
AcDbEntity
  8
0
 62
     3
100
AcDbEllipse
 10
129.6461204048787
 20
162.1594365321671
 30
0.0
 11
-6.75
 21
0.0
 31
0.0
210
0.0
220
0.0
230
1.0
 40
0.5555555555555556
 41
0.0
 42
1.570796326794896
  0
LINE
  5
6202
330
295E
100
AcDbEntity
  8
0
100
AcDbLine
 10
133.7067805766585
 20
175.9700967039468
 30
0.0
 11
131.5484314676186
 21
173.8117475949069
 31
0.0
  0
LINE
  5
6203
330
295E
100
AcDbEntity
  8
0
 62
     3
100
AcDbLine
 10
134.4138873578451
 20
175.2629899227603
 30
0.0
 11
132.2555382488052
 21
173.1046408137204
 31
0.0
  0
ARC
  5
6204
330
295E
100
AcDbEntity
  8
0
100
AcDbCircle
 10
134.7674407484383
 20
174.9094365321671
 30
0.0
 40
1.5
100
AcDbArc
 50
90.0
 51
134.9999999999951
  0
ARC
  5
6205
330
295E
100
AcDbEntity
  8
0
 62
     3
100
AcDbCircle
 10
134.7674407484383
 20
174.9094365321671
 30
0.0
 40
0.5
100
AcDbArc
 50
90.0
 51
134.9999999999951
  0
LINE
  5
6206
330
295E
100
AcDbEntity
  8
0
100
AcDbLine
 10
149.585460233099
 20
175.9700967039468
 30
0.0
 11
151.7438093421389
 21
173.8117475949068
 31
0.0
  0
LINE
  5
6207
330
295E
100
AcDbEntity
  8
0
 62
     3
100
AcDbLine
 10
148.8783534519124
 20
175.2629899227603
 30
0.0
 11
151.0367025609523
 21
173.1046408137203
 31
0.0
  0
ARC
  5
6208
330
295E
100
AcDbEntity
  8
0
100
AcDbCircle
 10
148.5248000613192
 20
174.9094365321671
 30
0.0
 40
1.5
100
AcDbArc
 50
45.00000000000482
 51
90.0
  0
ARC
  5
6209
330
295E
100
AcDbEntity
  8
0
 62
     3
100
AcDbCircle
 10
148.5248000613192
 20
174.9094365321671
 30
0.0
 40
0.5
100
AcDbArc
 50
45.00000000000482
 51
90.0
  0
LINE
  5
620A
330
295E
100
AcDbEntity
  8
0
 62
     3
100
AcDbLine
 10
137.6461204048787
 20
157.9094365321671
 30
0.0
 11
145.6461204048787
 21
157.9094365321671
 31
0.0
  0
LINE
  5
620B
330
295E
100
AcDbEntity
  8
0
 62
     3
100
AcDbLine
 10
145.1461204048787
 20
159.5680178662755
 30
0.0
 11
138.1461204048787
 21
159.5680178662755
 31
0.0
  0
LINE
  5
620C
330
295E
100
AcDbEntity
  8
0
 62
     3
100
AcDbLine
 10
145.1461204048787
 20
159.015421779719
 30
0.0
 11
138.1461204048787
 21
159.015421779719
 31
0.0
  0
ARC
  5
620D
330
295E
100
AcDbEntity
  8
0
 62
     3
100
AcDbCircle
 10
145.1461204048787
 20
158.5154217797189
 30
0.0
 40
0.5
100
AcDbArc
 50
0.0000000000130276
 51
90.0
  0
ARC
  5
620E
330
295E
100
AcDbEntity
  8
0
 62
     3
100
AcDbCircle
 10
145.1461204048787
 20
159.0680178662753
 30
0.0
 40
0.5
100
AcDbArc
 50
0.0000000000195413
 51
90.0
  0
ARC
  5
620F
330
295E
100
AcDbEntity
  8
0
 62
     3
100
AcDbCircle
 10
138.1461204048787
 20
158.5154217797189
 30
0.0
 40
0.5
100
AcDbArc
 50
90.0
 51
179.999999999987
  0
ARC
  5
6210
330
295E
100
AcDbEntity
  8
0
 62
     3
100
AcDbCircle
 10
138.1461204048789
 20
159.0680178662753
 30
0.0
 40
0.5
100
AcDbArc
 50
90.000000000013
 51
179.9999999999804
  0
LINE
  5
6211
330
295E
100
AcDbEntity
  8
0
100
AcDbLine
 10
147.3961204048787
 20
165.9094365321671
 30
0.0
 11
135.8961204048787
 21
165.9094365321671
 31
0.0
  0
LINE
  5
6212
330
295E
100
AcDbEntity
  8
0
100
AcDbLine
 10
147.3961204048787
 20
166.6594365321671
 30
0.0
 11
135.8961204048787
 21
166.6594365321671
 31
0.0
  0
LINE
  5
6213
330
295E
100
AcDbEntity
  8
0
100
AcDbLine
 10
147.3961204048787
 20
170.9094365321671
 30
0.0
 11
135.8961204048787
 21
170.9094365321671
 31
0.0
  0
LINE
  5
6214
330
295E
100
AcDbEntity
  8
0
100
AcDbLine
 10
147.3961204048787
 20
170.1594365321671
 30
0.0
 11
135.8961204048787
 21
170.1594365321671
 31
0.0
  0
LINE
  5
6215
330
295E
100
AcDbEntity
  8
0
100
AcDbLine
 10
134.3961204048787
 20
169.4094365321671
 30
0.0
 11
134.3961204048787
 21
167.4094365321671
 31
0.0
  0
LINE
  5
6216
330
295E
100
AcDbEntity
  8
0
100
AcDbLine
 10
135.1461204048787
 20
169.4094365321671
 30
0.0
 11
135.1461204048787
 21
167.4094365321671
 31
0.0
  0
LINE
  5
6217
330
295E
100
AcDbEntity
  8
0
100
AcDbLine
 10
148.8961204048787
 20
169.4094365321671
 30
0.0
 11
148.8961204048787
 21
167.4094365321671
 31
0.0
  0
LINE
  5
6218
330
295E
100
AcDbEntity
  8
0
100
AcDbLine
 10
148.1461204048787
 20
169.4094365321671
 30
0.0
 11
148.1461204048787
 21
167.4094365321671
 31
0.0
  0
ARC
  5
6219
330
295E
100
AcDbEntity
  8
0
100
AcDbCircle
 10
147.3961204048786
 20
169.409436532167
 30
0.0
 40
1.5
100
AcDbArc
 50
0.0
 51
90.0
  0
ARC
  5
621A
330
295E
100
AcDbEntity
  8
0
100
AcDbCircle
 10
147.3961204048786
 20
169.409436532167
 30
0.0
 40
0.75
100
AcDbArc
 50
0.0
 51
90.0
  0
ARC
  5
621B
330
295E
100
AcDbEntity
  8
0
100
AcDbCircle
 10
147.3961204048786
 20
167.4094365321671
 30
0.0
 40
1.5
100
AcDbArc
 50
270.0
 51
359.9999999999935
  0
ARC
  5
621C
330
295E
100
AcDbEntity
  8
0
100
AcDbCircle
 10
147.3961204048786
 20
167.4094365321671
 30
0.0
 40
0.75
100
AcDbArc
 50
270.0
 51
359.9999999999935
  0
ARC
  5
621D
330
295E
100
AcDbEntity
  8
0
100
AcDbCircle
 10
135.8961204048787
 20
169.409436532167
 30
0.0
 40
1.5
100
AcDbArc
 50
90.0
 51
179.9999999999935
  0
ARC
  5
621E
330
295E
100
AcDbEntity
  8
0
100
AcDbCircle
 10
135.8961204048787
 20
169.409436532167
 30
0.0
 40
0.75
100
AcDbArc
 50
90.0
 51
179.9999999999935
  0
ARC
  5
621F
330
295E
100
AcDbEntity
  8
0
100
AcDbCircle
 10
135.896120404879
 20
167.4094365321671
 30
0.0
 40
1.5
100
AcDbArc
 50
180.0
 51
269.999999999987
  0
ARC
  5
6220
330
295E
100
AcDbEntity
  8
0
100
AcDbCircle
 10
135.896120404879
 20
167.4094365321671
 30
0.0
 40
0.75
100
AcDbArc
 50
180.0
 51
269.999999999987
  0
LINE
  5
6221
330
295E
100
AcDbEntity
  8
0
 62
     3
100
AcDbLine
 10
160.3961204048787
 20
224.8663817950797
 30
0.0
 11
122.8961204048787
 21
224.8663817950797
 31
0.0
  0
LINE
  5
6222
330
295E
100
AcDbEntity
  8
0
 62
     3
100
AcDbLine
 10
156.8038493100542
 20
228.3663817950797
 30
0.0
 11
126.4883914997033
 21
228.3663817950797
 31
0.0
  0
ARC
  5
6223
330
295E
100
AcDbEntity
  8
0
 62
     3
100
AcDbCircle
 10
158.3961204048787
 20
224.8663817950797
 30
0.0
 40
2.0
100
AcDbArc
 50
0.0
 51
52.21081422080815
  0
ARC
  5
6224
330
295E
100
AcDbEntity
  8
0
 62
     3
100
AcDbCircle
 10
124.8961204048787
 20
224.8663817950797
 30
0.0
 40
2.0
100
AcDbArc
 50
127.7891857791918
 51
180.0
  0
LINE
  5
6225
330
295E
100
AcDbEntity
  8
0
 62
     3
100
AcDbLine
 10
125.875633593794
 20
228.1566524757617
 30
0.0
 11
123.6706045930599
 21
226.4469231564437
 31
0.0
  0
LINE
  5
6226
330
295E
100
AcDbEntity
  8
0
 62
     3
100
AcDbLine
 10
157.4166072159635
 20
228.1566524757617
 30
0.0
 11
159.6216362166975
 21
226.4469231564437
 31
0.0
  0
ARC
  5
6227
330
295E
100
AcDbEntity
  8
0
 62
     3
100
AcDbCircle
 10
156.8038493100542
 20
227.3663817950804
 30
0.0
 40
1.0
100
AcDbArc
 50
52.21081422077745
 51
90.0
  0
ARC
  5
6228
330
295E
100
AcDbEntity
  8
0
 62
     3
100
AcDbCircle
 10
126.4883914997035
 20
227.3663817950798
 30
0.0
 40
1.0
100
AcDbArc
 50
90.000000000013
 51
127.7891857792071
  0
LINE
  5
6229
330
295E
100
AcDbEntity
  8
0
 62
     3
100
AcDbLine
 10
124.6461204048787
 20
210.8663817950798
 30
0.0
 11
158.6461204048787
 21
210.8663817950798
 31
0.0
  0
LINE
  5
622A
330
295E
100
AcDbEntity
  8
0
 62
     3
100
AcDbLine
 10
132.0468596822444
 20
211.3663817950798
 30
0.0
 11
151.2453811275133
 21
211.3663817950798
 31
0.0
  0
LINE
  5
622B
330
295E
100
AcDbEntity
  8
0
 62
     3
100
AcDbLine
 10
149.1461204048787
 20
212.3663817950806
 30
0.0
 11
134.1461204048787
 21
212.3663817950806
 31
0.0
  0
LINE
  5
622C
330
295E
100
AcDbEntity
  8
0
 62
     3
100
AcDbLine
 10
149.1461204048787
 20
212.3663817950806
 30
0.0
 11
152.2950114888296
 21
210.8663817950798
 31
0.0
  0
LINE
  5
622D
330
295E
100
AcDbEntity
  8
0
 62
     3
100
AcDbLine
 10
134.1461204048787
 20
212.3663817950806
 30
0.0
 11
130.997229320928
 21
210.8663817950798
 31
0.0
  0
LINE
  5
622E
330
295E
100
AcDbEntity
  8
0
 62
     3
100
AcDbLine
 10
123.1460119450089
 20
212.8715878688325
 30
0.0
 11
124.6461204048787
 21
210.8663817950798
 31
0.0
  0
LINE
  5
622F
330
295E
100
AcDbEntity
  8
0
 62
     3
100
AcDbLine
 10
160.1461204048787
 20
212.8663817950797
 30
0.0
 11
158.6461204048787
 21
210.8663817950798
 31
0.0
  0
ARC
  5
6230
330
295E
100
AcDbEntity
  8
0
100
AcDbCircle
 10
141.6461204048786
 20
221.4594365321653
 30
0.0
 40
59.04999999999819
100
AcDbArc
 50
255.9348938479052
 51
284.0651061520948
  0
ARC
  5
6231
330
295E
100
AcDbEntity
  8
0
 62
     3
100
AcDbCircle
 10
141.6461204048786
 20
221.4594365321653
 30
0.0
 40
58.04999999999818
100
AcDbArc
 50
255.9348938479052
 51
284.0651061520948
  0
ARC
  5
6232
330
295E
100
AcDbEntity
  8
0
100
AcDbCircle
 10
128.1461204048788
 20
167.5748144215875
 30
0.0
 40
3.5
100
AcDbArc
 50
180.0
 51
255.9348938479052
  0
ARC
  5
6233
330
295E
100
AcDbEntity
  8
0
 62
     3
100
AcDbCircle
 10
128.1461204048788
 20
167.5748144215875
 30
0.0
 40
2.5
100
AcDbArc
 50
180.0
 51
255.9348938479052
  0
ARC
  5
6234
330
295E
100
AcDbEntity
  8
0
100
AcDbCircle
 10
155.1461204048788
 20
167.5748144215876
 30
0.0
 40
3.5
100
AcDbArc
 50
284.0651061520948
 51
0.0
  0
ARC
  5
6235
330
295E
100
AcDbEntity
  8
0
 62
     3
100
AcDbCircle
 10
155.1461204048788
 20
167.5748144215876
 30
0.0
 40
2.5
100
AcDbArc
 50
284.0651061520948
 51
0.0
  0
ARC
  5
6236
330
295E
100
AcDbEntity
  8
0
100
AcDbCircle
 10
141.6461204048786
 20
115.3594365321689
 30
0.0
 40
59.04999999999819
100
AcDbArc
 50
75.93489384790517
 51
79.38065442755416
  0
ARC
  5
6237
330
295E
100
AcDbEntity
  8
0
 62
     3
100
AcDbCircle
 10
141.6461204048786
 20
115.3594365321689
 30
0.0
 40
58.04999999999818
100
AcDbArc
 50
75.93489384790517
 51
79.38065442755416
  0
ARC
  5
6238
330
295E
100
AcDbEntity
  8
0
100
AcDbCircle
 10
152.8044695139188
 20
174.8724077666867
 30
0.0
 40
1.5
100
AcDbArc
 50
225.0000000000049
 51
259.3806544275675
  0
ARC
  5
6239
330
295E
100
AcDbEntity
  8
0
 62
     3
100
AcDbCircle
 10
152.8044695139188
 20
174.8724077666867
 30
0.0
 40
2.5
100
AcDbArc
 50
225.0000000000049
 51
259.3806544275675
  0
ARC
  5
623A
330
295E
100
AcDbEntity
  8
0
100
AcDbCircle
 10
141.6461204048786
 20
115.3594365321689
 30
0.0
 40
59.04999999999819
100
AcDbArc
 50
100.6193455724458
 51
104.0651061520948
  0
ARC
  5
623B
330
295E
100
AcDbEntity
  8
0
 62
     3
100
AcDbCircle
 10
141.6461204048786
 20
115.3594365321689
 30
0.0
 40
58.04999999999818
100
AcDbArc
 50
100.6193455724458
 51
104.0651061520948
  0
ARC
  5
623C
330
295E
100
AcDbEntity
  8
0
100
AcDbCircle
 10
130.4877712958388
 20
174.8724077666867
 30
0.0
 40
1.5
100
AcDbArc
 50
280.6193455724326
 51
315.0000000000044
  0
ARC
  5
623D
330
295E
100
AcDbEntity
  8
0
 62
     3
100
AcDbCircle
 10
130.4877712958388
 20
174.8724077666867
 30
0.0
 40
2.5
100
AcDbArc
 50
280.6193455724326
 51
315.0000000000044
  0
ARC
  5
623E
330
295E
100
AcDbEntity
  8
0
100
AcDbCircle
 10
128.1461204048787
 20
169.2440586427466
 30
0.0
 40
3.5
100
AcDbArc
 50
104.0651061520948
 51
180.0
  0
ARC
  5
623F
330
295E
100
AcDbEntity
  8
0
 62
     3
100
AcDbCircle
 10
128.1461204048787
 20
169.2440586427466
 30
0.0
 40
2.5
100
AcDbArc
 50
104.0651061520948
 51
180.0
  0
ARC
  5
6240
330
295E
100
AcDbEntity
  8
0
100
AcDbCircle
 10
155.1461204048787
 20
169.2440586427465
 30
0.0
 40
3.5
100
AcDbArc
 50
0.0
 51
75.93489384790517
  0
ARC
  5
6241
330
295E
100
AcDbEntity
  8
0
 62
     3
100
AcDbCircle
 10
155.1461204048787
 20
169.2440586427465
 30
0.0
 40
2.5
100
AcDbArc
 50
0.0
 51
75.93489384790517
  0
LINE
  5
6242
330
295E
100
AcDbEntity
  8
0
 62
     3
100
AcDbLine
 10
203.1478556729219
 20
174.4094365321671
 30
0.0
 11
203.1478556729219
 21
162.4094365321671
 31
0.0
  0
ARC
  5
6243
330
295E
100
AcDbEntity
  8
0
 62
     3
100
AcDbCircle
 10
217.1478556729219
 20
174.9094365321671
 30
0.0
 40
3.5
100
AcDbArc
 50
31.59130176409825
 51
90.0
  0
LINE
  5
6244
330
295E
100
AcDbEntity
  8
0
 62
     3
100
AcDbLine
 10
217.1478556729219
 20
178.4094365321671
 30
0.0
 11
217.1478556729219
 21
175.8906415568849
 31
0.0
  0
LINE
  5
6245
330
295E
100
AcDbEntity
  8
0
 62
     3
100
AcDbLine
 10
217.1478556729219
 20
160.9282315074492
 30
0.0
 11
217.1478556729219
 21
159.170051865852
 31
0.0
  0
LINE
  5
6246
330
295E
100
AcDbEntity
  8
0
 62
     3
100
AcDbLine
 10
215.8978556729219
 20
157.9094365321671
 30
0.0
 11
215.8978556729219
 21
158.4389340813256
 31
0.0
  0
LINE
  5
6247
330
295E
100
AcDbEntity
  8
0
 62
     3
100
AcDbLine
 10
209.3978556729218
 20
159.015421779719
 30
0.0
 11
209.3978556729219
 21
159.5680178662754
 31
0.0
  0
LINE
  5
6249
330
295E
100
AcDbEntity
  8
0
 62
     3
100
AcDbLine
 10
225.2165326857797
 20
159.1594365321671
 30
0.0
 11
223.3351036382214
 21
159.1594365321671
 31
0.0
  0
LINE
  5
624A
330
295E
100
AcDbEntity
  8
0
 62
     3
100
AcDbLine
 10
223.3351036382214
 20
177.6594365321671
 30
0.0
 11
225.2165326857797
 21
177.6594365321671
 31
0.0
  0
CIRCLE
  5
624B
330
295E
100
AcDbEntity
  8
0
 62
     3
100
AcDbCircle
 10
211.8978556729219
 20
168.4094365321669
 30
0.0
 40
5.5
  0
ARC
  5
624C
330
295E
100
AcDbEntity
  8
0
 62
     3
100
AcDbCircle
 10
211.8978556729219
 20
168.4094365321671
 30
0.0
 40
5.75
100
AcDbArc
 50
105.9540412029485
 51
254.0459587970514
  0
LINE
  5
624D
330
295E
100
AcDbEntity
  8
0
 62
     3
100
AcDbLine
 10
226.2165326857798
 20
160.6594365321671
 30
0.0
 11
226.2165326857796
 21
160.909436532167
 31
0.0
  0
LINE
  5
624E
330
295E
100
AcDbEntity
  8
0
 62
     3
100
AcDbLine
 10
226.2165326857796
 20
175.909436532167
 30
0.0
 11
226.2165326857798
 21
176.1594365321671
 31
0.0
  0
LINE
  5
624F
330
295E
100
AcDbEntity
  8
0
 62
     3
100
AcDbLine
 10
226.2165326857798
 20
176.1594365321671
 30
0.0
 11
225.2165326857797
 21
177.6594365321671
 31
0.0
  0
LINE
  5
6250
330
295E
100
AcDbEntity
  8
0
 62
     3
100
AcDbLine
 10
226.2165326857798
 20
160.6594365321671
 30
0.0
 11
225.2165326857797
 21
159.1594365321671
 31
0.0
  0
LINE
  5
6251
330
295E
100
AcDbEntity
  8
0
 62
     3
100
AcDbLine
 10
223.3351036382214
 20
175.9094365321671
 30
0.0
 11
223.3351036382214
 21
160.9094365321671
 31
0.0
  0
LINE
  5
6252
330
295E
100
AcDbEntity
  8
0
 62
     3
100
AcDbLine
 10
302.8351036382214
 20
175.9094365321671
 30
0.0
 11
302.8351036382214
 21
160.9094365321671
 31
0.0
  0
LINE
  5
6253
330
295E
100
AcDbEntity
  8
0
 62
     3
100
AcDbLine
 10
303.3351036382214
 20
174.4094365321671
 30
0.0
 11
303.3351036382214
 21
161.4094365321671
 31
0.0
  0
LINE
  5
6254
330
295E
100
AcDbEntity
  8
0
 62
     3
100
AcDbLine
 10
304.3351036382214
 20
174.4094365321671
 30
0.0
 11
304.3351036382214
 21
161.4094365321671
 31
0.0
  0
LINE
  5
6255
330
295E
100
AcDbEntity
  8
0
 62
     3
100
AcDbLine
 10
223.3351036382214
 20
177.6594365321671
 30
0.0
 11
210.3173749761046
 21
173.9379608169096
 31
0.0
  0
LINE
  5
6256
330
295E
100
AcDbEntity
  8
0
 62
     3
100
AcDbLine
 10
223.3351036382214
 20
175.9094365321671
 30
0.0
 11
214.157200234642
 21
173.4239516783626
 31
0.0
  0
LINE
  5
6257
330
295E
100
AcDbEntity
  8
0
100
AcDbLine
 10
222.1433500456273
 20
174.7185896241907
 30
0.0
 11
215.2706958118521
 21
172.7538524189372
 31
0.0
  0
LINE
  5
6258
330
295E
100
AcDbEntity
  8
0
 62
     3
100
AcDbLine
 10
223.3351036382214
 20
159.1594365321671
 30
0.0
 11
210.3173749761046
 21
162.8809122474246
 31
0.0
  0
LINE
  5
6259
330
295E
100
AcDbEntity
  8
0
 62
     3
100
AcDbLine
 10
223.3351036382214
 20
160.9094365321671
 30
0.0
 11
214.1572002346421
 21
163.3949213859714
 31
0.0
  0
LINE
  5
625A
330
295E
100
AcDbEntity
  8
0
100
AcDbLine
 10
222.1433500456273
 20
162.1002834401434
 30
0.0
 11
215.2706958118525
 21
164.065020645397
 31
0.0
  0
LINE
  5
625B
330
295E
100
AcDbEntity
  8
0
 62
     3
100
AcDbLine
 10
225.9534143609038
 20
175.9094365321671
 30
0.0
 11
226.2165035598296
 21
175.9094365321671
 31
0.0
  0
LINE
  5
625C
330
295E
100
AcDbEntity
  8
0
 62
     3
100
AcDbLine
 10
225.9534143609038
 20
160.9094365321671
 30
0.0
 11
226.2165035598296
 21
160.9094365321671
 31
0.0
  0
LINE
  5
625D
330
295E
100
AcDbEntity
  8
0
100
AcDbLine
 10
222.1433500456273
 20
174.7185896241907
 30
0.0
 11
222.1433500456273
 21
162.1002834401434
 31
0.0
  0
LINE
  5
625E
330
295E
100
AcDbEntity
  8
0
100
AcDbLine
 10
220.5876262187668
 20
174.2738431871139
 30
0.0
 11
220.5876262187668
 21
162.5450298772202
 31
0.0
  0
CIRCLE
  5
625F
330
295E
100
AcDbEntity
  8
0
 62
     3
100
AcDbCircle
 10
211.8978556729219
 20
168.4094365321669
 30
0.0
 40
4.0
  0
ARC
  5
6260
330
295E
100
AcDbEntity
  8
0
 62
     3
100
AcDbCircle
 10
217.1478556729219
 20
184.9094365321666
 30
0.0
 40
26.4999999999996
100
AcDbArc
 50
238.1092081981599
 51
268.3782047765851
  0
ARC
  5
6261
330
295E
100
AcDbEntity
  8
0
 62
     3
100
AcDbCircle
 10
217.1478556729219
 20
184.9094365321666
 30
0.0
 40
27.02891969724241
100
AcDbArc
 50
253.337717957198
 51
267.3493103165737
  0
ARC
  5
6262
330
295E
100
AcDbEntity
  8
0
 62
     3
100
AcDbCircle
 10
217.1478556729219
 20
151.9094365321675
 30
0.0
 40
26.4999999999996
100
AcDbArc
 50
90.0
 51
121.8907918018446
  0
LINE
  5
6263
330
295E
100
AcDbEntity
  8
0
 62
     3
100
AcDbLine
 10
204.6478556729219
 20
176.4094365321671
 30
0.0
 11
203.1478556729217
 21
174.4094365321668
 31
0.0
  0
ARC
  5
6264
330
295E
100
AcDbEntity
  8
0
 62
     3
100
AcDbCircle
 10
217.1478556729219
 20
138.3469365321623
 30
0.0
 40
40.06250000000477
100
AcDbArc
 50
90.0
 51
108.1805538416513
  0
LINE
  5
6265
330
295E
100
AcDbEntity
  8
0
 62
     3
100
AcDbLine
 10
216.397855672922
 20
158.4200518658521
 30
0.0
 11
218.5151551572692
 21
160.5373513501993
 31
0.0
  0
LINE
  5
6266
330
295E
100
AcDbEntity
  8
0
 62
     3
100
AcDbLine
 10
217.1478556729219
 20
178.4094365321671
 30
0.0
 11
217.1478556729219
 21
178.4094365321671
 31
0.0
  0
ELLIPSE
  5
6267
330
295E
100
AcDbEntity
  8
0
100
AcDbEllipse
 10
217.1478556729219
 20
168.4094365321671
 30
0.0
 11
-12.0
 21
0.0
 31
0.0
210
0.0
220
0.0
230
1.0
 40
0.5208333333333334
 41
5.642759093604767
 42
6.923611520759306
  0
ARC
  5
626A
330
295E
100
AcDbEntity
  8
0
 62
     3
100
AcDbCircle
 10
302.3351036382214
 20
161.4094365321671
 30
0.0
 40
2.0
100
AcDbArc
 50
194.4775121859299
 51
0.0
  0
ARC
  5
626B
330
295E
100
AcDbEntity
  8
0
 62
     3
100
AcDbCircle
 10
302.3351036382214
 20
161.4094365321671
 30
0.0
 40
1.0
100
AcDbArc
 50
209.9999999999961
 51
0.0
  0
ARC
  5
626C
330
295E
100
AcDbEntity
  8
0
 62
     3
100
AcDbCircle
 10
300.5851036382217
 20
174.4094365321671
 30
0.0
 40
3.749999999999771
100
AcDbArc
 50
0.0
 51
53.1301023541625
  0
ARC
  5
626D
330
295E
100
AcDbEntity
  8
0
 62
     3
100
AcDbCircle
 10
300.5851036382217
 20
174.4094365321671
 30
0.0
 40
2.749999999999771
100
AcDbArc
 50
0.0
 51
53.1301023541625
  0
ARC
  5
626E
330
295E
100
AcDbEntity
  8
0
 62
     3
100
AcDbCircle
 10
302.8351036382214
 20
177.4094365321673
 30
0.0
 40
1.0
100
AcDbArc
 50
180.0
 51
233.1301023541625
  0
ARC
  5
626F
330
295E
100
AcDbEntity
  8
0
 62
     3
100
AcDbCircle
 10
304.0851036382211
 20
174.4094365321671
 30
0.0
 40
3.749999999999771
100
AcDbArc
 50
126.8698976458559
 51
156.4218215217995
  0
ARC
  5
6270
330
295E
100
AcDbEntity
  8
0
 62
     3
100
AcDbCircle
 10
304.0851036382211
 20
174.4094365321671
 30
0.0
 40
2.749999999999771
100
AcDbArc
 50
129.5211963586349
 51
146.9442688491412
  0
ARC
  5
6271
330
295E
100
AcDbEntity
  8
0
 62
     3
100
AcDbCircle
 10
262.6879772365567
 20
173.0346088440103
 30
0.0
 40
40.38478519953165
100
AcDbArc
 50
6.218976274144106
 51
136.713872621679
  0
ARC
  5
6272
330
295E
100
AcDbEntity
  8
0
 62
     3
100
AcDbCircle
 10
262.6879772365567
 20
173.0346088440103
 30
0.0
 40
40.38478519953165
100
AcDbArc
 50
153.8020958849121
 51
173.7472268143926
  0
ARC
  5
6273
330
295E
100
AcDbEntity
  8
0
 62
     3
100
AcDbCircle
 10
262.6879772365567
 20
173.0346088440103
 30
0.0
 40
39.38478519953167
100
AcDbArc
 50
6.218976274144106
 51
136.4952337973461
  0
ARC
  5
6274
330
295E
100
AcDbEntity
  8
0
 62
     3
100
AcDbCircle
 10
262.6879772365567
 20
173.0346088440103
 30
0.0
 40
39.38478519953167
100
AcDbArc
 50
154.0207072637955
 51
173.2563833090646
  0
ARC
  5
6275
330
295E
100
AcDbEntity
  8
0
 62
     3
100
AcDbCircle
 10
246.815143399933
 20
182.0818728610361
 30
0.0
 40
21.18114286488353
100
AcDbArc
 50
156.9925378710778
 51
196.9425011926553
  0
ARC
  5
6276
330
295E
100
AcDbEntity
  8
0
 62
     3
100
AcDbCircle
 10
246.815143399933
 20
182.0818728610361
 30
0.0
 40
20.18114286488353
100
AcDbArc
 50
157.8182200284308
 51
197.8094099849804
  0
LINE
  5
6277
330
295E
100
AcDbEntity
  8
0
 62
     3
100
AcDbLine
 10
228.3898415753119
 20
189.5193188892966
 30
0.0
 11
225.1029151262059
 21
191.79881763204
 31
0.0
  0
LINE
  5
6278
330
295E
100
AcDbEntity
  8
0
 62
     3
100
AcDbLine
 10
225.3968366937144
 20
189.7695681350163
 30
0.0
 11
224.3639737329572
 21
190.4858633904555
 31
0.0
  0
LINE
  5
6279
330
295E
100
AcDbEntity
  8
0
 62
     3
100
AcDbLine
 10
235.2283378035414
 20
199.3800982366144
 30
0.0
 11
231.9414113544354
 21
201.6595969793577
 31
0.0
  0
LINE
  5
627A
330
295E
100
AcDbEntity
  8
0
 62
     3
100
AcDbLine
 10
233.9449569790016
 20
202.0955423191637
 30
0.0
 11
232.9120940182444
 21
202.8118375746028
 31
0.0
  0
ARC
  5
627B
330
295E
100
AcDbEntity
  8
0
 62
     3
100
AcDbCircle
 10
287.5841228727081
 20
155.7694642720207
 30
0.0
 40
72.12500000001881
100
AcDbArc
 50
139.2897557078052
 51
151.2272689557698
  0
ARC
  5
627C
330
295E
100
AcDbEntity
  8
0
 62
     3
100
AcDbCircle
 10
287.5841228727081
 20
155.7694642720207
 30
0.0
 40
73.12500000001882
100
AcDbArc
 50
143.4708322937728
 51
147.0461923698004
  0
ARC
  5
627D
330
295E
100
AcDbEntity
  8
0
 62
     3
100
AcDbCircle
 10
287.5841228727081
 20
155.7694642720207
 30
0.0
 40
74.12500000001881
100
AcDbArc
 50
143.4708322937728
 51
147.0461923698004
  0
ARC
  5
627E
330
295E
100
AcDbEntity
  8
0
 62
     3
100
AcDbCircle
 10
287.5841228727081
 20
155.7694642720207
 30
0.0
 40
70.87500000001881
100
AcDbArc
 50
139.1840939204817
 51
140.40226364114
  0
ARC
  5
627F
330
295E
100
AcDbEntity
  8
0
 62
     3
100
AcDbCircle
 10
287.5841228727081
 20
155.7694642720207
 30
0.0
 40
70.87500000001881
100
AcDbArc
 50
150.114761022438
 51
151.3329307430888
  0
ARC
  5
6280
330
295E
100
AcDbEntity
  8
0
 62
     3
100
AcDbCircle
 10
172.747130057062
 20
235.4094515966179
 30
0.0
 40
72.12499999999106
100
AcDbArc
 50
320.4866242710065
 51
330.0304003925639
  0
LINE
  5
6281
330
295E
100
AcDbEntity
  8
0
 62
     3
100
AcDbLine
 10
225.923608877274
 20
193.3593118218804
 30
0.0
 11
225.9977468659853
 21
193.3078967827325
 31
0.0
  0
LINE
  5
6282
330
295E
100
AcDbEntity
  8
0
 62
     3
100
AcDbLine
 10
226.4934835629598
 20
194.1810434341569
 30
0.0
 11
226.524838305511
 21
194.1592987747217
 31
0.0
  0
LINE
  5
6283
330
295E
100
AcDbEntity
  8
0
 62
     3
100
AcDbLine
 10
230.7675437056037
 20
200.3440305262304
 30
0.0
 11
230.8416816943148
 21
200.2926154870827
 31
0.0
  0
LINE
  5
6284
330
295E
100
AcDbEntity
  8
0
 62
     3
100
AcDbLine
 10
230.1976690199179
 20
199.5222989139539
 30
0.0
 11
230.2290237624688
 21
199.5005542545188
 31
0.0
  0
ARC
  5
6285
330
295E
100
AcDbEntity
  8
0
 62
     3
100
AcDbCircle
 10
229.6277943342321
 20
198.7005673016789
 30
0.0
 40
2.0
100
AcDbArc
 50
55.25851233175783
 51
143.4708322938015
  0
ARC
  5
6286
330
295E
100
AcDbEntity
  8
0
 62
     3
100
AcDbCircle
 10
229.6277943342321
 20
198.7005673016789
 30
0.0
 40
1.0
100
AcDbArc
 50
55.25851233175783
 51
143.4708322938015
  0
ARC
  5
6287
330
295E
100
AcDbEntity
  8
0
 62
     3
100
AcDbCircle
 10
227.063358248645
 20
195.0027750464327
 30
0.0
 40
2.0
100
AcDbArc
 50
147.0461923697697
 51
235.258512331787
  0
ARC
  5
6288
330
295E
100
AcDbEntity
  8
0
 62
     3
100
AcDbCircle
 10
227.063358248645
 20
195.0027750464327
 30
0.0
 40
1.0
100
AcDbArc
 50
147.0461923697697
 51
235.258512331787
  0
LINE
  5
6289
330
295E
100
AcDbEntity
  8
0
 62
     3
100
AcDbLine
 10
264.6756755361582
 20
177.1594365321671
 30
0.0
 11
265.9256755361582
 21
150.9094365321671
 31
0.0
  0
LINE
  5
628A
330
295E
100
AcDbEntity
  8
0
 62
     3
100
AcDbLine
 10
258.6756755361582
 20
177.1594365321671
 30
0.0
 11
257.4256755361582
 21
150.9094365321671
 31
0.0
  0
TEXT
  5
6B47
330
295E
100
AcDbEntity
  8
0
 62
     3
100
AcDbText
 10
333.5277514891099
 20
232.3676110882825
 30
0.0
 40
3.2
  1
使用　場所
  7
高3.2
100
AcDbText
  0
TEXT
  5
6B48
330
295E
100
AcDbEntity
  8
0
 62
     3
100
AcDbText
 10
358.896514155268
 20
232.3676110882825
 30
0.0
 40
3.2
  1
屋外型
 41
0.8
  7
高3.2
100
AcDbText
  0
LINE
  5
6B49
330
295E
100
AcDbEntity
  8
0
 62
     7
100
AcDbLine
 10
413.4704271608057
 20
231.3676110882806
 30
0.0
 11
332.0277514891099
 21
231.3676110882806
 31
0.0
  0
TEXT
  5
6CE0
330
295E
100
AcDbEntity
  8
0
 62
     4
100
AcDbText
 10
107.1311198343917
 20
173.2190206773281
 30
0.0
 40
2.0
  1
OFF
100
AcDbText
1001
ACAD
1000
MTEXTBEGIN
1070
    73
1070
     1
1070
    44
1040
1.0
1070
    74
1070
     0
1000
MTEXTEND
  0
TEXT
  5
6CE5
330
295E
100
AcDbEntity
  8
0
 62
     4
100
AcDbText
 10
105.09776926938
 20
176.9811420160182
 30
0.0
 40
2.0
  1
LOW
100
AcDbText
1001
ACAD
1000
MTEXTBEGIN
1070
    73
1070
     1
1070
    44
1040
1.0
1070
    74
1070
     0
1000
MTEXTEND
  0
TEXT
  5
6CE8
330
295E
100
AcDbEntity
  8
0
 62
     4
100
AcDbText
 10
101.4551853029543
 20
181.1409208334109
 30
0.0
 40
2.0
  1
HIGH
100
AcDbText
1001
ACAD
1000
MTEXTBEGIN
1070
    73
1070
     1
1070
    44
1040
1.0
1070
    74
1070
     0
1000
MTEXTEND
  0
TEXT
  5
6CEB
330
295E
100
AcDbEntity
  8
0
 62
     4
100
AcDbText
 10
77.21408356001041
 20
153.1409087681951
 30
0.0
 40
3.0
  1
ダイヤルスイッチ
100
AcDbText
1001
ACAD
1000
MTEXTBEGIN
1070
    73
1070
     1
1070
    44
1040
1.0
1070
    74
1070
     0
1000
MTEXTEND
  0
ARC
  5
6CEE
330
295E
100
AcDbEntity
  8
0
100
AcDbCircle
 10
211.8978556729217
 20
168.4094365321667
 30
0.0
 40
25.16475369596338
100
AcDbArc
 50
185.6944097360784
 51
229.3055902639215
  0
ARC
  5
6CF2
330
295E
100
AcDbEntity
  8
0
100
AcDbCircle
 10
211.8978556729226
 20
168.4094365321667
 30
0.0
 40
25.23242929761341
100
AcDbArc
 50
150.6791242933096
 51
174.3208757066903
  0
LINE
  5
6CF6
330
295E
100
AcDbEntity
  8
0
100
AcDbLine
 10
158.8961204048787
 20
210.8663817950798
 30
0.0
 11
176.884621303564
 21
210.8663817950798
 31
0.0
  0
LINE
  5
6CF7
330
295E
100
AcDbEntity
  8
0
100
AcDbLine
 10
154.3961204048806
 20
234.8663817950801
 30
0.0
 11
176.884621303564
 21
234.8663817950801
 31
0.0
  0
LINE
  5
6CF8
330
295E
100
AcDbEntity
  8
0
100
AcDbLine
 10
175.634621303564
 20
213.3663817950798
 30
0.0
 11
175.634621303564
 21
232.3663817950801
 31
0.0
  0
LINE
  5
6CFC
330
295E
100
AcDbEntity
  8
0
100
AcDbLine
 10
153.8961204048787
 20
178.4094365321671
 30
0.0
 11
172.7298271888871
 21
178.4094365321671
 31
0.0
  0
LINE
  5
6CFD
330
295E
100
AcDbEntity
  8
0
100
AcDbLine
 10
145.8961204048787
 20
157.9094365321671
 30
0.0
 11
172.7298271888871
 21
157.9094365321671
 31
0.0
  0
LINE
  5
6CFE
330
295E
100
AcDbEntity
  8
0
100
AcDbLine
 10
171.4798271888871
 20
175.9094365321671
 30
0.0
 11
171.4798271888871
 21
160.4094365321671
 31
0.0
  0
LINE
  5
6D02
330
295E
100
AcDbEntity
  8
0
100
AcDbLine
 10
163.8961204048795
 20
174.1594365321671
 30
0.0
 11
163.8961204048795
 21
192.0897603472396
 31
0.0
  0
LINE
  5
6D03
330
295E
100
AcDbEntity
  8
0
100
AcDbLine
 10
114.8961204048795
 20
174.0978167265622
 30
0.0
 11
114.8961204048795
 21
192.0897603472396
 31
0.0
  0
LINE
  5
6D04
330
295E
100
AcDbEntity
  8
0
100
AcDbLine
 10
161.3961204048795
 20
190.8397603472396
 30
0.0
 11
117.3961204048795
 21
190.8397603472396
 31
0.0
  0
LINE
  5
6D08
330
295E
100
AcDbEntity
  8
0
100
AcDbLine
 10
290.9547405233598
 20
109.6045176177544
 30
0.0
 11
290.9547405233598
 21
119.2492266985879
 31
0.0
  0
LINE
  5
6D09
330
295E
100
AcDbEntity
  8
0
100
AcDbLine
 10
171.6269657717084
 20
109.7295176177544
 30
0.0
 11
171.6269657717084
 21
119.2492266985879
 31
0.0
  0
LINE
  5
6D0A
330
295E
100
AcDbEntity
  8
0
100
AcDbLine
 10
288.4547405233598
 20
117.9992266985879
 30
0.0
 11
174.1269657717084
 21
117.9992266985879
 31
0.0
  0
LINE
  5
6D0E
330
295E
100
AcDbEntity
  8
0
100
AcDbLine
 10
114.6137776584498
 20
117.2310157091893
 30
0.0
 11
137.8992845510187
 21
117.2310157091893
 31
0.0
  0
LINE
  5
6D0F
330
295E
100
AcDbEntity
  8
0
100
AcDbLine
 10
114.6683342111817
 20
98.7295176177551
 30
0.0
 11
137.8992845510187
 21
98.7295176177551
 31
0.0
  0
LINE
  5
6D10
330
295E
100
AcDbEntity
  8
0
100
AcDbLine
 10
136.6492845510187
 20
114.7310157091893
 30
0.0
 11
136.6492845510187
 21
101.2295176177551
 31
0.0
  0
LINE
  5
6D14
330
295E
100
AcDbEntity
  8
0
100
AcDbLine
 10
131.4183342111815
 20
100.7806273494904
 30
0.0
 11
131.4183342111815
 21
92.14678799599022
 31
0.0
  0
LINE
  5
6D15
330
295E
100
AcDbEntity
  8
0
100
AcDbLine
 10
112.4183342111817
 20
100.4795176177551
 30
0.0
 11
112.4183342111817
 21
92.14678799599022
 31
0.0
  0
LINE
  5
6D16
330
295E
100
AcDbEntity
  8
0
100
AcDbLine
 10
128.9183342111815
 20
93.39678799599022
 30
0.0
 11
114.9183342111817
 21
93.39678799599022
 31
0.0
  0
LINE
  5
6D1A
330
295E
100
AcDbEntity
  8
0
 62
     3
100
AcDbLine
 10
240.3090482513708
 20
292.0967881297933
 30
0.0
 11
240.2824375013708
 21
292.2671706497932
 31
0.0
  0
LINE
  5
6D1B
330
295E
100
AcDbEntity
  8
0
 62
     3
100
AcDbLine
 10
240.2824375013708
 20
292.2671706497932
 30
0.0
 11
240.2504786713708
 21
292.4303203397933
 31
0.0
  0
LINE
  5
6D1C
330
295E
100
AcDbEntity
  8
0
 62
     3
100
AcDbLine
 10
240.2504786713708
 20
292.4303203397933
 30
0.0
 11
240.2134187713708
 21
292.5849761397933
 31
0.0
  0
LINE
  5
6D1D
330
295E
100
AcDbEntity
  8
0
 62
     3
100
AcDbLine
 10
240.2134187713708
 20
292.5849761397933
 30
0.0
 11
240.1715442713708
 21
292.7299426397933
 31
0.0
  0
LINE
  5
6D1E
330
295E
100
AcDbEntity
  8
0
 62
     3
100
AcDbLine
 10
240.1715442713708
 20
292.7299426397933
 30
0.0
 11
240.1251788413708
 21
292.8640993297934
 31
0.0
  0
LINE
  5
6D1F
330
295E
100
AcDbEntity
  8
0
 62
     3
100
AcDbLine
 10
240.1251788413708
 20
292.8640993297934
 30
0.0
 11
240.0746808513708
 21
292.9864092297933
 31
0.0
  0
LINE
  5
6D20
330
295E
100
AcDbEntity
  8
0
 62
     3
100
AcDbLine
 10
240.0746808513708
 20
292.9864092297933
 30
0.0
 11
240.0204406313708
 21
293.0959269697932
 31
0.0
  0
LINE
  5
6D21
330
295E
100
AcDbEntity
  8
0
 62
     3
100
AcDbLine
 10
240.0204406313708
 20
293.0959269697932
 30
0.0
 11
239.9628774313708
 21
293.1918060197933
 31
0.0
  0
LINE
  5
6D22
330
295E
100
AcDbEntity
  8
0
 62
     3
100
AcDbLine
 10
239.9628774313708
 20
293.1918060197933
 30
0.0
 11
239.9024361813708
 21
293.2733052897932
 31
0.0
  0
LINE
  5
6D23
330
295E
100
AcDbEntity
  8
0
 62
     3
100
AcDbLine
 10
239.9024361813708
 20
293.2733052897932
 30
0.0
 11
239.8395840613708
 21
293.3397948297932
 31
0.0
  0
LINE
  5
6D24
330
295E
100
AcDbEntity
  8
0
 62
     3
100
AcDbLine
 10
239.8395840613708
 20
293.3397948297932
 30
0.0
 11
239.7748068813708
 21
293.3907607097932
 31
0.0
  0
LINE
  5
6D25
330
295E
100
AcDbEntity
  8
0
 62
     3
100
AcDbLine
 10
239.7748068813708
 20
293.3907607097932
 30
0.0
 11
239.7086053513708
 21
293.4258089897933
 31
0.0
  0
LINE
  5
6D26
330
295E
100
AcDbEntity
  8
0
 62
     3
100
AcDbLine
 10
239.7086053513708
 20
293.4258089897933
 30
0.0
 11
239.6414911613708
 21
293.4446687597932
 31
0.0
  0
LINE
  5
6D27
330
295E
100
AcDbEntity
  8
0
 62
     3
100
AcDbLine
 10
239.6414911613708
 20
293.4446687597932
 30
0.0
 11
239.5739830713708
 21
293.4471942597933
 31
0.0
  0
LINE
  5
6D28
330
295E
100
AcDbEntity
  8
0
 62
     3
100
AcDbLine
 10
239.5739830713708
 20
293.4471942597933
 30
0.0
 11
239.5066028813708
 21
293.4333659497933
 31
0.0
  0
LINE
  5
6D29
330
295E
100
AcDbEntity
  8
0
 62
     3
100
AcDbLine
 10
239.5066028813708
 20
293.4333659497933
 30
0.0
 11
239.4398714113709
 21
293.4032907197932
 31
0.0
  0
LINE
  5
6D2A
330
295E
100
AcDbEntity
  8
0
 62
     3
100
AcDbLine
 10
239.4398714113709
 20
293.4032907197932
 30
0.0
 11
239.3743044713708
 21
293.3572010497932
 31
0.0
  0
LINE
  5
6D2B
330
295E
100
AcDbEntity
  8
0
 62
     3
100
AcDbLine
 10
239.3743044713708
 20
293.3572010497932
 30
0.0
 11
239.3104088313708
 21
293.2954531697932
 31
0.0
  0
LINE
  5
6D2C
330
295E
100
AcDbEntity
  8
0
 62
     3
100
AcDbLine
 10
239.3104088313708
 20
293.2954531697932
 30
0.0
 11
239.2486784013708
 21
293.2185243797932
 31
0.0
  0
LINE
  5
6D2D
330
295E
100
AcDbEntity
  8
0
 62
     3
100
AcDbLine
 10
239.2486784013708
 20
293.2185243797932
 30
0.0
 11
239.1895903113708
 21
293.1270092797934
 31
0.0
  0
LINE
  5
6D2E
330
295E
100
AcDbEntity
  8
0
 62
     3
100
AcDbLine
 10
239.1895903113708
 20
293.1270092797934
 30
0.0
 11
239.1336012813708
 21
293.0216152497932
 31
0.0
  0
LINE
  5
6D2F
330
295E
100
AcDbEntity
  8
0
 62
     3
100
AcDbLine
 10
239.1336012813708
 20
293.0216152497932
 30
0.0
 11
239.0811440813708
 21
292.9031569197932
 31
0.0
  0
LINE
  5
6D30
330
295E
100
AcDbEntity
  8
0
 62
     3
100
AcDbLine
 10
239.0811440813708
 20
292.9031569197932
 30
0.0
 11
239.0326241813708
 21
292.7725499097933
 31
0.0
  0
LINE
  5
6D31
330
295E
100
AcDbEntity
  8
0
 62
     3
100
AcDbLine
 10
239.0326241813708
 20
292.7725499097933
 30
0.0
 11
238.9884166013708
 21
292.6308037597932
 31
0.0
  0
LINE
  5
6D32
330
295E
100
AcDbEntity
  8
0
 62
     3
100
AcDbLine
 10
238.9884166013708
 20
292.6308037597932
 30
0.0
 11
238.9488630613707
 21
292.4790140897932
 31
0.0
  0
LINE
  5
6D33
330
295E
100
AcDbEntity
  8
0
 62
     3
100
AcDbLine
 10
238.9488630613707
 20
292.4790140897932
 30
0.0
 11
238.9142692813708
 21
292.3183541497934
 31
0.0
  0
LINE
  5
6D34
330
295E
100
AcDbEntity
  8
0
 62
     3
100
AcDbLine
 10
238.9142692813708
 20
292.3183541497934
 30
0.0
 11
238.8849026513708
 21
292.1500657597932
 31
0.0
  0
LINE
  5
6D35
330
295E
100
AcDbEntity
  8
0
 62
     3
100
AcDbLine
 10
238.8849026513708
 20
292.1500657597932
 30
0.0
 11
238.8609901613709
 21
291.9754496997932
 31
0.0
  0
LINE
  5
6D36
330
295E
100
AcDbEntity
  8
0
 62
     3
100
AcDbLine
 10
238.8609901613709
 20
291.9754496997932
 30
0.0
 11
238.8427166513708
 21
291.7958556697934
 31
0.0
  0
LINE
  5
6D37
330
295E
100
AcDbEntity
  8
0
 62
     3
100
AcDbLine
 10
238.8427166513708
 20
291.7958556697934
 30
0.0
 11
238.8302233513708
 21
291.6126718297933
 31
0.0
  0
LINE
  5
6D38
330
295E
100
AcDbEntity
  8
0
 62
     3
100
AcDbLine
 10
238.8302233513708
 20
291.6126718297933
 30
0.0
 11
238.8236068413708
 21
291.4273141097933
 31
0.0
  0
LINE
  5
6D39
330
295E
100
AcDbEntity
  8
0
 62
     3
100
AcDbLine
 10
238.8236068413708
 20
291.4273141097933
 30
0.0
 11
238.8229182513708
 21
291.2412152097933
 31
0.0
  0
LINE
  5
6D3A
330
295E
100
AcDbEntity
  8
0
 62
     3
100
AcDbLine
 10
238.8229182513708
 20
291.2412152097933
 30
0.0
 11
238.8281629113708
 21
291.0558135997932
 31
0.0
  0
LINE
  5
6D3B
330
295E
100
AcDbEntity
  8
0
 62
     3
100
AcDbLine
 10
238.8281629113708
 20
291.0558135997932
 30
0.0
 11
238.8393002813708
 21
290.8725423297933
 31
0.0
  0
LINE
  5
6D3C
330
295E
100
AcDbEntity
  8
0
 62
     3
100
AcDbLine
 10
238.8393002813708
 20
290.8725423297933
 30
0.0
 11
238.8562442813708
 21
290.6928179897933
 31
0.0
  0
LINE
  5
6D3D
330
295E
100
AcDbEntity
  8
0
 62
     3
100
AcDbLine
 10
238.8562442813708
 20
290.6928179897933
 30
0.0
 11
238.8788639313708
 21
290.5180297597933
 31
0.0
  0
LINE
  5
6D3E
330
295E
100
AcDbEntity
  8
0
 62
     3
100
AcDbLine
 10
238.8788639313708
 20
290.5180297597933
 30
0.0
 11
238.9069844013708
 21
290.3495286597934
 31
0.0
  0
LINE
  5
6D3F
330
295E
100
AcDbEntity
  8
0
 62
     3
100
AcDbLine
 10
238.9069844013708
 20
290.3495286597934
 30
0.0
 11
238.9403883313708
 21
290.1886171197933
 31
0.0
  0
LINE
  5
6D40
330
295E
100
AcDbEntity
  8
0
 62
     3
100
AcDbLine
 10
238.9403883313708
 20
290.1886171197933
 30
0.0
 11
238.9788175313709
 21
290.0365388997933
 31
0.0
  0
LINE
  5
6D41
330
295E
100
AcDbEntity
  8
0
 62
     3
100
AcDbLine
 10
238.9788175313709
 20
290.0365388997933
 30
0.0
 11
239.0219749513708
 21
289.8944694897933
 31
0.0
  0
LINE
  5
6D42
330
295E
100
AcDbEntity
  8
0
 62
     3
100
AcDbLine
 10
239.0219749513708
 20
289.8944694897933
 30
0.0
 11
239.0695270213707
 21
289.7635070097932
 31
0.0
  0
LINE
  5
6D43
330
295E
100
AcDbEntity
  8
0
 62
     3
100
AcDbLine
 10
239.0695270213707
 20
289.7635070097932
 30
0.0
 11
239.1211061713708
 21
289.6446637297934
 31
0.0
  0
LINE
  5
6D44
330
295E
100
AcDbEntity
  8
0
 62
     3
100
AcDbLine
 10
239.1211061713708
 20
289.6446637297934
 30
0.0
 11
239.1763137413708
 21
289.5388582597933
 31
0.0
  0
LINE
  5
6D45
330
295E
100
AcDbEntity
  8
0
 62
     3
100
AcDbLine
 10
239.1763137413708
 20
289.5388582597933
 30
0.0
 11
239.2347229913708
 21
289.4469083997933
 31
0.0
  0
LINE
  5
6D46
330
295E
100
AcDbEntity
  8
0
 62
     3
100
AcDbLine
 10
239.2347229913708
 20
289.4469083997933
 30
0.0
 11
239.2958824513708
 21
289.3695248997933
 31
0.0
  0
LINE
  5
6D47
330
295E
100
AcDbEntity
  8
0
 62
     3
100
AcDbLine
 10
239.2958824513708
 20
289.3695248997933
 30
0.0
 11
239.3593193913708
 21
289.3073058797932
 31
0.0
  0
LINE
  5
6D48
330
295E
100
AcDbEntity
  8
0
 62
     3
100
AcDbLine
 10
239.3593193913708
 20
289.3073058797932
 30
0.0
 11
239.4245434713708
 21
289.2607322697933
 31
0.0
  0
LINE
  5
6D49
330
295E
100
AcDbEntity
  8
0
 62
     3
100
AcDbLine
 10
239.4245434713708
 20
289.2607322697933
 30
0.0
 11
239.4910505513708
 21
289.2301640397932
 31
0.0
  0
LINE
  5
6D4A
330
295E
100
AcDbEntity
  8
0
 62
     3
100
AcDbLine
 10
239.4910505513708
 20
289.2301640397932
 30
0.0
 11
239.5583265613708
 21
289.2158374897932
 31
0.0
  0
LINE
  5
6D4B
330
295E
100
AcDbEntity
  8
0
 62
     3
100
AcDbLine
 10
239.5583265613708
 20
289.2158374897932
 30
0.0
 11
239.6258514913708
 21
289.2178633497934
 31
0.0
  0
LINE
  5
6D4C
330
295E
100
AcDbEntity
  8
0
 62
     3
100
AcDbLine
 10
239.6258514913708
 20
289.2178633497934
 30
0.0
 11
239.6931034113708
 21
289.2362259497933
 31
0.0
  0
LINE
  5
6D4D
330
295E
100
AcDbEntity
  8
0
 62
     3
100
AcDbLine
 10
239.6931034113708
 20
289.2362259497933
 30
0.0
 11
239.7595624913709
 21
289.2707833697933
 31
0.0
  0
LINE
  5
6D4E
330
295E
100
AcDbEntity
  8
0
 62
     3
100
AcDbLine
 10
239.7595624913709
 20
289.2707833697933
 30
0.0
 11
239.8247150513707
 21
289.3212684997932
 31
0.0
  0
LINE
  5
6D4F
330
295E
100
AcDbEntity
  8
0
 62
     3
100
AcDbLine
 10
239.8247150513707
 20
289.3212684997932
 30
0.0
 11
239.8880574813708
 21
289.3872910997932
 31
0.0
  0
LINE
  5
6D50
330
295E
100
AcDbEntity
  8
0
 62
     3
100
AcDbLine
 10
239.8880574813708
 20
289.3872910997932
 30
0.0
 11
239.9491001813708
 21
289.4683408597932
 31
0.0
  0
LINE
  5
6D51
330
295E
100
AcDbEntity
  8
0
 62
     3
100
AcDbLine
 10
239.9491001813708
 20
289.4683408597932
 30
0.0
 11
240.0073713213708
 21
289.5637913097933
 31
0.0
  0
LINE
  5
6D52
330
295E
100
AcDbEntity
  8
0
 62
     3
100
AcDbLine
 10
240.0073713213708
 20
289.5637913097933
 30
0.0
 11
240.0624205013707
 21
289.6729046697933
 31
0.0
  0
LINE
  5
6D53
330
295E
100
AcDbEntity
  8
0
 62
     3
100
AcDbLine
 10
240.0624205013707
 20
289.6729046697933
 30
0.0
 11
240.1138222213708
 21
289.7948375297933
 31
0.0
  0
LINE
  5
6D54
330
295E
100
AcDbEntity
  8
0
 62
     3
100
AcDbLine
 10
240.1138222213708
 20
289.7948375297933
 30
0.0
 11
240.1611791613708
 21
289.9286474397932
 31
0.0
  0
LINE
  5
6D55
330
295E
100
AcDbEntity
  8
0
 62
     3
100
AcDbLine
 10
240.1611791613708
 20
289.9286474397932
 30
0.0
 11
240.2041252813708
 21
290.0733000897933
 31
0.0
  0
LINE
  5
6D56
330
295E
100
AcDbEntity
  8
0
 62
     3
100
AcDbLine
 10
240.2041252813708
 20
290.0733000897933
 30
0.0
 11
240.2423286313708
 21
290.2276774097932
 31
0.0
  0
LINE
  5
6D57
330
295E
100
AcDbEntity
  8
0
 62
     3
100
AcDbLine
 10
240.2423286313708
 20
290.2276774097932
 30
0.0
 11
240.2754939213707
 21
290.3905861397933
 31
0.0
  0
LINE
  5
6D58
330
295E
100
AcDbEntity
  8
0
 62
     3
100
AcDbLine
 10
240.2754939213707
 20
290.3905861397933
 30
0.0
 11
240.3033648013708
 21
290.5607670697932
 31
0.0
  0
LINE
  5
6D59
330
295E
100
AcDbEntity
  8
0
100
AcDbLine
 10
102.9618039703342
 20
170.7663605636468
 30
0.0
 11
104.0061198343917
 21
173.7190206773281
 31
0.0
1001
ACAD
1000
DSTYLE
1002
{
1070
   147
1040
0.625
1070
    77
1070
     0
1002
}
  0
LINE
  5
6D5A
330
295E
100
AcDbEntity
  8
0
100
AcDbLine
 10
104.0061198343917
 20
173.7190206773281
 30
0.0
 11
106.5061198343917
 21
173.7190206773281
 31
0.0
1001
ACAD
1000
DSTYLE
1002
{
1070
   147
1040
0.625
1070
    77
1070
     0
1002
}
  0
LINE
  5
6D5B
330
295E
100
AcDbEntity
  8
0
  6
ByBlock
 62
     0
100
AcDbLine
 10
103.5933394076451
 20
170.5429950388299
 30
0.0
 11
102.1281918843892
 21
168.4094365321671
 31
0.0
  0
LINE
  5
6D5C
330
295E
100
AcDbEntity
  8
0
  6
ByBlock
 62
     0
100
AcDbLine
 10
102.1281918843892
 20
168.4094365321671
 30
0.0
 11
102.3302685330233
 21
170.9897260884637
 31
0.0
  0
LINE
  5
6D5D
330
295E
100
AcDbEntity
  8
0
  6
ByBlock
 62
     0
100
AcDbLine
 10
102.1281918843892
 20
168.4094365321671
 30
0.0
 11
102.9618039703342
 21
170.7663605636468
 31
0.0
  0
LINE
  5
6D5E
330
295E
100
AcDbEntity
  8
0
100
AcDbLine
 10
100.8113628355102
 20
172.0931288919794
 30
0.0
 11
101.97276926938
 21
177.4811420160182
 31
0.0
1001
ACAD
1000
DSTYLE
1002
{
1070
   147
1040
0.625
1070
    77
1070
     0
1002
}
  0
LINE
  5
6D5F
330
295E
100
AcDbEntity
  8
0
100
AcDbLine
 10
101.97276926938
 20
177.4811420160182
 30
0.0
 11
104.47276926938
 21
177.4811420160182
 31
0.0
1001
ACAD
1000
DSTYLE
1002
{
1070
   147
1040
0.625
1070
    77
1070
     0
1002
}
  0
LINE
  5
6D60
330
295E
100
AcDbEntity
  8
0
  6
ByBlock
 62
     0
100
AcDbLine
 10
101.4661951813627
 20
171.9519773242176
 30
0.0
 11
100.2845776347378
 21
169.6492595517226
 31
0.0
  0
LINE
  5
6D61
330
295E
100
AcDbEntity
  8
0
  6
ByBlock
 62
     0
100
AcDbLine
 10
100.2845776347378
 20
169.6492595517226
 30
0.0
 11
100.1565304896578
 21
172.2342804597411
 31
0.0
  0
LINE
  5
6D62
330
295E
100
AcDbEntity
  8
0
  6
ByBlock
 62
     0
100
AcDbLine
 10
100.2845776347378
 20
169.6492595517226
 30
0.0
 11
100.8113628355102
 21
172.0931288919794
 31
0.0
  0
LINE
  5
6D63
330
295E
100
AcDbEntity
  8
0
100
AcDbLine
 10
98.60144502634531
 20
174.0471851126979
 30
0.0
 11
98.33018530295429
 21
181.6409208334109
 31
0.0
1001
ACAD
1000
DSTYLE
1002
{
1070
   147
1040
0.625
1070
    77
1070
     0
1002
}
  0
LINE
  5
6D64
330
295E
100
AcDbEntity
  8
0
100
AcDbLine
 10
98.33018530295429
 20
181.6409208334109
 30
0.0
 11
100.8301853029543
 21
181.6409208334109
 31
0.0
1001
ACAD
1000
DSTYLE
1002
{
1070
   147
1040
0.625
1070
    77
1070
     0
1002
}
  0
LINE
  5
6D65
330
295E
100
AcDbEntity
  8
0
  6
ByBlock
 62
     0
100
AcDbLine
 10
99.2708905474199
 20
174.0710987190638
 30
0.0
 11
98.69069188438892
 21
171.5487786208857
 31
0.0
  0
LINE
  5
6D66
330
295E
100
AcDbEntity
  8
0
  6
ByBlock
 62
     0
100
AcDbLine
 10
98.69069188438892
 20
171.5487786208857
 30
0.0
 11
97.93199950527071
 21
174.0232715063319
 31
0.0
  0
LINE
  5
6D67
330
295E
100
AcDbEntity
  8
0
  6
ByBlock
 62
     0
100
AcDbLine
 10
98.69069188438892
 20
171.5487786208857
 30
0.0
 11
98.60144502634531
 21
174.0471851126979
 31
0.0
  0
LINE
  5
6D68
330
295E
100
AcDbEntity
  8
0
100
AcDbLine
 10
113.3212129088332
 20
161.0294934675826
 30
0.0
 11
108.1390835600105
 21
154.6409087681952
 31
0.0
1001
ACAD
1000
DSTYLE
1002
{
1070
   147
1040
0.625
1070
    77
1070
     0
1002
}
  0
LINE
  5
6D69
330
295E
100
AcDbEntity
  8
0
100
AcDbLine
 10
108.1390835600105
 20
154.6409087681952
 30
0.0
 11
105.6390835600105
 21
154.6409087681952
 31
0.0
1001
ACAD
1000
DSTYLE
1002
{
1070
   147
1040
0.625
1070
    77
1070
     0
1002
}
  0
LINE
  5
6D6A
330
295E
100
AcDbEntity
  8
0
  6
ByBlock
 62
     0
100
AcDbLine
 10
112.8009730793289
 20
161.4514883562407
 30
0.0
 11
114.8961204048795
 21
162.9710563377718
 31
0.0
  0
LINE
  5
6D6B
330
295E
100
AcDbEntity
  8
0
  6
ByBlock
 62
     0
100
AcDbLine
 10
114.8961204048795
 20
162.9710563377718
 30
0.0
 11
113.8414527383375
 21
160.6074985789245
 31
0.0
  0
LINE
  5
6D6C
330
295E
100
AcDbEntity
  8
0
  6
ByBlock
 62
     0
100
AcDbLine
 10
114.8961204048795
 20
162.9710563377718
 30
0.0
 11
113.3212129088332
 21
161.0294934675826
 31
0.0
  0
TEXT
  5
6D6D
330
295E
100
AcDbEntity
  8
0
 62
     4
100
AcDbText
 10
188.5147081547541
 20
160.1827772100501
 30
0.0
 40
3.0
  1
55\U+00B0
 50
297.5
100
AcDbText
  0
LINE
  5
6D6E
330
295E
100
AcDbEntity
  8
0
  6
ByBlock
 62
     0
100
AcDbLine
 10
195.9008269942594
 20
149.8585363687209
 30
0.0
 11
197.4639459263391
 21
147.7956770980894
 31
0.0
  0
LINE
  5
6D6F
330
295E
100
AcDbEntity
  8
0
  6
ByBlock
 62
     0
100
AcDbLine
 10
197.4639459263391
 20
147.7956770980894
 30
0.0
 11
195.0788159475574
 21
148.8006070213045
 31
0.0
  0
LINE
  5
6D70
330
295E
100
AcDbEntity
  8
0
  6
ByBlock
 62
     0
100
AcDbLine
 10
197.4639459263391
 20
147.7956770980894
 30
0.0
 11
195.4898214709084
 21
149.3295716950127
 31
0.0
  0
LINE
  5
6D71
330
295E
100
AcDbEntity
  8
0
  6
ByBlock
 62
     0
100
AcDbLine
 10
186.1882380244634
 20
165.8792483100125
 30
0.0
 11
186.7331019769582
 21
168.4094365321667
 31
0.0
  0
LINE
  5
6D72
330
295E
100
AcDbEntity
  8
0
  6
ByBlock
 62
     0
100
AcDbLine
 10
186.7331019769582
 20
168.4094365321667
 30
0.0
 11
187.5263291789214
 21
165.9457969943443
 31
0.0
  0
LINE
  5
6D73
330
295E
100
AcDbEntity
  8
0
  6
ByBlock
 62
     0
100
AcDbLine
 10
186.7331019769582
 20
168.4094365321667
 30
0.0
 11
186.8572836016924
 21
165.9125226521784
 31
0.0
  0
TEXT
  5
6D74
330
295E
100
AcDbEntity
  8
0
 62
     4
100
AcDbText
 10
186.1847167507499
 20
172.8469061546119
 30
0.0
 40
3.0
  1
35\U+00B0
 50
72.49999999999999
100
AcDbText
  0
LINE
  5
6D75
330
295E
100
AcDbEntity
  8
0
  6
ByBlock
 62
     0
100
AcDbLine
 10
187.4583249437322
 20
170.8731818571646
 30
0.0
 11
186.6654263753092
 21
168.4094365321667
 31
0.0
  0
LINE
  5
6D76
330
295E
100
AcDbEntity
  8
0
  6
ByBlock
 62
     0
100
AcDbLine
 10
186.6654263753092
 20
168.4094365321667
 30
0.0
 11
186.1202249242062
 21
170.9395520520534
 31
0.0
  0
LINE
  5
6D77
330
295E
100
AcDbEntity
  8
0
  6
ByBlock
 62
     0
100
AcDbLine
 10
186.6654263753092
 20
168.4094365321667
 30
0.0
 11
186.7892749339692
 21
170.906366954609
 31
0.0
  0
LINE
  5
6D78
330
295E
100
AcDbEntity
  8
0
  6
ByBlock
 62
     0
100
AcDbLine
 10
189.3308421047317
 20
181.122328814186
 30
0.0
 11
191.2286596314051
 21
182.8821634091715
 31
0.0
  0
LINE
  5
6D79
330
295E
100
AcDbEntity
  8
0
  6
ByBlock
 62
     0
100
AcDbLine
 10
191.2286596314051
 20
182.8821634091715
 30
0.0
 11
190.4650178510538
 21
180.4091934543281
 31
0.0
  0
LINE
  5
6D7A
330
295E
100
AcDbEntity
  8
0
  6
ByBlock
 62
     0
100
AcDbLine
 10
191.2286596314051
 20
182.8821634091715
 30
0.0
 11
189.8979299778927
 21
180.7657611342571
 31
0.0
  0
TEXT
  5
6D7B
330
295E
100
AcDbEntity
  8
0
 62
     4
100
AcDbText
 10
175.009621303564
 20
219.8237881609554
 30
0.0
 40
3.0
  1
48
 50
90.0
100
AcDbText
  0
LINE
  5
6D7C
330
295E
100
AcDbEntity
  8
0
  6
ByBlock
 62
     0
100
AcDbLine
 10
174.964748803564
 20
232.3663817950801
 30
0.0
 11
175.634621303564
 21
234.8663817950801
 31
0.0
  0
LINE
  5
6D7D
330
295E
100
AcDbEntity
  8
0
  6
ByBlock
 62
     0
100
AcDbLine
 10
175.634621303564
 20
234.8663817950801
 30
0.0
 11
176.304493803564
 21
232.3663817950801
 31
0.0
  0
LINE
  5
6D7E
330
295E
100
AcDbEntity
  8
0
  6
ByBlock
 62
     0
100
AcDbLine
 10
175.634621303564
 20
234.8663817950801
 30
0.0
 11
175.634621303564
 21
232.3663817950801
 31
0.0
  0
LINE
  5
6D7F
330
295E
100
AcDbEntity
  8
0
  6
ByBlock
 62
     0
100
AcDbLine
 10
176.304493803564
 20
213.3663817950798
 30
0.0
 11
175.634621303564
 21
210.8663817950798
 31
0.0
  0
LINE
  5
6D80
330
295E
100
AcDbEntity
  8
0
  6
ByBlock
 62
     0
100
AcDbLine
 10
175.634621303564
 20
210.8663817950798
 30
0.0
 11
174.964748803564
 21
213.3663817950798
 31
0.0
  0
LINE
  5
6D81
330
295E
100
AcDbEntity
  8
0
  6
ByBlock
 62
     0
100
AcDbLine
 10
175.634621303564
 20
210.8663817950798
 30
0.0
 11
175.634621303564
 21
213.3663817950798
 31
0.0
  0
TEXT
  5
6D82
330
295E
100
AcDbEntity
  8
0
 62
     4
100
AcDbText
 10
170.8548271888871
 20
166.5464312049314
 30
0.0
 40
3.0
  1
41
 50
90.0
100
AcDbText
  0
LINE
  5
6D83
330
295E
100
AcDbEntity
  8
0
  6
ByBlock
 62
     0
100
AcDbLine
 10
172.1496996888871
 20
160.4094365321671
 30
0.0
 11
171.4798271888871
 21
157.9094365321671
 31
0.0
  0
LINE
  5
6D84
330
295E
100
AcDbEntity
  8
0
  6
ByBlock
 62
     0
100
AcDbLine
 10
171.4798271888871
 20
157.9094365321671
 30
0.0
 11
170.8099546888871
 21
160.4094365321671
 31
0.0
  0
LINE
  5
6D85
330
295E
100
AcDbEntity
  8
0
  6
ByBlock
 62
     0
100
AcDbLine
 10
171.4798271888871
 20
157.9094365321671
 30
0.0
 11
171.4798271888871
 21
160.4094365321671
 31
0.0
  0
LINE
  5
6D86
330
295E
100
AcDbEntity
  8
0
  6
ByBlock
 62
     0
100
AcDbLine
 10
170.8099546888871
 20
175.9094365321671
 30
0.0
 11
171.4798271888871
 21
178.4094365321671
 31
0.0
  0
LINE
  5
6D87
330
295E
100
AcDbEntity
  8
0
  6
ByBlock
 62
     0
100
AcDbLine
 10
171.4798271888871
 20
178.4094365321671
 30
0.0
 11
172.1496996888871
 21
175.9094365321671
 31
0.0
  0
LINE
  5
6D88
330
295E
100
AcDbEntity
  8
0
  6
ByBlock
 62
     0
100
AcDbLine
 10
171.4798271888871
 20
178.4094365321671
 30
0.0
 11
171.4798271888871
 21
175.9094365321671
 31
0.0
  0
TEXT
  5
6D89
330
295E
100
AcDbEntity
  8
0
 62
     4
100
AcDbText
 10
138.6012905316193
 20
191.4647603472396
 30
0.0
 40
3.0
  1
98
100
AcDbText
  0
LINE
  5
6D8A
330
295E
100
AcDbEntity
  8
0
  6
ByBlock
 62
     0
100
AcDbLine
 10
117.3961204048795
 20
190.1698878472396
 30
0.0
 11
114.8961204048795
 21
190.8397603472396
 31
0.0
  0
LINE
  5
6D8B
330
295E
100
AcDbEntity
  8
0
  6
ByBlock
 62
     0
100
AcDbLine
 10
114.8961204048795
 20
190.8397603472396
 30
0.0
 11
117.3961204048795
 21
191.5096328472396
 31
0.0
  0
LINE
  5
6D8C
330
295E
100
AcDbEntity
  8
0
  6
ByBlock
 62
     0
100
AcDbLine
 10
114.8961204048795
 20
190.8397603472396
 30
0.0
 11
117.3961204048795
 21
190.8397603472396
 31
0.0
  0
LINE
  5
6D8D
330
295E
100
AcDbEntity
  8
0
  6
ByBlock
 62
     0
100
AcDbLine
 10
161.3961204048795
 20
191.5096328472396
 30
0.0
 11
163.8961204048795
 21
190.8397603472396
 31
0.0
  0
LINE
  5
6D8E
330
295E
100
AcDbEntity
  8
0
  6
ByBlock
 62
     0
100
AcDbLine
 10
163.8961204048795
 20
190.8397603472396
 30
0.0
 11
161.3961204048795
 21
190.1698878472396
 31
0.0
  0
LINE
  5
6D8F
330
295E
100
AcDbEntity
  8
0
  6
ByBlock
 62
     0
100
AcDbLine
 10
163.8961204048795
 20
190.8397603472396
 30
0.0
 11
161.3961204048795
 21
190.8397603472396
 31
0.0
  0
TEXT
  5
6D90
330
295E
100
AcDbEntity
  8
0
 62
     4
100
AcDbText
 10
225.5408531475341
 20
118.6242266985879
 30
0.0
 40
3.0
  1
(930)
100
AcDbText
  0
LINE
  5
6D91
330
295E
100
AcDbEntity
  8
0
  6
ByBlock
 62
     0
100
AcDbLine
 10
174.1269657717084
 20
117.3293541985879
 30
0.0
 11
171.6269657717084
 21
117.9992266985879
 31
0.0
  0
LINE
  5
6D92
330
295E
100
AcDbEntity
  8
0
  6
ByBlock
 62
     0
100
AcDbLine
 10
171.6269657717084
 20
117.9992266985879
 30
0.0
 11
174.1269657717084
 21
118.6690991985879
 31
0.0
  0
LINE
  5
6D93
330
295E
100
AcDbEntity
  8
0
  6
ByBlock
 62
     0
100
AcDbLine
 10
171.6269657717084
 20
117.9992266985879
 30
0.0
 11
174.1269657717084
 21
117.9992266985879
 31
0.0
  0
LINE
  5
6D94
330
295E
100
AcDbEntity
  8
0
  6
ByBlock
 62
     0
100
AcDbLine
 10
288.4547405233598
 20
118.6690991985879
 30
0.0
 11
290.9547405233598
 21
117.9992266985879
 31
0.0
  0
LINE
  5
6D95
330
295E
100
AcDbEntity
  8
0
  6
ByBlock
 62
     0
100
AcDbLine
 10
290.9547405233598
 20
117.9992266985879
 30
0.0
 11
288.4547405233598
 21
117.3293541985879
 31
0.0
  0
LINE
  5
6D96
330
295E
100
AcDbEntity
  8
0
  6
ByBlock
 62
     0
100
AcDbLine
 10
290.9547405233598
 20
117.9992266985879
 30
0.0
 11
288.4547405233598
 21
117.9992266985879
 31
0.0
  0
TEXT
  5
6D97
330
295E
100
AcDbEntity
  8
0
 62
     4
100
AcDbText
 10
136.0242845510187
 20
104.9985166384067
 30
0.0
 40
3.0
  1
37
 50
90.0
100
AcDbText
  0
LINE
  5
6D98
330
295E
100
AcDbEntity
  8
0
  6
ByBlock
 62
     0
100
AcDbLine
 10
137.3191570510187
 20
101.2295176177551
 30
0.0
 11
136.6492845510187
 21
98.7295176177551
 31
0.0
  0
LINE
  5
6D99
330
295E
100
AcDbEntity
  8
0
  6
ByBlock
 62
     0
100
AcDbLine
 10
136.6492845510187
 20
98.7295176177551
 30
0.0
 11
135.9794120510187
 21
101.2295176177551
 31
0.0
  0
LINE
  5
6D9A
330
295E
100
AcDbEntity
  8
0
  6
ByBlock
 62
     0
100
AcDbLine
 10
136.6492845510187
 20
98.7295176177551
 30
0.0
 11
136.6492845510187
 21
101.2295176177551
 31
0.0
  0
LINE
  5
6D9B
330
295E
100
AcDbEntity
  8
0
  6
ByBlock
 62
     0
100
AcDbLine
 10
135.9794120510187
 20
114.7310157091893
 30
0.0
 11
136.6492845510187
 21
117.2310157091893
 31
0.0
  0
LINE
  5
6D9C
330
295E
100
AcDbEntity
  8
0
  6
ByBlock
 62
     0
100
AcDbLine
 10
136.6492845510187
 20
117.2310157091893
 30
0.0
 11
137.3191570510187
 21
114.7310157091893
 31
0.0
  0
LINE
  5
6D9D
330
295E
100
AcDbEntity
  8
0
  6
ByBlock
 62
     0
100
AcDbLine
 10
136.6492845510187
 20
117.2310157091893
 30
0.0
 11
136.6492845510187
 21
114.7310157091893
 31
0.0
  0
TEXT
  5
6D9E
330
295E
100
AcDbEntity
  8
0
 62
     4
100
AcDbText
 10
119.4183342111816
 20
94.02178799599022
 30
0.0
 40
3.0
  1
38
100
AcDbText
  0
LINE
  5
6D9F
330
295E
100
AcDbEntity
  8
0
  6
ByBlock
 62
     0
100
AcDbLine
 10
114.9183342111817
 20
92.72691549599022
 30
0.0
 11
112.4183342111817
 21
93.39678799599022
 31
0.0
  0
LINE
  5
6DA0
330
295E
100
AcDbEntity
  8
0
  6
ByBlock
 62
     0
100
AcDbLine
 10
112.4183342111817
 20
93.39678799599022
 30
0.0
 11
114.9183342111817
 21
94.06666049599023
 31
0.0
  0
LINE
  5
6DA1
330
295E
100
AcDbEntity
  8
0
  6
ByBlock
 62
     0
100
AcDbLine
 10
112.4183342111817
 20
93.39678799599022
 30
0.0
 11
114.9183342111817
 21
93.39678799599022
 31
0.0
  0
LINE
  5
6DA2
330
295E
100
AcDbEntity
  8
0
  6
ByBlock
 62
     0
100
AcDbLine
 10
128.9183342111815
 20
94.06666049599023
 30
0.0
 11
131.4183342111815
 21
93.39678799599022
 31
0.0
  0
LINE
  5
6DA3
330
295E
100
AcDbEntity
  8
0
  6
ByBlock
 62
     0
100
AcDbLine
 10
131.4183342111815
 20
93.39678799599022
 30
0.0
 11
128.9183342111815
 21
92.72691549599022
 31
0.0
  0
LINE
  5
6DA4
330
295E
100
AcDbEntity
  8
0
  6
ByBlock
 62
     0
100
AcDbLine
 10
131.4183342111815
 20
93.39678799599022
 30
0.0
 11
128.9183342111815
 21
93.39678799599022
 31
0.0
  0
ENDSEC
  0
SECTION
  2
OBJECTS
  0
DICTIONARY
  5
28FF
330
0
100
AcDbDictionary
281
     1
  3
ACAD_2007HEADERVARS_RT
350
6DA8
  3
ACAD_COLOR
350
2955
  3
ACAD_GROUP
350
2900
  3
ACAD_LAYOUT
350
2954
  3
ACAD_MATERIAL
350
2903
  3
ACAD_MLEADERSTYLE
350
2958
  3
ACAD_MLINESTYLE
350
2951
  3
ACAD_PLOTSETTINGS
350
2953
  3
ACAD_PLOTSTYLENAME
350
2901
  3
ACAD_SCALELIST
350
2935
  3
ACAD_TABLESTYLE
350
2956
  3
ACAD_VISUALSTYLE
350
291C
  3
ACDB_RECOMPOSE_DATA
350
6DA6
  3
AcDbVariableDictionary
350
2A4D
  3
AEC_PROPERTY_SET_DEFS
350
5B1D
  3
DWGPROPS
350
6DA7
  0
DICTIONARY
  5
2BBD
330
28F5
100
AcDbDictionary
280
     1
281
     1
  3
ACAD_LAYERSTATES
360
2BBE
  0
DICTIONARY
  5
2A49
330
2947
100
AcDbDictionary
280
     1
281
     1
  3
ADSK_XREC_LAYER_RECONCILED
360
2A4A
  0
DICTIONARY
  5
32D4
330
295E
100
AcDbDictionary
280
     1
281
     1
  3
ACAD_SORTENTS
360
32D5
  0
DICTIONARY
  5
524B
330
520E
100
AcDbDictionary
280
     1
281
     1
  3
ACAD_SORTENTS
360
524C
  0
DICTIONARY
  5
6DA8
102
{ACAD_REACTORS
330
28FF
102
}
330
28FF
100
AcDbDictionary
281
     1
  3
DIMARCSYM
350
6DAA
  3
DIMFXL
350
6DA9
  3
DIMJOGANG
350
6DAB
  0
DICTIONARY
  5
2955
102
{ACAD_REACTORS
330
28FF
102
}
330
28FF
100
AcDbDictionary
281
     1
  0
DICTIONARY
  5
2900
102
{ACAD_REACTORS
330
28FF
102
}
330
28FF
100
AcDbDictionary
281
     1
  0
DICTIONARY
  5
2954
102
{ACAD_REACTORS
330
28FF
102
}
330
28FF
100
AcDbDictionary
281
     1
  3
Model
350
2961
  3
レイアウト1
350
295D
  0
DICTIONARY
  5
2903
102
{ACAD_REACTORS
330
28FF
102
}
330
28FF
100
AcDbDictionary
281
     1
  3
ByBlock
350
290C
  3
ByLayer
350
2904
  3
Global
350
2914
  0
DICTIONARY
  5
2958
102
{ACAD_REACTORS
330
28FF
102
}
330
28FF
100
AcDbDictionary
281
     1
  3
Standard
350
2959
  0
DICTIONARY
  5
2951
102
{ACAD_REACTORS
330
28FF
102
}
330
28FF
100
AcDbDictionary
281
     1
  3
Standard
350
2952
  0
DICTIONARY
  5
2953
102
{ACAD_REACTORS
330
28FF
102
}
330
28FF
100
AcDbDictionary
281
     1
  0
ACDBDICTIONARYWDFLT
  5
2901
102
{ACAD_REACTORS
330
28FF
102
}
330
28FF
100
AcDbDictionary
281
     1
  3
Normal
350
2902
100
AcDbDictionaryWithDefault
340
2902
  0
DICTIONARY
  5
2935
102
{ACAD_REACTORS
330
28FF
102
}
330
28FF
100
AcDbDictionary
281
     1
  3
A0
350
2936
  3
A1
350
2937
  3
A2
350
2938
  3
A3
350
2939
  3
A4
350
293A
  3
A5
350
293B
  3
A6
350
293C
  3
A7
350
293D
  3
A8
350
293E
  3
A9
350
293F
  3
B0
350
2940
  3
B1
350
2941
  3
B2
350
2942
  3
B3
350
2943
  3
B4
350
2944
  3
B5
350
2945
  3
B6
350
2946
  0
DICTIONARY
  5
2956
102
{ACAD_REACTORS
330
28FF
102
}
330
28FF
100
AcDbDictionary
281
     1
  3
Standard
350
2957
  0
DICTIONARY
  5
291C
102
{ACAD_REACTORS
330
28FF
102
}
330
28FF
100
AcDbDictionary
281
     1
  3
2dWireframe
350
2922
  3
3dWireframe
350
2CA3
  3
Basic
350
2921
  3
Brighten
350
2928
  3
ColorChange
350
292C
  3
Conceptual
350
2925
  3
Dim
350
2927
  3
EdgeColorOff
350
2934
  3
Facepattern
350
292B
  3
Flat
350
291D
  3
FlatWithEdges
350
291E
  3
Gouraud
350
291F
  3
GouraudWithEdges
350
2920
  3
Hidden
350
2924
  3
JitterOff
350
2932
  3
Linepattern
350
292A
  3
OverhangOff
350
2933
  3
Realistic
350
2926
  3
Shaded
350
2931
  3
Shaded with edges
350
2930
  3
Shades of Gray
350
292D
  3
Sketchy
350
292E
  3
Thicken
350
2929
  3
Wireframe
350
2923
  3
X-Ray
350
292F
  0
XRECORD
  5
6DA6
102
{ACAD_REACTORS
330
28FF
102
}
330
28FF
100
AcDbXrecord
280
     1
 90
        1
330
2957
  0
DICTIONARY
  5
2A4D
102
{ACAD_REACTORS
330
28FF
102
}
330
28FF
100
AcDbDictionary
281
     1
  3
CANNOSCALE
350
2A50
  3
CMLEADERSTYLE
350
2A4F
  3
CTABLESTYLE
350
2A4E
  3
DIMASSOC
350
2A53
  3
INDEXCTL
350
2A52
  3
SORTENTS
350
2A51
  3
XCLIPFRAME
350
6C63
  0
DICTIONARY
  5
5B1D
102
{ACAD_REACTORS
330
28FF
102
}
330
28FF
100
AcDbDictionary
281
     1
  0
XRECORD
  5
6DA7
102
{ACAD_REACTORS
330
28FF
102
}
330
28FF
100
AcDbXrecord
280
     1
  1
DWGPROPS COOKIE
  2

  3

  4

  6

  7

  8
kaiha
  9

300
=
301
=
302
=
303
=
304
=
305
=
306
=
307
=
308
=
309
=
 40
1.017089247685185
 41
2455894.599291875
 42
2458340.667736285
  1

 90
        0
  0
DICTIONARY
  5
2BBE
102
{ACAD_REACTORS
330
2BBD
102
}
330
2BBD
100
AcDbDictionary
281
     1
  0
XRECORD
  5
2A4A
102
{ACAD_REACTORS
330
2A49
102
}
330
2A49
100
AcDbXrecord
280
     1
290
     1
  0
SORTENTSTABLE
  5
32D5
102
{ACAD_REACTORS
330
32D4
102
}
330
32D4
100
AcDbSortentsTable
330
295E
331
5CD4
  5
5D13
331
617E
  5
6239
331
5CD0
  5
5D0F
331
61B5
  5
6273
331
61B1
  5
626F
331
6D1F
  5
1649
331
6D1B
  5
1645
331
6D56
  5
3832
331
6D52
  5
382E
331
626D
  5
6D7E
331
6D95
  5
61E3
331
61F7
  5
6D09
331
164F
  5
4EB1
331
6D91
  5
61E5
331
61F3
  5
6D05
331
164B
  5
4EAD
331
5D16
  5
618B
331
15D5
  5
15D5
331
6265
  5
6D78
331
6D8D
  5
61F3
331
622E
  5
6D40
331
382E
  5
4EDC
331
61EF
  5
6D01
331
1647
  5
4EA9
331
5D12
  5
6187
331
15D1
  5
15D1
331
4ED4
  5
5CD2
331
6261
  5
6D74
331
6D89
  5
61F9
331
622A
  5
6D3C
331
382A
  5
4ED8
331
61EB
  5
6CFD
331
160C
  5
160E
331
1643
  5
3836
331
5D0E
  5
6183
331
15CD
  5
15CD
331
4ED0
  5
5CCE
331
1608
  5
160A
331
5D0A
  5
617F
331
4F0B
  5
5CFC
331
4ECC
  5
5CBC
331
15C9
  5
15C9
331
4EC8
  5
5CB8
331
5CCC
  5
5D0B
331
5CBC
  5
5D09
331
61AD
  5
626B
331
5F56
  5
6236
331
5CB8
  5
5D05
331
61A9
  5
6265
331
61A5
  5
6261
331
61A1
  5
625D
331
6D0F
  5
619F
331
6D4E
  5
382A
331
6D4A
  5
3826
331
6D46
  5
2BCA
331
6D03
  5
61F1
331
6D42
  5
1679
331
5D1E
  5
61A9
331
625D
  5
6D70
331
6D85
  5
6202
331
6226
  5
6D38
331
3826
  5
4ED4
331
61E7
  5
6CF9
331
163F
  5
1641
331
6259
  5
6D6C
331
6D81
  5
6209
331
6222
  5
6D34
331
61E3
  5
6CF5
331
5D06
  5
5F56
331
15C5
  5
15C5
331
1604
  5
1606
331
163B
  5
163D
331
6255
  5
6D68
331
6D7D
  5
620B
331
621E
  5
6D30
331
16B6
  5
4ECE
331
61DF
  5
6CF1
331
1637
  5
1639
331
5D02
  5
5F02
331
15C1
  5
15C1
331
4EC4
  5
5CB4
331
1600
  5
1602
331
6B48
  5
6D9D
331
6251
  5
6D64
331
6D79
  5
6210
331
621A
  5
6D2C
331
61DB
  5
6CED
331
1633
  5
1635
331
5CFE
  5
5D85
331
15BD
  5
15BD
331
4EC0
  5
4F0C
331
15FC
  5
15FE
331
15F8
  5
15FA
331
5CFA
  5
5D3D
331
4EBC
  5
4F08
331
15B9
  5
15B9
331
4EB8
  5
4EFC
331
5CB4
  5
5D01
331
619D
  5
6259
331
5F06
  5
6229
331
6199
  5
6255
331
5F02
  5
6226
331
6195
  5
6251
331
5EFE
  5
5D40
331
6191
  5
624D
331
6D3E
  5
1668
331
6D3A
  5
1664
331
6CF7
  5
6205
331
6D36
  5
1660
331
6D32
  5
165C
331
624D
  5
6D60
331
6D75
  5
6212
331
6216
  5
6D28
331
61D7
  5
6CE9
331
162F
  5
1631
331
6288
  5
6D99
331
6249
  5
6D5C
331
6D71
  5
6217
331
6212
  5
6D24
331
166A
  5
4ECC
331
61D3
  5
6CE5
331
5D3D
  5
61CE
331
5CF6
  5
5D39
331
15B5
  5
15B5
331
15F4
  5
15F6
331
4EF7
  5
5CF4
331
162B
  5
162D
331
6284
  5
6D95
331
6245
  5
6D59
331
6D6D
  5
621D
331
620E
  5
6D20
331
1666
  5
4EC8
331
61CF
  5
6B49
331
5D39
  5
61C7
331
5CF2
  5
5D35
331
15F0
  5
15F2
331
4EB4
  5
4EF3
331
4EF3
  5
5CF1
331
1627
  5
1629
331
6280
  5
6D91
331
6241
  5
6D53
331
6D69
  5
6222
331
620A
  5
6D1C
331
1662
  5
4EC4
331
61CB
  5
6289
331
1623
  5
1625
331
5D35
  5
61C3
331
5CEE
  5
5D31
331
4EB0
  5
4EEF
331
4EEF
  5
5CED
331
15EC
  5
15EE
331
15E8
  5
15EA
331
5D31
  5
61BC
331
5CEA
  5
5D2D
331
4EEB
  5
5CE9
331
4EAC
  5
4EEB
331
15A9
  5
15A9
331
4EA8
  5
4EE7
331
618D
  5
6249
331
6189
  5
6244
331
6185
  5
6240
331
6181
  5
623C
331
6D2E
  5
1658
331
6CEB
  5
6223
331
6D2A
  5
1654
331
6D26
  5
1650
331
6D22
  5
164C
331
627C
  5
6D8D
331
6DA4
  5
6196
331
623D
  5
6D4F
331
6D65
  5
622A
331
6206
  5
6D18
331
165E
  5
4EC0
331
61C7
  5
6285
331
161F
  5
1621
331
6278
  5
6D89
331
6DA0
  5
619B
331
6239
  5
6D4B
331
6D61
  5
6231
331
6202
  5
6D14
331
165A
  5
4EBC
331
61C3
  5
6281
331
5D2D
  5
61B8
331
5CE6
  5
5D29
331
15A5
  5
15A5
331
4EE7
  5
5CE5
331
161B
  5
161D
331
6D5D
  5
6DA1
331
6274
  5
6D85
331
6D9C
  5
61A2
331
6235
  5
6D47
331
61FE
  5
6D10
331
1656
  5
4EB8
331
61BF
  5
627D
331
5D29
  5
61B4
331
5CE2
  5
5D25
331
15A1
  5
15A1
331
15E0
  5
15E2
331
4EE3
  5
5CE1
331
1617
  5
1619
331
6D59
  5
6DA2
331
6270
  5
6D81
331
6D98
  5
61A4
331
6231
  5
6D43
331
61FA
  5
6D0C
331
1652
  5
4EB4
331
61BB
  5
6279
331
1613
  5
1615
331
5D25
  5
61B0
331
5CDE
  5
5D21
331
159D
  5
159D
331
4EDF
  5
5CDD
331
5D21
  5
61AC
331
5CDA
  5
5D19
331
4EDB
  5
5CD9
331
3834
  5
4EE2
331
3830
  5
4EDE
331
5CD7
  5
5D16
331
5CD3
  5
5D12
331
61B4
  5
6272
331
61B0
  5
626E
331
6B47
  5
6D9C
331
6D1E
  5
1648
331
6D1A
  5
1644
331
6D55
  5
3831
331
6D16
  5
6190
331
6D51
  5
382D
331
626C
  5
6D7D
331
6D94
  5
61E2
331
61F6
  5
6D08
331
164E
  5
4EB0
331
6D90
  5
61E8
331
61F2
  5
6D04
331
164A
  5
4EAC
331
5D15
  5
618A
331
15D4
  5
15D4
331
4ED7
  5
5CD5
331
6264
  5
6D77
331
6D8C
  5
61F8
331
622D
  5
6D3F
331
382D
  5
4EDB
331
61EE
  5
6D00
331
1646
  5
4EA8
331
5D11
  5
6186
331
15D0
  5
15D0
331
4ED3
  5
5CD1
331
160F
  5
1611
331
6260
  5
6D73
331
6D88
  5
61FF
331
6229
  5
6D3B
331
3829
  5
4ED7
331
61EA
  5
6CFC
331
160B
  5
160D
331
1642
  5
3835
331
5D0D
  5
6182
331
4ECF
  5
5CCD
331
15CC
  5
15CC
331
5D09
  5
617E
331
15C8
  5
15C8
331
4F0A
  5
5CFB
331
4ECB
  5
5CBB
331
5CCF
  5
5D0E
331
5CCB
  5
5D0A
331
5CBB
  5
5D08
331
61AC
  5
626A
331
61A8
  5
6264
331
61A4
  5
6260
331
61A0
  5
625C
331
6D0E
  5
619E
331
6D4D
  5
3829
331
6D0A
  5
61DC
331
6D49
  5
3825
331
6D45
  5
2BC9
331
6D02
  5
61F0
331
6D41
  5
166D
331
5D1D
  5
61A8
331
625C
  5
6D6F
331
6D84
  5
6201
331
6225
  5
6D37
331
3825
  5
4ED3
331
61E6
  5
6CF8
331
1607
  5
1609
331
163E
  5
1640
331
6258
  5
6D6B
331
6D80
  5
6208
331
6221
  5
6D33
331
61E2
  5
6CF4
331
5D05
  5
5F06
331
15C4
  5
15C4
331
4EC7
  5
5CB7
331
1603
  5
1605
331
163A
  5
163C
331
6254
  5
6D67
331
6D7C
  5
620A
331
621D
  5
6D2F
331
16B5
  5
4ECD
331
61DE
  5
6CF0
331
1636
  5
1638
331
5D01
  5
5F01
331
15C0
  5
15C0
331
4EC3
  5
585F
331
15FF
  5
1601
331
6250
  5
6D63
331
6D78
  5
620F
331
6219
  5
6D2B
331
61DA
  5
6CEC
331
15FB
  5
15FD
331
1632
  5
1634
331
5D84
  5
61EE
331
5CFD
  5
5D47
331
15BC
  5
15BC
331
4EBF
  5
4F0B
331
5CF9
  5
5D3C
331
4EBB
  5
4F01
331
5CB7
  5
5D04
331
585F
  5
5D00
331
619C
  5
6258
331
5F05
  5
6228
331
6198
  5
6254
331
5F01
  5
6225
331
6194
  5
6250
331
5EFD
  5
5F00
331
6190
  5
624C
331
6CFE
  5
61FC
331
6D3D
  5
1667
331
6D39
  5
1663
331
6CF6
  5
6204
331
6D35
  5
165F
331
6CF2
  5
620E
331
6D31
  5
165B
331
624C
  5
6D5F
331
6D74
  5
6215
331
6215
  5
6D27
331
61D6
  5
6CE8
331
15F7
  5
15F9
331
162E
  5
1630
331
6287
  5
6D98
331
6D70
  5
621C
331
6211
  5
6D23
331
1669
  5
4ECB
331
61D2
  5
6CE4
331
5D3C
  5
61CD
331
5CF5
  5
5D38
331
15F3
  5
15F5
331
4EB7
  5
4EF7
331
4EF6
  5
5CF3
331
162A
  5
162C
331
6283
  5
6D94
331
6244
  5
6D58
331
6D6C
  5
6220
331
620D
  5
6D1F
331
1665
  5
4EC7
331
61CE
  5
6B48
331
1626
  5
1628
331
5D38
  5
61C6
331
5CF1
  5
5D34
331
15EF
  5
15F1
331
4EB3
  5
4EF2
331
4EF2
  5
5CF0
331
6240
  5
6D52
331
6D68
  5
6221
331
6209
  5
6D1B
331
1661
  5
4EC3
331
61CA
  5
6288
331
1622
  5
1624
331
5D34
  5
61BF
331
5CED
  5
5D30
331
4EAF
  5
4EEE
331
4EEE
  5
5CEC
331
15EB
  5
15ED
331
5D30
  5
61BB
331
5CE9
  5
5D2C
331
4EEA
  5
5CE8
331
4EAB
  5
4EEA
331
15A8
  5
15A8
331
618C
  5
6247
331
6188
  5
6243
331
6184
  5
623F
331
6180
  5
623B
331
6CEE
  5
6216
331
6D2D
  5
1657
331
6D29
  5
1653
331
6D25
  5
164F
331
6D21
  5
164B
331
627F
  5
6D90
331
627B
  5
6D8C
331
6DA3
  5
6195
331
623C
  5
6D4E
331
6D64
  5
622E
331
6205
  5
6D17
331
165D
  5
4EBF
331
61C6
  5
6284
331
161E
  5
1620
331
6277
  5
6D88
331
6D9F
  5
619A
331
6238
  5
6D4A
331
6D60
  5
6230
331
6201
  5
6D13
331
1659
  5
4EBB
331
61C2
  5
6280
331
5D2C
  5
61B7
331
5CE5
  5
5D28
331
15A4
  5
15A4
331
4EA7
  5
4EE6
331
4EE6
  5
5CE4
331
161A
  5
161C
331
6D5C
  5
6DA0
331
6273
  5
6D84
331
6D9B
  5
61A1
331
6234
  5
6D46
331
61FD
  5
6D0F
331
1655
  5
4EB7
331
61BE
  5
627C
331
5D28
  5
61B3
331
5CE1
  5
5D24
331
15A0
  5
15A0
331
15DF
  5
15E1
331
4EE2
  5
5CE0
331
1616
  5
1618
331
6230
  5
6D42
331
6D58
  5
3834
331
61F9
  5
6D0B
331
1651
  5
4EB3
331
61BA
  5
6278
331
5D24
  5
61AF
331
5CDD
  5
5D20
331
1612
  5
1614
331
3837
  5
4EE5
331
4EDE
  5
5CDC
331
5D20
  5
61AB
331
5CD9
  5
5D18
331
4EDA
  5
5CD8
331
3833
  5
4EE1
331
5CD6
  5
5D15
331
5CD2
  5
5D11
331
61B7
  5
6275
331
61B3
  5
6271
331
5F58
  5
6238
331
6D1D
  5
1647
331
6CE5
  5
6235
331
6D54
  5
3830
331
6D15
  5
618F
331
6D50
  5
382C
331
626F
  5
6D80
331
6D97
  5
61A7
331
626B
  5
6D7C
331
6D93
  5
61E7
331
61F5
  5
6D07
331
164D
  5
4EAF
331
6267
  5
6D7A
331
6D8F
  5
61F5
331
61F1
  5
6D03
331
1649
  5
4EAB
331
5D14
  5
6189
331
4ED6
  5
5CD4
331
15D3
  5
15D3
331
6263
  5
6D76
331
6D8B
  5
61F7
331
622C
  5
6D3E
331
382C
  5
4EDA
331
61ED
  5
6CFF
331
1645
  5
4EA7
331
5D10
  5
6185
331
15CF
  5
15CF
331
4ED2
  5
5CD0
331
160E
  5
1610
331
6228
  5
6D3A
331
61E9
  5
6CFB
331
3828
  5
4ED6
331
160A
  5
160C
331
5D0C
  5
6181
331
4F0D
  5
5CFE
331
4ECE
  5
5CCC
331
15CB
  5
15CB
331
5D08
  5
5F58
331
4F09
  5
5CFA
331
4ECA
  5
5CBA
331
5CCE
  5
5D0D
331
61AF
  5
626D
331
5CBA
  5
5D07
331
61AB
  5
6267
331
61A7
  5
6263
331
61A3
  5
625F
331
6D4C
  5
3828
331
6D09
  5
61D8
331
6D48
  5
3824
331
6D44
  5
2A48
331
6D40
  5
166A
331
5D18
  5
618D
331
625F
  5
6D72
331
6D87
  5
61FE
331
625B
  5
6D6E
331
6D83
  5
6200
331
6224
  5
6D36
331
3824
  5
4ED2
331
61E5
  5
6CF7
331
15C7
  5
15C7
331
1606
  5
1608
331
163D
  5
163F
331
6257
  5
6D6A
331
6D7F
  5
6207
331
6220
  5
6D32
331
61E1
  5
6CF3
331
5D04
  5
5F05
331
15C3
  5
15C3
331
4EC6
  5
5CB6
331
1602
  5
1604
331
1639
  5
163B
331
6253
  5
6D66
331
6D7B
  5
620D
331
621C
  5
6D2E
331
61DD
  5
6CEF
331
1635
  5
1637
331
5D00
  5
5E09
331
15BF
  5
15BF
331
4EC2
  5
585A
331
4F01
  5
5CF8
331
15FE
  5
1600
331
6218
  5
6D2A
331
61D9
  5
6CEB
331
15FA
  5
15FC
331
1631
  5
1633
331
5D83
  5
61EB
331
5CFC
  5
5D3F
331
4EFD
  5
5CF6
331
4EBE
  5
4F0A
331
15BB
  5
15BB
331
5CF8
  5
5D3B
331
4EBA
  5
4F00
331
5CB6
  5
5D03
331
619F
  5
625B
331
585A
  5
5CFF
331
619B
  5
6257
331
5F04
  5
6227
331
6197
  5
6253
331
5F00
  5
6224
331
6193
  5
624F
331
6CFD
  5
61FB
331
6D3C
  5
1666
331
6D38
  5
1662
331
6D34
  5
165E
331
6D30
  5
165A
331
2A48
  5
4ED0
331
624F
  5
6D62
331
6D77
  5
6214
331
628A
  5
6D9B
331
624B
  5
6D5E
331
6D73
  5
6219
331
6214
  5
6D26
331
61D5
  5
6CE7
331
5D3F
  5
61D3
331
15F6
  5
15F8
331
162D
  5
162F
331
6286
  5
6D97
331
6247
  5
6D5B
331
6D6F
  5
621B
331
6210
  5
6D22
331
1668
  5
4ECA
331
61D1
  5
6CE1
331
5D3B
  5
61CC
331
5CF4
  5
5D37
331
15F2
  5
15F4
331
4EB6
  5
4EF6
331
4EF5
  5
5CF2
331
1629
  5
162B
331
6282
  5
6D93
331
6243
  5
6D55
331
6D6B
  5
621F
331
620C
  5
6D1E
331
1664
  5
4EC6
331
61CD
  5
6B47
331
1625
  5
1627
331
5D37
  5
61C5
331
5CF0
  5
5D33
331
4EB2
  5
4EF1
331
4EF1
  5
5CEF
331
15EE
  5
15F0
331
6208
  5
6D1A
331
1660
  5
4EC2
331
61C9
  5
6287
331
15EA
  5
15EC
331
1621
  5
1623
331
5D33
  5
61BE
331
5CEC
  5
5D2F
331
15AB
  5
15AB
331
4EAE
  5
4EED
331
4EED
  5
5CEB
331
5CE8
  5
5D2B
331
4EE9
  5
5CE7
331
4EAA
  5
4EE9
331
618F
  5
624B
331
618B
  5
6246
331
6187
  5
6242
331
6183
  5
623E
331
6D2C
  5
1656
331
6D28
  5
1652
331
6D24
  5
164E
331
6D20
  5
164A
331
627E
  5
6D8F
331
623F
  5
6D51
331
6D67
  5
622C
331
627A
  5
6D8B
331
6DA2
  5
6194
331
623B
  5
6D4D
331
6D63
  5
622D
331
6204
  5
6D16
331
165C
  5
4EBE
331
61C5
  5
6283
331
161D
  5
161F
331
5D2F
  5
61BA
331
15A7
  5
15A7
331
6276
  5
6D87
331
6D9E
  5
619D
331
6237
  5
6D49
331
6D5F
  5
6234
331
6200
  5
6D12
331
1658
  5
4EBA
331
61C1
  5
627F
331
5D2B
  5
61B6
331
5CE4
  5
5D27
331
15A3
  5
15A3
331
15E2
  5
15E4
331
4EE5
  5
5CE3
331
1619
  5
161B
331
6D5B
  5
6D9F
331
6272
  5
6D83
331
6D9A
  5
61A6
331
6233
  5
6D45
331
61FC
  5
6D0E
331
1654
  5
4EB6
331
61BD
  5
627B
331
1615
  5
1617
331
5D27
  5
61B2
331
5CE0
  5
5D23
331
159F
  5
159F
331
4EE1
  5
5CDF
331
61F8
  5
6D0A
331
1650
  5
4EB2
331
61B9
  5
6277
331
5D23
  5
61AE
331
5CDC
  5
5D1F
331
1611
  5
1613
331
3836
  5
4EE4
331
4EDD
  5
5CDB
331
5CD8
  5
5D17
331
4ED9
  5
5CD7
331
3832
  5
4EE0
331
5CD5
  5
5D14
331
617F
  5
623A
331
5CD1
  5
5D10
331
61B6
  5
6274
331
61B2
  5
6270
331
6D1C
  5
1646
331
6D57
  5
3833
331
6D53
  5
382F
331
6D14
  5
618E
331
6CE0
  5
6DA4
331
6D10
  5
61A0
331
626E
  5
6D7F
331
6D96
  5
61E4
331
626A
  5
6D7B
331
6D92
  5
61E6
331
61F4
  5
6D06
331
164C
  5
4EAE
331
5D17
  5
618C
331
15D6
  5
15D6
331
6266
  5
6D79
331
6D8E
  5
61F4
331
622F
  5
6D41
331
382F
  5
4EDD
331
61F0
  5
6D02
331
1648
  5
4EAA
331
5D13
  5
6188
331
15D2
  5
15D2
331
4ED5
  5
5CD3
331
6262
  5
6D75
331
6D8A
  5
61F6
331
622B
  5
6D3D
331
382B
  5
4ED9
331
61EC
  5
6CFE
331
1644
  5
3837
331
5D0F
  5
6184
331
15CE
  5
15CE
331
4ED1
  5
5CCF
331
160D
  5
160F
331
61E8
  5
6CFA
331
1609
  5
160B
331
1640
  5
1642
331
5D0B
  5
6180
331
4F0C
  5
5CFD
331
4ECD
  5
5CCB
331
15CA
  5
15CA
331
4F08
  5
5CF9
331
4EC9
  5
5CB9
331
5CCD
  5
5D0C
331
61AE
  5
626C
331
5F57
  5
6237
331
5CB9
  5
5D06
331
61AA
  5
6266
331
61A6
  5
6262
331
61A2
  5
625E
331
6D4F
  5
382B
331
6D4B
  5
3827
331
6D08
  5
61D4
331
6D47
  5
3823
331
6D04
  5
61F2
331
6D43
  5
16B7
331
5D1F
  5
61AA
331
625E
  5
6D71
331
6D86
  5
61FD
331
6227
  5
6D39
331
3827
  5
4ED5
331
625A
  5
6D6D
331
6D82
  5
6203
331
6223
  5
6D35
331
3823
  5
4ED1
331
61E4
  5
6CF6
331
5DDE
  5
61EF
331
5D07
  5
5F57
331
15C6
  5
15C6
331
1605
  5
1607
331
163C
  5
163E
331
6256
  5
6D69
331
6D7E
  5
620C
331
621F
  5
6D31
331
16B7
  5
4ECF
331
61E0
  5
6CF2
331
5D03
  5
5F04
331
15C2
  5
15C2
331
4EC5
  5
5CB5
331
1601
  5
1603
331
1638
  5
163A
331
6B49
  5
6D9E
331
6252
  5
6D65
331
6D7A
  5
6211
331
621B
  5
6D2D
331
61DC
  5
6CEE
331
1634
  5
1636
331
5CFF
  5
5D86
331
15BE
  5
15BE
331
4EC1
  5
4F0D
331
4F00
  5
5CF7
331
15FD
  5
15FF
331
61D8
  5
6CEA
331
15F9
  5
15FB
331
1630
  5
1632
331
5CFB
  5
5D3E
331
4EFC
  5
5CF5
331
4EBD
  5
4F09
331
15BA
  5
15BA
331
4EB9
  5
4EFD
331
5CB5
  5
5D02
331
619E
  5
625A
331
619A
  5
6256
331
6196
  5
6252
331
6192
  5
624E
331
6D3F
  5
1669
331
6CFC
  5
61FA
331
6D3B
  5
1665
331
6CF8
  5
6206
331
6D37
  5
1661
331
6D33
  5
165D
331
624E
  5
6D61
331
6D76
  5
6213
331
6217
  5
6D29
331
6289
  5
6D9A
331
624A
  5
6D5D
331
6D72
  5
6218
331
6213
  5
6D25
331
61D4
  5
6CE6
331
5D3E
  5
61D2
331
5CF7
  5
5D3A
331
15B6
  5
15B6
331
15F5
  5
15F7
331
162C
  5
162E
331
6285
  5
6D96
331
6246
  5
6D5A
331
6D6E
  5
621A
331
620F
  5
6D21
331
1667
  5
4EC9
331
61D0
  5
6CE0
331
5D3A
  5
61C8
331
5CF3
  5
5D36
331
15F1
  5
15F3
331
4EB5
  5
4EF5
331
1628
  5
162A
331
6281
  5
6D92
331
6242
  5
6D54
331
6D6A
  5
621E
331
620B
  5
6D1D
331
1663
  5
4EC5
331
61CC
  5
628A
331
1624
  5
1626
331
5D36
  5
61C4
331
5CEF
  5
5D32
331
4EB1
  5
4EF0
331
4EF0
  5
5CEE
331
15ED
  5
15EF
331
61C8
  5
6286
331
15E9
  5
15EB
331
1620
  5
1622
331
5D32
  5
61BD
331
5CEB
  5
5D2E
331
4EEC
  5
5CEA
331
4EAD
  5
4EEC
331
15AA
  5
15AA
331
4EE8
  5
5CE6
331
4EA9
  5
4EE8
331
618E
  5
624A
331
618A
  5
6245
331
6186
  5
6241
331
6182
  5
623D
331
6D2F
  5
1659
331
6D2B
  5
1655
331
6CE8
  5
622F
331
6D27
  5
1651
331
6D23
  5
164D
331
627D
  5
6D8E
331
623E
  5
6D50
331
6D66
  5
622B
331
6207
  5
6D19
331
165F
  5
4EC1
331
6279
  5
6D8A
331
6DA1
  5
619C
331
623A
  5
6D4C
331
6D62
  5
6232
331
6203
  5
6D15
331
165B
  5
4EBD
331
61C4
  5
6282
331
5D2E
  5
61B9
331
5CE7
  5
5D2A
331
15A6
  5
15A6
331
161C
  5
161E
331
6275
  5
6D86
331
6D9D
  5
61A3
331
6236
  5
6D48
331
6D5E
  5
6233
331
61FF
  5
6D11
331
1657
  5
4EB9
331
61C0
  5
627E
331
5D2A
  5
61B5
331
5CE3
  5
5D26
331
15E1
  5
15E3
331
4EE4
  5
5CE2
331
1618
  5
161A
331
6D5A
  5
6DA3
331
6271
  5
6D82
331
6D99
  5
61A5
331
6232
  5
6D44
331
61FB
  5
6D0D
331
1653
  5
4EB5
331
61BC
  5
627A
331
1614
  5
1616
331
5D26
  5
61B1
331
5CDF
  5
5D22
331
159E
  5
159E
331
4EE0
  5
5CDE
331
61B8
  5
6276
331
5D22
  5
61AD
331
5CDB
  5
5D1C
331
1610
  5
1612
331
3835
  5
4EE3
331
4EDC
  5
5CDA
331
4ED8
  5
5CD6
331
3831
  5
4EDF
  0
SORTENTSTABLE
  5
524C
102
{ACAD_REACTORS
330
524B
102
}
330
524B
100
AcDbSortentsTable
330
520E
  0
XRECORD
  5
6DAA
102
{ACAD_REACTORS
330
6DA8
102
}
330
6DA8
100
AcDbXrecord
280
     1
 70
     2
  0
XRECORD
  5
6DA9
102
{ACAD_REACTORS
330
6DA8
102
}
330
6DA8
100
AcDbXrecord
280
     1
 40
1.25
  0
XRECORD
  5
6DAB
102
{ACAD_REACTORS
330
6DA8
102
}
330
6DA8
100
AcDbXrecord
280
     1
 40
1.570796326794896
  0
LAYOUT
  5
2961
102
{ACAD_XDICTIONARY
360
6DDF
102
}
102
{ACAD_REACTORS
330
2954
102
}
330
2954
100
AcDbPlotSettings
  1

  2
none_device
  4
Letter_(8.50_x_11.00_Inches)
  6

 40
6.349999904632567
 41
6.349999904632567
 42
6.350006103515625
 43
6.350006103515625
 44
215.8999938964844
 45
279.3999938964844
 46
0.0
 47
0.0
 48
0.0
 49
0.0
140
0.0
141
0.0
142
1.0
143
70.13597653689472
 70
 11952
 72
     0
 73
     1
 74
     0
  7

 75
     0
147
0.0142580177731461
148
2367.00058642127
149
1552.657267491909
100
AcDbLayout
  1
Model
 70
     1
 71
     0
 10
0.0
 20
0.0
 11
12.0
 21
9.0
 12
0.0
 22
0.0
 32
0.0
 14
0.0
 24
0.0
 34
0.0
 15
0.0
 25
0.0
 35
0.0
146
0.0
 13
0.0
 23
0.0
 33
0.0
 16
1.0
 26
0.0
 36
0.0
 17
0.0
 27
1.0
 37
0.0
 76
     0
330
295E
331
2963
1001
ACAD_PSEXT
1000
なし
1000
なし
1000
適切ではありません
1000
新しいプロッタ環境設定名を選択しない限り、レイアウトは印刷されません。
1070
     0
  0
LAYOUT
  5
295D
102
{ACAD_XDICTIONARY
360
6DDD
102
}
102
{ACAD_REACTORS
330
2954
102
}
330
2954
100
AcDbPlotSettings
  1

  2
FX DP 205
  4

  6

 40
0.0
 41
0.0
 42
0.0
 43
0.0
 44
0.0
 45
0.0
 46
0.0
 47
0.0
 48
0.0
 49
0.0
140
0.0
141
0.0
142
1.0
143
1.0
 70
   688
 72
     0
 73
     0
 74
     5
  7

 75
    16
147
1.0
148
0.0
149
0.0
100
AcDbLayout
  1
レイアウト1
 70
     1
 71
     1
 10
0.0
 20
0.0
 11
12.0
 21
9.0
 12
0.0
 22
0.0
 32
0.0
 14
0.0
 24
0.0
 34
0.0
 15
0.0
 25
0.0
 35
0.0
146
0.0
 13
0.0
 23
0.0
 33
0.0
 16
1.0
 26
0.0
 36
0.0
 17
0.0
 27
1.0
 37
0.0
 76
     0
330
295A
  0
MATERIAL
  5
290C
102
{ACAD_XDICTIONARY
360
290D
102
}
102
{ACAD_REACTORS
330
2903
102
}
330
2903
100
AcDbMaterial
  1
ByBlock
 72
     0
 43
0.0208333333333333
 43
0.0
 43
0.0
 43
0.0
 43
0.0
 43
0.0208333333333333
 43
0.0
 43
0.0
 43
0.0
 43
0.0
 43
1.0
 43
0.0
 43
0.0
 43
0.0
 43
0.0
 43
1.0
 77
     0
 47
0.0208333333333333
 47
0.0
 47
0.0
 47
0.0
 47
0.0
 47
0.0208333333333333
 47
0.0
 47
0.0
 47
0.0
 47
0.0
 47
1.0
 47
0.0
 47
0.0
 47
0.0
 47
0.0
 47
1.0
171
     0
 49
0.0208333333333333
 49
0.0
 49
0.0
 49
0.0
 49
0.0
 49
0.0208333333333333
 49
0.0
 49
0.0
 49
0.0
 49
0.0
 49
1.0
 49
0.0
 49
0.0
 49
0.0
 49
0.0
 49
1.0
175
     0
142
0.0208333333333333
142
0.0
142
0.0
142
0.0
142
0.0
142
0.0208333333333333
142
0.0
142
0.0
142
0.0
142
0.0
142
1.0
142
0.0
142
0.0
142
0.0
142
0.0
142
1.0
179
     0
144
0.0208333333333333
144
0.0
144
0.0
144
0.0
144
0.0
144
0.0208333333333333
144
0.0
144
0.0
144
0.0
144
0.0
144
1.0
144
0.0
144
0.0
144
0.0
144
0.0
144
1.0
147
0.0208333333333333
147
0.0
147
0.0
147
0.0
147
0.0
147
0.0208333333333333
147
0.0
147
0.0
147
0.0
147
0.0
147
1.0
147
0.0
147
0.0
147
0.0
147
0.0
147
1.0
  0
MATERIAL
  5
2904
102
{ACAD_XDICTIONARY
360
2905
102
}
102
{ACAD_REACTORS
330
2903
102
}
330
2903
100
AcDbMaterial
  1
ByLayer
 72
     0
 43
0.0208333333333333
 43
0.0
 43
0.0
 43
0.0
 43
0.0
 43
0.0208333333333333
 43
0.0
 43
0.0
 43
0.0
 43
0.0
 43
1.0
 43
0.0
 43
0.0
 43
0.0
 43
0.0
 43
1.0
 77
     0
 47
0.0208333333333333
 47
0.0
 47
0.0
 47
0.0
 47
0.0
 47
0.0208333333333333
 47
0.0
 47
0.0
 47
0.0
 47
0.0
 47
1.0
 47
0.0
 47
0.0
 47
0.0
 47
0.0
 47
1.0
171
     0
 49
0.0208333333333333
 49
0.0
 49
0.0
 49
0.0
 49
0.0
 49
0.0208333333333333
 49
0.0
 49
0.0
 49
0.0
 49
0.0
 49
1.0
 49
0.0
 49
0.0
 49
0.0
 49
0.0
 49
1.0
175
     0
142
0.0208333333333333
142
0.0
142
0.0
142
0.0
142
0.0
142
0.0208333333333333
142
0.0
142
0.0
142
0.0
142
0.0
142
1.0
142
0.0
142
0.0
142
0.0
142
0.0
142
1.0
179
     0
144
0.0208333333333333
144
0.0
144
0.0
144
0.0
144
0.0
144
0.0208333333333333
144
0.0
144
0.0
144
0.0
144
0.0
144
1.0
144
0.0
144
0.0
144
0.0
144
0.0
144
1.0
147
0.0208333333333333
147
0.0
147
0.0
147
0.0
147
0.0
147
0.0208333333333333
147
0.0
147
0.0
147
0.0
147
0.0
147
1.0
147
0.0
147
0.0
147
0.0
147
0.0
147
1.0
  0
MATERIAL
  5
2914
102
{ACAD_XDICTIONARY
360
2915
102
}
102
{ACAD_REACTORS
330
2903
102
}
330
2903
100
AcDbMaterial
  1
Global
 72
     0
 43
0.0208333333333333
 43
0.0
 43
0.0
 43
0.0
 43
0.0
 43
0.0208333333333333
 43
0.0
 43
0.0
 43
0.0
 43
0.0
 43
1.0
 43
0.0
 43
0.0
 43
0.0
 43
0.0
 43
1.0
 77
     0
 47
0.0208333333333333
 47
0.0
 47
0.0
 47
0.0
 47
0.0
 47
0.0208333333333333
 47
0.0
 47
0.0
 47
0.0
 47
0.0
 47
1.0
 47
0.0
 47
0.0
 47
0.0
 47
0.0
 47
1.0
171
     0
 49
0.0208333333333333
 49
0.0
 49
0.0
 49
0.0
 49
0.0
 49
0.0208333333333333
 49
0.0
 49
0.0
 49
0.0
 49
0.0
 49
1.0
 49
0.0
 49
0.0
 49
0.0
 49
0.0
 49
1.0
175
     0
142
0.0208333333333333
142
0.0
142
0.0
142
0.0
142
0.0
142
0.0208333333333333
142
0.0
142
0.0
142
0.0
142
0.0
142
1.0
142
0.0
142
0.0
142
0.0
142
0.0
142
1.0
179
     0
144
0.0208333333333333
144
0.0
144
0.0
144
0.0
144
0.0
144
0.0208333333333333
144
0.0
144
0.0
144
0.0
144
0.0
144
1.0
144
0.0
144
0.0
144
0.0
144
0.0
144
1.0
147
0.0208333333333333
147
0.0
147
0.0
147
0.0
147
0.0
147
0.0208333333333333
147
0.0
147
0.0
147
0.0
147
0.0
147
1.0
147
0.0
147
0.0
147
0.0
147
0.0
147
1.0
  0
MLEADERSTYLE
  5
2959
102
{ACAD_REACTORS
330
2958
102
}
330
2958
100
AcDbMLeaderStyle
170
     2
171
     1
172
     0
 90
        2
 40
0.0
 41
0.0
173
     1
 91
-1056964608
340
294D
 92
       -2
290
     1
 42
0.09
291
     1
 43
0.36
  3
Standard
 44
0.18
300

342
2948
174
     1
178
     6
175
     1
176
     0
 93
-1056964608
 45
0.18
292
     0
297
     0
 46
0.18
 94
-1056964608
 47
1.0
 49
1.0
140
1.0
293
     1
141
0.0
294
     1
177
     0
142
1.0
295
     0
296
     0
143
0.125
1001
ACAD_MLEADERVER
1070
     2
  0
MLINESTYLE
  5
2952
102
{ACAD_REACTORS
330
2951
102
}
330
2951
100
AcDbMlineStyle
  2
STANDARD
 70
     0
  3

 62
   256
 51
90.0
 52
90.0
 71
     2
 49
0.5
 62
   256
  6
BYLAYER
 49
-0.5
 62
   256
  6
BYLAYER
  0
ACDBPLACEHOLDER
  5
2902
102
{ACAD_REACTORS
330
2901
102
}
330
2901
  0
SCALE
  5
2936
102
{ACAD_REACTORS
330
2935
102
}
330
2935
100
AcDbScale
 70
     0
300
1:1
140
1.0
141
1.0
290
     1
  0
SCALE
  5
2937
102
{ACAD_REACTORS
330
2935
102
}
330
2935
100
AcDbScale
 70
     0
300
1/128" = 1'-0"
140
0.0078125
141
12.0
290
     0
  0
SCALE
  5
2938
102
{ACAD_REACTORS
330
2935
102
}
330
2935
100
AcDbScale
 70
     0
300
1/64" = 1'-0"
140
0.015625
141
12.0
290
     0
  0
SCALE
  5
2939
102
{ACAD_REACTORS
330
2935
102
}
330
2935
100
AcDbScale
 70
     0
300
1/32" = 1'-0"
140
0.03125
141
12.0
290
     0
  0
SCALE
  5
293A
102
{ACAD_REACTORS
330
2935
102
}
330
2935
100
AcDbScale
 70
     0
300
1/16" = 1'-0"
140
0.0625
141
12.0
290
     0
  0
SCALE
  5
293B
102
{ACAD_REACTORS
330
2935
102
}
330
2935
100
AcDbScale
 70
     0
300
3/32" = 1'-0"
140
0.09375
141
12.0
290
     0
  0
SCALE
  5
293C
102
{ACAD_REACTORS
330
2935
102
}
330
2935
100
AcDbScale
 70
     0
300
1/8" = 1'-0"
140
0.125
141
12.0
290
     0
  0
SCALE
  5
293D
102
{ACAD_REACTORS
330
2935
102
}
330
2935
100
AcDbScale
 70
     0
300
3/16" = 1'-0"
140
0.1875
141
12.0
290
     0
  0
SCALE
  5
293E
102
{ACAD_REACTORS
330
2935
102
}
330
2935
100
AcDbScale
 70
     0
300
1/4" = 1'-0"
140
0.25
141
12.0
290
     0
  0
SCALE
  5
293F
102
{ACAD_REACTORS
330
2935
102
}
330
2935
100
AcDbScale
 70
     0
300
3/8" = 1'-0"
140
0.375
141
12.0
290
     0
  0
SCALE
  5
2940
102
{ACAD_REACTORS
330
2935
102
}
330
2935
100
AcDbScale
 70
     0
300
1/2" = 1'-0"
140
0.5
141
12.0
290
     0
  0
SCALE
  5
2941
102
{ACAD_REACTORS
330
2935
102
}
330
2935
100
AcDbScale
 70
     0
300
3/4" = 1'-0"
140
0.75
141
12.0
290
     0
  0
SCALE
  5
2942
102
{ACAD_REACTORS
330
2935
102
}
330
2935
100
AcDbScale
 70
     0
300
1" = 1'-0"
140
1.0
141
12.0
290
     0
  0
SCALE
  5
2943
102
{ACAD_REACTORS
330
2935
102
}
330
2935
100
AcDbScale
 70
     0
300
1-1/2" = 1'-0"
140
1.5
141
12.0
290
     0
  0
SCALE
  5
2944
102
{ACAD_REACTORS
330
2935
102
}
330
2935
100
AcDbScale
 70
     0
300
3" = 1'-0"
140
3.0
141
12.0
290
     0
  0
SCALE
  5
2945
102
{ACAD_REACTORS
330
2935
102
}
330
2935
100
AcDbScale
 70
     0
300
6" = 1'-0"
140
6.0
141
12.0
290
     0
  0
SCALE
  5
2946
102
{ACAD_REACTORS
330
2935
102
}
330
2935
100
AcDbScale
 70
     0
300
1'-0" = 1'-0"
140
12.0
141
12.0
290
     0
  0
TABLESTYLE
  5
2957
102
{ACAD_XDICTIONARY
360
2F43
102
}
102
{ACAD_REACTORS
330
2956
102
}
330
2956
100
AcDbTableStyle
  3
Standard
 70
     0
 71
     0
 40
0.06
 41
0.06
280
     0
281
     0
  7
STANDARD
140
0.18
170
     2
 62
     0
 63
     7
283
     0
274
    -2
284
     1
 64
     0
275
    -2
285
     1
 65
     0
276
    -2
286
     1
 66
     0
277
    -2
287
     1
 67
     0
278
    -2
288
     1
 68
     0
279
    -2
289
     1
 69
     0
  7
STANDARD
140
0.25
170
     5
 62
     0
 63
     7
283
     0
274
    -2
284
     1
 64
     0
275
    -2
285
     1
 65
     0
276
    -2
286
     1
 66
     0
277
    -2
287
     1
 67
     0
278
    -2
288
     1
 68
     0
279
    -2
289
     1
 69
     0
  7
STANDARD
140
0.18
170
     5
 62
     0
 63
     7
283
     0
274
    -2
284
     1
 64
     0
275
    -2
285
     1
 65
     0
276
    -2
286
     1
 66
     0
277
    -2
287
     1
 67
     0
278
    -2
288
     1
 68
     0
279
    -2
289
     1
 69
     0
  0
VISUALSTYLE
  5
2922
102
{ACAD_XDICTIONARY
360
6DB6
102
}
102
{ACAD_REACTORS
330
291C
102
}
330
291C
100
AcDbVisualStyle
  2

 70
     4
 71
     0
 72
     2
 73
     0
 90
        0
 40
-0.6
 41
-30.0
 62
     5
 63
     7
 74
     1
 91
        4
 64
     7
 65
   257
 75
     1
175
     1
 42
1.0
 92
        0
 66
   257
 43
1.0
 76
     1
 77
     6
 78
     2
 67
     7
 79
     5
170
     0
171
     0
290
     0
174
     0
 93
        1
 44
0.0
173
     0
291
     0
 45
0.0
1001
ACAD
1000
AcDbSavedByObjectVersion
1070
     0
  0
VISUALSTYLE
  5
2CA3
102
{ACAD_XDICTIONARY
360
6DE1
102
}
102
{ACAD_REACTORS
330
291C
102
}
330
291C
100
AcDbVisualStyle
  2

 70
     5
 71
     0
 72
     2
 73
     1
 90
        0
 40
-0.6
 41
-30.0
 62
     5
 63
     7
 74
     1
 91
        4
 64
     7
 65
   257
 75
     1
175
     1
 42
1.0
 92
        0
 66
   257
 43
1.0
 76
     1
 77
     6
 78
     2
 67
     7
 79
     5
170
     0
171
     0
290
     0
174
     0
 93
        1
 44
0.0
173
     0
291
     0
 45
0.0
1001
ACAD
1000
AcDbSavedByObjectVersion
1070
     0
  0
VISUALSTYLE
  5
2921
102
{ACAD_XDICTIONARY
360
6DB4
102
}
102
{ACAD_REACTORS
330
291C
102
}
330
291C
100
AcDbVisualStyle
  2

 70
     7
 71
     1
 72
     0
 73
     1
 90
        0
 40
-0.6
 41
-30.0
 62
     5
 63
     7
 74
     0
 91
        4
 64
     7
 65
   257
 75
     1
175
     1
 42
1.0
 92
        8
 66
     7
 43
1.0
 76
     1
 77
     6
 78
     2
 67
     7
 79
     5
170
     0
171
     0
290
     0
174
     0
 93
        1
 44
0.0
173
     0
291
     1
 45
0.0
1001
ACAD
1000
AcDbSavedByObjectVersion
1070
     0
  0
VISUALSTYLE
  5
2928
102
{ACAD_XDICTIONARY
360
6DC2
102
}
102
{ACAD_REACTORS
330
291C
102
}
330
291C
100
AcDbVisualStyle
  2

 70
    12
 71
     2
 72
     2
 73
     0
 90
        0
 40
-0.6
 41
-30.0
 62
     5
 63
     7
 74
     1
 91
        4
 64
     7
 65
   257
 75
     1
175
     1
 42
1.0
 92
        8
 66
     7
 43
1.0
 76
     1
 77
     6
 78
     2
 67
     7
 79
     5
170
     0
171
     0
290
     0
174
     0
 93
        1
 44
50.0
173
     0
291
     1
 45
0.0
1001
ACAD
1000
AcDbSavedByObjectVersion
1070
     0
  0
VISUALSTYLE
  5
292C
102
{ACAD_XDICTIONARY
360
6DCA
102
}
102
{ACAD_REACTORS
330
291C
102
}
330
291C
100
AcDbVisualStyle
  2

 70
    16
 71
     2
 72
     2
 73
     3
 90
        0
 40
-0.6
 41
-30.0
 62
     5
 63
     8
 74
     1
 91
        4
 64
     7
 65
   257
 75
     1
175
     1
 42
1.0
 92
        8
 66
     8
 43
1.0
 76
     1
 77
     6
 78
     2
 67
     7
 79
     5
170
     0
171
     0
290
     0
174
     0
 93
        1
 44
0.0
173
     0
291
     1
 45
0.0
1001
ACAD
1000
AcDbSavedByObjectVersion
1070
     0
  0
VISUALSTYLE
  5
2925
102
{ACAD_XDICTIONARY
360
6DBC
102
}
102
{ACAD_REACTORS
330
291C
102
}
330
291C
100
AcDbVisualStyle
  2

 70
     9
 71
     3
 72
     2
 73
     0
 90
        0
 40
-0.6
 41
-30.0
 62
     5
 63
     7
 74
     2
 91
        2
 64
     7
 65
   257
 75
     1
175
     1
 42
179.0
 92
        8
 66
     7
 43
1.0
 76
     1
 77
     6
 78
     2
 67
     7
 79
     3
170
     0
171
     0
290
     0
174
     0
 93
        1
 44
0.0
173
     0
291
     0
 45
0.0
1001
ACAD
1000
AcDbSavedByObjectVersion
1070
     0
  0
VISUALSTYLE
  5
2927
102
{ACAD_XDICTIONARY
360
6DC0
102
}
102
{ACAD_REACTORS
330
291C
102
}
330
291C
100
AcDbVisualStyle
  2

 70
    11
 71
     2
 72
     2
 73
     0
 90
        0
 40
-0.6
 41
-30.0
 62
     5
 63
     7
 74
     1
 91
        4
 64
     7
 65
   257
 75
     1
175
     1
 42
1.0
 92
        8
 66
     7
 43
1.0
 76
     1
 77
     6
 78
     2
 67
     7
 79
     5
170
     0
171
     0
290
     0
174
     0
 93
        1
 44
-50.0
173
     0
291
     1
 45
0.0
1001
ACAD
1000
AcDbSavedByObjectVersion
1070
     0
  0
VISUALSTYLE
  5
2934
102
{ACAD_XDICTIONARY
360
6DDA
102
}
102
{ACAD_REACTORS
330
291C
102
}
330
291C
100
AcDbVisualStyle
  2

 70
    22
 71
     2
 72
     2
 73
     0
 90
        0
 40
-0.6
 41
-30.0
 62
     5
 63
     7
 74
     1
 91
        4
 64
     7
 65
   257
 75
     1
175
     1
 42
1.0
 92
        8
 66
     7
 43
1.0
 76
     1
 77
     6
 78
     2
 67
     7
 79
     5
170
     0
171
     0
290
     0
174
     0
 93
        1
 44
0.0
173
     0
291
     1
 45
0.0
1001
ACAD
1000
AcDbSavedByObjectVersion
1070
     0
  0
VISUALSTYLE
  5
292B
102
{ACAD_XDICTIONARY
360
6DC8
102
}
102
{ACAD_REACTORS
330
291C
102
}
330
291C
100
AcDbVisualStyle
  2

 70
    15
 71
     2
 72
     2
 73
     0
 90
        0
 40
-0.6
 41
-30.0
 62
     5
 63
     7
 74
     1
 91
        4
 64
     7
 65
   257
 75
     1
175
     1
 42
1.0
 92
        8
 66
     7
 43
1.0
 76
     1
 77
     6
 78
     2
 67
     7
 79
     5
170
     0
171
     0
290
     0
174
     0
 93
        1
 44
0.0
173
     0
291
     1
 45
0.0
1001
ACAD
1000
AcDbSavedByObjectVersion
1070
     0
  0
VISUALSTYLE
  5
291D
102
{ACAD_XDICTIONARY
360
6DAC
102
}
102
{ACAD_REACTORS
330
291C
102
}
330
291C
100
AcDbVisualStyle
  2

 70
     0
 71
     2
 72
     1
 73
     1
 90
        2
 40
-0.6
 41
30.0
 62
     5
 63
     7
 74
     0
 91
        0
 64
     7
 65
   257
 75
     1
175
     1
 42
1.0
 92
        8
 66
     7
 43
1.0
 76
     1
 77
     6
 78
     2
 67
     7
 79
     5
170
     0
171
     0
290
     0
174
     0
 93
       13
 44
0.0
173
     0
291
     1
 45
0.0
1001
ACAD
1000
AcDbSavedByObjectVersion
1070
     0
  0
VISUALSTYLE
  5
291E
102
{ACAD_XDICTIONARY
360
6DAE
102
}
102
{ACAD_REACTORS
330
291C
102
}
330
291C
100
AcDbVisualStyle
  2

 70
     1
 71
     2
 72
     1
 73
     1
 90
        2
 40
-0.6
 41
30.0
 62
     5
 63
     7
 74
     1
 91
        0
 64
     7
 65
   257
 75
     1
175
     1
 42
1.0
 92
        0
 66
   257
 43
1.0
 76
     1
 77
     6
 78
     2
 67
     7
 79
     5
170
     0
171
     0
290
     0
174
     0
 93
       13
 44
0.0
173
     0
291
     1
 45
0.0
1001
ACAD
1000
AcDbSavedByObjectVersion
1070
     0
  0
VISUALSTYLE
  5
291F
102
{ACAD_XDICTIONARY
360
6DB0
102
}
102
{ACAD_REACTORS
330
291C
102
}
330
291C
100
AcDbVisualStyle
  2

 70
     2
 71
     2
 72
     2
 73
     1
 90
        2
 40
-0.6
 41
30.0
 62
     5
 63
     7
 74
     0
 91
        0
 64
     7
 65
   257
 75
     1
175
     1
 42
1.0
 92
        0
 66
     7
 43
1.0
 76
     1
 77
     6
 78
     2
 67
     7
 79
     5
170
     0
171
     0
290
     0
174
     0
 93
       13
 44
0.0
173
     0
291
     1
 45
0.0
1001
ACAD
1000
AcDbSavedByObjectVersion
1070
     0
  0
VISUALSTYLE
  5
2920
102
{ACAD_XDICTIONARY
360
6DB2
102
}
102
{ACAD_REACTORS
330
291C
102
}
330
291C
100
AcDbVisualStyle
  2

 70
     3
 71
     2
 72
     2
 73
     1
 90
        2
 40
-0.6
 41
30.0
 62
     5
 63
     7
 74
     1
 91
        0
 64
     7
 65
   257
 75
     1
175
     1
 42
1.0
 92
        0
 66
   257
 43
1.0
 76
     1
 77
     6
 78
     2
 67
     7
 79
     5
170
     0
171
     0
290
     0
174
     0
 93
       13
 44
0.0
173
     0
291
     1
 45
0.0
1001
ACAD
1000
AcDbSavedByObjectVersion
1070
     0
  0
VISUALSTYLE
  5
2924
102
{ACAD_XDICTIONARY
360
6DBA
102
}
102
{ACAD_REACTORS
330
291C
102
}
330
291C
100
AcDbVisualStyle
  2

 70
     6
 71
     1
 72
     2
 73
     2
 90
        0
 40
-0.6
 41
-30.0
 62
     5
 63
     7
 74
     2
 91
        2
 64
     7
 65
   257
 75
     2
175
     1
 42
40.0
 92
        0
 66
   257
 43
1.0
 76
     1
 77
     6
 78
     2
 67
     7
 79
     3
170
     0
171
     0
290
     0
174
     0
 93
        1
 44
0.0
173
     0
291
     0
 45
0.0
1001
ACAD
1000
AcDbSavedByObjectVersion
1070
     0
  0
VISUALSTYLE
  5
2932
102
{ACAD_XDICTIONARY
360
6DD6
102
}
102
{ACAD_REACTORS
330
291C
102
}
330
291C
100
AcDbVisualStyle
  2

 70
    20
 71
     2
 72
     2
 73
     0
 90
        0
 40
-0.6
 41
-30.0
 62
     5
 63
     7
 74
     1
 91
        4
 64
     7
 65
   257
 75
     1
175
     1
 42
1.0
 92
       10
 66
     7
 43
1.0
 76
     1
 77
     6
 78
     2
 67
     7
 79
     5
170
     0
171
     0
290
     0
174
     0
 93
        1
 44
0.0
173
     0
291
     1
 45
0.0
1001
ACAD
1000
AcDbSavedByObjectVersion
1070
     0
  0
VISUALSTYLE
  5
292A
102
{ACAD_XDICTIONARY
360
6DC6
102
}
102
{ACAD_REACTORS
330
291C
102
}
330
291C
100
AcDbVisualStyle
  2

 70
    14
 71
     2
 72
     2
 73
     0
 90
        0
 40
-0.6
 41
-30.0
 62
     5
 63
     7
 74
     1
 91
        4
 64
     7
 65
   257
 75
     7
175
     7
 42
1.0
 92
        8
 66
     7
 43
1.0
 76
     1
 77
     6
 78
     2
 67
     7
 79
     5
170
     0
171
     0
290
     0
174
     0
 93
        1
 44
0.0
173
     0
291
     1
 45
0.0
1001
ACAD
1000
AcDbSavedByObjectVersion
1070
     0
  0
VISUALSTYLE
  5
2933
102
{ACAD_XDICTIONARY
360
6DD8
102
}
102
{ACAD_REACTORS
330
291C
102
}
330
291C
100
AcDbVisualStyle
  2

 70
    21
 71
     2
 72
     2
 73
     0
 90
        0
 40
-0.6
 41
-30.0
 62
     5
 63
     7
 74
     1
 91
        4
 64
     7
 65
   257
 75
     1
175
     1
 42
1.0
 92
        9
 66
     7
 43
1.0
 76
     1
 77
     6
 78
     2
 67
     7
 79
     5
170
     0
171
     0
290
     0
174
     0
 93
        1
 44
0.0
173
     0
291
     1
 45
0.0
1001
ACAD
1000
AcDbSavedByObjectVersion
1070
     0
  0
VISUALSTYLE
  5
2926
102
{ACAD_XDICTIONARY
360
6DBE
102
}
102
{ACAD_REACTORS
330
291C
102
}
330
291C
100
AcDbVisualStyle
  2

 70
     8
 71
     2
 72
     3
 73
     0
 90
        2
 40
-0.6
 41
30.0
 62
     5
 63
     7
 74
     0
 91
        0
 64
     7
 65
   257
 75
     1
175
     1
 42
1.0
 92
        8
 66
   257
 43
1.0
 76
     1
 77
     6
 78
     2
 67
     7
 79
     3
170
     0
171
     0
290
     0
174
     0
 93
       13
 44
0.0
173
     0
291
     0
 45
0.0
1001
ACAD
1000
AcDbSavedByObjectVersion
1070
     0
  0
VISUALSTYLE
  5
2931
102
{ACAD_XDICTIONARY
360
6DD4
102
}
102
{ACAD_REACTORS
330
291C
102
}
330
291C
100
AcDbVisualStyle
  2

 70
    27
 71
     2
 72
     2
 73
     1
 90
        2
 40
-0.6
 41
30.0
 62
     5
 63
     7
 74
     0
 91
        4
 64
     7
 65
   257
 75
     1
175
     1
 42
1.0
 92
        8
 66
   257
 43
1.0
 76
     1
 77
     6
 78
     2
 67
     8
 79
     3
170
     0
171
     0
290
     0
174
     0
 93
        5
 44
0.0
173
     0
291
     0
 45
0.0
1001
ACAD
1000
AcDbSavedByObjectVersion
1070
     0
  0
VISUALSTYLE
  5
2930
102
{ACAD_XDICTIONARY
360
6DD2
102
}
102
{ACAD_REACTORS
330
291C
102
}
330
291C
100
AcDbVisualStyle
  2

 70
    26
 71
     2
 72
     2
 73
     1
 90
        2
 40
-0.6
 41
30.0
 62
     5
 63
     7
 74
     1
 91
       10
 64
     7
 65
   257
 75
     2
175
     1
 42
1.0
 92
        8
 66
   257
 43
1.0
 76
     1
 77
     6
 78
     2
 67
     7
 79
     3
170
     0
171
     0
290
     0
174
     0
 93
        5
 44
0.0
173
     0
291
     0
 45
0.0
1001
ACAD
1000
AcDbSavedByObjectVersion
1070
     0
  0
VISUALSTYLE
  5
292D
102
{ACAD_XDICTIONARY
360
6DCC
102
}
102
{ACAD_REACTORS
330
291C
102
}
330
291C
100
AcDbVisualStyle
  2

 70
    23
 71
     2
 72
     2
 73
     3
 90
        0
 40
-0.6
 41
-30.0
 62
     5
 63
     7
 74
     2
 91
        2
 64
     7
 65
     7
 75
     1
175
     1
 42
40.0
 92
        8
 66
     7
 43
1.0
 76
     1
 77
     6
 78
     2
 67
     7
 79
     3
170
     0
171
     0
290
     0
174
     0
 93
        1
 44
0.0
173
     0
291
     0
 45
0.0
1001
ACAD
1000
AcDbSavedByObjectVersion
1070
     0
  0
VISUALSTYLE
  5
292E
102
{ACAD_XDICTIONARY
360
6DCE
102
}
102
{ACAD_REACTORS
330
291C
102
}
330
291C
100
AcDbVisualStyle
  2

 70
    24
 71
     1
 72
     2
 73
     2
 90
        0
 40
-0.6
 41
-30.0
 62
     5
 63
     7
 74
     2
 91
        2
 64
     7
 65
     7
 75
     1
175
     1
 42
40.0
 92
       11
 66
     7
 43
1.0
 76
     1
 77
     6
 78
     2
 67
     7
 79
     6
170
     0
171
     0
290
     0
174
     0
 93
        1
 44
0.0
173
     0
291
     0
 45
0.0
1001
ACAD
1000
AcDbSavedByObjectVersion
1070
     0
  0
VISUALSTYLE
  5
2929
102
{ACAD_XDICTIONARY
360
6DC4
102
}
102
{ACAD_REACTORS
330
291C
102
}
330
291C
100
AcDbVisualStyle
  2

 70
    13
 71
     2
 72
     2
 73
     0
 90
        0
 40
-0.6
 41
-30.0
 62
     5
 63
     7
 74
     1
 91
        4
 64
     7
 65
   257
 75
     1
175
     1
 42
1.0
 92
       12
 66
     7
 43
1.0
 76
     1
 77
     6
 78
     2
 67
     7
 79
     5
170
     0
171
     0
290
     0
174
     0
 93
        1
 44
0.0
173
     0
291
     1
 45
0.0
1001
ACAD
1000
AcDbSavedByObjectVersion
1070
     0
  0
VISUALSTYLE
  5
2923
102
{ACAD_XDICTIONARY
360
6DB8
102
}
102
{ACAD_REACTORS
330
291C
102
}
330
291C
100
AcDbVisualStyle
  2

 70
     5
 71
     0
 72
     2
 73
     0
 90
        0
 40
-0.6
 41
-30.0
 62
     5
 63
     7
 74
     1
 91
        4
 64
     7
 65
   257
 75
     1
175
     1
 42
1.0
 92
        0
 66
   257
 43
1.0
 76
     1
 77
     6
 78
     2
 67
     7
 79
     3
170
     0
171
     0
290
     0
174
     0
 93
        1
 44
0.0
173
     0
291
     0
 45
0.0
1001
ACAD
1000
AcDbSavedByObjectVersion
1070
     0
  0
VISUALSTYLE
  5
292F
102
{ACAD_XDICTIONARY
360
6DD0
102
}
102
{ACAD_REACTORS
330
291C
102
}
330
291C
100
AcDbVisualStyle
  2

 70
    25
 71
     2
 72
     2
 73
     1
 90
        1
 40
0.5
 41
-30.0
 62
     5
 63
     7
 74
     1
 91
        0
 64
     7
 65
   257
 75
     1
175
     1
 42
1.0
 92
        8
 66
     7
 43
1.0
 76
     1
 77
     6
 78
     2
 67
     7
 79
     3
170
     0
171
     0
290
     0
174
     0
 93
       13
 44
0.0
173
     0
291
     0
 45
0.0
1001
ACAD
1000
AcDbSavedByObjectVersion
1070
     0
  0
DICTIONARYVAR
  5
2A50
102
{ACAD_REACTORS
330
2A4D
102
}
330
2A4D
100
DictionaryVariables
280
     0
  1
1:1
  0
DICTIONARYVAR
  5
2A4F
102
{ACAD_REACTORS
330
2A4D
102
}
330
2A4D
100
DictionaryVariables
280
     0
  1
STANDARD
  0
DICTIONARYVAR
  5
2A4E
102
{ACAD_REACTORS
330
2A4D
102
}
330
2A4D
100
DictionaryVariables
280
     0
  1
STANDARD
  0
DICTIONARYVAR
  5
2A53
102
{ACAD_REACTORS
330
2A4D
102
}
330
2A4D
100
DictionaryVariables
280
     0
  1
1
  0
DICTIONARYVAR
  5
2A52
102
{ACAD_REACTORS
330
2A4D
102
}
330
2A4D
100
DictionaryVariables
280
     0
  1
0
  0
DICTIONARYVAR
  5
2A51
102
{ACAD_REACTORS
330
2A4D
102
}
330
2A4D
100
DictionaryVariables
280
     0
  1
127
  0
DICTIONARYVAR
  5
6C63
102
{ACAD_REACTORS
330
2A4D
102
}
330
2A4D
100
DictionaryVariables
280
     0
  1
2
  0
DICTIONARY
  5
6DDF
330
2961
100
AcDbDictionary
280
     1
281
     1
  3
ACAD_XREC_ROUNDTRIP
360
6DE0
  0
DICTIONARY
  5
6DDD
330
295D
100
AcDbDictionary
280
     1
281
     1
  3
ACAD_XREC_ROUNDTRIP
360
6DDE
  0
DICTIONARY
  5
290D
330
290C
100
AcDbDictionary
280
     1
281
     1
  3
ACAD_XREC_ROUNDTRIP
360
2F4C
  3
BUMPTILE
360
290F
  3
DIFFUSETILE
360
290E
  3
OPACITYTILE
360
2912
  3
REFLECTIONTILE
360
2911
  3
REFRACTIONTILE
360
2913
  3
SPECULARTILE
360
2910
  0
DICTIONARY
  5
2905
330
2904
100
AcDbDictionary
280
     1
281
     1
  3
ACAD_XREC_ROUNDTRIP
360
2F4B
  3
BUMPTILE
360
2907
  3
DIFFUSETILE
360
2906
  3
OPACITYTILE
360
290A
  3
REFLECTIONTILE
360
2909
  3
REFRACTIONTILE
360
290B
  3
SPECULARTILE
360
2908
  0
DICTIONARY
  5
2915
330
2914
100
AcDbDictionary
280
     1
281
     1
  3
ACAD_XREC_ROUNDTRIP
360
2F4D
  3
BUMPTILE
360
2917
  3
DIFFUSETILE
360
2916
  3
OPACITYTILE
360
291A
  3
REFLECTIONTILE
360
2919
  3
REFRACTIONTILE
360
291B
  3
SPECULARTILE
360
2918
  0
DICTIONARY
  5
2F43
330
2957
100
AcDbDictionary
280
     1
281
     1
  3
ACAD_ROUNDTRIP_2008_TABLESTYLE_CELLSTYLEMAP
360
6DA5
  3
ACAD_XREC_ROUNDTRIP
360
6DDC
  0
DICTIONARY
  5
6DB6
330
2922
100
AcDbDictionary
280
     1
281
     1
  3
ACAD_XREC_ROUNDTRIP
360
6DB7
  0
DICTIONARY
  5
6DE1
330
2CA3
100
AcDbDictionary
280
     1
281
     1
  3
ACAD_XREC_ROUNDTRIP
360
6DE2
  0
DICTIONARY
  5
6DB4
330
2921
100
AcDbDictionary
280
     1
281
     1
  3
ACAD_XREC_ROUNDTRIP
360
6DB5
  0
DICTIONARY
  5
6DC2
330
2928
100
AcDbDictionary
280
     1
281
     1
  3
ACAD_XREC_ROUNDTRIP
360
6DC3
  0
DICTIONARY
  5
6DCA
330
292C
100
AcDbDictionary
280
     1
281
     1
  3
ACAD_XREC_ROUNDTRIP
360
6DCB
  0
DICTIONARY
  5
6DBC
330
2925
100
AcDbDictionary
280
     1
281
     1
  3
ACAD_XREC_ROUNDTRIP
360
6DBD
  0
DICTIONARY
  5
6DC0
330
2927
100
AcDbDictionary
280
     1
281
     1
  3
ACAD_XREC_ROUNDTRIP
360
6DC1
  0
DICTIONARY
  5
6DDA
330
2934
100
AcDbDictionary
280
     1
281
     1
  3
ACAD_XREC_ROUNDTRIP
360
6DDB
  0
DICTIONARY
  5
6DC8
330
292B
100
AcDbDictionary
280
     1
281
     1
  3
ACAD_XREC_ROUNDTRIP
360
6DC9
  0
DICTIONARY
  5
6DAC
330
291D
100
AcDbDictionary
280
     1
281
     1
  3
ACAD_XREC_ROUNDTRIP
360
6DAD
  0
DICTIONARY
  5
6DAE
330
291E
100
AcDbDictionary
280
     1
281
     1
  3
ACAD_XREC_ROUNDTRIP
360
6DAF
  0
DICTIONARY
  5
6DB0
330
291F
100
AcDbDictionary
280
     1
281
     1
  3
ACAD_XREC_ROUNDTRIP
360
6DB1
  0
DICTIONARY
  5
6DB2
330
2920
100
AcDbDictionary
280
     1
281
     1
  3
ACAD_XREC_ROUNDTRIP
360
6DB3
  0
DICTIONARY
  5
6DBA
330
2924
100
AcDbDictionary
280
     1
281
     1
  3
ACAD_XREC_ROUNDTRIP
360
6DBB
  0
DICTIONARY
  5
6DD6
330
2932
100
AcDbDictionary
280
     1
281
     1
  3
ACAD_XREC_ROUNDTRIP
360
6DD7
  0
DICTIONARY
  5
6DC6
330
292A
100
AcDbDictionary
280
     1
281
     1
  3
ACAD_XREC_ROUNDTRIP
360
6DC7
  0
DICTIONARY
  5
6DD8
330
2933
100
AcDbDictionary
280
     1
281
     1
  3
ACAD_XREC_ROUNDTRIP
360
6DD9
  0
DICTIONARY
  5
6DBE
330
2926
100
AcDbDictionary
280
     1
281
     1
  3
ACAD_XREC_ROUNDTRIP
360
6DBF
  0
DICTIONARY
  5
6DD4
330
2931
100
AcDbDictionary
280
     1
281
     1
  3
ACAD_XREC_ROUNDTRIP
360
6DD5
  0
DICTIONARY
  5
6DD2
330
2930
100
AcDbDictionary
280
     1
281
     1
  3
ACAD_XREC_ROUNDTRIP
360
6DD3
  0
DICTIONARY
  5
6DCC
330
292D
100
AcDbDictionary
280
     1
281
     1
  3
ACAD_XREC_ROUNDTRIP
360
6DCD
  0
DICTIONARY
  5
6DCE
330
292E
100
AcDbDictionary
280
     1
281
     1
  3
ACAD_XREC_ROUNDTRIP
360
6DCF
  0
DICTIONARY
  5
6DC4
330
2929
100
AcDbDictionary
280
     1
281
     1
  3
ACAD_XREC_ROUNDTRIP
360
6DC5
  0
DICTIONARY
  5
6DB8
330
2923
100
AcDbDictionary
280
     1
281
     1
  3
ACAD_XREC_ROUNDTRIP
360
6DB9
  0
DICTIONARY
  5
6DD0
330
292F
100
AcDbDictionary
280
     1
281
     1
  3
ACAD_XREC_ROUNDTRIP
360
6DD1
  0
XRECORD
  5
6DE0
102
{ACAD_REACTORS
330
6DDF
102
}
330
6DDF
100
AcDbXrecord
280
     1
102
SHADEPLOT
 70
     0
102
SHADEPLOTRESLEVEL
 70
     2
102
SHADEPLOTCUSTOMDPI
 70
   300
  0
XRECORD
  5
6DDE
102
{ACAD_REACTORS
330
6DDD
102
}
330
6DDD
100
AcDbXrecord
280
     1
102
SHADEPLOT
 70
     0
102
SHADEPLOTRESLEVEL
 70
     2
102
SHADEPLOTCUSTOMDPI
 70
   300
  0
XRECORD
  5
2F4C
102
{ACAD_REACTORS
330
290D
102
}
330
290D
100
AcDbXrecord
280
     1
102
MATERIAL
148
0.0
149
0.0
149
0.0
 93
        0
 94
      127
282
     0
 72
     0
 77
     0
171
     0
175
     0
179
     0
273
     0
  0
XRECORD
  5
290F
102
{ACAD_REACTORS
330
290D
102
}
330
290D
100
AcDbXrecord
280
     1
270
     1
271
     1
  0
XRECORD
  5
290E
102
{ACAD_REACTORS
330
290D
102
}
330
290D
100
AcDbXrecord
280
     1
270
     1
271
     1
  0
XRECORD
  5
2912
102
{ACAD_REACTORS
330
290D
102
}
330
290D
100
AcDbXrecord
280
     1
270
     1
271
     1
  0
XRECORD
  5
2911
102
{ACAD_REACTORS
330
290D
102
}
330
290D
100
AcDbXrecord
280
     1
270
     1
271
     1
  0
XRECORD
  5
2913
102
{ACAD_REACTORS
330
290D
102
}
330
290D
100
AcDbXrecord
280
     1
270
     1
271
     1
  0
XRECORD
  5
2910
102
{ACAD_REACTORS
330
290D
102
}
330
290D
100
AcDbXrecord
280
     1
270
     1
271
     1
  0
XRECORD
  5
2F4B
102
{ACAD_REACTORS
330
2905
102
}
330
2905
100
AcDbXrecord
280
     1
102
MATERIAL
148
0.0
149
0.0
149
0.0
 93
        0
 94
      127
282
     0
 72
     0
 77
     0
171
     0
175
     0
179
     0
273
     0
  0
XRECORD
  5
2907
102
{ACAD_REACTORS
330
2905
102
}
330
2905
100
AcDbXrecord
280
     1
270
     1
271
     1
  0
XRECORD
  5
2906
102
{ACAD_REACTORS
330
2905
102
}
330
2905
100
AcDbXrecord
280
     1
270
     1
271
     1
  0
XRECORD
  5
290A
102
{ACAD_REACTORS
330
2905
102
}
330
2905
100
AcDbXrecord
280
     1
270
     1
271
     1
  0
XRECORD
  5
2909
102
{ACAD_REACTORS
330
2905
102
}
330
2905
100
AcDbXrecord
280
     1
270
     1
271
     1
  0
XRECORD
  5
290B
102
{ACAD_REACTORS
330
2905
102
}
330
2905
100
AcDbXrecord
280
     1
270
     1
271
     1
  0
XRECORD
  5
2908
102
{ACAD_REACTORS
330
2905
102
}
330
2905
100
AcDbXrecord
280
     1
270
     1
271
     1
  0
XRECORD
  5
2F4D
102
{ACAD_REACTORS
330
2915
102
}
330
2915
100
AcDbXrecord
280
     1
102
MATERIAL
148
0.0
149
0.0
149
0.0
 93
        0
 94
      127
282
     0
 72
     0
 77
     0
171
     0
175
     0
179
     0
273
     0
  0
XRECORD
  5
2917
102
{ACAD_REACTORS
330
2915
102
}
330
2915
100
AcDbXrecord
280
     1
270
     1
271
     1
  0
XRECORD
  5
2916
102
{ACAD_REACTORS
330
2915
102
}
330
2915
100
AcDbXrecord
280
     1
270
     1
271
     1
  0
XRECORD
  5
291A
102
{ACAD_REACTORS
330
2915
102
}
330
2915
100
AcDbXrecord
280
     1
270
     1
271
     1
  0
XRECORD
  5
2919
102
{ACAD_REACTORS
330
2915
102
}
330
2915
100
AcDbXrecord
280
     1
270
     1
271
     1
  0
XRECORD
  5
291B
102
{ACAD_REACTORS
330
2915
102
}
330
2915
100
AcDbXrecord
280
     1
270
     1
271
     1
  0
XRECORD
  5
2918
102
{ACAD_REACTORS
330
2915
102
}
330
2915
100
AcDbXrecord
280
     1
270
     1
271
     1
  0
CELLSTYLEMAP
  5
6DA5
102
{ACAD_REACTORS
330
2F43
102
}
330
2F43
100
AcDbCellStyleMap
 90
        3
300
CELLSTYLE
  1
TABLEFORMAT_BEGIN
 90
        5
170
     1
 91
        0
 92
    32768
 62
   257
 93
        1
300
CONTENTFORMAT
  1
CONTENTFORMAT_BEGIN
 90
        0
 91
        0
 92
      512
 93
        0
300

 40
0.0
140
1.0
 94
        5
 62
     0
340
2948
144
0.25
309
CONTENTFORMAT_END
171
     1
301
MARGIN
  1
CELLMARGIN_BEGIN
 40
0.06
 40
0.06
 40
0.06
 40
0.06
 40
0.18
 40
0.18
309
CELLMARGIN_END
 94
        6
 95
        1
302
GRIDFORMAT
  1
GRIDFORMAT_BEGIN
 90
        0
 91
        1
 62
     0
 92
       -2
340
0
 93
        0
 40
0.045
309
GRIDFORMAT_END
 95
        2
302
GRIDFORMAT
  1
GRIDFORMAT_BEGIN
 90
        0
 91
        1
 62
     0
 92
       -2
340
0
 93
        0
 40
0.045
309
GRIDFORMAT_END
 95
        4
302
GRIDFORMAT
  1
GRIDFORMAT_BEGIN
 90
        0
 91
        1
 62
     0
 92
       -2
340
0
 93
        0
 40
0.045
309
GRIDFORMAT_END
 95
        8
302
GRIDFORMAT
  1
GRIDFORMAT_BEGIN
 90
        0
 91
        1
 62
     0
 92
       -2
340
0
 93
        0
 40
0.045
309
GRIDFORMAT_END
 95
       16
302
GRIDFORMAT
  1
GRIDFORMAT_BEGIN
 90
        0
 91
        1
 62
     0
 92
       -2
340
0
 93
        0
 40
0.045
309
GRIDFORMAT_END
 95
       32
302
GRIDFORMAT
  1
GRIDFORMAT_BEGIN
 90
        0
 91
        1
 62
     0
 92
       -2
340
0
 93
        0
 40
0.045
309
GRIDFORMAT_END
309
TABLEFORMAT_END
  1
CELLSTYLE_BEGIN
 90
        1
 91
        1
300
_TITLE
309
CELLSTYLE_END
300
CELLSTYLE
  1
TABLEFORMAT_BEGIN
 90
        5
170
     1
 91
        0
 92
        0
 62
   257
 93
        1
300
CONTENTFORMAT
  1
CONTENTFORMAT_BEGIN
 90
        0
 91
        0
 92
      512
 93
        0
300

 40
0.0
140
1.0
 94
        5
 62
     0
340
2948
144
0.18
309
CONTENTFORMAT_END
171
     1
301
MARGIN
  1
CELLMARGIN_BEGIN
 40
0.06
 40
0.06
 40
0.06
 40
0.06
 40
0.18
 40
0.18
309
CELLMARGIN_END
 94
        6
 95
        1
302
GRIDFORMAT
  1
GRIDFORMAT_BEGIN
 90
        0
 91
        1
 62
     0
 92
       -2
340
0
 93
        0
 40
0.045
309
GRIDFORMAT_END
 95
        2
302
GRIDFORMAT
  1
GRIDFORMAT_BEGIN
 90
        0
 91
        1
 62
     0
 92
       -2
340
0
 93
        0
 40
0.045
309
GRIDFORMAT_END
 95
        4
302
GRIDFORMAT
  1
GRIDFORMAT_BEGIN
 90
        0
 91
        1
 62
     0
 92
       -2
340
0
 93
        0
 40
0.045
309
GRIDFORMAT_END
 95
        8
302
GRIDFORMAT
  1
GRIDFORMAT_BEGIN
 90
        0
 91
        1
 62
     0
 92
       -2
340
0
 93
        0
 40
0.045
309
GRIDFORMAT_END
 95
       16
302
GRIDFORMAT
  1
GRIDFORMAT_BEGIN
 90
        0
 91
        1
 62
     0
 92
       -2
340
0
 93
        0
 40
0.045
309
GRIDFORMAT_END
 95
       32
302
GRIDFORMAT
  1
GRIDFORMAT_BEGIN
 90
        0
 91
        1
 62
     0
 92
       -2
340
0
 93
        0
 40
0.045
309
GRIDFORMAT_END
309
TABLEFORMAT_END
  1
CELLSTYLE_BEGIN
 90
        2
 91
        1
300
_HEADER
309
CELLSTYLE_END
300
CELLSTYLE
  1
TABLEFORMAT_BEGIN
 90
        5
170
     1
 91
        0
 92
        0
 62
   257
 93
        1
300
CONTENTFORMAT
  1
CONTENTFORMAT_BEGIN
 90
        0
 91
        0
 92
      512
 93
        0
300

 40
0.0
140
1.0
 94
        2
 62
     0
340
2948
144
0.18
309
CONTENTFORMAT_END
171
     1
301
MARGIN
  1
CELLMARGIN_BEGIN
 40
0.06
 40
0.06
 40
0.06
 40
0.06
 40
0.18
 40
0.18
309
CELLMARGIN_END
 94
        6
 95
        1
302
GRIDFORMAT
  1
GRIDFORMAT_BEGIN
 90
        0
 91
        1
 62
     0
 92
       -2
340
0
 93
        0
 40
0.045
309
GRIDFORMAT_END
 95
        2
302
GRIDFORMAT
  1
GRIDFORMAT_BEGIN
 90
        0
 91
        1
 62
     0
 92
       -2
340
0
 93
        0
 40
0.045
309
GRIDFORMAT_END
 95
        4
302
GRIDFORMAT
  1
GRIDFORMAT_BEGIN
 90
        0
 91
        1
 62
     0
 92
       -2
340
0
 93
        0
 40
0.045
309
GRIDFORMAT_END
 95
        8
302
GRIDFORMAT
  1
GRIDFORMAT_BEGIN
 90
        0
 91
        1
 62
     0
 92
       -2
340
0
 93
        0
 40
0.045
309
GRIDFORMAT_END
 95
       16
302
GRIDFORMAT
  1
GRIDFORMAT_BEGIN
 90
        0
 91
        1
 62
     0
 92
       -2
340
0
 93
        0
 40
0.045
309
GRIDFORMAT_END
 95
       32
302
GRIDFORMAT
  1
GRIDFORMAT_BEGIN
 90
        0
 91
        1
 62
     0
 92
       -2
340
0
 93
        0
 40
0.045
309
GRIDFORMAT_END
309
TABLEFORMAT_END
  1
CELLSTYLE_BEGIN
 90
        3
 91
        2
300
_DATA
309
CELLSTYLE_END
  0
XRECORD
  5
6DDC
102
{ACAD_REACTORS
330
2F43
102
}
330
2F43
100
AcDbXrecord
280
     1
102
ACAD_ROUNDTRIP_PRE2007_TABLESTYLE
 90
      512
 91
        0
  1

 92
      512
 93
        0
  2

 94
      512
 95
        0
  3

  0
XRECORD
  5
6DB7
102
{ACAD_REACTORS
330
6DB6
102
}
330
6DB6
100
AcDbXrecord
280
     1
102
RTVSPropertyOp0
 70
     1
102
RTVSPropertyOp1
 70
     1
102
RTVSPropertyOp2
 70
     1
102
RTVSPropertyOp3
 70
     1
102
RTVSPropertyOp4
 70
     1
102
RTVSPropertyOp5
 70
     1
102
RTVSPropertyOp6
 70
     1
102
RTVSPropertyOp7
 70
     1
102
RTVSPropertyOp8
 70
     1
102
RTVSPropertyOp9
 70
     1
102
RTVSPropertyOp10
 70
     1
102
RTVSPropertyOp11
 70
     1
102
RTVSPropertyOp12
 70
     1
102
RTVSPropertyOp13
 70
     1
102
RTVSPropertyOp14
 70
     1
102
RTVSPropertyOp15
 70
     1
102
RTVSPropertyOp16
 70
     1
102
RTVSPropertyOp17
 70
     1
102
RTVSPropertyOp18
 70
     1
102
RTVSPropertyOp19
 70
     1
102
RTVSPropertyOp20
 70
     1
102
RTVSPropertyOp21
 70
     1
102
RTVSPropertyOp22
 70
     1
102
RTVSPropertyOp23
 70
     1
102
RTVSPropertyOp24
 70
     1
102
RTVSPropertyOp25
 70
     1
102
RTVSPropertyOp26
 70
     1
102
RTVSPropertyOp27
 70
     1
102
RTVSPropertyOp28
 70
     1
102
RTVSPropertyOp29
 70
     1
102
RTVSPropertyOp30
 70
     1
102
RTVSPropertyOp31
 70
     1
102
RTVSPropertyOp32
 70
     1
  0
XRECORD
  5
6DE2
102
{ACAD_REACTORS
330
6DE1
102
}
330
6DE1
100
AcDbXrecord
280
     1
102
RTVSPropertyOp0
 70
     1
102
RTVSPropertyOp1
 70
     1
102
RTVSPropertyOp2
 70
     1
102
RTVSPropertyOp3
 70
     1
102
RTVSPropertyOp4
 70
     1
102
RTVSPropertyOp5
 70
     1
102
RTVSPropertyOp6
 70
     1
102
RTVSPropertyOp7
 70
     1
102
RTVSPropertyOp8
 70
     1
102
RTVSPropertyOp9
 70
     1
102
RTVSPropertyOp10
 70
     1
102
RTVSPropertyOp11
 70
     1
102
RTVSPropertyOp12
 70
     1
102
RTVSPropertyOp13
 70
     1
102
RTVSPropertyOp14
 70
     1
102
RTVSPropertyOp15
 70
     1
102
RTVSPropertyOp16
 70
     1
102
RTVSPropertyOp17
 70
     1
102
RTVSPropertyOp18
 70
     1
102
RTVSPropertyOp19
 70
     1
102
RTVSPropertyOp20
 70
     1
102
RTVSPropertyOp21
 70
     1
102
RTVSPropertyOp22
 70
     1
102
RTVSPropertyOp23
 70
     1
102
RTVSPropertyOp24
 70
     1
102
RTVSPropertyOp25
 70
     1
102
RTVSPropertyOp26
 70
     1
102
RTVSPropertyOp27
 70
     1
102
RTVSPropertyOp28
 70
     1
102
RTVSPropertyOp29
 70
     1
102
RTVSPropertyOp30
 70
     1
102
RTVSPropertyOp31
 70
     1
102
RTVSPropertyOp32
 70
     1
  0
XRECORD
  5
6DB5
102
{ACAD_REACTORS
330
6DB4
102
}
330
6DB4
100
AcDbXrecord
280
     1
102
RTVSPropertyOp0
 70
     1
102
RTVSPropertyOp1
 70
     1
102
RTVSPropertyOp2
 70
     1
102
RTVSPropertyOp3
 70
     1
102
RTVSPropertyOp4
 70
     1
102
RTVSPropertyOp5
 70
     1
102
RTVSPropertyOp6
 70
     1
102
RTVSPropertyOp7
 70
     1
102
RTVSPropertyOp8
 70
     1
102
RTVSPropertyOp9
 70
     1
102
RTVSPropertyOp10
 70
     1
102
RTVSPropertyOp11
 70
     1
102
RTVSPropertyOp12
 70
     1
102
RTVSPropertyOp13
 70
     1
102
RTVSPropertyOp14
 70
     1
102
RTVSPropertyOp15
 70
     1
102
RTVSPropertyOp16
 70
     1
102
RTVSPropertyOp17
 70
     1
102
RTVSPropertyOp18
 70
     1
102
RTVSPropertyOp19
 70
     1
102
RTVSPropertyOp20
 70
     1
102
RTVSPropertyOp21
 70
     1
102
RTVSPropertyOp22
 70
     1
102
RTVSPropertyOp23
 70
     1
102
RTVSPropertyOp24
 70
     1
102
RTVSPropertyOp25
 70
     1
102
RTVSPropertyOp26
 70
     1
102
RTVSPropertyOp27
 70
     1
102
RTVSPropertyOp28
 70
     1
102
RTVSPropertyOp29
 70
     1
102
RTVSPropertyOp30
 70
     1
102
RTVSPropertyOp31
 70
     1
102
RTVSPropertyOp32
 70
     1
  0
XRECORD
  5
6DC3
102
{ACAD_REACTORS
330
6DC2
102
}
330
6DC2
100
AcDbXrecord
280
     1
102
RTVSPropertyOp0
 70
     1
102
RTVSPropertyOp1
 70
     1
102
RTVSPropertyOp2
 70
     1
102
RTVSPropertyOp3
 70
     1
102
RTVSPropertyOp4
 70
     1
102
RTVSPropertyOp5
 70
     1
102
RTVSPropertyOp6
 70
     1
102
RTVSPropertyOp7
 70
     1
102
RTVSPropertyOp8
 70
     1
102
RTVSPropertyOp9
 70
     1
102
RTVSPropertyOp10
 70
     1
102
RTVSPropertyOp11
 70
     1
102
RTVSPropertyOp12
 70
     1
102
RTVSPropertyOp13
 70
     1
102
RTVSPropertyOp14
 70
     1
102
RTVSPropertyOp15
 70
     1
102
RTVSPropertyOp16
 70
     1
102
RTVSPropertyOp17
 70
     1
102
RTVSPropertyOp18
 70
     1
102
RTVSPropertyOp19
 70
     1
102
RTVSPropertyOp20
 70
     1
102
RTVSPropertyOp21
 70
     1
102
RTVSPropertyOp22
 70
     1
102
RTVSPropertyOp23
 70
     1
102
RTVSPropertyOp24
 70
     1
102
RTVSPropertyOp25
 70
     1
102
RTVSPropertyOp26
 70
     1
102
RTVSPropertyOp27
 70
     1
102
RTVSPropertyOp28
 70
     1
102
RTVSPropertyOp29
 70
     1
102
RTVSPropertyOp30
 70
     1
102
RTVSPropertyOp31
 70
     1
102
RTVSPropertyOp32
 70
     1
  0
XRECORD
  5
6DCB
102
{ACAD_REACTORS
330
6DCA
102
}
330
6DCA
100
AcDbXrecord
280
     1
102
RTVSPropertyOp0
 70
     1
102
RTVSPropertyOp1
 70
     1
102
RTVSPropertyOp2
 70
     1
102
RTVSPropertyOp3
 70
     1
102
RTVSPropertyOp4
 70
     1
102
RTVSPropertyOp5
 70
     1
102
RTVSPropertyOp6
 70
     1
102
RTVSPropertyOp7
 70
     1
102
RTVSPropertyOp8
 70
     1
102
RTVSPropertyOp9
 70
     1
102
RTVSPropertyOp10
 70
     1
102
RTVSPropertyOp11
 70
     1
102
RTVSPropertyOp12
 70
     1
102
RTVSPropertyOp13
 70
     1
102
RTVSPropertyOp14
 70
     1
102
RTVSPropertyOp15
 70
     1
102
RTVSPropertyOp16
 70
     1
102
RTVSPropertyOp17
 70
     1
102
RTVSPropertyOp18
 70
     1
102
RTVSPropertyOp19
 70
     1
102
RTVSPropertyOp20
 70
     1
102
RTVSPropertyOp21
 70
     1
102
RTVSPropertyOp22
 70
     1
102
RTVSPropertyOp23
 70
     1
102
RTVSPropertyOp24
 70
     1
102
RTVSPropertyOp25
 70
     1
102
RTVSPropertyOp26
 70
     1
102
RTVSPropertyOp27
 70
     1
102
RTVSPropertyOp28
 70
     1
102
RTVSPropertyOp29
 70
     1
102
RTVSPropertyOp30
 70
     1
102
RTVSPropertyOp31
 70
     1
102
RTVSPropertyOp32
 70
     1
  0
XRECORD
  5
6DBD
102
{ACAD_REACTORS
330
6DBC
102
}
330
6DBC
100
AcDbXrecord
280
     1
102
RTVSPropertyOp0
 70
     1
102
RTVSPropertyOp1
 70
     1
102
RTVSPropertyOp2
 70
     1
102
RTVSPropertyOp3
 70
     1
102
RTVSPropertyOp4
 70
     1
102
RTVSPropertyOp5
 70
     1
102
RTVSPropertyOp6
 70
     1
102
RTVSPropertyOp7
 70
     1
102
RTVSPropertyOp8
 70
     1
102
RTVSPropertyOp9
 70
     1
102
RTVSPropertyOp10
 70
     1
102
RTVSPropertyOp11
 70
     1
102
RTVSPropertyOp12
 70
     1
102
RTVSPropertyOp13
 70
     1
102
RTVSPropertyOp14
 70
     1
102
RTVSPropertyOp15
 70
     1
102
RTVSPropertyOp16
 70
     1
102
RTVSPropertyOp17
 70
     1
102
RTVSPropertyOp18
 70
     1
102
RTVSPropertyOp19
 70
     1
102
RTVSPropertyOp20
 70
     1
102
RTVSPropertyOp21
 70
     1
102
RTVSPropertyOp22
 70
     1
102
RTVSPropertyOp23
 70
     1
102
RTVSPropertyOp24
 70
     1
102
RTVSPropertyOp25
 70
     1
102
RTVSPropertyOp26
 70
     1
102
RTVSPropertyOp27
 70
     1
102
RTVSPropertyOp28
 70
     1
102
RTVSPropertyOp29
 70
     1
102
RTVSPropertyOp30
 70
     1
102
RTVSPropertyOp31
 70
     1
102
RTVSPropertyOp32
 70
     1
  0
XRECORD
  5
6DC1
102
{ACAD_REACTORS
330
6DC0
102
}
330
6DC0
100
AcDbXrecord
280
     1
102
RTVSPropertyOp0
 70
     1
102
RTVSPropertyOp1
 70
     1
102
RTVSPropertyOp2
 70
     1
102
RTVSPropertyOp3
 70
     1
102
RTVSPropertyOp4
 70
     1
102
RTVSPropertyOp5
 70
     1
102
RTVSPropertyOp6
 70
     1
102
RTVSPropertyOp7
 70
     1
102
RTVSPropertyOp8
 70
     1
102
RTVSPropertyOp9
 70
     1
102
RTVSPropertyOp10
 70
     1
102
RTVSPropertyOp11
 70
     1
102
RTVSPropertyOp12
 70
     1
102
RTVSPropertyOp13
 70
     1
102
RTVSPropertyOp14
 70
     1
102
RTVSPropertyOp15
 70
     1
102
RTVSPropertyOp16
 70
     1
102
RTVSPropertyOp17
 70
     1
102
RTVSPropertyOp18
 70
     1
102
RTVSPropertyOp19
 70
     1
102
RTVSPropertyOp20
 70
     1
102
RTVSPropertyOp21
 70
     1
102
RTVSPropertyOp22
 70
     1
102
RTVSPropertyOp23
 70
     1
102
RTVSPropertyOp24
 70
     1
102
RTVSPropertyOp25
 70
     1
102
RTVSPropertyOp26
 70
     1
102
RTVSPropertyOp27
 70
     1
102
RTVSPropertyOp28
 70
     1
102
RTVSPropertyOp29
 70
     1
102
RTVSPropertyOp30
 70
     1
102
RTVSPropertyOp31
 70
     1
102
RTVSPropertyOp32
 70
     1
  0
XRECORD
  5
6DDB
102
{ACAD_REACTORS
330
6DDA
102
}
330
6DDA
100
AcDbXrecord
280
     1
102
RTVSPropertyOp0
 70
     0
102
RTVSPropertyOp1
 70
     0
102
RTVSPropertyOp2
 70
     0
102
RTVSPropertyOp3
 70
     0
102
RTVSPropertyOp4
 70
     0
102
RTVSPropertyOp5
 70
     0
102
RTVSPropertyOp6
 70
     0
102
RTVSPropertyOp7
 70
     0
102
RTVSPropertyOp8
 70
     0
102
RTVSPropertyOp9
 70
     0
102
RTVSPropertyOp10
 70
     0
102
RTVSPropertyOp11
 70
     0
102
RTVSPropertyOp12
 70
     0
102
RTVSPropertyOp13
 70
     0
102
RTVSPropertyOp14
 70
     2
102
RTVSPropertyOp15
 70
     0
102
RTVSPropertyOp16
 70
     0
102
RTVSPropertyOp17
 70
     0
102
RTVSPropertyOp18
 70
     0
102
RTVSPropertyOp19
 70
     0
102
RTVSPropertyOp20
 70
     0
102
RTVSPropertyOp21
 70
     0
102
RTVSPropertyOp22
 70
     0
102
RTVSPropertyOp23
 70
     0
102
RTVSPropertyOp24
 70
     0
102
RTVSPropertyOp25
 70
     0
102
RTVSPropertyOp26
 70
     0
102
RTVSPropertyOp27
 70
     0
102
RTVSPropertyOp28
 70
     0
102
RTVSPropertyOp29
 70
     0
102
RTVSPropertyOp30
 70
     0
102
RTVSPropertyOp31
 70
     0
102
RTVSPropertyOp32
 70
     0
  0
XRECORD
  5
6DC9
102
{ACAD_REACTORS
330
6DC8
102
}
330
6DC8
100
AcDbXrecord
280
     1
102
RTVSPropertyOp0
 70
     1
102
RTVSPropertyOp1
 70
     1
102
RTVSPropertyOp2
 70
     1
102
RTVSPropertyOp3
 70
     1
102
RTVSPropertyOp4
 70
     1
102
RTVSPropertyOp5
 70
     1
102
RTVSPropertyOp6
 70
     1
102
RTVSPropertyOp7
 70
     1
102
RTVSPropertyOp8
 70
     1
102
RTVSPropertyOp9
 70
     1
102
RTVSPropertyOp10
 70
     1
102
RTVSPropertyOp11
 70
     1
102
RTVSPropertyOp12
 70
     1
102
RTVSPropertyOp13
 70
     1
102
RTVSPropertyOp14
 70
     1
102
RTVSPropertyOp15
 70
     1
102
RTVSPropertyOp16
 70
     1
102
RTVSPropertyOp17
 70
     1
102
RTVSPropertyOp18
 70
     1
102
RTVSPropertyOp19
 70
     1
102
RTVSPropertyOp20
 70
     1
102
RTVSPropertyOp21
 70
     1
102
RTVSPropertyOp22
 70
     1
102
RTVSPropertyOp23
 70
     1
102
RTVSPropertyOp24
 70
     1
102
RTVSPropertyOp25
 70
     1
102
RTVSPropertyOp26
 70
     1
102
RTVSPropertyOp27
 70
     1
102
RTVSPropertyOp28
 70
     1
102
RTVSPropertyOp29
 70
     1
102
RTVSPropertyOp30
 70
     1
102
RTVSPropertyOp31
 70
     1
102
RTVSPropertyOp32
 70
     1
  0
XRECORD
  5
6DAD
102
{ACAD_REACTORS
330
6DAC
102
}
330
6DAC
100
AcDbXrecord
280
     1
102
RTVSPropertyOp0
 70
     1
102
RTVSPropertyOp1
 70
     1
102
RTVSPropertyOp2
 70
     1
102
RTVSPropertyOp3
 70
     1
102
RTVSPropertyOp4
 70
     1
102
RTVSPropertyOp5
 70
     1
102
RTVSPropertyOp6
 70
     1
102
RTVSPropertyOp7
 70
     1
102
RTVSPropertyOp8
 70
     1
102
RTVSPropertyOp9
 70
     1
102
RTVSPropertyOp10
 70
     1
102
RTVSPropertyOp11
 70
     1
102
RTVSPropertyOp12
 70
     1
102
RTVSPropertyOp13
 70
     1
102
RTVSPropertyOp14
 70
     1
102
RTVSPropertyOp15
 70
     1
102
RTVSPropertyOp16
 70
     1
102
RTVSPropertyOp17
 70
     1
102
RTVSPropertyOp18
 70
     1
102
RTVSPropertyOp19
 70
     1
102
RTVSPropertyOp20
 70
     1
102
RTVSPropertyOp21
 70
     1
102
RTVSPropertyOp22
 70
     1
102
RTVSPropertyOp23
 70
     1
102
RTVSPropertyOp24
 70
     1
102
RTVSPropertyOp25
 70
     1
102
RTVSPropertyOp26
 70
     1
102
RTVSPropertyOp27
 70
     1
102
RTVSPropertyOp28
 70
     1
102
RTVSPropertyOp29
 70
     1
102
RTVSPropertyOp30
 70
     1
102
RTVSPropertyOp31
 70
     1
102
RTVSPropertyOp32
 70
     1
  0
XRECORD
  5
6DAF
102
{ACAD_REACTORS
330
6DAE
102
}
330
6DAE
100
AcDbXrecord
280
     1
102
RTVSPropertyOp0
 70
     1
102
RTVSPropertyOp1
 70
     1
102
RTVSPropertyOp2
 70
     1
102
RTVSPropertyOp3
 70
     1
102
RTVSPropertyOp4
 70
     1
102
RTVSPropertyOp5
 70
     1
102
RTVSPropertyOp6
 70
     1
102
RTVSPropertyOp7
 70
     1
102
RTVSPropertyOp8
 70
     1
102
RTVSPropertyOp9
 70
     1
102
RTVSPropertyOp10
 70
     1
102
RTVSPropertyOp11
 70
     1
102
RTVSPropertyOp12
 70
     1
102
RTVSPropertyOp13
 70
     1
102
RTVSPropertyOp14
 70
     1
102
RTVSPropertyOp15
 70
     1
102
RTVSPropertyOp16
 70
     1
102
RTVSPropertyOp17
 70
     1
102
RTVSPropertyOp18
 70
     1
102
RTVSPropertyOp19
 70
     1
102
RTVSPropertyOp20
 70
     1
102
RTVSPropertyOp21
 70
     1
102
RTVSPropertyOp22
 70
     1
102
RTVSPropertyOp23
 70
     1
102
RTVSPropertyOp24
 70
     1
102
RTVSPropertyOp25
 70
     1
102
RTVSPropertyOp26
 70
     1
102
RTVSPropertyOp27
 70
     1
102
RTVSPropertyOp28
 70
     1
102
RTVSPropertyOp29
 70
     1
102
RTVSPropertyOp30
 70
     1
102
RTVSPropertyOp31
 70
     1
102
RTVSPropertyOp32
 70
     1
  0
XRECORD
  5
6DB1
102
{ACAD_REACTORS
330
6DB0
102
}
330
6DB0
100
AcDbXrecord
280
     1
102
RTVSPropertyOp0
 70
     1
102
RTVSPropertyOp1
 70
     1
102
RTVSPropertyOp2
 70
     1
102
RTVSPropertyOp3
 70
     1
102
RTVSPropertyOp4
 70
     1
102
RTVSPropertyOp5
 70
     1
102
RTVSPropertyOp6
 70
     1
102
RTVSPropertyOp7
 70
     1
102
RTVSPropertyOp8
 70
     1
102
RTVSPropertyOp9
 70
     1
102
RTVSPropertyOp10
 70
     1
102
RTVSPropertyOp11
 70
     1
102
RTVSPropertyOp12
 70
     1
102
RTVSPropertyOp13
 70
     1
102
RTVSPropertyOp14
 70
     1
102
RTVSPropertyOp15
 70
     1
102
RTVSPropertyOp16
 70
     1
102
RTVSPropertyOp17
 70
     1
102
RTVSPropertyOp18
 70
     1
102
RTVSPropertyOp19
 70
     1
102
RTVSPropertyOp20
 70
     1
102
RTVSPropertyOp21
 70
     1
102
RTVSPropertyOp22
 70
     1
102
RTVSPropertyOp23
 70
     1
102
RTVSPropertyOp24
 70
     1
102
RTVSPropertyOp25
 70
     1
102
RTVSPropertyOp26
 70
     1
102
RTVSPropertyOp27
 70
     1
102
RTVSPropertyOp28
 70
     1
102
RTVSPropertyOp29
 70
     1
102
RTVSPropertyOp30
 70
     1
102
RTVSPropertyOp31
 70
     1
102
RTVSPropertyOp32
 70
     1
  0
XRECORD
  5
6DB3
102
{ACAD_REACTORS
330
6DB2
102
}
330
6DB2
100
AcDbXrecord
280
     1
102
RTVSPropertyOp0
 70
     1
102
RTVSPropertyOp1
 70
     1
102
RTVSPropertyOp2
 70
     1
102
RTVSPropertyOp3
 70
     1
102
RTVSPropertyOp4
 70
     1
102
RTVSPropertyOp5
 70
     1
102
RTVSPropertyOp6
 70
     1
102
RTVSPropertyOp7
 70
     1
102
RTVSPropertyOp8
 70
     1
102
RTVSPropertyOp9
 70
     1
102
RTVSPropertyOp10
 70
     1
102
RTVSPropertyOp11
 70
     1
102
RTVSPropertyOp12
 70
     1
102
RTVSPropertyOp13
 70
     1
102
RTVSPropertyOp14
 70
     1
102
RTVSPropertyOp15
 70
     1
102
RTVSPropertyOp16
 70
     1
102
RTVSPropertyOp17
 70
     1
102
RTVSPropertyOp18
 70
     1
102
RTVSPropertyOp19
 70
     1
102
RTVSPropertyOp20
 70
     1
102
RTVSPropertyOp21
 70
     1
102
RTVSPropertyOp22
 70
     1
102
RTVSPropertyOp23
 70
     1
102
RTVSPropertyOp24
 70
     1
102
RTVSPropertyOp25
 70
     1
102
RTVSPropertyOp26
 70
     1
102
RTVSPropertyOp27
 70
     1
102
RTVSPropertyOp28
 70
     1
102
RTVSPropertyOp29
 70
     1
102
RTVSPropertyOp30
 70
     1
102
RTVSPropertyOp31
 70
     1
102
RTVSPropertyOp32
 70
     1
  0
XRECORD
  5
6DBB
102
{ACAD_REACTORS
330
6DBA
102
}
330
6DBA
100
AcDbXrecord
280
     1
102
RTVSPropertyOp0
 70
     1
102
RTVSPropertyOp1
 70
     1
102
RTVSPropertyOp2
 70
     1
102
RTVSPropertyOp3
 70
     1
102
RTVSPropertyOp4
 70
     1
102
RTVSPropertyOp5
 70
     1
102
RTVSPropertyOp6
 70
     1
102
RTVSPropertyOp7
 70
     1
102
RTVSPropertyOp8
 70
     1
102
RTVSPropertyOp9
 70
     1
102
RTVSPropertyOp10
 70
     1
102
RTVSPropertyOp11
 70
     1
102
RTVSPropertyOp12
 70
     1
102
RTVSPropertyOp13
 70
     1
102
RTVSPropertyOp14
 70
     1
102
RTVSPropertyOp15
 70
     1
102
RTVSPropertyOp16
 70
     1
102
RTVSPropertyOp17
 70
     1
102
RTVSPropertyOp18
 70
     1
102
RTVSPropertyOp19
 70
     1
102
RTVSPropertyOp20
 70
     1
102
RTVSPropertyOp21
 70
     1
102
RTVSPropertyOp22
 70
     1
102
RTVSPropertyOp23
 70
     1
102
RTVSPropertyOp24
 70
     1
102
RTVSPropertyOp25
 70
     1
102
RTVSPropertyOp26
 70
     1
102
RTVSPropertyOp27
 70
     1
102
RTVSPropertyOp28
 70
     1
102
RTVSPropertyOp29
 70
     1
102
RTVSPropertyOp30
 70
     1
102
RTVSPropertyOp31
 70
     1
102
RTVSPropertyOp32
 70
     1
  0
XRECORD
  5
6DD7
102
{ACAD_REACTORS
330
6DD6
102
}
330
6DD6
100
AcDbXrecord
280
     1
102
RTVSPropertyOp0
 70
     0
102
RTVSPropertyOp1
 70
     0
102
RTVSPropertyOp2
 70
     0
102
RTVSPropertyOp3
 70
     0
102
RTVSPropertyOp4
 70
     0
102
RTVSPropertyOp5
 70
     0
102
RTVSPropertyOp6
 70
     0
102
RTVSPropertyOp7
 70
     0
102
RTVSPropertyOp8
 70
     0
102
RTVSPropertyOp9
 70
     0
102
RTVSPropertyOp10
 70
     0
102
RTVSPropertyOp11
 70
     0
102
RTVSPropertyOp12
 70
     0
102
RTVSPropertyOp13
 70
     0
102
RTVSPropertyOp14
 70
     2
102
RTVSPropertyOp15
 70
     0
102
RTVSPropertyOp16
 70
     0
102
RTVSPropertyOp17
 70
     0
102
RTVSPropertyOp18
 70
     0
102
RTVSPropertyOp19
 70
     0
102
RTVSPropertyOp20
 70
     0
102
RTVSPropertyOp21
 70
     0
102
RTVSPropertyOp22
 70
     0
102
RTVSPropertyOp23
 70
     0
102
RTVSPropertyOp24
 70
     0
102
RTVSPropertyOp25
 70
     0
102
RTVSPropertyOp26
 70
     0
102
RTVSPropertyOp27
 70
     0
102
RTVSPropertyOp28
 70
     0
102
RTVSPropertyOp29
 70
     0
102
RTVSPropertyOp30
 70
     0
102
RTVSPropertyOp31
 70
     0
102
RTVSPropertyOp32
 70
     0
  0
XRECORD
  5
6DC7
102
{ACAD_REACTORS
330
6DC6
102
}
330
6DC6
100
AcDbXrecord
280
     1
102
RTVSPropertyOp0
 70
     1
102
RTVSPropertyOp1
 70
     1
102
RTVSPropertyOp2
 70
     1
102
RTVSPropertyOp3
 70
     1
102
RTVSPropertyOp4
 70
     1
102
RTVSPropertyOp5
 70
     1
102
RTVSPropertyOp6
 70
     1
102
RTVSPropertyOp7
 70
     1
102
RTVSPropertyOp8
 70
     1
102
RTVSPropertyOp9
 70
     1
102
RTVSPropertyOp10
 70
     1
102
RTVSPropertyOp11
 70
     1
102
RTVSPropertyOp12
 70
     1
102
RTVSPropertyOp13
 70
     1
102
RTVSPropertyOp14
 70
     1
102
RTVSPropertyOp15
 70
     1
102
RTVSPropertyOp16
 70
     1
102
RTVSPropertyOp17
 70
     1
102
RTVSPropertyOp18
 70
     1
102
RTVSPropertyOp19
 70
     1
102
RTVSPropertyOp20
 70
     1
102
RTVSPropertyOp21
 70
     1
102
RTVSPropertyOp22
 70
     1
102
RTVSPropertyOp23
 70
     1
102
RTVSPropertyOp24
 70
     1
102
RTVSPropertyOp25
 70
     1
102
RTVSPropertyOp26
 70
     1
102
RTVSPropertyOp27
 70
     1
102
RTVSPropertyOp28
 70
     1
102
RTVSPropertyOp29
 70
     1
102
RTVSPropertyOp30
 70
     1
102
RTVSPropertyOp31
 70
     1
102
RTVSPropertyOp32
 70
     1
  0
XRECORD
  5
6DD9
102
{ACAD_REACTORS
330
6DD8
102
}
330
6DD8
100
AcDbXrecord
280
     1
102
RTVSPropertyOp0
 70
     0
102
RTVSPropertyOp1
 70
     0
102
RTVSPropertyOp2
 70
     0
102
RTVSPropertyOp3
 70
     0
102
RTVSPropertyOp4
 70
     0
102
RTVSPropertyOp5
 70
     0
102
RTVSPropertyOp6
 70
     0
102
RTVSPropertyOp7
 70
     0
102
RTVSPropertyOp8
 70
     0
102
RTVSPropertyOp9
 70
     0
102
RTVSPropertyOp10
 70
     0
102
RTVSPropertyOp11
 70
     0
102
RTVSPropertyOp12
 70
     0
102
RTVSPropertyOp13
 70
     0
102
RTVSPropertyOp14
 70
     2
102
RTVSPropertyOp15
 70
     0
102
RTVSPropertyOp16
 70
     0
102
RTVSPropertyOp17
 70
     0
102
RTVSPropertyOp18
 70
     0
102
RTVSPropertyOp19
 70
     0
102
RTVSPropertyOp20
 70
     0
102
RTVSPropertyOp21
 70
     0
102
RTVSPropertyOp22
 70
     0
102
RTVSPropertyOp23
 70
     0
102
RTVSPropertyOp24
 70
     0
102
RTVSPropertyOp25
 70
     0
102
RTVSPropertyOp26
 70
     0
102
RTVSPropertyOp27
 70
     0
102
RTVSPropertyOp28
 70
     0
102
RTVSPropertyOp29
 70
     0
102
RTVSPropertyOp30
 70
     0
102
RTVSPropertyOp31
 70
     0
102
RTVSPropertyOp32
 70
     0
  0
XRECORD
  5
6DBF
102
{ACAD_REACTORS
330
6DBE
102
}
330
6DBE
100
AcDbXrecord
280
     1
102
RTVSPropertyOp0
 70
     1
102
RTVSPropertyOp1
 70
     1
102
RTVSPropertyOp2
 70
     1
102
RTVSPropertyOp3
 70
     1
102
RTVSPropertyOp4
 70
     1
102
RTVSPropertyOp5
 70
     1
102
RTVSPropertyOp6
 70
     1
102
RTVSPropertyOp7
 70
     1
102
RTVSPropertyOp8
 70
     1
102
RTVSPropertyOp9
 70
     1
102
RTVSPropertyOp10
 70
     1
102
RTVSPropertyOp11
 70
     1
102
RTVSPropertyOp12
 70
     1
102
RTVSPropertyOp13
 70
     1
102
RTVSPropertyOp14
 70
     1
102
RTVSPropertyOp15
 70
     1
102
RTVSPropertyOp16
 70
     1
102
RTVSPropertyOp17
 70
     1
102
RTVSPropertyOp18
 70
     1
102
RTVSPropertyOp19
 70
     1
102
RTVSPropertyOp20
 70
     1
102
RTVSPropertyOp21
 70
     1
102
RTVSPropertyOp22
 70
     1
102
RTVSPropertyOp23
 70
     1
102
RTVSPropertyOp24
 70
     1
102
RTVSPropertyOp25
 70
     1
102
RTVSPropertyOp26
 70
     1
102
RTVSPropertyOp27
 70
     1
102
RTVSPropertyOp28
 70
     1
102
RTVSPropertyOp29
 70
     1
102
RTVSPropertyOp30
 70
     1
102
RTVSPropertyOp31
 70
     1
102
RTVSPropertyOp32
 70
     1
  0
XRECORD
  5
6DD5
102
{ACAD_REACTORS
330
6DD4
102
}
330
6DD4
100
AcDbXrecord
280
     1
102
RTVSPropertyOp0
 70
     1
102
RTVSPropertyOp1
 70
     1
102
RTVSPropertyOp2
 70
     1
102
RTVSPropertyOp3
 70
     1
102
RTVSPropertyOp4
 70
     1
102
RTVSPropertyOp5
 70
     1
102
RTVSPropertyOp6
 70
     1
102
RTVSPropertyOp7
 70
     1
102
RTVSPropertyOp8
 70
     1
102
RTVSPropertyOp9
 70
     1
102
RTVSPropertyOp10
 70
     1
102
RTVSPropertyOp11
 70
     1
102
RTVSPropertyOp12
 70
     1
102
RTVSPropertyOp13
 70
     1
102
RTVSPropertyOp14
 70
     1
102
RTVSPropertyOp15
 70
     1
102
RTVSPropertyOp16
 70
     1
102
RTVSPropertyOp17
 70
     1
102
RTVSPropertyOp18
 70
     1
102
RTVSPropertyOp19
 70
     1
102
RTVSPropertyOp20
 70
     1
102
RTVSPropertyOp21
 70
     1
102
RTVSPropertyOp22
 70
     1
102
RTVSPropertyOp23
 70
     1
102
RTVSPropertyOp24
 70
     1
102
RTVSPropertyOp25
 70
     1
102
RTVSPropertyOp26
 70
     1
102
RTVSPropertyOp27
 70
     1
102
RTVSPropertyOp28
 70
     1
102
RTVSPropertyOp29
 70
     1
102
RTVSPropertyOp30
 70
     1
102
RTVSPropertyOp31
 70
     1
102
RTVSPropertyOp32
 70
     1
  0
XRECORD
  5
6DD3
102
{ACAD_REACTORS
330
6DD2
102
}
330
6DD2
100
AcDbXrecord
280
     1
102
RTVSPropertyOp0
 70
     1
102
RTVSPropertyOp1
 70
     1
102
RTVSPropertyOp2
 70
     1
102
RTVSPropertyOp3
 70
     1
102
RTVSPropertyOp4
 70
     1
102
RTVSPropertyOp5
 70
     1
102
RTVSPropertyOp6
 70
     1
102
RTVSPropertyOp7
 70
     1
102
RTVSPropertyOp8
 70
     1
102
RTVSPropertyOp9
 70
     1
102
RTVSPropertyOp10
 70
     1
102
RTVSPropertyOp11
 70
     1
102
RTVSPropertyOp12
 70
     1
102
RTVSPropertyOp13
 70
     1
102
RTVSPropertyOp14
 70
     1
102
RTVSPropertyOp15
 70
     1
102
RTVSPropertyOp16
 70
     1
102
RTVSPropertyOp17
 70
     1
102
RTVSPropertyOp18
 70
     1
102
RTVSPropertyOp19
 70
     1
102
RTVSPropertyOp20
 70
     1
102
RTVSPropertyOp21
 70
     1
102
RTVSPropertyOp22
 70
     1
102
RTVSPropertyOp23
 70
     1
102
RTVSPropertyOp24
 70
     1
102
RTVSPropertyOp25
 70
     1
102
RTVSPropertyOp26
 70
     1
102
RTVSPropertyOp27
 70
     1
102
RTVSPropertyOp28
 70
     1
102
RTVSPropertyOp29
 70
     1
102
RTVSPropertyOp30
 70
     1
102
RTVSPropertyOp31
 70
     1
102
RTVSPropertyOp32
 70
     1
  0
XRECORD
  5
6DCD
102
{ACAD_REACTORS
330
6DCC
102
}
330
6DCC
100
AcDbXrecord
280
     1
102
RTVSPropertyOp0
 70
     1
102
RTVSPropertyOp1
 70
     1
102
RTVSPropertyOp2
 70
     1
102
RTVSPropertyOp3
 70
     1
102
RTVSPropertyOp4
 70
     1
102
RTVSPropertyOp5
 70
     1
102
RTVSPropertyOp6
 70
     1
102
RTVSPropertyOp7
 70
     1
102
RTVSPropertyOp8
 70
     1
102
RTVSPropertyOp9
 70
     1
102
RTVSPropertyOp10
 70
     1
102
RTVSPropertyOp11
 70
     1
102
RTVSPropertyOp12
 70
     1
102
RTVSPropertyOp13
 70
     1
102
RTVSPropertyOp14
 70
     1
102
RTVSPropertyOp15
 70
     1
102
RTVSPropertyOp16
 70
     1
102
RTVSPropertyOp17
 70
     1
102
RTVSPropertyOp18
 70
     1
102
RTVSPropertyOp19
 70
     1
102
RTVSPropertyOp20
 70
     1
102
RTVSPropertyOp21
 70
     1
102
RTVSPropertyOp22
 70
     1
102
RTVSPropertyOp23
 70
     1
102
RTVSPropertyOp24
 70
     1
102
RTVSPropertyOp25
 70
     1
102
RTVSPropertyOp26
 70
     1
102
RTVSPropertyOp27
 70
     1
102
RTVSPropertyOp28
 70
     1
102
RTVSPropertyOp29
 70
     1
102
RTVSPropertyOp30
 70
     1
102
RTVSPropertyOp31
 70
     1
102
RTVSPropertyOp32
 70
     1
  0
XRECORD
  5
6DCF
102
{ACAD_REACTORS
330
6DCE
102
}
330
6DCE
100
AcDbXrecord
280
     1
102
RTVSPropertyOp0
 70
     1
102
RTVSPropertyOp1
 70
     1
102
RTVSPropertyOp2
 70
     1
102
RTVSPropertyOp3
 70
     1
102
RTVSPropertyOp4
 70
     1
102
RTVSPropertyOp5
 70
     1
102
RTVSPropertyOp6
 70
     1
102
RTVSPropertyOp7
 70
     1
102
RTVSPropertyOp8
 70
     1
102
RTVSPropertyOp9
 70
     1
102
RTVSPropertyOp10
 70
     1
102
RTVSPropertyOp11
 70
     1
102
RTVSPropertyOp12
 70
     1
102
RTVSPropertyOp13
 70
     1
102
RTVSPropertyOp14
 70
     1
102
RTVSPropertyOp15
 70
     1
102
RTVSPropertyOp16
 70
     1
102
RTVSPropertyOp17
 70
     1
102
RTVSPropertyOp18
 70
     1
102
RTVSPropertyOp19
 70
     1
102
RTVSPropertyOp20
 70
     1
102
RTVSPropertyOp21
 70
     1
102
RTVSPropertyOp22
 70
     1
102
RTVSPropertyOp23
 70
     1
102
RTVSPropertyOp24
 70
     1
102
RTVSPropertyOp25
 70
     1
102
RTVSPropertyOp26
 70
     1
102
RTVSPropertyOp27
 70
     1
102
RTVSPropertyOp28
 70
     1
102
RTVSPropertyOp29
 70
     1
102
RTVSPropertyOp30
 70
     1
102
RTVSPropertyOp31
 70
     1
102
RTVSPropertyOp32
 70
     1
  0
XRECORD
  5
6DC5
102
{ACAD_REACTORS
330
6DC4
102
}
330
6DC4
100
AcDbXrecord
280
     1
102
RTVSPropertyOp0
 70
     1
102
RTVSPropertyOp1
 70
     1
102
RTVSPropertyOp2
 70
     1
102
RTVSPropertyOp3
 70
     1
102
RTVSPropertyOp4
 70
     1
102
RTVSPropertyOp5
 70
     1
102
RTVSPropertyOp6
 70
     1
102
RTVSPropertyOp7
 70
     1
102
RTVSPropertyOp8
 70
     1
102
RTVSPropertyOp9
 70
     1
102
RTVSPropertyOp10
 70
     1
102
RTVSPropertyOp11
 70
     1
102
RTVSPropertyOp12
 70
     1
102
RTVSPropertyOp13
 70
     1
102
RTVSPropertyOp14
 70
     1
102
RTVSPropertyOp15
 70
     1
102
RTVSPropertyOp16
 70
     1
102
RTVSPropertyOp17
 70
     1
102
RTVSPropertyOp18
 70
     1
102
RTVSPropertyOp19
 70
     1
102
RTVSPropertyOp20
 70
     1
102
RTVSPropertyOp21
 70
     1
102
RTVSPropertyOp22
 70
     1
102
RTVSPropertyOp23
 70
     1
102
RTVSPropertyOp24
 70
     1
102
RTVSPropertyOp25
 70
     1
102
RTVSPropertyOp26
 70
     1
102
RTVSPropertyOp27
 70
     1
102
RTVSPropertyOp28
 70
     1
102
RTVSPropertyOp29
 70
     1
102
RTVSPropertyOp30
 70
     1
102
RTVSPropertyOp31
 70
     1
102
RTVSPropertyOp32
 70
     1
  0
XRECORD
  5
6DB9
102
{ACAD_REACTORS
330
6DB8
102
}
330
6DB8
100
AcDbXrecord
280
     1
102
RTVSPropertyOp0
 70
     1
102
RTVSPropertyOp1
 70
     1
102
RTVSPropertyOp2
 70
     1
102
RTVSPropertyOp3
 70
     1
102
RTVSPropertyOp4
 70
     1
102
RTVSPropertyOp5
 70
     1
102
RTVSPropertyOp6
 70
     1
102
RTVSPropertyOp7
 70
     1
102
RTVSPropertyOp8
 70
     1
102
RTVSPropertyOp9
 70
     1
102
RTVSPropertyOp10
 70
     1
102
RTVSPropertyOp11
 70
     1
102
RTVSPropertyOp12
 70
     1
102
RTVSPropertyOp13
 70
     1
102
RTVSPropertyOp14
 70
     1
102
RTVSPropertyOp15
 70
     1
102
RTVSPropertyOp16
 70
     1
102
RTVSPropertyOp17
 70
     1
102
RTVSPropertyOp18
 70
     1
102
RTVSPropertyOp19
 70
     1
102
RTVSPropertyOp20
 70
     1
102
RTVSPropertyOp21
 70
     1
102
RTVSPropertyOp22
 70
     1
102
RTVSPropertyOp23
 70
     1
102
RTVSPropertyOp24
 70
     1
102
RTVSPropertyOp25
 70
     1
102
RTVSPropertyOp26
 70
     1
102
RTVSPropertyOp27
 70
     1
102
RTVSPropertyOp28
 70
     1
102
RTVSPropertyOp29
 70
     1
102
RTVSPropertyOp30
 70
     1
102
RTVSPropertyOp31
 70
     1
102
RTVSPropertyOp32
 70
     1
  0
XRECORD
  5
6DD1
102
{ACAD_REACTORS
330
6DD0
102
}
330
6DD0
100
AcDbXrecord
280
     1
102
RTVSPropertyOp0
 70
     1
102
RTVSPropertyOp1
 70
     1
102
RTVSPropertyOp2
 70
     1
102
RTVSPropertyOp3
 70
     1
102
RTVSPropertyOp4
 70
     1
102
RTVSPropertyOp5
 70
     1
102
RTVSPropertyOp6
 70
     1
102
RTVSPropertyOp7
 70
     1
102
RTVSPropertyOp8
 70
     1
102
RTVSPropertyOp9
 70
     1
102
RTVSPropertyOp10
 70
     1
102
RTVSPropertyOp11
 70
     1
102
RTVSPropertyOp12
 70
     1
102
RTVSPropertyOp13
 70
     1
102
RTVSPropertyOp14
 70
     1
102
RTVSPropertyOp15
 70
     1
102
RTVSPropertyOp16
 70
     1
102
RTVSPropertyOp17
 70
     1
102
RTVSPropertyOp18
 70
     1
102
RTVSPropertyOp19
 70
     1
102
RTVSPropertyOp20
 70
     1
102
RTVSPropertyOp21
 70
     1
102
RTVSPropertyOp22
 70
     1
102
RTVSPropertyOp23
 70
     1
102
RTVSPropertyOp24
 70
     1
102
RTVSPropertyOp25
 70
     1
102
RTVSPropertyOp26
 70
     1
102
RTVSPropertyOp27
 70
     1
102
RTVSPropertyOp28
 70
     1
102
RTVSPropertyOp29
 70
     1
102
RTVSPropertyOp30
 70
     1
102
RTVSPropertyOp31
 70
     1
102
RTVSPropertyOp32
 70
     1
  0
ENDSEC
  0
EOF
