  0
SECTION
  2
HEADER
  9
$ACADVER
  1
AC1015
  9
$ACADMAINTVER
 70
    20
  9
$DWGCODEPAGE
  3
ANSI_932
  9
$INSBASE
 10
0.0
 20
0.0
 30
0.0
  9
$EXTMIN
 10
-377.562715
 20
-9.85862
 30
0.0
  9
$EXTMAX
 10
147.8481383128484
 20
264.14138
 30
0.0
  9
$LIMMIN
 10
-377.563714
 20
-9.898424999999999
  9
$LIMMAX
 10
27.464144
 20
264.197747
  9
$ORTHOMODE
 70
     1
  9
$REGENMODE
 70
     1
  9
$FILLMODE
 70
     1
  9
$QTEXTMODE
 70
     0
  9
$MIRRTEXT
 70
     0
  9
$LTSCALE
 40
0.5
  9
$ATTMODE
 70
     1
  9
$TEXTSIZE
 40
3.2
  9
$TRACEWID
 40
0.05
  9
$TEXTSTYLE
  7
高3.2
  9
$CLAYER
  8
0
  9
$CELTYPE
  6
ByLayer
  9
$CECOLOR
 62
   256
  9
$CELTSCALE
 40
1.0
  9
$DISPSILH
 70
     0
  9
$DIMSCALE
 40
1.0
  9
$DIMASZ
 40
2.5
  9
$DIMEXO
 40
0.25
  9
$DIMDLI
 40
0.2
  9
$DIMRND
 40
0.0
  9
$DIMDLE
 40
0.0
  9
$DIMEXE
 40
1.25
  9
$DIMTP
 40
0.0
  9
$DIMTM
 40
0.0
  9
$DIMTXT
 40
3.0
  9
$DIMCEN
 40
0.0
  9
$DIMTSZ
 40
0.0
  9
$DIMTOL
 70
     0
  9
$DIMLIM
 70
     0
  9
$DIMTIH
 70
     0
  9
$DIMTOH
 70
     0
  9
$DIMSE1
 70
     0
  9
$DIMSE2
 70
     0
  9
$DIMTAD
 70
     3
  9
$DIMZIN
 70
     8
  9
$DIMBLK
  1
Open30
  9
$DIMASO
 70
     1
  9
$DIMSHO
 70
     1
  9
$DIMPOST
  1

  9
$DIMAPOST
  1

  9
$DIMALT
 70
     0
  9
$DIMALTD
 70
     3
  9
$DIMALTF
 40
0.03937007874016
  9
$DIMLFAC
 40
2.0
  9
$DIMTOFL
 70
     1
  9
$DIMTVP
 40
0.0
  9
$DIMTIX
 70
     0
  9
$DIMSOXD
 70
     0
  9
$DIMSAH
 70
     0
  9
$DIMBLK1
  1

  9
$DIMBLK2
  1

  9
$DIMSTYLE
  2
1／2
  9
$DIMCLRD
 70
     0
  9
$DIMCLRE
 70
     0
  9
$DIMCLRT
 70
     4
  9
$DIMTFAC
 40
1.0
  9
$DIMGAP
 40
0.625
  9
$DIMJUST
 70
     0
  9
$DIMSD1
 70
     0
  9
$DIMSD2
 70
     0
  9
$DIMTOLJ
 70
     0
  9
$DIMTZIN
 70
     8
  9
$DIMALTZ
 70
     0
  9
$DIMALTTZ
 70
     0
  9
$DIMUPT
 70
     1
  9
$DIMDEC
 70
     2
  9
$DIMTDEC
 70
     2
  9
$DIMALTU
 70
     2
  9
$DIMALTTD
 70
     3
  9
$DIMTXSTY
  7
STANDARD
  9
$DIMAUNIT
 70
     0
  9
$DIMADEC
 70
     1
  9
$DIMALTRND
 40
0.0
  9
$DIMAZIN
 70
     2
  9
$DIMDSEP
 70
    46
  9
$DIMATFIT
 70
     0
  9
$DIMFRAC
 70
     0
  9
$DIMLDRBLK
  1
Open30
  9
$DIMLUNIT
 70
     2
  9
$DIMLWD
 70
    -2
  9
$DIMLWE
 70
    -2
  9
$DIMTMOVE
 70
     0
  9
$LUNITS
 70
     2
  9
$LUPREC
 70
     4
  9
$SKETCHINC
 40
0.1
  9
$FILLETRAD
 40
0.0
  9
$AUNITS
 70
     0
  9
$AUPREC
 70
     0
  9
$MENU
  1
.
  9
$ELEVATION
 40
0.0
  9
$PELEVATION
 40
0.0
  9
$THICKNESS
 40
0.0
  9
$LIMCHECK
 70
     0
  9
$CHAMFERA
 40
0.0
  9
$CHAMFERB
 40
0.0
  9
$CHAMFERC
 40
0.0
  9
$CHAMFERD
 40
0.0
  9
$SKPOLY
 70
     0
  9
$TDCREATE
 40
2455467.455711979
  9
$TDUCREATE
 40
2455467.080711979
  9
$TDUPDATE
 40
2459159.393692026
  9
$TDUUPDATE
 40
2459159.018692025
  9
$TDINDWG
 40
0.0668277315
  9
$TDUSRTIMER
 40
0.0668274421
  9
$USRTIMER
 70
     1
  9
$ANGBASE
 50
0.0
  9
$ANGDIR
 70
     0
  9
$PDMODE
 70
     0
  9
$PDSIZE
 40
0.0
  9
$PLINEWID
 40
0.0
  9
$SPLFRAME
 70
     0
  9
$SPLINETYPE
 70
     6
  9
$SPLINESEGS
 70
     8
  9
$HANDSEED
  5
F85
  9
$SURFTAB1
 70
     6
  9
$SURFTAB2
 70
     6
  9
$SURFTYPE
 70
     6
  9
$SURFU
 70
     6
  9
$SURFV
 70
     6
  9
$UCSBASE
  2

  9
$UCSNAME
  2

  9
$UCSORG
 10
0.0
 20
0.0
 30
0.0
  9
$UCSXDIR
 10
1.0
 20
0.0
 30
0.0
  9
$UCSYDIR
 10
0.0
 20
1.0
 30
0.0
  9
$UCSORTHOREF
  2

  9
$UCSORTHOVIEW
 70
     0
  9
$UCSORGTOP
 10
0.0
 20
0.0
 30
0.0
  9
$UCSORGBOTTOM
 10
0.0
 20
0.0
 30
0.0
  9
$UCSORGLEFT
 10
0.0
 20
0.0
 30
0.0
  9
$UCSORGRIGHT
 10
0.0
 20
0.0
 30
0.0
  9
$UCSORGFRONT
 10
0.0
 20
0.0
 30
0.0
  9
$UCSORGBACK
 10
0.0
 20
0.0
 30
0.0
  9
$PUCSBASE
  2

  9
$PUCSNAME
  2

  9
$PUCSORG
 10
0.0
 20
0.0
 30
0.0
  9
$PUCSXDIR
 10
1.0
 20
0.0
 30
0.0
  9
$PUCSYDIR
 10
0.0
 20
1.0
 30
0.0
  9
$PUCSORTHOREF
  2

  9
$PUCSORTHOVIEW
 70
     0
  9
$PUCSORGTOP
 10
0.0
 20
0.0
 30
0.0
  9
$PUCSORGBOTTOM
 10
0.0
 20
0.0
 30
0.0
  9
$PUCSORGLEFT
 10
0.0
 20
0.0
 30
0.0
  9
$PUCSORGRIGHT
 10
0.0
 20
0.0
 30
0.0
  9
$PUCSORGFRONT
 10
0.0
 20
0.0
 30
0.0
  9
$PUCSORGBACK
 10
0.0
 20
0.0
 30
0.0
  9
$USERI1
 70
     0
  9
$USERI2
 70
     0
  9
$USERI3
 70
     0
  9
$USERI4
 70
     0
  9
$USERI5
 70
     0
  9
$USERR1
 40
0.0
  9
$USERR2
 40
0.0
  9
$USERR3
 40
0.0
  9
$USERR4
 40
0.0
  9
$USERR5
 40
0.0
  9
$WORLDVIEW
 70
     1
  9
$SHADEDGE
 70
     3
  9
$SHADEDIF
 70
    70
  9
$TILEMODE
 70
     1
  9
$MAXACTVP
 70
    64
  9
$PINSBASE
 10
0.0
 20
0.0
 30
0.0
  9
$PLIMCHECK
 70
     0
  9
$PEXTMIN
 10
1.000000000000000E+20
 20
1.000000000000000E+20
 30
1.000000000000000E+20
  9
$PEXTMAX
 10
-1.000000000000000E+20
 20
-1.000000000000000E+20
 30
-1.000000000000000E+20
  9
$PLIMMIN
 10
0.0
 20
0.0
  9
$PLIMMAX
 10
12.0
 20
9.0
  9
$UNITMODE
 70
     0
  9
$VISRETAIN
 70
     1
  9
$PLINEGEN
 70
     0
  9
$PSLTSCALE
 70
     1
  9
$TREEDEPTH
 70
  3020
  9
$CMLSTYLE
  2
Standard
  9
$CMLJUST
 70
     0
  9
$CMLSCALE
 40
1.0
  9
$PROXYGRAPHICS
 70
     1
  9
$MEASUREMENT
 70
     0
  9
$CELWEIGHT
370
    -1
  9
$ENDCAPS
280
     0
  9
$JOINSTYLE
280
     0
  9
$LWDISPLAY
290
     0
  9
$INSUNITS
 70
     0
  9
$HYPERLINKBASE
  1

  9
$STYLESHEET
  1

  9
$XEDIT
290
     1
  9
$CEPSNTYPE
380
     0
  9
$PSTYLEMODE
290
     1
  9
$FINGERPRINTGUID
  2
{81F1E167-A696-4123-B0D6-0088EA2EE5D0}
  9
$VERSIONGUID
  2
{8043A3EB-C728-4265-97BA-2000FDBB00ED}
  9
$EXTNAMES
290
     1
  9
$PSVPSCALE
 40
0.0
  9
$OLESTARTUP
290
     0
  0
ENDSEC
  0
SECTION
  2
CLASSES
  0
CLASS
  1
ACDBDICTIONARYWDFLT
  2
AcDbDictionaryWithDefault
  3
ObjectDBX Classes
 90
        0
280
     0
281
     0
  0
CLASS
  1
MATERIAL
  2
AcDbMaterial
  3
ObjectDBX Classes
 90
     1153
280
     0
281
     0
  0
CLASS
  1
VISUALSTYLE
  2
AcDbVisualStyle
  3
ObjectDBX Classes
 90
     4095
280
     0
281
     0
  0
CLASS
  1
TABLESTYLE
  2
AcDbTableStyle
  3
ObjectDBX Classes
 90
     4095
280
     0
281
     0
  0
CLASS
  1
DICTIONARYVAR
  2
AcDbDictionaryVar
  3
ObjectDBX Classes
 90
        0
280
     0
281
     0
  0
CLASS
  1
SORTENTSTABLE
  2
AcDbSortentsTable
  3
ObjectDBX Classes
 90
        0
280
     0
281
     0
  0
CLASS
  1
ACDBPLACEHOLDER
  2
AcDbPlaceHolder
  3
ObjectDBX Classes
 90
        0
280
     0
281
     0
  0
CLASS
  1
LAYOUT
  2
AcDbLayout
  3
ObjectDBX Classes
 90
        0
280
     0
281
     0
  0
CLASS
  1
SCALE
  2
AcDbScale
  3
ObjectDBX Classes
 90
     1153
280
     0
281
     0
  0
CLASS
  1
MLEADERSTYLE
  2
AcDbMLeaderStyle
  3
ACDB_MLEADERSTYLE_CLASS
 90
     4095
280
     0
281
     0
  0
CLASS
  1
CELLSTYLEMAP
  2
AcDbCellStyleMap
  3
ObjectDBX Classes
 90
     1152
280
     0
281
     0
  0
CLASS
  1
AEC_REFEDIT_STATUS_TRACKER
  2
AecDbRefEditStatusTracker
  3
AecArchBase60|Product Desc: Autodesk Architectural Desktop 2007 |Company: Autodesk,Inc. |WEB Address: www.autodesk.com
 90
      129
280
     0
281
     0
  0
CLASS
  1
NPOCOLLECTION
  2
AcDbImpNonPersistentObjectsCollection
  3
ObjectDBX Classes
 90
     1153
280
     0
281
     0
  0
ENDSEC
  0
SECTION
  2
TABLES
  0
TABLE
  2
VPORT
  5
8
330
0
100
AcDbSymbolTable
 70
     1
  0
VPORT
  5
56
330
8
100
AcDbSymbolTableRecord
100
AcDbViewportTableRecord
  2
*Active
 70
     0
 10
0.0
 20
0.0
 11
1.0
 21
1.0
 12
-124.9076870251797
 22
57.73763115827882
 13
0.0
 23
0.0
 14
1.0
 24
1.0
 15
0.0
 25
0.0
 16
0.0
 26
0.0
 36
1.0
 17
0.0
 27
0.0
 37
0.0
 40
761.1625580157796
 41
1.524271844660194
 42
50.0
 43
0.0
 44
0.0
 50
0.0
 51
0.0
 71
     0
 72
   100
 73
     1
 74
     1
 75
     0
 76
     0
 77
     0
 78
     0
281
     0
 65
     1
110
0.0
120
0.0
130
0.0
111
1.0
121
0.0
131
0.0
112
0.0
122
1.0
132
0.0
 79
     0
146
0.0
  0
ENDTAB
  0
TABLE
  2
LTYPE
  5
5
330
0
100
AcDbSymbolTable
 70
     5
  0
LTYPE
  5
28
330
5
100
AcDbSymbolTableRecord
100
AcDbLinetypeTableRecord
  2
ByBlock
 70
     0
  3

 72
    65
 73
     0
 40
0.0
  0
LTYPE
  5
29
330
5
100
AcDbSymbolTableRecord
100
AcDbLinetypeTableRecord
  2
ByLayer
 70
     0
  3

 72
    65
 73
     0
 40
0.0
  0
LTYPE
  5
2A
330
5
100
AcDbSymbolTableRecord
100
AcDbLinetypeTableRecord
  2
CONTINUOUS
 70
     0
  3
Solid-line
 72
    65
 73
     0
 40
0.0
  0
LTYPE
  5
3D
330
5
100
AcDbSymbolTableRecord
100
AcDbLinetypeTableRecord
  2
CENTER
 70
     0
  3
CENTER
 72
    65
 73
     4
 40
2.0
 49
1.25
 74
     0
 49
-0.25
 74
     0
 49
0.25
 74
     0
 49
-0.25
 74
     0
  0
LTYPE
  5
4F
330
5
100
AcDbSymbolTableRecord
100
AcDbLinetypeTableRecord
  2
PHANTOM
 70
     0
  3
PHANTOM
 72
    65
 73
     6
 40
2.5
 49
1.25
 74
     0
 49
-0.25
 74
     0
 49
0.25
 74
     0
 49
-0.25
 74
     0
 49
0.25
 74
     0
 49
-0.25
 74
     0
  0
LTYPE
  5
94C
330
5
100
AcDbSymbolTableRecord
100
AcDbLinetypeTableRecord
  2
HIDDEN
 70
     0
  3
Hidden __ __ __ __ __ __ __ __ __ __ __ __ __ _
 72
    65
 73
     2
 40
9.524999999999996
 49
6.349999999999997
 74
     0
 49
-3.174999999999998
 74
     0
  0
ENDTAB
  0
TABLE
  2
LAYER
  5
2
102
{ACAD_XDICTIONARY
360
4B6
102
}
330
0
100
AcDbSymbolTable
 70
     2
  0
LAYER
  5
25
102
{ACAD_XDICTIONARY
360
86B
102
}
330
2
100
AcDbSymbolTableRecord
100
AcDbLayerTableRecord
  2
0
 70
     0
 62
     7
  6
CONTINUOUS
370
    -3
390
F
  0
LAYER
  5
4A9
330
2
100
AcDbSymbolTableRecord
100
AcDbLayerTableRecord
  2
Defpoints
 70
     0
 62
     7
  6
CONTINUOUS
290
     0
370
    -3
390
F
  0
ENDTAB
  0
TABLE
  2
STYLE
  5
3
330
0
100
AcDbSymbolTable
 70
     6
  0
STYLE
  5
26
330
3
100
AcDbSymbolTableRecord
100
AcDbTextStyleTableRecord
  2
STANDARD
 70
     0
 40
0.0
 41
1.0
 50
0.0
 71
     0
 42
0.2
  3
TXT
  4
BIGFONT
  0
STYLE
  5
4AA
330
3
100
AcDbSymbolTableRecord
100
AcDbTextStyleTableRecord
  2
高3.2
 70
     0
 40
3.2
 41
1.0
 50
0.0
 71
     0
 42
3.2
  3
txt.shx
  4
bigfont.shx
  0
STYLE
  5
4AB
330
3
100
AcDbSymbolTableRecord
100
AcDbTextStyleTableRecord
  2
高6.3
 70
     0
 40
6.299999999999998
 41
1.0
 50
0.0
 71
     0
 42
6.299999999999998
  3
txt.shx
  4
bigfont.shx
  0
STYLE
  5
4AC
330
3
100
AcDbSymbolTableRecord
100
AcDbTextStyleTableRecord
  2
高2.5
 70
     0
 40
2.5
 41
1.0
 50
0.0
 71
     0
 42
0.2
  3
txt.shx
  4
bigfont.shx
  0
STYLE
  5
4AD
330
3
100
AcDbSymbolTableRecord
100
AcDbTextStyleTableRecord
  2
高4.5
 70
     0
 40
4.5
 41
1.0
 50
0.0
 71
     0
 42
6.299999999999998
  3
txt.shx
  4
bigfont.shx
  0
STYLE
  5
701
330
3
100
AcDbSymbolTableRecord
100
AcDbTextStyleTableRecord
  2
高2
 70
     0
 40
2.0
 41
1.0
 50
0.0
 71
     0
 42
2.0
  3
txt.shx
  4
bigfont.shx
  0
ENDTAB
  0
TABLE
  2
VIEW
  5
6
330
0
100
AcDbSymbolTable
 70
     0
  0
ENDTAB
  0
TABLE
  2
UCS
  5
7
330
0
100
AcDbSymbolTable
 70
     0
  0
ENDTAB
  0
TABLE
  2
APPID
  5
9
330
0
100
AcDbSymbolTable
 70
     9
  0
APPID
  5
27
330
9
100
AcDbSymbolTableRecord
100
AcDbRegAppTableRecord
  2
ACAD
 70
     0
  0
APPID
  5
4B5
330
9
100
AcDbSymbolTableRecord
100
AcDbRegAppTableRecord
  2
ACAD_DSTYLE_DIMJOGGED_JOGANGLE_SYMBOL
 70
     0
  0
APPID
  5
637
330
9
100
AcDbSymbolTableRecord
100
AcDbRegAppTableRecord
  2
ACAD_DSTYLE_DIMARC_LENGTH_SYMBOL
 70
     0
  0
APPID
  5
638
330
9
100
AcDbSymbolTableRecord
100
AcDbRegAppTableRecord
  2
ACAD_DSTYLE_DIMEXT_LENGTH
 70
     0
  0
APPID
  5
705
330
9
100
AcDbSymbolTableRecord
100
AcDbRegAppTableRecord
  2
ACAD_DSTYLE_DIMJAG
 70
     0
  0
APPID
  5
706
330
9
100
AcDbSymbolTableRecord
100
AcDbRegAppTableRecord
  2
ACAD_DSTYLE_DIMBREAK
 70
     0
  0
APPID
  5
707
330
9
100
AcDbSymbolTableRecord
100
AcDbRegAppTableRecord
  2
ACAD_DSTYLE_DIMTALN
 70
     0
  0
APPID
  5
848
330
9
100
AcDbSymbolTableRecord
100
AcDbRegAppTableRecord
  2
ACAD_EXEMPT_FROM_CAD_STANDARDS
 70
     0
  0
APPID
  5
8B1
330
9
100
AcDbSymbolTableRecord
100
AcDbRegAppTableRecord
  2
ACAD_MLEADERVER
 70
     0
  0
ENDTAB
  0
TABLE
  2
DIMSTYLE
  5
A
330
0
100
AcDbSymbolTable
 70
     4
100
AcDbDimStyleTable
 71
     3
340
94D
340
4B2
340
437
  0
DIMSTYLE
105
437
330
A
100
AcDbSymbolTableRecord
100
AcDbDimStyleTableRecord
  2
Standard
 70
     0
340
26
  0
DIMSTYLE
105
4B2
330
A
100
AcDbSymbolTableRecord
100
AcDbDimStyleTableRecord
  2
1／2
 70
     0
 41
2.5
 42
0.25
 43
0.2
 44
1.25
 73
     0
 74
     0
 77
     3
 78
     8
 79
     2
140
3.0
141
0.0
143
0.03937007874016
144
2.0
147
0.625
171
     3
172
     1
178
     4
179
     1
271
     2
272
     2
274
     3
283
     0
284
     8
288
     1
289
     0
340
26
341
439
342
439
1001
ACAD_DSTYLE_DIMARC_LENGTH_SYMBOL
1070
   379
1070
     2
1001
ACAD_DSTYLE_DIMEXT_LENGTH
1070
   378
1040
1.25
1001
ACAD_DSTYLE_DIMJOGGED_JOGANGLE_SYMBOL
1070
   384
1040
1.570796326794896
  0
DIMSTYLE
105
94D
330
A
100
AcDbSymbolTableRecord
100
AcDbDimStyleTableRecord
  2
1：1
 70
     0
 41
2.5
 42
0.25
 43
0.2
 44
1.25
 73
     0
 74
     0
 77
     3
 78
     8
 79
     2
140
3.0
141
0.0
143
0.03937007874016
147
0.625
171
     3
172
     1
178
     4
179
     1
271
     2
272
     2
274
     3
283
     0
284
     8
288
     1
289
     0
340
26
341
439
342
439
1001
ACAD_DSTYLE_DIMARC_LENGTH_SYMBOL
1070
   379
1070
     2
1001
ACAD_DSTYLE_DIMEXT_LENGTH
1070
   378
1040
1.25
1001
ACAD_DSTYLE_DIMJOGGED_JOGANGLE_SYMBOL
1070
   384
1040
1.570796326794894
  0
DIMSTYLE
105
94E
102
{ACAD_REACTORS
330
950
102
}
330
A
100
AcDbSymbolTableRecord
100
AcDbDimStyleTableRecord
  2
1／5
 70
     0
 41
2.5
 42
0.25
 43
0.2
 44
1.25
 73
     0
 74
     0
 77
     3
 78
     8
 79
     2
140
3.0
141
0.0
143
0.03937007874016
144
5.0
147
0.625
171
     3
172
     1
178
     4
179
     1
271
     2
272
     2
274
     3
283
     0
284
     8
288
     1
289
     0
340
26
341
439
342
439
1001
ACAD_DSTYLE_DIMARC_LENGTH_SYMBOL
1070
   379
1070
     2
1001
ACAD_DSTYLE_DIMEXT_LENGTH
1070
   378
1040
1.25
1001
ACAD_DSTYLE_DIMJOGGED_JOGANGLE_SYMBOL
1070
   384
1040
1.570796326794894
  0
ENDTAB
  0
TABLE
  2
BLOCK_RECORD
  5
1
330
0
100
AcDbSymbolTable
 70
     8
  0
BLOCK_RECORD
  5
36
102
{ACAD_XDICTIONARY
360
5F9
102
}
330
1
100
AcDbSymbolTableRecord
100
AcDbBlockTableRecord
  2
*Model_Space
340
39
  0
BLOCK_RECORD
  5
32
330
1
100
AcDbSymbolTableRecord
100
AcDbBlockTableRecord
  2
*Paper_Space
340
35
  0
BLOCK_RECORD
  5
439
330
1
100
AcDbSymbolTableRecord
100
AcDbBlockTableRecord
  2
_Open30
340
0
102
{BLKREFS
331
927
331
928
331
930
331
931
331
939
331
93A
331
945
331
946
331
DA7
331
DA8
102
}
  0
BLOCK_RECORD
  5
58C
330
1
100
AcDbSymbolTableRecord
100
AcDbBlockTableRecord
  2
*D1
340
0
  0
BLOCK_RECORD
  5
5B6
330
1
100
AcDbSymbolTableRecord
100
AcDbBlockTableRecord
  2
*D2
340
0
  0
BLOCK_RECORD
  5
5CB
330
1
100
AcDbSymbolTableRecord
100
AcDbBlockTableRecord
  2
*D3
340
0
  0
BLOCK_RECORD
  5
940
330
1
100
AcDbSymbolTableRecord
100
AcDbBlockTableRecord
  2
*D4
340
0
  0
BLOCK_RECORD
  5
D86
330
1
100
AcDbSymbolTableRecord
100
AcDbBlockTableRecord
  2
*D6
340
0
  0
BLOCK_RECORD
  5
DD8
330
1
100
AcDbSymbolTableRecord
100
AcDbBlockTableRecord
  2
_DotSmall
340
0
  0
ENDTAB
  0
ENDSEC
  0
SECTION
  2
BLOCKS
  0
BLOCK
  5
37
330
36
100
AcDbEntity
  8
0
100
AcDbBlockBegin
  2
*Model_Space
 70
     0
 10
0.0
 20
0.0
 30
0.0
  3
*Model_Space
  1

  0
ENDBLK
  5
38
330
36
100
AcDbEntity
  8
0
100
AcDbBlockEnd
  0
BLOCK
  5
33
330
32
100
AcDbEntity
 67
     1
  8
0
100
AcDbBlockBegin
  2
*Paper_Space
 70
     0
 10
0.0
 20
0.0
 30
0.0
  3
*Paper_Space
  1

  0
ENDBLK
  5
34
330
32
100
AcDbEntity
 67
     1
  8
0
100
AcDbBlockEnd
  0
BLOCK
  5
43A
330
439
100
AcDbEntity
  8
0
100
AcDbBlockBegin
  2
_Open30
 70
     0
 10
0.0
 20
0.0
 30
0.0
  3
_Open30
  1

  0
LINE
  5
43B
330
439
100
AcDbEntity
  8
0
  6
ByBlock
 62
     0
370
    -2
100
AcDbLine
 10
-1.0
 20
0.267949
 30
0.0
 11
0.0
 21
0.0
 31
0.0
  0
LINE
  5
43C
330
439
100
AcDbEntity
  8
0
  6
ByBlock
 62
     0
370
    -2
100
AcDbLine
 10
0.0
 20
0.0
 30
0.0
 11
-1.0
 21
-0.267949
 31
0.0
  0
LINE
  5
43D
330
439
100
AcDbEntity
  8
0
  6
ByBlock
 62
     0
370
    -2
100
AcDbLine
 10
0.0
 20
0.0
 30
0.0
 11
-1.0
 21
0.0
 31
0.0
  0
ENDBLK
  5
43E
330
439
100
AcDbEntity
  8
0
100
AcDbBlockEnd
  0
BLOCK
  5
596
330
58C
100
AcDbEntity
  8
0
100
AcDbBlockBegin
  2
*D1
 70
     1
 10
0.0
 20
0.0
 30
0.0
  3
*D1
  1

  0
LINE
  5
924
330
58C
100
AcDbEntity
  8
0
 62
     0
370
    -2
100
AcDbLine
 10
-302.4303549999999
 20
217.0941200000001
 30
0.0
 11
-302.4303549999999
 21
191.78284
 31
0.0
  0
LINE
  5
925
330
58C
100
AcDbEntity
  8
0
 62
     0
370
    -2
100
AcDbLine
 10
-127.430355
 20
217.0941200000001
 30
0.0
 11
-127.430355
 21
191.78284
 31
0.0
  0
LINE
  5
926
330
58C
100
AcDbEntity
  8
0
 62
     0
370
    -2
100
AcDbLine
 10
-299.9303549999999
 20
193.03284
 30
0.0
 11
-129.930355
 21
193.03284
 31
0.0
  0
INSERT
  5
927
330
58C
100
AcDbEntity
  8
0
 62
     0
370
    -2
100
AcDbBlockReference
  2
_Open30
 10
-302.4303549999999
 20
193.03284
 30
0.0
 41
2.5
 42
2.5
 43
2.5
 50
180.0
  0
INSERT
  5
928
330
58C
100
AcDbEntity
  8
0
 62
     0
370
    -2
100
AcDbBlockReference
  2
_Open30
 10
-127.430355
 20
193.03284
 30
0.0
 41
2.5
 42
2.5
 43
2.5
  0
MTEXT
  5
929
330
58C
100
AcDbEntity
  8
0
 62
     4
100
AcDbMText
 10
-214.9303549999999
 20
195.15784
 30
0.0
 40
3.0
 41
0.0
 71
     5
 72
     1
  1
350
 73
     1
 44
1.0
1001
ACAD
1000
MTEXTBEGIN
1070
    73
1070
     1
1070
    44
1040
1.0
1070
    74
1070
     0
1000
MTEXTEND
  0
POINT
  5
92A
330
58C
100
AcDbEntity
  8
Defpoints
 62
     0
100
AcDbPoint
 10
-302.4303549999999
 20
217.34412
 30
0.0
  0
POINT
  5
92B
330
58C
100
AcDbEntity
  8
Defpoints
 62
     0
100
AcDbPoint
 10
-127.430355
 20
217.34412
 30
0.0
  0
POINT
  5
92C
330
58C
100
AcDbEntity
  8
Defpoints
 62
     0
100
AcDbPoint
 10
-127.430355
 20
193.03284
 30
0.0
  0
ENDBLK
  5
597
330
58C
100
AcDbEntity
  8
0
100
AcDbBlockEnd
  0
BLOCK
  5
5C0
330
5B6
100
AcDbEntity
  8
0
100
AcDbBlockBegin
  2
*D2
 70
     1
 10
0.0
 20
0.0
 30
0.0
  3
*D2
  1

  0
LINE
  5
92D
330
5B6
100
AcDbEntity
  8
0
 62
     0
370
    -2
100
AcDbLine
 10
-215.180355
 20
203.232046
 30
0.0
 11
-321.120403
 21
203.232046
 31
0.0
  0
LINE
  5
92E
330
5B6
100
AcDbEntity
  8
0
 62
     0
370
    -2
100
AcDbLine
 10
-215.180355
 20
237.232046
 30
0.0
 11
-321.120403
 21
237.232046
 31
0.0
  0
LINE
  5
92F
330
5B6
100
AcDbEntity
  8
0
 62
     0
370
    -2
100
AcDbLine
 10
-319.870403
 20
205.732046
 30
0.0
 11
-319.870403
 21
234.732046
 31
0.0
  0
INSERT
  5
930
330
5B6
100
AcDbEntity
  8
0
 62
     0
370
    -2
100
AcDbBlockReference
  2
_Open30
 10
-319.870403
 20
203.232046
 30
0.0
 41
2.5
 42
2.5
 43
2.5
 50
270.0
  0
INSERT
  5
931
330
5B6
100
AcDbEntity
  8
0
 62
     0
370
    -2
100
AcDbBlockReference
  2
_Open30
 10
-319.870403
 20
237.232046
 30
0.0
 41
2.5
 42
2.5
 43
2.5
 50
90.0
  0
MTEXT
  5
932
330
5B6
100
AcDbEntity
  8
0
 62
     4
100
AcDbMText
 10
-321.995403
 20
220.232046
 30
0.0
 40
3.0
 41
0.0
 71
     5
 72
     1
  1
68
 11
0.0000000000000001
 21
1.0
 31
0.0
 73
     1
 44
1.0
1001
ACAD
1000
MTEXTBEGIN
1070
    73
1070
     1
1070
    44
1040
1.0
1070
    74
1070
     0
1000
MTEXTEND
  0
POINT
  5
933
330
5B6
100
AcDbEntity
  8
Defpoints
 62
     0
100
AcDbPoint
 10
-214.930355
 20
203.232046
 30
0.0
  0
POINT
  5
934
330
5B6
100
AcDbEntity
  8
Defpoints
 62
     0
100
AcDbPoint
 10
-214.930355
 20
237.232046
 30
0.0
  0
POINT
  5
935
330
5B6
100
AcDbEntity
  8
Defpoints
 62
     0
100
AcDbPoint
 10
-319.870403
 20
237.232046
 30
0.0
  0
ENDBLK
  5
5C1
330
5B6
100
AcDbEntity
  8
0
100
AcDbBlockEnd
  0
BLOCK
  5
5D5
330
5CB
100
AcDbEntity
  8
0
100
AcDbBlockBegin
  2
*D3
 70
     1
 10
0.0
 20
0.0
 30
0.0
  3
*D3
  1

  0
LINE
  5
936
330
5CB
100
AcDbEntity
  8
0
 62
     0
370
    -2
100
AcDbLine
 10
-300.1803549999999
 20
122.963678
 30
0.0
 11
-314.9141520000001
 21
122.963678
 31
0.0
  0
LINE
  5
937
330
5CB
100
AcDbEntity
  8
0
 62
     0
370
    -2
100
AcDbLine
 10
-300.1803549999999
 20
181.974788
 30
0.0
 11
-314.914152
 21
181.974788
 31
0.0
  0
LINE
  5
938
330
5CB
100
AcDbEntity
  8
0
 62
     0
370
    -2
100
AcDbLine
 10
-313.6641520000001
 20
125.463678
 30
0.0
 11
-313.664152
 21
179.474788
 31
0.0
  0
INSERT
  5
939
330
5CB
100
AcDbEntity
  8
0
 62
     0
370
    -2
100
AcDbBlockReference
  2
_Open30
 10
-313.6641520000001
 20
122.963678
 30
0.0
 41
2.5
 42
2.5
 43
2.5
 50
270.0
  0
INSERT
  5
93A
330
5CB
100
AcDbEntity
  8
0
 62
     0
370
    -2
100
AcDbBlockReference
  2
_Open30
 10
-313.664152
 20
181.974788
 30
0.0
 41
2.5
 42
2.5
 43
2.5
 50
90.0
  0
MTEXT
  5
93B
330
5CB
100
AcDbEntity
  8
0
 62
     4
100
AcDbMText
 10
-315.7891520000001
 20
152.4692329999999
 30
0.0
 40
3.0
 41
0.0
 71
     5
 72
     1
  1
118
 11
0.0000000000000001
 21
1.0
 31
0.0
 73
     1
 44
1.0
1001
ACAD
1000
MTEXTBEGIN
1070
    73
1070
     1
1070
    44
1040
1.0
1070
    74
1070
     0
1000
MTEXTEND
  0
POINT
  5
93C
330
5CB
100
AcDbEntity
  8
Defpoints
 62
     0
100
AcDbPoint
 10
-299.930355
 20
122.963678
 30
0.0
  0
POINT
  5
93D
330
5CB
100
AcDbEntity
  8
Defpoints
 62
     0
100
AcDbPoint
 10
-299.930355
 20
181.974788
 30
0.0
  0
POINT
  5
93E
330
5CB
100
AcDbEntity
  8
Defpoints
 62
     0
100
AcDbPoint
 10
-313.664152
 20
181.974788
 30
0.0
  0
ENDBLK
  5
5D6
330
5CB
100
AcDbEntity
  8
0
100
AcDbBlockEnd
  0
BLOCK
  5
941
330
940
100
AcDbEntity
  8
0
100
AcDbBlockBegin
  2
*D4
 70
     1
 10
0.0
 20
0.0
 30
0.0
  3
*D4
  1

  0
LINE
  5
942
330
940
100
AcDbEntity
  8
0
 62
     0
370
    -2
100
AcDbLine
 10
1931.086431810914
 20
273.6750699313694
 30
0.0
 11
1939.063163163367
 21
273.6750699313694
 31
0.0
  0
LINE
  5
943
330
940
100
AcDbEntity
  8
0
 62
     0
370
    -2
100
AcDbLine
 10
1931.086431810914
 20
249.0750699313694
 30
0.0
 11
1939.063163163367
 21
249.0750699313694
 31
0.0
  0
LINE
  5
944
330
940
100
AcDbEntity
  8
0
 62
     0
370
    -2
100
AcDbLine
 10
1937.813163163367
 20
271.1750699313694
 30
0.0
 11
1937.813163163367
 21
251.5750699313694
 31
0.0
  0
INSERT
  5
945
330
940
100
AcDbEntity
  8
0
 62
     0
370
    -2
100
AcDbBlockReference
  2
_Open30
 10
1937.813163163367
 20
273.6750699313694
 30
0.0
 41
2.5
 42
2.5
 43
2.5
 50
90.0
  0
INSERT
  5
946
330
940
100
AcDbEntity
  8
0
 62
     0
370
    -2
100
AcDbBlockReference
  2
_Open30
 10
1937.813163163367
 20
249.0750699313694
 30
0.0
 41
2.5
 42
2.5
 43
2.5
 50
270.0
  0
MTEXT
  5
947
330
940
100
AcDbEntity
  8
0
 62
     4
100
AcDbMText
 10
1935.688163163367
 20
261.7567307861415
 30
0.0
 40
3.0
 41
0.0
 71
     5
 72
     1
  1
123
 11
0.0000000000000001
 21
1.0
 31
0.0
 73
     1
 44
1.0
1001
ACAD
1000
MTEXTBEGIN
1070
    73
1070
     1
1070
    44
1040
1.0
1070
    74
1070
     0
1000
MTEXTEND
  0
POINT
  5
948
330
940
100
AcDbEntity
  8
Defpoints
 62
     0
100
AcDbPoint
 10
1930.836431810914
 20
273.6750699313694
 30
0.0
  0
POINT
  5
949
330
940
100
AcDbEntity
  8
Defpoints
 62
     0
100
AcDbPoint
 10
1930.836431810914
 20
249.0750699313694
 30
0.0
  0
POINT
  5
94A
330
940
100
AcDbEntity
  8
Defpoints
 62
     0
100
AcDbPoint
 10
1937.813163163367
 20
249.0750699313694
 30
0.0
  0
ENDBLK
  5
94B
330
940
100
AcDbEntity
  8
0
100
AcDbBlockEnd
  0
BLOCK
  5
D87
330
D86
100
AcDbEntity
  8
0
100
AcDbBlockBegin
  2
*D6
 70
     1
 10
0.0
 20
0.0
 30
0.0
  3
*D6
  1

  0
LINE
  5
DA4
330
D86
100
AcDbEntity
  8
0
 62
     0
370
    -2
100
AcDbLine
 10
78.59813831284833
 20
123.9900661077099
 30
0.0
 11
78.59813831284833
 21
142.4318944888425
 31
0.0
  0
LINE
  5
DA5
330
D86
100
AcDbEntity
  8
0
 62
     0
370
    -2
100
AcDbLine
 10
140.0981383128484
 20
123.9900661077099
 30
0.0
 11
140.0981383128484
 21
142.4318944888425
 31
0.0
  0
LINE
  5
DA6
330
D86
100
AcDbEntity
  8
0
 62
     0
370
    -2
100
AcDbLine
 10
81.09813831284833
 20
141.1818944888425
 30
0.0
 11
137.5981383128484
 21
141.1818944888425
 31
0.0
  0
INSERT
  5
DA7
330
D86
100
AcDbEntity
  8
0
 62
     0
370
    -2
100
AcDbBlockReference
  2
_Open30
 10
78.59813831284833
 20
141.1818944888425
 30
0.0
 41
2.5
 42
2.5
 43
2.5
 50
180.0
  0
INSERT
  5
DA8
330
D86
100
AcDbEntity
  8
0
 62
     0
370
    -2
100
AcDbBlockReference
  2
_Open30
 10
140.0981383128484
 20
141.1818944888425
 30
0.0
 41
2.5
 42
2.5
 43
2.5
  0
MTEXT
  5
DA9
330
D86
100
AcDbEntity
  8
0
 62
     4
100
AcDbMText
 10
108.393986175918
 20
143.3068944888425
 30
0.0
 40
3.0
 41
0.0
 71
     5
 72
     1
  1
307.5
 73
     1
 44
1.0
1001
ACAD
1000
MTEXTBEGIN
1070
    73
1070
     1
1070
    44
1040
1.0
1070
    74
1070
     0
1000
MTEXTEND
  0
POINT
  5
DAA
330
D86
100
AcDbEntity
  8
Defpoints
 62
     0
100
AcDbPoint
 10
78.59813831284833
 20
123.7400661077099
 30
0.0
  0
POINT
  5
DAB
330
D86
100
AcDbEntity
  8
Defpoints
 62
     0
100
AcDbPoint
 10
140.0981383128484
 20
123.7400661077099
 30
0.0
  0
POINT
  5
DAC
330
D86
100
AcDbEntity
  8
Defpoints
 62
     0
100
AcDbPoint
 10
140.0981383128484
 20
141.1818944888425
 30
0.0
  0
ENDBLK
  5
D88
330
D86
100
AcDbEntity
  8
0
100
AcDbBlockEnd
  0
BLOCK
  5
DDA
330
DD8
100
AcDbEntity
  8
0
100
AcDbBlockBegin
  2
_DotSmall
 70
     0
 10
0.0
 20
0.0
 30
0.0
  3
_DotSmall
  1

  0
LWPOLYLINE
  5
DD9
330
DD8
100
AcDbEntity
  8
0
  6
ByBlock
 62
     0
100
AcDbPolyline
 90
        2
 70
     1
 43
0.5
 10
-0.0625
 20
0.0
 42
1.0
 10
0.0625
 20
0.0
 42
1.0
  0
ENDBLK
  5
DDB
330
DD8
100
AcDbEntity
  8
0
100
AcDbBlockEnd
  0
ENDSEC
  0
SECTION
  2
ENTITIES
  0
ARC
  5
93
330
36
100
AcDbEntity
  8
0
 62
     3
100
AcDbCircle
 10
-214.930355
 20
-122.286322
 30
0.0
 40
258.25
100
AcDbArc
 50
86.49096
 51
86.59479899999999
  0
LINE
  5
94
330
36
100
AcDbEntity
  8
0
 62
     3
100
AcDbLine
 10
-226.805355
 20
127.024495
 30
0.0
 11
-226.805355
 21
126.524495
 31
0.0
  0
LINE
  5
95
330
36
100
AcDbEntity
  8
0
 62
     3
100
AcDbLine
 10
-233.055355
 20
127.024495
 30
0.0
 11
-233.055355
 21
126.538732
 31
0.0
  0
ARC
  5
96
330
36
100
AcDbEntity
  8
0
 62
     3
100
AcDbCircle
 10
-139.430355
 20
217.34412
 30
0.0
 40
12.0
100
AcDbArc
 50
273.204804
 51
0.0
  0
LINE
  5
97
330
36
100
AcDbEntity
  8
0
 62
     3
100
AcDbLine
 10
-179.930355
 20
73.071325
 30
0.0
 11
-179.930355
 21
80.32132500000001
 31
0.0
  0
LINE
  5
98
330
36
100
AcDbEntity
  8
0
 62
     3
100
AcDbLine
 10
-179.930355
 20
73.071325
 30
0.0
 11
-179.930355
 21
69.160772
 31
0.0
  0
LINE
  5
99
330
36
100
AcDbEntity
  8
0
 62
     3
100
AcDbLine
 10
-249.930355
 20
69.160772
 30
0.0
 11
-249.930355
 21
80.32132500000001
 31
0.0
  0
LINE
  5
9A
330
36
100
AcDbEntity
  8
0
 62
     3
100
AcDbLine
 10
-179.930355
 20
68.071325
 30
0.0
 11
-250.050488
 21
68.071325
 31
0.0
  0
ARC
  5
9B
330
36
100
AcDbEntity
  8
0
 62
     3
100
AcDbCircle
 10
-254.930355
 20
69.160772
 30
0.0
 40
5.0
100
AcDbArc
 50
268.311482
 51
0.0
  0
LINE
  5
9C
330
36
100
AcDbEntity
  8
0
 62
     3
100
AcDbLine
 10
-232.430355
 20
73.321325
 30
0.0
 11
-227.430355
 21
73.321325
 31
0.0
  0
LINE
  5
9D
330
36
100
AcDbEntity
  8
0
 62
     3
100
AcDbLine
 10
-249.930355
 20
88.07132499999999
 30
0.0
 11
-249.930355
 21
80.821325
 31
0.0
  0
LINE
  5
9E
330
36
100
AcDbEntity
  8
0
 62
     3
100
AcDbLine
 10
-249.930355
 20
88.07132499999999
 30
0.0
 11
-249.930355
 21
91.981879
 31
0.0
  0
LINE
  5
9F
330
36
100
AcDbEntity
  8
0
 62
     3
100
AcDbLine
 10
-179.930355
 20
91.981879
 30
0.0
 11
-179.930355
 21
80.821325
 31
0.0
  0
LINE
  5
A0
330
36
100
AcDbEntity
  8
0
 62
     3
100
AcDbLine
 10
-197.430355
 20
87.82132500000001
 30
0.0
 11
-202.430355
 21
87.82132500000001
 31
0.0
  0
LINE
  5
A1
330
36
100
AcDbEntity
  8
0
 62
     3
100
AcDbLine
 10
-232.430355
 20
87.82132500000001
 30
0.0
 11
-227.430355
 21
87.82132500000001
 31
0.0
  0
LINE
  5
A2
330
36
100
AcDbEntity
  8
0
 62
     3
100
AcDbLine
 10
-197.430355
 20
73.321325
 30
0.0
 11
-202.430355
 21
73.321325
 31
0.0
  0
LINE
  5
A3
330
36
100
AcDbEntity
  8
0
100
AcDbLine
 10
-214.930355
 20
80.32132500000001
 30
0.0
 11
-252.430355
 21
80.32132500000001
 31
0.0
  0
LINE
  5
A4
330
36
100
AcDbEntity
  8
0
100
AcDbLine
 10
-271.80624
 20
80.32132500000001
 30
0.0
 11
-269.30624
 21
80.32132500000001
 31
0.0
  0
LINE
  5
A5
330
36
100
AcDbEntity
  8
0
100
AcDbLine
 10
-158.05447
 20
80.32132500000001
 30
0.0
 11
-160.55447
 21
80.32132500000001
 31
0.0
  0
TEXT
  5
B9
330
36
100
AcDbEntity
  8
0
 62
     3
100
AcDbText
 10
-36.811325
 20
0.8623509999999999
 30
0.0
 40
3.2
  1
1/2
  7
高3.2
100
AcDbText
  0
CIRCLE
  5
BA
330
36
100
AcDbEntity
  8
0
100
AcDbCircle
 10
-130.930355
 20
179.066062
 30
0.0
 40
0.8
  0
CIRCLE
  5
BB
330
36
100
AcDbEntity
  8
0
100
AcDbCircle
 10
-168.993298
 20
165.974788
 30
0.0
 40
1.125
  0
CIRCLE
  5
BC
330
36
100
AcDbEntity
  8
0
100
AcDbCircle
 10
-163.548946
 20
127.963678
 30
0.0
 40
1.125
  0
CIRCLE
  5
BD
330
36
100
AcDbEntity
  8
0
100
AcDbCircle
 10
-130.930355
 20
125.872405
 30
0.0
 40
0.8
  0
CIRCLE
  5
BE
330
36
100
AcDbEntity
  8
0
100
AcDbCircle
 10
-242.430355
 20
127.963678
 30
0.0
 40
1.125
  0
CIRCLE
  5
BF
330
36
100
AcDbEntity
  8
0
  6
PHANTOM
100
AcDbCircle
 10
-160.632351
 20
167.758945
 30
0.0
 40
3.0
  0
CIRCLE
  5
C0
330
36
100
AcDbEntity
  8
0
  6
PHANTOM
100
AcDbCircle
 10
-160.632351
 20
161.758945
 30
0.0
 40
3.0
  0
CIRCLE
  5
C1
330
36
100
AcDbEntity
  8
0
  6
PHANTOM
100
AcDbCircle
 10
-160.632351
 20
155.758945
 30
0.0
 40
3.0
  0
CIRCLE
  5
C2
330
36
100
AcDbEntity
  8
0
  6
PHANTOM
100
AcDbCircle
 10
-160.632351
 20
149.7589449999999
 30
0.0
 40
3.0
  0
CIRCLE
  5
C3
330
36
100
AcDbEntity
  8
0
  6
PHANTOM
100
AcDbCircle
 10
-160.632351
 20
143.758945
 30
0.0
 40
3.0
  0
CIRCLE
  5
C4
330
36
100
AcDbEntity
  8
0
  6
PHANTOM
100
AcDbCircle
 10
-160.632351
 20
137.758945
 30
0.0
 40
3.0
  0
CIRCLE
  5
C5
330
36
100
AcDbEntity
  8
0
  6
PHANTOM
100
AcDbCircle
 10
-269.22836
 20
167.258945
 30
0.0
 40
3.0
  0
CIRCLE
  5
C6
330
36
100
AcDbEntity
  8
0
  6
PHANTOM
100
AcDbCircle
 10
-269.22836
 20
161.2589449999999
 30
0.0
 40
3.0
  0
CIRCLE
  5
C7
330
36
100
AcDbEntity
  8
0
  6
PHANTOM
100
AcDbCircle
 10
-269.22836
 20
155.258945
 30
0.0
 40
3.0
  0
CIRCLE
  5
C8
330
36
100
AcDbEntity
  8
0
  6
PHANTOM
100
AcDbCircle
 10
-269.22836
 20
149.258945
 30
0.0
 40
3.0
  0
CIRCLE
  5
C9
330
36
100
AcDbEntity
  8
0
  6
PHANTOM
100
AcDbCircle
 10
-269.22836
 20
143.258945
 30
0.0
 40
3.0
  0
CIRCLE
  5
CA
330
36
100
AcDbEntity
  8
0
  6
PHANTOM
100
AcDbCircle
 10
-269.22836
 20
137.2589449999999
 30
0.0
 40
3.0
  0
LINE
  5
CB
330
36
100
AcDbEntity
  8
0
 62
     3
100
AcDbLine
 10
-70.32431899999997
 20
91.30636
 30
0.0
 11
-70.32431899999996
 21
49.06635999999998
 31
0.0
  0
LINE
  5
CC
330
36
100
AcDbEntity
  8
0
100
AcDbLine
 10
-70.32431899999997
 20
75.94636
 30
0.0
 11
6.144993
 21
75.94636
 31
0.0
  0
LINE
  5
CD
330
36
100
AcDbEntity
  8
0
100
AcDbLine
 10
-70.32431899999997
 20
69.22636
 30
0.0
 11
6.144993
 21
69.22636
 31
0.0
  0
LINE
  5
CE
330
36
100
AcDbEntity
  8
0
 62
     3
100
AcDbLine
 10
6.144993
 20
91.30636
 30
0.0
 11
6.144992999999997
 21
49.06635999999998
 31
0.0
  0
LINE
  5
CF
330
36
100
AcDbEntity
  8
0
 62
     3
100
AcDbLine
 10
-70.32431899999997
 20
91.30636
 30
0.0
 11
6.144993
 21
91.30636
 31
0.0
  0
TEXT
  5
D0
330
36
100
AcDbEntity
  8
0
 62
     3
100
AcDbText
 10
-51.67962267173606
 20
77.61686400000002
 30
0.0
 40
4.5
  1
単相100V仕様
  7
高4.5
100
AcDbText
  0
LINE
  5
D1
330
36
100
AcDbEntity
  8
0
 62
     3
100
AcDbLine
 10
-60.014765
 20
152.2549129999999
 30
0.0
 11
-60.514765
 21
136.629916
 31
0.0
  0
LINE
  5
D2
330
36
100
AcDbEntity
  8
0
 62
     3
100
AcDbLine
 10
-67.08619300000001
 20
152.2549129999999
 30
0.0
 11
-66.514765
 21
136.629916
 31
0.0
  0
LINE
  5
D3
330
36
100
AcDbEntity
  8
0
 62
     3
100
AcDbLine
 10
-179.930355
 20
147.407723
 30
0.0
 11
-180.922087
 21
147.407723
 31
0.0
  0
LINE
  5
D4
330
36
100
AcDbEntity
  8
0
 62
     3
100
AcDbLine
 10
-179.930355
 20
138.963678
 30
0.0
 11
-180.922087
 21
138.963678
 31
0.0
  0
TEXT
  5
D5
330
36
100
AcDbEntity
  8
0
 62
     3
100
AcDbText
 10
-67.60791600000001
 20
7.862350999999997
 30
0.0
 40
3.2
  1
別　掲
  7
高3.2
100
AcDbText
  0
LINE
  5
D6
330
36
100
AcDbEntity
  8
0
  6
PHANTOM
100
AcDbLine
 10
-180.922087
 20
146.258945
 30
0.0
 11
-269.22836
 21
140.2589449999999
 31
0.0
  0
LINE
  5
D7
330
36
100
AcDbEntity
  8
0
  6
PHANTOM
100
AcDbLine
 10
-180.922087
 20
140.2589449999999
 30
0.0
 11
-269.22836
 21
134.258945
 31
0.0
  0
LINE
  5
EA
330
36
100
AcDbEntity
  8
0
  6
PHANTOM
100
AcDbLine
 10
-160.632351
 20
170.758945
 30
0.0
 11
-116.257149
 21
170.758945
 31
0.0
  0
LINE
  5
EB
330
36
100
AcDbEntity
  8
0
  6
PHANTOM
100
AcDbLine
 10
-160.632351
 20
164.758945
 30
0.0
 11
-115.854868
 21
164.758945
 31
0.0
  0
LINE
  5
EC
330
36
100
AcDbEntity
  8
0
100
AcDbLine
 10
-158.05447
 20
220.482046
 30
0.0
 11
-166.055355
 21
220.482046
 31
0.0
  0
LINE
  5
ED
330
36
100
AcDbEntity
  8
0
100
AcDbLine
 10
-271.80624
 20
220.482046
 30
0.0
 11
-263.8053549999999
 21
220.482046
 31
0.0
  0
LINE
  5
EE
330
36
100
AcDbEntity
  8
0
100
AcDbLine
 10
-66.63818217272788
 20
125.3130328088744
 30
0.0
 11
-28.89135498552272
 21
125.3130328088744
 31
0.0
  0
CIRCLE
  5
EF
330
36
100
AcDbEntity
  8
0
  6
CENTER
100
AcDbCircle
 10
-214.930159
 20
220.235129
 30
0.0
 40
3.5
  0
CIRCLE
  5
F0
330
36
100
AcDbEntity
  8
0
  6
CENTER
100
AcDbCircle
 10
-168.680159
 20
214.635129
 30
0.0
 40
1.125
  0
CIRCLE
  5
F1
330
36
100
AcDbEntity
  8
0
  6
CENTER
100
AcDbCircle
 10
-168.680159
 20
225.835129
 30
0.0
 40
1.125
  0
CIRCLE
  5
F2
330
36
100
AcDbEntity
  8
0
  6
CENTER
100
AcDbCircle
 10
-214.930159
 20
230.485129
 30
0.0
 40
1.125
  0
CIRCLE
  5
F3
330
36
100
AcDbEntity
  8
0
  6
CENTER
100
AcDbCircle
 10
-261.180159
 20
225.835129
 30
0.0
 40
1.125
  0
CIRCLE
  5
F4
330
36
100
AcDbEntity
  8
0
  6
CENTER
100
AcDbCircle
 10
-261.180159
 20
214.635129
 30
0.0
 40
1.125
  0
ARC
  5
F5
330
36
100
AcDbEntity
  8
0
100
AcDbCircle
 10
-173.580159
 20
229.335129
 30
0.0
 40
1.75
100
AcDbArc
 50
0.0
 51
90.0
  0
ARC
  5
F6
330
36
100
AcDbEntity
  8
0
100
AcDbCircle
 10
-173.580159
 20
229.335129
 30
0.0
 40
2.5
100
AcDbArc
 50
0.0
 51
90.0
  0
LINE
  5
F7
330
36
100
AcDbEntity
  8
0
100
AcDbLine
 10
-173.580159
 20
231.835129
 30
0.0
 11
-210.945501
 21
231.835129
 31
0.0
  0
LINE
  5
F8
330
36
100
AcDbEntity
  8
0
100
AcDbLine
 10
-173.580159
 20
231.085129
 30
0.0
 11
-210.945501
 21
231.085129
 31
0.0
  0
LINE
  5
F9
330
36
100
AcDbEntity
  8
0
100
AcDbLine
 10
-171.830159
 20
211.135129
 30
0.0
 11
-171.830159
 21
229.335129
 31
0.0
  0
LINE
  5
FA
330
36
100
AcDbEntity
  8
0
100
AcDbLine
 10
-171.080159
 20
211.135129
 30
0.0
 11
-171.080159
 21
229.335129
 31
0.0
  0
ARC
  5
FB
330
36
100
AcDbEntity
  8
0
100
AcDbCircle
 10
-173.580159
 20
211.135129
 30
0.0
 40
1.75
100
AcDbArc
 50
270.0
 51
0.0
  0
LINE
  5
FC
330
36
100
AcDbEntity
  8
0
100
AcDbLine
 10
-173.580159
 20
209.385129
 30
0.0
 11
-210.945501
 21
209.385129
 31
0.0
  0
LINE
  5
FD
330
36
100
AcDbEntity
  8
0
100
AcDbLine
 10
-173.580159
 20
208.635129
 30
0.0
 11
-210.945501
 21
208.635129
 31
0.0
  0
ARC
  5
FE
330
36
100
AcDbEntity
  8
0
100
AcDbCircle
 10
-173.580159
 20
211.135129
 30
0.0
 40
2.5
100
AcDbArc
 50
270.0
 51
0.0
  0
ARC
  5
FF
330
36
100
AcDbEntity
  8
0
100
AcDbCircle
 10
-210.945501
 20
209.635129
 30
0.0
 40
0.25
100
AcDbArc
 50
174.9802
 51
270.0
  0
ARC
  5
100
330
36
100
AcDbEntity
  8
0
100
AcDbCircle
 10
-214.930159
 20
209.985129
 30
0.0
 40
3.75
100
AcDbArc
 50
354.9802
 51
185.0198
  0
ARC
  5
101
330
36
100
AcDbEntity
  8
0
100
AcDbCircle
 10
-210.945501
 20
209.635129
 30
0.0
 40
1.0
100
AcDbArc
 50
174.9802
 51
270.0
  0
ARC
  5
102
330
36
100
AcDbEntity
  8
0
100
AcDbCircle
 10
-214.930159
 20
209.985129
 30
0.0
 40
3.0
100
AcDbArc
 50
354.9802
 51
185.0198
  0
ARC
  5
103
330
36
100
AcDbEntity
  8
0
100
AcDbCircle
 10
-218.914817
 20
209.635129
 30
0.0
 40
1.0
100
AcDbArc
 50
270.0
 51
5.0198
  0
LINE
  5
104
330
36
100
AcDbEntity
  8
0
100
AcDbLine
 10
-256.280159
 20
208.635129
 30
0.0
 11
-218.914817
 21
208.635129
 31
0.0
  0
LINE
  5
105
330
36
100
AcDbEntity
  8
0
100
AcDbLine
 10
-256.280159
 20
209.385129
 30
0.0
 11
-218.914817
 21
209.385129
 31
0.0
  0
ARC
  5
106
330
36
100
AcDbEntity
  8
0
100
AcDbCircle
 10
-218.914817
 20
209.635129
 30
0.0
 40
0.25
100
AcDbArc
 50
270.0
 51
5.0198
  0
ARC
  5
107
330
36
100
AcDbEntity
  8
0
100
AcDbCircle
 10
-256.280159
 20
211.135129
 30
0.0
 40
1.75
100
AcDbArc
 50
180.0
 51
270.0
  0
ARC
  5
108
330
36
100
AcDbEntity
  8
0
100
AcDbCircle
 10
-256.280159
 20
211.135129
 30
0.0
 40
2.5
100
AcDbArc
 50
180.0
 51
270.0
  0
LINE
  5
109
330
36
100
AcDbEntity
  8
0
100
AcDbLine
 10
-258.780159
 20
211.135129
 30
0.0
 11
-258.780159
 21
229.335129
 31
0.0
  0
LINE
  5
10A
330
36
100
AcDbEntity
  8
0
100
AcDbLine
 10
-258.030159
 20
211.135129
 30
0.0
 11
-258.030159
 21
229.335129
 31
0.0
  0
ARC
  5
10B
330
36
100
AcDbEntity
  8
0
100
AcDbCircle
 10
-256.280159
 20
229.335129
 30
0.0
 40
1.75
100
AcDbArc
 50
90.0
 51
180.0
  0
ARC
  5
10C
330
36
100
AcDbEntity
  8
0
100
AcDbCircle
 10
-256.280159
 20
229.335129
 30
0.0
 40
2.5
100
AcDbArc
 50
90.0
 51
180.0
  0
LINE
  5
10D
330
36
100
AcDbEntity
  8
0
100
AcDbLine
 10
-256.280159
 20
231.085129
 30
0.0
 11
-218.914817
 21
231.085129
 31
0.0
  0
LINE
  5
10E
330
36
100
AcDbEntity
  8
0
100
AcDbLine
 10
-256.280159
 20
231.835129
 30
0.0
 11
-218.914817
 21
231.835129
 31
0.0
  0
ARC
  5
10F
330
36
100
AcDbEntity
  8
0
100
AcDbCircle
 10
-214.930159
 20
230.485129
 30
0.0
 40
3.75
100
AcDbArc
 50
174.9802
 51
5.0198
  0
ARC
  5
110
330
36
100
AcDbEntity
  8
0
100
AcDbCircle
 10
-210.945501
 20
230.835129
 30
0.0
 40
0.25
100
AcDbArc
 50
90.0
 51
185.0198
  0
ARC
  5
111
330
36
100
AcDbEntity
  8
0
100
AcDbCircle
 10
-210.945501
 20
230.835129
 30
0.0
 40
1.0
100
AcDbArc
 50
90.0
 51
185.0198
  0
ARC
  5
112
330
36
100
AcDbEntity
  8
0
100
AcDbCircle
 10
-214.930159
 20
230.485129
 30
0.0
 40
3.0
100
AcDbArc
 50
174.9802
 51
5.0198
  0
ARC
  5
113
330
36
100
AcDbEntity
  8
0
100
AcDbCircle
 10
-218.914817
 20
230.835129
 30
0.0
 40
1.0
100
AcDbArc
 50
354.9802
 51
90.0
  0
ARC
  5
114
330
36
100
AcDbEntity
  8
0
100
AcDbCircle
 10
-218.914817
 20
230.835129
 30
0.0
 40
0.25
100
AcDbArc
 50
354.9802
 51
90.0
  0
TEXT
  5
115
330
36
100
AcDbEntity
  8
0
100
AcDbText
 10
-188.237805
 20
214.554401
 30
0.0
 40
2.879999999999999
  1
通常回転
 50
90.00000300000001
 41
0.791667
100
AcDbText
  0
TEXT
  5
116
330
36
100
AcDbEntity
  8
0
100
AcDbText
 10
-207.252424
 20
214.555311
 30
0.0
 40
2.879999999999999
  1
減速可変
 50
90.00000300000001
 41
0.791667
100
AcDbText
  0
TEXT
  5
117
330
36
100
AcDbEntity
  8
0
100
AcDbText
 10
-220.782808
 20
211.052441
 30
0.0
 40
1.6912
  1
スピードコントローラー
 50
90.00000300000001
 41
0.833333
100
AcDbText
  0
TEXT
  5
118
330
36
100
AcDbEntity
  8
0
100
AcDbText
 10
-223.180159
 20
210.635129
 30
0.0
 40
2.073599999999998
  1
９０％減
 50
90.00000300000001
 41
0.791667
100
AcDbText
  0
TEXT
  5
119
330
36
100
AcDbEntity
  8
0
100
AcDbText
 10
-223.180159
 20
221.851769
 30
0.0
 40
2.073599999999998
  1
２０％減
 50
90.00000300000001
 41
0.791667
100
AcDbText
  0
TEXT
  5
11A
330
36
100
AcDbEntity
  8
0
100
AcDbText
 10
-245.680159
 20
214.160129
 30
0.0
 40
3.149999999999999
  1
ヒューズ
 50
90.00000300000001
 41
0.833333
100
AcDbText
  0
TEXT
  5
11B
330
36
100
AcDbEntity
  8
0
 62
     3
100
AcDbText
 10
-60.478287
 20
83.97976899999997
 30
0.0
 40
4.5
  1
ハンドスピコン（屋内型）
  7
高4.5
100
AcDbText
  0
LINE
  5
11E
330
36
100
AcDbEntity
  8
0
100
AcDbLine
 10
-70.32431899999997
 20
62.50636
 30
0.0
 11
6.144993
 21
62.50636
 31
0.0
  0
LINE
  5
11F
330
36
100
AcDbEntity
  8
0
100
AcDbLine
 10
-36.50862
 20
75.94636
 30
0.0
 11
-36.50862
 21
49.06635999999998
 31
0.0
  0
TEXT
  5
120
330
36
100
AcDbEntity
  8
0
 62
     3
100
AcDbText
 10
-66.16676899999998
 20
70.57451999999997
 30
0.0
 40
3.2
  1
電圧・周波数
  7
高3.2
100
AcDbText
  0
TEXT
  5
121
330
36
100
AcDbEntity
  8
0
 62
     3
100
AcDbText
 10
-66.33397399999998
 20
63.855652
 30
0.0
 40
3.2
  1
最大負荷電流
  7
高3.2
100
AcDbText
  0
TEXT
  5
122
330
36
100
AcDbEntity
  8
0
 62
     3
100
AcDbText
 10
-66.725864
 20
57.26218000000001
 30
0.0
 40
3.2
  1
連続使用時間
  7
高3.2
100
AcDbText
  0
TEXT
  5
123
330
36
100
AcDbEntity
  8
0
 62
     3
100
AcDbText
 10
-32.300048
 20
70.24010899999999
 30
0.0
 40
3.2
  1
100V 50/60HZ
  7
高3.2
100
AcDbText
  0
TEXT
  5
124
330
36
100
AcDbEntity
  8
0
 62
     3
100
AcDbText
 10
-32.409776
 20
63.683221
 30
0.0
 40
3.2
  1
15A(1500W)
  7
高3.2
100
AcDbText
  0
TEXT
  5
125
330
36
100
AcDbEntity
  8
0
 62
     3
100
AcDbText
 10
-28.122349
 20
56.719436
 30
0.0
 40
3.2
  1
30分以内
  7
高3.2
100
AcDbText
  0
TEXT
  5
126
330
36
100
AcDbEntity
  8
0
 62
     3
100
AcDbText
 10
-6.824753
 20
0.8623509999999999
 30
0.0
 40
3.2
  1
1998.7.1
  7
高3.2
100
AcDbText
  0
TEXT
  5
127
330
36
100
AcDbEntity
  8
0
 62
     3
100
AcDbText
 10
-62.130459
 20
14.862351
 30
0.0
 40
4.5
  1
SH-E102
  7
高4.5
100
AcDbText
  0
TEXT
  5
128
330
36
100
AcDbEntity
  8
0
 62
     3
100
AcDbText
 10
-66.20865728797252
 20
21.862351
 30
0.0
 40
4.5
  1
ハンドスピコン
  7
高4.5
100
AcDbText
  0
TEXT
  5
129
330
36
100
AcDbEntity
  8
0
 62
     3
100
AcDbText
 10
-66.42747688156052
 20
118.2706
 30
0.0
 40
3.2
  1
2P、3P　兼用タイプ
  7
高3.2
100
AcDbText
  0
LINE
  5
12A
330
36
100
AcDbEntity
  8
0
100
AcDbLine
 10
-66.25297165707308
 20
117.3356557084953
 30
0.0
 11
-27.35145856835643
 21
117.3356557084953
 31
0.0
  0
ARC
  5
12B
330
36
100
AcDbEntity
  8
0
100
AcDbCircle
 10
-161.05447
 20
178.474788
 30
0.0
 40
1.0
100
AcDbArc
 50
270.000002
 51
90.0
  0
ARC
  5
12C
330
36
100
AcDbEntity
  8
0
100
AcDbCircle
 10
-161.05447
 20
175.474788
 30
0.0
 40
1.0
100
AcDbArc
 50
270.0
 51
90.0
  0
LINE
  5
12D
330
36
100
AcDbEntity
  8
0
100
AcDbLine
 10
-268.80624
 20
174.474788
 30
0.0
 11
-161.05447
 21
174.474788
 31
0.0
  0
LINE
  5
12E
330
36
100
AcDbEntity
  8
0
100
AcDbLine
 10
-214.930355
 20
176.474788
 30
0.0
 11
-161.05447
 21
176.474788
 31
0.0
  0
LINE
  5
12F
330
36
100
AcDbEntity
  8
0
100
AcDbLine
 10
-214.930355
 20
177.474788
 30
0.0
 11
-161.05447
 21
177.474788
 31
0.0
  0
LINE
  5
130
330
36
100
AcDbEntity
  8
0
100
AcDbLine
 10
-214.930355
 20
179.474788
 30
0.0
 11
-161.05447
 21
179.474788
 31
0.0
  0
ARC
  5
131
330
36
100
AcDbEntity
  8
0
100
AcDbCircle
 10
-268.80624
 20
178.474788
 30
0.0
 40
1.0
100
AcDbArc
 50
90.0
 51
269.999998
  0
LINE
  5
132
330
36
100
AcDbEntity
  8
0
100
AcDbLine
 10
-214.930355
 20
179.474788
 30
0.0
 11
-268.80624
 21
179.474788
 31
0.0
  0
LINE
  5
133
330
36
100
AcDbEntity
  8
0
100
AcDbLine
 10
-214.930355
 20
177.474788
 30
0.0
 11
-268.80624
 21
177.474788
 31
0.0
  0
LINE
  5
134
330
36
100
AcDbEntity
  8
0
100
AcDbLine
 10
-214.930355
 20
176.474788
 30
0.0
 11
-268.80624
 21
176.474788
 31
0.0
  0
LINE
  5
135
330
36
100
AcDbEntity
  8
0
100
AcDbLine
 10
-256.04822
 20
125.463678
 30
0.0
 11
-268.80624
 21
125.463678
 31
0.0
  0
ARC
  5
136
330
36
100
AcDbEntity
  8
0
100
AcDbCircle
 10
-256.04822
 20
126.463678
 30
0.0
 40
1.0
100
AcDbArc
 50
270.0
 51
90.0
  0
LINE
  5
137
330
36
100
AcDbEntity
  8
0
100
AcDbLine
 10
-255.936884
 20
127.463678
 30
0.0
 11
-268.80624
 21
127.463678
 31
0.0
  0
LINE
  5
138
330
36
100
AcDbEntity
  8
0
100
AcDbLine
 10
-256.048219
 20
128.463678
 30
0.0
 11
-268.80624
 21
128.463678
 31
0.0
  0
ARC
  5
139
330
36
100
AcDbEntity
  8
0
100
AcDbCircle
 10
-256.048219
 20
129.463678
 30
0.0
 40
1.0
100
AcDbArc
 50
270.0
 51
89.99999800000002
  0
LINE
  5
13A
330
36
100
AcDbEntity
  8
0
100
AcDbLine
 10
-256.048219
 20
130.463678
 30
0.0
 11
-268.80624
 21
130.463678
 31
0.0
  0
ARC
  5
13B
330
36
100
AcDbEntity
  8
0
100
AcDbCircle
 10
-268.80624
 20
129.463678
 30
0.0
 40
1.0
100
AcDbArc
 50
90.0
 51
270.0
  0
ARC
  5
13C
330
36
100
AcDbEntity
  8
0
100
AcDbCircle
 10
-268.80624
 20
126.463678
 30
0.0
 40
1.0
100
AcDbArc
 50
90.00000199999998
 51
270.0
  0
LINE
  5
13D
330
36
100
AcDbEntity
  8
0
100
AcDbLine
 10
-173.812491
 20
125.463678
 30
0.0
 11
-161.05447
 21
125.463678
 31
0.0
  0
LINE
  5
13E
330
36
100
AcDbEntity
  8
0
100
AcDbLine
 10
-173.923827
 20
127.463678
 30
0.0
 11
-165.485437
 21
127.463678
 31
0.0
  0
ARC
  5
13F
330
36
100
AcDbEntity
  8
0
100
AcDbCircle
 10
-173.812491
 20
126.463678
 30
0.0
 40
1.0
100
AcDbArc
 50
90.0
 51
270.0
  0
LINE
  5
140
330
36
100
AcDbEntity
  8
0
100
AcDbLine
 10
-173.812492
 20
128.463678
 30
0.0
 11
-165.485437
 21
128.463678
 31
0.0
  0
LINE
  5
141
330
36
100
AcDbEntity
  8
0
100
AcDbLine
 10
-173.812492
 20
130.463678
 30
0.0
 11
-161.05447
 21
130.463678
 31
0.0
  0
ARC
  5
142
330
36
100
AcDbEntity
  8
0
100
AcDbCircle
 10
-173.812492
 20
129.463678
 30
0.0
 40
1.0
100
AcDbArc
 50
90.00000199999998
 51
270.0
  0
CIRCLE
  5
143
330
36
100
AcDbEntity
  8
0
100
AcDbCircle
 10
-163.548946
 20
127.963678
 30
0.0
 40
2.0
  0
ARC
  5
144
330
36
100
AcDbEntity
  8
0
100
AcDbCircle
 10
-161.05447
 20
129.463678
 30
0.0
 40
1.0
100
AcDbArc
 50
270.0
 51
90.0
  0
ARC
  5
145
330
36
100
AcDbEntity
  8
0
100
AcDbCircle
 10
-161.05447
 20
126.463678
 30
0.0
 40
1.0
100
AcDbArc
 50
270.0
 51
89.99999800000002
  0
LINE
  5
146
330
36
100
AcDbEntity
  8
0
100
AcDbLine
 10
-161.612454
 20
127.463678
 30
0.0
 11
-161.05447
 21
127.463678
 31
0.0
  0
LINE
  5
147
330
36
100
AcDbEntity
  8
0
100
AcDbLine
 10
-161.612454
 20
128.463678
 30
0.0
 11
-161.05447
 21
128.463678
 31
0.0
  0
CIRCLE
  5
148
330
36
100
AcDbEntity
  8
0
100
AcDbCircle
 10
-130.930355
 20
179.066062
 30
0.0
 40
2.0
  0
CIRCLE
  5
149
330
36
100
AcDbEntity
  8
0
100
AcDbCircle
 10
-168.993298
 20
165.974788
 30
0.0
 40
2.0
  0
CIRCLE
  5
14A
330
36
100
AcDbEntity
  8
0
100
AcDbCircle
 10
-242.430355
 20
127.963678
 30
0.0
 40
2.0
  0
CIRCLE
  5
14B
330
36
100
AcDbEntity
  8
0
100
AcDbCircle
 10
-130.930355
 20
125.872405
 30
0.0
 40
2.0
  0
CIRCLE
  5
14C
330
36
100
AcDbEntity
  8
0
100
AcDbCircle
 10
-261.180159
 20
214.635129
 30
0.0
 40
2.0
  0
CIRCLE
  5
14D
330
36
100
AcDbEntity
  8
0
100
AcDbCircle
 10
-261.180159
 20
225.835129
 30
0.0
 40
2.0
  0
CIRCLE
  5
14E
330
36
100
AcDbEntity
  8
0
100
AcDbCircle
 10
-252.430159
 20
220.235129
 30
0.0
 40
2.299999999999998
  0
CIRCLE
  5
14F
330
36
100
AcDbEntity
  8
0
100
AcDbCircle
 10
-252.430159
 20
220.235129
 30
0.0
 40
0.75
  0
CIRCLE
  5
150
330
36
100
AcDbEntity
  8
0
100
AcDbCircle
 10
-252.430159
 20
220.235129
 30
0.0
 40
3.0
  0
CIRCLE
  5
151
330
36
100
AcDbEntity
  8
0
100
AcDbCircle
 10
-214.930159
 20
230.485129
 30
0.0
 40
2.0
  0
CIRCLE
  5
152
330
36
100
AcDbEntity
  8
0
100
AcDbCircle
 10
-214.930159
 20
209.985129
 30
0.0
 40
1.125
  0
CIRCLE
  5
153
330
36
100
AcDbEntity
  8
0
100
AcDbCircle
 10
-214.930159
 20
209.985129
 30
0.0
 40
2.0
  0
CIRCLE
  5
154
330
36
100
AcDbEntity
  8
0
100
AcDbCircle
 10
-168.680159
 20
214.635129
 30
0.0
 40
2.0
  0
CIRCLE
  5
155
330
36
100
AcDbEntity
  8
0
100
AcDbCircle
 10
-168.680159
 20
225.835129
 30
0.0
 40
2.0
  0
LINE
  5
156
330
36
100
AcDbEntity
  8
0
100
AcDbLine
 10
-134.430355
 20
80.57132499999999
 30
0.0
 11
-127.430355
 21
80.57132499999999
 31
0.0
  0
ARC
  5
157
330
36
100
AcDbEntity
  8
0
 62
     3
100
AcDbCircle
 10
-256.233506
 20
143.185701
 30
0.0
 40
7.586513
100
AcDbArc
 50
326.184746
 51
33.815254
  0
LINE
  5
158
330
36
100
AcDbEntity
  8
0
 62
     3
100
AcDbLine
 10
-180.922087
 20
147.407723
 30
0.0
 11
-180.922087
 21
138.963678
 31
0.0
  0
CIRCLE
  5
159
330
36
100
AcDbEntity
  8
0
 62
     3
100
AcDbCircle
 10
-214.930159
 20
220.235129
 30
0.0
 40
4.0
  0
LINE
  5
15A
330
36
100
AcDbEntity
  8
0
100
AcDbLine
 10
-127.430355
 20
220.232046
 30
0.0
 11
-134.430355
 21
220.232046
 31
0.0
  0
LINE
  5
15B
330
36
100
AcDbEntity
  8
0
100
AcDbLine
 10
-295.430355
 20
220.232046
 30
0.0
 11
-302.4303549999999
 21
220.232046
 31
0.0
  0
LINE
  5
15C
330
36
100
AcDbEntity
  8
0
100
AcDbLine
 10
-231.23617
 20
213.139042
 30
0.0
 11
-231.120733
 21
212.91729
 31
0.0
  0
LINE
  5
15D
330
36
100
AcDbEntity
  8
0
100
AcDbLine
 10
-229.273304
 20
214.578275
 30
0.0
 11
-229.096528
 21
214.401498
 31
0.0
  0
ARC
  5
161
330
36
100
AcDbEntity
  8
0
100
AcDbCircle
 10
-234.930159
 20
220.235129
 30
0.0
 40
9.75
100
AcDbArc
 50
45.0
 51
67.5
  0
LINE
  5
162
330
36
100
AcDbEntity
  8
0
100
AcDbLine
 10
-229.273304
 20
225.891983
 30
0.0
 11
-228.035868
 21
227.12942
 31
0.0
  0
ARC
  5
163
330
36
100
AcDbEntity
  8
0
100
AcDbCircle
 10
-234.930159
 20
220.235129
 30
0.0
 40
8.0
100
AcDbArc
 50
45.0
 51
67.5
  0
LINE
  5
164
330
36
100
AcDbEntity
  8
0
100
AcDbLine
 10
-231.868691
 20
227.626165
 30
0.0
 11
-231.198995
 21
229.242954
 31
0.0
  0
ARC
  5
165
330
36
100
AcDbEntity
  8
0
100
AcDbCircle
 10
-234.930159
 20
220.235129
 30
0.0
 40
9.5
100
AcDbArc
 50
72.5
 51
112.5
  0
LINE
  5
166
330
36
100
AcDbEntity
  8
0
100
AcDbLine
 10
-232.524512
 20
227.864865
 30
0.0
 11
-232.073454
 21
229.29544
 31
0.0
  0
ARC
  5
167
330
36
100
AcDbEntity
  8
0
100
AcDbCircle
 10
-234.930159
 20
220.235129
 30
0.0
 40
8.0
100
AcDbArc
 50
72.5
 51
112.5
  0
LINE
  5
168
330
36
100
AcDbEntity
  8
0
100
AcDbLine
 10
-237.991626
 20
227.626165
 30
0.0
 11
-238.565651
 21
229.011985
 31
0.0
  0
ARC
  5
169
330
36
100
AcDbEntity
  8
0
100
AcDbCircle
 10
-234.930159
 20
220.235129
 30
0.0
 40
9.25
100
AcDbArc
 50
117.5
 51
157.5
  0
LINE
  5
16A
330
36
100
AcDbEntity
  8
0
100
AcDbLine
 10
-238.624148
 20
227.331216
 30
0.0
 11
-239.201333
 21
228.439979
 31
0.0
  0
ARC
  5
16B
330
36
100
AcDbEntity
  8
0
100
AcDbCircle
 10
-234.930159
 20
220.235129
 30
0.0
 40
8.0
100
AcDbArc
 50
117.5
 51
157.5
  0
ARC
  5
16C
330
36
100
AcDbEntity
  8
0
100
AcDbCircle
 10
-234.930159
 20
220.235129
 30
0.0
 40
9.0
100
AcDbArc
 50
162.5
 51
202.5
  0
LINE
  5
16D
330
36
100
AcDbEntity
  8
0
100
AcDbLine
 10
-242.321195
 20
223.296596
 30
0.0
 11
-243.476044
 21
223.774951
 31
0.0
  0
LINE
  5
16E
330
36
100
AcDbEntity
  8
0
100
AcDbLine
 10
-242.559894
 20
222.640775
 30
0.0
 11
-243.513611
 21
222.941481
 31
0.0
  0
ARC
  5
16F
330
36
100
AcDbEntity
  8
0
100
AcDbCircle
 10
-234.930159
 20
220.235129
 30
0.0
 40
8.0
100
AcDbArc
 50
162.5
 51
202.5
  0
LINE
  5
170
330
36
100
AcDbEntity
  8
0
100
AcDbLine
 10
-242.321195
 20
217.173662
 30
0.0
 11
-243.245074
 21
216.790978
 31
0.0
  0
ARC
  5
173
330
36
100
AcDbEntity
  8
0
100
AcDbCircle
 10
-234.930159
 20
220.235129
 30
0.0
 40
8.0
100
AcDbArc
 50
297.5
 51
315.0
  0
ARC
  5
174
330
36
100
AcDbEntity
  8
0
100
AcDbCircle
 10
-234.930159
 20
220.235129
 30
0.0
 40
8.5
100
AcDbArc
 50
252.5
 51
292.5
  0
ARC
  5
175
330
36
100
AcDbEntity
  8
0
100
AcDbCircle
 10
-234.930159
 20
220.235129
 30
0.0
 40
8.0
100
AcDbArc
 50
252.5
 51
292.5
  0
LINE
  5
176
330
36
100
AcDbEntity
  8
0
100
AcDbLine
 10
-231.868691
 20
212.844093
 30
0.0
 11
-231.67735
 21
212.382153
 31
0.0
  0
ARC
  5
177
330
36
100
AcDbEntity
  8
0
100
AcDbCircle
 10
-234.930159
 20
220.235129
 30
0.0
 40
8.25
100
AcDbArc
 50
297.5
 51
315.0
  0
LINE
  5
178
330
36
100
AcDbEntity
  8
0
100
AcDbLine
 10
-237.335805
 20
212.605393
 30
0.0
 11
-237.486158
 21
212.128535
 31
0.0
  0
LINE
  5
179
330
36
100
AcDbEntity
  8
0
100
AcDbLine
 10
-237.991626
 20
212.844093
 30
0.0
 11
-238.278639
 21
212.151183
 31
0.0
  0
ARC
  5
17A
330
36
100
AcDbEntity
  8
0
100
AcDbCircle
 10
-234.930159
 20
220.235129
 30
0.0
 40
8.0
100
AcDbArc
 50
207.5
 51
247.5
  0
ARC
  5
17B
330
36
100
AcDbEntity
  8
0
100
AcDbCircle
 10
-234.930159
 20
220.235129
 30
0.0
 40
8.75
100
AcDbArc
 50
207.5
 51
247.5
  0
LINE
  5
17C
330
36
100
AcDbEntity
  8
0
100
AcDbLine
 10
-242.026245
 20
216.54114
 30
0.0
 11
-242.691503
 21
216.194829
 31
0.0
  0
LINE
  5
17D
330
36
100
AcDbEntity
  8
0
100
AcDbLine
 10
-204.430159
 20
224.285129
 30
0.0
 11
-199.930159
 21
224.285129
 31
0.0
  0
LINE
  5
17E
330
36
100
AcDbEntity
  8
0
100
AcDbLine
 10
-204.430159
 20
224.285129
 30
0.0
 11
-204.430159
 21
222.535129
 31
0.0
  0
LINE
  5
17F
330
36
100
AcDbEntity
  8
0
100
AcDbLine
 10
-204.430159
 20
222.535129
 30
0.0
 11
-199.930159
 21
222.535129
 31
0.0
  0
LINE
  5
180
330
36
100
AcDbEntity
  8
0
100
AcDbLine
 10
-199.930159
 20
224.285129
 30
0.0
 11
-199.930159
 21
222.535129
 31
0.0
  0
LINE
  5
181
330
36
100
AcDbEntity
  8
0
100
AcDbLine
 10
-204.680159
 20
217.935129
 30
0.0
 11
-199.680159
 21
217.935129
 31
0.0
  0
LINE
  5
182
330
36
100
AcDbEntity
  8
0
100
AcDbLine
 10
-204.680159
 20
216.185129
 30
0.0
 11
-204.680159
 21
217.935129
 31
0.0
  0
LINE
  5
183
330
36
100
AcDbEntity
  8
0
100
AcDbLine
 10
-204.680159
 20
216.185129
 30
0.0
 11
-199.680159
 21
216.185129
 31
0.0
  0
LINE
  5
184
330
36
100
AcDbEntity
  8
0
100
AcDbLine
 10
-199.680159
 20
216.185129
 30
0.0
 11
-199.680159
 21
217.935129
 31
0.0
  0
ARC
  5
185
330
36
100
AcDbEntity
  8
0
100
AcDbCircle
 10
-196.080159
 20
220.235129
 30
0.0
 40
1.875
100
AcDbArc
 50
90.0
 51
270.0
  0
LINE
  5
186
330
36
100
AcDbEntity
  8
0
100
AcDbLine
 10
-196.080159
 20
218.360129
 30
0.0
 11
-194.930159
 21
218.360129
 31
0.0
  0
LINE
  5
187
330
36
100
AcDbEntity
  8
0
100
AcDbLine
 10
-194.930159
 20
218.360129
 30
0.0
 11
-194.930159
 21
222.110129
 31
0.0
  0
LINE
  5
188
330
36
100
AcDbEntity
  8
0
100
AcDbLine
 10
-196.080159
 20
222.110129
 30
0.0
 11
-194.930159
 21
222.110129
 31
0.0
  0
LINE
  5
189
330
36
100
AcDbEntity
  8
0
100
AcDbLine
 10
-206.180159
 20
226.485129
 30
0.0
 11
-193.680159
 21
226.485129
 31
0.0
  0
LINE
  5
18A
330
36
100
AcDbEntity
  8
0
100
AcDbLine
 10
-193.680159
 20
213.985129
 30
0.0
 11
-193.680159
 21
226.485129
 31
0.0
  0
LINE
  5
18B
330
36
100
AcDbEntity
  8
0
100
AcDbLine
 10
-206.180159
 20
213.985129
 30
0.0
 11
-193.680159
 21
213.985129
 31
0.0
  0
LINE
  5
18C
330
36
100
AcDbEntity
  8
0
100
AcDbLine
 10
-206.180159
 20
213.985129
 30
0.0
 11
-206.180159
 21
226.485129
 31
0.0
  0
LINE
  5
18D
330
36
100
AcDbEntity
  8
0
100
AcDbLine
 10
-193.680159
 20
213.985129
 30
0.0
 11
-193.180159
 21
213.485129
 31
0.0
  0
LINE
  5
18E
330
36
100
AcDbEntity
  8
0
100
AcDbLine
 10
-206.180159
 20
213.985129
 30
0.0
 11
-206.680159
 21
213.485129
 31
0.0
  0
LINE
  5
18F
330
36
100
AcDbEntity
  8
0
100
AcDbLine
 10
-206.180159
 20
226.485129
 30
0.0
 11
-206.680159
 21
226.985129
 31
0.0
  0
LINE
  5
190
330
36
100
AcDbEntity
  8
0
100
AcDbLine
 10
-193.680159
 20
226.485129
 30
0.0
 11
-193.180159
 21
226.985129
 31
0.0
  0
LINE
  5
191
330
36
100
AcDbEntity
  8
0
100
AcDbLine
 10
-204.180159
 20
224.035129
 30
0.0
 11
-204.430159
 21
224.285129
 31
0.0
  0
LINE
  5
192
330
36
100
AcDbEntity
  8
0
100
AcDbLine
 10
-204.180159
 20
222.785129
 30
0.0
 11
-204.430159
 21
222.535129
 31
0.0
  0
LINE
  5
193
330
36
100
AcDbEntity
  8
0
100
AcDbLine
 10
-200.180159
 20
222.785129
 30
0.0
 11
-199.930159
 21
222.535129
 31
0.0
  0
LINE
  5
194
330
36
100
AcDbEntity
  8
0
100
AcDbLine
 10
-200.180159
 20
224.035129
 30
0.0
 11
-199.930159
 21
224.285129
 31
0.0
  0
LINE
  5
195
330
36
100
AcDbEntity
  8
0
100
AcDbLine
 10
-204.430159
 20
217.685129
 30
0.0
 11
-204.680159
 21
217.935129
 31
0.0
  0
LINE
  5
196
330
36
100
AcDbEntity
  8
0
100
AcDbLine
 10
-204.430159
 20
216.435129
 30
0.0
 11
-204.680159
 21
216.185129
 31
0.0
  0
LINE
  5
197
330
36
100
AcDbEntity
  8
0
100
AcDbLine
 10
-199.930159
 20
217.685129
 30
0.0
 11
-199.680159
 21
217.935129
 31
0.0
  0
LINE
  5
198
330
36
100
AcDbEntity
  8
0
100
AcDbLine
 10
-199.930159
 20
216.435129
 30
0.0
 11
-199.680159
 21
216.185129
 31
0.0
  0
LINE
  5
199
330
36
100
AcDbEntity
  8
0
100
AcDbLine
 10
-195.180159
 20
218.610129
 30
0.0
 11
-194.930159
 21
218.360129
 31
0.0
  0
LINE
  5
19A
330
36
100
AcDbEntity
  8
0
100
AcDbLine
 10
-195.180159
 20
221.860129
 30
0.0
 11
-194.930159
 21
222.110129
 31
0.0
  0
LINE
  5
19B
330
36
100
AcDbEntity
  8
0
 62
     3
100
AcDbLine
 10
-206.680159
 20
213.485129
 30
0.0
 11
-193.180159
 21
213.485129
 31
0.0
  0
LINE
  5
19C
330
36
100
AcDbEntity
  8
0
 62
     3
100
AcDbLine
 10
-206.680159
 20
213.485129
 30
0.0
 11
-206.680159
 21
226.985129
 31
0.0
  0
LINE
  5
19D
330
36
100
AcDbEntity
  8
0
 62
     3
100
AcDbLine
 10
-206.680159
 20
226.985129
 30
0.0
 11
-193.180159
 21
226.985129
 31
0.0
  0
LINE
  5
19E
330
36
100
AcDbEntity
  8
0
100
AcDbLine
 10
-195.180159
 20
218.610129
 30
0.0
 11
-195.180159
 21
221.860129
 31
0.0
  0
LINE
  5
19F
330
36
100
AcDbEntity
  8
0
100
AcDbLine
 10
-196.080159
 20
221.860129
 30
0.0
 11
-195.180159
 21
221.860129
 31
0.0
  0
ARC
  5
1A0
330
36
100
AcDbEntity
  8
0
100
AcDbCircle
 10
-196.080159
 20
220.235129
 30
0.0
 40
1.625
100
AcDbArc
 50
90.0
 51
270.0
  0
LINE
  5
1A1
330
36
100
AcDbEntity
  8
0
100
AcDbLine
 10
-196.080159
 20
218.610129
 30
0.0
 11
-195.180159
 21
218.610129
 31
0.0
  0
LINE
  5
1A2
330
36
100
AcDbEntity
  8
0
100
AcDbLine
 10
-199.930159
 20
216.435129
 30
0.0
 11
-199.930159
 21
217.685129
 31
0.0
  0
LINE
  5
1A3
330
36
100
AcDbEntity
  8
0
100
AcDbLine
 10
-204.430159
 20
217.685129
 30
0.0
 11
-199.930159
 21
217.685129
 31
0.0
  0
LINE
  5
1A4
330
36
100
AcDbEntity
  8
0
100
AcDbLine
 10
-204.430159
 20
216.435129
 30
0.0
 11
-199.930159
 21
216.435129
 31
0.0
  0
LINE
  5
1A5
330
36
100
AcDbEntity
  8
0
100
AcDbLine
 10
-204.430159
 20
216.435129
 30
0.0
 11
-204.430159
 21
217.685129
 31
0.0
  0
LINE
  5
1A6
330
36
100
AcDbEntity
  8
0
100
AcDbLine
 10
-204.180159
 20
222.785129
 30
0.0
 11
-200.180159
 21
222.785129
 31
0.0
  0
LINE
  5
1A7
330
36
100
AcDbEntity
  8
0
100
AcDbLine
 10
-204.180159
 20
224.035129
 30
0.0
 11
-204.180159
 21
222.785129
 31
0.0
  0
LINE
  5
1A8
330
36
100
AcDbEntity
  8
0
100
AcDbLine
 10
-204.180159
 20
224.035129
 30
0.0
 11
-200.180159
 21
224.035129
 31
0.0
  0
LINE
  5
1A9
330
36
100
AcDbEntity
  8
0
100
AcDbLine
 10
-200.180159
 20
224.035129
 30
0.0
 11
-200.180159
 21
222.785129
 31
0.0
  0
LINE
  5
1AA
330
36
100
AcDbEntity
  8
0
 62
     3
100
AcDbLine
 10
-193.180159
 20
213.485129
 30
0.0
 11
-193.180159
 21
226.985129
 31
0.0
  0
LINE
  5
1AB
330
36
100
AcDbEntity
  8
0
100
AcDbLine
 10
-174.680159
 20
213.985129
 30
0.0
 11
-174.680159
 21
226.485129
 31
0.0
  0
LINE
  5
1AC
330
36
100
AcDbEntity
  8
0
100
AcDbLine
 10
-174.680159
 20
226.485129
 30
0.0
 11
-174.180159
 21
226.985129
 31
0.0
  0
LINE
  5
1AD
330
36
100
AcDbEntity
  8
0
100
AcDbLine
 10
-187.180159
 20
226.485129
 30
0.0
 11
-174.680159
 21
226.485129
 31
0.0
  0
LINE
  5
1AE
330
36
100
AcDbEntity
  8
0
100
AcDbLine
 10
-187.180159
 20
226.485129
 30
0.0
 11
-187.680159
 21
226.985129
 31
0.0
  0
LINE
  5
1AF
330
36
100
AcDbEntity
  8
0
100
AcDbLine
 10
-187.180159
 20
213.985129
 30
0.0
 11
-187.180159
 21
226.485129
 31
0.0
  0
LINE
  5
1B0
330
36
100
AcDbEntity
  8
0
100
AcDbLine
 10
-187.180159
 20
213.985129
 30
0.0
 11
-187.680159
 21
213.485129
 31
0.0
  0
LINE
  5
1B1
330
36
100
AcDbEntity
  8
0
100
AcDbLine
 10
-187.180159
 20
213.985129
 30
0.0
 11
-174.680159
 21
213.985129
 31
0.0
  0
LINE
  5
1B2
330
36
100
AcDbEntity
  8
0
100
AcDbLine
 10
-174.680159
 20
213.985129
 30
0.0
 11
-174.180159
 21
213.485129
 31
0.0
  0
LINE
  5
1B3
330
36
100
AcDbEntity
  8
0
100
AcDbLine
 10
-180.680159
 20
216.185129
 30
0.0
 11
-180.680159
 21
217.935129
 31
0.0
  0
LINE
  5
1B4
330
36
100
AcDbEntity
  8
0
100
AcDbLine
 10
-185.680159
 20
217.935129
 30
0.0
 11
-180.680159
 21
217.935129
 31
0.0
  0
LINE
  5
1B5
330
36
100
AcDbEntity
  8
0
100
AcDbLine
 10
-185.680159
 20
216.185129
 30
0.0
 11
-185.680159
 21
217.935129
 31
0.0
  0
LINE
  5
1B6
330
36
100
AcDbEntity
  8
0
100
AcDbLine
 10
-185.680159
 20
216.185129
 30
0.0
 11
-180.680159
 21
216.185129
 31
0.0
  0
LINE
  5
1B7
330
36
100
AcDbEntity
  8
0
100
AcDbLine
 10
-177.080159
 20
218.360129
 30
0.0
 11
-175.930159
 21
218.360129
 31
0.0
  0
ARC
  5
1B8
330
36
100
AcDbEntity
  8
0
100
AcDbCircle
 10
-177.080159
 20
220.235129
 30
0.0
 40
1.875
100
AcDbArc
 50
90.0
 51
270.0
  0
LINE
  5
1B9
330
36
100
AcDbEntity
  8
0
100
AcDbLine
 10
-175.930159
 20
218.360129
 30
0.0
 11
-175.930159
 21
222.110129
 31
0.0
  0
LINE
  5
1BA
330
36
100
AcDbEntity
  8
0
100
AcDbLine
 10
-177.080159
 20
222.110129
 30
0.0
 11
-175.930159
 21
222.110129
 31
0.0
  0
LINE
  5
1BB
330
36
100
AcDbEntity
  8
0
100
AcDbLine
 10
-185.430159
 20
224.285129
 30
0.0
 11
-180.930159
 21
224.285129
 31
0.0
  0
LINE
  5
1BC
330
36
100
AcDbEntity
  8
0
100
AcDbLine
 10
-185.430159
 20
224.285129
 30
0.0
 11
-185.430159
 21
222.535129
 31
0.0
  0
LINE
  5
1BD
330
36
100
AcDbEntity
  8
0
100
AcDbLine
 10
-185.430159
 20
222.535129
 30
0.0
 11
-180.930159
 21
222.535129
 31
0.0
  0
LINE
  5
1BE
330
36
100
AcDbEntity
  8
0
100
AcDbLine
 10
-180.930159
 20
224.285129
 30
0.0
 11
-180.930159
 21
222.535129
 31
0.0
  0
LINE
  5
1BF
330
36
100
AcDbEntity
  8
0
100
AcDbLine
 10
-176.180159
 20
221.860129
 30
0.0
 11
-175.930159
 21
222.110129
 31
0.0
  0
LINE
  5
1C0
330
36
100
AcDbEntity
  8
0
100
AcDbLine
 10
-176.180159
 20
218.610129
 30
0.0
 11
-175.930159
 21
218.360129
 31
0.0
  0
LINE
  5
1C1
330
36
100
AcDbEntity
  8
0
100
AcDbLine
 10
-180.930159
 20
217.685129
 30
0.0
 11
-180.680159
 21
217.935129
 31
0.0
  0
LINE
  5
1C2
330
36
100
AcDbEntity
  8
0
100
AcDbLine
 10
-180.930159
 20
216.435129
 30
0.0
 11
-180.680159
 21
216.185129
 31
0.0
  0
LINE
  5
1C3
330
36
100
AcDbEntity
  8
0
100
AcDbLine
 10
-185.430159
 20
216.435129
 30
0.0
 11
-185.680159
 21
216.185129
 31
0.0
  0
LINE
  5
1C4
330
36
100
AcDbEntity
  8
0
100
AcDbLine
 10
-185.430159
 20
217.685129
 30
0.0
 11
-185.680159
 21
217.935129
 31
0.0
  0
LINE
  5
1C5
330
36
100
AcDbEntity
  8
0
100
AcDbLine
 10
-185.180159
 20
222.785129
 30
0.0
 11
-185.430159
 21
222.535129
 31
0.0
  0
LINE
  5
1C6
330
36
100
AcDbEntity
  8
0
100
AcDbLine
 10
-185.180159
 20
224.035129
 30
0.0
 11
-185.430159
 21
224.285129
 31
0.0
  0
LINE
  5
1C7
330
36
100
AcDbEntity
  8
0
100
AcDbLine
 10
-181.180159
 20
224.035129
 30
0.0
 11
-180.930159
 21
224.285129
 31
0.0
  0
LINE
  5
1C8
330
36
100
AcDbEntity
  8
0
100
AcDbLine
 10
-181.180159
 20
222.785129
 30
0.0
 11
-180.930159
 21
222.535129
 31
0.0
  0
LINE
  5
1C9
330
36
100
AcDbEntity
  8
0
100
AcDbLine
 10
-185.180159
 20
224.035129
 30
0.0
 11
-185.180159
 21
222.785129
 31
0.0
  0
LINE
  5
1CA
330
36
100
AcDbEntity
  8
0
100
AcDbLine
 10
-185.180159
 20
224.035129
 30
0.0
 11
-181.180159
 21
224.035129
 31
0.0
  0
LINE
  5
1CB
330
36
100
AcDbEntity
  8
0
100
AcDbLine
 10
-185.180159
 20
222.785129
 30
0.0
 11
-181.180159
 21
222.785129
 31
0.0
  0
LINE
  5
1CC
330
36
100
AcDbEntity
  8
0
100
AcDbLine
 10
-181.180159
 20
224.035129
 30
0.0
 11
-181.180159
 21
222.785129
 31
0.0
  0
LINE
  5
1CD
330
36
100
AcDbEntity
  8
0
100
AcDbLine
 10
-185.430159
 20
217.685129
 30
0.0
 11
-180.930159
 21
217.685129
 31
0.0
  0
LINE
  5
1CE
330
36
100
AcDbEntity
  8
0
100
AcDbLine
 10
-185.430159
 20
216.435129
 30
0.0
 11
-180.930159
 21
216.435129
 31
0.0
  0
LINE
  5
1CF
330
36
100
AcDbEntity
  8
0
100
AcDbLine
 10
-185.430159
 20
216.435129
 30
0.0
 11
-185.430159
 21
217.685129
 31
0.0
  0
LINE
  5
1D0
330
36
100
AcDbEntity
  8
0
100
AcDbLine
 10
-180.930159
 20
216.435129
 30
0.0
 11
-180.930159
 21
217.685129
 31
0.0
  0
LINE
  5
1D1
330
36
100
AcDbEntity
  8
0
100
AcDbLine
 10
-176.180159
 20
218.610129
 30
0.0
 11
-176.180159
 21
221.860129
 31
0.0
  0
LINE
  5
1D2
330
36
100
AcDbEntity
  8
0
100
AcDbLine
 10
-177.080159
 20
218.610129
 30
0.0
 11
-176.180159
 21
218.610129
 31
0.0
  0
ARC
  5
1D3
330
36
100
AcDbEntity
  8
0
100
AcDbCircle
 10
-177.080159
 20
220.235129
 30
0.0
 40
1.625
100
AcDbArc
 50
90.0
 51
270.0
  0
LINE
  5
1D4
330
36
100
AcDbEntity
  8
0
100
AcDbLine
 10
-177.080159
 20
221.860129
 30
0.0
 11
-176.180159
 21
221.860129
 31
0.0
  0
LINE
  5
1D5
330
36
100
AcDbEntity
  8
0
 62
     3
100
AcDbLine
 10
-187.680159
 20
226.985129
 30
0.0
 11
-174.180159
 21
226.985129
 31
0.0
  0
LINE
  5
1D6
330
36
100
AcDbEntity
  8
0
 62
     3
100
AcDbLine
 10
-187.680159
 20
213.485129
 30
0.0
 11
-187.680159
 21
226.985129
 31
0.0
  0
LINE
  5
1D7
330
36
100
AcDbEntity
  8
0
 62
     3
100
AcDbLine
 10
-187.680159
 20
213.485129
 30
0.0
 11
-174.180159
 21
213.485129
 31
0.0
  0
LINE
  5
1D8
330
36
100
AcDbEntity
  8
0
 62
     3
100
AcDbLine
 10
-174.180159
 20
213.485129
 30
0.0
 11
-174.180159
 21
226.985129
 31
0.0
  0
LINE
  5
1DC
330
36
100
AcDbEntity
  8
0
100
AcDbLine
 10
-70.32431899999997
 20
55.78635999999999
 30
0.0
 11
6.144993
 21
55.78635999999999
 31
0.0
  0
LINE
  5
1DD
330
36
100
AcDbEntity
  8
0
 62
     3
100
AcDbLine
 10
-70.32431899999997
 20
49.06635999999998
 30
0.0
 11
6.144993
 21
49.06635999999998
 31
0.0
  0
TEXT
  5
1DE
330
36
100
AcDbEntity
  8
0
 62
     3
100
AcDbText
 10
-66.725864
 20
50.496012
 30
0.0
 40
3.2
  1
速度調節範囲
  7
高3.2
100
AcDbText
  0
TEXT
  5
1DF
330
36
100
AcDbEntity
  8
0
 62
     3
100
AcDbText
 10
-31.855087
 20
50.203352
 30
0.0
 40
3.2
  1
－20%%%～－90%%%
  7
高3.2
100
AcDbText
  0
TEXT
  5
1E1
330
36
100
AcDbEntity
  8
0
 62
     7
100
AcDbText
 10
-29.06271499999999
 20
249.64138
 30
0.0
 40
2.5
  1
サーキットブレーカに変更
  7
高2.5
100
AcDbText
  0
TEXT
  5
1E2
330
36
100
AcDbEntity
  8
0
 62
     7
100
AcDbText
 10
14.93728499999996
 20
249.64138
 30
0.0
 40
2.5
  1
那須
  7
高2.5
100
AcDbText
  0
TEXT
  5
1E3
330
36
100
AcDbEntity
  8
0
 62
     7
100
AcDbText
 10
-47.06271499999998
 20
249.64138
 30
0.0
 40
2.5
  1
'00.3.20
  7
高2.5
100
AcDbText
  0
TEXT
  5
1E4
330
36
100
AcDbEntity
  8
0
 62
     3
100
AcDbText
 10
-18.92760589091131
 20
-8.803371999999997
 30
0.0
 40
6.299999999999998
  1
SH-E102
  7
高6.3
100
AcDbText
  0
LINE
  5
1E5
330
36
100
AcDbEntity
  8
0
 62
     3
100
AcDbLine
 10
-249.930355
 20
125.463678
 30
0.0
 11
-249.930355
 21
138.963678
 31
0.0
  0
ARC
  5
1E6
330
36
100
AcDbEntity
  8
0
 62
     3
100
AcDbCircle
 10
-252.430355
 20
131.149637
 30
0.0
 40
2.5
100
AcDbArc
 50
0.0
 51
90.0
  0
LINE
  5
1E7
330
36
100
AcDbEntity
  8
0
 62
     3
100
AcDbLine
 10
-252.430355
 20
133.649637
 30
0.0
 11
-254.930355
 21
133.649637
 31
0.0
  0
LINE
  5
1E8
330
36
100
AcDbEntity
  8
0
 62
     3
100
AcDbLine
 10
-273.30624
 20
131.668452
 30
0.0
 11
-254.930355
 21
133.649637
 31
0.0
  0
ARC
  5
1E9
330
36
100
AcDbEntity
  8
0
 62
     3
100
AcDbCircle
 10
-252.430355
 20
125.463678
 30
0.0
 40
2.5
100
AcDbArc
 50
318.555703
 51
0.0
  0
ARC
  5
1EA
330
36
100
AcDbEntity
  8
0
 62
     3
100
AcDbCircle
 10
-252.430355
 20
125.463678
 30
0.0
 40
2.5
100
AcDbArc
 50
270.0
 51
318.555703
  0
LINE
  5
1EB
330
36
100
AcDbEntity
  8
0
 62
     3
100
AcDbLine
 10
-233.683358
 20
122.963678
 30
0.0
 11
-239.930355
 21
122.963678
 31
0.0
  0
ARC
  5
1EC
330
36
100
AcDbEntity
  8
0
 62
     3
100
AcDbCircle
 10
-233.683358
 20
124.216681
 30
0.0
 40
1.253001999999999
100
AcDbArc
 50
270.0
 51
25.149305
  0
LINE
  5
1ED
330
36
100
AcDbEntity
  8
0
 62
     3
100
AcDbLine
 10
-232.549136
 20
124.74918
 30
0.0
 11
-232.759116
 21
125.196438
 31
0.0
  0
ARC
  5
1EE
330
36
100
AcDbEntity
  8
0
 62
     3
100
AcDbCircle
 10
-229.930355
 20
126.524495
 30
0.0
 40
3.125
100
AcDbArc
 50
180.0
 51
205.149305
  0
ARC
  5
1EF
330
36
100
AcDbEntity
  8
0
 62
     3
100
AcDbCircle
 10
-229.930355
 20
127.024495
 30
0.0
 40
3.125
100
AcDbArc
 50
0.0
 51
180.0
  0
LINE
  5
1F0
330
36
100
AcDbEntity
  8
0
 62
     3
100
AcDbLine
 10
-227.311575
 20
124.74918
 30
0.0
 11
-227.101595
 21
125.196438
 31
0.0
  0
ARC
  5
1F1
330
36
100
AcDbEntity
  8
0
 62
     3
100
AcDbCircle
 10
-229.930355
 20
126.524495
 30
0.0
 40
3.125
100
AcDbArc
 50
334.850695
 51
0.0
  0
ARC
  5
1F2
330
36
100
AcDbEntity
  8
0
 62
     3
100
AcDbCircle
 10
-226.177353
 20
124.216681
 30
0.0
 40
1.253001999999999
100
AcDbArc
 50
154.850695
 51
270.0
  0
LINE
  5
1F3
330
36
100
AcDbEntity
  8
0
 62
     3
100
AcDbLine
 10
-226.177353
 20
122.963678
 30
0.0
 11
-214.930355
 21
122.963678
 31
0.0
  0
LINE
  5
1F4
330
36
100
AcDbEntity
  8
0
 62
     3
100
AcDbLine
 10
-203.683358
 20
122.963678
 30
0.0
 11
-214.930355
 21
122.963678
 31
0.0
  0
ARC
  5
1F5
330
36
100
AcDbEntity
  8
0
 62
     3
100
AcDbCircle
 10
-203.683358
 20
124.216681
 30
0.0
 40
1.253001999999999
100
AcDbArc
 50
270.0
 51
25.149305
  0
LINE
  5
1F6
330
36
100
AcDbEntity
  8
0
 62
     3
100
AcDbLine
 10
-202.549136
 20
124.74918
 30
0.0
 11
-202.759116
 21
125.196438
 31
0.0
  0
ARC
  5
1F7
330
36
100
AcDbEntity
  8
0
 62
     3
100
AcDbCircle
 10
-199.930355
 20
126.524495
 30
0.0
 40
3.125
100
AcDbArc
 50
180.0
 51
205.149305
  0
ARC
  5
1F8
330
36
100
AcDbEntity
  8
0
 62
     3
100
AcDbCircle
 10
-199.930355
 20
127.024495
 30
0.0
 40
3.125
100
AcDbArc
 50
0.0
 51
180.0
  0
LINE
  5
1F9
330
36
100
AcDbEntity
  8
0
 62
     3
100
AcDbLine
 10
-196.805355
 20
127.024495
 30
0.0
 11
-196.805355
 21
126.538732
 31
0.0
  0
ARC
  5
1FA
330
36
100
AcDbEntity
  8
0
 62
     3
100
AcDbCircle
 10
-199.930355
 20
126.524495
 30
0.0
 40
3.125
100
AcDbArc
 50
334.850695
 51
0.0
  0
LINE
  5
1FB
330
36
100
AcDbEntity
  8
0
 62
     3
100
AcDbLine
 10
-197.311575
 20
124.74918
 30
0.0
 11
-197.101595
 21
125.196438
 31
0.0
  0
ARC
  5
1FC
330
36
100
AcDbEntity
  8
0
 62
     3
100
AcDbCircle
 10
-196.177353
 20
124.216681
 30
0.0
 40
1.253001999999999
100
AcDbArc
 50
154.850695
 51
270.0
  0
LINE
  5
1FD
330
36
100
AcDbEntity
  8
0
 62
     3
100
AcDbLine
 10
-196.177353
 20
122.963678
 30
0.0
 11
-189.930355
 21
122.963678
 31
0.0
  0
LINE
  5
1FE
330
36
100
AcDbEntity
  8
0
 62
     3
100
AcDbLine
 10
-203.055355
 20
127.024495
 30
0.0
 11
-203.055355
 21
126.524495
 31
0.0
  0
ARC
  5
1FF
330
36
100
AcDbEntity
  8
0
 62
     3
100
AcDbCircle
 10
-189.930355
 20
143.963678
 30
0.0
 40
21.0
100
AcDbArc
 50
270.0
 51
291.86529
  0
ARC
  5
200
330
36
100
AcDbEntity
  8
0
 62
     3
100
AcDbCircle
 10
-181.178353
 20
122.15422
 30
0.0
 40
2.5
100
AcDbArc
 50
41.44429699999998
 51
111.86529
  0
ARC
  5
201
330
36
100
AcDbEntity
  8
0
 62
     3
100
AcDbCircle
 10
-177.430355
 20
125.463678
 30
0.0
 40
2.5
100
AcDbArc
 50
221.444297
 51
270.0
  0
LINE
  5
202
330
36
100
AcDbEntity
  8
0
 62
     3
100
AcDbLine
 10
-129.930355
 20
122.963678
 30
0.0
 11
-177.430355
 21
122.963678
 31
0.0
  0
ARC
  5
203
330
36
100
AcDbEntity
  8
0
 62
     3
100
AcDbCircle
 10
-129.930355
 20
125.463678
 30
0.0
 40
2.5
100
AcDbArc
 50
270.0
 51
0.0
  0
LINE
  5
204
330
36
100
AcDbEntity
  8
0
 62
     3
100
AcDbLine
 10
-127.430355
 20
127.630471
 30
0.0
 11
-127.430355
 21
125.463678
 31
0.0
  0
ARC
  5
205
330
36
100
AcDbEntity
  8
0
 62
     3
100
AcDbCircle
 10
-128.430355
 20
127.630471
 30
0.0
 40
1.0
100
AcDbArc
 50
0.0
 51
83.84645799999999
  0
LINE
  5
206
330
36
100
AcDbEntity
  8
0
 62
     3
100
AcDbLine
 10
-179.930355
 20
138.963678
 30
0.0
 11
-179.930355
 21
125.463678
 31
0.0
  0
ARC
  5
207
330
36
100
AcDbEntity
  8
0
 62
     3
100
AcDbCircle
 10
-177.430355
 20
131.149637
 30
0.0
 40
2.5
100
AcDbArc
 50
90.0
 51
180.0
  0
LINE
  5
208
330
36
100
AcDbEntity
  8
0
 62
     3
100
AcDbLine
 10
-177.430355
 20
133.649637
 30
0.0
 11
-174.930355
 21
133.649637
 31
0.0
  0
LINE
  5
209
330
36
100
AcDbEntity
  8
0
 62
     3
100
AcDbLine
 10
-128.323162
 20
128.624709
 30
0.0
 11
-174.930355
 21
133.649637
 31
0.0
  0
ARC
  5
20A
330
36
100
AcDbEntity
  8
0
 62
     3
100
AcDbCircle
 10
-177.430355
 20
125.463678
 30
0.0
 40
2.5
100
AcDbArc
 50
180.0
 51
221.444297
  0
LINE
  5
20B
330
36
100
AcDbEntity
  8
0
 62
     3
100
AcDbLine
 10
-184.930355
 20
133.963678
 30
0.0
 11
-194.529742
 21
133.963678
 31
0.0
  0
ARC
  5
20C
330
36
100
AcDbEntity
  8
0
 62
     3
100
AcDbCircle
 10
-199.705355
 20
125.99731
 30
0.0
 40
9.5
100
AcDbArc
 50
56.98890200000001
 51
86.49096
  0
LINE
  5
20D
330
36
100
AcDbEntity
  8
0
 62
     3
100
AcDbLine
 10
-203.730336
 20
135.507723
 30
0.0
 11
-200.719627
 21
135.507723
 31
0.0
  0
ARC
  5
20E
330
36
100
AcDbEntity
  8
0
 62
     3
100
AcDbCircle
 10
-200.155355
 20
126.024495
 30
0.0
 40
9.5
100
AcDbArc
 50
86.59479899999999
 51
93.405201
  0
ARC
  5
20F
330
36
100
AcDbEntity
  8
0
 62
     3
100
AcDbCircle
 10
-203.730336
 20
130.507723
 30
0.0
 40
5.0
100
AcDbArc
 50
90.0
 51
115.594768
  0
ARC
  5
210
330
36
100
AcDbEntity
  8
0
 62
     3
100
AcDbCircle
 10
-214.930355
 20
153.889447
 30
0.0
 40
20.925768
100
AcDbArc
 50
270.684529
 51
295.594768
  0
ARC
  5
211
330
36
100
AcDbEntity
  8
0
 62
     3
100
AcDbCircle
 10
-214.930355
 20
153.889447
 30
0.0
 40
20.925768
100
AcDbArc
 50
244.405232
 51
270.684529
  0
ARC
  5
212
330
36
100
AcDbEntity
  8
0
 62
     3
100
AcDbCircle
 10
-226.130375
 20
130.507723
 30
0.0
 40
5.0
100
AcDbArc
 50
64.405232
 51
90.0
  0
LINE
  5
213
330
36
100
AcDbEntity
  8
0
 62
     3
100
AcDbLine
 10
-226.130375
 20
135.507723
 30
0.0
 11
-229.141084
 21
135.507723
 31
0.0
  0
ARC
  5
214
330
36
100
AcDbEntity
  8
0
 62
     3
100
AcDbCircle
 10
-214.930355
 20
-122.286322
 30
0.0
 40
258.25
100
AcDbArc
 50
93.405201
 51
93.50903999999999
  0
ARC
  5
215
330
36
100
AcDbEntity
  8
0
 62
     3
100
AcDbCircle
 10
-229.705355
 20
126.024495
 30
0.0
 40
9.5
100
AcDbArc
 50
86.59479899999999
 51
93.405201
  0
ARC
  5
216
330
36
100
AcDbEntity
  8
0
 62
     3
100
AcDbCircle
 10
-230.155355
 20
125.99731
 30
0.0
 40
9.5
100
AcDbArc
 50
93.50903999999999
 51
123.011098
  0
LINE
  5
217
330
36
100
AcDbEntity
  8
0
 62
     3
100
AcDbLine
 10
-244.930355
 20
133.963678
 30
0.0
 11
-235.330969
 21
133.963678
 31
0.0
  0
ARC
  5
218
330
36
100
AcDbEntity
  8
0
 62
     3
100
AcDbCircle
 10
-244.930355
 20
138.963678
 30
0.0
 40
5.0
100
AcDbArc
 50
180.0
 51
270.0
  0
LINE
  5
219
330
36
100
AcDbEntity
  8
0
 62
     3
100
AcDbLine
 10
-249.930355
 20
138.963678
 30
0.0
 11
-249.930355
 21
147.407723
 31
0.0
  0
ARC
  5
21A
330
36
100
AcDbEntity
  8
0
 62
     3
100
AcDbCircle
 10
-247.430355
 20
147.407723
 30
0.0
 40
2.5
100
AcDbArc
 50
90.0
 51
180.0
  0
LINE
  5
21B
330
36
100
AcDbEntity
  8
0
 62
     3
100
AcDbLine
 10
-214.930355
 20
149.907723
 30
0.0
 11
-247.430355
 21
149.907723
 31
0.0
  0
LINE
  5
21C
330
36
100
AcDbEntity
  8
0
 62
     3
100
AcDbLine
 10
-182.430355
 20
149.907723
 30
0.0
 11
-214.930355
 21
149.907723
 31
0.0
  0
ARC
  5
21D
330
36
100
AcDbEntity
  8
0
 62
     3
100
AcDbCircle
 10
-182.430355
 20
147.407723
 30
0.0
 40
2.5
100
AcDbArc
 50
0.0
 51
90.0
  0
LINE
  5
21E
330
36
100
AcDbEntity
  8
0
 62
     3
100
AcDbLine
 10
-179.930355
 20
147.407723
 30
0.0
 11
-179.930355
 21
138.963678
 31
0.0
  0
ARC
  5
21F
330
36
100
AcDbEntity
  8
0
 62
     3
100
AcDbCircle
 10
-184.930355
 20
138.963678
 30
0.0
 40
5.0
100
AcDbArc
 50
270.0
 51
0.0
  0
LINE
  5
220
330
36
100
AcDbEntity
  8
0
 62
     3
100
AcDbLine
 10
-163.930355
 20
167.984884
 30
0.0
 11
-163.930355
 21
136.953582
 31
0.0
  0
LINE
  5
221
330
36
100
AcDbEntity
  8
0
 62
     3
100
AcDbLine
 10
-159.05447
 20
173.000479
 30
0.0
 11
-128.323162
 21
176.313757
 31
0.0
  0
ARC
  5
222
330
36
100
AcDbEntity
  8
0
 62
     3
100
AcDbCircle
 10
-128.430355
 20
177.307995
 30
0.0
 40
1.0
100
AcDbArc
 50
276.153542
 51
0.0
  0
LINE
  5
223
330
36
100
AcDbEntity
  8
0
 62
     3
100
AcDbLine
 10
-127.430355
 20
177.290153
 30
0.0
 11
-127.430355
 21
179.474788
 31
0.0
  0
ARC
  5
224
330
36
100
AcDbEntity
  8
0
 62
     3
100
AcDbCircle
 10
-129.930355
 20
179.474788
 30
0.0
 40
2.5
100
AcDbArc
 50
0.0
 51
90.0
  0
LINE
  5
225
330
36
100
AcDbEntity
  8
0
 62
     3
100
AcDbLine
 10
-159.05447
 20
181.974788
 30
0.0
 11
-129.930355
 21
181.974788
 31
0.0
  0
LINE
  5
226
330
36
100
AcDbEntity
  8
0
 62
     3
100
AcDbLine
 10
-159.05447
 20
181.974788
 30
0.0
 11
-214.930355
 21
181.974788
 31
0.0
  0
ARC
  5
227
330
36
100
AcDbEntity
  8
0
 62
     3
100
AcDbCircle
 10
-299.930355
 20
179.474788
 30
0.0
 40
2.5
100
AcDbArc
 50
90.0
 51
180.0
  0
LINE
  5
228
330
36
100
AcDbEntity
  8
0
 62
     3
100
AcDbLine
 10
-302.4303549999999
 20
177.290153
 30
0.0
 11
-302.4303549999999
 21
179.474788
 31
0.0
  0
ARC
  5
229
330
36
100
AcDbEntity
  8
0
 62
     3
100
AcDbCircle
 10
-301.430355
 20
177.307995
 30
0.0
 40
1.0
100
AcDbArc
 50
180.0
 51
263.846458
  0
LINE
  5
22A
330
36
100
AcDbEntity
  8
0
 62
     3
100
AcDbLine
 10
-301.537549
 20
176.313757
 30
0.0
 11
-297.430355
 21
175.870942
 31
0.0
  0
LINE
  5
22B
330
36
100
AcDbEntity
  8
0
 62
     3
100
AcDbLine
 10
-297.430355
 20
129.067524
 30
0.0
 11
-273.30624
 21
131.668452
 31
0.0
  0
LINE
  5
22C
330
36
100
AcDbEntity
  8
0
 62
     3
100
AcDbLine
 10
-301.537549
 20
128.624709
 30
0.0
 11
-297.430355
 21
129.067524
 31
0.0
  0
ARC
  5
22D
330
36
100
AcDbEntity
  8
0
 62
     3
100
AcDbCircle
 10
-301.430355
 20
127.630471
 30
0.0
 40
1.0
100
AcDbArc
 50
96.153542
 51
180.0
  0
LINE
  5
22E
330
36
100
AcDbEntity
  8
0
 62
     3
100
AcDbLine
 10
-302.4303549999999
 20
127.630471
 30
0.0
 11
-302.4303549999999
 21
125.463678
 31
0.0
  0
ARC
  5
22F
330
36
100
AcDbEntity
  8
0
 62
     3
100
AcDbCircle
 10
-299.930355
 20
125.463678
 30
0.0
 40
2.5
100
AcDbArc
 50
180.0
 51
270.0
  0
LINE
  5
230
330
36
100
AcDbEntity
  8
0
 62
     3
100
AcDbLine
 10
-252.430355
 20
122.963678
 30
0.0
 11
-299.930355
 21
122.963678
 31
0.0
  0
ARC
  5
231
330
36
100
AcDbEntity
  8
0
 62
     3
100
AcDbCircle
 10
-270.930355
 20
136.953582
 30
0.0
 40
5.0
100
AcDbArc
 50
276.153542
 51
0.0
  0
LINE
  5
232
330
36
100
AcDbEntity
  8
0
 62
     3
100
AcDbLine
 10
-265.930355
 20
136.953582
 30
0.0
 11
-265.930355
 21
168.019199
 31
0.0
  0
ARC
  5
233
330
36
100
AcDbEntity
  8
0
 62
     3
100
AcDbCircle
 10
-270.930227
 20
168.019199
 30
0.0
 40
5.0
100
AcDbArc
 50
0.0
 51
77.148061
  0
ARC
  5
234
330
36
100
AcDbEntity
  8
0
 62
     3
100
AcDbCircle
 10
-248.682358
 20
122.15422
 30
0.0
 40
2.5
100
AcDbArc
 50
68.13470999999998
 51
138.555703
  0
ARC
  5
235
330
36
100
AcDbEntity
  8
0
 62
     3
100
AcDbCircle
 10
-239.930355
 20
143.963678
 30
0.0
 40
21.0
100
AcDbArc
 50
248.13471
 51
270.0
  0
ARC
  5
236
330
36
100
AcDbEntity
  8
0
 62
     3
100
AcDbCircle
 10
-139.430355
 20
223.119972
 30
0.0
 40
12.0
100
AcDbArc
 50
0.0
 51
86.79519599999997
  0
LINE
  5
237
330
36
100
AcDbEntity
  8
0
 62
     3
100
AcDbLine
 10
-127.430355
 20
223.119972
 30
0.0
 11
-127.430355
 21
220.232046
 31
0.0
  0
ARC
  5
238
330
36
100
AcDbEntity
  8
0
 62
     3
100
AcDbCircle
 10
-214.930355
 20
-1125.267954
 30
0.0
 40
1362.5
100
AcDbArc
 50
86.79519599999997
 51
93.204804
  0
ARC
  5
239
330
36
100
AcDbEntity
  8
0
 62
     3
100
AcDbCircle
 10
-214.930355
 20
1565.732046
 30
0.0
 40
1362.5
100
AcDbArc
 50
266.795196
 51
273.204804
  0
ARC
  5
23A
330
36
100
AcDbEntity
  8
0
 62
     3
100
AcDbCircle
 10
-174.930355
 20
91.981879
 30
0.0
 40
5.0
100
AcDbArc
 50
88.31148199999999
 51
180.0
  0
LINE
  5
23B
330
36
100
AcDbEntity
  8
0
 62
     3
100
AcDbLine
 10
-127.430355
 20
77.68339899999998
 30
0.0
 11
-127.430355
 21
80.57132499999999
 31
0.0
  0
ARC
  5
23C
330
36
100
AcDbEntity
  8
0
 62
     3
100
AcDbCircle
 10
-139.430355
 20
77.68339899999998
 30
0.0
 40
12.0
100
AcDbArc
 50
273.204804
 51
0.0
  0
ARC
  5
23D
330
36
100
AcDbEntity
  8
0
 62
     3
100
AcDbCircle
 10
-139.430355
 20
83.45925200000001
 30
0.0
 40
12.0
100
AcDbArc
 50
0.0
 51
86.79519599999997
  0
ARC
  5
23E
330
36
100
AcDbEntity
  8
0
 62
     3
100
AcDbCircle
 10
-183.930355
 20
92.071325
 30
0.0
 40
4.0
100
AcDbArc
 50
270.0
 51
0.0
  0
LINE
  5
23F
330
36
100
AcDbEntity
  8
0
 62
     3
100
AcDbLine
 10
-249.930355
 20
93.07132499999999
 30
0.0
 11
-179.810223
 21
93.07132499999999
 31
0.0
  0
ARC
  5
240
330
36
100
AcDbEntity
  8
0
 62
     3
100
AcDbCircle
 10
-245.930355
 20
92.071325
 30
0.0
 40
4.0
100
AcDbArc
 50
180.0
 51
270.0
  0
ARC
  5
241
330
36
100
AcDbEntity
  8
0
 62
     3
100
AcDbCircle
 10
-254.930355
 20
91.981879
 30
0.0
 40
5.0
100
AcDbArc
 50
0.0
 51
91.688518
  0
ARC
  5
242
330
36
100
AcDbEntity
  8
0
 62
     3
100
AcDbCircle
 10
-214.930355
 20
-1264.928675
 30
0.0
 40
1362.5
100
AcDbArc
 50
86.79519599999997
 51
93.204804
  0
ARC
  5
243
330
36
100
AcDbEntity
  8
0
 62
     3
100
AcDbCircle
 10
-290.430355
 20
83.45925200000001
 30
0.0
 40
12.0
100
AcDbArc
 50
93.204804
 51
180.0
  0
ARC
  5
244
330
36
100
AcDbEntity
  8
0
 62
     3
100
AcDbCircle
 10
-214.930355
 20
1426.071325
 30
0.0
 40
1362.5
100
AcDbArc
 50
266.795196
 51
273.204804
  0
LINE
  5
245
330
36
100
AcDbEntity
  8
0
 62
     3
100
AcDbLine
 10
-302.4303549999999
 20
77.68339899999998
 30
0.0
 11
-302.4303549999999
 21
83.45925200000001
 31
0.0
  0
ARC
  5
246
330
36
100
AcDbEntity
  8
0
 62
     3
100
AcDbCircle
 10
-290.430355
 20
77.68339899999998
 30
0.0
 40
12.0
100
AcDbArc
 50
180.0
 51
266.795196
  0
ARC
  5
247
330
36
100
AcDbEntity
  8
0
 62
     3
100
AcDbCircle
 10
-290.430355
 20
217.34412
 30
0.0
 40
12.0
100
AcDbArc
 50
180.0
 51
266.795196
  0
LINE
  5
248
330
36
100
AcDbEntity
  8
0
 62
     3
100
AcDbLine
 10
-302.4303549999999
 20
217.34412
 30
0.0
 11
-302.4303549999999
 21
220.232046
 31
0.0
  0
ARC
  5
249
330
36
100
AcDbEntity
  8
0
 62
     3
100
AcDbCircle
 10
-290.430355
 20
223.119972
 30
0.0
 40
12.0
100
AcDbArc
 50
93.204804
 51
180.0
  0
LINE
  5
24A
330
36
100
AcDbEntity
  8
0
 62
     3
100
AcDbLine
 10
-302.4303549999999
 20
223.119972
 30
0.0
 11
-302.4303549999999
 21
220.232046
 31
0.0
  0
ARC
  5
24B
330
36
100
AcDbEntity
  8
0
 62
     3
100
AcDbCircle
 10
-158.930355
 20
167.984884
 30
0.0
 40
5.0
100
AcDbArc
 50
100.798319
 51
180.0
  0
ARC
  5
24C
330
36
100
AcDbEntity
  8
0
 62
     3
100
AcDbCircle
 10
-158.930355
 20
136.953582
 30
0.0
 40
5.0
100
AcDbArc
 50
180.0
 51
259.201681
  0
LINE
  5
24D
330
36
100
AcDbEntity
  8
0
 62
     3
100
AcDbLine
 10
-174.930355
 20
171.288829
 30
0.0
 11
-159.05447
 21
173.000479
 31
0.0
  0
LINE
  5
24E
330
36
100
AcDbEntity
  8
0
 62
     3
100
AcDbLine
 10
-214.930355
 20
171.288829
 30
0.0
 11
-174.930355
 21
171.288829
 31
0.0
  0
LINE
  5
24F
330
36
100
AcDbEntity
  8
0
 62
     3
100
AcDbLine
 10
-214.930355
 20
171.288829
 30
0.0
 11
-254.930355
 21
171.288829
 31
0.0
  0
LINE
  5
250
330
36
100
AcDbEntity
  8
0
 62
     3
100
AcDbLine
 10
-232.430355
 20
80.32132500000001
 30
0.0
 11
-232.430355
 21
73.321325
 31
0.0
  0
LINE
  5
251
330
36
100
AcDbEntity
  8
0
 62
     3
100
AcDbLine
 10
-232.430355
 20
80.821325
 30
0.0
 11
-232.430355
 21
87.82132500000001
 31
0.0
  0
LINE
  5
252
330
36
100
AcDbEntity
  8
0
 62
     3
100
AcDbLine
 10
-227.430355
 20
80.821325
 30
0.0
 11
-227.430355
 21
87.82132500000001
 31
0.0
  0
LINE
  5
253
330
36
100
AcDbEntity
  8
0
 62
     3
100
AcDbLine
 10
-227.430355
 20
80.32132500000001
 30
0.0
 11
-227.430355
 21
73.321325
 31
0.0
  0
ARC
  5
254
330
36
100
AcDbEntity
  8
0
 62
     3
100
AcDbCircle
 10
-227.180355
 20
73.321325
 30
0.0
 40
0.25
100
AcDbArc
 50
180.0
 51
270.0
  0
ARC
  5
255
330
36
100
AcDbEntity
  8
0
 62
     3
100
AcDbCircle
 10
-232.680355
 20
73.321325
 30
0.0
 40
0.25
100
AcDbArc
 50
270.0
 51
0.0
  0
ARC
  5
256
330
36
100
AcDbEntity
  8
0
 62
     3
100
AcDbCircle
 10
-227.180355
 20
87.82132500000001
 30
0.0
 40
0.25
100
AcDbArc
 50
90.0
 51
180.0
  0
ARC
  5
257
330
36
100
AcDbEntity
  8
0
 62
     3
100
AcDbCircle
 10
-232.680355
 20
87.82132500000001
 30
0.0
 40
0.25
100
AcDbArc
 50
0.0
 51
90.0
  0
LINE
  5
258
330
36
100
AcDbEntity
  8
0
 62
     3
100
AcDbLine
 10
-197.430355
 20
80.32132500000001
 30
0.0
 11
-197.430355
 21
73.321325
 31
0.0
  0
LINE
  5
259
330
36
100
AcDbEntity
  8
0
 62
     3
100
AcDbLine
 10
-202.430355
 20
80.32132500000001
 30
0.0
 11
-202.430355
 21
73.321325
 31
0.0
  0
ARC
  5
25A
330
36
100
AcDbEntity
  8
0
 62
     3
100
AcDbCircle
 10
-202.680355
 20
73.321325
 30
0.0
 40
0.25
100
AcDbArc
 50
270.0
 51
0.0
  0
ARC
  5
25B
330
36
100
AcDbEntity
  8
0
 62
     3
100
AcDbCircle
 10
-197.180355
 20
73.321325
 30
0.0
 40
0.25
100
AcDbArc
 50
180.0
 51
270.0
  0
LINE
  5
25C
330
36
100
AcDbEntity
  8
0
 62
     3
100
AcDbLine
 10
-197.430355
 20
80.821325
 30
0.0
 11
-197.430355
 21
87.82132500000001
 31
0.0
  0
ARC
  5
25D
330
36
100
AcDbEntity
  8
0
 62
     3
100
AcDbCircle
 10
-197.180355
 20
87.82132500000001
 30
0.0
 40
0.25
100
AcDbArc
 50
90.0
 51
180.0
  0
ARC
  5
25E
330
36
100
AcDbEntity
  8
0
 62
     3
100
AcDbCircle
 10
-202.680355
 20
87.82132500000001
 30
0.0
 40
0.25
100
AcDbArc
 50
0.0
 51
90.0
  0
LINE
  5
25F
330
36
100
AcDbEntity
  8
0
 62
     3
100
AcDbLine
 10
-202.430355
 20
80.821325
 30
0.0
 11
-202.430355
 21
87.82132500000001
 31
0.0
  0
LINE
  5
260
330
36
100
AcDbEntity
  8
0
 62
     3
100
AcDbLine
 10
-299.930355
 20
181.974788
 30
0.0
 11
-214.930355
 21
181.974788
 31
0.0
  0
LINE
  5
261
330
36
100
AcDbEntity
  8
0
 62
     3
100
AcDbLine
 10
-254.930355
 20
171.288829
 30
0.0
 11
-297.430355
 21
175.870942
 31
0.0
  0
LINE
  5
262
330
36
100
AcDbEntity
  8
0
 62
     3
100
AcDbLine
 10
-295.430355
 20
80.57132499999999
 30
0.0
 11
-302.4303549999999
 21
80.57132499999999
 31
0.0
  0
LINE
  5
263
330
36
100
AcDbEntity
  8
0
 62
     3
100
AcDbLine
 10
-127.430355
 20
217.34412
 30
0.0
 11
-127.430355
 21
220.232046
 31
0.0
  0
LINE
  5
264
330
36
100
AcDbEntity
  8
0
 62
     3
100
AcDbLine
 10
-127.430355
 20
83.45925200000001
 30
0.0
 11
-127.430355
 21
80.57132499999999
 31
0.0
  0
LINE
  5
265
330
36
100
AcDbEntity
  8
0
 62
     3
100
AcDbLine
 10
-271.80624
 20
215.603765
 30
0.0
 11
-271.80624
 21
219.982046
 31
0.0
  0
LINE
  5
266
330
36
100
AcDbEntity
  8
0
 62
     3
100
AcDbLine
 10
-271.80624
 20
224.814868
 30
0.0
 11
-271.80624
 21
220.482046
 31
0.0
  0
ARC
  5
267
330
36
100
AcDbEntity
  8
0
 62
     3
100
AcDbCircle
 10
-214.930355
 20
-1125.267954
 30
0.0
 40
1355.5
100
AcDbArc
 50
92.58165899999999
 51
93.204804
  0
ARC
  5
268
330
36
100
AcDbEntity
  8
0
 62
     3
100
AcDbCircle
 10
-290.430355
 20
223.119972
 30
0.0
 40
5.0
100
AcDbArc
 50
93.204804
 51
180.0
  0
LINE
  5
269
330
36
100
AcDbEntity
  8
0
 62
     3
100
AcDbLine
 10
-295.430355
 20
223.119972
 30
0.0
 11
-295.430355
 21
217.34412
 31
0.0
  0
ARC
  5
26A
330
36
100
AcDbEntity
  8
0
 62
     3
100
AcDbCircle
 10
-290.430355
 20
217.34412
 30
0.0
 40
5.0
100
AcDbArc
 50
180.0
 51
266.795196
  0
ARC
  5
26B
330
36
100
AcDbEntity
  8
0
 62
     3
100
AcDbCircle
 10
-214.930355
 20
1565.732046
 30
0.0
 40
1355.5
100
AcDbArc
 50
266.795196
 51
267.418341
  0
LINE
  5
26C
330
36
100
AcDbEntity
  8
0
 62
     3
100
AcDbLine
 10
-158.05447
 20
224.814868
 30
0.0
 11
-158.05447
 21
220.482046
 31
0.0
  0
ARC
  5
26D
330
36
100
AcDbEntity
  8
0
 62
     3
100
AcDbCircle
 10
-214.930355
 20
-1125.267954
 30
0.0
 40
1355.5
100
AcDbArc
 50
86.79519599999997
 51
87.418341
  0
ARC
  5
26E
330
36
100
AcDbEntity
  8
0
 62
     3
100
AcDbCircle
 10
-139.430355
 20
223.119972
 30
0.0
 40
5.0
100
AcDbArc
 50
0.0
 51
86.79519599999997
  0
LINE
  5
26F
330
36
100
AcDbEntity
  8
0
 62
     3
100
AcDbLine
 10
-134.430355
 20
223.119972
 30
0.0
 11
-134.430355
 21
217.34412
 31
0.0
  0
ARC
  5
270
330
36
100
AcDbEntity
  8
0
 62
     3
100
AcDbCircle
 10
-139.430355
 20
217.34412
 30
0.0
 40
5.0
100
AcDbArc
 50
273.204804
 51
0.0
  0
ARC
  5
271
330
36
100
AcDbEntity
  8
0
 62
     3
100
AcDbCircle
 10
-214.930355
 20
1565.732046
 30
0.0
 40
1355.5
100
AcDbArc
 50
272.581659
 51
273.204804
  0
LINE
  5
272
330
36
100
AcDbEntity
  8
0
 62
     3
100
AcDbLine
 10
-158.05447
 20
215.603765
 30
0.0
 11
-158.05447
 21
219.982046
 31
0.0
  0
LINE
  5
273
330
36
100
AcDbEntity
  8
0
 62
     3
100
AcDbLine
 10
-183.930355
 20
88.07132499999999
 30
0.0
 11
-197.180355
 21
88.07132499999999
 31
0.0
  0
LINE
  5
274
330
36
100
AcDbEntity
  8
0
 62
     3
100
AcDbLine
 10
-202.680355
 20
88.07132499999999
 30
0.0
 11
-214.930355
 21
88.07132499999999
 31
0.0
  0
LINE
  5
275
330
36
100
AcDbEntity
  8
0
 62
     3
100
AcDbLine
 10
-183.930355
 20
73.071325
 30
0.0
 11
-197.180355
 21
73.071325
 31
0.0
  0
LINE
  5
276
330
36
100
AcDbEntity
  8
0
 62
     3
100
AcDbLine
 10
-202.680355
 20
73.071325
 30
0.0
 11
-214.930355
 21
73.071325
 31
0.0
  0
LINE
  5
277
330
36
100
AcDbEntity
  8
0
 62
     3
100
AcDbLine
 10
-245.930355
 20
88.07132499999999
 30
0.0
 11
-232.680355
 21
88.07132499999999
 31
0.0
  0
LINE
  5
278
330
36
100
AcDbEntity
  8
0
 62
     3
100
AcDbLine
 10
-227.180355
 20
88.07132499999999
 30
0.0
 11
-214.930355
 21
88.07132499999999
 31
0.0
  0
ARC
  5
279
330
36
100
AcDbEntity
  8
0
 62
     3
100
AcDbCircle
 10
-214.930355
 20
-1264.928675
 30
0.0
 40
1355.5
100
AcDbArc
 50
86.79519599999997
 51
87.418341
  0
ARC
  5
27A
330
36
100
AcDbEntity
  8
0
 62
     3
100
AcDbCircle
 10
-139.430355
 20
83.45925200000001
 30
0.0
 40
5.0
100
AcDbArc
 50
0.0
 51
86.79519599999997
  0
LINE
  5
27B
330
36
100
AcDbEntity
  8
0
 62
     3
100
AcDbLine
 10
-134.430355
 20
77.68339899999998
 30
0.0
 11
-134.430355
 21
80.57132499999999
 31
0.0
  0
ARC
  5
27C
330
36
100
AcDbEntity
  8
0
 62
     3
100
AcDbCircle
 10
-139.430355
 20
77.68339899999998
 30
0.0
 40
5.0
100
AcDbArc
 50
273.204804
 51
0.0
  0
ARC
  5
27D
330
36
100
AcDbEntity
  8
0
 62
     3
100
AcDbCircle
 10
-214.930355
 20
1426.071325
 30
0.0
 40
1355.5
100
AcDbArc
 50
272.581659
 51
273.204804
  0
LINE
  5
27E
330
36
100
AcDbEntity
  8
0
 62
     3
100
AcDbLine
 10
-158.05447
 20
85.15414699999999
 30
0.0
 11
-158.05447
 21
80.821325
 31
0.0
  0
LINE
  5
27F
330
36
100
AcDbEntity
  8
0
 62
     3
100
AcDbLine
 10
-134.430355
 20
83.45925200000001
 30
0.0
 11
-134.430355
 21
80.57132499999999
 31
0.0
  0
LINE
  5
280
330
36
100
AcDbEntity
  8
0
 62
     3
100
AcDbLine
 10
-158.05447
 20
75.943044
 30
0.0
 11
-158.05447
 21
80.32132500000001
 31
0.0
  0
LINE
  5
281
330
36
100
AcDbEntity
  8
0
 62
     3
100
AcDbLine
 10
-271.80624
 20
75.943044
 30
0.0
 11
-271.80624
 21
80.32132500000001
 31
0.0
  0
LINE
  5
282
330
36
100
AcDbEntity
  8
0
 62
     3
100
AcDbLine
 10
-271.80624
 20
85.15414699999999
 30
0.0
 11
-271.80624
 21
80.821325
 31
0.0
  0
LINE
  5
283
330
36
100
AcDbEntity
  8
0
 62
     3
100
AcDbLine
 10
-295.430355
 20
77.68339899999998
 30
0.0
 11
-295.430355
 21
80.57132499999999
 31
0.0
  0
ARC
  5
284
330
36
100
AcDbEntity
  8
0
 62
     3
100
AcDbCircle
 10
-214.930355
 20
-1264.928675
 30
0.0
 40
1355.5
100
AcDbArc
 50
92.58165899999999
 51
93.204804
  0
ARC
  5
285
330
36
100
AcDbEntity
  8
0
 62
     3
100
AcDbCircle
 10
-214.930355
 20
1426.071325
 30
0.0
 40
1355.5
100
AcDbArc
 50
266.795196
 51
267.418341
  0
LINE
  5
286
330
36
100
AcDbEntity
  8
0
 62
     3
100
AcDbLine
 10
-227.180355
 20
73.071325
 30
0.0
 11
-214.930355
 21
73.071325
 31
0.0
  0
LINE
  5
287
330
36
100
AcDbEntity
  8
0
 62
     3
100
AcDbLine
 10
-245.930355
 20
73.071325
 30
0.0
 11
-232.680355
 21
73.071325
 31
0.0
  0
ARC
  5
288
330
36
100
AcDbEntity
  8
0
 62
     3
100
AcDbCircle
 10
-245.930355
 20
69.071325
 30
0.0
 40
4.0
100
AcDbArc
 50
90.0
 51
180.0
  0
ARC
  5
289
330
36
100
AcDbEntity
  8
0
 62
     3
100
AcDbCircle
 10
-183.930355
 20
69.071325
 30
0.0
 40
4.0
100
AcDbArc
 50
0.0
 51
90.0
  0
ARC
  5
28A
330
36
100
AcDbEntity
  8
0
 62
     3
100
AcDbCircle
 10
-174.930355
 20
69.160772
 30
0.0
 40
5.0
100
AcDbArc
 50
180.0
 51
271.6885180000001
  0
ARC
  5
28B
330
36
100
AcDbEntity
  8
0
 62
     3
100
AcDbCircle
 10
-290.430355
 20
83.45925200000001
 30
0.0
 40
5.0
100
AcDbArc
 50
93.204804
 51
180.0
  0
ARC
  5
28C
330
36
100
AcDbEntity
  8
0
 62
     3
100
AcDbCircle
 10
-290.430355
 20
77.68339899999998
 30
0.0
 40
5.0
100
AcDbArc
 50
180.0
 51
266.795196
  0
LINE
  5
28D
330
36
100
AcDbEntity
  8
0
 62
     3
100
AcDbLine
 10
-295.430355
 20
83.45925200000001
 30
0.0
 11
-295.430355
 21
80.57132499999999
 31
0.0
  0
ARC
  5
28E
330
36
100
AcDbEntity
  8
0
 62
     3
100
AcDbCircle
 10
-254.880159
 20
216.535129
 30
0.0
 40
8.9
100
AcDbArc
 50
180.0
 51
270.0
  0
LINE
  5
28F
330
36
100
AcDbEntity
  8
0
 62
     3
100
AcDbLine
 10
-263.780159
 20
216.535129
 30
0.0
 11
-263.780159
 21
223.935129
 31
0.0
  0
ARC
  5
290
330
36
100
AcDbEntity
  8
0
 62
     3
100
AcDbCircle
 10
-254.880159
 20
223.935129
 30
0.0
 40
8.9
100
AcDbArc
 50
90.0
 51
180.0
  0
LINE
  5
291
330
36
100
AcDbEntity
  8
0
 62
     3
100
AcDbLine
 10
-174.980159
 20
232.835129
 30
0.0
 11
-254.880159
 21
232.835129
 31
0.0
  0
ARC
  5
292
330
36
100
AcDbEntity
  8
0
 62
     3
100
AcDbCircle
 10
-174.980159
 20
223.935129
 30
0.0
 40
8.9
100
AcDbArc
 50
0.0
 51
90.0
  0
LINE
  5
293
330
36
100
AcDbEntity
  8
0
 62
     3
100
AcDbLine
 10
-166.080159
 20
216.535129
 30
0.0
 11
-166.080159
 21
223.935129
 31
0.0
  0
ARC
  5
294
330
36
100
AcDbEntity
  8
0
 62
     3
100
AcDbCircle
 10
-174.980159
 20
216.535129
 30
0.0
 40
8.9
100
AcDbArc
 50
270.0
 51
0.0
  0
LINE
  5
295
330
36
100
AcDbEntity
  8
0
 62
     3
100
AcDbLine
 10
-174.980159
 20
207.635129
 30
0.0
 11
-254.880159
 21
207.635129
 31
0.0
  0
LINE
  5
29D
330
36
100
AcDbEntity
  8
0
100
AcDbLine
 10
-61.339765
 20
135.1299159999999
 30
0.0
 11
-61.339765
 21
136.629916
 31
0.0
  0
ARC
  5
29E
330
36
100
AcDbEntity
  8
0
100
AcDbCircle
 10
-61.83976499999999
 20
135.1299159999999
 30
0.0
 40
0.5
100
AcDbArc
 50
270.0
 51
0.0
  0
LINE
  5
29F
330
36
100
AcDbEntity
  8
0
100
AcDbLine
 10
-65.189765
 20
134.629916
 30
0.0
 11
-61.83976499999999
 21
134.629916
 31
0.0
  0
ARC
  5
2A0
330
36
100
AcDbEntity
  8
0
100
AcDbCircle
 10
-65.189765
 20
135.1299159999999
 30
0.0
 40
0.5
100
AcDbArc
 50
180.0
 51
270.0
  0
LINE
  5
2A1
330
36
100
AcDbEntity
  8
0
100
AcDbLine
 10
-65.68976500000001
 20
135.1299159999999
 30
0.0
 11
-65.68976500000001
 21
136.629916
 31
0.0
  0
LINE
  5
2A2
330
36
100
AcDbEntity
  8
0
100
AcDbLine
 10
-158.05447
 20
219.982046
 30
0.0
 11
-166.055355
 21
219.982046
 31
0.0
  0
LINE
  5
2A3
330
36
100
AcDbEntity
  8
0
100
AcDbLine
 10
-271.80624
 20
219.982046
 30
0.0
 11
-263.8053549999999
 21
219.982046
 31
0.0
  0
ARC
  5
2A4
330
36
100
AcDbEntity
  8
0
100
AcDbCircle
 10
-161.55447
 20
93.82690999999999
 30
0.0
 40
1.0
100
AcDbArc
 50
0.0
 51
90.0
  0
LINE
  5
2A5
330
36
100
AcDbEntity
  8
0
100
AcDbLine
 10
-160.55447
 20
80.821325
 30
0.0
 11
-160.55447
 21
93.82690999999999
 31
0.0
  0
LINE
  5
2A6
330
36
100
AcDbEntity
  8
0
100
AcDbLine
 10
-161.55447
 20
94.82691
 30
0.0
 11
-176.430355
 21
94.82691
 31
0.0
  0
ARC
  5
2A7
330
36
100
AcDbEntity
  8
0
100
AcDbCircle
 10
-176.430355
 20
93.82690999999999
 30
0.0
 40
1.0
100
AcDbArc
 50
90.0
 51
180.0
  0
LINE
  5
2A8
330
36
100
AcDbEntity
  8
0
100
AcDbLine
 10
-177.430355
 20
93.82690999999999
 30
0.0
 11
-177.430355
 21
80.32132500000001
 31
0.0
  0
LINE
  5
2A9
330
36
100
AcDbEntity
  8
0
100
AcDbLine
 10
-177.430355
 20
67.315741
 30
0.0
 11
-177.430355
 21
80.32132500000001
 31
0.0
  0
ARC
  5
2AA
330
36
100
AcDbEntity
  8
0
100
AcDbCircle
 10
-176.430355
 20
67.315741
 30
0.0
 40
1.0
100
AcDbArc
 50
180.0
 51
270.0
  0
LINE
  5
2AB
330
36
100
AcDbEntity
  8
0
100
AcDbLine
 10
-161.55447
 20
66.315741
 30
0.0
 11
-176.430355
 21
66.315741
 31
0.0
  0
ARC
  5
2AC
330
36
100
AcDbEntity
  8
0
100
AcDbCircle
 10
-161.55447
 20
67.315741
 30
0.0
 40
1.0
100
AcDbArc
 50
270.0
 51
0.0
  0
LINE
  5
2AD
330
36
100
AcDbEntity
  8
0
100
AcDbLine
 10
-160.55447
 20
80.821325
 30
0.0
 11
-160.55447
 21
67.315741
 31
0.0
  0
LINE
  5
2AE
330
36
100
AcDbEntity
  8
0
100
AcDbLine
 10
-158.55447
 20
80.32132500000001
 30
0.0
 11
-158.55447
 21
80.821325
 31
0.0
  0
LINE
  5
2AF
330
36
100
AcDbEntity
  8
0
100
AcDbLine
 10
-179.430355
 20
80.32132500000001
 30
0.0
 11
-179.430355
 21
80.821325
 31
0.0
  0
LINE
  5
2B0
330
36
100
AcDbEntity
  8
0
100
AcDbLine
 10
-197.171638
 20
80.32132500000001
 30
0.0
 11
-197.171638
 21
80.821325
 31
0.0
  0
LINE
  5
2B1
330
36
100
AcDbEntity
  8
0
100
AcDbLine
 10
-214.930355
 20
80.32132500000001
 30
0.0
 11
-177.430355
 21
80.32132500000001
 31
0.0
  0
LINE
  5
2B2
330
36
100
AcDbEntity
  8
0
100
AcDbLine
 10
-202.689073
 20
80.32132500000001
 30
0.0
 11
-202.689073
 21
80.821325
 31
0.0
  0
LINE
  5
2B3
330
36
100
AcDbEntity
  8
0
100
AcDbLine
 10
-227.171638
 20
80.821325
 30
0.0
 11
-227.171638
 21
80.32132500000001
 31
0.0
  0
LINE
  5
2B4
330
36
100
AcDbEntity
  8
0
100
AcDbLine
 10
-232.689073
 20
80.821325
 30
0.0
 11
-232.689073
 21
80.32132500000001
 31
0.0
  0
LINE
  5
2B5
330
36
100
AcDbEntity
  8
0
100
AcDbLine
 10
-250.430355
 20
80.821325
 30
0.0
 11
-250.430355
 21
80.32132500000001
 31
0.0
  0
LINE
  5
2B6
330
36
100
AcDbEntity
  8
0
100
AcDbLine
 10
-271.30624
 20
80.821325
 30
0.0
 11
-271.30624
 21
80.32132500000001
 31
0.0
  0
LINE
  5
2B7
330
36
100
AcDbEntity
  8
0
100
AcDbLine
 10
-271.80624
 20
80.821325
 30
0.0
 11
-269.30624
 21
80.821325
 31
0.0
  0
LINE
  5
2B8
330
36
100
AcDbEntity
  8
0
100
AcDbLine
 10
-214.930355
 20
80.821325
 30
0.0
 11
-252.430355
 21
80.821325
 31
0.0
  0
LINE
  5
2B9
330
36
100
AcDbEntity
  8
0
100
AcDbLine
 10
-214.930355
 20
80.821325
 30
0.0
 11
-177.430355
 21
80.821325
 31
0.0
  0
LINE
  5
2BA
330
36
100
AcDbEntity
  8
0
100
AcDbLine
 10
-158.05447
 20
80.821325
 30
0.0
 11
-160.55447
 21
80.821325
 31
0.0
  0
ARC
  5
2BB
330
36
100
AcDbEntity
  8
0
100
AcDbCircle
 10
-253.430355
 20
93.82690999999999
 30
0.0
 40
1.0
100
AcDbArc
 50
0.0
 51
90.0
  0
LINE
  5
2BC
330
36
100
AcDbEntity
  8
0
100
AcDbLine
 10
-268.30624
 20
94.82691
 30
0.0
 11
-253.430355
 21
94.82691
 31
0.0
  0
LINE
  5
2BD
330
36
100
AcDbEntity
  8
0
100
AcDbLine
 10
-252.430355
 20
67.315741
 30
0.0
 11
-252.430355
 21
93.82690999999999
 31
0.0
  0
ARC
  5
2BE
330
36
100
AcDbEntity
  8
0
100
AcDbCircle
 10
-268.30624
 20
93.82690999999999
 30
0.0
 40
1.0
100
AcDbArc
 50
90.0
 51
180.0
  0
LINE
  5
2BF
330
36
100
AcDbEntity
  8
0
100
AcDbLine
 10
-269.30624
 20
93.82690999999999
 30
0.0
 11
-269.30624
 21
67.315741
 31
0.0
  0
ARC
  5
2C0
330
36
100
AcDbEntity
  8
0
100
AcDbCircle
 10
-268.30624
 20
67.315741
 30
0.0
 40
1.0
100
AcDbArc
 50
180.0
 51
270.0
  0
LINE
  5
2C1
330
36
100
AcDbEntity
  8
0
100
AcDbLine
 10
-268.30624
 20
66.315741
 30
0.0
 11
-253.430355
 21
66.315741
 31
0.0
  0
ARC
  5
2C2
330
36
100
AcDbEntity
  8
0
100
AcDbCircle
 10
-253.430355
 20
67.315741
 30
0.0
 40
1.0
100
AcDbArc
 50
270.0
 51
0.0
  0
LINE
  5
2C3
330
36
100
AcDbEntity
  8
0
100
AcDbLine
 10
-70.32431899999997
 20
83.62636
 30
0.0
 11
6.144993
 21
83.62636
 31
0.0
  0
LINE
  5
2C6
330
36
100
AcDbEntity
  8
0
 62
     3
100
AcDbLine
 10
1.737922
 20
6.807102999999997
 30
0.0
 11
1.737922
 21
29.807103
 31
0.0
  0
LINE
  5
2C8
330
36
100
AcDbEntity
  8
0
 62
     3
100
AcDbLine
 10
-51.315688
 20
-0.192897
 30
0.0
 11
-51.315688
 21
13.807103
 31
0.0
  0
TEXT
  5
2CA
330
36
100
AcDbEntity
  8
0
 62
     3
100
AcDbText
 10
-22.25176
 20
26.012219
 30
0.0
 40
2.0
  1
A
 41
0.7
100
AcDbText
  0
TEXT
  5
2CB
330
36
100
AcDbEntity
  8
0
 62
     3
100
AcDbText
 10
-19.716474
 20
26.012219
 30
0.0
 40
2.0
  1
P
 41
0.7
100
AcDbText
  0
TEXT
  5
2CC
330
36
100
AcDbEntity
  8
0
 62
     3
100
AcDbText
 10
-17.181188
 20
26.012219
 30
0.0
 40
2.0
  1
P
 41
0.7
100
AcDbText
  0
TEXT
  5
2CD
330
36
100
AcDbEntity
  8
0
 62
     3
100
AcDbText
 10
-14.645902
 20
26.012219
 30
0.0
 40
2.0
  1
D
 41
0.7
100
AcDbText
  0
TEXT
  5
2CE
330
36
100
AcDbEntity
  8
0
 62
     3
100
AcDbText
 10
-9.277219
 20
26.012219
 30
0.0
 40
2.0
  1
C
 41
0.7
100
AcDbText
  0
TEXT
  5
2CF
330
36
100
AcDbEntity
  8
0
 62
     3
100
AcDbText
 10
-6.741932
 20
26.012219
 30
0.0
 40
2.0
  1
H
 41
0.7
100
AcDbText
  0
TEXT
  5
2D0
330
36
100
AcDbEntity
  8
0
 62
     3
100
AcDbText
 10
-4.206646
 20
26.012219
 30
0.0
 40
2.0
  1
C
 41
0.7
100
AcDbText
  0
TEXT
  5
2D1
330
36
100
AcDbEntity
  8
0
 62
     3
100
AcDbText
 10
-1.671359999999999
 20
26.012219
 30
0.0
 40
2.0
  1
K
 41
0.7
100
AcDbText
  0
TEXT
  5
2D2
330
36
100
AcDbEntity
  8
0
 62
     3
100
AcDbText
 10
4.002607
 20
26.012219
 30
0.0
 40
2.0
  1
DESN
 41
1.216762999999998
100
AcDbText
  0
TEXT
  5
2D3
330
36
100
AcDbEntity
  8
0
 62
     3
100
AcDbText
 10
-81.003752
 20
-3.334278999999998
 30
0.0
 40
2.0
  1
NICHIDO IND.CO.LTD
 41
1.274876
100
AcDbText
  0
LINE
  5
2D4
330
36
100
AcDbEntity
  8
0
 62
     3
100
AcDbLine
 10
-70.620723
 20
29.807103
 30
0.0
 11
-70.620723
 21
6.807102999999997
 31
0.0
  0
LINE
  5
2D5
330
36
100
AcDbEntity
  8
0
 62
     3
100
AcDbLine
 10
-24.262078
 20
29.807103
 30
0.0
 11
-24.262078
 21
-9.85862
 31
0.0
  0
LINE
  5
2DA
330
36
100
AcDbEntity
  8
0
 62
     3
100
AcDbLine
 10
-11.262078
 20
29.807103
 30
0.0
 11
-11.262078
 21
-0.192897
 31
0.0
  0
TEXT
  5
2DB
330
36
100
AcDbEntity
  8
0
 62
     3
100
AcDbText
 10
-23.149634
 20
0.6717900000000001
 30
0.0
 40
3.2
  1
作成日
 41
1.017225999999997
100
AcDbText
  0
LINE
  5
2DC
330
36
100
AcDbEntity
  8
0
 62
     3
100
AcDbLine
 10
27.437285
 20
29.807103
 30
0.0
 11
-83.86615799999999
 21
29.807103
 31
0.0
  0
LINE
  5
2DD
330
36
100
AcDbEntity
  8
0
 62
     3
100
AcDbLine
 10
14.737922
 20
6.807102999999997
 30
0.0
 11
14.737922
 21
29.807103
 31
0.0
  0
TEXT
  5
2DE
330
36
100
AcDbEntity
  8
0
 62
     3
100
AcDbText
 10
18.061725
 20
26.098038
 30
0.0
 40
1.8
  1
D
 41
0.666667
100
AcDbText
  0
TEXT
  5
2DF
330
36
100
AcDbEntity
  8
0
 62
     3
100
AcDbText
 10
20.878353
 20
26.098038
 30
0.0
 40
1.8
  1
E
 41
0.666667
100
AcDbText
  0
TEXT
  5
2E0
330
36
100
AcDbEntity
  8
0
 62
     3
100
AcDbText
 10
23.694981
 20
26.098038
 30
0.0
 40
1.8
  1
F
 41
0.666667
100
AcDbText
  0
TEXT
  5
2E1
330
36
100
AcDbEntity
  8
0
 62
     3
100
AcDbText
 10
18.061725
 20
22.105484
 30
0.0
 40
3.2
  1
製図
 41
1.076369
100
AcDbText
  0
LINE
  5
2E2
330
36
100
AcDbEntity
  8
0
 62
     3
100
AcDbLine
 10
-83.86615799999999
 20
29.807103
 30
0.0
 11
-83.86615799999999
 21
-9.85862
 31
0.0
  0
TEXT
  5
2E3
330
36
100
AcDbEntity
  8
0
 62
     3
100
AcDbText
 10
-82.48950500000002
 20
-9.526154
 30
0.0
 40
5.0
  1
日動工業株式会社
 41
0.833333
100
AcDbText
  0
LINE
  5
2E4
330
36
100
AcDbEntity
  8
0
 62
     3
100
AcDbLine
 10
-40.983754
 20
13.807103
 30
0.0
 11
-40.983754
 21
-9.85862
 31
0.0
  0
LINE
  5
2E5
330
36
100
AcDbEntity
  8
0
 62
     3
100
AcDbLine
 10
-40.983754
 20
-5.025758
 30
0.0
 11
-24.262078
 21
-5.025758
 31
0.0
  0
TEXT
  5
2E6
330
36
100
AcDbEntity
  8
0
 62
     3
100
AcDbText
 10
-40.39715199999998
 20
-4.209328
 30
0.0
 40
3.2
  1
出図コード
 41
0.8356860000000001
100
AcDbText
  0
LINE
  5
2E8
330
36
100
AcDbEntity
  8
0
 62
     3
100
AcDbLine
 10
-83.86615799999999
 20
-0.192897
 30
0.0
 11
27.437285
 21
-0.192897
 31
0.0
  0
LINE
  5
2EA
330
36
100
AcDbEntity
  8
0
 62
     3
100
AcDbLine
 10
-83.86615799999999
 20
20.807103
 30
0.0
 11
27.437285
 21
20.807103
 31
0.0
  0
LINE
  5
2F0
330
36
100
AcDbEntity
  8
0
 62
     3
100
AcDbLine
 10
-83.86615799999999
 20
13.807103
 30
0.0
 11
-24.262078
 21
13.807103
 31
0.0
  0
LINE
  5
2F6
330
36
100
AcDbEntity
  8
0
 62
     3
100
AcDbLine
 10
-83.86615799999999
 20
6.807102999999997
 30
0.0
 11
27.437285
 21
6.807102999999997
 31
0.0
  0
TEXT
  5
2F7
330
36
100
AcDbEntity
  8
0
 62
     3
100
AcDbText
 10
-40.5297
 20
-9.415925864627412
 30
0.0
 40
3.2
  1
ZK-A3X
 41
0.8112849999999999
100
AcDbText
  0
TEXT
  5
2F8
330
36
100
AcDbEntity
  8
0
 62
     3
100
AcDbText
 10
-82.04876099999998
 20
25.976629
 30
0.0
 40
2.0
  1
CONPONENTS
 41
0.5331600000000001
100
AcDbText
  0
TEXT
  5
2F9
330
36
100
AcDbEntity
  8
0
 62
     3
100
AcDbText
 10
-82.39848700000001
 20
7.044452
 30
0.0
 40
3.0
  1
材
 41
0.833333
100
AcDbText
  0
TEXT
  5
2FA
330
36
100
AcDbEntity
  8
0
 62
     3
100
AcDbText
 10
-74.862845
 20
7.044452
 30
0.0
 40
3.0
  1
質
 41
0.833333
100
AcDbText
  0
TEXT
  5
2FB
330
36
100
AcDbEntity
  8
0
 62
     3
100
AcDbText
 10
-82.310417
 20
17.668977
 30
0.0
 40
2.0
  1
MODEL
 41
1.031072999999999
100
AcDbText
  0
TEXT
  5
2FC
330
36
100
AcDbEntity
  8
0
 62
     3
100
AcDbText
 10
-82.39848700000001
 20
10.72676
 30
0.0
 40
2.0
  1
MATERIAL
 41
0.659278
100
AcDbText
  0
TEXT
  5
2FD
330
36
100
AcDbEntity
  8
0
 62
     3
100
AcDbText
 10
-51.091207
 20
7.044452
 30
0.0
 40
3.0
  1
備
 41
0.833333
100
AcDbText
  0
TEXT
  5
2FE
330
36
100
AcDbEntity
  8
0
 62
     3
100
AcDbText
 10
-44.358205
 20
7.044452
 30
0.0
 40
3.0
  1
考
 41
0.833333
100
AcDbText
  0
TEXT
  5
2FF
330
36
100
AcDbEntity
  8
0
 62
     3
100
AcDbText
 10
-50.78659501875245
 20
10.72676
 30
0.0
 40
2.0
  1
REMARKS
 41
0.675794
100
AcDbText
  0
TEXT
  5
300
330
36
100
AcDbEntity
  8
0
 62
     3
100
AcDbText
 10
-80.80875799999999
 20
3.80664
 30
0.0
 40
2.0
  1
3AD
 41
1.42614
100
AcDbText
  0
TEXT
  5
301
330
36
100
AcDbEntity
  8
0
 62
     3
100
AcDbText
 10
-71.49777799999998
 20
3.972373
 30
0.0
 40
2.0
  1
ANGLE
 41
1.669883999999996
100
AcDbText
  0
TEXT
  5
302
330
36
100
AcDbEntity
  8
0
 62
     3
100
AcDbText
 10
-50.563891
 20
3.595531999999998
 30
0.0
 40
2.0
  1
SCALE
 41
0.7719630000000001
100
AcDbText
  0
TEXT
  5
303
330
36
100
AcDbEntity
  8
0
 62
     3
100
AcDbText
 10
-81.12262800000001
 20
-0.192897
 30
0.0
 40
3.0
  1
第
 41
0.833333
100
AcDbText
  0
TEXT
  5
304
330
36
100
AcDbEntity
  8
0
 62
     3
100
AcDbText
 10
-73.335778
 20
-0.192897
 30
0.0
 40
3.0
  1
三
 41
0.833333
100
AcDbText
  0
TEXT
  5
305
330
36
100
AcDbEntity
  8
0
 62
     3
100
AcDbText
 10
-65.54892800000001
 20
-0.192897
 30
0.0
 40
3.0
  1
角
 41
0.833333
100
AcDbText
  0
TEXT
  5
306
330
36
100
AcDbEntity
  8
0
 62
     3
100
AcDbText
 10
-57.762078
 20
-0.192897
 30
0.0
 40
3.0
  1
法
 41
0.833333
100
AcDbText
  0
TEXT
  5
307
330
36
100
AcDbEntity
  8
0
 62
     3
100
AcDbText
 10
-50.70068599999999
 20
0.095532
 30
0.0
 40
3.0
  1
尺
 41
0.833333
100
AcDbText
  0
TEXT
  5
308
330
36
100
AcDbEntity
  8
0
 62
     3
100
AcDbText
 10
-43.96768499999999
 20
0.095532
 30
0.0
 40
3.0
  1
度
 41
0.833333
100
AcDbText
  0
TEXT
  5
309
330
36
100
AcDbEntity
  8
0
 62
     3
100
AcDbText
 10
-21.384414
 20
22.264832
 30
0.0
 40
3.0
  1
承認
 41
1.089472999999999
100
AcDbText
  0
TEXT
  5
30A
330
36
100
AcDbEntity
  8
0
 62
     3
100
AcDbText
 10
-8.141534
 20
22.207103
 30
0.0
 40
3.0
  1
検図
 41
0.931761
100
AcDbText
  0
TEXT
  5
30B
330
36
100
AcDbEntity
  8
0
 62
     3
100
AcDbText
 10
4.858862999999998
 20
22.207103
 30
0.0
 40
3.0
  1
設
 41
0.833333
100
AcDbText
  0
TEXT
  5
30C
330
36
100
AcDbEntity
  8
0
 62
     3
100
AcDbText
 10
9.348731
 20
22.207103
 30
0.0
 40
3.0
  1
計
 41
0.833333
100
AcDbText
  0
TEXT
  5
30D
330
36
100
AcDbEntity
  8
0
 62
     3
100
AcDbText
 10
-81.97865400000003
 20
22.379655
 30
0.0
 40
3.0
  1
品
 41
0.833333
100
AcDbText
  0
TEXT
  5
30E
330
36
100
AcDbEntity
  8
0
 62
     3
100
AcDbText
 10
-74.44301199999998
 20
22.379655
 30
0.0
 40
3.0
  1
名
 41
0.833333
100
AcDbText
  0
TEXT
  5
30F
330
36
100
AcDbEntity
  8
0
 62
     3
100
AcDbText
 10
-82.310417
 20
14.19182138215025
 30
0.0
 40
3.0
  1
型
 41
0.833333
100
AcDbText
  0
TEXT
  5
310
330
36
100
AcDbEntity
  8
0
 62
     3
100
AcDbText
 10
-74.762326
 20
14.19182138215025
 30
0.0
 40
3.0
  1
式
 41
0.833333
100
AcDbText
  0
TEXT
  5
311
330
36
100
AcDbEntity
  8
0
 62
     3
100
AcDbText
 10
-66.70068237396282
 20
126.132463
 30
0.0
 40
3.2
  1
2PE付 15A 125V
  7
高3.2
100
AcDbText
  0
LINE
  5
312
330
36
100
AcDbEntity
  8
0
 62
     3
100
AcDbLine
 10
-362.562715
 20
264.14138
 30
0.0
 11
-362.562715
 21
-9.85862
 31
0.0
  0
LINE
  5
313
330
36
100
AcDbEntity
  8
0
 62
     3
100
AcDbLine
 10
27.437285
 20
-9.85862
 30
0.0
 11
27.437285
 21
264.14138
 31
0.0
  0
LINE
  5
314
330
36
100
AcDbEntity
  8
0
 62
     3
100
AcDbLine
 10
-362.562715
 20
264.14138
 30
0.0
 11
27.437285
 21
264.14138
 31
0.0
  0
LINE
  5
315
330
36
100
AcDbEntity
  8
0
 62
     3
100
AcDbLine
 10
-362.562715
 20
-9.85862
 30
0.0
 11
27.437285
 21
-9.85862
 31
0.0
  0
LINE
  5
316
330
36
100
AcDbEntity
  8
0
 62
     3
100
AcDbLine
 10
-64.26476499999999
 20
163.862054
 30
0.0
 11
-62.76476500000001
 21
163.862054
 31
0.0
  0
LINE
  5
317
330
36
100
AcDbEntity
  8
0
 62
     3
100
AcDbLine
 10
-61.729051
 20
163.862054
 30
0.0
 11
-61.729051
 21
158.951341
 31
0.0
  0
LINE
  5
318
330
36
100
AcDbEntity
  8
0
 62
     3
100
AcDbLine
 10
-62.76476500000001
 20
163.862054
 30
0.0
 11
-61.729051
 21
163.862054
 31
0.0
  0
LINE
  5
319
330
36
100
AcDbEntity
  8
0
 62
     3
100
AcDbLine
 10
-64.26476499999999
 20
163.862054
 30
0.0
 11
-65.30047900000001
 21
163.862054
 31
0.0
  0
LINE
  5
31A
330
36
100
AcDbEntity
  8
0
 62
     3
100
AcDbLine
 10
-65.30047900000001
 20
163.862054
 30
0.0
 11
-65.30047900000001
 21
158.951341
 31
0.0
  0
LINE
  5
31B
330
36
100
AcDbEntity
  8
0
 62
     3
100
AcDbLine
 10
-67.08619300000001
 20
152.2549129999999
 30
0.0
 11
-65.30047900000001
 21
158.951341
 31
0.0
  0
LINE
  5
31C
330
36
100
AcDbEntity
  8
0
 62
     3
100
AcDbLine
 10
-60.144409
 20
153.008931
 30
0.0
 11
-61.729051
 21
158.951341
 31
0.0
  0
ARC
  5
31D
330
36
100
AcDbEntity
  8
0
 62
     3
100
AcDbCircle
 10
-64.45795699999999
 20
151.858652
 30
0.0
 40
4.464285
100
AcDbArc
 50
5.092422
 51
14.931417
  0
LINE
  5
31E
330
36
100
AcDbEntity
  8
0
 62
     3
100
AcDbLine
 10
-65.68976500000001
 20
136.629916
 30
0.0
 11
-61.339765
 21
136.629916
 31
0.0
  0
LINE
  5
31F
330
36
100
AcDbEntity
  8
0
 62
     3
100
AcDbLine
 10
-61.339765
 20
136.629916
 30
0.0
 11
-60.514765
 21
136.629916
 31
0.0
  0
LINE
  5
320
330
36
100
AcDbEntity
  8
0
 62
     3
100
AcDbLine
 10
-65.68976500000001
 20
136.629916
 30
0.0
 11
-66.514765
 21
136.629916
 31
0.0
  0
ARC
  5
321
330
36
100
AcDbEntity
  8
0
 62
     3
100
AcDbCircle
 10
-39.672548
 20
155.040747
 30
0.0
 40
1.416666999999999
100
AcDbArc
 50
298.072487
 51
61.92751300000002
  0
LINE
  5
322
330
36
100
AcDbEntity
  8
0
 62
     3
100
AcDbLine
 10
-38.755882
 20
153.960623
 30
0.0
 11
-38.755882
 21
153.290747
 31
0.0
  0
LINE
  5
323
330
36
100
AcDbEntity
  8
0
 62
     3
100
AcDbLine
 10
-56.25588199999999
 20
153.290747
 30
0.0
 11
-38.755882
 21
153.290747
 31
0.0
  0
LINE
  5
324
330
36
100
AcDbEntity
  8
0
 62
     3
100
AcDbLine
 10
-56.25588199999999
 20
153.960623
 30
0.0
 11
-56.25588199999999
 21
153.290747
 31
0.0
  0
ARC
  5
325
330
36
100
AcDbEntity
  8
0
 62
     3
100
AcDbCircle
 10
-55.339215
 20
155.040747
 30
0.0
 40
1.416666999999999
100
AcDbArc
 50
118.072487
 51
241.927513
  0
ARC
  5
326
330
36
100
AcDbEntity
  8
0
 62
     3
100
AcDbCircle
 10
-54.35531999999999
 20
170.841168
 30
0.0
 40
0.25
100
AcDbArc
 50
306.861424
 51
40.236358
  0
ARC
  5
327
330
36
100
AcDbEntity
  8
0
 62
     3
100
AcDbCircle
 10
-52.50588199999999
 20
174.443674
 30
0.0
 40
0.25
100
AcDbArc
 50
229.763642
 51
0.0
  0
LINE
  5
328
330
36
100
AcDbEntity
  8
0
 62
     3
100
AcDbLine
 10
-50.76711599999999
 20
186.290747
 30
0.0
 11
-44.244647
 21
186.290747
 31
0.0
  0
ARC
  5
329
330
36
100
AcDbEntity
  8
0
 62
     3
100
AcDbCircle
 10
-44.244647
 20
185.790747
 30
0.0
 40
0.5
100
AcDbArc
 50
1.301953
 51
90.0
  0
LINE
  5
32A
330
36
100
AcDbEntity
  8
0
 62
     3
100
AcDbLine
 10
-43.744776
 20
185.802108
 30
0.0
 11
-43.50588199999999
 21
175.290747
 31
0.0
  0
LINE
  5
32B
330
36
100
AcDbEntity
  8
0
 62
     3
100
AcDbLine
 10
-51.266987
 20
185.802108
 30
0.0
 11
-51.505882
 21
175.290747
 31
0.0
  0
LINE
  5
32C
330
36
100
AcDbEntity
  8
0
 62
     3
100
AcDbLine
 10
-52.255882
 20
174.443674
 30
0.0
 11
-52.255882
 21
174.790747
 31
0.0
  0
ARC
  5
32D
330
36
100
AcDbEntity
  8
0
 62
     3
100
AcDbCircle
 10
-51.75588199999999
 20
174.790747
 30
0.0
 40
0.5
100
AcDbArc
 50
90.0
 51
180.0
  0
LINE
  5
32E
330
36
100
AcDbEntity
  8
0
 62
     3
100
AcDbLine
 10
-51.75588199999999
 20
175.290747
 30
0.0
 11
-43.255882
 21
175.290747
 31
0.0
  0
ARC
  5
32F
330
36
100
AcDbEntity
  8
0
 62
     3
100
AcDbCircle
 10
-39.005882
 20
173.955405
 30
0.0
 40
3.75
100
AcDbArc
 50
180.0
 51
236.944269
  0
LINE
  5
330
330
36
100
AcDbEntity
  8
0
 62
     3
100
AcDbLine
 10
-42.755882
 20
174.790747
 30
0.0
 11
-42.755882
 21
173.955405
 31
0.0
  0
ARC
  5
331
330
36
100
AcDbEntity
  8
0
 62
     3
100
AcDbCircle
 10
-43.255882
 20
174.790747
 30
0.0
 40
0.5
100
AcDbArc
 50
0.0
 51
90.0
  0
ARC
  5
332
330
36
100
AcDbEntity
  8
0
 62
     3
100
AcDbCircle
 10
-51.505882
 20
167.040747
 30
0.0
 40
4.5
100
AcDbArc
 50
126.861424
 51
180.0
  0
LINE
  5
333
330
36
100
AcDbEntity
  8
0
 62
     3
100
AcDbLine
 10
-54.164473
 20
171.002654
 30
0.0
 11
-55.953975
 21
173.11752
 31
0.0
  0
LINE
  5
334
330
36
100
AcDbEntity
  8
0
 62
     3
100
AcDbLine
 10
-55.953975
 20
173.11752
 30
0.0
 11
-53.832655
 21
175.23884
 31
0.0
  0
LINE
  5
335
330
36
100
AcDbEntity
  8
0
 62
     3
100
AcDbLine
 10
-52.667367
 20
174.252828
 30
0.0
 11
-53.832655
 21
175.23884
 31
0.0
  0
ARC
  5
336
330
36
100
AcDbEntity
  8
0
 62
     3
100
AcDbCircle
 10
-50.76711599999999
 20
185.790747
 30
0.0
 40
0.5
100
AcDbArc
 50
90.0
 51
178.698047
  0
LINE
  5
337
330
36
100
AcDbEntity
  8
0
 62
     3
100
AcDbLine
 10
-39.005882
 20
167.040747
 30
0.0
 11
-39.005882
 21
156.290747
 31
0.0
  0
LINE
  5
338
330
36
100
AcDbEntity
  8
0
 62
     3
100
AcDbLine
 10
-56.00588199999999
 20
167.040747
 30
0.0
 11
-56.00588199999999
 21
156.290747
 31
0.0
  0
ARC
  5
339
330
36
100
AcDbEntity
  8
0
 62
     3
100
AcDbCircle
 10
-43.50588199999999
 20
167.040747
 30
0.0
 40
4.5
100
AcDbArc
 50
0.0
 51
56.94426899999999
  0
ARC
  5
33A
330
36
100
AcDbEntity
  8
0
100
AcDbCircle
 10
-56.00588199999999
 20
173.955405
 30
0.0
 40
3.75
100
AcDbArc
 50
303.055731
 51
0.0
  0
LINE
  5
357
330
36
100
AcDbEntity
  8
0
100
AcDbLine
 10
-47.005882
 20
182.790747
 30
0.0
 11
-47.005882
 21
182.040747
 31
0.0
  0
LINE
  5
358
330
36
100
AcDbEntity
  8
0
100
AcDbLine
 10
-48.00588199999999
 20
182.790747
 30
0.0
 11
-48.00588199999999
 21
182.040747
 31
0.0
  0
LINE
  5
359
330
36
100
AcDbEntity
  8
0
100
AcDbLine
 10
-47.005882
 20
181.040747
 30
0.0
 11
-47.005882
 21
180.290747
 31
0.0
  0
LINE
  5
35A
330
36
100
AcDbEntity
  8
0
100
AcDbLine
 10
-48.00588199999999
 20
181.040747
 30
0.0
 11
-48.00588199999999
 21
180.290747
 31
0.0
  0
LINE
  5
35B
330
36
100
AcDbEntity
  8
0
100
AcDbLine
 10
-47.005882
 20
179.290747
 30
0.0
 11
-47.005882
 21
178.540747
 31
0.0
  0
LINE
  5
35C
330
36
100
AcDbEntity
  8
0
100
AcDbLine
 10
-47.005882
 20
177.540747
 30
0.0
 11
-47.005882
 21
176.790747
 31
0.0
  0
LINE
  5
35D
330
36
100
AcDbEntity
  8
0
100
AcDbLine
 10
-48.00588199999999
 20
179.290747
 30
0.0
 11
-48.00588199999999
 21
178.540747
 31
0.0
  0
LINE
  5
35E
330
36
100
AcDbEntity
  8
0
100
AcDbLine
 10
-48.00588199999999
 20
177.540747
 30
0.0
 11
-48.00588199999999
 21
176.790747
 31
0.0
  0
LINE
  5
35F
330
36
100
AcDbEntity
  8
0
100
AcDbLine
 10
-50.914844
 20
179.290747
 30
0.0
 11
-50.931889
 21
178.540747
 31
0.0
  0
LINE
  5
360
330
36
100
AcDbEntity
  8
0
100
AcDbLine
 10
-50.835298
 20
182.790747
 30
0.0
 11
-50.852344
 21
182.040747
 31
0.0
  0
LINE
  5
361
330
36
100
AcDbEntity
  8
0
100
AcDbLine
 10
-50.875071
 20
181.040747
 30
0.0
 11
-50.89211599999998
 21
180.290747
 31
0.0
  0
LINE
  5
362
330
36
100
AcDbEntity
  8
0
100
AcDbLine
 10
-51.47179099999998
 20
176.790747
 30
0.0
 11
-43.53997299999998
 21
176.790747
 31
0.0
  0
LINE
  5
363
330
36
100
AcDbEntity
  8
0
100
AcDbLine
 10
-51.454745
 20
177.540747
 30
0.0
 11
-43.557018
 21
177.540747
 31
0.0
  0
LINE
  5
364
330
36
100
AcDbEntity
  8
0
100
AcDbLine
 10
-51.43201799999999
 20
178.540747
 30
0.0
 11
-43.579745
 21
178.540747
 31
0.0
  0
LINE
  5
365
330
36
100
AcDbEntity
  8
0
100
AcDbLine
 10
-51.414973
 20
179.290747
 30
0.0
 11
-43.596791
 21
179.290747
 31
0.0
  0
LINE
  5
366
330
36
100
AcDbEntity
  8
0
100
AcDbLine
 10
-51.392245
 20
180.290747
 30
0.0
 11
-43.61951799999999
 21
180.290747
 31
0.0
  0
LINE
  5
367
330
36
100
AcDbEntity
  8
0
100
AcDbLine
 10
-51.3752
 20
181.040747
 30
0.0
 11
-43.63656399999999
 21
181.040747
 31
0.0
  0
LINE
  5
368
330
36
100
AcDbEntity
  8
0
100
AcDbLine
 10
-51.35247299999999
 20
182.040747
 30
0.0
 11
-43.65929099999998
 21
182.040747
 31
0.0
  0
LINE
  5
369
330
36
100
AcDbEntity
  8
0
100
AcDbLine
 10
-51.335427
 20
182.790747
 30
0.0
 11
-43.676336
 21
182.790747
 31
0.0
  0
LINE
  5
36A
330
36
100
AcDbEntity
  8
0
100
AcDbLine
 10
-50.954616
 20
177.540747
 30
0.0
 11
-50.971662
 21
176.790747
 31
0.0
  0
LINE
  5
36B
330
36
100
AcDbEntity
  8
0
100
AcDbLine
 10
-44.15942
 20
182.040747
 30
0.0
 11
-44.176465
 21
182.790747
 31
0.0
  0
LINE
  5
36C
330
36
100
AcDbEntity
  8
0
100
AcDbLine
 10
-44.119647
 20
180.290747
 30
0.0
 11
-44.136693
 21
181.040747
 31
0.0
  0
LINE
  5
36D
330
36
100
AcDbEntity
  8
0
100
AcDbLine
 10
-44.07987499999999
 20
178.540747
 30
0.0
 11
-44.09692
 21
179.290747
 31
0.0
  0
LINE
  5
36E
330
36
100
AcDbEntity
  8
0
100
AcDbLine
 10
-44.040102
 20
176.790747
 30
0.0
 11
-44.05714699999999
 21
177.540747
 31
0.0
  0
LINE
  5
36F
330
36
100
AcDbEntity
  8
0
100
AcDbLine
 10
-56.25588199999999
 20
153.790747
 30
0.0
 11
-38.755882
 21
153.790747
 31
0.0
  0
LINE
  5
370
330
36
100
AcDbEntity
  8
0
 62
     3
100
AcDbLine
 10
-50.255882
 20
194.493205
 30
0.0
 11
-50.255882
 21
186.290747
 31
0.0
  0
LINE
  5
371
330
36
100
AcDbEntity
  8
0
 62
     3
100
AcDbLine
 10
-44.75588199999999
 20
194.521057
 30
0.0
 11
-44.75588199999999
 21
186.290747
 31
0.0
  0
LINE
  5
372
330
36
100
AcDbEntity
  8
0
100
AcDbLine
 10
-67.08619300000001
 20
152.2549129999999
 30
0.0
 11
-60.014765
 21
152.2549129999999
 31
0.0
  0
LINE
  5
373
330
36
100
AcDbEntity
  8
0
100
AcDbLine
 10
-65.30047900000001
 20
158.951341
 30
0.0
 11
-61.729051
 21
158.951341
 31
0.0
  0
LINE
  5
374
330
36
100
AcDbEntity
  8
0
100
AcDbLine
 10
-44.48088199999999
 20
144.740747
 30
0.0
 11
-43.980882
 21
144.740747
 31
0.0
  0
LINE
  5
375
330
36
100
AcDbEntity
  8
0
100
AcDbLine
 10
-44.605882
 20
145.490747
 30
0.0
 11
-43.85588199999999
 21
145.490747
 31
0.0
  0
LINE
  5
376
330
36
100
AcDbEntity
  8
0
100
AcDbLine
 10
-51.155882
 20
145.490747
 30
0.0
 11
-50.405882
 21
145.490747
 31
0.0
  0
LINE
  5
377
330
36
100
AcDbEntity
  8
0
100
AcDbLine
 10
-48.668382
 20
153.290747
 30
0.0
 11
-48.668382
 21
143.753247
 31
0.0
  0
ARC
  5
378
330
36
100
AcDbEntity
  8
0
100
AcDbCircle
 10
-47.505882
 20
143.753247
 30
0.0
 40
1.1625
100
AcDbArc
 50
180.0
 51
0.0
  0
LINE
  5
379
330
36
100
AcDbEntity
  8
0
100
AcDbLine
 10
-46.343382
 20
153.290747
 30
0.0
 11
-46.343382
 21
143.753247
 31
0.0
  0
LINE
  5
37A
330
36
100
AcDbEntity
  8
0
100
AcDbLine
 10
-43.85588199999999
 20
153.290747
 30
0.0
 11
-43.85588199999999
 21
145.490747
 31
0.0
  0
LINE
  5
37B
330
36
100
AcDbEntity
  8
0
100
AcDbLine
 10
-43.85588199999999
 20
145.490747
 30
0.0
 11
-43.980882
 21
144.740747
 31
0.0
  0
LINE
  5
37C
330
36
100
AcDbEntity
  8
0
100
AcDbLine
 10
-44.605882
 20
145.490747
 30
0.0
 11
-44.48088199999999
 21
144.740747
 31
0.0
  0
LINE
  5
37D
330
36
100
AcDbEntity
  8
0
100
AcDbLine
 10
-44.605882
 20
153.290747
 30
0.0
 11
-44.605882
 21
145.490747
 31
0.0
  0
LINE
  5
37E
330
36
100
AcDbEntity
  8
0
100
AcDbLine
 10
-50.405882
 20
153.290747
 30
0.0
 11
-50.405882
 21
145.490747
 31
0.0
  0
LINE
  5
37F
330
36
100
AcDbEntity
  8
0
100
AcDbLine
 10
-50.405882
 20
145.490747
 30
0.0
 11
-50.530882
 21
144.740747
 31
0.0
  0
LINE
  5
380
330
36
100
AcDbEntity
  8
0
100
AcDbLine
 10
-51.030882
 20
144.740747
 30
0.0
 11
-50.530882
 21
144.740747
 31
0.0
  0
LINE
  5
381
330
36
100
AcDbEntity
  8
0
100
AcDbLine
 10
-51.155882
 20
145.490747
 30
0.0
 11
-51.030882
 21
144.740747
 31
0.0
  0
LINE
  5
382
330
36
100
AcDbEntity
  8
0
100
AcDbLine
 10
-51.155882
 20
153.290747
 30
0.0
 11
-51.155882
 21
145.490747
 31
0.0
  0
LINE
  5
383
330
36
100
AcDbEntity
  8
0
100
AcDbLine
 10
-56.00588199999999
 20
156.290747
 30
0.0
 11
-39.005882
 21
156.290747
 31
0.0
  0
ARC
  5
384
330
36
100
AcDbEntity
  8
0
100
AcDbCircle
 10
-58.889765
 20
171.633893
 30
0.0
 40
5.25
100
AcDbArc
 50
45.0
 51
180.0
  0
ARC
  5
385
330
36
100
AcDbEntity
  8
0
100
AcDbCircle
 10
-58.889765
 20
171.633893
 30
0.0
 40
4.0
100
AcDbArc
 50
45.0
 51
180.0
  0
LINE
  5
386
330
36
100
AcDbEntity
  8
0
100
AcDbLine
 10
-56.061338
 20
174.46232
 30
0.0
 11
-55.33525699999999
 21
173.736238
 31
0.0
  0
LINE
  5
387
330
36
100
AcDbEntity
  8
0
100
AcDbLine
 10
-54.45137299999998
 20
174.620122
 30
0.0
 11
-55.177455
 21
175.346203
 31
0.0
  0
LINE
  5
388
330
36
100
AcDbEntity
  8
0
100
AcDbLine
 10
-62.889765
 20
170.046702
 30
0.0
 11
-62.889765
 21
163.840216
 31
0.0
  0
LINE
  5
389
330
36
100
AcDbEntity
  8
0
100
AcDbLine
 10
-64.139765
 20
169.695038
 30
0.0
 11
-64.139765
 21
163.840216
 31
0.0
  0
LINE
  5
38A
330
36
100
AcDbEntity
  8
0
100
AcDbLine
 10
-62.889765
 20
171.127824
 30
0.0
 11
-62.889765
 21
171.633893
 31
0.0
  0
LINE
  5
38B
330
36
100
AcDbEntity
  8
0
100
AcDbLine
 10
-64.139765
 20
170.744383
 30
0.0
 11
-64.139765
 21
171.633893
 31
0.0
  0
ARC
  5
38C
330
36
100
AcDbEntity
  8
0
 62
     3
100
AcDbCircle
 10
-275.80624
 20
215.603765
 30
0.0
 40
4.0
100
AcDbArc
 50
267.418341
 51
0.0
  0
ARC
  5
38D
330
36
100
AcDbEntity
  8
0
 62
     3
100
AcDbCircle
 10
-275.80624
 20
224.860328
 30
0.0
 40
4.0
100
AcDbArc
 50
0.0
 51
92.58165899999999
  0
ARC
  5
38E
330
36
100
AcDbEntity
  8
0
 62
     3
100
AcDbCircle
 10
-154.05447
 20
224.860328
 30
0.0
 40
4.0
100
AcDbArc
 50
87.418341
 51
180.0
  0
ARC
  5
38F
330
36
100
AcDbEntity
  8
0
 62
     3
100
AcDbCircle
 10
-154.05447
 20
215.603765
 30
0.0
 40
4.0
100
AcDbArc
 50
180.0
 51
272.581659
  0
ARC
  5
390
330
36
100
AcDbEntity
  8
0
 62
     3
100
AcDbCircle
 10
-154.05447
 20
75.943044
 30
0.0
 40
4.0
100
AcDbArc
 50
180.0
 51
272.581659
  0
ARC
  5
391
330
36
100
AcDbEntity
  8
0
 62
     3
100
AcDbCircle
 10
-154.05447
 20
85.199607
 30
0.0
 40
4.0
100
AcDbArc
 50
87.418341
 51
180.0
  0
ARC
  5
392
330
36
100
AcDbEntity
  8
0
 62
     3
100
AcDbCircle
 10
-275.80624
 20
75.943044
 30
0.0
 40
4.0
100
AcDbArc
 50
267.418341
 51
0.0
  0
ARC
  5
393
330
36
100
AcDbEntity
  8
0
 62
     3
100
AcDbCircle
 10
-275.80624
 20
85.199607
 30
0.0
 40
4.0
100
AcDbArc
 50
0.0
 51
92.58165899999999
  0
ARC
  5
394
330
36
100
AcDbEntity
  8
0
100
AcDbCircle
 10
-268.80624
 20
175.474788
 30
0.0
 40
1.0
100
AcDbArc
 50
90.0
 51
270.0
  0
LINE
  5
3A0
330
36
100
AcDbEntity
  8
0
100
AcDbLine
 10
-171.127603
 20
92.82690999999999
 30
0.0
 11
-179.274194
 21
104.238226
 31
0.0
  0
LINE
  5
3A1
330
36
100
AcDbEntity
  8
0
100
AcDbLine
 10
-179.274194
 20
104.238226
 30
0.0
 11
-195.774194
 21
104.238226
 31
0.0
  0
TEXT
  5
3A2
330
36
100
AcDbEntity
  8
0
 62
     4
100
AcDbText
 10
-193.024194
 20
105.238226
 30
0.0
 40
3.2
  1
型式銘版
 41
0.716146
100
AcDbText
  0
LINE
  5
3A8
330
36
100
AcDbEntity
  8
0
100
AcDbLine
 10
-260.714396
 20
92.82690999999999
 30
0.0
 11
-254.225393
 21
104.238226
 31
0.0
  0
LINE
  5
3A9
330
36
100
AcDbEntity
  8
0
100
AcDbLine
 10
-254.225393
 20
104.238226
 30
0.0
 11
-229.475393
 21
104.238226
 31
0.0
  0
TEXT
  5
3AA
330
36
100
AcDbEntity
  8
0
 62
     4
100
AcDbText
 10
-251.475393
 20
105.238226
 30
0.0
 40
3.2
  1
取り扱いシール
 41
0.716146
100
AcDbText
  0
LINE
  5
3B3
330
36
100
AcDbEntity
  8
0
 62
     3
100
AcDbLine
 10
-374.964639
 20
130.64138
 30
0.0
 11
-377.562715
 21
129.14138
 31
0.0
  0
LINE
  5
3B4
330
36
100
AcDbEntity
  8
0
 62
     3
100
AcDbLine
 10
-374.964639
 20
130.64138
 30
0.0
 11
-377.562715
 21
132.14138
 31
0.0
  0
LINE
  5
3B5
330
36
100
AcDbEntity
  8
0
 62
     3
100
AcDbLine
 10
-377.562715
 20
129.14138
 30
0.0
 11
-377.562715
 21
132.14138
 31
0.0
  0
CIRCLE
  5
3BC
330
36
100
AcDbEntity
  8
0
100
AcDbCircle
 10
-66.8846
 20
208.349731
 30
0.0
 40
5.0
  0
TEXT
  5
3BD
330
36
100
AcDbEntity
  8
0
 62
     4
100
AcDbText
 10
-69.0567054751873
 20
206.2434716847083
 30
0.0
 40
4.5
  1
11
  7
高4.5
100
AcDbText
  0
CIRCLE
  5
3C4
330
36
100
AcDbEntity
  8
0
100
AcDbCircle
 10
-134.15986
 20
250.314065
 30
0.0
 40
5.0
  0
TEXT
  5
3C5
330
36
100
AcDbEntity
  8
0
 62
     4
100
AcDbText
 10
-135.1379553961358
 20
247.4407894981026
 30
0.0
 40
6.299999999999998
  1
1
  7
高6.3
100
AcDbText
  0
CIRCLE
  5
3CC
330
36
100
AcDbEntity
  8
0
100
AcDbCircle
 10
-163.948744
 20
250.314065
 30
0.0
 40
5.0
  0
TEXT
  5
3CD
330
36
100
AcDbEntity
  8
0
 62
     4
100
AcDbText
 10
-166.948744
 20
246.823156
 30
0.0
 40
6.299999999999998
  1
4
  7
高6.3
100
AcDbText
  0
CIRCLE
  5
3D4
330
36
100
AcDbEntity
  8
0
100
AcDbCircle
 10
-196.487373
 20
250.314065
 30
0.0
 40
5.0
  0
TEXT
  5
3D5
330
36
100
AcDbEntity
  8
0
 62
     4
100
AcDbText
 10
-198.4814315472185
 20
247.2409040830292
 30
0.0
 40
6.299999999999998
  1
2
  7
高6.3
100
AcDbText
  0
CIRCLE
  5
3DC
330
36
100
AcDbEntity
  8
0
100
AcDbCircle
 10
-225.817967
 20
250.314065
 30
0.0
 40
5.0
  0
TEXT
  5
3DD
330
36
100
AcDbEntity
  8
0
 62
     4
100
AcDbText
 10
-227.9417819131979
 20
247.0969298376354
 30
0.0
 40
6.299999999999998
  1
3
  7
高6.3
100
AcDbText
  0
CIRCLE
  5
3E4
330
36
100
AcDbEntity
  8
0
100
AcDbCircle
 10
-159.128461
 20
111.02695
 30
0.0
 40
5.0
  0
TEXT
  5
3E5
330
36
100
AcDbEntity
  8
0
 62
     4
100
AcDbText
 10
-161.6372221341341
 20
108.8291668999014
 30
0.0
 40
4.5
  1
12
  7
高4.5
100
AcDbText
  0
CIRCLE
  5
3EC
330
36
100
AcDbEntity
  8
0
100
AcDbCircle
 10
-270.73225
 20
111.02695
 30
0.0
 40
5.0
  0
TEXT
  5
3ED
330
36
100
AcDbEntity
  8
0
 62
     4
100
AcDbText
 10
-273.3543190422675
 20
108.6757163905844
 30
0.0
 40
4.5
  1
12
  7
高4.5
100
AcDbText
  0
CIRCLE
  5
3F4
330
36
100
AcDbEntity
  8
0
100
AcDbCircle
 10
-208.486941
 20
113.686019
 30
0.0
 40
5.0
  0
TEXT
  5
3F5
330
36
100
AcDbEntity
  8
0
 62
     4
100
AcDbText
 10
-210.6322761127838
 20
110.5406864844145
 30
0.0
 40
6.299999999999998
  1
9
  7
高6.3
100
AcDbText
  0
CIRCLE
  5
3FC
330
36
100
AcDbEntity
  8
0
100
AcDbCircle
 10
-222.469357
 20
113.686019
 30
0.0
 40
5.0
  0
TEXT
  5
3FD
330
36
100
AcDbEntity
  8
0
 62
     4
100
AcDbText
 10
-225.267176056569
 20
111.3379422938888
 30
0.0
 40
4.5
  1
10
  7
高4.5
100
AcDbText
  0
LINE
  5
3FE
330
36
100
AcDbEntity
  8
0
 62
     3
100
AcDbLine
 10
-161.5627149999999
 20
-9.85862
 30
0.0
 11
-161.5627149999999
 21
55.14137999999999
 31
0.0
  0
LINE
  5
3FF
330
36
100
AcDbEntity
  8
0
 62
     3
100
AcDbLine
 10
27.337249
 20
35.80710300000003
 30
0.0
 11
-24.262115
 21
35.80710300000003
 31
0.0
  0
TEXT
  5
400
330
36
100
AcDbEntity
  8
0
 62
     3
100
AcDbText
 10
-19.12700945014694
 20
30.363188
 30
0.0
 40
4.5
  1
コード
  7
高4.5
100
AcDbText
  0
LINE
  5
401
330
36
100
AcDbEntity
  8
0
 62
     3
100
AcDbLine
 10
1.737884999999999
 20
29.807103
 30
0.0
 11
1.737884999999999
 21
35.80710300000003
 31
0.0
  0
LINE
  5
402
330
36
100
AcDbEntity
  8
0
 62
     3
100
AcDbLine
 10
-24.262115
 20
29.807103
 30
0.0
 11
-24.262115
 21
35.80710300000003
 31
0.0
  0
LINE
  5
403
330
36
100
AcDbEntity
  8
0
100
AcDbLine
 10
-253.562715
 20
-9.85862
 30
0.0
 11
-253.562715
 21
55.14137999999999
 31
0.0
  0
LINE
  5
404
330
36
100
AcDbEntity
  8
0
100
AcDbLine
 10
-313.562715
 20
-9.85862
 30
0.0
 11
-313.562715
 21
55.14137999999999
 31
0.0
  0
LINE
  5
405
330
36
100
AcDbEntity
  8
0
100
AcDbLine
 10
-298.562715
 20
-9.85862
 30
0.0
 11
-298.562715
 21
55.14137999999999
 31
0.0
  0
LINE
  5
406
330
36
100
AcDbEntity
  8
0
100
AcDbLine
 10
-353.562715
 20
-9.85862
 30
0.0
 11
-353.562715
 21
55.14137999999999
 31
0.0
  0
TEXT
  5
407
330
36
100
AcDbEntity
  8
0
 62
     3
100
AcDbText
 10
-252.062715
 20
35.64138000000002
 30
0.0
 40
3.2
  1
1
 41
0.8
  7
高3.2
100
AcDbText
  0
TEXT
  5
408
330
36
100
AcDbEntity
  8
0
 62
     3
100
AcDbText
 10
-252.062715
 20
0.6413799999999999
 30
0.0
 40
3.2
  1
1
 41
0.8
  7
高3.2
100
AcDbText
  0
TEXT
  5
409
330
36
100
AcDbEntity
  8
0
 62
     3
100
AcDbText
 10
-252.062715
 20
30.64138
 30
0.0
 40
3.2
  1
1
 41
0.8
  7
高3.2
100
AcDbText
  0
TEXT
  5
40A
330
36
100
AcDbEntity
  8
0
 62
     3
100
AcDbText
 10
-352.062715
 20
45.64137999999998
 30
0.0
 40
3.2
  1
ポッキンプラグ付き電線
 41
0.8
  7
高3.2
100
AcDbText
  0
TEXT
  5
40B
330
36
100
AcDbEntity
  8
0
 62
     3
100
AcDbText
 10
-252.062715
 20
20.64138
 30
0.0
 40
3.2
  1
1
 41
0.8
  7
高3.2
100
AcDbText
  0
TEXT
  5
40C
330
36
100
AcDbEntity
  8
0
 62
     3
100
AcDbText
 10
-352.062715
 20
-4.358619999999998
 30
0.0
 40
3.2
  1
フレーム
 41
0.8
  7
高3.2
100
AcDbText
  0
TEXT
  5
40D
330
36
100
AcDbEntity
  8
0
 62
     3
100
AcDbText
 10
-352.062715
 20
0.6413799999999999
 30
0.0
 40
3.2
  1
コンセントパネル
 41
0.8
  7
高3.2
100
AcDbText
  0
TEXT
  5
40E
330
36
100
AcDbEntity
  8
0
 62
     3
100
AcDbText
 10
-352.062715
 20
40.64137999999998
 30
0.0
 40
3.2
  1
ホールプラグ
 41
0.8
  7
高3.2
100
AcDbText
  0
TEXT
  5
40F
330
36
100
AcDbEntity
  8
0
 62
     3
100
AcDbText
 10
-312.062715
 20
45.64137999999998
 30
0.0
 40
3.2
  1
PVC
 41
0.8
  7
高3.2
100
AcDbText
  0
TEXT
  5
410
330
36
100
AcDbEntity
  8
0
 62
     3
100
AcDbText
 10
-312.062715
 20
35.64138
 30
0.0
 40
3.2
  1
PA6
 41
0.8
  7
高3.2
100
AcDbText
  0
TEXT
  5
411
330
36
100
AcDbEntity
  8
0
 62
     3
100
AcDbText
 10
-312.062715
 20
-4.358619999999999
 30
0.0
 40
3.2
  1
ABS
 41
0.8
  7
高3.2
100
AcDbText
  0
TEXT
  5
412
330
36
100
AcDbEntity
  8
0
 62
     3
100
AcDbText
 10
-312.062715
 20
40.64137999999998
 30
0.0
 40
3.2
  1
PP
 41
0.8
  7
高3.2
100
AcDbText
  0
TEXT
  5
413
330
36
100
AcDbEntity
  8
0
 62
     3
100
AcDbText
 10
-252.062715
 20
-4.35862
 30
0.0
 40
3.2
  1
1式
 41
0.8
  7
高3.2
100
AcDbText
  0
TEXT
  5
414
330
36
100
AcDbEntity
  8
0
 62
     3
100
AcDbText
 10
-352.062715
 20
50.64137999999999
 30
0.0
 40
3.2
  1
型式　取説表示シール
 41
0.8
  7
高3.2
100
AcDbText
  0
TEXT
  5
415
330
36
100
AcDbEntity
  8
0
 62
     3
100
AcDbText
 10
-252.062715
 20
40.64137999999998
 30
0.0
 40
3.2
  1
各1
 41
0.8
  7
高3.2
100
AcDbText
  0
TEXT
  5
416
330
36
100
AcDbEntity
  8
0
 62
     3
100
AcDbText
 10
-252.062715
 20
5.641379999999998
 30
0.0
 40
3.2
  1
1
 41
0.8
  7
高3.2
100
AcDbText
  0
TEXT
  5
417
330
36
100
AcDbEntity
  8
0
 62
     3
100
AcDbText
 10
-352.062715
 20
5.641379999999998
 30
0.0
 40
3.2
  1
電源ランプ
 41
0.8
  7
高3.2
100
AcDbText
  0
TEXT
  5
418
330
36
100
AcDbEntity
  8
0
 62
     3
100
AcDbText
 10
-297.062715
 20
5.641379999999998
 30
0.0
 40
3.2
  1
100V用
 41
0.8
  7
高3.2
100
AcDbText
  0
TEXT
  5
419
330
36
100
AcDbEntity
  8
0
 62
     3
100
AcDbText
 10
-297.062715
 20
10.64138
 30
0.0
 40
3.2
  1
AC G10BB44
 41
0.8
  7
高3.2
100
AcDbText
  0
TEXT
  5
41A
330
36
100
AcDbEntity
  8
0
 62
     3
100
AcDbText
 10
-312.062715
 20
0.6413799999999999
 30
0.0
 40
3.2
  1
SPCC
 41
0.8
  7
高3.2
100
AcDbText
  0
TEXT
  5
41B
330
36
100
AcDbEntity
  8
0
 62
     3
100
AcDbText
 10
-352.062715
 20
10.64138
 30
0.0
 40
3.2
  1
1口コンセント　黒
 41
0.8
  7
高3.2
100
AcDbText
  0
TEXT
  5
41C
330
36
100
AcDbEntity
  8
0
 62
     3
100
AcDbText
 10
-252.062715
 20
10.64138
 30
0.0
 40
3.2
  1
各1
 41
0.8
  7
高3.2
100
AcDbText
  0
TEXT
  5
41E
330
36
100
AcDbEntity
  8
0
 62
     3
100
AcDbText
 10
-352.062715
 20
35.64138
 30
0.0
 40
3.2
  1
線止めリング
 41
0.8
  7
高3.2
100
AcDbText
  0
TEXT
  5
41F
330
36
100
AcDbEntity
  8
0
 62
     3
100
AcDbText
 10
-361.062715
 20
-4.358619999999998
 30
0.0
 40
3.2
  1
1
 41
0.8
  7
高3.2
100
AcDbText
  0
TEXT
  5
420
330
36
100
AcDbEntity
  8
0
 62
     3
100
AcDbText
 10
-361.062715
 20
0.6413799999999999
 30
0.0
 40
3.2
  1
2
 41
0.8
  7
高3.2
100
AcDbText
  0
TEXT
  5
421
330
36
100
AcDbEntity
  8
0
 62
     3
100
AcDbText
 10
-361.062715
 20
5.641379999999998
 30
0.0
 40
3.2
  1
3
 41
0.8
  7
高3.2
100
AcDbText
  0
TEXT
  5
422
330
36
100
AcDbEntity
  8
0
 62
     3
100
AcDbText
 10
-361.062715
 20
10.64138
 30
0.0
 40
3.2
  1
4
 41
0.8
  7
高3.2
100
AcDbText
  0
TEXT
  5
423
330
36
100
AcDbEntity
  8
0
 62
     3
100
AcDbText
 10
-361.062715
 20
15.64137999999999
 30
0.0
 40
3.2
  1
5
 41
0.8
  7
高3.2
100
AcDbText
  0
TEXT
  5
424
330
36
100
AcDbEntity
  8
0
 62
     3
100
AcDbText
 10
-361.062715
 20
20.64138
 30
0.0
 40
3.2
  1
6
 41
0.8
  7
高3.2
100
AcDbText
  0
TEXT
  5
425
330
36
100
AcDbEntity
  8
0
 62
     3
100
AcDbText
 10
-361.062715
 20
25.64138
 30
0.0
 40
3.2
  1
7
 41
0.8
  7
高3.2
100
AcDbText
  0
TEXT
  5
426
330
36
100
AcDbEntity
  8
0
 62
     3
100
AcDbText
 10
-361.062715
 20
30.64138
 30
0.0
 40
3.2
  1
8
 41
0.8
  7
高3.2
100
AcDbText
  0
TEXT
  5
427
330
36
100
AcDbEntity
  8
0
 62
     3
100
AcDbText
 10
-297.062715
 20
-9.35862
 30
0.0
 40
3.2
  1
備考
 41
0.8
  7
高3.2
100
AcDbText
  0
TEXT
  5
428
330
36
100
AcDbEntity
  8
0
 62
     3
100
AcDbText
 10
-312.062715
 20
-9.35862
 30
0.0
 40
3.2
  1
材質
 41
0.8
  7
高3.2
100
AcDbText
  0
TEXT
  5
429
330
36
100
AcDbEntity
  8
0
 62
     3
100
AcDbText
 10
-252.062715
 20
-9.35862
 30
0.0
 40
3.2
  1
数
 41
0.8
  7
高3.2
100
AcDbText
  0
TEXT
  5
42A
330
36
100
AcDbEntity
  8
0
 62
     3
100
AcDbText
 10
-352.062715
 20
-9.35862
 30
0.0
 40
3.2
  1
部品名
 41
0.8
  7
高3.2
100
AcDbText
  0
TEXT
  5
42B
330
36
100
AcDbEntity
  8
0
 62
     3
100
AcDbText
 10
-361.062715
 20
-9.35862
 30
0.0
 40
3.2
  1
NO
 41
0.8
  7
高3.2
100
AcDbText
  0
TEXT
  5
42C
330
36
100
AcDbEntity
  8
0
 62
     3
100
AcDbText
 10
6.417289451605482
 20
30.305459
 30
0.0
 40
4.5
  1
5420
  7
高4.5
100
AcDbText
  0
TEXT
  5
436
330
36
100
AcDbEntity
  8
0
 62
     3
100
AcDbText
 10
-297.062715
 20
45.64137999999998
 30
0.0
 40
3.2
  1
SVCT2.0sqx3芯x10m
 41
0.8
  7
高3.2
100
AcDbText
  0
CIRCLE
  5
588
330
36
100
AcDbEntity
  8
0
100
AcDbCircle
 10
-182.205331323081
 20
250.6387455414526
 30
0.0
 40
5.0
  0
TEXT
  5
589
330
36
100
AcDbEntity
  8
0
 62
     4
100
AcDbText
 10
-184.0753929929162
 20
247.024943034026
 30
0.0
 40
6.299999999999998
  1
5
  7
高6.3
100
AcDbText
  0
CIRCLE
  5
5E9
330
36
100
AcDbEntity
  8
0
100
AcDbCircle
 10
-238.433384449849
 20
250.5967076629998
 30
0.0
 40
5.0
  0
TEXT
  5
5EA
330
36
100
AcDbEntity
  8
0
 62
     4
100
AcDbText
 10
-240.3303937650616
 20
247.5329069010245
 30
0.0
 40
6.299999999999998
  1
6
  7
高6.3
100
AcDbText
  0
CIRCLE
  5
5EB
330
36
100
AcDbEntity
  8
0
100
AcDbCircle
 10
-262.8385962607347
 20
250.6999159131652
 30
0.0
 40
5.0
  0
TEXT
  5
5EC
330
36
100
AcDbEntity
  8
0
 62
     4
100
AcDbText
 10
-264.8420363633991
 20
247.3904642761718
 30
0.0
 40
6.299999999999998
  1
8
  7
高6.3
100
AcDbText
  0
TEXT
  5
5F3
330
36
100
AcDbEntity
  8
0
 62
     3
100
AcDbText
 10
-297.062715
 20
15.64138
 30
0.0
 40
3.2
  1
AC G10BB44
 41
0.8
  7
高3.2
100
AcDbText
  0
TEXT
  5
5F4
330
36
100
AcDbEntity
  8
0
 62
     3
100
AcDbText
 10
-352.062715
 20
15.64138
 30
0.0
 40
3.2
  1
1口コンセント　白
 41
0.8
  7
高3.2
100
AcDbText
  0
TEXT
  5
5F5
330
36
100
AcDbEntity
  8
0
 62
     3
100
AcDbText
 10
-252.062715
 20
15.64138
 30
0.0
 40
3.2
  1
各1
 41
0.8
  7
高3.2
100
AcDbText
  0
LINE
  5
5F8
330
36
100
AcDbEntity
  8
0
100
AcDbLine
 10
-362.562715
 20
-4.858619999999998
 30
0.0
 11
-161.5627149999999
 21
-4.858620000000001
 31
0.0
  0
LINE
  5
5FB
330
36
100
AcDbEntity
  8
0
100
AcDbLine
 10
-362.562715
 20
0.1413799999999998
 30
0.0
 11
-161.5627149999999
 21
0.1413799999999998
 31
0.0
  0
LINE
  5
5FC
330
36
100
AcDbEntity
  8
0
100
AcDbLine
 10
-362.562715
 20
5.141379999999998
 30
0.0
 11
-161.5627149999999
 21
5.141379999999998
 31
0.0
  0
LINE
  5
5FD
330
36
100
AcDbEntity
  8
0
100
AcDbLine
 10
-362.562715
 20
10.14138
 30
0.0
 11
-161.5627149999999
 21
10.14138
 31
0.0
  0
LINE
  5
5FE
330
36
100
AcDbEntity
  8
0
100
AcDbLine
 10
-362.562715
 20
15.14138
 30
0.0
 11
-161.5627149999999
 21
15.14138
 31
0.0
  0
LINE
  5
5FF
330
36
100
AcDbEntity
  8
0
100
AcDbLine
 10
-362.562715
 20
20.14138
 30
0.0
 11
-161.5627149999999
 21
20.14138
 31
0.0
  0
LINE
  5
600
330
36
100
AcDbEntity
  8
0
100
AcDbLine
 10
-362.562715
 20
25.14138
 30
0.0
 11
-161.5627149999999
 21
25.14138
 31
0.0
  0
LINE
  5
601
330
36
100
AcDbEntity
  8
0
100
AcDbLine
 10
-362.562715
 20
30.14138
 30
0.0
 11
-161.5627149999999
 21
30.14138
 31
0.0
  0
LINE
  5
602
330
36
100
AcDbEntity
  8
0
100
AcDbLine
 10
-362.562715
 20
35.14138
 30
0.0
 11
-161.5627149999999
 21
35.14138000000001
 31
0.0
  0
LINE
  5
603
330
36
100
AcDbEntity
  8
0
100
AcDbLine
 10
-362.562715
 20
40.14137999999999
 30
0.0
 11
-161.5627149999999
 21
40.14137999999999
 31
0.0
  0
LINE
  5
604
330
36
100
AcDbEntity
  8
0
100
AcDbLine
 10
-362.562715
 20
45.14137999999999
 30
0.0
 11
-161.5627149999999
 21
45.14137999999999
 31
0.0
  0
LINE
  5
605
330
36
100
AcDbEntity
  8
0
 62
     7
100
AcDbLine
 10
-362.562715
 20
50.14137999999999
 30
0.0
 11
-161.5627149999999
 21
50.14137999999999
 31
0.0
  0
TEXT
  5
60D
330
36
100
AcDbEntity
  8
0
 62
     3
100
AcDbText
 10
-352.062715
 20
20.64138
 30
0.0
 40
3.2
  1
基板セット
 41
0.8
  7
高3.2
100
AcDbText
  0
TEXT
  5
60E
330
36
100
AcDbEntity
  8
0
 62
     3
100
AcDbText
 10
-352.062715
 20
30.64138
 30
0.0
 40
3.2
  1
サーキットブレーカー
 41
0.8
  7
高3.2
100
AcDbText
  0
TEXT
  5
60F
330
36
100
AcDbEntity
  8
0
 62
     3
100
AcDbText
 10
-297.062715
 20
30.64138
 30
0.0
 40
3.2
  1
ヒューズ15A
 41
0.8
  7
高3.2
100
AcDbText
  0
TEXT
  5
610
330
36
100
AcDbEntity
  8
0
 62
     3
100
AcDbText
 10
-361.062715
 20
35.64138
 30
0.0
 40
3.2
  1
9
 41
0.8
  7
高3.2
100
AcDbText
  0
TEXT
  5
611
330
36
100
AcDbEntity
  8
0
 62
     3
100
AcDbText
 10
-361.062715
 20
40.64137999999998
 30
0.0
 40
3.2
  1
10
 41
0.8
  7
高3.2
100
AcDbText
  0
TEXT
  5
612
330
36
100
AcDbEntity
  8
0
 62
     3
100
AcDbText
 10
-361.062715
 20
45.64137999999998
 30
0.0
 40
3.2
  1
11
 41
0.8
  7
高3.2
100
AcDbText
  0
LINE
  5
613
330
36
100
AcDbEntity
  8
0
100
AcDbLine
 10
-244.5627149999999
 20
-9.85862
 30
0.0
 11
-244.5627149999999
 21
55.14137999999999
 31
0.0
  0
TEXT
  5
616
330
36
100
AcDbEntity
  8
0
 62
     3
100
AcDbText
 10
-243.062715
 20
-4.35862
 30
0.0
 40
3.2
  1
50470
 41
0.8
  7
高3.2
100
AcDbText
  0
TEXT
  5
619
330
36
100
AcDbEntity
  8
0
 62
     3
100
AcDbText
 10
-243.062715
 20
-9.35862
 30
0.0
 40
3.2
  1
コード
 41
0.8
  7
高3.2
100
AcDbText
  0
TEXT
  5
61A
330
36
100
AcDbEntity
  8
0
 62
     3
100
AcDbText
 10
-243.062715
 20
0.6413799999999999
 30
0.0
 40
3.2
  1
50937
 41
0.8
  7
高3.2
100
AcDbText
  0
TEXT
  5
61B
330
36
100
AcDbEntity
  8
0
 62
     3
100
AcDbText
 10
-243.062715
 20
5.641379999999998
 30
0.0
 40
3.2
  1
51795
 41
0.8
  7
高3.2
100
AcDbText
  0
TEXT
  5
61C
330
36
100
AcDbEntity
  8
0
 62
     3
100
AcDbText
 10
-243.062715
 20
10.64138
 30
0.0
 40
3.2
  1
51427
 41
0.8
  7
高3.2
100
AcDbText
  0
TEXT
  5
61D
330
36
100
AcDbEntity
  8
0
 62
     3
100
AcDbText
 10
-243.062715
 20
15.64138
 30
0.0
 40
3.2
  1
51428
 41
0.8
  7
高3.2
100
AcDbText
  0
TEXT
  5
61E
330
36
100
AcDbEntity
  8
0
 62
     3
100
AcDbText
 10
-243.062715
 20
20.64138
 30
0.0
 40
3.2
  1
50522
 41
0.8
  7
高3.2
100
AcDbText
  0
TEXT
  5
61F
330
36
100
AcDbEntity
  8
0
 62
     3
100
AcDbText
 10
-243.062715
 20
30.64138
 30
0.0
 40
3.2
  1
54020
 41
0.8
  7
高3.2
100
AcDbText
  0
TEXT
  5
620
330
36
100
AcDbEntity
  8
0
 62
     3
100
AcDbText
 10
-243.062715
 20
35.64138000000002
 30
0.0
 40
3.2
  1
50459
 41
0.8
  7
高3.2
100
AcDbText
  0
TEXT
  5
621
330
36
100
AcDbEntity
  8
0
 62
     3
100
AcDbText
 10
-243.062715
 20
40.64137999999998
 30
0.0
 40
3.2
  1
50445
 41
0.8
  7
高3.2
100
AcDbText
  0
TEXT
  5
622
330
36
100
AcDbEntity
  8
0
 62
     3
100
AcDbText
 10
-243.062715
 20
45.64137999999998
 30
0.0
 40
3.2
  1
51217
 41
0.8
  7
高3.2
100
AcDbText
  0
TEXT
  5
73D
330
36
100
AcDbEntity
  8
0
 62
     3
100
AcDbText
 10
14.937285
 20
254.64138
 30
0.0
 40
3.2
  1
担　当
  7
高3.2
100
AcDbText
  0
TEXT
  5
73E
330
36
100
AcDbEntity
  8
0
 62
     3
100
AcDbText
 10
-29.062715
 20
254.64138
 30
0.0
 40
3.2
  1
変更・追記内容
  7
高3.2
100
AcDbText
  0
TEXT
  5
73F
330
36
100
AcDbEntity
  8
0
 62
     3
100
AcDbText
 10
-53.94919999966075
 20
249.9708414900917
 30
0.0
 40
2.0
  1
1
  7
高2
100
AcDbText
  0
TEXT
  5
740
330
36
100
AcDbEntity
  8
0
 62
     3
100
AcDbText
 10
-54.25771147641803
 20
244.8010247778188
 30
0.0
 40
2.0
  1
2
  7
高2
100
AcDbText
  0
TEXT
  5
741
330
36
100
AcDbEntity
  8
0
 62
     3
100
AcDbText
 10
-47.06271499999998
 20
254.64138
 30
0.0
 40
3.2
  1
日　付
  7
高3.2
100
AcDbText
  0
TEXT
  5
742
330
36
100
AcDbEntity
  8
0
 62
     3
100
AcDbText
 10
-47.06271499999998
 20
259.64138
 30
0.0
 40
3.2
  1
図　　　　面　　　　略　　　　歴
  7
高3.2
100
AcDbText
  0
TEXT
  5
743
330
36
100
AcDbEntity
  8
0
 62
     3
100
AcDbText
 10
-57.06271499999999
 20
254.64138
 30
0.0
 40
3.2
  1
記号
  7
高3.2
100
AcDbText
  0
LINE
  5
744
330
36
100
AcDbEntity
  8
0
100
AcDbLine
 10
-53.562715
 20
247.932276
 30
0.0
 11
-55.46271499999997
 21
244.64138
 31
0.0
  0
LINE
  5
745
330
36
100
AcDbEntity
  8
0
100
AcDbLine
 10
-53.562715
 20
247.932276
 30
0.0
 11
-51.66271500000002
 21
244.64138
 31
0.0
  0
LINE
  5
746
330
36
100
AcDbEntity
  8
0
100
AcDbLine
 10
-55.46271499999997
 20
244.64138
 30
0.0
 11
-51.66271500000002
 21
244.64138
 31
0.0
  0
LINE
  5
747
330
36
100
AcDbEntity
  8
0
100
AcDbLine
 10
-53.562715
 20
252.9322770000001
 30
0.0
 11
-55.46271499999997
 21
249.64138
 31
0.0
  0
LINE
  5
748
330
36
100
AcDbEntity
  8
0
100
AcDbLine
 10
-53.562715
 20
252.9322770000001
 30
0.0
 11
-51.66271500000002
 21
249.64138
 31
0.0
  0
LINE
  5
749
330
36
100
AcDbEntity
  8
0
100
AcDbLine
 10
-55.46271499999997
 20
249.64138
 30
0.0
 11
-51.66271500000002
 21
249.64138
 31
0.0
  0
LINE
  5
74A
330
36
100
AcDbEntity
  8
0
 62
     3
100
AcDbLine
 10
-58.562715
 20
259.14138
 30
0.0
 11
27.437285
 21
259.14138
 31
0.0
  0
LINE
  5
74B
330
36
100
AcDbEntity
  8
0
 62
     3
100
AcDbLine
 10
-58.562715
 20
254.14138
 30
0.0
 11
27.437285
 21
254.14138
 31
0.0
  0
LINE
  5
74C
330
36
100
AcDbEntity
  8
0
 62
     7
100
AcDbLine
 10
-58.562715
 20
249.14138
 30
0.0
 11
27.437285
 21
249.14138
 31
0.0
  0
LINE
  5
74D
330
36
100
AcDbEntity
  8
0
 62
     3
100
AcDbLine
 10
-58.562715
 20
244.14138
 30
0.0
 11
27.437285
 21
244.14138
 31
0.0
  0
LINE
  5
74E
330
36
100
AcDbEntity
  8
0
 62
     7
100
AcDbLine
 10
13.43728499999994
 20
244.14138
 30
0.0
 11
13.437285
 21
259.14138
 31
0.0
  0
LINE
  5
74F
330
36
100
AcDbEntity
  8
0
 62
     7
100
AcDbLine
 10
-30.562715
 20
244.14138
 30
0.0
 11
-30.562715
 21
259.14138
 31
0.0
  0
LINE
  5
750
330
36
100
AcDbEntity
  8
0
 62
     7
100
AcDbLine
 10
-48.562715
 20
244.14138
 30
0.0
 11
-48.562715
 21
259.14138
 31
0.0
  0
LINE
  5
751
330
36
100
AcDbEntity
  8
0
 62
     3
100
AcDbLine
 10
-58.562715
 20
244.14138
 30
0.0
 11
-58.562715
 21
264.14138
 31
0.0
  0
LINE
  5
8D2
330
36
100
AcDbEntity
  8
0
100
AcDbLine
 10
-226.562715
 20
-9.85862
 30
0.0
 11
-226.562715
 21
55.14137999999999
 31
0.0
  0
TEXT
  5
8D3
330
36
100
AcDbEntity
  8
0
 62
     3
100
AcDbText
 10
-225.062715
 20
-4.35862
 30
0.0
 40
3.2
  1
HR用本体 ピンク
 41
0.6
  7
高3.2
100
AcDbText
  0
TEXT
  5
8D4
330
36
100
AcDbEntity
  8
0
 62
     3
100
AcDbText
 10
-225.062715
 20
-9.35862
 30
0.0
 40
3.2
  1
コード番号名称
 41
0.6
  7
高3.2
100
AcDbText
  0
TEXT
  5
8D5
330
36
100
AcDbEntity
  8
0
 62
     3
100
AcDbText
 10
-225.062715
 20
0.6413799999999999
 30
0.0
 40
3.2
  1
ハンドスピコンパネルプレート黄色
 41
0.6
  7
高3.2
100
AcDbText
  0
TEXT
  5
8D6
330
36
100
AcDbEntity
  8
0
 62
     3
100
AcDbText
 10
-225.062715
 20
5.641379999999998
 30
0.0
 40
3.2
  1
100Vシングルランプ(S)
 41
0.6
  7
高3.2
100
AcDbText
  0
TEXT
  5
8D7
330
36
100
AcDbEntity
  8
0
 62
     3
100
AcDbText
 10
-225.062715
 20
10.64138
 30
0.0
 40
3.2
  1
黒コンセントSH,HL-13=EDK AC-G07FB18
 41
0.6
  7
高3.2
100
AcDbText
  0
TEXT
  5
8D8
330
36
100
AcDbEntity
  8
0
 62
     3
100
AcDbText
 10
-225.062715
 20
15.64138
 30
0.0
 40
3.2
  1
EDK AC-G07FW43SH用､白
 41
0.6
  7
高3.2
100
AcDbText
  0
TEXT
  5
8D9
330
36
100
AcDbEntity
  8
0
 62
     3
100
AcDbText
 10
-225.062715
 20
20.64138
 30
0.0
 40
3.2
  1
スピコン用基板SET
 41
0.6
  7
高3.2
100
AcDbText
  0
TEXT
  5
8DA
330
36
100
AcDbEntity
  8
0
 62
     3
100
AcDbText
 10
-225.062715
 20
30.64138
 30
0.0
 40
3.2
  1
スピコン用 サーキットブレーカー 15A
 41
0.6
  7
高3.2
100
AcDbText
  0
TEXT
  5
8DB
330
36
100
AcDbEntity
  8
0
 62
     3
100
AcDbText
 10
-225.062715
 20
35.64138000000002
 30
0.0
 40
3.2
  1
HR用線止め
 41
0.6
  7
高3.2
100
AcDbText
  0
TEXT
  5
8DC
330
36
100
AcDbEntity
  8
0
 62
     3
100
AcDbText
 10
-225.062715
 20
40.64137999999998
 30
0.0
 40
3.2
  1
ホールプラグ 芝軽 BB-0625-B
 41
0.6
  7
高3.2
100
AcDbText
  0
TEXT
  5
8DD
330
36
100
AcDbEntity
  8
0
 62
     3
100
AcDbText
 10
-225.062715
 20
45.64137999999998
 30
0.0
 40
3.2
  1
SVCT2x3x10Mポッキン(黄)
 41
0.6
  7
高3.2
100
AcDbText
  0
LINE
  5
DAD
330
36
100
AcDbEntity
  8
0
 62
     3
100
AcDbLine
 10
-362.562715
 20
55.14137999999999
 30
0.0
 11
-161.5627149999999
 21
55.14137999999999
 31
0.0
  0
TEXT
  5
DAE
330
36
100
AcDbEntity
  8
0
 62
     3
100
AcDbText
 10
-361.062715
 20
50.64137999999999
 30
0.0
 40
3.2
  1
12
 41
0.8
  7
高3.2
100
AcDbText
  0
TEXT
  5
DB2
330
36
100
AcDbEntity
  8
0
 62
     3
100
AcDbText
 10
-352.062715
 20
25.64138
 30
0.0
 40
3.2
  1
ボリュームツマミ
 41
0.8
  7
高3.2
100
AcDbText
  0
TEXT
  5
DB3
330
36
100
AcDbEntity
  8
0
 62
     3
100
AcDbText
 10
-312.062715
 20
30.64138
 30
0.0
 40
3.2
  1
-
 41
0.8
  7
高3.2
100
AcDbText
  0
TEXT
  5
DB4
330
36
100
AcDbEntity
  8
0
 62
     3
100
AcDbText
 10
-312.062715
 20
50.64137999999999
 30
0.0
 40
3.2
  1
-
 41
0.8
  7
高3.2
100
AcDbText
  0
TEXT
  5
DB5
330
36
100
AcDbEntity
  8
0
 62
     3
100
AcDbText
 10
-312.062715
 20
25.64138
 30
0.0
 40
3.2
  1
-
 41
0.8
  7
高3.2
100
AcDbText
  0
TEXT
  5
DB6
330
36
100
AcDbEntity
  8
0
 62
     3
100
AcDbText
 10
-312.062715
 20
20.64138
 30
0.0
 40
3.2
  1
-
 41
0.8
  7
高3.2
100
AcDbText
  0
TEXT
  5
DB7
330
36
100
AcDbEntity
  8
0
 62
     3
100
AcDbText
 10
-312.062715
 20
15.64138
 30
0.0
 40
3.2
  1
-
 41
0.8
  7
高3.2
100
AcDbText
  0
TEXT
  5
DB8
330
36
100
AcDbEntity
  8
0
 62
     3
100
AcDbText
 10
-312.062715
 20
10.64138
 30
0.0
 40
3.2
  1
-
 41
0.8
  7
高3.2
100
AcDbText
  0
TEXT
  5
DB9
330
36
100
AcDbEntity
  8
0
 62
     3
100
AcDbText
 10
-312.062715
 20
5.641379999999998
 30
0.0
 40
3.2
  1
-
 41
0.8
  7
高3.2
100
AcDbText
  0
TEXT
  5
DBA
330
36
100
AcDbEntity
  8
0
 62
     3
100
AcDbText
 10
-297.062715
 20
-4.358619999999998
 30
0.0
 40
3.2
  1
-
 41
0.8
  7
高3.2
100
AcDbText
  0
TEXT
  5
DBB
330
36
100
AcDbEntity
  8
0
 62
     3
100
AcDbText
 10
-297.062715
 20
0.6413799999999981
 30
0.0
 40
3.2
  1
-
 41
0.8
  7
高3.2
100
AcDbText
  0
TEXT
  5
DBC
330
36
100
AcDbEntity
  8
0
 62
     3
100
AcDbText
 10
-297.062715
 20
20.64138
 30
0.0
 40
3.2
  1
内部
 41
0.8
  7
高3.2
100
AcDbText
  0
TEXT
  5
DBD
330
36
100
AcDbEntity
  8
0
 62
     3
100
AcDbText
 10
-297.062715
 20
25.64138
 30
0.0
 40
3.2
  1
K-8075-6.1
 41
0.8
  7
高3.2
100
AcDbText
  0
TEXT
  5
DBE
330
36
100
AcDbEntity
  8
0
 62
     3
100
AcDbText
 10
-297.062715
 20
35.64138000000002
 30
0.0
 40
3.2
  1
-
 41
0.8
  7
高3.2
100
AcDbText
  0
TEXT
  5
DBF
330
36
100
AcDbEntity
  8
0
 62
     3
100
AcDbText
 10
-297.062715
 20
40.64137999999998
 30
0.0
 40
3.2
  1
-
 41
0.8
  7
高3.2
100
AcDbText
  0
TEXT
  5
DC0
330
36
100
AcDbEntity
  8
0
 62
     3
100
AcDbText
 10
-297.062715
 20
50.64137999999999
 30
0.0
 40
3.2
  1
-
 41
0.8
  7
高3.2
100
AcDbText
  0
TEXT
  5
DC1
330
36
100
AcDbEntity
  8
0
 62
     3
100
AcDbText
 10
-252.062715
 20
50.64137999999999
 30
0.0
 40
3.2
  1
-
 41
0.8
  7
高3.2
100
AcDbText
  0
TEXT
  5
DC2
330
36
100
AcDbEntity
  8
0
 62
     3
100
AcDbText
 10
-252.062715
 20
45.64137999999998
 30
0.0
 40
3.2
  1
-
 41
0.8
  7
高3.2
100
AcDbText
  0
TEXT
  5
DC3
330
36
100
AcDbEntity
  8
0
 62
     3
100
AcDbText
 10
-243.062715
 20
50.64137999999999
 30
0.0
 40
3.2
  1
-
 41
0.8
  7
高3.2
100
AcDbText
  0
TEXT
  5
DC4
330
36
100
AcDbEntity
  8
0
 62
     3
100
AcDbText
 10
-225.062715
 20
50.64137999999999
 30
0.0
 40
3.2
  1
-
 41
0.6
  7
高3.2
100
AcDbText
  0
TEXT
  5
DC5
330
36
100
AcDbEntity
  8
0
 62
     3
100
AcDbText
 10
-225.062715
 20
25.64138
 30
0.0
 40
3.2
  1
ボリュームツマミ　K-8075-6.1(ディスクバルーン用)
 41
0.6
  7
高3.2
100
AcDbText
  0
TEXT
  5
DC6
330
36
100
AcDbEntity
  8
0
 62
     3
100
AcDbText
 10
-243.062715
 20
25.64138
 30
0.0
 40
3.2
  1
55899
 41
0.8
  7
高3.2
100
AcDbText
  0
TEXT
  5
DC7
330
36
100
AcDbEntity
  8
0
 62
     3
100
AcDbText
 10
-252.062715
 20
25.64138000000007
 30
0.0
 40
3.2
  1
1
 41
0.8
  7
高3.2
100
AcDbText
  0
CIRCLE
  5
DDD
330
36
100
AcDbEntity
  8
0
  6
HIDDEN
 62
     7
100
AcDbCircle
 10
-234.930159
 20
220.235129
 30
0.0
 40
3.124999999999985
  0
CIRCLE
  5
DDE
330
36
100
AcDbEntity
  8
0
  6
HIDDEN
 62
     7
100
AcDbCircle
 10
-233.680159
 20
218.070065490537
 30
0.0
 40
0.249999999999996
  0
CIRCLE
  5
DDF
330
36
100
AcDbEntity
  8
0
  6
HIDDEN
 62
     7
100
AcDbCircle
 10
-234.930159
 20
220.235129
 30
0.0
 40
3.549999999999962
  0
CIRCLE
  5
DE0
330
36
100
AcDbEntity
  8
0
100
AcDbCircle
 10
-249.7946604449033
 20
250.5967076629998
 30
0.0
 40
5.0
  0
TEXT
  5
DE1
330
36
100
AcDbEntity
  8
0
 62
     4
100
AcDbText
 10
-251.6916697601159
 20
247.5329069010245
 30
0.0
 40
6.299999999999998
  1
7
  7
高6.3
100
AcDbText
  0
TEXT
  5
DE4
330
36
100
AcDbEntity
  8
0
 62
     7
100
AcDbText
 10
-29.06271499999999
 20
244.64138
 30
0.0
 40
2.5
  1
ツマミ変更　No.6269
  7
高2.5
100
AcDbText
  0
TEXT
  5
DE5
330
36
100
AcDbEntity
  8
0
 62
     7
100
AcDbText
 10
14.93728499999996
 20
244.64138
 30
0.0
 40
2.5
  1
今村
  7
高2.5
100
AcDbText
  0
TEXT
  5
DE6
330
36
100
AcDbEntity
  8
0
 62
     7
100
AcDbText
 10
-47.06271499999998
 20
244.64138
 30
0.0
 40
2.5
  1
'20.10.19
  7
高2.5
100
AcDbText
  0
LINE
  5
EAC
330
36
100
AcDbEntity
  8
0
  6
HIDDEN
 62
     7
100
AcDbLine
 10
-245.2304066786965
 20
230.4628929271411
 30
0.0
 11
-226.4930736743918
 21
230.4628929271411
 31
0.0
  0
LINE
  5
EAD
330
36
100
AcDbEntity
  8
0
  6
HIDDEN
 62
     7
100
AcDbLine
 10
-226.4930736743918
 20
230.4628929271411
 30
0.0
 11
-226.4930736743918
 21
210.2935223696585
 31
0.0
  0
LINE
  5
EAE
330
36
100
AcDbEntity
  8
0
  6
HIDDEN
 62
     7
100
AcDbLine
 10
-226.4930736743918
 20
210.2935223696585
 30
0.0
 11
-245.2304066786965
 21
210.2935223696585
 31
0.0
  0
LINE
  5
EAF
330
36
100
AcDbEntity
  8
0
  6
HIDDEN
 62
     7
100
AcDbLine
 10
-245.2304066786965
 20
210.2935223696585
 30
0.0
 11
-245.2304066786965
 21
230.4628929271411
 31
0.0
  0
LINE
  5
ECA
330
36
100
AcDbEntity
  8
0
100
AcDbLine
 10
-260.191614
 20
94.83037799999999
 30
0.0
 11
-260.714396
 21
92.82690999999999
 31
0.0
  0
LINE
  5
ECB
330
36
100
AcDbEntity
  8
0
100
AcDbLine
 10
-260.714396
 20
92.82690999999999
 30
0.0
 11
-259.25992
 21
94.300574
 31
0.0
  0
LINE
  5
ECC
330
36
100
AcDbEntity
  8
0
100
AcDbLine
 10
-172.725826
 20
94.143296
 30
0.0
 11
-171.127603
 21
92.82690999999999
 31
0.0
  0
LINE
  5
ECD
330
36
100
AcDbEntity
  8
0
100
AcDbLine
 10
-171.127603
 20
92.82690999999999
 30
0.0
 11
-171.853512
 21
94.76604499999998
 31
0.0
  0
LINE
  5
ECE
330
36
100
AcDbEntity
  8
0
100
AcDbLine
 10
-64.42123399999998
 20
170.628851
 30
0.0
 11
-63.120611
 21
171.085112
 31
0.0
  0
LINE
  5
ECF
330
36
100
AcDbEntity
  8
0
100
AcDbLine
 10
-63.120611
 20
171.085112
 30
0.0
 11
-61.98340899999998
 21
171.021786
 31
0.0
  0
LINE
  5
ED0
330
36
100
AcDbEntity
  8
0
100
AcDbLine
 10
-61.98340899999998
 20
171.021786
 30
0.0
 11
-61.375417
 21
170.504886
 31
0.0
  0
LINE
  5
ED1
330
36
100
AcDbEntity
  8
0
100
AcDbLine
 10
-61.375417
 20
170.504886
 30
0.0
 11
-60.84119699999999
 21
169.760281
 31
0.0
  0
LINE
  5
ED2
330
36
100
AcDbEntity
  8
0
100
AcDbLine
 10
-64.417767
 20
169.575632
 30
0.0
 11
-63.300461
 21
169.989372
 31
0.0
  0
LINE
  5
ED3
330
36
100
AcDbEntity
  8
0
100
AcDbLine
 10
-63.300461
 20
169.989372
 30
0.0
 11
-62.335191
 21
169.920413
 31
0.0
  0
LINE
  5
ED4
330
36
100
AcDbEntity
  8
0
100
AcDbLine
 10
-62.335191
 20
169.920413
 30
0.0
 11
-61.937961
 21
169.569264
 31
0.0
  0
LINE
  5
ED5
330
36
100
AcDbEntity
  8
0
100
AcDbLine
 10
-61.937961
 20
169.569264
 30
0.0
 11
-61.58248399999999
 21
169.089093
 31
0.0
  0
LINE
  5
ED6
330
36
100
AcDbEntity
  8
0
100
AcDbLine
 10
-67.42698199999999
 20
169.760281
 30
0.0
 11
-66.34335400000001
 21
169.979232
 31
0.0
  0
LINE
  5
ED7
330
36
100
AcDbEntity
  8
0
100
AcDbLine
 10
-66.34335400000001
 20
169.979232
 30
0.0
 11
-65.21847
 21
170.309689
 31
0.0
  0
LINE
  5
ED8
330
36
100
AcDbEntity
  8
0
100
AcDbLine
 10
-65.21847
 20
170.309689
 30
0.0
 11
-64.822271
 21
170.463407
 31
0.0
  0
LINE
  5
ED9
330
36
100
AcDbEntity
  8
0
100
AcDbLine
 10
-64.822271
 20
170.463407
 30
0.0
 11
-64.42123399999998
 21
170.628851
 31
0.0
  0
LINE
  5
EDA
330
36
100
AcDbEntity
  8
0
100
AcDbLine
 10
-67.18557099999999
 20
168.789858
 30
0.0
 11
-66.11228199999999
 21
168.996375
 31
0.0
  0
LINE
  5
EDB
330
36
100
AcDbEntity
  8
0
100
AcDbLine
 10
-66.11228199999999
 20
168.996375
 30
0.0
 11
-64.99023699999999
 21
169.335988
 31
0.0
  0
LINE
  5
EDC
330
36
100
AcDbEntity
  8
0
100
AcDbLine
 10
-64.99023699999999
 20
169.335988
 30
0.0
 11
-64.705574
 21
169.451884
 31
0.0
  0
LINE
  5
EDD
330
36
100
AcDbEntity
  8
0
100
AcDbLine
 10
-64.705574
 20
169.451884
 30
0.0
 11
-64.417767
 21
169.575632
 31
0.0
  0
LINE
  5
EDE
330
36
100
AcDbEntity
  8
0
100
AcDbLine
 10
-115.612019
 20
171.93365
 30
0.0
 11
-116.558354
 21
170.067749
 31
0.0
  0
LINE
  5
EDF
330
36
100
AcDbEntity
  8
0
100
AcDbLine
 10
-116.558354
 20
170.067749
 30
0.0
 11
-116.697005
 21
168.259561
 31
0.0
  0
LINE
  5
EE0
330
36
100
AcDbEntity
  8
0
100
AcDbLine
 10
-116.697005
 20
168.259561
 30
0.0
 11
-116.187329
 21
167.218447
 31
0.0
  0
LINE
  5
EE1
330
36
100
AcDbEntity
  8
0
100
AcDbLine
 10
-116.187329
 20
167.218447
 30
0.0
 11
-115.707141
 21
166.184712
 31
0.0
  0
LINE
  5
EE2
330
36
100
AcDbEntity
  8
0
100
AcDbLine
 10
-115.707141
 20
166.184712
 30
0.0
 11
-115.969442
 21
164.494046
 31
0.0
  0
LINE
  5
EE3
330
36
100
AcDbEntity
  8
0
100
AcDbLine
 10
-115.969442
 20
164.494046
 30
0.0
 11
-117.047767
 21
162.769236
 31
0.0
  0
LINE
  5
EE4
330
36
100
AcDbEntity
  8
0
100
AcDbLine
 10
-51.964365
 20
193.146303
 30
0.0
 11
-50.510837
 21
194.335181
 31
0.0
  0
LINE
  5
EE5
330
36
100
AcDbEntity
  8
0
100
AcDbLine
 10
-50.510837
 20
194.335181
 30
0.0
 11
-48.962076
 21
194.903088
 31
0.0
  0
LINE
  5
EE6
330
36
100
AcDbEntity
  8
0
100
AcDbLine
 10
-48.962076
 20
194.903088
 30
0.0
 11
-47.490772
 21
194.624526
 31
0.0
  0
LINE
  5
EE7
330
36
100
AcDbEntity
  8
0
100
AcDbLine
 10
-47.490772
 20
194.624526
 30
0.0
 11
-45.99248499999998
 21
194.296685
 31
0.0
  0
LINE
  5
EE8
330
36
100
AcDbEntity
  8
0
100
AcDbLine
 10
-45.99248499999998
 20
194.296685
 30
0.0
 11
-44.416289
 21
194.663345
 31
0.0
  0
LINE
  5
EE9
330
36
100
AcDbEntity
  8
0
100
AcDbLine
 10
-44.416289
 20
194.663345
 30
0.0
 11
-42.89507299999999
 21
195.542189
 31
0.0
  0
LINE
  5
EEA
330
36
100
AcDbEntity
  8
0
100
AcDbLine
 10
-215.180355
 20
203.232046
 30
0.0
 11
-321.120403
 21
203.232046
 31
0.0
  0
LINE
  5
EEB
330
36
100
AcDbEntity
  8
0
100
AcDbLine
 10
-215.180355
 20
237.232046
 30
0.0
 11
-321.120403
 21
237.232046
 31
0.0
  0
LINE
  5
EEC
330
36
100
AcDbEntity
  8
0
100
AcDbLine
 10
-319.870403
 20
205.732046
 30
0.0
 11
-319.870403
 21
234.732046
 31
0.0
  0
LINE
  5
EF0
330
36
100
AcDbEntity
  8
0
100
AcDbLine
 10
-302.4303549999999
 20
217.0941200000001
 30
0.0
 11
-302.4303549999999
 21
191.78284
 31
0.0
  0
LINE
  5
EF1
330
36
100
AcDbEntity
  8
0
100
AcDbLine
 10
-127.430355
 20
217.0941200000001
 30
0.0
 11
-127.430355
 21
191.78284
 31
0.0
  0
LINE
  5
EF2
330
36
100
AcDbEntity
  8
0
100
AcDbLine
 10
-299.9303549999999
 20
193.03284
 30
0.0
 11
-129.930355
 21
193.03284
 31
0.0
  0
LINE
  5
EF6
330
36
100
AcDbEntity
  8
0
100
AcDbLine
 10
-300.1803549999999
 20
122.963678
 30
0.0
 11
-314.9141520000001
 21
122.963678
 31
0.0
  0
LINE
  5
EF7
330
36
100
AcDbEntity
  8
0
100
AcDbLine
 10
-300.1803549999999
 20
181.974788
 30
0.0
 11
-314.914152
 21
181.974788
 31
0.0
  0
LINE
  5
EF8
330
36
100
AcDbEntity
  8
0
100
AcDbLine
 10
-313.6641520000001
 20
125.463678
 30
0.0
 11
-313.664152
 21
179.474788
 31
0.0
  0
LINE
  5
EFC
330
36
100
AcDbEntity
  8
0
100
AcDbLine
 10
-237.6952358915314
 20
225.6149372737768
 30
0.0
 11
-247.6151816554412
 21
246.0967218623239
 31
0.0
1001
ACAD
1000
DSTYLE
1002
{
1070
   147
1040
0.625
1070
    77
1070
     0
1070
   342
1005
0
1002
}
  0
LINE
  5
EFD
330
36
100
AcDbEntity
  8
0
  6
ByBlock
 62
     0
370
    -2
100
AcDbLine
 10
-237.0923525438788
 20
225.9069318548556
 30
0.0
 11
-236.6054964968004
 21
223.3649443734389
 31
0.0
  0
LINE
  5
EFE
330
36
100
AcDbEntity
  8
0
  6
ByBlock
 62
     0
370
    -2
100
AcDbLine
 10
-236.6054964968004
 20
223.3649443734389
 30
0.0
 11
-238.2981192391842
 21
225.3229426926981
 31
0.0
  0
LINE
  5
EFF
330
36
100
AcDbEntity
  8
0
  6
ByBlock
 62
     0
370
    -2
100
AcDbLine
 10
-236.6054964968004
 20
223.3649443734389
 30
0.0
 11
-237.6952358915314
 21
225.6149372737768
 31
0.0
  0
LINE
  5
F00
330
36
100
AcDbEntity
  8
0
100
AcDbLine
 10
-51.95446626301162
 20
192.226318253084
 30
0.0
 11
-63.48743147397676
 21
204.681046493832
 31
0.0
1001
ACAD
1000
DSTYLE
1002
{
1070
   147
1040
0.625
1070
    77
1070
     0
1002
}
  0
LINE
  5
F01
330
36
100
AcDbEntity
  8
0
  6
ByBlock
 62
     0
370
    -2
100
AcDbLine
 10
-51.46295609064002
 20
192.6814522077737
 30
0.0
 11
-50.255882
 21
190.391976
 31
0.0
  0
LINE
  5
F02
330
36
100
AcDbEntity
  8
0
  6
ByBlock
 62
     0
370
    -2
100
AcDbLine
 10
-50.255882
 20
190.391976
 30
0.0
 11
-52.44597643538322
 21
191.7711842983943
 31
0.0
  0
LINE
  5
F03
330
36
100
AcDbEntity
  8
0
  6
ByBlock
 62
     0
370
    -2
100
AcDbLine
 10
-50.255882
 20
190.391976
 30
0.0
 11
-51.95446626301162
 21
192.226318253084
 31
0.0
  0
LINE
  5
F04
330
36
100
AcDbEntity
  8
0
100
AcDbLine
 10
-209.305244
 20
229.044241
 30
0.0
 11
-199.0681340130893
 21
246.0315806050118
 31
0.0
1001
ACAD
1000
DSTYLE
1002
{
1070
   341
1005
DD8
1070
   147
1040
0.625
1070
    77
1070
     0
1002
}
  0
LINE
  5
F06
330
36
100
AcDbEntity
  8
0
100
AcDbLine
 10
-246.987652763158
 20
141.315783895314
 30
0.0
 11
-225.7880374736839
 21
117.4258532093719
 31
0.0
1001
ACAD
1000
DSTYLE
1002
{
1070
   147
1040
0.625
1070
    77
1070
     0
1002
}
  0
LINE
  5
F07
330
36
100
AcDbEntity
  8
0
  6
ByBlock
 62
     0
370
    -2
100
AcDbLine
 10
-247.4886951814415
 20
140.8711653381924
 30
0.0
 11
-248.6469930000001
 21
143.185701
 31
0.0
  0
LINE
  5
F08
330
36
100
AcDbEntity
  8
0
  6
ByBlock
 62
     0
370
    -2
100
AcDbLine
 10
-248.6469930000001
 20
143.185701
 30
0.0
 11
-246.4866103448745
 21
141.7604024524356
 31
0.0
  0
LINE
  5
F09
330
36
100
AcDbEntity
  8
0
  6
ByBlock
 62
     0
370
    -2
100
AcDbLine
 10
-248.6469930000001
 20
143.185701
 30
0.0
 11
-246.987652763158
 21
141.315783895314
 31
0.0
  0
LINE
  5
F0A
330
36
100
AcDbEntity
  8
0
100
AcDbLine
 10
-182.7646434779036
 20
137.274007728694
 30
0.0
 11
-204.8018280441926
 21
117.0653595426119
 31
0.0
1001
ACAD
1000
DSTYLE
1002
{
1070
   147
1040
0.625
1070
    77
1070
     0
1002
}
  0
LINE
  5
F0B
330
36
100
AcDbEntity
  8
0
  6
ByBlock
 62
     0
370
    -2
100
AcDbLine
 10
-183.2173889374298
 20
137.7677188943918
 30
0.0
 11
-180.922087
 21
138.963678
 31
0.0
  0
LINE
  5
F0C
330
36
100
AcDbEntity
  8
0
  6
ByBlock
 62
     0
370
    -2
100
AcDbLine
 10
-180.922087
 20
138.963678
 30
0.0
 11
-182.3118980183775
 21
136.7802965629962
 31
0.0
  0
LINE
  5
F0D
330
36
100
AcDbEntity
  8
0
  6
ByBlock
 62
     0
370
    -2
100
AcDbLine
 10
-180.922087
 20
138.963678
 30
0.0
 11
-182.7646434779036
 21
137.274007728694
 31
0.0
  0
LINE
  5
F0E
330
36
100
AcDbEntity
  8
0
100
AcDbLine
 10
-164.1255308600929
 20
97.17849863577182
 30
0.0
 11
-160.8255536764427
 21
106.3237727284563
 31
0.0
1001
ACAD
1000
DSTYLE
1002
{
1070
   147
1040
0.625
1070
    77
1070
     0
1070
   342
1005
0
1002
}
  0
LINE
  5
F0F
330
36
100
AcDbEntity
  8
0
  6
ByBlock
 62
     0
370
    -2
100
AcDbLine
 10
-163.4954250367265
 20
96.95113149299174
 30
0.0
 11
-164.9740771983142
 21
94.82691
 31
0.0
  0
LINE
  5
F10
330
36
100
AcDbEntity
  8
0
  6
ByBlock
 62
     0
370
    -2
100
AcDbLine
 10
-164.9740771983142
 20
94.82691
 30
0.0
 11
-164.7556366834593
 21
97.40586577855189
 31
0.0
  0
LINE
  5
F11
330
36
100
AcDbEntity
  8
0
  6
ByBlock
 62
     0
370
    -2
100
AcDbLine
 10
-164.9740771983142
 20
94.82691
 30
0.0
 11
-164.1255308600929
 21
97.17849863577182
 31
0.0
  0
LINE
  5
F12
330
36
100
AcDbEntity
  8
0
100
AcDbLine
 10
-265.6053590192358
 20
97.17154310405367
 30
0.0
 11
-268.9970893649283
 21
106.3376837918926
 31
0.0
1001
ACAD
1000
DSTYLE
1002
{
1070
   147
1040
0.625
1070
    77
1070
     0
1070
   342
1005
0
1002
}
  0
LINE
  5
F13
330
36
100
AcDbEntity
  8
0
  6
ByBlock
 62
     0
370
    -2
100
AcDbLine
 10
-264.9771169236378
 20
97.4040103825571
 30
0.0
 11
-264.7377787016999
 21
94.82691
 31
0.0
  0
LINE
  5
F14
330
36
100
AcDbEntity
  8
0
  6
ByBlock
 62
     0
370
    -2
100
AcDbLine
 10
-264.7377787016999
 20
94.82691
 30
0.0
 11
-266.2336011148339
 21
96.93907582555025
 31
0.0
  0
LINE
  5
F15
330
36
100
AcDbEntity
  8
0
  6
ByBlock
 62
     0
370
    -2
100
AcDbLine
 10
-264.7377787016999
 20
94.82691
 30
0.0
 11
-265.6053590192358
 21
97.17154310405367
 31
0.0
  0
LINE
  5
F16
330
36
100
AcDbEntity
  8
0
100
AcDbLine
 10
-254.2083417184899
 20
225.4397486998113
 30
0.0
 11
-261.2220665166529
 21
245.9684434587913
 31
0.0
1001
ACAD
1000
DSTYLE
1002
{
1070
   147
1040
0.625
1070
    77
1070
     0
1070
   342
1005
0
1002
}
  0
LINE
  5
F17
330
36
100
AcDbEntity
  8
0
  6
ByBlock
 62
     0
370
    -2
100
AcDbLine
 10
-253.5744450621514
 20
225.6563224640098
 30
0.0
 11
-253.400076846449
 21
223.0740124726243
 31
0.0
  0
LINE
  5
F18
330
36
100
AcDbEntity
  8
0
  6
ByBlock
 62
     0
370
    -2
100
AcDbLine
 10
-253.400076846449
 20
223.0740124726243
 30
0.0
 11
-254.8422383748285
 21
225.2231749356128
 31
0.0
  0
LINE
  5
F19
330
36
100
AcDbEntity
  8
0
  6
ByBlock
 62
     0
370
    -2
100
AcDbLine
 10
-253.400076846449
 20
223.0740124726243
 30
0.0
 11
-254.2083417184899
 21
225.4397486998113
 31
0.0
  0
LINE
  5
F1A
330
36
100
AcDbEntity
  8
0
100
AcDbLine
 10
-236.6626108407214
 20
232.9504000198242
 30
0.0
 11
-237.9341511823225
 21
245.6216934776336
 31
0.0
1001
ACAD
1000
DSTYLE
1002
{
1070
   147
1040
0.625
1070
    77
1070
     0
1070
   342
1005
0
1002
}
  0
LINE
  5
F1B
330
36
100
AcDbEntity
  8
0
  6
ByBlock
 62
     0
370
    -2
100
AcDbLine
 10
-235.9960858027441
 20
233.0172845472244
 30
0.0
 11
-236.4129942069582
 21
230.4628929271411
 31
0.0
  0
LINE
  5
F1C
330
36
100
AcDbEntity
  8
0
  6
ByBlock
 62
     0
370
    -2
100
AcDbLine
 10
-236.4129942069582
 20
230.4628929271411
 30
0.0
 11
-237.3291358786988
 21
232.8835154924239
 31
0.0
  0
LINE
  5
F1D
330
36
100
AcDbEntity
  8
0
  6
ByBlock
 62
     0
370
    -2
100
AcDbLine
 10
-236.4129942069582
 20
230.4628929271411
 30
0.0
 11
-236.6626108407214
 21
232.9504000198242
 31
0.0
  0
LINE
  5
F1E
330
36
100
AcDbEntity
  8
0
100
AcDbLine
 10
-217.1425156198817
 20
226.3470418091347
 30
0.0
 11
-224.1161542154756
 21
245.6125936083579
 31
0.0
1001
ACAD
1000
DSTYLE
1002
{
1070
   147
1040
0.625
1070
    77
1070
     0
1070
   342
1005
0
1002
}
  0
LINE
  5
F1F
330
36
100
AcDbEntity
  8
0
  6
ByBlock
 62
     0
370
    -2
100
AcDbLine
 10
-216.5126383409222
 20
226.575041326035
 30
0.0
 11
-216.2916092276195
 21
223.9963061133137
 31
0.0
  0
LINE
  5
F20
330
36
100
AcDbEntity
  8
0
  6
ByBlock
 62
     0
370
    -2
100
AcDbLine
 10
-216.2916092276195
 20
223.9963061133137
 30
0.0
 11
-217.7723928988413
 21
226.1190422922344
 31
0.0
  0
LINE
  5
F21
330
36
100
AcDbEntity
  8
0
  6
ByBlock
 62
     0
370
    -2
100
AcDbLine
 10
-216.2916092276195
 20
223.9963061133137
 30
0.0
 11
-217.1425156198817
 21
226.3470418091347
 31
0.0
  0
LINE
  5
F22
330
36
100
AcDbEntity
  8
0
100
AcDbLine
 10
-138.0359622787624
 20
237.494216674758
 30
0.0
 11
-135.6069218171266
 21
245.5280424240593
 31
0.0
1001
ACAD
1000
DSTYLE
1002
{
1070
   147
1040
0.625
1070
    77
1070
     0
1070
   342
1005
0
1002
}
  0
LINE
  5
F23
330
36
100
AcDbEntity
  8
0
  6
ByBlock
 62
     0
370
    -2
100
AcDbLine
 10
-137.394757297162
 20
237.3003472913393
 30
0.0
 11
-138.7594931873257
 21
235.1012053867876
 31
0.0
  0
LINE
  5
F24
330
36
100
AcDbEntity
  8
0
  6
ByBlock
 62
     0
370
    -2
100
AcDbLine
 10
-138.7594931873257
 20
235.1012053867876
 30
0.0
 11
-138.6771672603628
 21
237.6880860581766
 31
0.0
  0
LINE
  5
F25
330
36
100
AcDbEntity
  8
0
  6
ByBlock
 62
     0
370
    -2
100
AcDbLine
 10
-138.7594931873257
 20
235.1012053867876
 30
0.0
 11
-138.0359622787624
 21
237.494216674758
 31
0.0
  0
LINE
  5
F26
330
36
100
AcDbEntity
  8
0
100
AcDbLine
 10
-179.4588846279297
 20
229.0063543021593
 30
0.0
 11
-166.8912927441406
 21
246.2716143956813
 31
0.0
1001
ACAD
1000
DSTYLE
1002
{
1070
   147
1040
0.625
1070
    77
1070
     0
1070
   342
1005
0
1002
}
  0
LINE
  5
F27
330
36
100
AcDbEntity
  8
0
  6
ByBlock
 62
     0
370
    -2
100
AcDbLine
 10
-178.9172993294414
 20
228.6121278054375
 30
0.0
 11
-180.930159
 21
226.985129
 31
0.0
  0
LINE
  5
F28
330
36
100
AcDbEntity
  8
0
  6
ByBlock
 62
     0
370
    -2
100
AcDbLine
 10
-180.930159
 20
226.985129
 30
0.0
 11
-180.000469926418
 21
229.4005807988812
 31
0.0
  0
LINE
  5
F29
330
36
100
AcDbEntity
  8
0
  6
ByBlock
 62
     0
370
    -2
100
AcDbLine
 10
-180.930159
 20
226.985129
 30
0.0
 11
-179.4588846279297
 21
229.0063543021593
 31
0.0
  0
LINE
  5
F2A
330
36
100
AcDbEntity
  8
0
100
AcDbLine
 10
-198.4309919245308
 20
228.9857534224814
 30
0.0
 11
-185.2036654740194
 21
246.6374966964897
 31
0.0
1001
ACAD
1000
DSTYLE
1002
{
1070
   147
1040
0.625
1070
    77
1070
     0
1070
   342
1005
0
1002
}
  0
LINE
  5
F2B
330
36
100
AcDbEntity
  8
0
  6
ByBlock
 62
     0
370
    -2
100
AcDbLine
 10
-197.8949266111513
 20
228.5840531037766
 30
0.0
 11
-199.930159
 21
226.985129
 31
0.0
  0
LINE
  5
F2C
330
36
100
AcDbEntity
  8
0
  6
ByBlock
 62
     0
370
    -2
100
AcDbLine
 10
-199.930159
 20
226.985129
 30
0.0
 11
-198.9670572379103
 21
229.3874537411863
 31
0.0
  0
LINE
  5
F2D
330
36
100
AcDbEntity
  8
0
  6
ByBlock
 62
     0
370
    -2
100
AcDbLine
 10
-199.930159
 20
226.985129
 30
0.0
 11
-198.4309919245308
 21
228.9857534224814
 31
0.0
  0
TEXT
  5
F2E
330
36
100
AcDbEntity
  8
0
 62
     4
100
AcDbText
 10
-320.495403
 20
217.732046
 30
0.0
 40
3.0
  1
68
 50
90.0
100
AcDbText
  0
LINE
  5
F2F
330
36
100
AcDbEntity
  8
0
  6
ByBlock
 62
     0
370
    -2
100
AcDbLine
 10
-320.5402755
 20
234.732046
 30
0.0
 11
-319.870403
 21
237.232046
 31
0.0
  0
LINE
  5
F30
330
36
100
AcDbEntity
  8
0
  6
ByBlock
 62
     0
370
    -2
100
AcDbLine
 10
-319.870403
 20
237.232046
 30
0.0
 11
-319.2005304999999
 21
234.732046
 31
0.0
  0
LINE
  5
F31
330
36
100
AcDbEntity
  8
0
  6
ByBlock
 62
     0
370
    -2
100
AcDbLine
 10
-319.870403
 20
237.232046
 30
0.0
 11
-319.870403
 21
234.732046
 31
0.0
  0
LINE
  5
F32
330
36
100
AcDbEntity
  8
0
  6
ByBlock
 62
     0
370
    -2
100
AcDbLine
 10
-319.2005304999999
 20
205.732046
 30
0.0
 11
-319.870403
 21
203.232046
 31
0.0
  0
LINE
  5
F33
330
36
100
AcDbEntity
  8
0
  6
ByBlock
 62
     0
370
    -2
100
AcDbLine
 10
-319.870403
 20
203.232046
 30
0.0
 11
-320.5402755
 21
205.732046
 31
0.0
  0
LINE
  5
F34
330
36
100
AcDbEntity
  8
0
  6
ByBlock
 62
     0
370
    -2
100
AcDbLine
 10
-319.870403
 20
203.232046
 30
0.0
 11
-319.870403
 21
205.732046
 31
0.0
  0
TEXT
  5
F35
330
36
100
AcDbEntity
  8
0
 62
     4
100
AcDbText
 10
-218.680355
 20
193.65784
 30
0.0
 40
3.0
  1
350
100
AcDbText
  0
LINE
  5
F36
330
36
100
AcDbEntity
  8
0
  6
ByBlock
 62
     0
370
    -2
100
AcDbLine
 10
-129.930355
 20
193.7027125
 30
0.0
 11
-127.430355
 21
193.03284
 31
0.0
  0
LINE
  5
F37
330
36
100
AcDbEntity
  8
0
  6
ByBlock
 62
     0
370
    -2
100
AcDbLine
 10
-127.430355
 20
193.03284
 30
0.0
 11
-129.930355
 21
192.3629675
 31
0.0
  0
LINE
  5
F38
330
36
100
AcDbEntity
  8
0
  6
ByBlock
 62
     0
370
    -2
100
AcDbLine
 10
-127.430355
 20
193.03284
 30
0.0
 11
-129.930355
 21
193.03284
 31
0.0
  0
LINE
  5
F39
330
36
100
AcDbEntity
  8
0
  6
ByBlock
 62
     0
370
    -2
100
AcDbLine
 10
-299.9303549999999
 20
192.3629675
 30
0.0
 11
-302.4303549999999
 21
193.03284
 31
0.0
  0
LINE
  5
F3A
330
36
100
AcDbEntity
  8
0
  6
ByBlock
 62
     0
370
    -2
100
AcDbLine
 10
-302.4303549999999
 20
193.03284
 30
0.0
 11
-299.9303549999999
 21
193.7027125
 31
0.0
  0
LINE
  5
F3B
330
36
100
AcDbEntity
  8
0
  6
ByBlock
 62
     0
370
    -2
100
AcDbLine
 10
-302.4303549999999
 20
193.03284
 30
0.0
 11
-299.9303549999999
 21
193.03284
 31
0.0
  0
TEXT
  5
F3C
330
36
100
AcDbEntity
  8
0
 62
     4
100
AcDbText
 10
-314.289152
 20
149.4692329999999
 30
0.0
 40
3.0
  1
118
 50
90.0
100
AcDbText
  0
LINE
  5
F3D
330
36
100
AcDbEntity
  8
0
  6
ByBlock
 62
     0
370
    -2
100
AcDbLine
 10
-314.3340245
 20
179.474788
 30
0.0
 11
-313.664152
 21
181.974788
 31
0.0
  0
LINE
  5
F3E
330
36
100
AcDbEntity
  8
0
  6
ByBlock
 62
     0
370
    -2
100
AcDbLine
 10
-313.664152
 20
181.974788
 30
0.0
 11
-312.9942795
 21
179.474788
 31
0.0
  0
LINE
  5
F3F
330
36
100
AcDbEntity
  8
0
  6
ByBlock
 62
     0
370
    -2
100
AcDbLine
 10
-313.664152
 20
181.974788
 30
0.0
 11
-313.664152
 21
179.474788
 31
0.0
  0
LINE
  5
F40
330
36
100
AcDbEntity
  8
0
  6
ByBlock
 62
     0
370
    -2
100
AcDbLine
 10
-312.9942795000001
 20
125.463678
 30
0.0
 11
-313.6641520000001
 21
122.963678
 31
0.0
  0
LINE
  5
F41
330
36
100
AcDbEntity
  8
0
  6
ByBlock
 62
     0
370
    -2
100
AcDbLine
 10
-313.6641520000001
 20
122.963678
 30
0.0
 11
-314.3340245
 21
125.463678
 31
0.0
  0
LINE
  5
F42
330
36
100
AcDbEntity
  8
0
  6
ByBlock
 62
     0
370
    -2
100
AcDbLine
 10
-313.6641520000001
 20
122.963678
 30
0.0
 11
-313.6641520000001
 21
125.463678
 31
0.0
  0
ARC
  5
F43
330
36
100
AcDbEntity
  8
0
  6
ByBlock
 62
     0
100
AcDbCircle
 10
-209.305244
 20
229.044241
 30
0.0
 40
0.1562500000000074
100
AcDbArc
 50
58.92549904787625
 51
238.9254990478762
  0
ARC
  5
F44
330
36
100
AcDbEntity
  8
0
  6
ByBlock
 62
     0
100
AcDbCircle
 10
-209.305244
 20
229.044241
 30
0.0
 40
0.1562500000000074
100
AcDbArc
 50
238.9254990478762
 51
58.92549904787625
  0
ENDSEC
  0
SECTION
  2
OBJECTS
  0
DICTIONARY
  5
C
330
0
100
AcDbDictionary
281
     1
  3
ACAD_2007HEADERVARS_RT
350
F48
  3
ACAD_COLOR
350
2F
  3
ACAD_GROUP
350
D
  3
ACAD_LAYOUT
350
2E
  3
ACAD_MATERIAL
350
10
  3
ACAD_MLEADERSTYLE
350
659
  3
ACAD_MLINESTYLE
350
2B
  3
ACAD_PLOTSETTINGS
350
2D
  3
ACAD_PLOTSTYLENAME
350
E
  3
ACAD_SCALELIST
350
647
  3
ACAD_TABLESTYLE
350
30
  3
ACAD_VISUALSTYLE
350
14
  3
AcadDim
350
DD4
  3
ACDB_RECOMPOSE_DATA
350
F46
  3
AcDbVariableDictionary
350
58A
  3
AEC_PROPERTY_SET_DEFS
350
B6B
  3
DWGPROPS
350
F47
  0
DICTIONARY
  5
4B6
330
2
100
AcDbDictionary
280
     1
281
     1
  3
ACAD_LAYERSTATES
360
4B7
  0
DICTIONARY
  5
86B
330
25
100
AcDbDictionary
280
     1
281
     1
  3
ADSK_XREC_LAYER_RECONCILED
360
86C
  0
DICTIONARY
  5
5F9
330
36
100
AcDbDictionary
280
     1
281
     1
  3
ACAD_SORTENTS
360
5FA
  0
DICTIONARY
  5
F48
102
{ACAD_REACTORS
330
C
102
}
330
C
100
AcDbDictionary
281
     1
  3
DIMARCSYM
350
F4A
  3
DIMFXL
350
F49
  3
DIMJOGANG
350
F4B
  0
DICTIONARY
  5
2F
102
{ACAD_REACTORS
330
C
102
}
330
C
100
AcDbDictionary
281
     1
  0
DICTIONARY
  5
D
102
{ACAD_REACTORS
330
C
102
}
330
C
100
AcDbDictionary
281
     1
  0
DICTIONARY
  5
2E
102
{ACAD_REACTORS
330
C
102
}
330
C
100
AcDbDictionary
281
     1
  3
Model
350
39
  3
レイアウト1
350
35
  0
DICTIONARY
  5
10
102
{ACAD_REACTORS
330
C
102
}
330
C
100
AcDbDictionary
281
     1
  3
ByBlock
350
12
  3
ByLayer
350
11
  3
Global
350
13
  0
DICTIONARY
  5
659
102
{ACAD_REACTORS
330
C
102
}
330
C
100
AcDbDictionary
281
     1
  3
Standard
350
65A
  0
DICTIONARY
  5
2B
102
{ACAD_REACTORS
330
C
102
}
330
C
100
AcDbDictionary
281
     1
  3
Standard
350
2C
  0
DICTIONARY
  5
2D
102
{ACAD_REACTORS
330
C
102
}
330
C
100
AcDbDictionary
281
     1
  0
ACDBDICTIONARYWDFLT
  5
E
102
{ACAD_REACTORS
330
C
102
}
330
C
100
AcDbDictionary
281
     1
  3
Normal
350
F
100
AcDbDictionaryWithDefault
340
F
  0
DICTIONARY
  5
647
102
{ACAD_REACTORS
330
C
102
}
330
C
100
AcDbDictionary
281
     1
  3
A0
350
648
  3
A1
350
649
  3
A2
350
64A
  3
A3
350
64B
  3
A4
350
64C
  3
A5
350
64D
  3
A6
350
64E
  3
A7
350
64F
  3
A8
350
650
  3
A9
350
651
  3
B0
350
652
  3
B1
350
653
  3
B2
350
654
  3
B3
350
655
  3
B4
350
656
  3
B5
350
657
  3
B6
350
658
  0
DICTIONARY
  5
30
102
{ACAD_REACTORS
330
C
102
}
330
C
100
AcDbDictionary
281
     1
  3
Standard
350
31
  0
DICTIONARY
  5
14
102
{ACAD_REACTORS
330
C
102
}
330
C
100
AcDbDictionary
281
     1
  3
2dWireframe
350
1A
  3
3D Hidden
350
1C
  3
3dWireframe
350
1B
  3
Basic
350
19
  3
Brighten
350
20
  3
ColorChange
350
24
  3
Conceptual
350
1D
  3
Dim
350
1F
  3
EdgeColorOff
350
646
  3
Facepattern
350
23
  3
Flat
350
15
  3
FlatWithEdges
350
16
  3
Gouraud
350
17
  3
GouraudWithEdges
350
18
  3
Hidden
350
63E
  3
JitterOff
350
644
  3
Linepattern
350
22
  3
OverhangOff
350
645
  3
Realistic
350
1E
  3
Shaded
350
643
  3
Shaded with edges
350
642
  3
Shades of Gray
350
63F
  3
Sketchy
350
640
  3
Thicken
350
21
  3
Wireframe
350
63D
  3
X-Ray
350
641
  0
XRECORD
  5
DD4
102
{ACAD_REACTORS
330
C
102
}
330
C
100
AcDbXrecord
280
     1
 90
   990106
  3

 60
     0
 61
     0
 62
     1
 63
     3
 64
     0
 65
     0
 66
     0
 67
     3
 68
     1
 69
     0
 70
     0
 71
     0
 72
     0
 40
0.0
170
     0
  0
XRECORD
  5
F46
102
{ACAD_REACTORS
330
C
102
}
330
C
100
AcDbXrecord
280
     1
 90
        1
330
31
  0
DICTIONARY
  5
58A
102
{ACAD_REACTORS
330
C
102
}
330
C
100
AcDbDictionary
281
     1
  3
CANNOSCALE
350
86E
  3
CMLEADERSTYLE
350
86D
  3
CTABLESTYLE
350
58B
  3
DIMASSOC
350
625
  3
INDEXCTL
350
624
  3
SORTENTS
350
623
  3
XCLIPFRAME
350
DEB
  0
DICTIONARY
  5
B6B
102
{ACAD_REACTORS
330
C
102
}
330
C
100
AcDbDictionary
281
     1
  0
XRECORD
  5
F47
102
{ACAD_REACTORS
330
C
102
}
330
C
100
AcDbXrecord
280
     1
  1
DWGPROPS COOKIE
  2

  3

  4

  6

  7

  8
imamura
  9

300
=
301
=
302
=
303
=
304
=
305
=
306
=
307
=
308
=
309
=
 40
0.0668275810185185
 41
2455467.455711979
 42
2459159.393692026
  1

 90
        0
  0
DICTIONARY
  5
4B7
102
{ACAD_REACTORS
330
4B6
102
}
330
4B6
100
AcDbDictionary
281
     1
  0
XRECORD
  5
86C
102
{ACAD_REACTORS
330
86B
102
}
330
86B
100
AcDbXrecord
280
     1
290
     1
  0
SORTENTSTABLE
  5
5FA
102
{ACAD_REACTORS
330
5F9
102
}
330
5F9
100
AcDbSortentsTable
330
36
331
117
  5
14C
331
113
  5
148
331
D4
  5
10D
331
10F
  5
144
331
D0
  5
109
331
10B
  5
140
331
CC
  5
105
331
C8
  5
101
331
F2F
  5
C9
331
F2B
  5
DE4
331
F27
  5
EAD
331
5FE
  5
36A
331
EF0
  5
B9
331
F23
  5
EB1
331
EAD
  5
F3F
331
EEC
  5
C5
331
EE8
  5
115
331
61D
  5
ED4
331
41E
  5
8D9
331
619
  5
ED0
331
41A
  5
8D6
331
36D
  5
40B
331
32E
  5
38A
331
2F7
  5
32B
331
8DC
  5
F03
331
416
  5
8D2
331
3A0
  5
5EB
331
369
  5
405
331
32A
  5
386
331
2B4
  5
2FB
331
27D
  5
2B7
331
23E
  5
271
331
8D8
  5
EFF
331
611
  5
EC8
331
412
  5
74E
331
365
  5
3FD
331
326
  5
382
331
2B0
  5
2F7
331
279
  5
2B3
331
23A
  5
26D
331
207
  5
23A
331
361
  5
3F3
331
322
  5
37E
331
2AC
  5
2E8
331
275
  5
2AF
331
236
  5
269
331
203
  5
236
331
1C4
  5
1FB
331
18D
  5
1C0
331
14E
  5
186
331
2A8
  5
2E3
331
271
  5
2AB
331
232
  5
265
331
1FF
  5
232
331
1C0
  5
1F7
331
189
  5
1BC
331
DC4
  5
F21
331
14A
  5
182
331
1FB
  5
22E
331
1BC
  5
1F3
331
185
  5
1B8
331
DC0
  5
F1D
331
146
  5
17E
331
1B8
  5
1EF
331
181
  5
1B4
331
DBC
  5
F19
331
142
  5
17A
331
DB8
  5
F15
331
107
  5
13C
331
103
  5
138
331
C4
  5
FD
331
FF
  5
134
331
C0
  5
F9
331
FB
  5
130
331
BC
  5
F5
331
F1F
  5
EB5
331
F1B
  5
EB9
331
EE4
  5
111
331
F17
  5
EBD
331
EE0
  5
119
331
F13
  5
F07
331
EDC
  5
399
331
ED8
  5
3A1
331
60D
  5
EC4
331
40E
  5
74A
331
750
  5
EF7
331
40A
  5
746
331
394
  5
589
331
35D
  5
3E5
331
31E
  5
37A
331
74C
  5
EF1
331
406
  5
742
331
605
  5
371
331
390
  5
4C9
331
359
  5
3D5
331
31A
  5
376
331
2E3
  5
323
331
2A4
  5
2DF
331
26D
  5
2A7
331
22E
  5
261
331
748
  5
EE5
331
402
  5
73E
331
601
  5
36D
331
38C
  5
4C5
331
316
  5
372
331
2DF
  5
31F
331
2A0
  5
2DB
331
269
  5
2A3
331
22A
  5
25D
331
1F7
  5
22A
331
388
  5
42A
331
312
  5
35E
331
2DB
  5
31B
331
265
  5
29F
331
226
  5
259
331
1F3
  5
226
331
1B4
  5
1EB
331
17D
  5
1B0
331
13E
  5
176
331
261
  5
294
331
222
  5
255
331
1EF
  5
222
331
1B0
  5
1E7
331
179
  5
1AC
331
DB4
  5
F11
331
13A
  5
170
331
1EB
  5
21E
331
1AC
  5
1E3
331
175
  5
1A8
331
136
  5
16C
331
1A8
  5
1DE
331
132
  5
168
331
F7
  5
12C
331
F3
  5
128
331
A4
  5
F0
331
EF
  5
124
331
A0
  5
EC
331
EB
  5
120
331
8D6
  5
EFD
331
9C
  5
D6
331
8D2
  5
EF9
331
98
  5
D2
331
F0F
  5
F0B
331
96
  5
D0
331
F0B
  5
F25
331
589
  5
DDD
331
ED4
  5
3A9
331
F07
  5
F29
331
ED0
  5
3C5
331
F03
  5
F33
331
F42
  5
9B
331
ECC
  5
5E9
331
744
  5
EE1
331
5F5
  5
EC3
331
3FE
  5
620
331
740
  5
EDD
331
384
  5
426
331
30E
  5
35A
331
380
  5
422
331
30A
  5
350
331
2D3
  5
317
331
294
  5
2D2
331
25D
  5
290
331
21E
  5
251
331
5E9
  5
DDE
331
37C
  5
41E
331
306
  5
33A
331
2CF
  5
312
331
290
  5
2CE
331
259
  5
28C
331
21A
  5
24D
331
1E7
  5
21A
331
378
  5
41A
331
302
  5
336
331
2CB
  5
30E
331
28C
  5
2CA
331
255
  5
288
331
216
  5
249
331
1E3
  5
216
331
1A4
  5
1D7
331
16D
  5
1A2
331
12E
  5
164
331
288
  5
2C2
331
251
  5
284
331
212
  5
245
331
1DF
  5
213
331
1A0
  5
1D3
331
169
  5
19E
331
12A
  5
15D
331
19C
  5
1CF
331
165
  5
19A
331
DDF
  5
F37
331
126
  5
159
331
198
  5
1CB
331
161
  5
196
331
122
  5
155
331
11E
  5
151
331
11A
  5
14F
331
F3E
  5
A0
331
436
  5
DC6
331
F3A
  5
BD
331
EFF
  5
F3C
331
F36
  5
BF
331
F32
  5
C6
331
429
  5
DC2
331
3B3
  5
5FE
331
425
  5
DBE
331
339
  5
395
331
2C3
  5
30A
331
24D
  5
280
331
620
  5
ED7
331
421
  5
DBA
331
374
  5
414
331
335
  5
391
331
2FE
  5
332
331
2BF
  5
306
331
249
  5
27C
331
1D7
  5
20E
331
370
  5
40E
331
331
  5
38D
331
2FA
  5
32E
331
2BB
  5
302
331
284
  5
2BE
331
245
  5
278
331
1D3
  5
20A
331
15D
  5
195
331
280
  5
2BA
331
241
  5
274
331
20E
  5
241
331
1CF
  5
206
331
159
  5
191
331
20A
  5
23D
331
1CB
  5
202
331
194
  5
1C7
331
155
  5
18D
331
190
  5
1C3
331
151
  5
189
331
116
  5
14B
331
D7
  5
110
331
112
  5
147
331
D3
  5
10C
331
10E
  5
143
331
CF
  5
108
331
10A
  5
13F
331
CB
  5
104
331
F2E
  5
CC
331
EF7
  5
94
331
F2A
  5
EAC
331
F26
  5
EB0
331
5FD
  5
369
331
F22
  5
EB4
331
EAC
  5
F3E
331
EEB
  5
C4
331
61C
  5
ED3
331
419
  5
8D5
331
36C
  5
40A
331
32D
  5
389
331
2F6
  5
32A
331
2B7
  5
2FE
331
8DB
  5
F02
331
415
  5
751
331
368
  5
402
331
329
  5
385
331
2B3
  5
2FA
331
27C
  5
2B6
331
23D
  5
270
331
610
  5
EC7
331
411
  5
74D
331
364
  5
3F6
331
325
  5
381
331
2AF
  5
2F6
331
278
  5
2B2
331
239
  5
26C
331
206
  5
239
331
1C7
  5
1FE
331
360
  5
3EC
331
321
  5
37D
331
2EA
  5
328
331
2AB
  5
2E6
331
274
  5
2AE
331
235
  5
268
331
202
  5
235
331
1C3
  5
1FA
331
18C
  5
1BF
331
DC7
  5
F24
331
14D
  5
185
331
270
  5
2AA
331
231
  5
264
331
1FE
  5
231
331
1BF
  5
1F6
331
188
  5
1BB
331
DC3
  5
F20
331
149
  5
181
331
1FA
  5
22D
331
1BB
  5
1F2
331
184
  5
1B7
331
DBF
  5
F1C
331
145
  5
17D
331
180
  5
1B3
331
DBB
  5
F18
331
141
  5
179
331
106
  5
13B
331
C7
  5
100
331
102
  5
137
331
C3
  5
FC
331
FE
  5
133
331
BF
  5
F8
331
FA
  5
12F
331
BB
  5
F4
331
F1E
  5
EB8
331
EE7
  5
114
331
F1A
  5
EBC
331
EE3
  5
11E
331
F16
  5
EC0
331
EDF
  5
118
331
F12
  5
F0A
331
EDB
  5
398
331
40D
  5
749
331
74F
  5
EF6
331
409
  5
745
331
393
  5
588
331
35C
  5
3E4
331
31D
  5
379
331
2E6
  5
326
331
2A7
  5
2E2
331
74B
  5
EF0
331
405
  5
741
331
604
  5
370
331
38F
  5
4C8
331
358
  5
3D4
331
319
  5
375
331
2E2
  5
322
331
2A3
  5
2DE
331
26C
  5
2A6
331
22D
  5
260
331
401
  5
73D
331
600
  5
36C
331
38B
  5
436
331
315
  5
365
331
2DE
  5
31E
331
29F
  5
2DA
331
268
  5
2A2
331
229
  5
25C
331
1F6
  5
229
331
1B7
  5
1EE
331
311
  5
35D
331
2DA
  5
31A
331
264
  5
29E
331
225
  5
258
331
1F2
  5
225
331
1B3
  5
1EA
331
17C
  5
1AF
331
DB7
  5
F14
331
13D
  5
175
331
260
  5
293
331
221
  5
254
331
1EE
  5
221
331
1AF
  5
1E6
331
178
  5
1AB
331
DB3
  5
F10
331
139
  5
16F
331
1EA
  5
21D
331
1AB
  5
1E2
331
174
  5
1A7
331
135
  5
16B
331
170
  5
1A5
331
131
  5
167
331
F6
  5
12B
331
F2
  5
127
331
A3
  5
EF
331
EE
  5
123
331
9F
  5
EB
331
EA
  5
11F
331
8D5
  5
EFC
331
9B
  5
D5
331
F0E
  5
F0E
331
95
  5
CF
331
ED7
  5
3A0
331
F0A
  5
F28
331
588
  5
DC7
331
ED3
  5
3A8
331
F06
  5
F2C
331
ECF
  5
3BD
331
F02
  5
F32
331
F41
  5
9A
331
ECB
  5
5EF
331
747
  5
EE4
331
743
  5
EE0
331
5F4
  5
EC2
331
3FD
  5
61F
331
387
  5
429
331
73F
  5
EDC
331
383
  5
425
331
30D
  5
359
331
5EC
  5
DE1
331
3F5
  5
61D
331
37F
  5
421
331
309
  5
349
331
2D2
  5
316
331
293
  5
2D1
331
25C
  5
28F
331
21D
  5
250
331
37B
  5
41D
331
305
  5
339
331
2CE
  5
311
331
28F
  5
2CD
331
258
  5
28B
331
219
  5
24C
331
1E6
  5
219
331
1A7
  5
1DD
331
301
  5
335
331
2CA
  5
30D
331
28B
  5
2C8
331
254
  5
287
331
215
  5
248
331
1E2
  5
215
331
1A3
  5
1D6
331
16C
  5
1A1
331
DE6
  5
F44
331
12D
  5
163
331
250
  5
283
331
211
  5
244
331
1DE
  5
212
331
19F
  5
1D2
331
168
  5
19D
331
129
  5
15C
331
19B
  5
1CE
331
164
  5
199
331
DDE
  5
F36
331
125
  5
158
331
121
  5
154
331
119
  5
14E
331
F3D
  5
9F
331
F39
  5
BC
331
EFE
  5
F3B
331
F35
  5
C2
331
F31
  5
CB
331
42C
  5
DC5
331
428
  5
DC1
331
2C6
  5
30B
331
424
  5
DBD
331
3ED
  5
61B
331
377
  5
419
331
338
  5
394
331
2C2
  5
309
331
24C
  5
27F
331
420
  5
DB9
331
3AA
  5
5FD
331
373
  5
412
331
334
  5
390
331
2FD
  5
331
331
2BE
  5
305
331
287
  5
2C1
331
248
  5
27B
331
1D6
  5
20D
331
330
  5
38C
331
2F9
  5
32D
331
2BA
  5
301
331
283
  5
2BD
331
244
  5
277
331
1D2
  5
209
331
15C
  5
194
331
240
  5
273
331
20D
  5
240
331
1CE
  5
205
331
197
  5
1CA
331
158
  5
190
331
209
  5
23C
331
1CA
  5
201
331
193
  5
1C6
331
154
  5
18C
331
150
  5
188
331
115
  5
14A
331
D6
  5
10F
331
111
  5
146
331
D2
  5
10B
331
10D
  5
142
331
CE
  5
107
331
109
  5
13E
331
CA
  5
103
331
F2D
  5
DE6
331
EF6
  5
93
331
F29
  5
EAF
331
EF2
  5
BB
331
EAF
  5
F41
331
F25
  5
EB3
331
5FC
  5
368
331
F21
  5
EB7
331
5F8
  5
366
331
EEA
  5
C3
331
61F
  5
ED6
331
61B
  5
ED2
331
41C
  5
8D8
331
3E5
  5
619
331
36F
  5
40D
331
418
  5
8D4
331
3A2
  5
5ED
331
36B
  5
409
331
32C
  5
388
331
2B6
  5
2FD
331
27F
  5
2B9
331
8DA
  5
F01
331
613
  5
ECA
331
414
  5
750
331
3DD
  5
613
331
367
  5
401
331
328
  5
384
331
2B2
  5
2F9
331
27B
  5
2B5
331
23C
  5
26F
331
410
  5
74C
331
363
  5
3F5
331
324
  5
380
331
2AE
  5
2F0
331
277
  5
2B1
331
238
  5
26B
331
205
  5
238
331
1C6
  5
1FD
331
18F
  5
1C2
331
320
  5
37C
331
2AA
  5
2E5
331
273
  5
2AD
331
234
  5
267
331
201
  5
234
331
1C2
  5
1F9
331
18B
  5
1BE
331
DC6
  5
F23
331
14C
  5
184
331
230
  5
263
331
1FD
  5
230
331
1BE
  5
1F5
331
187
  5
1BA
331
DC2
  5
F1F
331
148
  5
180
331
1F9
  5
22C
331
1BA
  5
1F1
331
183
  5
1B6
331
DBE
  5
F1B
331
144
  5
17C
331
DBA
  5
F17
331
140
  5
178
331
105
  5
13A
331
C6
  5
FF
331
101
  5
136
331
C2
  5
FB
331
FD
  5
132
331
BE
  5
F7
331
F9
  5
12E
331
BA
  5
F3
331
F1D
  5
EBB
331
EE6
  5
113
331
F19
  5
EBF
331
EE2
  5
11B
331
F15
  5
F09
331
EDE
  5
117
331
F11
  5
F0D
331
EDA
  5
397
331
60F
  5
EC6
331
40C
  5
748
331
3D5
  5
611
331
35F
  5
3EB
331
74E
  5
EF5
331
408
  5
744
331
392
  5
4CB
331
35B
  5
3E3
331
31C
  5
378
331
2E5
  5
325
331
2A6
  5
2E1
331
26F
  5
2A9
331
74A
  5
EEF
331
404
  5
740
331
603
  5
36F
331
3CD
  5
60F
331
38E
  5
4C7
331
357
  5
3CD
331
318
  5
374
331
2E1
  5
321
331
2A2
  5
2DD
331
26B
  5
2A5
331
22C
  5
25F
331
400
  5
622
331
38A
  5
42C
331
314
  5
364
331
2DD
  5
31D
331
29E
  5
2D5
331
267
  5
2A1
331
228
  5
25B
331
1F5
  5
228
331
1B6
  5
1ED
331
17F
  5
1B2
331
310
  5
35C
331
263
  5
29D
331
224
  5
257
331
1F1
  5
224
331
1B2
  5
1E9
331
17B
  5
1AE
331
DB6
  5
F13
331
13C
  5
174
331
220
  5
253
331
1ED
  5
220
331
1AE
  5
1E5
331
177
  5
1AA
331
DB2
  5
F0F
331
138
  5
16E
331
1E9
  5
21C
331
1AA
  5
1E1
331
173
  5
1A6
331
DAE
  5
F06
331
134
  5
16A
331
130
  5
166
331
F5
  5
12A
331
F1
  5
126
331
A2
  5
EE
331
ED
  5
122
331
9E
  5
EA
331
8D4
  5
EFB
331
9A
  5
D4
331
F0D
  5
F27
331
94
  5
CE
331
ED6
  5
39B
331
F09
  5
F2B
331
ED2
  5
3A3
331
F44
  5
F2F
331
ECE
  5
3BC
331
F01
  5
F31
331
F40
  5
99
331
ECA
  5
5EE
331
746
  5
EE3
331
742
  5
EDF
331
5F3
  5
EC1
331
3FC
  5
61E
331
3C5
  5
60D
331
386
  5
428
331
73E
  5
EDB
331
382
  5
424
331
30C
  5
358
331
2D5
  5
319
331
25F
  5
292
331
5EB
  5
DE0
331
3F4
  5
61C
331
3BD
  5
609
331
37E
  5
420
331
308
  5
342
331
2D1
  5
315
331
292
  5
2D0
331
25B
  5
28E
331
21C
  5
24F
331
37A
  5
41C
331
304
  5
338
331
2CD
  5
310
331
28E
  5
2CC
331
257
  5
28A
331
218
  5
24B
331
1E5
  5
218
331
1A6
  5
1DC
331
16F
  5
1A4
331
300
  5
334
331
28A
  5
2C6
331
253
  5
286
331
214
  5
247
331
1E1
  5
214
331
1A2
  5
1D5
331
16B
  5
1A0
331
DE5
  5
F43
331
12C
  5
162
331
210
  5
243
331
1DD
  5
211
331
19E
  5
1D1
331
167
  5
19C
331
DE1
  5
F39
331
128
  5
15B
331
19A
  5
1CD
331
163
  5
198
331
DDD
  5
F35
331
124
  5
157
331
120
  5
153
331
118
  5
14D
331
F3C
  5
A5
331
F38
  5
C1
331
EFD
  5
F3A
331
F34
  5
C8
331
F30
  5
CA
331
42B
  5
DC4
331
3B5
  5
600
331
427
  5
DC0
331
24F
  5
282
331
622
  5
ED9
331
423
  5
DBC
331
3EC
  5
61A
331
376
  5
418
331
337
  5
393
331
2C1
  5
308
331
24B
  5
27E
331
3A9
  5
5FC
331
372
  5
410
331
333
  5
38F
331
2FC
  5
330
331
2BD
  5
304
331
286
  5
2C0
331
247
  5
27A
331
1D5
  5
20C
331
2F8
  5
32C
331
2B9
  5
300
331
282
  5
2BC
331
243
  5
276
331
1D1
  5
208
331
15B
  5
193
331
20C
  5
23F
331
1CD
  5
204
331
196
  5
1C9
331
157
  5
18F
331
208
  5
23B
331
1C9
  5
200
331
192
  5
1C5
331
153
  5
18B
331
114
  5
149
331
D5
  5
10E
331
110
  5
145
331
D1
  5
10A
331
10C
  5
141
331
CD
  5
106
331
108
  5
13D
331
C9
  5
102
331
F2C
  5
DE5
331
F28
  5
EAE
331
5FF
  5
36B
331
EF1
  5
BA
331
EAE
  5
F40
331
F24
  5
EB2
331
5FB
  5
367
331
F20
  5
EB6
331
EE9
  5
116
331
61E
  5
ED5
331
41F
  5
DB8
331
61A
  5
ED1
331
41B
  5
8D7
331
3E4
  5
616
331
36E
  5
40C
331
32F
  5
38B
331
8DD
  5
F04
331
616
  5
ECB
331
417
  5
8D3
331
3A1
  5
5EC
331
36A
  5
406
331
32B
  5
387
331
2B5
  5
2FC
331
27E
  5
2B8
331
23F
  5
272
331
8D9
  5
F00
331
612
  5
EC9
331
413
  5
74F
331
3DC
  5
612
331
366
  5
3FE
331
327
  5
383
331
2F0
  5
329
331
2B1
  5
2F8
331
27A
  5
2B4
331
23B
  5
26E
331
362
  5
3F4
331
323
  5
37F
331
2AD
  5
2EA
331
276
  5
2B0
331
237
  5
26A
331
204
  5
237
331
1C5
  5
1FC
331
18E
  5
1C1
331
14F
  5
187
331
2E8
  5
327
331
2A9
  5
2E4
331
272
  5
2AC
331
233
  5
266
331
200
  5
233
331
1C1
  5
1F8
331
18A
  5
1BD
331
DC5
  5
F22
331
14B
  5
183
331
1FC
  5
22F
331
1BD
  5
1F4
331
186
  5
1B9
331
DC1
  5
F1E
331
147
  5
17F
331
1F8
  5
22B
331
1B9
  5
1F0
331
182
  5
1B5
331
DBD
  5
F1A
331
143
  5
17B
331
DB9
  5
F16
331
104
  5
139
331
C5
  5
FE
331
100
  5
135
331
C1
  5
FA
331
FC
  5
131
331
BD
  5
F6
331
F8
  5
12D
331
B9
  5
F2
331
F1C
  5
EBA
331
EE5
  5
112
331
F18
  5
EBE
331
EE1
  5
11A
331
F14
  5
F08
331
EDD
  5
39A
331
F10
  5
F0C
331
ED9
  5
3A2
331
60E
  5
EC5
331
40F
  5
74B
331
751
  5
EF8
331
40B
  5
747
331
3D4
  5
610
331
35E
  5
3E6
331
31F
  5
37B
331
74D
  5
EF2
331
407
  5
743
331
391
  5
4CA
331
35A
  5
3DC
331
31B
  5
377
331
2E4
  5
324
331
2A5
  5
2E0
331
26E
  5
2A8
331
22F
  5
262
331
749
  5
EEE
331
403
  5
73F
331
602
  5
36E
331
3CC
  5
60E
331
38D
  5
4C6
331
317
  5
373
331
2E0
  5
320
331
2A1
  5
2DC
331
26A
  5
2A4
331
22B
  5
25E
331
389
  5
42B
331
313
  5
35F
331
2DC
  5
31C
331
29D
  5
2D4
331
266
  5
2A0
331
227
  5
25A
331
1F4
  5
227
331
1B5
  5
1EC
331
17E
  5
1B1
331
13F
  5
177
331
262
  5
295
331
223
  5
256
331
1F0
  5
223
331
1B1
  5
1E8
331
17A
  5
1AD
331
DB5
  5
F12
331
13B
  5
173
331
1EC
  5
21F
331
1AD
  5
1E4
331
176
  5
1A9
331
137
  5
16D
331
1E8
  5
21B
331
1A9
  5
1DF
331
DAD
  5
F05
331
133
  5
169
331
F4
  5
129
331
A5
  5
F1
331
F0
  5
125
331
A1
  5
ED
331
EC
  5
121
331
8D7
  5
EFE
331
9D
  5
D7
331
8D3
  5
EFA
331
99
  5
D3
331
97
  5
D1
331
F0C
  5
F26
331
93
  5
CD
331
ED5
  5
3BB
331
F08
  5
F2A
331
ED1
  5
3CC
331
F04
  5
F30
331
F43
  5
F2E
331
ECD
  5
5EA
331
F00
  5
F34
331
745
  5
EE2
331
3FF
  5
621
331
741
  5
EDE
331
3C4
  5
60A
331
385
  5
427
331
30F
  5
35B
331
73D
  5
EDA
331
381
  5
423
331
30B
  5
357
331
2D4
  5
318
331
295
  5
2D3
331
25E
  5
291
331
21F
  5
252
331
5EA
  5
DDF
331
3BC
  5
608
331
37D
  5
41F
331
307
  5
33B
331
2D0
  5
314
331
291
  5
2CF
331
25A
  5
28D
331
21B
  5
24E
331
379
  5
41B
331
303
  5
337
331
2CC
  5
30F
331
28D
  5
2CB
331
256
  5
289
331
217
  5
24A
331
1E4
  5
217
331
1A5
  5
1D8
331
16E
  5
1A3
331
12F
  5
165
331
2C8
  5
30C
331
289
  5
2C3
331
252
  5
285
331
213
  5
246
331
1A1
  5
1D4
331
16A
  5
19F
331
DE4
  5
F42
331
12B
  5
161
331
1DC
  5
210
331
19D
  5
1D0
331
166
  5
19B
331
DE0
  5
F38
331
127
  5
15A
331
1D8
  5
20F
331
199
  5
1CC
331
162
  5
197
331
123
  5
156
331
11F
  5
152
331
11B
  5
150
331
F3F
  5
A1
331
F3B
  5
BE
331
F37
  5
C0
331
EFC
  5
F3D
331
F33
  5
C7
331
EF8
  5
95
331
42A
  5
DC3
331
3B4
  5
5FF
331
426
  5
DBF
331
33A
  5
396
331
24E
  5
281
331
621
  5
ED8
331
422
  5
DBB
331
375
  5
416
331
336
  5
392
331
2FF
  5
333
331
2C0
  5
307
331
24A
  5
27D
331
3A8
  5
5FB
331
371
  5
40F
331
332
  5
38E
331
2FB
  5
32F
331
2BC
  5
303
331
285
  5
2BF
331
246
  5
279
331
1D4
  5
20B
331
2B8
  5
2FF
331
281
  5
2BB
331
242
  5
275
331
20F
  5
242
331
1D0
  5
207
331
15A
  5
192
331
20B
  5
23E
331
1CC
  5
203
331
195
  5
1C8
331
156
  5
18E
331
1C8
  5
1FF
331
191
  5
1C4
331
152
  5
18A
  0
XRECORD
  5
F4A
102
{ACAD_REACTORS
330
F48
102
}
330
F48
100
AcDbXrecord
280
     1
 70
     2
  0
XRECORD
  5
F49
102
{ACAD_REACTORS
330
F48
102
}
330
F48
100
AcDbXrecord
280
     1
 40
1.25
  0
XRECORD
  5
F4B
102
{ACAD_REACTORS
330
F48
102
}
330
F48
100
AcDbXrecord
280
     1
 40
1.570796326794896
  0
LAYOUT
  5
39
102
{ACAD_XDICTIONARY
360
F6F
102
}
102
{ACAD_REACTORS
330
2E
102
}
330
2E
100
AcDbPlotSettings
  1

  2
DocuPrint 305
  4

  6

 40
0.0
 41
0.0
 42
0.0
 43
0.0
 44
0.0
 45
0.0
 46
0.0
 47
0.0
 48
0.0
 49
0.0
140
0.0
141
0.0
142
1.0
143
1.0
 70
  1712
 72
     0
 73
     0
 74
     0
  7

 75
     0
147
1.0
148
0.0
149
0.0
100
AcDbLayout
  1
Model
 70
     1
 71
     0
 10
0.0
 20
0.0
 11
12.0
 21
9.0
 12
0.0
 22
0.0
 32
0.0
 14
0.0
 24
0.0
 34
0.0
 15
0.0
 25
0.0
 35
0.0
146
0.0
 13
0.0
 23
0.0
 33
0.0
 16
1.0
 26
0.0
 36
0.0
 17
0.0
 27
1.0
 37
0.0
 76
     0
330
36
331
56
  0
LAYOUT
  5
35
102
{ACAD_XDICTIONARY
360
F6D
102
}
102
{ACAD_REACTORS
330
2E
102
}
330
2E
100
AcDbPlotSettings
  1

  2
DocuPrint 305
  4

  6

 40
0.0
 41
0.0
 42
0.0
 43
0.0
 44
0.0
 45
0.0
 46
0.0
 47
0.0
 48
0.0
 49
0.0
140
0.0
141
0.0
142
1.0
143
1.0
 70
   688
 72
     0
 73
     0
 74
     5
  7

 75
    16
147
1.0
148
0.0
149
0.0
100
AcDbLayout
  1
レイアウト1
 70
     1
 71
     1
 10
0.0
 20
0.0
 11
12.0
 21
9.0
 12
0.0
 22
0.0
 32
0.0
 14
1.000000000000000E+20
 24
1.000000000000000E+20
 34
1.000000000000000E+20
 15
-1.000000000000000E+20
 25
-1.000000000000000E+20
 35
-1.000000000000000E+20
146
0.0
 13
0.0
 23
0.0
 33
0.0
 16
1.0
 26
0.0
 36
0.0
 17
0.0
 27
1.0
 37
0.0
 76
     0
330
32
  0
MATERIAL
  5
12
102
{ACAD_XDICTIONARY
360
62D
102
}
102
{ACAD_REACTORS
330
10
102
}
330
10
100
AcDbMaterial
  1
ByBlock
  0
MATERIAL
  5
11
102
{ACAD_XDICTIONARY
360
62B
102
}
102
{ACAD_REACTORS
330
10
102
}
330
10
100
AcDbMaterial
  1
ByLayer
  0
MATERIAL
  5
13
102
{ACAD_XDICTIONARY
360
62F
102
}
102
{ACAD_REACTORS
330
10
102
}
330
10
100
AcDbMaterial
  1
Global
  0
MLEADERSTYLE
  5
65A
102
{ACAD_REACTORS
330
659
102
}
330
659
100
AcDbMLeaderStyle
170
     2
171
     1
172
     0
 90
        2
 40
0.0
 41
0.0
173
     1
 91
-1056964608
340
28
 92
       -2
290
     1
 42
0.09
291
     1
 43
0.36
  3
Standard
 44
0.18
300

342
26
174
     1
178
     6
175
     1
176
     0
 93
-1056964608
 45
0.18
292
     0
297
     0
 46
0.18
 94
-1056964608
 47
1.0
 49
1.0
140
1.0
293
     1
141
0.0
294
     1
177
     0
142
1.0
295
     0
296
     0
143
0.125
1001
ACAD_MLEADERVER
1070
     2
  0
MLINESTYLE
  5
2C
102
{ACAD_REACTORS
330
2B
102
}
330
2B
100
AcDbMlineStyle
  2
STANDARD
 70
     0
  3

 62
   256
 51
90.0
 52
90.0
 71
     2
 49
0.5
 62
   256
  6
BYLAYER
 49
-0.5
 62
   256
  6
BYLAYER
  0
ACDBPLACEHOLDER
  5
F
102
{ACAD_REACTORS
330
E
102
}
330
E
  0
SCALE
  5
648
102
{ACAD_REACTORS
330
647
102
}
330
647
100
AcDbScale
 70
     0
300
1:1
140
1.0
141
1.0
290
     1
  0
SCALE
  5
649
102
{ACAD_REACTORS
330
647
102
}
330
647
100
AcDbScale
 70
     0
300
1/128" = 1'-0"
140
0.0078125
141
12.0
290
     0
  0
SCALE
  5
64A
102
{ACAD_REACTORS
330
647
102
}
330
647
100
AcDbScale
 70
     0
300
1/64" = 1'-0"
140
0.015625
141
12.0
290
     0
  0
SCALE
  5
64B
102
{ACAD_REACTORS
330
647
102
}
330
647
100
AcDbScale
 70
     0
300
1/32" = 1'-0"
140
0.03125
141
12.0
290
     0
  0
SCALE
  5
64C
102
{ACAD_REACTORS
330
647
102
}
330
647
100
AcDbScale
 70
     0
300
1/16" = 1'-0"
140
0.0625
141
12.0
290
     0
  0
SCALE
  5
64D
102
{ACAD_REACTORS
330
647
102
}
330
647
100
AcDbScale
 70
     0
300
3/32" = 1'-0"
140
0.09375
141
12.0
290
     0
  0
SCALE
  5
64E
102
{ACAD_REACTORS
330
647
102
}
330
647
100
AcDbScale
 70
     0
300
1/8" = 1'-0"
140
0.125
141
12.0
290
     0
  0
SCALE
  5
64F
102
{ACAD_REACTORS
330
647
102
}
330
647
100
AcDbScale
 70
     0
300
3/16" = 1'-0"
140
0.1875
141
12.0
290
     0
  0
SCALE
  5
650
102
{ACAD_REACTORS
330
647
102
}
330
647
100
AcDbScale
 70
     0
300
1/4" = 1'-0"
140
0.25
141
12.0
290
     0
  0
SCALE
  5
651
102
{ACAD_REACTORS
330
647
102
}
330
647
100
AcDbScale
 70
     0
300
3/8" = 1'-0"
140
0.375
141
12.0
290
     0
  0
SCALE
  5
652
102
{ACAD_REACTORS
330
647
102
}
330
647
100
AcDbScale
 70
     0
300
1/2" = 1'-0"
140
0.5
141
12.0
290
     0
  0
SCALE
  5
653
102
{ACAD_REACTORS
330
647
102
}
330
647
100
AcDbScale
 70
     0
300
3/4" = 1'-0"
140
0.75
141
12.0
290
     0
  0
SCALE
  5
654
102
{ACAD_REACTORS
330
647
102
}
330
647
100
AcDbScale
 70
     0
300
1" = 1'-0"
140
1.0
141
12.0
290
     0
  0
SCALE
  5
655
102
{ACAD_REACTORS
330
647
102
}
330
647
100
AcDbScale
 70
     0
300
1-1/2" = 1'-0"
140
1.5
141
12.0
290
     0
  0
SCALE
  5
656
102
{ACAD_REACTORS
330
647
102
}
330
647
100
AcDbScale
 70
     0
300
3" = 1'-0"
140
3.0
141
12.0
290
     0
  0
SCALE
  5
657
102
{ACAD_REACTORS
330
647
102
}
330
647
100
AcDbScale
 70
     0
300
6" = 1'-0"
140
6.0
141
12.0
290
     0
  0
SCALE
  5
658
102
{ACAD_REACTORS
330
647
102
}
330
647
100
AcDbScale
 70
     0
300
1'-0" = 1'-0"
140
12.0
141
12.0
290
     0
  0
TABLESTYLE
  5
31
102
{ACAD_XDICTIONARY
360
870
102
}
102
{ACAD_REACTORS
330
30
102
}
330
30
100
AcDbTableStyle
  3
Standard
 70
     0
 71
     0
 40
0.06
 41
0.06
280
     0
281
     0
  7
STANDARD
140
0.18
170
     2
 62
     0
 63
     7
283
     0
274
    -2
284
     1
 64
     0
275
    -2
285
     1
 65
     0
276
    -2
286
     1
 66
     0
277
    -2
287
     1
 67
     0
278
    -2
288
     1
 68
     0
279
    -2
289
     1
 69
     0
  7
STANDARD
140
0.25
170
     5
 62
     0
 63
     7
283
     0
274
    -2
284
     1
 64
     0
275
    -2
285
     1
 65
     0
276
    -2
286
     1
 66
     0
277
    -2
287
     1
 67
     0
278
    -2
288
     1
 68
     0
279
    -2
289
     1
 69
     0
  7
STANDARD
140
0.18
170
     5
 62
     0
 63
     7
283
     0
274
    -2
284
     1
 64
     0
275
    -2
285
     1
 65
     0
276
    -2
286
     1
 66
     0
277
    -2
287
     1
 67
     0
278
    -2
288
     1
 68
     0
279
    -2
289
     1
 69
     0
  0
VISUALSTYLE
  5
1A
102
{ACAD_XDICTIONARY
360
F56
102
}
102
{ACAD_REACTORS
330
14
102
}
330
14
100
AcDbVisualStyle
  2

 70
     4
 71
     0
 72
     2
 73
     0
 90
        0
 40
-0.6
 41
-30.0
 62
     5
 63
     7
 74
     1
 91
        4
 64
     7
 65
   257
 75
     1
175
     1
 42
1.0
 92
        0
 66
   257
 43
1.0
 76
     1
 77
     6
 78
     2
 67
     7
 79
     5
170
     0
171
     0
290
     0
174
     0
 93
        1
 44
0.0
173
     0
291
     0
 45
0.0
1001
ACAD
1000
AcDbSavedByObjectVersion
1070
     0
  0
VISUALSTYLE
  5
1C
102
{ACAD_XDICTIONARY
360
F5A
102
}
102
{ACAD_REACTORS
330
14
102
}
330
14
100
AcDbVisualStyle
  2

 70
     6
 71
     1
 72
     2
 73
     2
 90
        0
 40
-0.6
 41
-30.0
 62
     5
 63
     7
 74
     2
 91
        2
 64
     7
 65
   257
 75
     2
175
     1
 42
40.0
 92
        0
 66
   257
 43
1.0
 76
     1
 77
     6
 78
     2
 67
     7
 79
     3
170
     0
171
     0
290
     0
174
     0
 93
        1
 44
0.0
173
     0
291
     0
 45
0.0
1001
ACAD
1000
AcDbSavedByObjectVersion
1070
     0
  0
VISUALSTYLE
  5
1B
102
{ACAD_XDICTIONARY
360
F58
102
}
102
{ACAD_REACTORS
330
14
102
}
330
14
100
AcDbVisualStyle
  2

 70
     5
 71
     0
 72
     2
 73
     0
 90
        0
 40
-0.6
 41
-30.0
 62
     5
 63
     7
 74
     1
 91
        4
 64
     7
 65
   257
 75
     1
175
     1
 42
1.0
 92
        0
 66
   257
 43
1.0
 76
     1
 77
     6
 78
     2
 67
     7
 79
     5
170
     0
171
     0
290
     0
174
     0
 93
        1
 44
0.0
173
     0
291
     0
 45
0.0
1001
ACAD
1000
AcDbSavedByObjectVersion
1070
     0
  0
VISUALSTYLE
  5
19
102
{ACAD_XDICTIONARY
360
F54
102
}
102
{ACAD_REACTORS
330
14
102
}
330
14
100
AcDbVisualStyle
  2

 70
     7
 71
     1
 72
     0
 73
     1
 90
        0
 40
-0.6
 41
-30.0
 62
     5
 63
     7
 74
     0
 91
        4
 64
     7
 65
   257
 75
     1
175
     1
 42
1.0
 92
        8
 66
     7
 43
1.0
 76
     1
 77
     6
 78
     2
 67
     7
 79
     5
170
     0
171
     0
290
     0
174
     0
 93
        1
 44
0.0
173
     0
291
     1
 45
0.0
1001
ACAD
1000
AcDbSavedByObjectVersion
1070
     0
  0
VISUALSTYLE
  5
20
102
{ACAD_XDICTIONARY
360
F62
102
}
102
{ACAD_REACTORS
330
14
102
}
330
14
100
AcDbVisualStyle
  2

 70
    12
 71
     2
 72
     2
 73
     0
 90
        0
 40
-0.6
 41
-30.0
 62
     5
 63
     7
 74
     1
 91
        4
 64
     7
 65
   257
 75
     1
175
     1
 42
1.0
 92
        8
 66
     7
 43
1.0
 76
     1
 77
     6
 78
     2
 67
     7
 79
     5
170
     0
171
     0
290
     0
174
     0
 93
        1
 44
50.0
173
     0
291
     1
 45
0.0
1001
ACAD
1000
AcDbSavedByObjectVersion
1070
     0
  0
VISUALSTYLE
  5
24
102
{ACAD_XDICTIONARY
360
F6A
102
}
102
{ACAD_REACTORS
330
14
102
}
330
14
100
AcDbVisualStyle
  2

 70
    16
 71
     2
 72
     2
 73
     3
 90
        0
 40
-0.6
 41
-30.0
 62
     5
 63
     8
 74
     1
 91
        4
 64
     7
 65
   257
 75
     1
175
     1
 42
1.0
 92
        8
 66
     8
 43
1.0
 76
     1
 77
     6
 78
     2
 67
     7
 79
     5
170
     0
171
     0
290
     0
174
     0
 93
        1
 44
0.0
173
     0
291
     1
 45
0.0
1001
ACAD
1000
AcDbSavedByObjectVersion
1070
     0
  0
VISUALSTYLE
  5
1D
102
{ACAD_XDICTIONARY
360
F5C
102
}
102
{ACAD_REACTORS
330
14
102
}
330
14
100
AcDbVisualStyle
  2

 70
     9
 71
     3
 72
     2
 73
     0
 90
        0
 40
-0.6
 41
-30.0
 62
     5
 63
     7
 74
     2
 91
        2
 64
     7
 65
   257
 75
     1
175
     1
 42
40.0
 92
        8
 66
     7
 43
1.0
 76
     1
 77
     6
 78
     2
 67
     7
 79
     3
170
     0
171
     0
290
     0
174
     0
 93
        1
 44
0.0
173
     0
291
     0
 45
0.0
1001
ACAD
1000
AcDbSavedByObjectVersion
1070
     0
  0
VISUALSTYLE
  5
1F
102
{ACAD_XDICTIONARY
360
F60
102
}
102
{ACAD_REACTORS
330
14
102
}
330
14
100
AcDbVisualStyle
  2

 70
    11
 71
     2
 72
     2
 73
     0
 90
        0
 40
-0.6
 41
-30.0
 62
     5
 63
     7
 74
     1
 91
        4
 64
     7
 65
   257
 75
     1
175
     1
 42
1.0
 92
        8
 66
     7
 43
1.0
 76
     1
 77
     6
 78
     2
 67
     7
 79
     5
170
     0
171
     0
290
     0
174
     0
 93
        1
 44
-50.0
173
     0
291
     1
 45
0.0
1001
ACAD
1000
AcDbSavedByObjectVersion
1070
     0
  0
VISUALSTYLE
  5
646
102
{ACAD_XDICTIONARY
360
F83
102
}
102
{ACAD_REACTORS
330
14
102
}
330
14
100
AcDbVisualStyle
  2

 70
    22
 71
     2
 72
     2
 73
     0
 90
        0
 40
-0.6
 41
-30.0
 62
     5
 63
     7
 74
     1
 91
        4
 64
     7
 65
   257
 75
     1
175
     1
 42
1.0
 92
        8
 66
     7
 43
1.0
 76
     1
 77
     6
 78
     2
 67
     7
 79
     5
170
     0
171
     0
290
     0
174
     0
 93
        1
 44
0.0
173
     0
291
     1
 45
0.0
1001
ACAD
1000
AcDbSavedByObjectVersion
1070
     0
  0
VISUALSTYLE
  5
23
102
{ACAD_XDICTIONARY
360
F68
102
}
102
{ACAD_REACTORS
330
14
102
}
330
14
100
AcDbVisualStyle
  2

 70
    15
 71
     2
 72
     2
 73
     0
 90
        0
 40
-0.6
 41
-30.0
 62
     5
 63
     7
 74
     1
 91
        4
 64
     7
 65
   257
 75
     1
175
     1
 42
1.0
 92
        8
 66
     7
 43
1.0
 76
     1
 77
     6
 78
     2
 67
     7
 79
     5
170
     0
171
     0
290
     0
174
     0
 93
        1
 44
0.0
173
     0
291
     1
 45
0.0
1001
ACAD
1000
AcDbSavedByObjectVersion
1070
     0
  0
VISUALSTYLE
  5
15
102
{ACAD_XDICTIONARY
360
F4C
102
}
102
{ACAD_REACTORS
330
14
102
}
330
14
100
AcDbVisualStyle
  2

 70
     0
 71
     2
 72
     1
 73
     1
 90
        2
 40
-0.6
 41
30.0
 62
     5
 63
     7
 74
     0
 91
        4
 64
     7
 65
   257
 75
     1
175
     1
 42
1.0
 92
        8
 66
     7
 43
1.0
 76
     1
 77
     6
 78
     2
 67
     7
 79
     5
170
     0
171
     0
290
     0
174
     0
 93
       13
 44
0.0
173
     0
291
     1
 45
0.0
1001
ACAD
1000
AcDbSavedByObjectVersion
1070
     0
  0
VISUALSTYLE
  5
16
102
{ACAD_XDICTIONARY
360
F4E
102
}
102
{ACAD_REACTORS
330
14
102
}
330
14
100
AcDbVisualStyle
  2

 70
     1
 71
     2
 72
     1
 73
     1
 90
        2
 40
-0.6
 41
30.0
 62
     5
 63
     7
 74
     1
 91
        4
 64
     7
 65
   257
 75
     1
175
     1
 42
1.0
 92
        0
 66
   257
 43
1.0
 76
     1
 77
     6
 78
     2
 67
     7
 79
     5
170
     0
171
     0
290
     0
174
     0
 93
       13
 44
0.0
173
     0
291
     1
 45
0.0
1001
ACAD
1000
AcDbSavedByObjectVersion
1070
     0
  0
VISUALSTYLE
  5
17
102
{ACAD_XDICTIONARY
360
F50
102
}
102
{ACAD_REACTORS
330
14
102
}
330
14
100
AcDbVisualStyle
  2

 70
     2
 71
     2
 72
     2
 73
     1
 90
        2
 40
-0.6
 41
30.0
 62
     5
 63
     7
 74
     0
 91
        4
 64
     7
 65
   257
 75
     1
175
     1
 42
1.0
 92
        0
 66
     7
 43
1.0
 76
     1
 77
     6
 78
     2
 67
     7
 79
     5
170
     0
171
     0
290
     0
174
     0
 93
       13
 44
0.0
173
     0
291
     1
 45
0.0
1001
ACAD
1000
AcDbSavedByObjectVersion
1070
     0
  0
VISUALSTYLE
  5
18
102
{ACAD_XDICTIONARY
360
F52
102
}
102
{ACAD_REACTORS
330
14
102
}
330
14
100
AcDbVisualStyle
  2

 70
     3
 71
     2
 72
     2
 73
     1
 90
        2
 40
-0.6
 41
30.0
 62
     5
 63
     7
 74
     1
 91
        4
 64
     7
 65
   257
 75
     1
175
     1
 42
1.0
 92
        0
 66
   257
 43
1.0
 76
     1
 77
     6
 78
     2
 67
     7
 79
     5
170
     0
171
     0
290
     0
174
     0
 93
       13
 44
0.0
173
     0
291
     1
 45
0.0
1001
ACAD
1000
AcDbSavedByObjectVersion
1070
     0
  0
VISUALSTYLE
  5
63E
102
{ACAD_XDICTIONARY
360
F73
102
}
102
{ACAD_REACTORS
330
14
102
}
330
14
100
AcDbVisualStyle
  2

 70
     6
 71
     1
 72
     2
 73
     2
 90
        0
 40
-0.6
 41
-30.0
 62
     5
 63
     7
 74
     2
 91
        2
 64
     7
 65
   257
 75
     2
175
     1
 42
40.0
 92
        0
 66
   257
 43
1.0
 76
     1
 77
     6
 78
     2
 67
     7
 79
     3
170
     0
171
     0
290
     0
174
     0
 93
        1
 44
0.0
173
     0
291
     0
 45
0.0
1001
ACAD
1000
AcDbSavedByObjectVersion
1070
     0
  0
VISUALSTYLE
  5
644
102
{ACAD_XDICTIONARY
360
F7F
102
}
102
{ACAD_REACTORS
330
14
102
}
330
14
100
AcDbVisualStyle
  2

 70
    20
 71
     2
 72
     2
 73
     0
 90
        0
 40
-0.6
 41
-30.0
 62
     5
 63
     7
 74
     1
 91
        4
 64
     7
 65
   257
 75
     1
175
     1
 42
1.0
 92
       10
 66
     7
 43
1.0
 76
     1
 77
     6
 78
     2
 67
     7
 79
     5
170
     0
171
     0
290
     0
174
     0
 93
        1
 44
0.0
173
     0
291
     1
 45
0.0
1001
ACAD
1000
AcDbSavedByObjectVersion
1070
     0
  0
VISUALSTYLE
  5
22
102
{ACAD_XDICTIONARY
360
F66
102
}
102
{ACAD_REACTORS
330
14
102
}
330
14
100
AcDbVisualStyle
  2

 70
    14
 71
     2
 72
     2
 73
     0
 90
        0
 40
-0.6
 41
-30.0
 62
     5
 63
     7
 74
     1
 91
        4
 64
     7
 65
   257
 75
     7
175
     7
 42
1.0
 92
        8
 66
     7
 43
1.0
 76
     1
 77
     6
 78
     2
 67
     7
 79
     5
170
     0
171
     0
290
     0
174
     0
 93
        1
 44
0.0
173
     0
291
     1
 45
0.0
1001
ACAD
1000
AcDbSavedByObjectVersion
1070
     0
  0
VISUALSTYLE
  5
645
102
{ACAD_XDICTIONARY
360
F81
102
}
102
{ACAD_REACTORS
330
14
102
}
330
14
100
AcDbVisualStyle
  2

 70
    21
 71
     2
 72
     2
 73
     0
 90
        0
 40
-0.6
 41
-30.0
 62
     5
 63
     7
 74
     1
 91
        4
 64
     7
 65
   257
 75
     1
175
     1
 42
1.0
 92
        9
 66
     7
 43
1.0
 76
     1
 77
     6
 78
     2
 67
     7
 79
     5
170
     0
171
     0
290
     0
174
     0
 93
        1
 44
0.0
173
     0
291
     1
 45
0.0
1001
ACAD
1000
AcDbSavedByObjectVersion
1070
     0
  0
VISUALSTYLE
  5
1E
102
{ACAD_XDICTIONARY
360
F5E
102
}
102
{ACAD_REACTORS
330
14
102
}
330
14
100
AcDbVisualStyle
  2

 70
     8
 71
     2
 72
     2
 73
     0
 90
        0
 40
-0.6
 41
-30.0
 62
     5
 63
     7
 74
     1
 91
        0
 64
     7
 65
   257
 75
     1
175
     1
 42
1.0
 92
        8
 66
     8
 43
1.0
 76
     1
 77
     6
 78
     2
 67
     7
 79
     5
170
     0
171
     0
290
     0
174
     0
 93
       13
 44
0.0
173
     0
291
     0
 45
0.0
1001
ACAD
1000
AcDbSavedByObjectVersion
1070
     0
  0
VISUALSTYLE
  5
643
102
{ACAD_XDICTIONARY
360
F7D
102
}
102
{ACAD_REACTORS
330
14
102
}
330
14
100
AcDbVisualStyle
  2

 70
    27
 71
     2
 72
     2
 73
     1
 90
        2
 40
-0.6
 41
30.0
 62
     5
 63
     7
 74
     0
 91
        4
 64
     7
 65
   257
 75
     1
175
     1
 42
1.0
 92
        8
 66
   257
 43
1.0
 76
     1
 77
     6
 78
     2
 67
     8
 79
     3
170
     0
171
     0
290
     0
174
     0
 93
        5
 44
0.0
173
     0
291
     0
 45
0.0
1001
ACAD
1000
AcDbSavedByObjectVersion
1070
     0
  0
VISUALSTYLE
  5
642
102
{ACAD_XDICTIONARY
360
F7B
102
}
102
{ACAD_REACTORS
330
14
102
}
330
14
100
AcDbVisualStyle
  2

 70
    26
 71
     2
 72
     2
 73
     1
 90
        2
 40
-0.6
 41
30.0
 62
     5
 63
     7
 74
     1
 91
       10
 64
     7
 65
   257
 75
     2
175
     1
 42
1.0
 92
        8
 66
   257
 43
1.0
 76
     1
 77
     6
 78
     2
 67
     7
 79
     3
170
     0
171
     0
290
     0
174
     0
 93
        5
 44
0.0
173
     0
291
     0
 45
0.0
1001
ACAD
1000
AcDbSavedByObjectVersion
1070
     0
  0
VISUALSTYLE
  5
63F
102
{ACAD_XDICTIONARY
360
F75
102
}
102
{ACAD_REACTORS
330
14
102
}
330
14
100
AcDbVisualStyle
  2

 70
    23
 71
     2
 72
     2
 73
     3
 90
        0
 40
-0.6
 41
-30.0
 62
     5
 63
     7
 74
     2
 91
        2
 64
     7
 65
     7
 75
     1
175
     1
 42
40.0
 92
        8
 66
     7
 43
1.0
 76
     1
 77
     6
 78
     2
 67
     7
 79
     3
170
     0
171
     0
290
     0
174
     0
 93
        1
 44
0.0
173
     0
291
     0
 45
0.0
1001
ACAD
1000
AcDbSavedByObjectVersion
1070
     0
  0
VISUALSTYLE
  5
640
102
{ACAD_XDICTIONARY
360
F77
102
}
102
{ACAD_REACTORS
330
14
102
}
330
14
100
AcDbVisualStyle
  2

 70
    24
 71
     1
 72
     2
 73
     2
 90
        0
 40
-0.6
 41
-30.0
 62
     5
 63
     7
 74
     2
 91
        2
 64
     7
 65
     7
 75
     1
175
     1
 42
40.0
 92
       11
 66
     7
 43
1.0
 76
     1
 77
     6
 78
     2
 67
     7
 79
     6
170
     0
171
     0
290
     0
174
     0
 93
        1
 44
0.0
173
     0
291
     0
 45
0.0
1001
ACAD
1000
AcDbSavedByObjectVersion
1070
     0
  0
VISUALSTYLE
  5
21
102
{ACAD_XDICTIONARY
360
F64
102
}
102
{ACAD_REACTORS
330
14
102
}
330
14
100
AcDbVisualStyle
  2

 70
    13
 71
     2
 72
     2
 73
     0
 90
        0
 40
-0.6
 41
-30.0
 62
     5
 63
     7
 74
     1
 91
        4
 64
     7
 65
   257
 75
     1
175
     1
 42
1.0
 92
       12
 66
     7
 43
1.0
 76
     1
 77
     6
 78
     2
 67
     7
 79
     5
170
     0
171
     0
290
     0
174
     0
 93
        1
 44
0.0
173
     0
291
     1
 45
0.0
1001
ACAD
1000
AcDbSavedByObjectVersion
1070
     0
  0
VISUALSTYLE
  5
63D
102
{ACAD_XDICTIONARY
360
F71
102
}
102
{ACAD_REACTORS
330
14
102
}
330
14
100
AcDbVisualStyle
  2

 70
     5
 71
     0
 72
     2
 73
     0
 90
        0
 40
-0.6
 41
-30.0
 62
     5
 63
     7
 74
     1
 91
        4
 64
     7
 65
   257
 75
     1
175
     1
 42
1.0
 92
        0
 66
   257
 43
1.0
 76
     1
 77
     6
 78
     2
 67
     7
 79
     3
170
     0
171
     0
290
     0
174
     0
 93
        1
 44
0.0
173
     0
291
     0
 45
0.0
1001
ACAD
1000
AcDbSavedByObjectVersion
1070
     0
  0
VISUALSTYLE
  5
641
102
{ACAD_XDICTIONARY
360
F79
102
}
102
{ACAD_REACTORS
330
14
102
}
330
14
100
AcDbVisualStyle
  2

 70
    25
 71
     2
 72
     2
 73
     1
 90
        1
 40
0.5
 41
-30.0
 62
     5
 63
     7
 74
     1
 91
        0
 64
     7
 65
   257
 75
     1
175
     1
 42
1.0
 92
        8
 66
     7
 43
1.0
 76
     1
 77
     6
 78
     2
 67
     7
 79
     3
170
     0
171
     0
290
     0
174
     0
 93
       13
 44
0.0
173
     0
291
     0
 45
0.0
1001
ACAD
1000
AcDbSavedByObjectVersion
1070
     0
  0
DICTIONARYVAR
  5
86E
102
{ACAD_REACTORS
330
58A
102
}
330
58A
100
DictionaryVariables
280
     0
  1
1:1
  0
DICTIONARYVAR
  5
86D
102
{ACAD_REACTORS
330
58A
102
}
330
58A
100
DictionaryVariables
280
     0
  1
STANDARD
  0
DICTIONARYVAR
  5
58B
102
{ACAD_REACTORS
330
58A
102
}
330
58A
100
DictionaryVariables
280
     0
  1
STANDARD
  0
DICTIONARYVAR
  5
625
102
{ACAD_REACTORS
330
58A
102
}
330
58A
100
DictionaryVariables
280
     0
  1
1
  0
DICTIONARYVAR
  5
624
102
{ACAD_REACTORS
330
58A
102
}
330
58A
100
DictionaryVariables
280
     0
  1
0
  0
DICTIONARYVAR
  5
623
102
{ACAD_REACTORS
330
58A
102
}
330
58A
100
DictionaryVariables
280
     0
  1
127
  0
DICTIONARYVAR
  5
DEB
102
{ACAD_REACTORS
330
58A
102
}
330
58A
100
DictionaryVariables
280
     0
  1
2
  0
DICTIONARY
  5
F6F
330
39
100
AcDbDictionary
280
     1
281
     1
  3
ACAD_XREC_ROUNDTRIP
360
F70
  0
DICTIONARY
  5
F6D
330
35
100
AcDbDictionary
280
     1
281
     1
  3
ACAD_XREC_ROUNDTRIP
360
F6E
  0
DICTIONARY
  5
62D
330
12
100
AcDbDictionary
280
     1
281
     1
  3
ACAD_XREC_ROUNDTRIP
360
62E
  0
DICTIONARY
  5
62B
330
11
100
AcDbDictionary
280
     1
281
     1
  3
ACAD_XREC_ROUNDTRIP
360
62C
  0
DICTIONARY
  5
62F
330
13
100
AcDbDictionary
280
     1
281
     1
  3
ACAD_XREC_ROUNDTRIP
360
630
  0
DICTIONARY
  5
870
330
31
100
AcDbDictionary
280
     1
281
     1
  3
ACAD_ROUNDTRIP_2008_TABLESTYLE_CELLSTYLEMAP
360
F45
  3
ACAD_XREC_ROUNDTRIP
360
F6C
  0
DICTIONARY
  5
F56
330
1A
100
AcDbDictionary
280
     1
281
     1
  3
ACAD_XREC_ROUNDTRIP
360
F57
  0
DICTIONARY
  5
F5A
330
1C
100
AcDbDictionary
280
     1
281
     1
  3
ACAD_XREC_ROUNDTRIP
360
F5B
  0
DICTIONARY
  5
F58
330
1B
100
AcDbDictionary
280
     1
281
     1
  3
ACAD_XREC_ROUNDTRIP
360
F59
  0
DICTIONARY
  5
F54
330
19
100
AcDbDictionary
280
     1
281
     1
  3
ACAD_XREC_ROUNDTRIP
360
F55
  0
DICTIONARY
  5
F62
330
20
100
AcDbDictionary
280
     1
281
     1
  3
ACAD_XREC_ROUNDTRIP
360
F63
  0
DICTIONARY
  5
F6A
330
24
100
AcDbDictionary
280
     1
281
     1
  3
ACAD_XREC_ROUNDTRIP
360
F6B
  0
DICTIONARY
  5
F5C
330
1D
100
AcDbDictionary
280
     1
281
     1
  3
ACAD_XREC_ROUNDTRIP
360
F5D
  0
DICTIONARY
  5
F60
330
1F
100
AcDbDictionary
280
     1
281
     1
  3
ACAD_XREC_ROUNDTRIP
360
F61
  0
DICTIONARY
  5
F83
330
646
100
AcDbDictionary
280
     1
281
     1
  3
ACAD_XREC_ROUNDTRIP
360
F84
  0
DICTIONARY
  5
F68
330
23
100
AcDbDictionary
280
     1
281
     1
  3
ACAD_XREC_ROUNDTRIP
360
F69
  0
DICTIONARY
  5
F4C
330
15
100
AcDbDictionary
280
     1
281
     1
  3
ACAD_XREC_ROUNDTRIP
360
F4D
  0
DICTIONARY
  5
F4E
330
16
100
AcDbDictionary
280
     1
281
     1
  3
ACAD_XREC_ROUNDTRIP
360
F4F
  0
DICTIONARY
  5
F50
330
17
100
AcDbDictionary
280
     1
281
     1
  3
ACAD_XREC_ROUNDTRIP
360
F51
  0
DICTIONARY
  5
F52
330
18
100
AcDbDictionary
280
     1
281
     1
  3
ACAD_XREC_ROUNDTRIP
360
F53
  0
DICTIONARY
  5
F73
330
63E
100
AcDbDictionary
280
     1
281
     1
  3
ACAD_XREC_ROUNDTRIP
360
F74
  0
DICTIONARY
  5
F7F
330
644
100
AcDbDictionary
280
     1
281
     1
  3
ACAD_XREC_ROUNDTRIP
360
F80
  0
DICTIONARY
  5
F66
330
22
100
AcDbDictionary
280
     1
281
     1
  3
ACAD_XREC_ROUNDTRIP
360
F67
  0
DICTIONARY
  5
F81
330
645
100
AcDbDictionary
280
     1
281
     1
  3
ACAD_XREC_ROUNDTRIP
360
F82
  0
DICTIONARY
  5
F5E
330
1E
100
AcDbDictionary
280
     1
281
     1
  3
ACAD_XREC_ROUNDTRIP
360
F5F
  0
DICTIONARY
  5
F7D
330
643
100
AcDbDictionary
280
     1
281
     1
  3
ACAD_XREC_ROUNDTRIP
360
F7E
  0
DICTIONARY
  5
F7B
330
642
100
AcDbDictionary
280
     1
281
     1
  3
ACAD_XREC_ROUNDTRIP
360
F7C
  0
DICTIONARY
  5
F75
330
63F
100
AcDbDictionary
280
     1
281
     1
  3
ACAD_XREC_ROUNDTRIP
360
F76
  0
DICTIONARY
  5
F77
330
640
100
AcDbDictionary
280
     1
281
     1
  3
ACAD_XREC_ROUNDTRIP
360
F78
  0
DICTIONARY
  5
F64
330
21
100
AcDbDictionary
280
     1
281
     1
  3
ACAD_XREC_ROUNDTRIP
360
F65
  0
DICTIONARY
  5
F71
330
63D
100
AcDbDictionary
280
     1
281
     1
  3
ACAD_XREC_ROUNDTRIP
360
F72
  0
DICTIONARY
  5
F79
330
641
100
AcDbDictionary
280
     1
281
     1
  3
ACAD_XREC_ROUNDTRIP
360
F7A
  0
XRECORD
  5
F70
102
{ACAD_REACTORS
330
F6F
102
}
330
F6F
100
AcDbXrecord
280
     1
102
SHADEPLOT
 70
     0
102
SHADEPLOTRESLEVEL
 70
     2
102
SHADEPLOTCUSTOMDPI
 70
   300
  0
XRECORD
  5
F6E
102
{ACAD_REACTORS
330
F6D
102
}
330
F6D
100
AcDbXrecord
280
     1
102
SHADEPLOT
 70
     0
102
SHADEPLOTRESLEVEL
 70
     2
102
SHADEPLOTCUSTOMDPI
 70
   300
  0
XRECORD
  5
62E
102
{ACAD_REACTORS
330
62D
102
}
330
62D
100
AcDbXrecord
280
     1
102
MATERIAL
148
0.0
149
0.0
149
0.0
 93
        0
 94
      127
282
     0
 72
     1
 77
     1
171
     1
175
     1
179
     1
273
     0
  0
XRECORD
  5
62C
102
{ACAD_REACTORS
330
62B
102
}
330
62B
100
AcDbXrecord
280
     1
102
MATERIAL
148
0.0
149
0.0
149
0.0
 93
        0
 94
      127
282
     0
 72
     1
 77
     1
171
     1
175
     1
179
     1
273
     0
  0
XRECORD
  5
630
102
{ACAD_REACTORS
330
62F
102
}
330
62F
100
AcDbXrecord
280
     1
102
MATERIAL
148
0.0
149
0.0
149
0.0
 93
        0
 94
      127
282
     0
 72
     1
 77
     1
171
     1
175
     1
179
     1
273
     0
  0
CELLSTYLEMAP
  5
F45
102
{ACAD_REACTORS
330
870
102
}
330
870
100
AcDbCellStyleMap
 90
        3
300
CELLSTYLE
  1
TABLEFORMAT_BEGIN
 90
        5
170
     1
 91
        0
 92
    32768
 62
   257
 93
        1
300
CONTENTFORMAT
  1
CONTENTFORMAT_BEGIN
 90
        0
 91
        0
 92
      512
 93
        0
300

 40
0.0
140
1.0
 94
        5
 62
     0
340
26
144
0.25
309
CONTENTFORMAT_END
171
     1
301
MARGIN
  1
CELLMARGIN_BEGIN
 40
0.06
 40
0.06
 40
0.06
 40
0.06
 40
0.18
 40
0.18
309
CELLMARGIN_END
 94
        6
 95
        1
302
GRIDFORMAT
  1
GRIDFORMAT_BEGIN
 90
        0
 91
        1
 62
     0
 92
       -2
340
0
 93
        0
 40
0.045
309
GRIDFORMAT_END
 95
        2
302
GRIDFORMAT
  1
GRIDFORMAT_BEGIN
 90
        0
 91
        1
 62
     0
 92
       -2
340
0
 93
        0
 40
0.045
309
GRIDFORMAT_END
 95
        4
302
GRIDFORMAT
  1
GRIDFORMAT_BEGIN
 90
        0
 91
        1
 62
     0
 92
       -2
340
0
 93
        0
 40
0.045
309
GRIDFORMAT_END
 95
        8
302
GRIDFORMAT
  1
GRIDFORMAT_BEGIN
 90
        0
 91
        1
 62
     0
 92
       -2
340
0
 93
        0
 40
0.045
309
GRIDFORMAT_END
 95
       16
302
GRIDFORMAT
  1
GRIDFORMAT_BEGIN
 90
        0
 91
        1
 62
     0
 92
       -2
340
0
 93
        0
 40
0.045
309
GRIDFORMAT_END
 95
       32
302
GRIDFORMAT
  1
GRIDFORMAT_BEGIN
 90
        0
 91
        1
 62
     0
 92
       -2
340
0
 93
        0
 40
0.045
309
GRIDFORMAT_END
309
TABLEFORMAT_END
  1
CELLSTYLE_BEGIN
 90
        1
 91
        1
300
_TITLE
309
CELLSTYLE_END
300
CELLSTYLE
  1
TABLEFORMAT_BEGIN
 90
        5
170
     1
 91
        0
 92
        0
 62
   257
 93
        1
300
CONTENTFORMAT
  1
CONTENTFORMAT_BEGIN
 90
        0
 91
        0
 92
      512
 93
        0
300

 40
0.0
140
1.0
 94
        5
 62
     0
340
26
144
0.18
309
CONTENTFORMAT_END
171
     1
301
MARGIN
  1
CELLMARGIN_BEGIN
 40
0.06
 40
0.06
 40
0.06
 40
0.06
 40
0.18
 40
0.18
309
CELLMARGIN_END
 94
        6
 95
        1
302
GRIDFORMAT
  1
GRIDFORMAT_BEGIN
 90
        0
 91
        1
 62
     0
 92
       -2
340
0
 93
        0
 40
0.045
309
GRIDFORMAT_END
 95
        2
302
GRIDFORMAT
  1
GRIDFORMAT_BEGIN
 90
        0
 91
        1
 62
     0
 92
       -2
340
0
 93
        0
 40
0.045
309
GRIDFORMAT_END
 95
        4
302
GRIDFORMAT
  1
GRIDFORMAT_BEGIN
 90
        0
 91
        1
 62
     0
 92
       -2
340
0
 93
        0
 40
0.045
309
GRIDFORMAT_END
 95
        8
302
GRIDFORMAT
  1
GRIDFORMAT_BEGIN
 90
        0
 91
        1
 62
     0
 92
       -2
340
0
 93
        0
 40
0.045
309
GRIDFORMAT_END
 95
       16
302
GRIDFORMAT
  1
GRIDFORMAT_BEGIN
 90
        0
 91
        1
 62
     0
 92
       -2
340
0
 93
        0
 40
0.045
309
GRIDFORMAT_END
 95
       32
302
GRIDFORMAT
  1
GRIDFORMAT_BEGIN
 90
        0
 91
        1
 62
     0
 92
       -2
340
0
 93
        0
 40
0.045
309
GRIDFORMAT_END
309
TABLEFORMAT_END
  1
CELLSTYLE_BEGIN
 90
        2
 91
        1
300
_HEADER
309
CELLSTYLE_END
300
CELLSTYLE
  1
TABLEFORMAT_BEGIN
 90
        5
170
     1
 91
        0
 92
        0
 62
   257
 93
        1
300
CONTENTFORMAT
  1
CONTENTFORMAT_BEGIN
 90
        0
 91
        0
 92
      512
 93
        0
300

 40
0.0
140
1.0
 94
        2
 62
     0
340
26
144
0.18
309
CONTENTFORMAT_END
171
     1
301
MARGIN
  1
CELLMARGIN_BEGIN
 40
0.06
 40
0.06
 40
0.06
 40
0.06
 40
0.18
 40
0.18
309
CELLMARGIN_END
 94
        6
 95
        1
302
GRIDFORMAT
  1
GRIDFORMAT_BEGIN
 90
        0
 91
        1
 62
     0
 92
       -2
340
0
 93
        0
 40
0.045
309
GRIDFORMAT_END
 95
        2
302
GRIDFORMAT
  1
GRIDFORMAT_BEGIN
 90
        0
 91
        1
 62
     0
 92
       -2
340
0
 93
        0
 40
0.045
309
GRIDFORMAT_END
 95
        4
302
GRIDFORMAT
  1
GRIDFORMAT_BEGIN
 90
        0
 91
        1
 62
     0
 92
       -2
340
0
 93
        0
 40
0.045
309
GRIDFORMAT_END
 95
        8
302
GRIDFORMAT
  1
GRIDFORMAT_BEGIN
 90
        0
 91
        1
 62
     0
 92
       -2
340
0
 93
        0
 40
0.045
309
GRIDFORMAT_END
 95
       16
302
GRIDFORMAT
  1
GRIDFORMAT_BEGIN
 90
        0
 91
        1
 62
     0
 92
       -2
340
0
 93
        0
 40
0.045
309
GRIDFORMAT_END
 95
       32
302
GRIDFORMAT
  1
GRIDFORMAT_BEGIN
 90
        0
 91
        1
 62
     0
 92
       -2
340
0
 93
        0
 40
0.045
309
GRIDFORMAT_END
309
TABLEFORMAT_END
  1
CELLSTYLE_BEGIN
 90
        3
 91
        2
300
_DATA
309
CELLSTYLE_END
  0
XRECORD
  5
F6C
102
{ACAD_REACTORS
330
870
102
}
330
870
100
AcDbXrecord
280
     1
102
ACAD_ROUNDTRIP_PRE2007_TABLESTYLE
 90
      512
 91
        0
  1

 92
      512
 93
        0
  2

 94
      512
 95
        0
  3

  0
XRECORD
  5
F57
102
{ACAD_REACTORS
330
F56
102
}
330
F56
100
AcDbXrecord
280
     1
102
RTVSPropertyOp0
 70
     1
102
RTVSPropertyOp1
 70
     1
102
RTVSPropertyOp2
 70
     1
102
RTVSPropertyOp3
 70
     1
102
RTVSPropertyOp4
 70
     1
102
RTVSPropertyOp5
 70
     1
102
RTVSPropertyOp6
 70
     1
102
RTVSPropertyOp7
 70
     1
102
RTVSPropertyOp8
 70
     1
102
RTVSPropertyOp9
 70
     1
102
RTVSPropertyOp10
 70
     1
102
RTVSPropertyOp11
 70
     1
102
RTVSPropertyOp12
 70
     1
102
RTVSPropertyOp13
 70
     1
102
RTVSPropertyOp14
 70
     1
102
RTVSPropertyOp15
 70
     1
102
RTVSPropertyOp16
 70
     1
102
RTVSPropertyOp17
 70
     1
102
RTVSPropertyOp18
 70
     1
102
RTVSPropertyOp19
 70
     1
102
RTVSPropertyOp20
 70
     1
102
RTVSPropertyOp21
 70
     1
102
RTVSPropertyOp22
 70
     1
102
RTVSPropertyOp23
 70
     1
102
RTVSPropertyOp24
 70
     1
102
RTVSPropertyOp25
 70
     1
102
RTVSPropertyOp26
 70
     1
102
RTVSPropertyOp27
 70
     1
102
RTVSPropertyOp28
 70
     1
102
RTVSPropertyOp29
 70
     1
102
RTVSPropertyOp30
 70
     1
102
RTVSPropertyOp31
 70
     1
102
RTVSPropertyOp32
 70
     1
  0
XRECORD
  5
F5B
102
{ACAD_REACTORS
330
F5A
102
}
330
F5A
100
AcDbXrecord
280
     1
102
RTVSPropertyOp0
 70
     1
102
RTVSPropertyOp1
 70
     1
102
RTVSPropertyOp2
 70
     1
102
RTVSPropertyOp3
 70
     1
102
RTVSPropertyOp4
 70
     1
102
RTVSPropertyOp5
 70
     1
102
RTVSPropertyOp6
 70
     1
102
RTVSPropertyOp7
 70
     1
102
RTVSPropertyOp8
 70
     1
102
RTVSPropertyOp9
 70
     1
102
RTVSPropertyOp10
 70
     1
102
RTVSPropertyOp11
 70
     1
102
RTVSPropertyOp12
 70
     1
102
RTVSPropertyOp13
 70
     1
102
RTVSPropertyOp14
 70
     1
102
RTVSPropertyOp15
 70
     1
102
RTVSPropertyOp16
 70
     1
102
RTVSPropertyOp17
 70
     1
102
RTVSPropertyOp18
 70
     1
102
RTVSPropertyOp19
 70
     1
102
RTVSPropertyOp20
 70
     1
102
RTVSPropertyOp21
 70
     1
102
RTVSPropertyOp22
 70
     1
102
RTVSPropertyOp23
 70
     1
102
RTVSPropertyOp24
 70
     1
102
RTVSPropertyOp25
 70
     1
102
RTVSPropertyOp26
 70
     1
102
RTVSPropertyOp27
 70
     1
102
RTVSPropertyOp28
 70
     1
102
RTVSPropertyOp29
 70
     1
102
RTVSPropertyOp30
 70
     1
102
RTVSPropertyOp31
 70
     1
102
RTVSPropertyOp32
 70
     1
  0
XRECORD
  5
F59
102
{ACAD_REACTORS
330
F58
102
}
330
F58
100
AcDbXrecord
280
     1
102
RTVSPropertyOp0
 70
     1
102
RTVSPropertyOp1
 70
     1
102
RTVSPropertyOp2
 70
     1
102
RTVSPropertyOp3
 70
     1
102
RTVSPropertyOp4
 70
     1
102
RTVSPropertyOp5
 70
     1
102
RTVSPropertyOp6
 70
     1
102
RTVSPropertyOp7
 70
     1
102
RTVSPropertyOp8
 70
     1
102
RTVSPropertyOp9
 70
     1
102
RTVSPropertyOp10
 70
     1
102
RTVSPropertyOp11
 70
     1
102
RTVSPropertyOp12
 70
     1
102
RTVSPropertyOp13
 70
     1
102
RTVSPropertyOp14
 70
     1
102
RTVSPropertyOp15
 70
     1
102
RTVSPropertyOp16
 70
     1
102
RTVSPropertyOp17
 70
     1
102
RTVSPropertyOp18
 70
     1
102
RTVSPropertyOp19
 70
     1
102
RTVSPropertyOp20
 70
     1
102
RTVSPropertyOp21
 70
     1
102
RTVSPropertyOp22
 70
     1
102
RTVSPropertyOp23
 70
     1
102
RTVSPropertyOp24
 70
     1
102
RTVSPropertyOp25
 70
     1
102
RTVSPropertyOp26
 70
     1
102
RTVSPropertyOp27
 70
     1
102
RTVSPropertyOp28
 70
     1
102
RTVSPropertyOp29
 70
     1
102
RTVSPropertyOp30
 70
     1
102
RTVSPropertyOp31
 70
     1
102
RTVSPropertyOp32
 70
     1
  0
XRECORD
  5
F55
102
{ACAD_REACTORS
330
F54
102
}
330
F54
100
AcDbXrecord
280
     1
102
RTVSPropertyOp0
 70
     1
102
RTVSPropertyOp1
 70
     1
102
RTVSPropertyOp2
 70
     1
102
RTVSPropertyOp3
 70
     1
102
RTVSPropertyOp4
 70
     1
102
RTVSPropertyOp5
 70
     1
102
RTVSPropertyOp6
 70
     1
102
RTVSPropertyOp7
 70
     1
102
RTVSPropertyOp8
 70
     1
102
RTVSPropertyOp9
 70
     1
102
RTVSPropertyOp10
 70
     1
102
RTVSPropertyOp11
 70
     1
102
RTVSPropertyOp12
 70
     1
102
RTVSPropertyOp13
 70
     1
102
RTVSPropertyOp14
 70
     1
102
RTVSPropertyOp15
 70
     1
102
RTVSPropertyOp16
 70
     1
102
RTVSPropertyOp17
 70
     1
102
RTVSPropertyOp18
 70
     1
102
RTVSPropertyOp19
 70
     1
102
RTVSPropertyOp20
 70
     1
102
RTVSPropertyOp21
 70
     1
102
RTVSPropertyOp22
 70
     1
102
RTVSPropertyOp23
 70
     1
102
RTVSPropertyOp24
 70
     1
102
RTVSPropertyOp25
 70
     1
102
RTVSPropertyOp26
 70
     1
102
RTVSPropertyOp27
 70
     1
102
RTVSPropertyOp28
 70
     1
102
RTVSPropertyOp29
 70
     1
102
RTVSPropertyOp30
 70
     1
102
RTVSPropertyOp31
 70
     1
102
RTVSPropertyOp32
 70
     1
  0
XRECORD
  5
F63
102
{ACAD_REACTORS
330
F62
102
}
330
F62
100
AcDbXrecord
280
     1
102
RTVSPropertyOp0
 70
     1
102
RTVSPropertyOp1
 70
     1
102
RTVSPropertyOp2
 70
     1
102
RTVSPropertyOp3
 70
     1
102
RTVSPropertyOp4
 70
     1
102
RTVSPropertyOp5
 70
     1
102
RTVSPropertyOp6
 70
     1
102
RTVSPropertyOp7
 70
     1
102
RTVSPropertyOp8
 70
     1
102
RTVSPropertyOp9
 70
     1
102
RTVSPropertyOp10
 70
     1
102
RTVSPropertyOp11
 70
     1
102
RTVSPropertyOp12
 70
     1
102
RTVSPropertyOp13
 70
     1
102
RTVSPropertyOp14
 70
     1
102
RTVSPropertyOp15
 70
     1
102
RTVSPropertyOp16
 70
     1
102
RTVSPropertyOp17
 70
     1
102
RTVSPropertyOp18
 70
     1
102
RTVSPropertyOp19
 70
     1
102
RTVSPropertyOp20
 70
     1
102
RTVSPropertyOp21
 70
     1
102
RTVSPropertyOp22
 70
     1
102
RTVSPropertyOp23
 70
     1
102
RTVSPropertyOp24
 70
     1
102
RTVSPropertyOp25
 70
     1
102
RTVSPropertyOp26
 70
     1
102
RTVSPropertyOp27
 70
     1
102
RTVSPropertyOp28
 70
     1
102
RTVSPropertyOp29
 70
     1
102
RTVSPropertyOp30
 70
     1
102
RTVSPropertyOp31
 70
     1
102
RTVSPropertyOp32
 70
     1
  0
XRECORD
  5
F6B
102
{ACAD_REACTORS
330
F6A
102
}
330
F6A
100
AcDbXrecord
280
     1
102
RTVSPropertyOp0
 70
     1
102
RTVSPropertyOp1
 70
     1
102
RTVSPropertyOp2
 70
     1
102
RTVSPropertyOp3
 70
     1
102
RTVSPropertyOp4
 70
     1
102
RTVSPropertyOp5
 70
     1
102
RTVSPropertyOp6
 70
     1
102
RTVSPropertyOp7
 70
     1
102
RTVSPropertyOp8
 70
     1
102
RTVSPropertyOp9
 70
     1
102
RTVSPropertyOp10
 70
     1
102
RTVSPropertyOp11
 70
     1
102
RTVSPropertyOp12
 70
     1
102
RTVSPropertyOp13
 70
     1
102
RTVSPropertyOp14
 70
     1
102
RTVSPropertyOp15
 70
     1
102
RTVSPropertyOp16
 70
     1
102
RTVSPropertyOp17
 70
     1
102
RTVSPropertyOp18
 70
     1
102
RTVSPropertyOp19
 70
     1
102
RTVSPropertyOp20
 70
     1
102
RTVSPropertyOp21
 70
     1
102
RTVSPropertyOp22
 70
     1
102
RTVSPropertyOp23
 70
     1
102
RTVSPropertyOp24
 70
     1
102
RTVSPropertyOp25
 70
     1
102
RTVSPropertyOp26
 70
     1
102
RTVSPropertyOp27
 70
     1
102
RTVSPropertyOp28
 70
     1
102
RTVSPropertyOp29
 70
     1
102
RTVSPropertyOp30
 70
     1
102
RTVSPropertyOp31
 70
     1
102
RTVSPropertyOp32
 70
     1
  0
XRECORD
  5
F5D
102
{ACAD_REACTORS
330
F5C
102
}
330
F5C
100
AcDbXrecord
280
     1
102
RTVSPropertyOp0
 70
     1
102
RTVSPropertyOp1
 70
     1
102
RTVSPropertyOp2
 70
     1
102
RTVSPropertyOp3
 70
     1
102
RTVSPropertyOp4
 70
     1
102
RTVSPropertyOp5
 70
     1
102
RTVSPropertyOp6
 70
     1
102
RTVSPropertyOp7
 70
     1
102
RTVSPropertyOp8
 70
     1
102
RTVSPropertyOp9
 70
     1
102
RTVSPropertyOp10
 70
     1
102
RTVSPropertyOp11
 70
     1
102
RTVSPropertyOp12
 70
     1
102
RTVSPropertyOp13
 70
     1
102
RTVSPropertyOp14
 70
     1
102
RTVSPropertyOp15
 70
     1
102
RTVSPropertyOp16
 70
     1
102
RTVSPropertyOp17
 70
     1
102
RTVSPropertyOp18
 70
     1
102
RTVSPropertyOp19
 70
     1
102
RTVSPropertyOp20
 70
     1
102
RTVSPropertyOp21
 70
     1
102
RTVSPropertyOp22
 70
     1
102
RTVSPropertyOp23
 70
     1
102
RTVSPropertyOp24
 70
     1
102
RTVSPropertyOp25
 70
     1
102
RTVSPropertyOp26
 70
     1
102
RTVSPropertyOp27
 70
     1
102
RTVSPropertyOp28
 70
     1
102
RTVSPropertyOp29
 70
     1
102
RTVSPropertyOp30
 70
     1
102
RTVSPropertyOp31
 70
     1
102
RTVSPropertyOp32
 70
     1
  0
XRECORD
  5
F61
102
{ACAD_REACTORS
330
F60
102
}
330
F60
100
AcDbXrecord
280
     1
102
RTVSPropertyOp0
 70
     1
102
RTVSPropertyOp1
 70
     1
102
RTVSPropertyOp2
 70
     1
102
RTVSPropertyOp3
 70
     1
102
RTVSPropertyOp4
 70
     1
102
RTVSPropertyOp5
 70
     1
102
RTVSPropertyOp6
 70
     1
102
RTVSPropertyOp7
 70
     1
102
RTVSPropertyOp8
 70
     1
102
RTVSPropertyOp9
 70
     1
102
RTVSPropertyOp10
 70
     1
102
RTVSPropertyOp11
 70
     1
102
RTVSPropertyOp12
 70
     1
102
RTVSPropertyOp13
 70
     1
102
RTVSPropertyOp14
 70
     1
102
RTVSPropertyOp15
 70
     1
102
RTVSPropertyOp16
 70
     1
102
RTVSPropertyOp17
 70
     1
102
RTVSPropertyOp18
 70
     1
102
RTVSPropertyOp19
 70
     1
102
RTVSPropertyOp20
 70
     1
102
RTVSPropertyOp21
 70
     1
102
RTVSPropertyOp22
 70
     1
102
RTVSPropertyOp23
 70
     1
102
RTVSPropertyOp24
 70
     1
102
RTVSPropertyOp25
 70
     1
102
RTVSPropertyOp26
 70
     1
102
RTVSPropertyOp27
 70
     1
102
RTVSPropertyOp28
 70
     1
102
RTVSPropertyOp29
 70
     1
102
RTVSPropertyOp30
 70
     1
102
RTVSPropertyOp31
 70
     1
102
RTVSPropertyOp32
 70
     1
  0
XRECORD
  5
F84
102
{ACAD_REACTORS
330
F83
102
}
330
F83
100
AcDbXrecord
280
     1
102
RTVSPropertyOp0
 70
     0
102
RTVSPropertyOp1
 70
     0
102
RTVSPropertyOp2
 70
     0
102
RTVSPropertyOp3
 70
     0
102
RTVSPropertyOp4
 70
     0
102
RTVSPropertyOp5
 70
     0
102
RTVSPropertyOp6
 70
     0
102
RTVSPropertyOp7
 70
     0
102
RTVSPropertyOp8
 70
     0
102
RTVSPropertyOp9
 70
     0
102
RTVSPropertyOp10
 70
     0
102
RTVSPropertyOp11
 70
     0
102
RTVSPropertyOp12
 70
     0
102
RTVSPropertyOp13
 70
     0
102
RTVSPropertyOp14
 70
     2
102
RTVSPropertyOp15
 70
     0
102
RTVSPropertyOp16
 70
     0
102
RTVSPropertyOp17
 70
     0
102
RTVSPropertyOp18
 70
     0
102
RTVSPropertyOp19
 70
     0
102
RTVSPropertyOp20
 70
     0
102
RTVSPropertyOp21
 70
     0
102
RTVSPropertyOp22
 70
     0
102
RTVSPropertyOp23
 70
     0
102
RTVSPropertyOp24
 70
     0
102
RTVSPropertyOp25
 70
     0
102
RTVSPropertyOp26
 70
     0
102
RTVSPropertyOp27
 70
     0
102
RTVSPropertyOp28
 70
     0
102
RTVSPropertyOp29
 70
     0
102
RTVSPropertyOp30
 70
     0
102
RTVSPropertyOp31
 70
     0
102
RTVSPropertyOp32
 70
     0
  0
XRECORD
  5
F69
102
{ACAD_REACTORS
330
F68
102
}
330
F68
100
AcDbXrecord
280
     1
102
RTVSPropertyOp0
 70
     1
102
RTVSPropertyOp1
 70
     1
102
RTVSPropertyOp2
 70
     1
102
RTVSPropertyOp3
 70
     1
102
RTVSPropertyOp4
 70
     1
102
RTVSPropertyOp5
 70
     1
102
RTVSPropertyOp6
 70
     1
102
RTVSPropertyOp7
 70
     1
102
RTVSPropertyOp8
 70
     1
102
RTVSPropertyOp9
 70
     1
102
RTVSPropertyOp10
 70
     1
102
RTVSPropertyOp11
 70
     1
102
RTVSPropertyOp12
 70
     1
102
RTVSPropertyOp13
 70
     1
102
RTVSPropertyOp14
 70
     1
102
RTVSPropertyOp15
 70
     1
102
RTVSPropertyOp16
 70
     1
102
RTVSPropertyOp17
 70
     1
102
RTVSPropertyOp18
 70
     1
102
RTVSPropertyOp19
 70
     1
102
RTVSPropertyOp20
 70
     1
102
RTVSPropertyOp21
 70
     1
102
RTVSPropertyOp22
 70
     1
102
RTVSPropertyOp23
 70
     1
102
RTVSPropertyOp24
 70
     1
102
RTVSPropertyOp25
 70
     1
102
RTVSPropertyOp26
 70
     1
102
RTVSPropertyOp27
 70
     1
102
RTVSPropertyOp28
 70
     1
102
RTVSPropertyOp29
 70
     1
102
RTVSPropertyOp30
 70
     1
102
RTVSPropertyOp31
 70
     1
102
RTVSPropertyOp32
 70
     1
  0
XRECORD
  5
F4D
102
{ACAD_REACTORS
330
F4C
102
}
330
F4C
100
AcDbXrecord
280
     1
102
RTVSPropertyOp0
 70
     1
102
RTVSPropertyOp1
 70
     1
102
RTVSPropertyOp2
 70
     1
102
RTVSPropertyOp3
 70
     1
102
RTVSPropertyOp4
 70
     1
102
RTVSPropertyOp5
 70
     1
102
RTVSPropertyOp6
 70
     1
102
RTVSPropertyOp7
 70
     1
102
RTVSPropertyOp8
 70
     1
102
RTVSPropertyOp9
 70
     1
102
RTVSPropertyOp10
 70
     1
102
RTVSPropertyOp11
 70
     1
102
RTVSPropertyOp12
 70
     1
102
RTVSPropertyOp13
 70
     1
102
RTVSPropertyOp14
 70
     1
102
RTVSPropertyOp15
 70
     1
102
RTVSPropertyOp16
 70
     1
102
RTVSPropertyOp17
 70
     1
102
RTVSPropertyOp18
 70
     1
102
RTVSPropertyOp19
 70
     1
102
RTVSPropertyOp20
 70
     1
102
RTVSPropertyOp21
 70
     1
102
RTVSPropertyOp22
 70
     1
102
RTVSPropertyOp23
 70
     1
102
RTVSPropertyOp24
 70
     1
102
RTVSPropertyOp25
 70
     1
102
RTVSPropertyOp26
 70
     1
102
RTVSPropertyOp27
 70
     1
102
RTVSPropertyOp28
 70
     1
102
RTVSPropertyOp29
 70
     1
102
RTVSPropertyOp30
 70
     1
102
RTVSPropertyOp31
 70
     1
102
RTVSPropertyOp32
 70
     1
  0
XRECORD
  5
F4F
102
{ACAD_REACTORS
330
F4E
102
}
330
F4E
100
AcDbXrecord
280
     1
102
RTVSPropertyOp0
 70
     1
102
RTVSPropertyOp1
 70
     1
102
RTVSPropertyOp2
 70
     1
102
RTVSPropertyOp3
 70
     1
102
RTVSPropertyOp4
 70
     1
102
RTVSPropertyOp5
 70
     1
102
RTVSPropertyOp6
 70
     1
102
RTVSPropertyOp7
 70
     1
102
RTVSPropertyOp8
 70
     1
102
RTVSPropertyOp9
 70
     1
102
RTVSPropertyOp10
 70
     1
102
RTVSPropertyOp11
 70
     1
102
RTVSPropertyOp12
 70
     1
102
RTVSPropertyOp13
 70
     1
102
RTVSPropertyOp14
 70
     1
102
RTVSPropertyOp15
 70
     1
102
RTVSPropertyOp16
 70
     1
102
RTVSPropertyOp17
 70
     1
102
RTVSPropertyOp18
 70
     1
102
RTVSPropertyOp19
 70
     1
102
RTVSPropertyOp20
 70
     1
102
RTVSPropertyOp21
 70
     1
102
RTVSPropertyOp22
 70
     1
102
RTVSPropertyOp23
 70
     1
102
RTVSPropertyOp24
 70
     1
102
RTVSPropertyOp25
 70
     1
102
RTVSPropertyOp26
 70
     1
102
RTVSPropertyOp27
 70
     1
102
RTVSPropertyOp28
 70
     1
102
RTVSPropertyOp29
 70
     1
102
RTVSPropertyOp30
 70
     1
102
RTVSPropertyOp31
 70
     1
102
RTVSPropertyOp32
 70
     1
  0
XRECORD
  5
F51
102
{ACAD_REACTORS
330
F50
102
}
330
F50
100
AcDbXrecord
280
     1
102
RTVSPropertyOp0
 70
     1
102
RTVSPropertyOp1
 70
     1
102
RTVSPropertyOp2
 70
     1
102
RTVSPropertyOp3
 70
     1
102
RTVSPropertyOp4
 70
     1
102
RTVSPropertyOp5
 70
     1
102
RTVSPropertyOp6
 70
     1
102
RTVSPropertyOp7
 70
     1
102
RTVSPropertyOp8
 70
     1
102
RTVSPropertyOp9
 70
     1
102
RTVSPropertyOp10
 70
     1
102
RTVSPropertyOp11
 70
     1
102
RTVSPropertyOp12
 70
     1
102
RTVSPropertyOp13
 70
     1
102
RTVSPropertyOp14
 70
     1
102
RTVSPropertyOp15
 70
     1
102
RTVSPropertyOp16
 70
     1
102
RTVSPropertyOp17
 70
     1
102
RTVSPropertyOp18
 70
     1
102
RTVSPropertyOp19
 70
     1
102
RTVSPropertyOp20
 70
     1
102
RTVSPropertyOp21
 70
     1
102
RTVSPropertyOp22
 70
     1
102
RTVSPropertyOp23
 70
     1
102
RTVSPropertyOp24
 70
     1
102
RTVSPropertyOp25
 70
     1
102
RTVSPropertyOp26
 70
     1
102
RTVSPropertyOp27
 70
     1
102
RTVSPropertyOp28
 70
     1
102
RTVSPropertyOp29
 70
     1
102
RTVSPropertyOp30
 70
     1
102
RTVSPropertyOp31
 70
     1
102
RTVSPropertyOp32
 70
     1
  0
XRECORD
  5
F53
102
{ACAD_REACTORS
330
F52
102
}
330
F52
100
AcDbXrecord
280
     1
102
RTVSPropertyOp0
 70
     1
102
RTVSPropertyOp1
 70
     1
102
RTVSPropertyOp2
 70
     1
102
RTVSPropertyOp3
 70
     1
102
RTVSPropertyOp4
 70
     1
102
RTVSPropertyOp5
 70
     1
102
RTVSPropertyOp6
 70
     1
102
RTVSPropertyOp7
 70
     1
102
RTVSPropertyOp8
 70
     1
102
RTVSPropertyOp9
 70
     1
102
RTVSPropertyOp10
 70
     1
102
RTVSPropertyOp11
 70
     1
102
RTVSPropertyOp12
 70
     1
102
RTVSPropertyOp13
 70
     1
102
RTVSPropertyOp14
 70
     1
102
RTVSPropertyOp15
 70
     1
102
RTVSPropertyOp16
 70
     1
102
RTVSPropertyOp17
 70
     1
102
RTVSPropertyOp18
 70
     1
102
RTVSPropertyOp19
 70
     1
102
RTVSPropertyOp20
 70
     1
102
RTVSPropertyOp21
 70
     1
102
RTVSPropertyOp22
 70
     1
102
RTVSPropertyOp23
 70
     1
102
RTVSPropertyOp24
 70
     1
102
RTVSPropertyOp25
 70
     1
102
RTVSPropertyOp26
 70
     1
102
RTVSPropertyOp27
 70
     1
102
RTVSPropertyOp28
 70
     1
102
RTVSPropertyOp29
 70
     1
102
RTVSPropertyOp30
 70
     1
102
RTVSPropertyOp31
 70
     1
102
RTVSPropertyOp32
 70
     1
  0
XRECORD
  5
F74
102
{ACAD_REACTORS
330
F73
102
}
330
F73
100
AcDbXrecord
280
     1
102
RTVSPropertyOp0
 70
     1
102
RTVSPropertyOp1
 70
     1
102
RTVSPropertyOp2
 70
     1
102
RTVSPropertyOp3
 70
     1
102
RTVSPropertyOp4
 70
     1
102
RTVSPropertyOp5
 70
     1
102
RTVSPropertyOp6
 70
     1
102
RTVSPropertyOp7
 70
     1
102
RTVSPropertyOp8
 70
     1
102
RTVSPropertyOp9
 70
     1
102
RTVSPropertyOp10
 70
     1
102
RTVSPropertyOp11
 70
     1
102
RTVSPropertyOp12
 70
     1
102
RTVSPropertyOp13
 70
     1
102
RTVSPropertyOp14
 70
     1
102
RTVSPropertyOp15
 70
     1
102
RTVSPropertyOp16
 70
     1
102
RTVSPropertyOp17
 70
     1
102
RTVSPropertyOp18
 70
     1
102
RTVSPropertyOp19
 70
     1
102
RTVSPropertyOp20
 70
     1
102
RTVSPropertyOp21
 70
     1
102
RTVSPropertyOp22
 70
     1
102
RTVSPropertyOp23
 70
     1
102
RTVSPropertyOp24
 70
     1
102
RTVSPropertyOp25
 70
     1
102
RTVSPropertyOp26
 70
     1
102
RTVSPropertyOp27
 70
     1
102
RTVSPropertyOp28
 70
     1
102
RTVSPropertyOp29
 70
     1
102
RTVSPropertyOp30
 70
     1
102
RTVSPropertyOp31
 70
     1
102
RTVSPropertyOp32
 70
     1
  0
XRECORD
  5
F80
102
{ACAD_REACTORS
330
F7F
102
}
330
F7F
100
AcDbXrecord
280
     1
102
RTVSPropertyOp0
 70
     0
102
RTVSPropertyOp1
 70
     0
102
RTVSPropertyOp2
 70
     0
102
RTVSPropertyOp3
 70
     0
102
RTVSPropertyOp4
 70
     0
102
RTVSPropertyOp5
 70
     0
102
RTVSPropertyOp6
 70
     0
102
RTVSPropertyOp7
 70
     0
102
RTVSPropertyOp8
 70
     0
102
RTVSPropertyOp9
 70
     0
102
RTVSPropertyOp10
 70
     0
102
RTVSPropertyOp11
 70
     0
102
RTVSPropertyOp12
 70
     0
102
RTVSPropertyOp13
 70
     0
102
RTVSPropertyOp14
 70
     2
102
RTVSPropertyOp15
 70
     0
102
RTVSPropertyOp16
 70
     0
102
RTVSPropertyOp17
 70
     0
102
RTVSPropertyOp18
 70
     0
102
RTVSPropertyOp19
 70
     0
102
RTVSPropertyOp20
 70
     0
102
RTVSPropertyOp21
 70
     0
102
RTVSPropertyOp22
 70
     0
102
RTVSPropertyOp23
 70
     0
102
RTVSPropertyOp24
 70
     0
102
RTVSPropertyOp25
 70
     0
102
RTVSPropertyOp26
 70
     0
102
RTVSPropertyOp27
 70
     0
102
RTVSPropertyOp28
 70
     0
102
RTVSPropertyOp29
 70
     0
102
RTVSPropertyOp30
 70
     0
102
RTVSPropertyOp31
 70
     0
102
RTVSPropertyOp32
 70
     0
  0
XRECORD
  5
F67
102
{ACAD_REACTORS
330
F66
102
}
330
F66
100
AcDbXrecord
280
     1
102
RTVSPropertyOp0
 70
     1
102
RTVSPropertyOp1
 70
     1
102
RTVSPropertyOp2
 70
     1
102
RTVSPropertyOp3
 70
     1
102
RTVSPropertyOp4
 70
     1
102
RTVSPropertyOp5
 70
     1
102
RTVSPropertyOp6
 70
     1
102
RTVSPropertyOp7
 70
     1
102
RTVSPropertyOp8
 70
     1
102
RTVSPropertyOp9
 70
     1
102
RTVSPropertyOp10
 70
     1
102
RTVSPropertyOp11
 70
     1
102
RTVSPropertyOp12
 70
     1
102
RTVSPropertyOp13
 70
     1
102
RTVSPropertyOp14
 70
     1
102
RTVSPropertyOp15
 70
     1
102
RTVSPropertyOp16
 70
     1
102
RTVSPropertyOp17
 70
     1
102
RTVSPropertyOp18
 70
     1
102
RTVSPropertyOp19
 70
     1
102
RTVSPropertyOp20
 70
     1
102
RTVSPropertyOp21
 70
     1
102
RTVSPropertyOp22
 70
     1
102
RTVSPropertyOp23
 70
     1
102
RTVSPropertyOp24
 70
     1
102
RTVSPropertyOp25
 70
     1
102
RTVSPropertyOp26
 70
     1
102
RTVSPropertyOp27
 70
     1
102
RTVSPropertyOp28
 70
     1
102
RTVSPropertyOp29
 70
     1
102
RTVSPropertyOp30
 70
     1
102
RTVSPropertyOp31
 70
     1
102
RTVSPropertyOp32
 70
     1
  0
XRECORD
  5
F82
102
{ACAD_REACTORS
330
F81
102
}
330
F81
100
AcDbXrecord
280
     1
102
RTVSPropertyOp0
 70
     0
102
RTVSPropertyOp1
 70
     0
102
RTVSPropertyOp2
 70
     0
102
RTVSPropertyOp3
 70
     0
102
RTVSPropertyOp4
 70
     0
102
RTVSPropertyOp5
 70
     0
102
RTVSPropertyOp6
 70
     0
102
RTVSPropertyOp7
 70
     0
102
RTVSPropertyOp8
 70
     0
102
RTVSPropertyOp9
 70
     0
102
RTVSPropertyOp10
 70
     0
102
RTVSPropertyOp11
 70
     0
102
RTVSPropertyOp12
 70
     0
102
RTVSPropertyOp13
 70
     0
102
RTVSPropertyOp14
 70
     2
102
RTVSPropertyOp15
 70
     0
102
RTVSPropertyOp16
 70
     0
102
RTVSPropertyOp17
 70
     0
102
RTVSPropertyOp18
 70
     0
102
RTVSPropertyOp19
 70
     0
102
RTVSPropertyOp20
 70
     0
102
RTVSPropertyOp21
 70
     0
102
RTVSPropertyOp22
 70
     0
102
RTVSPropertyOp23
 70
     0
102
RTVSPropertyOp24
 70
     0
102
RTVSPropertyOp25
 70
     0
102
RTVSPropertyOp26
 70
     0
102
RTVSPropertyOp27
 70
     0
102
RTVSPropertyOp28
 70
     0
102
RTVSPropertyOp29
 70
     0
102
RTVSPropertyOp30
 70
     0
102
RTVSPropertyOp31
 70
     0
102
RTVSPropertyOp32
 70
     0
  0
XRECORD
  5
F5F
102
{ACAD_REACTORS
330
F5E
102
}
330
F5E
100
AcDbXrecord
280
     1
102
RTVSPropertyOp0
 70
     1
102
RTVSPropertyOp1
 70
     1
102
RTVSPropertyOp2
 70
     1
102
RTVSPropertyOp3
 70
     1
102
RTVSPropertyOp4
 70
     1
102
RTVSPropertyOp5
 70
     1
102
RTVSPropertyOp6
 70
     1
102
RTVSPropertyOp7
 70
     1
102
RTVSPropertyOp8
 70
     1
102
RTVSPropertyOp9
 70
     1
102
RTVSPropertyOp10
 70
     1
102
RTVSPropertyOp11
 70
     1
102
RTVSPropertyOp12
 70
     1
102
RTVSPropertyOp13
 70
     1
102
RTVSPropertyOp14
 70
     1
102
RTVSPropertyOp15
 70
     1
102
RTVSPropertyOp16
 70
     1
102
RTVSPropertyOp17
 70
     1
102
RTVSPropertyOp18
 70
     1
102
RTVSPropertyOp19
 70
     1
102
RTVSPropertyOp20
 70
     1
102
RTVSPropertyOp21
 70
     1
102
RTVSPropertyOp22
 70
     1
102
RTVSPropertyOp23
 70
     1
102
RTVSPropertyOp24
 70
     1
102
RTVSPropertyOp25
 70
     1
102
RTVSPropertyOp26
 70
     1
102
RTVSPropertyOp27
 70
     1
102
RTVSPropertyOp28
 70
     1
102
RTVSPropertyOp29
 70
     1
102
RTVSPropertyOp30
 70
     1
102
RTVSPropertyOp31
 70
     1
102
RTVSPropertyOp32
 70
     1
  0
XRECORD
  5
F7E
102
{ACAD_REACTORS
330
F7D
102
}
330
F7D
100
AcDbXrecord
280
     1
102
RTVSPropertyOp0
 70
     1
102
RTVSPropertyOp1
 70
     1
102
RTVSPropertyOp2
 70
     1
102
RTVSPropertyOp3
 70
     1
102
RTVSPropertyOp4
 70
     1
102
RTVSPropertyOp5
 70
     1
102
RTVSPropertyOp6
 70
     1
102
RTVSPropertyOp7
 70
     1
102
RTVSPropertyOp8
 70
     1
102
RTVSPropertyOp9
 70
     1
102
RTVSPropertyOp10
 70
     1
102
RTVSPropertyOp11
 70
     1
102
RTVSPropertyOp12
 70
     1
102
RTVSPropertyOp13
 70
     1
102
RTVSPropertyOp14
 70
     1
102
RTVSPropertyOp15
 70
     1
102
RTVSPropertyOp16
 70
     1
102
RTVSPropertyOp17
 70
     1
102
RTVSPropertyOp18
 70
     1
102
RTVSPropertyOp19
 70
     1
102
RTVSPropertyOp20
 70
     1
102
RTVSPropertyOp21
 70
     1
102
RTVSPropertyOp22
 70
     1
102
RTVSPropertyOp23
 70
     1
102
RTVSPropertyOp24
 70
     1
102
RTVSPropertyOp25
 70
     1
102
RTVSPropertyOp26
 70
     1
102
RTVSPropertyOp27
 70
     1
102
RTVSPropertyOp28
 70
     1
102
RTVSPropertyOp29
 70
     1
102
RTVSPropertyOp30
 70
     1
102
RTVSPropertyOp31
 70
     1
102
RTVSPropertyOp32
 70
     1
  0
XRECORD
  5
F7C
102
{ACAD_REACTORS
330
F7B
102
}
330
F7B
100
AcDbXrecord
280
     1
102
RTVSPropertyOp0
 70
     1
102
RTVSPropertyOp1
 70
     1
102
RTVSPropertyOp2
 70
     1
102
RTVSPropertyOp3
 70
     1
102
RTVSPropertyOp4
 70
     1
102
RTVSPropertyOp5
 70
     1
102
RTVSPropertyOp6
 70
     1
102
RTVSPropertyOp7
 70
     1
102
RTVSPropertyOp8
 70
     1
102
RTVSPropertyOp9
 70
     1
102
RTVSPropertyOp10
 70
     1
102
RTVSPropertyOp11
 70
     1
102
RTVSPropertyOp12
 70
     1
102
RTVSPropertyOp13
 70
     1
102
RTVSPropertyOp14
 70
     1
102
RTVSPropertyOp15
 70
     1
102
RTVSPropertyOp16
 70
     1
102
RTVSPropertyOp17
 70
     1
102
RTVSPropertyOp18
 70
     1
102
RTVSPropertyOp19
 70
     1
102
RTVSPropertyOp20
 70
     1
102
RTVSPropertyOp21
 70
     1
102
RTVSPropertyOp22
 70
     1
102
RTVSPropertyOp23
 70
     1
102
RTVSPropertyOp24
 70
     1
102
RTVSPropertyOp25
 70
     1
102
RTVSPropertyOp26
 70
     1
102
RTVSPropertyOp27
 70
     1
102
RTVSPropertyOp28
 70
     1
102
RTVSPropertyOp29
 70
     1
102
RTVSPropertyOp30
 70
     1
102
RTVSPropertyOp31
 70
     1
102
RTVSPropertyOp32
 70
     1
  0
XRECORD
  5
F76
102
{ACAD_REACTORS
330
F75
102
}
330
F75
100
AcDbXrecord
280
     1
102
RTVSPropertyOp0
 70
     1
102
RTVSPropertyOp1
 70
     1
102
RTVSPropertyOp2
 70
     1
102
RTVSPropertyOp3
 70
     1
102
RTVSPropertyOp4
 70
     1
102
RTVSPropertyOp5
 70
     1
102
RTVSPropertyOp6
 70
     1
102
RTVSPropertyOp7
 70
     1
102
RTVSPropertyOp8
 70
     1
102
RTVSPropertyOp9
 70
     1
102
RTVSPropertyOp10
 70
     1
102
RTVSPropertyOp11
 70
     1
102
RTVSPropertyOp12
 70
     1
102
RTVSPropertyOp13
 70
     1
102
RTVSPropertyOp14
 70
     1
102
RTVSPropertyOp15
 70
     1
102
RTVSPropertyOp16
 70
     1
102
RTVSPropertyOp17
 70
     1
102
RTVSPropertyOp18
 70
     1
102
RTVSPropertyOp19
 70
     1
102
RTVSPropertyOp20
 70
     1
102
RTVSPropertyOp21
 70
     1
102
RTVSPropertyOp22
 70
     1
102
RTVSPropertyOp23
 70
     1
102
RTVSPropertyOp24
 70
     1
102
RTVSPropertyOp25
 70
     1
102
RTVSPropertyOp26
 70
     1
102
RTVSPropertyOp27
 70
     1
102
RTVSPropertyOp28
 70
     1
102
RTVSPropertyOp29
 70
     1
102
RTVSPropertyOp30
 70
     1
102
RTVSPropertyOp31
 70
     1
102
RTVSPropertyOp32
 70
     1
  0
XRECORD
  5
F78
102
{ACAD_REACTORS
330
F77
102
}
330
F77
100
AcDbXrecord
280
     1
102
RTVSPropertyOp0
 70
     1
102
RTVSPropertyOp1
 70
     1
102
RTVSPropertyOp2
 70
     1
102
RTVSPropertyOp3
 70
     1
102
RTVSPropertyOp4
 70
     1
102
RTVSPropertyOp5
 70
     1
102
RTVSPropertyOp6
 70
     1
102
RTVSPropertyOp7
 70
     1
102
RTVSPropertyOp8
 70
     1
102
RTVSPropertyOp9
 70
     1
102
RTVSPropertyOp10
 70
     1
102
RTVSPropertyOp11
 70
     1
102
RTVSPropertyOp12
 70
     1
102
RTVSPropertyOp13
 70
     1
102
RTVSPropertyOp14
 70
     1
102
RTVSPropertyOp15
 70
     1
102
RTVSPropertyOp16
 70
     1
102
RTVSPropertyOp17
 70
     1
102
RTVSPropertyOp18
 70
     1
102
RTVSPropertyOp19
 70
     1
102
RTVSPropertyOp20
 70
     1
102
RTVSPropertyOp21
 70
     1
102
RTVSPropertyOp22
 70
     1
102
RTVSPropertyOp23
 70
     1
102
RTVSPropertyOp24
 70
     1
102
RTVSPropertyOp25
 70
     1
102
RTVSPropertyOp26
 70
     1
102
RTVSPropertyOp27
 70
     1
102
RTVSPropertyOp28
 70
     1
102
RTVSPropertyOp29
 70
     1
102
RTVSPropertyOp30
 70
     1
102
RTVSPropertyOp31
 70
     1
102
RTVSPropertyOp32
 70
     1
  0
XRECORD
  5
F65
102
{ACAD_REACTORS
330
F64
102
}
330
F64
100
AcDbXrecord
280
     1
102
RTVSPropertyOp0
 70
     1
102
RTVSPropertyOp1
 70
     1
102
RTVSPropertyOp2
 70
     1
102
RTVSPropertyOp3
 70
     1
102
RTVSPropertyOp4
 70
     1
102
RTVSPropertyOp5
 70
     1
102
RTVSPropertyOp6
 70
     1
102
RTVSPropertyOp7
 70
     1
102
RTVSPropertyOp8
 70
     1
102
RTVSPropertyOp9
 70
     1
102
RTVSPropertyOp10
 70
     1
102
RTVSPropertyOp11
 70
     1
102
RTVSPropertyOp12
 70
     1
102
RTVSPropertyOp13
 70
     1
102
RTVSPropertyOp14
 70
     1
102
RTVSPropertyOp15
 70
     1
102
RTVSPropertyOp16
 70
     1
102
RTVSPropertyOp17
 70
     1
102
RTVSPropertyOp18
 70
     1
102
RTVSPropertyOp19
 70
     1
102
RTVSPropertyOp20
 70
     1
102
RTVSPropertyOp21
 70
     1
102
RTVSPropertyOp22
 70
     1
102
RTVSPropertyOp23
 70
     1
102
RTVSPropertyOp24
 70
     1
102
RTVSPropertyOp25
 70
     1
102
RTVSPropertyOp26
 70
     1
102
RTVSPropertyOp27
 70
     1
102
RTVSPropertyOp28
 70
     1
102
RTVSPropertyOp29
 70
     1
102
RTVSPropertyOp30
 70
     1
102
RTVSPropertyOp31
 70
     1
102
RTVSPropertyOp32
 70
     1
  0
XRECORD
  5
F72
102
{ACAD_REACTORS
330
F71
102
}
330
F71
100
AcDbXrecord
280
     1
102
RTVSPropertyOp0
 70
     1
102
RTVSPropertyOp1
 70
     1
102
RTVSPropertyOp2
 70
     1
102
RTVSPropertyOp3
 70
     1
102
RTVSPropertyOp4
 70
     1
102
RTVSPropertyOp5
 70
     1
102
RTVSPropertyOp6
 70
     1
102
RTVSPropertyOp7
 70
     1
102
RTVSPropertyOp8
 70
     1
102
RTVSPropertyOp9
 70
     1
102
RTVSPropertyOp10
 70
     1
102
RTVSPropertyOp11
 70
     1
102
RTVSPropertyOp12
 70
     1
102
RTVSPropertyOp13
 70
     1
102
RTVSPropertyOp14
 70
     1
102
RTVSPropertyOp15
 70
     1
102
RTVSPropertyOp16
 70
     1
102
RTVSPropertyOp17
 70
     1
102
RTVSPropertyOp18
 70
     1
102
RTVSPropertyOp19
 70
     1
102
RTVSPropertyOp20
 70
     1
102
RTVSPropertyOp21
 70
     1
102
RTVSPropertyOp22
 70
     1
102
RTVSPropertyOp23
 70
     1
102
RTVSPropertyOp24
 70
     1
102
RTVSPropertyOp25
 70
     1
102
RTVSPropertyOp26
 70
     1
102
RTVSPropertyOp27
 70
     1
102
RTVSPropertyOp28
 70
     1
102
RTVSPropertyOp29
 70
     1
102
RTVSPropertyOp30
 70
     1
102
RTVSPropertyOp31
 70
     1
102
RTVSPropertyOp32
 70
     1
  0
XRECORD
  5
F7A
102
{ACAD_REACTORS
330
F79
102
}
330
F79
100
AcDbXrecord
280
     1
102
RTVSPropertyOp0
 70
     1
102
RTVSPropertyOp1
 70
     1
102
RTVSPropertyOp2
 70
     1
102
RTVSPropertyOp3
 70
     1
102
RTVSPropertyOp4
 70
     1
102
RTVSPropertyOp5
 70
     1
102
RTVSPropertyOp6
 70
     1
102
RTVSPropertyOp7
 70
     1
102
RTVSPropertyOp8
 70
     1
102
RTVSPropertyOp9
 70
     1
102
RTVSPropertyOp10
 70
     1
102
RTVSPropertyOp11
 70
     1
102
RTVSPropertyOp12
 70
     1
102
RTVSPropertyOp13
 70
     1
102
RTVSPropertyOp14
 70
     1
102
RTVSPropertyOp15
 70
     1
102
RTVSPropertyOp16
 70
     1
102
RTVSPropertyOp17
 70
     1
102
RTVSPropertyOp18
 70
     1
102
RTVSPropertyOp19
 70
     1
102
RTVSPropertyOp20
 70
     1
102
RTVSPropertyOp21
 70
     1
102
RTVSPropertyOp22
 70
     1
102
RTVSPropertyOp23
 70
     1
102
RTVSPropertyOp24
 70
     1
102
RTVSPropertyOp25
 70
     1
102
RTVSPropertyOp26
 70
     1
102
RTVSPropertyOp27
 70
     1
102
RTVSPropertyOp28
 70
     1
102
RTVSPropertyOp29
 70
     1
102
RTVSPropertyOp30
 70
     1
102
RTVSPropertyOp31
 70
     1
102
RTVSPropertyOp32
 70
     1
  0
ENDSEC
  0
EOF
