  0
SECTION
  2
HEADER
  9
$ACADVER
  1
AC1015
  9
$ACADMAINTVER
 70
    20
  9
$DWGCODEPAGE
  3
ANSI_932
  9
$INSBASE
 10
0.0
 20
0.0
 30
0.0
  9
$EXTMIN
 10
40.69892641913464
 20
19.20491136345532
 30
0.0
  9
$EXTMAX
 10
445.6989264191346
 20
298.9801772634553
 30
0.0
  9
$LIMMIN
 10
0.0
 20
0.0
  9
$LIMMAX
 10
12.0
 20
9.0
  9
$ORTHOMODE
 70
     1
  9
$REGENMODE
 70
     1
  9
$FILLMODE
 70
     1
  9
$QTEXTMODE
 70
     0
  9
$MIRRTEXT
 70
     0
  9
$LTSCALE
 40
1.0
  9
$ATTMODE
 70
     1
  9
$TEXTSIZE
 40
3.2
  9
$TRACEWID
 40
0.05
  9
$TEXTSTYLE
  7
高3.2
  9
$CLAYER
  8
0
  9
$CELTYPE
  6
ByLayer
  9
$CECOLOR
 62
   256
  9
$CELTSCALE
 40
1.0
  9
$DISPSILH
 70
     0
  9
$DIMSCALE
 40
1.0
  9
$DIMASZ
 40
2.5
  9
$DIMEXO
 40
0.25
  9
$DIMDLI
 40
0.2
  9
$DIMRND
 40
0.0
  9
$DIMDLE
 40
0.0
  9
$DIMEXE
 40
1.25
  9
$DIMTP
 40
0.0
  9
$DIMTM
 40
0.0
  9
$DIMTXT
 40
3.0
  9
$DIMCEN
 40
0.0
  9
$DIMTSZ
 40
0.0
  9
$DIMTOL
 70
     0
  9
$DIMLIM
 70
     0
  9
$DIMTIH
 70
     0
  9
$DIMTOH
 70
     0
  9
$DIMSE1
 70
     0
  9
$DIMSE2
 70
     0
  9
$DIMTAD
 70
     3
  9
$DIMZIN
 70
     8
  9
$DIMBLK
  1
Open30
  9
$DIMASO
 70
     1
  9
$DIMSHO
 70
     1
  9
$DIMPOST
  1

  9
$DIMAPOST
  1

  9
$DIMALT
 70
     0
  9
$DIMALTD
 70
     3
  9
$DIMALTF
 40
0.03937007874016
  9
$DIMLFAC
 40
1.0
  9
$DIMTOFL
 70
     1
  9
$DIMTVP
 40
0.0
  9
$DIMTIX
 70
     0
  9
$DIMSOXD
 70
     0
  9
$DIMSAH
 70
     0
  9
$DIMBLK1
  1

  9
$DIMBLK2
  1

  9
$DIMSTYLE
  2
1：1
  9
$DIMCLRD
 70
     0
  9
$DIMCLRE
 70
     0
  9
$DIMCLRT
 70
     4
  9
$DIMTFAC
 40
1.0
  9
$DIMGAP
 40
0.625
  9
$DIMJUST
 70
     0
  9
$DIMSD1
 70
     0
  9
$DIMSD2
 70
     0
  9
$DIMTOLJ
 70
     0
  9
$DIMTZIN
 70
     8
  9
$DIMALTZ
 70
     0
  9
$DIMALTTZ
 70
     0
  9
$DIMUPT
 70
     1
  9
$DIMDEC
 70
     2
  9
$DIMTDEC
 70
     2
  9
$DIMALTU
 70
     2
  9
$DIMALTTD
 70
     3
  9
$DIMTXSTY
  7
Standard
  9
$DIMAUNIT
 70
     0
  9
$DIMADEC
 70
     1
  9
$DIMALTRND
 40
0.0
  9
$DIMAZIN
 70
     2
  9
$DIMDSEP
 70
    46
  9
$DIMATFIT
 70
     0
  9
$DIMFRAC
 70
     0
  9
$DIMLDRBLK
  1
Open30
  9
$DIMLUNIT
 70
     2
  9
$DIMLWD
 70
    -2
  9
$DIMLWE
 70
    -2
  9
$DIMTMOVE
 70
     0
  9
$LUNITS
 70
     2
  9
$LUPREC
 70
     4
  9
$SKETCHINC
 40
0.1
  9
$FILLETRAD
 40
0.0
  9
$AUNITS
 70
     0
  9
$AUPREC
 70
     0
  9
$MENU
  1
.
  9
$ELEVATION
 40
0.0
  9
$PELEVATION
 40
0.0
  9
$THICKNESS
 40
0.0
  9
$LIMCHECK
 70
     0
  9
$CHAMFERA
 40
0.0
  9
$CHAMFERB
 40
0.0
  9
$CHAMFERC
 40
0.0
  9
$CHAMFERD
 40
0.0
  9
$SKPOLY
 70
     0
  9
$TDCREATE
 40
2456367.849490081
  9
$TDUCREATE
 40
2456367.474490081
  9
$TDUPDATE
 40
2459556.376397315
  9
$TDUUPDATE
 40
2459556.001397315
  9
$TDINDWG
 40
0.0763366551
  9
$TDUSRTIMER
 40
0.0763358449
  9
$USRTIMER
 70
     1
  9
$ANGBASE
 50
0.0
  9
$ANGDIR
 70
     0
  9
$PDMODE
 70
     0
  9
$PDSIZE
 40
0.0
  9
$PLINEWID
 40
0.0
  9
$SPLFRAME
 70
     0
  9
$SPLINETYPE
 70
     6
  9
$SPLINESEGS
 70
     8
  9
$HANDSEED
  5
1D80
  9
$SURFTAB1
 70
     6
  9
$SURFTAB2
 70
     6
  9
$SURFTYPE
 70
     6
  9
$SURFU
 70
     6
  9
$SURFV
 70
     6
  9
$UCSBASE
  2

  9
$UCSNAME
  2

  9
$UCSORG
 10
0.0
 20
0.0
 30
0.0
  9
$UCSXDIR
 10
1.0
 20
0.0
 30
0.0
  9
$UCSYDIR
 10
0.0
 20
1.0
 30
0.0
  9
$UCSORTHOREF
  2

  9
$UCSORTHOVIEW
 70
     0
  9
$UCSORGTOP
 10
0.0
 20
0.0
 30
0.0
  9
$UCSORGBOTTOM
 10
0.0
 20
0.0
 30
0.0
  9
$UCSORGLEFT
 10
0.0
 20
0.0
 30
0.0
  9
$UCSORGRIGHT
 10
0.0
 20
0.0
 30
0.0
  9
$UCSORGFRONT
 10
0.0
 20
0.0
 30
0.0
  9
$UCSORGBACK
 10
0.0
 20
0.0
 30
0.0
  9
$PUCSBASE
  2

  9
$PUCSNAME
  2

  9
$PUCSORG
 10
0.0
 20
0.0
 30
0.0
  9
$PUCSXDIR
 10
1.0
 20
0.0
 30
0.0
  9
$PUCSYDIR
 10
0.0
 20
1.0
 30
0.0
  9
$PUCSORTHOREF
  2

  9
$PUCSORTHOVIEW
 70
     0
  9
$PUCSORGTOP
 10
0.0
 20
0.0
 30
0.0
  9
$PUCSORGBOTTOM
 10
0.0
 20
0.0
 30
0.0
  9
$PUCSORGLEFT
 10
0.0
 20
0.0
 30
0.0
  9
$PUCSORGRIGHT
 10
0.0
 20
0.0
 30
0.0
  9
$PUCSORGFRONT
 10
0.0
 20
0.0
 30
0.0
  9
$PUCSORGBACK
 10
0.0
 20
0.0
 30
0.0
  9
$USERI1
 70
     0
  9
$USERI2
 70
     0
  9
$USERI3
 70
     0
  9
$USERI4
 70
     0
  9
$USERI5
 70
     0
  9
$USERR1
 40
0.0
  9
$USERR2
 40
0.0
  9
$USERR3
 40
0.0
  9
$USERR4
 40
0.0
  9
$USERR5
 40
0.0
  9
$WORLDVIEW
 70
     1
  9
$SHADEDGE
 70
     3
  9
$SHADEDIF
 70
    70
  9
$TILEMODE
 70
     1
  9
$MAXACTVP
 70
    64
  9
$PINSBASE
 10
0.0
 20
0.0
 30
0.0
  9
$PLIMCHECK
 70
     0
  9
$PEXTMIN
 10
0.0
 20
0.0
 30
0.0
  9
$PEXTMAX
 10
0.0
 20
0.0
 30
0.0
  9
$PLIMMIN
 10
0.0
 20
0.0
  9
$PLIMMAX
 10
12.0
 20
9.0
  9
$UNITMODE
 70
     0
  9
$VISRETAIN
 70
     1
  9
$PLINEGEN
 70
     0
  9
$PSLTSCALE
 70
     1
  9
$TREEDEPTH
 70
  3020
  9
$CMLSTYLE
  2
Standard
  9
$CMLJUST
 70
     0
  9
$CMLSCALE
 40
1.0
  9
$PROXYGRAPHICS
 70
     1
  9
$MEASUREMENT
 70
     1
  9
$CELWEIGHT
370
    -1
  9
$ENDCAPS
280
     0
  9
$JOINSTYLE
280
     0
  9
$LWDISPLAY
290
     0
  9
$INSUNITS
 70
     1
  9
$HYPERLINKBASE
  1

  9
$STYLESHEET
  1
N-PLOT.CTB
  9
$XEDIT
290
     1
  9
$CEPSNTYPE
380
     0
  9
$PSTYLEMODE
290
     1
  9
$FINGERPRINTGUID
  2
{E9C627F5-677A-495A-A50D-2CEAEE8160D0}
  9
$VERSIONGUID
  2
{22E1ED86-34CB-4645-A63B-2CAB60705DCC}
  9
$EXTNAMES
290
     1
  9
$PSVPSCALE
 40
0.0
  9
$OLESTARTUP
290
     0
  0
ENDSEC
  0
SECTION
  2
CLASSES
  0
CLASS
  1
ACDBDICTIONARYWDFLT
  2
AcDbDictionaryWithDefault
  3
ObjectDBX Classes
 90
        0
280
     0
281
     0
  0
CLASS
  1
ACDBPLACEHOLDER
  2
AcDbPlaceHolder
  3
ObjectDBX Classes
 90
        0
280
     0
281
     0
  0
CLASS
  1
LAYOUT
  2
AcDbLayout
  3
ObjectDBX Classes
 90
        0
280
     0
281
     0
  0
CLASS
  1
DICTIONARYVAR
  2
AcDbDictionaryVar
  3
ObjectDBX Classes
 90
        0
280
     0
281
     0
  0
CLASS
  1
TABLESTYLE
  2
AcDbTableStyle
  3
ObjectDBX Classes
 90
     4095
280
     0
281
     0
  0
CLASS
  1
MATERIAL
  2
AcDbMaterial
  3
ObjectDBX Classes
 90
     1153
280
     0
281
     0
  0
CLASS
  1
VISUALSTYLE
  2
AcDbVisualStyle
  3
ObjectDBX Classes
 90
     4095
280
     0
281
     0
  0
CLASS
  1
SORTENTSTABLE
  2
AcDbSortentsTable
  3
ObjectDBX Classes
 90
        0
280
     0
281
     0
  0
CLASS
  1
DIMASSOC
  2
AcDbDimAssoc
  3
"AcDbDimAssoc|Product Desc:     AcDim ARX App For Dimension|Company:          Autodesk, Inc.|WEB Address:      www.autodesk.com"
 90
        0
280
     0
281
     0
  0
CLASS
  1
SCALE
  2
AcDbScale
  3
ObjectDBX Classes
 90
     1153
280
     0
281
     0
  0
CLASS
  1
MLEADERSTYLE
  2
AcDbMLeaderStyle
  3
ACDB_MLEADERSTYLE_CLASS
 90
     4095
280
     0
281
     0
  0
CLASS
  1
CELLSTYLEMAP
  2
AcDbCellStyleMap
  3
ObjectDBX Classes
 90
     1152
280
     0
281
     0
  0
ENDSEC
  0
SECTION
  2
TABLES
  0
TABLE
  2
VPORT
  5
8
330
0
100
AcDbSymbolTable
 70
     1
  0
VPORT
  5
94
330
8
100
AcDbSymbolTableRecord
100
AcDbViewportTableRecord
  2
*Active
 70
     0
 10
0.0
 20
0.0
 11
1.0
 21
1.0
 12
198.0115362642678
 22
225.5868346764424
 13
0.0
 23
0.0
 14
0.5
 24
0.5
 15
0.5
 25
0.5
 16
0.0
 26
0.0
 36
1.0
 17
0.0
 27
0.0
 37
0.0
 40
673.5123171057937
 41
1.494163424124513
 42
50.0
 43
0.0
 44
0.0
 50
0.0
 51
0.0
 71
     0
 72
  1000
 73
     1
 74
     2
 75
     0
 76
     0
 77
     0
 78
     0
281
     0
 65
     1
110
0.0
120
0.0
130
0.0
111
1.0
121
0.0
131
0.0
112
0.0
122
1.0
132
0.0
 79
     0
146
0.0
  0
ENDTAB
  0
TABLE
  2
LTYPE
  5
5
330
0
100
AcDbSymbolTable
 70
     3
  0
LTYPE
  5
14
330
5
100
AcDbSymbolTableRecord
100
AcDbLinetypeTableRecord
  2
ByBlock
 70
     0
  3

 72
    65
 73
     0
 40
0.0
  0
LTYPE
  5
15
330
5
100
AcDbSymbolTableRecord
100
AcDbLinetypeTableRecord
  2
ByLayer
 70
     0
  3

 72
    65
 73
     0
 40
0.0
  0
LTYPE
  5
16
330
5
100
AcDbSymbolTableRecord
100
AcDbLinetypeTableRecord
  2
Continuous
 70
     0
  3
Solid line
 72
    65
 73
     0
 40
0.0
  0
LTYPE
  5
148
330
5
100
AcDbSymbolTableRecord
100
AcDbLinetypeTableRecord
  2
CENTER
 70
     0
  3
Center ____ _ ____ _ ____ _ ____ _ ____ _ ____
 72
    65
 73
     4
 40
50.8
 49
31.75
 74
     0
 49
-6.349999999999997
 74
     0
 49
6.349999999999997
 74
     0
 49
-6.349999999999997
 74
     0
  0
LTYPE
  5
149
330
5
100
AcDbSymbolTableRecord
100
AcDbLinetypeTableRecord
  2
HIDDEN
 70
     0
  3
Hidden __ __ __ __ __ __ __ __ __ __ __ __ __ __
 72
    65
 73
     2
 40
9.524999999999996
 49
6.349999999999997
 74
     0
 49
-3.174999999999998
 74
     0
  0
ENDTAB
  0
TABLE
  2
LAYER
  5
2
102
{ACAD_XDICTIONARY
360
DD
102
}
330
0
100
AcDbSymbolTable
 70
     2
  0
LAYER
  5
10
102
{ACAD_XDICTIONARY
360
8D5
102
}
330
2
100
AcDbSymbolTableRecord
100
AcDbLayerTableRecord
  2
0
 70
     0
 62
     7
  6
Continuous
370
    -3
390
F
  0
LAYER
  5
D8
330
2
100
AcDbSymbolTableRecord
100
AcDbLayerTableRecord
  2
Defpoints
 70
     0
 62
     7
  6
Continuous
290
     0
370
    -3
390
F
  0
ENDTAB
  0
TABLE
  2
STYLE
  5
3
330
0
100
AcDbSymbolTable
 70
     6
  0
STYLE
  5
11
330
3
100
AcDbSymbolTableRecord
100
AcDbTextStyleTableRecord
  2
Standard
 70
     0
 40
0.0
 41
1.0
 50
0.0
 71
     0
 42
0.2
  3
txt.shx
  4
bigfont.shx
  0
STYLE
  5
11D
330
3
100
AcDbSymbolTableRecord
100
AcDbTextStyleTableRecord
  2
高3.2
 70
     0
 40
3.2
 41
1.0
 50
0.0
 71
     0
 42
3.2
  3
txt.shx
  4
bigfont.shx
  0
STYLE
  5
11E
330
3
100
AcDbSymbolTableRecord
100
AcDbTextStyleTableRecord
  2
高6.3
 70
     0
 40
6.299999999999998
 41
1.0
 50
0.0
 71
     0
 42
6.299999999999998
  3
txt.shx
  4
bigfont.shx
  0
STYLE
  5
11F
330
3
100
AcDbSymbolTableRecord
100
AcDbTextStyleTableRecord
  2
高2.5
 70
     0
 40
2.5
 41
1.0
 50
0.0
 71
     0
 42
0.2
  3
txt.shx
  4
bigfont.shx
  0
STYLE
  5
146
330
3
100
AcDbSymbolTableRecord
100
AcDbTextStyleTableRecord
  2
高4.5
 70
     0
 40
4.5
 41
1.0
 50
0.0
 71
     0
 42
6.299999999999998
  3
txt.shx
  4
bigfont.shx
  0
STYLE
  5
2E5
330
3
100
AcDbSymbolTableRecord
100
AcDbTextStyleTableRecord
  2
高2
 70
     0
 40
2.0
 41
1.0
 50
0.0
 71
     0
 42
6.299999999999998
  3
txt.shx
  4
bigfont.shx
  0
ENDTAB
  0
TABLE
  2
VIEW
  5
6
330
0
100
AcDbSymbolTable
 70
     0
  0
ENDTAB
  0
TABLE
  2
UCS
  5
7
330
0
100
AcDbSymbolTable
 70
     0
  0
ENDTAB
  0
TABLE
  2
APPID
  5
9
330
0
100
AcDbSymbolTable
 70
     9
  0
APPID
  5
12
330
9
100
AcDbSymbolTableRecord
100
AcDbRegAppTableRecord
  2
ACAD
 70
     0
  0
APPID
  5
DC
330
9
100
AcDbSymbolTableRecord
100
AcDbRegAppTableRecord
  2
ACAD_DSTYLE_DIMJOGGED_JOGANGLE_SYMBOL
 70
     0
  0
APPID
  5
2E7
330
9
100
AcDbSymbolTableRecord
100
AcDbRegAppTableRecord
  2
ACAD_DSTYLE_DIMRADIAL_EXTENSION
 70
     0
  0
APPID
  5
2E8
330
9
100
AcDbSymbolTableRecord
100
AcDbRegAppTableRecord
  2
GradientColor1ACI
 70
     0
  0
APPID
  5
2E9
330
9
100
AcDbSymbolTableRecord
100
AcDbRegAppTableRecord
  2
GradientColor2ACI
 70
     0
  0
APPID
  5
8D0
330
9
100
AcDbSymbolTableRecord
100
AcDbRegAppTableRecord
  2
ACAD_EXEMPT_FROM_CAD_STANDARDS
 70
     0
  0
APPID
  5
912
330
9
100
AcDbSymbolTableRecord
100
AcDbRegAppTableRecord
  2
ACAD_DSTYLE_DIMARC_LENGTH_SYMBOL
 70
     0
  0
APPID
  5
913
330
9
100
AcDbSymbolTableRecord
100
AcDbRegAppTableRecord
  2
ACAD_DSTYLE_DIMEXT_LENGTH
 70
     0
  0
APPID
  5
928
330
9
100
AcDbSymbolTableRecord
100
AcDbRegAppTableRecord
  2
ACAD_MLEADERVER
 70
     0
  0
ENDTAB
  0
TABLE
  2
DIMSTYLE
  5
A
330
0
100
AcDbSymbolTable
 70
     2
100
AcDbDimStyleTable
 71
     1
340
D9
  0
DIMSTYLE
105
D9
330
A
100
AcDbSymbolTableRecord
100
AcDbDimStyleTableRecord
  2
1：1
 70
     0
 41
2.5
 42
0.25
 43
0.2
 44
1.25
 73
     0
 74
     0
 77
     3
 78
     8
 79
     2
140
3.0
141
0.0
143
0.03937007874016
147
0.625
171
     3
172
     1
178
     4
179
     1
271
     2
272
     2
274
     3
283
     0
284
     8
288
     1
289
     0
340
11
341
C6
342
C6
1001
ACAD_DSTYLE_DIMARC_LENGTH_SYMBOL
1070
   379
1070
     2
1001
ACAD_DSTYLE_DIMEXT_LENGTH
1070
   378
1040
1.25
1001
ACAD_DSTYLE_DIMJOGGED_JOGANGLE_SYMBOL
1070
   384
1040
1.570796326794896
  0
DIMSTYLE
105
2E6
330
A
100
AcDbSymbolTableRecord
100
AcDbDimStyleTableRecord
  2
1／4
 70
     0
 41
2.5
 42
0.25
 43
0.2
 44
1.25
 73
     0
 74
     0
 77
     3
 78
     8
 79
     2
140
3.0
141
0.0
143
0.03937007874016
144
4.0
147
0.625
171
     3
172
     1
178
     4
179
     1
271
     2
272
     2
274
     3
283
     0
284
     8
288
     1
289
     0
340
11
341
C6
342
C6
1001
ACAD_DSTYLE_DIMARC_LENGTH_SYMBOL
1070
   379
1070
     2
1001
ACAD_DSTYLE_DIMEXT_LENGTH
1070
   378
1040
1.25
1001
ACAD_DSTYLE_DIMJOGGED_JOGANGLE_SYMBOL
1070
   384
1040
1.570796326794896
  0
ENDTAB
  0
TABLE
  2
BLOCK_RECORD
  5
1
330
0
100
AcDbSymbolTable
 70
    30
  0
BLOCK_RECORD
  5
1F
102
{ACAD_XDICTIONARY
360
10B1
102
}
330
1
100
AcDbSymbolTableRecord
100
AcDbBlockTableRecord
  2
*Model_Space
340
22
  0
BLOCK_RECORD
  5
58
330
1
100
AcDbSymbolTableRecord
100
AcDbBlockTableRecord
  2
*Paper_Space
340
59
  0
BLOCK_RECORD
  5
5D
330
1
100
AcDbSymbolTableRecord
100
AcDbBlockTableRecord
  2
*Paper_Space0
340
5E
  0
BLOCK_RECORD
  5
C6
330
1
100
AcDbSymbolTableRecord
100
AcDbBlockTableRecord
  2
_Open30
340
0
102
{BLKREFS
331
19C7
331
19C8
331
19D0
331
19D1
331
19D9
331
19DA
331
19E2
331
19E3
331
19EB
331
19EC
331
19F4
331
19F5
331
19FF
331
1A00
331
1A0A
331
1A0B
331
1A15
331
1A16
331
1A1E
331
1A1F
331
1A27
331
1A28
331
1A32
331
1A33
331
1A3B
331
1A3C
331
1A44
331
1A45
331
1A4D
331
1A4E
331
1A56
331
1A57
331
1A68
331
1A69
331
1A73
331
1A74
331
1A7C
331
1A7D
331
1A84
331
1A85
331
1A96
331
1A97
331
1A9F
331
1AA0
331
1AA9
331
1AAA
331
1ABD
331
1ABE
331
1AC8
331
1AC9
331
1AD2
331
1AD3
331
1ADB
331
1ADC
331
1AE4
331
1AE5
102
}
  0
BLOCK_RECORD
  5
6F8
330
1
100
AcDbSymbolTableRecord
100
AcDbBlockTableRecord
  2
*D2
340
0
  0
BLOCK_RECORD
  5
704
330
1
100
AcDbSymbolTableRecord
100
AcDbBlockTableRecord
  2
*D3
340
0
  0
BLOCK_RECORD
  5
710
330
1
100
AcDbSymbolTableRecord
100
AcDbBlockTableRecord
  2
*D4
340
0
  0
BLOCK_RECORD
  5
71E
330
1
100
AcDbSymbolTableRecord
100
AcDbBlockTableRecord
  2
*D5
340
0
  0
BLOCK_RECORD
  5
72A
330
1
100
AcDbSymbolTableRecord
100
AcDbBlockTableRecord
  2
*D6
340
0
  0
BLOCK_RECORD
  5
736
330
1
100
AcDbSymbolTableRecord
100
AcDbBlockTableRecord
  2
*D7
340
0
  0
BLOCK_RECORD
  5
742
330
1
100
AcDbSymbolTableRecord
100
AcDbBlockTableRecord
  2
*D8
340
0
  0
BLOCK_RECORD
  5
750
330
1
100
AcDbSymbolTableRecord
100
AcDbBlockTableRecord
  2
*D9
340
0
  0
BLOCK_RECORD
  5
75C
330
1
100
AcDbSymbolTableRecord
100
AcDbBlockTableRecord
  2
*D10
340
0
  0
BLOCK_RECORD
  5
77A
330
1
100
AcDbSymbolTableRecord
100
AcDbBlockTableRecord
  2
*D11
340
0
  0
BLOCK_RECORD
  5
786
330
1
100
AcDbSymbolTableRecord
100
AcDbBlockTableRecord
  2
*D12
340
0
  0
BLOCK_RECORD
  5
792
330
1
100
AcDbSymbolTableRecord
100
AcDbBlockTableRecord
  2
*D13
340
0
  0
BLOCK_RECORD
  5
7AB
330
1
100
AcDbSymbolTableRecord
100
AcDbBlockTableRecord
  2
*D14
340
0
  0
BLOCK_RECORD
  5
7C2
330
1
100
AcDbSymbolTableRecord
100
AcDbBlockTableRecord
  2
*D15
340
0
  0
BLOCK_RECORD
  5
7CE
330
1
100
AcDbSymbolTableRecord
100
AcDbBlockTableRecord
  2
*D16
340
0
  0
BLOCK_RECORD
  5
7DC
330
1
100
AcDbSymbolTableRecord
100
AcDbBlockTableRecord
  2
*D17
340
0
  0
BLOCK_RECORD
  5
7E8
330
1
100
AcDbSymbolTableRecord
100
AcDbBlockTableRecord
  2
*D18
340
0
  0
BLOCK_RECORD
  5
7F4
330
1
100
AcDbSymbolTableRecord
100
AcDbBlockTableRecord
  2
*D19
340
0
  0
BLOCK_RECORD
  5
812
330
1
100
AcDbSymbolTableRecord
100
AcDbBlockTableRecord
  2
*D20
340
0
  0
BLOCK_RECORD
  5
829
330
1
100
AcDbSymbolTableRecord
100
AcDbBlockTableRecord
  2
*D21
340
0
  0
BLOCK_RECORD
  5
83D
330
1
100
AcDbSymbolTableRecord
100
AcDbBlockTableRecord
  2
*D22
340
0
  0
BLOCK_RECORD
  5
849
330
1
100
AcDbSymbolTableRecord
100
AcDbBlockTableRecord
  2
*D23
340
0
  0
BLOCK_RECORD
  5
855
330
1
100
AcDbSymbolTableRecord
100
AcDbBlockTableRecord
  2
*D24
340
0
  0
BLOCK_RECORD
  5
861
330
1
100
AcDbSymbolTableRecord
100
AcDbBlockTableRecord
  2
*D25
340
0
  0
BLOCK_RECORD
  5
86C
330
1
100
AcDbSymbolTableRecord
100
AcDbBlockTableRecord
  2
*D26
340
0
  0
BLOCK_RECORD
  5
87A
330
1
100
AcDbSymbolTableRecord
100
AcDbBlockTableRecord
  2
*D27
340
0
  0
BLOCK_RECORD
  5
88F
330
1
100
AcDbSymbolTableRecord
100
AcDbBlockTableRecord
  2
*D28
340
0
  0
BLOCK_RECORD
  5
89D
330
1
100
AcDbSymbolTableRecord
100
AcDbBlockTableRecord
  2
*D29
340
0
  0
ENDTAB
  0
ENDSEC
  0
SECTION
  2
BLOCKS
  0
BLOCK
  5
20
330
1F
100
AcDbEntity
  8
0
100
AcDbBlockBegin
  2
*Model_Space
 70
     0
 10
0.0
 20
0.0
 30
0.0
  3
*Model_Space
  1

  0
ENDBLK
  5
21
330
1F
100
AcDbEntity
  8
0
100
AcDbBlockEnd
  0
BLOCK
  5
5A
330
58
100
AcDbEntity
 67
     1
  8
0
100
AcDbBlockBegin
  2
*Paper_Space
 70
     0
 10
0.0
 20
0.0
 30
0.0
  3
*Paper_Space
  1

  0
ENDBLK
  5
5B
330
58
100
AcDbEntity
 67
     1
  8
0
100
AcDbBlockEnd
  0
BLOCK
  5
5F
330
5D
100
AcDbEntity
 67
     1
  8
0
100
AcDbBlockBegin
  2
*Paper_Space0
 70
     0
 10
0.0
 20
0.0
 30
0.0
  3
*Paper_Space0
  1

  0
ENDBLK
  5
60
330
5D
100
AcDbEntity
 67
     1
  8
0
100
AcDbBlockEnd
  0
BLOCK
  5
C7
330
C6
100
AcDbEntity
  8
0
100
AcDbBlockBegin
  2
_Open30
 70
     0
 10
0.0
 20
0.0
 30
0.0
  3
_Open30
  1

  0
LINE
  5
C8
330
C6
100
AcDbEntity
  8
0
  6
ByBlock
 62
     0
370
    -2
100
AcDbLine
 10
-1.0
 20
0.267949
 30
0.0
 11
0.0
 21
0.0
 31
0.0
  0
LINE
  5
C9
330
C6
100
AcDbEntity
  8
0
  6
ByBlock
 62
     0
370
    -2
100
AcDbLine
 10
0.0
 20
0.0
 30
0.0
 11
-1.0
 21
-0.267949
 31
0.0
  0
LINE
  5
CA
330
C6
100
AcDbEntity
  8
0
  6
ByBlock
 62
     0
370
    -2
100
AcDbLine
 10
0.0
 20
0.0
 30
0.0
 11
-1.0
 21
0.0
 31
0.0
  0
ENDBLK
  5
CB
330
C6
100
AcDbEntity
  8
0
100
AcDbBlockEnd
  0
BLOCK
  5
6F9
330
6F8
100
AcDbEntity
  8
0
100
AcDbBlockBegin
  2
*D2
 70
     1
 10
0.0
 20
0.0
 30
0.0
  3
*D2
  1

  0
LINE
  5
19D6
330
6F8
100
AcDbEntity
  8
0
 62
     0
370
    -2
100
AcDbLine
 10
403.7913054906106
 20
167.3022188864597
 30
0.0
 11
411.9041386456417
 21
167.3022188864597
 31
0.0
  0
LINE
  5
19D7
330
6F8
100
AcDbEntity
  8
0
 62
     0
370
    -2
100
AcDbLine
 10
403.7913054906106
 20
156.0522188864597
 30
0.0
 11
411.9041386456417
 21
156.0522188864597
 31
0.0
  0
LINE
  5
19D8
330
6F8
100
AcDbEntity
  8
0
 62
     0
370
    -2
100
AcDbLine
 10
410.6541386456417
 20
164.8022188864597
 30
0.0
 11
410.6541386456417
 21
158.5522188864597
 31
0.0
  0
INSERT
  5
19D9
330
6F8
100
AcDbEntity
  8
0
 62
     0
370
    -2
100
AcDbBlockReference
  2
_Open30
 10
410.6541386456417
 20
167.3022188864597
 30
0.0
 41
2.5
 42
2.5
 43
2.5
 50
90.0
  0
INSERT
  5
19DA
330
6F8
100
AcDbEntity
  8
0
 62
     0
370
    -2
100
AcDbBlockReference
  2
_Open30
 10
410.6541386456417
 20
156.0522188864597
 30
0.0
 41
2.5
 42
2.5
 43
2.5
 50
270.0
  0
MTEXT
  5
19DB
330
6F8
100
AcDbEntity
  8
0
 62
     4
100
AcDbMText
 10
408.5291386456416
 20
161.1185532237612
 30
0.0
 40
3.0
 41
0.0
 71
     5
 72
     1
  1
45
 11
0.0000000000000001
 21
1.0
 31
0.0
 73
     1
 44
1.0
1001
ACAD
1000
MTEXTBEGIN
1070
    73
1070
     1
1070
    44
1040
1.0
1070
    74
1070
     0
1000
MTEXTEND
  0
POINT
  5
19DC
330
6F8
100
AcDbEntity
  8
Defpoints
 62
     0
100
AcDbPoint
 10
403.5413054906106
 20
167.3022188864597
 30
0.0
  0
POINT
  5
19DD
330
6F8
100
AcDbEntity
  8
Defpoints
 62
     0
100
AcDbPoint
 10
403.5413054906106
 20
156.0522188864597
 30
0.0
  0
POINT
  5
19DE
330
6F8
100
AcDbEntity
  8
Defpoints
 62
     0
100
AcDbPoint
 10
410.6541386456417
 20
156.0522188864597
 30
0.0
  0
ENDBLK
  5
6FA
330
6F8
100
AcDbEntity
  8
0
100
AcDbBlockEnd
  0
BLOCK
  5
705
330
704
100
AcDbEntity
  8
0
100
AcDbBlockBegin
  2
*D3
 70
     1
 10
0.0
 20
0.0
 30
0.0
  3
*D3
  1

  0
LINE
  5
19DF
330
704
100
AcDbEntity
  8
0
 62
     0
370
    -2
100
AcDbLine
 10
404.6663054906106
 20
171.0522188864597
 30
0.0
 11
418.0263631983262
 21
171.0522188864597
 31
0.0
  0
LINE
  5
19E0
330
704
100
AcDbEntity
  8
0
 62
     0
370
    -2
100
AcDbLine
 10
404.6663054906106
 20
152.3022188864597
 30
0.0
 11
418.0263631983262
 21
152.3022188864597
 31
0.0
  0
LINE
  5
19E1
330
704
100
AcDbEntity
  8
0
 62
     0
370
    -2
100
AcDbLine
 10
416.7763631983262
 20
168.5522188864597
 30
0.0
 11
416.7763631983262
 21
154.8022188864597
 31
0.0
  0
INSERT
  5
19E2
330
704
100
AcDbEntity
  8
0
 62
     0
370
    -2
100
AcDbBlockReference
  2
_Open30
 10
416.7763631983262
 20
171.0522188864597
 30
0.0
 41
2.5
 42
2.5
 43
2.5
 50
90.0
  0
INSERT
  5
19E3
330
704
100
AcDbEntity
  8
0
 62
     0
370
    -2
100
AcDbBlockReference
  2
_Open30
 10
416.7763631983262
 20
152.3022188864597
 30
0.0
 41
2.5
 42
2.5
 43
2.5
 50
270.0
  0
MTEXT
  5
19E4
330
704
100
AcDbEntity
  8
0
 62
     4
100
AcDbMText
 10
414.651363198326
 20
161.0946617017926
 30
0.0
 40
3.0
 41
0.0
 71
     5
 72
     1
  1
75
 11
0.0000000000000001
 21
1.0
 31
0.0
 73
     1
 44
1.0
1001
ACAD
1000
MTEXTBEGIN
1070
    73
1070
     1
1070
    44
1040
1.0
1070
    74
1070
     0
1000
MTEXTEND
  0
POINT
  5
19E5
330
704
100
AcDbEntity
  8
Defpoints
 62
     0
100
AcDbPoint
 10
404.4163054906106
 20
171.0522188864597
 30
0.0
  0
POINT
  5
19E6
330
704
100
AcDbEntity
  8
Defpoints
 62
     0
100
AcDbPoint
 10
404.4163054906106
 20
152.3022188864597
 30
0.0
  0
POINT
  5
19E7
330
704
100
AcDbEntity
  8
Defpoints
 62
     0
100
AcDbPoint
 10
416.7763631983262
 20
152.3022188864597
 30
0.0
  0
ENDBLK
  5
706
330
704
100
AcDbEntity
  8
0
100
AcDbBlockEnd
  0
BLOCK
  5
711
330
710
100
AcDbEntity
  8
0
100
AcDbBlockBegin
  2
*D4
 70
     1
 10
0.0
 20
0.0
 30
0.0
  3
*D4
  1

  0
LINE
  5
1A05
330
710
100
AcDbEntity
  8
0
 62
     0
370
    -2
100
AcDbLine
 10
201.9693174447856
 20
188.5022188864597
 30
0.0
 11
189.234766371451
 21
188.5022188864597
 31
0.0
  0
LINE
  5
1A06
330
710
100
AcDbEntity
  8
0
 62
     0
370
    -2
100
AcDbLine
 10
205.9693174447856
 20
195.3022188864597
 30
0.0
 11
189.234766371451
 21
195.3022188864597
 31
0.0
  0
LINE
  5
1A07
330
710
100
AcDbEntity
  8
0
 62
     0
370
    -2
100
AcDbLine
 10
190.484766371451
 20
197.8022188864597
 30
0.0
 11
190.484766371451
 21
200.3022188864597
 31
0.0
  0
LINE
  5
1A08
330
710
100
AcDbEntity
  8
0
 62
     0
370
    -2
100
AcDbLine
 10
190.484766371451
 20
186.0022188864597
 30
0.0
 11
190.484766371451
 21
147.4522188864597
 31
0.0
  0
LINE
  5
1A09
330
710
100
AcDbEntity
  8
0
 62
     0
370
    -2
100
AcDbLine
 10
190.484766371451
 20
195.3022188864597
 30
0.0
 11
190.484766371451
 21
188.5022188864597
 31
0.0
  0
INSERT
  5
1A0A
330
710
100
AcDbEntity
  8
0
 62
     0
370
    -2
100
AcDbBlockReference
  2
_Open30
 10
190.484766371451
 20
195.3022188864597
 30
0.0
 41
2.5
 42
2.5
 43
2.5
 50
270.0
  0
INSERT
  5
1A0B
330
710
100
AcDbEntity
  8
0
 62
     0
370
    -2
100
AcDbBlockReference
  2
_Open30
 10
190.484766371451
 20
188.5022188864597
 30
0.0
 41
2.5
 42
2.5
 43
2.5
 50
90.0
  0
MTEXT
  5
1A0C
330
710
100
AcDbEntity
  8
0
 62
     4
100
AcDbMText
 10
188.359766371451
 20
165.4772188864597
 30
0.0
 40
3.0
 41
0.0
 71
     5
 72
     1
  1
%%C27.2 t2.6パイプ
 11
0.0000000000000001
 21
1.0
 31
0.0
 73
     1
 44
1.0
1001
ACAD
1000
MTEXTBEGIN
1070
    73
1070
     1
1070
    44
1040
1.0
1070
    74
1070
     0
1000
MTEXTEND
  0
POINT
  5
1A0D
330
710
100
AcDbEntity
  8
Defpoints
 62
     0
100
AcDbPoint
 10
202.2193174447856
 20
188.5022188864597
 30
0.0
  0
POINT
  5
1A0E
330
710
100
AcDbEntity
  8
Defpoints
 62
     0
100
AcDbPoint
 10
206.2193174447856
 20
195.3022188864597
 30
0.0
  0
POINT
  5
1A0F
330
710
100
AcDbEntity
  8
Defpoints
 62
     0
100
AcDbPoint
 10
190.484766371451
 20
195.3022188864597
 30
0.0
  0
ENDBLK
  5
712
330
710
100
AcDbEntity
  8
0
100
AcDbBlockEnd
  0
BLOCK
  5
71F
330
71E
100
AcDbEntity
  8
0
100
AcDbBlockBegin
  2
*D5
 70
     1
 10
0.0
 20
0.0
 30
0.0
  3
*D5
  1

  0
LINE
  5
1A1B
330
71E
100
AcDbEntity
  8
0
 62
     0
370
    -2
100
AcDbLine
 10
103.5174004242762
 20
110.6443483292911
 30
0.0
 11
94.0051581793913
 21
110.6443483292911
 31
0.0
  0
LINE
  5
1A1C
330
71E
100
AcDbEntity
  8
0
 62
     0
370
    -2
100
AcDbLine
 10
103.5174004242762
 20
128.8943483292911
 30
0.0
 11
94.0051581793913
 21
128.8943483292911
 31
0.0
  0
LINE
  5
1A1D
330
71E
100
AcDbEntity
  8
0
 62
     0
370
    -2
100
AcDbLine
 10
95.2551581793913
 20
113.1443483292911
 30
0.0
 11
95.2551581793913
 21
126.3943483292911
 31
0.0
  0
INSERT
  5
1A1E
330
71E
100
AcDbEntity
  8
0
 62
     0
370
    -2
100
AcDbBlockReference
  2
_Open30
 10
95.2551581793913
 20
110.6443483292911
 30
0.0
 41
2.5
 42
2.5
 43
2.5
 50
270.0
  0
INSERT
  5
1A1F
330
71E
100
AcDbEntity
  8
0
 62
     0
370
    -2
100
AcDbBlockReference
  2
_Open30
 10
95.2551581793913
 20
128.8943483292911
 30
0.0
 41
2.5
 42
2.5
 43
2.5
 50
90.0
  0
MTEXT
  5
1A20
330
71E
100
AcDbEntity
  8
0
 62
     4
100
AcDbMText
 10
93.13015817939129
 20
119.7693483292911
 30
0.0
 40
3.0
 41
0.0
 71
     5
 72
     1
  1
73
 11
0.0000000000000001
 21
1.0
 31
0.0
 73
     1
 44
1.0
1001
ACAD
1000
MTEXTBEGIN
1070
    73
1070
     1
1070
    44
1040
1.0
1070
    74
1070
     0
1000
MTEXTEND
  0
POINT
  5
1A21
330
71E
100
AcDbEntity
  8
Defpoints
 62
     0
100
AcDbPoint
 10
103.7674004242762
 20
110.6443483292911
 30
0.0
  0
POINT
  5
1A22
330
71E
100
AcDbEntity
  8
Defpoints
 62
     0
100
AcDbPoint
 10
103.7674004242762
 20
128.8943483292911
 30
0.0
  0
POINT
  5
1A23
330
71E
100
AcDbEntity
  8
Defpoints
 62
     0
100
AcDbPoint
 10
95.2551581793913
 20
128.8943483292911
 30
0.0
  0
ENDBLK
  5
720
330
71E
100
AcDbEntity
  8
0
100
AcDbBlockEnd
  0
BLOCK
  5
72B
330
72A
100
AcDbEntity
  8
0
100
AcDbBlockBegin
  2
*D6
 70
     1
 10
0.0
 20
0.0
 30
0.0
  3
*D6
  1

  0
LINE
  5
1A53
330
72A
100
AcDbEntity
  8
0
 62
     0
370
    -2
100
AcDbLine
 10
404.4163054906106
 20
152.0522188864597
 30
0.0
 11
404.4163054906106
 21
125.1612822412992
 31
0.0
  0
LINE
  5
1A54
330
72A
100
AcDbEntity
  8
0
 62
     0
370
    -2
100
AcDbLine
 10
360.6663054906107
 20
152.1494083198696
 30
0.0
 11
360.6663054906107
 21
125.1612822412992
 31
0.0
  0
LINE
  5
1A55
330
72A
100
AcDbEntity
  8
0
 62
     0
370
    -2
100
AcDbLine
 10
401.9163054906107
 20
126.4112822412992
 30
0.0
 11
363.1663054906107
 21
126.4112822412992
 31
0.0
  0
INSERT
  5
1A56
330
72A
100
AcDbEntity
  8
0
 62
     0
370
    -2
100
AcDbBlockReference
  2
_Open30
 10
404.4163054906106
 20
126.4112822412992
 30
0.0
 41
2.5
 42
2.5
 43
2.5
  0
INSERT
  5
1A57
330
72A
100
AcDbEntity
  8
0
 62
     0
370
    -2
100
AcDbBlockReference
  2
_Open30
 10
360.6663054906107
 20
126.4112822412992
 30
0.0
 41
2.5
 42
2.5
 43
2.5
 50
180.0
  0
MTEXT
  5
1A58
330
72A
100
AcDbEntity
  8
0
 62
     4
100
AcDbMText
 10
381.4767041492577
 20
128.5362822412992
 30
0.0
 40
3.0
 41
0.0
 71
     5
 72
     1
  1
175
 73
     1
 44
1.0
1001
ACAD
1000
MTEXTBEGIN
1070
    73
1070
     1
1070
    44
1040
1.0
1070
    74
1070
     0
1000
MTEXTEND
  0
POINT
  5
1A59
330
72A
100
AcDbEntity
  8
Defpoints
 62
     0
100
AcDbPoint
 10
404.4163054906106
 20
152.3022188864597
 30
0.0
  0
POINT
  5
1A5A
330
72A
100
AcDbEntity
  8
Defpoints
 62
     0
100
AcDbPoint
 10
360.6663054906107
 20
152.3994083198696
 30
0.0
  0
POINT
  5
1A5B
330
72A
100
AcDbEntity
  8
Defpoints
 62
     0
100
AcDbPoint
 10
360.6663054906107
 20
126.4112822412992
 30
0.0
  0
ENDBLK
  5
72C
330
72A
100
AcDbEntity
  8
0
100
AcDbBlockEnd
  0
BLOCK
  5
737
330
736
100
AcDbEntity
  8
0
100
AcDbBlockBegin
  2
*D7
 70
     1
 10
0.0
 20
0.0
 30
0.0
  3
*D7
  1

  0
LINE
  5
1AD8
330
736
100
AcDbEntity
  8
0
 62
     0
370
    -2
100
AcDbLine
 10
105.8693174447857
 20
138.7693483292912
 30
0.0
 11
105.8693174447857
 21
154.536986013313
 31
0.0
  0
LINE
  5
1AD9
330
736
100
AcDbEntity
  8
0
 62
     0
370
    -2
100
AcDbLine
 10
127.8693174447855
 20
126.2693483292912
 30
0.0
 11
127.8693174447855
 21
154.536986013313
 31
0.0
  0
LINE
  5
1ADA
330
736
100
AcDbEntity
  8
0
 62
     0
370
    -2
100
AcDbLine
 10
108.3693174447857
 20
153.286986013313
 30
0.0
 11
125.3693174447855
 21
153.286986013313
 31
0.0
  0
INSERT
  5
1ADB
330
736
100
AcDbEntity
  8
0
 62
     0
370
    -2
100
AcDbBlockReference
  2
_Open30
 10
105.8693174447857
 20
153.286986013313
 30
0.0
 41
2.5
 42
2.5
 43
2.5
 50
180.0
  0
INSERT
  5
1ADC
330
736
100
AcDbEntity
  8
0
 62
     0
370
    -2
100
AcDbBlockReference
  2
_Open30
 10
127.8693174447855
 20
153.286986013313
 30
0.0
 41
2.5
 42
2.5
 43
2.5
  0
MTEXT
  5
1ADD
330
736
100
AcDbEntity
  8
0
 62
     4
100
AcDbMText
 10
116.8693174447856
 20
155.411986013313
 30
0.0
 40
3.0
 41
0.0
 71
     5
 72
     1
  1
88
 73
     1
 44
1.0
1001
ACAD
1000
MTEXTBEGIN
1070
    73
1070
     1
1070
    44
1040
1.0
1070
    74
1070
     0
1000
MTEXTEND
  0
POINT
  5
1ADE
330
736
100
AcDbEntity
  8
Defpoints
 62
     0
100
AcDbPoint
 10
105.8693174447857
 20
138.5193483292912
 30
0.0
  0
POINT
  5
1ADF
330
736
100
AcDbEntity
  8
Defpoints
 62
     0
100
AcDbPoint
 10
127.8693174447855
 20
126.0193483292912
 30
0.0
  0
POINT
  5
1AE0
330
736
100
AcDbEntity
  8
Defpoints
 62
     0
100
AcDbPoint
 10
127.8693174447855
 20
153.286986013313
 30
0.0
  0
ENDBLK
  5
738
330
736
100
AcDbEntity
  8
0
100
AcDbBlockEnd
  0
BLOCK
  5
743
330
742
100
AcDbEntity
  8
0
100
AcDbBlockBegin
  2
*D8
 70
     1
 10
0.0
 20
0.0
 30
0.0
  3
*D8
  1

  0
LINE
  5
1A6E
330
742
100
AcDbEntity
  8
0
 62
     0
370
    -2
100
AcDbLine
 10
109.8693174447854
 20
140.4282151777563
 30
0.0
 11
109.8693174447854
 21
144.0285652667212
 31
0.0
  0
LINE
  5
1A6F
330
742
100
AcDbEntity
  8
0
 62
     0
370
    -2
100
AcDbLine
 10
105.8693174447857
 20
138.7693483292912
 30
0.0
 11
105.8693174447857
 21
144.0285652667212
 31
0.0
  0
LINE
  5
1A70
330
742
100
AcDbEntity
  8
0
 62
     0
370
    -2
100
AcDbLine
 10
112.3693174447854
 20
142.7785652667212
 30
0.0
 11
114.8693174447854
 21
142.7785652667212
 31
0.0
  0
LINE
  5
1A71
330
742
100
AcDbEntity
  8
0
 62
     0
370
    -2
100
AcDbLine
 10
103.3693174447857
 20
142.7785652667212
 30
0.0
 11
95.6193174447857
 21
142.7785652667212
 31
0.0
  0
LINE
  5
1A72
330
742
100
AcDbEntity
  8
0
 62
     0
370
    -2
100
AcDbLine
 10
109.8693174447854
 20
142.7785652667212
 30
0.0
 11
105.8693174447857
 21
142.7785652667212
 31
0.0
  0
INSERT
  5
1A73
330
742
100
AcDbEntity
  8
0
 62
     0
370
    -2
100
AcDbBlockReference
  2
_Open30
 10
109.8693174447854
 20
142.7785652667212
 30
0.0
 41
2.5
 42
2.5
 43
2.5
 50
180.0
  0
INSERT
  5
1A74
330
742
100
AcDbEntity
  8
0
 62
     0
370
    -2
100
AcDbBlockReference
  2
_Open30
 10
105.8693174447857
 20
142.7785652667212
 30
0.0
 41
2.5
 42
2.5
 43
2.5
  0
MTEXT
  5
1A75
330
742
100
AcDbEntity
  8
0
 62
     4
100
AcDbMText
 10
98.24431744478571
 20
144.9035652667212
 30
0.0
 40
3.0
 41
0.0
 71
     5
 72
     1
  1
16
 73
     1
 44
1.0
1001
ACAD
1000
MTEXTBEGIN
1070
    73
1070
     1
1070
    44
1040
1.0
1070
    74
1070
     0
1000
MTEXTEND
  0
POINT
  5
1A76
330
742
100
AcDbEntity
  8
Defpoints
 62
     0
100
AcDbPoint
 10
109.8693174447854
 20
140.1782151777563
 30
0.0
  0
POINT
  5
1A77
330
742
100
AcDbEntity
  8
Defpoints
 62
     0
100
AcDbPoint
 10
105.8693174447857
 20
138.5193483292912
 30
0.0
  0
POINT
  5
1A78
330
742
100
AcDbEntity
  8
Defpoints
 62
     0
100
AcDbPoint
 10
105.8693174447857
 20
142.7785652667212
 30
0.0
  0
ENDBLK
  5
744
330
742
100
AcDbEntity
  8
0
100
AcDbBlockEnd
  0
BLOCK
  5
751
330
750
100
AcDbEntity
  8
0
100
AcDbBlockBegin
  2
*D9
 70
     1
 10
0.0
 20
0.0
 30
0.0
  3
*D9
  1

  0
LINE
  5
19C4
330
750
100
AcDbEntity
  8
0
 62
     0
370
    -2
100
AcDbLine
 10
330.8693174447857
 20
171.2522188864597
 30
0.0
 11
330.8693174447857
 21
223.9075649625076
 31
0.0
  0
LINE
  5
19C5
330
750
100
AcDbEntity
  8
0
 62
     0
370
    -2
100
AcDbLine
 10
105.8693174447857
 20
188.7522188864597
 30
0.0
 11
105.8693174447857
 21
223.9075649625076
 31
0.0
  0
LINE
  5
19C6
330
750
100
AcDbEntity
  8
0
 62
     0
370
    -2
100
AcDbLine
 10
328.3693174447857
 20
222.6575649625076
 30
0.0
 11
108.3693174447857
 21
222.6575649625076
 31
0.0
  0
INSERT
  5
19C7
330
750
100
AcDbEntity
  8
0
 62
     0
370
    -2
100
AcDbBlockReference
  2
_Open30
 10
330.8693174447857
 20
222.6575649625076
 30
0.0
 41
2.5
 42
2.5
 43
2.5
  0
INSERT
  5
19C8
330
750
100
AcDbEntity
  8
0
 62
     0
370
    -2
100
AcDbBlockReference
  2
_Open30
 10
105.8693174447857
 20
222.6575649625076
 30
0.0
 41
2.5
 42
2.5
 43
2.5
 50
180.0
  0
MTEXT
  5
19C9
330
750
100
AcDbEntity
  8
0
 62
     4
100
AcDbMText
 10
218.9951535841305
 20
224.7825649625076
 30
0.0
 40
3.0
 41
0.0
 71
     5
 72
     1
  1
900
 73
     1
 44
1.0
1001
ACAD
1000
MTEXTBEGIN
1070
    73
1070
     1
1070
    44
1040
1.0
1070
    74
1070
     0
1000
MTEXTEND
  0
POINT
  5
19CA
330
750
100
AcDbEntity
  8
Defpoints
 62
     0
100
AcDbPoint
 10
330.8693174447857
 20
171.0022188864597
 30
0.0
  0
POINT
  5
19CB
330
750
100
AcDbEntity
  8
Defpoints
 62
     0
100
AcDbPoint
 10
105.8693174447857
 20
188.5022188864597
 30
0.0
  0
POINT
  5
19CC
330
750
100
AcDbEntity
  8
Defpoints
 62
     0
100
AcDbPoint
 10
105.8693174447857
 20
222.6575649625076
 30
0.0
  0
ENDBLK
  5
752
330
750
100
AcDbEntity
  8
0
100
AcDbBlockEnd
  0
BLOCK
  5
75D
330
75C
100
AcDbEntity
  8
0
100
AcDbBlockBegin
  2
*D10
 70
     1
 10
0.0
 20
0.0
 30
0.0
  3
*D10
  1

  0
LINE
  5
19CD
330
75C
100
AcDbEntity
  8
0
 62
     0
370
    -2
100
AcDbLine
 10
331.2943174447854
 20
145.3022188864597
 30
0.0
 11
342.3028442571539
 21
145.3022188864597
 31
0.0
  0
LINE
  5
19CE
330
75C
100
AcDbEntity
  8
0
 62
     0
370
    -2
100
AcDbLine
 10
306.8193174447856
 20
195.3022188864597
 30
0.0
 11
342.3028442571539
 21
195.3022188864596
 31
0.0
  0
LINE
  5
19CF
330
75C
100
AcDbEntity
  8
0
 62
     0
370
    -2
100
AcDbLine
 10
341.052844257154
 20
147.8022188864597
 30
0.0
 11
341.052844257154
 21
192.8022188864596
 31
0.0
  0
INSERT
  5
19D0
330
75C
100
AcDbEntity
  8
0
 62
     0
370
    -2
100
AcDbBlockReference
  2
_Open30
 10
341.052844257154
 20
145.3022188864597
 30
0.0
 41
2.5
 42
2.5
 43
2.5
 50
270.0
  0
INSERT
  5
19D1
330
75C
100
AcDbEntity
  8
0
 62
     0
370
    -2
100
AcDbBlockReference
  2
_Open30
 10
341.052844257154
 20
195.3022188864596
 30
0.0
 41
2.5
 42
2.5
 43
2.5
 50
90.0
  0
MTEXT
  5
19D2
330
75C
100
AcDbEntity
  8
0
 62
     4
100
AcDbMText
 10
338.9278442571539
 20
171.1776255979466
 30
0.0
 40
3.0
 41
0.0
 71
     5
 72
     1
  1
200
 11
0.0000000000000001
 21
1.0
 31
0.0
 73
     1
 44
1.0
1001
ACAD
1000
MTEXTBEGIN
1070
    73
1070
     1
1070
    44
1040
1.0
1070
    74
1070
     0
1000
MTEXTEND
  0
POINT
  5
19D3
330
75C
100
AcDbEntity
  8
Defpoints
 62
     0
100
AcDbPoint
 10
331.0443174447854
 20
145.3022188864597
 30
0.0
  0
POINT
  5
19D4
330
75C
100
AcDbEntity
  8
Defpoints
 62
     0
100
AcDbPoint
 10
306.5693174447857
 20
195.3022188864597
 30
0.0
  0
POINT
  5
19D5
330
75C
100
AcDbEntity
  8
Defpoints
 62
     0
100
AcDbPoint
 10
341.052844257154
 20
195.3022188864596
 30
0.0
  0
ENDBLK
  5
75E
330
75C
100
AcDbEntity
  8
0
100
AcDbBlockEnd
  0
BLOCK
  5
77B
330
77A
100
AcDbEntity
  8
0
100
AcDbBlockBegin
  2
*D11
 70
     1
 10
0.0
 20
0.0
 30
0.0
  3
*D11
  1

  0
LINE
  5
19E8
330
77A
100
AcDbEntity
  8
0
 62
     0
370
    -2
100
AcDbLine
 10
322.6943174447855
 20
152.0522188864597
 30
0.0
 11
312.4723299618694
 21
152.0522188864597
 31
0.0
  0
LINE
  5
19E9
330
77A
100
AcDbEntity
  8
0
 62
     0
370
    -2
100
AcDbLine
 10
323.6443174447858
 20
145.3022188864597
 30
0.0
 11
312.4723299618694
 21
145.3022188864597
 31
0.0
  0
LINE
  5
19EA
330
77A
100
AcDbEntity
  8
0
 62
     0
370
    -2
100
AcDbLine
 10
313.7223299618694
 20
149.5522188864597
 30
0.0
 11
313.7223299618694
 21
147.8022188864597
 31
0.0
  0
INSERT
  5
19EB
330
77A
100
AcDbEntity
  8
0
 62
     0
370
    -2
100
AcDbBlockReference
  2
_Open30
 10
313.7223299618694
 20
152.0522188864597
 30
0.0
 41
2.5
 42
2.5
 43
2.5
 50
90.0
  0
INSERT
  5
19EC
330
77A
100
AcDbEntity
  8
0
 62
     0
370
    -2
100
AcDbBlockReference
  2
_Open30
 10
313.7223299618694
 20
145.3022188864597
 30
0.0
 41
2.5
 42
2.5
 43
2.5
 50
270.0
  0
MTEXT
  5
19ED
330
77A
100
AcDbEntity
  8
0
 62
     4
100
AcDbMText
 10
311.5973299618694
 20
149.023571599758
 30
0.0
 40
3.0
 41
0.0
 71
     5
 72
     1
  1
27
 11
0.0000000000000001
 21
1.0
 31
0.0
 73
     1
 44
1.0
1001
ACAD
1000
MTEXTBEGIN
1070
    73
1070
     1
1070
    44
1040
1.0
1070
    74
1070
     0
1000
MTEXTEND
  0
POINT
  5
19EE
330
77A
100
AcDbEntity
  8
Defpoints
 62
     0
100
AcDbPoint
 10
322.9443174447855
 20
152.0522188864597
 30
0.0
  0
POINT
  5
19EF
330
77A
100
AcDbEntity
  8
Defpoints
 62
     0
100
AcDbPoint
 10
323.8943174447858
 20
145.3022188864597
 30
0.0
  0
POINT
  5
19F0
330
77A
100
AcDbEntity
  8
Defpoints
 62
     0
100
AcDbPoint
 10
313.7223299618694
 20
145.3022188864597
 30
0.0
  0
ENDBLK
  5
77C
330
77A
100
AcDbEntity
  8
0
100
AcDbBlockEnd
  0
BLOCK
  5
787
330
786
100
AcDbEntity
  8
0
100
AcDbBlockBegin
  2
*D12
 70
     1
 10
0.0
 20
0.0
 30
0.0
  3
*D12
  1

  0
LINE
  5
19F1
330
786
100
AcDbEntity
  8
0
 62
     0
370
    -2
100
AcDbLine
 10
322.9443174447855
 20
171.0522188864597
 30
0.0
 11
322.9443174447855
 21
204.5223691689746
 31
0.0
  0
LINE
  5
19F2
330
786
100
AcDbEntity
  8
0
 62
     0
370
    -2
100
AcDbLine
 10
109.8693174447854
 20
193.2117718949698
 30
0.0
 11
109.8693174447854
 21
204.5223691689746
 31
0.0
  0
LINE
  5
19F3
330
786
100
AcDbEntity
  8
0
 62
     0
370
    -2
100
AcDbLine
 10
320.4443174447855
 20
203.2723691689746
 30
0.0
 11
112.3693174447854
 21
203.2723691689746
 31
0.0
  0
INSERT
  5
19F4
330
786
100
AcDbEntity
  8
0
 62
     0
370
    -2
100
AcDbBlockReference
  2
_Open30
 10
322.9443174447855
 20
203.2723691689746
 30
0.0
 41
2.5
 42
2.5
 43
2.5
  0
INSERT
  5
19F5
330
786
100
AcDbEntity
  8
0
 62
     0
370
    -2
100
AcDbBlockReference
  2
_Open30
 10
109.8693174447854
 20
203.2723691689746
 30
0.0
 41
2.5
 42
2.5
 43
2.5
 50
180.0
  0
MTEXT
  5
19F6
330
786
100
AcDbEntity
  8
0
 62
     4
100
AcDbMText
 10
218.4409022257372
 20
205.3973691689746
 30
0.0
 40
3.0
 41
0.0
 71
     5
 72
     1
  1
852.3
 73
     1
 44
1.0
1001
ACAD
1000
MTEXTBEGIN
1070
    73
1070
     1
1070
    44
1040
1.0
1070
    74
1070
     0
1000
MTEXTEND
  0
POINT
  5
19F7
330
786
100
AcDbEntity
  8
Defpoints
 62
     0
100
AcDbPoint
 10
322.9443174447855
 20
170.8022188864597
 30
0.0
  0
POINT
  5
19F8
330
786
100
AcDbEntity
  8
Defpoints
 62
     0
100
AcDbPoint
 10
109.8693174447854
 20
192.9617718949698
 30
0.0
  0
POINT
  5
19F9
330
786
100
AcDbEntity
  8
Defpoints
 62
     0
100
AcDbPoint
 10
109.8693174447854
 20
203.2723691689746
 30
0.0
  0
ENDBLK
  5
788
330
786
100
AcDbEntity
  8
0
100
AcDbBlockEnd
  0
BLOCK
  5
793
330
792
100
AcDbEntity
  8
0
100
AcDbBlockBegin
  2
*D13
 70
     1
 10
0.0
 20
0.0
 30
0.0
  3
*D13
  1

  0
LINE
  5
19FA
330
792
100
AcDbEntity
  8
0
 62
     0
370
    -2
100
AcDbLine
 10
105.6193174447857
 20
188.5022188864597
 30
0.0
 11
92.95708173165435
 21
188.5022188864597
 31
0.0
  0
LINE
  5
19FB
330
792
100
AcDbEntity
  8
0
 62
     0
370
    -2
100
AcDbLine
 10
105.6193174447857
 20
187.3772188864597
 30
0.0
 11
92.95708173165435
 21
187.3772188864597
 31
0.0
  0
LINE
  5
19FC
330
792
100
AcDbEntity
  8
0
 62
     0
370
    -2
100
AcDbLine
 10
94.20708173165435
 20
191.0022188864597
 30
0.0
 11
94.20708173165435
 21
193.5022188864597
 31
0.0
  0
LINE
  5
19FD
330
792
100
AcDbEntity
  8
0
 62
     0
370
    -2
100
AcDbLine
 10
94.20708173165435
 20
184.8772188864597
 30
0.0
 11
94.20708173165435
 21
168.6272188864599
 31
0.0
  0
LINE
  5
19FE
330
792
100
AcDbEntity
  8
0
 62
     0
370
    -2
100
AcDbLine
 10
94.20708173165435
 20
188.5022188864597
 30
0.0
 11
94.20708173165435
 21
187.3772188864597
 31
0.0
  0
INSERT
  5
19FF
330
792
100
AcDbEntity
  8
0
 62
     0
370
    -2
100
AcDbBlockReference
  2
_Open30
 10
94.20708173165435
 20
188.5022188864597
 30
0.0
 41
2.5
 42
2.5
 43
2.5
 50
270.0
  0
INSERT
  5
1A00
330
792
100
AcDbEntity
  8
0
 62
     0
370
    -2
100
AcDbBlockReference
  2
_Open30
 10
94.20708173165435
 20
187.3772188864597
 30
0.0
 41
2.5
 42
2.5
 43
2.5
 50
90.0
  0
MTEXT
  5
1A01
330
792
100
AcDbEntity
  8
0
 62
     4
100
AcDbMText
 10
92.08208173165431
 20
175.25221888646
 30
0.0
 40
3.0
 41
0.0
 71
     5
 72
     1
  1
t=4.5
 11
0.0000000000000001
 21
1.0
 31
0.0
 73
     1
 44
1.0
1001
ACAD
1000
MTEXTBEGIN
1070
    73
1070
     1
1070
    44
1040
1.0
1070
    74
1070
     0
1000
MTEXTEND
  0
POINT
  5
1A02
330
792
100
AcDbEntity
  8
Defpoints
 62
     0
100
AcDbPoint
 10
105.8693174447857
 20
188.5022188864597
 30
0.0
  0
POINT
  5
1A03
330
792
100
AcDbEntity
  8
Defpoints
 62
     0
100
AcDbPoint
 10
105.8693174447857
 20
187.3772188864597
 30
0.0
  0
POINT
  5
1A04
330
792
100
AcDbEntity
  8
Defpoints
 62
     0
100
AcDbPoint
 10
94.20708173165435
 20
187.3772188864597
 30
0.0
  0
ENDBLK
  5
794
330
792
100
AcDbEntity
  8
0
100
AcDbBlockEnd
  0
BLOCK
  5
7AC
330
7AB
100
AcDbEntity
  8
0
100
AcDbBlockBegin
  2
*D14
 70
     1
 10
0.0
 20
0.0
 30
0.0
  3
*D14
  1

  0
LINE
  5
1A10
330
7AB
100
AcDbEntity
  8
0
 62
     0
370
    -2
100
AcDbLine
 10
324.0693174447855
 20
152.3022188864597
 30
0.0
 11
324.0693174447855
 21
155.3963124639333
 31
0.0
  0
LINE
  5
1A11
330
7AB
100
AcDbEntity
  8
0
 62
     0
370
    -2
100
AcDbLine
 10
322.9443174447855
 20
152.3022188864597
 30
0.0
 11
322.9443174447855
 21
155.3963124639333
 31
0.0
  0
LINE
  5
1A12
330
7AB
100
AcDbEntity
  8
0
 62
     0
370
    -2
100
AcDbLine
 10
326.5693174447855
 20
154.1463124639333
 30
0.0
 11
329.0693174447855
 21
154.1463124639333
 31
0.0
  0
LINE
  5
1A13
330
7AB
100
AcDbEntity
  8
0
 62
     0
370
    -2
100
AcDbLine
 10
320.4443174447855
 20
154.1463124639333
 30
0.0
 11
301.5189903925478
 21
154.1463124639333
 31
0.0
  0
LINE
  5
1A14
330
7AB
100
AcDbEntity
  8
0
 62
     0
370
    -2
100
AcDbLine
 10
324.0693174447855
 20
154.1463124639333
 30
0.0
 11
322.9443174447855
 21
154.1463124639333
 31
0.0
  0
INSERT
  5
1A15
330
7AB
100
AcDbEntity
  8
0
 62
     0
370
    -2
100
AcDbBlockReference
  2
_Open30
 10
324.0693174447855
 20
154.1463124639333
 30
0.0
 41
2.5
 42
2.5
 43
2.5
 50
180.0
  0
INSERT
  5
1A16
330
7AB
100
AcDbEntity
  8
0
 62
     0
370
    -2
100
AcDbBlockReference
  2
_Open30
 10
322.9443174447855
 20
154.1463124639333
 30
0.0
 41
2.5
 42
2.5
 43
2.5
  0
MTEXT
  5
1A17
330
7AB
100
AcDbEntity
  8
0
 62
     4
100
AcDbMText
 10
308.1439903925478
 20
156.2713124639333
 30
0.0
 40
3.0
 41
0.0
 71
     5
 72
     1
  1
t=4.5
 73
     1
 44
1.0
1001
ACAD
1000
MTEXTBEGIN
1070
    73
1070
     1
1070
    44
1040
1.0
1070
    74
1070
     0
1000
MTEXTEND
  0
POINT
  5
1A18
330
7AB
100
AcDbEntity
  8
Defpoints
 62
     0
100
AcDbPoint
 10
324.0693174447855
 20
152.0522188864597
 30
0.0
  0
POINT
  5
1A19
330
7AB
100
AcDbEntity
  8
Defpoints
 62
     0
100
AcDbPoint
 10
322.9443174447855
 20
152.0522188864597
 30
0.0
  0
POINT
  5
1A1A
330
7AB
100
AcDbEntity
  8
Defpoints
 62
     0
100
AcDbPoint
 10
322.9443174447855
 20
154.1463124639333
 30
0.0
  0
ENDBLK
  5
7AD
330
7AB
100
AcDbEntity
  8
0
100
AcDbBlockEnd
  0
BLOCK
  5
7C3
330
7C2
100
AcDbEntity
  8
0
100
AcDbBlockBegin
  2
*D15
 70
     1
 10
0.0
 20
0.0
 30
0.0
  3
*D15
  1

  0
LINE
  5
1A24
330
7C2
100
AcDbEntity
  8
0
 62
     0
370
    -2
100
AcDbLine
 10
105.6193174447857
 20
138.5193483292912
 30
0.0
 11
82.56989043771538
 21
138.5193483292912
 31
0.0
  0
LINE
  5
1A25
330
7C2
100
AcDbEntity
  8
0
 62
     0
370
    -2
100
AcDbLine
 10
105.6193174447857
 20
101.0193483292912
 30
0.0
 11
82.56989043771538
 21
101.0193483292912
 31
0.0
  0
LINE
  5
1A26
330
7C2
100
AcDbEntity
  8
0
 62
     0
370
    -2
100
AcDbLine
 10
83.81989043771538
 20
136.0193483292912
 30
0.0
 11
83.81989043771538
 21
103.5193483292912
 31
0.0
  0
INSERT
  5
1A27
330
7C2
100
AcDbEntity
  8
0
 62
     0
370
    -2
100
AcDbBlockReference
  2
_Open30
 10
83.81989043771538
 20
138.5193483292912
 30
0.0
 41
2.5
 42
2.5
 43
2.5
 50
90.0
  0
INSERT
  5
1A28
330
7C2
100
AcDbEntity
  8
0
 62
     0
370
    -2
100
AcDbBlockReference
  2
_Open30
 10
83.81989043771538
 20
101.0193483292912
 30
0.0
 41
2.5
 42
2.5
 43
2.5
 50
270.0
  0
MTEXT
  5
1A29
330
7C2
100
AcDbEntity
  8
0
 62
     4
100
AcDbMText
 10
81.69489043771537
 20
120.1458360245426
 30
0.0
 40
3.0
 41
0.0
 71
     5
 72
     1
  1
150
 11
0.0000000000000001
 21
1.0
 31
0.0
 73
     1
 44
1.0
1001
ACAD
1000
MTEXTBEGIN
1070
    73
1070
     1
1070
    44
1040
1.0
1070
    74
1070
     0
1000
MTEXTEND
  0
POINT
  5
1A2A
330
7C2
100
AcDbEntity
  8
Defpoints
 62
     0
100
AcDbPoint
 10
105.8693174447857
 20
138.5193483292912
 30
0.0
  0
POINT
  5
1A2B
330
7C2
100
AcDbEntity
  8
Defpoints
 62
     0
100
AcDbPoint
 10
105.8693174447857
 20
101.0193483292912
 30
0.0
  0
POINT
  5
1A2C
330
7C2
100
AcDbEntity
  8
Defpoints
 62
     0
100
AcDbPoint
 10
83.81989043771538
 20
101.0193483292912
 30
0.0
  0
ENDBLK
  5
7C4
330
7C2
100
AcDbEntity
  8
0
100
AcDbBlockEnd
  0
BLOCK
  5
7CF
330
7CE
100
AcDbEntity
  8
0
100
AcDbBlockBegin
  2
*D16
 70
     1
 10
0.0
 20
0.0
 30
0.0
  3
*D16
  1

  0
LINE
  5
1A2D
330
7CE
100
AcDbEntity
  8
0
 62
     0
370
    -2
100
AcDbLine
 10
329.6568174447856
 20
145.6772188864596
 30
0.0
 11
329.6568174447856
 21
129.828170202256
 31
0.0
  0
LINE
  5
1A2E
330
7CE
100
AcDbEntity
  8
0
 62
     0
370
    -2
100
AcDbLine
 10
325.2818174447856
 20
145.6772188864596
 30
0.0
 11
325.2818174447856
 21
129.828170202256
 31
0.0
  0
LINE
  5
1A2F
330
7CE
100
AcDbEntity
  8
0
 62
     0
370
    -2
100
AcDbLine
 10
322.7818174447856
 20
131.078170202256
 30
0.0
 11
320.2818174447856
 21
131.078170202256
 31
0.0
  0
LINE
  5
1A30
330
7CE
100
AcDbEntity
  8
0
 62
     0
370
    -2
100
AcDbLine
 10
332.1568174447856
 20
131.078170202256
 30
0.0
 11
350.9068174447856
 21
131.078170202256
 31
0.0
  0
LINE
  5
1A31
330
7CE
100
AcDbEntity
  8
0
 62
     0
370
    -2
100
AcDbLine
 10
325.2818174447856
 20
131.078170202256
 30
0.0
 11
329.6568174447856
 21
131.078170202256
 31
0.0
  0
INSERT
  5
1A32
330
7CE
100
AcDbEntity
  8
0
 62
     0
370
    -2
100
AcDbBlockReference
  2
_Open30
 10
325.2818174447856
 20
131.078170202256
 30
0.0
 41
2.5
 42
2.5
 43
2.5
  0
INSERT
  5
1A33
330
7CE
100
AcDbEntity
  8
0
 62
     0
370
    -2
100
AcDbBlockReference
  2
_Open30
 10
329.6568174447856
 20
131.078170202256
 30
0.0
 41
2.5
 42
2.5
 43
2.5
 50
180.0
  0
MTEXT
  5
1A34
330
7CE
100
AcDbEntity
  8
0
 62
     4
100
AcDbMText
 10
342.7818174447856
 20
133.203170202256
 30
0.0
 40
3.0
 41
0.0
 71
     5
 72
     1
  1
(%%C17.5)
 73
     1
 44
1.0
1001
ACAD
1000
MTEXTBEGIN
1070
    73
1070
     1
1070
    44
1040
1.0
1070
    74
1070
     0
1000
MTEXTEND
  0
POINT
  5
1A35
330
7CE
100
AcDbEntity
  8
Defpoints
 62
     0
100
AcDbPoint
 10
329.6568174447856
 20
145.9272188864597
 30
0.0
  0
POINT
  5
1A36
330
7CE
100
AcDbEntity
  8
Defpoints
 62
     0
100
AcDbPoint
 10
325.2818174447856
 20
145.9272188864597
 30
0.0
  0
POINT
  5
1A37
330
7CE
100
AcDbEntity
  8
Defpoints
 62
     0
100
AcDbPoint
 10
325.2818174447856
 20
131.078170202256
 30
0.0
  0
ENDBLK
  5
7D0
330
7CE
100
AcDbEntity
  8
0
100
AcDbBlockEnd
  0
BLOCK
  5
7DD
330
7DC
100
AcDbEntity
  8
0
100
AcDbBlockBegin
  2
*D17
 70
     1
 10
0.0
 20
0.0
 30
0.0
  3
*D17
  1

  0
LINE
  5
1A38
330
7DC
100
AcDbEntity
  8
0
 62
     0
370
    -2
100
AcDbLine
 10
389.4163054906107
 20
153.0522188864597
 30
0.0
 11
389.4163054906107
 21
132.8108709505803
 31
0.0
  0
LINE
  5
1A39
330
7DC
100
AcDbEntity
  8
0
 62
     0
370
    -2
100
AcDbLine
 10
375.6663054906107
 20
153.0522188864597
 30
0.0
 11
375.6663054906107
 21
132.8108709505803
 31
0.0
  0
LINE
  5
1A3A
330
7DC
100
AcDbEntity
  8
0
 62
     0
370
    -2
100
AcDbLine
 10
386.9163054906107
 20
134.0608709505803
 30
0.0
 11
378.1663054906107
 21
134.0608709505803
 31
0.0
  0
INSERT
  5
1A3B
330
7DC
100
AcDbEntity
  8
0
 62
     0
370
    -2
100
AcDbBlockReference
  2
_Open30
 10
389.4163054906107
 20
134.0608709505803
 30
0.0
 41
2.5
 42
2.5
 43
2.5
  0
INSERT
  5
1A3C
330
7DC
100
AcDbEntity
  8
0
 62
     0
370
    -2
100
AcDbBlockReference
  2
_Open30
 10
375.6663054906107
 20
134.0608709505803
 30
0.0
 41
2.5
 42
2.5
 43
2.5
 50
180.0
  0
MTEXT
  5
1A3D
330
7DC
100
AcDbEntity
  8
0
 62
     4
100
AcDbMText
 10
382.8717074021458
 20
136.1858709505803
 30
0.0
 40
3.0
 41
0.0
 71
     5
 72
     1
  1
55
 73
     1
 44
1.0
1001
ACAD
1000
MTEXTBEGIN
1070
    73
1070
     1
1070
    44
1040
1.0
1070
    74
1070
     0
1000
MTEXTEND
  0
POINT
  5
1A3E
330
7DC
100
AcDbEntity
  8
Defpoints
 62
     0
100
AcDbPoint
 10
389.4163054906107
 20
153.3022188864597
 30
0.0
  0
POINT
  5
1A3F
330
7DC
100
AcDbEntity
  8
Defpoints
 62
     0
100
AcDbPoint
 10
375.6663054906107
 20
153.3022188864597
 30
0.0
  0
POINT
  5
1A40
330
7DC
100
AcDbEntity
  8
Defpoints
 62
     0
100
AcDbPoint
 10
375.6663054906107
 20
134.0608709505803
 30
0.0
  0
ENDBLK
  5
7DE
330
7DC
100
AcDbEntity
  8
0
100
AcDbBlockEnd
  0
BLOCK
  5
7E9
330
7E8
100
AcDbEntity
  8
0
100
AcDbBlockBegin
  2
*D18
 70
     1
 10
0.0
 20
0.0
 30
0.0
  3
*D18
  1

  0
LINE
  5
1A41
330
7E8
100
AcDbEntity
  8
0
 62
     0
370
    -2
100
AcDbLine
 10
400.6663054906105
 20
153.0522188864597
 30
0.0
 11
400.6663054906105
 21
132.8108709505802
 31
0.0
  0
LINE
  5
1A42
330
7E8
100
AcDbEntity
  8
0
 62
     0
370
    -2
100
AcDbLine
 10
389.4163054906107
 20
153.0522188864597
 30
0.0
 11
389.4163054906107
 21
132.8108709505802
 31
0.0
  0
LINE
  5
1A43
330
7E8
100
AcDbEntity
  8
0
 62
     0
370
    -2
100
AcDbLine
 10
398.1663054906105
 20
134.0608709505802
 30
0.0
 11
391.9163054906107
 21
134.0608709505802
 31
0.0
  0
INSERT
  5
1A44
330
7E8
100
AcDbEntity
  8
0
 62
     0
370
    -2
100
AcDbBlockReference
  2
_Open30
 10
400.6663054906105
 20
134.0608709505802
 30
0.0
 41
2.5
 42
2.5
 43
2.5
  0
INSERT
  5
1A45
330
7E8
100
AcDbEntity
  8
0
 62
     0
370
    -2
100
AcDbBlockReference
  2
_Open30
 10
389.4163054906107
 20
134.0608709505802
 30
0.0
 41
2.5
 42
2.5
 43
2.5
 50
180.0
  0
MTEXT
  5
1A46
330
7E8
100
AcDbEntity
  8
0
 62
     4
100
AcDbMText
 10
395.1206812680051
 20
136.1858709505802
 30
0.0
 40
3.0
 41
0.0
 71
     5
 72
     1
  1
45
 73
     1
 44
1.0
1001
ACAD
1000
MTEXTBEGIN
1070
    73
1070
     1
1070
    44
1040
1.0
1070
    74
1070
     0
1000
MTEXTEND
  0
POINT
  5
1A47
330
7E8
100
AcDbEntity
  8
Defpoints
 62
     0
100
AcDbPoint
 10
400.6663054906105
 20
153.3022188864597
 30
0.0
  0
POINT
  5
1A48
330
7E8
100
AcDbEntity
  8
Defpoints
 62
     0
100
AcDbPoint
 10
389.4163054906107
 20
153.3022188864597
 30
0.0
  0
POINT
  5
1A49
330
7E8
100
AcDbEntity
  8
Defpoints
 62
     0
100
AcDbPoint
 10
389.4163054906107
 20
134.0608709505802
 30
0.0
  0
ENDBLK
  5
7EA
330
7E8
100
AcDbEntity
  8
0
100
AcDbBlockEnd
  0
BLOCK
  5
7F5
330
7F4
100
AcDbEntity
  8
0
100
AcDbBlockBegin
  2
*D19
 70
     1
 10
0.0
 20
0.0
 30
0.0
  3
*D19
  1

  0
LINE
  5
1A4A
330
7F4
100
AcDbEntity
  8
0
 62
     0
370
    -2
100
AcDbLine
 10
375.6663054906107
 20
153.0522188864597
 30
0.0
 11
375.6663054906107
 21
132.8108709505801
 31
0.0
  0
LINE
  5
1A4B
330
7F4
100
AcDbEntity
  8
0
 62
     0
370
    -2
100
AcDbLine
 10
364.4163054906107
 20
153.0522188864597
 30
0.0
 11
364.4163054906107
 21
132.8108709505801
 31
0.0
  0
LINE
  5
1A4C
330
7F4
100
AcDbEntity
  8
0
 62
     0
370
    -2
100
AcDbLine
 10
373.1663054906107
 20
134.0608709505801
 30
0.0
 11
366.9163054906107
 21
134.0608709505801
 31
0.0
  0
INSERT
  5
1A4D
330
7F4
100
AcDbEntity
  8
0
 62
     0
370
    -2
100
AcDbBlockReference
  2
_Open30
 10
375.6663054906107
 20
134.0608709505801
 30
0.0
 41
2.5
 42
2.5
 43
2.5
  0
INSERT
  5
1A4E
330
7F4
100
AcDbEntity
  8
0
 62
     0
370
    -2
100
AcDbBlockReference
  2
_Open30
 10
364.4163054906107
 20
134.0608709505801
 30
0.0
 41
2.5
 42
2.5
 43
2.5
 50
180.0
  0
MTEXT
  5
1A4F
330
7F4
100
AcDbEntity
  8
0
 62
     4
100
AcDbMText
 10
369.7802887978071
 20
136.1858709505801
 30
0.0
 40
3.0
 41
0.0
 71
     5
 72
     1
  1
45
 73
     1
 44
1.0
1001
ACAD
1000
MTEXTBEGIN
1070
    73
1070
     1
1070
    44
1040
1.0
1070
    74
1070
     0
1000
MTEXTEND
  0
POINT
  5
1A50
330
7F4
100
AcDbEntity
  8
Defpoints
 62
     0
100
AcDbPoint
 10
375.6663054906107
 20
153.3022188864597
 30
0.0
  0
POINT
  5
1A51
330
7F4
100
AcDbEntity
  8
Defpoints
 62
     0
100
AcDbPoint
 10
364.4163054906107
 20
153.3022188864597
 30
0.0
  0
POINT
  5
1A52
330
7F4
100
AcDbEntity
  8
Defpoints
 62
     0
100
AcDbPoint
 10
364.4163054906107
 20
134.0608709505801
 30
0.0
  0
ENDBLK
  5
7F6
330
7F4
100
AcDbEntity
  8
0
100
AcDbBlockEnd
  0
BLOCK
  5
813
330
812
100
AcDbEntity
  8
0
100
AcDbBlockBegin
  2
*D20
 70
     1
 10
0.0
 20
0.0
 30
0.0
  3
*D20
  1

  0
LINE
  5
1A65
330
812
100
AcDbEntity
  8
0
 62
     0
370
    -2
100
AcDbLine
 10
105.8693174447857
 20
187.1272188864597
 30
0.0
 11
105.8693174447857
 21
175.0227812333833
 31
0.0
  0
LINE
  5
1A66
330
812
100
AcDbEntity
  8
0
 62
     0
370
    -2
100
AcDbLine
 10
113.8693174447857
 20
188.2522188864597
 30
0.0
 11
113.8693174447857
 21
175.0227812333833
 31
0.0
  0
LINE
  5
1A67
330
812
100
AcDbEntity
  8
0
 62
     0
370
    -2
100
AcDbLine
 10
108.3693174447857
 20
176.2727812333833
 30
0.0
 11
111.3693174447857
 21
176.2727812333833
 31
0.0
  0
INSERT
  5
1A68
330
812
100
AcDbEntity
  8
0
 62
     0
370
    -2
100
AcDbBlockReference
  2
_Open30
 10
105.8693174447857
 20
176.2727812333833
 30
0.0
 41
2.5
 42
2.5
 43
2.5
 50
180.0
  0
INSERT
  5
1A69
330
812
100
AcDbEntity
  8
0
 62
     0
370
    -2
100
AcDbBlockReference
  2
_Open30
 10
113.8693174447857
 20
176.2727812333833
 30
0.0
 41
2.5
 42
2.5
 43
2.5
  0
MTEXT
  5
1A6A
330
812
100
AcDbEntity
  8
0
 62
     4
100
AcDbMText
 10
109.8693174447857
 20
178.3977812333833
 30
0.0
 40
3.0
 41
0.0
 71
     5
 72
     1
  1
32
 73
     1
 44
1.0
1001
ACAD
1000
MTEXTBEGIN
1070
    73
1070
     1
1070
    44
1040
1.0
1070
    74
1070
     0
1000
MTEXTEND
  0
POINT
  5
1A6B
330
812
100
AcDbEntity
  8
Defpoints
 62
     0
100
AcDbPoint
 10
105.8693174447857
 20
187.3772188864597
 30
0.0
  0
POINT
  5
1A6C
330
812
100
AcDbEntity
  8
Defpoints
 62
     0
100
AcDbPoint
 10
113.8693174447857
 20
188.5022188864597
 30
0.0
  0
POINT
  5
1A6D
330
812
100
AcDbEntity
  8
Defpoints
 62
     0
100
AcDbPoint
 10
113.8693174447857
 20
176.2727812333833
 30
0.0
  0
ENDBLK
  5
814
330
812
100
AcDbEntity
  8
0
100
AcDbBlockEnd
  0
BLOCK
  5
82A
330
829
100
AcDbEntity
  8
0
100
AcDbBlockBegin
  2
*D21
 70
     1
 10
0.0
 20
0.0
 30
0.0
  3
*D21
  1

  0
LINE
  5
1A79
330
829
100
AcDbEntity
  8
0
 62
     0
370
    -2
100
AcDbLine
 10
398.7305299482143
 20
164.6142030197912
 30
0.0
 11
397.2695672747077
 21
162.5855117996642
 31
0.0
  0
LINE
  5
1A7A
330
829
100
AcDbEntity
  8
0
 62
     0
370
    -2
100
AcDbLine
 10
402.6020810330069
 20
169.9902347531281
 30
0.0
 11
416.3643494174391
 21
189.1005060467244
 31
0.0
  0
LINE
  5
1A7B
330
829
100
AcDbEntity
  8
0
 62
     0
370
    -2
100
AcDbLine
 10
400.1914926217209
 20
166.6428942399182
 30
0.0
 11
401.1411183595003
 21
167.961543533001
 31
0.0
  0
INSERT
  5
1A7C
330
829
100
AcDbEntity
  8
0
 62
     0
370
    -2
100
AcDbBlockReference
  2
_Open30
 10
400.1914926217209
 20
166.6428942399182
 30
0.0
 41
2.5
 42
2.5
 43
2.5
 50
54.24044014415834
  0
INSERT
  5
1A7D
330
829
100
AcDbEntity
  8
0
 62
     0
370
    -2
100
AcDbBlockReference
  2
_Open30
 10
401.1411183595003
 20
167.961543533001
 30
0.0
 41
2.5
 42
2.5
 43
2.5
 50
234.2404401441583
  0
MTEXT
  5
1A7E
102
{ACAD_XDICTIONARY
360
1D7C
102
}
330
829
100
AcDbEntity
  8
0
 62
     4
100
AcDbMText
 10
408.7815015595698
 20
182.2072725264956
 30
0.0
 40
3.0
 41
0.0
 71
     5
 72
     1
  1
8-\U+22056.5穴
 11
0.584385069402642
 21
0.8114764880508056
 31
0.0
 73
     1
 44
1.0
1001
ACAD
1000
MTEXTBEGIN
1070
    73
1070
     1
1070
    44
1040
1.0
1070
    74
1070
     0
1000
MTEXTEND
  0
POINT
  5
1A7F
330
829
100
AcDbEntity
  8
Defpoints
 62
     0
100
AcDbPoint
 10
401.1411183595003
 20
167.961543533001
 30
0.0
  0
POINT
  5
1A80
330
829
100
AcDbEntity
  8
Defpoints
 62
     0
100
AcDbPoint
 10
400.1914926217209
 20
166.6428942399182
 30
0.0
  0
ENDBLK
  5
82B
330
829
100
AcDbEntity
  8
0
100
AcDbBlockEnd
  0
BLOCK
  5
83E
330
83D
100
AcDbEntity
  8
0
100
AcDbBlockBegin
  2
*D22
 70
     1
 10
0.0
 20
0.0
 30
0.0
  3
*D22
  1

  0
LINE
  5
1A81
330
83D
100
AcDbEntity
  8
0
 62
     0
370
    -2
100
AcDbLine
 10
316.0885395140048
 20
167.0522188864597
 30
0.0
 11
307.0336252781913
 21
167.0522188864597
 31
0.0
  0
LINE
  5
1A82
330
83D
100
AcDbEntity
  8
0
 62
     0
370
    -2
100
AcDbLine
 10
128.1193174447855
 20
187.3772188864597
 30
0.0
 11
309.5336252781913
 21
187.3772188864597
 31
0.0
  0
LINE
  5
1A83
330
83D
100
AcDbEntity
  8
0
 62
     0
370
    -2
100
AcDbLine
 10
308.2836252781913
 20
169.5522188864597
 30
0.0
 11
308.2836252781913
 21
184.8772188864596
 31
0.0
  0
INSERT
  5
1A84
330
83D
100
AcDbEntity
  8
0
 62
     0
370
    -2
100
AcDbBlockReference
  2
_Open30
 10
308.2836252781913
 20
167.0522188864597
 30
0.0
 41
2.5
 42
2.5
 43
2.5
 50
270.0
  0
INSERT
  5
1A85
330
83D
100
AcDbEntity
  8
0
 62
     0
370
    -2
100
AcDbBlockReference
  2
_Open30
 10
308.2836252781913
 20
187.3772188864597
 30
0.0
 41
2.5
 42
2.5
 43
2.5
 50
90.0
  0
MTEXT
  5
1A86
330
83D
100
AcDbEntity
  8
0
 62
     4
100
AcDbMText
 10
306.1586252781912
 20
177.912579106062
 30
0.0
 40
3.0
 41
0.0
 71
     5
 72
     1
  1
(81.3)
 11
0.0000000000000001
 21
1.0
 31
0.0
 73
     1
 44
1.0
1001
ACAD
1000
MTEXTBEGIN
1070
    73
1070
     1
1070
    44
1040
1.0
1070
    74
1070
     0
1000
MTEXTEND
  0
POINT
  5
1A87
330
83D
100
AcDbEntity
  8
Defpoints
 62
     0
100
AcDbPoint
 10
316.3385395140048
 20
167.0522188864597
 30
0.0
  0
POINT
  5
1A88
330
83D
100
AcDbEntity
  8
Defpoints
 62
     0
100
AcDbPoint
 10
127.8693174447855
 20
187.3772188864597
 30
0.0
  0
POINT
  5
1A89
330
83D
100
AcDbEntity
  8
Defpoints
 62
     0
100
AcDbPoint
 10
308.2836252781913
 20
187.3772188864597
 30
0.0
  0
ENDBLK
  5
83F
330
83D
100
AcDbEntity
  8
0
100
AcDbBlockEnd
  0
BLOCK
  5
84A
330
849
100
AcDbEntity
  8
0
100
AcDbBlockBegin
  2
*D23
 70
     1
 10
0.0
 20
0.0
 30
0.0
  3
*D23
  1

  0
LINE
  5
1AE1
330
849
100
AcDbEntity
  8
0
 62
     0
370
    -2
100
AcDbLine
 10
109.8693174447854
 20
140.4282151777563
 30
0.0
 11
109.8693174447854
 21
144.0285652667212
 31
0.0
  0
LINE
  5
1AE2
330
849
100
AcDbEntity
  8
0
 62
     0
370
    -2
100
AcDbLine
 10
117.8693174447855
 20
130.2237817535238
 30
0.0
 11
117.8693174447855
 21
144.0285652667212
 31
0.0
  0
LINE
  5
1AE3
330
849
100
AcDbEntity
  8
0
 62
     0
370
    -2
100
AcDbLine
 10
112.3693174447854
 20
142.7785652667212
 30
0.0
 11
115.3693174447855
 21
142.7785652667212
 31
0.0
  0
INSERT
  5
1AE4
330
849
100
AcDbEntity
  8
0
 62
     0
370
    -2
100
AcDbBlockReference
  2
_Open30
 10
109.8693174447854
 20
142.7785652667212
 30
0.0
 41
2.5
 42
2.5
 43
2.5
 50
180.0
  0
INSERT
  5
1AE5
330
849
100
AcDbEntity
  8
0
 62
     0
370
    -2
100
AcDbBlockReference
  2
_Open30
 10
117.8693174447855
 20
142.7785652667212
 30
0.0
 41
2.5
 42
2.5
 43
2.5
  0
MTEXT
  5
1AE6
330
849
100
AcDbEntity
  8
0
 62
     4
100
AcDbMText
 10
113.8693174447854
 20
144.9035652667212
 30
0.0
 40
3.0
 41
0.0
 71
     5
 72
     1
  1
32
 73
     1
 44
1.0
1001
ACAD
1000
MTEXTBEGIN
1070
    73
1070
     1
1070
    44
1040
1.0
1070
    74
1070
     0
1000
MTEXTEND
  0
POINT
  5
1AE7
330
849
100
AcDbEntity
  8
Defpoints
 62
     0
100
AcDbPoint
 10
109.8693174447854
 20
140.1782151777563
 30
0.0
  0
POINT
  5
1AE8
330
849
100
AcDbEntity
  8
Defpoints
 62
     0
100
AcDbPoint
 10
117.8693174447855
 20
129.9737817535238
 30
0.0
  0
POINT
  5
1AE9
330
849
100
AcDbEntity
  8
Defpoints
 62
     0
100
AcDbPoint
 10
117.8693174447855
 20
142.7785652667212
 30
0.0
  0
ENDBLK
  5
84B
330
849
100
AcDbEntity
  8
0
100
AcDbBlockEnd
  0
BLOCK
  5
856
330
855
100
AcDbEntity
  8
0
100
AcDbBlockBegin
  2
*D24
 70
     1
 10
0.0
 20
0.0
 30
0.0
  3
*D24
  1

  0
LINE
  5
1A93
330
855
100
AcDbEntity
  8
0
 62
     0
370
    -2
100
AcDbLine
 10
103.5174004242762
 20
132.7693483292911
 30
0.0
 11
89.33748159706958
 21
132.7693483292911
 31
0.0
  0
LINE
  5
1A94
330
855
100
AcDbEntity
  8
0
 62
     0
370
    -2
100
AcDbLine
 10
103.5174004242762
 20
106.7693483292911
 30
0.0
 11
89.33748159706958
 21
106.7693483292911
 31
0.0
  0
LINE
  5
1A95
330
855
100
AcDbEntity
  8
0
 62
     0
370
    -2
100
AcDbLine
 10
90.58748159706958
 20
130.2693483292911
 30
0.0
 11
90.58748159706958
 21
109.2693483292911
 31
0.0
  0
INSERT
  5
1A96
330
855
100
AcDbEntity
  8
0
 62
     0
370
    -2
100
AcDbBlockReference
  2
_Open30
 10
90.58748159706958
 20
132.7693483292911
 30
0.0
 41
2.5
 42
2.5
 43
2.5
 50
90.0
  0
INSERT
  5
1A97
330
855
100
AcDbEntity
  8
0
 62
     0
370
    -2
100
AcDbBlockReference
  2
_Open30
 10
90.58748159706958
 20
106.7693483292911
 30
0.0
 41
2.5
 42
2.5
 43
2.5
 50
270.0
  0
MTEXT
  5
1A98
330
855
100
AcDbEntity
  8
0
 62
     4
100
AcDbMText
 10
88.46248159706957
 20
119.7297098369538
 30
0.0
 40
3.0
 41
0.0
 71
     5
 72
     1
  1
104
 11
0.0000000000000001
 21
1.0
 31
0.0
 73
     1
 44
1.0
1001
ACAD
1000
MTEXTBEGIN
1070
    73
1070
     1
1070
    44
1040
1.0
1070
    74
1070
     0
1000
MTEXTEND
  0
POINT
  5
1A99
330
855
100
AcDbEntity
  8
Defpoints
 62
     0
100
AcDbPoint
 10
103.7674004242762
 20
132.7693483292911
 30
0.0
  0
POINT
  5
1A9A
330
855
100
AcDbEntity
  8
Defpoints
 62
     0
100
AcDbPoint
 10
103.7674004242762
 20
106.7693483292911
 30
0.0
  0
POINT
  5
1A9B
330
855
100
AcDbEntity
  8
Defpoints
 62
     0
100
AcDbPoint
 10
90.58748159706958
 20
106.7693483292911
 30
0.0
  0
ENDBLK
  5
857
330
855
100
AcDbEntity
  8
0
100
AcDbBlockEnd
  0
BLOCK
  5
862
330
861
100
AcDbEntity
  8
0
100
AcDbBlockBegin
  2
*D25
 70
     1
 10
0.0
 20
0.0
 30
0.0
  3
*D25
  1

  0
LINE
  5
1A9C
330
861
100
AcDbEntity
  8
0
 62
     0
370
    -2
100
AcDbLine
 10
111.8930281562339
 20
110.0739239384078
 30
0.0
 11
113.1986479700716
 21
112.205908202354
 31
0.0
  0
LINE
  5
1A9D
330
861
100
AcDbEntity
  8
0
 62
     0
370
    -2
100
AcDbLine
 10
107.845606733337
 20
103.4647727201744
 30
0.0
 11
96.06891601252101
 21
84.23427465937924
 31
0.0
  0
LINE
  5
1A9E
330
861
100
AcDbEntity
  8
0
 62
     0
370
    -2
100
AcDbLine
 10
110.5874083423962
 20
107.9419396744616
 30
0.0
 11
109.1512265471747
 21
105.5967569841206
 31
0.0
  0
INSERT
  5
1A9F
330
861
100
AcDbEntity
  8
0
 62
     0
370
    -2
100
AcDbBlockReference
  2
_Open30
 10
110.5874083423962
 20
107.9419396744616
 30
0.0
 41
2.5
 42
2.5
 43
2.5
 50
238.5168409545446
  0
INSERT
  5
1AA0
330
861
100
AcDbEntity
  8
0
 62
     0
370
    -2
100
AcDbBlockReference
  2
_Open30
 10
109.1512265471747
 20
105.5967569841206
 30
0.0
 41
2.5
 42
2.5
 43
2.5
 50
58.51684095454453
  0
MTEXT
  5
1AA1
102
{ACAD_XDICTIONARY
360
1D7E
102
}
330
861
100
AcDbEntity
  8
0
 62
     4
100
AcDbMText
 10
98.70889295335322
 20
92.61411784119799
 30
0.0
 40
3.0
 41
0.0
 71
     5
 72
     1
  1
4-\U+220511穴
 11
0.5222479255350782
 21
0.8527937055784988
 31
0.0
 73
     1
 44
1.0
1001
ACAD
1000
MTEXTBEGIN
1070
    73
1070
     1
1070
    44
1040
1.0
1070
    74
1070
     0
1000
MTEXTEND
  0
POINT
  5
1AA2
330
861
100
AcDbEntity
  8
Defpoints
 62
     0
100
AcDbPoint
 10
109.1512265471747
 20
105.5967569841206
 30
0.0
  0
POINT
  5
1AA3
330
861
100
AcDbEntity
  8
Defpoints
 62
     0
100
AcDbPoint
 10
110.5874083423962
 20
107.9419396744616
 30
0.0
  0
ENDBLK
  5
863
330
861
100
AcDbEntity
  8
0
100
AcDbBlockEnd
  0
BLOCK
  5
86D
330
86C
100
AcDbEntity
  8
0
100
AcDbBlockBegin
  2
*D26
 70
     1
 10
0.0
 20
0.0
 30
0.0
  3
*D26
  1

  0
LINE
  5
1AA4
330
86C
100
AcDbEntity
  8
0
 62
     0
370
    -2
100
AcDbLine
 10
123.8693174447855
 20
130.2237817535238
 30
0.0
 11
123.8693174447855
 21
144.0285652667212
 31
0.0
  0
LINE
  5
1AA5
330
86C
100
AcDbEntity
  8
0
 62
     0
370
    -2
100
AcDbLine
 10
117.8693174447855
 20
130.2237817535238
 30
0.0
 11
117.8693174447855
 21
144.0285652667212
 31
0.0
  0
LINE
  5
1AA6
330
86C
100
AcDbEntity
  8
0
 62
     0
370
    -2
100
AcDbLine
 10
115.3693174447855
 20
142.7785652667212
 30
0.0
 11
112.8693174447855
 21
142.7785652667212
 31
0.0
  0
LINE
  5
1AA7
330
86C
100
AcDbEntity
  8
0
 62
     0
370
    -2
100
AcDbLine
 10
126.3693174447855
 20
142.7785652667212
 30
0.0
 11
135.1193174447855
 21
142.7785652667212
 31
0.0
  0
LINE
  5
1AA8
330
86C
100
AcDbEntity
  8
0
 62
     0
370
    -2
100
AcDbLine
 10
117.8693174447855
 20
142.7785652667212
 30
0.0
 11
123.8693174447855
 21
142.7785652667212
 31
0.0
  0
INSERT
  5
1AA9
330
86C
100
AcDbEntity
  8
0
 62
     0
370
    -2
100
AcDbBlockReference
  2
_Open30
 10
117.8693174447855
 20
142.7785652667212
 30
0.0
 41
2.5
 42
2.5
 43
2.5
  0
INSERT
  5
1AAA
330
86C
100
AcDbEntity
  8
0
 62
     0
370
    -2
100
AcDbBlockReference
  2
_Open30
 10
123.8693174447855
 20
142.7785652667212
 30
0.0
 41
2.5
 42
2.5
 43
2.5
 50
180.0
  0
MTEXT
  5
1AAB
330
86C
100
AcDbEntity
  8
0
 62
     4
100
AcDbMText
 10
131.9943174447855
 20
144.9035652667212
 30
0.0
 40
3.0
 41
0.0
 71
     5
 72
     1
  1
24
 73
     1
 44
1.0
1001
ACAD
1000
MTEXTBEGIN
1070
    73
1070
     1
1070
    44
1040
1.0
1070
    74
1070
     0
1000
MTEXTEND
  0
POINT
  5
1AAC
330
86C
100
AcDbEntity
  8
Defpoints
 62
     0
100
AcDbPoint
 10
123.8693174447855
 20
129.9737817535238
 30
0.0
  0
POINT
  5
1AAD
330
86C
100
AcDbEntity
  8
Defpoints
 62
     0
100
AcDbPoint
 10
117.8693174447855
 20
129.9737817535238
 30
0.0
  0
POINT
  5
1AAE
330
86C
100
AcDbEntity
  8
Defpoints
 62
     0
100
AcDbPoint
 10
117.8693174447855
 20
142.7785652667212
 30
0.0
  0
ENDBLK
  5
86E
330
86C
100
AcDbEntity
  8
0
100
AcDbBlockEnd
  0
BLOCK
  5
87B
330
87A
100
AcDbEntity
  8
0
100
AcDbBlockBegin
  2
*D27
 70
     1
 10
0.0
 20
0.0
 30
0.0
  3
*D27
  1

  0
LINE
  5
1ACF
330
87A
100
AcDbEntity
  8
0
 62
     0
370
    -2
100
AcDbLine
 10
113.8693174447857
 20
100.7693483292912
 30
0.0
 11
113.8693174447857
 21
92.07182799082046
 31
0.0
  0
LINE
  5
1AD0
330
87A
100
AcDbEntity
  8
0
 62
     0
370
    -2
100
AcDbLine
 10
105.8693174447857
 20
100.7693483292912
 30
0.0
 11
105.8693174447857
 21
92.07182799082046
 31
0.0
  0
LINE
  5
1AD1
330
87A
100
AcDbEntity
  8
0
 62
     0
370
    -2
100
AcDbLine
 10
111.3693174447857
 20
93.32182799082046
 30
0.0
 11
108.3693174447857
 21
93.32182799082046
 31
0.0
  0
INSERT
  5
1AD2
330
87A
100
AcDbEntity
  8
0
 62
     0
370
    -2
100
AcDbBlockReference
  2
_Open30
 10
113.8693174447857
 20
93.32182799082046
 30
0.0
 41
2.5
 42
2.5
 43
2.5
  0
INSERT
  5
1AD3
330
87A
100
AcDbEntity
  8
0
 62
     0
370
    -2
100
AcDbBlockReference
  2
_Open30
 10
105.8693174447857
 20
93.32182799082046
 30
0.0
 41
2.5
 42
2.5
 43
2.5
 50
180.0
  0
MTEXT
  5
1AD4
330
87A
100
AcDbEntity
  8
0
 62
     4
100
AcDbMText
 10
109.8693174447857
 20
95.44682799082044
 30
0.0
 40
3.0
 41
0.0
 71
     5
 72
     1
  1
32
 73
     1
 44
1.0
1001
ACAD
1000
MTEXTBEGIN
1070
    73
1070
     1
1070
    44
1040
1.0
1070
    74
1070
     0
1000
MTEXTEND
  0
POINT
  5
1AD5
330
87A
100
AcDbEntity
  8
Defpoints
 62
     0
100
AcDbPoint
 10
113.8693174447857
 20
101.0193483292912
 30
0.0
  0
POINT
  5
1AD6
330
87A
100
AcDbEntity
  8
Defpoints
 62
     0
100
AcDbPoint
 10
105.8693174447857
 20
101.0193483292912
 30
0.0
  0
POINT
  5
1AD7
330
87A
100
AcDbEntity
  8
Defpoints
 62
     0
100
AcDbPoint
 10
105.8693174447857
 20
93.32182799082046
 30
0.0
  0
ENDBLK
  5
87C
330
87A
100
AcDbEntity
  8
0
100
AcDbBlockEnd
  0
BLOCK
  5
890
330
88F
100
AcDbEntity
  8
0
100
AcDbBlockBegin
  2
*D28
 70
     1
 10
0.0
 20
0.0
 30
0.0
  3
*D28
  1

  0
LINE
  5
1AB8
330
88F
100
AcDbEntity
  8
0
 62
     0
370
    -2
100
AcDbLine
 10
128.1193174447855
 20
126.0193483292912
 30
0.0
 11
135.5515895863704
 21
126.0193483292912
 31
0.0
  0
LINE
  5
1AB9
330
88F
100
AcDbEntity
  8
0
 62
     0
370
    -2
100
AcDbLine
 10
128.1193174447855
 20
113.5193483292912
 30
0.0
 11
135.5515895863704
 21
113.5193483292912
 31
0.0
  0
LINE
  5
1ABA
330
88F
100
AcDbEntity
  8
0
 62
     0
370
    -2
100
AcDbLine
 10
134.3015895863704
 20
111.0193483292912
 30
0.0
 11
134.3015895863704
 21
108.5193483292912
 31
0.0
  0
LINE
  5
1ABB
330
88F
100
AcDbEntity
  8
0
 62
     0
370
    -2
100
AcDbLine
 10
134.3015895863704
 20
128.5193483292912
 30
0.0
 11
134.3015895863704
 21
136.7693483292914
 31
0.0
  0
LINE
  5
1ABC
330
88F
100
AcDbEntity
  8
0
 62
     0
370
    -2
100
AcDbLine
 10
134.3015895863704
 20
113.5193483292912
 30
0.0
 11
134.3015895863704
 21
126.0193483292912
 31
0.0
  0
INSERT
  5
1ABD
330
88F
100
AcDbEntity
  8
0
 62
     0
370
    -2
100
AcDbBlockReference
  2
_Open30
 10
134.3015895863704
 20
113.5193483292912
 30
0.0
 41
2.5
 42
2.5
 43
2.5
 50
90.0
  0
INSERT
  5
1ABE
330
88F
100
AcDbEntity
  8
0
 62
     0
370
    -2
100
AcDbBlockReference
  2
_Open30
 10
134.3015895863704
 20
126.0193483292912
 30
0.0
 41
2.5
 42
2.5
 43
2.5
 50
270.0
  0
MTEXT
  5
1ABF
330
88F
100
AcDbEntity
  8
0
 62
     4
100
AcDbMText
 10
132.1765895863704
 20
133.8943483292915
 30
0.0
 40
3.0
 41
0.0
 71
     5
 72
     1
  1
50
 11
0.0000000000000001
 21
1.0
 31
0.0
 73
     1
 44
1.0
1001
ACAD
1000
MTEXTBEGIN
1070
    73
1070
     1
1070
    44
1040
1.0
1070
    74
1070
     0
1000
MTEXTEND
  0
POINT
  5
1AC0
330
88F
100
AcDbEntity
  8
Defpoints
 62
     0
100
AcDbPoint
 10
127.8693174447855
 20
126.0193483292912
 30
0.0
  0
POINT
  5
1AC1
330
88F
100
AcDbEntity
  8
Defpoints
 62
     0
100
AcDbPoint
 10
127.8693174447855
 20
113.5193483292912
 30
0.0
  0
POINT
  5
1AC2
330
88F
100
AcDbEntity
  8
Defpoints
 62
     0
100
AcDbPoint
 10
134.3015895863704
 20
113.5193483292912
 30
0.0
  0
ENDBLK
  5
891
330
88F
100
AcDbEntity
  8
0
100
AcDbBlockEnd
  0
BLOCK
  5
89E
330
89D
100
AcDbEntity
  8
0
100
AcDbBlockBegin
  2
*D29
 70
     1
 10
0.0
 20
0.0
 30
0.0
  3
*D29
  1

  0
LINE
  5
1AC3
330
89D
100
AcDbEntity
  8
0
 62
     0
370
    -2
100
AcDbLine
 10
286.4741685128466
 20
146.0522188864597
 30
0.0
 11
279.4964251029248
 21
146.0522188864597
 31
0.0
  0
LINE
  5
1AC4
330
89D
100
AcDbEntity
  8
0
 62
     0
370
    -2
100
AcDbLine
 10
284.9741685128466
 20
152.0522188864597
 30
0.0
 11
279.4964251029248
 21
152.0522188864597
 31
0.0
  0
LINE
  5
1AC5
330
89D
100
AcDbEntity
  8
0
 62
     0
370
    -2
100
AcDbLine
 10
280.7464251029248
 20
143.5522188864597
 30
0.0
 11
280.7464251029248
 21
141.0522188864597
 31
0.0
  0
LINE
  5
1AC6
330
89D
100
AcDbEntity
  8
0
 62
     0
370
    -2
100
AcDbLine
 10
280.7464251029248
 20
154.5522188864597
 30
0.0
 11
280.7464251029248
 21
163.30221888646
 31
0.0
  0
LINE
  5
1AC7
330
89D
100
AcDbEntity
  8
0
 62
     0
370
    -2
100
AcDbLine
 10
280.7464251029248
 20
146.0522188864597
 30
0.0
 11
280.7464251029248
 21
152.0522188864597
 31
0.0
  0
INSERT
  5
1AC8
330
89D
100
AcDbEntity
  8
0
 62
     0
370
    -2
100
AcDbBlockReference
  2
_Open30
 10
280.7464251029248
 20
146.0522188864597
 30
0.0
 41
2.5
 42
2.5
 43
2.5
 50
90.0
  0
INSERT
  5
1AC9
330
89D
100
AcDbEntity
  8
0
 62
     0
370
    -2
100
AcDbBlockReference
  2
_Open30
 10
280.7464251029248
 20
152.0522188864597
 30
0.0
 41
2.5
 42
2.5
 43
2.5
 50
270.0
  0
MTEXT
  5
1ACA
330
89D
100
AcDbEntity
  8
0
 62
     4
100
AcDbMText
 10
278.6214251029247
 20
160.17721888646
 30
0.0
 40
3.0
 41
0.0
 71
     5
 72
     1
  1
24
 11
0.0000000000000001
 21
1.0
 31
0.0
 73
     1
 44
1.0
1001
ACAD
1000
MTEXTBEGIN
1070
    73
1070
     1
1070
    44
1040
1.0
1070
    74
1070
     0
1000
MTEXTEND
  0
POINT
  5
1ACB
330
89D
100
AcDbEntity
  8
Defpoints
 62
     0
100
AcDbPoint
 10
286.7241685128466
 20
146.0522188864597
 30
0.0
  0
POINT
  5
1ACC
330
89D
100
AcDbEntity
  8
Defpoints
 62
     0
100
AcDbPoint
 10
285.2241685128466
 20
152.0522188864597
 30
0.0
  0
POINT
  5
1ACD
330
89D
100
AcDbEntity
  8
Defpoints
 62
     0
100
AcDbPoint
 10
280.7464251029248
 20
152.0522188864597
 30
0.0
  0
ENDBLK
  5
89F
330
89D
100
AcDbEntity
  8
0
100
AcDbBlockEnd
  0
ENDSEC
  0
SECTION
  2
ENTITIES
  0
LINE
  5
4F4
330
1F
100
AcDbEntity
  8
0
 62
     3
100
AcDbLine
 10
393.999562939135
 20
19.20491136345532
 30
0.0
 11
393.999562939135
 21
58.87063389345536
 31
0.0
  0
LINE
  5
4F5
330
1F
100
AcDbEntity
  8
0
 62
     3
100
AcDbLine
 10
406.9995629391345
 20
28.87063389345536
 30
0.0
 11
406.9995629391345
 21
56.87063389345536
 31
0.0
  0
LINE
  5
4F6
330
1F
100
AcDbEntity
  8
0
 62
     3
100
AcDbLine
 10
366.9459535091345
 20
28.87063389345536
 30
0.0
 11
366.9459535091345
 21
42.87063389345542
 31
0.0
  0
LINE
  5
4F7
330
1F
100
AcDbEntity
  8
0
 62
     3
100
AcDbLine
 10
377.2778878691346
 20
42.87063389345542
 30
0.0
 11
377.2778878691346
 21
19.20491136345532
 31
0.0
  0
LINE
  5
4F8
330
1F
100
AcDbEntity
  8
0
 62
     3
100
AcDbLine
 10
347.6409185591346
 20
58.87063389345536
 30
0.0
 11
347.6409185591346
 21
35.87063389345542
 31
0.0
  0
LINE
  5
4F9
330
1F
100
AcDbEntity
  8
0
 62
     3
100
AcDbLine
 10
406.9995629391345
 20
56.87063389345536
 30
0.0
 11
406.9995629391345
 21
58.87063389345536
 31
0.0
  0
LINE
  5
4FA
330
1F
100
AcDbEntity
  8
0
 62
     3
100
AcDbLine
 10
419.9995629391345
 20
35.87063389345542
 30
0.0
 11
419.9995629391342
 21
58.87063389345536
 31
0.0
  0
LINE
  5
4FB
330
1F
100
AcDbEntity
  8
0
 62
     3
100
AcDbLine
 10
445.6989264191346
 20
58.87063389345536
 30
0.0
 11
334.3954839191346
 21
58.87063389345536
 31
0.0
  0
LINE
  5
4FC
330
1F
100
AcDbEntity
  8
0
 62
     3
100
AcDbLine
 10
445.6989264191346
 20
64.87063389345542
 30
0.0
 11
393.999562939135
 21
64.87063389345542
 31
0.0
  0
LINE
  5
4FD
330
1F
100
AcDbEntity
  8
0
 62
     3
100
AcDbLine
 10
445.6989264191346
 20
49.87063389345542
 30
0.0
 11
334.3954839191346
 21
49.87063389345542
 31
0.0
  0
LINE
  5
4FE
330
1F
100
AcDbEntity
  8
0
 62
     3
100
AcDbLine
 10
445.6989264191346
 20
35.87063389345542
 30
0.0
 11
334.3954839191346
 21
35.87063389345542
 31
0.0
  0
LINE
  5
4FF
330
1F
100
AcDbEntity
  8
0
 62
     3
100
AcDbLine
 10
445.6989264191346
 20
28.87063389345536
 30
0.0
 11
334.3954839191346
 21
28.87063389345536
 31
0.0
  0
LINE
  5
500
330
1F
100
AcDbEntity
  8
0
 62
     3
100
AcDbLine
 10
432.9995629391345
 20
35.87063389345542
 30
0.0
 11
432.9995629391345
 21
58.87063389345536
 31
0.0
  0
LINE
  5
501
330
1F
100
AcDbEntity
  8
0
 62
     3
100
AcDbLine
 10
334.3954839191346
 20
58.87063389345536
 30
0.0
 11
334.3954839191346
 21
19.20491136345532
 31
0.0
  0
LINE
  5
502
330
1F
100
AcDbEntity
  8
0
 62
     3
100
AcDbLine
 10
393.999562939135
 20
42.87063389345542
 30
0.0
 11
334.3954839191346
 21
42.87063389345542
 31
0.0
  0
LINE
  5
503
330
1F
100
AcDbEntity
  8
0
 62
     3
100
AcDbLine
 10
377.2778878691346
 20
24.03777262345534
 30
0.0
 11
393.999562939135
 21
24.03777262345534
 31
0.0
  0
LINE
  5
504
330
1F
100
AcDbEntity
  8
0
 62
     3
100
AcDbLine
 10
55.69892641913464
 20
293.2049113634554
 30
0.0
 11
55.69892641913464
 21
19.20491136345532
 31
0.0
  0
LINE
  5
505
330
1F
100
AcDbEntity
  8
0
 62
     3
100
AcDbLine
 10
445.6989264191346
 20
19.20491136345532
 30
0.0
 11
445.6989264191346
 21
293.2049113634554
 31
0.0
  0
LINE
  5
508
330
1F
100
AcDbEntity
  8
0
 62
     3
100
AcDbLine
 10
55.69892641913464
 20
19.20491136345532
 30
0.0
 11
445.6989264191346
 21
19.20491136345532
 31
0.0
  0
TEXT
  5
50A
330
1F
100
AcDbEntity
  8
0
 62
     3
100
AcDbText
 10
435.7645155126085
 20
55.38432599215894
 30
0.0
 40
2.0
  1
DEF
  7
高2
100
AcDbText
  0
TEXT
  5
50B
330
1F
100
AcDbEntity
  8
0
 62
     3
100
AcDbText
 10
422.1260536789002
 20
55.38432599215889
 30
0.0
 40
2.0
  1
DESN
  7
高2
100
AcDbText
  0
TEXT
  5
50C
330
1F
100
AcDbEntity
  8
0
 62
     3
100
AcDbText
 10
395.8716867389002
 20
55.38432599215894
 30
0.0
 40
2.0
  1
APPD
  7
高2
100
AcDbText
  0
TEXT
  5
50D
330
1F
100
AcDbEntity
  8
0
 62
     3
100
AcDbText
 10
408.9844228391341
 20
55.38432599215894
 30
0.0
 40
2.0
  1
CHCK
  7
高2
100
AcDbText
  0
TEXT
  5
50E
330
1F
100
AcDbEntity
  8
0
 62
     3
100
AcDbText
 10
368.2050535082875
 20
33.03903271668605
 30
0.0
 40
2.0
  1
SCALE
 41
0.8
  7
高2
100
AcDbText
  0
TEXT
  5
50F
330
1F
100
AcDbEntity
  8
0
 62
     3
100
AcDbText
 10
346.5922603620155
 20
33.03903271668605
 30
0.0
 40
2.0
  1
ANGLE
 41
1.5
  7
高2
100
AcDbText
  0
TEXT
  5
510
330
1F
100
AcDbEntity
  8
0
 62
     3
100
AcDbText
 10
336.0800626221807
 20
33.03903271668616
 30
0.0
 40
2.0
  1
3AD
 41
1.5
  7
高2
100
AcDbText
  0
TEXT
  5
511
330
1F
100
AcDbEntity
  8
0
 62
     3
100
AcDbText
 10
367.474459199136
 20
39.79057078564325
 30
0.0
 40
2.0
  1
REMARKS
 41
0.7
  7
高2
100
AcDbText
  0
TEXT
  5
512
330
1F
100
AcDbEntity
  8
0
 62
     3
100
AcDbText
 10
335.8631542691345
 20
39.79057078564325
 30
0.0
 40
2.0
  1
MATERIAL
 41
0.7
  7
高2
100
AcDbText
  0
TEXT
  5
513
330
1F
100
AcDbEntity
  8
0
 62
     3
100
AcDbText
 10
335.81871015889
 20
47.12637342778452
 30
0.0
 40
2.0
  1
MODEL
  7
高2
100
AcDbText
  0
TEXT
  5
514
330
1F
100
AcDbEntity
  8
0
 62
     3
100
AcDbText
 10
336.0765623532202
 20
55.57765524405443
 30
0.0
 40
2.0
  1
CONPONENTS
 41
0.5
  7
高2
100
AcDbText
  0
TEXT
  5
515
330
1F
100
AcDbEntity
  8
0
 62
     3
100
AcDbText
 10
349.1423222043871
 20
43.95811502126728
 30
0.0
 40
4.5
  1
SE-T1-BK
  7
高4.5
100
AcDbText
  0
TEXT
  5
516
330
1F
100
AcDbEntity
  8
0
 62
     3
100
AcDbText
 10
397.0856839133512
 20
20.56996820755461
 30
0.0
 40
6.299999999999998
  1
SE-T1-BK
  7
高6.3
100
AcDbText
1001
ACAD
1000
ACAD_MTEXT_DEFINED_HEIGHT_BEGIN
1070
    46
1040
0.0
1000
ACAD_MTEXT_DEFINED_HEIGHT_END
  0
TEXT
  5
517
330
1F
100
AcDbEntity
  8
0
 62
     3
100
AcDbText
 10
410.5630726894643
 20
29.97152305168828
 30
0.0
 40
3.2
  1
2021.11.12
  7
高3.2
100
AcDbText
1001
ACAD
1000
ACAD_MTEXT_DEFINED_HEIGHT_BEGIN
1070
    46
1040
0.0
1000
ACAD_MTEXT_DEFINED_HEIGHT_END
  0
TEXT
  5
518
330
1F
100
AcDbEntity
  8
0
 62
     3
100
AcDbText
 10
380.7871608337809
 20
29.97155089602319
 30
0.0
 40
3.2
  1
1/4
  7
高3.2
100
AcDbText
  0
TEXT
  5
519
330
1F
100
AcDbEntity
  8
0
 62
     3
100
AcDbText
 10
377.8644898091346
 20
20.02178953659127
 30
0.0
 40
3.2
  1
ZK-A3X
 41
0.8
  7
高3.2
100
AcDbText
  0
TEXT
  5
51A
330
1F
100
AcDbEntity
  8
0
 62
     3
100
AcDbText
 10
335.8631542691345
 20
25.72953178564314
 30
0.0
 40
2.0
  1
NICHIDO IND.CO.LTD
 41
1.3
  7
高2
100
AcDbText
  0
TEXT
  5
51B
330
1F
100
AcDbEntity
  8
0
 62
     3
100
AcDbText
 10
336.4077082240918
 20
51.01116210134033
 30
0.0
 40
3.2
  1
品 名
  7
高3.2
100
AcDbText
1001
ACAD
1000
ACAD_MTEXT_DEFINED_HEIGHT_BEGIN
1070
    46
1040
0.0
1000
ACAD_MTEXT_DEFINED_HEIGHT_END
  0
TEXT
  5
51C
330
1F
100
AcDbEntity
  8
0
 62
     3
100
AcDbText
 10
336.4077082240918
 20
43.48069010619805
 30
0.0
 40
3.2
  1
型 式
  7
高3.2
100
AcDbText
1001
ACAD
1000
ACAD_MTEXT_DEFINED_HEIGHT_BEGIN
1070
    46
1040
3.064735913775952
1000
ACAD_MTEXT_DEFINED_HEIGHT_END
  0
TEXT
  5
51D
330
1F
100
AcDbEntity
  8
0
 62
     3
100
AcDbText
 10
336.4077082240918
 20
36.1186504786856
 30
0.0
 40
3.2
  1
材 質
  7
高3.2
100
AcDbText
1001
ACAD
1000
ACAD_MTEXT_DEFINED_HEIGHT_BEGIN
1070
    46
1040
0.0
1000
ACAD_MTEXT_DEFINED_HEIGHT_END
  0
TEXT
  5
51E
330
1F
100
AcDbEntity
  8
0
 62
     3
100
AcDbText
 10
336.4077082240918
 20
29.33807388570159
 30
0.0
 40
3.2
  1
第 三 角 法
  7
高3.2
100
AcDbText
1001
ACAD
1000
ACAD_MTEXT_DEFINED_HEIGHT_BEGIN
1070
    46
1040
0.0
1000
ACAD_MTEXT_DEFINED_HEIGHT_END
  0
TEXT
  5
51F
330
1F
100
AcDbEntity
  8
0
 62
     3
100
AcDbText
 10
335.1461751916207
 20
20.34543957134031
 30
0.0
 40
3.2
  1
日動工業株式会社
 41
1.199999999999999
  7
高3.2
100
AcDbText
1001
ACAD
1000
ACAD_MTEXT_DEFINED_HEIGHT_BEGIN
1070
    46
1040
0.0
1000
ACAD_MTEXT_DEFINED_HEIGHT_END
  0
TEXT
  5
520
330
1F
100
AcDbEntity
  8
0
 62
     3
100
AcDbText
 10
368.7817993910988
 20
36.25521242662296
 30
0.0
 40
3.2
  1
備考
  7
高3.2
100
AcDbText
1001
ACAD
1000
ACAD_MTEXT_DEFINED_HEIGHT_BEGIN
1070
    46
1040
0.0
1000
ACAD_MTEXT_DEFINED_HEIGHT_END
  0
TEXT
  5
521
330
1F
100
AcDbEntity
  8
0
 62
     3
100
AcDbText
 10
378.1525319081346
 20
25.35114138902561
 30
0.0
 40
2.5
  1
出図コード
  7
高2.5
100
AcDbText
1001
ACAD
1000
ACAD_MTEXT_DEFINED_HEIGHT_BEGIN
1070
    46
1040
0.0
1000
ACAD_MTEXT_DEFINED_HEIGHT_END
  0
TEXT
  5
522
330
1F
100
AcDbEntity
  8
0
 62
     3
100
AcDbText
 10
368.6230332730119
 20
29.32386880386832
 30
0.0
 40
3.2
  1
尺度
  7
高3.2
100
AcDbText
1001
ACAD
1000
ACAD_MTEXT_DEFINED_HEIGHT_BEGIN
1070
    46
1040
0.0
1000
ACAD_MTEXT_DEFINED_HEIGHT_END
  0
TEXT
  5
523
330
1F
100
AcDbEntity
  8
0
 62
     3
100
AcDbText
 10
395.4909698247906
 20
30.45534725198576
 30
0.0
 40
3.2
  1
作成日
  7
高3.2
100
AcDbText
1001
ACAD
1000
ACAD_MTEXT_DEFINED_HEIGHT_BEGIN
1070
    46
1040
0.0
1000
ACAD_MTEXT_DEFINED_HEIGHT_END
  0
TEXT
  5
524
330
1F
100
AcDbEntity
  8
0
 62
     3
100
AcDbText
 10
395.3854438316546
 20
51.01116210134033
 30
0.0
 40
3.2
  1
承 認
  7
高3.2
100
AcDbText
1001
ACAD
1000
ACAD_MTEXT_DEFINED_HEIGHT_BEGIN
1070
    46
1040
0.0
1000
ACAD_MTEXT_DEFINED_HEIGHT_END
  0
TEXT
  5
525
330
1F
100
AcDbEntity
  8
0
 62
     3
100
AcDbText
 10
408.385443831654
 20
51.01116210134033
 30
0.0
 40
3.2
  1
検 図
  7
高3.2
100
AcDbText
1001
ACAD
1000
ACAD_MTEXT_DEFINED_HEIGHT_BEGIN
1070
    46
1040
0.0
1000
ACAD_MTEXT_DEFINED_HEIGHT_END
  0
TEXT
  5
526
330
1F
100
AcDbEntity
  8
0
 62
     3
100
AcDbText
 10
421.3854438316541
 20
51.01116210134033
 30
0.0
 40
3.2
  1
設 計
  7
高3.2
100
AcDbText
1001
ACAD
1000
ACAD_MTEXT_DEFINED_HEIGHT_BEGIN
1070
    46
1040
0.0
1000
ACAD_MTEXT_DEFINED_HEIGHT_END
  0
TEXT
  5
527
330
1F
100
AcDbEntity
  8
0
 62
     3
100
AcDbText
 10
434.3854438316541
 20
51.01116210134033
 30
0.0
 40
3.2
  1
製 図
  7
高3.2
100
AcDbText
1001
ACAD
1000
ACAD_MTEXT_DEFINED_HEIGHT_BEGIN
1070
    46
1040
0.0
1000
ACAD_MTEXT_DEFINED_HEIGHT_END
  0
LINE
  5
528
330
1F
100
AcDbEntity
  8
0
 62
     3
100
AcDbLine
 10
233.4738158891345
 20
295.6449135034554
 30
0.0
 11
234.0963128991347
 21
295.3199590234553
 31
0.0
  0
LINE
  5
529
330
1F
100
AcDbEntity
  8
0
 62
     3
100
AcDbLine
 10
233.4738158891345
 20
290.3154414034552
 30
0.0
 11
234.0963128991347
 21
290.6403958834554
 31
0.0
  0
LINE
  5
52A
330
1F
100
AcDbEntity
  8
0
 62
     3
100
AcDbLine
 10
234.0963128991347
 20
295.3199590234553
 30
0.0
 11
234.0963128991347
 21
290.6403958834554
 31
0.0
  0
LINE
  5
52B
330
1F
100
AcDbEntity
  8
0
 62
     3
100
AcDbLine
 10
235.6727663591345
 20
290.3154414034552
 30
0.0
 11
235.0502693491347
 21
290.6403958834554
 31
0.0
  0
LINE
  5
52C
330
1F
100
AcDbEntity
  8
0
 62
     3
100
AcDbLine
 10
235.0502693491347
 20
293.4930513334555
 30
0.0
 11
235.0502693491347
 21
290.6403958834554
 31
0.0
  0
LINE
  5
52D
330
1F
100
AcDbEntity
  8
0
 62
     3
100
AcDbLine
 10
239.3039988991346
 20
295.6449135034554
 30
0.0
 11
238.6815018991346
 21
295.3199590234553
 31
0.0
  0
LINE
  5
52E
330
1F
100
AcDbEntity
  8
0
 62
     3
100
AcDbLine
 10
237.1050484291346
 20
295.6449135034554
 30
0.0
 11
237.7275454391346
 21
295.3199590234553
 31
0.0
  0
LINE
  5
52F
330
1F
100
AcDbEntity
  8
0
 62
     3
100
AcDbLine
 10
237.7275454391346
 20
295.3199590234553
 30
0.0
 11
237.7275454391346
 21
293.2594775034554
 31
0.0
  0
LINE
  5
530
330
1F
100
AcDbEntity
  8
0
 62
     3
100
AcDbLine
 10
238.6815018991346
 20
295.3199590234553
 30
0.0
 11
238.6815018991346
 21
290.0132111934554
 31
0.0
  0
LINE
  5
531
330
1F
100
AcDbEntity
  8
0
 62
     3
100
AcDbLine
 10
239.6115663391346
 20
295.6449097534554
 30
0.0
 11
240.2340610991345
 21
295.3199509834553
 31
0.0
  0
LINE
  5
532
330
1F
100
AcDbEntity
  8
0
 62
     3
100
AcDbLine
 10
239.6114549491346
 20
290.3155127934553
 30
0.0
 11
240.2339632991347
 21
290.6404455434554
 31
0.0
  0
LINE
  5
533
330
1F
100
AcDbEntity
  8
0
 62
     3
100
AcDbLine
 10
240.2340610991345
 20
295.3199509834553
 30
0.0
 11
240.2340610991345
 21
290.6404455434554
 31
0.0
  0
LINE
  5
534
330
1F
100
AcDbEntity
  8
0
 62
     3
100
AcDbLine
 10
242.3680468991348
 20
295.6448759334554
 30
0.0
 11
241.7455453391348
 21
295.3199301734554
 31
0.0
  0
LINE
  5
535
330
1F
100
AcDbEntity
  8
0
 62
     3
100
AcDbLine
 10
241.7455453391348
 20
295.3199301734554
 30
0.0
 11
241.7455453391348
 21
290.6404247334553
 31
0.0
  0
LINE
  5
536
330
1F
100
AcDbEntity
  8
0
 62
     3
100
AcDbLine
 10
242.3680468991348
 20
290.3154789734553
 30
0.0
 11
241.7455453391348
 21
290.6404247334553
 31
0.0
  0
LINE
  5
537
330
1F
100
AcDbEntity
  8
0
 62
     3
100
AcDbLine
 10
247.6398375291346
 20
295.6448173634553
 30
0.0
 11
248.2623334091346
 21
295.3198607434554
 31
0.0
  0
LINE
  5
538
330
1F
100
AcDbEntity
  8
0
 62
     3
100
AcDbLine
 10
248.2623334091346
 20
295.3198607434554
 30
0.0
 11
248.2622517391345
 21
290.6403552934554
 31
0.0
  0
LINE
  5
539
330
1F
100
AcDbEntity
  8
0
 62
     3
100
AcDbLine
 10
247.6397445091347
 20
290.3154204034554
 30
0.0
 11
248.2622517391345
 21
290.6403552934554
 31
0.0
  0
LINE
  5
53A
330
1F
100
AcDbEntity
  8
0
 62
     3
100
AcDbLine
 10
250.4287817691346
 20
295.6448173634553
 30
0.0
 11
249.8062858791346
 21
295.3198607434554
 31
0.0
  0
LINE
  5
53B
330
1F
100
AcDbEntity
  8
0
 62
     3
100
AcDbLine
 10
250.4288747791346
 20
290.3154204034554
 30
0.0
 11
249.8063675491348
 21
290.6403552934554
 31
0.0
  0
LINE
  5
53C
330
1F
100
AcDbEntity
  8
0
 62
     3
100
AcDbLine
 10
250.7198215691345
 20
295.6448173634553
 30
0.0
 11
251.3423174491347
 21
295.3198607434554
 31
0.0
  0
LINE
  5
53D
330
1F
100
AcDbEntity
  8
0
 62
     3
100
AcDbLine
 10
250.7197285491347
 20
290.3154204034554
 30
0.0
 11
251.3422357791345
 21
290.6403552934554
 31
0.0
  0
LINE
  5
53E
330
1F
100
AcDbEntity
  8
0
 62
     3
100
AcDbLine
 10
253.5087657991347
 20
295.6448173634553
 30
0.0
 11
252.8862699191347
 21
295.3198607434554
 31
0.0
  0
LINE
  5
53F
330
1F
100
AcDbEntity
  8
0
 62
     3
100
AcDbLine
 10
252.8862699191347
 20
295.3198607434554
 30
0.0
 11
252.8863515891348
 21
290.6403552934554
 31
0.0
  0
LINE
  5
540
330
1F
100
AcDbEntity
  8
0
 62
     3
100
AcDbLine
 10
253.5088588191346
 20
290.3154204034554
 30
0.0
 11
252.8863515891348
 21
290.6403552934554
 31
0.0
  0
LINE
  5
541
330
1F
100
AcDbEntity
  8
0
 62
     3
100
AcDbLine
 10
251.3422818691346
 20
293.2810991434556
 30
0.0
 11
249.8063214591347
 21
293.2810991434556
 31
0.0
  0
LINE
  5
542
330
1F
100
AcDbEntity
  8
0
 62
     3
100
AcDbLine
 10
251.3422713691347
 20
292.6792557634554
 30
0.0
 11
249.8063319591346
 21
292.6792557634554
 31
0.0
  0
LINE
  5
543
330
1F
100
AcDbEntity
  8
0
 62
     3
100
AcDbLine
 10
251.3423174491347
 20
295.3198607434554
 30
0.0
 11
251.3422818691346
 21
293.2810991434556
 31
0.0
  0
LINE
  5
544
330
1F
100
AcDbEntity
  8
0
 62
     3
100
AcDbLine
 10
251.3422713691347
 20
292.6792557634554
 30
0.0
 11
251.3422357791345
 21
290.6403552934554
 31
0.0
  0
LINE
  5
545
330
1F
100
AcDbEntity
  8
0
 62
     3
100
AcDbLine
 10
249.8062858791346
 20
295.3198607434554
 30
0.0
 11
249.8063214591347
 21
293.2810991434556
 31
0.0
  0
LINE
  5
546
330
1F
100
AcDbEntity
  8
0
 62
     3
100
AcDbLine
 10
249.8063319591346
 20
292.6792557634554
 30
0.0
 11
249.8063675491348
 21
290.6403552934554
 31
0.0
  0
LINE
  5
547
330
1F
100
AcDbEntity
  8
0
 62
     3
100
AcDbLine
 10
253.8044216891348
 20
295.6448173634553
 30
0.0
 11
254.4269175791348
 21
295.3198607434554
 31
0.0
  0
LINE
  5
548
330
1F
100
AcDbEntity
  8
0
 62
     3
100
AcDbLine
 10
254.4269175791348
 20
295.3198607434554
 30
0.0
 11
254.4268358991348
 21
290.6403552934554
 31
0.0
  0
LINE
  5
549
330
1F
100
AcDbEntity
  8
0
 62
     3
100
AcDbLine
 10
253.8043286691347
 20
290.3154204034554
 30
0.0
 11
254.4268358991348
 21
290.6403552934554
 31
0.0
  0
LINE
  5
54A
330
1F
100
AcDbEntity
  8
0
 62
     3
100
AcDbLine
 10
256.5608649291347
 20
295.6448173634553
 30
0.0
 11
255.9383690391348
 21
295.3198607434554
 31
0.0
  0
LINE
  5
54B
330
1F
100
AcDbEntity
  8
0
 62
     3
100
AcDbLine
 10
255.9383690391348
 20
295.3198607434554
 30
0.0
 11
255.9384507191345
 21
290.6403552934554
 31
0.0
  0
LINE
  5
54C
330
1F
100
AcDbEntity
  8
0
 62
     3
100
AcDbLine
 10
256.5609579491346
 20
290.3154204034554
 30
0.0
 11
255.9384507191345
 21
290.6403552934554
 31
0.0
  0
LINE
  5
54D
330
1F
100
AcDbEntity
  8
0
 62
     3
100
AcDbLine
 10
256.8670928791347
 20
295.6448173634553
 30
0.0
 11
257.4895887691345
 21
295.3198607434554
 31
0.0
  0
LINE
  5
54E
330
1F
100
AcDbEntity
  8
0
 62
     3
100
AcDbLine
 10
257.4895887691345
 20
295.3198607434554
 30
0.0
 11
257.4895070991348
 21
290.6403552934554
 31
0.0
  0
LINE
  5
54F
330
1F
100
AcDbEntity
  8
0
 62
     3
100
AcDbLine
 10
256.8669998691345
 20
290.3154204034554
 30
0.0
 11
257.4895070991348
 21
290.6403552934554
 31
0.0
  0
ARC
  5
550
330
1F
100
AcDbEntity
  8
0
 62
     3
100
AcDbCircle
 10
245.6513928591347
 20
292.9935913934554
 30
0.0
 40
2.98040844
100
AcDbArc
 50
97.7015235099968
 51
270.0
  0
ARC
  5
551
330
1F
100
AcDbEntity
  8
0
 62
     3
100
AcDbCircle
 10
264.0522511991345
 20
292.9636533534554
 30
0.0
 40
3.012776259999998
100
AcDbArc
 50
0.3142502699943961
 51
69.00558244997521
  0
ARC
  5
552
330
1F
100
AcDbEntity
  8
0
 62
     3
100
AcDbCircle
 10
264.7103588091346
 20
292.9636533534554
 30
0.0
 40
3.012776259999998
100
AcDbArc
 50
110.9944175500248
 51
148.1166110200001
  0
ARC
  5
553
330
1F
100
AcDbEntity
  8
0
 62
     3
100
AcDbCircle
 10
264.0522511991345
 20
292.9967015534554
 30
0.0
 40
3.012776259999998
100
AcDbArc
 50
290.9944175500248
 51
359.6857497300056
  0
ARC
  5
554
330
1F
100
AcDbEntity
  8
0
 62
     3
100
AcDbCircle
 10
264.7103588091346
 20
292.9967015534554
 30
0.0
 40
3.012776259999998
100
AcDbArc
 50
211.8833889799998
 51
249.0055824499752
  0
ARC
  5
555
330
1F
100
AcDbEntity
  8
0
 62
     3
100
AcDbCircle
 10
264.3813050091347
 20
294.2127565834554
 30
0.0
 40
1.73438712
100
AcDbArc
 50
64.36517189999921
 51
115.6348281000008
  0
ARC
  5
556
330
1F
100
AcDbEntity
  8
0
 62
     3
100
AcDbCircle
 10
264.3813050091347
 20
291.7475983234553
 30
0.0
 40
1.73438712
100
AcDbArc
 50
244.3651718999992
 51
295.6348281000007
  0
ARC
  5
557
330
1F
100
AcDbEntity
  8
0
 62
     3
100
AcDbCircle
 10
264.3813050091347
 20
294.2457018434552
 30
0.0
 40
0.85122233
100
AcDbArc
 50
19.48660553999975
 51
160.5133944600002
  0
ARC
  5
558
330
1F
100
AcDbEntity
  8
0
 62
     3
100
AcDbCircle
 10
264.3813050091347
 20
291.7475983234553
 30
0.0
 40
1.73438712
100
AcDbArc
 50
244.3651718999992
 51
295.6348281000007
  0
ARC
  5
559
330
1F
100
AcDbEntity
  8
0
 62
     3
100
AcDbCircle
 10
264.3813050091347
 20
291.7146530634552
 30
0.0
 40
0.85122233
100
AcDbArc
 50
199.4866055399997
 51
340.5133944600001
  0
ARC
  5
55A
330
1F
100
AcDbEntity
  8
0
 62
     3
100
AcDbCircle
 10
257.6063442891347
 20
261.2258062534554
 30
0.0
 40
37.20000000000001
100
AcDbArc
 50
69.50571479996757
 51
81.68998807001013
  0
ARC
  5
55B
330
1F
100
AcDbEntity
  8
0
 62
     3
100
AcDbCircle
 10
257.6063442891347
 20
324.7345486534555
 30
0.0
 40
37.20000000000001
100
AcDbArc
 50
278.3100119299898
 51
290.4942852000324
  0
ARC
  5
55C
330
1F
100
AcDbEntity
  8
0
 62
     3
100
AcDbCircle
 10
269.4752073291346
 20
292.9801774534552
 30
0.0
 40
3.299999999999998
100
AcDbArc
 50
290.4942852000324
 51
69.50571479996757
  0
ARC
  5
55D
330
1F
100
AcDbEntity
  8
0
 62
     3
100
AcDbCircle
 10
230.4752073291346
 20
292.9801774534552
 30
0.0
 40
3.299999999999998
100
AcDbArc
 50
110.4942852000324
 51
249.5057147999676
  0
ARC
  5
55E
330
1F
100
AcDbEntity
  8
0
 62
     3
100
AcDbCircle
 10
242.3440703591347
 20
261.2258062534554
 30
0.0
 40
37.20000000000001
100
AcDbArc
 50
98.31001192998988
 51
110.4942852000324
  0
ARC
  5
55F
330
1F
100
AcDbEntity
  8
0
 62
     3
100
AcDbCircle
 10
242.3440703591347
 20
324.7345486534555
 30
0.0
 40
37.20000000000001
100
AcDbArc
 50
249.5057147999676
 51
261.6899880700101
  0
ARC
  5
560
330
1F
100
AcDbEntity
  8
0
 62
     3
100
AcDbCircle
 10
249.9752073291346
 20
208.9801774534553
 30
0.0
 40
89.99999981
100
AcDbArc
 50
81.68998807001013
 51
98.31001192998988
  0
ARC
  5
561
330
1F
100
AcDbEntity
  8
0
 62
     3
100
AcDbCircle
 10
249.9752073291346
 20
376.9801774534553
 30
0.0
 40
89.99999981
100
AcDbArc
 50
261.6899880700101
 51
278.3100119299898
  0
ARC
  5
562
330
1F
100
AcDbEntity
  8
0
 62
     3
100
AcDbCircle
 10
249.9752073291346
 20
208.9801774534553
 30
0.0
 40
89.09999981
100
AcDbArc
 50
81.68998807001013
 51
98.31001192998988
  0
ARC
  5
563
330
1F
100
AcDbEntity
  8
0
 62
     3
100
AcDbCircle
 10
249.9752073291346
 20
376.9801774534553
 30
0.0
 40
89.09999981
100
AcDbArc
 50
261.6899880700101
 51
278.3100119299898
  0
ARC
  5
564
330
1F
100
AcDbEntity
  8
0
 62
     3
100
AcDbCircle
 10
257.6063442891347
 20
324.7345486534555
 30
0.0
 40
36.3
100
AcDbArc
 50
278.3100119299898
 51
290.4942852000324
  0
ARC
  5
565
330
1F
100
AcDbEntity
  8
0
 62
     3
100
AcDbCircle
 10
257.6063442891347
 20
261.2258062534554
 30
0.0
 40
36.3
100
AcDbArc
 50
69.50571479996757
 51
81.68998807001013
  0
ARC
  5
566
330
1F
100
AcDbEntity
  8
0
 62
     3
100
AcDbCircle
 10
269.4752073291346
 20
292.9801774534552
 30
0.0
 40
2.399999999999999
100
AcDbArc
 50
290.4942852000324
 51
69.50571479996757
  0
ARC
  5
567
330
1F
100
AcDbEntity
  8
0
 62
     3
100
AcDbCircle
 10
230.4752073291346
 20
292.9801774534552
 30
0.0
 40
2.399999999999999
100
AcDbArc
 50
110.4942852000324
 51
249.5057147999676
  0
ARC
  5
568
330
1F
100
AcDbEntity
  8
0
 62
     3
100
AcDbCircle
 10
242.3440703591347
 20
261.2258062534554
 30
0.0
 40
36.3
100
AcDbArc
 50
98.31001192998988
 51
110.4942852000324
  0
ARC
  5
569
330
1F
100
AcDbEntity
  8
0
 62
     3
100
AcDbCircle
 10
242.3440703591347
 20
324.7345486534555
 30
0.0
 40
36.3
100
AcDbArc
 50
249.5057147999676
 51
261.6899880700101
  0
LINE
  5
56A
330
1F
100
AcDbEntity
  8
0
 62
     3
100
AcDbLine
 10
256.5608660491347
 20
290.0132111934554
 30
0.0
 11
253.8044205691346
 21
290.0132111934554
 31
0.0
  0
LINE
  5
56B
330
1F
100
AcDbEntity
  8
0
 62
     3
100
AcDbLine
 10
256.5608660491347
 20
290.3154414034552
 30
0.0
 11
256.5608660491347
 21
290.0132111934554
 31
0.0
  0
LINE
  5
56C
330
1F
100
AcDbEntity
  8
0
 62
     3
100
AcDbLine
 10
253.5087669191345
 20
295.9470026834554
 30
0.0
 11
250.7198204491346
 21
295.9470026834554
 31
0.0
  0
LINE
  5
56D
330
1F
100
AcDbEntity
  8
0
 62
     3
100
AcDbLine
 10
253.5087669191345
 20
295.9470026834554
 30
0.0
 11
253.5087669191345
 21
295.6449135034554
 31
0.0
  0
LINE
  5
56E
330
1F
100
AcDbEntity
  8
0
 62
     3
100
AcDbLine
 10
253.5087669191345
 20
290.3154414034552
 30
0.0
 11
253.5087669191345
 21
290.0130701734554
 31
0.0
  0
LINE
  5
56F
330
1F
100
AcDbEntity
  8
0
 62
     3
100
AcDbLine
 10
253.5087669191345
 20
290.0130701734554
 30
0.0
 11
250.7198204491346
 21
290.0130701734554
 31
0.0
  0
LINE
  5
570
330
1F
100
AcDbEntity
  8
0
 62
     3
100
AcDbLine
 10
256.5608660491347
 20
295.9471437134554
 30
0.0
 11
256.5608660491347
 21
295.6449135034554
 31
0.0
  0
LINE
  5
571
330
1F
100
AcDbEntity
  8
0
 62
     3
100
AcDbLine
 10
256.5608660491347
 20
295.9471437134554
 30
0.0
 11
253.8044205691346
 21
295.9471437134554
 31
0.0
  0
LINE
  5
572
330
1F
100
AcDbEntity
  8
0
 62
     3
100
AcDbLine
 10
253.8044205691346
 20
295.9471437134554
 30
0.0
 11
253.8044205691346
 21
295.6449135034554
 31
0.0
  0
LINE
  5
573
330
1F
100
AcDbEntity
  8
0
 62
     3
100
AcDbLine
 10
256.8670917591345
 20
290.3154414034552
 30
0.0
 11
256.8670917591345
 21
290.0132111934554
 31
0.0
  0
LINE
  5
574
330
1F
100
AcDbEntity
  8
0
 62
     3
100
AcDbLine
 10
259.7018068491347
 20
290.0132111934554
 30
0.0
 11
256.8670917591345
 21
290.0132111934554
 31
0.0
  0
LINE
  5
575
330
1F
100
AcDbEntity
  8
0
 62
     3
100
AcDbLine
 10
259.0010402391346
 20
294.9931872534554
 30
0.0
 11
259.0010402391346
 21
290.9671676534554
 31
0.0
  0
LINE
  5
576
330
1F
100
AcDbEntity
  8
0
 62
     3
100
AcDbLine
 10
259.0010402391346
 20
290.9671676534554
 30
0.0
 11
259.2725387591348
 21
290.9671676534554
 31
0.0
  0
ARC
  5
577
330
1F
100
AcDbEntity
  8
0
 62
     3
100
AcDbCircle
 10
257.8842734191347
 20
292.9801774534552
 30
0.0
 40
2.44529939
100
AcDbArc
 50
304.5919552700033
 51
55.40804472999663
  0
LINE
  5
578
330
1F
100
AcDbEntity
  8
0
 62
     3
100
AcDbLine
 10
259.7018068491347
 20
295.9471437134554
 30
0.0
 11
256.8670917591345
 21
295.9471437134554
 31
0.0
  0
LINE
  5
579
330
1F
100
AcDbEntity
  8
0
 62
     3
100
AcDbLine
 10
256.8670917591345
 20
295.9471437134554
 30
0.0
 11
256.8670917591345
 21
295.6449135034554
 31
0.0
  0
LINE
  5
57A
330
1F
100
AcDbEntity
  8
0
 62
     3
100
AcDbLine
 10
253.8044205691346
 20
290.3154414034552
 30
0.0
 11
253.8044205691346
 21
290.0132111934554
 31
0.0
  0
LINE
  5
57B
330
1F
100
AcDbEntity
  8
0
 62
     3
100
AcDbLine
 10
259.0010402391346
 20
294.9931872534554
 30
0.0
 11
259.2725387591348
 21
294.9931872534554
 31
0.0
  0
LINE
  5
57C
330
1F
100
AcDbEntity
  8
0
 62
     3
100
AcDbLine
 10
242.3679549991347
 20
290.3154414034552
 30
0.0
 11
242.3679497291345
 21
290.0131829534554
 31
0.0
  0
LINE
  5
57D
330
1F
100
AcDbEntity
  8
0
 62
     3
100
AcDbLine
 10
239.6115042491346
 20
290.0132394434554
 30
0.0
 11
242.3679497291345
 21
290.0131913334553
 31
0.0
  0
LINE
  5
57E
330
1F
100
AcDbEntity
  8
0
 62
     3
100
AcDbLine
 10
233.4738158891345
 20
290.0132111934554
 30
0.0
 11
235.6727663591345
 21
290.0132111934554
 31
0.0
  0
ARC
  5
57F
330
1F
100
AcDbEntity
  8
0
 62
     3
100
AcDbCircle
 10
226.3567549191347
 20
293.0500440634554
 30
0.0
 40
21.01937947
100
AcDbArc
 50
353.8660061899951
 51
357.6940342600066
  0
LINE
  5
580
330
1F
100
AcDbEntity
  8
0
 62
     3
100
AcDbLine
 10
245.9518690091346
 20
292.2095188434554
 30
0.0
 11
247.3591131291345
 21
292.2043118734555
 31
0.0
  0
LINE
  5
582
330
1F
100
AcDbEntity
  8
0
 62
     3
100
AcDbLine
 10
245.9575524591345
 20
293.7455399034552
 30
0.0
 11
247.3647965791346
 21
293.7403329334554
 31
0.0
  0
ARC
  5
583
330
1F
100
AcDbEntity
  8
0
 62
     3
100
AcDbCircle
 10
226.3567549191347
 20
293.0500440634554
 30
0.0
 40
21.01937947
100
AcDbArc
 50
1.881965739991413
 51
5.709993809994085
  0
LINE
  5
584
330
1F
100
AcDbEntity
  8
0
 62
     3
100
AcDbLine
 10
242.3680532891348
 20
295.9471154634556
 30
0.0
 11
242.3680480191346
 21
295.6449135034554
 31
0.0
  0
LINE
  5
585
330
1F
100
AcDbEntity
  8
0
 62
     3
100
AcDbLine
 10
239.6116078091346
 20
295.9471719534554
 30
0.0
 11
242.3680532891348
 21
295.9471238434554
 31
0.0
  0
LINE
  5
586
330
1F
100
AcDbEntity
  8
0
 62
     3
100
AcDbLine
 10
239.6115095191348
 20
290.3154414034552
 30
0.0
 11
239.6115042491346
 21
290.0132394434554
 31
0.0
  0
LINE
  5
587
330
1F
100
AcDbEntity
  8
0
 62
     3
100
AcDbLine
 10
239.6116078091346
 20
295.9471719534554
 30
0.0
 11
239.6116025391347
 21
295.6449135034554
 31
0.0
  0
LINE
  5
588
330
1F
100
AcDbEntity
  8
0
 62
     3
100
AcDbLine
 10
235.6727663591345
 20
290.3154414034552
 30
0.0
 11
235.6727663591345
 21
290.0132111934554
 31
0.0
  0
LINE
  5
589
330
1F
100
AcDbEntity
  8
0
 62
     3
100
AcDbLine
 10
235.0502693491347
 20
293.4930513334555
 30
0.0
 11
237.2251694291346
 21
290.0132111934554
 31
0.0
  0
LINE
  5
58A
330
1F
100
AcDbEntity
  8
0
 62
     3
100
AcDbLine
 10
237.2251694291346
 20
290.0132111934554
 30
0.0
 11
238.6815018991346
 21
290.0132111934554
 31
0.0
  0
LINE
  5
58B
330
1F
100
AcDbEntity
  8
0
 62
     3
100
AcDbLine
 10
239.3039988991346
 20
295.9471437134554
 30
0.0
 11
239.3039988991346
 21
295.6449135034554
 31
0.0
  0
LINE
  5
58C
330
1F
100
AcDbEntity
  8
0
 62
     3
100
AcDbLine
 10
237.1050484291346
 20
295.9471437134554
 30
0.0
 11
239.3039988991346
 21
295.9471437134554
 31
0.0
  0
LINE
  5
58D
330
1F
100
AcDbEntity
  8
0
 62
     3
100
AcDbLine
 10
237.1050484291346
 20
295.9471437134554
 30
0.0
 11
237.1050484291346
 21
295.6449135034554
 31
0.0
  0
LINE
  5
58E
330
1F
100
AcDbEntity
  8
0
 62
     3
100
AcDbLine
 10
237.7275454391346
 20
293.2594775034554
 30
0.0
 11
235.9637644991348
 21
295.9471437134554
 31
0.0
  0
LINE
  5
58F
330
1F
100
AcDbEntity
  8
0
 62
     3
100
AcDbLine
 10
233.4738158891345
 20
295.9471437134554
 30
0.0
 11
235.9637644991348
 21
295.9471437134554
 31
0.0
  0
LINE
  5
590
330
1F
100
AcDbEntity
  8
0
 62
     3
100
AcDbLine
 10
247.6398364091346
 20
295.9470026834554
 30
0.0
 11
250.4287828891346
 21
295.9470026834554
 31
0.0
  0
LINE
  5
591
330
1F
100
AcDbEntity
  8
0
 62
     3
100
AcDbLine
 10
247.6398364091346
 20
295.6449135034554
 30
0.0
 11
247.6398364091346
 21
295.9470026834554
 31
0.0
  0
LINE
  5
592
330
1F
100
AcDbEntity
  8
0
 62
     3
100
AcDbLine
 10
247.6398364091346
 20
290.0130701734554
 30
0.0
 11
247.6398364091346
 21
290.3154414034552
 31
0.0
  0
LINE
  5
593
330
1F
100
AcDbEntity
  8
0
 62
     3
100
AcDbLine
 10
247.6398364091346
 20
290.0130701734554
 30
0.0
 11
250.4287828891346
 21
290.0130701734554
 31
0.0
  0
LINE
  5
594
330
1F
100
AcDbEntity
  8
0
 62
     3
100
AcDbLine
 10
250.7198204491346
 20
290.3154414034552
 30
0.0
 11
250.7198204491346
 21
290.0130701734554
 31
0.0
  0
LINE
  5
595
330
1F
100
AcDbEntity
  8
0
 62
     3
100
AcDbLine
 10
250.4287828891346
 20
290.3154414034552
 30
0.0
 11
250.4287828891346
 21
290.0130701734554
 31
0.0
  0
LINE
  5
596
330
1F
100
AcDbEntity
  8
0
 62
     3
100
AcDbLine
 10
250.4287828891346
 20
295.6449135034554
 30
0.0
 11
250.4287828891346
 21
295.9470026834554
 31
0.0
  0
LINE
  5
597
330
1F
100
AcDbEntity
  8
0
 62
     3
100
AcDbLine
 10
250.7198204491346
 20
295.6449135034554
 30
0.0
 11
250.7198204491346
 21
295.9470026834554
 31
0.0
  0
LINE
  5
598
330
1F
100
AcDbEntity
  8
0
 62
     3
100
AcDbLine
 10
233.4738158891345
 20
290.3154414034552
 30
0.0
 11
233.4738158891345
 21
290.0132111934554
 31
0.0
  0
LINE
  5
599
330
1F
100
AcDbEntity
  8
0
 62
     3
100
AcDbLine
 10
233.4738158891345
 20
295.9471437134554
 30
0.0
 11
233.4738158891345
 21
295.6449135034554
 31
0.0
  0
ARC
  5
59A
330
1F
100
AcDbEntity
  8
0
 62
     3
100
AcDbCircle
 10
260.0018068491346
 20
293.6026744634554
 30
0.0
 40
2.344469249999999
100
AcDbArc
 50
17.30874897998983
 51
23.76507095999605
  0
ARC
  5
59B
330
1F
100
AcDbEntity
  8
0
 62
     3
100
AcDbCircle
 10
258.0042734191346
 20
292.9801774534552
 30
0.0
 40
4.43675086
100
AcDbArc
 50
342.6912510200101
 51
17.30856643999931
  0
ARC
  5
59C
330
1F
100
AcDbEntity
  8
0
 62
     3
100
AcDbCircle
 10
260.0018068491346
 20
292.3576804434554
 30
0.0
 40
2.344469249999999
100
AcDbArc
 50
336.234929040004
 51
342.6912510200101
  0
ARC
  5
59D
330
1F
100
AcDbEntity
  8
0
 62
     3
100
AcDbCircle
 10
259.7018068491347
 20
293.6026744634554
 30
0.0
 40
2.344469249999999
100
AcDbArc
 50
17.30874897998983
 51
90.0
  0
ARC
  5
59E
330
1F
100
AcDbEntity
  8
0
 62
     3
100
AcDbCircle
 10
257.7042734191347
 20
292.9801774534552
 30
0.0
 40
4.43675086
100
AcDbArc
 50
342.6912510200101
 51
17.30856643999931
  0
ARC
  5
59F
330
1F
100
AcDbEntity
  8
0
 62
     3
100
AcDbCircle
 10
259.7018068491347
 20
292.3576804434554
 30
0.0
 40
2.344469249999999
100
AcDbArc
 50
270.0
 51
342.6912510200101
  0
ARC
  5
5A0
330
1F
100
AcDbEntity
  8
0
 62
     3
100
AcDbCircle
 10
245.2390348791345
 20
292.9801774534552
 30
0.0
 40
2.966966259999998
100
AcDbArc
 50
46.75287961001095
 51
89.74999828999569
  0
ARC
  5
5A1
330
1F
100
AcDbEntity
  8
0
 62
     3
100
AcDbCircle
 10
245.2390348791345
 20
292.9801774534552
 30
0.0
 40
2.966966259999998
100
AcDbArc
 50
273.9763331500101
 51
312.8231203899785
  0
ARC
  5
5A2
330
1F
100
AcDbEntity
  8
0
 62
     3
100
AcDbCircle
 10
261.5844748091346
 20
292.9343752734554
 30
0.0
 40
3.936984289999998
100
AcDbArc
 50
0.6665840599916574
 51
23.90392827000695
  0
ARC
  5
5A3
330
1F
100
AcDbEntity
  8
0
 62
     3
100
AcDbCircle
 10
267.1781351991348
 20
292.9343752734554
 30
0.0
 40
3.936984289999998
100
AcDbArc
 50
156.096071729993
 51
179.3334159400083
  0
ARC
  5
5A4
330
1F
100
AcDbEntity
  8
0
 62
     3
100
AcDbCircle
 10
261.5844748091346
 20
293.0259796334553
 30
0.0
 40
3.936984289999998
100
AcDbArc
 50
336.0960717299931
 51
359.3334159400084
  0
ARC
  5
5A5
330
1F
100
AcDbEntity
  8
0
 62
     3
100
AcDbCircle
 10
267.1781351991348
 20
293.0259796334553
 30
0.0
 40
3.936984289999998
100
AcDbArc
 50
180.6665840599917
 51
203.9039282700069
  0
LINE
  5
5A6
330
1F
100
AcDbEntity
  8
0
 62
     3
100
AcDbLine
 10
274.3556515991346
 20
293.2049113634554
 30
0.0
 11
445.6989264191346
 21
293.2049113634554
 31
0.0
  0
LINE
  5
5A7
330
1F
100
AcDbEntity
  8
0
 62
     3
100
AcDbLine
 10
225.8016169291347
 20
293.2049113634554
 30
0.0
 11
55.69892641913464
 21
293.2049113634554
 31
0.0
  0
LINE
  5
5A8
330
1F
100
AcDbEntity
  8
0
 62
     3
100
AcDbLine
 10
43.29700262913471
 20
159.6495503134553
 30
0.0
 11
40.69892641913464
 21
158.1495503134551
 31
0.0
  0
LINE
  5
5A9
330
1F
100
AcDbEntity
  8
0
 62
     3
100
AcDbLine
 10
43.29700262913471
 20
159.6495503134553
 30
0.0
 11
40.69892641913464
 21
161.1495503134551
 31
0.0
  0
LINE
  5
5AA
330
1F
100
AcDbEntity
  8
0
 62
     3
100
AcDbLine
 10
40.69892641913464
 20
158.1495503134551
 30
0.0
 11
40.69892641913464
 21
161.1495503134551
 31
0.0
  0
TEXT
  5
5AB
330
1F
100
AcDbEntity
  8
0
 62
     3
100
AcDbText
 10
349.564416412526
 20
51.34918337443007
 30
0.0
 40
4.5
  1
エルボーアーム1黒
 41
0.8
  7
高4.5
100
AcDbText
1001
ACAD
1000
ACAD_MTEXT_DEFINED_HEIGHT_BEGIN
1070
    46
1040
0.0
1000
ACAD_MTEXT_DEFINED_HEIGHT_END
  0
TEXT
  5
5AC
330
1F
100
AcDbEntity
  8
0
 62
     3
100
AcDbText
 10
400.5757547607897
 20
59.48548526407029
 30
0.0
 40
4.5
  1
コード
  7
高4.5
100
AcDbText
  0
TEXT
  5
5AD
330
1F
100
AcDbEntity
  8
0
 62
     3
100
AcDbText
 10
424.2332817484299
 20
59.48548526407029
 30
0.0
 40
4.5
  1
12710
  7
高4.5
100
AcDbText
  0
LINE
  5
5AF
330
1F
100
AcDbEntity
  8
0
 62
     3
100
AcDbLine
 10
324.0693174447855
 20
149.7022188864597
 30
0.0
 11
324.0693174447855
 21
171.0022188864597
 31
0.0
  0
LINE
  5
5B0
330
1F
100
AcDbEntity
  8
0
 62
     3
100
AcDbLine
 10
322.9443174447855
 20
152.0522188864597
 30
0.0
 11
322.9443174447855
 21
170.8022188864597
 31
0.0
  0
LINE
  5
5B1
330
1F
100
AcDbEntity
  8
0
 62
     3
100
AcDbLine
 10
330.8693174447857
 20
149.7022188864597
 30
0.0
 11
330.8693174447857
 21
171.0022188864597
 31
0.0
  0
LINE
  5
5B3
330
1F
100
AcDbEntity
  8
0
 62
     3
100
AcDbLine
 10
113.8693174447857
 20
188.5022188864597
 30
0.0
 11
113.8693174447857
 21
195.3022188864597
 31
0.0
  0
LINE
  5
5B4
330
1F
100
AcDbEntity
  8
0
 62
     3
100
AcDbLine
 10
127.8693174447855
 20
187.3772188864597
 30
0.0
 11
127.8693174447855
 21
188.5022188864597
 31
0.0
  0
LINE
  5
5B5
330
1F
100
AcDbEntity
  8
0
 62
     3
100
AcDbLine
 10
105.8693174447857
 20
187.3772188864597
 30
0.0
 11
105.8693174447857
 21
188.5022188864597
 31
0.0
  0
LINE
  5
5B6
330
1F
100
AcDbEntity
  8
0
 62
     3
100
AcDbLine
 10
331.0443174447854
 20
145.3022188864597
 30
0.0
 11
323.8943174447858
 21
145.3022188864597
 31
0.0
  0
LINE
  5
5B7
330
1F
100
AcDbEntity
  8
0
 62
     3
100
AcDbLine
 10
324.0693174447855
 20
152.0522188864597
 30
0.0
 11
322.9443174447855
 21
152.0522188864597
 31
0.0
  0
LINE
  5
5B8
330
1F
100
AcDbEntity
  8
0
 62
     3
100
AcDbLine
 10
324.0693174447855
 20
170.8022188864597
 30
0.0
 11
322.9443174447855
 21
170.8022188864597
 31
0.0
  0
LINE
  5
5B9
330
1F
100
AcDbEntity
  8
0
100
AcDbLine
 10
331.3443174447856
 20
145.9272188864597
 30
0.0
 11
323.5943174447856
 21
145.9272188864597
 31
0.0
  0
LINE
  5
5BA
330
1F
100
AcDbEntity
  8
0
 62
     3
100
AcDbLine
 10
331.0443174447854
 20
149.7022188864597
 30
0.0
 11
323.8943174447858
 21
149.7022188864597
 31
0.0
  0
LINE
  5
5BB
330
1F
100
AcDbEntity
  8
0
 62
     3
100
AcDbLine
 10
331.485626350331
 20
148.9522188864597
 30
0.0
 11
331.3443174447856
 21
148.9522188864597
 31
0.0
  0
LINE
  5
5BC
330
1F
100
AcDbEntity
  8
0
100
AcDbLine
 10
331.3443174447856
 20
148.9522188864597
 30
0.0
 11
323.5943174447856
 21
148.9522188864597
 31
0.0
  0
LINE
  5
5BD
330
1F
100
AcDbEntity
  8
0
 62
     3
100
AcDbLine
 10
323.5943174447856
 20
148.9522188864597
 30
0.0
 11
323.4530085392401
 21
148.9522188864597
 31
0.0
  0
LINE
  5
5BE
330
1F
100
AcDbEntity
  8
0
  6
CENTER
100
AcDbLine
 10
327.4693174447856
 20
171.0522188864597
 30
0.0
 11
327.4693174447856
 21
140.7719831154732
 31
0.0
  0
LINE
  5
5BF
330
1F
100
AcDbEntity
  8
0
  6
HIDDEN
 62
     2
100
AcDbLine
 10
325.2818174447856
 20
145.9272188864597
 30
0.0
 11
325.2818174447856
 21
149.7022188864597
 31
0.0
  0
LINE
  5
5C0
330
1F
100
AcDbEntity
  8
0
  6
HIDDEN
 62
     2
100
AcDbLine
 10
329.6568174447856
 20
145.9272188864597
 30
0.0
 11
329.6568174447856
 21
149.7022188864597
 31
0.0
  0
LINE
  5
5C1
330
1F
100
AcDbEntity
  8
0
 62
     3
100
AcDbLine
 10
323.5943174447856
 20
145.9272188864597
 30
0.0
 11
323.5943174447856
 21
145.9684408521621
 31
0.0
  0
LINE
  5
5C2
330
1F
100
AcDbEntity
  8
0
 62
     3
100
AcDbLine
 10
331.3443174447856
 20
145.9272188864597
 30
0.0
 11
331.3443174447856
 21
145.9684408521621
 31
0.0
  0
LINE
  5
5C3
330
1F
100
AcDbEntity
  8
0
 62
     3
100
AcDbLine
 10
331.3443174447856
 20
145.9272188864597
 30
0.0
 11
331.0443174447854
 21
145.3022188864597
 31
0.0
  0
LINE
  5
5C4
330
1F
100
AcDbEntity
  8
0
 62
     3
100
AcDbLine
 10
331.3443174447856
 20
148.9522188864597
 30
0.0
 11
331.0443174447854
 21
149.7022188864597
 31
0.0
  0
LINE
  5
5C5
330
1F
100
AcDbEntity
  8
0
 62
     3
100
AcDbLine
 10
323.8943174447858
 20
145.3022188864597
 30
0.0
 11
323.5943174447856
 21
145.9272188864597
 31
0.0
  0
LINE
  5
5C6
330
1F
100
AcDbEntity
  8
0
 62
     3
100
AcDbLine
 10
323.8943174447858
 20
149.7022188864597
 30
0.0
 11
323.5943174447856
 21
148.9522188864597
 31
0.0
  0
LINE
  5
5C7
330
1F
100
AcDbEntity
  8
0
  6
HIDDEN
 62
     2
100
AcDbLine
 10
324.7193174447856
 20
145.3022188864597
 30
0.0
 11
325.2818174447856
 21
145.9272188864597
 31
0.0
  0
LINE
  5
5C8
330
1F
100
AcDbEntity
  8
0
  6
HIDDEN
 62
     2
100
AcDbLine
 10
330.2193174447856
 20
145.3022188864597
 30
0.0
 11
329.6568174447856
 21
145.9272188864597
 31
0.0
  0
LINE
  5
5C9
330
1F
100
AcDbEntity
  8
0
100
AcDbLine
 10
328.5172041332452
 20
148.9522188864597
 30
0.0
 11
328.5172041332452
 21
146.3007294873183
 31
0.0
  0
LINE
  5
5CA
330
1F
100
AcDbEntity
  8
0
100
AcDbLine
 10
327.7701829315278
 20
148.9522188864597
 30
0.0
 11
327.7701829315278
 21
146.3007294873183
 31
0.0
  0
LINE
  5
5CB
330
1F
100
AcDbEntity
  8
0
100
AcDbLine
 10
327.1684519580434
 20
148.9522188864597
 30
0.0
 11
327.1684519580434
 21
146.3007294873183
 31
0.0
  0
LINE
  5
5CC
330
1F
100
AcDbEntity
  8
0
100
AcDbLine
 10
326.421430756326
 20
148.9522188864597
 30
0.0
 11
326.421430756326
 21
146.3007294873183
 31
0.0
  0
ARC
  5
5CD
330
1F
100
AcDbEntity
  8
0
100
AcDbCircle
 10
328.1436935323863
 20
146.3007294873183
 30
0.0
 40
0.373510600858566
100
AcDbArc
 50
180.0
 51
0.0
  0
ARC
  5
5CE
330
1F
100
AcDbEntity
  8
0
100
AcDbCircle
 10
326.7949413571849
 20
146.3007294873183
 30
0.0
 40
0.373510600858566
100
AcDbArc
 50
180.0
 51
0.0
  0
LINE
  5
5CF
330
1F
100
AcDbEntity
  8
0
 62
     3
100
AcDbLine
 10
331.485626350331
 20
146.3007294873183
 30
0.0
 11
331.485626350331
 21
148.9522188864597
 31
0.0
  0
LINE
  5
5D0
330
1F
100
AcDbEntity
  8
0
100
AcDbLine
 10
330.965468155823
 20
148.9522188864597
 30
0.0
 11
330.965468155823
 21
146.3007294873183
 31
0.0
  0
ELLIPSE
  5
5D1
330
1F
100
AcDbEntity
  8
0
100
AcDbEllipse
 10
331.2255472530773
 20
146.3007294873183
 30
0.0
 11
0.0000000000000556
 21
0.3735106008586021
 31
0.0
210
0.0
220
0.0
230
1.0
 40
0.6963098146508815
 41
1.570796326795
 42
3.615840576879738
  0
ELLIPSE
  5
5D2
330
1F
100
AcDbEntity
  8
0
 62
     3
100
AcDbEllipse
 10
331.2255472530773
 20
146.3007294873183
 30
0.0
 11
0.000000000000035
 21
0.3735106008585942
 31
0.0
210
0.0
220
0.0
230
1.0
 40
0.696309814650896
 41
3.615840576879658
 42
4.712388980384755
  0
LINE
  5
5D3
330
1F
100
AcDbEntity
  8
0
100
AcDbLine
 10
330.8127396618715
 20
148.9522188864597
 30
0.0
 11
330.8127396618715
 21
146.3007294873183
 31
0.0
  0
LINE
  5
5D4
330
1F
100
AcDbEntity
  8
0
100
AcDbLine
 10
330.1830766547104
 20
148.9522188864597
 30
0.0
 11
330.1830766547104
 21
146.3007294873183
 31
0.0
  0
ELLIPSE
  5
5D5
330
1F
100
AcDbEntity
  8
0
100
AcDbEllipse
 10
330.4979081582908
 20
146.3007294873183
 30
0.0
 11
0.0
 21
-0.3735106008585944
 31
0.0
210
0.0
220
0.0
230
1.0
 40
0.842898442124072
 41
4.712388980384688
 42
7.853981633974482
  0
LINE
  5
5D6
330
1F
100
AcDbEntity
  8
0
 62
     3
100
AcDbLine
 10
323.4530085392401
 20
146.3007294873183
 30
0.0
 11
323.4530085392401
 21
148.9522188864597
 31
0.0
  0
LINE
  5
5D7
330
1F
100
AcDbEntity
  8
0
100
AcDbLine
 10
323.9731667337482
 20
148.9522188864597
 30
0.0
 11
323.9731667337482
 21
146.3007294873183
 31
0.0
  0
ELLIPSE
  5
5D8
330
1F
100
AcDbEntity
  8
0
100
AcDbEllipse
 10
323.7130876364939
 20
146.3007294873183
 30
0.0
 11
-0.0000000000000556
 21
0.3735106008586021
 31
0.0
210
0.0
220
0.0
230
-1.0
 40
0.6963098146508815
 41
1.570796326795
 42
3.615840576879738
  0
ELLIPSE
  5
5D9
330
1F
100
AcDbEntity
  8
0
 62
     3
100
AcDbEllipse
 10
323.7130876364939
 20
146.3007294873183
 30
0.0
 11
-0.000000000000035
 21
0.3735106008585942
 31
0.0
210
0.0
220
0.0
230
-1.0
 40
0.696309814650896
 41
3.615840576879658
 42
4.712388980384755
  0
LINE
  5
5DA
330
1F
100
AcDbEntity
  8
0
100
AcDbLine
 10
324.1258952276997
 20
148.9522188864597
 30
0.0
 11
324.1258952276997
 21
146.3007294873183
 31
0.0
  0
LINE
  5
5DB
330
1F
100
AcDbEntity
  8
0
100
AcDbLine
 10
324.7555582348608
 20
148.9522188864597
 30
0.0
 11
324.7555582348608
 21
146.3007294873183
 31
0.0
  0
ELLIPSE
  5
5DC
330
1F
100
AcDbEntity
  8
0
100
AcDbEllipse
 10
324.4407267312803
 20
146.3007294873183
 30
0.0
 11
0.0
 21
-0.3735106008585944
 31
0.0
210
0.0
220
0.0
230
-1.0
 40
0.842898442124072
 41
4.712388980384688
 42
7.853981633974482
  0
LINE
  5
5DD
330
1F
100
AcDbEntity
  8
0
  6
CENTER
100
AcDbLine
 10
328.7404860972491
 20
155.8022188864597
 30
0.0
 11
316.3385395140048
 21
155.8022188864597
 31
0.0
  0
LINE
  5
5DE
330
1F
100
AcDbEntity
  8
0
  6
CENTER
100
AcDbLine
 10
328.7404860972491
 20
167.0522188864597
 30
0.0
 11
316.3385395140048
 21
167.0522188864597
 31
0.0
  0
LINE
  5
5DF
330
1F
100
AcDbEntity
  8
0
 62
     3
100
AcDbLine
 10
113.8693174447857
 20
195.3022188864597
 30
0.0
 11
306.5693174447857
 21
195.3022188864597
 31
0.0
  0
LINE
  5
5E0
330
1F
100
AcDbEntity
  8
0
 62
     3
100
AcDbLine
 10
105.8693174447857
 20
188.5022188864597
 30
0.0
 11
306.5693174447857
 21
188.5022188864597
 31
0.0
  0
LINE
  5
5E1
330
1F
100
AcDbEntity
  8
0
  6
CENTER
100
AcDbLine
 10
105.7549818690458
 20
191.9022188864596
 30
0.0
 11
306.5693174447857
 21
191.9022188864596
 31
0.0
  0
LINE
  5
5E2
330
1F
100
AcDbEntity
  8
0
 62
     3
100
AcDbLine
 10
105.8693174447857
 20
187.3772188864597
 30
0.0
 11
127.8693174447855
 21
187.3772188864597
 31
0.0
  0
ARC
  5
5E3
330
1F
100
AcDbEntity
  8
0
 62
     3
100
AcDbCircle
 10
306.5693174447857
 20
171.0022188864597
 30
0.0
 40
17.5
100
AcDbArc
 50
0.0
 51
90.0
  0
ARC
  5
5E4
330
1F
100
AcDbEntity
  8
0
  6
CENTER
100
AcDbCircle
 10
306.5693174447857
 20
171.0022188864597
 30
0.0
 40
20.9
100
AcDbArc
 50
0.0
 51
90.0
  0
ARC
  5
5E5
330
1F
100
AcDbEntity
  8
0
 62
     3
100
AcDbCircle
 10
306.5693174447857
 20
171.0022188864597
 30
0.0
 40
24.3
100
AcDbArc
 50
0.0
 51
90.0
  0
LINE
  5
5E6
330
1F
100
AcDbEntity
  8
0
  6
CENTER
100
AcDbLine
 10
120.8693174447857
 20
181.7926658779496
 30
0.0
 11
120.8693174447857
 21
192.9617718949698
 31
0.0
  0
LINE
  5
5E7
330
1F
100
AcDbEntity
  8
0
 62
     3
100
AcDbLine
 10
379.141305490611
 20
149.7022188864597
 30
0.0
 11
379.1413054906105
 21
191.9022188864596
 31
0.0
  0
LINE
  5
5E8
330
1F
100
AcDbEntity
  8
0
 62
     3
100
AcDbLine
 10
385.9413054906107
 20
149.7022188864597
 30
0.0
 11
385.9413054906107
 21
191.9022188864596
 31
0.0
  0
LINE
  5
5E9
330
1F
100
AcDbEntity
  8
0
 62
     3
100
AcDbLine
 10
386.1163054906109
 20
145.3022188864597
 30
0.0
 11
378.9663054906108
 21
145.3022188864597
 31
0.0
  0
LINE
  5
5EA
330
1F
100
AcDbEntity
  8
0
 62
     3
100
AcDbLine
 10
404.4163054906106
 20
152.3022188864597
 30
0.0
 11
385.9413054906107
 21
152.3022188864597
 31
0.0
  0
LINE
  5
5EC
330
1F
100
AcDbEntity
  8
0
 62
     3
100
AcDbLine
 10
379.141305490611
 20
152.3022188864597
 30
0.0
 11
360.6663054906107
 21
152.3022188864597
 31
0.0
  0
LINE
  5
5ED
330
1F
100
AcDbEntity
  8
0
 62
     3
100
AcDbLine
 10
404.4163054906106
 20
171.0522188864597
 30
0.0
 11
385.9413054906107
 21
171.0522188864597
 31
0.0
  0
LINE
  5
5EF
330
1F
100
AcDbEntity
  8
0
 62
     3
100
AcDbLine
 10
379.141305490611
 20
171.0522188864597
 30
0.0
 11
360.6663054906107
 21
171.0522188864597
 31
0.0
  0
LINE
  5
5F1
330
1F
100
AcDbEntity
  8
0
 62
     3
100
AcDbLine
 10
386.5034798902111
 20
145.9272188864597
 30
0.0
 11
386.4163054906107
 21
145.9272188864597
 31
0.0
  0
LINE
  5
5F2
330
1F
100
AcDbEntity
  8
0
100
AcDbLine
 10
386.4163054906107
 20
145.9272188864597
 30
0.0
 11
378.6663054906107
 21
145.9272188864597
 31
0.0
  0
LINE
  5
5F3
330
1F
100
AcDbEntity
  8
0
 62
     3
100
AcDbLine
 10
378.6663054906107
 20
145.9272188864597
 30
0.0
 11
378.5791310910103
 21
145.9272188864597
 31
0.0
  0
LINE
  5
5F4
330
1F
100
AcDbEntity
  8
0
 62
     3
100
AcDbLine
 10
386.1163054906109
 20
149.7022188864597
 30
0.0
 11
378.9663054906108
 21
149.7022188864597
 31
0.0
  0
LINE
  5
5F5
330
1F
100
AcDbEntity
  8
0
 62
     3
100
AcDbLine
 10
386.732435533533
 20
148.9522188864597
 30
0.0
 11
386.4163054906107
 21
148.9522188864597
 31
0.0
  0
LINE
  5
5F6
330
1F
100
AcDbEntity
  8
0
100
AcDbLine
 10
386.4163054906107
 20
148.9522188864597
 30
0.0
 11
378.6663054906107
 21
148.9522188864597
 31
0.0
  0
LINE
  5
5F7
330
1F
100
AcDbEntity
  8
0
 62
     3
100
AcDbLine
 10
378.6663054906107
 20
148.9522188864597
 30
0.0
 11
378.3501754476887
 21
148.9522188864597
 31
0.0
  0
LINE
  5
5F8
330
1F
100
AcDbEntity
  8
0
 62
     3
100
AcDbLine
 10
386.4163054906107
 20
145.9272188864597
 30
0.0
 11
386.1163054906109
 21
145.3022188864597
 31
0.0
  0
LINE
  5
5F9
330
1F
100
AcDbEntity
  8
0
 62
     3
100
AcDbLine
 10
386.4163054906107
 20
148.9522188864597
 30
0.0
 11
386.1163054906109
 21
149.7022188864597
 31
0.0
  0
LINE
  5
5FA
330
1F
100
AcDbEntity
  8
0
 62
     3
100
AcDbLine
 10
378.9663054906108
 20
145.3022188864597
 30
0.0
 11
378.6663054906107
 21
145.9272188864597
 31
0.0
  0
LINE
  5
5FB
330
1F
100
AcDbEntity
  8
0
 62
     3
100
AcDbLine
 10
378.9663054906108
 20
149.7022188864597
 30
0.0
 11
378.6663054906107
 21
148.9522188864597
 31
0.0
  0
LINE
  5
5FC
330
1F
100
AcDbEntity
  8
0
 62
     3
100
AcDbLine
 10
386.732435533533
 20
146.3007294873183
 30
0.0
 11
386.732435533533
 21
148.9522188864597
 31
0.0
  0
LINE
  5
5FD
330
1F
100
AcDbEntity
  8
0
100
AcDbLine
 10
386.274524246889
 20
148.9522188864597
 30
0.0
 11
386.274524246889
 21
146.3007294873183
 31
0.0
  0
ELLIPSE
  5
5FE
330
1F
100
AcDbEntity
  8
0
100
AcDbEllipse
 10
386.5034798902111
 20
146.3007294873183
 30
0.0
 11
-0.0000000000000293
 21
0.3735106008585944
 31
0.0
210
0.0
220
0.0
230
1.0
 40
0.6129829857458404
 41
1.570796326794848
 42
3.141592653706353
  0
ELLIPSE
  5
5FF
330
1F
100
AcDbEntity
  8
0
 62
     3
100
AcDbEllipse
 10
386.5034798902111
 20
146.3007294873183
 30
0.0
 11
0.0000000000000992
 21
0.3735106008585944
 31
0.0
210
0.0
220
0.0
230
1.0
 40
0.6129829857458407
 41
3.141592653706913
 42
4.712388980384851
  0
LINE
  5
600
330
1F
100
AcDbEntity
  8
0
100
AcDbLine
 10
385.4071074781463
 20
148.9522188864597
 30
0.0
 11
385.4071074781463
 21
146.3007294873183
 31
0.0
  0
LINE
  5
601
330
1F
100
AcDbEntity
  8
0
100
AcDbLine
 10
384.7335138145163
 20
148.9522188864597
 30
0.0
 11
384.7335138145163
 21
146.3007294873183
 31
0.0
  0
LINE
  5
602
330
1F
100
AcDbEntity
  8
0
100
AcDbLine
 10
384.2416335459978
 20
148.9522188864597
 30
0.0
 11
384.2416335459978
 21
146.3007294873183
 31
0.0
  0
LINE
  5
603
330
1F
100
AcDbEntity
  8
0
100
AcDbLine
 10
383.5084555654301
 20
148.9522188864597
 30
0.0
 11
383.5084555654301
 21
146.3007294873183
 31
0.0
  0
ELLIPSE
  5
604
330
1F
100
AcDbEntity
  8
0
100
AcDbEllipse
 10
385.0703106463314
 20
146.3007294873183
 30
0.0
 11
0.0
 21
-0.3735106008585944
 31
0.0
210
0.0
220
0.0
230
1.0
 40
0.9017062194238192
 41
4.712388980384688
 42
7.853981633974482
  0
ELLIPSE
  5
605
330
1F
100
AcDbEntity
  8
0
100
AcDbEllipse
 10
383.8750445557138
 20
146.3007294873183
 30
0.0
 11
0.0
 21
-0.3735106008585944
 31
0.0
210
0.0
220
0.0
230
1.0
 40
0.9814687707418398
 41
4.712388980384688
 42
7.853981633974482
  0
LINE
  5
606
330
1F
100
AcDbEntity
  8
0
 62
     3
100
AcDbLine
 10
378.3501754476887
 20
146.3007294873183
 30
0.0
 11
378.3501754476887
 21
148.9522188864597
 31
0.0
  0
LINE
  5
607
330
1F
100
AcDbEntity
  8
0
100
AcDbLine
 10
378.8080867343323
 20
148.9522188864597
 30
0.0
 11
378.8080867343323
 21
146.3007294873183
 31
0.0
  0
ELLIPSE
  5
608
330
1F
100
AcDbEntity
  8
0
100
AcDbEllipse
 10
378.5791310910103
 20
146.3007294873183
 30
0.0
 11
0.0000000000000445
 21
0.3735106008585944
 31
0.0
210
0.0
220
0.0
230
-1.0
 40
0.6129829857458407
 41
1.570796326794823
 42
3.141592653589598
  0
ELLIPSE
  5
609
330
1F
100
AcDbEntity
  8
0
 62
     3
100
AcDbEllipse
 10
378.5791310910103
 20
146.3007294873183
 30
0.0
 11
-0.0000000000000445
 21
0.3735106008585944
 31
0.0
210
0.0
220
0.0
230
-1.0
 40
0.6129829857458407
 41
3.141592653589986
 42
4.712388980384761
  0
LINE
  5
60A
330
1F
100
AcDbEntity
  8
0
100
AcDbLine
 10
379.6755035030754
 20
148.9522188864597
 30
0.0
 11
379.6755035030754
 21
146.3007294873183
 31
0.0
  0
LINE
  5
60B
330
1F
100
AcDbEntity
  8
0
100
AcDbLine
 10
380.3490971667055
 20
148.9522188864597
 30
0.0
 11
380.3490971667055
 21
146.3007294873183
 31
0.0
  0
LINE
  5
60C
330
1F
100
AcDbEntity
  8
0
100
AcDbLine
 10
380.8409774352238
 20
148.9522188864597
 30
0.0
 11
380.8409774352238
 21
146.3007294873183
 31
0.0
  0
LINE
  5
60D
330
1F
100
AcDbEntity
  8
0
100
AcDbLine
 10
381.5741554157916
 20
148.9522188864597
 30
0.0
 11
381.5741554157916
 21
146.3007294873183
 31
0.0
  0
ELLIPSE
  5
60E
330
1F
100
AcDbEntity
  8
0
100
AcDbEllipse
 10
380.0123003348902
 20
146.3007294873183
 30
0.0
 11
0.0
 21
-0.3735106008585944
 31
0.0
210
0.0
220
0.0
230
-1.0
 40
0.9017062194238192
 41
4.712388980384688
 42
7.853981633974482
  0
ELLIPSE
  5
60F
330
1F
100
AcDbEntity
  8
0
100
AcDbEllipse
 10
381.2075664255075
 20
146.3007294873183
 30
0.0
 11
0.0
 21
-0.3735106008585944
 31
0.0
210
0.0
220
0.0
230
-1.0
 40
0.9814687707418398
 41
4.712388980384688
 42
7.853981633974482
  0
LINE
  5
610
330
1F
100
AcDbEntity
  8
0
  6
CENTER
100
AcDbLine
 10
382.5413054906107
 20
200.3353653282562
 30
0.0
 11
382.5413054906107
 21
140.7719831154732
 31
0.0
  0
LINE
  5
611
330
1F
100
AcDbEntity
  8
0
  6
CENTER
100
AcDbLine
 10
371.2913054906107
 20
193.9975813006432
 30
0.0
 11
371.2913054906107
 21
181.1715383903494
 31
0.0
  0
LINE
  5
612
330
1F
100
AcDbEntity
  8
0
  6
CENTER
100
AcDbLine
 10
393.7913054906107
 20
193.9975813006432
 30
0.0
 11
393.7913054906107
 21
181.1715383903494
 31
0.0
  0
LINE
  5
613
330
1F
100
AcDbEntity
  8
0
 62
     3
100
AcDbLine
 10
363.7913054906107
 20
188.5022188864597
 30
0.0
 11
363.7913054906107
 21
187.3772188864597
 31
0.0
  0
LINE
  5
614
330
1F
100
AcDbEntity
  8
0
 62
     3
100
AcDbLine
 10
401.2913054906106
 20
188.5022188864597
 30
0.0
 11
401.2913054906106
 21
187.3772188864597
 31
0.0
  0
LINE
  5
615
330
1F
100
AcDbEntity
  8
0
  6
CENTER
100
AcDbLine
 10
375.6663054906107
 20
153.3022188864597
 30
0.0
 11
375.6663054906107
 21
170.0522188864597
 31
0.0
  0
LINE
  5
616
330
1F
100
AcDbEntity
  8
0
  6
CENTER
100
AcDbLine
 10
364.4163054906107
 20
153.3022188864597
 30
0.0
 11
364.4163054906107
 21
170.0522188864597
 31
0.0
  0
LINE
  5
617
330
1F
100
AcDbEntity
  8
0
  6
CENTER
100
AcDbLine
 10
389.4163054906107
 20
153.3022188864597
 30
0.0
 11
389.4163054906107
 21
170.0522188864597
 31
0.0
  0
LINE
  5
618
330
1F
100
AcDbEntity
  8
0
  6
CENTER
100
AcDbLine
 10
400.6663054906105
 20
153.3022188864597
 30
0.0
 11
400.6663054906105
 21
170.0522188864597
 31
0.0
  0
LINE
  5
619
330
1F
100
AcDbEntity
  8
0
 62
     3
100
AcDbLine
 10
360.6663054906107
 20
152.3022188864597
 30
0.0
 11
360.6663054906107
 21
171.0522188864597
 31
0.0
  0
LINE
  5
61B
330
1F
100
AcDbEntity
  8
0
 62
     3
100
AcDbLine
 10
404.4163054906106
 20
171.0522188864597
 30
0.0
 11
404.4163054906106
 21
152.3022188864597
 31
0.0
  0
LINE
  5
61C
330
1F
100
AcDbEntity
  8
0
  6
CENTER
100
AcDbLine
 10
403.4163054906106
 20
167.3022188864597
 30
0.0
 11
361.6663054906107
 21
167.3022188864597
 31
0.0
  0
LINE
  5
61D
330
1F
100
AcDbEntity
  8
0
  6
CENTER
100
AcDbLine
 10
403.4163054906106
 20
156.0522188864597
 30
0.0
 11
361.6663054906107
 21
156.0522188864597
 31
0.0
  0
CIRCLE
  5
61E
330
1F
100
AcDbEntity
  8
0
 62
     3
100
AcDbCircle
 10
400.6663054906105
 20
156.0522188864597
 30
0.0
 40
0.8125
  0
CIRCLE
  5
61F
330
1F
100
AcDbEntity
  8
0
 62
     3
100
AcDbCircle
 10
400.6663054906105
 20
167.3022188864597
 30
0.0
 40
0.8125
  0
CIRCLE
  5
620
330
1F
100
AcDbEntity
  8
0
 62
     3
100
AcDbCircle
 10
389.4163054906107
 20
167.3022188864597
 30
0.0
 40
0.8125
  0
CIRCLE
  5
621
330
1F
100
AcDbEntity
  8
0
 62
     3
100
AcDbCircle
 10
389.4163054906107
 20
156.0522188864597
 30
0.0
 40
0.8125
  0
CIRCLE
  5
622
330
1F
100
AcDbEntity
  8
0
 62
     3
100
AcDbCircle
 10
375.6663054906107
 20
156.0522188864597
 30
0.0
 40
0.8125
  0
CIRCLE
  5
623
330
1F
100
AcDbEntity
  8
0
 62
     3
100
AcDbCircle
 10
375.6663054906107
 20
167.3022188864597
 30
0.0
 40
0.8125
  0
CIRCLE
  5
624
330
1F
100
AcDbEntity
  8
0
 62
     3
100
AcDbCircle
 10
364.4163054906107
 20
156.0522188864597
 30
0.0
 40
0.8125
  0
CIRCLE
  5
625
330
1F
100
AcDbEntity
  8
0
 62
     3
100
AcDbCircle
 10
364.4163054906107
 20
167.3022188864597
 30
0.0
 40
0.8125
  0
LINE
  5
626
330
1F
100
AcDbEntity
  8
0
  6
CENTER
100
AcDbLine
 10
139.9758947986358
 20
119.7693483292912
 30
0.0
 11
98.22151231260288
 21
119.7693483292911
 31
0.0
  0
LINE
  5
628
330
1F
100
AcDbEntity
  8
0
 62
     3
100
AcDbLine
 10
113.8693174447855
 20
101.0193483292912
 30
0.0
 11
105.8693174447857
 21
101.0193483292912
 31
0.0
  0
LINE
  5
62B
330
1F
100
AcDbEntity
  8
0
 62
     3
100
AcDbLine
 10
113.8693174447858
 20
138.5193483292912
 30
0.0
 11
105.8693174447857
 21
138.5193483292912
 31
0.0
  0
LINE
  5
62C
330
1F
100
AcDbEntity
  8
0
 62
     3
100
AcDbLine
 10
134.649446688475
 20
116.3693483292912
 30
0.0
 11
127.8693174447855
 21
116.3693483292911
 31
0.0
  0
LINE
  5
62D
330
1F
100
AcDbEntity
  8
0
 62
     3
100
AcDbLine
 10
134.649446688475
 20
123.1693483292913
 30
0.0
 11
127.8693174447855
 21
123.1693483292912
 31
0.0
  0
LINE
  5
62E
330
1F
100
AcDbEntity
  8
0
  6
CENTER
100
AcDbLine
 10
109.8693174447854
 20
140.1782151777563
 30
0.0
 11
109.8693174447854
 21
99.36048148082615
 31
0.0
  0
ARC
  5
62F
330
1F
100
AcDbEntity
  8
0
 62
     3
100
AcDbCircle
 10
117.8693174447855
 20
119.7693483292911
 30
0.0
 40
1.4375
100
AcDbArc
 50
90.0
 51
270.0
  0
ARC
  5
630
330
1F
100
AcDbEntity
  8
0
 62
     3
100
AcDbCircle
 10
132.8644466884751
 20
121.4693483292911
 30
0.0
 40
2.465000000000036
100
AcDbArc
 50
316.3971810272898
 51
43.60281897271014
  0
ARC
  5
631
330
1F
100
AcDbEntity
  8
0
 62
     3
100
AcDbCircle
 10
136.4344466884749
 20
121.4693483292913
 30
0.0
 40
2.465000000000036
100
AcDbArc
 50
136.3971810272898
 51
223.6028189727101
  0
ARC
  5
632
330
1F
100
AcDbEntity
  8
0
 62
     3
100
AcDbCircle
 10
132.8644466884751
 20
118.0693483292912
 30
0.0
 40
2.465000000000036
100
AcDbArc
 50
316.3971810272898
 51
43.60281897271014
  0
LINE
  5
633
330
1F
100
AcDbEntity
  8
0
 62
     3
100
AcDbLine
 10
363.7913054906107
 20
188.5022188864597
 30
0.0
 11
379.1413054906105
 21
188.5022188864597
 31
0.0
  0
LINE
  5
634
330
1F
100
AcDbEntity
  8
0
 62
     3
100
AcDbLine
 10
385.9413054906107
 20
188.5022188864597
 30
0.0
 11
401.2913054906106
 21
188.5022188864597
 31
0.0
  0
LINE
  5
635
330
1F
100
AcDbEntity
  8
0
 62
     3
100
AcDbLine
 10
363.7913054906107
 20
187.3772188864597
 30
0.0
 11
379.1413054906105
 21
187.3772188864597
 31
0.0
  0
LINE
  5
636
330
1F
100
AcDbEntity
  8
0
 62
     3
100
AcDbLine
 10
385.9413054906107
 20
187.3772188864597
 30
0.0
 11
401.2913054906106
 21
187.3772188864597
 31
0.0
  0
ARC
  5
637
330
1F
100
AcDbEntity
  8
0
 62
     3
100
AcDbCircle
 10
382.5413054906107
 20
191.9022188864596
 30
0.0
 40
3.400000000000013
100
AcDbArc
 50
0.0
 51
180.0
  0
LINE
  5
638
330
1F
100
AcDbEntity
  8
0
  6
CENTER
100
AcDbLine
 10
374.1081590488142
 20
191.9022188864596
 30
0.0
 11
390.9744519324071
 21
191.9022188864596
 31
0.0
  0
ARC
  5
639
330
1F
100
AcDbEntity
  8
0
  6
HIDDEN
 62
     2
370
    13
100
AcDbCircle
 10
382.5413054906107
 20
191.9022188864596
 30
0.0
 40
3.399999999138
100
AcDbArc
 50
179.9999999808234
 51
0.0000000191765565
  0
ARC
  5
63A
330
1F
100
AcDbEntity
  8
0
100
AcDbCircle
 10
132.9386543721694
 20
121.1443483292912
 30
0.0
 40
2.194865679154481
100
AcDbArc
 50
321.2104230943584
 51
38.78957690560483
  0
ARC
  5
63B
330
1F
100
AcDbEntity
  8
0
100
AcDbCircle
 10
136.7946483453089
 20
121.1443483292914
 30
0.0
 40
2.548041433823634
100
AcDbArc
 50
147.3415343925557
 51
212.6584656074803
  0
LINE
  5
663
330
1F
100
AcDbEntity
  8
0
 62
     3
100
AcDbLine
 10
105.8693174447857
 20
138.5193483292912
 30
0.0
 11
105.8693174447857
 21
101.0193483292912
 31
0.0
  0
LINE
  5
665
330
1F
100
AcDbEntity
  8
0
  6
CENTER
100
AcDbLine
 10
117.8693174447855
 20
129.9737817535238
 30
0.0
 11
117.8693174447855
 21
109.5649149050587
 31
0.0
  0
LINE
  5
666
102
{ACAD_REACTORS
330
67E
102
}
330
1F
100
AcDbEntity
  8
0
  6
CENTER
100
AcDbLine
 10
123.8693174447855
 20
129.9737817535238
 30
0.0
 11
123.8693174447855
 21
109.5649149050587
 31
0.0
  0
LINE
  5
668
330
1F
100
AcDbEntity
  8
0
 62
     3
100
AcDbLine
 10
127.8693174447855
 20
126.0193483292909
 30
0.0
 11
127.8693174447855
 21
113.519348329291
 31
0.0
  0
LINE
  5
675
330
1F
100
AcDbEntity
  8
0
  6
CENTER
100
AcDbLine
 10
109.8693174447854
 20
181.7926658779496
 30
0.0
 11
109.8693174447854
 21
192.9617718949698
 31
0.0
  0
LINE
  5
67F
330
1F
100
AcDbEntity
  8
0
  6
CENTER
100
AcDbLine
 10
115.9712344652948
 20
132.7693483292911
 30
0.0
 11
103.7674004242762
 21
132.7693483292911
 31
0.0
  0
CIRCLE
  5
680
330
1F
100
AcDbEntity
  8
0
 62
     3
100
AcDbCircle
 10
109.8693174447854
 20
132.7693483292911
 30
0.0
 40
1.375
  0
LINE
  5
681
330
1F
100
AcDbEntity
  8
0
  6
CENTER
100
AcDbLine
 10
115.9712344652948
 20
128.8943483292911
 30
0.0
 11
103.7674004242762
 21
128.8943483292911
 31
0.0
  0
CIRCLE
  5
682
330
1F
100
AcDbEntity
  8
0
 62
     3
100
AcDbCircle
 10
109.8693174447854
 20
128.8943483292911
 30
0.0
 40
1.375
  0
LINE
  5
683
330
1F
100
AcDbEntity
  8
0
  6
CENTER
100
AcDbLine
 10
115.9712344652948
 20
110.6443483292911
 30
0.0
 11
103.7674004242762
 21
110.6443483292911
 31
0.0
  0
CIRCLE
  5
684
330
1F
100
AcDbEntity
  8
0
 62
     3
100
AcDbCircle
 10
109.8693174447854
 20
110.6443483292911
 30
0.0
 40
1.375
  0
LINE
  5
685
330
1F
100
AcDbEntity
  8
0
  6
CENTER
100
AcDbLine
 10
115.9712344652948
 20
106.7693483292911
 30
0.0
 11
103.7674004242762
 21
106.7693483292911
 31
0.0
  0
CIRCLE
  5
686
330
1F
100
AcDbEntity
  8
0
 62
     3
100
AcDbCircle
 10
109.8693174447854
 20
106.7693483292911
 30
0.0
 40
1.375
  0
ARC
  5
68D
330
1F
100
AcDbEntity
  8
0
 62
     3
100
AcDbCircle
 10
123.8693174447855
 20
119.7693483292911
 30
0.0
 40
1.4375
100
AcDbArc
 50
270.0
 51
90.0
  0
LINE
  5
68E
330
1F
100
AcDbEntity
  8
0
 62
     3
100
AcDbLine
 10
117.8693174447855
 20
121.2068483292911
 30
0.0
 11
123.8693174447855
 21
121.2068483292911
 31
0.0
  0
LINE
  5
68F
330
1F
100
AcDbEntity
  8
0
 62
     3
100
AcDbLine
 10
117.8693174447855
 20
118.3318483292911
 30
0.0
 11
123.8693174447855
 21
118.3318483292911
 31
0.0
  0
LINE
  5
690
330
1F
100
AcDbEntity
  8
0
 62
     3
100
AcDbLine
 10
113.8693174447858
 20
138.5193483292912
 30
0.0
 11
127.8693174447855
 21
126.0193483292909
 31
0.0
  0
LINE
  5
695
330
1F
100
AcDbEntity
  8
0
 62
     3
100
AcDbLine
 10
127.8693174447855
 20
113.519348329291
 30
0.0
 11
113.8693174447855
 21
101.0193483292912
 31
0.0
  0
LINE
  5
6A3
330
1F
100
AcDbEntity
  8
0
  6
HIDDEN
 62
     2
100
AcDbLine
 10
113.8693174447857
 20
123.1693483292912
 30
0.0
 11
113.8693174447857
 21
116.3693483292911
 31
0.0
  0
LINE
  5
6A4
330
1F
100
AcDbEntity
  8
0
  6
HIDDEN
 62
     2
100
AcDbLine
 10
127.8693174447855
 20
123.1693483292912
 30
0.0
 11
113.8693174447857
 21
123.1693483292912
 31
0.0
  0
LINE
  5
6A5
330
1F
100
AcDbEntity
  8
0
  6
HIDDEN
 62
     2
100
AcDbLine
 10
127.8693174447855
 20
116.3693483292911
 30
0.0
 11
113.8693174447857
 21
116.3693483292911
 31
0.0
  0
LINE
  5
6A7
330
1F
100
AcDbEntity
  8
0
 62
     3
100
AcDbLine
 10
286.3491685128466
 20
146.4272188864597
 30
0.0
 11
286.3491685128466
 21
171.0022188864597
 31
0.0
  0
LINE
  5
6A8
330
1F
100
AcDbEntity
  8
0
 62
     3
100
AcDbLine
 10
285.2241685128466
 20
152.0522188864597
 30
0.0
 11
285.2241685128466
 21
170.8022188864597
 31
0.0
  0
LINE
  5
6A9
330
1F
100
AcDbEntity
  8
0
 62
     3
100
AcDbLine
 10
293.1491685128468
 20
149.7022188864597
 30
0.0
 11
293.1491685128468
 21
171.0022188864597
 31
0.0
  0
LINE
  5
6AA
330
1F
100
AcDbEntity
  8
0
 62
     3
100
AcDbLine
 10
293.3241685128465
 20
145.3022188864597
 30
0.0
 11
289.7491685128467
 21
145.3022188864597
 31
0.0
  0
LINE
  5
6AB
330
1F
100
AcDbEntity
  8
0
 62
     3
100
AcDbLine
 10
286.7241685128466
 20
146.0522188864597
 30
0.0
 11
289.7491685128467
 21
146.0522188864597
 31
0.0
  0
LINE
  5
6AC
330
1F
100
AcDbEntity
  8
0
 62
     3
100
AcDbLine
 10
286.3491685128466
 20
146.4272188864597
 30
0.0
 11
286.7241685128466
 21
146.0522188864597
 31
0.0
  0
LINE
  5
6AD
330
1F
100
AcDbEntity
  8
0
 62
     3
100
AcDbLine
 10
286.3491685128466
 20
152.0522188864597
 30
0.0
 11
285.2241685128466
 21
152.0522188864597
 31
0.0
  0
LINE
  5
6AE
330
1F
100
AcDbEntity
  8
0
 62
     3
100
AcDbLine
 10
286.3491685128466
 20
170.8022188864597
 30
0.0
 11
285.2241685128466
 21
170.8022188864597
 31
0.0
  0
LINE
  5
6AF
330
1F
100
AcDbEntity
  8
0
100
AcDbLine
 10
293.6241685128467
 20
145.9272188864597
 30
0.0
 11
289.7491685128467
 21
145.9272188864597
 31
0.0
  0
LINE
  5
6B0
330
1F
100
AcDbEntity
  8
0
 62
     3
100
AcDbLine
 10
293.3241685128465
 20
149.7022188864597
 30
0.0
 11
289.7491685128467
 21
149.7022188864597
 31
0.0
  0
LINE
  5
6B1
330
1F
100
AcDbEntity
  8
0
 62
     3
100
AcDbLine
 10
293.7654774183922
 20
148.9522188864597
 30
0.0
 11
293.6241685128467
 21
148.9522188864597
 31
0.0
  0
LINE
  5
6B2
330
1F
100
AcDbEntity
  8
0
100
AcDbLine
 10
293.6241685128467
 20
148.9522188864597
 30
0.0
 11
289.7491685128467
 21
148.9522188864597
 31
0.0
  0
LINE
  5
6B3
330
1F
100
AcDbEntity
  8
0
  6
CENTER
100
AcDbLine
 10
289.7491685128467
 20
171.0522188864597
 30
0.0
 11
289.7491685128467
 21
140.7719831154732
 31
0.0
  0
LINE
  5
6B4
330
1F
100
AcDbEntity
  8
0
  6
HIDDEN
 62
     2
100
AcDbLine
 10
291.9366685128466
 20
145.9272188864597
 30
0.0
 11
291.9366685128466
 21
149.7022188864597
 31
0.0
  0
LINE
  5
6B5
330
1F
100
AcDbEntity
  8
0
 62
     3
100
AcDbLine
 10
293.6241685128467
 20
145.9272188864597
 30
0.0
 11
293.6241685128467
 21
145.9684408521621
 31
0.0
  0
LINE
  5
6B6
330
1F
100
AcDbEntity
  8
0
 62
     3
100
AcDbLine
 10
293.6241685128467
 20
145.9272188864597
 30
0.0
 11
293.3241685128465
 21
145.3022188864597
 31
0.0
  0
LINE
  5
6B7
330
1F
100
AcDbEntity
  8
0
 62
     3
100
AcDbLine
 10
293.6241685128467
 20
148.9522188864597
 30
0.0
 11
293.3241685128465
 21
149.7022188864597
 31
0.0
  0
LINE
  5
6B8
330
1F
100
AcDbEntity
  8
0
  6
HIDDEN
 62
     2
100
AcDbLine
 10
292.4991685128467
 20
145.3022188864597
 30
0.0
 11
291.9366685128466
 21
145.9272188864597
 31
0.0
  0
LINE
  5
6B9
330
1F
100
AcDbEntity
  8
0
100
AcDbLine
 10
290.7970552013063
 20
148.9522188864597
 30
0.0
 11
290.7970552013063
 21
146.3007294873183
 31
0.0
  0
LINE
  5
6BA
330
1F
100
AcDbEntity
  8
0
100
AcDbLine
 10
290.0500339995889
 20
148.9522188864597
 30
0.0
 11
290.0500339995889
 21
146.3007294873183
 31
0.0
  0
ARC
  5
6BB
330
1F
100
AcDbEntity
  8
0
100
AcDbCircle
 10
290.4235446004474
 20
146.3007294873183
 30
0.0
 40
0.373510600858566
100
AcDbArc
 50
180.0
 51
0.0
  0
LINE
  5
6BC
330
1F
100
AcDbEntity
  8
0
 62
     3
100
AcDbLine
 10
293.7654774183922
 20
146.3007294873183
 30
0.0
 11
293.7654774183922
 21
148.9522188864597
 31
0.0
  0
LINE
  5
6BD
330
1F
100
AcDbEntity
  8
0
100
AcDbLine
 10
293.2453192238842
 20
148.9522188864597
 30
0.0
 11
293.2453192238842
 21
146.3007294873183
 31
0.0
  0
ELLIPSE
  5
6BE
330
1F
100
AcDbEntity
  8
0
100
AcDbEllipse
 10
293.5053983211384
 20
146.3007294873183
 30
0.0
 11
0.0000000000000556
 21
0.3735106008586021
 31
0.0
210
0.0
220
0.0
230
1.0
 40
0.6963098146508815
 41
1.570796326795
 42
3.615840576879738
  0
ELLIPSE
  5
6BF
330
1F
100
AcDbEntity
  8
0
 62
     3
100
AcDbEllipse
 10
293.5053983211384
 20
146.3007294873183
 30
0.0
 11
0.000000000000035
 21
0.3735106008585942
 31
0.0
210
0.0
220
0.0
230
1.0
 40
0.696309814650896
 41
3.615840576879658
 42
4.712388980384755
  0
LINE
  5
6C0
330
1F
100
AcDbEntity
  8
0
100
AcDbLine
 10
293.0925907299326
 20
148.9522188864597
 30
0.0
 11
293.0925907299326
 21
146.3007294873183
 31
0.0
  0
LINE
  5
6C1
330
1F
100
AcDbEntity
  8
0
100
AcDbLine
 10
292.4629277227715
 20
148.9522188864597
 30
0.0
 11
292.4629277227715
 21
146.3007294873183
 31
0.0
  0
ELLIPSE
  5
6C2
330
1F
100
AcDbEntity
  8
0
100
AcDbEllipse
 10
292.777759226352
 20
146.3007294873183
 30
0.0
 11
0.0
 21
-0.3735106008585944
 31
0.0
210
0.0
220
0.0
230
1.0
 40
0.842898442124072
 41
4.712388980384688
 42
7.853981633974482
  0
LINE
  5
6C3
330
1F
100
AcDbEntity
  8
0
 62
     3
100
AcDbLine
 10
286.3491685128466
 20
146.4272188864597
 30
0.0
 11
289.7491685128467
 21
146.4272188864597
 31
0.0
  0
ARC
  5
6C7
330
1F
100
AcDbEntity
  8
0
100
AcDbCircle
 10
113.8693174447857
 20
188.5022188864597
 30
0.0
 40
1.125
100
AcDbArc
 50
90.0
 51
180.0
  0
ARC
  5
6C8
330
1F
100
AcDbEntity
  8
0
100
AcDbCircle
 10
127.8693174447855
 20
188.5022188864597
 30
0.0
 40
1.125
100
AcDbArc
 50
270.0
 51
90.0
  0
LINE
  5
6C9
330
1F
100
AcDbEntity
  8
0
100
AcDbLine
 10
113.8693174447857
 20
189.6272188864596
 30
0.0
 11
127.8693174447855
 21
189.6272188864596
 31
0.0
  0
ARC
  5
6CA
330
1F
100
AcDbEntity
  8
0
100
AcDbCircle
 10
324.0693174447855
 20
170.8022188864597
 30
0.0
 40
1.125
100
AcDbArc
 50
0.0
 51
180.0
  0
ARC
  5
6CB
330
1F
100
AcDbEntity
  8
0
100
AcDbCircle
 10
324.0693174447855
 20
152.0522188864597
 30
0.0
 40
1.125
100
AcDbArc
 50
180.0
 51
0.0
  0
LINE
  5
6CC
330
1F
100
AcDbEntity
  8
0
100
AcDbLine
 10
325.1943174447855
 20
170.8022188864597
 30
0.0
 11
325.1943174447855
 21
152.0522188864597
 31
0.0
  0
TEXT
  5
6CE
330
1F
100
AcDbEntity
  8
0
 62
     3
100
AcDbText
 10
349.1423233635295
 20
38.23671889122056
 30
0.0
 40
2.5
  1
鋼管
  7
高2.5
100
AcDbText
  0
TEXT
  5
6CF
330
1F
100
AcDbEntity
  8
0
 62
     3
100
AcDbText
 10
377.864490968277
 20
37.84851304833523
 30
0.0
 40
2.5
  1
粉体塗装
  7
高2.5
100
AcDbText
  0
LINE
  5
6D0
330
1F
100
AcDbEntity
  8
0
  6
CENTER
100
AcDbLine
 10
120.8693174447857
 20
181.7926658779496
 30
0.0
 11
120.8693174447857
 21
192.9617718949698
 31
0.0
  0
TEXT
  5
6D1
330
1F
100
AcDbEntity
  8
0
100
AcDbText
 10
438.6471807951827
 20
40.10174664513215
 30
0.0
 40
3.2
  1
I
  7
高3.2
100
AcDbText
  0
TEXT
  5
6D2
330
1F
100
AcDbEntity
  8
0
 62
     3
100
AcDbText
 10
82.78669326580155
 20
38.23671889122056
 30
0.0
 40
2.5
  1
注）溶接部は1周する事。(別途打合せ)
  7
高2.5
100
AcDbText
  0
TEXT
  5
6DD
330
1F
100
AcDbEntity
  8
0
 62
     3
100
AcDbText
 10
433.1989264191346
 20
283.7049113634554
 30
0.0
 40
3.2
  1
担　当
  7
高3.2
100
AcDbText
  0
TEXT
  5
6DE
330
1F
100
AcDbEntity
  8
0
 62
     3
100
AcDbText
 10
389.1989264191346
 20
283.7049113634554
 30
0.0
 40
3.2
  1
変更・追記内容
  7
高3.2
100
AcDbText
  0
TEXT
  5
6DF
330
1F
100
AcDbEntity
  8
0
 62
     3
100
AcDbText
 10
364.3124414194739
 20
279.0343728535471
 30
0.0
 40
2.0
  1
1
  7
高2
100
AcDbText
  0
TEXT
  5
6E0
330
1F
100
AcDbEntity
  8
0
 62
     3
100
AcDbText
 10
364.0039299427166
 20
273.8645561412742
 30
0.0
 40
2.0
  1
2
  7
高2
100
AcDbText
  0
TEXT
  5
6E1
330
1F
100
AcDbEntity
  8
0
 62
     3
100
AcDbText
 10
371.1989264191347
 20
283.7049113634554
 30
0.0
 40
3.2
  1
日　付
  7
高3.2
100
AcDbText
  0
TEXT
  5
6E2
330
1F
100
AcDbEntity
  8
0
 62
     3
100
AcDbText
 10
371.1989264191347
 20
288.7049113634554
 30
0.0
 40
3.2
  1
図　　　　面　　　　略　　　　歴
  7
高3.2
100
AcDbText
  0
TEXT
  5
6E3
330
1F
100
AcDbEntity
  8
0
 62
     3
100
AcDbText
 10
361.1989264191346
 20
283.7049113634554
 30
0.0
 40
3.2
  1
記号
  7
高3.2
100
AcDbText
  0
LINE
  5
6E4
330
1F
100
AcDbEntity
  8
0
 62
     7
100
AcDbLine
 10
364.6989264191347
 20
276.9958073634555
 30
0.0
 11
362.7989264191346
 21
273.7049113634554
 31
0.0
  0
LINE
  5
6E5
330
1F
100
AcDbEntity
  8
0
 62
     7
100
AcDbLine
 10
364.6989264191347
 20
276.9958073634555
 30
0.0
 11
366.5989264191343
 21
273.7049113634554
 31
0.0
  0
LINE
  5
6E6
330
1F
100
AcDbEntity
  8
0
 62
     7
100
AcDbLine
 10
362.7989264191346
 20
273.7049113634554
 30
0.0
 11
366.5989264191343
 21
273.7049113634554
 31
0.0
  0
LINE
  5
6E7
330
1F
100
AcDbEntity
  8
0
 62
     7
100
AcDbLine
 10
364.6989264191347
 20
281.9958083634555
 30
0.0
 11
362.7989264191346
 21
278.7049113634554
 31
0.0
  0
LINE
  5
6E8
330
1F
100
AcDbEntity
  8
0
 62
     7
100
AcDbLine
 10
364.6989264191347
 20
281.9958083634555
 30
0.0
 11
366.5989264191343
 21
278.7049113634554
 31
0.0
  0
LINE
  5
6E9
330
1F
100
AcDbEntity
  8
0
 62
     7
100
AcDbLine
 10
362.7989264191346
 20
278.7049113634554
 30
0.0
 11
366.5989264191343
 21
278.7049113634554
 31
0.0
  0
LINE
  5
6EA
330
1F
100
AcDbEntity
  8
0
 62
     3
100
AcDbLine
 10
359.6989264191346
 20
288.2049113634554
 30
0.0
 11
445.6989264191346
 21
288.2049113634554
 31
0.0
  0
LINE
  5
6EB
330
1F
100
AcDbEntity
  8
0
 62
     3
100
AcDbLine
 10
359.6989264191346
 20
283.2049113634554
 30
0.0
 11
445.6989264191346
 21
283.2049113634554
 31
0.0
  0
LINE
  5
6EC
330
1F
100
AcDbEntity
  8
0
 62
     7
100
AcDbLine
 10
359.6989264191346
 20
278.2049113634554
 30
0.0
 11
445.6989264191346
 21
278.2049113634554
 31
0.0
  0
LINE
  5
6ED
330
1F
100
AcDbEntity
  8
0
 62
     3
100
AcDbLine
 10
359.6989264191346
 20
273.2049113634554
 30
0.0
 11
445.6989264191346
 21
273.2049113634554
 31
0.0
  0
LINE
  5
6EE
330
1F
100
AcDbEntity
  8
0
 62
     7
100
AcDbLine
 10
431.6989264191343
 20
273.2049113634553
 30
0.0
 11
431.6989264191345
 21
288.2049113634554
 31
0.0
  0
LINE
  5
6EF
330
1F
100
AcDbEntity
  8
0
 62
     7
100
AcDbLine
 10
387.6989264191347
 20
273.2049113634553
 30
0.0
 11
387.6989264191347
 21
288.2049113634554
 31
0.0
  0
LINE
  5
6F0
330
1F
100
AcDbEntity
  8
0
 62
     7
100
AcDbLine
 10
369.6989264191346
 20
273.2049113634553
 30
0.0
 11
369.6989264191346
 21
288.2049113634554
 31
0.0
  0
LINE
  5
6F1
330
1F
100
AcDbEntity
  8
0
 62
     3
100
AcDbLine
 10
359.6989264191346
 20
273.2049113634554
 30
0.0
 11
359.6989264191346
 21
293.2049113634554
 31
0.0
  0
TEXT
  5
E4E
330
1F
100
AcDbEntity
  8
0
 62
     4
100
AcDbText
 10
373.9795279738288
 20
82.43628753967682
 30
0.0
 40
4.5
  1
質量：2.4kg
  7
高4.5
100
AcDbText
  0
LINE
  5
10B0
330
1F
100
AcDbEntity
  8
0
 62
     3
100
AcDbLine
 10
419.9995629391342
 20
58.87063389345536
 30
0.0
 11
419.9995629391345
 21
64.87063389345542
 31
0.0
  0
LINE
  5
10B3
330
1F
100
AcDbEntity
  8
0
 62
     3
100
AcDbLine
 10
393.999562939135
 20
58.87063389345536
 30
0.0
 11
393.999562939135
 21
64.87063389345542
 31
0.0
  0
TEXT
  5
1B31
330
1F
100
AcDbEntity
  8
0
 62
     4
100
AcDbText
 10
68.65875693815394
 20
204.0482286936997
 30
0.0
 40
3.0
  1
この面、穴なし
100
AcDbText
1001
ACAD
1000
MTEXTBEGIN
1070
    73
1070
     1
1070
    44
1040
1.0
1070
    74
1070
     0
1000
MTEXTEND
  0
TEXT
  5
1B34
330
1F
100
AcDbEntity
  8
0
 62
     4
100
AcDbText
 10
132.3248247523355
 20
100.4822596997539
 30
0.0
 40
3.0
  1
12x36長穴
100
AcDbText
1001
ACAD
1000
MTEXTBEGIN
1070
    73
1070
     1
1070
    44
1040
1.0
1070
    74
1070
     0
1000
MTEXTEND
  0
TEXT
  5
1B35
330
1F
100
AcDbEntity
  8
0
 62
     4
100
AcDbText
 10
132.3248247523355
 20
95.48225969975391
 30
0.0
 40
3.0
  1
(板金およびパイプ)
100
AcDbText
1001
ACAD
1000
MTEXTBEGIN
1070
    73
1070
     1
1070
    44
1040
1.0
1070
    74
1070
     0
1000
MTEXTEND
  0
TEXT
  5
1B38
330
1F
100
AcDbEntity
  8
0
 62
     4
100
AcDbText
 10
301.324995622049
 20
122.4973635198942
 30
0.0
 40
3.0
  1
サンピーキャップ
100
AcDbText
1001
ACAD
1000
MTEXTBEGIN
1070
    73
1070
     1
1070
    44
1040
1.0
1070
    74
1070
     0
1000
MTEXTEND
  0
TEXT
  5
1B39
330
1F
100
AcDbEntity
  8
0
 62
     4
100
AcDbText
 10
301.124995622049
 20
117.4973635198942
 30
0.0
 40
3.0
  1
ウ25ミリ
100
AcDbText
1001
ACAD
1000
MTEXTBEGIN
1070
    73
1070
     1
1070
    44
1040
1.0
1070
    74
1070
     0
1000
MTEXTEND
  0
TEXT
  5
1B3C
330
1F
100
AcDbEntity
  8
0
 62
     4
100
AcDbText
 10
271.770463784111
 20
132.3573976342077
 30
0.0
 40
3.0
  1
C1.5
 50
44.99999999999997
100
AcDbText
1001
ACAD
1000
MTEXTBEGIN
1070
    73
1070
     1
1070
    44
1040
1.0
1070
    74
1070
     0
1000
MTEXTEND
  0
LINE
  5
1B3F
330
1F
100
AcDbEntity
  8
0
100
AcDbLine
 10
286.4741685128466
 20
146.0522188864597
 30
0.0
 11
279.4964251029248
 21
146.0522188864597
 31
0.0
  0
LINE
  5
1B40
330
1F
100
AcDbEntity
  8
0
100
AcDbLine
 10
284.9741685128466
 20
152.0522188864597
 30
0.0
 11
279.4964251029248
 21
152.0522188864597
 31
0.0
  0
LINE
  5
1B41
330
1F
100
AcDbEntity
  8
0
100
AcDbLine
 10
280.7464251029248
 20
143.5522188864597
 30
0.0
 11
280.7464251029248
 21
141.0522188864597
 31
0.0
  0
LINE
  5
1B42
330
1F
100
AcDbEntity
  8
0
100
AcDbLine
 10
280.7464251029248
 20
154.5522188864597
 30
0.0
 11
280.7464251029248
 21
163.30221888646
 31
0.0
  0
LINE
  5
1B43
330
1F
100
AcDbEntity
  8
0
100
AcDbLine
 10
280.7464251029248
 20
146.0522188864597
 30
0.0
 11
280.7464251029248
 21
152.0522188864597
 31
0.0
  0
LINE
  5
1B47
330
1F
100
AcDbEntity
  8
0
100
AcDbLine
 10
128.1193174447855
 20
126.0193483292912
 30
0.0
 11
135.5515895863704
 21
126.0193483292912
 31
0.0
  0
LINE
  5
1B48
330
1F
100
AcDbEntity
  8
0
100
AcDbLine
 10
128.1193174447855
 20
113.5193483292912
 30
0.0
 11
135.5515895863704
 21
113.5193483292912
 31
0.0
  0
LINE
  5
1B49
330
1F
100
AcDbEntity
  8
0
100
AcDbLine
 10
134.3015895863704
 20
111.0193483292912
 30
0.0
 11
134.3015895863704
 21
108.5193483292912
 31
0.0
  0
LINE
  5
1B4A
330
1F
100
AcDbEntity
  8
0
100
AcDbLine
 10
134.3015895863704
 20
128.5193483292912
 30
0.0
 11
134.3015895863704
 21
136.7693483292914
 31
0.0
  0
LINE
  5
1B4B
330
1F
100
AcDbEntity
  8
0
100
AcDbLine
 10
134.3015895863704
 20
113.5193483292912
 30
0.0
 11
134.3015895863704
 21
126.0193483292912
 31
0.0
  0
LINE
  5
1B4F
330
1F
100
AcDbEntity
  8
0
100
AcDbLine
 10
113.8693174447857
 20
100.7693483292912
 30
0.0
 11
113.8693174447857
 21
92.07182799082046
 31
0.0
  0
LINE
  5
1B50
330
1F
100
AcDbEntity
  8
0
100
AcDbLine
 10
105.8693174447857
 20
100.7693483292912
 30
0.0
 11
105.8693174447857
 21
92.07182799082046
 31
0.0
  0
LINE
  5
1B51
330
1F
100
AcDbEntity
  8
0
100
AcDbLine
 10
111.3693174447857
 20
93.32182799082046
 30
0.0
 11
108.3693174447857
 21
93.32182799082046
 31
0.0
  0
LINE
  5
1B55
330
1F
100
AcDbEntity
  8
0
100
AcDbLine
 10
123.8693174447855
 20
130.2237817535238
 30
0.0
 11
123.8693174447855
 21
144.0285652667212
 31
0.0
  0
LINE
  5
1B56
330
1F
100
AcDbEntity
  8
0
100
AcDbLine
 10
117.8693174447855
 20
130.2237817535238
 30
0.0
 11
117.8693174447855
 21
144.0285652667212
 31
0.0
  0
LINE
  5
1B57
330
1F
100
AcDbEntity
  8
0
100
AcDbLine
 10
115.3693174447855
 20
142.7785652667212
 30
0.0
 11
112.8693174447855
 21
142.7785652667212
 31
0.0
  0
LINE
  5
1B58
330
1F
100
AcDbEntity
  8
0
100
AcDbLine
 10
126.3693174447855
 20
142.7785652667212
 30
0.0
 11
135.1193174447855
 21
142.7785652667212
 31
0.0
  0
LINE
  5
1B59
330
1F
100
AcDbEntity
  8
0
100
AcDbLine
 10
117.8693174447855
 20
142.7785652667212
 30
0.0
 11
123.8693174447855
 21
142.7785652667212
 31
0.0
  0
LINE
  5
1B5D
330
1F
100
AcDbEntity
  8
0
100
AcDbLine
 10
111.8930281562339
 20
110.0739239384078
 30
0.0
 11
113.1986479700716
 21
112.205908202354
 31
0.0
  0
LINE
  5
1B5E
330
1F
100
AcDbEntity
  8
0
100
AcDbLine
 10
107.845606733337
 20
103.4647727201744
 30
0.0
 11
96.06891601252101
 21
84.23427465937924
 31
0.0
  0
LINE
  5
1B5F
330
1F
100
AcDbEntity
  8
0
100
AcDbLine
 10
110.5874083423962
 20
107.9419396744616
 30
0.0
 11
109.1512265471747
 21
105.5967569841206
 31
0.0
  0
LINE
  5
1B63
330
1F
100
AcDbEntity
  8
0
100
AcDbLine
 10
103.5174004242762
 20
132.7693483292911
 30
0.0
 11
89.33748159706958
 21
132.7693483292911
 31
0.0
  0
LINE
  5
1B64
330
1F
100
AcDbEntity
  8
0
100
AcDbLine
 10
103.5174004242762
 20
106.7693483292911
 30
0.0
 11
89.33748159706958
 21
106.7693483292911
 31
0.0
  0
LINE
  5
1B65
330
1F
100
AcDbEntity
  8
0
100
AcDbLine
 10
90.58748159706958
 20
130.2693483292911
 30
0.0
 11
90.58748159706958
 21
109.2693483292911
 31
0.0
  0
LINE
  5
1B69
330
1F
100
AcDbEntity
  8
0
100
AcDbLine
 10
109.8693174447854
 20
140.4282151777563
 30
0.0
 11
109.8693174447854
 21
144.0285652667212
 31
0.0
  0
LINE
  5
1B6A
330
1F
100
AcDbEntity
  8
0
100
AcDbLine
 10
117.8693174447855
 20
130.2237817535238
 30
0.0
 11
117.8693174447855
 21
144.0285652667212
 31
0.0
  0
LINE
  5
1B6B
330
1F
100
AcDbEntity
  8
0
100
AcDbLine
 10
112.3693174447854
 20
142.7785652667212
 30
0.0
 11
115.3693174447855
 21
142.7785652667212
 31
0.0
  0
LINE
  5
1B6F
330
1F
100
AcDbEntity
  8
0
100
AcDbLine
 10
316.0885395140048
 20
167.0522188864597
 30
0.0
 11
307.0336252781913
 21
167.0522188864597
 31
0.0
  0
LINE
  5
1B70
330
1F
100
AcDbEntity
  8
0
100
AcDbLine
 10
128.1193174447855
 20
187.3772188864597
 30
0.0
 11
309.5336252781913
 21
187.3772188864597
 31
0.0
  0
LINE
  5
1B71
330
1F
100
AcDbEntity
  8
0
100
AcDbLine
 10
308.2836252781913
 20
169.5522188864597
 30
0.0
 11
308.2836252781913
 21
184.8772188864596
 31
0.0
  0
LINE
  5
1B75
330
1F
100
AcDbEntity
  8
0
100
AcDbLine
 10
398.7305299482143
 20
164.6142030197912
 30
0.0
 11
397.2695672747077
 21
162.5855117996642
 31
0.0
  0
LINE
  5
1B76
330
1F
100
AcDbEntity
  8
0
100
AcDbLine
 10
402.6020810330069
 20
169.9902347531281
 30
0.0
 11
416.3643494174391
 21
189.1005060467244
 31
0.0
  0
LINE
  5
1B77
330
1F
100
AcDbEntity
  8
0
100
AcDbLine
 10
400.1914926217209
 20
166.6428942399182
 30
0.0
 11
401.1411183595003
 21
167.961543533001
 31
0.0
  0
LINE
  5
1B7B
330
1F
100
AcDbEntity
  8
0
100
AcDbLine
 10
109.8693174447854
 20
140.4282151777563
 30
0.0
 11
109.8693174447854
 21
144.0285652667212
 31
0.0
  0
LINE
  5
1B7C
330
1F
100
AcDbEntity
  8
0
100
AcDbLine
 10
105.8693174447857
 20
138.7693483292912
 30
0.0
 11
105.8693174447857
 21
144.0285652667212
 31
0.0
  0
LINE
  5
1B7D
330
1F
100
AcDbEntity
  8
0
100
AcDbLine
 10
112.3693174447854
 20
142.7785652667212
 30
0.0
 11
114.8693174447854
 21
142.7785652667212
 31
0.0
  0
LINE
  5
1B7E
330
1F
100
AcDbEntity
  8
0
100
AcDbLine
 10
103.3693174447857
 20
142.7785652667212
 30
0.0
 11
95.6193174447857
 21
142.7785652667212
 31
0.0
  0
LINE
  5
1B7F
330
1F
100
AcDbEntity
  8
0
100
AcDbLine
 10
109.8693174447854
 20
142.7785652667212
 30
0.0
 11
105.8693174447857
 21
142.7785652667212
 31
0.0
  0
LINE
  5
1B83
330
1F
100
AcDbEntity
  8
0
100
AcDbLine
 10
105.8693174447857
 20
187.1272188864597
 30
0.0
 11
105.8693174447857
 21
175.0227812333833
 31
0.0
  0
LINE
  5
1B84
330
1F
100
AcDbEntity
  8
0
100
AcDbLine
 10
113.8693174447857
 20
188.2522188864597
 30
0.0
 11
113.8693174447857
 21
175.0227812333833
 31
0.0
  0
LINE
  5
1B85
330
1F
100
AcDbEntity
  8
0
100
AcDbLine
 10
108.3693174447857
 20
176.2727812333833
 30
0.0
 11
111.3693174447857
 21
176.2727812333833
 31
0.0
  0
LINE
  5
1B89
330
1F
100
AcDbEntity
  8
0
100
AcDbLine
 10
105.8693174447857
 20
138.7693483292912
 30
0.0
 11
105.8693174447857
 21
154.536986013313
 31
0.0
  0
LINE
  5
1B8A
330
1F
100
AcDbEntity
  8
0
100
AcDbLine
 10
127.8693174447855
 20
126.2693483292912
 30
0.0
 11
127.8693174447855
 21
154.536986013313
 31
0.0
  0
LINE
  5
1B8B
330
1F
100
AcDbEntity
  8
0
100
AcDbLine
 10
108.3693174447857
 20
153.286986013313
 30
0.0
 11
125.3693174447855
 21
153.286986013313
 31
0.0
  0
LINE
  5
1B8F
330
1F
100
AcDbEntity
  8
0
100
AcDbLine
 10
404.4163054906106
 20
152.0522188864597
 30
0.0
 11
404.4163054906106
 21
125.1612822412992
 31
0.0
  0
LINE
  5
1B90
330
1F
100
AcDbEntity
  8
0
100
AcDbLine
 10
360.6663054906107
 20
152.1494083198696
 30
0.0
 11
360.6663054906107
 21
125.1612822412992
 31
0.0
  0
LINE
  5
1B91
330
1F
100
AcDbEntity
  8
0
100
AcDbLine
 10
401.9163054906107
 20
126.4112822412992
 30
0.0
 11
363.1663054906107
 21
126.4112822412992
 31
0.0
  0
LINE
  5
1B95
330
1F
100
AcDbEntity
  8
0
100
AcDbLine
 10
375.6663054906107
 20
153.0522188864597
 30
0.0
 11
375.6663054906107
 21
132.8108709505801
 31
0.0
  0
LINE
  5
1B96
330
1F
100
AcDbEntity
  8
0
100
AcDbLine
 10
364.4163054906107
 20
153.0522188864597
 30
0.0
 11
364.4163054906107
 21
132.8108709505801
 31
0.0
  0
LINE
  5
1B97
330
1F
100
AcDbEntity
  8
0
100
AcDbLine
 10
373.1663054906107
 20
134.0608709505801
 30
0.0
 11
366.9163054906107
 21
134.0608709505801
 31
0.0
  0
LINE
  5
1B9B
330
1F
100
AcDbEntity
  8
0
100
AcDbLine
 10
400.6663054906105
 20
153.0522188864597
 30
0.0
 11
400.6663054906105
 21
132.8108709505802
 31
0.0
  0
LINE
  5
1B9C
330
1F
100
AcDbEntity
  8
0
100
AcDbLine
 10
389.4163054906107
 20
153.0522188864597
 30
0.0
 11
389.4163054906107
 21
132.8108709505802
 31
0.0
  0
LINE
  5
1B9D
330
1F
100
AcDbEntity
  8
0
100
AcDbLine
 10
398.1663054906105
 20
134.0608709505802
 30
0.0
 11
391.9163054906107
 21
134.0608709505802
 31
0.0
  0
LINE
  5
1BA1
330
1F
100
AcDbEntity
  8
0
100
AcDbLine
 10
389.4163054906107
 20
153.0522188864597
 30
0.0
 11
389.4163054906107
 21
132.8108709505803
 31
0.0
  0
LINE
  5
1BA2
330
1F
100
AcDbEntity
  8
0
100
AcDbLine
 10
375.6663054906107
 20
153.0522188864597
 30
0.0
 11
375.6663054906107
 21
132.8108709505803
 31
0.0
  0
LINE
  5
1BA3
330
1F
100
AcDbEntity
  8
0
100
AcDbLine
 10
386.9163054906107
 20
134.0608709505803
 30
0.0
 11
378.1663054906107
 21
134.0608709505803
 31
0.0
  0
LINE
  5
1BA7
330
1F
100
AcDbEntity
  8
0
100
AcDbLine
 10
329.6568174447856
 20
145.6772188864596
 30
0.0
 11
329.6568174447856
 21
129.828170202256
 31
0.0
  0
LINE
  5
1BA8
330
1F
100
AcDbEntity
  8
0
100
AcDbLine
 10
325.2818174447856
 20
145.6772188864596
 30
0.0
 11
325.2818174447856
 21
129.828170202256
 31
0.0
  0
LINE
  5
1BA9
330
1F
100
AcDbEntity
  8
0
100
AcDbLine
 10
322.7818174447856
 20
131.078170202256
 30
0.0
 11
320.2818174447856
 21
131.078170202256
 31
0.0
  0
LINE
  5
1BAA
330
1F
100
AcDbEntity
  8
0
100
AcDbLine
 10
332.1568174447856
 20
131.078170202256
 30
0.0
 11
350.9068174447856
 21
131.078170202256
 31
0.0
  0
LINE
  5
1BAB
330
1F
100
AcDbEntity
  8
0
100
AcDbLine
 10
325.2818174447856
 20
131.078170202256
 30
0.0
 11
329.6568174447856
 21
131.078170202256
 31
0.0
  0
LINE
  5
1BAF
330
1F
100
AcDbEntity
  8
0
100
AcDbLine
 10
105.6193174447857
 20
138.5193483292912
 30
0.0
 11
82.56989043771538
 21
138.5193483292912
 31
0.0
  0
LINE
  5
1BB0
330
1F
100
AcDbEntity
  8
0
100
AcDbLine
 10
105.6193174447857
 20
101.0193483292912
 30
0.0
 11
82.56989043771538
 21
101.0193483292912
 31
0.0
  0
LINE
  5
1BB1
330
1F
100
AcDbEntity
  8
0
100
AcDbLine
 10
83.81989043771538
 20
136.0193483292912
 30
0.0
 11
83.81989043771538
 21
103.5193483292912
 31
0.0
  0
LINE
  5
1BB5
330
1F
100
AcDbEntity
  8
0
100
AcDbLine
 10
103.5174004242762
 20
110.6443483292911
 30
0.0
 11
94.0051581793913
 21
110.6443483292911
 31
0.0
  0
LINE
  5
1BB6
330
1F
100
AcDbEntity
  8
0
100
AcDbLine
 10
103.5174004242762
 20
128.8943483292911
 30
0.0
 11
94.0051581793913
 21
128.8943483292911
 31
0.0
  0
LINE
  5
1BB7
330
1F
100
AcDbEntity
  8
0
100
AcDbLine
 10
95.2551581793913
 20
113.1443483292911
 30
0.0
 11
95.2551581793913
 21
126.3943483292911
 31
0.0
  0
LINE
  5
1BBB
330
1F
100
AcDbEntity
  8
0
100
AcDbLine
 10
324.0693174447855
 20
152.3022188864597
 30
0.0
 11
324.0693174447855
 21
155.3963124639333
 31
0.0
  0
LINE
  5
1BBC
330
1F
100
AcDbEntity
  8
0
100
AcDbLine
 10
322.9443174447855
 20
152.3022188864597
 30
0.0
 11
322.9443174447855
 21
155.3963124639333
 31
0.0
  0
LINE
  5
1BBD
330
1F
100
AcDbEntity
  8
0
100
AcDbLine
 10
326.5693174447855
 20
154.1463124639333
 30
0.0
 11
329.0693174447855
 21
154.1463124639333
 31
0.0
  0
LINE
  5
1BBE
330
1F
100
AcDbEntity
  8
0
100
AcDbLine
 10
320.4443174447855
 20
154.1463124639333
 30
0.0
 11
301.5189903925478
 21
154.1463124639333
 31
0.0
  0
LINE
  5
1BBF
330
1F
100
AcDbEntity
  8
0
100
AcDbLine
 10
324.0693174447855
 20
154.1463124639333
 30
0.0
 11
322.9443174447855
 21
154.1463124639333
 31
0.0
  0
LINE
  5
1BC3
330
1F
100
AcDbEntity
  8
0
100
AcDbLine
 10
201.9693174447856
 20
188.5022188864597
 30
0.0
 11
189.234766371451
 21
188.5022188864597
 31
0.0
  0
LINE
  5
1BC4
330
1F
100
AcDbEntity
  8
0
100
AcDbLine
 10
205.9693174447856
 20
195.3022188864597
 30
0.0
 11
189.234766371451
 21
195.3022188864597
 31
0.0
  0
LINE
  5
1BC5
330
1F
100
AcDbEntity
  8
0
100
AcDbLine
 10
190.484766371451
 20
197.8022188864597
 30
0.0
 11
190.484766371451
 21
200.3022188864597
 31
0.0
  0
LINE
  5
1BC6
330
1F
100
AcDbEntity
  8
0
100
AcDbLine
 10
190.484766371451
 20
186.0022188864597
 30
0.0
 11
190.484766371451
 21
147.4522188864597
 31
0.0
  0
LINE
  5
1BC7
330
1F
100
AcDbEntity
  8
0
100
AcDbLine
 10
190.484766371451
 20
195.3022188864597
 30
0.0
 11
190.484766371451
 21
188.5022188864597
 31
0.0
  0
LINE
  5
1BCB
330
1F
100
AcDbEntity
  8
0
100
AcDbLine
 10
105.6193174447857
 20
188.5022188864597
 30
0.0
 11
92.95708173165435
 21
188.5022188864597
 31
0.0
  0
LINE
  5
1BCC
330
1F
100
AcDbEntity
  8
0
100
AcDbLine
 10
105.6193174447857
 20
187.3772188864597
 30
0.0
 11
92.95708173165435
 21
187.3772188864597
 31
0.0
  0
LINE
  5
1BCD
330
1F
100
AcDbEntity
  8
0
100
AcDbLine
 10
94.20708173165435
 20
191.0022188864597
 30
0.0
 11
94.20708173165435
 21
193.5022188864597
 31
0.0
  0
LINE
  5
1BCE
330
1F
100
AcDbEntity
  8
0
100
AcDbLine
 10
94.20708173165435
 20
184.8772188864597
 30
0.0
 11
94.20708173165435
 21
168.6272188864599
 31
0.0
  0
LINE
  5
1BCF
330
1F
100
AcDbEntity
  8
0
100
AcDbLine
 10
94.20708173165435
 20
188.5022188864597
 30
0.0
 11
94.20708173165435
 21
187.3772188864597
 31
0.0
  0
LINE
  5
1BD3
330
1F
100
AcDbEntity
  8
0
100
AcDbLine
 10
322.9443174447855
 20
171.0522188864597
 30
0.0
 11
322.9443174447855
 21
204.5223691689746
 31
0.0
  0
LINE
  5
1BD4
330
1F
100
AcDbEntity
  8
0
100
AcDbLine
 10
109.8693174447854
 20
193.2117718949698
 30
0.0
 11
109.8693174447854
 21
204.5223691689746
 31
0.0
  0
LINE
  5
1BD5
330
1F
100
AcDbEntity
  8
0
100
AcDbLine
 10
320.4443174447855
 20
203.2723691689746
 30
0.0
 11
112.3693174447854
 21
203.2723691689746
 31
0.0
  0
LINE
  5
1BD9
330
1F
100
AcDbEntity
  8
0
100
AcDbLine
 10
322.6943174447855
 20
152.0522188864597
 30
0.0
 11
312.4723299618694
 21
152.0522188864597
 31
0.0
  0
LINE
  5
1BDA
330
1F
100
AcDbEntity
  8
0
100
AcDbLine
 10
323.6443174447858
 20
145.3022188864597
 30
0.0
 11
312.4723299618694
 21
145.3022188864597
 31
0.0
  0
LINE
  5
1BDB
330
1F
100
AcDbEntity
  8
0
100
AcDbLine
 10
313.7223299618694
 20
149.5522188864597
 30
0.0
 11
313.7223299618694
 21
147.8022188864597
 31
0.0
  0
LINE
  5
1BDF
330
1F
100
AcDbEntity
  8
0
100
AcDbLine
 10
404.6663054906106
 20
171.0522188864597
 30
0.0
 11
418.0263631983262
 21
171.0522188864597
 31
0.0
  0
LINE
  5
1BE0
330
1F
100
AcDbEntity
  8
0
100
AcDbLine
 10
404.6663054906106
 20
152.3022188864597
 30
0.0
 11
418.0263631983262
 21
152.3022188864597
 31
0.0
  0
LINE
  5
1BE1
330
1F
100
AcDbEntity
  8
0
100
AcDbLine
 10
416.7763631983262
 20
168.5522188864597
 30
0.0
 11
416.7763631983262
 21
154.8022188864597
 31
0.0
  0
LINE
  5
1BE5
330
1F
100
AcDbEntity
  8
0
100
AcDbLine
 10
403.7913054906106
 20
167.3022188864597
 30
0.0
 11
411.9041386456417
 21
167.3022188864597
 31
0.0
  0
LINE
  5
1BE6
330
1F
100
AcDbEntity
  8
0
100
AcDbLine
 10
403.7913054906106
 20
156.0522188864597
 30
0.0
 11
411.9041386456417
 21
156.0522188864597
 31
0.0
  0
LINE
  5
1BE7
330
1F
100
AcDbEntity
  8
0
100
AcDbLine
 10
410.6541386456417
 20
164.8022188864597
 30
0.0
 11
410.6541386456417
 21
158.5522188864597
 31
0.0
  0
LINE
  5
1BEB
330
1F
100
AcDbEntity
  8
0
100
AcDbLine
 10
331.2943174447854
 20
145.3022188864597
 30
0.0
 11
342.3028442571539
 21
145.3022188864597
 31
0.0
  0
LINE
  5
1BEC
330
1F
100
AcDbEntity
  8
0
100
AcDbLine
 10
306.8193174447856
 20
195.3022188864597
 30
0.0
 11
342.3028442571539
 21
195.3022188864596
 31
0.0
  0
LINE
  5
1BED
330
1F
100
AcDbEntity
  8
0
100
AcDbLine
 10
341.052844257154
 20
147.8022188864597
 30
0.0
 11
341.052844257154
 21
192.8022188864596
 31
0.0
  0
LINE
  5
1BF1
330
1F
100
AcDbEntity
  8
0
100
AcDbLine
 10
330.8693174447857
 20
171.2522188864597
 30
0.0
 11
330.8693174447857
 21
223.9075649625076
 31
0.0
  0
LINE
  5
1BF2
330
1F
100
AcDbEntity
  8
0
100
AcDbLine
 10
105.8693174447857
 20
188.7522188864597
 30
0.0
 11
105.8693174447857
 21
223.9075649625076
 31
0.0
  0
LINE
  5
1BF3
330
1F
100
AcDbEntity
  8
0
100
AcDbLine
 10
328.3693174447857
 20
222.6575649625076
 30
0.0
 11
108.3693174447857
 21
222.6575649625076
 31
0.0
  0
LINE
  5
1BF7
330
1F
100
AcDbEntity
  8
0
100
AcDbLine
 10
113.0581697658808
 20
188.5022188864597
 30
0.0
 11
113.8693174447857
 21
189.3133665653645
 31
0.0
1001
GradientColor1ACI
1070
     5
1001
GradientColor2ACI
1070
     2
1001
ACAD
1010
0.0
1020
0.0
1030
0.0
  0
LINE
  5
1BF8
330
1F
100
AcDbEntity
  8
0
100
AcDbLine
 10
113.8693174447857
 20
189.3133665653645
 30
0.0
 11
114.1831697658807
 21
189.6272188864595
 31
0.0
1001
GradientColor1ACI
1070
     5
1001
GradientColor2ACI
1070
     2
1001
ACAD
1010
0.0
1020
0.0
1030
0.0
  0
LINE
  5
1BF9
330
1F
100
AcDbEntity
  8
0
100
AcDbLine
 10
114.1807017810145
 20
188.5022188864597
 30
0.0
 11
115.3057017810144
 21
189.6272188864596
 31
0.0
1001
GradientColor1ACI
1070
     5
1001
GradientColor2ACI
1070
     2
1001
ACAD
1010
0.0
1020
0.0
1030
0.0
  0
LINE
  5
1BFA
330
1F
100
AcDbEntity
  8
0
100
AcDbLine
 10
115.3032337961481
 20
188.5022188864597
 30
0.0
 11
116.428233796148
 21
189.6272188864596
 31
0.0
1001
GradientColor1ACI
1070
     5
1001
GradientColor2ACI
1070
     2
1001
ACAD
1010
0.0
1020
0.0
1030
0.0
  0
LINE
  5
1BFB
330
1F
100
AcDbEntity
  8
0
100
AcDbLine
 10
116.4257658112818
 20
188.5022188864597
 30
0.0
 11
117.5507658112816
 21
189.6272188864596
 31
0.0
1001
GradientColor1ACI
1070
     5
1001
GradientColor2ACI
1070
     2
1001
ACAD
1010
0.0
1020
0.0
1030
0.0
  0
LINE
  5
1BFC
330
1F
100
AcDbEntity
  8
0
100
AcDbLine
 10
117.5482978264154
 20
188.5022188864597
 30
0.0
 11
118.6732978264153
 21
189.6272188864595
 31
0.0
1001
GradientColor1ACI
1070
     5
1001
GradientColor2ACI
1070
     2
1001
ACAD
1010
0.0
1020
0.0
1030
0.0
  0
LINE
  5
1BFD
330
1F
100
AcDbEntity
  8
0
100
AcDbLine
 10
118.6708298415491
 20
188.5022188864597
 30
0.0
 11
119.7958298415489
 21
189.6272188864596
 31
0.0
1001
GradientColor1ACI
1070
     5
1001
GradientColor2ACI
1070
     2
1001
ACAD
1010
0.0
1020
0.0
1030
0.0
  0
LINE
  5
1BFE
330
1F
100
AcDbEntity
  8
0
100
AcDbLine
 10
119.7933618566827
 20
188.5022188864597
 30
0.0
 11
120.8693174447857
 21
189.5781744745627
 31
0.0
1001
GradientColor1ACI
1070
     5
1001
GradientColor2ACI
1070
     2
1001
ACAD
1010
0.0
1020
0.0
1030
0.0
  0
LINE
  5
1BFF
330
1F
100
AcDbEntity
  8
0
100
AcDbLine
 10
120.8693174447857
 20
189.5781744745627
 30
0.0
 11
120.9183618566826
 21
189.6272188864596
 31
0.0
1001
GradientColor1ACI
1070
     5
1001
GradientColor2ACI
1070
     2
1001
ACAD
1010
0.0
1020
0.0
1030
0.0
  0
LINE
  5
1C00
330
1F
100
AcDbEntity
  8
0
100
AcDbLine
 10
120.9158938718163
 20
188.5022188864597
 30
0.0
 11
122.0408938718162
 21
189.6272188864595
 31
0.0
1001
GradientColor1ACI
1070
     5
1001
GradientColor2ACI
1070
     2
1001
ACAD
1010
0.0
1020
0.0
1030
0.0
  0
LINE
  5
1C01
330
1F
100
AcDbEntity
  8
0
100
AcDbLine
 10
122.03842588695
 20
188.5022188864597
 30
0.0
 11
123.1634258869499
 21
189.6272188864595
 31
0.0
1001
GradientColor1ACI
1070
     5
1001
GradientColor2ACI
1070
     2
1001
ACAD
1010
0.0
1020
0.0
1030
0.0
  0
LINE
  5
1C02
330
1F
100
AcDbEntity
  8
0
100
AcDbLine
 10
123.1609579020836
 20
188.5022188864597
 30
0.0
 11
124.2859579020835
 21
189.6272188864596
 31
0.0
1001
GradientColor1ACI
1070
     5
1001
GradientColor2ACI
1070
     2
1001
ACAD
1010
0.0
1020
0.0
1030
0.0
  0
LINE
  5
1C03
330
1F
100
AcDbEntity
  8
0
100
AcDbLine
 10
124.2834899172173
 20
188.5022188864597
 30
0.0
 11
125.4084899172172
 21
189.6272188864596
 31
0.0
1001
GradientColor1ACI
1070
     5
1001
GradientColor2ACI
1070
     2
1001
ACAD
1010
0.0
1020
0.0
1030
0.0
  0
LINE
  5
1C04
330
1F
100
AcDbEntity
  8
0
100
AcDbLine
 10
125.4060219323509
 20
188.5022188864597
 30
0.0
 11
126.5310219323508
 21
189.6272188864595
 31
0.0
1001
GradientColor1ACI
1070
     5
1001
GradientColor2ACI
1070
     2
1001
ACAD
1010
0.0
1020
0.0
1030
0.0
  0
LINE
  5
1C05
330
1F
100
AcDbEntity
  8
0
100
AcDbLine
 10
126.5285539474846
 20
188.5022188864597
 30
0.0
 11
127.6535539474844
 21
189.6272188864595
 31
0.0
1001
GradientColor1ACI
1070
     5
1001
GradientColor2ACI
1070
     2
1001
ACAD
1010
0.0
1020
0.0
1030
0.0
  0
LINE
  5
1C06
330
1F
100
AcDbEntity
  8
0
100
AcDbLine
 10
127.6510859626182
 20
188.5022188864597
 30
0.0
 11
127.8693174447855
 21
188.720450368627
 31
0.0
1001
GradientColor1ACI
1070
     5
1001
GradientColor2ACI
1070
     2
1001
ACAD
1010
0.0
1020
0.0
1030
0.0
  0
LINE
  5
1C07
330
1F
100
AcDbEntity
  8
0
100
AcDbLine
 10
127.8693174447855
 20
188.720450368627
 30
0.0
 11
128.548177753495
 21
189.3993106773365
 31
0.0
1001
GradientColor1ACI
1070
     5
1001
GradientColor2ACI
1070
     2
1001
ACAD
1010
0.0
1020
0.0
1030
0.0
  0
LINE
  5
1C08
330
1F
100
AcDbEntity
  8
0
100
AcDbLine
 10
127.8693174447855
 20
187.5979183534933
 30
0.0
 11
128.7736179777519
 21
188.5022188864597
 31
0.0
1001
GradientColor1ACI
1070
     5
1001
GradientColor2ACI
1070
     2
1001
ACAD
1010
0.0
1020
0.0
1030
0.0
  0
LINE
  5
1C09
330
1F
100
AcDbEntity
  8
0
100
AcDbLine
 10
128.7736179777519
 20
188.5022188864597
 30
0.0
 11
128.9759695344282
 21
188.7045704431361
 31
0.0
1001
GradientColor1ACI
1070
     5
1001
GradientColor2ACI
1070
     2
1001
ACAD
1010
0.0
1020
0.0
1030
0.0
  0
LINE
  5
1C0A
330
1F
100
AcDbEntity
  8
0
100
AcDbLine
 10
322.9452322355468
 20
170.8475779249278
 30
0.0
 11
324.0239584063175
 21
171.9263040956984
 31
0.0
1001
GradientColor1ACI
1070
     5
1001
GradientColor2ACI
1070
     2
1001
ACAD
1010
0.0
1020
0.0
1030
0.0
  0
LINE
  5
1C0B
330
1F
100
AcDbEntity
  8
0
100
AcDbLine
 10
324.0224052122123
 20
170.8022188864597
 30
0.0
 11
324.0693174447855
 21
170.8491311190328
 31
0.0
1001
GradientColor1ACI
1070
     5
1001
GradientColor2ACI
1070
     2
1001
ACAD
1010
0.0
1020
0.0
1030
0.0
  0
LINE
  5
1C0C
330
1F
100
AcDbEntity
  8
0
100
AcDbLine
 10
324.0693174447855
 20
170.8491311190328
 30
0.0
 11
324.8410105664465
 21
171.6208242406939
 31
0.0
1001
GradientColor1ACI
1070
     5
1001
GradientColor2ACI
1070
     2
1001
ACAD
1010
0.0
1020
0.0
1030
0.0
  0
LINE
  5
1C0D
330
1F
100
AcDbEntity
  8
0
100
AcDbLine
 10
324.0693174447855
 20
169.7265991038991
 30
0.0
 11
325.1932783582786
 21
170.8505600173923
 31
0.0
1001
GradientColor1ACI
1070
     5
1001
GradientColor2ACI
1070
     2
1001
ACAD
1010
0.0
1020
0.0
1030
0.0
  0
LINE
  5
1C0E
330
1F
100
AcDbEntity
  8
0
100
AcDbLine
 10
324.0693174447855
 20
168.6040670887655
 30
0.0
 11
325.1943174447855
 21
169.7290670887654
 31
0.0
1001
GradientColor1ACI
1070
     5
1001
GradientColor2ACI
1070
     2
1001
ACAD
1010
0.0
1020
0.0
1030
0.0
  0
LINE
  5
1C0F
330
1F
100
AcDbEntity
  8
0
100
AcDbLine
 10
324.0693174447855
 20
167.4815350736318
 30
0.0
 11
325.1943174447855
 21
168.6065350736319
 31
0.0
1001
GradientColor1ACI
1070
     5
1001
GradientColor2ACI
1070
     2
1001
ACAD
1010
0.0
1020
0.0
1030
0.0
  0
LINE
  5
1C10
330
1F
100
AcDbEntity
  8
0
100
AcDbLine
 10
324.0693174447855
 20
166.3590030584982
 30
0.0
 11
324.7625332727469
 21
167.0522188864597
 31
0.0
1001
GradientColor1ACI
1070
     5
1001
GradientColor2ACI
1070
     2
1001
ACAD
1010
0.0
1020
0.0
1030
0.0
  0
LINE
  5
1C11
330
1F
100
AcDbEntity
  8
0
100
AcDbLine
 10
324.7625332727469
 20
167.0522188864597
 30
0.0
 11
325.1943174447855
 21
167.4840030584982
 31
0.0
1001
GradientColor1ACI
1070
     5
1001
GradientColor2ACI
1070
     2
1001
ACAD
1010
0.0
1020
0.0
1030
0.0
  0
LINE
  5
1C12
330
1F
100
AcDbEntity
  8
0
100
AcDbLine
 10
324.0693174447855
 20
165.2364710433646
 30
0.0
 11
325.1943174447855
 21
166.3614710433646
 31
0.0
1001
GradientColor1ACI
1070
     5
1001
GradientColor2ACI
1070
     2
1001
ACAD
1010
0.0
1020
0.0
1030
0.0
  0
LINE
  5
1C13
330
1F
100
AcDbEntity
  8
0
100
AcDbLine
 10
324.0693174447855
 20
164.113939028231
 30
0.0
 11
325.1943174447855
 21
165.2389390282309
 31
0.0
1001
GradientColor1ACI
1070
     5
1001
GradientColor2ACI
1070
     2
1001
ACAD
1010
0.0
1020
0.0
1030
0.0
  0
LINE
  5
1C14
330
1F
100
AcDbEntity
  8
0
100
AcDbLine
 10
324.0693174447855
 20
162.9914070130973
 30
0.0
 11
325.1943174447855
 21
164.1164070130974
 31
0.0
1001
GradientColor1ACI
1070
     5
1001
GradientColor2ACI
1070
     2
1001
ACAD
1010
0.0
1020
0.0
1030
0.0
  0
LINE
  5
1C15
330
1F
100
AcDbEntity
  8
0
100
AcDbLine
 10
324.0693174447855
 20
161.8688749979636
 30
0.0
 11
325.1943174447855
 21
162.9938749979637
 31
0.0
1001
GradientColor1ACI
1070
     5
1001
GradientColor2ACI
1070
     2
1001
ACAD
1010
0.0
1020
0.0
1030
0.0
  0
LINE
  5
1C16
330
1F
100
AcDbEntity
  8
0
100
AcDbLine
 10
324.0693174447855
 20
160.74634298283
 30
0.0
 11
325.1943174447855
 21
161.8713429828299
 31
0.0
1001
GradientColor1ACI
1070
     5
1001
GradientColor2ACI
1070
     2
1001
ACAD
1010
0.0
1020
0.0
1030
0.0
  0
LINE
  5
1C17
330
1F
100
AcDbEntity
  8
0
100
AcDbLine
 10
324.0693174447855
 20
159.6238109676964
 30
0.0
 11
325.1943174447855
 21
160.7488109676964
 31
0.0
1001
GradientColor1ACI
1070
     5
1001
GradientColor2ACI
1070
     2
1001
ACAD
1010
0.0
1020
0.0
1030
0.0
  0
LINE
  5
1C18
330
1F
100
AcDbEntity
  8
0
100
AcDbLine
 10
324.0693174447855
 20
158.5012789525627
 30
0.0
 11
325.1943174447855
 21
159.6262789525627
 31
0.0
1001
GradientColor1ACI
1070
     5
1001
GradientColor2ACI
1070
     2
1001
ACAD
1010
0.0
1020
0.0
1030
0.0
  0
LINE
  5
1C19
330
1F
100
AcDbEntity
  8
0
100
AcDbLine
 10
324.0693174447855
 20
157.3787469374291
 30
0.0
 11
325.1943174447855
 21
158.5037469374291
 31
0.0
1001
GradientColor1ACI
1070
     5
1001
GradientColor2ACI
1070
     2
1001
ACAD
1010
0.0
1020
0.0
1030
0.0
  0
LINE
  5
1C1A
330
1F
100
AcDbEntity
  8
0
100
AcDbLine
 10
324.0693174447855
 20
156.2562149222954
 30
0.0
 11
325.1943174447855
 21
157.3812149222954
 31
0.0
1001
GradientColor1ACI
1070
     5
1001
GradientColor2ACI
1070
     2
1001
ACAD
1010
0.0
1020
0.0
1030
0.0
  0
LINE
  5
1C1B
330
1F
100
AcDbEntity
  8
0
100
AcDbLine
 10
324.0693174447855
 20
155.1336829071618
 30
0.0
 11
324.7378534240834
 21
155.8022188864597
 31
0.0
1001
GradientColor1ACI
1070
     5
1001
GradientColor2ACI
1070
     2
1001
ACAD
1010
0.0
1020
0.0
1030
0.0
  0
LINE
  5
1C1C
330
1F
100
AcDbEntity
  8
0
100
AcDbLine
 10
324.7378534240834
 20
155.8022188864597
 30
0.0
 11
325.1943174447855
 21
156.2586829071618
 31
0.0
1001
GradientColor1ACI
1070
     5
1001
GradientColor2ACI
1070
     2
1001
ACAD
1010
0.0
1020
0.0
1030
0.0
  0
LINE
  5
1C1D
330
1F
100
AcDbEntity
  8
0
100
AcDbLine
 10
324.0693174447855
 20
154.0111508920282
 30
0.0
 11
325.1943174447855
 21
155.1361508920282
 31
0.0
1001
GradientColor1ACI
1070
     5
1001
GradientColor2ACI
1070
     2
1001
ACAD
1010
0.0
1020
0.0
1030
0.0
  0
LINE
  5
1C1E
330
1F
100
AcDbEntity
  8
0
100
AcDbLine
 10
322.9744186509876
 20
151.7937200830967
 30
0.0
 11
323.2329174543506
 21
152.0522188864597
 31
0.0
1001
GradientColor1ACI
1070
     5
1001
GradientColor2ACI
1070
     2
1001
ACAD
1010
0.0
1020
0.0
1030
0.0
  0
LINE
  5
1C1F
330
1F
100
AcDbEntity
  8
0
100
AcDbLine
 10
324.0693174447854
 20
152.8886188768945
 30
0.0
 11
325.1943174447855
 21
154.0136188768945
 31
0.0
1001
GradientColor1ACI
1070
     5
1001
GradientColor2ACI
1070
     2
1001
ACAD
1010
0.0
1020
0.0
1030
0.0
  0
LINE
  5
1C20
330
1F
100
AcDbEntity
  8
0
100
AcDbLine
 10
323.4298589424323
 20
151.1266283594077
 30
0.0
 11
324.0693174447855
 21
151.7660868617609
 31
0.0
1001
GradientColor1ACI
1070
     5
1001
GradientColor2ACI
1070
     2
1001
ACAD
1010
0.0
1020
0.0
1030
0.0
  0
LINE
  5
1C21
330
1F
100
AcDbEntity
  8
0
100
AcDbLine
 10
324.0693174447855
 20
151.7660868617609
 30
0.0
 11
325.1943174447855
 21
152.8910868617608
 31
0.0
1001
GradientColor1ACI
1070
     5
1001
GradientColor2ACI
1070
     2
1001
ACAD
1010
0.0
1020
0.0
1030
0.0
  0
LINE
  5
1C22
330
1F
100
AcDbEntity
  8
0
100
AcDbLine
 10
324.403880745472
 20
150.9781181473137
 30
0.0
 11
325.1434181839314
 21
151.7176555857731
 31
0.0
1001
GradientColor1ACI
1070
     5
1001
GradientColor2ACI
1070
     2
1001
ACAD
1010
0.0
1020
0.0
1030
0.0
  0
LINE
  5
1C23
330
1F
100
AcDbEntity
  8
0
 62
     3
100
AcDbLine
 10
245.9575524591345
 20
293.7455399034552
 30
0.0
 11
245.9309417091346
 21
293.9159224234554
 31
0.0
  0
LINE
  5
1C24
330
1F
100
AcDbEntity
  8
0
 62
     3
100
AcDbLine
 10
245.9309417091346
 20
293.9159224234554
 30
0.0
 11
245.8989828791347
 21
294.0790721134554
 31
0.0
  0
LINE
  5
1C25
330
1F
100
AcDbEntity
  8
0
 62
     3
100
AcDbLine
 10
245.8989828791347
 20
294.0790721134554
 30
0.0
 11
245.8619229791347
 21
294.2337279134554
 31
0.0
  0
LINE
  5
1C26
330
1F
100
AcDbEntity
  8
0
 62
     3
100
AcDbLine
 10
245.8619229791347
 20
294.2337279134554
 30
0.0
 11
245.8200484791345
 21
294.3786944134554
 31
0.0
  0
LINE
  5
1C27
330
1F
100
AcDbEntity
  8
0
 62
     3
100
AcDbLine
 10
245.8200484791345
 20
294.3786944134554
 30
0.0
 11
245.7736830491346
 21
294.5128511034554
 31
0.0
  0
LINE
  5
1C28
330
1F
100
AcDbEntity
  8
0
 62
     3
100
AcDbLine
 10
245.7736830491346
 20
294.5128511034554
 30
0.0
 11
245.7231850591346
 21
294.6351610034554
 31
0.0
  0
LINE
  5
1C29
330
1F
100
AcDbEntity
  8
0
 62
     3
100
AcDbLine
 10
245.7231850591346
 20
294.6351610034554
 30
0.0
 11
245.6689448391347
 21
294.7446787434553
 31
0.0
  0
LINE
  5
1C2A
330
1F
100
AcDbEntity
  8
0
 62
     3
100
AcDbLine
 10
245.6689448391347
 20
294.7446787434553
 30
0.0
 11
245.6113816391345
 21
294.8405577934552
 31
0.0
  0
LINE
  5
1C2B
330
1F
100
AcDbEntity
  8
0
 62
     3
100
AcDbLine
 10
245.6113816391345
 20
294.8405577934552
 30
0.0
 11
245.5509403891346
 21
294.9220570634552
 31
0.0
  0
LINE
  5
1C2C
330
1F
100
AcDbEntity
  8
0
 62
     3
100
AcDbLine
 10
245.5509403891346
 20
294.9220570634552
 30
0.0
 11
245.4880882691347
 21
294.9885466034552
 31
0.0
  0
LINE
  5
1C2D
330
1F
100
AcDbEntity
  8
0
 62
     3
100
AcDbLine
 10
245.4880882691347
 20
294.9885466034552
 30
0.0
 11
245.4233110891345
 21
295.0395124834554
 31
0.0
  0
LINE
  5
1C2E
330
1F
100
AcDbEntity
  8
0
 62
     3
100
AcDbLine
 10
245.4233110891345
 20
295.0395124834554
 30
0.0
 11
245.3571095591346
 21
295.0745607634553
 31
0.0
  0
LINE
  5
1C2F
330
1F
100
AcDbEntity
  8
0
 62
     3
100
AcDbLine
 10
245.3571095591346
 20
295.0745607634553
 30
0.0
 11
245.2899953691346
 21
295.0934205334554
 31
0.0
  0
LINE
  5
1C30
330
1F
100
AcDbEntity
  8
0
 62
     3
100
AcDbLine
 10
245.2899953691346
 20
295.0934205334554
 30
0.0
 11
245.2224872791345
 21
295.0959460334552
 31
0.0
  0
LINE
  5
1C31
330
1F
100
AcDbEntity
  8
0
 62
     3
100
AcDbLine
 10
245.2224872791345
 20
295.0959460334552
 30
0.0
 11
245.1551070891345
 21
295.0821177234552
 31
0.0
  0
LINE
  5
1C32
330
1F
100
AcDbEntity
  8
0
 62
     3
100
AcDbLine
 10
245.1551070891345
 20
295.0821177234552
 30
0.0
 11
245.0883756191346
 21
295.0520424934552
 31
0.0
  0
LINE
  5
1C33
330
1F
100
AcDbEntity
  8
0
 62
     3
100
AcDbLine
 10
245.0883756191346
 20
295.0520424934552
 30
0.0
 11
245.0228086791348
 21
295.0059528234553
 31
0.0
  0
LINE
  5
1C34
330
1F
100
AcDbEntity
  8
0
 62
     3
100
AcDbLine
 10
245.0228086791348
 20
295.0059528234553
 30
0.0
 11
244.9589130391345
 21
294.9442049434554
 31
0.0
  0
LINE
  5
1C35
330
1F
100
AcDbEntity
  8
0
 62
     3
100
AcDbLine
 10
244.9589130391345
 20
294.9442049434554
 30
0.0
 11
244.8971826091346
 21
294.8672761534553
 31
0.0
  0
LINE
  5
1C36
330
1F
100
AcDbEntity
  8
0
 62
     3
100
AcDbLine
 10
244.8971826091346
 20
294.8672761534553
 30
0.0
 11
244.8380945191347
 21
294.7757610534554
 31
0.0
  0
LINE
  5
1C37
330
1F
100
AcDbEntity
  8
0
 62
     3
100
AcDbLine
 10
244.8380945191347
 20
294.7757610534554
 30
0.0
 11
244.7821054891346
 21
294.6703670234553
 31
0.0
  0
LINE
  5
1C38
330
1F
100
AcDbEntity
  8
0
 62
     3
100
AcDbLine
 10
244.7821054891346
 20
294.6703670234553
 30
0.0
 11
244.7296482891347
 21
294.5519086934554
 31
0.0
  0
LINE
  5
1C39
330
1F
100
AcDbEntity
  8
0
 62
     3
100
AcDbLine
 10
244.7296482891347
 20
294.5519086934554
 30
0.0
 11
244.6811283891347
 21
294.4213016834553
 31
0.0
  0
LINE
  5
1C3A
330
1F
100
AcDbEntity
  8
0
 62
     3
100
AcDbLine
 10
244.6811283891347
 20
294.4213016834553
 30
0.0
 11
244.6369208091347
 21
294.2795555334553
 31
0.0
  0
LINE
  5
1C3B
330
1F
100
AcDbEntity
  8
0
 62
     3
100
AcDbLine
 10
244.6369208091347
 20
294.2795555334553
 30
0.0
 11
244.5973672691347
 21
294.1277658634554
 31
0.0
  0
LINE
  5
1C3C
330
1F
100
AcDbEntity
  8
0
 62
     3
100
AcDbLine
 10
244.5973672691347
 20
294.1277658634554
 30
0.0
 11
244.5627734891347
 21
293.9671059234554
 31
0.0
  0
LINE
  5
1C3D
330
1F
100
AcDbEntity
  8
0
 62
     3
100
AcDbLine
 10
244.5627734891347
 20
293.9671059234554
 30
0.0
 11
244.5334068591345
 21
293.7988175334553
 31
0.0
  0
LINE
  5
1C3E
330
1F
100
AcDbEntity
  8
0
 62
     3
100
AcDbLine
 10
244.5334068591345
 20
293.7988175334553
 30
0.0
 11
244.5094943691346
 21
293.6242014734554
 31
0.0
  0
LINE
  5
1C3F
330
1F
100
AcDbEntity
  8
0
 62
     3
100
AcDbLine
 10
244.5094943691346
 20
293.6242014734554
 30
0.0
 11
244.4912208591346
 21
293.4446074434553
 31
0.0
  0
LINE
  5
1C40
330
1F
100
AcDbEntity
  8
0
 62
     3
100
AcDbLine
 10
244.4912208591346
 20
293.4446074434553
 30
0.0
 11
244.4787275591347
 21
293.2614236034553
 31
0.0
  0
LINE
  5
1C41
330
1F
100
AcDbEntity
  8
0
 62
     3
100
AcDbLine
 10
244.4787275591347
 20
293.2614236034553
 30
0.0
 11
244.4721110491345
 21
293.0760658834554
 31
0.0
  0
LINE
  5
1C42
330
1F
100
AcDbEntity
  8
0
 62
     3
100
AcDbLine
 10
244.4721110491345
 20
293.0760658834554
 30
0.0
 11
244.4714224591345
 21
292.8899669834552
 31
0.0
  0
LINE
  5
1C43
330
1F
100
AcDbEntity
  8
0
 62
     3
100
AcDbLine
 10
244.4714224591345
 20
292.8899669834552
 30
0.0
 11
244.4766671191348
 21
292.7045653734554
 31
0.0
  0
LINE
  5
1C44
330
1F
100
AcDbEntity
  8
0
 62
     3
100
AcDbLine
 10
244.4766671191348
 20
292.7045653734554
 30
0.0
 11
244.4878044891347
 21
292.5212941034554
 31
0.0
  0
LINE
  5
1C45
330
1F
100
AcDbEntity
  8
0
 62
     3
100
AcDbLine
 10
244.4878044891347
 20
292.5212941034554
 30
0.0
 11
244.5047484891346
 21
292.3415697634555
 31
0.0
  0
LINE
  5
1C46
330
1F
100
AcDbEntity
  8
0
 62
     3
100
AcDbLine
 10
244.5047484891346
 20
292.3415697634555
 30
0.0
 11
244.5273681391347
 21
292.1667815334554
 31
0.0
  0
LINE
  5
1C47
330
1F
100
AcDbEntity
  8
0
 62
     3
100
AcDbLine
 10
244.5273681391347
 20
292.1667815334554
 30
0.0
 11
244.5554886091346
 21
291.9982804334554
 31
0.0
  0
LINE
  5
1C48
330
1F
100
AcDbEntity
  8
0
 62
     3
100
AcDbLine
 10
244.5554886091346
 20
291.9982804334554
 30
0.0
 11
244.5888925391345
 21
291.8373688934554
 31
0.0
  0
LINE
  5
1C49
330
1F
100
AcDbEntity
  8
0
 62
     3
100
AcDbLine
 10
244.5888925391345
 20
291.8373688934554
 30
0.0
 11
244.6273217391346
 21
291.6852906734555
 31
0.0
  0
LINE
  5
1C4A
330
1F
100
AcDbEntity
  8
0
 62
     3
100
AcDbLine
 10
244.6273217391346
 20
291.6852906734555
 30
0.0
 11
244.6704791591345
 21
291.5432212634554
 31
0.0
  0
LINE
  5
1C4B
330
1F
100
AcDbEntity
  8
0
 62
     3
100
AcDbLine
 10
244.6704791591345
 20
291.5432212634554
 30
0.0
 11
244.7180312291347
 21
291.4122587834554
 31
0.0
  0
LINE
  5
1C4C
330
1F
100
AcDbEntity
  8
0
 62
     3
100
AcDbLine
 10
244.7180312291347
 20
291.4122587834554
 30
0.0
 11
244.7696103791347
 21
291.2934155034554
 31
0.0
  0
LINE
  5
1C4D
330
1F
100
AcDbEntity
  8
0
 62
     3
100
AcDbLine
 10
244.7696103791347
 20
291.2934155034554
 30
0.0
 11
244.8248179491347
 21
291.1876100334555
 31
0.0
  0
LINE
  5
1C4E
330
1F
100
AcDbEntity
  8
0
 62
     3
100
AcDbLine
 10
244.8248179491347
 20
291.1876100334555
 30
0.0
 11
244.8832271991345
 21
291.0956601734554
 31
0.0
  0
LINE
  5
1C4F
330
1F
100
AcDbEntity
  8
0
 62
     3
100
AcDbLine
 10
244.8832271991345
 20
291.0956601734554
 30
0.0
 11
244.9443866591345
 21
291.0182766734553
 31
0.0
  0
LINE
  5
1C50
330
1F
100
AcDbEntity
  8
0
 62
     3
100
AcDbLine
 10
244.9443866591345
 20
291.0182766734553
 30
0.0
 11
245.0078235991347
 21
290.9560576534552
 31
0.0
  0
LINE
  5
1C51
330
1F
100
AcDbEntity
  8
0
 62
     3
100
AcDbLine
 10
245.0078235991347
 20
290.9560576534552
 30
0.0
 11
245.0730476791347
 21
290.9094840434552
 31
0.0
  0
LINE
  5
1C52
330
1F
100
AcDbEntity
  8
0
 62
     3
100
AcDbLine
 10
245.0730476791347
 20
290.9094840434552
 30
0.0
 11
245.1395547591345
 21
290.8789158134555
 31
0.0
  0
LINE
  5
1C53
330
1F
100
AcDbEntity
  8
0
 62
     3
100
AcDbLine
 10
245.1395547591345
 20
290.8789158134555
 30
0.0
 11
245.2068307691347
 21
290.8645892634554
 31
0.0
  0
LINE
  5
1C54
330
1F
100
AcDbEntity
  8
0
 62
     3
100
AcDbLine
 10
245.2068307691347
 20
290.8645892634554
 30
0.0
 11
245.2743556991347
 21
290.8666151234554
 31
0.0
  0
LINE
  5
1C55
330
1F
100
AcDbEntity
  8
0
 62
     3
100
AcDbLine
 10
245.2743556991347
 20
290.8666151234554
 30
0.0
 11
245.3416076191346
 21
290.8849777234552
 31
0.0
  0
LINE
  5
1C56
330
1F
100
AcDbEntity
  8
0
 62
     3
100
AcDbLine
 10
245.3416076191346
 20
290.8849777234552
 30
0.0
 11
245.4080666991346
 21
290.9195351434554
 31
0.0
  0
LINE
  5
1C57
330
1F
100
AcDbEntity
  8
0
 62
     3
100
AcDbLine
 10
245.4080666991346
 20
290.9195351434554
 30
0.0
 11
245.4732192591345
 21
290.9700202734555
 31
0.0
  0
LINE
  5
1C58
330
1F
100
AcDbEntity
  8
0
 62
     3
100
AcDbLine
 10
245.4732192591345
 20
290.9700202734555
 30
0.0
 11
245.5365616891346
 21
291.0360428734555
 31
0.0
  0
LINE
  5
1C59
330
1F
100
AcDbEntity
  8
0
 62
     3
100
AcDbLine
 10
245.5365616891346
 20
291.0360428734555
 30
0.0
 11
245.5976043891345
 21
291.1170926334554
 31
0.0
  0
LINE
  5
1C5A
330
1F
100
AcDbEntity
  8
0
 62
     3
100
AcDbLine
 10
245.5976043891345
 20
291.1170926334554
 30
0.0
 11
245.6558755291347
 21
291.2125430834553
 31
0.0
  0
LINE
  5
1C5B
330
1F
100
AcDbEntity
  8
0
 62
     3
100
AcDbLine
 10
245.6558755291347
 20
291.2125430834553
 30
0.0
 11
245.7109247091345
 21
291.3216564434554
 31
0.0
  0
LINE
  5
1C5C
330
1F
100
AcDbEntity
  8
0
 62
     3
100
AcDbLine
 10
245.7109247091345
 20
291.3216564434554
 30
0.0
 11
245.7623264291346
 21
291.4435893034554
 31
0.0
  0
LINE
  5
1C5D
330
1F
100
AcDbEntity
  8
0
 62
     3
100
AcDbLine
 10
245.7623264291346
 20
291.4435893034554
 30
0.0
 11
245.8096833691346
 21
291.5773992134552
 31
0.0
  0
LINE
  5
1C5E
330
1F
100
AcDbEntity
  8
0
 62
     3
100
AcDbLine
 10
245.8096833691346
 20
291.5773992134552
 30
0.0
 11
245.8526294891348
 21
291.7220518634554
 31
0.0
  0
LINE
  5
1C5F
330
1F
100
AcDbEntity
  8
0
 62
     3
100
AcDbLine
 10
245.8526294891348
 20
291.7220518634554
 30
0.0
 11
245.8908328391348
 21
291.8764291834552
 31
0.0
  0
LINE
  5
1C60
330
1F
100
AcDbEntity
  8
0
 62
     3
100
AcDbLine
 10
245.8908328391348
 20
291.8764291834552
 30
0.0
 11
245.9239981291345
 21
292.0393379134555
 31
0.0
  0
LINE
  5
1C61
330
1F
100
AcDbEntity
  8
0
 62
     3
100
AcDbLine
 10
245.9239981291345
 20
292.0393379134555
 30
0.0
 11
245.9518690091346
 21
292.2095188434554
 31
0.0
  0
LINE
  5
1C62
330
1F
100
AcDbEntity
  8
0
100
AcDbLine
 10
111.8736604826376
 20
193.4079922058639
 30
0.0
 11
95.78375693815395
 21
205.5482286936997
 31
0.0
1001
ACAD
1000
DSTYLE
1002
{
1070
   147
1040
0.625
1070
    77
1070
     0
1070
   343
1005
2DF
1070
   344
1005
C6
1002
}
  0
LINE
  5
1C63
330
1F
100
AcDbEntity
  8
0
100
AcDbLine
 10
95.78375693815395
 20
205.5482286936997
 30
0.0
 11
93.28375693815395
 21
205.5482286936997
 31
0.0
1001
ACAD
1000
DSTYLE
1002
{
1070
   147
1040
0.625
1070
    77
1070
     0
1070
   343
1005
2DF
1070
   344
1005
C6
1002
}
  0
LINE
  5
1C64
330
1F
100
AcDbEntity
  8
0
  6
ByBlock
 62
     0
370
    -2
100
AcDbLine
 10
112.2771309377987
 20
193.9427264932145
 30
0.0
 11
113.8693174447857
 21
191.9022188864596
 31
0.0
  0
LINE
  5
1C65
330
1F
100
AcDbEntity
  8
0
  6
ByBlock
 62
     0
370
    -2
100
AcDbLine
 10
113.8693174447857
 20
191.9022188864596
 30
0.0
 11
111.4701900274766
 21
192.8732579185133
 31
0.0
  0
LINE
  5
1C66
330
1F
100
AcDbEntity
  8
0
  6
ByBlock
 62
     0
370
    -2
100
AcDbLine
 10
113.8693174447857
 20
191.9022188864596
 30
0.0
 11
111.8736604826376
 21
193.4079922058639
 31
0.0
  0
LINE
  5
1C67
330
1F
100
AcDbEntity
  8
0
100
AcDbLine
 10
124.6442532691825
 20
115.954986013534
 30
0.0
 11
129.1998247523355
 21
101.9822596997539
 31
0.0
1001
ACAD
1000
DSTYLE
1002
{
1070
   147
1040
0.625
1070
    77
1070
     0
1070
   343
1005
2DF
1070
   344
1005
C6
1002
}
  0
LINE
  5
1C68
330
1F
100
AcDbEntity
  8
0
100
AcDbLine
 10
129.1998247523355
 20
101.9822596997539
 30
0.0
 11
131.6998247523355
 21
101.9822596997539
 31
0.0
1001
ACAD
1000
DSTYLE
1002
{
1070
   147
1040
0.625
1070
    77
1070
     0
1070
   343
1005
2DF
1070
   344
1005
C6
1002
}
  0
LINE
  5
1C69
330
1F
100
AcDbEntity
  8
0
  6
ByBlock
 62
     0
370
    -2
100
AcDbLine
 10
124.0073753885377
 20
115.7473427343226
 30
0.0
 11
123.8693174447855
 21
118.3318483292911
 31
0.0
  0
LINE
  5
1C6A
330
1F
100
AcDbEntity
  8
0
  6
ByBlock
 62
     0
370
    -2
100
AcDbLine
 10
123.8693174447855
 20
118.3318483292911
 30
0.0
 11
125.2811311498273
 21
116.1626292927454
 31
0.0
  0
LINE
  5
1C6B
330
1F
100
AcDbEntity
  8
0
  6
ByBlock
 62
     0
370
    -2
100
AcDbLine
 10
123.8693174447855
 20
118.3318483292911
 30
0.0
 11
124.6442532691825
 21
115.954986013534
 31
0.0
  0
LINE
  5
1C6C
330
1F
100
AcDbEntity
  8
0
100
AcDbLine
 10
294.0295927126026
 20
143.1771988438086
 30
0.0
 11
298.399995622049
 21
123.9973635198942
 31
0.0
1001
ACAD
1000
DSTYLE
1002
{
1070
   147
1040
0.625
1070
    77
1070
     0
1070
   173
1070
     1
1070
   342
1005
0
1070
   343
1005
2DF
1070
   344
1005
C6
1002
}
  0
LINE
  5
1C6D
330
1F
100
AcDbEntity
  8
0
100
AcDbLine
 10
298.399995622049
 20
123.9973635198942
 30
0.0
 11
300.899995622049
 21
123.9973635198942
 31
0.0
1001
ACAD
1000
DSTYLE
1002
{
1070
   147
1040
0.625
1070
    77
1070
     0
1070
   173
1070
     1
1070
   342
1005
0
1070
   343
1005
2DF
1070
   344
1005
C6
1002
}
  0
LINE
  5
1C6E
330
1F
100
AcDbEntity
  8
0
  6
ByBlock
 62
     0
370
    -2
100
AcDbLine
 10
293.3764616546942
 20
143.0283734849082
 30
0.0
 11
293.4741685128466
 21
145.6147188864597
 31
0.0
  0
LINE
  5
1C6F
330
1F
100
AcDbEntity
  8
0
  6
ByBlock
 62
     0
370
    -2
100
AcDbLine
 10
293.4741685128466
 20
145.6147188864597
 30
0.0
 11
294.6827237705109
 21
143.326024202709
 31
0.0
  0
LINE
  5
1C70
330
1F
100
AcDbEntity
  8
0
  6
ByBlock
 62
     0
370
    -2
100
AcDbLine
 10
293.4741685128466
 20
145.6147188864597
 30
0.0
 11
294.0295927126026
 21
143.1771988438086
 31
0.0
  0
LINE
  5
1C71
330
1F
100
AcDbEntity
  8
0
100
AcDbLine
 10
284.7689015598799
 20
144.4719519334934
 30
0.0
 11
278.3112015100865
 21
138.0142518837001
 31
0.0
1001
ACAD
1000
DSTYLE
1002
{
1070
   173
1070
     1
1070
   342
1005
0
1070
   343
1005
2DF
1070
   344
1005
C6
1002
}
  0
LINE
  5
1C72
330
1F
100
AcDbEntity
  8
0
100
AcDbLine
 10
278.3112015100865
 20
138.0142518837001
 30
0.0
 11
277.8692597718449
 21
137.5723101454585
 31
0.0
1001
ACAD
1000
DSTYLE
1002
{
1070
   173
1070
     1
1070
   342
1005
0
1070
   343
1005
2DF
1070
   344
1005
C6
1002
}
  0
LINE
  5
1C73
330
1F
100
AcDbEntity
  8
0
  6
ByBlock
 62
     0
370
    -2
100
AcDbLine
 10
284.2952301725996
 20
144.9456233207738
 30
0.0
 11
286.5366685128464
 21
146.2397188864598
 31
0.0
  0
LINE
  5
1C74
330
1F
100
AcDbEntity
  8
0
  6
ByBlock
 62
     0
370
    -2
100
AcDbLine
 10
286.5366685128464
 20
146.2397188864598
 30
0.0
 11
285.2425729471603
 21
143.998280546213
 31
0.0
  0
LINE
  5
1C75
330
1F
100
AcDbEntity
  8
0
  6
ByBlock
 62
     0
370
    -2
100
AcDbLine
 10
286.5366685128464
 20
146.2397188864598
 30
0.0
 11
284.7689015598799
 21
144.4719519334934
 31
0.0
  0
TEXT
  5
1C76
330
1F
100
AcDbEntity
  8
0
 62
     4
100
AcDbText
 10
280.1214251029247
 20
157.67721888646
 30
0.0
 40
3.0
  1
24
 50
90.0
100
AcDbText
  0
LINE
  5
1C77
330
1F
100
AcDbEntity
  8
0
  6
ByBlock
 62
     0
370
    -2
100
AcDbLine
 10
281.4162976029248
 20
154.5522188864597
 30
0.0
 11
280.7464251029248
 21
152.0522188864597
 31
0.0
  0
LINE
  5
1C78
330
1F
100
AcDbEntity
  8
0
  6
ByBlock
 62
     0
370
    -2
100
AcDbLine
 10
280.7464251029248
 20
152.0522188864597
 30
0.0
 11
280.0765526029248
 21
154.5522188864597
 31
0.0
  0
LINE
  5
1C79
330
1F
100
AcDbEntity
  8
0
  6
ByBlock
 62
     0
370
    -2
100
AcDbLine
 10
280.7464251029248
 20
152.0522188864597
 30
0.0
 11
280.7464251029248
 21
154.5522188864597
 31
0.0
  0
LINE
  5
1C7A
330
1F
100
AcDbEntity
  8
0
  6
ByBlock
 62
     0
370
    -2
100
AcDbLine
 10
280.0765526029248
 20
143.5522188864597
 30
0.0
 11
280.7464251029248
 21
146.0522188864597
 31
0.0
  0
LINE
  5
1C7B
330
1F
100
AcDbEntity
  8
0
  6
ByBlock
 62
     0
370
    -2
100
AcDbLine
 10
280.7464251029248
 20
146.0522188864597
 30
0.0
 11
281.4162976029248
 21
143.5522188864597
 31
0.0
  0
LINE
  5
1C7C
330
1F
100
AcDbEntity
  8
0
  6
ByBlock
 62
     0
370
    -2
100
AcDbLine
 10
280.7464251029248
 20
146.0522188864597
 30
0.0
 11
280.7464251029248
 21
143.5522188864597
 31
0.0
  0
TEXT
  5
1C7D
330
1F
100
AcDbEntity
  8
0
 62
     4
100
AcDbText
 10
133.6765895863704
 20
131.6443483292915
 30
0.0
 40
3.0
  1
50
 50
90.0
100
AcDbText
  0
LINE
  5
1C7E
330
1F
100
AcDbEntity
  8
0
  6
ByBlock
 62
     0
370
    -2
100
AcDbLine
 10
134.9714620863704
 20
128.5193483292912
 30
0.0
 11
134.3015895863704
 21
126.0193483292912
 31
0.0
  0
LINE
  5
1C7F
330
1F
100
AcDbEntity
  8
0
  6
ByBlock
 62
     0
370
    -2
100
AcDbLine
 10
134.3015895863704
 20
126.0193483292912
 30
0.0
 11
133.6317170863704
 21
128.5193483292912
 31
0.0
  0
LINE
  5
1C80
330
1F
100
AcDbEntity
  8
0
  6
ByBlock
 62
     0
370
    -2
100
AcDbLine
 10
134.3015895863704
 20
126.0193483292912
 30
0.0
 11
134.3015895863704
 21
128.5193483292912
 31
0.0
  0
LINE
  5
1C81
330
1F
100
AcDbEntity
  8
0
  6
ByBlock
 62
     0
370
    -2
100
AcDbLine
 10
133.6317170863704
 20
111.0193483292912
 30
0.0
 11
134.3015895863704
 21
113.5193483292912
 31
0.0
  0
LINE
  5
1C82
330
1F
100
AcDbEntity
  8
0
  6
ByBlock
 62
     0
370
    -2
100
AcDbLine
 10
134.3015895863704
 20
113.5193483292912
 30
0.0
 11
134.9714620863704
 21
111.0193483292912
 31
0.0
  0
LINE
  5
1C83
330
1F
100
AcDbEntity
  8
0
  6
ByBlock
 62
     0
370
    -2
100
AcDbLine
 10
134.3015895863704
 20
113.5193483292912
 30
0.0
 11
134.3015895863704
 21
111.0193483292912
 31
0.0
  0
TEXT
  5
1C84
330
1F
100
AcDbEntity
  8
0
 62
     4
100
AcDbText
 10
107.3693174447857
 20
93.94682799082046
 30
0.0
 40
3.0
  1
32
100
AcDbText
  0
LINE
  5
1C85
330
1F
100
AcDbEntity
  8
0
  6
ByBlock
 62
     0
370
    -2
100
AcDbLine
 10
108.3693174447857
 20
92.65195549082045
 30
0.0
 11
105.8693174447857
 21
93.32182799082046
 31
0.0
  0
LINE
  5
1C86
330
1F
100
AcDbEntity
  8
0
  6
ByBlock
 62
     0
370
    -2
100
AcDbLine
 10
105.8693174447857
 20
93.32182799082046
 30
0.0
 11
108.3693174447857
 21
93.99170049082044
 31
0.0
  0
LINE
  5
1C87
330
1F
100
AcDbEntity
  8
0
  6
ByBlock
 62
     0
370
    -2
100
AcDbLine
 10
105.8693174447857
 20
93.32182799082046
 30
0.0
 11
108.3693174447857
 21
93.32182799082046
 31
0.0
  0
LINE
  5
1C88
330
1F
100
AcDbEntity
  8
0
  6
ByBlock
 62
     0
370
    -2
100
AcDbLine
 10
111.3693174447857
 20
93.99170049082044
 30
0.0
 11
113.8693174447857
 21
93.32182799082046
 31
0.0
  0
LINE
  5
1C89
330
1F
100
AcDbEntity
  8
0
  6
ByBlock
 62
     0
370
    -2
100
AcDbLine
 10
113.8693174447857
 20
93.32182799082046
 30
0.0
 11
111.3693174447857
 21
92.65195549082045
 31
0.0
  0
LINE
  5
1C8A
330
1F
100
AcDbEntity
  8
0
  6
ByBlock
 62
     0
370
    -2
100
AcDbLine
 10
113.8693174447857
 20
93.32182799082046
 30
0.0
 11
111.3693174447857
 21
93.32182799082046
 31
0.0
  0
TEXT
  5
1C8B
330
1F
100
AcDbEntity
  8
0
 62
     4
100
AcDbText
 10
129.4943174447855
 20
143.4035652667212
 30
0.0
 40
3.0
  1
24
100
AcDbText
  0
LINE
  5
1C8C
330
1F
100
AcDbEntity
  8
0
  6
ByBlock
 62
     0
370
    -2
100
AcDbLine
 10
126.3693174447855
 20
142.1086927667212
 30
0.0
 11
123.8693174447855
 21
142.7785652667212
 31
0.0
  0
LINE
  5
1C8D
330
1F
100
AcDbEntity
  8
0
  6
ByBlock
 62
     0
370
    -2
100
AcDbLine
 10
123.8693174447855
 20
142.7785652667212
 30
0.0
 11
126.3693174447855
 21
143.4484377667212
 31
0.0
  0
LINE
  5
1C8E
330
1F
100
AcDbEntity
  8
0
  6
ByBlock
 62
     0
370
    -2
100
AcDbLine
 10
123.8693174447855
 20
142.7785652667212
 30
0.0
 11
126.3693174447855
 21
142.7785652667212
 31
0.0
  0
LINE
  5
1C8F
330
1F
100
AcDbEntity
  8
0
  6
ByBlock
 62
     0
370
    -2
100
AcDbLine
 10
115.3693174447855
 20
143.4484377667212
 30
0.0
 11
117.8693174447855
 21
142.7785652667212
 31
0.0
  0
LINE
  5
1C90
330
1F
100
AcDbEntity
  8
0
  6
ByBlock
 62
     0
370
    -2
100
AcDbLine
 10
117.8693174447855
 20
142.7785652667212
 30
0.0
 11
115.3693174447855
 21
142.1086927667212
 31
0.0
  0
LINE
  5
1C91
330
1F
100
AcDbEntity
  8
0
  6
ByBlock
 62
     0
370
    -2
100
AcDbLine
 10
117.8693174447855
 20
142.7785652667212
 30
0.0
 11
115.3693174447855
 21
142.7785652667212
 31
0.0
  0
TEXT
  5
1C92
330
1F
100
AcDbEntity
  8
0
 62
     4
100
AcDbText
 10
95.86232489999385
 20
85.09367567882522
 30
0.0
 40
3.0
  1
4-\U+220511穴
 50
58.51684095454453
100
AcDbText
  0
LINE
  5
1C93
330
1F
100
AcDbEntity
  8
0
  6
ByBlock
 62
     0
370
    -2
100
AcDbLine
 10
107.2743436817968
 20
103.8146122436724
 30
0.0
 11
109.1512265471747
 21
105.5967569841206
 31
0.0
  0
LINE
  5
1C94
330
1F
100
AcDbEntity
  8
0
  6
ByBlock
 62
     0
370
    -2
100
AcDbLine
 10
109.1512265471747
 20
105.5967569841206
 30
0.0
 11
108.4168697848771
 21
103.1149331966764
 31
0.0
  0
LINE
  5
1C95
330
1F
100
AcDbEntity
  8
0
  6
ByBlock
 62
     0
370
    -2
100
AcDbLine
 10
109.1512265471747
 20
105.5967569841206
 30
0.0
 11
107.845606733337
 21
103.4647727201744
 31
0.0
  0
LINE
  5
1C96
330
1F
100
AcDbEntity
  8
0
  6
ByBlock
 62
     0
370
    -2
100
AcDbLine
 10
112.464291207774
 20
109.7240844149098
 30
0.0
 11
110.5874083423962
 21
107.9419396744616
 31
0.0
  0
LINE
  5
1C97
330
1F
100
AcDbEntity
  8
0
  6
ByBlock
 62
     0
370
    -2
100
AcDbLine
 10
110.5874083423962
 20
107.9419396744616
 30
0.0
 11
111.3217651046937
 21
110.4237634619058
 31
0.0
  0
LINE
  5
1C98
330
1F
100
AcDbEntity
  8
0
  6
ByBlock
 62
     0
370
    -2
100
AcDbLine
 10
110.5874083423962
 20
107.9419396744616
 30
0.0
 11
111.8930281562339
 21
110.0739239384078
 31
0.0
  0
TEXT
  5
1C99
330
1F
100
AcDbEntity
  8
0
 62
     4
100
AcDbText
 10
89.96248159706956
 20
116.4797098369538
 30
0.0
 40
3.0
  1
104
 50
90.0
100
AcDbText
  0
LINE
  5
1C9A
330
1F
100
AcDbEntity
  8
0
  6
ByBlock
 62
     0
370
    -2
100
AcDbLine
 10
91.25735409706958
 20
109.2693483292911
 30
0.0
 11
90.58748159706958
 21
106.7693483292911
 31
0.0
  0
LINE
  5
1C9B
330
1F
100
AcDbEntity
  8
0
  6
ByBlock
 62
     0
370
    -2
100
AcDbLine
 10
90.58748159706958
 20
106.7693483292911
 30
0.0
 11
89.91760909706959
 21
109.2693483292911
 31
0.0
  0
LINE
  5
1C9C
330
1F
100
AcDbEntity
  8
0
  6
ByBlock
 62
     0
370
    -2
100
AcDbLine
 10
90.58748159706958
 20
106.7693483292911
 30
0.0
 11
90.58748159706958
 21
109.2693483292911
 31
0.0
  0
LINE
  5
1C9D
330
1F
100
AcDbEntity
  8
0
  6
ByBlock
 62
     0
370
    -2
100
AcDbLine
 10
89.91760909706959
 20
130.2693483292911
 30
0.0
 11
90.58748159706958
 21
132.7693483292911
 31
0.0
  0
LINE
  5
1C9E
330
1F
100
AcDbEntity
  8
0
  6
ByBlock
 62
     0
370
    -2
100
AcDbLine
 10
90.58748159706958
 20
132.7693483292911
 30
0.0
 11
91.25735409706958
 21
130.2693483292911
 31
0.0
  0
LINE
  5
1C9F
330
1F
100
AcDbEntity
  8
0
  6
ByBlock
 62
     0
370
    -2
100
AcDbLine
 10
90.58748159706958
 20
132.7693483292911
 30
0.0
 11
90.58748159706958
 21
130.2693483292911
 31
0.0
  0
TEXT
  5
1CA0
330
1F
100
AcDbEntity
  8
0
 62
     4
100
AcDbText
 10
111.3693174447854
 20
143.4035652667212
 30
0.0
 40
3.0
  1
32
100
AcDbText
  0
LINE
  5
1CA1
330
1F
100
AcDbEntity
  8
0
  6
ByBlock
 62
     0
370
    -2
100
AcDbLine
 10
115.3693174447855
 20
143.4484377667212
 30
0.0
 11
117.8693174447855
 21
142.7785652667212
 31
0.0
  0
LINE
  5
1CA2
330
1F
100
AcDbEntity
  8
0
  6
ByBlock
 62
     0
370
    -2
100
AcDbLine
 10
117.8693174447855
 20
142.7785652667212
 30
0.0
 11
115.3693174447855
 21
142.1086927667212
 31
0.0
  0
LINE
  5
1CA3
330
1F
100
AcDbEntity
  8
0
  6
ByBlock
 62
     0
370
    -2
100
AcDbLine
 10
117.8693174447855
 20
142.7785652667212
 30
0.0
 11
115.3693174447855
 21
142.7785652667212
 31
0.0
  0
LINE
  5
1CA4
330
1F
100
AcDbEntity
  8
0
  6
ByBlock
 62
     0
370
    -2
100
AcDbLine
 10
112.3693174447854
 20
142.1086927667212
 30
0.0
 11
109.8693174447854
 21
142.7785652667212
 31
0.0
  0
LINE
  5
1CA5
330
1F
100
AcDbEntity
  8
0
  6
ByBlock
 62
     0
370
    -2
100
AcDbLine
 10
109.8693174447854
 20
142.7785652667212
 30
0.0
 11
112.3693174447854
 21
143.4484377667212
 31
0.0
  0
LINE
  5
1CA6
330
1F
100
AcDbEntity
  8
0
  6
ByBlock
 62
     0
370
    -2
100
AcDbLine
 10
109.8693174447854
 20
142.7785652667212
 30
0.0
 11
112.3693174447854
 21
142.7785652667212
 31
0.0
  0
TEXT
  5
1CA7
330
1F
100
AcDbEntity
  8
0
 62
     4
100
AcDbText
 10
307.6586252781912
 20
171.912579106062
 30
0.0
 40
3.0
  1
(81.3)
 50
90.0
100
AcDbText
  0
LINE
  5
1CA8
330
1F
100
AcDbEntity
  8
0
  6
ByBlock
 62
     0
370
    -2
100
AcDbLine
 10
307.6137527781913
 20
184.8772188864596
 30
0.0
 11
308.2836252781913
 21
187.3772188864597
 31
0.0
  0
LINE
  5
1CA9
330
1F
100
AcDbEntity
  8
0
  6
ByBlock
 62
     0
370
    -2
100
AcDbLine
 10
308.2836252781913
 20
187.3772188864597
 30
0.0
 11
308.9534977781913
 21
184.8772188864596
 31
0.0
  0
LINE
  5
1CAA
330
1F
100
AcDbEntity
  8
0
  6
ByBlock
 62
     0
370
    -2
100
AcDbLine
 10
308.2836252781913
 20
187.3772188864597
 30
0.0
 11
308.2836252781913
 21
184.8772188864596
 31
0.0
  0
LINE
  5
1CAB
330
1F
100
AcDbEntity
  8
0
  6
ByBlock
 62
     0
370
    -2
100
AcDbLine
 10
308.9534977781913
 20
169.5522188864597
 30
0.0
 11
308.2836252781913
 21
167.0522188864597
 31
0.0
  0
LINE
  5
1CAC
330
1F
100
AcDbEntity
  8
0
  6
ByBlock
 62
     0
370
    -2
100
AcDbLine
 10
308.2836252781913
 20
167.0522188864597
 30
0.0
 11
307.6137527781913
 21
169.5522188864597
 31
0.0
  0
LINE
  5
1CAD
330
1F
100
AcDbEntity
  8
0
  6
ByBlock
 62
     0
370
    -2
100
AcDbLine
 10
308.2836252781913
 20
167.0522188864597
 30
0.0
 11
308.2836252781913
 21
169.5522188864597
 31
0.0
  0
TEXT
  5
1CAE
330
1F
100
AcDbEntity
  8
0
 62
     4
100
AcDbText
 10
404.5054966392611
 20
173.702815934714
 30
0.0
 40
3.0
  1
8-\U+22056.5穴
 50
54.2404401441583
100
AcDbText
  0
LINE
  5
1CAF
330
1F
100
AcDbEntity
  8
0
  6
ByBlock
 62
     0
370
    -2
100
AcDbLine
 10
403.1456668167487
 20
169.5987712657246
 30
0.0
 11
401.1411183595003
 21
167.961543533001
 31
0.0
  0
LINE
  5
1CB0
330
1F
100
AcDbEntity
  8
0
  6
ByBlock
 62
     0
370
    -2
100
AcDbLine
 10
401.1411183595003
 20
167.961543533001
 30
0.0
 11
402.0584952492651
 21
170.3816982405315
 31
0.0
  0
LINE
  5
1CB1
330
1F
100
AcDbEntity
  8
0
  6
ByBlock
 62
     0
370
    -2
100
AcDbLine
 10
401.1411183595003
 20
167.961543533001
 30
0.0
 11
402.6020810330069
 21
169.990234753128
 31
0.0
  0
LINE
  5
1CB2
330
1F
100
AcDbEntity
  8
0
  6
ByBlock
 62
     0
370
    -2
100
AcDbLine
 10
398.1869441644726
 20
165.0056665071946
 30
0.0
 11
400.1914926217209
 21
166.6428942399182
 31
0.0
  0
LINE
  5
1CB3
330
1F
100
AcDbEntity
  8
0
  6
ByBlock
 62
     0
370
    -2
100
AcDbLine
 10
400.1914926217209
 20
166.6428942399182
 30
0.0
 11
399.2741157319562
 21
164.2227395323878
 31
0.0
  0
LINE
  5
1CB4
330
1F
100
AcDbEntity
  8
0
  6
ByBlock
 62
     0
370
    -2
100
AcDbLine
 10
400.1914926217209
 20
166.6428942399182
 30
0.0
 11
398.7305299482143
 21
164.6142030197912
 31
0.0
  0
TEXT
  5
1CB5
330
1F
100
AcDbEntity
  8
0
 62
     4
100
AcDbText
 10
96.2443174447857
 20
143.4035652667212
 30
0.0
 40
3.0
  1
16
100
AcDbText
  0
LINE
  5
1CB6
330
1F
100
AcDbEntity
  8
0
  6
ByBlock
 62
     0
370
    -2
100
AcDbLine
 10
103.3693174447857
 20
143.4484377667212
 30
0.0
 11
105.8693174447857
 21
142.7785652667212
 31
0.0
  0
LINE
  5
1CB7
330
1F
100
AcDbEntity
  8
0
  6
ByBlock
 62
     0
370
    -2
100
AcDbLine
 10
105.8693174447857
 20
142.7785652667212
 30
0.0
 11
103.3693174447857
 21
142.1086927667212
 31
0.0
  0
LINE
  5
1CB8
330
1F
100
AcDbEntity
  8
0
  6
ByBlock
 62
     0
370
    -2
100
AcDbLine
 10
105.8693174447857
 20
142.7785652667212
 30
0.0
 11
103.3693174447857
 21
142.7785652667212
 31
0.0
  0
LINE
  5
1CB9
330
1F
100
AcDbEntity
  8
0
  6
ByBlock
 62
     0
370
    -2
100
AcDbLine
 10
112.3693174447854
 20
142.1086927667212
 30
0.0
 11
109.8693174447854
 21
142.7785652667212
 31
0.0
  0
LINE
  5
1CBA
330
1F
100
AcDbEntity
  8
0
  6
ByBlock
 62
     0
370
    -2
100
AcDbLine
 10
109.8693174447854
 20
142.7785652667212
 30
0.0
 11
112.3693174447854
 21
143.4484377667212
 31
0.0
  0
LINE
  5
1CBB
330
1F
100
AcDbEntity
  8
0
  6
ByBlock
 62
     0
370
    -2
100
AcDbLine
 10
109.8693174447854
 20
142.7785652667212
 30
0.0
 11
112.3693174447854
 21
142.7785652667212
 31
0.0
  0
TEXT
  5
1CBC
330
1F
100
AcDbEntity
  8
0
 62
     4
100
AcDbText
 10
107.3693174447857
 20
176.8977812333833
 30
0.0
 40
3.0
  1
32
100
AcDbText
  0
LINE
  5
1CBD
330
1F
100
AcDbEntity
  8
0
  6
ByBlock
 62
     0
370
    -2
100
AcDbLine
 10
111.3693174447857
 20
176.9426537333833
 30
0.0
 11
113.8693174447857
 21
176.2727812333833
 31
0.0
  0
LINE
  5
1CBE
330
1F
100
AcDbEntity
  8
0
  6
ByBlock
 62
     0
370
    -2
100
AcDbLine
 10
113.8693174447857
 20
176.2727812333833
 30
0.0
 11
111.3693174447857
 21
175.6029087333833
 31
0.0
  0
LINE
  5
1CBF
330
1F
100
AcDbEntity
  8
0
  6
ByBlock
 62
     0
370
    -2
100
AcDbLine
 10
113.8693174447857
 20
176.2727812333833
 30
0.0
 11
111.3693174447857
 21
176.2727812333833
 31
0.0
  0
LINE
  5
1CC0
330
1F
100
AcDbEntity
  8
0
  6
ByBlock
 62
     0
370
    -2
100
AcDbLine
 10
108.3693174447857
 20
175.6029087333833
 30
0.0
 11
105.8693174447857
 21
176.2727812333833
 31
0.0
  0
LINE
  5
1CC1
330
1F
100
AcDbEntity
  8
0
  6
ByBlock
 62
     0
370
    -2
100
AcDbLine
 10
105.8693174447857
 20
176.2727812333833
 30
0.0
 11
108.3693174447857
 21
176.9426537333833
 31
0.0
  0
LINE
  5
1CC2
330
1F
100
AcDbEntity
  8
0
  6
ByBlock
 62
     0
370
    -2
100
AcDbLine
 10
105.8693174447857
 20
176.2727812333833
 30
0.0
 11
108.3693174447857
 21
176.2727812333833
 31
0.0
  0
TEXT
  5
1CC3
330
1F
100
AcDbEntity
  8
0
 62
     4
100
AcDbText
 10
114.3693174447856
 20
153.911986013313
 30
0.0
 40
3.0
  1
88
100
AcDbText
  0
LINE
  5
1CC4
330
1F
100
AcDbEntity
  8
0
  6
ByBlock
 62
     0
370
    -2
100
AcDbLine
 10
125.3693174447855
 20
153.956858513313
 30
0.0
 11
127.8693174447855
 21
153.286986013313
 31
0.0
  0
LINE
  5
1CC5
330
1F
100
AcDbEntity
  8
0
  6
ByBlock
 62
     0
370
    -2
100
AcDbLine
 10
127.8693174447855
 20
153.286986013313
 30
0.0
 11
125.3693174447855
 21
152.617113513313
 31
0.0
  0
LINE
  5
1CC6
330
1F
100
AcDbEntity
  8
0
  6
ByBlock
 62
     0
370
    -2
100
AcDbLine
 10
127.8693174447855
 20
153.286986013313
 30
0.0
 11
125.3693174447855
 21
153.286986013313
 31
0.0
  0
LINE
  5
1CC7
330
1F
100
AcDbEntity
  8
0
  6
ByBlock
 62
     0
370
    -2
100
AcDbLine
 10
108.3693174447857
 20
152.617113513313
 30
0.0
 11
105.8693174447857
 21
153.286986013313
 31
0.0
  0
LINE
  5
1CC8
330
1F
100
AcDbEntity
  8
0
  6
ByBlock
 62
     0
370
    -2
100
AcDbLine
 10
105.8693174447857
 20
153.286986013313
 30
0.0
 11
108.3693174447857
 21
153.956858513313
 31
0.0
  0
LINE
  5
1CC9
330
1F
100
AcDbEntity
  8
0
  6
ByBlock
 62
     0
370
    -2
100
AcDbLine
 10
105.8693174447857
 20
153.286986013313
 30
0.0
 11
108.3693174447857
 21
153.286986013313
 31
0.0
  0
TEXT
  5
1CCA
330
1F
100
AcDbEntity
  8
0
 62
     4
100
AcDbText
 10
377.9767041492577
 20
127.0362822412992
 30
0.0
 40
3.0
  1
175
100
AcDbText
  0
LINE
  5
1CCB
330
1F
100
AcDbEntity
  8
0
  6
ByBlock
 62
     0
370
    -2
100
AcDbLine
 10
363.1663054906107
 20
125.7414097412992
 30
0.0
 11
360.6663054906107
 21
126.4112822412992
 31
0.0
  0
LINE
  5
1CCC
330
1F
100
AcDbEntity
  8
0
  6
ByBlock
 62
     0
370
    -2
100
AcDbLine
 10
360.6663054906107
 20
126.4112822412992
 30
0.0
 11
363.1663054906107
 21
127.0811547412992
 31
0.0
  0
LINE
  5
1CCD
330
1F
100
AcDbEntity
  8
0
  6
ByBlock
 62
     0
370
    -2
100
AcDbLine
 10
360.6663054906107
 20
126.4112822412992
 30
0.0
 11
363.1663054906107
 21
126.4112822412992
 31
0.0
  0
LINE
  5
1CCE
330
1F
100
AcDbEntity
  8
0
  6
ByBlock
 62
     0
370
    -2
100
AcDbLine
 10
401.9163054906107
 20
127.0811547412992
 30
0.0
 11
404.4163054906106
 21
126.4112822412992
 31
0.0
  0
LINE
  5
1CCF
330
1F
100
AcDbEntity
  8
0
  6
ByBlock
 62
     0
370
    -2
100
AcDbLine
 10
404.4163054906106
 20
126.4112822412992
 30
0.0
 11
401.9163054906107
 21
125.7414097412992
 31
0.0
  0
LINE
  5
1CD0
330
1F
100
AcDbEntity
  8
0
  6
ByBlock
 62
     0
370
    -2
100
AcDbLine
 10
404.4163054906106
 20
126.4112822412992
 30
0.0
 11
401.9163054906107
 21
126.4112822412992
 31
0.0
  0
TEXT
  5
1CD1
330
1F
100
AcDbEntity
  8
0
 62
     4
100
AcDbText
 10
367.2802887978071
 20
134.6858709505801
 30
0.0
 40
3.0
  1
45
100
AcDbText
  0
LINE
  5
1CD2
330
1F
100
AcDbEntity
  8
0
  6
ByBlock
 62
     0
370
    -2
100
AcDbLine
 10
366.9163054906107
 20
133.3909984505801
 30
0.0
 11
364.4163054906107
 21
134.0608709505801
 31
0.0
  0
LINE
  5
1CD3
330
1F
100
AcDbEntity
  8
0
  6
ByBlock
 62
     0
370
    -2
100
AcDbLine
 10
364.4163054906107
 20
134.0608709505801
 30
0.0
 11
366.9163054906107
 21
134.7307434505801
 31
0.0
  0
LINE
  5
1CD4
330
1F
100
AcDbEntity
  8
0
  6
ByBlock
 62
     0
370
    -2
100
AcDbLine
 10
364.4163054906107
 20
134.0608709505801
 30
0.0
 11
366.9163054906107
 21
134.0608709505801
 31
0.0
  0
LINE
  5
1CD5
330
1F
100
AcDbEntity
  8
0
  6
ByBlock
 62
     0
370
    -2
100
AcDbLine
 10
373.1663054906107
 20
134.7307434505801
 30
0.0
 11
375.6663054906107
 21
134.0608709505801
 31
0.0
  0
LINE
  5
1CD6
330
1F
100
AcDbEntity
  8
0
  6
ByBlock
 62
     0
370
    -2
100
AcDbLine
 10
375.6663054906107
 20
134.0608709505801
 30
0.0
 11
373.1663054906107
 21
133.3909984505801
 31
0.0
  0
LINE
  5
1CD7
330
1F
100
AcDbEntity
  8
0
  6
ByBlock
 62
     0
370
    -2
100
AcDbLine
 10
375.6663054906107
 20
134.0608709505801
 30
0.0
 11
373.1663054906107
 21
134.0608709505801
 31
0.0
  0
TEXT
  5
1CD8
330
1F
100
AcDbEntity
  8
0
 62
     4
100
AcDbText
 10
392.6206812680051
 20
134.6858709505802
 30
0.0
 40
3.0
  1
45
100
AcDbText
  0
LINE
  5
1CD9
330
1F
100
AcDbEntity
  8
0
  6
ByBlock
 62
     0
370
    -2
100
AcDbLine
 10
391.9163054906107
 20
133.3909984505802
 30
0.0
 11
389.4163054906107
 21
134.0608709505802
 31
0.0
  0
LINE
  5
1CDA
330
1F
100
AcDbEntity
  8
0
  6
ByBlock
 62
     0
370
    -2
100
AcDbLine
 10
389.4163054906107
 20
134.0608709505802
 30
0.0
 11
391.9163054906107
 21
134.7307434505802
 31
0.0
  0
LINE
  5
1CDB
330
1F
100
AcDbEntity
  8
0
  6
ByBlock
 62
     0
370
    -2
100
AcDbLine
 10
389.4163054906107
 20
134.0608709505802
 30
0.0
 11
391.9163054906107
 21
134.0608709505802
 31
0.0
  0
LINE
  5
1CDC
330
1F
100
AcDbEntity
  8
0
  6
ByBlock
 62
     0
370
    -2
100
AcDbLine
 10
398.1663054906105
 20
134.7307434505802
 30
0.0
 11
400.6663054906105
 21
134.0608709505802
 31
0.0
  0
LINE
  5
1CDD
330
1F
100
AcDbEntity
  8
0
  6
ByBlock
 62
     0
370
    -2
100
AcDbLine
 10
400.6663054906105
 20
134.0608709505802
 30
0.0
 11
398.1663054906105
 21
133.3909984505802
 31
0.0
  0
LINE
  5
1CDE
330
1F
100
AcDbEntity
  8
0
  6
ByBlock
 62
     0
370
    -2
100
AcDbLine
 10
400.6663054906105
 20
134.0608709505802
 30
0.0
 11
398.1663054906105
 21
134.0608709505802
 31
0.0
  0
TEXT
  5
1CDF
330
1F
100
AcDbEntity
  8
0
 62
     4
100
AcDbText
 10
380.3717074021458
 20
134.6858709505803
 30
0.0
 40
3.0
  1
55
100
AcDbText
  0
LINE
  5
1CE0
330
1F
100
AcDbEntity
  8
0
  6
ByBlock
 62
     0
370
    -2
100
AcDbLine
 10
378.1663054906107
 20
133.3909984505803
 30
0.0
 11
375.6663054906107
 21
134.0608709505803
 31
0.0
  0
LINE
  5
1CE1
330
1F
100
AcDbEntity
  8
0
  6
ByBlock
 62
     0
370
    -2
100
AcDbLine
 10
375.6663054906107
 20
134.0608709505803
 30
0.0
 11
378.1663054906107
 21
134.7307434505803
 31
0.0
  0
LINE
  5
1CE2
330
1F
100
AcDbEntity
  8
0
  6
ByBlock
 62
     0
370
    -2
100
AcDbLine
 10
375.6663054906107
 20
134.0608709505803
 30
0.0
 11
378.1663054906107
 21
134.0608709505803
 31
0.0
  0
LINE
  5
1CE3
330
1F
100
AcDbEntity
  8
0
  6
ByBlock
 62
     0
370
    -2
100
AcDbLine
 10
386.9163054906107
 20
134.7307434505803
 30
0.0
 11
389.4163054906107
 21
134.0608709505803
 31
0.0
  0
LINE
  5
1CE4
330
1F
100
AcDbEntity
  8
0
  6
ByBlock
 62
     0
370
    -2
100
AcDbLine
 10
389.4163054906107
 20
134.0608709505803
 30
0.0
 11
386.9163054906107
 21
133.3909984505803
 31
0.0
  0
LINE
  5
1CE5
330
1F
100
AcDbEntity
  8
0
  6
ByBlock
 62
     0
370
    -2
100
AcDbLine
 10
389.4163054906107
 20
134.0608709505803
 30
0.0
 11
386.9163054906107
 21
134.0608709505803
 31
0.0
  0
TEXT
  5
1CE6
330
1F
100
AcDbEntity
  8
0
 62
     4
100
AcDbText
 10
335.2818174447856
 20
131.703170202256
 30
0.0
 40
3.0
  1
(\U+220517.5)
100
AcDbText
  0
LINE
  5
1CE7
330
1F
100
AcDbEntity
  8
0
  6
ByBlock
 62
     0
370
    -2
100
AcDbLine
 10
332.1568174447856
 20
130.408297702256
 30
0.0
 11
329.6568174447856
 21
131.078170202256
 31
0.0
  0
LINE
  5
1CE8
330
1F
100
AcDbEntity
  8
0
  6
ByBlock
 62
     0
370
    -2
100
AcDbLine
 10
329.6568174447856
 20
131.078170202256
 30
0.0
 11
332.1568174447856
 21
131.748042702256
 31
0.0
  0
LINE
  5
1CE9
330
1F
100
AcDbEntity
  8
0
  6
ByBlock
 62
     0
370
    -2
100
AcDbLine
 10
329.6568174447856
 20
131.078170202256
 30
0.0
 11
332.1568174447856
 21
131.078170202256
 31
0.0
  0
LINE
  5
1CEA
330
1F
100
AcDbEntity
  8
0
  6
ByBlock
 62
     0
370
    -2
100
AcDbLine
 10
322.7818174447856
 20
131.748042702256
 30
0.0
 11
325.2818174447856
 21
131.078170202256
 31
0.0
  0
LINE
  5
1CEB
330
1F
100
AcDbEntity
  8
0
  6
ByBlock
 62
     0
370
    -2
100
AcDbLine
 10
325.2818174447856
 20
131.078170202256
 30
0.0
 11
322.7818174447856
 21
130.408297702256
 31
0.0
  0
LINE
  5
1CEC
330
1F
100
AcDbEntity
  8
0
  6
ByBlock
 62
     0
370
    -2
100
AcDbLine
 10
325.2818174447856
 20
131.078170202256
 30
0.0
 11
322.7818174447856
 21
131.078170202256
 31
0.0
  0
TEXT
  5
1CED
330
1F
100
AcDbEntity
  8
0
 62
     4
100
AcDbText
 10
83.19489043771538
 20
116.8958360245426
 30
0.0
 40
3.0
  1
150
 50
90.0
100
AcDbText
  0
LINE
  5
1CEE
330
1F
100
AcDbEntity
  8
0
  6
ByBlock
 62
     0
370
    -2
100
AcDbLine
 10
84.48976293771538
 20
103.5193483292912
 30
0.0
 11
83.81989043771538
 21
101.0193483292912
 31
0.0
  0
LINE
  5
1CEF
330
1F
100
AcDbEntity
  8
0
  6
ByBlock
 62
     0
370
    -2
100
AcDbLine
 10
83.81989043771538
 20
101.0193483292912
 30
0.0
 11
83.15001793771539
 21
103.5193483292912
 31
0.0
  0
LINE
  5
1CF0
330
1F
100
AcDbEntity
  8
0
  6
ByBlock
 62
     0
370
    -2
100
AcDbLine
 10
83.81989043771538
 20
101.0193483292912
 30
0.0
 11
83.81989043771538
 21
103.5193483292912
 31
0.0
  0
LINE
  5
1CF1
330
1F
100
AcDbEntity
  8
0
  6
ByBlock
 62
     0
370
    -2
100
AcDbLine
 10
83.15001793771539
 20
136.0193483292912
 30
0.0
 11
83.81989043771538
 21
138.5193483292912
 31
0.0
  0
LINE
  5
1CF2
330
1F
100
AcDbEntity
  8
0
  6
ByBlock
 62
     0
370
    -2
100
AcDbLine
 10
83.81989043771538
 20
138.5193483292912
 30
0.0
 11
84.48976293771538
 21
136.0193483292912
 31
0.0
  0
LINE
  5
1CF3
330
1F
100
AcDbEntity
  8
0
  6
ByBlock
 62
     0
370
    -2
100
AcDbLine
 10
83.81989043771538
 20
138.5193483292912
 30
0.0
 11
83.81989043771538
 21
136.0193483292912
 31
0.0
  0
TEXT
  5
1CF4
330
1F
100
AcDbEntity
  8
0
 62
     4
100
AcDbText
 10
94.63015817939128
 20
117.2693483292911
 30
0.0
 40
3.0
  1
73
 50
90.0
100
AcDbText
  0
LINE
  5
1CF5
330
1F
100
AcDbEntity
  8
0
  6
ByBlock
 62
     0
370
    -2
100
AcDbLine
 10
94.58528567939131
 20
126.3943483292911
 30
0.0
 11
95.2551581793913
 21
128.8943483292911
 31
0.0
  0
LINE
  5
1CF6
330
1F
100
AcDbEntity
  8
0
  6
ByBlock
 62
     0
370
    -2
100
AcDbLine
 10
95.2551581793913
 20
128.8943483292911
 30
0.0
 11
95.9250306793913
 21
126.3943483292911
 31
0.0
  0
LINE
  5
1CF7
330
1F
100
AcDbEntity
  8
0
  6
ByBlock
 62
     0
370
    -2
100
AcDbLine
 10
95.2551581793913
 20
128.8943483292911
 30
0.0
 11
95.2551581793913
 21
126.3943483292911
 31
0.0
  0
LINE
  5
1CF8
330
1F
100
AcDbEntity
  8
0
  6
ByBlock
 62
     0
370
    -2
100
AcDbLine
 10
95.9250306793913
 20
113.1443483292911
 30
0.0
 11
95.2551581793913
 21
110.6443483292911
 31
0.0
  0
LINE
  5
1CF9
330
1F
100
AcDbEntity
  8
0
  6
ByBlock
 62
     0
370
    -2
100
AcDbLine
 10
95.2551581793913
 20
110.6443483292911
 30
0.0
 11
94.58528567939131
 21
113.1443483292911
 31
0.0
  0
LINE
  5
1CFA
330
1F
100
AcDbEntity
  8
0
  6
ByBlock
 62
     0
370
    -2
100
AcDbLine
 10
95.2551581793913
 20
110.6443483292911
 30
0.0
 11
95.2551581793913
 21
113.1443483292911
 31
0.0
  0
TEXT
  5
1CFB
330
1F
100
AcDbEntity
  8
0
 62
     4
100
AcDbText
 10
302.1439903925478
 20
154.7713124639333
 30
0.0
 40
3.0
  1
t=4.5
100
AcDbText
  0
LINE
  5
1CFC
330
1F
100
AcDbEntity
  8
0
  6
ByBlock
 62
     0
370
    -2
100
AcDbLine
 10
320.4443174447855
 20
154.8161849639333
 30
0.0
 11
322.9443174447855
 21
154.1463124639333
 31
0.0
  0
LINE
  5
1CFD
330
1F
100
AcDbEntity
  8
0
  6
ByBlock
 62
     0
370
    -2
100
AcDbLine
 10
322.9443174447855
 20
154.1463124639333
 30
0.0
 11
320.4443174447855
 21
153.4764399639333
 31
0.0
  0
LINE
  5
1CFE
330
1F
100
AcDbEntity
  8
0
  6
ByBlock
 62
     0
370
    -2
100
AcDbLine
 10
322.9443174447855
 20
154.1463124639333
 30
0.0
 11
320.4443174447855
 21
154.1463124639333
 31
0.0
  0
LINE
  5
1CFF
330
1F
100
AcDbEntity
  8
0
  6
ByBlock
 62
     0
370
    -2
100
AcDbLine
 10
326.5693174447855
 20
153.4764399639333
 30
0.0
 11
324.0693174447855
 21
154.1463124639333
 31
0.0
  0
LINE
  5
1D00
330
1F
100
AcDbEntity
  8
0
  6
ByBlock
 62
     0
370
    -2
100
AcDbLine
 10
324.0693174447855
 20
154.1463124639333
 30
0.0
 11
326.5693174447855
 21
154.8161849639333
 31
0.0
  0
LINE
  5
1D01
330
1F
100
AcDbEntity
  8
0
  6
ByBlock
 62
     0
370
    -2
100
AcDbLine
 10
324.0693174447855
 20
154.1463124639333
 30
0.0
 11
326.5693174447855
 21
154.1463124639333
 31
0.0
  0
TEXT
  5
1D02
330
1F
100
AcDbEntity
  8
0
 62
     4
100
AcDbText
 10
189.859766371451
 20
148.0772188864597
 30
0.0
 40
3.0
  1
\U+220527.2 t2.6パイプ
 50
90.0
100
AcDbText
  0
LINE
  5
1D03
330
1F
100
AcDbEntity
  8
0
  6
ByBlock
 62
     0
370
    -2
100
AcDbLine
 10
189.814893871451
 20
186.0022188864597
 30
0.0
 11
190.484766371451
 21
188.5022188864597
 31
0.0
  0
LINE
  5
1D04
330
1F
100
AcDbEntity
  8
0
  6
ByBlock
 62
     0
370
    -2
100
AcDbLine
 10
190.484766371451
 20
188.5022188864597
 30
0.0
 11
191.154638871451
 21
186.0022188864597
 31
0.0
  0
LINE
  5
1D05
330
1F
100
AcDbEntity
  8
0
  6
ByBlock
 62
     0
370
    -2
100
AcDbLine
 10
190.484766371451
 20
188.5022188864597
 30
0.0
 11
190.484766371451
 21
186.0022188864597
 31
0.0
  0
LINE
  5
1D06
330
1F
100
AcDbEntity
  8
0
  6
ByBlock
 62
     0
370
    -2
100
AcDbLine
 10
191.154638871451
 20
197.8022188864597
 30
0.0
 11
190.484766371451
 21
195.3022188864597
 31
0.0
  0
LINE
  5
1D07
330
1F
100
AcDbEntity
  8
0
  6
ByBlock
 62
     0
370
    -2
100
AcDbLine
 10
190.484766371451
 20
195.3022188864597
 30
0.0
 11
189.8148938714511
 21
197.8022188864597
 31
0.0
  0
LINE
  5
1D08
330
1F
100
AcDbEntity
  8
0
  6
ByBlock
 62
     0
370
    -2
100
AcDbLine
 10
190.484766371451
 20
195.3022188864597
 30
0.0
 11
190.484766371451
 21
197.8022188864597
 31
0.0
  0
TEXT
  5
1D09
330
1F
100
AcDbEntity
  8
0
 62
     4
100
AcDbText
 10
93.58208173165431
 20
169.2522188864599
 30
0.0
 40
3.0
  1
t=4.5
 50
90.0
100
AcDbText
  0
LINE
  5
1D0A
330
1F
100
AcDbEntity
  8
0
  6
ByBlock
 62
     0
370
    -2
100
AcDbLine
 10
93.53720923165434
 20
184.8772188864597
 30
0.0
 11
94.20708173165435
 21
187.3772188864597
 31
0.0
  0
LINE
  5
1D0B
330
1F
100
AcDbEntity
  8
0
  6
ByBlock
 62
     0
370
    -2
100
AcDbLine
 10
94.20708173165435
 20
187.3772188864597
 30
0.0
 11
94.87695423165433
 21
184.8772188864597
 31
0.0
  0
LINE
  5
1D0C
330
1F
100
AcDbEntity
  8
0
  6
ByBlock
 62
     0
370
    -2
100
AcDbLine
 10
94.20708173165435
 20
187.3772188864597
 30
0.0
 11
94.20708173165435
 21
184.8772188864597
 31
0.0
  0
LINE
  5
1D0D
330
1F
100
AcDbEntity
  8
0
  6
ByBlock
 62
     0
370
    -2
100
AcDbLine
 10
94.87695423165433
 20
191.0022188864597
 30
0.0
 11
94.20708173165435
 21
188.5022188864597
 31
0.0
  0
LINE
  5
1D0E
330
1F
100
AcDbEntity
  8
0
  6
ByBlock
 62
     0
370
    -2
100
AcDbLine
 10
94.20708173165435
 20
188.5022188864597
 30
0.0
 11
93.53720923165434
 21
191.0022188864597
 31
0.0
  0
LINE
  5
1D0F
330
1F
100
AcDbEntity
  8
0
  6
ByBlock
 62
     0
370
    -2
100
AcDbLine
 10
94.20708173165435
 20
188.5022188864597
 30
0.0
 11
94.20708173165435
 21
191.0022188864597
 31
0.0
  0
TEXT
  5
1D10
330
1F
100
AcDbEntity
  8
0
 62
     4
100
AcDbText
 10
212.4409022257372
 20
203.8973691689746
 30
0.0
 40
3.0
  1
852.3
100
AcDbText
  0
LINE
  5
1D11
330
1F
100
AcDbEntity
  8
0
  6
ByBlock
 62
     0
370
    -2
100
AcDbLine
 10
112.3693174447854
 20
202.6024966689746
 30
0.0
 11
109.8693174447854
 21
203.2723691689746
 31
0.0
  0
LINE
  5
1D12
330
1F
100
AcDbEntity
  8
0
  6
ByBlock
 62
     0
370
    -2
100
AcDbLine
 10
109.8693174447854
 20
203.2723691689746
 30
0.0
 11
112.3693174447854
 21
203.9422416689746
 31
0.0
  0
LINE
  5
1D13
330
1F
100
AcDbEntity
  8
0
  6
ByBlock
 62
     0
370
    -2
100
AcDbLine
 10
109.8693174447854
 20
203.2723691689746
 30
0.0
 11
112.3693174447854
 21
203.2723691689746
 31
0.0
  0
LINE
  5
1D14
330
1F
100
AcDbEntity
  8
0
  6
ByBlock
 62
     0
370
    -2
100
AcDbLine
 10
320.4443174447855
 20
203.9422416689746
 30
0.0
 11
322.9443174447855
 21
203.2723691689746
 31
0.0
  0
LINE
  5
1D15
330
1F
100
AcDbEntity
  8
0
  6
ByBlock
 62
     0
370
    -2
100
AcDbLine
 10
322.9443174447855
 20
203.2723691689746
 30
0.0
 11
320.4443174447855
 21
202.6024966689746
 31
0.0
  0
LINE
  5
1D16
330
1F
100
AcDbEntity
  8
0
  6
ByBlock
 62
     0
370
    -2
100
AcDbLine
 10
322.9443174447855
 20
203.2723691689746
 30
0.0
 11
320.4443174447855
 21
203.2723691689746
 31
0.0
  0
TEXT
  5
1D17
330
1F
100
AcDbEntity
  8
0
 62
     4
100
AcDbText
 10
313.0973299618694
 20
146.523571599758
 30
0.0
 40
3.0
  1
27
 50
90.0
100
AcDbText
  0
LINE
  5
1D18
330
1F
100
AcDbEntity
  8
0
  6
ByBlock
 62
     0
370
    -2
100
AcDbLine
 10
314.3922024618694
 20
147.8022188864597
 30
0.0
 11
313.7223299618694
 21
145.3022188864597
 31
0.0
  0
LINE
  5
1D19
330
1F
100
AcDbEntity
  8
0
  6
ByBlock
 62
     0
370
    -2
100
AcDbLine
 10
313.7223299618694
 20
145.3022188864597
 30
0.0
 11
313.0524574618694
 21
147.8022188864597
 31
0.0
  0
LINE
  5
1D1A
330
1F
100
AcDbEntity
  8
0
  6
ByBlock
 62
     0
370
    -2
100
AcDbLine
 10
313.7223299618694
 20
145.3022188864597
 30
0.0
 11
313.7223299618694
 21
147.8022188864597
 31
0.0
  0
LINE
  5
1D1B
330
1F
100
AcDbEntity
  8
0
  6
ByBlock
 62
     0
370
    -2
100
AcDbLine
 10
313.0524574618694
 20
149.5522188864597
 30
0.0
 11
313.7223299618694
 21
152.0522188864597
 31
0.0
  0
LINE
  5
1D1C
330
1F
100
AcDbEntity
  8
0
  6
ByBlock
 62
     0
370
    -2
100
AcDbLine
 10
313.7223299618694
 20
152.0522188864597
 30
0.0
 11
314.3922024618694
 21
149.5522188864597
 31
0.0
  0
LINE
  5
1D1D
330
1F
100
AcDbEntity
  8
0
  6
ByBlock
 62
     0
370
    -2
100
AcDbLine
 10
313.7223299618694
 20
152.0522188864597
 30
0.0
 11
313.7223299618694
 21
149.5522188864597
 31
0.0
  0
TEXT
  5
1D1E
330
1F
100
AcDbEntity
  8
0
 62
     4
100
AcDbText
 10
416.1513631983261
 20
158.5946617017926
 30
0.0
 40
3.0
  1
75
 50
90.0
100
AcDbText
  0
LINE
  5
1D1F
330
1F
100
AcDbEntity
  8
0
  6
ByBlock
 62
     0
370
    -2
100
AcDbLine
 10
417.4462356983261
 20
154.8022188864597
 30
0.0
 11
416.7763631983262
 21
152.3022188864597
 31
0.0
  0
LINE
  5
1D20
330
1F
100
AcDbEntity
  8
0
  6
ByBlock
 62
     0
370
    -2
100
AcDbLine
 10
416.7763631983262
 20
152.3022188864597
 30
0.0
 11
416.1064906983261
 21
154.8022188864597
 31
0.0
  0
LINE
  5
1D21
330
1F
100
AcDbEntity
  8
0
  6
ByBlock
 62
     0
370
    -2
100
AcDbLine
 10
416.7763631983262
 20
152.3022188864597
 30
0.0
 11
416.7763631983262
 21
154.8022188864597
 31
0.0
  0
LINE
  5
1D22
330
1F
100
AcDbEntity
  8
0
  6
ByBlock
 62
     0
370
    -2
100
AcDbLine
 10
416.1064906983261
 20
168.5522188864597
 30
0.0
 11
416.7763631983262
 21
171.0522188864597
 31
0.0
  0
LINE
  5
1D23
330
1F
100
AcDbEntity
  8
0
  6
ByBlock
 62
     0
370
    -2
100
AcDbLine
 10
416.7763631983262
 20
171.0522188864597
 30
0.0
 11
417.4462356983261
 21
168.5522188864597
 31
0.0
  0
LINE
  5
1D24
330
1F
100
AcDbEntity
  8
0
  6
ByBlock
 62
     0
370
    -2
100
AcDbLine
 10
416.7763631983262
 20
171.0522188864597
 30
0.0
 11
416.7763631983262
 21
168.5522188864597
 31
0.0
  0
TEXT
  5
1D25
330
1F
100
AcDbEntity
  8
0
 62
     4
100
AcDbText
 10
410.0291386456417
 20
158.6185532237612
 30
0.0
 40
3.0
  1
45
 50
90.0
100
AcDbText
  0
LINE
  5
1D26
330
1F
100
AcDbEntity
  8
0
  6
ByBlock
 62
     0
370
    -2
100
AcDbLine
 10
411.3240111456417
 20
158.5522188864597
 30
0.0
 11
410.6541386456417
 21
156.0522188864597
 31
0.0
  0
LINE
  5
1D27
330
1F
100
AcDbEntity
  8
0
  6
ByBlock
 62
     0
370
    -2
100
AcDbLine
 10
410.6541386456417
 20
156.0522188864597
 30
0.0
 11
409.9842661456417
 21
158.5522188864597
 31
0.0
  0
LINE
  5
1D28
330
1F
100
AcDbEntity
  8
0
  6
ByBlock
 62
     0
370
    -2
100
AcDbLine
 10
410.6541386456417
 20
156.0522188864597
 30
0.0
 11
410.6541386456417
 21
158.5522188864597
 31
0.0
  0
LINE
  5
1D29
330
1F
100
AcDbEntity
  8
0
  6
ByBlock
 62
     0
370
    -2
100
AcDbLine
 10
409.9842661456417
 20
164.8022188864597
 30
0.0
 11
410.6541386456417
 21
167.3022188864597
 31
0.0
  0
LINE
  5
1D2A
330
1F
100
AcDbEntity
  8
0
  6
ByBlock
 62
     0
370
    -2
100
AcDbLine
 10
410.6541386456417
 20
167.3022188864597
 30
0.0
 11
411.3240111456417
 21
164.8022188864597
 31
0.0
  0
LINE
  5
1D2B
330
1F
100
AcDbEntity
  8
0
  6
ByBlock
 62
     0
370
    -2
100
AcDbLine
 10
410.6541386456417
 20
167.3022188864597
 30
0.0
 11
410.6541386456417
 21
164.8022188864597
 31
0.0
  0
TEXT
  5
1D2C
330
1F
100
AcDbEntity
  8
0
 62
     4
100
AcDbText
 10
340.4278442571539
 20
167.6776255979466
 30
0.0
 40
3.0
  1
200
 50
90.0
100
AcDbText
  0
LINE
  5
1D2D
330
1F
100
AcDbEntity
  8
0
  6
ByBlock
 62
     0
370
    -2
100
AcDbLine
 10
340.3829717571539
 20
192.8022188864596
 30
0.0
 11
341.052844257154
 21
195.3022188864596
 31
0.0
  0
LINE
  5
1D2E
330
1F
100
AcDbEntity
  8
0
  6
ByBlock
 62
     0
370
    -2
100
AcDbLine
 10
341.052844257154
 20
195.3022188864596
 30
0.0
 11
341.7227167571539
 21
192.8022188864596
 31
0.0
  0
LINE
  5
1D2F
330
1F
100
AcDbEntity
  8
0
  6
ByBlock
 62
     0
370
    -2
100
AcDbLine
 10
341.052844257154
 20
195.3022188864596
 30
0.0
 11
341.052844257154
 21
192.8022188864596
 31
0.0
  0
LINE
  5
1D30
330
1F
100
AcDbEntity
  8
0
  6
ByBlock
 62
     0
370
    -2
100
AcDbLine
 10
341.7227167571539
 20
147.8022188864597
 30
0.0
 11
341.052844257154
 21
145.3022188864597
 31
0.0
  0
LINE
  5
1D31
330
1F
100
AcDbEntity
  8
0
  6
ByBlock
 62
     0
370
    -2
100
AcDbLine
 10
341.052844257154
 20
145.3022188864597
 30
0.0
 11
340.3829717571539
 21
147.8022188864597
 31
0.0
  0
LINE
  5
1D32
330
1F
100
AcDbEntity
  8
0
  6
ByBlock
 62
     0
370
    -2
100
AcDbLine
 10
341.052844257154
 20
145.3022188864597
 30
0.0
 11
341.052844257154
 21
147.8022188864597
 31
0.0
  0
TEXT
  5
1D33
330
1F
100
AcDbEntity
  8
0
 62
     4
100
AcDbText
 10
215.4951535841305
 20
223.2825649625076
 30
0.0
 40
3.0
  1
900
100
AcDbText
  0
LINE
  5
1D34
330
1F
100
AcDbEntity
  8
0
  6
ByBlock
 62
     0
370
    -2
100
AcDbLine
 10
108.3693174447857
 20
221.9876924625076
 30
0.0
 11
105.8693174447857
 21
222.6575649625076
 31
0.0
  0
LINE
  5
1D35
330
1F
100
AcDbEntity
  8
0
  6
ByBlock
 62
     0
370
    -2
100
AcDbLine
 10
105.8693174447857
 20
222.6575649625076
 30
0.0
 11
108.3693174447857
 21
223.3274374625076
 31
0.0
  0
LINE
  5
1D36
330
1F
100
AcDbEntity
  8
0
  6
ByBlock
 62
     0
370
    -2
100
AcDbLine
 10
105.8693174447857
 20
222.6575649625076
 30
0.0
 11
108.3693174447857
 21
222.6575649625076
 31
0.0
  0
LINE
  5
1D37
330
1F
100
AcDbEntity
  8
0
  6
ByBlock
 62
     0
370
    -2
100
AcDbLine
 10
328.3693174447857
 20
223.3274374625076
 30
0.0
 11
330.8693174447857
 21
222.6575649625076
 31
0.0
  0
LINE
  5
1D38
330
1F
100
AcDbEntity
  8
0
  6
ByBlock
 62
     0
370
    -2
100
AcDbLine
 10
330.8693174447857
 20
222.6575649625076
 30
0.0
 11
328.3693174447857
 21
221.9876924625076
 31
0.0
  0
LINE
  5
1D39
330
1F
100
AcDbEntity
  8
0
  6
ByBlock
 62
     0
370
    -2
100
AcDbLine
 10
330.8693174447857
 20
222.6575649625076
 30
0.0
 11
328.3693174447857
 21
222.6575649625076
 31
0.0
  0
ENDSEC
  0
SECTION
  2
OBJECTS
  0
DICTIONARY
  5
C
330
0
100
AcDbDictionary
281
     1
  3
ACAD_2007HEADERVARS_RT
350
1D3D
  3
ACAD_COLOR
350
73
  3
ACAD_GROUP
350
D
  3
ACAD_LAYOUT
350
1A
  3
ACAD_MATERIAL
350
72
  3
ACAD_MLEADERSTYLE
350
168
  3
ACAD_MLINESTYLE
350
17
  3
ACAD_PLOTSETTINGS
350
19
  3
ACAD_PLOTSTYLENAME
350
E
  3
ACAD_SCALELIST
350
156
  3
ACAD_TABLESTYLE
350
86
  3
ACAD_VISUALSTYLE
350
99
  3
ACDB_RECOMPOSE_DATA
350
1D3B
  3
AcDbVariableDictionary
350
66
  3
DWGPROPS
350
1D3C
  0
DICTIONARY
  5
DD
330
2
100
AcDbDictionary
280
     1
281
     1
  3
ACAD_LAYERSTATES
360
DE
  0
DICTIONARY
  5
8D5
330
10
100
AcDbDictionary
280
     1
281
     1
  3
ADSK_XREC_LAYER_RECONCILED
360
8D6
  0
DICTIONARY
  5
10B1
330
1F
100
AcDbDictionary
280
     1
281
     1
  3
ACAD_SORTENTS
360
10B2
  0
DICTIONARY
  5
1D7C
330
1A7E
100
AcDbDictionary
280
     1
281
     1
  3
ACAD_MTEXT_RT
360
1D7D
  0
DICTIONARY
  5
1D7E
330
1AA1
100
AcDbDictionary
280
     1
281
     1
  3
ACAD_MTEXT_RT
360
1D7F
  0
DICTIONARY
  5
1D3D
102
{ACAD_REACTORS
330
C
102
}
330
C
100
AcDbDictionary
281
     1
  3
DIMARCSYM
350
1D3F
  3
DIMFXL
350
1D3E
  3
DIMJOGANG
350
1D40
  0
DICTIONARY
  5
73
102
{ACAD_REACTORS
330
C
102
}
330
C
100
AcDbDictionary
281
     1
  0
DICTIONARY
  5
D
102
{ACAD_REACTORS
330
C
102
}
330
C
100
AcDbDictionary
281
     1
  0
DICTIONARY
  5
1A
102
{ACAD_REACTORS
330
C
102
}
330
C
100
AcDbDictionary
281
     1
  3
Model
350
22
  3
レイアウト1
350
59
  3
レイアウト2
350
5E
  0
DICTIONARY
  5
72
102
{ACAD_REACTORS
330
C
102
}
330
C
100
AcDbDictionary
281
     1
  3
ByBlock
350
97
  3
ByLayer
350
96
  3
Global
350
98
  0
DICTIONARY
  5
168
102
{ACAD_REACTORS
330
C
102
}
330
C
100
AcDbDictionary
281
     1
  3
Standard
350
169
  0
DICTIONARY
  5
17
102
{ACAD_REACTORS
330
C
102
}
330
C
100
AcDbDictionary
281
     1
  3
Standard
350
18
  0
DICTIONARY
  5
19
102
{ACAD_REACTORS
330
C
102
}
330
C
100
AcDbDictionary
281
     1
  0
ACDBDICTIONARYWDFLT
  5
E
102
{ACAD_REACTORS
330
C
102
}
330
C
100
AcDbDictionary
281
     1
  3
Normal
350
F
100
AcDbDictionaryWithDefault
340
F
  0
DICTIONARY
  5
156
102
{ACAD_REACTORS
330
C
102
}
330
C
100
AcDbDictionary
281
     1
  3
A0
350
157
  3
A1
350
158
  3
A2
350
159
  3
A3
350
15A
  3
A4
350
15B
  3
A5
350
15C
  3
A6
350
15D
  3
A7
350
15E
  3
A8
350
15F
  3
A9
350
160
  3
B0
350
161
  3
B1
350
162
  3
B2
350
163
  3
B3
350
164
  3
B4
350
165
  3
B5
350
166
  3
B6
350
167
  0
DICTIONARY
  5
86
102
{ACAD_REACTORS
330
C
102
}
330
C
100
AcDbDictionary
281
     1
  3
Standard
350
87
  0
DICTIONARY
  5
99
102
{ACAD_REACTORS
330
C
102
}
330
C
100
AcDbDictionary
281
     1
  3
2dWireframe
350
9F
  3
3D Hidden
350
A1
  3
3dWireframe
350
A0
  3
Basic
350
9E
  3
Brighten
350
A5
  3
ColorChange
350
A9
  3
Conceptual
350
A2
  3
Dim
350
A4
  3
EdgeColorOff
350
155
  3
Facepattern
350
A8
  3
Flat
350
9A
  3
FlatWithEdges
350
9B
  3
Gouraud
350
9C
  3
GouraudWithEdges
350
9D
  3
Hidden
350
14D
  3
JitterOff
350
153
  3
Linepattern
350
A7
  3
OverhangOff
350
154
  3
Realistic
350
A3
  3
Shaded
350
152
  3
Shaded with edges
350
151
  3
Shades of Gray
350
14E
  3
Sketchy
350
14F
  3
Thicken
350
A6
  3
Wireframe
350
14C
  3
X-Ray
350
150
  0
XRECORD
  5
1D3B
102
{ACAD_REACTORS
330
C
102
}
330
C
100
AcDbXrecord
280
     1
 90
        1
330
87
  0
DICTIONARY
  5
66
102
{ACAD_REACTORS
330
C
102
}
330
C
100
AcDbDictionary
281
     1
  3
CANNOSCALE
350
8D9
  3
CMLEADERSTYLE
350
8D8
  3
CTABLESTYLE
350
89
  3
DIMASSOC
350
67
  3
HIDETEXT
350
6B
  3
INDEXCTL
350
8DB
  3
SORTENTS
350
8DA
  3
XCLIPFRAME
350
1AEA
  0
XRECORD
  5
1D3C
102
{ACAD_REACTORS
330
C
102
}
330
C
100
AcDbXrecord
280
     1
  1
DWGPROPS COOKIE
  2

  3

  4

  6

  7

  8
imamura
  9

300
=
301
=
302
=
303
=
304
=
305
=
306
=
307
=
308
=
309
=
 40
0.0763365393518519
 41
2456367.849490081
 42
2459556.376397315
  1

 90
        0
  0
DICTIONARY
  5
DE
102
{ACAD_REACTORS
330
DD
102
}
330
DD
100
AcDbDictionary
281
     1
  0
XRECORD
  5
8D6
102
{ACAD_REACTORS
330
8D5
102
}
330
8D5
100
AcDbXrecord
280
     1
290
     1
  0
SORTENTSTABLE
  5
10B2
102
{ACAD_REACTORS
330
10B1
102
}
330
10B1
100
AcDbSortentsTable
330
1F
331
6BF
  5
1CEE
331
6BB
  5
1CEA
331
5ED
  5
6B6
331
5B6
  5
628
331
57F
  5
581
331
50C
  5
50E
331
61C
  5
6F0
331
5E9
  5
6B3
331
508
  5
50A
331
53C
  5
53E
331
57B
  5
57D
331
618
  5
6ED
331
5E5
  5
6AF
331
504
  5
508
331
538
  5
53A
331
577
  5
579
331
5E1
  5
6AB
331
5AA
  5
5EF
331
500
  5
502
331
534
  5
536
331
573
  5
575
331
638
  5
1B45
331
530
  5
532
331
1D35
  5
1B56
331
6C2
  5
1CF1
331
663
  5
1C55
331
1D31
  5
1B63
331
1D2D
  5
1B68
331
1D29
  5
1B75
331
1B47
  5
1CC7
331
1BBD
  5
1BE1
331
1BFC
  5
615
331
1B43
  5
1CF7
331
1C76
  5
1CFE
331
1CAD
  5
1C81
331
1CEC
  5
1C15
331
1BF8
  5
611
331
1C37
  5
598
331
1B3F
  5
1CF3
331
1B7E
  5
1C68
331
1BB5
  5
1BF1
331
1C72
  5
1D0E
331
1CA9
  5
1C83
331
1CE8
  5
1C17
331
1C33
  5
594
331
1C6E
  5
1D10
331
1CA5
  5
1C8A
331
1CE4
  5
1C1E
331
1BB1
  5
1C03
331
1C2F
  5
590
331
1C6A
  5
1D18
331
1CA1
  5
1C8C
331
1CE0
  5
1C20
331
1C2B
  5
58C
331
6B7
  5
1CE6
331
6B3
  5
1CE2
331
614
  5
6E9
331
E4E
  5
1D39
331
6AF
  5
1CDE
331
610
  5
6E5
331
5DD
  5
6A7
331
5A6
  5
5E9
331
56F
  5
571
331
4FC
  5
4FE
331
6AB
  5
1CDA
331
60C
  5
6E1
331
5D9
  5
695
331
5A2
  5
5E5
331
4F8
  5
4F9
331
52C
  5
52E
331
56B
  5
56D
331
608
  5
6D3
331
5D5
  5
687
331
59E
  5
5E1
331
4F4
  5
4F4
331
528
  5
52A
331
567
  5
569
331
5D1
  5
683
331
59A
  5
5DD
331
524
  5
526
331
563
  5
565
331
520
  5
522
331
1D25
  5
1B7E
331
1D21
  5
1B8D
331
1D1D
  5
1B9A
331
1D19
  5
1B9F
331
1B76
  5
1C72
331
1BEC
  5
1B5D
331
1C66
  5
1D35
331
1C9D
  5
1C9B
331
1CDC
  5
1C27
331
1BA9
  5
1C10
331
1C27
  5
588
331
1C62
  5
1D36
331
1C99
  5
1CA1
331
1CD8
  5
1C2D
331
1C23
  5
584
331
1B6A
  5
1C87
331
1BA1
  5
1C1A
331
1BE0
  5
1B80
331
1C95
  5
1CAA
331
1CD4
  5
1C39
331
1C1F
  5
609
331
1C5E
  5
5C1
331
1C91
  5
1CB8
331
1CD0
  5
1C44
331
1C1B
  5
605
331
1C5A
  5
5BD
331
6EE
  5
1D2F
331
6DF
  5
1D20
331
6EA
  5
1D2B
331
604
  5
6CF
331
6E6
  5
1D27
331
637
  5
1B44
331
600
  5
6CA
331
5CD
  5
66E
331
596
  5
5D9
331
55F
  5
561
331
6E2
  5
1D23
331
633
  5
1B40
331
5FC
  5
6C3
331
5C9
  5
63F
331
592
  5
5D5
331
55B
  5
55D
331
51C
  5
51E
331
5F8
  5
6BF
331
5C5
  5
639
331
58E
  5
5D1
331
518
  5
51A
331
557
  5
559
331
5C1
  5
635
331
58A
  5
5CD
331
514
  5
516
331
553
  5
555
331
510
  5
512
331
68E
  5
1CAD
331
1D15
  5
1BAC
331
1D11
  5
1BB1
331
1D0D
  5
1BBD
331
1D09
  5
1BC9
331
1CCC
  5
1C48
331
1C17
  5
601
331
1C56
  5
5B9
331
1B5E
  5
1CA3
331
1B9D
  5
1C26
331
1BD4
  5
1BA6
331
1CC8
  5
1C4F
331
1D07
  5
1BD6
331
1C13
  5
5FD
331
1C52
  5
5B5
331
1C8D
  5
1CBA
331
1CC4
  5
1C51
331
1D03
  5
1BD8
331
1C4E
  5
5AF
331
1C89
  5
1CC1
331
1CC0
  5
1C5C
331
1C4A
  5
5AB
331
62F
  5
1B3C
331
62B
  5
1B38
331
6CE
  5
1D05
331
5BD
  5
631
331
54F
  5
551
331
6CA
  5
1D02
331
623
  5
1B33
331
5B9
  5
62D
331
54B
  5
54D
331
5F4
  5
6BB
331
586
  5
5C9
331
547
  5
549
331
6F1
  5
1D32
331
582
  5
5C5
331
686
  5
1C97
331
543
  5
545
331
682
  5
1C93
331
1D38
  5
1B50
331
1C0F
  5
5F9
331
1B56
  5
1CB2
331
1B95
  5
1C2E
331
1BCC
  5
1BB9
331
1CFF
  5
1BE4
331
1C0B
  5
5F5
331
1B91
  5
1C3D
331
1C85
  5
1CC3
331
1CBC
  5
1C64
331
1CFB
  5
1BF0
331
1C07
  5
621
331
1C46
  5
5A7
331
1C81
  5
1CCC
331
1CB8
  5
1C6F
331
1CF7
  5
1BF9
331
1BC4
  5
1BCB
331
1C03
  5
61D
331
1C42
  5
5A3
331
1B4A
  5
1CCA
331
1B89
  5
1C4B
331
1C7D
  5
1CD2
331
1CB4
  5
1C76
331
1CF3
  5
1C06
331
1C3E
  5
59F
331
1C79
  5
1CFD
331
1CB0
  5
1C78
331
1C3A
  5
59B
331
6BE
  5
1CED
331
6BA
  5
1CE9
331
50F
  5
511
331
61F
  5
6F5
331
5EC
  5
6B5
331
5B5
  5
626
331
57E
  5
580
331
53F
  5
541
331
50B
  5
50D
331
6D2
  5
1D09
331
61B
  5
6EF
331
5E8
  5
6B2
331
5B1
  5
60F
331
53B
  5
53D
331
57A
  5
57C
331
5E4
  5
6AE
331
5AD
  5
5F3
331
503
  5
505
331
537
  5
539
331
576
  5
578
331
5E0
  5
6AA
331
5A9
  5
5ED
331
63B
  5
1B48
331
533
  5
535
331
572
  5
574
331
666
  5
1C57
331
1D34
  5
1B55
331
6C1
  5
1CF0
331
1D30
  5
1B62
331
1D2C
  5
1B6E
331
1D28
  5
1B7D
331
1BFF
  5
618
331
1B85
  5
1C5B
331
1BBC
  5
1BE0
331
1CEF
  5
1C0B
331
1BFB
  5
614
331
1B42
  5
1CF6
331
1C75
  5
1D0C
331
1CAC
  5
1C80
331
1CEB
  5
1C14
331
1BF7
  5
610
331
1C36
  5
597
331
1B7D
  5
1C67
331
1C71
  5
1D0D
331
1CA8
  5
1C82
331
1CE7
  5
1C16
331
1BF3
  5
1B4B
331
1C32
  5
593
331
1C6D
  5
1D14
331
1CA4
  5
1C89
331
1CE3
  5
1C1D
331
1BB0
  5
1BFF
331
1C2E
  5
58F
331
1C69
  5
1D17
331
1CA0
  5
1C8F
331
1C2A
  5
58B
331
6B6
  5
1CE5
331
617
  5
6EC
331
6B2
  5
1CE1
331
613
  5
6E8
331
4FF
  5
501
331
6AE
  5
1CDD
331
60F
  5
6E4
331
5DC
  5
6A5
331
5A5
  5
5E8
331
56E
  5
570
331
52F
  5
531
331
4FB
  5
4FD
331
6AA
  5
1CD9
331
60B
  5
6E0
331
5D8
  5
690
331
5A1
  5
5E4
331
4F7
  5
4F8
331
52B
  5
52D
331
56A
  5
56C
331
5D4
  5
686
331
59D
  5
5E0
331
527
  5
529
331
566
  5
568
331
5D0
  5
682
331
599
  5
5DC
331
6A5
  5
1CD5
331
523
  5
525
331
562
  5
564
331
1D24
  5
1B87
331
1D20
  5
1B8C
331
1D1C
  5
1B99
331
1D18
  5
1B9B
331
1B75
  5
1C71
331
1BEB
  5
1B5C
331
1CDF
  5
1C23
331
1B71
  5
1C7E
331
1BA8
  5
1C0F
331
1BE7
  5
1B71
331
1C65
  5
1D34
331
1C9C
  5
1CA0
331
1CDB
  5
1C2C
331
1C26
  5
587
331
1C98
  5
1CA7
331
1CD7
  5
1C36
331
1C22
  5
60C
331
1C61
  5
5C4
331
1B69
  5
1C86
331
1C94
  5
1CA9
331
1CD3
  5
1C38
331
1C1E
  5
608
331
1C5D
  5
5C0
331
1C90
  5
1CB7
331
1C1A
  5
604
331
1C59
  5
5BC
331
6ED
  5
1D2E
331
6DE
  5
1D1F
331
607
  5
6D2
331
6E9
  5
1D2A
331
603
  5
6CE
331
6E5
  5
1D26
331
636
  5
1B43
331
5FF
  5
6C9
331
5CC
  5
66B
331
595
  5
5D8
331
55E
  5
560
331
51F
  5
521
331
6E1
  5
1D22
331
632
  5
1B3F
331
5FB
  5
6C2
331
5C8
  5
63C
331
591
  5
5D4
331
51B
  5
51D
331
55A
  5
55C
331
5C4
  5
638
331
58D
  5
5D0
331
517
  5
519
331
556
  5
558
331
5C0
  5
634
331
589
  5
5CC
331
695
  5
1CB0
331
513
  5
515
331
552
  5
554
331
68D
  5
1CAC
331
1D14
  5
1BAB
331
1D10
  5
1BB7
331
1D0C
  5
1BC5
331
1D08
  5
1BD7
331
1BDF
  5
1B7F
331
1B65
  5
1C9A
331
1BDB
  5
1B94
331
1CCF
  5
1C43
331
1CCB
  5
1C47
331
1C16
  5
600
331
1C55
  5
5B8
331
1B5D
  5
1CA2
331
1B9C
  5
1C25
331
1BD3
  5
1BA5
331
1CC7
  5
1C4E
331
1D06
  5
1BD2
331
1C12
  5
5FC
331
1C51
  5
5B3
331
1B59
  5
1CB5
331
1C8C
  5
1CB9
331
1CC3
  5
1C54
331
1D02
  5
1BDE
331
1C4D
  5
5AE
331
1C88
  5
1CC0
331
1C49
  5
5AA
331
62E
  5
1B3B
331
626
  5
1B36
331
5BC
  5
630
331
54E
  5
550
331
6C9
  5
1D01
331
622
  5
1B32
331
5F7
  5
6BE
331
5B8
  5
62C
331
54A
  5
54C
331
5F3
  5
6BA
331
585
  5
5C8
331
546
  5
548
331
6F0
  5
1D31
331
685
  5
1C96
331
542
  5
544
331
681
  5
1C92
331
1BCF
  5
1BBC
331
1C0E
  5
5F8
331
1B55
  5
1CB1
331
1BCB
  5
1BB8
331
1CBF
  5
1C63
331
1CFE
  5
1BEC
331
1C0A
  5
5F4
331
1B51
  5
1CBF
331
1B90
  5
1C3C
331
1BC7
  5
1BD1
331
1C84
  5
1CC6
331
1CBB
  5
1C6C
331
1CFA
  5
1BF6
331
1C06
  5
620
331
1C45
  5
5A6
331
1C80
  5
1CD1
331
1CB7
  5
1C6E
331
1CF6
  5
1BF8
331
1BC3
  5
1BCA
331
1C02
  5
61C
331
1C41
  5
5A2
331
1B49
  5
1CC9
331
1C7C
  5
1CFA
331
1CB3
  5
1C75
331
1CF2
  5
1C05
331
1C3D
  5
59E
331
1C78
  5
1CFC
331
1C39
  5
59A
331
6BD
  5
1CEC
331
6B9
  5
1CE8
331
5EF
  5
6B7
331
50E
  5
510
331
61E
  5
6F2
331
5B4
  5
625
331
57D
  5
57F
331
53E
  5
540
331
50A
  5
50C
331
6D1
  5
1D08
331
5E7
  5
6B1
331
5B0
  5
60E
331
53A
  5
53C
331
579
  5
57B
331
5E3
  5
6AD
331
5AC
  5
5F2
331
502
  5
504
331
536
  5
538
331
575
  5
577
331
5A8
  5
5EC
331
63A
  5
1B47
331
532
  5
534
331
571
  5
573
331
1D37
  5
1B4F
331
10B0
  5
4FC
331
665
  5
1C56
331
1D33
  5
1B5B
331
6C0
  5
1CEF
331
1D2F
  5
1B6D
331
1D2B
  5
1B77
331
1BBF
  5
1BE3
331
1BFE
  5
617
331
1B84
  5
1C5A
331
1BBB
  5
1BDF
331
1CAF
  5
1C77
331
1CEE
  5
1C07
331
1BFA
  5
613
331
1B41
  5
1CF5
331
1BB7
  5
1BF3
331
1C74
  5
1D0B
331
1CAB
  5
1C7F
331
1CEA
  5
1C13
331
1C35
  5
596
331
1B7C
  5
1C66
331
1C70
  5
1D12
331
1CA7
  5
1C85
331
1CE6
  5
1C19
331
1BF2
  5
1B4A
331
1C31
  5
592
331
1B39
  5
1D16
331
1C6C
  5
1D13
331
1CA3
  5
1C8E
331
1CE2
  5
1C22
331
1C2D
  5
58E
331
1C68
  5
1D1B
331
1C29
  5
58A
331
6B5
  5
1CE4
331
616
  5
6EB
331
6B1
  5
1CE0
331
612
  5
6E7
331
5DF
  5
6A9
331
4FE
  5
500
331
6AD
  5
1CDC
331
60E
  5
6E3
331
5DB
  5
69A
331
5A4
  5
5E7
331
56D
  5
56F
331
52E
  5
530
331
4FA
  5
4FB
331
6A9
  5
1CD8
331
60A
  5
6DF
331
5D7
  5
68F
331
5A0
  5
5E3
331
4F6
  5
4F7
331
52A
  5
52C
331
569
  5
56B
331
5D3
  5
685
331
59C
  5
5DF
331
526
  5
528
331
565
  5
567
331
598
  5
5DB
331
6A4
  5
1CD4
331
522
  5
524
331
561
  5
563
331
1D27
  5
1B79
331
1D23
  5
1B86
331
1D1F
  5
1B8B
331
1D1B
  5
1B95
331
1BAF
  5
1BFE
331
1B35
  5
1D1D
331
1BAB
  5
1C12
331
1C9F
  5
1C9D
331
1CDE
  5
1C29
331
1B31
  5
1D38
331
1B70
  5
1C7D
331
1BA7
  5
1C0E
331
1BE6
  5
1B70
331
1C64
  5
1D33
331
1C9B
  5
1C9F
331
1CDA
  5
1C2B
331
1C25
  5
586
331
1C97
  5
1CA6
331
1CD6
  5
1C35
331
1BA3
  5
1C1C
331
1C21
  5
60B
331
1C60
  5
5C3
331
1C93
  5
1CA8
331
1CD2
  5
1C37
331
1C1D
  5
607
331
1C5C
  5
5BF
331
1C19
  5
603
331
1C58
  5
5BB
331
6EC
  5
1D2D
331
6DD
  5
1D1E
331
606
  5
6D1
331
6E8
  5
1D29
331
602
  5
6CC
331
5CF
  5
681
331
6E4
  5
1D25
331
635
  5
1B42
331
5FE
  5
6C7
331
5CB
  5
668
331
594
  5
5D7
331
55D
  5
55F
331
51E
  5
520
331
6E0
  5
1D21
331
631
  5
1B3E
331
5FA
  5
6C1
331
5C7
  5
63B
331
590
  5
5D3
331
51A
  5
51C
331
559
  5
55B
331
5C3
  5
637
331
58C
  5
5CF
331
516
  5
518
331
555
  5
557
331
588
  5
5CB
331
512
  5
514
331
551
  5
553
331
690
  5
1CAF
331
1D17
  5
1BA1
331
1D13
  5
1BB3
331
1D0F
  5
1BC2
331
1D0B
  5
1BC4
331
1B64
  5
1C99
331
1BDA
  5
1B93
331
1CCE
  5
1C40
331
1CCA
  5
1C4A
331
1C15
  5
5FF
331
1C54
  5
5B7
331
1B9B
  5
1C24
331
1C8F
  5
1CB6
331
1CC6
  5
1C53
331
1D05
  5
1BDD
331
1C11
  5
5FB
331
1C50
  5
5B2
331
1B58
  5
1CB4
331
1C8B
  5
1CBC
331
1CC2
  5
1C60
331
1D01
  5
1BE6
331
1C4C
  5
5AD
331
1C48
  5
5A9
331
62D
  5
1B3A
331
5BF
  5
633
331
6CC
  5
1D04
331
625
  5
1B35
331
5BB
  5
62F
331
54D
  5
54F
331
6C8
  5
1D00
331
621
  5
1B31
331
5F6
  5
6BD
331
549
  5
54B
331
5F2
  5
6B9
331
584
  5
5C7
331
545
  5
547
331
580
  5
582
331
684
  5
1C95
331
541
  5
543
331
680
  5
1C91
331
1B97
  5
1C33
331
1BCE
  5
1BBB
331
1C0D
  5
5F7
331
1C87
  5
1CC5
331
1CBE
  5
1C62
331
1CFD
  5
1BEB
331
1C09
  5
623
331
1B50
  5
1CBE
331
1B8F
  5
1C3B
331
1BC6
  5
1BD0
331
1C83
  5
1CCE
331
1CBA
  5
1C6B
331
1CF9
  5
1BF5
331
1C05
  5
61F
331
1C44
  5
5A5
331
1B8B
  5
1C4D
331
1C7F
  5
1CD0
331
1CB6
  5
1C6D
331
1CF5
  5
1BF7
331
1C01
  5
61B
331
1C40
  5
5A1
331
1B48
  5
1CC8
331
1C7B
  5
1CF9
331
1CB2
  5
1C74
331
1CF1
  5
1C04
331
1C3C
  5
59D
331
1C38
  5
599
331
6BC
  5
1CEB
331
675
  5
1C7B
331
6B8
  5
1CE7
331
5B7
  5
62B
331
50D
  5
50F
331
61D
  5
6F1
331
5EA
  5
6B4
331
5B3
  5
624
331
53D
  5
53F
331
57C
  5
57E
331
6D0
  5
1D07
331
619
  5
6EE
331
5E6
  5
6B0
331
5AF
  5
60D
331
505
  5
509
331
539
  5
53B
331
578
  5
57A
331
5E2
  5
6AC
331
5AB
  5
5F1
331
501
  5
503
331
535
  5
537
331
574
  5
576
331
570
  5
572
331
639
  5
1B46
331
10B3
  5
4F5
331
531
  5
533
331
6C7
  5
1CFF
331
668
  5
1C58
331
1D36
  5
1B57
331
6C3
  5
1CF2
331
1D32
  5
1B67
331
1D2E
  5
1B69
331
1D2A
  5
1B76
331
1BBE
  5
1BE2
331
1BFD
  5
616
331
1B83
  5
1C59
331
1C77
  5
1CFB
331
1CAE
  5
1C7A
331
1CED
  5
1C0D
331
1BF9
  5
612
331
1B40
  5
1CF4
331
1B7F
  5
1C69
331
1BB6
  5
1BF2
331
1C73
  5
1D0A
331
1CAA
  5
1C84
331
1CE9
  5
1C18
331
1C34
  5
595
331
1B3C
  5
1D0F
331
1B7B
  5
1C65
331
1C6F
  5
1D11
331
1CA6
  5
1C8B
331
1CE5
  5
1C1F
331
1BF1
  5
1B49
331
1C30
  5
591
331
1B38
  5
1D15
331
1C6B
  5
1D19
331
1CA2
  5
1C8D
331
1CE1
  5
1C21
331
1C2C
  5
58D
331
1C28
  5
589
331
6B4
  5
1CE3
331
615
  5
6EA
331
6B0
  5
1CDF
331
611
  5
6E6
331
5DE
  5
6A8
331
5A7
  5
5EA
331
4FD
  5
4FF
331
6AC
  5
1CDB
331
60D
  5
6E2
331
5DA
  5
697
331
5A3
  5
5E6
331
56C
  5
56E
331
52D
  5
52F
331
4F9
  5
4FA
331
6A8
  5
1CD7
331
609
  5
6D4
331
5D6
  5
68A
331
59F
  5
5E2
331
4F5
  5
4F6
331
529
  5
52B
331
568
  5
56A
331
5D2
  5
684
331
59B
  5
5DE
331
6A7
  5
1CD6
331
525
  5
527
331
564
  5
566
331
6A3
  5
1CD3
331
521
  5
523
331
560
  5
562
331
1D26
  5
1B78
331
1D22
  5
1B85
331
1D1E
  5
1B91
331
1D1A
  5
1BA0
331
1B77
  5
1C73
331
1BED
  5
1B61
331
1B34
  5
1D1C
331
1BAA
  5
1C11
331
1C67
  5
1D1A
331
1C9E
  5
1C9C
331
1CDD
  5
1C28
331
1B6F
  5
1C7C
331
1BE5
  5
1B6F
331
1C63
  5
1D37
331
1C9A
  5
1C9E
331
1CD9
  5
1C2A
331
1C24
  5
585
331
1B6B
  5
1C88
331
1BA2
  5
1C1B
331
1BE1
  5
1B81
331
1C96
  5
1CA5
331
1CD5
  5
1C34
331
1C20
  5
60A
331
1C5F
  5
5C2
331
1C92
  5
1CAB
331
1CD1
  5
1C3A
331
1C1C
  5
606
331
1C5B
  5
5BE
331
1C18
  5
602
331
6EF
  5
1D30
331
6EB
  5
1D2C
331
605
  5
6D0
331
6E7
  5
1D28
331
601
  5
6CB
331
5CE
  5
677
331
597
  5
5DA
331
6E3
  5
1D24
331
634
  5
1B41
331
5FD
  5
6C4
331
5CA
  5
666
331
593
  5
5D6
331
55C
  5
55E
331
51D
  5
51F
331
630
  5
1B3D
331
5F9
  5
6C0
331
5C6
  5
63A
331
58F
  5
5D2
331
519
  5
51B
331
558
  5
55A
331
5C2
  5
636
331
58B
  5
5CE
331
515
  5
517
331
554
  5
556
331
511
  5
513
331
550
  5
552
331
68F
  5
1CAE
331
1D16
  5
1BAD
331
1D12
  5
1BB2
331
1D0E
  5
1BC1
331
1D0A
  5
1BC3
331
1B63
  5
1C98
331
1BD9
  5
1B92
331
1CCD
  5
1C49
331
1C57
  5
5BA
331
1B5F
  5
1CA4
331
1BD5
  5
1BA7
331
1CC9
  5
1C50
331
1C14
  5
5FE
331
1C53
  5
5B6
331
1C8E
  5
1CBB
331
1CC5
  5
1C52
331
1D04
  5
1BDC
331
1C10
  5
5FA
331
1C4F
  5
5B1
331
1C8A
  5
1CC2
331
1CC1
  5
1C5D
331
1D00
  5
1BE5
331
1C4B
  5
5AC
331
62C
  5
1B39
331
6CF
  5
1D06
331
628
  5
1B37
331
5BE
  5
632
331
6CB
  5
1D03
331
624
  5
1B34
331
5BA
  5
62E
331
54C
  5
54E
331
620
  5
10B3
331
5F5
  5
6BC
331
587
  5
5CA
331
548
  5
54A
331
5F1
  5
6B8
331
583
  5
5C6
331
544
  5
546
331
683
  5
1C94
331
540
  5
542
331
67F
  5
1C90
331
1D39
  5
1B51
331
1B57
  5
1CB3
331
1B96
  5
1C2F
331
1BCD
  5
1BBA
331
1C0C
  5
5F6
331
1C86
  5
1CC4
331
1CBD
  5
1C61
331
1CFC
  5
1BEA
331
1C08
  5
622
331
1C47
  5
5A8
331
1B4F
  5
1CBD
331
1BC5
  5
1BCF
331
1C82
  5
1CCD
331
1CB9
  5
1C6A
331
1CF8
  5
1BF4
331
1C04
  5
61E
331
1C43
  5
5A4
331
1B4B
  5
1CCB
331
1B8A
  5
1C4C
331
1C7E
  5
1CCF
331
1CB5
  5
1C70
331
1CF4
  5
1BFD
331
1C00
  5
619
331
1C3F
  5
5A0
331
1C7A
  5
1CF8
331
1CB1
  5
1C79
331
1CF0
  5
1C0C
331
1C3B
  5
59C
  0
XRECORD
  5
1D7D
102
{ACAD_REACTORS
330
1D7C
102
}
330
1D7C
100
AcDbXrecord
280
     1
 40
1010.0
  1
8-\U+22056.5穴
  0
XRECORD
  5
1D7F
102
{ACAD_REACTORS
330
1D7E
102
}
330
1D7E
100
AcDbXrecord
280
     1
 40
587.0
  1
4-\U+220511穴
  0
XRECORD
  5
1D3F
102
{ACAD_REACTORS
330
1D3D
102
}
330
1D3D
100
AcDbXrecord
280
     1
 70
     2
  0
XRECORD
  5
1D3E
102
{ACAD_REACTORS
330
1D3D
102
}
330
1D3D
100
AcDbXrecord
280
     1
 40
1.25
  0
XRECORD
  5
1D40
102
{ACAD_REACTORS
330
1D3D
102
}
330
1D3D
100
AcDbXrecord
280
     1
 40
1.570796326794896
  0
LAYOUT
  5
22
102
{ACAD_XDICTIONARY
360
1D41
102
}
102
{ACAD_REACTORS
330
1A
102
}
330
1A
100
AcDbPlotSettings
  1

  2
none_device
  4
ANSI_A_(8.50_x_11.00_Inches)
  6

 40
6.349999904632567
 41
19.04999923706055
 42
6.350006103515625
 43
19.04998779296875
 44
215.8999938964844
 45
279.3999938964844
 46
0.0
 47
0.0
 48
0.0
 49
0.0
140
0.0
141
0.0
142
1.0
143
2.584895464708373
 70
 11952
 72
     0
 73
     1
 74
     0
  7

 75
     0
147
0.3868628397755418
148
0.0
149
0.0
100
AcDbLayout
  1
Model
 70
     1
 71
     0
 10
0.0
 20
0.0
 11
12.0
 21
9.0
 12
0.0
 22
0.0
 32
0.0
 14
0.0
 24
0.0
 34
0.0
 15
0.0
 25
0.0
 35
0.0
146
0.0
 13
0.0
 23
0.0
 33
0.0
 16
1.0
 26
0.0
 36
0.0
 17
0.0
 27
1.0
 37
0.0
 76
     0
330
1F
331
94
  0
LAYOUT
  5
59
102
{ACAD_XDICTIONARY
360
1D43
102
}
102
{ACAD_REACTORS
330
1A
102
}
330
1A
100
AcDbPlotSettings
  1

  2
None
  4

  6

 40
0.0
 41
0.0
 42
0.0
 43
0.0
 44
0.0
 45
0.0
 46
0.0
 47
0.0
 48
0.0
 49
0.0
140
0.0
141
0.0
142
1.0
143
1.0
 70
   688
 72
     0
 73
     0
 74
     5
  7

 75
    16
147
1.0
148
0.0
149
0.0
100
AcDbLayout
  1
レイアウト1
 70
     1
 71
     1
 10
0.0
 20
0.0
 11
12.0
 21
9.0
 12
0.0
 22
0.0
 32
0.0
 14
0.0
 24
0.0
 34
0.0
 15
0.0
 25
0.0
 35
0.0
146
0.0
 13
0.0
 23
0.0
 33
0.0
 16
1.0
 26
0.0
 36
0.0
 17
0.0
 27
1.0
 37
0.0
 76
     0
330
58
  0
LAYOUT
  5
5E
102
{ACAD_XDICTIONARY
360
1D45
102
}
102
{ACAD_REACTORS
330
1A
102
}
330
1A
100
AcDbPlotSettings
  1

  2
None
  4

  6

 40
0.0
 41
0.0
 42
0.0
 43
0.0
 44
0.0
 45
0.0
 46
0.0
 47
0.0
 48
0.0
 49
0.0
140
0.0
141
0.0
142
1.0
143
1.0
 70
   688
 72
     0
 73
     0
 74
     5
  7

 75
    16
147
1.0
148
0.0
149
0.0
100
AcDbLayout
  1
レイアウト2
 70
     1
 71
     2
 10
0.0
 20
0.0
 11
12.0
 21
9.0
 12
0.0
 22
0.0
 32
0.0
 14
0.0
 24
0.0
 34
0.0
 15
0.0
 25
0.0
 35
0.0
146
0.0
 13
0.0
 23
0.0
 33
0.0
 16
1.0
 26
0.0
 36
0.0
 17
0.0
 27
1.0
 37
0.0
 76
     0
330
5D
  0
MATERIAL
  5
97
102
{ACAD_XDICTIONARY
360
8EE
102
}
102
{ACAD_REACTORS
330
72
102
}
330
72
100
AcDbMaterial
  1
ByBlock
 73
     1
 78
     1
172
     1
176
     1
270
     1
274
     1
  0
MATERIAL
  5
96
102
{ACAD_XDICTIONARY
360
8EC
102
}
102
{ACAD_REACTORS
330
72
102
}
330
72
100
AcDbMaterial
  1
ByLayer
 73
     1
 78
     1
172
     1
176
     1
270
     1
274
     1
  0
MATERIAL
  5
98
102
{ACAD_XDICTIONARY
360
8F0
102
}
102
{ACAD_REACTORS
330
72
102
}
330
72
100
AcDbMaterial
  1
Global
 73
     1
 78
     1
172
     1
176
     1
270
     1
274
     1
  0
MLEADERSTYLE
  5
169
102
{ACAD_REACTORS
330
168
102
}
330
168
100
AcDbMLeaderStyle
170
     2
171
     1
172
     0
 90
        2
 40
0.0
 41
0.0
173
     1
 91
-1056964608
340
14
 92
       -2
290
     1
 42
2.0
291
     1
 43
0.36
  3
Standard
 44
4.0
300

342
11
174
     1
178
     6
175
     1
176
     0
 93
-1056964608
 45
4.0
292
     0
297
     0
 46
4.0
 94
-1056964608
 47
1.0
 49
1.0
140
1.0
293
     1
141
0.0
294
     1
177
     0
142
1.0
295
     0
296
     0
143
0.125
1001
ACAD_MLEADERVER
1070
     2
  0
MLINESTYLE
  5
18
102
{ACAD_REACTORS
330
17
102
}
330
17
100
AcDbMlineStyle
  2
STANDARD
 70
     0
  3

 62
   256
 51
90.0
 52
90.0
 71
     2
 49
0.5
 62
   256
  6
BYLAYER
 49
-0.5
 62
   256
  6
BYLAYER
  0
ACDBPLACEHOLDER
  5
F
102
{ACAD_REACTORS
330
E
102
}
330
E
  0
SCALE
  5
157
102
{ACAD_REACTORS
330
156
102
}
330
156
100
AcDbScale
 70
     0
300
1:1
140
1.0
141
1.0
290
     1
  0
SCALE
  5
158
102
{ACAD_REACTORS
330
156
102
}
330
156
100
AcDbScale
 70
     0
300
1:2
140
1.0
141
2.0
290
     0
  0
SCALE
  5
159
102
{ACAD_REACTORS
330
156
102
}
330
156
100
AcDbScale
 70
     0
300
1:4
140
1.0
141
4.0
290
     0
  0
SCALE
  5
15A
102
{ACAD_REACTORS
330
156
102
}
330
156
100
AcDbScale
 70
     0
300
1:5
140
1.0
141
5.0
290
     0
  0
SCALE
  5
15B
102
{ACAD_REACTORS
330
156
102
}
330
156
100
AcDbScale
 70
     0
300
1:8
140
1.0
141
8.0
290
     0
  0
SCALE
  5
15C
102
{ACAD_REACTORS
330
156
102
}
330
156
100
AcDbScale
 70
     0
300
1:10
140
1.0
141
10.0
290
     0
  0
SCALE
  5
15D
102
{ACAD_REACTORS
330
156
102
}
330
156
100
AcDbScale
 70
     0
300
1:16
140
1.0
141
16.0
290
     0
  0
SCALE
  5
15E
102
{ACAD_REACTORS
330
156
102
}
330
156
100
AcDbScale
 70
     0
300
1:20
140
1.0
141
20.0
290
     0
  0
SCALE
  5
15F
102
{ACAD_REACTORS
330
156
102
}
330
156
100
AcDbScale
 70
     0
300
1:30
140
1.0
141
30.0
290
     0
  0
SCALE
  5
160
102
{ACAD_REACTORS
330
156
102
}
330
156
100
AcDbScale
 70
     0
300
1:40
140
1.0
141
40.0
290
     0
  0
SCALE
  5
161
102
{ACAD_REACTORS
330
156
102
}
330
156
100
AcDbScale
 70
     0
300
1:50
140
1.0
141
50.0
290
     0
  0
SCALE
  5
162
102
{ACAD_REACTORS
330
156
102
}
330
156
100
AcDbScale
 70
     0
300
1:100
140
1.0
141
100.0
290
     0
  0
SCALE
  5
163
102
{ACAD_REACTORS
330
156
102
}
330
156
100
AcDbScale
 70
     0
300
2:1
140
2.0
141
1.0
290
     0
  0
SCALE
  5
164
102
{ACAD_REACTORS
330
156
102
}
330
156
100
AcDbScale
 70
     0
300
4:1
140
4.0
141
1.0
290
     0
  0
SCALE
  5
165
102
{ACAD_REACTORS
330
156
102
}
330
156
100
AcDbScale
 70
     0
300
8:1
140
8.0
141
1.0
290
     0
  0
SCALE
  5
166
102
{ACAD_REACTORS
330
156
102
}
330
156
100
AcDbScale
 70
     0
300
10:1
140
10.0
141
1.0
290
     0
  0
SCALE
  5
167
102
{ACAD_REACTORS
330
156
102
}
330
156
100
AcDbScale
 70
     0
300
100:1
140
100.0
141
1.0
290
     0
  0
TABLESTYLE
  5
87
102
{ACAD_XDICTIONARY
360
8DD
102
}
102
{ACAD_REACTORS
330
86
102
}
330
86
100
AcDbTableStyle
  3
Standard
 70
     0
 71
     0
 40
0.06
 41
0.06
280
     0
281
     0
  7
Standard
140
0.18
170
     2
 62
     0
 63
     7
283
     0
274
    -2
284
     1
 64
     0
275
    -2
285
     1
 65
     0
276
    -2
286
     1
 66
     0
277
    -2
287
     1
 67
     0
278
    -2
288
     1
 68
     0
279
    -2
289
     1
 69
     0
  7
Standard
140
0.25
170
     5
 62
     0
 63
     7
283
     0
274
    -2
284
     1
 64
     0
275
    -2
285
     1
 65
     0
276
    -2
286
     1
 66
     0
277
    -2
287
     1
 67
     0
278
    -2
288
     1
 68
     0
279
    -2
289
     1
 69
     0
  7
Standard
140
0.18
170
     5
 62
     0
 63
     7
283
     0
274
    -2
284
     1
 64
     0
275
    -2
285
     1
 65
     0
276
    -2
286
     1
 66
     0
277
    -2
287
     1
 67
     0
278
    -2
288
     1
 68
     0
279
    -2
289
     1
 69
     0
  0
VISUALSTYLE
  5
9F
102
{ACAD_XDICTIONARY
360
1D52
102
}
102
{ACAD_REACTORS
330
99
102
}
330
99
100
AcDbVisualStyle
  2

 70
     4
 71
     0
 72
     2
 73
     1
 90
        0
 40
-0.6
 41
-30.0
 62
     5
 63
     7
 74
     1
 91
        4
 64
     7
 65
   257
 75
     1
175
     1
 42
1.0
 92
        0
 66
   257
 43
1.0
 76
     1
 77
     6
 78
     2
 67
     7
 79
     5
170
     0
171
     0
290
     0
174
     0
 93
        1
 44
0.0
173
     0
291
     0
 45
0.0
1001
ACAD
1000
AcDbSavedByObjectVersion
1070
     0
  0
VISUALSTYLE
  5
A1
102
{ACAD_XDICTIONARY
360
1D56
102
}
102
{ACAD_REACTORS
330
99
102
}
330
99
100
AcDbVisualStyle
  2

 70
     6
 71
     1
 72
     2
 73
     2
 90
        0
 40
-0.6
 41
-30.0
 62
     5
 63
     7
 74
     2
 91
        2
 64
     7
 65
   257
 75
     2
175
     1
 42
40.0
 92
        0
 66
   257
 43
1.0
 76
     1
 77
     6
 78
     2
 67
     7
 79
     3
170
     0
171
     0
290
     0
174
     0
 93
        1
 44
0.0
173
     0
291
     0
 45
0.0
1001
ACAD
1000
AcDbSavedByObjectVersion
1070
     0
  0
VISUALSTYLE
  5
A0
102
{ACAD_XDICTIONARY
360
1D54
102
}
102
{ACAD_REACTORS
330
99
102
}
330
99
100
AcDbVisualStyle
  2

 70
     5
 71
     0
 72
     2
 73
     1
 90
        0
 40
-0.6
 41
-30.0
 62
     5
 63
     7
 74
     1
 91
        4
 64
     7
 65
   257
 75
     1
175
     1
 42
1.0
 92
        0
 66
   257
 43
1.0
 76
     1
 77
     6
 78
     2
 67
     7
 79
     5
170
     0
171
     0
290
     0
174
     0
 93
        1
 44
0.0
173
     0
291
     0
 45
0.0
1001
ACAD
1000
AcDbSavedByObjectVersion
1070
     0
  0
VISUALSTYLE
  5
9E
102
{ACAD_XDICTIONARY
360
1D50
102
}
102
{ACAD_REACTORS
330
99
102
}
330
99
100
AcDbVisualStyle
  2

 70
     7
 71
     1
 72
     0
 73
     1
 90
        0
 40
-0.6
 41
-30.0
 62
     5
 63
     7
 74
     0
 91
        4
 64
     7
 65
   257
 75
     1
175
     1
 42
1.0
 92
        8
 66
     7
 43
1.0
 76
     1
 77
     6
 78
     2
 67
     7
 79
     5
170
     0
171
     0
290
     0
174
     0
 93
        1
 44
0.0
173
     0
291
     1
 45
0.0
1001
ACAD
1000
AcDbSavedByObjectVersion
1070
     0
  0
VISUALSTYLE
  5
A5
102
{ACAD_XDICTIONARY
360
1D5E
102
}
102
{ACAD_REACTORS
330
99
102
}
330
99
100
AcDbVisualStyle
  2

 70
    12
 71
     2
 72
     2
 73
     1
 90
        0
 40
-0.6
 41
-30.0
 62
     5
 63
     7
 74
     1
 91
        4
 64
     7
 65
   257
 75
     1
175
     1
 42
1.0
 92
        8
 66
     7
 43
1.0
 76
     1
 77
     6
 78
     2
 67
     7
 79
     5
170
     0
171
     0
290
     0
174
     0
 93
        1
 44
50.0
173
     0
291
     1
 45
0.0
1001
ACAD
1000
AcDbSavedByObjectVersion
1070
     0
  0
VISUALSTYLE
  5
A9
102
{ACAD_XDICTIONARY
360
1D66
102
}
102
{ACAD_REACTORS
330
99
102
}
330
99
100
AcDbVisualStyle
  2

 70
    16
 71
     2
 72
     2
 73
     3
 90
        0
 40
-0.6
 41
-30.0
 62
     5
 63
     8
 74
     1
 91
        4
 64
     7
 65
   257
 75
     1
175
     1
 42
1.0
 92
        8
 66
     8
 43
1.0
 76
     1
 77
     6
 78
     2
 67
     7
 79
     5
170
     0
171
     0
290
     0
174
     0
 93
        1
 44
0.0
173
     0
291
     1
 45
0.0
1001
ACAD
1000
AcDbSavedByObjectVersion
1070
     0
  0
VISUALSTYLE
  5
A2
102
{ACAD_XDICTIONARY
360
1D58
102
}
102
{ACAD_REACTORS
330
99
102
}
330
99
100
AcDbVisualStyle
  2

 70
     9
 71
     3
 72
     2
 73
     1
 90
        0
 40
-0.6
 41
-30.0
 62
     5
 63
     7
 74
     2
 91
        2
 64
     7
 65
   257
 75
     1
175
     1
 42
40.0
 92
        8
 66
     7
 43
1.0
 76
     1
 77
     6
 78
     2
 67
     7
 79
     3
170
     0
171
     0
290
     0
174
     0
 93
        1
 44
0.0
173
     0
291
     0
 45
0.0
1001
ACAD
1000
AcDbSavedByObjectVersion
1070
     0
  0
VISUALSTYLE
  5
A4
102
{ACAD_XDICTIONARY
360
1D5C
102
}
102
{ACAD_REACTORS
330
99
102
}
330
99
100
AcDbVisualStyle
  2

 70
    11
 71
     2
 72
     2
 73
     1
 90
        0
 40
-0.6
 41
-30.0
 62
     5
 63
     7
 74
     1
 91
        4
 64
     7
 65
   257
 75
     1
175
     1
 42
1.0
 92
        8
 66
     7
 43
1.0
 76
     1
 77
     6
 78
     2
 67
     7
 79
     5
170
     0
171
     0
290
     0
174
     0
 93
        1
 44
-50.0
173
     0
291
     1
 45
0.0
1001
ACAD
1000
AcDbSavedByObjectVersion
1070
     0
  0
VISUALSTYLE
  5
155
102
{ACAD_XDICTIONARY
360
1D7A
102
}
102
{ACAD_REACTORS
330
99
102
}
330
99
100
AcDbVisualStyle
  2

 70
    22
 71
     2
 72
     2
 73
     0
 90
        0
 40
-0.6
 41
-30.0
 62
     5
 63
     7
 74
     1
 91
        4
 64
     7
 65
   257
 75
     1
175
     1
 42
1.0
 92
        8
 66
     7
 43
1.0
 76
     1
 77
     6
 78
     2
 67
     7
 79
     5
170
     0
171
     0
290
     0
174
     0
 93
        1
 44
0.0
173
     0
291
     1
 45
0.0
1001
ACAD
1000
AcDbSavedByObjectVersion
1070
     0
  0
VISUALSTYLE
  5
A8
102
{ACAD_XDICTIONARY
360
1D64
102
}
102
{ACAD_REACTORS
330
99
102
}
330
99
100
AcDbVisualStyle
  2

 70
    15
 71
     2
 72
     2
 73
     1
 90
        0
 40
-0.6
 41
-30.0
 62
     5
 63
     7
 74
     1
 91
        4
 64
     7
 65
   257
 75
     1
175
     1
 42
1.0
 92
        8
 66
     7
 43
1.0
 76
     1
 77
     6
 78
     2
 67
     7
 79
     5
170
     0
171
     0
290
     0
174
     0
 93
        1
 44
0.0
173
     0
291
     1
 45
0.0
1001
ACAD
1000
AcDbSavedByObjectVersion
1070
     0
  0
VISUALSTYLE
  5
9A
102
{ACAD_XDICTIONARY
360
1D48
102
}
102
{ACAD_REACTORS
330
99
102
}
330
99
100
AcDbVisualStyle
  2

 70
     0
 71
     2
 72
     1
 73
     1
 90
        2
 40
-0.6
 41
30.0
 62
     5
 63
     7
 74
     0
 91
        4
 64
     7
 65
   257
 75
     1
175
     1
 42
1.0
 92
        8
 66
     7
 43
1.0
 76
     1
 77
     6
 78
     2
 67
     7
 79
     5
170
     0
171
     0
290
     0
174
     0
 93
        1
 44
0.0
173
     0
291
     1
 45
0.0
1001
ACAD
1000
AcDbSavedByObjectVersion
1070
     0
  0
VISUALSTYLE
  5
9B
102
{ACAD_XDICTIONARY
360
1D4A
102
}
102
{ACAD_REACTORS
330
99
102
}
330
99
100
AcDbVisualStyle
  2

 70
     1
 71
     2
 72
     1
 73
     1
 90
        2
 40
-0.6
 41
30.0
 62
     5
 63
     7
 74
     1
 91
        4
 64
     7
 65
   257
 75
     1
175
     1
 42
1.0
 92
        0
 66
   257
 43
1.0
 76
     1
 77
     6
 78
     2
 67
     7
 79
     5
170
     0
171
     0
290
     0
174
     0
 93
        1
 44
0.0
173
     0
291
     1
 45
0.0
1001
ACAD
1000
AcDbSavedByObjectVersion
1070
     0
  0
VISUALSTYLE
  5
9C
102
{ACAD_XDICTIONARY
360
1D4C
102
}
102
{ACAD_REACTORS
330
99
102
}
330
99
100
AcDbVisualStyle
  2

 70
     2
 71
     2
 72
     2
 73
     1
 90
        2
 40
-0.6
 41
30.0
 62
     5
 63
     7
 74
     0
 91
        4
 64
     7
 65
   257
 75
     1
175
     1
 42
1.0
 92
        0
 66
     7
 43
1.0
 76
     1
 77
     6
 78
     2
 67
     7
 79
     5
170
     0
171
     0
290
     0
174
     0
 93
        1
 44
0.0
173
     0
291
     1
 45
0.0
1001
ACAD
1000
AcDbSavedByObjectVersion
1070
     0
  0
VISUALSTYLE
  5
9D
102
{ACAD_XDICTIONARY
360
1D4E
102
}
102
{ACAD_REACTORS
330
99
102
}
330
99
100
AcDbVisualStyle
  2

 70
     3
 71
     2
 72
     2
 73
     1
 90
        2
 40
-0.6
 41
30.0
 62
     5
 63
     7
 74
     1
 91
        4
 64
     7
 65
   257
 75
     1
175
     1
 42
1.0
 92
        0
 66
   257
 43
1.0
 76
     1
 77
     6
 78
     2
 67
     7
 79
     5
170
     0
171
     0
290
     0
174
     0
 93
        1
 44
0.0
173
     0
291
     1
 45
0.0
1001
ACAD
1000
AcDbSavedByObjectVersion
1070
     0
  0
VISUALSTYLE
  5
14D
102
{ACAD_XDICTIONARY
360
1D6A
102
}
102
{ACAD_REACTORS
330
99
102
}
330
99
100
AcDbVisualStyle
  2

 70
     6
 71
     1
 72
     2
 73
     2
 90
        0
 40
-0.6
 41
-30.0
 62
     5
 63
     7
 74
     2
 91
        2
 64
     7
 65
   257
 75
     2
175
     1
 42
40.0
 92
        0
 66
   257
 43
1.0
 76
     1
 77
     6
 78
     2
 67
     7
 79
     3
170
     0
171
     0
290
     0
174
     0
 93
        1
 44
0.0
173
     0
291
     0
 45
0.0
1001
ACAD
1000
AcDbSavedByObjectVersion
1070
     0
  0
VISUALSTYLE
  5
153
102
{ACAD_XDICTIONARY
360
1D76
102
}
102
{ACAD_REACTORS
330
99
102
}
330
99
100
AcDbVisualStyle
  2

 70
    20
 71
     2
 72
     2
 73
     0
 90
        0
 40
-0.6
 41
-30.0
 62
     5
 63
     7
 74
     1
 91
        4
 64
     7
 65
   257
 75
     1
175
     1
 42
1.0
 92
       10
 66
     7
 43
1.0
 76
     1
 77
     6
 78
     2
 67
     7
 79
     5
170
     0
171
     0
290
     0
174
     0
 93
        1
 44
0.0
173
     0
291
     1
 45
0.0
1001
ACAD
1000
AcDbSavedByObjectVersion
1070
     0
  0
VISUALSTYLE
  5
A7
102
{ACAD_XDICTIONARY
360
1D62
102
}
102
{ACAD_REACTORS
330
99
102
}
330
99
100
AcDbVisualStyle
  2

 70
    14
 71
     2
 72
     2
 73
     1
 90
        0
 40
-0.6
 41
-30.0
 62
     5
 63
     7
 74
     1
 91
        4
 64
     7
 65
   257
 75
     7
175
     7
 42
1.0
 92
        8
 66
     7
 43
1.0
 76
     1
 77
     6
 78
     2
 67
     7
 79
     5
170
     0
171
     0
290
     0
174
     0
 93
        1
 44
0.0
173
     0
291
     1
 45
0.0
1001
ACAD
1000
AcDbSavedByObjectVersion
1070
     0
  0
VISUALSTYLE
  5
154
102
{ACAD_XDICTIONARY
360
1D78
102
}
102
{ACAD_REACTORS
330
99
102
}
330
99
100
AcDbVisualStyle
  2

 70
    21
 71
     2
 72
     2
 73
     0
 90
        0
 40
-0.6
 41
-30.0
 62
     5
 63
     7
 74
     1
 91
        4
 64
     7
 65
   257
 75
     1
175
     1
 42
1.0
 92
        9
 66
     7
 43
1.0
 76
     1
 77
     6
 78
     2
 67
     7
 79
     5
170
     0
171
     0
290
     0
174
     0
 93
        1
 44
0.0
173
     0
291
     1
 45
0.0
1001
ACAD
1000
AcDbSavedByObjectVersion
1070
     0
  0
VISUALSTYLE
  5
A3
102
{ACAD_XDICTIONARY
360
1D5A
102
}
102
{ACAD_REACTORS
330
99
102
}
330
99
100
AcDbVisualStyle
  2

 70
     8
 71
     2
 72
     2
 73
     1
 90
        0
 40
-0.6
 41
-30.0
 62
     5
 63
     7
 74
     1
 91
        0
 64
     7
 65
   257
 75
     1
175
     1
 42
1.0
 92
        8
 66
     8
 43
1.0
 76
     1
 77
     6
 78
     2
 67
     7
 79
     5
170
     0
171
     0
290
     0
174
     0
 93
       13
 44
0.0
173
     0
291
     0
 45
0.0
1001
ACAD
1000
AcDbSavedByObjectVersion
1070
     0
  0
VISUALSTYLE
  5
152
102
{ACAD_XDICTIONARY
360
1D74
102
}
102
{ACAD_REACTORS
330
99
102
}
330
99
100
AcDbVisualStyle
  2

 70
    27
 71
     2
 72
     2
 73
     1
 90
        2
 40
-0.6
 41
30.0
 62
     5
 63
     7
 74
     0
 91
        4
 64
     7
 65
   257
 75
     1
175
     1
 42
1.0
 92
        8
 66
   257
 43
1.0
 76
     1
 77
     6
 78
     2
 67
     8
 79
     3
170
     0
171
     0
290
     0
174
     0
 93
        5
 44
0.0
173
     0
291
     0
 45
0.0
1001
ACAD
1000
AcDbSavedByObjectVersion
1070
     0
  0
VISUALSTYLE
  5
151
102
{ACAD_XDICTIONARY
360
1D72
102
}
102
{ACAD_REACTORS
330
99
102
}
330
99
100
AcDbVisualStyle
  2

 70
    26
 71
     2
 72
     2
 73
     1
 90
        2
 40
-0.6
 41
30.0
 62
     5
 63
     7
 74
     1
 91
       10
 64
     7
 65
   257
 75
     2
175
     1
 42
1.0
 92
        8
 66
   257
 43
1.0
 76
     1
 77
     6
 78
     2
 67
     7
 79
     3
170
     0
171
     0
290
     0
174
     0
 93
        5
 44
0.0
173
     0
291
     0
 45
0.0
1001
ACAD
1000
AcDbSavedByObjectVersion
1070
     0
  0
VISUALSTYLE
  5
14E
102
{ACAD_XDICTIONARY
360
1D6C
102
}
102
{ACAD_REACTORS
330
99
102
}
330
99
100
AcDbVisualStyle
  2

 70
    23
 71
     2
 72
     2
 73
     3
 90
        0
 40
-0.6
 41
-30.0
 62
     5
 63
     7
 74
     2
 91
        2
 64
     7
 65
     7
 75
     1
175
     1
 42
40.0
 92
        8
 66
     7
 43
1.0
 76
     1
 77
     6
 78
     2
 67
     7
 79
     3
170
     0
171
     0
290
     0
174
     0
 93
        1
 44
0.0
173
     0
291
     0
 45
0.0
1001
ACAD
1000
AcDbSavedByObjectVersion
1070
     0
  0
VISUALSTYLE
  5
14F
102
{ACAD_XDICTIONARY
360
1D6E
102
}
102
{ACAD_REACTORS
330
99
102
}
330
99
100
AcDbVisualStyle
  2

 70
    24
 71
     1
 72
     2
 73
     2
 90
        0
 40
-0.6
 41
-30.0
 62
     5
 63
     7
 74
     2
 91
        2
 64
     7
 65
     7
 75
     1
175
     1
 42
40.0
 92
       11
 66
     7
 43
1.0
 76
     1
 77
     6
 78
     2
 67
     7
 79
     6
170
     0
171
     0
290
     0
174
     0
 93
        1
 44
0.0
173
     0
291
     0
 45
0.0
1001
ACAD
1000
AcDbSavedByObjectVersion
1070
     0
  0
VISUALSTYLE
  5
A6
102
{ACAD_XDICTIONARY
360
1D60
102
}
102
{ACAD_REACTORS
330
99
102
}
330
99
100
AcDbVisualStyle
  2

 70
    13
 71
     2
 72
     2
 73
     1
 90
        0
 40
-0.6
 41
-30.0
 62
     5
 63
     7
 74
     1
 91
        4
 64
     7
 65
   257
 75
     1
175
     1
 42
1.0
 92
       12
 66
     7
 43
1.0
 76
     1
 77
     6
 78
     2
 67
     7
 79
     5
170
     0
171
     0
290
     0
174
     0
 93
        1
 44
0.0
173
     0
291
     1
 45
0.0
1001
ACAD
1000
AcDbSavedByObjectVersion
1070
     0
  0
VISUALSTYLE
  5
14C
102
{ACAD_XDICTIONARY
360
1D68
102
}
102
{ACAD_REACTORS
330
99
102
}
330
99
100
AcDbVisualStyle
  2

 70
     5
 71
     0
 72
     2
 73
     0
 90
        0
 40
-0.6
 41
-30.0
 62
     5
 63
     7
 74
     1
 91
        4
 64
     7
 65
   257
 75
     1
175
     1
 42
1.0
 92
        0
 66
   257
 43
1.0
 76
     1
 77
     6
 78
     2
 67
     7
 79
     3
170
     0
171
     0
290
     0
174
     0
 93
        1
 44
0.0
173
     0
291
     0
 45
0.0
1001
ACAD
1000
AcDbSavedByObjectVersion
1070
     0
  0
VISUALSTYLE
  5
150
102
{ACAD_XDICTIONARY
360
1D70
102
}
102
{ACAD_REACTORS
330
99
102
}
330
99
100
AcDbVisualStyle
  2

 70
    25
 71
     2
 72
     2
 73
     1
 90
        1
 40
0.5
 41
-30.0
 62
     5
 63
     7
 74
     1
 91
        0
 64
     7
 65
   257
 75
     1
175
     1
 42
1.0
 92
        8
 66
     7
 43
1.0
 76
     1
 77
     6
 78
     2
 67
     7
 79
     3
170
     0
171
     0
290
     0
174
     0
 93
       13
 44
0.0
173
     0
291
     0
 45
0.0
1001
ACAD
1000
AcDbSavedByObjectVersion
1070
     0
  0
DICTIONARYVAR
  5
8D9
102
{ACAD_REACTORS
330
66
102
}
330
66
100
DictionaryVariables
280
     0
  1
1:1
  0
DICTIONARYVAR
  5
8D8
102
{ACAD_REACTORS
330
66
102
}
330
66
100
DictionaryVariables
280
     0
  1
STANDARD
  0
DICTIONARYVAR
  5
89
102
{ACAD_REACTORS
330
66
102
}
330
66
100
DictionaryVariables
280
     0
  1
STANDARD
  0
DICTIONARYVAR
  5
67
102
{ACAD_REACTORS
330
66
102
}
330
66
100
DictionaryVariables
280
     0
  1
2
  0
DICTIONARYVAR
  5
6B
102
{ACAD_REACTORS
330
66
102
}
330
66
100
DictionaryVariables
280
     0
  1
1
  0
DICTIONARYVAR
  5
8DB
102
{ACAD_REACTORS
330
66
102
}
330
66
100
DictionaryVariables
280
     0
  1
0
  0
DICTIONARYVAR
  5
8DA
102
{ACAD_REACTORS
330
66
102
}
330
66
100
DictionaryVariables
280
     0
  1
127
  0
DICTIONARYVAR
  5
1AEA
102
{ACAD_REACTORS
330
66
102
}
330
66
100
DictionaryVariables
280
     0
  1
2
  0
DICTIONARY
  5
1D41
330
22
100
AcDbDictionary
280
     1
281
     1
  3
ACAD_XREC_ROUNDTRIP
360
1D42
  0
DICTIONARY
  5
1D43
330
59
100
AcDbDictionary
280
     1
281
     1
  3
ACAD_XREC_ROUNDTRIP
360
1D44
  0
DICTIONARY
  5
1D45
330
5E
100
AcDbDictionary
280
     1
281
     1
  3
ACAD_XREC_ROUNDTRIP
360
1D46
  0
DICTIONARY
  5
8EE
330
97
100
AcDbDictionary
280
     1
281
     1
  3
ACAD_XREC_ROUNDTRIP
360
8EF
  0
DICTIONARY
  5
8EC
330
96
100
AcDbDictionary
280
     1
281
     1
  3
ACAD_XREC_ROUNDTRIP
360
8ED
  0
DICTIONARY
  5
8F0
330
98
100
AcDbDictionary
280
     1
281
     1
  3
ACAD_XREC_ROUNDTRIP
360
8F1
  0
DICTIONARY
  5
8DD
330
87
100
AcDbDictionary
280
     1
281
     1
  3
ACAD_ROUNDTRIP_2008_TABLESTYLE_CELLSTYLEMAP
360
1D3A
  3
ACAD_XREC_ROUNDTRIP
360
1D47
  0
DICTIONARY
  5
1D52
330
9F
100
AcDbDictionary
280
     1
281
     1
  3
ACAD_XREC_ROUNDTRIP
360
1D53
  0
DICTIONARY
  5
1D56
330
A1
100
AcDbDictionary
280
     1
281
     1
  3
ACAD_XREC_ROUNDTRIP
360
1D57
  0
DICTIONARY
  5
1D54
330
A0
100
AcDbDictionary
280
     1
281
     1
  3
ACAD_XREC_ROUNDTRIP
360
1D55
  0
DICTIONARY
  5
1D50
330
9E
100
AcDbDictionary
280
     1
281
     1
  3
ACAD_XREC_ROUNDTRIP
360
1D51
  0
DICTIONARY
  5
1D5E
330
A5
100
AcDbDictionary
280
     1
281
     1
  3
ACAD_XREC_ROUNDTRIP
360
1D5F
  0
DICTIONARY
  5
1D66
330
A9
100
AcDbDictionary
280
     1
281
     1
  3
ACAD_XREC_ROUNDTRIP
360
1D67
  0
DICTIONARY
  5
1D58
330
A2
100
AcDbDictionary
280
     1
281
     1
  3
ACAD_XREC_ROUNDTRIP
360
1D59
  0
DICTIONARY
  5
1D5C
330
A4
100
AcDbDictionary
280
     1
281
     1
  3
ACAD_XREC_ROUNDTRIP
360
1D5D
  0
DICTIONARY
  5
1D7A
330
155
100
AcDbDictionary
280
     1
281
     1
  3
ACAD_XREC_ROUNDTRIP
360
1D7B
  0
DICTIONARY
  5
1D64
330
A8
100
AcDbDictionary
280
     1
281
     1
  3
ACAD_XREC_ROUNDTRIP
360
1D65
  0
DICTIONARY
  5
1D48
330
9A
100
AcDbDictionary
280
     1
281
     1
  3
ACAD_XREC_ROUNDTRIP
360
1D49
  0
DICTIONARY
  5
1D4A
330
9B
100
AcDbDictionary
280
     1
281
     1
  3
ACAD_XREC_ROUNDTRIP
360
1D4B
  0
DICTIONARY
  5
1D4C
330
9C
100
AcDbDictionary
280
     1
281
     1
  3
ACAD_XREC_ROUNDTRIP
360
1D4D
  0
DICTIONARY
  5
1D4E
330
9D
100
AcDbDictionary
280
     1
281
     1
  3
ACAD_XREC_ROUNDTRIP
360
1D4F
  0
DICTIONARY
  5
1D6A
330
14D
100
AcDbDictionary
280
     1
281
     1
  3
ACAD_XREC_ROUNDTRIP
360
1D6B
  0
DICTIONARY
  5
1D76
330
153
100
AcDbDictionary
280
     1
281
     1
  3
ACAD_XREC_ROUNDTRIP
360
1D77
  0
DICTIONARY
  5
1D62
330
A7
100
AcDbDictionary
280
     1
281
     1
  3
ACAD_XREC_ROUNDTRIP
360
1D63
  0
DICTIONARY
  5
1D78
330
154
100
AcDbDictionary
280
     1
281
     1
  3
ACAD_XREC_ROUNDTRIP
360
1D79
  0
DICTIONARY
  5
1D5A
330
A3
100
AcDbDictionary
280
     1
281
     1
  3
ACAD_XREC_ROUNDTRIP
360
1D5B
  0
DICTIONARY
  5
1D74
330
152
100
AcDbDictionary
280
     1
281
     1
  3
ACAD_XREC_ROUNDTRIP
360
1D75
  0
DICTIONARY
  5
1D72
330
151
100
AcDbDictionary
280
     1
281
     1
  3
ACAD_XREC_ROUNDTRIP
360
1D73
  0
DICTIONARY
  5
1D6C
330
14E
100
AcDbDictionary
280
     1
281
     1
  3
ACAD_XREC_ROUNDTRIP
360
1D6D
  0
DICTIONARY
  5
1D6E
330
14F
100
AcDbDictionary
280
     1
281
     1
  3
ACAD_XREC_ROUNDTRIP
360
1D6F
  0
DICTIONARY
  5
1D60
330
A6
100
AcDbDictionary
280
     1
281
     1
  3
ACAD_XREC_ROUNDTRIP
360
1D61
  0
DICTIONARY
  5
1D68
330
14C
100
AcDbDictionary
280
     1
281
     1
  3
ACAD_XREC_ROUNDTRIP
360
1D69
  0
DICTIONARY
  5
1D70
330
150
100
AcDbDictionary
280
     1
281
     1
  3
ACAD_XREC_ROUNDTRIP
360
1D71
  0
XRECORD
  5
1D42
102
{ACAD_REACTORS
330
1D41
102
}
330
1D41
100
AcDbXrecord
280
     1
102
SHADEPLOT
 70
     0
102
SHADEPLOTRESLEVEL
 70
     2
102
SHADEPLOTCUSTOMDPI
 70
   300
  0
XRECORD
  5
1D44
102
{ACAD_REACTORS
330
1D43
102
}
330
1D43
100
AcDbXrecord
280
     1
102
SHADEPLOT
 70
     0
102
SHADEPLOTRESLEVEL
 70
     2
102
SHADEPLOTCUSTOMDPI
 70
   300
  0
XRECORD
  5
1D46
102
{ACAD_REACTORS
330
1D45
102
}
330
1D45
100
AcDbXrecord
280
     1
102
SHADEPLOT
 70
     0
102
SHADEPLOTRESLEVEL
 70
     2
102
SHADEPLOTCUSTOMDPI
 70
   300
  0
XRECORD
  5
8EF
102
{ACAD_REACTORS
330
8EE
102
}
330
8EE
100
AcDbXrecord
280
     1
102
MATERIAL
148
0.0
149
0.0
149
0.0
 93
        0
 94
      127
282
     0
 72
     1
 77
     1
171
     1
175
     1
179
     1
273
     0
  0
XRECORD
  5
8ED
102
{ACAD_REACTORS
330
8EC
102
}
330
8EC
100
AcDbXrecord
280
     1
102
MATERIAL
148
0.0
149
0.0
149
0.0
 93
        0
 94
      127
282
     0
 72
     1
 77
     1
171
     1
175
     1
179
     1
273
     0
  0
XRECORD
  5
8F1
102
{ACAD_REACTORS
330
8F0
102
}
330
8F0
100
AcDbXrecord
280
     1
102
MATERIAL
148
0.0
149
0.0
149
0.0
 93
        0
 94
      127
282
     0
 72
     1
 77
     1
171
     1
175
     1
179
     1
273
     0
  0
CELLSTYLEMAP
  5
1D3A
102
{ACAD_REACTORS
330
8DD
102
}
330
8DD
100
AcDbCellStyleMap
 90
        3
300
CELLSTYLE
  1
TABLEFORMAT_BEGIN
 90
        5
170
     1
 91
        0
 92
    32768
 62
   257
 93
        1
300
CONTENTFORMAT
  1
CONTENTFORMAT_BEGIN
 90
        0
 91
        0
 92
      512
 93
        0
300

 40
0.0
140
1.0
 94
        5
 62
     0
340
11
144
0.25
309
CONTENTFORMAT_END
171
     1
301
MARGIN
  1
CELLMARGIN_BEGIN
 40
0.06
 40
0.06
 40
0.06
 40
0.06
 40
0.18
 40
0.18
309
CELLMARGIN_END
 94
        6
 95
        1
302
GRIDFORMAT
  1
GRIDFORMAT_BEGIN
 90
        0
 91
        1
 62
     0
 92
       -2
340
0
 93
        0
 40
0.045
309
GRIDFORMAT_END
 95
        2
302
GRIDFORMAT
  1
GRIDFORMAT_BEGIN
 90
        0
 91
        1
 62
     0
 92
       -2
340
0
 93
        0
 40
0.045
309
GRIDFORMAT_END
 95
        4
302
GRIDFORMAT
  1
GRIDFORMAT_BEGIN
 90
        0
 91
        1
 62
     0
 92
       -2
340
0
 93
        0
 40
0.045
309
GRIDFORMAT_END
 95
        8
302
GRIDFORMAT
  1
GRIDFORMAT_BEGIN
 90
        0
 91
        1
 62
     0
 92
       -2
340
0
 93
        0
 40
0.045
309
GRIDFORMAT_END
 95
       16
302
GRIDFORMAT
  1
GRIDFORMAT_BEGIN
 90
        0
 91
        1
 62
     0
 92
       -2
340
0
 93
        0
 40
0.045
309
GRIDFORMAT_END
 95
       32
302
GRIDFORMAT
  1
GRIDFORMAT_BEGIN
 90
        0
 91
        1
 62
     0
 92
       -2
340
0
 93
        0
 40
0.045
309
GRIDFORMAT_END
309
TABLEFORMAT_END
  1
CELLSTYLE_BEGIN
 90
        1
 91
        1
300
_TITLE
309
CELLSTYLE_END
300
CELLSTYLE
  1
TABLEFORMAT_BEGIN
 90
        5
170
     1
 91
        0
 92
        0
 62
   257
 93
        1
300
CONTENTFORMAT
  1
CONTENTFORMAT_BEGIN
 90
        0
 91
        0
 92
      512
 93
        0
300

 40
0.0
140
1.0
 94
        5
 62
     0
340
11
144
0.18
309
CONTENTFORMAT_END
171
     1
301
MARGIN
  1
CELLMARGIN_BEGIN
 40
0.06
 40
0.06
 40
0.06
 40
0.06
 40
0.18
 40
0.18
309
CELLMARGIN_END
 94
        6
 95
        1
302
GRIDFORMAT
  1
GRIDFORMAT_BEGIN
 90
        0
 91
        1
 62
     0
 92
       -2
340
0
 93
        0
 40
0.045
309
GRIDFORMAT_END
 95
        2
302
GRIDFORMAT
  1
GRIDFORMAT_BEGIN
 90
        0
 91
        1
 62
     0
 92
       -2
340
0
 93
        0
 40
0.045
309
GRIDFORMAT_END
 95
        4
302
GRIDFORMAT
  1
GRIDFORMAT_BEGIN
 90
        0
 91
        1
 62
     0
 92
       -2
340
0
 93
        0
 40
0.045
309
GRIDFORMAT_END
 95
        8
302
GRIDFORMAT
  1
GRIDFORMAT_BEGIN
 90
        0
 91
        1
 62
     0
 92
       -2
340
0
 93
        0
 40
0.045
309
GRIDFORMAT_END
 95
       16
302
GRIDFORMAT
  1
GRIDFORMAT_BEGIN
 90
        0
 91
        1
 62
     0
 92
       -2
340
0
 93
        0
 40
0.045
309
GRIDFORMAT_END
 95
       32
302
GRIDFORMAT
  1
GRIDFORMAT_BEGIN
 90
        0
 91
        1
 62
     0
 92
       -2
340
0
 93
        0
 40
0.045
309
GRIDFORMAT_END
309
TABLEFORMAT_END
  1
CELLSTYLE_BEGIN
 90
        2
 91
        1
300
_HEADER
309
CELLSTYLE_END
300
CELLSTYLE
  1
TABLEFORMAT_BEGIN
 90
        5
170
     1
 91
        0
 92
        0
 62
   257
 93
        1
300
CONTENTFORMAT
  1
CONTENTFORMAT_BEGIN
 90
        0
 91
        0
 92
      512
 93
        0
300

 40
0.0
140
1.0
 94
        2
 62
     0
340
11
144
0.18
309
CONTENTFORMAT_END
171
     1
301
MARGIN
  1
CELLMARGIN_BEGIN
 40
0.06
 40
0.06
 40
0.06
 40
0.06
 40
0.18
 40
0.18
309
CELLMARGIN_END
 94
        6
 95
        1
302
GRIDFORMAT
  1
GRIDFORMAT_BEGIN
 90
        0
 91
        1
 62
     0
 92
       -2
340
0
 93
        0
 40
0.045
309
GRIDFORMAT_END
 95
        2
302
GRIDFORMAT
  1
GRIDFORMAT_BEGIN
 90
        0
 91
        1
 62
     0
 92
       -2
340
0
 93
        0
 40
0.045
309
GRIDFORMAT_END
 95
        4
302
GRIDFORMAT
  1
GRIDFORMAT_BEGIN
 90
        0
 91
        1
 62
     0
 92
       -2
340
0
 93
        0
 40
0.045
309
GRIDFORMAT_END
 95
        8
302
GRIDFORMAT
  1
GRIDFORMAT_BEGIN
 90
        0
 91
        1
 62
     0
 92
       -2
340
0
 93
        0
 40
0.045
309
GRIDFORMAT_END
 95
       16
302
GRIDFORMAT
  1
GRIDFORMAT_BEGIN
 90
        0
 91
        1
 62
     0
 92
       -2
340
0
 93
        0
 40
0.045
309
GRIDFORMAT_END
 95
       32
302
GRIDFORMAT
  1
GRIDFORMAT_BEGIN
 90
        0
 91
        1
 62
     0
 92
       -2
340
0
 93
        0
 40
0.045
309
GRIDFORMAT_END
309
TABLEFORMAT_END
  1
CELLSTYLE_BEGIN
 90
        3
 91
        2
300
_DATA
309
CELLSTYLE_END
  0
XRECORD
  5
1D47
102
{ACAD_REACTORS
330
8DD
102
}
330
8DD
100
AcDbXrecord
280
     1
102
ACAD_ROUNDTRIP_PRE2007_TABLESTYLE
 90
      512
 91
        0
  1

 92
      512
 93
        0
  2

 94
      512
 95
        0
  3

  0
XRECORD
  5
1D53
102
{ACAD_REACTORS
330
1D52
102
}
330
1D52
100
AcDbXrecord
280
     1
102
RTVSPropertyOp0
 70
     1
102
RTVSPropertyOp1
 70
     1
102
RTVSPropertyOp2
 70
     1
102
RTVSPropertyOp3
 70
     1
102
RTVSPropertyOp4
 70
     1
102
RTVSPropertyOp5
 70
     1
102
RTVSPropertyOp6
 70
     1
102
RTVSPropertyOp7
 70
     1
102
RTVSPropertyOp8
 70
     1
102
RTVSPropertyOp9
 70
     1
102
RTVSPropertyOp10
 70
     1
102
RTVSPropertyOp11
 70
     1
102
RTVSPropertyOp12
 70
     1
102
RTVSPropertyOp13
 70
     1
102
RTVSPropertyOp14
 70
     1
102
RTVSPropertyOp15
 70
     1
102
RTVSPropertyOp16
 70
     1
102
RTVSPropertyOp17
 70
     1
102
RTVSPropertyOp18
 70
     1
102
RTVSPropertyOp19
 70
     1
102
RTVSPropertyOp20
 70
     1
102
RTVSPropertyOp21
 70
     1
102
RTVSPropertyOp22
 70
     1
102
RTVSPropertyOp23
 70
     1
102
RTVSPropertyOp24
 70
     1
102
RTVSPropertyOp25
 70
     1
102
RTVSPropertyOp26
 70
     1
102
RTVSPropertyOp27
 70
     1
102
RTVSPropertyOp28
 70
     1
102
RTVSPropertyOp29
 70
     1
102
RTVSPropertyOp30
 70
     1
102
RTVSPropertyOp31
 70
     1
102
RTVSPropertyOp32
 70
     1
  0
XRECORD
  5
1D57
102
{ACAD_REACTORS
330
1D56
102
}
330
1D56
100
AcDbXrecord
280
     1
102
RTVSPropertyOp0
 70
     1
102
RTVSPropertyOp1
 70
     1
102
RTVSPropertyOp2
 70
     1
102
RTVSPropertyOp3
 70
     1
102
RTVSPropertyOp4
 70
     1
102
RTVSPropertyOp5
 70
     1
102
RTVSPropertyOp6
 70
     1
102
RTVSPropertyOp7
 70
     1
102
RTVSPropertyOp8
 70
     1
102
RTVSPropertyOp9
 70
     1
102
RTVSPropertyOp10
 70
     1
102
RTVSPropertyOp11
 70
     1
102
RTVSPropertyOp12
 70
     1
102
RTVSPropertyOp13
 70
     1
102
RTVSPropertyOp14
 70
     1
102
RTVSPropertyOp15
 70
     1
102
RTVSPropertyOp16
 70
     1
102
RTVSPropertyOp17
 70
     1
102
RTVSPropertyOp18
 70
     1
102
RTVSPropertyOp19
 70
     1
102
RTVSPropertyOp20
 70
     1
102
RTVSPropertyOp21
 70
     1
102
RTVSPropertyOp22
 70
     1
102
RTVSPropertyOp23
 70
     1
102
RTVSPropertyOp24
 70
     1
102
RTVSPropertyOp25
 70
     1
102
RTVSPropertyOp26
 70
     1
102
RTVSPropertyOp27
 70
     1
102
RTVSPropertyOp28
 70
     1
102
RTVSPropertyOp29
 70
     1
102
RTVSPropertyOp30
 70
     1
102
RTVSPropertyOp31
 70
     1
102
RTVSPropertyOp32
 70
     1
  0
XRECORD
  5
1D55
102
{ACAD_REACTORS
330
1D54
102
}
330
1D54
100
AcDbXrecord
280
     1
102
RTVSPropertyOp0
 70
     1
102
RTVSPropertyOp1
 70
     1
102
RTVSPropertyOp2
 70
     1
102
RTVSPropertyOp3
 70
     1
102
RTVSPropertyOp4
 70
     1
102
RTVSPropertyOp5
 70
     1
102
RTVSPropertyOp6
 70
     1
102
RTVSPropertyOp7
 70
     1
102
RTVSPropertyOp8
 70
     1
102
RTVSPropertyOp9
 70
     1
102
RTVSPropertyOp10
 70
     1
102
RTVSPropertyOp11
 70
     1
102
RTVSPropertyOp12
 70
     1
102
RTVSPropertyOp13
 70
     1
102
RTVSPropertyOp14
 70
     1
102
RTVSPropertyOp15
 70
     1
102
RTVSPropertyOp16
 70
     1
102
RTVSPropertyOp17
 70
     1
102
RTVSPropertyOp18
 70
     1
102
RTVSPropertyOp19
 70
     1
102
RTVSPropertyOp20
 70
     1
102
RTVSPropertyOp21
 70
     1
102
RTVSPropertyOp22
 70
     1
102
RTVSPropertyOp23
 70
     1
102
RTVSPropertyOp24
 70
     1
102
RTVSPropertyOp25
 70
     1
102
RTVSPropertyOp26
 70
     1
102
RTVSPropertyOp27
 70
     1
102
RTVSPropertyOp28
 70
     1
102
RTVSPropertyOp29
 70
     1
102
RTVSPropertyOp30
 70
     1
102
RTVSPropertyOp31
 70
     1
102
RTVSPropertyOp32
 70
     1
  0
XRECORD
  5
1D51
102
{ACAD_REACTORS
330
1D50
102
}
330
1D50
100
AcDbXrecord
280
     1
102
RTVSPropertyOp0
 70
     1
102
RTVSPropertyOp1
 70
     1
102
RTVSPropertyOp2
 70
     1
102
RTVSPropertyOp3
 70
     1
102
RTVSPropertyOp4
 70
     1
102
RTVSPropertyOp5
 70
     1
102
RTVSPropertyOp6
 70
     1
102
RTVSPropertyOp7
 70
     1
102
RTVSPropertyOp8
 70
     1
102
RTVSPropertyOp9
 70
     1
102
RTVSPropertyOp10
 70
     1
102
RTVSPropertyOp11
 70
     1
102
RTVSPropertyOp12
 70
     1
102
RTVSPropertyOp13
 70
     1
102
RTVSPropertyOp14
 70
     1
102
RTVSPropertyOp15
 70
     1
102
RTVSPropertyOp16
 70
     1
102
RTVSPropertyOp17
 70
     1
102
RTVSPropertyOp18
 70
     1
102
RTVSPropertyOp19
 70
     1
102
RTVSPropertyOp20
 70
     1
102
RTVSPropertyOp21
 70
     1
102
RTVSPropertyOp22
 70
     1
102
RTVSPropertyOp23
 70
     1
102
RTVSPropertyOp24
 70
     1
102
RTVSPropertyOp25
 70
     1
102
RTVSPropertyOp26
 70
     1
102
RTVSPropertyOp27
 70
     1
102
RTVSPropertyOp28
 70
     1
102
RTVSPropertyOp29
 70
     1
102
RTVSPropertyOp30
 70
     1
102
RTVSPropertyOp31
 70
     1
102
RTVSPropertyOp32
 70
     1
  0
XRECORD
  5
1D5F
102
{ACAD_REACTORS
330
1D5E
102
}
330
1D5E
100
AcDbXrecord
280
     1
102
RTVSPropertyOp0
 70
     1
102
RTVSPropertyOp1
 70
     1
102
RTVSPropertyOp2
 70
     1
102
RTVSPropertyOp3
 70
     1
102
RTVSPropertyOp4
 70
     1
102
RTVSPropertyOp5
 70
     1
102
RTVSPropertyOp6
 70
     1
102
RTVSPropertyOp7
 70
     1
102
RTVSPropertyOp8
 70
     1
102
RTVSPropertyOp9
 70
     1
102
RTVSPropertyOp10
 70
     1
102
RTVSPropertyOp11
 70
     1
102
RTVSPropertyOp12
 70
     1
102
RTVSPropertyOp13
 70
     1
102
RTVSPropertyOp14
 70
     1
102
RTVSPropertyOp15
 70
     1
102
RTVSPropertyOp16
 70
     1
102
RTVSPropertyOp17
 70
     1
102
RTVSPropertyOp18
 70
     1
102
RTVSPropertyOp19
 70
     1
102
RTVSPropertyOp20
 70
     1
102
RTVSPropertyOp21
 70
     1
102
RTVSPropertyOp22
 70
     1
102
RTVSPropertyOp23
 70
     1
102
RTVSPropertyOp24
 70
     1
102
RTVSPropertyOp25
 70
     1
102
RTVSPropertyOp26
 70
     1
102
RTVSPropertyOp27
 70
     1
102
RTVSPropertyOp28
 70
     1
102
RTVSPropertyOp29
 70
     1
102
RTVSPropertyOp30
 70
     1
102
RTVSPropertyOp31
 70
     1
102
RTVSPropertyOp32
 70
     1
  0
XRECORD
  5
1D67
102
{ACAD_REACTORS
330
1D66
102
}
330
1D66
100
AcDbXrecord
280
     1
102
RTVSPropertyOp0
 70
     1
102
RTVSPropertyOp1
 70
     1
102
RTVSPropertyOp2
 70
     1
102
RTVSPropertyOp3
 70
     1
102
RTVSPropertyOp4
 70
     1
102
RTVSPropertyOp5
 70
     1
102
RTVSPropertyOp6
 70
     1
102
RTVSPropertyOp7
 70
     1
102
RTVSPropertyOp8
 70
     1
102
RTVSPropertyOp9
 70
     1
102
RTVSPropertyOp10
 70
     1
102
RTVSPropertyOp11
 70
     1
102
RTVSPropertyOp12
 70
     1
102
RTVSPropertyOp13
 70
     1
102
RTVSPropertyOp14
 70
     1
102
RTVSPropertyOp15
 70
     1
102
RTVSPropertyOp16
 70
     1
102
RTVSPropertyOp17
 70
     1
102
RTVSPropertyOp18
 70
     1
102
RTVSPropertyOp19
 70
     1
102
RTVSPropertyOp20
 70
     1
102
RTVSPropertyOp21
 70
     1
102
RTVSPropertyOp22
 70
     1
102
RTVSPropertyOp23
 70
     1
102
RTVSPropertyOp24
 70
     1
102
RTVSPropertyOp25
 70
     1
102
RTVSPropertyOp26
 70
     1
102
RTVSPropertyOp27
 70
     1
102
RTVSPropertyOp28
 70
     1
102
RTVSPropertyOp29
 70
     1
102
RTVSPropertyOp30
 70
     1
102
RTVSPropertyOp31
 70
     1
102
RTVSPropertyOp32
 70
     1
  0
XRECORD
  5
1D59
102
{ACAD_REACTORS
330
1D58
102
}
330
1D58
100
AcDbXrecord
280
     1
102
RTVSPropertyOp0
 70
     1
102
RTVSPropertyOp1
 70
     1
102
RTVSPropertyOp2
 70
     1
102
RTVSPropertyOp3
 70
     1
102
RTVSPropertyOp4
 70
     1
102
RTVSPropertyOp5
 70
     1
102
RTVSPropertyOp6
 70
     1
102
RTVSPropertyOp7
 70
     1
102
RTVSPropertyOp8
 70
     1
102
RTVSPropertyOp9
 70
     1
102
RTVSPropertyOp10
 70
     1
102
RTVSPropertyOp11
 70
     1
102
RTVSPropertyOp12
 70
     1
102
RTVSPropertyOp13
 70
     1
102
RTVSPropertyOp14
 70
     1
102
RTVSPropertyOp15
 70
     1
102
RTVSPropertyOp16
 70
     1
102
RTVSPropertyOp17
 70
     1
102
RTVSPropertyOp18
 70
     1
102
RTVSPropertyOp19
 70
     1
102
RTVSPropertyOp20
 70
     1
102
RTVSPropertyOp21
 70
     1
102
RTVSPropertyOp22
 70
     1
102
RTVSPropertyOp23
 70
     1
102
RTVSPropertyOp24
 70
     1
102
RTVSPropertyOp25
 70
     1
102
RTVSPropertyOp26
 70
     1
102
RTVSPropertyOp27
 70
     1
102
RTVSPropertyOp28
 70
     1
102
RTVSPropertyOp29
 70
     1
102
RTVSPropertyOp30
 70
     1
102
RTVSPropertyOp31
 70
     1
102
RTVSPropertyOp32
 70
     1
  0
XRECORD
  5
1D5D
102
{ACAD_REACTORS
330
1D5C
102
}
330
1D5C
100
AcDbXrecord
280
     1
102
RTVSPropertyOp0
 70
     1
102
RTVSPropertyOp1
 70
     1
102
RTVSPropertyOp2
 70
     1
102
RTVSPropertyOp3
 70
     1
102
RTVSPropertyOp4
 70
     1
102
RTVSPropertyOp5
 70
     1
102
RTVSPropertyOp6
 70
     1
102
RTVSPropertyOp7
 70
     1
102
RTVSPropertyOp8
 70
     1
102
RTVSPropertyOp9
 70
     1
102
RTVSPropertyOp10
 70
     1
102
RTVSPropertyOp11
 70
     1
102
RTVSPropertyOp12
 70
     1
102
RTVSPropertyOp13
 70
     1
102
RTVSPropertyOp14
 70
     1
102
RTVSPropertyOp15
 70
     1
102
RTVSPropertyOp16
 70
     1
102
RTVSPropertyOp17
 70
     1
102
RTVSPropertyOp18
 70
     1
102
RTVSPropertyOp19
 70
     1
102
RTVSPropertyOp20
 70
     1
102
RTVSPropertyOp21
 70
     1
102
RTVSPropertyOp22
 70
     1
102
RTVSPropertyOp23
 70
     1
102
RTVSPropertyOp24
 70
     1
102
RTVSPropertyOp25
 70
     1
102
RTVSPropertyOp26
 70
     1
102
RTVSPropertyOp27
 70
     1
102
RTVSPropertyOp28
 70
     1
102
RTVSPropertyOp29
 70
     1
102
RTVSPropertyOp30
 70
     1
102
RTVSPropertyOp31
 70
     1
102
RTVSPropertyOp32
 70
     1
  0
XRECORD
  5
1D7B
102
{ACAD_REACTORS
330
1D7A
102
}
330
1D7A
100
AcDbXrecord
280
     1
102
RTVSPropertyOp0
 70
     0
102
RTVSPropertyOp1
 70
     0
102
RTVSPropertyOp2
 70
     0
102
RTVSPropertyOp3
 70
     0
102
RTVSPropertyOp4
 70
     0
102
RTVSPropertyOp5
 70
     0
102
RTVSPropertyOp6
 70
     0
102
RTVSPropertyOp7
 70
     0
102
RTVSPropertyOp8
 70
     0
102
RTVSPropertyOp9
 70
     0
102
RTVSPropertyOp10
 70
     0
102
RTVSPropertyOp11
 70
     0
102
RTVSPropertyOp12
 70
     0
102
RTVSPropertyOp13
 70
     0
102
RTVSPropertyOp14
 70
     2
102
RTVSPropertyOp15
 70
     0
102
RTVSPropertyOp16
 70
     0
102
RTVSPropertyOp17
 70
     0
102
RTVSPropertyOp18
 70
     0
102
RTVSPropertyOp19
 70
     0
102
RTVSPropertyOp20
 70
     0
102
RTVSPropertyOp21
 70
     0
102
RTVSPropertyOp22
 70
     0
102
RTVSPropertyOp23
 70
     0
102
RTVSPropertyOp24
 70
     0
102
RTVSPropertyOp25
 70
     0
102
RTVSPropertyOp26
 70
     0
102
RTVSPropertyOp27
 70
     0
102
RTVSPropertyOp28
 70
     0
102
RTVSPropertyOp29
 70
     0
102
RTVSPropertyOp30
 70
     0
102
RTVSPropertyOp31
 70
     0
102
RTVSPropertyOp32
 70
     0
  0
XRECORD
  5
1D65
102
{ACAD_REACTORS
330
1D64
102
}
330
1D64
100
AcDbXrecord
280
     1
102
RTVSPropertyOp0
 70
     1
102
RTVSPropertyOp1
 70
     1
102
RTVSPropertyOp2
 70
     1
102
RTVSPropertyOp3
 70
     1
102
RTVSPropertyOp4
 70
     1
102
RTVSPropertyOp5
 70
     1
102
RTVSPropertyOp6
 70
     1
102
RTVSPropertyOp7
 70
     1
102
RTVSPropertyOp8
 70
     1
102
RTVSPropertyOp9
 70
     1
102
RTVSPropertyOp10
 70
     1
102
RTVSPropertyOp11
 70
     1
102
RTVSPropertyOp12
 70
     1
102
RTVSPropertyOp13
 70
     1
102
RTVSPropertyOp14
 70
     1
102
RTVSPropertyOp15
 70
     1
102
RTVSPropertyOp16
 70
     1
102
RTVSPropertyOp17
 70
     1
102
RTVSPropertyOp18
 70
     1
102
RTVSPropertyOp19
 70
     1
102
RTVSPropertyOp20
 70
     1
102
RTVSPropertyOp21
 70
     1
102
RTVSPropertyOp22
 70
     1
102
RTVSPropertyOp23
 70
     1
102
RTVSPropertyOp24
 70
     1
102
RTVSPropertyOp25
 70
     1
102
RTVSPropertyOp26
 70
     1
102
RTVSPropertyOp27
 70
     1
102
RTVSPropertyOp28
 70
     1
102
RTVSPropertyOp29
 70
     1
102
RTVSPropertyOp30
 70
     1
102
RTVSPropertyOp31
 70
     1
102
RTVSPropertyOp32
 70
     1
  0
XRECORD
  5
1D49
102
{ACAD_REACTORS
330
1D48
102
}
330
1D48
100
AcDbXrecord
280
     1
102
RTVSPropertyOp0
 70
     1
102
RTVSPropertyOp1
 70
     1
102
RTVSPropertyOp2
 70
     1
102
RTVSPropertyOp3
 70
     1
102
RTVSPropertyOp4
 70
     1
102
RTVSPropertyOp5
 70
     1
102
RTVSPropertyOp6
 70
     1
102
RTVSPropertyOp7
 70
     1
102
RTVSPropertyOp8
 70
     1
102
RTVSPropertyOp9
 70
     1
102
RTVSPropertyOp10
 70
     1
102
RTVSPropertyOp11
 70
     1
102
RTVSPropertyOp12
 70
     1
102
RTVSPropertyOp13
 70
     1
102
RTVSPropertyOp14
 70
     1
102
RTVSPropertyOp15
 70
     1
102
RTVSPropertyOp16
 70
     1
102
RTVSPropertyOp17
 70
     1
102
RTVSPropertyOp18
 70
     1
102
RTVSPropertyOp19
 70
     1
102
RTVSPropertyOp20
 70
     1
102
RTVSPropertyOp21
 70
     1
102
RTVSPropertyOp22
 70
     1
102
RTVSPropertyOp23
 70
     1
102
RTVSPropertyOp24
 70
     1
102
RTVSPropertyOp25
 70
     1
102
RTVSPropertyOp26
 70
     1
102
RTVSPropertyOp27
 70
     1
102
RTVSPropertyOp28
 70
     1
102
RTVSPropertyOp29
 70
     1
102
RTVSPropertyOp30
 70
     1
102
RTVSPropertyOp31
 70
     1
102
RTVSPropertyOp32
 70
     1
  0
XRECORD
  5
1D4B
102
{ACAD_REACTORS
330
1D4A
102
}
330
1D4A
100
AcDbXrecord
280
     1
102
RTVSPropertyOp0
 70
     1
102
RTVSPropertyOp1
 70
     1
102
RTVSPropertyOp2
 70
     1
102
RTVSPropertyOp3
 70
     1
102
RTVSPropertyOp4
 70
     1
102
RTVSPropertyOp5
 70
     1
102
RTVSPropertyOp6
 70
     1
102
RTVSPropertyOp7
 70
     1
102
RTVSPropertyOp8
 70
     1
102
RTVSPropertyOp9
 70
     1
102
RTVSPropertyOp10
 70
     1
102
RTVSPropertyOp11
 70
     1
102
RTVSPropertyOp12
 70
     1
102
RTVSPropertyOp13
 70
     1
102
RTVSPropertyOp14
 70
     1
102
RTVSPropertyOp15
 70
     1
102
RTVSPropertyOp16
 70
     1
102
RTVSPropertyOp17
 70
     1
102
RTVSPropertyOp18
 70
     1
102
RTVSPropertyOp19
 70
     1
102
RTVSPropertyOp20
 70
     1
102
RTVSPropertyOp21
 70
     1
102
RTVSPropertyOp22
 70
     1
102
RTVSPropertyOp23
 70
     1
102
RTVSPropertyOp24
 70
     1
102
RTVSPropertyOp25
 70
     1
102
RTVSPropertyOp26
 70
     1
102
RTVSPropertyOp27
 70
     1
102
RTVSPropertyOp28
 70
     1
102
RTVSPropertyOp29
 70
     1
102
RTVSPropertyOp30
 70
     1
102
RTVSPropertyOp31
 70
     1
102
RTVSPropertyOp32
 70
     1
  0
XRECORD
  5
1D4D
102
{ACAD_REACTORS
330
1D4C
102
}
330
1D4C
100
AcDbXrecord
280
     1
102
RTVSPropertyOp0
 70
     1
102
RTVSPropertyOp1
 70
     1
102
RTVSPropertyOp2
 70
     1
102
RTVSPropertyOp3
 70
     1
102
RTVSPropertyOp4
 70
     1
102
RTVSPropertyOp5
 70
     1
102
RTVSPropertyOp6
 70
     1
102
RTVSPropertyOp7
 70
     1
102
RTVSPropertyOp8
 70
     1
102
RTVSPropertyOp9
 70
     1
102
RTVSPropertyOp10
 70
     1
102
RTVSPropertyOp11
 70
     1
102
RTVSPropertyOp12
 70
     1
102
RTVSPropertyOp13
 70
     1
102
RTVSPropertyOp14
 70
     1
102
RTVSPropertyOp15
 70
     1
102
RTVSPropertyOp16
 70
     1
102
RTVSPropertyOp17
 70
     1
102
RTVSPropertyOp18
 70
     1
102
RTVSPropertyOp19
 70
     1
102
RTVSPropertyOp20
 70
     1
102
RTVSPropertyOp21
 70
     1
102
RTVSPropertyOp22
 70
     1
102
RTVSPropertyOp23
 70
     1
102
RTVSPropertyOp24
 70
     1
102
RTVSPropertyOp25
 70
     1
102
RTVSPropertyOp26
 70
     1
102
RTVSPropertyOp27
 70
     1
102
RTVSPropertyOp28
 70
     1
102
RTVSPropertyOp29
 70
     1
102
RTVSPropertyOp30
 70
     1
102
RTVSPropertyOp31
 70
     1
102
RTVSPropertyOp32
 70
     1
  0
XRECORD
  5
1D4F
102
{ACAD_REACTORS
330
1D4E
102
}
330
1D4E
100
AcDbXrecord
280
     1
102
RTVSPropertyOp0
 70
     1
102
RTVSPropertyOp1
 70
     1
102
RTVSPropertyOp2
 70
     1
102
RTVSPropertyOp3
 70
     1
102
RTVSPropertyOp4
 70
     1
102
RTVSPropertyOp5
 70
     1
102
RTVSPropertyOp6
 70
     1
102
RTVSPropertyOp7
 70
     1
102
RTVSPropertyOp8
 70
     1
102
RTVSPropertyOp9
 70
     1
102
RTVSPropertyOp10
 70
     1
102
RTVSPropertyOp11
 70
     1
102
RTVSPropertyOp12
 70
     1
102
RTVSPropertyOp13
 70
     1
102
RTVSPropertyOp14
 70
     1
102
RTVSPropertyOp15
 70
     1
102
RTVSPropertyOp16
 70
     1
102
RTVSPropertyOp17
 70
     1
102
RTVSPropertyOp18
 70
     1
102
RTVSPropertyOp19
 70
     1
102
RTVSPropertyOp20
 70
     1
102
RTVSPropertyOp21
 70
     1
102
RTVSPropertyOp22
 70
     1
102
RTVSPropertyOp23
 70
     1
102
RTVSPropertyOp24
 70
     1
102
RTVSPropertyOp25
 70
     1
102
RTVSPropertyOp26
 70
     1
102
RTVSPropertyOp27
 70
     1
102
RTVSPropertyOp28
 70
     1
102
RTVSPropertyOp29
 70
     1
102
RTVSPropertyOp30
 70
     1
102
RTVSPropertyOp31
 70
     1
102
RTVSPropertyOp32
 70
     1
  0
XRECORD
  5
1D6B
102
{ACAD_REACTORS
330
1D6A
102
}
330
1D6A
100
AcDbXrecord
280
     1
102
RTVSPropertyOp0
 70
     1
102
RTVSPropertyOp1
 70
     1
102
RTVSPropertyOp2
 70
     1
102
RTVSPropertyOp3
 70
     1
102
RTVSPropertyOp4
 70
     1
102
RTVSPropertyOp5
 70
     1
102
RTVSPropertyOp6
 70
     1
102
RTVSPropertyOp7
 70
     1
102
RTVSPropertyOp8
 70
     1
102
RTVSPropertyOp9
 70
     1
102
RTVSPropertyOp10
 70
     1
102
RTVSPropertyOp11
 70
     1
102
RTVSPropertyOp12
 70
     1
102
RTVSPropertyOp13
 70
     1
102
RTVSPropertyOp14
 70
     1
102
RTVSPropertyOp15
 70
     1
102
RTVSPropertyOp16
 70
     1
102
RTVSPropertyOp17
 70
     1
102
RTVSPropertyOp18
 70
     1
102
RTVSPropertyOp19
 70
     1
102
RTVSPropertyOp20
 70
     1
102
RTVSPropertyOp21
 70
     1
102
RTVSPropertyOp22
 70
     1
102
RTVSPropertyOp23
 70
     1
102
RTVSPropertyOp24
 70
     1
102
RTVSPropertyOp25
 70
     1
102
RTVSPropertyOp26
 70
     1
102
RTVSPropertyOp27
 70
     1
102
RTVSPropertyOp28
 70
     1
102
RTVSPropertyOp29
 70
     1
102
RTVSPropertyOp30
 70
     1
102
RTVSPropertyOp31
 70
     1
102
RTVSPropertyOp32
 70
     1
  0
XRECORD
  5
1D77
102
{ACAD_REACTORS
330
1D76
102
}
330
1D76
100
AcDbXrecord
280
     1
102
RTVSPropertyOp0
 70
     0
102
RTVSPropertyOp1
 70
     0
102
RTVSPropertyOp2
 70
     0
102
RTVSPropertyOp3
 70
     0
102
RTVSPropertyOp4
 70
     0
102
RTVSPropertyOp5
 70
     0
102
RTVSPropertyOp6
 70
     0
102
RTVSPropertyOp7
 70
     0
102
RTVSPropertyOp8
 70
     0
102
RTVSPropertyOp9
 70
     0
102
RTVSPropertyOp10
 70
     0
102
RTVSPropertyOp11
 70
     0
102
RTVSPropertyOp12
 70
     0
102
RTVSPropertyOp13
 70
     0
102
RTVSPropertyOp14
 70
     2
102
RTVSPropertyOp15
 70
     0
102
RTVSPropertyOp16
 70
     0
102
RTVSPropertyOp17
 70
     0
102
RTVSPropertyOp18
 70
     0
102
RTVSPropertyOp19
 70
     0
102
RTVSPropertyOp20
 70
     0
102
RTVSPropertyOp21
 70
     0
102
RTVSPropertyOp22
 70
     0
102
RTVSPropertyOp23
 70
     0
102
RTVSPropertyOp24
 70
     0
102
RTVSPropertyOp25
 70
     0
102
RTVSPropertyOp26
 70
     0
102
RTVSPropertyOp27
 70
     0
102
RTVSPropertyOp28
 70
     0
102
RTVSPropertyOp29
 70
     0
102
RTVSPropertyOp30
 70
     0
102
RTVSPropertyOp31
 70
     0
102
RTVSPropertyOp32
 70
     0
  0
XRECORD
  5
1D63
102
{ACAD_REACTORS
330
1D62
102
}
330
1D62
100
AcDbXrecord
280
     1
102
RTVSPropertyOp0
 70
     1
102
RTVSPropertyOp1
 70
     1
102
RTVSPropertyOp2
 70
     1
102
RTVSPropertyOp3
 70
     1
102
RTVSPropertyOp4
 70
     1
102
RTVSPropertyOp5
 70
     1
102
RTVSPropertyOp6
 70
     1
102
RTVSPropertyOp7
 70
     1
102
RTVSPropertyOp8
 70
     1
102
RTVSPropertyOp9
 70
     1
102
RTVSPropertyOp10
 70
     1
102
RTVSPropertyOp11
 70
     1
102
RTVSPropertyOp12
 70
     1
102
RTVSPropertyOp13
 70
     1
102
RTVSPropertyOp14
 70
     1
102
RTVSPropertyOp15
 70
     1
102
RTVSPropertyOp16
 70
     1
102
RTVSPropertyOp17
 70
     1
102
RTVSPropertyOp18
 70
     1
102
RTVSPropertyOp19
 70
     1
102
RTVSPropertyOp20
 70
     1
102
RTVSPropertyOp21
 70
     1
102
RTVSPropertyOp22
 70
     1
102
RTVSPropertyOp23
 70
     1
102
RTVSPropertyOp24
 70
     1
102
RTVSPropertyOp25
 70
     1
102
RTVSPropertyOp26
 70
     1
102
RTVSPropertyOp27
 70
     1
102
RTVSPropertyOp28
 70
     1
102
RTVSPropertyOp29
 70
     1
102
RTVSPropertyOp30
 70
     1
102
RTVSPropertyOp31
 70
     1
102
RTVSPropertyOp32
 70
     1
  0
XRECORD
  5
1D79
102
{ACAD_REACTORS
330
1D78
102
}
330
1D78
100
AcDbXrecord
280
     1
102
RTVSPropertyOp0
 70
     0
102
RTVSPropertyOp1
 70
     0
102
RTVSPropertyOp2
 70
     0
102
RTVSPropertyOp3
 70
     0
102
RTVSPropertyOp4
 70
     0
102
RTVSPropertyOp5
 70
     0
102
RTVSPropertyOp6
 70
     0
102
RTVSPropertyOp7
 70
     0
102
RTVSPropertyOp8
 70
     0
102
RTVSPropertyOp9
 70
     0
102
RTVSPropertyOp10
 70
     0
102
RTVSPropertyOp11
 70
     0
102
RTVSPropertyOp12
 70
     0
102
RTVSPropertyOp13
 70
     0
102
RTVSPropertyOp14
 70
     2
102
RTVSPropertyOp15
 70
     0
102
RTVSPropertyOp16
 70
     0
102
RTVSPropertyOp17
 70
     0
102
RTVSPropertyOp18
 70
     0
102
RTVSPropertyOp19
 70
     0
102
RTVSPropertyOp20
 70
     0
102
RTVSPropertyOp21
 70
     0
102
RTVSPropertyOp22
 70
     0
102
RTVSPropertyOp23
 70
     0
102
RTVSPropertyOp24
 70
     0
102
RTVSPropertyOp25
 70
     0
102
RTVSPropertyOp26
 70
     0
102
RTVSPropertyOp27
 70
     0
102
RTVSPropertyOp28
 70
     0
102
RTVSPropertyOp29
 70
     0
102
RTVSPropertyOp30
 70
     0
102
RTVSPropertyOp31
 70
     0
102
RTVSPropertyOp32
 70
     0
  0
XRECORD
  5
1D5B
102
{ACAD_REACTORS
330
1D5A
102
}
330
1D5A
100
AcDbXrecord
280
     1
102
RTVSPropertyOp0
 70
     1
102
RTVSPropertyOp1
 70
     1
102
RTVSPropertyOp2
 70
     1
102
RTVSPropertyOp3
 70
     1
102
RTVSPropertyOp4
 70
     1
102
RTVSPropertyOp5
 70
     1
102
RTVSPropertyOp6
 70
     1
102
RTVSPropertyOp7
 70
     1
102
RTVSPropertyOp8
 70
     1
102
RTVSPropertyOp9
 70
     1
102
RTVSPropertyOp10
 70
     1
102
RTVSPropertyOp11
 70
     1
102
RTVSPropertyOp12
 70
     1
102
RTVSPropertyOp13
 70
     1
102
RTVSPropertyOp14
 70
     1
102
RTVSPropertyOp15
 70
     1
102
RTVSPropertyOp16
 70
     1
102
RTVSPropertyOp17
 70
     1
102
RTVSPropertyOp18
 70
     1
102
RTVSPropertyOp19
 70
     1
102
RTVSPropertyOp20
 70
     1
102
RTVSPropertyOp21
 70
     1
102
RTVSPropertyOp22
 70
     1
102
RTVSPropertyOp23
 70
     1
102
RTVSPropertyOp24
 70
     1
102
RTVSPropertyOp25
 70
     1
102
RTVSPropertyOp26
 70
     1
102
RTVSPropertyOp27
 70
     1
102
RTVSPropertyOp28
 70
     1
102
RTVSPropertyOp29
 70
     1
102
RTVSPropertyOp30
 70
     1
102
RTVSPropertyOp31
 70
     1
102
RTVSPropertyOp32
 70
     1
  0
XRECORD
  5
1D75
102
{ACAD_REACTORS
330
1D74
102
}
330
1D74
100
AcDbXrecord
280
     1
102
RTVSPropertyOp0
 70
     1
102
RTVSPropertyOp1
 70
     1
102
RTVSPropertyOp2
 70
     1
102
RTVSPropertyOp3
 70
     1
102
RTVSPropertyOp4
 70
     1
102
RTVSPropertyOp5
 70
     1
102
RTVSPropertyOp6
 70
     1
102
RTVSPropertyOp7
 70
     1
102
RTVSPropertyOp8
 70
     1
102
RTVSPropertyOp9
 70
     1
102
RTVSPropertyOp10
 70
     1
102
RTVSPropertyOp11
 70
     1
102
RTVSPropertyOp12
 70
     1
102
RTVSPropertyOp13
 70
     1
102
RTVSPropertyOp14
 70
     1
102
RTVSPropertyOp15
 70
     1
102
RTVSPropertyOp16
 70
     1
102
RTVSPropertyOp17
 70
     1
102
RTVSPropertyOp18
 70
     1
102
RTVSPropertyOp19
 70
     1
102
RTVSPropertyOp20
 70
     1
102
RTVSPropertyOp21
 70
     1
102
RTVSPropertyOp22
 70
     1
102
RTVSPropertyOp23
 70
     1
102
RTVSPropertyOp24
 70
     1
102
RTVSPropertyOp25
 70
     1
102
RTVSPropertyOp26
 70
     1
102
RTVSPropertyOp27
 70
     1
102
RTVSPropertyOp28
 70
     1
102
RTVSPropertyOp29
 70
     1
102
RTVSPropertyOp30
 70
     1
102
RTVSPropertyOp31
 70
     1
102
RTVSPropertyOp32
 70
     1
  0
XRECORD
  5
1D73
102
{ACAD_REACTORS
330
1D72
102
}
330
1D72
100
AcDbXrecord
280
     1
102
RTVSPropertyOp0
 70
     1
102
RTVSPropertyOp1
 70
     1
102
RTVSPropertyOp2
 70
     1
102
RTVSPropertyOp3
 70
     1
102
RTVSPropertyOp4
 70
     1
102
RTVSPropertyOp5
 70
     1
102
RTVSPropertyOp6
 70
     1
102
RTVSPropertyOp7
 70
     1
102
RTVSPropertyOp8
 70
     1
102
RTVSPropertyOp9
 70
     1
102
RTVSPropertyOp10
 70
     1
102
RTVSPropertyOp11
 70
     1
102
RTVSPropertyOp12
 70
     1
102
RTVSPropertyOp13
 70
     1
102
RTVSPropertyOp14
 70
     1
102
RTVSPropertyOp15
 70
     1
102
RTVSPropertyOp16
 70
     1
102
RTVSPropertyOp17
 70
     1
102
RTVSPropertyOp18
 70
     1
102
RTVSPropertyOp19
 70
     1
102
RTVSPropertyOp20
 70
     1
102
RTVSPropertyOp21
 70
     1
102
RTVSPropertyOp22
 70
     1
102
RTVSPropertyOp23
 70
     1
102
RTVSPropertyOp24
 70
     1
102
RTVSPropertyOp25
 70
     1
102
RTVSPropertyOp26
 70
     1
102
RTVSPropertyOp27
 70
     1
102
RTVSPropertyOp28
 70
     1
102
RTVSPropertyOp29
 70
     1
102
RTVSPropertyOp30
 70
     1
102
RTVSPropertyOp31
 70
     1
102
RTVSPropertyOp32
 70
     1
  0
XRECORD
  5
1D6D
102
{ACAD_REACTORS
330
1D6C
102
}
330
1D6C
100
AcDbXrecord
280
     1
102
RTVSPropertyOp0
 70
     1
102
RTVSPropertyOp1
 70
     1
102
RTVSPropertyOp2
 70
     1
102
RTVSPropertyOp3
 70
     1
102
RTVSPropertyOp4
 70
     1
102
RTVSPropertyOp5
 70
     1
102
RTVSPropertyOp6
 70
     1
102
RTVSPropertyOp7
 70
     1
102
RTVSPropertyOp8
 70
     1
102
RTVSPropertyOp9
 70
     1
102
RTVSPropertyOp10
 70
     1
102
RTVSPropertyOp11
 70
     1
102
RTVSPropertyOp12
 70
     1
102
RTVSPropertyOp13
 70
     1
102
RTVSPropertyOp14
 70
     1
102
RTVSPropertyOp15
 70
     1
102
RTVSPropertyOp16
 70
     1
102
RTVSPropertyOp17
 70
     1
102
RTVSPropertyOp18
 70
     1
102
RTVSPropertyOp19
 70
     1
102
RTVSPropertyOp20
 70
     1
102
RTVSPropertyOp21
 70
     1
102
RTVSPropertyOp22
 70
     1
102
RTVSPropertyOp23
 70
     1
102
RTVSPropertyOp24
 70
     1
102
RTVSPropertyOp25
 70
     1
102
RTVSPropertyOp26
 70
     1
102
RTVSPropertyOp27
 70
     1
102
RTVSPropertyOp28
 70
     1
102
RTVSPropertyOp29
 70
     1
102
RTVSPropertyOp30
 70
     1
102
RTVSPropertyOp31
 70
     1
102
RTVSPropertyOp32
 70
     1
  0
XRECORD
  5
1D6F
102
{ACAD_REACTORS
330
1D6E
102
}
330
1D6E
100
AcDbXrecord
280
     1
102
RTVSPropertyOp0
 70
     1
102
RTVSPropertyOp1
 70
     1
102
RTVSPropertyOp2
 70
     1
102
RTVSPropertyOp3
 70
     1
102
RTVSPropertyOp4
 70
     1
102
RTVSPropertyOp5
 70
     1
102
RTVSPropertyOp6
 70
     1
102
RTVSPropertyOp7
 70
     1
102
RTVSPropertyOp8
 70
     1
102
RTVSPropertyOp9
 70
     1
102
RTVSPropertyOp10
 70
     1
102
RTVSPropertyOp11
 70
     1
102
RTVSPropertyOp12
 70
     1
102
RTVSPropertyOp13
 70
     1
102
RTVSPropertyOp14
 70
     1
102
RTVSPropertyOp15
 70
     1
102
RTVSPropertyOp16
 70
     1
102
RTVSPropertyOp17
 70
     1
102
RTVSPropertyOp18
 70
     1
102
RTVSPropertyOp19
 70
     1
102
RTVSPropertyOp20
 70
     1
102
RTVSPropertyOp21
 70
     1
102
RTVSPropertyOp22
 70
     1
102
RTVSPropertyOp23
 70
     1
102
RTVSPropertyOp24
 70
     1
102
RTVSPropertyOp25
 70
     1
102
RTVSPropertyOp26
 70
     1
102
RTVSPropertyOp27
 70
     1
102
RTVSPropertyOp28
 70
     1
102
RTVSPropertyOp29
 70
     1
102
RTVSPropertyOp30
 70
     1
102
RTVSPropertyOp31
 70
     1
102
RTVSPropertyOp32
 70
     1
  0
XRECORD
  5
1D61
102
{ACAD_REACTORS
330
1D60
102
}
330
1D60
100
AcDbXrecord
280
     1
102
RTVSPropertyOp0
 70
     1
102
RTVSPropertyOp1
 70
     1
102
RTVSPropertyOp2
 70
     1
102
RTVSPropertyOp3
 70
     1
102
RTVSPropertyOp4
 70
     1
102
RTVSPropertyOp5
 70
     1
102
RTVSPropertyOp6
 70
     1
102
RTVSPropertyOp7
 70
     1
102
RTVSPropertyOp8
 70
     1
102
RTVSPropertyOp9
 70
     1
102
RTVSPropertyOp10
 70
     1
102
RTVSPropertyOp11
 70
     1
102
RTVSPropertyOp12
 70
     1
102
RTVSPropertyOp13
 70
     1
102
RTVSPropertyOp14
 70
     1
102
RTVSPropertyOp15
 70
     1
102
RTVSPropertyOp16
 70
     1
102
RTVSPropertyOp17
 70
     1
102
RTVSPropertyOp18
 70
     1
102
RTVSPropertyOp19
 70
     1
102
RTVSPropertyOp20
 70
     1
102
RTVSPropertyOp21
 70
     1
102
RTVSPropertyOp22
 70
     1
102
RTVSPropertyOp23
 70
     1
102
RTVSPropertyOp24
 70
     1
102
RTVSPropertyOp25
 70
     1
102
RTVSPropertyOp26
 70
     1
102
RTVSPropertyOp27
 70
     1
102
RTVSPropertyOp28
 70
     1
102
RTVSPropertyOp29
 70
     1
102
RTVSPropertyOp30
 70
     1
102
RTVSPropertyOp31
 70
     1
102
RTVSPropertyOp32
 70
     1
  0
XRECORD
  5
1D69
102
{ACAD_REACTORS
330
1D68
102
}
330
1D68
100
AcDbXrecord
280
     1
102
RTVSPropertyOp0
 70
     1
102
RTVSPropertyOp1
 70
     1
102
RTVSPropertyOp2
 70
     1
102
RTVSPropertyOp3
 70
     1
102
RTVSPropertyOp4
 70
     1
102
RTVSPropertyOp5
 70
     1
102
RTVSPropertyOp6
 70
     1
102
RTVSPropertyOp7
 70
     1
102
RTVSPropertyOp8
 70
     1
102
RTVSPropertyOp9
 70
     1
102
RTVSPropertyOp10
 70
     1
102
RTVSPropertyOp11
 70
     1
102
RTVSPropertyOp12
 70
     1
102
RTVSPropertyOp13
 70
     1
102
RTVSPropertyOp14
 70
     1
102
RTVSPropertyOp15
 70
     1
102
RTVSPropertyOp16
 70
     1
102
RTVSPropertyOp17
 70
     1
102
RTVSPropertyOp18
 70
     1
102
RTVSPropertyOp19
 70
     1
102
RTVSPropertyOp20
 70
     1
102
RTVSPropertyOp21
 70
     1
102
RTVSPropertyOp22
 70
     1
102
RTVSPropertyOp23
 70
     1
102
RTVSPropertyOp24
 70
     1
102
RTVSPropertyOp25
 70
     1
102
RTVSPropertyOp26
 70
     1
102
RTVSPropertyOp27
 70
     1
102
RTVSPropertyOp28
 70
     1
102
RTVSPropertyOp29
 70
     1
102
RTVSPropertyOp30
 70
     1
102
RTVSPropertyOp31
 70
     1
102
RTVSPropertyOp32
 70
     1
  0
XRECORD
  5
1D71
102
{ACAD_REACTORS
330
1D70
102
}
330
1D70
100
AcDbXrecord
280
     1
102
RTVSPropertyOp0
 70
     1
102
RTVSPropertyOp1
 70
     1
102
RTVSPropertyOp2
 70
     1
102
RTVSPropertyOp3
 70
     1
102
RTVSPropertyOp4
 70
     1
102
RTVSPropertyOp5
 70
     1
102
RTVSPropertyOp6
 70
     1
102
RTVSPropertyOp7
 70
     1
102
RTVSPropertyOp8
 70
     1
102
RTVSPropertyOp9
 70
     1
102
RTVSPropertyOp10
 70
     1
102
RTVSPropertyOp11
 70
     1
102
RTVSPropertyOp12
 70
     1
102
RTVSPropertyOp13
 70
     1
102
RTVSPropertyOp14
 70
     1
102
RTVSPropertyOp15
 70
     1
102
RTVSPropertyOp16
 70
     1
102
RTVSPropertyOp17
 70
     1
102
RTVSPropertyOp18
 70
     1
102
RTVSPropertyOp19
 70
     1
102
RTVSPropertyOp20
 70
     1
102
RTVSPropertyOp21
 70
     1
102
RTVSPropertyOp22
 70
     1
102
RTVSPropertyOp23
 70
     1
102
RTVSPropertyOp24
 70
     1
102
RTVSPropertyOp25
 70
     1
102
RTVSPropertyOp26
 70
     1
102
RTVSPropertyOp27
 70
     1
102
RTVSPropertyOp28
 70
     1
102
RTVSPropertyOp29
 70
     1
102
RTVSPropertyOp30
 70
     1
102
RTVSPropertyOp31
 70
     1
102
RTVSPropertyOp32
 70
     1
  0
ENDSEC
  0
EOF
