  0
SECTION
  2
HEADER
  9
$ACADVER
  1
AC1015
  9
$ACADMAINTVER
 70
    20
  9
$DWGCODEPAGE
  3
ANSI_932
  9
$INSBASE
 10
0.0
 20
0.0
 30
0.0
  9
$EXTMIN
 10
-234.613077
 20
-112.46397
 30
0.0
  9
$EXTMAX
 10
322.9679715751302
 20
164.53603
 30
0.0
  9
$LIMMIN
 10
-234.614083
 20
-112.464974
  9
$LIMMAX
 10
170.739007
 20
164.537026
  9
$ORTHOMODE
 70
     1
  9
$REGENMODE
 70
     1
  9
$FILLMODE
 70
     1
  9
$QTEXTMODE
 70
     0
  9
$MIRRTEXT
 70
     0
  9
$LTSCALE
 40
6.755850999999998
  9
$ATTMODE
 70
     1
  9
$TEXTSIZE
 40
3.2
  9
$TRACEWID
 40
0.05
  9
$TEXTSTYLE
  7
高3.2
  9
$CLAYER
  8
0
  9
$CELTYPE
  6
ByLayer
  9
$CECOLOR
 62
   256
  9
$CELTSCALE
 40
1.0
  9
$DISPSILH
 70
     0
  9
$DIMSCALE
 40
1.0
  9
$DIMASZ
 40
2.5
  9
$DIMEXO
 40
0.25
  9
$DIMDLI
 40
0.2
  9
$DIMRND
 40
0.0
  9
$DIMDLE
 40
0.0
  9
$DIMEXE
 40
1.25
  9
$DIMTP
 40
0.0
  9
$DIMTM
 40
0.0
  9
$DIMTXT
 40
3.0
  9
$DIMCEN
 40
0.0
  9
$DIMTSZ
 40
0.0
  9
$DIMTOL
 70
     0
  9
$DIMLIM
 70
     0
  9
$DIMTIH
 70
     0
  9
$DIMTOH
 70
     0
  9
$DIMSE1
 70
     0
  9
$DIMSE2
 70
     0
  9
$DIMTAD
 70
     3
  9
$DIMZIN
 70
     8
  9
$DIMBLK
  1
Open30
  9
$DIMASO
 70
     1
  9
$DIMSHO
 70
     1
  9
$DIMPOST
  1

  9
$DIMAPOST
  1

  9
$DIMALT
 70
     0
  9
$DIMALTD
 70
     3
  9
$DIMALTF
 40
0.03937007874016
  9
$DIMLFAC
 40
1.0
  9
$DIMTOFL
 70
     1
  9
$DIMTVP
 40
0.0
  9
$DIMTIX
 70
     0
  9
$DIMSOXD
 70
     0
  9
$DIMSAH
 70
     0
  9
$DIMBLK1
  1

  9
$DIMBLK2
  1

  9
$DIMSTYLE
  2
FREE
  9
$DIMCLRD
 70
     0
  9
$DIMCLRE
 70
     0
  9
$DIMCLRT
 70
     4
  9
$DIMTFAC
 40
1.0
  9
$DIMGAP
 40
0.625
  9
$DIMJUST
 70
     0
  9
$DIMSD1
 70
     0
  9
$DIMSD2
 70
     0
  9
$DIMTOLJ
 70
     0
  9
$DIMTZIN
 70
     8
  9
$DIMALTZ
 70
     0
  9
$DIMALTTZ
 70
     0
  9
$DIMUPT
 70
     1
  9
$DIMDEC
 70
     2
  9
$DIMTDEC
 70
     2
  9
$DIMALTU
 70
     2
  9
$DIMALTTD
 70
     3
  9
$DIMTXSTY
  7
STANDARD
  9
$DIMAUNIT
 70
     0
  9
$DIMADEC
 70
     1
  9
$DIMALTRND
 40
0.0
  9
$DIMAZIN
 70
     2
  9
$DIMDSEP
 70
    46
  9
$DIMATFIT
 70
     0
  9
$DIMFRAC
 70
     0
  9
$DIMLDRBLK
  1
Open30
  9
$DIMLUNIT
 70
     2
  9
$DIMLWD
 70
    -2
  9
$DIMLWE
 70
    -2
  9
$DIMTMOVE
 70
     0
  9
$LUNITS
 70
     2
  9
$LUPREC
 70
     4
  9
$SKETCHINC
 40
0.1
  9
$FILLETRAD
 40
0.0
  9
$AUNITS
 70
     0
  9
$AUPREC
 70
     0
  9
$MENU
  1
.
  9
$ELEVATION
 40
0.0
  9
$PELEVATION
 40
0.0
  9
$THICKNESS
 40
0.0
  9
$LIMCHECK
 70
     0
  9
$CHAMFERA
 40
0.0
  9
$CHAMFERB
 40
0.0
  9
$CHAMFERC
 40
0.0
  9
$CHAMFERD
 40
0.0
  9
$SKPOLY
 70
     0
  9
$TDCREATE
 40
2455825.640289884
  9
$TDUCREATE
 40
2455825.265289884
  9
$TDUPDATE
 40
2460251.686133924
  9
$TDUUPDATE
 40
2460251.311133923
  9
$TDINDWG
 40
0.1721269097
  9
$TDUSRTIMER
 40
0.1721266204
  9
$USRTIMER
 70
     1
  9
$ANGBASE
 50
0.0
  9
$ANGDIR
 70
     0
  9
$PDMODE
 70
     0
  9
$PDSIZE
 40
0.0
  9
$PLINEWID
 40
0.0
  9
$SPLFRAME
 70
     0
  9
$SPLINETYPE
 70
     6
  9
$SPLINESEGS
 70
     8
  9
$HANDSEED
  5
D66
  9
$SURFTAB1
 70
     6
  9
$SURFTAB2
 70
     6
  9
$SURFTYPE
 70
     6
  9
$SURFU
 70
     6
  9
$SURFV
 70
     6
  9
$UCSBASE
  2

  9
$UCSNAME
  2

  9
$UCSORG
 10
0.0
 20
0.0
 30
0.0
  9
$UCSXDIR
 10
1.0
 20
0.0
 30
0.0
  9
$UCSYDIR
 10
0.0
 20
1.0
 30
0.0
  9
$UCSORTHOREF
  2

  9
$UCSORTHOVIEW
 70
     0
  9
$UCSORGTOP
 10
0.0
 20
0.0
 30
0.0
  9
$UCSORGBOTTOM
 10
0.0
 20
0.0
 30
0.0
  9
$UCSORGLEFT
 10
0.0
 20
0.0
 30
0.0
  9
$UCSORGRIGHT
 10
0.0
 20
0.0
 30
0.0
  9
$UCSORGFRONT
 10
0.0
 20
0.0
 30
0.0
  9
$UCSORGBACK
 10
0.0
 20
0.0
 30
0.0
  9
$PUCSBASE
  2

  9
$PUCSNAME
  2

  9
$PUCSORG
 10
0.0
 20
0.0
 30
0.0
  9
$PUCSXDIR
 10
1.0
 20
0.0
 30
0.0
  9
$PUCSYDIR
 10
0.0
 20
1.0
 30
0.0
  9
$PUCSORTHOREF
  2

  9
$PUCSORTHOVIEW
 70
     0
  9
$PUCSORGTOP
 10
0.0
 20
0.0
 30
0.0
  9
$PUCSORGBOTTOM
 10
0.0
 20
0.0
 30
0.0
  9
$PUCSORGLEFT
 10
0.0
 20
0.0
 30
0.0
  9
$PUCSORGRIGHT
 10
0.0
 20
0.0
 30
0.0
  9
$PUCSORGFRONT
 10
0.0
 20
0.0
 30
0.0
  9
$PUCSORGBACK
 10
0.0
 20
0.0
 30
0.0
  9
$USERI1
 70
     0
  9
$USERI2
 70
     0
  9
$USERI3
 70
     0
  9
$USERI4
 70
     0
  9
$USERI5
 70
     0
  9
$USERR1
 40
0.0
  9
$USERR2
 40
0.0
  9
$USERR3
 40
0.0
  9
$USERR4
 40
0.0
  9
$USERR5
 40
0.0
  9
$WORLDVIEW
 70
     1
  9
$SHADEDGE
 70
     3
  9
$SHADEDIF
 70
    70
  9
$TILEMODE
 70
     1
  9
$MAXACTVP
 70
    64
  9
$PINSBASE
 10
0.0
 20
0.0
 30
0.0
  9
$PLIMCHECK
 70
     0
  9
$PEXTMIN
 10
1.000000000000000E+20
 20
1.000000000000000E+20
 30
1.000000000000000E+20
  9
$PEXTMAX
 10
-1.000000000000000E+20
 20
-1.000000000000000E+20
 30
-1.000000000000000E+20
  9
$PLIMMIN
 10
0.0
 20
0.0
  9
$PLIMMAX
 10
12.0
 20
9.0
  9
$UNITMODE
 70
     0
  9
$VISRETAIN
 70
     1
  9
$PLINEGEN
 70
     0
  9
$PSLTSCALE
 70
     1
  9
$TREEDEPTH
 70
  3020
  9
$CMLSTYLE
  2
Standard
  9
$CMLJUST
 70
     0
  9
$CMLSCALE
 40
1.0
  9
$PROXYGRAPHICS
 70
     1
  9
$MEASUREMENT
 70
     0
  9
$CELWEIGHT
370
    -1
  9
$ENDCAPS
280
     0
  9
$JOINSTYLE
280
     0
  9
$LWDISPLAY
290
     0
  9
$INSUNITS
 70
     0
  9
$HYPERLINKBASE
  1

  9
$STYLESHEET
  1

  9
$XEDIT
290
     1
  9
$CEPSNTYPE
380
     0
  9
$PSTYLEMODE
290
     1
  9
$FINGERPRINTGUID
  2
{97D5D4F2-7CEF-41F0-A021-D9A985DBE3DE}
  9
$VERSIONGUID
  2
{F07583CB-94F2-48C3-ABD6-C3789C5179EA}
  9
$EXTNAMES
290
     1
  9
$PSVPSCALE
 40
0.0
  9
$OLESTARTUP
290
     0
  0
ENDSEC
  0
SECTION
  2
CLASSES
  0
CLASS
  1
ACDBDICTIONARYWDFLT
  2
AcDbDictionaryWithDefault
  3
ObjectDBX Classes
 90
        0
280
     0
281
     0
  0
CLASS
  1
MATERIAL
  2
AcDbMaterial
  3
ObjectDBX Classes
 90
     1153
280
     0
281
     0
  0
CLASS
  1
VISUALSTYLE
  2
AcDbVisualStyle
  3
ObjectDBX Classes
 90
     4095
280
     0
281
     0
  0
CLASS
  1
TABLESTYLE
  2
AcDbTableStyle
  3
ObjectDBX Classes
 90
     4095
280
     0
281
     0
  0
CLASS
  1
DICTIONARYVAR
  2
AcDbDictionaryVar
  3
ObjectDBX Classes
 90
        0
280
     0
281
     0
  0
CLASS
  1
ACDBPLACEHOLDER
  2
AcDbPlaceHolder
  3
ObjectDBX Classes
 90
        0
280
     0
281
     0
  0
CLASS
  1
LAYOUT
  2
AcDbLayout
  3
ObjectDBX Classes
 90
        0
280
     0
281
     0
  0
CLASS
  1
SCALE
  2
AcDbScale
  3
ObjectDBX Classes
 90
     1153
280
     0
281
     0
  0
CLASS
  1
MLEADERSTYLE
  2
AcDbMLeaderStyle
  3
ACDB_MLEADERSTYLE_CLASS
 90
     4095
280
     0
281
     0
  0
CLASS
  1
SORTENTSTABLE
  2
AcDbSortentsTable
  3
ObjectDBX Classes
 90
        0
280
     0
281
     0
  0
CLASS
  1
CELLSTYLEMAP
  2
AcDbCellStyleMap
  3
ObjectDBX Classes
 90
     1152
280
     0
281
     0
  0
CLASS
  1
AEC_REFEDIT_STATUS_TRACKER
  2
AecDbRefEditStatusTracker
  3
AecArchBase60|Product Desc: Autodesk Architectural Desktop 2007 |Company: Autodesk,Inc. |WEB Address: www.autodesk.com
 90
      129
280
     0
281
     0
  0
CLASS
  1
NPOCOLLECTION
  2
AcDbImpNonPersistentObjectsCollection
  3
ObjectDBX Classes
 90
     1153
280
     0
281
     0
  0
ENDSEC
  0
SECTION
  2
TABLES
  0
TABLE
  2
VPORT
  5
8
330
0
100
AcDbSymbolTable
 70
     1
  0
VPORT
  5
56
330
8
100
AcDbSymbolTableRecord
100
AcDbViewportTableRecord
  2
*Active
 70
     0
 10
0.0
 20
0.0
 11
1.0
 21
1.0
 12
-25.22825946639239
 22
-4.423768294912633
 13
0.0
 23
0.0
 14
1.0
 24
1.0
 15
0.0
 25
0.0
 16
0.0
 26
0.0
 36
1.0
 17
0.0
 27
0.0
 37
0.0
 40
930.6738478801017
 41
1.382559774964838
 42
50.0
 43
0.0
 44
0.0
 50
0.0
 51
0.0
 71
     0
 72
   100
 73
     1
 74
     1
 75
     0
 76
     0
 77
     0
 78
     0
281
     0
 65
     1
110
0.0
120
0.0
130
0.0
111
1.0
121
0.0
131
0.0
112
0.0
122
1.0
132
0.0
 79
     0
146
0.0
  0
ENDTAB
  0
TABLE
  2
LTYPE
  5
5
330
0
100
AcDbSymbolTable
 70
     2
  0
LTYPE
  5
28
330
5
100
AcDbSymbolTableRecord
100
AcDbLinetypeTableRecord
  2
ByBlock
 70
     0
  3

 72
    65
 73
     0
 40
0.0
  0
LTYPE
  5
29
330
5
100
AcDbSymbolTableRecord
100
AcDbLinetypeTableRecord
  2
ByLayer
 70
     0
  3

 72
    65
 73
     0
 40
0.0
  0
LTYPE
  5
2A
330
5
100
AcDbSymbolTableRecord
100
AcDbLinetypeTableRecord
  2
CONTINUOUS
 70
     0
  3
Solid-line
 72
    65
 73
     0
 40
0.0
  0
LTYPE
  5
8E2
330
5
100
AcDbSymbolTableRecord
100
AcDbLinetypeTableRecord
  2
HIDDEN
 70
     0
  3
Hidden __ __ __ __ __ __ __ __ __ __ __ __ __ _
 72
    65
 73
     2
 40
0.375
 49
0.25
 74
     0
 49
-0.125
 74
     0
  0
ENDTAB
  0
TABLE
  2
LAYER
  5
2
102
{ACAD_XDICTIONARY
360
5AE
102
}
330
0
100
AcDbSymbolTable
 70
     2
  0
LAYER
  5
25
102
{ACAD_XDICTIONARY
360
793
102
}
330
2
100
AcDbSymbolTableRecord
100
AcDbLayerTableRecord
  2
0
 70
     0
 62
     7
  6
CONTINUOUS
370
    -3
390
F
  0
LAYER
  5
59A
330
2
100
AcDbSymbolTableRecord
100
AcDbLayerTableRecord
  2
Defpoints
 70
     0
 62
     7
  6
CONTINUOUS
290
     0
370
    -3
390
F
  0
ENDTAB
  0
TABLE
  2
STYLE
  5
3
330
0
100
AcDbSymbolTable
 70
     6
  0
STYLE
  5
26
330
3
100
AcDbSymbolTableRecord
100
AcDbTextStyleTableRecord
  2
STANDARD
 70
     0
 40
0.0
 41
1.0
 50
0.0
 71
     0
 42
0.2
  3
TXT
  4
BIGFONT
  0
STYLE
  5
59B
330
3
100
AcDbSymbolTableRecord
100
AcDbTextStyleTableRecord
  2
高3.2
 70
     0
 40
3.2
 41
1.0
 50
0.0
 71
     0
 42
3.2
  3
txt.shx
  4
bigfont.shx
  0
STYLE
  5
59C
330
3
100
AcDbSymbolTableRecord
100
AcDbTextStyleTableRecord
  2
高6.3
 70
     0
 40
6.299999999999998
 41
1.0
 50
0.0
 71
     0
 42
6.299999999999998
  3
txt.shx
  4
bigfont.shx
  0
STYLE
  5
59E
330
3
100
AcDbSymbolTableRecord
100
AcDbTextStyleTableRecord
  2
高4.5
 70
     0
 40
4.5
 41
1.0
 50
0.0
 71
     0
 42
6.299999999999998
  3
txt.shx
  4
bigfont.shx
  0
STYLE
  5
59F
330
3
100
AcDbSymbolTableRecord
100
AcDbTextStyleTableRecord
  2
高2
 70
     0
 40
2.0
 41
1.0
 50
0.0
 71
     0
 42
2.0
  3
txt.shx
  4
bigfont.shx
  0
STYLE
  5
8E1
330
3
100
AcDbSymbolTableRecord
100
AcDbTextStyleTableRecord
  2

 70
     1
 40
0.0
 41
1.0
 50
0.0
 71
     0
 42
3.2
  3
ltypeshp.shx
  4

  0
ENDTAB
  0
TABLE
  2
VIEW
  5
6
330
0
100
AcDbSymbolTable
 70
     0
  0
ENDTAB
  0
TABLE
  2
UCS
  5
7
330
0
100
AcDbSymbolTable
 70
     0
  0
ENDTAB
  0
TABLE
  2
APPID
  5
9
330
0
100
AcDbSymbolTable
 70
    10
  0
APPID
  5
27
330
9
100
AcDbSymbolTableRecord
100
AcDbRegAppTableRecord
  2
ACAD
 70
     0
  0
APPID
  5
5AA
330
9
100
AcDbSymbolTableRecord
100
AcDbRegAppTableRecord
  2
ACAD_DSTYLE_DIMJOGGED_JOGANGLE_SYMBOL
 70
     0
  0
APPID
  5
5AB
330
9
100
AcDbSymbolTableRecord
100
AcDbRegAppTableRecord
  2
ACAD_DSTYLE_DIMJAG
 70
     0
  0
APPID
  5
5AC
330
9
100
AcDbSymbolTableRecord
100
AcDbRegAppTableRecord
  2
ACAD_DSTYLE_DIMBREAK
 70
     0
  0
APPID
  5
5AD
330
9
100
AcDbSymbolTableRecord
100
AcDbRegAppTableRecord
  2
ACAD_DSTYLE_DIMTALN
 70
     0
  0
APPID
  5
6F4
330
9
100
AcDbSymbolTableRecord
100
AcDbRegAppTableRecord
  2
ACAD_EXEMPT_FROM_CAD_STANDARDS
 70
     0
  0
APPID
  5
7D9
330
9
100
AcDbSymbolTableRecord
100
AcDbRegAppTableRecord
  2
ACAD_MLEADERVER
 70
     0
  0
APPID
  5
7DA
330
9
100
AcDbSymbolTableRecord
100
AcDbRegAppTableRecord
  2
ACAD_DSTYLE_DIMARC_LENGTH_SYMBOL
 70
     0
  0
APPID
  5
7DB
330
9
100
AcDbSymbolTableRecord
100
AcDbRegAppTableRecord
  2
ACAD_DSTYLE_DIMEXT_LENGTH
 70
     0
  0
APPID
  5
AA1
330
9
100
AcDbSymbolTableRecord
100
AcDbRegAppTableRecord
  2
ACAD_PSEXT
 70
     0
  0
ENDTAB
  0
TABLE
  2
DIMSTYLE
  5
A
330
0
100
AcDbSymbolTable
 70
     8
100
AcDbDimStyleTable
 71
     2
340
5A9
340
4C6
  0
DIMSTYLE
105
4C6
330
A
100
AcDbSymbolTableRecord
100
AcDbDimStyleTableRecord
  2
Standard
 70
     0
340
26
  0
DIMSTYLE
105
5A9
330
A
100
AcDbSymbolTableRecord
100
AcDbDimStyleTableRecord
  2
FREE
 70
     0
 41
2.5
 42
0.25
 43
0.2
 44
1.25
 73
     0
 74
     0
 77
     3
 78
     8
 79
     2
140
3.0
141
0.0
143
0.03937007874016
147
0.625
171
     3
172
     1
178
     4
179
     1
271
     2
272
     2
274
     3
283
     0
284
     8
288
     1
289
     0
340
26
341
50A
342
50A
1001
ACAD_DSTYLE_DIMBREAK
1070
   391
1040
3.75
1001
ACAD_DSTYLE_DIMJAG
1070
   388
1040
1.5
1001
ACAD_DSTYLE_DIMTALN
1070
   392
1070
     0
1001
ACAD_DSTYLE_DIMARC_LENGTH_SYMBOL
1070
   379
1070
     2
1001
ACAD_DSTYLE_DIMEXT_LENGTH
1070
   378
1040
1.25
1001
ACAD_DSTYLE_DIMJOGGED_JOGANGLE_SYMBOL
1070
   384
1040
1.570796326794896
  0
DIMSTYLE
105
95C
330
A
100
AcDbSymbolTableRecord
100
AcDbDimStyleTableRecord
  2
1：1
 70
     0
 41
2.5
 42
0.25
 43
0.2
 44
1.25
 73
     0
 74
     0
 77
     3
 78
     8
 79
     2
140
3.0
141
0.0
143
0.03937007874016
147
0.625
171
     3
172
     1
178
     4
179
     1
271
     2
272
     2
274
     3
283
     0
284
     8
288
     1
289
     0
340
26
341
50A
342
50A
1001
ACAD_DSTYLE_DIMARC_LENGTH_SYMBOL
1070
   379
1070
     2
1001
ACAD_DSTYLE_DIMEXT_LENGTH
1070
   378
1040
1.25
1001
ACAD_DSTYLE_DIMJOGGED_JOGANGLE_SYMBOL
1070
   384
1040
1.570796326794896
  0
DIMSTYLE
105
95D
330
A
100
AcDbSymbolTableRecord
100
AcDbDimStyleTableRecord
  2
2：1
 70
     0
 41
2.5
 42
0.25
 43
0.2
 44
1.25
 73
     0
 74
     0
 77
     3
 78
     8
 79
     2
140
3.0
141
0.0
143
0.03937007874016
144
0.5
147
0.625
171
     3
172
     1
178
     4
179
     1
271
     2
272
     2
274
     3
283
     0
284
     8
288
     1
289
     0
340
26
341
50A
342
50A
1001
ACAD_DSTYLE_DIMARC_LENGTH_SYMBOL
1070
   379
1070
     2
1001
ACAD_DSTYLE_DIMEXT_LENGTH
1070
   378
1040
1.25
1001
ACAD_DSTYLE_DIMJOGGED_JOGANGLE_SYMBOL
1070
   384
1040
1.570796326794896
  0
DIMSTYLE
105
95E
330
A
100
AcDbSymbolTableRecord
100
AcDbDimStyleTableRecord
  2
5：1
 70
     0
 41
2.5
 42
0.25
 43
0.2
 44
1.25
 73
     0
 74
     0
 77
     3
 78
     8
 79
     2
140
3.0
141
0.0
143
0.03937007874016
144
0.2
147
0.625
171
     3
172
     1
178
     4
179
     1
271
     2
272
     2
274
     3
283
     0
284
     8
288
     1
289
     0
340
26
341
50A
342
50A
1001
ACAD_DSTYLE_DIMARC_LENGTH_SYMBOL
1070
   379
1070
     2
1001
ACAD_DSTYLE_DIMEXT_LENGTH
1070
   378
1040
1.25
1001
ACAD_DSTYLE_DIMJOGGED_JOGANGLE_SYMBOL
1070
   384
1040
1.570796326794896
  0
DIMSTYLE
105
95F
330
A
100
AcDbSymbolTableRecord
100
AcDbDimStyleTableRecord
  2
10：1
 70
     0
 41
2.5
 42
0.25
 43
0.2
 44
1.25
 73
     0
 74
     0
 77
     3
 78
     8
 79
     2
140
3.0
141
0.0
143
0.03937007874016
144
0.1
147
0.625
171
     3
172
     1
178
     4
179
     1
271
     2
272
     2
274
     3
283
     0
284
     8
288
     1
289
     0
340
26
341
50A
342
50A
1001
ACAD_DSTYLE_DIMARC_LENGTH_SYMBOL
1070
   379
1070
     2
1001
ACAD_DSTYLE_DIMEXT_LENGTH
1070
   378
1040
1.25
1001
ACAD_DSTYLE_DIMJOGGED_JOGANGLE_SYMBOL
1070
   384
1040
1.570796326794896
  0
DIMSTYLE
105
960
330
A
100
AcDbSymbolTableRecord
100
AcDbDimStyleTableRecord
  2
1／5
 70
     0
 41
2.5
 42
0.25
 43
0.2
 44
1.25
 73
     0
 74
     0
 77
     3
 78
     8
 79
     2
140
3.0
141
0.0
143
0.03937007874016
144
5.0
147
0.625
171
     3
172
     1
178
     4
179
     1
271
     2
272
     2
274
     3
283
     0
284
     8
288
     1
289
     0
340
26
341
50A
342
50A
1001
ACAD_DSTYLE_DIMARC_LENGTH_SYMBOL
1070
   379
1070
     2
1001
ACAD_DSTYLE_DIMEXT_LENGTH
1070
   378
1040
1.25
1001
ACAD_DSTYLE_DIMJOGGED_JOGANGLE_SYMBOL
1070
   384
1040
1.570796326794896
  0
DIMSTYLE
105
AA0
330
A
100
AcDbSymbolTableRecord
100
AcDbDimStyleTableRecord
  2
1／2
 70
     0
 41
2.5
 42
0.25
 43
0.2
 44
1.25
 73
     0
 74
     0
 77
     3
 78
     8
 79
     2
140
3.0
141
0.0
143
0.03937007874016
144
2.0
147
0.625
171
     3
172
     1
178
     4
179
     1
271
     2
272
     2
274
     3
283
     0
284
     8
288
     1
289
     0
340
26
341
50A
342
50A
1001
ACAD_DSTYLE_DIMARC_LENGTH_SYMBOL
1070
   379
1070
     2
1001
ACAD_DSTYLE_DIMEXT_LENGTH
1070
   378
1040
1.25
1001
ACAD_DSTYLE_DIMJOGGED_JOGANGLE_SYMBOL
1070
   384
1040
1.570796326794896
  0
ENDTAB
  0
TABLE
  2
BLOCK_RECORD
  5
1
330
0
100
AcDbSymbolTable
 70
     7
  0
BLOCK_RECORD
  5
36
102
{ACAD_XDICTIONARY
360
7FD
102
}
330
1
100
AcDbSymbolTableRecord
100
AcDbBlockTableRecord
  2
*Model_Space
340
39
  0
BLOCK_RECORD
  5
32
330
1
100
AcDbSymbolTableRecord
100
AcDbBlockTableRecord
  2
*Paper_Space
340
35
  0
BLOCK_RECORD
  5
50A
330
1
100
AcDbSymbolTableRecord
100
AcDbBlockTableRecord
  2
_Open30
340
0
102
{BLKREFS
331
93E
331
93F
331
947
331
948
331
950
331
951
102
}
  0
BLOCK_RECORD
  5
709
330
1
100
AcDbSymbolTableRecord
100
AcDbBlockTableRecord
  2
*D1
340
0
  0
BLOCK_RECORD
  5
716
330
1
100
AcDbSymbolTableRecord
100
AcDbBlockTableRecord
  2
*D2
340
0
  0
BLOCK_RECORD
  5
723
330
1
100
AcDbSymbolTableRecord
100
AcDbBlockTableRecord
  2
*D3
340
0
  0
BLOCK_RECORD
  5
74E
330
1
100
AcDbSymbolTableRecord
100
AcDbBlockTableRecord
  2
_DotSmall
340
0
  0
ENDTAB
  0
ENDSEC
  0
SECTION
  2
BLOCKS
  0
BLOCK
  5
37
330
36
100
AcDbEntity
  8
0
100
AcDbBlockBegin
  2
*Model_Space
 70
     0
 10
0.0
 20
0.0
 30
0.0
  3
*Model_Space
  1

  0
ENDBLK
  5
38
330
36
100
AcDbEntity
  8
0
100
AcDbBlockEnd
  0
BLOCK
  5
33
330
32
100
AcDbEntity
 67
     1
  8
0
100
AcDbBlockBegin
  2
*Paper_Space
 70
     0
 10
0.0
 20
0.0
 30
0.0
  3
*Paper_Space
  1

  0
ENDBLK
  5
34
330
32
100
AcDbEntity
 67
     1
  8
0
100
AcDbBlockEnd
  0
BLOCK
  5
50B
330
50A
100
AcDbEntity
  8
0
100
AcDbBlockBegin
  2
_Open30
 70
     0
 10
0.0
 20
0.0
 30
0.0
  3
_Open30
  1

  0
LINE
  5
50C
330
50A
100
AcDbEntity
  8
0
  6
ByBlock
 62
     0
370
    -2
100
AcDbLine
 10
-1.0
 20
0.267949
 30
0.0
 11
0.0
 21
0.0
 31
0.0
  0
LINE
  5
50D
330
50A
100
AcDbEntity
  8
0
  6
ByBlock
 62
     0
370
    -2
100
AcDbLine
 10
0.0
 20
0.0
 30
0.0
 11
-1.0
 21
-0.267949
 31
0.0
  0
LINE
  5
50E
330
50A
100
AcDbEntity
  8
0
  6
ByBlock
 62
     0
370
    -2
100
AcDbLine
 10
0.0
 20
0.0
 30
0.0
 11
-1.0
 21
0.0
 31
0.0
  0
ENDBLK
  5
50F
330
50A
100
AcDbEntity
  8
0
100
AcDbBlockEnd
  0
BLOCK
  5
70A
330
709
100
AcDbEntity
  8
0
100
AcDbBlockBegin
  2
*D1
 70
     1
 10
0.0
 20
0.0
 30
0.0
  3
*D1
  1

  0
LINE
  5
93B
330
709
100
AcDbEntity
  8
0
 62
     0
370
    -2
100
AcDbLine
 10
-60.28663
 20
11.126383
 30
0.0
 11
-60.28663
 21
-5.789755999999997
 31
0.0
  0
LINE
  5
93C
330
709
100
AcDbEntity
  8
0
 62
     0
370
    -2
100
AcDbLine
 10
79.71337
 20
11.126383
 30
0.0
 11
79.71337
 21
-5.789755999999997
 31
0.0
  0
LINE
  5
93D
330
709
100
AcDbEntity
  8
0
 62
     0
370
    -2
100
AcDbLine
 10
-57.78663
 20
-4.539755999999997
 30
0.0
 11
77.21337
 21
-4.539755999999997
 31
0.0
  0
INSERT
  5
93E
330
709
100
AcDbEntity
  8
0
 62
     0
370
    -2
100
AcDbBlockReference
  2
_Open30
 10
-60.28663
 20
-4.539755999999997
 30
0.0
 41
2.5
 42
2.5
 43
2.5
 50
180.0
  0
INSERT
  5
93F
330
709
100
AcDbEntity
  8
0
 62
     0
370
    -2
100
AcDbBlockReference
  2
_Open30
 10
79.71337
 20
-4.539755999999997
 30
0.0
 41
2.5
 42
2.5
 43
2.5
  0
MTEXT
  5
940
330
709
100
AcDbEntity
  8
0
 62
     4
100
AcDbMText
 10
9.713369999999997
 20
-2.414755999999997
 30
0.0
 40
3.0
 41
0.0
 71
     5
 72
     1
  1
220
 73
     1
 44
1.0
1001
ACAD
1000
MTEXTBEGIN
1070
    73
1070
     1
1070
    44
1040
1.0
1070
    74
1070
     0
1000
MTEXTEND
  0
POINT
  5
941
330
709
100
AcDbEntity
  8
Defpoints
 62
     0
100
AcDbPoint
 10
-60.28663
 20
11.376383
 30
0.0
  0
POINT
  5
942
330
709
100
AcDbEntity
  8
Defpoints
 62
     0
100
AcDbPoint
 10
79.71337
 20
11.376383
 30
0.0
  0
POINT
  5
943
330
709
100
AcDbEntity
  8
Defpoints
 62
     0
100
AcDbPoint
 10
79.71337
 20
-4.539755999999997
 30
0.0
  0
ENDBLK
  5
70B
330
709
100
AcDbEntity
  8
0
100
AcDbBlockEnd
  0
BLOCK
  5
717
330
716
100
AcDbEntity
  8
0
100
AcDbBlockBegin
  2
*D2
 70
     1
 10
0.0
 20
0.0
 30
0.0
  3
*D2
  1

  0
LINE
  5
94D
330
716
100
AcDbEntity
  8
0
 62
     0
370
    -2
100
AcDbLine
 10
-30.289138
 20
6.376383
 30
0.0
 11
-74.932371
 21
6.376383000000013
 31
0.0
  0
LINE
  5
94E
330
716
100
AcDbEntity
  8
0
 62
     0
370
    -2
100
AcDbLine
 10
-34.60513
 20
115.614792
 30
0.0
 11
-74.93237099999998
 21
115.614792
 31
0.0
  0
LINE
  5
94F
330
716
100
AcDbEntity
  8
0
 62
     0
370
    -2
100
AcDbLine
 10
-73.682371
 20
8.876383000000013
 30
0.0
 11
-73.68237099999998
 21
113.114792
 31
0.0
  0
INSERT
  5
950
330
716
100
AcDbEntity
  8
0
 62
     0
370
    -2
100
AcDbBlockReference
  2
_Open30
 10
-73.682371
 20
6.376383000000012
 30
0.0
 41
2.5
 42
2.5
 43
2.5
 50
270.0
  0
INSERT
  5
951
330
716
100
AcDbEntity
  8
0
 62
     0
370
    -2
100
AcDbBlockReference
  2
_Open30
 10
-73.68237099999998
 20
115.614792
 30
0.0
 41
2.5
 42
2.5
 43
2.5
 50
90.0
  0
MTEXT
  5
952
330
716
100
AcDbEntity
  8
0
 62
     4
100
AcDbMText
 10
-75.807371
 20
60.99558749999999
 30
0.0
 40
3.0
 41
0.0
 71
     5
 72
     1
  1
185
 11
0.0000000000000001
 21
1.0
 31
0.0
 73
     1
 44
1.0
1001
ACAD
1000
MTEXTBEGIN
1070
    73
1070
     1
1070
    44
1040
1.0
1070
    74
1070
     0
1000
MTEXTEND
  0
POINT
  5
953
330
716
100
AcDbEntity
  8
Defpoints
 62
     0
100
AcDbPoint
 10
-30.039138
 20
6.376383
 30
0.0
  0
POINT
  5
954
330
716
100
AcDbEntity
  8
Defpoints
 62
     0
100
AcDbPoint
 10
-34.35513
 20
115.614792
 30
0.0
  0
POINT
  5
955
330
716
100
AcDbEntity
  8
Defpoints
 62
     0
100
AcDbPoint
 10
-73.68237099999998
 20
115.614792
 30
0.0
  0
ENDBLK
  5
718
330
716
100
AcDbEntity
  8
0
100
AcDbBlockEnd
  0
BLOCK
  5
724
330
723
100
AcDbEntity
  8
0
100
AcDbBlockBegin
  2
*D3
 70
     1
 10
0.0
 20
0.0
 30
0.0
  3
*D3
  1

  0
LINE
  5
944
330
723
100
AcDbEntity
  8
0
 62
     0
370
    -2
100
AcDbLine
 10
-176.002727
 20
22.126383
 30
0.0
 11
-176.002727
 21
-5.789755999999997
 31
0.0
  0
LINE
  5
945
330
723
100
AcDbEntity
  8
0
 62
     0
370
    -2
100
AcDbLine
 10
-111.060388
 20
22.126383
 30
0.0
 11
-111.060388
 21
-5.789755999999997
 31
0.0
  0
LINE
  5
946
330
723
100
AcDbEntity
  8
0
 62
     0
370
    -2
100
AcDbLine
 10
-173.502727
 20
-4.539755999999997
 30
0.0
 11
-113.560388
 21
-4.539755999999997
 31
0.0
  0
INSERT
  5
947
330
723
100
AcDbEntity
  8
0
 62
     0
370
    -2
100
AcDbBlockReference
  2
_Open30
 10
-176.002727
 20
-4.539755999999997
 30
0.0
 41
2.5
 42
2.5
 43
2.5
 50
180.0
  0
INSERT
  5
948
330
723
100
AcDbEntity
  8
0
 62
     0
370
    -2
100
AcDbBlockReference
  2
_Open30
 10
-111.060388
 20
-4.539755999999997
 30
0.0
 41
2.5
 42
2.5
 43
2.5
  0
MTEXT
  5
949
330
723
100
AcDbEntity
  8
0
 62
     4
100
AcDbMText
 10
-143.5315575
 20
-2.414755999999997
 30
0.0
 40
3.0
 41
0.0
 71
     5
 72
     1
  1
120
 73
     1
 44
1.0
1001
ACAD
1000
MTEXTBEGIN
1070
    73
1070
     1
1070
    44
1040
1.0
1070
    74
1070
     0
1000
MTEXTEND
  0
POINT
  5
94A
330
723
100
AcDbEntity
  8
Defpoints
 62
     0
100
AcDbPoint
 10
-176.002727
 20
22.376383
 30
0.0
  0
POINT
  5
94B
330
723
100
AcDbEntity
  8
Defpoints
 62
     0
100
AcDbPoint
 10
-111.060388
 20
22.376383
 30
0.0
  0
POINT
  5
94C
330
723
100
AcDbEntity
  8
Defpoints
 62
     0
100
AcDbPoint
 10
-111.060388
 20
-4.539755999999997
 30
0.0
  0
ENDBLK
  5
725
330
723
100
AcDbEntity
  8
0
100
AcDbBlockEnd
  0
BLOCK
  5
750
330
74E
100
AcDbEntity
  8
0
100
AcDbBlockBegin
  2
_DotSmall
 70
     0
 10
0.0
 20
0.0
 30
0.0
  3
_DotSmall
  1

  0
LWPOLYLINE
  5
74F
330
74E
100
AcDbEntity
  8
0
  6
ByBlock
 62
     0
100
AcDbPolyline
 90
        2
 70
     1
 43
0.5
 10
-0.0625
 20
0.0
 42
1.0
 10
0.0625
 20
0.0
 42
1.0
  0
ENDBLK
  5
751
330
74E
100
AcDbEntity
  8
0
100
AcDbBlockEnd
  0
ENDSEC
  0
SECTION
  2
ENTITIES
  0
TEXT
  5
86
330
36
100
AcDbEntity
  8
0
 62
     3
100
AcDbText
 10
104.80006
 20
-101.384906
 30
0.0
 40
3.2
  1
FREE
  7
高3.2
100
AcDbText
  0
CIRCLE
  5
87
330
36
100
AcDbEntity
  8
0
 62
     3
100
AcDbCircle
 10
-10.029906
 20
-45.90619
 30
0.0
 40
8.96
  0
LINE
  5
88
330
36
100
AcDbEntity
  8
0
 62
     3
100
AcDbLine
 10
170.386923
 20
164.53603
 30
0.0
 11
-219.613077
 21
164.53603
 31
0.0
  0
LINE
  5
89
330
36
100
AcDbEntity
  8
0
100
AcDbLine
 10
88.85703925579958
 20
-22.072526
 30
0.0
 11
88.85703925579958
 21
-56.722526
 31
0.0
  0
LINE
  5
8A
330
36
100
AcDbEntity
  8
0
 62
     3
100
AcDbLine
 10
141.5241946902117
 20
-22.072526
 30
0.0
 11
141.5241946902117
 21
-56.722526
 31
0.0
  0
TEXT
  5
8B
330
36
100
AcDbEntity
  8
0
 62
     3
100
AcDbText
 10
-218.113077
 20
-106.96397
 30
0.0
 40
3.2
  1
1
 41
0.8
  7
高3.2
100
AcDbText
  0
TEXT
  5
8C
330
36
100
AcDbEntity
  8
0
 62
     3
100
AcDbText
 10
134.773286
 20
-101.417653
 30
0.0
 40
3.2
  1
2005.3.4
  7
高3.2
100
AcDbText
  0
TEXT
  5
8D
330
36
100
AcDbEntity
  8
0
 62
     3
100
AcDbText
 10
73.71911502491639
 20
-87.98480899999999
 30
0.0
 40
4.5
  1
RTB-200D-100V
 41
0.8
  7
高4.5
100
AcDbText
  0
LINE
  5
8E
330
36
100
AcDbEntity
  8
0
100
AcDbLine
 10
31.55618
 20
-45.90619
 30
0.0
 11
-3.885905999999998
 21
-45.90619
 31
0.0
  0
LINE
  5
8F
330
36
100
AcDbEntity
  8
0
100
AcDbLine
 10
-10.029906
 20
-39.76219
 30
0.0
 11
-10.029906
 21
-33.134304
 31
0.0
  0
LINE
  5
90
330
36
100
AcDbEntity
  8
0
100
AcDbLine
 10
-9.197905999999999
 20
-48.33819
 30
0.0
 11
-9.197905999999999
 21
-53.20219
 31
0.0
  0
LINE
  5
91
330
36
100
AcDbEntity
  8
0
100
AcDbLine
 10
-10.861906
 20
-48.33819
 30
0.0
 11
-9.197905999999999
 21
-48.33819
 31
0.0
  0
LINE
  5
92
330
36
100
AcDbEntity
  8
0
100
AcDbLine
 10
-10.861906
 20
-48.33819
 30
0.0
 11
-10.861906
 21
-53.20219
 31
0.0
  0
LINE
  5
93
330
36
100
AcDbEntity
  8
0
100
AcDbLine
 10
-12.461906
 20
-41.42619
 30
0.0
 11
-7.597906
 21
-41.42619
 31
0.0
  0
LINE
  5
94
330
36
100
AcDbEntity
  8
0
100
AcDbLine
 10
-12.461906
 20
-39.63419
 30
0.0
 11
-7.597906
 21
-39.63419
 31
0.0
  0
LINE
  5
95
330
36
100
AcDbEntity
  8
0
100
AcDbLine
 10
-7.597906
 20
-39.63419
 30
0.0
 11
-7.597906
 21
-41.42619
 31
0.0
  0
LINE
  5
96
330
36
100
AcDbEntity
  8
0
100
AcDbLine
 10
-12.461906
 20
-39.63419
 30
0.0
 11
-12.461906
 21
-41.42619
 31
0.0
  0
LINE
  5
97
330
36
100
AcDbEntity
  8
0
100
AcDbLine
 10
-14.509906
 20
-43.47419
 30
0.0
 11
-14.509906
 21
-48.33819
 31
0.0
  0
LINE
  5
98
330
36
100
AcDbEntity
  8
0
100
AcDbLine
 10
-16.173906
 20
-43.47419
 30
0.0
 11
-14.509906
 21
-43.47419
 31
0.0
  0
LINE
  5
99
330
36
100
AcDbEntity
  8
0
100
AcDbLine
 10
-16.173906
 20
-48.33819
 30
0.0
 11
-14.509906
 21
-48.33819
 31
0.0
  0
LINE
  5
9A
330
36
100
AcDbEntity
  8
0
100
AcDbLine
 10
-16.173906
 20
-43.47419
 30
0.0
 11
-16.173906
 21
-48.33819
 31
0.0
  0
LINE
  5
9B
330
36
100
AcDbEntity
  8
0
100
AcDbLine
 10
-5.549906
 20
-48.33819
 30
0.0
 11
-3.885905999999998
 21
-48.33819
 31
0.0
  0
LINE
  5
9C
330
36
100
AcDbEntity
  8
0
100
AcDbLine
 10
-5.549906
 20
-43.47419
 30
0.0
 11
-5.549906
 21
-48.33819
 31
0.0
  0
LINE
  5
9D
330
36
100
AcDbEntity
  8
0
100
AcDbLine
 10
-3.885905999999998
 20
-43.47419
 30
0.0
 11
-3.885905999999998
 21
-48.33819
 31
0.0
  0
LINE
  5
9E
330
36
100
AcDbEntity
  8
0
100
AcDbLine
 10
-5.549906
 20
-43.47419
 30
0.0
 11
-3.885905999999998
 21
-43.47419
 31
0.0
  0
LINE
  5
9F
330
36
100
AcDbEntity
  8
0
100
AcDbLine
 10
-10.797906
 20
-53.20219
 30
0.0
 11
-9.197905999999999
 21
-53.20219
 31
0.0
  0
LINE
  5
A0
330
36
100
AcDbEntity
  8
0
100
AcDbLine
 10
89.131312
 20
-21.12831453960553
 30
0.0
 11
125.8558212860982
 21
-21.12831453960553
 31
0.0
  0
LINE
  5
C3
330
36
100
AcDbEntity
  8
0
 62
     3
100
AcDbLine
 10
144.687559
 20
-95.798248
 30
0.0
 11
144.687559
 21
-72.798248
 31
0.0
  0
LINE
  5
C5
330
36
100
AcDbEntity
  8
0
 62
     3
100
AcDbLine
 10
91.63394999999999
 20
-102.798248
 30
0.0
 11
91.63394999999999
 21
-88.79824799999999
 31
0.0
  0
TEXT
  5
C7
330
36
100
AcDbEntity
  8
0
 62
     3
100
AcDbText
 10
120.697877
 20
-76.59313199999998
 30
0.0
 40
2.0
  1
A
 41
0.7
100
AcDbText
  0
TEXT
  5
C8
330
36
100
AcDbEntity
  8
0
 62
     3
100
AcDbText
 10
123.233164
 20
-76.59313199999998
 30
0.0
 40
2.0
  1
P
 41
0.7
100
AcDbText
  0
TEXT
  5
C9
330
36
100
AcDbEntity
  8
0
 62
     3
100
AcDbText
 10
125.76845
 20
-76.59313199999998
 30
0.0
 40
2.0
  1
P
 41
0.7
100
AcDbText
  0
TEXT
  5
CA
330
36
100
AcDbEntity
  8
0
 62
     3
100
AcDbText
 10
128.303736
 20
-76.59313199999998
 30
0.0
 40
2.0
  1
D
 41
0.7
100
AcDbText
  0
TEXT
  5
CB
330
36
100
AcDbEntity
  8
0
 62
     3
100
AcDbText
 10
133.672419
 20
-76.59313199999998
 30
0.0
 40
2.0
  1
C
 41
0.7
100
AcDbText
  0
TEXT
  5
CC
330
36
100
AcDbEntity
  8
0
 62
     3
100
AcDbText
 10
136.207705
 20
-76.59313199999998
 30
0.0
 40
2.0
  1
H
 41
0.7
100
AcDbText
  0
TEXT
  5
CD
330
36
100
AcDbEntity
  8
0
 62
     3
100
AcDbText
 10
138.742992
 20
-76.59313199999998
 30
0.0
 40
2.0
  1
C
 41
0.7
100
AcDbText
  0
TEXT
  5
CE
330
36
100
AcDbEntity
  8
0
 62
     3
100
AcDbText
 10
141.278278
 20
-76.59313199999998
 30
0.0
 40
2.0
  1
K
 41
0.7
100
AcDbText
  0
TEXT
  5
CF
330
36
100
AcDbEntity
  8
0
 62
     3
100
AcDbText
 10
146.952244
 20
-76.59313199999998
 30
0.0
 40
2.0
  1
DESN
 41
1.216762999999998
100
AcDbText
  0
TEXT
  5
D0
330
36
100
AcDbEntity
  8
0
 62
     3
100
AcDbText
 10
61.945886
 20
-105.939629
 30
0.0
 40
2.0
  1
NICHIDO IND.CO.LTD
 41
1.274876
100
AcDbText
  0
LINE
  5
D1
330
36
100
AcDbEntity
  8
0
 62
     3
100
AcDbLine
 10
72.328915
 20
-72.798248
 30
0.0
 11
72.328915
 21
-95.798248
 31
0.0
  0
LINE
  5
D2
330
36
100
AcDbEntity
  8
0
 62
     3
100
AcDbLine
 10
118.687559
 20
-72.79824799999999
 30
0.0
 11
118.687559
 21
-112.46397
 31
0.0
  0
LINE
  5
D7
330
36
100
AcDbEntity
  8
0
 62
     3
100
AcDbLine
 10
131.687559
 20
-72.798248
 30
0.0
 11
131.687559
 21
-102.798248
 31
0.0
  0
TEXT
  5
D8
330
36
100
AcDbEntity
  8
0
 62
     3
100
AcDbText
 10
119.800004
 20
-101.933561
 30
0.0
 40
3.2
  1
作成日
 41
1.017225999999997
100
AcDbText
  0
LINE
  5
D9
330
36
100
AcDbEntity
  8
0
 62
     3
100
AcDbLine
 10
170.386923
 20
-72.798248
 30
0.0
 11
59.08348
 21
-72.798248
 31
0.0
  0
LINE
  5
DA
330
36
100
AcDbEntity
  8
0
 62
     3
100
AcDbLine
 10
157.687559
 20
-95.798248
 30
0.0
 11
157.687559
 21
-72.798248
 31
0.0
  0
TEXT
  5
DB
330
36
100
AcDbEntity
  8
0
 62
     3
100
AcDbText
 10
161.011363
 20
-76.507313
 30
0.0
 40
1.8
  1
D
 41
0.666667
100
AcDbText
  0
TEXT
  5
DC
330
36
100
AcDbEntity
  8
0
 62
     3
100
AcDbText
 10
163.827991
 20
-76.507313
 30
0.0
 40
1.8
  1
E
 41
0.666667
100
AcDbText
  0
TEXT
  5
DD
330
36
100
AcDbEntity
  8
0
 62
     3
100
AcDbText
 10
166.644619
 20
-76.507313
 30
0.0
 40
1.8
  1
F
 41
0.666667
100
AcDbText
  0
TEXT
  5
DE
330
36
100
AcDbEntity
  8
0
 62
     3
100
AcDbText
 10
161.011363
 20
-80.499866
 30
0.0
 40
3.2
  1
製図
 41
1.076369
100
AcDbText
  0
LINE
  5
DF
330
36
100
AcDbEntity
  8
0
 62
     3
100
AcDbLine
 10
59.08348
 20
-72.798248
 30
0.0
 11
59.08348
 21
-112.46397
 31
0.0
  0
TEXT
  5
E0
330
36
100
AcDbEntity
  8
0
 62
     3
100
AcDbText
 10
60.460133
 20
-112.131505
 30
0.0
 40
5.0
  1
日動工業株式会社
 41
0.833333
100
AcDbText
  0
LINE
  5
E1
330
36
100
AcDbEntity
  8
0
 62
     3
100
AcDbLine
 10
101.965884
 20
-88.79824799999999
 30
0.0
 11
101.965884
 21
-112.46397
 31
0.0
  0
LINE
  5
E2
330
36
100
AcDbEntity
  8
0
 62
     3
100
AcDbLine
 10
101.965884
 20
-107.631109
 30
0.0
 11
118.687559
 21
-107.631109
 31
0.0
  0
TEXT
  5
E3
330
36
100
AcDbEntity
  8
0
 62
     3
100
AcDbText
 10
102.552486
 20
-106.814678
 30
0.0
 40
3.2
  1
出図コード
 41
0.8356860000000001
100
AcDbText
  0
LINE
  5
E5
330
36
100
AcDbEntity
  8
0
 62
     3
100
AcDbLine
 10
59.08348000000001
 20
-102.798248
 30
0.0
 11
170.386923
 21
-102.798248
 31
0.0
  0
LINE
  5
E7
330
36
100
AcDbEntity
  8
0
 62
     3
100
AcDbLine
 10
59.08348
 20
-81.798248
 30
0.0
 11
170.386923
 21
-81.798248
 31
0.0
  0
LINE
  5
ED
330
36
100
AcDbEntity
  8
0
 62
     3
100
AcDbLine
 10
59.08348000000001
 20
-88.79824799999999
 30
0.0
 11
118.687559
 21
-88.79824799999999
 31
0.0
  0
LINE
  5
F3
330
36
100
AcDbEntity
  8
0
 62
     3
100
AcDbLine
 10
59.08348000000001
 20
-95.798248
 30
0.0
 11
170.386923
 21
-95.798248
 31
0.0
  0
TEXT
  5
F4
330
36
100
AcDbEntity
  8
0
 62
     3
100
AcDbText
 10
102.419938
 20
-111.9193978418095
 30
0.0
 40
3.2
  1
ZK-A3X
 41
0.8112849999999999
100
AcDbText
  0
TEXT
  5
F5
330
36
100
AcDbEntity
  8
0
 62
     3
100
AcDbText
 10
60.900877
 20
-76.62872199999998
 30
0.0
 40
2.0
  1
CONPONENTS
 41
0.5331600000000001
100
AcDbText
  0
TEXT
  5
F6
330
36
100
AcDbEntity
  8
0
 62
     3
100
AcDbText
 10
60.551151
 20
-95.56089900000001
 30
0.0
 40
3.0
  1
材
 41
0.833333
100
AcDbText
  0
TEXT
  5
F7
330
36
100
AcDbEntity
  8
0
 62
     3
100
AcDbText
 10
68.086793
 20
-95.56089900000001
 30
0.0
 40
3.0
  1
質
 41
0.833333
100
AcDbText
  0
TEXT
  5
F8
330
36
100
AcDbEntity
  8
0
 62
     3
100
AcDbText
 10
60.639221
 20
-84.936374
 30
0.0
 40
2.0
  1
MODEL
 41
1.031072999999999
100
AcDbText
  0
TEXT
  5
F9
330
36
100
AcDbEntity
  8
0
 62
     3
100
AcDbText
 10
60.551151
 20
-91.87859000000001
 30
0.0
 40
2.0
  1
MATERIAL
 41
0.659278
100
AcDbText
  0
TEXT
  5
FA
330
36
100
AcDbEntity
  8
0
 62
     3
100
AcDbText
 10
91.85843099999999
 20
-95.56089900000001
 30
0.0
 40
3.0
  1
備
 41
0.833333
100
AcDbText
  0
TEXT
  5
FB
330
36
100
AcDbEntity
  8
0
 62
     3
100
AcDbText
 10
98.59143299999999
 20
-95.56089900000001
 30
0.0
 40
3.0
  1
考
 41
0.833333
100
AcDbText
  0
TEXT
  5
FC
330
36
100
AcDbEntity
  8
0
 62
     3
100
AcDbText
 10
92.26280209449006
 20
-91.87859000000001
 30
0.0
 40
2.0
  1
REMARKS
 41
0.675794
100
AcDbText
  0
TEXT
  5
FD
330
36
100
AcDbEntity
  8
0
 62
     3
100
AcDbText
 10
62.14088
 20
-98.798711
 30
0.0
 40
2.0
  1
3AD
 41
1.42614
100
AcDbText
  0
TEXT
  5
FE
330
36
100
AcDbEntity
  8
0
 62
     3
100
AcDbText
 10
71.451859
 20
-98.632977
 30
0.0
 40
2.0
  1
ANGLE
 41
1.669883999999995
100
AcDbText
  0
TEXT
  5
FF
330
36
100
AcDbEntity
  8
0
 62
     3
100
AcDbText
 10
92.38574599999999
 20
-99.00981800000003
 30
0.0
 40
2.0
  1
SCALE
 41
0.7719630000000001
100
AcDbText
  0
TEXT
  5
100
330
36
100
AcDbEntity
  8
0
 62
     3
100
AcDbText
 10
61.827009
 20
-102.798248
 30
0.0
 40
3.0
  1
第
 41
0.833333
100
AcDbText
  0
TEXT
  5
101
330
36
100
AcDbEntity
  8
0
 62
     3
100
AcDbText
 10
69.61385899999999
 20
-102.798248
 30
0.0
 40
3.0
  1
三
 41
0.833333
100
AcDbText
  0
TEXT
  5
102
330
36
100
AcDbEntity
  8
0
 62
     3
100
AcDbText
 10
77.40070899999998
 20
-102.798248
 30
0.0
 40
3.0
  1
角
 41
0.833333
100
AcDbText
  0
TEXT
  5
103
330
36
100
AcDbEntity
  8
0
 62
     3
100
AcDbText
 10
85.187559
 20
-102.798248
 30
0.0
 40
3.0
  1
法
 41
0.833333
100
AcDbText
  0
TEXT
  5
104
330
36
100
AcDbEntity
  8
0
 62
     3
100
AcDbText
 10
92.24895100000001
 20
-102.509818
 30
0.0
 40
3.0
  1
尺
 41
0.833333
100
AcDbText
  0
TEXT
  5
105
330
36
100
AcDbEntity
  8
0
 62
     3
100
AcDbText
 10
98.98195300000001
 20
-102.509818
 30
0.0
 40
3.0
  1
度
 41
0.833333
100
AcDbText
  0
TEXT
  5
106
330
36
100
AcDbEntity
  8
0
 62
     3
100
AcDbText
 10
121.565224
 20
-80.34051899999999
 30
0.0
 40
3.0
  1
承認
 41
1.089472999999999
100
AcDbText
  0
TEXT
  5
107
330
36
100
AcDbEntity
  8
0
 62
     3
100
AcDbText
 10
134.808104
 20
-80.39824799999998
 30
0.0
 40
3.0
  1
検図
 41
0.931761
100
AcDbText
  0
TEXT
  5
108
330
36
100
AcDbEntity
  8
0
 62
     3
100
AcDbText
 10
147.808501
 20
-80.39824799999998
 30
0.0
 40
3.0
  1
設
 41
0.833333
100
AcDbText
  0
TEXT
  5
109
330
36
100
AcDbEntity
  8
0
 62
     3
100
AcDbText
 10
152.298369
 20
-80.39824799999998
 30
0.0
 40
3.0
  1
計
 41
0.833333
100
AcDbText
  0
TEXT
  5
10A
330
36
100
AcDbEntity
  8
0
 62
     3
100
AcDbText
 10
60.970984
 20
-80.22569500000001
 30
0.0
 40
3.0
  1
品
 41
0.833333
100
AcDbText
  0
TEXT
  5
10B
330
36
100
AcDbEntity
  8
0
 62
     3
100
AcDbText
 10
68.50662599999999
 20
-80.22569500000001
 30
0.0
 40
3.0
  1
名
 41
0.833333
100
AcDbText
  0
TEXT
  5
10C
330
36
100
AcDbEntity
  8
0
 62
     3
100
AcDbText
 10
60.639221
 20
-88.39232258680025
 30
0.0
 40
3.0
  1
型
 41
0.833333
100
AcDbText
  0
TEXT
  5
10D
330
36
100
AcDbEntity
  8
0
 62
     3
100
AcDbText
 10
68.18731200000001
 20
-88.39232258680025
 30
0.0
 40
3.0
  1
式
 41
0.833333
100
AcDbText
  0
TEXT
  5
10E
330
36
100
AcDbEntity
  8
0
 62
     3
100
AcDbText
 10
121.949087535452
 20
-111.785576
 30
0.0
 40
6.299999999999998
  1
RTB-200D-100V
 41
0.6
  7
高6.3
100
AcDbText
  0
LINE
  5
10F
330
36
100
AcDbEntity
  8
0
 62
     3
100
AcDbLine
 10
-232.015001
 20
26.03603
 30
0.0
 11
-234.613077
 21
24.53603
 31
0.0
  0
LINE
  5
110
330
36
100
AcDbEntity
  8
0
 62
     3
100
AcDbLine
 10
-232.015001
 20
26.03603
 30
0.0
 11
-234.613077
 21
27.53603
 31
0.0
  0
LINE
  5
111
330
36
100
AcDbEntity
  8
0
 62
     3
100
AcDbLine
 10
-234.613077
 20
24.53603
 30
0.0
 11
-234.613077
 21
27.53603
 31
0.0
  0
LINE
  5
112
330
36
100
AcDbEntity
  8
0
 62
     3
100
AcDbLine
 10
-219.613077
 20
164.53603
 30
0.0
 11
-219.613077
 21
-112.46397
 31
0.0
  0
LINE
  5
113
330
36
100
AcDbEntity
  8
0
 62
     3
100
AcDbLine
 10
170.386923
 20
-112.46397
 30
0.0
 11
170.386923
 21
164.53603
 31
0.0
  0
LINE
  5
114
330
36
100
AcDbEntity
  8
0
 62
     3
100
AcDbLine
 10
-219.613077
 20
-112.46397
 30
0.0
 11
170.386923
 21
-112.46397
 31
0.0
  0
LINE
  5
115
330
36
100
AcDbEntity
  8
0
 62
     3
100
AcDbLine
 10
-33.31694086479843
 20
-112.46397
 30
0.0
 11
-33.31694086479843
 21
-52.46396999999998
 31
0.0
  0
LINE
  5
116
330
36
100
AcDbEntity
  8
0
 62
     7
100
AcDbLine
 10
-9.653672999999999
 20
-23.05064151836655
 30
0.0
 11
17.567291
 21
-23.05064151836655
 31
0.0
  0
CIRCLE
  5
117
330
36
100
AcDbEntity
  8
0
 62
     3
100
AcDbCircle
 10
32.51618
 20
-45.90619
 30
0.0
 40
0.9599999999999999
  0
CIRCLE
  5
118
330
36
100
AcDbEntity
  8
0
 62
     3
100
AcDbCircle
 10
32.51618
 20
-58.70619
 30
0.0
 40
0.9599999999999999
  0
TEXT
  5
119
330
36
100
AcDbEntity
  8
0
 62
     4
100
AcDbText
 10
9.413937999999999
 20
-45.13724299999998
 30
0.0
 40
3.2
  1
黒線
  7
高3.2
100
AcDbText
  0
TEXT
  5
11A
330
36
100
AcDbEntity
  8
0
 62
     4
100
AcDbText
 10
9.185660999999999
 20
-57.587279
 30
0.0
 40
3.2
  1
緑線
  7
高3.2
100
AcDbText
  0
TEXT
  5
11B
330
36
100
AcDbEntity
  8
0
 62
     4
100
AcDbText
 10
-9.653672999999999
 20
-22.339606
 30
0.0
 40
3.2
  1
入力プラグ結線
  7
高3.2
100
AcDbText
  0
LINE
  5
11C
330
36
100
AcDbEntity
  8
0
 62
     3
100
AcDbLine
 10
68.10640358652154
 20
-22.072526
 30
0.0
 11
68.10640358652154
 21
-56.722526
 31
0.0
  0
CIRCLE
  5
11D
330
36
100
AcDbEntity
  8
0
 62
     3
100
AcDbCircle
 10
32.51618
 20
-33.10619000000001
 30
0.0
 40
0.9599999999999999
  0
TEXT
  5
11E
330
36
100
AcDbEntity
  8
0
 62
     4
100
AcDbText
 10
10.102906
 20
-32.368196
 30
0.0
 40
3.2
  1
白線
  7
高3.2
100
AcDbText
  0
TEXT
  5
11F
330
36
100
AcDbEntity
  8
0
 62
     3
100
AcDbText
 10
94.50176825579962
 20
-34.738129
 30
0.0
 40
3.2
  1
AC200V 50/60Hz
  7
高3.2
100
AcDbText
  0
TEXT
  5
120
330
36
100
AcDbEntity
  8
0
 62
     3
100
AcDbText
 10
108.3422962557996
 20
-41.527811
 30
0.0
 40
3.2
  1
AC100V
  7
高3.2
100
AcDbText
  0
TEXT
  5
121
330
36
100
AcDbEntity
  8
0
 62
     3
100
AcDbText
 10
82.96648000000002
 20
-79.990747
 30
0.0
 40
4.5
  1
降圧トランス
  7
高4.5
100
AcDbText
  0
TEXT
  5
122
330
36
100
AcDbEntity
  8
0
 62
     3
100
AcDbText
 10
89.131312
 20
-20.261417
 30
0.0
 40
4.5
  1
主　　仕　　様
  7
高4.5
100
AcDbText
  0
LINE
  5
123
330
36
100
AcDbEntity
  8
0
100
AcDbLine
 10
68.10640358652154
 20
-29.002526
 30
0.0
 11
141.5241946902117
 21
-29.002526
 31
0.0
  0
LINE
  5
124
330
36
100
AcDbEntity
  8
0
100
AcDbLine
 10
68.10640358652154
 20
-35.932526
 30
0.0
 11
141.5241946902117
 21
-35.932526
 31
0.0
  0
LINE
  5
125
330
36
100
AcDbEntity
  8
0
100
AcDbLine
 10
68.10640358652154
 20
-42.862526
 30
0.0
 11
141.5241946902117
 21
-42.862526
 31
0.0
  0
LINE
  5
126
330
36
100
AcDbEntity
  8
0
100
AcDbLine
 10
68.10640358652154
 20
-49.792526
 30
0.0
 11
141.5241946902117
 21
-49.792526
 31
0.0
  0
TEXT
  5
127
330
36
100
AcDbEntity
  8
0
 62
     3
100
AcDbText
 10
70.08640358652153
 20
-28.012526
 30
0.0
 40
3.2
  1
型　　式
  7
高3.2
100
AcDbText
  0
TEXT
  5
128
330
36
100
AcDbEntity
  8
0
 62
     3
100
AcDbText
 10
70.08640358652153
 20
-34.942526
 30
0.0
 40
3.2
  1
入力電圧
  7
高3.2
100
AcDbText
  0
TEXT
  5
129
330
36
100
AcDbEntity
  8
0
 62
     3
100
AcDbText
 10
70.08640358652153
 20
-41.87252599999999
 30
0.0
 40
3.2
  1
出力電圧
  7
高3.2
100
AcDbText
  0
TEXT
  5
12A
330
36
100
AcDbEntity
  8
0
 62
     3
100
AcDbText
 10
70.08640358652153
 20
-48.802526
 30
0.0
 40
3.2
  1
容　　量
  7
高3.2
100
AcDbText
  0
TEXT
  5
12B
330
36
100
AcDbEntity
  8
0
 62
     3
100
AcDbText
 10
70.08640358652153
 20
-55.732526
 30
0.0
 40
3.2
  1
質　　量
  7
高3.2
100
AcDbText
  0
TEXT
  5
12C
330
36
100
AcDbEntity
  8
0
 62
     3
100
AcDbText
 10
95.05028725579959
 20
-27.878289
 30
0.0
 40
3.2
  1
RTB-200D-100V
  7
高3.2
100
AcDbText
  0
TEXT
  5
12D
330
36
100
AcDbEntity
  8
0
 62
     3
100
AcDbText
 10
110.1557332557996
 20
-48.247135
 30
0.0
 40
3.2
  1
2KVA
  7
高3.2
100
AcDbText
  0
TEXT
  5
12E
330
36
100
AcDbEntity
  8
0
 62
     3
100
AcDbText
 10
108.1144122557996
 20
-55.177036
 30
0.0
 40
3.2
  1
約8.0kg
  7
高3.2
100
AcDbText
  0
CIRCLE
  5
12F
330
36
100
AcDbEntity
  8
0
 62
     3
100
AcDbCircle
 10
-9.983104
 20
-58.69828299999999
 30
0.0
 40
0.9599999999999999
  0
LINE
  5
130
330
36
100
AcDbEntity
  8
0
100
AcDbLine
 10
31.55618
 20
-58.70619
 30
0.0
 11
-9.023136
 21
-58.70619
 31
0.0
  0
LINE
  5
131
330
36
100
AcDbEntity
  8
0
100
AcDbLine
 10
31.55618
 20
-33.10619000000001
 30
0.0
 11
-10.029906
 21
-33.10619000000001
 31
0.0
  0
LINE
  5
132
330
36
100
AcDbEntity
  8
0
100
AcDbLine
 10
-9.956951999999999
 20
-59.657678
 30
0.0
 11
-9.956951999999999
 21
-61.123959
 31
0.0
  0
LINE
  5
133
330
36
100
AcDbEntity
  8
0
100
AcDbLine
 10
-13.156632
 20
-61.123959
 30
0.0
 11
-6.756632
 21
-61.123959
 31
0.0
  0
LINE
  5
134
330
36
100
AcDbEntity
  8
0
100
AcDbLine
 10
-12.516632
 20
-61.763959
 30
0.0
 11
-7.396632
 21
-61.763959
 31
0.0
  0
LINE
  5
135
330
36
100
AcDbEntity
  8
0
100
AcDbLine
 10
-11.876632
 20
-62.40395899999999
 30
0.0
 11
-8.036632
 21
-62.40395899999999
 31
0.0
  0
LINE
  5
136
330
36
100
AcDbEntity
  8
0
100
AcDbLine
 10
-11.236632
 20
-63.04395899999999
 30
0.0
 11
-8.676632000000001
 21
-63.04395899999999
 31
0.0
  0
LINE
  5
137
330
36
100
AcDbEntity
  8
0
100
AcDbLine
 10
-10.029906
 20
-57.739425
 30
0.0
 11
-10.029906
 21
-53.20219
 31
0.0
  0
LINE
  5
138
330
36
100
AcDbEntity
  8
0
100
AcDbLine
 10
-8.747804999999999
 20
-51.79648499999998
 30
0.0
 11
-5.547805
 21
-51.79648499999998
 31
0.0
  0
LINE
  5
139
330
36
100
AcDbEntity
  8
0
100
AcDbLine
 10
-8.427805000000001
 20
-52.11648499999999
 30
0.0
 11
-5.867805
 21
-52.11648499999999
 31
0.0
  0
LINE
  5
13A
330
36
100
AcDbEntity
  8
0
100
AcDbLine
 10
-8.107805
 20
-52.43648499999999
 30
0.0
 11
-6.187804999999999
 21
-52.43648499999999
 31
0.0
  0
LINE
  5
13B
330
36
100
AcDbEntity
  8
0
100
AcDbLine
 10
-7.787805
 20
-52.75648499999999
 30
0.0
 11
-6.507805
 21
-52.75648499999999
 31
0.0
  0
LINE
  5
13C
330
36
100
AcDbEntity
  8
0
100
AcDbLine
 10
-7.147804999999999
 20
-50.859833
 30
0.0
 11
-7.147804999999999
 21
-51.79648499999998
 31
0.0
  0
LINE
  5
13D
330
36
100
AcDbEntity
  8
0
 62
     3
100
AcDbLine
 10
68.10640358652154
 20
-22.072526
 30
0.0
 11
141.5241946902117
 21
-22.072526
 31
0.0
  0
LINE
  5
13E
330
36
100
AcDbEntity
  8
0
 62
     3
100
AcDbLine
 10
68.10640358652154
 20
-56.722526
 30
0.0
 11
141.5241946902117
 21
-56.722526
 31
0.0
  0
TEXT
  5
13F
330
36
100
AcDbEntity
  8
0
 62
     3
100
AcDbText
 10
-112.0328106982949
 20
-111.96397
 30
0.0
 40
3.2
  1
個数
 41
0.8
  7
高3.2
100
AcDbText
  0
TEXT
  5
140
330
36
100
AcDbEntity
  8
0
 62
     3
100
AcDbText
 10
-151.8853495798222
 20
-111.96397
 30
0.0
 40
3.2
  1
備　　　考
 41
0.8
  7
高3.2
100
AcDbText
  0
TEXT
  5
141
330
36
100
AcDbEntity
  8
0
 62
     3
100
AcDbText
 10
-175.2601353514327
 20
-111.96397
 30
0.0
 40
3.2
  1
材　　　質
 41
0.8
  7
高3.2
100
AcDbText
  0
TEXT
  5
142
330
36
100
AcDbEntity
  8
0
 62
     3
100
AcDbText
 10
-211.1574838144796
 20
-111.96397
 30
0.0
 40
3.2
  1
部　　品　　名
 41
0.8
  7
高3.2
100
AcDbText
  0
TEXT
  5
143
330
36
100
AcDbEntity
  8
0
 62
     3
100
AcDbText
 10
-218.113077
 20
-111.96397
 30
0.0
 40
3.2
  1
No
 41
0.8
  7
高3.2
100
AcDbText
  0
TEXT
  5
144
330
36
100
AcDbEntity
  8
0
 62
     3
100
AcDbText
 10
-112.0328106982949
 20
-106.9639699999999
 30
0.0
 40
3.2
  1
1
 41
0.8
  7
高3.2
100
AcDbText
  0
TEXT
  5
145
330
36
100
AcDbEntity
  8
0
 62
     3
100
AcDbText
 10
-112.0328106982949
 20
-86.96397000000002
 30
0.0
 40
3.2
  1
1
 41
0.8
  7
高3.2
100
AcDbText
  0
TEXT
  5
147
330
36
100
AcDbEntity
  8
0
 62
     3
100
AcDbText
 10
-112.0328106982949
 20
-61.96396999999999
 30
0.0
 40
3.2
  1
1
 41
0.8
  7
高3.2
100
AcDbText
  0
TEXT
  5
148
330
36
100
AcDbEntity
  8
0
 62
     3
100
AcDbText
 10
-112.0328106982949
 20
-76.96396999999997
 30
0.0
 40
3.2
  1
1
 41
0.8
  7
高3.2
100
AcDbText
  0
TEXT
  5
149
330
36
100
AcDbEntity
  8
0
 62
     3
100
AcDbText
 10
-112.0328106982949
 20
-66.96396999999997
 30
0.0
 40
3.2
  1
1
 41
0.8
  7
高3.2
100
AcDbText
  0
TEXT
  5
14A
330
36
100
AcDbEntity
  8
0
 62
     3
100
AcDbText
 10
-112.0328106982949
 20
-81.96396999999997
 30
0.0
 40
3.2
  1
4
 41
0.8
  7
高3.2
100
AcDbText
  0
TEXT
  5
14B
330
36
100
AcDbEntity
  8
0
 62
     3
100
AcDbText
 10
-112.0328106982949
 20
-71.96396999999997
 30
0.0
 40
3.2
  1
2
 41
0.8
  7
高3.2
100
AcDbText
  0
TEXT
  5
14C
330
36
100
AcDbEntity
  8
0
 62
     3
100
AcDbText
 10
-151.8853495798222
 20
-96.96397000000001
 30
0.0
 40
3.2
  1
塗装
 41
0.8
  7
高3.2
100
AcDbText
  0
TEXT
  5
14D
330
36
100
AcDbEntity
  8
0
 62
     3
100
AcDbText
 10
-112.0328106982949
 20
-96.96397000000001
 30
0.0
 40
3.2
  1
1
 41
0.8
  7
高3.2
100
AcDbText
  0
TEXT
  5
14E
330
36
100
AcDbEntity
  8
0
 62
     3
100
AcDbText
 10
-151.8853495798222
 20
-76.96396999999997
 30
0.0
 40
3.2
  1
220V/110V 10A
 41
0.8
  7
高3.2
100
AcDbText
  0
LINE
  5
14F
330
36
100
AcDbEntity
  8
0
100
AcDbLine
 10
-113.5328106982949
 20
-112.46397
 30
0.0
 11
-113.5328106982949
 21
-52.46396999999998
 31
0.0
  0
TEXT
  5
150
330
36
100
AcDbEntity
  8
0
 62
     3
100
AcDbText
 10
-175.2601353514327
 20
-96.96397000000001
 30
0.0
 40
3.2
  1
SPCC
 41
0.8
  7
高3.2
100
AcDbText
  0
TEXT
  5
151
330
36
100
AcDbEntity
  8
0
 62
     3
100
AcDbText
 10
-211.1574838144796
 20
-106.96397
 30
0.0
 40
3.2
  1
把手
 41
0.8
  7
高3.2
100
AcDbText
  0
TEXT
  5
152
330
36
100
AcDbEntity
  8
0
 62
     3
100
AcDbText
 10
-211.1574838144796
 20
-96.96397000000001
 30
0.0
 40
3.2
  1
上カバー
 41
0.8
  7
高3.2
100
AcDbText
  0
TEXT
  5
153
330
36
100
AcDbEntity
  8
0
 62
     3
100
AcDbText
 10
-151.8853495798222
 20
-106.96397
 30
0.0
 40
3.2
  1
M6取付ピッチ100
 41
0.8
  7
高3.2
100
AcDbText
  0
TEXT
  5
154
330
36
100
AcDbEntity
  8
0
 62
     3
100
AcDbText
 10
-175.2601353514327
 20
-86.96397000000002
 30
0.0
 40
3.2
  1
VCT
 41
0.8
  7
高3.2
100
AcDbText
  0
TEXT
  5
155
330
36
100
AcDbEntity
  8
0
 62
     3
100
AcDbText
 10
-151.8853495798222
 20
-86.96397000000002
 30
0.0
 40
3.2
  1
2sqx3芯x2m
 41
0.8
  7
高3.2
100
AcDbText
  0
TEXT
  5
156
330
36
100
AcDbEntity
  8
0
 62
     3
100
AcDbText
 10
-211.1574838144796
 20
-81.96396999999997
 30
0.0
 40
3.2
  1
脚ゴム
 41
0.8
  7
高3.2
100
AcDbText
  0
TEXT
  5
157
330
36
100
AcDbEntity
  8
0
 62
     3
100
AcDbText
 10
-211.1574838144796
 20
-76.96396999999997
 30
0.0
 40
3.2
  1
安全ブレーカー
 41
0.8
  7
高3.2
100
AcDbText
  0
TEXT
  5
158
330
36
100
AcDbEntity
  8
0
 62
     3
100
AcDbText
 10
-211.1574838144796
 20
-71.96396999999997
 30
0.0
 40
3.2
  1
E付Wコンセント（白）
 41
0.8
  7
高3.2
100
AcDbText
  0
TEXT
  5
15A
330
36
100
AcDbEntity
  8
0
 62
     3
100
AcDbText
 10
-211.1574838144796
 20
-66.96396999999997
 30
0.0
 40
3.2
  1
電源ランプ
 41
0.8
  7
高3.2
100
AcDbText
  0
TEXT
  5
15B
330
36
100
AcDbEntity
  8
0
 62
     3
100
AcDbText
 10
-211.1574838144796
 20
-61.96396999999999
 30
0.0
 40
3.2
  1
電圧計
 41
0.8
  7
高3.2
100
AcDbText
  0
TEXT
  5
15C
330
36
100
AcDbEntity
  8
0
 62
     3
100
AcDbText
 10
-151.8853495798222
 20
-61.96396999999999
 30
0.0
 40
3.2
  1
AC150V計
 41
0.8
  7
高3.2
100
AcDbText
  0
TEXT
  5
15D
330
36
100
AcDbEntity
  8
0
 62
     3
100
AcDbText
 10
-218.113077
 20
-101.9639699999999
 30
0.0
 40
3.2
  1
2
 41
0.8
  7
高3.2
100
AcDbText
  0
TEXT
  5
15E
330
36
100
AcDbEntity
  8
0
 62
     3
100
AcDbText
 10
-218.113077
 20
-96.96397000000001
 30
0.0
 40
3.2
  1
3
 41
0.8
  7
高3.2
100
AcDbText
  0
TEXT
  5
15F
330
36
100
AcDbEntity
  8
0
 62
     3
100
AcDbText
 10
-218.113077
 20
-91.96397000000001
 30
0.0
 40
3.2
  1
4
 41
0.8
  7
高3.2
100
AcDbText
  0
TEXT
  5
160
330
36
100
AcDbEntity
  8
0
 62
     3
100
AcDbText
 10
-218.113077
 20
-86.96396999999995
 30
0.0
 40
3.2
  1
5
 41
0.8
  7
高3.2
100
AcDbText
  0
TEXT
  5
161
330
36
100
AcDbEntity
  8
0
 62
     3
100
AcDbText
 10
-218.113077
 20
-81.96396999999995
 30
0.0
 40
3.2
  1
6
 41
0.8
  7
高3.2
100
AcDbText
  0
TEXT
  5
162
330
36
100
AcDbEntity
  8
0
 62
     3
100
AcDbText
 10
-218.113077
 20
-76.96396999999993
 30
0.0
 40
3.2
  1
7
 41
0.8
  7
高3.2
100
AcDbText
  0
TEXT
  5
163
330
36
100
AcDbEntity
  8
0
 62
     3
100
AcDbText
 10
-218.113077
 20
-71.96396999999993
 30
0.0
 40
3.2
  1
8
 41
0.8
  7
高3.2
100
AcDbText
  0
TEXT
  5
164
330
36
100
AcDbEntity
  8
0
 62
     3
100
AcDbText
 10
-218.113077
 20
-66.96396999999997
 30
0.0
 40
3.2
  1
9
 41
0.8
  7
高3.2
100
AcDbText
  0
TEXT
  5
165
330
36
100
AcDbEntity
  8
0
 62
     3
100
AcDbText
 10
-175.2601353514327
 20
-66.96396999999997
 30
0.0
 40
3.2
  1
PC樹脂
 41
0.8
  7
高3.2
100
AcDbText
  0
TEXT
  5
166
330
36
100
AcDbEntity
  8
0
 62
     3
100
AcDbText
 10
-175.2601353514327
 20
-76.96396999999997
 30
0.0
 40
3.2
  1
PF樹脂
 41
0.8
  7
高3.2
100
AcDbText
  0
TEXT
  5
167
330
36
100
AcDbEntity
  8
0
 62
     3
100
AcDbText
 10
-175.2601353514327
 20
-81.96396999999997
 30
0.0
 40
3.2
  1
合成ゴム
 41
0.8
  7
高3.2
100
AcDbText
  0
TEXT
  5
168
330
36
100
AcDbEntity
  8
0
 62
     3
100
AcDbText
 10
-175.2601353514327
 20
-71.96396999999997
 30
0.0
 40
3.2
  1
耐熱ABS樹脂
 41
0.8
  7
高3.2
100
AcDbText
  0
TEXT
  5
169
330
36
100
AcDbEntity
  8
0
 62
     3
100
AcDbText
 10
-151.8853495798222
 20
-71.96396999999997
 30
0.0
 40
3.2
  1
2PE 15A 125V
 41
0.8
  7
高3.2
100
AcDbText
  0
TEXT
  5
16B
330
36
100
AcDbEntity
  8
0
 62
     3
100
AcDbText
 10
-211.1574838144796
 20
-86.96397000000002
 30
0.0
 40
3.2
  1
電線4Pプラグ付き
 41
0.8
  7
高3.2
100
AcDbText
  0
LINE
  5
16C
330
36
100
AcDbEntity
  8
0
100
AcDbLine
 10
-153.3853495798222
 20
-112.46397
 30
0.0
 11
-153.3853495798222
 21
-52.46396999999998
 31
0.0
  0
LINE
  5
16D
330
36
100
AcDbEntity
  8
0
100
AcDbLine
 10
-176.7601353514327
 20
-112.46397
 30
0.0
 11
-176.7601353514327
 21
-52.46396999999998
 31
0.0
  0
LINE
  5
16E
330
36
100
AcDbEntity
  8
0
100
AcDbLine
 10
-212.6574838144796
 20
-112.46397
 30
0.0
 11
-212.6574838144795
 21
-52.46396999999998
 31
0.0
  0
TEXT
  5
16F
330
36
100
AcDbEntity
  8
0
 62
     3
100
AcDbText
 10
-175.2601353514327
 20
-106.96397
 30
0.0
 40
3.2
  1
PA樹脂
 41
0.8
  7
高3.2
100
AcDbText
  0
LINE
  5
170
330
36
100
AcDbEntity
  8
0
 62
     3
100
AcDbLine
 10
170.286887
 20
-66.798248
 30
0.0
 11
118.687523
 21
-66.798248
 31
0.0
  0
TEXT
  5
171
330
36
100
AcDbEntity
  8
0
 62
     3
100
AcDbText
 10
123.8786900225925
 20
-72.24216199999998
 30
0.0
 40
4.5
  1
コード
  7
高4.5
100
AcDbText
  0
LINE
  5
172
330
36
100
AcDbEntity
  8
0
 62
     3
100
AcDbLine
 10
144.687523
 20
-72.798248
 30
0.0
 11
144.687523
 21
-66.798248
 31
0.0
  0
LINE
  5
173
330
36
100
AcDbEntity
  8
0
 62
     3
100
AcDbLine
 10
118.687523
 20
-72.798248
 30
0.0
 11
118.687523
 21
-66.798248
 31
0.0
  0
TEXT
  5
17E
330
36
100
AcDbEntity
  8
0
 62
     3
100
AcDbText
 10
149.4197375457586
 20
-72.299891
 30
0.0
 40
4.5
  1
5607
  7
高4.5
100
AcDbText
  0
LINE
  5
17F
330
36
100
AcDbEntity
  8
0
 62
     3
100
AcDbLine
 10
59.40009599999999
 20
114.054792
 30
0.0
 11
59.40009599999999
 21
111.330842
 31
0.0
  0
LINE
  5
180
330
36
100
AcDbEntity
  8
0
 62
     3
100
AcDbLine
 10
-35.91513
 20
114.054792
 30
0.0
 11
-35.91513
 21
111.330842
 31
0.0
  0
LINE
  5
181
330
36
100
AcDbEntity
  8
0
 62
     3
100
AcDbLine
 10
46.52268699999999
 20
115.614792
 30
0.0
 11
46.52268699999999
 21
111.330842
 31
0.0
  0
LINE
  5
182
330
36
100
AcDbEntity
  8
0
 62
     3
100
AcDbLine
 10
-23.037721
 20
115.614792
 30
0.0
 11
-23.037721
 21
111.330842
 31
0.0
  0
ARC
  5
183
330
36
100
AcDbEntity
  8
0
 62
     3
100
AcDbCircle
 10
57.840096
 20
114.054792
 30
0.0
 40
1.56
100
AcDbArc
 50
0.0
 51
90.0
  0
ARC
  5
184
330
36
100
AcDbEntity
  8
0
 62
     3
100
AcDbCircle
 10
-34.35513
 20
114.054792
 30
0.0
 40
1.56
100
AcDbArc
 50
90.0
 51
180.0
  0
LINE
  5
185
330
36
100
AcDbEntity
  8
0
 62
     3
100
AcDbLine
 10
-34.35513
 20
115.614792
 30
0.0
 11
-23.037721
 21
115.614792
 31
0.0
  0
LINE
  5
186
330
36
100
AcDbEntity
  8
0
 62
     3
100
AcDbLine
 10
46.52268699999999
 20
115.614792
 30
0.0
 11
57.840096
 21
115.614792
 31
0.0
  0
ARC
  5
187
330
36
100
AcDbEntity
  8
0
 62
     3
100
AcDbCircle
 10
11.742483
 20
-48.775427
 30
0.0
 40
167.10437
100
AcDbArc
 50
77.98694199999999
 51
102.013058
  0
ARC
  5
188
330
36
100
AcDbEntity
  8
0
 62
     3
100
AcDbCircle
 10
11.742483
 20
-48.775427
 30
0.0
 40
164.76437
100
AcDbArc
 50
77.98694199999999
 51
102.013058
  0
LINE
  5
189
330
36
100
AcDbEntity
  8
0
 62
     3
100
AcDbLine
 10
-166.029138
 20
11.376383
 30
0.0
 11
-121.029138
 21
11.376383
 31
0.0
  0
LINE
  5
18A
330
36
100
AcDbEntity
  8
0
 62
     3
100
AcDbLine
 10
-57.78663
 20
11.376383
 30
0.0
 11
67.71336999999999
 21
11.376383
 31
0.0
  0
LINE
  5
18D
330
36
100
AcDbEntity
  8
0
 62
     3
100
AcDbLine
 10
-163.529138
 20
111.376383
 30
0.0
 11
-123.529138
 21
111.376383
 31
0.0
  0
ARC
  5
18E
330
36
100
AcDbEntity
  8
0
 62
     3
100
AcDbCircle
 10
-121.029138
 20
21.376383
 30
0.0
 40
10.0
100
AcDbArc
 50
270.0
 51
0.0
  0
ARC
  5
18F
330
36
100
AcDbEntity
  8
0
 62
     3
100
AcDbCircle
 10
-166.029138
 20
21.376383
 30
0.0
 40
10.0
100
AcDbArc
 50
180.0
 51
270.0
  0
ARC
  5
190
330
36
100
AcDbEntity
  8
0
 62
     3
100
AcDbCircle
 10
-123.529138
 20
101.376383
 30
0.0
 40
10.0
100
AcDbArc
 50
0.0
 51
90.0
  0
ARC
  5
191
330
36
100
AcDbEntity
  8
0
 62
     3
100
AcDbCircle
 10
-163.529138
 20
101.376383
 30
0.0
 40
10.0
100
AcDbArc
 50
90.0
 51
180.0
  0
LINE
  5
192
330
36
100
AcDbEntity
  8
0
 62
     3
100
AcDbLine
 10
-111.029138
 20
21.376383
 30
0.0
 11
-113.529138
 21
101.376383
 31
0.0
  0
LINE
  5
193
330
36
100
AcDbEntity
  8
0
 62
     3
100
AcDbLine
 10
-176.024239
 20
21.689342
 30
0.0
 11
-173.529138
 21
101.376383
 31
0.0
  0
LINE
  5
194
330
36
100
AcDbEntity
  8
0
 62
     3
100
AcDbLine
 10
-165.779138
 20
6.376383
 30
0.0
 11
-156.279138
 21
6.376383
 31
0.0
  0
LINE
  5
195
330
36
100
AcDbEntity
  8
0
 62
     3
100
AcDbLine
 10
-166.029138
 20
11.376383
 30
0.0
 11
-165.779138
 21
6.376383
 31
0.0
  0
LINE
  5
196
330
36
100
AcDbEntity
  8
0
 62
     3
100
AcDbLine
 10
-156.279138
 20
6.376383
 30
0.0
 11
-156.029138
 21
11.376383
 31
0.0
  0
LINE
  5
197
330
36
100
AcDbEntity
  8
0
 62
     3
100
AcDbLine
 10
-121.279138
 20
6.376383
 30
0.0
 11
-121.029138
 21
11.376383
 31
0.0
  0
LINE
  5
198
330
36
100
AcDbEntity
  8
0
 62
     3
100
AcDbLine
 10
-130.779138
 20
6.376383
 30
0.0
 11
-121.279138
 21
6.376383
 31
0.0
  0
LINE
  5
199
330
36
100
AcDbEntity
  8
0
 62
     3
100
AcDbLine
 10
-131.029138
 20
11.376383
 30
0.0
 11
-130.779138
 21
6.376383
 31
0.0
  0
LINE
  5
19A
330
36
100
AcDbEntity
  8
0
 62
     3
100
AcDbLine
 10
-60.28663
 20
11.376383
 30
0.0
 11
79.71337
 21
11.376383
 31
0.0
  0
LINE
  5
19B
330
36
100
AcDbEntity
  8
0
 62
     3
100
AcDbLine
 10
-60.28663
 20
111.376383
 30
0.0
 11
79.71337
 21
111.376383
 31
0.0
  0
LINE
  5
19C
330
36
100
AcDbEntity
  8
0
 62
     3
100
AcDbLine
 10
-60.28663
 20
111.376383
 30
0.0
 11
-60.28663
 21
11.376383
 31
0.0
  0
LINE
  5
19D
330
36
100
AcDbEntity
  8
0
 62
     3
100
AcDbLine
 10
79.71337
 20
111.376383
 30
0.0
 11
79.71337
 21
11.376383
 31
0.0
  0
LINE
  5
19E
330
36
100
AcDbEntity
  8
0
 62
     3
100
AcDbLine
 10
-57.78663
 20
31.376383
 30
0.0
 11
67.71336999999999
 21
31.376383
 31
0.0
  0
LINE
  5
19F
330
36
100
AcDbEntity
  8
0
 62
     3
100
AcDbLine
 10
79.71337
 20
31.376383
 30
0.0
 11
-60.28663
 21
31.376383
 31
0.0
  0
LINE
  5
1A0
330
36
100
AcDbEntity
  8
0
 62
     3
100
AcDbLine
 10
-111.341638
 20
31.376383
 30
0.0
 11
-112.342126
 21
31.376383
 31
0.0
  0
LINE
  5
1A1
330
36
100
AcDbEntity
  8
0
 62
     3
100
AcDbLine
 10
-174.720436
 20
31.376383
 30
0.0
 11
-175.720926
 21
31.376383
 31
0.0
  0
LINE
  5
1A2
330
36
100
AcDbEntity
  8
0
 62
     3
100
AcDbLine
 10
-149.029138
 20
116.126383
 30
0.0
 11
-138.029138
 21
116.126383
 31
0.0
  0
LINE
  5
1A3
330
36
100
AcDbEntity
  8
0
 62
     3
100
AcDbLine
 10
-138.029138
 20
111.376383
 30
0.0
 11
-138.029138
 21
116.126383
 31
0.0
  0
LINE
  5
1A4
330
36
100
AcDbEntity
  8
0
 62
     3
100
AcDbLine
 10
-149.029138
 20
111.376383
 30
0.0
 11
-149.029138
 21
116.126383
 31
0.0
  0
LINE
  5
1A5
330
36
100
AcDbEntity
  8
0
 62
     3
100
AcDbLine
 10
-30.039138
 20
6.376383
 30
0.0
 11
-20.539138
 21
6.376383
 31
0.0
  0
LINE
  5
1A6
330
36
100
AcDbEntity
  8
0
 62
     3
100
AcDbLine
 10
-20.539138
 20
6.376383
 30
0.0
 11
-20.289138
 21
11.376383
 31
0.0
  0
LINE
  5
1A7
330
36
100
AcDbEntity
  8
0
 62
     3
100
AcDbLine
 10
-30.289138
 20
11.376383
 30
0.0
 11
-30.039138
 21
6.376383
 31
0.0
  0
LINE
  5
1A8
330
36
100
AcDbEntity
  8
0
 62
     3
100
AcDbLine
 10
64.960862
 20
6.376383
 30
0.0
 11
74.460862
 21
6.376383
 31
0.0
  0
LINE
  5
1A9
330
36
100
AcDbEntity
  8
0
 62
     3
100
AcDbLine
 10
74.460862
 20
6.376383
 30
0.0
 11
74.71086200000002
 21
11.376383
 31
0.0
  0
LINE
  5
1AA
330
36
100
AcDbEntity
  8
0
 62
     3
100
AcDbLine
 10
64.71086200000001
 20
11.376383
 30
0.0
 11
64.960862
 21
6.376383
 31
0.0
  0
TEXT
  5
1BD
330
36
100
AcDbEntity
  8
0
 62
     3
100
AcDbText
 10
115.0162479901907
 20
122.9507555316699
 30
0.0
 40
3.2
  1
20A 250V
  7
高3.2
100
AcDbText
  0
LINE
  5
1C7
330
36
100
AcDbEntity
  8
0
100
AcDbLine
 10
59.71337
 20
94.37638300000001
 30
0.0
 11
59.71337
 21
85.37638299999997
 31
0.0
  0
LINE
  5
1C8
330
36
100
AcDbEntity
  8
0
100
AcDbLine
 10
58.71337
 20
94.37638300000001
 30
0.0
 11
58.71337
 21
85.37638299999997
 31
0.0
  0
ARC
  5
1C9
330
36
100
AcDbEntity
  8
0
100
AcDbCircle
 10
59.21337
 20
85.37638299999997
 30
0.0
 40
0.5
100
AcDbArc
 50
180.0
 51
0.0
  0
ARC
  5
1CA
330
36
100
AcDbEntity
  8
0
100
AcDbCircle
 10
59.21337
 20
94.37638300000001
 30
0.0
 40
0.5
100
AcDbArc
 50
0.0
 51
180.0
  0
LINE
  5
1CB
330
36
100
AcDbEntity
  8
0
100
AcDbLine
 10
59.71337
 20
79.37638299999997
 30
0.0
 11
59.71337
 21
70.37638299999997
 31
0.0
  0
LINE
  5
1CC
330
36
100
AcDbEntity
  8
0
100
AcDbLine
 10
58.71337
 20
79.37638299999997
 30
0.0
 11
58.71337
 21
70.37638299999997
 31
0.0
  0
ARC
  5
1CD
330
36
100
AcDbEntity
  8
0
100
AcDbCircle
 10
59.21337
 20
70.37638299999997
 30
0.0
 40
0.5
100
AcDbArc
 50
180.0
 51
0.0
  0
ARC
  5
1CE
330
36
100
AcDbEntity
  8
0
100
AcDbCircle
 10
59.21337
 20
79.37638299999997
 30
0.0
 40
0.5
100
AcDbArc
 50
0.0
 51
180.0
  0
LINE
  5
1CF
330
36
100
AcDbEntity
  8
0
100
AcDbLine
 10
57.71336999999999
 20
94.37638300000001
 30
0.0
 11
57.71336999999999
 21
85.37638299999997
 31
0.0
  0
LINE
  5
1D0
330
36
100
AcDbEntity
  8
0
100
AcDbLine
 10
56.71337
 20
94.37638300000001
 30
0.0
 11
56.71337
 21
85.37638299999997
 31
0.0
  0
ARC
  5
1D1
330
36
100
AcDbEntity
  8
0
100
AcDbCircle
 10
57.21337
 20
85.37638299999997
 30
0.0
 40
0.5
100
AcDbArc
 50
180.0
 51
0.0
  0
ARC
  5
1D2
330
36
100
AcDbEntity
  8
0
100
AcDbCircle
 10
57.21337
 20
94.37638300000001
 30
0.0
 40
0.5
100
AcDbArc
 50
0.0
 51
180.0
  0
LINE
  5
1D3
330
36
100
AcDbEntity
  8
0
100
AcDbLine
 10
57.71336999999999
 20
79.37638299999997
 30
0.0
 11
57.71336999999999
 21
70.37638299999997
 31
0.0
  0
LINE
  5
1D4
330
36
100
AcDbEntity
  8
0
100
AcDbLine
 10
56.71337
 20
79.37638299999997
 30
0.0
 11
56.71337
 21
70.37638299999997
 31
0.0
  0
ARC
  5
1D5
330
36
100
AcDbEntity
  8
0
100
AcDbCircle
 10
57.21337
 20
70.37638299999997
 30
0.0
 40
0.5
100
AcDbArc
 50
180.0
 51
0.0
  0
ARC
  5
1D6
330
36
100
AcDbEntity
  8
0
100
AcDbCircle
 10
57.21337
 20
79.37638299999997
 30
0.0
 40
0.5
100
AcDbArc
 50
0.0
 51
180.0
  0
LINE
  5
1D7
330
36
100
AcDbEntity
  8
0
100
AcDbLine
 10
55.71336999999999
 20
94.37638300000001
 30
0.0
 11
55.71336999999999
 21
85.37638299999997
 31
0.0
  0
LINE
  5
1D8
330
36
100
AcDbEntity
  8
0
100
AcDbLine
 10
54.71337
 20
94.37638300000001
 30
0.0
 11
54.71337
 21
85.37638299999997
 31
0.0
  0
ARC
  5
1D9
330
36
100
AcDbEntity
  8
0
100
AcDbCircle
 10
55.21336999999999
 20
85.37638299999997
 30
0.0
 40
0.5
100
AcDbArc
 50
180.0
 51
0.0
  0
ARC
  5
1DA
330
36
100
AcDbEntity
  8
0
100
AcDbCircle
 10
55.21336999999999
 20
94.37638300000001
 30
0.0
 40
0.5
100
AcDbArc
 50
0.0
 51
180.0
  0
LINE
  5
1DB
330
36
100
AcDbEntity
  8
0
100
AcDbLine
 10
55.71336999999999
 20
79.37638299999997
 30
0.0
 11
55.71336999999999
 21
70.37638299999997
 31
0.0
  0
LINE
  5
1DC
330
36
100
AcDbEntity
  8
0
100
AcDbLine
 10
54.71337
 20
79.37638299999997
 30
0.0
 11
54.71337
 21
70.37638299999997
 31
0.0
  0
ARC
  5
1DD
330
36
100
AcDbEntity
  8
0
100
AcDbCircle
 10
55.21336999999999
 20
70.37638299999997
 30
0.0
 40
0.5
100
AcDbArc
 50
180.0
 51
0.0
  0
ARC
  5
1DE
330
36
100
AcDbEntity
  8
0
100
AcDbCircle
 10
55.21336999999999
 20
79.37638299999997
 30
0.0
 40
0.5
100
AcDbArc
 50
0.0
 51
180.0
  0
LINE
  5
1DF
330
36
100
AcDbEntity
  8
0
100
AcDbLine
 10
53.71337
 20
94.37638300000001
 30
0.0
 11
53.71337
 21
85.37638299999997
 31
0.0
  0
LINE
  5
1E0
330
36
100
AcDbEntity
  8
0
100
AcDbLine
 10
52.71336999999999
 20
94.37638300000001
 30
0.0
 11
52.71336999999999
 21
85.37638299999997
 31
0.0
  0
ARC
  5
1E1
330
36
100
AcDbEntity
  8
0
100
AcDbCircle
 10
53.21336999999999
 20
85.37638299999997
 30
0.0
 40
0.5
100
AcDbArc
 50
180.0
 51
0.0
  0
ARC
  5
1E2
330
36
100
AcDbEntity
  8
0
100
AcDbCircle
 10
53.21336999999999
 20
94.37638300000001
 30
0.0
 40
0.5
100
AcDbArc
 50
0.0
 51
180.0
  0
LINE
  5
1E3
330
36
100
AcDbEntity
  8
0
100
AcDbLine
 10
53.71337
 20
79.37638299999997
 30
0.0
 11
53.71337
 21
70.37638299999997
 31
0.0
  0
LINE
  5
1E4
330
36
100
AcDbEntity
  8
0
100
AcDbLine
 10
52.71336999999999
 20
79.37638299999997
 30
0.0
 11
52.71336999999999
 21
70.37638299999997
 31
0.0
  0
ARC
  5
1E5
330
36
100
AcDbEntity
  8
0
100
AcDbCircle
 10
53.21336999999999
 20
70.37638299999997
 30
0.0
 40
0.5
100
AcDbArc
 50
180.0
 51
0.0
  0
ARC
  5
1E6
330
36
100
AcDbEntity
  8
0
100
AcDbCircle
 10
53.21336999999999
 20
79.37638299999997
 30
0.0
 40
0.5
100
AcDbArc
 50
0.0
 51
180.0
  0
LINE
  5
1E7
330
36
100
AcDbEntity
  8
0
100
AcDbLine
 10
51.71337
 20
94.37638300000001
 30
0.0
 11
51.71337
 21
85.37638299999997
 31
0.0
  0
LINE
  5
1E8
330
36
100
AcDbEntity
  8
0
100
AcDbLine
 10
50.71336999999999
 20
94.37638300000001
 30
0.0
 11
50.71336999999999
 21
85.37638299999997
 31
0.0
  0
ARC
  5
1E9
330
36
100
AcDbEntity
  8
0
100
AcDbCircle
 10
51.21337
 20
85.37638299999997
 30
0.0
 40
0.5
100
AcDbArc
 50
180.0
 51
0.0
  0
ARC
  5
1EA
330
36
100
AcDbEntity
  8
0
100
AcDbCircle
 10
51.21337
 20
94.37638300000001
 30
0.0
 40
0.5
100
AcDbArc
 50
0.0
 51
180.0
  0
LINE
  5
1EB
330
36
100
AcDbEntity
  8
0
100
AcDbLine
 10
51.71337
 20
79.37638299999997
 30
0.0
 11
51.71337
 21
70.37638299999997
 31
0.0
  0
LINE
  5
1EC
330
36
100
AcDbEntity
  8
0
100
AcDbLine
 10
50.71336999999999
 20
79.37638299999997
 30
0.0
 11
50.71336999999999
 21
70.37638299999997
 31
0.0
  0
ARC
  5
1ED
330
36
100
AcDbEntity
  8
0
100
AcDbCircle
 10
51.21337
 20
70.37638299999997
 30
0.0
 40
0.5
100
AcDbArc
 50
180.0
 51
0.0
  0
ARC
  5
1EE
330
36
100
AcDbEntity
  8
0
100
AcDbCircle
 10
51.21337
 20
79.37638299999997
 30
0.0
 40
0.5
100
AcDbArc
 50
0.0
 51
180.0
  0
LINE
  5
1EF
330
36
100
AcDbEntity
  8
0
100
AcDbLine
 10
49.71337
 20
94.37638300000001
 30
0.0
 11
49.71337
 21
85.37638299999997
 31
0.0
  0
LINE
  5
1F0
330
36
100
AcDbEntity
  8
0
100
AcDbLine
 10
48.71337
 20
94.37638300000001
 30
0.0
 11
48.71337
 21
85.37638299999997
 31
0.0
  0
ARC
  5
1F1
330
36
100
AcDbEntity
  8
0
100
AcDbCircle
 10
49.21337
 20
85.37638299999997
 30
0.0
 40
0.5
100
AcDbArc
 50
180.0
 51
0.0
  0
ARC
  5
1F2
330
36
100
AcDbEntity
  8
0
100
AcDbCircle
 10
49.21337
 20
94.37638300000001
 30
0.0
 40
0.5
100
AcDbArc
 50
0.0
 51
180.0
  0
LINE
  5
1F3
330
36
100
AcDbEntity
  8
0
100
AcDbLine
 10
49.71337
 20
79.37638299999997
 30
0.0
 11
49.71337
 21
70.37638299999997
 31
0.0
  0
LINE
  5
1F4
330
36
100
AcDbEntity
  8
0
100
AcDbLine
 10
48.71337
 20
79.37638299999997
 30
0.0
 11
48.71337
 21
70.37638299999997
 31
0.0
  0
ARC
  5
1F5
330
36
100
AcDbEntity
  8
0
100
AcDbCircle
 10
49.21337
 20
70.37638299999997
 30
0.0
 40
0.5
100
AcDbArc
 50
180.0
 51
0.0
  0
ARC
  5
1F6
330
36
100
AcDbEntity
  8
0
100
AcDbCircle
 10
49.21337
 20
79.37638299999997
 30
0.0
 40
0.5
100
AcDbArc
 50
0.0
 51
180.0
  0
LINE
  5
1F7
330
36
100
AcDbEntity
  8
0
100
AcDbLine
 10
47.71336999999999
 20
94.37638300000001
 30
0.0
 11
47.71336999999999
 21
85.37638299999997
 31
0.0
  0
LINE
  5
1F8
330
36
100
AcDbEntity
  8
0
100
AcDbLine
 10
46.71337
 20
94.37638300000001
 30
0.0
 11
46.71337
 21
85.37638299999997
 31
0.0
  0
ARC
  5
1F9
330
36
100
AcDbEntity
  8
0
100
AcDbCircle
 10
47.21337
 20
85.37638299999997
 30
0.0
 40
0.5
100
AcDbArc
 50
180.0
 51
0.0
  0
ARC
  5
1FA
330
36
100
AcDbEntity
  8
0
100
AcDbCircle
 10
47.21337
 20
94.37638300000001
 30
0.0
 40
0.5
100
AcDbArc
 50
0.0
 51
180.0
  0
LINE
  5
1FB
330
36
100
AcDbEntity
  8
0
100
AcDbLine
 10
47.71336999999999
 20
79.37638299999997
 30
0.0
 11
47.71336999999999
 21
70.37638299999997
 31
0.0
  0
LINE
  5
1FC
330
36
100
AcDbEntity
  8
0
100
AcDbLine
 10
46.71337
 20
79.37638299999997
 30
0.0
 11
46.71337
 21
70.37638299999997
 31
0.0
  0
ARC
  5
1FD
330
36
100
AcDbEntity
  8
0
100
AcDbCircle
 10
47.21337
 20
70.37638299999997
 30
0.0
 40
0.5
100
AcDbArc
 50
180.0
 51
0.0
  0
ARC
  5
1FE
330
36
100
AcDbEntity
  8
0
100
AcDbCircle
 10
47.21337
 20
79.37638299999997
 30
0.0
 40
0.5
100
AcDbArc
 50
0.0
 51
180.0
  0
LINE
  5
1FF
330
36
100
AcDbEntity
  8
0
100
AcDbLine
 10
45.71336999999998
 20
94.37638300000001
 30
0.0
 11
45.71336999999998
 21
85.37638299999997
 31
0.0
  0
LINE
  5
200
330
36
100
AcDbEntity
  8
0
100
AcDbLine
 10
44.71337
 20
94.37638300000001
 30
0.0
 11
44.71337
 21
85.37638299999997
 31
0.0
  0
ARC
  5
201
330
36
100
AcDbEntity
  8
0
100
AcDbCircle
 10
45.21336999999999
 20
85.37638299999997
 30
0.0
 40
0.5
100
AcDbArc
 50
180.0
 51
0.0
  0
ARC
  5
202
330
36
100
AcDbEntity
  8
0
100
AcDbCircle
 10
45.21336999999999
 20
94.37638300000001
 30
0.0
 40
0.5
100
AcDbArc
 50
0.0
 51
180.0
  0
LINE
  5
203
330
36
100
AcDbEntity
  8
0
100
AcDbLine
 10
45.71336999999998
 20
79.37638299999997
 30
0.0
 11
45.71336999999998
 21
70.37638299999997
 31
0.0
  0
LINE
  5
204
330
36
100
AcDbEntity
  8
0
100
AcDbLine
 10
44.71337
 20
79.37638299999997
 30
0.0
 11
44.71337
 21
70.37638299999997
 31
0.0
  0
ARC
  5
205
330
36
100
AcDbEntity
  8
0
100
AcDbCircle
 10
45.21336999999999
 20
70.37638299999997
 30
0.0
 40
0.5
100
AcDbArc
 50
180.0
 51
0.0
  0
ARC
  5
206
330
36
100
AcDbEntity
  8
0
100
AcDbCircle
 10
45.21336999999999
 20
79.37638299999997
 30
0.0
 40
0.5
100
AcDbArc
 50
0.0
 51
180.0
  0
LINE
  5
207
330
36
100
AcDbEntity
  8
0
100
AcDbLine
 10
43.71336999999999
 20
94.37638300000001
 30
0.0
 11
43.71336999999999
 21
85.37638299999997
 31
0.0
  0
LINE
  5
208
330
36
100
AcDbEntity
  8
0
100
AcDbLine
 10
42.71336999999999
 20
94.37638300000001
 30
0.0
 11
42.71336999999999
 21
85.37638299999997
 31
0.0
  0
ARC
  5
209
330
36
100
AcDbEntity
  8
0
100
AcDbCircle
 10
43.21336999999998
 20
85.37638299999997
 30
0.0
 40
0.5
100
AcDbArc
 50
180.0
 51
0.0
  0
ARC
  5
20A
330
36
100
AcDbEntity
  8
0
100
AcDbCircle
 10
43.21336999999998
 20
94.37638300000001
 30
0.0
 40
0.5
100
AcDbArc
 50
0.0
 51
180.0
  0
LINE
  5
20B
330
36
100
AcDbEntity
  8
0
100
AcDbLine
 10
43.71336999999999
 20
79.37638299999997
 30
0.0
 11
43.71336999999999
 21
70.37638299999997
 31
0.0
  0
LINE
  5
20C
330
36
100
AcDbEntity
  8
0
100
AcDbLine
 10
42.71336999999999
 20
79.37638299999997
 30
0.0
 11
42.71336999999999
 21
70.37638299999997
 31
0.0
  0
ARC
  5
20D
330
36
100
AcDbEntity
  8
0
100
AcDbCircle
 10
43.21336999999998
 20
70.37638299999997
 30
0.0
 40
0.5
100
AcDbArc
 50
180.0
 51
0.0
  0
ARC
  5
20E
330
36
100
AcDbEntity
  8
0
100
AcDbCircle
 10
43.21336999999998
 20
79.37638299999997
 30
0.0
 40
0.5
100
AcDbArc
 50
0.0
 51
180.0
  0
LINE
  5
20F
330
36
100
AcDbEntity
  8
0
100
AcDbLine
 10
41.71337
 20
94.37638300000001
 30
0.0
 11
41.71337
 21
85.37638299999997
 31
0.0
  0
LINE
  5
210
330
36
100
AcDbEntity
  8
0
100
AcDbLine
 10
40.71336999999997
 20
94.37638300000001
 30
0.0
 11
40.71336999999997
 21
85.37638299999997
 31
0.0
  0
ARC
  5
211
330
36
100
AcDbEntity
  8
0
100
AcDbCircle
 10
41.21336999999999
 20
85.37638299999997
 30
0.0
 40
0.5
100
AcDbArc
 50
180.0
 51
0.0
  0
ARC
  5
212
330
36
100
AcDbEntity
  8
0
100
AcDbCircle
 10
41.21336999999999
 20
94.37638300000001
 30
0.0
 40
0.5
100
AcDbArc
 50
0.0
 51
180.0
  0
LINE
  5
213
330
36
100
AcDbEntity
  8
0
100
AcDbLine
 10
41.71337
 20
79.37638299999997
 30
0.0
 11
41.71337
 21
70.37638299999997
 31
0.0
  0
LINE
  5
214
330
36
100
AcDbEntity
  8
0
100
AcDbLine
 10
40.71336999999997
 20
79.37638299999997
 30
0.0
 11
40.71336999999997
 21
70.37638299999997
 31
0.0
  0
ARC
  5
215
330
36
100
AcDbEntity
  8
0
100
AcDbCircle
 10
41.21336999999999
 20
70.37638299999997
 30
0.0
 40
0.5
100
AcDbArc
 50
180.0
 51
0.0
  0
ARC
  5
216
330
36
100
AcDbEntity
  8
0
100
AcDbCircle
 10
41.21336999999999
 20
79.37638299999997
 30
0.0
 40
0.5
100
AcDbArc
 50
0.0
 51
180.0
  0
LINE
  5
217
330
36
100
AcDbEntity
  8
0
100
AcDbLine
 10
39.71337
 20
94.37638300000001
 30
0.0
 11
39.71337
 21
85.37638299999997
 31
0.0
  0
LINE
  5
218
330
36
100
AcDbEntity
  8
0
100
AcDbLine
 10
38.71337
 20
94.37638300000001
 30
0.0
 11
38.71337
 21
85.37638299999997
 31
0.0
  0
ARC
  5
219
330
36
100
AcDbEntity
  8
0
100
AcDbCircle
 10
39.21337
 20
85.37638299999997
 30
0.0
 40
0.5
100
AcDbArc
 50
180.0
 51
0.0
  0
ARC
  5
21A
330
36
100
AcDbEntity
  8
0
100
AcDbCircle
 10
39.21337
 20
94.37638300000001
 30
0.0
 40
0.5
100
AcDbArc
 50
0.0
 51
180.0
  0
LINE
  5
21B
330
36
100
AcDbEntity
  8
0
100
AcDbLine
 10
39.71337
 20
79.37638299999997
 30
0.0
 11
39.71337
 21
70.37638299999997
 31
0.0
  0
LINE
  5
21C
330
36
100
AcDbEntity
  8
0
100
AcDbLine
 10
38.71337
 20
79.37638299999997
 30
0.0
 11
38.71337
 21
70.37638299999997
 31
0.0
  0
ARC
  5
21D
330
36
100
AcDbEntity
  8
0
100
AcDbCircle
 10
39.21337
 20
70.37638299999997
 30
0.0
 40
0.5
100
AcDbArc
 50
180.0
 51
0.0
  0
ARC
  5
21E
330
36
100
AcDbEntity
  8
0
100
AcDbCircle
 10
39.21337
 20
79.37638299999997
 30
0.0
 40
0.5
100
AcDbArc
 50
0.0
 51
180.0
  0
LINE
  5
21F
330
36
100
AcDbEntity
  8
0
100
AcDbLine
 10
37.71337
 20
94.37638300000001
 30
0.0
 11
37.71337
 21
85.37638299999997
 31
0.0
  0
LINE
  5
220
330
36
100
AcDbEntity
  8
0
100
AcDbLine
 10
36.71337
 20
94.37638300000001
 30
0.0
 11
36.71337
 21
85.37638299999997
 31
0.0
  0
ARC
  5
221
330
36
100
AcDbEntity
  8
0
100
AcDbCircle
 10
37.21337
 20
85.37638299999997
 30
0.0
 40
0.5
100
AcDbArc
 50
180.0
 51
0.0
  0
ARC
  5
222
330
36
100
AcDbEntity
  8
0
100
AcDbCircle
 10
37.21337
 20
94.37638300000001
 30
0.0
 40
0.5
100
AcDbArc
 50
0.0
 51
180.0
  0
LINE
  5
223
330
36
100
AcDbEntity
  8
0
100
AcDbLine
 10
37.71337
 20
79.37638299999997
 30
0.0
 11
37.71337
 21
70.37638299999997
 31
0.0
  0
LINE
  5
224
330
36
100
AcDbEntity
  8
0
100
AcDbLine
 10
36.71337
 20
79.37638299999997
 30
0.0
 11
36.71337
 21
70.37638299999997
 31
0.0
  0
ARC
  5
225
330
36
100
AcDbEntity
  8
0
100
AcDbCircle
 10
37.21337
 20
70.37638299999997
 30
0.0
 40
0.5
100
AcDbArc
 50
180.0
 51
0.0
  0
ARC
  5
226
330
36
100
AcDbEntity
  8
0
100
AcDbCircle
 10
37.21337
 20
79.37638299999997
 30
0.0
 40
0.5
100
AcDbArc
 50
0.0
 51
180.0
  0
LINE
  5
227
330
36
100
AcDbEntity
  8
0
100
AcDbLine
 10
35.71337
 20
94.37638300000001
 30
0.0
 11
35.71337
 21
85.37638299999997
 31
0.0
  0
LINE
  5
228
330
36
100
AcDbEntity
  8
0
100
AcDbLine
 10
34.71337
 20
94.37638300000001
 30
0.0
 11
34.71337
 21
85.37638299999997
 31
0.0
  0
ARC
  5
229
330
36
100
AcDbEntity
  8
0
100
AcDbCircle
 10
35.21337
 20
85.37638299999997
 30
0.0
 40
0.5
100
AcDbArc
 50
180.0
 51
0.0
  0
ARC
  5
22A
330
36
100
AcDbEntity
  8
0
100
AcDbCircle
 10
35.21337
 20
94.37638300000001
 30
0.0
 40
0.5
100
AcDbArc
 50
0.0
 51
180.0
  0
LINE
  5
22B
330
36
100
AcDbEntity
  8
0
100
AcDbLine
 10
35.71337
 20
79.37638299999997
 30
0.0
 11
35.71337
 21
70.37638299999997
 31
0.0
  0
LINE
  5
22C
330
36
100
AcDbEntity
  8
0
100
AcDbLine
 10
34.71337
 20
79.37638299999997
 30
0.0
 11
34.71337
 21
70.37638299999997
 31
0.0
  0
ARC
  5
22D
330
36
100
AcDbEntity
  8
0
100
AcDbCircle
 10
35.21337
 20
70.37638299999997
 30
0.0
 40
0.5
100
AcDbArc
 50
180.0
 51
0.0
  0
ARC
  5
22E
330
36
100
AcDbEntity
  8
0
100
AcDbCircle
 10
35.21337
 20
79.37638299999997
 30
0.0
 40
0.5
100
AcDbArc
 50
0.0
 51
180.0
  0
LINE
  5
22F
330
36
100
AcDbEntity
  8
0
100
AcDbLine
 10
33.71337
 20
94.37638300000001
 30
0.0
 11
33.71337
 21
85.37638299999997
 31
0.0
  0
LINE
  5
230
330
36
100
AcDbEntity
  8
0
100
AcDbLine
 10
32.71337
 20
94.37638300000001
 30
0.0
 11
32.71337
 21
85.37638299999997
 31
0.0
  0
ARC
  5
231
330
36
100
AcDbEntity
  8
0
100
AcDbCircle
 10
33.21337
 20
85.37638299999997
 30
0.0
 40
0.5
100
AcDbArc
 50
180.0
 51
0.0
  0
ARC
  5
232
330
36
100
AcDbEntity
  8
0
100
AcDbCircle
 10
33.21337
 20
94.37638300000001
 30
0.0
 40
0.5
100
AcDbArc
 50
0.0
 51
180.0
  0
LINE
  5
233
330
36
100
AcDbEntity
  8
0
100
AcDbLine
 10
33.71337
 20
79.37638299999997
 30
0.0
 11
33.71337
 21
70.37638299999997
 31
0.0
  0
LINE
  5
234
330
36
100
AcDbEntity
  8
0
100
AcDbLine
 10
32.71337
 20
79.37638299999997
 30
0.0
 11
32.71337
 21
70.37638299999997
 31
0.0
  0
ARC
  5
235
330
36
100
AcDbEntity
  8
0
100
AcDbCircle
 10
33.21337
 20
70.37638299999997
 30
0.0
 40
0.5
100
AcDbArc
 50
180.0
 51
0.0
  0
ARC
  5
236
330
36
100
AcDbEntity
  8
0
100
AcDbCircle
 10
33.21337
 20
79.37638299999997
 30
0.0
 40
0.5
100
AcDbArc
 50
0.0
 51
180.0
  0
LINE
  5
237
330
36
100
AcDbEntity
  8
0
100
AcDbLine
 10
31.71337
 20
94.37638300000001
 30
0.0
 11
31.71337
 21
85.37638299999997
 31
0.0
  0
LINE
  5
238
330
36
100
AcDbEntity
  8
0
100
AcDbLine
 10
30.71337
 20
94.37638300000001
 30
0.0
 11
30.71337
 21
85.37638299999997
 31
0.0
  0
ARC
  5
239
330
36
100
AcDbEntity
  8
0
100
AcDbCircle
 10
31.21337
 20
85.37638299999997
 30
0.0
 40
0.5
100
AcDbArc
 50
180.0
 51
0.0
  0
ARC
  5
23A
330
36
100
AcDbEntity
  8
0
100
AcDbCircle
 10
31.21337
 20
94.37638300000001
 30
0.0
 40
0.5
100
AcDbArc
 50
0.0
 51
180.0
  0
LINE
  5
23B
330
36
100
AcDbEntity
  8
0
100
AcDbLine
 10
31.71337
 20
79.37638299999997
 30
0.0
 11
31.71337
 21
70.37638299999997
 31
0.0
  0
LINE
  5
23C
330
36
100
AcDbEntity
  8
0
100
AcDbLine
 10
30.71337
 20
79.37638299999997
 30
0.0
 11
30.71337
 21
70.37638299999997
 31
0.0
  0
ARC
  5
23D
330
36
100
AcDbEntity
  8
0
100
AcDbCircle
 10
31.21337
 20
70.37638299999997
 30
0.0
 40
0.5
100
AcDbArc
 50
180.0
 51
0.0
  0
ARC
  5
23E
330
36
100
AcDbEntity
  8
0
100
AcDbCircle
 10
31.21337
 20
79.37638299999997
 30
0.0
 40
0.5
100
AcDbArc
 50
0.0
 51
180.0
  0
LINE
  5
23F
330
36
100
AcDbEntity
  8
0
100
AcDbLine
 10
29.71337
 20
94.37638300000001
 30
0.0
 11
29.71337
 21
85.37638299999997
 31
0.0
  0
LINE
  5
240
330
36
100
AcDbEntity
  8
0
100
AcDbLine
 10
28.71337
 20
94.37638300000001
 30
0.0
 11
28.71337
 21
85.37638299999997
 31
0.0
  0
ARC
  5
241
330
36
100
AcDbEntity
  8
0
100
AcDbCircle
 10
29.21337
 20
85.37638299999997
 30
0.0
 40
0.5
100
AcDbArc
 50
180.0
 51
0.0
  0
ARC
  5
242
330
36
100
AcDbEntity
  8
0
100
AcDbCircle
 10
29.21337
 20
94.37638300000001
 30
0.0
 40
0.5
100
AcDbArc
 50
0.0
 51
180.0
  0
LINE
  5
243
330
36
100
AcDbEntity
  8
0
100
AcDbLine
 10
29.71337
 20
79.37638299999997
 30
0.0
 11
29.71337
 21
70.37638299999997
 31
0.0
  0
LINE
  5
244
330
36
100
AcDbEntity
  8
0
100
AcDbLine
 10
28.71337
 20
79.37638299999997
 30
0.0
 11
28.71337
 21
70.37638299999997
 31
0.0
  0
ARC
  5
245
330
36
100
AcDbEntity
  8
0
100
AcDbCircle
 10
29.21337
 20
70.37638299999997
 30
0.0
 40
0.5
100
AcDbArc
 50
180.0
 51
0.0
  0
ARC
  5
246
330
36
100
AcDbEntity
  8
0
100
AcDbCircle
 10
29.21337
 20
79.37638299999997
 30
0.0
 40
0.5
100
AcDbArc
 50
0.0
 51
180.0
  0
LINE
  5
247
330
36
100
AcDbEntity
  8
0
100
AcDbLine
 10
27.71337
 20
94.37638300000001
 30
0.0
 11
27.71337
 21
85.37638299999997
 31
0.0
  0
LINE
  5
248
330
36
100
AcDbEntity
  8
0
100
AcDbLine
 10
26.71337
 20
94.37638300000001
 30
0.0
 11
26.71337
 21
85.37638299999997
 31
0.0
  0
ARC
  5
249
330
36
100
AcDbEntity
  8
0
100
AcDbCircle
 10
27.21337
 20
85.37638299999997
 30
0.0
 40
0.5
100
AcDbArc
 50
180.0
 51
0.0
  0
ARC
  5
24A
330
36
100
AcDbEntity
  8
0
100
AcDbCircle
 10
27.21337
 20
94.37638300000001
 30
0.0
 40
0.5
100
AcDbArc
 50
0.0
 51
180.0
  0
LINE
  5
24B
330
36
100
AcDbEntity
  8
0
100
AcDbLine
 10
27.71337
 20
79.37638299999997
 30
0.0
 11
27.71337
 21
70.37638299999997
 31
0.0
  0
LINE
  5
24C
330
36
100
AcDbEntity
  8
0
100
AcDbLine
 10
26.71337
 20
79.37638299999997
 30
0.0
 11
26.71337
 21
70.37638299999997
 31
0.0
  0
ARC
  5
24D
330
36
100
AcDbEntity
  8
0
100
AcDbCircle
 10
27.21337
 20
70.37638299999997
 30
0.0
 40
0.5
100
AcDbArc
 50
180.0
 51
0.0
  0
ARC
  5
24E
330
36
100
AcDbEntity
  8
0
100
AcDbCircle
 10
27.21337
 20
79.37638299999997
 30
0.0
 40
0.5
100
AcDbArc
 50
0.0
 51
180.0
  0
LINE
  5
24F
330
36
100
AcDbEntity
  8
0
100
AcDbLine
 10
25.71337
 20
94.37638300000001
 30
0.0
 11
25.71337
 21
85.37638299999997
 31
0.0
  0
LINE
  5
250
330
36
100
AcDbEntity
  8
0
100
AcDbLine
 10
24.71337
 20
94.37638300000001
 30
0.0
 11
24.71337
 21
85.37638299999997
 31
0.0
  0
ARC
  5
251
330
36
100
AcDbEntity
  8
0
100
AcDbCircle
 10
25.21337
 20
85.37638299999997
 30
0.0
 40
0.5
100
AcDbArc
 50
180.0
 51
0.0
  0
ARC
  5
252
330
36
100
AcDbEntity
  8
0
100
AcDbCircle
 10
25.21337
 20
94.37638300000001
 30
0.0
 40
0.5
100
AcDbArc
 50
0.0
 51
180.0
  0
LINE
  5
253
330
36
100
AcDbEntity
  8
0
100
AcDbLine
 10
25.71337
 20
79.37638299999997
 30
0.0
 11
25.71337
 21
70.37638299999997
 31
0.0
  0
LINE
  5
254
330
36
100
AcDbEntity
  8
0
100
AcDbLine
 10
24.71337
 20
79.37638299999997
 30
0.0
 11
24.71337
 21
70.37638299999997
 31
0.0
  0
ARC
  5
255
330
36
100
AcDbEntity
  8
0
100
AcDbCircle
 10
25.21337
 20
70.37638299999997
 30
0.0
 40
0.5
100
AcDbArc
 50
180.0
 51
0.0
  0
ARC
  5
256
330
36
100
AcDbEntity
  8
0
100
AcDbCircle
 10
25.21337
 20
79.37638299999997
 30
0.0
 40
0.5
100
AcDbArc
 50
0.0
 51
180.0
  0
LINE
  5
257
330
36
100
AcDbEntity
  8
0
100
AcDbLine
 10
23.71337
 20
94.37638300000001
 30
0.0
 11
23.71337
 21
85.37638299999997
 31
0.0
  0
LINE
  5
258
330
36
100
AcDbEntity
  8
0
100
AcDbLine
 10
22.71337
 20
94.37638300000001
 30
0.0
 11
22.71337
 21
85.37638299999997
 31
0.0
  0
ARC
  5
259
330
36
100
AcDbEntity
  8
0
100
AcDbCircle
 10
23.21337
 20
85.37638299999997
 30
0.0
 40
0.5
100
AcDbArc
 50
180.0
 51
0.0
  0
ARC
  5
25A
330
36
100
AcDbEntity
  8
0
100
AcDbCircle
 10
23.21337
 20
94.37638300000001
 30
0.0
 40
0.5
100
AcDbArc
 50
0.0
 51
180.0
  0
LINE
  5
25B
330
36
100
AcDbEntity
  8
0
100
AcDbLine
 10
23.71337
 20
79.37638299999997
 30
0.0
 11
23.71337
 21
70.37638299999997
 31
0.0
  0
LINE
  5
25C
330
36
100
AcDbEntity
  8
0
100
AcDbLine
 10
22.71337
 20
79.37638299999997
 30
0.0
 11
22.71337
 21
70.37638299999997
 31
0.0
  0
ARC
  5
25D
330
36
100
AcDbEntity
  8
0
100
AcDbCircle
 10
23.21337
 20
70.37638299999997
 30
0.0
 40
0.5
100
AcDbArc
 50
180.0
 51
0.0
  0
ARC
  5
25E
330
36
100
AcDbEntity
  8
0
100
AcDbCircle
 10
23.21337
 20
79.37638299999997
 30
0.0
 40
0.5
100
AcDbArc
 50
0.0
 51
180.0
  0
LINE
  5
25F
330
36
100
AcDbEntity
  8
0
100
AcDbLine
 10
21.71337
 20
94.37638300000001
 30
0.0
 11
21.71337
 21
85.37638299999997
 31
0.0
  0
LINE
  5
260
330
36
100
AcDbEntity
  8
0
100
AcDbLine
 10
20.71337
 20
94.37638300000001
 30
0.0
 11
20.71337
 21
85.37638299999997
 31
0.0
  0
ARC
  5
261
330
36
100
AcDbEntity
  8
0
100
AcDbCircle
 10
21.21337
 20
85.37638299999997
 30
0.0
 40
0.5
100
AcDbArc
 50
180.0
 51
0.0
  0
ARC
  5
262
330
36
100
AcDbEntity
  8
0
100
AcDbCircle
 10
21.21337
 20
94.37638300000001
 30
0.0
 40
0.5
100
AcDbArc
 50
0.0
 51
180.0
  0
LINE
  5
263
330
36
100
AcDbEntity
  8
0
100
AcDbLine
 10
21.71337
 20
79.37638299999997
 30
0.0
 11
21.71337
 21
70.37638299999997
 31
0.0
  0
LINE
  5
264
330
36
100
AcDbEntity
  8
0
100
AcDbLine
 10
20.71337
 20
79.37638299999997
 30
0.0
 11
20.71337
 21
70.37638299999997
 31
0.0
  0
ARC
  5
265
330
36
100
AcDbEntity
  8
0
100
AcDbCircle
 10
21.21337
 20
70.37638299999997
 30
0.0
 40
0.5
100
AcDbArc
 50
180.0
 51
0.0
  0
ARC
  5
266
330
36
100
AcDbEntity
  8
0
100
AcDbCircle
 10
21.21337
 20
79.37638299999997
 30
0.0
 40
0.5
100
AcDbArc
 50
0.0
 51
180.0
  0
LINE
  5
267
330
36
100
AcDbEntity
  8
0
100
AcDbLine
 10
9.713369999999999
 20
94.37638300000001
 30
0.0
 11
9.713369999999999
 21
85.37638299999997
 31
0.0
  0
LINE
  5
268
330
36
100
AcDbEntity
  8
0
100
AcDbLine
 10
8.713369999999999
 20
94.37638300000001
 30
0.0
 11
8.713369999999999
 21
85.37638299999997
 31
0.0
  0
ARC
  5
269
330
36
100
AcDbEntity
  8
0
100
AcDbCircle
 10
9.213369999999999
 20
85.37638299999997
 30
0.0
 40
0.5
100
AcDbArc
 50
180.0
 51
0.0
  0
ARC
  5
26A
330
36
100
AcDbEntity
  8
0
100
AcDbCircle
 10
9.213369999999999
 20
94.37638300000001
 30
0.0
 40
0.5
100
AcDbArc
 50
0.0
 51
180.0
  0
LINE
  5
26B
330
36
100
AcDbEntity
  8
0
100
AcDbLine
 10
9.713369999999999
 20
79.37638299999997
 30
0.0
 11
9.713369999999999
 21
70.37638299999997
 31
0.0
  0
LINE
  5
26C
330
36
100
AcDbEntity
  8
0
100
AcDbLine
 10
8.713369999999999
 20
79.37638299999997
 30
0.0
 11
8.713369999999999
 21
70.37638299999997
 31
0.0
  0
ARC
  5
26D
330
36
100
AcDbEntity
  8
0
100
AcDbCircle
 10
9.213369999999999
 20
70.37638299999997
 30
0.0
 40
0.5
100
AcDbArc
 50
180.0
 51
0.0
  0
ARC
  5
26E
330
36
100
AcDbEntity
  8
0
100
AcDbCircle
 10
9.213369999999999
 20
79.37638299999997
 30
0.0
 40
0.5
100
AcDbArc
 50
0.0
 51
180.0
  0
LINE
  5
26F
330
36
100
AcDbEntity
  8
0
100
AcDbLine
 10
7.713369999999997
 20
94.37638300000001
 30
0.0
 11
7.713369999999997
 21
85.37638299999997
 31
0.0
  0
LINE
  5
270
330
36
100
AcDbEntity
  8
0
100
AcDbLine
 10
6.713369999999997
 20
94.37638300000001
 30
0.0
 11
6.713369999999997
 21
85.37638299999997
 31
0.0
  0
ARC
  5
271
330
36
100
AcDbEntity
  8
0
100
AcDbCircle
 10
7.213369999999997
 20
85.37638299999997
 30
0.0
 40
0.5
100
AcDbArc
 50
180.0
 51
0.0
  0
ARC
  5
272
330
36
100
AcDbEntity
  8
0
100
AcDbCircle
 10
7.213369999999997
 20
94.37638300000001
 30
0.0
 40
0.5
100
AcDbArc
 50
0.0
 51
180.0
  0
LINE
  5
273
330
36
100
AcDbEntity
  8
0
100
AcDbLine
 10
7.713369999999997
 20
79.37638299999997
 30
0.0
 11
7.713369999999997
 21
70.37638299999997
 31
0.0
  0
LINE
  5
274
330
36
100
AcDbEntity
  8
0
100
AcDbLine
 10
6.713369999999997
 20
79.37638299999997
 30
0.0
 11
6.713369999999997
 21
70.37638299999997
 31
0.0
  0
ARC
  5
275
330
36
100
AcDbEntity
  8
0
100
AcDbCircle
 10
7.213369999999997
 20
70.37638299999997
 30
0.0
 40
0.5
100
AcDbArc
 50
180.0
 51
0.0
  0
ARC
  5
276
330
36
100
AcDbEntity
  8
0
100
AcDbCircle
 10
7.213369999999997
 20
79.37638299999997
 30
0.0
 40
0.5
100
AcDbArc
 50
0.0
 51
180.0
  0
LINE
  5
277
330
36
100
AcDbEntity
  8
0
100
AcDbLine
 10
5.713369999999997
 20
94.37638300000001
 30
0.0
 11
5.713369999999997
 21
85.37638299999997
 31
0.0
  0
LINE
  5
278
330
36
100
AcDbEntity
  8
0
100
AcDbLine
 10
4.713369999999998
 20
94.37638300000001
 30
0.0
 11
4.713369999999998
 21
85.37638299999997
 31
0.0
  0
ARC
  5
279
330
36
100
AcDbEntity
  8
0
100
AcDbCircle
 10
5.213369999999998
 20
85.37638299999997
 30
0.0
 40
0.5
100
AcDbArc
 50
180.0
 51
0.0
  0
ARC
  5
27A
330
36
100
AcDbEntity
  8
0
100
AcDbCircle
 10
5.213369999999998
 20
94.37638300000001
 30
0.0
 40
0.5
100
AcDbArc
 50
0.0
 51
180.0
  0
LINE
  5
27B
330
36
100
AcDbEntity
  8
0
100
AcDbLine
 10
5.713369999999997
 20
79.37638299999997
 30
0.0
 11
5.713369999999997
 21
70.37638299999997
 31
0.0
  0
LINE
  5
27C
330
36
100
AcDbEntity
  8
0
100
AcDbLine
 10
4.713369999999998
 20
79.37638299999997
 30
0.0
 11
4.713369999999998
 21
70.37638299999997
 31
0.0
  0
ARC
  5
27D
330
36
100
AcDbEntity
  8
0
100
AcDbCircle
 10
5.213369999999998
 20
70.37638299999997
 30
0.0
 40
0.5
100
AcDbArc
 50
180.0
 51
0.0
  0
ARC
  5
27E
330
36
100
AcDbEntity
  8
0
100
AcDbCircle
 10
5.213369999999998
 20
79.37638299999997
 30
0.0
 40
0.5
100
AcDbArc
 50
0.0
 51
180.0
  0
LINE
  5
27F
330
36
100
AcDbEntity
  8
0
100
AcDbLine
 10
3.713369999999998
 20
94.37638300000001
 30
0.0
 11
3.713369999999998
 21
85.37638299999997
 31
0.0
  0
LINE
  5
280
330
36
100
AcDbEntity
  8
0
100
AcDbLine
 10
2.71337
 20
94.37638300000001
 30
0.0
 11
2.71337
 21
85.37638299999997
 31
0.0
  0
ARC
  5
281
330
36
100
AcDbEntity
  8
0
100
AcDbCircle
 10
3.21337
 20
85.37638299999997
 30
0.0
 40
0.5
100
AcDbArc
 50
180.0
 51
0.0
  0
ARC
  5
282
330
36
100
AcDbEntity
  8
0
100
AcDbCircle
 10
3.21337
 20
94.37638300000001
 30
0.0
 40
0.5
100
AcDbArc
 50
0.0
 51
180.0
  0
LINE
  5
283
330
36
100
AcDbEntity
  8
0
100
AcDbLine
 10
3.713369999999998
 20
79.37638299999997
 30
0.0
 11
3.713369999999998
 21
70.37638299999997
 31
0.0
  0
LINE
  5
284
330
36
100
AcDbEntity
  8
0
100
AcDbLine
 10
2.71337
 20
79.37638299999997
 30
0.0
 11
2.71337
 21
70.37638299999997
 31
0.0
  0
ARC
  5
285
330
36
100
AcDbEntity
  8
0
100
AcDbCircle
 10
3.21337
 20
70.37638299999997
 30
0.0
 40
0.5
100
AcDbArc
 50
180.0
 51
0.0
  0
ARC
  5
286
330
36
100
AcDbEntity
  8
0
100
AcDbCircle
 10
3.21337
 20
79.37638299999997
 30
0.0
 40
0.5
100
AcDbArc
 50
0.0
 51
180.0
  0
LINE
  5
287
330
36
100
AcDbEntity
  8
0
100
AcDbLine
 10
1.71337
 20
94.37638300000001
 30
0.0
 11
1.71337
 21
85.37638299999997
 31
0.0
  0
LINE
  5
288
330
36
100
AcDbEntity
  8
0
100
AcDbLine
 10
0.71337
 20
94.37638300000001
 30
0.0
 11
0.71337
 21
85.37638299999997
 31
0.0
  0
ARC
  5
289
330
36
100
AcDbEntity
  8
0
100
AcDbCircle
 10
1.21337
 20
85.37638299999997
 30
0.0
 40
0.5
100
AcDbArc
 50
180.0
 51
0.0
  0
ARC
  5
28A
330
36
100
AcDbEntity
  8
0
100
AcDbCircle
 10
1.21337
 20
94.37638300000001
 30
0.0
 40
0.5
100
AcDbArc
 50
0.0
 51
180.0
  0
LINE
  5
28B
330
36
100
AcDbEntity
  8
0
100
AcDbLine
 10
1.71337
 20
79.37638299999997
 30
0.0
 11
1.71337
 21
70.37638299999997
 31
0.0
  0
LINE
  5
28C
330
36
100
AcDbEntity
  8
0
100
AcDbLine
 10
0.71337
 20
79.37638299999997
 30
0.0
 11
0.71337
 21
70.37638299999997
 31
0.0
  0
ARC
  5
28D
330
36
100
AcDbEntity
  8
0
100
AcDbCircle
 10
1.21337
 20
70.37638299999997
 30
0.0
 40
0.5
100
AcDbArc
 50
180.0
 51
0.0
  0
ARC
  5
28E
330
36
100
AcDbEntity
  8
0
100
AcDbCircle
 10
1.21337
 20
79.37638299999997
 30
0.0
 40
0.5
100
AcDbArc
 50
0.0
 51
180.0
  0
LINE
  5
28F
330
36
100
AcDbEntity
  8
0
100
AcDbLine
 10
-0.28663
 20
94.37638300000001
 30
0.0
 11
-0.28663
 21
85.37638299999997
 31
0.0
  0
LINE
  5
290
330
36
100
AcDbEntity
  8
0
100
AcDbLine
 10
-1.286629999999999
 20
94.37638300000001
 30
0.0
 11
-1.286629999999999
 21
85.37638299999997
 31
0.0
  0
ARC
  5
291
330
36
100
AcDbEntity
  8
0
100
AcDbCircle
 10
-0.7866300000000001
 20
85.37638299999997
 30
0.0
 40
0.5
100
AcDbArc
 50
180.0
 51
0.0
  0
ARC
  5
292
330
36
100
AcDbEntity
  8
0
100
AcDbCircle
 10
-0.7866300000000001
 20
94.37638300000001
 30
0.0
 40
0.5
100
AcDbArc
 50
0.0
 51
180.0
  0
LINE
  5
293
330
36
100
AcDbEntity
  8
0
100
AcDbLine
 10
-0.28663
 20
79.37638299999997
 30
0.0
 11
-0.28663
 21
70.37638299999997
 31
0.0
  0
LINE
  5
294
330
36
100
AcDbEntity
  8
0
100
AcDbLine
 10
-1.286629999999999
 20
79.37638299999997
 30
0.0
 11
-1.286629999999999
 21
70.37638299999997
 31
0.0
  0
ARC
  5
295
330
36
100
AcDbEntity
  8
0
100
AcDbCircle
 10
-0.7866300000000001
 20
70.37638299999997
 30
0.0
 40
0.5
100
AcDbArc
 50
180.0
 51
0.0
  0
ARC
  5
296
330
36
100
AcDbEntity
  8
0
100
AcDbCircle
 10
-0.7866300000000001
 20
79.37638299999997
 30
0.0
 40
0.5
100
AcDbArc
 50
0.0
 51
180.0
  0
LINE
  5
297
330
36
100
AcDbEntity
  8
0
100
AcDbLine
 10
-2.286629999999999
 20
94.37638300000001
 30
0.0
 11
-2.286629999999999
 21
85.37638299999997
 31
0.0
  0
LINE
  5
298
330
36
100
AcDbEntity
  8
0
100
AcDbLine
 10
-3.28663
 20
94.37638300000001
 30
0.0
 11
-3.28663
 21
85.37638299999997
 31
0.0
  0
ARC
  5
299
330
36
100
AcDbEntity
  8
0
100
AcDbCircle
 10
-2.786629999999998
 20
85.37638299999997
 30
0.0
 40
0.5
100
AcDbArc
 50
180.0
 51
0.0
  0
ARC
  5
29A
330
36
100
AcDbEntity
  8
0
100
AcDbCircle
 10
-2.786629999999998
 20
94.37638300000001
 30
0.0
 40
0.5
100
AcDbArc
 50
0.0
 51
180.0
  0
LINE
  5
29B
330
36
100
AcDbEntity
  8
0
100
AcDbLine
 10
-2.286629999999999
 20
79.37638299999997
 30
0.0
 11
-2.286629999999999
 21
70.37638299999997
 31
0.0
  0
LINE
  5
29C
330
36
100
AcDbEntity
  8
0
100
AcDbLine
 10
-3.28663
 20
79.37638299999997
 30
0.0
 11
-3.28663
 21
70.37638299999997
 31
0.0
  0
ARC
  5
29D
330
36
100
AcDbEntity
  8
0
100
AcDbCircle
 10
-2.786629999999998
 20
70.37638299999997
 30
0.0
 40
0.5
100
AcDbArc
 50
180.0
 51
0.0
  0
ARC
  5
29E
330
36
100
AcDbEntity
  8
0
100
AcDbCircle
 10
-2.786629999999998
 20
79.37638299999997
 30
0.0
 40
0.5
100
AcDbArc
 50
0.0
 51
180.0
  0
LINE
  5
29F
330
36
100
AcDbEntity
  8
0
100
AcDbLine
 10
-4.28663
 20
94.37638300000001
 30
0.0
 11
-4.28663
 21
85.37638299999997
 31
0.0
  0
LINE
  5
2A0
330
36
100
AcDbEntity
  8
0
100
AcDbLine
 10
-5.28663
 20
94.37638300000001
 30
0.0
 11
-5.28663
 21
85.37638299999997
 31
0.0
  0
ARC
  5
2A1
330
36
100
AcDbEntity
  8
0
100
AcDbCircle
 10
-4.78663
 20
85.37638299999997
 30
0.0
 40
0.5
100
AcDbArc
 50
180.0
 51
0.0
  0
ARC
  5
2A2
330
36
100
AcDbEntity
  8
0
100
AcDbCircle
 10
-4.78663
 20
94.37638300000001
 30
0.0
 40
0.5
100
AcDbArc
 50
0.0
 51
180.0
  0
LINE
  5
2A3
330
36
100
AcDbEntity
  8
0
100
AcDbLine
 10
-4.28663
 20
79.37638299999997
 30
0.0
 11
-4.28663
 21
70.37638299999997
 31
0.0
  0
LINE
  5
2A4
330
36
100
AcDbEntity
  8
0
100
AcDbLine
 10
-5.28663
 20
79.37638299999997
 30
0.0
 11
-5.28663
 21
70.37638299999997
 31
0.0
  0
ARC
  5
2A5
330
36
100
AcDbEntity
  8
0
100
AcDbCircle
 10
-4.78663
 20
70.37638299999997
 30
0.0
 40
0.5
100
AcDbArc
 50
180.0
 51
0.0
  0
ARC
  5
2A6
330
36
100
AcDbEntity
  8
0
100
AcDbCircle
 10
-4.78663
 20
79.37638299999997
 30
0.0
 40
0.5
100
AcDbArc
 50
0.0
 51
180.0
  0
LINE
  5
2A7
330
36
100
AcDbEntity
  8
0
100
AcDbLine
 10
-6.28663
 20
94.37638300000001
 30
0.0
 11
-6.28663
 21
85.37638299999997
 31
0.0
  0
LINE
  5
2A8
330
36
100
AcDbEntity
  8
0
100
AcDbLine
 10
-7.28663
 20
94.37638300000001
 30
0.0
 11
-7.28663
 21
85.37638299999997
 31
0.0
  0
ARC
  5
2A9
330
36
100
AcDbEntity
  8
0
100
AcDbCircle
 10
-6.78663
 20
85.37638299999997
 30
0.0
 40
0.5
100
AcDbArc
 50
180.0
 51
0.0
  0
ARC
  5
2AA
330
36
100
AcDbEntity
  8
0
100
AcDbCircle
 10
-6.78663
 20
94.37638300000001
 30
0.0
 40
0.5
100
AcDbArc
 50
0.0
 51
180.0
  0
LINE
  5
2AB
330
36
100
AcDbEntity
  8
0
100
AcDbLine
 10
-6.28663
 20
79.37638299999997
 30
0.0
 11
-6.28663
 21
70.37638299999997
 31
0.0
  0
LINE
  5
2AC
330
36
100
AcDbEntity
  8
0
100
AcDbLine
 10
-7.28663
 20
79.37638299999997
 30
0.0
 11
-7.28663
 21
70.37638299999997
 31
0.0
  0
ARC
  5
2AD
330
36
100
AcDbEntity
  8
0
100
AcDbCircle
 10
-6.78663
 20
70.37638299999997
 30
0.0
 40
0.5
100
AcDbArc
 50
180.0
 51
0.0
  0
ARC
  5
2AE
330
36
100
AcDbEntity
  8
0
100
AcDbCircle
 10
-6.78663
 20
79.37638299999997
 30
0.0
 40
0.5
100
AcDbArc
 50
0.0
 51
180.0
  0
LINE
  5
2AF
330
36
100
AcDbEntity
  8
0
100
AcDbLine
 10
-8.28663
 20
94.37638300000001
 30
0.0
 11
-8.28663
 21
85.37638299999997
 31
0.0
  0
LINE
  5
2B0
330
36
100
AcDbEntity
  8
0
100
AcDbLine
 10
-9.28663
 20
94.37638300000001
 30
0.0
 11
-9.28663
 21
85.37638299999997
 31
0.0
  0
ARC
  5
2B1
330
36
100
AcDbEntity
  8
0
100
AcDbCircle
 10
-8.78663
 20
85.37638299999997
 30
0.0
 40
0.5
100
AcDbArc
 50
180.0
 51
0.0
  0
ARC
  5
2B2
330
36
100
AcDbEntity
  8
0
100
AcDbCircle
 10
-8.78663
 20
94.37638300000001
 30
0.0
 40
0.5
100
AcDbArc
 50
0.0
 51
180.0
  0
LINE
  5
2B3
330
36
100
AcDbEntity
  8
0
100
AcDbLine
 10
-8.28663
 20
79.37638299999997
 30
0.0
 11
-8.28663
 21
70.37638299999997
 31
0.0
  0
LINE
  5
2B4
330
36
100
AcDbEntity
  8
0
100
AcDbLine
 10
-9.28663
 20
79.37638299999997
 30
0.0
 11
-9.28663
 21
70.37638299999997
 31
0.0
  0
ARC
  5
2B5
330
36
100
AcDbEntity
  8
0
100
AcDbCircle
 10
-8.78663
 20
70.37638299999997
 30
0.0
 40
0.5
100
AcDbArc
 50
180.0
 51
0.0
  0
ARC
  5
2B6
330
36
100
AcDbEntity
  8
0
100
AcDbCircle
 10
-8.78663
 20
79.37638299999997
 30
0.0
 40
0.5
100
AcDbArc
 50
0.0
 51
180.0
  0
LINE
  5
2B7
330
36
100
AcDbEntity
  8
0
100
AcDbLine
 10
-10.28663
 20
94.37638300000001
 30
0.0
 11
-10.28663
 21
85.37638299999997
 31
0.0
  0
LINE
  5
2B8
330
36
100
AcDbEntity
  8
0
100
AcDbLine
 10
-11.28663
 20
94.37638300000001
 30
0.0
 11
-11.28663
 21
85.37638299999997
 31
0.0
  0
ARC
  5
2B9
330
36
100
AcDbEntity
  8
0
100
AcDbCircle
 10
-10.78663
 20
85.37638299999997
 30
0.0
 40
0.5
100
AcDbArc
 50
180.0
 51
0.0
  0
ARC
  5
2BA
330
36
100
AcDbEntity
  8
0
100
AcDbCircle
 10
-10.78663
 20
94.37638300000001
 30
0.0
 40
0.5
100
AcDbArc
 50
0.0
 51
180.0
  0
LINE
  5
2BB
330
36
100
AcDbEntity
  8
0
100
AcDbLine
 10
-10.28663
 20
79.37638299999997
 30
0.0
 11
-10.28663
 21
70.37638299999997
 31
0.0
  0
LINE
  5
2BC
330
36
100
AcDbEntity
  8
0
100
AcDbLine
 10
-11.28663
 20
79.37638299999997
 30
0.0
 11
-11.28663
 21
70.37638299999997
 31
0.0
  0
ARC
  5
2BD
330
36
100
AcDbEntity
  8
0
100
AcDbCircle
 10
-10.78663
 20
70.37638299999997
 30
0.0
 40
0.5
100
AcDbArc
 50
180.0
 51
0.0
  0
ARC
  5
2BE
330
36
100
AcDbEntity
  8
0
100
AcDbCircle
 10
-10.78663
 20
79.37638299999997
 30
0.0
 40
0.5
100
AcDbArc
 50
0.0
 51
180.0
  0
LINE
  5
2BF
330
36
100
AcDbEntity
  8
0
100
AcDbLine
 10
-12.28663
 20
94.37638300000001
 30
0.0
 11
-12.28663
 21
85.37638299999997
 31
0.0
  0
LINE
  5
2C0
330
36
100
AcDbEntity
  8
0
100
AcDbLine
 10
-13.28663
 20
94.37638300000001
 30
0.0
 11
-13.28663
 21
85.37638299999997
 31
0.0
  0
ARC
  5
2C1
330
36
100
AcDbEntity
  8
0
100
AcDbCircle
 10
-12.78663
 20
85.37638299999997
 30
0.0
 40
0.5
100
AcDbArc
 50
180.0
 51
0.0
  0
ARC
  5
2C2
330
36
100
AcDbEntity
  8
0
100
AcDbCircle
 10
-12.78663
 20
94.37638300000001
 30
0.0
 40
0.5
100
AcDbArc
 50
0.0
 51
180.0
  0
LINE
  5
2C3
330
36
100
AcDbEntity
  8
0
100
AcDbLine
 10
-12.28663
 20
79.37638299999997
 30
0.0
 11
-12.28663
 21
70.37638299999997
 31
0.0
  0
LINE
  5
2C4
330
36
100
AcDbEntity
  8
0
100
AcDbLine
 10
-13.28663
 20
79.37638299999997
 30
0.0
 11
-13.28663
 21
70.37638299999997
 31
0.0
  0
ARC
  5
2C5
330
36
100
AcDbEntity
  8
0
100
AcDbCircle
 10
-12.78663
 20
70.37638299999997
 30
0.0
 40
0.5
100
AcDbArc
 50
180.0
 51
0.0
  0
ARC
  5
2C6
330
36
100
AcDbEntity
  8
0
100
AcDbCircle
 10
-12.78663
 20
79.37638299999997
 30
0.0
 40
0.5
100
AcDbArc
 50
0.0
 51
180.0
  0
LINE
  5
2C7
330
36
100
AcDbEntity
  8
0
100
AcDbLine
 10
-14.28663
 20
94.37638300000001
 30
0.0
 11
-14.28663
 21
85.37638299999997
 31
0.0
  0
LINE
  5
2C8
330
36
100
AcDbEntity
  8
0
100
AcDbLine
 10
-15.28663
 20
94.37638300000001
 30
0.0
 11
-15.28663
 21
85.37638299999997
 31
0.0
  0
ARC
  5
2C9
330
36
100
AcDbEntity
  8
0
100
AcDbCircle
 10
-14.78663
 20
85.37638299999997
 30
0.0
 40
0.5
100
AcDbArc
 50
180.0
 51
0.0
  0
ARC
  5
2CA
330
36
100
AcDbEntity
  8
0
100
AcDbCircle
 10
-14.78663
 20
94.37638300000001
 30
0.0
 40
0.5
100
AcDbArc
 50
0.0
 51
180.0
  0
LINE
  5
2CB
330
36
100
AcDbEntity
  8
0
100
AcDbLine
 10
-14.28663
 20
79.37638299999997
 30
0.0
 11
-14.28663
 21
70.37638299999997
 31
0.0
  0
LINE
  5
2CC
330
36
100
AcDbEntity
  8
0
100
AcDbLine
 10
-15.28663
 20
79.37638299999997
 30
0.0
 11
-15.28663
 21
70.37638299999997
 31
0.0
  0
ARC
  5
2CD
330
36
100
AcDbEntity
  8
0
100
AcDbCircle
 10
-14.78663
 20
70.37638299999997
 30
0.0
 40
0.5
100
AcDbArc
 50
180.0
 51
0.0
  0
ARC
  5
2CE
330
36
100
AcDbEntity
  8
0
100
AcDbCircle
 10
-14.78663
 20
79.37638299999997
 30
0.0
 40
0.5
100
AcDbArc
 50
0.0
 51
180.0
  0
LINE
  5
2CF
330
36
100
AcDbEntity
  8
0
100
AcDbLine
 10
-16.28663
 20
94.37638300000001
 30
0.0
 11
-16.28663
 21
85.37638299999997
 31
0.0
  0
LINE
  5
2D0
330
36
100
AcDbEntity
  8
0
100
AcDbLine
 10
-17.28663
 20
94.37638300000001
 30
0.0
 11
-17.28663
 21
85.37638299999997
 31
0.0
  0
ARC
  5
2D1
330
36
100
AcDbEntity
  8
0
100
AcDbCircle
 10
-16.78663
 20
85.37638299999997
 30
0.0
 40
0.5
100
AcDbArc
 50
180.0
 51
0.0
  0
ARC
  5
2D2
330
36
100
AcDbEntity
  8
0
100
AcDbCircle
 10
-16.78663
 20
94.37638300000001
 30
0.0
 40
0.5
100
AcDbArc
 50
0.0
 51
180.0
  0
LINE
  5
2D3
330
36
100
AcDbEntity
  8
0
100
AcDbLine
 10
-16.28663
 20
79.37638299999997
 30
0.0
 11
-16.28663
 21
70.37638299999997
 31
0.0
  0
LINE
  5
2D4
330
36
100
AcDbEntity
  8
0
100
AcDbLine
 10
-17.28663
 20
79.37638299999997
 30
0.0
 11
-17.28663
 21
70.37638299999997
 31
0.0
  0
ARC
  5
2D5
330
36
100
AcDbEntity
  8
0
100
AcDbCircle
 10
-16.78663
 20
70.37638299999997
 30
0.0
 40
0.5
100
AcDbArc
 50
180.0
 51
0.0
  0
ARC
  5
2D6
330
36
100
AcDbEntity
  8
0
100
AcDbCircle
 10
-16.78663
 20
79.37638299999997
 30
0.0
 40
0.5
100
AcDbArc
 50
0.0
 51
180.0
  0
LINE
  5
2D7
330
36
100
AcDbEntity
  8
0
100
AcDbLine
 10
-18.28663
 20
94.37638300000001
 30
0.0
 11
-18.28663
 21
85.37638299999997
 31
0.0
  0
LINE
  5
2D8
330
36
100
AcDbEntity
  8
0
100
AcDbLine
 10
-19.28663
 20
94.37638300000001
 30
0.0
 11
-19.28663
 21
85.37638299999997
 31
0.0
  0
ARC
  5
2D9
330
36
100
AcDbEntity
  8
0
100
AcDbCircle
 10
-18.78663
 20
85.37638299999997
 30
0.0
 40
0.5
100
AcDbArc
 50
180.0
 51
0.0
  0
ARC
  5
2DA
330
36
100
AcDbEntity
  8
0
100
AcDbCircle
 10
-18.78663
 20
94.37638300000001
 30
0.0
 40
0.5
100
AcDbArc
 50
0.0
 51
180.0
  0
LINE
  5
2DB
330
36
100
AcDbEntity
  8
0
100
AcDbLine
 10
-18.28663
 20
79.37638299999997
 30
0.0
 11
-18.28663
 21
70.37638299999997
 31
0.0
  0
LINE
  5
2DC
330
36
100
AcDbEntity
  8
0
100
AcDbLine
 10
-19.28663
 20
79.37638299999997
 30
0.0
 11
-19.28663
 21
70.37638299999997
 31
0.0
  0
ARC
  5
2DD
330
36
100
AcDbEntity
  8
0
100
AcDbCircle
 10
-18.78663
 20
70.37638299999997
 30
0.0
 40
0.5
100
AcDbArc
 50
180.0
 51
0.0
  0
ARC
  5
2DE
330
36
100
AcDbEntity
  8
0
100
AcDbCircle
 10
-18.78663
 20
79.37638299999997
 30
0.0
 40
0.5
100
AcDbArc
 50
0.0
 51
180.0
  0
LINE
  5
2DF
330
36
100
AcDbEntity
  8
0
100
AcDbLine
 10
-20.28663
 20
94.37638300000001
 30
0.0
 11
-20.28663
 21
85.37638299999997
 31
0.0
  0
LINE
  5
2E0
330
36
100
AcDbEntity
  8
0
100
AcDbLine
 10
-21.28663
 20
94.37638300000001
 30
0.0
 11
-21.28663
 21
85.37638299999997
 31
0.0
  0
ARC
  5
2E1
330
36
100
AcDbEntity
  8
0
100
AcDbCircle
 10
-20.78663
 20
85.37638299999997
 30
0.0
 40
0.5
100
AcDbArc
 50
180.0
 51
0.0
  0
ARC
  5
2E2
330
36
100
AcDbEntity
  8
0
100
AcDbCircle
 10
-20.78663
 20
94.37638300000001
 30
0.0
 40
0.5
100
AcDbArc
 50
0.0
 51
180.0
  0
LINE
  5
2E3
330
36
100
AcDbEntity
  8
0
100
AcDbLine
 10
-20.28663
 20
79.37638299999997
 30
0.0
 11
-20.28663
 21
70.37638299999997
 31
0.0
  0
LINE
  5
2E4
330
36
100
AcDbEntity
  8
0
100
AcDbLine
 10
-21.28663
 20
79.37638299999997
 30
0.0
 11
-21.28663
 21
70.37638299999997
 31
0.0
  0
ARC
  5
2E5
330
36
100
AcDbEntity
  8
0
100
AcDbCircle
 10
-20.78663
 20
70.37638299999997
 30
0.0
 40
0.5
100
AcDbArc
 50
180.0
 51
0.0
  0
ARC
  5
2E6
330
36
100
AcDbEntity
  8
0
100
AcDbCircle
 10
-20.78663
 20
79.37638299999997
 30
0.0
 40
0.5
100
AcDbArc
 50
0.0
 51
180.0
  0
LINE
  5
2E7
330
36
100
AcDbEntity
  8
0
100
AcDbLine
 10
-22.28663
 20
94.37638300000001
 30
0.0
 11
-22.28663
 21
85.37638299999997
 31
0.0
  0
LINE
  5
2E8
330
36
100
AcDbEntity
  8
0
100
AcDbLine
 10
-23.28663
 20
94.37638300000001
 30
0.0
 11
-23.28663
 21
85.37638299999997
 31
0.0
  0
ARC
  5
2E9
330
36
100
AcDbEntity
  8
0
100
AcDbCircle
 10
-22.78663
 20
85.37638299999997
 30
0.0
 40
0.5
100
AcDbArc
 50
180.0
 51
0.0
  0
ARC
  5
2EA
330
36
100
AcDbEntity
  8
0
100
AcDbCircle
 10
-22.78663
 20
94.37638300000001
 30
0.0
 40
0.5
100
AcDbArc
 50
0.0
 51
180.0
  0
LINE
  5
2EB
330
36
100
AcDbEntity
  8
0
100
AcDbLine
 10
-22.28663
 20
79.37638299999997
 30
0.0
 11
-22.28663
 21
70.37638299999997
 31
0.0
  0
LINE
  5
2EC
330
36
100
AcDbEntity
  8
0
100
AcDbLine
 10
-23.28663
 20
79.37638299999997
 30
0.0
 11
-23.28663
 21
70.37638299999997
 31
0.0
  0
ARC
  5
2ED
330
36
100
AcDbEntity
  8
0
100
AcDbCircle
 10
-22.78663
 20
70.37638299999997
 30
0.0
 40
0.5
100
AcDbArc
 50
180.0
 51
0.0
  0
ARC
  5
2EE
330
36
100
AcDbEntity
  8
0
100
AcDbCircle
 10
-22.78663
 20
79.37638299999997
 30
0.0
 40
0.5
100
AcDbArc
 50
0.0
 51
180.0
  0
LINE
  5
2EF
330
36
100
AcDbEntity
  8
0
100
AcDbLine
 10
-24.28663
 20
94.37638300000001
 30
0.0
 11
-24.28663
 21
85.37638299999997
 31
0.0
  0
LINE
  5
2F0
330
36
100
AcDbEntity
  8
0
100
AcDbLine
 10
-25.28663
 20
94.37638300000001
 30
0.0
 11
-25.28663
 21
85.37638299999997
 31
0.0
  0
ARC
  5
2F1
330
36
100
AcDbEntity
  8
0
100
AcDbCircle
 10
-24.78663
 20
85.37638299999997
 30
0.0
 40
0.5
100
AcDbArc
 50
180.0
 51
0.0
  0
ARC
  5
2F2
330
36
100
AcDbEntity
  8
0
100
AcDbCircle
 10
-24.78663
 20
94.37638300000001
 30
0.0
 40
0.5
100
AcDbArc
 50
0.0
 51
180.0
  0
LINE
  5
2F3
330
36
100
AcDbEntity
  8
0
100
AcDbLine
 10
-24.28663
 20
79.37638299999997
 30
0.0
 11
-24.28663
 21
70.37638299999997
 31
0.0
  0
LINE
  5
2F4
330
36
100
AcDbEntity
  8
0
100
AcDbLine
 10
-25.28663
 20
79.37638299999997
 30
0.0
 11
-25.28663
 21
70.37638299999997
 31
0.0
  0
ARC
  5
2F5
330
36
100
AcDbEntity
  8
0
100
AcDbCircle
 10
-24.78663
 20
70.37638299999997
 30
0.0
 40
0.5
100
AcDbArc
 50
180.0
 51
0.0
  0
ARC
  5
2F6
330
36
100
AcDbEntity
  8
0
100
AcDbCircle
 10
-24.78663
 20
79.37638299999997
 30
0.0
 40
0.5
100
AcDbArc
 50
0.0
 51
180.0
  0
LINE
  5
2F7
330
36
100
AcDbEntity
  8
0
100
AcDbLine
 10
-26.28663
 20
94.37638300000001
 30
0.0
 11
-26.28663
 21
85.37638299999997
 31
0.0
  0
LINE
  5
2F8
330
36
100
AcDbEntity
  8
0
100
AcDbLine
 10
-27.28663
 20
94.37638300000001
 30
0.0
 11
-27.28663
 21
85.37638299999997
 31
0.0
  0
ARC
  5
2F9
330
36
100
AcDbEntity
  8
0
100
AcDbCircle
 10
-26.78663
 20
85.37638299999997
 30
0.0
 40
0.5
100
AcDbArc
 50
180.0
 51
0.0
  0
ARC
  5
2FA
330
36
100
AcDbEntity
  8
0
100
AcDbCircle
 10
-26.78663
 20
94.37638300000001
 30
0.0
 40
0.5
100
AcDbArc
 50
0.0
 51
180.0
  0
LINE
  5
2FB
330
36
100
AcDbEntity
  8
0
100
AcDbLine
 10
-26.28663
 20
79.37638299999997
 30
0.0
 11
-26.28663
 21
70.37638299999997
 31
0.0
  0
LINE
  5
2FC
330
36
100
AcDbEntity
  8
0
100
AcDbLine
 10
-27.28663
 20
79.37638299999997
 30
0.0
 11
-27.28663
 21
70.37638299999997
 31
0.0
  0
ARC
  5
2FD
330
36
100
AcDbEntity
  8
0
100
AcDbCircle
 10
-26.78663
 20
70.37638299999997
 30
0.0
 40
0.5
100
AcDbArc
 50
180.0
 51
0.0
  0
ARC
  5
2FE
330
36
100
AcDbEntity
  8
0
100
AcDbCircle
 10
-26.78663
 20
79.37638299999997
 30
0.0
 40
0.5
100
AcDbArc
 50
0.0
 51
180.0
  0
LINE
  5
2FF
330
36
100
AcDbEntity
  8
0
100
AcDbLine
 10
-29.28663
 20
94.37638300000001
 30
0.0
 11
-29.28663
 21
85.37638299999997
 31
0.0
  0
ARC
  5
300
330
36
100
AcDbEntity
  8
0
100
AcDbCircle
 10
-28.78663
 20
85.37638299999997
 30
0.0
 40
0.5
100
AcDbArc
 50
180.0
 51
0.0
  0
ARC
  5
301
330
36
100
AcDbEntity
  8
0
100
AcDbCircle
 10
-28.78663
 20
94.37638300000001
 30
0.0
 40
0.5
100
AcDbArc
 50
0.0
 51
180.0
  0
LINE
  5
302
330
36
100
AcDbEntity
  8
0
100
AcDbLine
 10
-28.28663
 20
79.37638299999997
 30
0.0
 11
-28.28663
 21
70.37638299999997
 31
0.0
  0
LINE
  5
303
330
36
100
AcDbEntity
  8
0
100
AcDbLine
 10
-29.28663
 20
79.37638299999997
 30
0.0
 11
-29.28663
 21
70.37638299999997
 31
0.0
  0
ARC
  5
304
330
36
100
AcDbEntity
  8
0
100
AcDbCircle
 10
-28.78663
 20
70.37638299999997
 30
0.0
 40
0.5
100
AcDbArc
 50
180.0
 51
0.0
  0
ARC
  5
305
330
36
100
AcDbEntity
  8
0
100
AcDbCircle
 10
-28.78663
 20
79.37638299999997
 30
0.0
 40
0.5
100
AcDbArc
 50
0.0
 51
180.0
  0
LINE
  5
306
330
36
100
AcDbEntity
  8
0
100
AcDbLine
 10
-28.28663
 20
94.37638300000001
 30
0.0
 11
-28.28663
 21
85.37638299999997
 31
0.0
  0
LINE
  5
307
330
36
100
AcDbEntity
  8
0
100
AcDbLine
 10
-175.024729
 20
21.658046
 30
0.0
 11
-172.529628
 21
101.345087
 31
0.0
  0
ARC
  5
308
330
36
100
AcDbEntity
  8
0
100
AcDbCircle
 10
-163.529138
 20
101.376383
 30
0.0
 40
9.0
100
AcDbArc
 50
90.0
 51
180.0
  0
ARC
  5
309
330
36
100
AcDbEntity
  8
0
100
AcDbCircle
 10
-166.029138
 20
21.376383
 30
0.0
 40
9.0
100
AcDbArc
 50
180.0
 51
270.0
  0
LINE
  5
30A
330
36
100
AcDbEntity
  8
0
100
AcDbLine
 10
-166.029138
 20
12.376383
 30
0.0
 11
-121.029138
 21
12.376383
 31
0.0
  0
ARC
  5
30B
330
36
100
AcDbEntity
  8
0
100
AcDbCircle
 10
-121.029138
 20
21.376383
 30
0.0
 40
9.0
100
AcDbArc
 50
270.0
 51
0.0
  0
LINE
  5
30C
330
36
100
AcDbEntity
  8
0
100
AcDbLine
 10
-112.02865
 20
21.345148
 30
0.0
 11
-114.52865
 21
101.345148
 31
0.0
  0
LINE
  5
30D
330
36
100
AcDbEntity
  8
0
100
AcDbLine
 10
-163.529138
 20
110.376383
 30
0.0
 11
-123.529138
 21
110.376383
 31
0.0
  0
CIRCLE
  5
31E
330
36
100
AcDbEntity
  8
0
100
AcDbCircle
 10
-143.684248
 20
55.70604799999999
 30
0.0
 40
1.5
  0
CIRCLE
  5
31F
330
36
100
AcDbEntity
  8
0
100
AcDbCircle
 10
-143.593624
 20
23.366508
 30
0.0
 40
1.5
  0
CIRCLE
  5
320
330
36
100
AcDbEntity
  8
0
100
AcDbCircle
 10
-126.801533
 20
95.122405
 30
0.0
 40
2.375
  0
LINE
  5
321
330
36
100
AcDbEntity
  8
0
100
AcDbLine
 10
111.8124738479343
 20
130.2157226719112
 30
0.0
 11
139.6212515070215
 21
130.2157226719112
 31
0.0
  0
LINE
  5
322
330
36
100
AcDbEntity
  8
0
100
AcDbLine
 10
115.0162479901907
 20
122.2250175060242
 30
0.0
 11
138.866838525254
 21
122.2250175060242
 31
0.0
  0
CIRCLE
  5
323
330
36
100
AcDbEntity
  8
0
100
AcDbCircle
 10
76.96336999999998
 20
28.876383
 30
0.0
 40
2.0
  0
CIRCLE
  5
324
330
36
100
AcDbEntity
  8
0
100
AcDbCircle
 10
76.96336999999998
 20
33.87638300000001
 30
0.0
 40
2.0
  0
CIRCLE
  5
325
330
36
100
AcDbEntity
  8
0
100
AcDbCircle
 10
-50.28663
 20
33.87638300000001
 30
0.0
 40
2.0
  0
CIRCLE
  5
326
330
36
100
AcDbEntity
  8
0
100
AcDbCircle
 10
-50.28663
 20
28.876383
 30
0.0
 40
2.0
  0
LINE
  5
327
330
36
100
AcDbEntity
  8
0
100
AcDbLine
 10
-153.415852
 20
14.781032
 30
0.0
 11
-153.415852
 21
12.88868
 31
0.0
  0
LINE
  5
328
330
36
100
AcDbEntity
  8
0
100
AcDbLine
 10
-153.415852
 20
12.88868
 30
0.0
 11
-152.366041
 21
14.656891
 31
0.0
  0
LINE
  5
329
330
36
100
AcDbEntity
  8
0
100
AcDbLine
 10
-153.415852
 20
14.781032
 30
0.0
 11
-154.473304
 21
13.047498
 31
0.0
  0
ARC
  5
32A
330
36
100
AcDbEntity
  8
0
100
AcDbCircle
 10
-123.529138
 20
101.376383
 30
0.0
 40
9.0
100
AcDbArc
 50
0.0
 51
90.0
  0
LINE
  5
35B
330
36
100
AcDbEntity
  8
0
100
AcDbLine
 10
-140.593624
 20
32.616508
 30
0.0
 11
-146.593624
 21
32.616508
 31
0.0
  0
LINE
  5
35C
330
36
100
AcDbEntity
  8
0
100
AcDbLine
 10
-140.593624
 20
45.116508
 30
0.0
 11
-141.968624
 21
45.116508
 31
0.0
  0
LINE
  5
35D
330
36
100
AcDbEntity
  8
0
100
AcDbLine
 10
-145.218624
 20
45.116508
 30
0.0
 11
-146.593624
 21
45.116508
 31
0.0
  0
LINE
  5
35E
330
36
100
AcDbEntity
  8
0
100
AcDbLine
 10
-141.968624
 20
45.866508
 30
0.0
 11
-141.968624
 21
35.116508
 31
0.0
  0
LINE
  5
35F
330
36
100
AcDbEntity
  8
0
100
AcDbLine
 10
-145.218624
 20
45.866508
 30
0.0
 11
-145.218624
 21
35.116508
 31
0.0
  0
LINE
  5
360
330
36
100
AcDbEntity
  8
0
100
AcDbLine
 10
-141.968624
 20
35.116508
 30
0.0
 11
-145.218624
 21
35.116508
 31
0.0
  0
LINE
  5
361
330
36
100
AcDbEntity
  8
0
100
AcDbLine
 10
-141.718624
 20
41.366508
 30
0.0
 11
-141.968624
 21
41.366508
 31
0.0
  0
LINE
  5
362
330
36
100
AcDbEntity
  8
0
100
AcDbLine
 10
-145.218624
 20
41.366508
 30
0.0
 11
-145.468624
 21
41.366508
 31
0.0
  0
LINE
  5
363
330
36
100
AcDbEntity
  8
0
100
AcDbLine
 10
-141.718624
 20
34.866508
 30
0.0
 11
-141.968624
 21
35.116508
 31
0.0
  0
TEXT
  5
364
330
36
100
AcDbEntity
  8
0
100
AcDbText
 10
-133.518679
 20
37.274668
 30
0.0
 40
3.839999999999998
  1
100V
 41
1.090908999999999
100
AcDbText
  0
TEXT
  5
365
330
36
100
AcDbEntity
  8
0
100
AcDbText
 10
-168.359597
 20
37.274668
 30
0.0
 40
3.839999999999998
  1
100V
 41
1.090908999999999
100
AcDbText
  0
LINE
  5
366
330
36
100
AcDbEntity
  8
0
 62
     3
100
AcDbLine
 10
-145.570597
 20
111.376383
 30
0.0
 11
-141.487679
 21
111.376383
 31
0.0
  0
LINE
  5
367
330
36
100
AcDbEntity
  8
0
 62
     3
100
AcDbLine
 10
-121.207312
 20
22.376383
 30
0.0
 11
-130.850963
 21
22.376383
 31
0.0
  0
ARC
  5
368
330
36
100
AcDbEntity
  8
0
 62
     3
100
AcDbCircle
 10
-126.029138
 20
29.376383
 30
0.0
 40
8.5
100
AcDbArc
 50
124.560322
 51
235.439678
  0
LINE
  5
369
330
36
100
AcDbEntity
  8
0
 62
     3
100
AcDbLine
 10
-156.207312
 20
22.376383
 30
0.0
 11
-165.850963
 21
22.376383
 31
0.0
  0
ARC
  5
36A
330
36
100
AcDbEntity
  8
0
 62
     3
100
AcDbCircle
 10
-161.029138
 20
29.376383
 30
0.0
 40
8.5
100
AcDbArc
 50
304.560322
 51
55.439678
  0
ARC
  5
36B
330
36
100
AcDbEntity
  8
0
 62
     3
100
AcDbCircle
 10
-161.029138
 20
29.376383
 30
0.0
 40
8.5
100
AcDbArc
 50
124.560322
 51
235.439678
  0
LINE
  5
36C
330
36
100
AcDbEntity
  8
0
 62
     3
100
AcDbLine
 10
-156.207312
 20
36.37638300000001
 30
0.0
 11
-165.850963
 21
36.37638300000001
 31
0.0
  0
LINE
  5
36D
330
36
100
AcDbEntity
  8
0
 62
     3
100
AcDbLine
 10
-156.207312
 20
41.876383
 30
0.0
 11
-165.850963
 21
41.876383
 31
0.0
  0
ARC
  5
36E
330
36
100
AcDbEntity
  8
0
 62
     3
100
AcDbCircle
 10
-161.029138
 20
48.876383
 30
0.0
 40
8.5
100
AcDbArc
 50
124.560322
 51
235.439678
  0
LINE
  5
36F
330
36
100
AcDbEntity
  8
0
 62
     3
100
AcDbLine
 10
-156.207312
 20
55.876383
 30
0.0
 11
-165.850963
 21
55.876383
 31
0.0
  0
ARC
  5
370
330
36
100
AcDbEntity
  8
0
 62
     3
100
AcDbCircle
 10
-161.029138
 20
48.876383
 30
0.0
 40
8.5
100
AcDbArc
 50
304.560322
 51
55.439678
  0
ARC
  5
371
330
36
100
AcDbEntity
  8
0
 62
     3
100
AcDbCircle
 10
-126.029138
 20
48.876383
 30
0.0
 40
8.5
100
AcDbArc
 50
124.560322
 51
235.439678
  0
LINE
  5
372
330
36
100
AcDbEntity
  8
0
 62
     3
100
AcDbLine
 10
-121.207312
 20
55.876383
 30
0.0
 11
-130.850963
 21
55.876383
 31
0.0
  0
ARC
  5
373
330
36
100
AcDbEntity
  8
0
 62
     3
100
AcDbCircle
 10
-126.029138
 20
48.876383
 30
0.0
 40
8.5
100
AcDbArc
 50
304.560322
 51
55.439678
  0
LINE
  5
374
330
36
100
AcDbEntity
  8
0
 62
     3
100
AcDbLine
 10
-121.207312
 20
41.876383
 30
0.0
 11
-130.850963
 21
41.876383
 31
0.0
  0
LINE
  5
375
330
36
100
AcDbEntity
  8
0
 62
     3
100
AcDbLine
 10
-121.207312
 20
36.37638300000001
 30
0.0
 11
-130.850963
 21
36.37638300000001
 31
0.0
  0
ARC
  5
37A
330
36
100
AcDbEntity
  8
0
 62
     3
100
AcDbCircle
 10
-126.029138
 20
29.376383
 30
0.0
 40
8.5
100
AcDbArc
 50
304.560322
 51
55.439678
  0
LINE
  5
37B
330
36
100
AcDbEntity
  8
0
100
AcDbLine
 10
-123.729138
 20
34.526383
 30
0.0
 11
-121.479138
 21
34.526383
 31
0.0
  0
ARC
  5
37C
330
36
100
AcDbEntity
  8
0
100
AcDbCircle
 10
-123.729138
 20
34.026383
 30
0.0
 40
0.5
100
AcDbArc
 50
90.0
 51
180.0
  0
LINE
  5
37D
330
36
100
AcDbEntity
  8
0
100
AcDbLine
 10
-120.979138
 20
34.026383
 30
0.0
 11
-120.979138
 21
27.876383
 31
0.0
  0
ARC
  5
37E
330
36
100
AcDbEntity
  8
0
100
AcDbCircle
 10
-121.479138
 20
27.876383
 30
0.0
 40
0.5
100
AcDbArc
 50
270.0
 51
0.0
  0
ARC
  5
37F
330
36
100
AcDbEntity
  8
0
100
AcDbCircle
 10
-130.579138
 20
28.301383
 30
0.0
 40
0.5
100
AcDbArc
 50
180.0
 51
270.0
  0
LINE
  5
380
330
36
100
AcDbEntity
  8
0
100
AcDbLine
 10
-131.079138
 20
33.601383
 30
0.0
 11
-131.079138
 21
28.301383
 31
0.0
  0
ARC
  5
381
330
36
100
AcDbEntity
  8
0
100
AcDbCircle
 10
-130.579138
 20
33.601383
 30
0.0
 40
0.5
100
AcDbArc
 50
90.0
 51
180.0
  0
LINE
  5
382
330
36
100
AcDbEntity
  8
0
100
AcDbLine
 10
-130.579138
 20
34.101383
 30
0.0
 11
-128.329138
 21
34.101383
 31
0.0
  0
ARC
  5
383
330
36
100
AcDbEntity
  8
0
100
AcDbCircle
 10
-128.329138
 20
33.601383
 30
0.0
 40
0.5
100
AcDbArc
 50
0.0
 51
90.0
  0
ARC
  5
384
330
36
100
AcDbEntity
  8
0
100
AcDbCircle
 10
-127.379138
 20
23.451383
 30
0.0
 40
0.5
100
AcDbArc
 50
180.0
 51
270.0
  0
LINE
  5
385
330
36
100
AcDbEntity
  8
0
100
AcDbLine
 10
-127.379138
 20
22.951383
 30
0.0
 11
-126.779138
 21
22.951383
 31
0.0
  0
LINE
  5
386
330
36
100
AcDbEntity
  8
0
100
AcDbLine
 10
-125.279138
 20
22.951383
 30
0.0
 11
-126.779138
 21
22.951383
 31
0.0
  0
LINE
  5
387
330
36
100
AcDbEntity
  8
0
100
AcDbLine
 10
-125.279138
 20
22.951383
 30
0.0
 11
-124.679138
 21
22.951383
 31
0.0
  0
ARC
  5
388
330
36
100
AcDbEntity
  8
0
100
AcDbCircle
 10
-124.679138
 20
23.451383
 30
0.0
 40
0.5
100
AcDbArc
 50
270.0
 51
0.0
  0
LINE
  5
389
330
36
100
AcDbEntity
  8
0
100
AcDbLine
 10
-120.979138
 20
53.52638299999998
 30
0.0
 11
-120.979138
 21
47.376383
 31
0.0
  0
ARC
  5
38A
330
36
100
AcDbEntity
  8
0
100
AcDbCircle
 10
-121.479138
 20
47.376383
 30
0.0
 40
0.5
100
AcDbArc
 50
270.0
 51
0.0
  0
LINE
  5
38B
330
36
100
AcDbEntity
  8
0
100
AcDbLine
 10
-131.079138
 20
53.101383
 30
0.0
 11
-131.079138
 21
47.80138299999999
 31
0.0
  0
ARC
  5
38C
330
36
100
AcDbEntity
  8
0
100
AcDbCircle
 10
-127.379138
 20
42.951383
 30
0.0
 40
0.5
100
AcDbArc
 50
180.0
 51
270.0
  0
LINE
  5
38D
330
36
100
AcDbEntity
  8
0
100
AcDbLine
 10
-127.379138
 20
42.45138299999999
 30
0.0
 11
-126.779138
 21
42.45138299999999
 31
0.0
  0
LINE
  5
38E
330
36
100
AcDbEntity
  8
0
100
AcDbLine
 10
-125.279138
 20
42.45138299999999
 30
0.0
 11
-124.679138
 21
42.45138299999999
 31
0.0
  0
LINE
  5
38F
330
36
100
AcDbEntity
  8
0
100
AcDbLine
 10
-125.279138
 20
42.45138299999999
 30
0.0
 11
-126.779138
 21
42.45138299999999
 31
0.0
  0
ARC
  5
390
330
36
100
AcDbEntity
  8
0
100
AcDbCircle
 10
-124.679138
 20
42.951383
 30
0.0
 40
0.5
100
AcDbArc
 50
270.0
 51
0.0
  0
LINE
  5
391
330
36
100
AcDbEntity
  8
0
100
AcDbLine
 10
-123.729138
 20
54.02638299999999
 30
0.0
 11
-121.479138
 21
54.02638299999999
 31
0.0
  0
ARC
  5
392
330
36
100
AcDbEntity
  8
0
100
AcDbCircle
 10
-121.479138
 20
53.52638299999998
 30
0.0
 40
0.5
100
AcDbArc
 50
0.0
 51
90.0
  0
ARC
  5
393
330
36
100
AcDbEntity
  8
0
100
AcDbCircle
 10
-123.729138
 20
53.52638299999998
 30
0.0
 40
0.5
100
AcDbArc
 50
90.0
 51
180.0
  0
ARC
  5
394
330
36
100
AcDbEntity
  8
0
100
AcDbCircle
 10
-130.579138
 20
53.101383
 30
0.0
 40
0.5
100
AcDbArc
 50
90.0
 51
180.0
  0
LINE
  5
395
330
36
100
AcDbEntity
  8
0
100
AcDbLine
 10
-130.579138
 20
53.601383
 30
0.0
 11
-128.329138
 21
53.601383
 31
0.0
  0
ARC
  5
396
330
36
100
AcDbEntity
  8
0
100
AcDbCircle
 10
-128.329138
 20
53.101383
 30
0.0
 40
0.5
100
AcDbArc
 50
0.0
 51
90.0
  0
ARC
  5
397
330
36
100
AcDbEntity
  8
0
100
AcDbCircle
 10
-156.4791379999999
 20
34.026383
 30
0.0
 40
0.5
100
AcDbArc
 50
0.0
 51
90.0
  0
LINE
  5
398
330
36
100
AcDbEntity
  8
0
100
AcDbLine
 10
-158.729138
 20
34.526383
 30
0.0
 11
-156.4791379999999
 21
34.526383
 31
0.0
  0
ARC
  5
399
330
36
100
AcDbEntity
  8
0
100
AcDbCircle
 10
-158.729138
 20
34.026383
 30
0.0
 40
0.5
100
AcDbArc
 50
90.0
 51
180.0
  0
LINE
  5
39A
330
36
100
AcDbEntity
  8
0
100
AcDbLine
 10
-155.979138
 20
34.026383
 30
0.0
 11
-155.979138
 21
27.876383
 31
0.0
  0
ARC
  5
39B
330
36
100
AcDbEntity
  8
0
100
AcDbCircle
 10
-156.4791379999999
 20
27.876383
 30
0.0
 40
0.5
100
AcDbArc
 50
270.0
 51
0.0
  0
ARC
  5
39C
330
36
100
AcDbEntity
  8
0
100
AcDbCircle
 10
-165.579138
 20
28.301383
 30
0.0
 40
0.5
100
AcDbArc
 50
180.0
 51
270.0
  0
LINE
  5
39D
330
36
100
AcDbEntity
  8
0
100
AcDbLine
 10
-166.079138
 20
33.601383
 30
0.0
 11
-166.079138
 21
28.301383
 31
0.0
  0
ARC
  5
39E
330
36
100
AcDbEntity
  8
0
100
AcDbCircle
 10
-165.579138
 20
33.601383
 30
0.0
 40
0.5
100
AcDbArc
 50
90.0
 51
180.0
  0
LINE
  5
39F
330
36
100
AcDbEntity
  8
0
100
AcDbLine
 10
-165.579138
 20
34.101383
 30
0.0
 11
-163.329138
 21
34.101383
 31
0.0
  0
ARC
  5
3A0
330
36
100
AcDbEntity
  8
0
100
AcDbCircle
 10
-163.329138
 20
33.601383
 30
0.0
 40
0.5
100
AcDbArc
 50
0.0
 51
90.0
  0
ARC
  5
3A1
330
36
100
AcDbEntity
  8
0
100
AcDbCircle
 10
-162.379138
 20
23.451383
 30
0.0
 40
0.5
100
AcDbArc
 50
180.0
 51
270.0
  0
LINE
  5
3A2
330
36
100
AcDbEntity
  8
0
100
AcDbLine
 10
-162.379138
 20
22.951383
 30
0.0
 11
-161.779138
 21
22.951383
 31
0.0
  0
LINE
  5
3A3
330
36
100
AcDbEntity
  8
0
100
AcDbLine
 10
-160.279138
 20
22.951383
 30
0.0
 11
-161.779138
 21
22.951383
 31
0.0
  0
LINE
  5
3A4
330
36
100
AcDbEntity
  8
0
100
AcDbLine
 10
-160.279138
 20
22.951383
 30
0.0
 11
-159.679138
 21
22.951383
 31
0.0
  0
ARC
  5
3A5
330
36
100
AcDbEntity
  8
0
100
AcDbCircle
 10
-159.679138
 20
23.451383
 30
0.0
 40
0.5
100
AcDbArc
 50
270.0
 51
0.0
  0
LINE
  5
3A6
330
36
100
AcDbEntity
  8
0
100
AcDbLine
 10
-155.979138
 20
53.52638299999998
 30
0.0
 11
-155.979138
 21
47.376383
 31
0.0
  0
ARC
  5
3A7
330
36
100
AcDbEntity
  8
0
100
AcDbCircle
 10
-156.4791379999999
 20
47.376383
 30
0.0
 40
0.5
100
AcDbArc
 50
270.0
 51
0.0
  0
ARC
  5
3A8
330
36
100
AcDbEntity
  8
0
100
AcDbCircle
 10
-165.579138
 20
47.80138299999999
 30
0.0
 40
0.5
100
AcDbArc
 50
180.0
 51
270.0
  0
LINE
  5
3A9
330
36
100
AcDbEntity
  8
0
100
AcDbLine
 10
-166.079138
 20
53.101383
 30
0.0
 11
-166.079138
 21
47.80138299999999
 31
0.0
  0
LINE
  5
3AA
330
36
100
AcDbEntity
  8
0
100
AcDbLine
 10
-162.379138
 20
42.45138299999999
 30
0.0
 11
-161.779138
 21
42.45138299999999
 31
0.0
  0
LINE
  5
3AB
330
36
100
AcDbEntity
  8
0
100
AcDbLine
 10
-160.279138
 20
42.45138299999999
 30
0.0
 11
-159.679138
 21
42.45138299999999
 31
0.0
  0
LINE
  5
3AC
330
36
100
AcDbEntity
  8
0
100
AcDbLine
 10
-160.279138
 20
42.45138299999999
 30
0.0
 11
-161.779138
 21
42.45138299999999
 31
0.0
  0
LINE
  5
3AD
330
36
100
AcDbEntity
  8
0
100
AcDbLine
 10
-158.729138
 20
54.02638299999999
 30
0.0
 11
-156.4791379999999
 21
54.02638299999999
 31
0.0
  0
ARC
  5
3AE
330
36
100
AcDbEntity
  8
0
100
AcDbCircle
 10
-156.4791379999999
 20
53.52638299999998
 30
0.0
 40
0.5
100
AcDbArc
 50
0.0
 51
90.0
  0
ARC
  5
3AF
330
36
100
AcDbEntity
  8
0
100
AcDbCircle
 10
-158.729138
 20
53.52638299999998
 30
0.0
 40
0.5
100
AcDbArc
 50
90.0
 51
180.0
  0
ARC
  5
3B0
330
36
100
AcDbEntity
  8
0
100
AcDbCircle
 10
-165.579138
 20
53.101383
 30
0.0
 40
0.5
100
AcDbArc
 50
90.0
 51
180.0
  0
LINE
  5
3B1
330
36
100
AcDbEntity
  8
0
100
AcDbLine
 10
-165.579138
 20
53.601383
 30
0.0
 11
-163.329138
 21
53.601383
 31
0.0
  0
LINE
  5
3B2
330
36
100
AcDbEntity
  8
0
100
AcDbLine
 10
-158.029138
 20
14.626383
 30
0.0
 11
-164.029138
 21
14.626383
 31
0.0
  0
LINE
  5
3B3
330
36
100
AcDbEntity
  8
0
100
AcDbLine
 10
-164.029138
 20
14.626383
 30
0.0
 11
-164.029138
 21
15.526383
 31
0.0
  0
LINE
  5
3B4
330
36
100
AcDbEntity
  8
0
100
AcDbLine
 10
-158.029138
 20
15.526383
 30
0.0
 11
-164.029138
 21
15.526383
 31
0.0
  0
LINE
  5
3B5
330
36
100
AcDbEntity
  8
0
100
AcDbLine
 10
-158.029138
 20
14.710094
 30
0.0
 11
-158.029138
 21
15.526383
 31
0.0
  0
LINE
  5
3B6
330
36
100
AcDbEntity
  8
0
100
AcDbLine
 10
-123.029138
 20
15.526383
 30
0.0
 11
-129.029138
 21
15.526383
 31
0.0
  0
LINE
  5
3B7
330
36
100
AcDbEntity
  8
0
100
AcDbLine
 10
-123.029138
 20
14.626383
 30
0.0
 11
-129.029138
 21
14.626383
 31
0.0
  0
ARC
  5
3B8
330
36
100
AcDbEntity
  8
0
100
AcDbCircle
 10
-121.479138
 20
34.026383
 30
0.0
 40
0.5
100
AcDbArc
 50
0.0
 51
90.0
  0
LINE
  5
3B9
330
36
100
AcDbEntity
  8
0
100
AcDbLine
 10
-128.729138
 20
33.12638300000001
 30
0.0
 11
-128.729138
 21
28.776383
 31
0.0
  0
LINE
  5
3BA
330
36
100
AcDbEntity
  8
0
100
AcDbLine
 10
-129.679138
 20
33.12638300000001
 30
0.0
 11
-129.679138
 21
28.776383
 31
0.0
  0
LINE
  5
3BB
330
36
100
AcDbEntity
  8
0
100
AcDbLine
 10
-128.729138
 20
33.12638300000001
 30
0.0
 11
-129.679138
 21
33.12638300000001
 31
0.0
  0
LINE
  5
3BC
330
36
100
AcDbEntity
  8
0
100
AcDbLine
 10
-128.729138
 20
28.776383
 30
0.0
 11
-129.679138
 21
28.776383
 31
0.0
  0
LINE
  5
3BD
330
36
100
AcDbEntity
  8
0
100
AcDbLine
 10
-126.779138
 20
24.051383
 30
0.0
 11
-126.779138
 21
25.336374
 31
0.0
  0
ARC
  5
3BE
330
36
100
AcDbEntity
  8
0
100
AcDbCircle
 10
-126.029138
 20
25.186568
 30
0.0
 40
0.764815
100
AcDbArc
 50
11.295648
 51
168.704352
  0
LINE
  5
3BF
330
36
100
AcDbEntity
  8
0
100
AcDbLine
 10
-125.279138
 20
24.051383
 30
0.0
 11
-125.279138
 21
25.336374
 31
0.0
  0
LINE
  5
3C0
330
36
100
AcDbEntity
  8
0
100
AcDbLine
 10
-126.779138
 20
24.051383
 30
0.0
 11
-125.279138
 21
24.051383
 31
0.0
  0
LINE
  5
3C1
330
36
100
AcDbEntity
  8
0
100
AcDbLine
 10
-122.3791379999999
 20
32.701383
 30
0.0
 11
-123.329138
 21
32.701383
 31
0.0
  0
LINE
  5
3C2
330
36
100
AcDbEntity
  8
0
100
AcDbLine
 10
-122.3791379999999
 20
32.701383
 30
0.0
 11
-122.3791379999999
 21
29.201383
 31
0.0
  0
LINE
  5
3C3
330
36
100
AcDbEntity
  8
0
100
AcDbLine
 10
-123.329138
 20
32.701383
 30
0.0
 11
-123.329138
 21
29.201383
 31
0.0
  0
LINE
  5
3C4
330
36
100
AcDbEntity
  8
0
100
AcDbLine
 10
-122.3791379999999
 20
29.201383
 30
0.0
 11
-123.329138
 21
29.201383
 31
0.0
  0
LINE
  5
3C5
330
36
100
AcDbEntity
  8
0
100
AcDbLine
 10
-124.229138
 20
34.026383
 30
0.0
 11
-124.229138
 21
27.876383
 31
0.0
  0
LINE
  5
3C6
330
36
100
AcDbEntity
  8
0
100
AcDbLine
 10
-123.729138
 20
27.376383
 30
0.0
 11
-121.479138
 21
27.376383
 31
0.0
  0
ARC
  5
3C7
330
36
100
AcDbEntity
  8
0
100
AcDbCircle
 10
-123.729138
 20
27.876383
 30
0.0
 40
0.5
100
AcDbArc
 50
180.0
 51
270.0
  0
ARC
  5
3C8
330
36
100
AcDbEntity
  8
0
100
AcDbCircle
 10
-128.329138
 20
28.301383
 30
0.0
 40
0.5
100
AcDbArc
 50
270.0
 51
0.0
  0
LINE
  5
3C9
330
36
100
AcDbEntity
  8
0
100
AcDbLine
 10
-130.579138
 20
27.801383
 30
0.0
 11
-128.329138
 21
27.801383
 31
0.0
  0
LINE
  5
3CA
330
36
100
AcDbEntity
  8
0
100
AcDbLine
 10
-127.829138
 20
33.601383
 30
0.0
 11
-127.829138
 21
28.301383
 31
0.0
  0
LINE
  5
3CB
330
36
100
AcDbEntity
  8
0
100
AcDbLine
 10
-124.179138
 20
23.451383
 30
0.0
 11
-124.179138
 21
25.371754
 31
0.0
  0
ARC
  5
3CC
330
36
100
AcDbEntity
  8
0
100
AcDbCircle
 10
-126.029138
 20
25.186568
 30
0.0
 40
1.864815
100
AcDbArc
 50
9.147842999999999
 51
171.550276
  0
LINE
  5
3CD
330
36
100
AcDbEntity
  8
0
100
AcDbLine
 10
-127.879138
 20
23.451383
 30
0.0
 11
-127.879138
 21
25.387116
 31
0.0
  0
ARC
  5
3CE
330
36
100
AcDbEntity
  8
0
100
AcDbCircle
 10
-126.029138
 20
44.686568
 30
0.0
 40
0.764815
100
AcDbArc
 50
11.295648
 51
168.704352
  0
LINE
  5
3CF
330
36
100
AcDbEntity
  8
0
100
AcDbLine
 10
-122.3791379999999
 20
52.201383
 30
0.0
 11
-122.3791379999999
 21
48.701383
 31
0.0
  0
LINE
  5
3D0
330
36
100
AcDbEntity
  8
0
100
AcDbLine
 10
-123.329138
 20
52.201383
 30
0.0
 11
-123.329138
 21
48.701383
 31
0.0
  0
LINE
  5
3D1
330
36
100
AcDbEntity
  8
0
100
AcDbLine
 10
-122.3791379999999
 20
48.701383
 30
0.0
 11
-123.329138
 21
48.701383
 31
0.0
  0
LINE
  5
3D2
330
36
100
AcDbEntity
  8
0
100
AcDbLine
 10
-128.729138
 20
48.276383
 30
0.0
 11
-129.679138
 21
48.276383
 31
0.0
  0
LINE
  5
3D3
330
36
100
AcDbEntity
  8
0
100
AcDbLine
 10
-128.729138
 20
52.62638299999998
 30
0.0
 11
-128.729138
 21
48.276383
 31
0.0
  0
LINE
  5
3D4
330
36
100
AcDbEntity
  8
0
100
AcDbLine
 10
-129.679138
 20
52.62638299999998
 30
0.0
 11
-129.679138
 21
48.276383
 31
0.0
  0
LINE
  5
3D5
330
36
100
AcDbEntity
  8
0
100
AcDbLine
 10
-125.279138
 20
43.551383
 30
0.0
 11
-125.279138
 21
44.836374
 31
0.0
  0
LINE
  5
3D6
330
36
100
AcDbEntity
  8
0
100
AcDbLine
 10
-126.779138
 20
43.551383
 30
0.0
 11
-126.779138
 21
44.836374
 31
0.0
  0
LINE
  5
3D7
330
36
100
AcDbEntity
  8
0
100
AcDbLine
 10
-126.779138
 20
43.551383
 30
0.0
 11
-125.279138
 21
43.551383
 31
0.0
  0
LINE
  5
3D8
330
36
100
AcDbEntity
  8
0
100
AcDbLine
 10
-124.229138
 20
53.52638299999998
 30
0.0
 11
-124.229138
 21
47.376383
 31
0.0
  0
ARC
  5
3D9
330
36
100
AcDbEntity
  8
0
100
AcDbCircle
 10
-123.729138
 20
47.376383
 30
0.0
 40
0.5
100
AcDbArc
 50
180.0
 51
270.0
  0
LINE
  5
3DA
330
36
100
AcDbEntity
  8
0
100
AcDbLine
 10
-123.729138
 20
46.876383
 30
0.0
 11
-121.479138
 21
46.876383
 31
0.0
  0
ARC
  5
3DB
330
36
100
AcDbEntity
  8
0
100
AcDbCircle
 10
-130.579138
 20
47.80138299999999
 30
0.0
 40
0.5
100
AcDbArc
 50
180.0
 51
270.0
  0
LINE
  5
3DC
330
36
100
AcDbEntity
  8
0
100
AcDbLine
 10
-127.829138
 20
53.101383
 30
0.0
 11
-127.829138
 21
47.80138299999999
 31
0.0
  0
ARC
  5
3DD
330
36
100
AcDbEntity
  8
0
100
AcDbCircle
 10
-128.329138
 20
47.80138299999999
 30
0.0
 40
0.5
100
AcDbArc
 50
270.0
 51
0.0
  0
LINE
  5
3DE
330
36
100
AcDbEntity
  8
0
100
AcDbLine
 10
-130.579138
 20
47.301383
 30
0.0
 11
-128.329138
 21
47.301383
 31
0.0
  0
LINE
  5
3DF
330
36
100
AcDbEntity
  8
0
100
AcDbLine
 10
-124.179138
 20
42.951383
 30
0.0
 11
-124.179138
 21
44.921162
 31
0.0
  0
ARC
  5
3E0
330
36
100
AcDbEntity
  8
0
100
AcDbCircle
 10
-126.029138
 20
44.686568
 30
0.0
 40
1.864815
100
AcDbArc
 50
7.226963
 51
172.773037
  0
LINE
  5
3E1
330
36
100
AcDbEntity
  8
0
100
AcDbLine
 10
-127.879138
 20
42.951383
 30
0.0
 11
-127.879138
 21
44.921162
 31
0.0
  0
LINE
  5
3E2
330
36
100
AcDbEntity
  8
0
100
AcDbLine
 10
-122.3791379999999
 20
52.201383
 30
0.0
 11
-123.329138
 21
52.201383
 31
0.0
  0
LINE
  5
3E3
330
36
100
AcDbEntity
  8
0
100
AcDbLine
 10
-128.729138
 20
52.62638299999998
 30
0.0
 11
-129.679138
 21
52.62638299999998
 31
0.0
  0
ARC
  5
3E4
330
36
100
AcDbEntity
  8
0
100
AcDbCircle
 10
-161.029138
 20
44.686568
 30
0.0
 40
0.764815
100
AcDbArc
 50
11.295648
 51
168.704352
  0
LINE
  5
3E5
330
36
100
AcDbEntity
  8
0
100
AcDbLine
 10
-157.379138
 20
52.201383
 30
0.0
 11
-157.379138
 21
48.701383
 31
0.0
  0
LINE
  5
3E6
330
36
100
AcDbEntity
  8
0
100
AcDbLine
 10
-158.329138
 20
52.201383
 30
0.0
 11
-158.329138
 21
48.701383
 31
0.0
  0
LINE
  5
3E7
330
36
100
AcDbEntity
  8
0
100
AcDbLine
 10
-157.379138
 20
48.701383
 30
0.0
 11
-158.329138
 21
48.701383
 31
0.0
  0
LINE
  5
3E8
330
36
100
AcDbEntity
  8
0
100
AcDbLine
 10
-163.7291379999999
 20
48.276383
 30
0.0
 11
-164.679138
 21
48.276383
 31
0.0
  0
LINE
  5
3E9
330
36
100
AcDbEntity
  8
0
100
AcDbLine
 10
-163.7291379999999
 20
52.62638299999998
 30
0.0
 11
-163.7291379999999
 21
48.276383
 31
0.0
  0
LINE
  5
3EA
330
36
100
AcDbEntity
  8
0
100
AcDbLine
 10
-164.679138
 20
52.62638299999998
 30
0.0
 11
-164.679138
 21
48.276383
 31
0.0
  0
LINE
  5
3EB
330
36
100
AcDbEntity
  8
0
100
AcDbLine
 10
-160.279138
 20
43.551383
 30
0.0
 11
-160.279138
 21
44.836374
 31
0.0
  0
LINE
  5
3EC
330
36
100
AcDbEntity
  8
0
100
AcDbLine
 10
-161.779138
 20
43.551383
 30
0.0
 11
-161.779138
 21
44.836374
 31
0.0
  0
LINE
  5
3ED
330
36
100
AcDbEntity
  8
0
100
AcDbLine
 10
-161.779138
 20
43.551383
 30
0.0
 11
-160.279138
 21
43.551383
 31
0.0
  0
LINE
  5
3EE
330
36
100
AcDbEntity
  8
0
100
AcDbLine
 10
-159.2291379999999
 20
53.52638299999998
 30
0.0
 11
-159.2291379999999
 21
47.376383
 31
0.0
  0
ARC
  5
3EF
330
36
100
AcDbEntity
  8
0
100
AcDbCircle
 10
-158.729138
 20
47.376383
 30
0.0
 40
0.5
100
AcDbArc
 50
180.0
 51
270.0
  0
LINE
  5
3F0
330
36
100
AcDbEntity
  8
0
100
AcDbLine
 10
-158.729138
 20
46.876383
 30
0.0
 11
-156.4791379999999
 21
46.876383
 31
0.0
  0
LINE
  5
3F1
330
36
100
AcDbEntity
  8
0
100
AcDbLine
 10
-162.829138
 20
53.101383
 30
0.0
 11
-162.829138
 21
47.80138299999999
 31
0.0
  0
ARC
  5
3F2
330
36
100
AcDbEntity
  8
0
100
AcDbCircle
 10
-163.329138
 20
47.80138299999999
 30
0.0
 40
0.5
100
AcDbArc
 50
270.0
 51
0.0
  0
LINE
  5
3F3
330
36
100
AcDbEntity
  8
0
100
AcDbLine
 10
-165.579138
 20
47.301383
 30
0.0
 11
-163.329138
 21
47.301383
 31
0.0
  0
LINE
  5
3F4
330
36
100
AcDbEntity
  8
0
100
AcDbLine
 10
-159.179138
 20
42.951383
 30
0.0
 11
-159.179138
 21
44.921162
 31
0.0
  0
ARC
  5
3F5
330
36
100
AcDbEntity
  8
0
100
AcDbCircle
 10
-161.029138
 20
44.686568
 30
0.0
 40
1.864815
100
AcDbArc
 50
7.226963
 51
172.773037
  0
LINE
  5
3F6
330
36
100
AcDbEntity
  8
0
100
AcDbLine
 10
-162.879138
 20
42.951383
 30
0.0
 11
-162.879138
 21
44.921162
 31
0.0
  0
ARC
  5
3F7
330
36
100
AcDbEntity
  8
0
100
AcDbCircle
 10
-162.379138
 20
42.951383
 30
0.0
 40
0.5
100
AcDbArc
 50
180.0
 51
270.0
  0
ARC
  5
3F8
330
36
100
AcDbEntity
  8
0
100
AcDbCircle
 10
-159.679138
 20
42.951383
 30
0.0
 40
0.5
100
AcDbArc
 50
270.0
 51
0.0
  0
LINE
  5
3F9
330
36
100
AcDbEntity
  8
0
100
AcDbLine
 10
-157.379138
 20
52.201383
 30
0.0
 11
-158.329138
 21
52.201383
 31
0.0
  0
LINE
  5
3FA
330
36
100
AcDbEntity
  8
0
100
AcDbLine
 10
-163.7291379999999
 20
52.62638299999998
 30
0.0
 11
-164.679138
 21
52.62638299999998
 31
0.0
  0
ARC
  5
3FB
330
36
100
AcDbEntity
  8
0
100
AcDbCircle
 10
-163.329138
 20
53.101383
 30
0.0
 40
0.5
100
AcDbArc
 50
0.0
 51
90.0
  0
LINE
  5
3FC
330
36
100
AcDbEntity
  8
0
100
AcDbLine
 10
-163.7291379999999
 20
33.12638300000001
 30
0.0
 11
-163.7291379999999
 21
28.776383
 31
0.0
  0
LINE
  5
3FD
330
36
100
AcDbEntity
  8
0
100
AcDbLine
 10
-164.679138
 20
33.12638300000001
 30
0.0
 11
-164.679138
 21
28.776383
 31
0.0
  0
LINE
  5
3FE
330
36
100
AcDbEntity
  8
0
100
AcDbLine
 10
-163.7291379999999
 20
33.12638300000001
 30
0.0
 11
-164.679138
 21
33.12638300000001
 31
0.0
  0
LINE
  5
3FF
330
36
100
AcDbEntity
  8
0
100
AcDbLine
 10
-163.7291379999999
 20
28.776383
 30
0.0
 11
-164.679138
 21
28.776383
 31
0.0
  0
LINE
  5
400
330
36
100
AcDbEntity
  8
0
100
AcDbLine
 10
-161.779138
 20
24.051383
 30
0.0
 11
-161.779138
 21
25.336374
 31
0.0
  0
ARC
  5
401
330
36
100
AcDbEntity
  8
0
100
AcDbCircle
 10
-161.029138
 20
25.186568
 30
0.0
 40
0.764815
100
AcDbArc
 50
11.295648
 51
168.704352
  0
LINE
  5
402
330
36
100
AcDbEntity
  8
0
100
AcDbLine
 10
-160.279138
 20
24.051383
 30
0.0
 11
-160.279138
 21
25.336374
 31
0.0
  0
LINE
  5
403
330
36
100
AcDbEntity
  8
0
100
AcDbLine
 10
-161.779138
 20
24.051383
 30
0.0
 11
-160.279138
 21
24.051383
 31
0.0
  0
LINE
  5
404
330
36
100
AcDbEntity
  8
0
100
AcDbLine
 10
-157.379138
 20
32.701383
 30
0.0
 11
-158.329138
 21
32.701383
 31
0.0
  0
LINE
  5
405
330
36
100
AcDbEntity
  8
0
100
AcDbLine
 10
-157.379138
 20
32.701383
 30
0.0
 11
-157.379138
 21
29.201383
 31
0.0
  0
LINE
  5
406
330
36
100
AcDbEntity
  8
0
100
AcDbLine
 10
-158.329138
 20
32.701383
 30
0.0
 11
-158.329138
 21
29.201383
 31
0.0
  0
LINE
  5
407
330
36
100
AcDbEntity
  8
0
100
AcDbLine
 10
-157.379138
 20
29.201383
 30
0.0
 11
-158.329138
 21
29.201383
 31
0.0
  0
LINE
  5
408
330
36
100
AcDbEntity
  8
0
100
AcDbLine
 10
-159.2291379999999
 20
34.026383
 30
0.0
 11
-159.2291379999999
 21
27.876383
 31
0.0
  0
LINE
  5
409
330
36
100
AcDbEntity
  8
0
100
AcDbLine
 10
-158.729138
 20
27.376383
 30
0.0
 11
-156.4791379999999
 21
27.376383
 31
0.0
  0
ARC
  5
40A
330
36
100
AcDbEntity
  8
0
100
AcDbCircle
 10
-158.729138
 20
27.876383
 30
0.0
 40
0.5
100
AcDbArc
 50
180.0
 51
270.0
  0
ARC
  5
40B
330
36
100
AcDbEntity
  8
0
100
AcDbCircle
 10
-163.329138
 20
28.301383
 30
0.0
 40
0.5
100
AcDbArc
 50
270.0
 51
0.0
  0
LINE
  5
40C
330
36
100
AcDbEntity
  8
0
100
AcDbLine
 10
-165.579138
 20
27.801383
 30
0.0
 11
-163.329138
 21
27.801383
 31
0.0
  0
LINE
  5
40D
330
36
100
AcDbEntity
  8
0
100
AcDbLine
 10
-162.829138
 20
33.601383
 30
0.0
 11
-162.829138
 21
28.301383
 31
0.0
  0
LINE
  5
40E
330
36
100
AcDbEntity
  8
0
100
AcDbLine
 10
-159.179138
 20
23.451383
 30
0.0
 11
-159.179138
 21
25.371754
 31
0.0
  0
ARC
  5
40F
330
36
100
AcDbEntity
  8
0
100
AcDbCircle
 10
-161.029138
 20
25.186568
 30
0.0
 40
1.864815
100
AcDbArc
 50
9.147842999999999
 51
171.550276
  0
LINE
  5
410
330
36
100
AcDbEntity
  8
0
100
AcDbLine
 10
-162.879138
 20
23.451383
 30
0.0
 11
-162.879138
 21
25.387116
 31
0.0
  0
CIRCLE
  5
411
330
36
100
AcDbEntity
  8
0
100
AcDbCircle
 10
-126.029138
 20
60.12638299999998
 30
0.0
 40
2.0
  0
CIRCLE
  5
412
330
36
100
AcDbEntity
  8
0
100
AcDbCircle
 10
-161.029138
 20
60.12638299999998
 30
0.0
 40
2.0
  0
CIRCLE
  5
413
330
36
100
AcDbEntity
  8
0
100
AcDbCircle
 10
-126.029138
 20
18.12638299999998
 30
0.0
 40
2.0
  0
LINE
  5
414
330
36
100
AcDbEntity
  8
0
100
AcDbLine
 10
-129.029138
 20
14.626383
 30
0.0
 11
-129.029138
 21
15.526383
 31
0.0
  0
LINE
  5
415
330
36
100
AcDbEntity
  8
0
100
AcDbLine
 10
-123.029138
 20
14.710094
 30
0.0
 11
-123.029138
 21
15.526383
 31
0.0
  0
CIRCLE
  5
416
330
36
100
AcDbEntity
  8
0
100
AcDbCircle
 10
-161.029138
 20
18.12638299999998
 30
0.0
 40
2.0
  0
LINE
  5
417
330
36
100
AcDbEntity
  8
0
100
AcDbLine
 10
79.71337
 20
32.376383
 30
0.0
 11
81.21337
 21
31.376383
 31
0.0
  0
LINE
  5
418
330
36
100
AcDbEntity
  8
0
100
AcDbLine
 10
81.21337
 20
21.376383
 30
0.0
 11
81.21337
 21
31.376383
 31
0.0
  0
LINE
  5
419
330
36
100
AcDbEntity
  8
0
100
AcDbLine
 10
79.71337
 20
20.376383
 30
0.0
 11
81.21337
 21
21.376383
 31
0.0
  0
LINE
  5
41A
330
36
100
AcDbEntity
  8
0
 62
     3
100
AcDbLine
 10
-146.929159
 20
83.176383
 30
0.0
 11
-146.929159
 21
100.376383
 31
0.0
  0
LINE
  5
41B
330
36
100
AcDbEntity
  8
0
 62
     3
100
AcDbLine
 10
-169.129159
 20
83.176383
 30
0.0
 11
-169.129159
 21
100.376383
 31
0.0
  0
LINE
  5
41C
330
36
100
AcDbEntity
  8
0
 62
     3
100
AcDbLine
 10
-168.629159
 20
100.876383
 30
0.0
 11
-147.429159
 21
100.876383
 31
0.0
  0
LINE
  5
41D
330
36
100
AcDbEntity
  8
0
 62
     3
100
AcDbLine
 10
-147.429159
 20
82.67638299999999
 30
0.0
 11
-168.629159
 21
82.67638299999999
 31
0.0
  0
ARC
  5
41E
330
36
100
AcDbEntity
  8
0
 62
     3
100
AcDbCircle
 10
-147.429159
 20
100.376383
 30
0.0
 40
0.5
100
AcDbArc
 50
0.0
 51
90.0
  0
ARC
  5
41F
330
36
100
AcDbEntity
  8
0
 62
     3
100
AcDbCircle
 10
-168.629159
 20
100.376383
 30
0.0
 40
0.5
100
AcDbArc
 50
90.0
 51
180.0
  0
ARC
  5
420
330
36
100
AcDbEntity
  8
0
 62
     3
100
AcDbCircle
 10
-168.629159
 20
83.176383
 30
0.0
 40
0.5
100
AcDbArc
 50
180.0
 51
270.0
  0
ARC
  5
421
330
36
100
AcDbEntity
  8
0
 62
     3
100
AcDbCircle
 10
-147.429159
 20
83.176383
 30
0.0
 40
0.5
100
AcDbArc
 50
270.0
 51
0.0
  0
ARC
  5
422
330
36
100
AcDbEntity
  8
0
 62
     3
100
AcDbCircle
 10
-158.029159
 20
86.17643299999995
 30
0.0
 40
2.5
100
AcDbArc
 50
23.576928
 51
156.423072
  0
CIRCLE
  5
423
330
36
100
AcDbEntity
  8
0
 62
     3
100
AcDbCircle
 10
-158.029159
 20
86.17643299999995
 30
0.0
 40
0.5
  0
LINE
  5
424
330
36
100
AcDbEntity
  8
0
100
AcDbLine
 10
-147.929159
 20
87.176383
 30
0.0
 11
-168.129159
 21
87.176383
 31
0.0
  0
LINE
  5
425
330
36
100
AcDbEntity
  8
0
100
AcDbLine
 10
-147.929159
 20
86.42638299999999
 30
0.0
 11
-168.129159
 21
86.42638299999999
 31
0.0
  0
LINE
  5
426
330
36
100
AcDbEntity
  8
0
100
AcDbLine
 10
-147.929159
 20
85.676383
 30
0.0
 11
-168.129159
 21
85.676383
 31
0.0
  0
LINE
  5
427
330
36
100
AcDbEntity
  8
0
100
AcDbLine
 10
-147.929159
 20
84.92638300000001
 30
0.0
 11
-168.129159
 21
84.92638300000001
 31
0.0
  0
LINE
  5
428
330
36
100
AcDbEntity
  8
0
100
AcDbLine
 10
-147.929159
 20
84.176383
 30
0.0
 11
-168.129159
 21
84.176383
 31
0.0
  0
LINE
  5
429
330
36
100
AcDbEntity
  8
0
100
AcDbLine
 10
-147.929159
 20
99.876383
 30
0.0
 11
-168.129159
 21
99.876383
 31
0.0
  0
LINE
  5
42A
330
36
100
AcDbEntity
  8
0
100
AcDbLine
 10
-147.929159
 20
99.876383
 30
0.0
 11
-147.929159
 21
84.176383
 31
0.0
  0
LINE
  5
42B
330
36
100
AcDbEntity
  8
0
100
AcDbLine
 10
-168.129159
 20
84.176383
 30
0.0
 11
-168.129159
 21
99.876383
 31
0.0
  0
LINE
  5
42C
330
36
100
AcDbEntity
  8
0
100
AcDbLine
 10
-140.593624
 20
45.116508
 30
0.0
 11
-140.593624
 21
32.616508
 31
0.0
  0
LINE
  5
42D
330
36
100
AcDbEntity
  8
0
100
AcDbLine
 10
-146.593624
 20
32.616508
 30
0.0
 11
-146.593624
 21
45.116508
 31
0.0
  0
LINE
  5
42E
330
36
100
AcDbEntity
  8
0
100
AcDbLine
 10
-145.218624
 20
45.866508
 30
0.0
 11
-141.968624
 21
45.866508
 31
0.0
  0
LINE
  5
42F
330
36
100
AcDbEntity
  8
0
100
AcDbLine
 10
-141.968624
 20
44.366508
 30
0.0
 11
-145.218624
 21
44.366508
 31
0.0
  0
LINE
  5
430
330
36
100
AcDbEntity
  8
0
100
AcDbLine
 10
-141.968624
 20
38.36650800000001
 30
0.0
 11
-145.218624
 21
38.36650800000001
 31
0.0
  0
TEXT
  5
431
330
36
100
AcDbEntity
  8
0
100
AcDbText
 10
-144.872669
 20
44.498211
 30
0.0
 40
1.28
  1
15
 41
1.199999999999999
100
AcDbText
  0
LINE
  5
432
330
36
100
AcDbEntity
  8
0
100
AcDbLine
 10
-149.537227
 20
94.668364
 30
0.0
 11
-150.959546
 21
93.24604499999999
 31
0.0
  0
LINE
  5
433
330
36
100
AcDbEntity
  8
0
100
AcDbLine
 10
-150.569753
 20
95.066106
 30
0.0
 11
-151.215557
 21
94.29646599999999
 31
0.0
  0
LINE
  5
434
330
36
100
AcDbEntity
  8
0
100
AcDbLine
 10
-151.322043
 20
95.755084
 30
0.0
 11
-151.89776
 21
94.93287499999999
 31
0.0
  0
LINE
  5
435
330
36
100
AcDbEntity
  8
0
100
AcDbLine
 10
-153.025187
 20
96.90737400000001
 30
0.0
 11
-153.44866
 21
95.999235
 31
0.0
  0
LINE
  5
436
330
36
100
AcDbEntity
  8
0
100
AcDbLine
 10
-153.788903
 20
97.826321
 30
0.0
 11
-158.029138
 21
86.17637100000001
 31
0.0
  0
LINE
  5
437
330
36
100
AcDbEntity
  8
0
100
AcDbLine
 10
-154.938383
 20
97.711228
 30
0.0
 11
-155.197398
 21
96.74457099999999
 31
0.0
  0
LINE
  5
438
330
36
100
AcDbEntity
  8
0
100
AcDbLine
 10
-152.143006
 20
96.371444
 30
0.0
 11
-152.644422
 21
95.50296600000001
 31
0.0
  0
LINE
  5
439
330
36
100
AcDbEntity
  8
0
100
AcDbLine
 10
-155.949869
 20
97.96849600000001
 30
0.0
 11
-156.123576
 21
96.983353
 31
0.0
  0
LINE
  5
43A
330
36
100
AcDbEntity
  8
0
100
AcDbLine
 10
-156.983833
 20
98.12426999999999
 30
0.0
 11
-157.070996
 21
97.12799
 31
0.0
  0
LINE
  5
43B
330
36
100
AcDbEntity
  8
0
100
AcDbLine
 10
-159.074443
 20
98.124274
 30
0.0
 11
-158.987279
 21
97.12799400000001
 31
0.0
  0
LINE
  5
43C
330
36
100
AcDbEntity
  8
0
100
AcDbLine
 10
-160.108406
 20
97.96850400000003
 30
0.0
 11
-159.934699
 21
96.98336199999999
 31
0.0
  0
LINE
  5
43D
330
36
100
AcDbEntity
  8
0
100
AcDbLine
 10
-161.119891
 20
97.71124100000001
 30
0.0
 11
-160.860876
 21
96.744585
 31
0.0
  0
LINE
  5
43E
330
36
100
AcDbEntity
  8
0
100
AcDbLine
 10
-163.915266
 20
96.37147400000001
 30
0.0
 11
-163.41385
 21
95.502997
 31
0.0
  0
LINE
  5
43F
330
36
100
AcDbEntity
  8
0
100
AcDbLine
 10
-163.033085
 20
96.90739800000001
 30
0.0
 11
-162.609613
 21
95.999259
 31
0.0
  0
LINE
  5
440
330
36
100
AcDbEntity
  8
0
100
AcDbLine
 10
-162.269371
 20
97.82634000000001
 30
0.0
 11
-161.755693
 21
96.41502199999999
 31
0.0
  0
LINE
  5
441
330
36
100
AcDbEntity
  8
0
100
AcDbLine
 10
-164.736228
 20
95.75512299999999
 30
0.0
 11
-164.160511
 21
94.932914
 31
0.0
  0
LINE
  5
442
330
36
100
AcDbEntity
  8
0
100
AcDbLine
 10
-165.488518
 20
95.066152
 30
0.0
 11
-164.842714
 21
94.29651300000001
 31
0.0
  0
LINE
  5
443
330
36
100
AcDbEntity
  8
0
100
AcDbLine
 10
-166.521135
 20
94.66831
 30
0.0
 11
-165.4547179999999
 21
93.601892
 31
0.0
  0
TEXT
  5
444
330
36
100
AcDbEntity
  8
0
100
AcDbText
 10
-132.34762
 20
89.28628299999996
 30
0.0
 40
2.5
  1
電源ランプ
 41
0.833333
100
AcDbText
  0
TEXT
  5
445
330
36
100
AcDbEntity
  8
0
100
AcDbText
 10
-166.626521
 20
101.638943
 30
0.0
 40
2.5
  1
出力電圧計
 41
0.833333
100
AcDbText
  0
TEXT
  5
446
330
36
100
AcDbEntity
  8
0
100
AcDbText
 10
-144.805957
 20
39.33856
 30
0.0
 40
2.5
  1
入
 41
0.833333
100
AcDbText
  0
CIRCLE
  5
447
330
36
100
AcDbEntity
  8
0
100
AcDbCircle
 10
-153.415852
 20
13.834856
 30
0.0
 40
0.9461759999999999
  0
TEXT
  5
448
330
36
100
AcDbEntity
  8
0
100
AcDbText
 10
-151.578103
 20
12.525549
 30
0.0
 40
2.5
  1
日動工業株式会社
 41
0.833333
100
AcDbText
  0
TEXT
  5
47D
330
36
100
AcDbEntity
  8
0
 62
     3
100
AcDbText
 10
111.857617
 20
130.9022835316699
 30
0.0
 40
3.2
  1
E付き4Pプラグ
  7
高3.2
100
AcDbText
  0
LINE
  5
483
330
36
100
AcDbEntity
  8
0
100
AcDbLine
 10
-165.89559
 20
7.525761999999997
 30
0.0
 11
-186.422242
 21
14.682389
 31
0.0
  0
CIRCLE
  5
484
330
36
100
AcDbEntity
  8
0
100
AcDbCircle
 10
-191.143517
 20
16.328464
 30
0.0
 40
5.0
  0
TEXT
  5
485
330
36
100
AcDbEntity
  8
0
 62
     4
100
AcDbText
 10
-193.3112887460104
 20
12.9289784534556
 30
0.0
 40
6.299999999999998
  1
6
  7
高6.3
100
AcDbText
  0
LINE
  5
48B
330
36
100
AcDbEntity
  8
0
100
AcDbLine
 10
-170.059124
 20
49.661077
 30
0.0
 11
-186.73239
 21
58.55928699999999
 31
0.0
  0
CIRCLE
  5
48C
330
36
100
AcDbEntity
  8
0
100
AcDbCircle
 10
-191.143517
 20
60.913423
 30
0.0
 40
5.0
  0
TEXT
  5
48D
330
36
100
AcDbEntity
  8
0
 62
     4
100
AcDbText
 10
-193.3112887460104
 20
57.5139374534556
 30
0.0
 40
6.299999999999998
  1
8
  7
高6.3
100
AcDbText
  0
LINE
  5
493
330
36
100
AcDbEntity
  8
0
100
AcDbLine
 10
36.434628
 20
117.040312
 30
0.0
 11
64.663442
 21
124.183431
 31
0.0
  0
CIRCLE
  5
494
330
36
100
AcDbEntity
  8
0
100
AcDbCircle
 10
69.51066400000001
 20
125.409989
 30
0.0
 40
5.0
  0
TEXT
  5
495
330
36
100
AcDbEntity
  8
0
 62
     4
100
AcDbText
 10
68.02566620788581
 20
122.3517148568605
 30
0.0
 40
6.299999999999998
  1
1
  7
高6.3
100
AcDbText
  0
CIRCLE
  5
49C
330
36
100
AcDbEntity
  8
0
100
AcDbCircle
 10
81.73970276803173
 20
125.192558164809
 30
0.0
 40
5.0
  0
TEXT
  5
49D
330
36
100
AcDbEntity
  8
0
 62
     4
100
AcDbText
 10
79.57193102202134
 20
121.7930726182646
 30
0.0
 40
6.299999999999998
  1
3
  7
高6.3
100
AcDbText
  0
LINE
  5
4B3
330
36
100
AcDbEntity
  8
0
100
AcDbLine
 10
-167.029825
 20
87.176383
 30
0.0
 11
-186.509081
 21
95.06445199999999
 31
0.0
  0
CIRCLE
  5
4B4
330
36
100
AcDbEntity
  8
0
100
AcDbCircle
 10
-191.143517
 20
96.94115299999999
 30
0.0
 40
5.0
  0
TEXT
  5
4B5
330
36
100
AcDbEntity
  8
0
 62
     4
100
AcDbText
 10
-193.7981924313744
 20
94.72274125306991
 30
0.0
 40
4.5
  1
10
  7
高4.5
100
AcDbText
  0
LINE
  5
4BB
330
36
100
AcDbEntity
  8
0
100
AcDbLine
 10
-125.561775
 20
96.567015
 30
0.0
 11
-102.990376
 21
110.079562
 31
0.0
  0
CIRCLE
  5
4BC
330
36
100
AcDbEntity
  8
0
100
AcDbCircle
 10
-98.70037299999999
 20
112.647806
 30
0.0
 40
5.0
  0
TEXT
  5
4BD
330
36
100
AcDbEntity
  8
0
 62
     4
100
AcDbText
 10
-100.8681447460104
 20
109.2483204534556
 30
0.0
 40
6.299999999999998
  1
9
  7
高6.3
100
AcDbText
  0
LINE
  5
4C3
330
36
100
AcDbEntity
  8
0
100
AcDbLine
 10
-139.794554
 20
42.1604
 30
0.0
 11
-103.209354
 21
59.69288
 31
0.0
  0
CIRCLE
  5
4C4
330
36
100
AcDbEntity
  8
0
100
AcDbCircle
 10
-98.70037299999999
 20
61.853688
 30
0.0
 40
5.0
  0
TEXT
  5
4C5
330
36
100
AcDbEntity
  8
0
 62
     4
100
AcDbText
 10
-100.8681447460104
 20
58.45420245345561
 30
0.0
 40
6.299999999999998
  1
7
  7
高6.3
100
AcDbText
  0
TEXT
  5
4D2
330
36
100
AcDbEntity
  8
0
 62
     3
100
AcDbText
 10
2.484728674519482
 20
-41.0315843221092
 30
0.0
 40
4.0
  1
X
 50
180.0
 41
0.833333
100
AcDbText
  0
TEXT
  5
4D3
330
36
100
AcDbEntity
  8
0
 62
     3
100
AcDbText
 10
-20.19355428023664
 20
-43.83265569264449
 30
0.0
 40
4.0
  1
Z
 50
180.0
 41
0.833333
100
AcDbText
  0
TEXT
  5
4D4
330
36
100
AcDbEntity
  8
0
 62
     3
100
AcDbText
 10
-13.11362973692581
 20
-36.66301440149539
 30
0.0
 40
4.0
  1
Y
 41
0.833333
100
AcDbText
  0
TEXT
  5
5E3
330
36
100
AcDbEntity
  8
0
 62
     3
100
AcDbText
 10
157.886923
 20
155.03603
 30
0.0
 40
3.2
  1
担　当
  7
高3.2
100
AcDbText
  0
TEXT
  5
5E4
330
36
100
AcDbEntity
  8
0
 62
     3
100
AcDbText
 10
113.886923
 20
155.03603
 30
0.0
 40
3.2
  1
変更・追記内容
  7
高3.2
100
AcDbText
  0
TEXT
  5
5E5
330
36
100
AcDbEntity
  8
0
 62
     3
100
AcDbText
 10
89.00043800033925
 20
150.3654914900917
 30
0.0
 40
2.0
  1
1
  7
高2
100
AcDbText
  0
TEXT
  5
5E6
330
36
100
AcDbEntity
  8
0
 62
     3
100
AcDbText
 10
88.69192652358194
 20
145.1956747778188
 30
0.0
 40
2.0
  1
2
  7
高2
100
AcDbText
  0
TEXT
  5
5E7
330
36
100
AcDbEntity
  8
0
 62
     3
100
AcDbText
 10
95.88692299999999
 20
155.03603
 30
0.0
 40
3.2
  1
日　付
  7
高3.2
100
AcDbText
  0
TEXT
  5
5E8
330
36
100
AcDbEntity
  8
0
 62
     3
100
AcDbText
 10
95.88692299999999
 20
160.03603
 30
0.0
 40
3.2
  1
図　　　　面　　　　略　　　　歴
  7
高3.2
100
AcDbText
  0
TEXT
  5
5E9
330
36
100
AcDbEntity
  8
0
 62
     3
100
AcDbText
 10
85.88692299999998
 20
155.03603
 30
0.0
 40
3.2
  1
記号
  7
高3.2
100
AcDbText
  0
LINE
  5
5EA
330
36
100
AcDbEntity
  8
0
100
AcDbLine
 10
89.38692299999997
 20
148.3269260000001
 30
0.0
 11
87.48692300000001
 21
145.03603
 31
0.0
  0
LINE
  5
5EB
330
36
100
AcDbEntity
  8
0
100
AcDbLine
 10
89.38692299999997
 20
148.3269260000001
 30
0.0
 11
91.28692299999995
 21
145.03603
 31
0.0
  0
LINE
  5
5EC
330
36
100
AcDbEntity
  8
0
100
AcDbLine
 10
87.48692300000001
 20
145.03603
 30
0.0
 11
91.28692299999995
 21
145.03603
 31
0.0
  0
LINE
  5
5ED
330
36
100
AcDbEntity
  8
0
100
AcDbLine
 10
89.38692299999997
 20
153.3269270000001
 30
0.0
 11
87.48692300000001
 21
150.03603
 31
0.0
  0
LINE
  5
5EE
330
36
100
AcDbEntity
  8
0
100
AcDbLine
 10
89.38692299999997
 20
153.3269270000001
 30
0.0
 11
91.28692299999995
 21
150.03603
 31
0.0
  0
LINE
  5
5EF
330
36
100
AcDbEntity
  8
0
100
AcDbLine
 10
87.48692300000001
 20
150.03603
 30
0.0
 11
91.28692299999995
 21
150.03603
 31
0.0
  0
LINE
  5
5F0
330
36
100
AcDbEntity
  8
0
 62
     3
100
AcDbLine
 10
84.38692299999997
 20
159.53603
 30
0.0
 11
170.386923
 21
159.53603
 31
0.0
  0
LINE
  5
5F1
330
36
100
AcDbEntity
  8
0
 62
     3
100
AcDbLine
 10
84.38692299999997
 20
154.53603
 30
0.0
 11
170.386923
 21
154.53603
 31
0.0
  0
LINE
  5
5F2
330
36
100
AcDbEntity
  8
0
 62
     7
100
AcDbLine
 10
84.38692299999997
 20
149.53603
 30
0.0
 11
170.386923
 21
149.53603
 31
0.0
  0
LINE
  5
5F3
330
36
100
AcDbEntity
  8
0
 62
     3
100
AcDbLine
 10
84.38692299999997
 20
144.53603
 30
0.0
 11
170.386923
 21
144.53603
 31
0.0
  0
LINE
  5
5F4
330
36
100
AcDbEntity
  8
0
 62
     7
100
AcDbLine
 10
156.3869229999999
 20
144.53603
 30
0.0
 11
156.386923
 21
159.53603
 31
0.0
  0
LINE
  5
5F5
330
36
100
AcDbEntity
  8
0
 62
     7
100
AcDbLine
 10
112.386923
 20
144.53603
 30
0.0
 11
112.386923
 21
159.53603
 31
0.0
  0
LINE
  5
5F6
330
36
100
AcDbEntity
  8
0
 62
     7
100
AcDbLine
 10
94.38692299999999
 20
144.53603
 30
0.0
 11
94.38692299999999
 21
159.53603
 31
0.0
  0
LINE
  5
5F7
330
36
100
AcDbEntity
  8
0
 62
     3
100
AcDbLine
 10
84.38692299999997
 20
144.53603
 30
0.0
 11
84.38692299999997
 21
164.53603
 31
0.0
  0
CIRCLE
  5
74B
330
36
100
AcDbEntity
  8
0
100
AcDbCircle
 10
-98.70037299999999
 20
86.92615854526016
 30
0.0
 40
5.0
  0
TEXT
  5
74C
330
36
100
AcDbEntity
  8
0
 62
     4
100
AcDbText
 10
-100.8681447460104
 20
83.5266729987158
 30
0.0
 40
6.299999999999998
  1
4
  7
高6.3
100
AcDbText
  0
TEXT
  5
758
330
36
100
AcDbEntity
  8
0
 62
     3
100
AcDbText
 10
-151.8853495798222
 20
-91.96397000000001
 30
0.0
 40
3.2
  1
-
 41
0.8
  7
高3.2
100
AcDbText
  0
TEXT
  5
759
330
36
100
AcDbEntity
  8
0
 62
     3
100
AcDbText
 10
-175.2601353514327
 20
-91.96397000000001
 30
0.0
 40
3.2
  1
SPCC
 41
0.8
  7
高3.2
100
AcDbText
  0
TEXT
  5
75A
330
36
100
AcDbEntity
  8
0
 62
     3
100
AcDbText
 10
-211.1574838144796
 20
-91.96397000000001
 30
0.0
 40
3.2
  1
フロントパネル
 41
0.8
  7
高3.2
100
AcDbText
  0
TEXT
  5
75B
330
36
100
AcDbEntity
  8
0
 62
     3
100
AcDbText
 10
-112.0328106982949
 20
-91.96397000000001
 30
0.0
 40
3.2
  1
1
 41
0.8
  7
高3.2
100
AcDbText
  0
TEXT
  5
75C
330
36
100
AcDbEntity
  8
0
 62
     3
100
AcDbText
 10
-103.446988130504
 20
-111.96397
 30
0.0
 40
3.2
  1
コード
 41
0.8
  7
高3.2
100
AcDbText
  0
TEXT
  5
75D
330
36
100
AcDbEntity
  8
0
 62
     3
100
AcDbText
 10
-103.446988130504
 20
-106.9639699999999
 30
0.0
 40
3.2
  1
55285
 41
0.8
  7
高3.2
100
AcDbText
  0
TEXT
  5
75E
330
36
100
AcDbEntity
  8
0
 62
     3
100
AcDbText
 10
-103.446988130504
 20
-96.96397000000001
 30
0.0
 40
3.2
  1
55280
 41
0.8
  7
高3.2
100
AcDbText
  0
TEXT
  5
75F
330
36
100
AcDbEntity
  8
0
 62
     3
100
AcDbText
 10
-103.446988130504
 20
-81.96396999999997
 30
0.0
 40
3.2
  1
54927
 41
0.8
  7
高3.2
100
AcDbText
  0
TEXT
  5
760
330
36
100
AcDbEntity
  8
0
 62
     3
100
AcDbText
 10
-103.446988130504
 20
-76.96396999999997
 30
0.0
 40
3.2
  1
51761
 41
0.8
  7
高3.2
100
AcDbText
  0
TEXT
  5
761
330
36
100
AcDbEntity
  8
0
 62
     3
100
AcDbText
 10
-103.446988130504
 20
-71.96396999999997
 30
0.0
 40
3.2
  1
51411
 41
0.8
  7
高3.2
100
AcDbText
  0
TEXT
  5
762
330
36
100
AcDbEntity
  8
0
 62
     3
100
AcDbText
 10
-103.446988130504
 20
-66.96396999999997
 30
0.0
 40
3.2
  1
55286
 41
0.8
  7
高3.2
100
AcDbText
  0
TEXT
  5
763
330
36
100
AcDbEntity
  8
0
 62
     3
100
AcDbText
 10
-103.446988130504
 20
-61.96396999999999
 30
0.0
 40
3.2
  1
55287
 41
0.8
  7
高3.2
100
AcDbText
  0
TEXT
  5
764
330
36
100
AcDbEntity
  8
0
 62
     3
100
AcDbText
 10
-103.446988130504
 20
-86.96397000000002
 30
0.0
 40
3.2
  1
51322
 41
0.8
  7
高3.2
100
AcDbText
  0
LINE
  5
765
330
36
100
AcDbEntity
  8
0
100
AcDbLine
 10
-104.946988130504
 20
-112.46397
 30
0.0
 11
-104.946988130504
 21
-52.46396999999998
 31
0.0
  0
TEXT
  5
766
330
36
100
AcDbEntity
  8
0
 62
     3
100
AcDbText
 10
-103.446988130504
 20
-91.96397000000001
 30
0.0
 40
3.2
  1
55282
 41
0.8
  7
高3.2
100
AcDbText
  0
TEXT
  5
767
330
36
100
AcDbEntity
  8
0
 62
     3
100
AcDbText
 10
-87.99519513430631
 20
-111.96397
 30
0.0
 40
3.2
  1
コード番号名称
 41
0.6
  7
高3.2
100
AcDbText
  0
TEXT
  5
768
330
36
100
AcDbEntity
  8
0
 62
     3
100
AcDbText
 10
-87.99519513430631
 20
-106.9639699999999
 30
0.0
 40
3.2
  1
RTB-100/200D-100V兼用　取手
 41
0.6
  7
高3.2
100
AcDbText
  0
TEXT
  5
769
330
36
100
AcDbEntity
  8
0
 62
     3
100
AcDbText
 10
-87.99519513430631
 20
-96.96397000000001
 30
0.0
 40
3.2
  1
RTB-100/200-100V兼用　上カバー
 41
0.6
  7
高3.2
100
AcDbText
  0
TEXT
  5
76A
330
36
100
AcDbEntity
  8
0
 62
     3
100
AcDbText
 10
-87.99519513430631
 20
-81.96396999999997
 30
0.0
 40
3.2
  1
RTB-100/200/300兼用　脚ゴム(1/4)
 41
0.6
  7
高3.2
100
AcDbText
  0
TEXT
  5
76B
330
36
100
AcDbEntity
  8
0
 62
     3
100
AcDbText
 10
-87.99519513430631
 20
-76.96396999999997
 30
0.0
 40
3.2
  1
B-2EA-10A(安全ブレーカー)
 41
0.6
  7
高3.2
100
AcDbText
  0
TEXT
  5
76C
330
36
100
AcDbEntity
  8
0
 62
     3
100
AcDbText
 10
-87.99519513430631
 20
-71.96396999999997
 30
0.0
 40
3.2
  1
2PE-WK(金具付コンセント白)
 41
0.6
  7
高3.2
100
AcDbText
  0
TEXT
  5
76D
330
36
100
AcDbEntity
  8
0
 62
     3
100
AcDbText
 10
-87.99519513430631
 20
-66.96396999999997
 30
0.0
 40
3.2
  1
RTB-100/200/300兼用　電源ランプ
 41
0.6
  7
高3.2
100
AcDbText
  0
TEXT
  5
76E
330
36
100
AcDbEntity
  8
0
 62
     3
100
AcDbText
 10
-87.99519513430631
 20
-61.96396999999999
 30
0.0
 40
3.2
  1
RTB-100/200D-100V兼用　電圧計
 41
0.6
  7
高3.2
100
AcDbText
  0
TEXT
  5
76F
330
36
100
AcDbEntity
  8
0
 62
     3
100
AcDbText
 10
-87.99519513430631
 20
-86.96397000000002
 30
0.0
 40
3.2
  1
VCT2x3x2.5M防雨型4Pプラグ付
 41
0.6
  7
高3.2
100
AcDbText
  0
LINE
  5
770
330
36
100
AcDbEntity
  8
0
100
AcDbLine
 10
-89.49519513430631
 20
-112.46397
 30
0.0
 11
-89.49519513430633
 21
-52.46396999999998
 31
0.0
  0
TEXT
  5
771
330
36
100
AcDbEntity
  8
0
 62
     3
100
AcDbText
 10
-87.99519513430631
 20
-91.96397000000001
 30
0.0
 40
3.2
  1
RTB-200D-100V用　フロントパネル
 41
0.6
  7
高3.2
100
AcDbText
  0
LINE
  5
7FC
330
36
100
AcDbEntity
  8
0
 62
     7
100
AcDbLine
 10
-219.613077
 20
-107.46397
 30
0.0
 11
-33.31694086479843
 21
-107.46397
 31
0.0
  0
LINE
  5
7FF
330
36
100
AcDbEntity
  8
0
 62
     7
100
AcDbLine
 10
-219.613077
 20
-97.46397000000001
 30
0.0
 11
-33.31694086479843
 21
-97.46397000000001
 31
0.0
  0
LINE
  5
800
330
36
100
AcDbEntity
  8
0
 62
     7
100
AcDbLine
 10
-219.613077
 20
-92.46396999999999
 30
0.0
 11
-33.31694086479843
 21
-92.46396999999999
 31
0.0
  0
LINE
  5
801
330
36
100
AcDbEntity
  8
0
 62
     7
100
AcDbLine
 10
-219.613077
 20
-87.46396999999998
 30
0.0
 11
-33.31694086479843
 21
-87.46396999999998
 31
0.0
  0
LINE
  5
802
330
36
100
AcDbEntity
  8
0
 62
     7
100
AcDbLine
 10
-219.613077
 20
-82.46396999999998
 30
0.0
 11
-33.31694086479843
 21
-82.46396999999998
 31
0.0
  0
LINE
  5
803
330
36
100
AcDbEntity
  8
0
 62
     7
100
AcDbLine
 10
-219.613077
 20
-77.46396999999998
 30
0.0
 11
-33.31694086479843
 21
-77.46396999999998
 31
0.0
  0
LINE
  5
804
330
36
100
AcDbEntity
  8
0
 62
     7
100
AcDbLine
 10
-219.613077
 20
-72.46396999999998
 30
0.0
 11
-33.31694086479843
 21
-72.46396999999998
 31
0.0
  0
LINE
  5
805
330
36
100
AcDbEntity
  8
0
 62
     7
100
AcDbLine
 10
-219.613077
 20
-67.46396999999998
 30
0.0
 11
-33.31694086479843
 21
-67.46396999999998
 31
0.0
  0
LINE
  5
806
330
36
100
AcDbEntity
  8
0
 62
     7
100
AcDbLine
 10
-219.613077
 20
-62.46396999999999
 30
0.0
 11
-33.31694086479843
 21
-62.46396999999999
 31
0.0
  0
LINE
  5
807
330
36
100
AcDbEntity
  8
0
 62
     7
100
AcDbLine
 10
-219.613077
 20
-57.46396999999999
 30
0.0
 11
-33.31694086479843
 21
-57.46396999999999
 31
0.0
  0
CIRCLE
  5
86A
330
36
100
AcDbEntity
  8
0
100
AcDbCircle
 10
55.25926715620471
 20
1.927465437483533
 30
0.0
 40
5.0
  0
TEXT
  5
86B
330
36
100
AcDbEntity
  8
0
 62
     4
100
AcDbText
 10
53.09149541019431
 20
-1.472020109060864
 30
0.0
 40
6.299999999999998
  1
2
  7
高6.3
100
AcDbText
  0
LINE
  5
870
330
36
100
AcDbEntity
  8
0
 62
     7
100
AcDbLine
 10
-219.613077
 20
-102.46397
 30
0.0
 11
-33.31694086479843
 21
-102.46397
 31
0.0
  0
TEXT
  5
871
330
36
100
AcDbEntity
  8
0
 62
     3
100
AcDbText
 10
-151.8853495798222
 20
-101.9639699999999
 30
0.0
 40
3.2
  1
塗装
 41
0.8
  7
高3.2
100
AcDbText
  0
TEXT
  5
872
330
36
100
AcDbEntity
  8
0
 62
     3
100
AcDbText
 10
-112.0328106982949
 20
-101.9639699999999
 30
0.0
 40
3.2
  1
1
 41
0.8
  7
高3.2
100
AcDbText
  0
TEXT
  5
873
330
36
100
AcDbEntity
  8
0
 62
     3
100
AcDbText
 10
-175.2601353514327
 20
-101.9639699999999
 30
0.0
 40
3.2
  1
SPCC
 41
0.8
  7
高3.2
100
AcDbText
  0
TEXT
  5
874
330
36
100
AcDbEntity
  8
0
 62
     3
100
AcDbText
 10
-211.1574838144796
 20
-101.9639699999999
 30
0.0
 40
3.2
  1
シャーシ
 41
0.8
  7
高3.2
100
AcDbText
  0
TEXT
  5
875
330
36
100
AcDbEntity
  8
0
 62
     3
100
AcDbText
 10
-103.446988130504
 20
-101.9639699999999
 30
0.0
 40
3.2
  1
56194
 41
0.8
  7
高3.2
100
AcDbText
  0
TEXT
  5
876
330
36
100
AcDbEntity
  8
0
 62
     3
100
AcDbText
 10
-87.99519513430631
 20
-101.9639699999999
 30
0.0
 40
3.2
  1
RTB-100/200-100V兼用　シャーシ
 41
0.6
  7
高3.2
100
AcDbText
  0
TEXT
  5
877
330
36
100
AcDbEntity
  8
0
 62
     3
100
AcDbText
 10
-218.113077
 20
-61.96396999999999
 30
0.0
 40
3.2
  1
10
 41
0.8
  7
高3.2
100
AcDbText
  0
CIRCLE
  5
8DC
330
36
100
AcDbEntity
  8
0
  6
HIDDEN
100
AcDbCircle
 10
22.85655465499702
 20
60.86669226409448
 30
0.0
 40
45.39693271530278
  0
CIRCLE
  5
8DF
330
36
100
AcDbEntity
  8
0
  6
HIDDEN
100
AcDbCircle
 10
22.85655465499702
 20
60.86669226409448
 30
0.0
 40
25.96668732588172
  0
LINE
  5
8E9
330
36
100
AcDbEntity
  8
0
 62
     3
100
AcDbLine
 10
-219.613077
 20
-52.46396999999999
 30
0.0
 11
-33.31694086479843
 21
-52.46396999999999
 31
0.0
  0
TEXT
  5
8EA
330
36
100
AcDbEntity
  8
0
 62
     3
100
AcDbText
 10
-112.0328106982949
 20
-56.96396999999999
 30
0.0
 40
3.2
  1
1
 41
0.8
  7
高3.2
100
AcDbText
  0
TEXT
  5
8EB
330
36
100
AcDbEntity
  8
0
 62
     3
100
AcDbText
 10
-211.1574838144796
 20
-56.96396999999999
 30
0.0
 40
3.2
  1
リングトランス
 41
0.8
  7
高3.2
100
AcDbText
  0
TEXT
  5
8EC
330
36
100
AcDbEntity
  8
0
 62
     3
100
AcDbText
 10
-151.8853495798222
 20
-56.96396999999999
 30
0.0
 40
3.2
  1
-
 41
0.8
  7
高3.2
100
AcDbText
  0
TEXT
  5
8ED
330
36
100
AcDbEntity
  8
0
 62
     3
100
AcDbText
 10
-103.446988130504
 20
-56.96396999999999
 30
0.0
 40
3.2
  1
5607
 41
0.8
  7
高3.2
100
AcDbText
  0
TEXT
  5
8EE
330
36
100
AcDbEntity
  8
0
 62
     3
100
AcDbText
 10
-87.99519513430631
 20
-56.96396999999999
 30
0.0
 40
3.2
  1
RTB-200D-100V　降圧用軽量リングトランス
 41
0.6
  7
高3.2
100
AcDbText
  0
TEXT
  5
8EF
330
36
100
AcDbEntity
  8
0
 62
     3
100
AcDbText
 10
-218.113077
 20
-56.96396999999999
 30
0.0
 40
3.2
  1
11
 41
0.8
  7
高3.2
100
AcDbText
  0
TEXT
  5
8F1
330
36
100
AcDbEntity
  8
0
 62
     3
100
AcDbText
 10
-175.2601353514326
 20
-56.96396999999999
 30
0.0
 40
3.2
  1
-
 41
0.8
  7
高3.2
100
AcDbText
  0
CIRCLE
  5
8F2
330
36
100
AcDbEntity
  8
0
100
AcDbCircle
 10
42.86338653953452
 20
1.927465437483533
 30
0.0
 40
5.0
  0
TEXT
  5
8F5
330
36
100
AcDbEntity
  8
0
 62
     4
100
AcDbText
 10
40.20871110816014
 20
-0.2909463094465536
 30
0.0
 40
4.5
  1
11
  7
高4.5
100
AcDbText
  0
CIRCLE
  5
B5C
330
36
100
AcDbEntity
  8
0
100
AcDbCircle
 10
144.5086309669702
 20
27.79883062042581
 30
0.0
 40
5.0
  0
TEXT
  5
B5D
330
36
100
AcDbEntity
  8
0
 62
     4
100
AcDbText
 10
142.3141692764706
 20
24.90313583031982
 30
0.0
 40
6.299999999999998
  1
5
  7
高6.3
100
AcDbText
  0
ARC
  5
B5F
330
36
100
AcDbEntity
  8
0
 62
     3
100
AcDbCircle
 10
112.4635736084029
 20
68.92274859164778
 30
0.0
 40
2.0
100
AcDbArc
 50
90.0
 51
270.0
  0
ARC
  5
B60
330
36
100
AcDbEntity
  8
0
 62
     3
100
AcDbCircle
 10
138.9635736084029
 20
68.92274859164778
 30
0.0
 40
2.0
100
AcDbArc
 50
270.0
 51
90.0
  0
LINE
  5
B61
330
36
100
AcDbEntity
  8
0
 62
     3
100
AcDbLine
 10
112.4635736084029
 20
66.92274859164777
 30
0.0
 11
112.4635736084029
 21
64.42274859164777
 31
0.0
  0
LINE
  5
B62
330
36
100
AcDbEntity
  8
0
 62
     3
100
AcDbLine
 10
138.9635736084029
 20
64.42274859164777
 30
0.0
 11
138.9635736084029
 21
66.92274859164777
 31
0.0
  0
LINE
  5
B63
330
36
100
AcDbEntity
  8
0
 62
     3
100
AcDbLine
 10
112.4635736084029
 20
64.42274859164777
 30
0.0
 11
113.2135736084029
 21
62.92274859164789
 31
0.0
  0
LINE
  5
B64
330
36
100
AcDbEntity
  8
0
 62
     3
100
AcDbLine
 10
138.2135736084029
 20
62.92274859164789
 30
0.0
 11
138.9635736084029
 21
64.42274859164777
 31
0.0
  0
LINE
  5
B65
330
36
100
AcDbEntity
  8
0
 62
     3
100
AcDbLine
 10
112.4635736084029
 20
72.42274859164777
 30
0.0
 11
112.4635736084029
 21
70.92274859164778
 31
0.0
  0
LINE
  5
B66
330
36
100
AcDbEntity
  8
0
 62
     3
100
AcDbLine
 10
138.9635736084029
 20
70.92274859164778
 30
0.0
 11
138.9635736084029
 21
72.42274859164777
 31
0.0
  0
ARC
  5
B67
330
36
100
AcDbEntity
  8
0
 62
     3
100
AcDbCircle
 10
125.7135736084029
 20
58.92274859164789
 30
0.0
 40
12.50000000000002
100
AcDbArc
 50
306.6531750701011
 51
334.1582287284891
  0
ARC
  5
B68
330
36
100
AcDbEntity
  8
0
 62
     3
100
AcDbCircle
 10
125.7135736084029
 20
58.92274859164789
 30
0.0
 40
12.50000000000001
100
AcDbArc
 50
205.8417712364037
 51
233.3468249299153
  0
ARC
  5
B69
330
36
100
AcDbEntity
  8
0
 62
     3
100
AcDbCircle
 10
115.863573608403
 20
45.6853961373238
 30
0.0
 40
4.0
100
AcDbArc
 50
0.0
 51
53.3468249299153
  0
ARC
  5
B6A
330
36
100
AcDbEntity
  8
0
 62
     3
100
AcDbCircle
 10
135.5635736084028
 20
45.6853961373238
 30
0.0
 40
4.0
100
AcDbArc
 50
126.6531750700847
 51
180.0
  0
ARC
  5
B6B
330
36
100
AcDbEntity
  8
0
 62
     3
100
AcDbCircle
 10
120.6380131088263
 20
37.39089461038194
 30
0.0
 40
2.174439500423603
100
AcDbArc
 50
110.8643046745889
 51
244.8405244688164
  0
ARC
  5
B6C
330
36
100
AcDbEntity
  8
0
 62
     3
100
AcDbCircle
 10
130.7891341079792
 20
37.39089461038194
 30
0.0
 40
2.174439500423597
100
AcDbArc
 50
295.1594755311835
 51
69.13569532541105
  0
LINE
  5
B6D
330
36
100
AcDbEntity
  8
0
 62
     3
100
AcDbLine
 10
119.7135736084029
 20
35.42274859164777
 30
0.0
 11
119.7135736084029
 21
33.92274859164789
 31
0.0
  0
LINE
  5
B6E
330
36
100
AcDbEntity
  8
0
 62
     3
100
AcDbLine
 10
131.7135736084029
 20
33.92274859164789
 30
0.0
 11
131.7135736084029
 21
35.42274859164777
 31
0.0
  0
LINE
  5
B6F
330
36
100
AcDbEntity
  8
0
 62
     3
100
AcDbLine
 10
119.863573608403
 20
45.6853961373238
 30
0.0
 11
119.863573608403
 21
39.42274859164778
 31
0.0
  0
LINE
  5
B70
330
36
100
AcDbEntity
  8
0
 62
     3
100
AcDbLine
 10
131.5635736084028
 20
39.42274859164778
 30
0.0
 11
131.5635736084028
 21
45.6853961373238
 31
0.0
  0
LINE
  5
B71
330
36
100
AcDbEntity
  8
0
 62
     3
100
AcDbLine
 10
120.8385736084029
 20
33.92274859164789
 30
0.0
 11
121.2005393598816
 21
20.40936053643784
 31
0.0
  0
LINE
  5
B72
330
36
100
AcDbEntity
  8
0
 62
     3
100
AcDbLine
 10
130.2266078569239
 20
20.40936053643784
 30
0.0
 11
130.5885736084029
 21
33.92274859164789
 31
0.0
  0
ARC
  5
B73
330
36
100
AcDbEntity
  8
0
 62
     3
100
AcDbCircle
 10
129.7267871290847
 20
20.42274859164777
 30
0.0
 40
0.5
100
AcDbArc
 50
270.0
 51
358.4656585003048
  0
ARC
  5
B74
330
36
100
AcDbEntity
  8
0
 62
     3
100
AcDbCircle
 10
121.7003600877208
 20
20.42274859164777
 30
0.0
 40
0.5
100
AcDbArc
 50
181.5343414996952
 51
270.0
  0
LINE
  5
B75
330
36
100
AcDbEntity
  8
0
 62
     3
100
AcDbLine
 10
138.9635736084029
 20
70.92274859164778
 30
0.0
 11
112.4635736084029
 21
70.92274859164778
 31
0.0
  0
LINE
  5
B76
330
36
100
AcDbEntity
  8
0
 62
     3
100
AcDbLine
 10
112.4635736084029
 20
66.92274859164777
 30
0.0
 11
138.9635736084029
 21
66.92274859164777
 31
0.0
  0
LINE
  5
B77
330
36
100
AcDbEntity
  8
0
 62
     3
100
AcDbLine
 10
112.4635736084029
 20
64.42274859164777
 30
0.0
 11
138.9635736084029
 21
64.42274859164777
 31
0.0
  0
LINE
  5
B78
330
36
100
AcDbEntity
  8
0
 62
     3
100
AcDbLine
 10
113.2135736084029
 20
62.92274859164789
 30
0.0
 11
138.2135736084029
 21
62.92274859164789
 31
0.0
  0
LINE
  5
B79
330
36
100
AcDbEntity
  8
0
 62
     3
100
AcDbLine
 10
138.9635736084029
 20
72.42274859164777
 30
0.0
 11
112.4635736084029
 21
72.42274859164777
 31
0.0
  0
LINE
  5
B7A
330
36
100
AcDbEntity
  8
0
 62
     3
100
AcDbLine
 10
119.863573608403
 20
39.42274859164778
 30
0.0
 11
131.5635736084026
 21
39.42274859164778
 31
0.0
  0
LINE
  5
B7B
330
36
100
AcDbEntity
  8
0
 62
     3
100
AcDbLine
 10
119.7135736084029
 20
35.42274859164777
 30
0.0
 11
131.7135736084027
 21
35.42274859164772
 31
0.0
  0
LINE
  5
B7C
330
36
100
AcDbEntity
  8
0
 62
     3
100
AcDbLine
 10
126.2135736084029
 20
82.92274859164777
 30
0.0
 11
126.0635736084028
 21
83.92274859164777
 31
0.0
  0
LINE
  5
B7D
330
36
100
AcDbEntity
  8
0
 62
     3
100
AcDbLine
 10
125.363573608403
 20
83.92274859164777
 30
0.0
 11
125.2135736084029
 21
82.92274859164777
 31
0.0
  0
LINE
  5
B7E
330
36
100
AcDbEntity
  8
0
 62
     3
100
AcDbLine
 10
125.363573608403
 20
83.92274859164777
 30
0.0
 11
126.0635736084028
 21
83.92274859164777
 31
0.0
  0
LINE
  5
B7F
330
36
100
AcDbEntity
  8
0
 62
     3
100
AcDbLine
 10
125.2135736084029
 20
72.42274859164777
 30
0.0
 11
125.2135736084029
 21
82.92274859164777
 31
0.0
  0
LINE
  5
B80
330
36
100
AcDbEntity
  8
0
 62
     3
100
AcDbLine
 10
126.2135736084029
 20
82.92274859164777
 30
0.0
 11
126.2135736084029
 21
72.42274859164777
 31
0.0
  0
LINE
  5
B81
330
36
100
AcDbEntity
  8
0
 62
     3
100
AcDbLine
 10
119.7135736084029
 20
33.92274859164789
 30
0.0
 11
131.7135736084029
 21
33.92274859164789
 31
0.0
  0
LINE
  5
B82
330
36
100
AcDbEntity
  8
0
 62
     3
100
AcDbLine
 10
124.9635736084029
 20
24.62274859164782
 30
0.0
 11
121.1488847114718
 21
24.62274859164782
 31
0.0
  0
LINE
  5
B83
330
36
100
AcDbEntity
  8
0
 62
     3
100
AcDbLine
 10
121.1923219721389
 20
23.0227485916478
 30
0.0
 11
121.1488847114718
 21
24.62274859164782
 31
0.0
  0
LINE
  5
B84
330
36
100
AcDbEntity
  8
0
 62
     3
100
AcDbLine
 10
121.1923219721389
 20
23.0227485916478
 30
0.0
 11
124.9635736084029
 21
23.02274859164791
 31
0.0
  0
LINE
  5
B85
330
36
100
AcDbEntity
  8
0
 62
     3
100
AcDbLine
 10
124.9635736084029
 20
23.02274859164791
 30
0.0
 11
124.9635736084029
 21
24.62274859164782
 31
0.0
  0
LINE
  5
B86
330
36
100
AcDbEntity
  8
0
 62
     3
100
AcDbLine
 10
126.4635736084029
 20
26.12274859164782
 30
0.0
 11
130.3189750650113
 21
26.12274859164782
 31
0.0
  0
LINE
  5
B87
330
36
100
AcDbEntity
  8
0
 62
     3
100
AcDbLine
 10
130.3623915539475
 20
27.72274859164784
 30
0.0
 11
130.3189750650113
 21
26.12274859164782
 31
0.0
  0
LINE
  5
B88
330
36
100
AcDbEntity
  8
0
 62
     3
100
AcDbLine
 10
130.3623915539475
 20
27.72274859164784
 30
0.0
 11
126.4635736084029
 21
27.72274859164784
 31
0.0
  0
LINE
  5
B89
330
36
100
AcDbEntity
  8
0
 62
     3
100
AcDbLine
 10
126.4635736084029
 20
27.72274859164784
 30
0.0
 11
126.4635736084029
 21
26.12274859164782
 31
0.0
  0
LINE
  5
B8A
330
36
100
AcDbEntity
  8
0
 62
     3
100
AcDbLine
 10
126.4635736084029
 20
23.02274859164791
 30
0.0
 11
130.2348252446666
 21
23.0227485916478
 31
0.0
  0
LINE
  5
B8B
330
36
100
AcDbEntity
  8
0
 62
     3
100
AcDbLine
 10
130.2782625053337
 20
24.62274859164782
 30
0.0
 11
130.2348252446666
 21
23.0227485916478
 31
0.0
  0
LINE
  5
B8C
330
36
100
AcDbEntity
  8
0
 62
     3
100
AcDbLine
 10
130.2782625053337
 20
24.62274859164782
 30
0.0
 11
126.4635736084029
 21
24.62274859164782
 31
0.0
  0
LINE
  5
B8D
330
36
100
AcDbEntity
  8
0
 62
     3
100
AcDbLine
 10
126.4635736084029
 20
24.62274859164782
 30
0.0
 11
126.4635736084029
 21
23.02274859164791
 31
0.0
  0
LINE
  5
B8E
330
36
100
AcDbEntity
  8
0
 62
     3
100
AcDbLine
 10
126.4635736084029
 20
33.92274859164789
 30
0.0
 11
126.4635736084029
 21
32.32274859164787
 31
0.0
  0
LINE
  5
B8F
330
36
100
AcDbEntity
  8
0
 62
     3
100
AcDbLine
 10
126.4635736084029
 20
32.32274859164787
 30
0.0
 11
130.4871576489154
 21
32.32274859164787
 31
0.0
  0
LINE
  5
B90
330
36
100
AcDbEntity
  8
0
 62
     3
100
AcDbLine
 10
130.4871576489154
 20
32.32274859164787
 30
0.0
 11
130.5305358254023
 21
33.92274859164789
 31
0.0
  0
LINE
  5
B91
330
36
100
AcDbEntity
  8
0
 62
     3
100
AcDbLine
 10
120.9399895678903
 20
32.32274859164787
 30
0.0
 11
120.8966113914035
 21
33.92274859164789
 31
0.0
  0
LINE
  5
B92
330
36
100
AcDbEntity
  8
0
 62
     3
100
AcDbLine
 10
120.9399895678903
 20
32.32274859164787
 30
0.0
 11
124.9635736084029
 21
32.32274859164787
 31
0.0
  0
LINE
  5
B93
330
36
100
AcDbEntity
  8
0
 62
     3
100
AcDbLine
 10
124.9635736084029
 20
32.32274859164787
 30
0.0
 11
124.9635736084029
 21
33.92274859164789
 31
0.0
  0
LINE
  5
B94
330
36
100
AcDbEntity
  8
0
 62
     3
100
AcDbLine
 10
124.9635736084029
 20
29.22274859164784
 30
0.0
 11
124.9635736084029
 21
30.82274859164787
 31
0.0
  0
LINE
  5
B95
330
36
100
AcDbEntity
  8
0
 62
     3
100
AcDbLine
 10
124.9635736084029
 20
30.82274859164787
 30
0.0
 11
120.980665230295
 21
30.82274859164787
 31
0.0
  0
LINE
  5
B96
330
36
100
AcDbEntity
  8
0
 62
     3
100
AcDbLine
 10
121.0240620502193
 20
29.22274859164784
 30
0.0
 11
120.980665230295
 21
30.82274859164787
 31
0.0
  0
LINE
  5
B97
330
36
100
AcDbEntity
  8
0
 62
     3
100
AcDbLine
 10
121.0240620502193
 20
29.22274859164784
 30
0.0
 11
124.9635736084029
 21
29.22274859164784
 31
0.0
  0
LINE
  5
B98
330
36
100
AcDbEntity
  8
0
 62
     3
100
AcDbLine
 10
126.4635736084029
 20
29.22274859164784
 30
0.0
 11
130.4030851665862
 21
29.22274859164784
 31
0.0
  0
LINE
  5
B99
330
36
100
AcDbEntity
  8
0
 62
     3
100
AcDbLine
 10
130.4464819865105
 20
30.82274859164787
 30
0.0
 11
130.4030851665862
 21
29.22274859164784
 31
0.0
  0
LINE
  5
B9A
330
36
100
AcDbEntity
  8
0
 62
     3
100
AcDbLine
 10
130.4464819865105
 20
30.82274859164787
 30
0.0
 11
126.4635736084029
 21
30.82274859164787
 31
0.0
  0
LINE
  5
B9B
330
36
100
AcDbEntity
  8
0
 62
     3
100
AcDbLine
 10
126.4635736084029
 20
30.82274859164787
 30
0.0
 11
126.4635736084029
 21
29.22274859164784
 31
0.0
  0
LINE
  5
B9C
330
36
100
AcDbEntity
  8
0
 62
     3
100
AcDbLine
 10
124.9635736084029
 20
27.72274859164784
 30
0.0
 11
121.0647556628583
 21
27.72274859164784
 31
0.0
  0
LINE
  5
B9D
330
36
100
AcDbEntity
  8
0
 62
     3
100
AcDbLine
 10
121.1081721517944
 20
26.12274859164782
 30
0.0
 11
121.0647556628583
 21
27.72274859164784
 31
0.0
  0
LINE
  5
B9E
330
36
100
AcDbEntity
  8
0
 62
     3
100
AcDbLine
 10
121.1081721517944
 20
26.12274859164782
 30
0.0
 11
124.9635736084029
 21
26.12274859164782
 31
0.0
  0
LINE
  5
B9F
330
36
100
AcDbEntity
  8
0
 62
     3
100
AcDbLine
 10
124.9635736084029
 20
26.12274859164782
 30
0.0
 11
124.9635736084029
 21
27.72274859164784
 31
0.0
  0
LINE
  5
BA0
330
36
100
AcDbEntity
  8
0
 62
     3
100
AcDbLine
 10
129.7267871290847
 20
19.92274859164777
 30
0.0
 11
121.7003600877208
 21
19.92274859164777
 31
0.0
  0
LINE
  5
BA1
330
36
100
AcDbEntity
  8
0
 62
     3
100
AcDbLine
 10
122.8605050848655
 20
24.62274859164782
 30
0.0
 11
122.8605050848655
 21
23.0227485916478
 31
0.0
  0
LINE
  5
BA2
330
36
100
AcDbEntity
  8
0
 62
     3
100
AcDbLine
 10
128.5666421319402
 20
26.12274859164782
 30
0.0
 11
128.5666421319402
 21
27.72274859164784
 31
0.0
  0
LINE
  5
BA3
330
36
100
AcDbEntity
  8
0
 62
     3
100
AcDbLine
 10
128.5666421319402
 20
23.0227485916478
 30
0.0
 11
128.5666421319402
 21
24.62274859164782
 31
0.0
  0
LINE
  5
BA4
330
36
100
AcDbEntity
  8
0
 62
     3
100
AcDbLine
 10
122.8605050848655
 20
33.92274859164789
 30
0.0
 11
122.8605050848655
 21
32.32274859164787
 31
0.0
  0
LINE
  5
BA5
330
36
100
AcDbEntity
  8
0
 62
     3
100
AcDbLine
 10
122.8605050848655
 20
30.82274859164787
 30
0.0
 11
122.8605050848655
 21
29.22274859164784
 31
0.0
  0
LINE
  5
BA6
330
36
100
AcDbEntity
  8
0
 62
     3
100
AcDbLine
 10
128.5666421319402
 20
29.22274859164784
 30
0.0
 11
128.5666421319402
 21
30.82274859164787
 31
0.0
  0
LINE
  5
BA7
330
36
100
AcDbEntity
  8
0
 62
     3
100
AcDbLine
 10
122.8605050848655
 20
27.72274859164784
 30
0.0
 11
122.8605050848655
 21
26.12274859164782
 31
0.0
  0
LINE
  5
BA8
330
36
100
AcDbEntity
  8
0
 62
     3
100
AcDbLine
 10
128.5666421319402
 20
33.92274859164789
 30
0.0
 11
128.5666421319402
 21
32.32274859164787
 31
0.0
  0
LINE
  5
BA9
330
36
100
AcDbEntity
  8
0
 62
     3
100
AcDbLine
 10
130.363573608403
 20
80.92274859164778
 30
0.0
 11
130.363573608403
 21
72.47274859164773
 31
0.0
  0
LINE
  5
BAA
330
36
100
AcDbEntity
  8
0
 62
     3
100
AcDbLine
 10
131.363573608403
 20
80.92274859164778
 30
0.0
 11
130.363573608403
 21
80.92274859164778
 31
0.0
  0
LINE
  5
BAB
330
36
100
AcDbEntity
  8
0
 62
     3
100
AcDbLine
 10
131.363573608403
 20
80.92274859164778
 30
0.0
 11
131.363573608403
 21
72.42274859164789
 31
0.0
  0
LINE
  5
BAC
330
36
100
AcDbEntity
  8
0
 62
     3
100
AcDbLine
 10
131.363573608403
 20
81.42274859164777
 30
0.0
 11
131.2135736084029
 21
82.42274859164778
 31
0.0
  0
LINE
  5
BAD
330
36
100
AcDbEntity
  8
0
 62
     3
100
AcDbLine
 10
130.5135736084028
 20
82.42274859164778
 30
0.0
 11
130.363573608403
 21
81.42274859164777
 31
0.0
  0
LINE
  5
BAE
330
36
100
AcDbEntity
  8
0
 62
     3
100
AcDbLine
 10
130.5135736084028
 20
82.42274859164778
 30
0.0
 11
131.2135736084029
 21
82.42274859164778
 31
0.0
  0
LINE
  5
BAF
330
36
100
AcDbEntity
  8
0
 62
     3
100
AcDbLine
 10
130.363573608403
 20
80.92274859164778
 30
0.0
 11
130.363573608403
 21
81.42274859164777
 31
0.0
  0
LINE
  5
BB0
330
36
100
AcDbEntity
  8
0
 62
     3
100
AcDbLine
 10
131.363573608403
 20
81.42274859164777
 30
0.0
 11
131.363573608403
 21
80.92274859164778
 31
0.0
  0
LINE
  5
BB1
330
36
100
AcDbEntity
  8
0
 62
     3
100
AcDbLine
 10
120.0635736084028
 20
80.92274859164778
 30
0.0
 11
120.0635736084028
 21
72.42274859164789
 31
0.0
  0
LINE
  5
BB2
330
36
100
AcDbEntity
  8
0
 62
     3
100
AcDbLine
 10
121.0635736084028
 20
80.92274859164778
 30
0.0
 11
120.0635736084028
 21
80.92274859164778
 31
0.0
  0
LINE
  5
BB3
330
36
100
AcDbEntity
  8
0
 62
     3
100
AcDbLine
 10
121.0635736084028
 20
80.92274859164778
 30
0.0
 11
121.0635736084028
 21
72.47274859164773
 31
0.0
  0
LINE
  5
BB4
330
36
100
AcDbEntity
  8
0
 62
     3
100
AcDbLine
 10
121.0635736084028
 20
81.42274859164777
 30
0.0
 11
120.9135736084027
 21
82.42274859164778
 31
0.0
  0
LINE
  5
BB5
330
36
100
AcDbEntity
  8
0
 62
     3
100
AcDbLine
 10
120.2135736084029
 20
82.42274859164778
 30
0.0
 11
120.0635736084028
 21
81.42274859164777
 31
0.0
  0
LINE
  5
BB6
330
36
100
AcDbEntity
  8
0
 62
     3
100
AcDbLine
 10
120.2135736084029
 20
82.42274859164778
 30
0.0
 11
120.9135736084027
 21
82.42274859164778
 31
0.0
  0
LINE
  5
BB7
330
36
100
AcDbEntity
  8
0
 62
     3
100
AcDbLine
 10
120.0635736084028
 20
80.92274859164778
 30
0.0
 11
120.0635736084028
 21
81.42274859164777
 31
0.0
  0
LINE
  5
BB8
330
36
100
AcDbEntity
  8
0
 62
     3
100
AcDbLine
 10
121.0635736084028
 20
81.42274859164777
 30
0.0
 11
121.0635736084028
 21
80.92274859164778
 31
0.0
  0
LINE
  5
BB9
330
36
100
AcDbEntity
  8
0
 62
     3
100
AcDbLine
 10
127.7135736084029
 20
80.92274859164778
 30
0.0
 11
127.7135736084029
 21
72.47274859164796
 31
0.0
  0
LINE
  5
BBA
330
36
100
AcDbEntity
  8
0
 62
     3
100
AcDbLine
 10
123.7135736084029
 20
80.92274859164778
 30
0.0
 11
123.7135736084029
 21
72.47274859164796
 31
0.0
  0
LINE
  5
BBB
330
36
100
AcDbEntity
  8
0
 62
     3
100
AcDbLine
 10
123.9635736084029
 20
81.42274859164777
 30
0.0
 11
123.7135736084029
 21
80.92274859164778
 31
0.0
  0
LINE
  5
BBC
330
36
100
AcDbEntity
  8
0
 62
     3
100
AcDbLine
 10
127.4635736084029
 20
81.42274859164777
 30
0.0
 11
126.2135736084029
 21
81.42274859164777
 31
0.0
  0
LINE
  5
BBD
330
36
100
AcDbEntity
  8
0
 62
     3
100
AcDbLine
 10
125.2135736084029
 20
81.42274859164777
 30
0.0
 11
123.9635736084029
 21
81.42274859164777
 31
0.0
  0
LINE
  5
BBE
330
36
100
AcDbEntity
  8
0
 62
     3
100
AcDbLine
 10
127.7135736084029
 20
80.92274859164778
 30
0.0
 11
127.4635736084029
 21
81.42274859164777
 31
0.0
  0
LINE
  5
BBF
330
36
100
AcDbEntity
  8
0
 62
     3
100
AcDbLine
 10
124.4635736084029
 20
82.42274859164778
 30
0.0
 11
125.2135736084029
 21
82.42274859164778
 31
0.0
  0
LINE
  5
BC0
330
36
100
AcDbEntity
  8
0
 62
     3
100
AcDbLine
 10
126.2135736084029
 20
82.42274859164778
 30
0.0
 11
126.9635736084029
 21
82.42274859164778
 31
0.0
  0
LINE
  5
BC1
330
36
100
AcDbEntity
  8
0
 62
     3
100
AcDbLine
 10
123.9635736084029
 20
81.42274859164777
 30
0.0
 11
124.4635736084029
 21
82.42274859164778
 31
0.0
  0
LINE
  5
BC2
330
36
100
AcDbEntity
  8
0
 62
     3
100
AcDbLine
 10
126.9635736084029
 20
82.42274859164778
 30
0.0
 11
127.4635736084029
 21
81.42274859164777
 31
0.0
  0
LINE
  5
BC3
330
36
100
AcDbEntity
  8
0
 62
     3
100
AcDbLine
 10
114.4635582478307
 20
53.47415662794907
 30
0.0
 11
114.4635582478307
 21
62.92274859164789
 31
0.0
  0
LINE
  5
BC4
330
36
100
AcDbEntity
  8
0
 62
     3
100
AcDbLine
 10
136.9635889656363
 20
53.47415662105629
 30
0.0
 11
136.9635889656368
 21
62.92274859164789
 31
0.0
  0
LINE
  5
BC5
330
36
100
AcDbEntity
  8
0
 62
     7
100
AcDbLine
 10
131.3635736084027
 20
99.16747706217533
 30
0.0
 11
130.3635736084027
 21
99.16747706217533
 31
0.0
  0
LINE
  5
BC6
330
36
100
AcDbEntity
  8
0
 62
     7
100
AcDbLine
 10
131.2135736084038
 20
99.31747706217533
 30
0.0
 11
130.5135736084037
 21
99.31747706217533
 31
0.0
  0
LINE
  5
BC7
330
36
100
AcDbEntity
  8
0
 62
     7
100
AcDbLine
 10
121.0635736084028
 20
99.16747706217533
 30
0.0
 11
120.0635736084028
 21
99.16747706217533
 31
0.0
  0
LINE
  5
BC8
330
36
100
AcDbEntity
  8
0
 62
     7
100
AcDbLine
 10
120.9135736084027
 20
99.31747706217533
 30
0.0
 11
120.2135736084029
 21
99.31747706217533
 31
0.0
  0
LINE
  5
BC9
330
36
100
AcDbEntity
  8
0
 62
     7
100
AcDbLine
 10
131.3635736084027
 20
103.1674770621753
 30
0.0
 11
130.3635736084027
 21
103.1674770621753
 31
0.0
  0
LINE
  5
BCA
330
36
100
AcDbEntity
  8
0
 62
     7
100
AcDbLine
 10
131.2135736084038
 20
103.0174770621753
 30
0.0
 11
130.5135736084037
 21
103.0174770621753
 31
0.0
  0
LINE
  5
BCB
330
36
100
AcDbEntity
  8
0
 62
     7
100
AcDbLine
 10
121.0635736084028
 20
103.1674770621753
 30
0.0
 11
120.0635736084028
 21
103.1674770621753
 31
0.0
  0
LINE
  5
BCC
330
36
100
AcDbEntity
  8
0
 62
     7
100
AcDbLine
 10
120.9135736084027
 20
103.0174770621753
 30
0.0
 11
120.2135736084029
 21
103.0174770621753
 31
0.0
  0
LINE
  5
BCD
330
36
100
AcDbEntity
  8
0
 62
     7
100
AcDbLine
 10
127.7135736084029
 20
105.8174770621753
 30
0.0
 11
123.7135736084029
 21
105.8174770621753
 31
0.0
  0
LINE
  5
BCE
330
36
100
AcDbEntity
  8
0
 62
     7
100
AcDbLine
 10
127.5635736084028
 20
105.9674770621752
 30
0.0
 11
123.8635736084027
 21
105.9674770621752
 31
0.0
  0
LINE
  5
BCF
330
36
100
AcDbEntity
  8
0
 62
     7
100
AcDbLine
 10
127.7135736084029
 20
106.8174770621753
 30
0.0
 11
123.7135736084029
 21
106.8174770621753
 31
0.0
  0
LINE
  5
BD0
330
36
100
AcDbEntity
  8
0
 62
     7
100
AcDbLine
 10
127.5635736084028
 20
106.6674770621752
 30
0.0
 11
123.8635736084027
 21
106.6674770621752
 31
0.0
  0
LINE
  5
BD1
330
36
100
AcDbEntity
  8
0
 62
     7
100
AcDbLine
 10
126.2135736084029
 20
94.41747706217526
 30
0.0
 11
125.2135736084029
 21
94.41747706217526
 31
0.0
  0
LINE
  5
BD2
330
36
100
AcDbEntity
  8
0
 62
     7
100
AcDbLine
 10
126.0635736084028
 20
94.56747706217527
 30
0.0
 11
125.3635736084027
 21
94.56747706217527
 31
0.0
  0
LINE
  5
BD3
330
36
100
AcDbEntity
  8
0
 62
     7
100
AcDbLine
 10
126.2135736084029
 20
98.41747706217526
 30
0.0
 11
125.2135736084029
 21
98.41747706217526
 31
0.0
  0
LINE
  5
BD4
330
36
100
AcDbEntity
  8
0
 62
     7
100
AcDbLine
 10
126.0635736084028
 20
98.26747706217526
 30
0.0
 11
125.3635736084027
 21
98.26747706217526
 31
0.0
  0
LINE
  5
BD5
330
36
100
AcDbEntity
  8
0
 62
     7
100
AcDbLine
 10
123.7135736084029
 20
105.8174770621753
 30
0.0
 11
123.7135736084029
 21
106.8174770621753
 31
0.0
  0
LINE
  5
BD6
330
36
100
AcDbEntity
  8
0
 62
     7
100
AcDbLine
 10
123.8635736084027
 20
105.9674770621752
 30
0.0
 11
123.8635736084027
 21
106.6674770621752
 31
0.0
  0
LINE
  5
BD7
330
36
100
AcDbEntity
  8
0
 62
     7
100
AcDbLine
 10
127.7135736084029
 20
105.8174770621753
 30
0.0
 11
127.7135736084029
 21
106.8174770621753
 31
0.0
  0
LINE
  5
BD8
330
36
100
AcDbEntity
  8
0
 62
     7
100
AcDbLine
 10
127.5635736084028
 20
105.9674770621752
 30
0.0
 11
127.5635736084028
 21
106.6674770621752
 31
0.0
  0
LINE
  5
BD9
330
36
100
AcDbEntity
  8
0
 62
     7
100
AcDbLine
 10
125.2135736084029
 20
94.41747706217526
 30
0.0
 11
125.2135736084029
 21
98.41747706217526
 31
0.0
  0
LINE
  5
BDA
330
36
100
AcDbEntity
  8
0
 62
     7
100
AcDbLine
 10
125.3635736084027
 20
94.56747706217527
 30
0.0
 11
125.3635736084027
 21
98.26747706217526
 31
0.0
  0
LINE
  5
BDB
330
36
100
AcDbEntity
  8
0
 62
     7
100
AcDbLine
 10
126.2135736084029
 20
94.41747706217526
 30
0.0
 11
126.2135736084029
 21
98.41747706217526
 31
0.0
  0
LINE
  5
BDC
330
36
100
AcDbEntity
  8
0
 62
     7
100
AcDbLine
 10
126.0635736084028
 20
94.56747706217527
 30
0.0
 11
126.0635736084028
 21
98.26747706217526
 31
0.0
  0
LINE
  5
BDD
330
36
100
AcDbEntity
  8
0
 62
     7
100
AcDbLine
 10
120.0635736084028
 20
99.16747706217533
 30
0.0
 11
120.0635736084028
 21
103.1674770621753
 31
0.0
  0
LINE
  5
BDE
330
36
100
AcDbEntity
  8
0
 62
     7
100
AcDbLine
 10
120.2135736084029
 20
99.31747706217533
 30
0.0
 11
120.2135736084029
 21
103.0174770621753
 31
0.0
  0
LINE
  5
BDF
330
36
100
AcDbEntity
  8
0
 62
     7
100
AcDbLine
 10
121.0635736084028
 20
99.16747706217533
 30
0.0
 11
121.0635736084028
 21
103.1674770621753
 31
0.0
  0
LINE
  5
BE0
330
36
100
AcDbEntity
  8
0
 62
     7
100
AcDbLine
 10
120.9135736084027
 20
99.31747706217533
 30
0.0
 11
120.9135736084027
 21
103.0174770621753
 31
0.0
  0
LINE
  5
BE1
330
36
100
AcDbEntity
  8
0
 62
     7
100
AcDbLine
 10
130.3635736084027
 20
99.16747706217533
 30
0.0
 11
130.3635736084027
 21
103.1674770621753
 31
0.0
  0
LINE
  5
BE2
330
36
100
AcDbEntity
  8
0
 62
     7
100
AcDbLine
 10
130.5135736084037
 20
99.31747706217533
 30
0.0
 11
130.5135736084037
 21
103.0174770621753
 31
0.0
  0
LINE
  5
BE3
330
36
100
AcDbEntity
  8
0
 62
     7
100
AcDbLine
 10
131.3635736084027
 20
99.16747706217533
 30
0.0
 11
131.3635736084027
 21
103.1674770621753
 31
0.0
  0
LINE
  5
BE4
330
36
100
AcDbEntity
  8
0
 62
     7
100
AcDbLine
 10
131.2135736084038
 20
99.31747706217533
 30
0.0
 11
131.2135736084029
 21
103.0174770621753
 31
0.0
  0
LINE
  5
BE5
330
36
100
AcDbEntity
  8
0
 62
     7
100
AcDbLine
 10
120.9135736084027
 20
103.0174770621753
 30
0.0
 11
121.0635736084028
 21
103.1674770621753
 31
0.0
  0
LINE
  5
BE6
330
36
100
AcDbEntity
  8
0
 62
     7
100
AcDbLine
 10
120.2135736084029
 20
103.0174770621753
 30
0.0
 11
120.0635736084028
 21
103.1674770621753
 31
0.0
  0
LINE
  5
BE7
330
36
100
AcDbEntity
  8
0
 62
     7
100
AcDbLine
 10
120.2135736084029
 20
99.31747706217533
 30
0.0
 11
120.0635736084028
 21
99.16747706217533
 31
0.0
  0
LINE
  5
BE8
330
36
100
AcDbEntity
  8
0
 62
     7
100
AcDbLine
 10
120.9135736084027
 20
99.31747706217533
 30
0.0
 11
121.0635736084028
 21
99.16747706217533
 31
0.0
  0
LINE
  5
BE9
330
36
100
AcDbEntity
  8
0
 62
     7
100
AcDbLine
 10
125.3635736084027
 20
98.26747706217526
 30
0.0
 11
125.2135736084029
 21
98.41747706217526
 31
0.0
  0
LINE
  5
BEA
330
36
100
AcDbEntity
  8
0
 62
     7
100
AcDbLine
 10
126.0635736084028
 20
98.26747706217526
 30
0.0
 11
126.2135736084029
 21
98.41747706217526
 31
0.0
  0
LINE
  5
BEB
330
36
100
AcDbEntity
  8
0
 62
     7
100
AcDbLine
 10
125.3635736084027
 20
94.56747706217527
 30
0.0
 11
125.2135736084029
 21
94.41747706217526
 31
0.0
  0
LINE
  5
BEC
330
36
100
AcDbEntity
  8
0
 62
     7
100
AcDbLine
 10
126.0635736084028
 20
94.56747706217527
 30
0.0
 11
126.2135736084029
 21
94.41747706217526
 31
0.0
  0
LINE
  5
BED
330
36
100
AcDbEntity
  8
0
 62
     7
100
AcDbLine
 10
130.5135736084037
 20
99.31747706217533
 30
0.0
 11
130.3635736084027
 21
99.16747706217533
 31
0.0
  0
LINE
  5
BEE
330
36
100
AcDbEntity
  8
0
 62
     7
100
AcDbLine
 10
131.2135736084038
 20
99.31747706217533
 30
0.0
 11
131.3635736084027
 21
99.16747706217533
 31
0.0
  0
LINE
  5
BEF
330
36
100
AcDbEntity
  8
0
 62
     7
100
AcDbLine
 10
131.2135736084038
 20
103.0174770621753
 30
0.0
 11
131.3635736084027
 21
103.1674770621753
 31
0.0
  0
LINE
  5
BF0
330
36
100
AcDbEntity
  8
0
 62
     7
100
AcDbLine
 10
130.5135736084037
 20
103.0174770621753
 30
0.0
 11
130.3635736084027
 21
103.1674770621753
 31
0.0
  0
LINE
  5
BF1
330
36
100
AcDbEntity
  8
0
 62
     7
100
AcDbLine
 10
127.5635736084028
 20
106.6674770621752
 30
0.0
 11
127.7135736084029
 21
106.8174770621753
 31
0.0
  0
LINE
  5
BF2
330
36
100
AcDbEntity
  8
0
 62
     7
100
AcDbLine
 10
127.5635736084028
 20
105.9674770621752
 30
0.0
 11
127.7135736084029
 21
105.8174770621753
 31
0.0
  0
LINE
  5
BF3
330
36
100
AcDbEntity
  8
0
 62
     7
100
AcDbLine
 10
123.8635736084027
 20
106.6674770621752
 30
0.0
 11
123.7135736084029
 21
106.8174770621753
 31
0.0
  0
LINE
  5
BF4
330
36
100
AcDbEntity
  8
0
 62
     7
100
AcDbLine
 10
123.8635736084027
 20
105.9674770621752
 30
0.0
 11
123.7135736084029
 21
105.8174770621753
 31
0.0
  0
CIRCLE
  5
BF5
330
36
100
AcDbEntity
  8
0
 62
     3
100
AcDbCircle
 10
125.7135736084029
 20
101.1674770621753
 30
0.0
 40
13.25
  0
CIRCLE
  5
BF6
330
36
100
AcDbEntity
  8
0
 62
     3
100
AcDbCircle
 10
125.7135736084029
 20
101.1674770621753
 30
0.0
 40
15.25
  0
TEXT
  5
BF7
330
36
100
AcDbEntity
  8
0
 62
     4
100
AcDbText
 10
132.9668724021708
 20
99.45798147967275
 30
0.0
 40
3.2
  1
X
  7
高3.2
100
AcDbText
  0
TEXT
  5
BF8
330
36
100
AcDbEntity
  8
0
 62
     4
100
AcDbText
 10
116.4127546638665
 20
99.40942472287511
 30
0.0
 40
3.2
  1
Z
  7
高3.2
100
AcDbText
  0
TEXT
  5
BF9
330
36
100
AcDbEntity
  8
0
 62
     4
100
AcDbText
 10
124.7445811503776
 20
107.8570315970211
 30
0.0
 40
3.2
  1
Y
  7
高3.2
100
AcDbText
  0
LINE
  5
BFA
330
36
100
AcDbEntity
  8
0
 62
     3
100
AcDbLine
 10
122.9885736084027
 20
13.50152929069539
 30
0.0
 11
122.9885736084027
 21
19.92274859164777
 31
0.0
  0
LINE
  5
BFB
330
36
100
AcDbEntity
  8
0
 62
     3
100
AcDbLine
 10
128.4385736084028
 20
13.50152929069539
 30
0.0
 11
128.4385736084028
 21
19.92274859164777
 31
0.0
  0
ARC
  5
BFC
330
36
100
AcDbEntity
  8
0
100
AcDbCircle
 10
127.0760736084027
 20
14.93215429069536
 30
0.0
 40
1.975625000000008
100
AcDbArc
 50
226.3971810272956
 51
313.6028189727048
  0
ARC
  5
BFD
330
36
100
AcDbEntity
  8
0
100
AcDbCircle
 10
127.0760736084027
 20
12.07090429069539
 30
0.0
 40
1.975625000000008
100
AcDbArc
 50
46.39718102729554
 51
133.6028189727047
  0
ARC
  5
BFE
330
36
100
AcDbEntity
  8
0
100
AcDbCircle
 10
124.3510736084027
 20
14.93215429069534
 30
0.0
 40
1.975625000000008
100
AcDbArc
 50
226.3971810272973
 51
313.6028189727027
  0
LINE
  5
BFF
330
36
100
AcDbEntity
  8
0
 62
     3
100
AcDbLine
 10
81.21337
 20
29.101383
 30
0.0
 11
89.17529163353895
 21
29.101383
 31
0.0
  0
LINE
  5
C00
330
36
100
AcDbEntity
  8
0
 62
     3
100
AcDbLine
 10
81.21337
 20
23.65138299999999
 30
0.0
 11
89.17529163353895
 21
23.65138299999999
 31
0.0
  0
LINE
  5
C01
330
36
100
AcDbEntity
  8
0
 62
     3
100
AcDbLine
 10
101.9002916335389
 20
16.376383
 30
0.0
 11
101.9002916335389
 21
6.596977317672951
 31
0.0
  0
LINE
  5
C02
330
36
100
AcDbEntity
  8
0
 62
     3
100
AcDbLine
 10
96.45029163353894
 20
16.376383
 30
0.0
 11
96.45029163353894
 21
6.596977317672951
 31
0.0
  0
ARC
  5
C03
330
36
100
AcDbEntity
  8
0
 62
     3
100
AcDbCircle
 10
89.17529163353895
 20
16.376383
 30
0.0
 40
7.275
100
AcDbArc
 50
0.0
 51
90.0
  0
ARC
  5
C04
330
36
100
AcDbEntity
  8
0
 62
     3
100
AcDbCircle
 10
89.17529163353895
 20
16.376383
 30
0.0
 40
12.725
100
AcDbArc
 50
0.0
 51
90.0
  0
LINE
  5
C05
330
36
100
AcDbEntity
  8
0
 62
     3
100
AcDbLine
 10
109.1752916335389
 20
-6.128022682327049
 30
0.0
 11
115.7135736084027
 21
-6.128022682327049
 31
0.0
  0
LINE
  5
C06
330
36
100
AcDbEntity
  8
0
 62
     3
100
AcDbLine
 10
109.1752916335389
 20
-0.6780226823270468
 30
0.0
 11
115.7135736084027
 21
-0.6780226823270468
 31
0.0
  0
ARC
  5
C07
330
36
100
AcDbEntity
  8
0
 62
     3
100
AcDbCircle
 10
115.7135736084027
 20
6.596977317672951
 30
0.0
 40
7.275
100
AcDbArc
 50
270.0
 51
0.0
  0
ARC
  5
C08
330
36
100
AcDbEntity
  8
0
 62
     3
100
AcDbCircle
 10
115.7135736084027
 20
6.596977317672951
 30
0.0
 40
12.725
100
AcDbArc
 50
270.0
 51
0.0
  0
ARC
  5
C09
330
36
100
AcDbEntity
  8
0
 62
     3
100
AcDbCircle
 10
109.1752916335389
 20
6.596977317672951
 30
0.0
 40
7.275
100
AcDbArc
 50
180.0
 51
270.0
  0
ARC
  5
C0A
330
36
100
AcDbEntity
  8
0
 62
     3
100
AcDbCircle
 10
109.1752916335389
 20
6.596977317672951
 30
0.0
 40
12.725
100
AcDbArc
 50
180.0
 51
270.0
  0
LINE
  5
C0B
330
36
100
AcDbEntity
  8
0
 62
     3
100
AcDbLine
 10
128.4385736084028
 20
10.263048205963
 30
0.0
 11
128.4385736084028
 21
6.596977317672951
 31
0.0
  0
LINE
  5
C0C
330
36
100
AcDbEntity
  8
0
 62
     3
100
AcDbLine
 10
122.9885736084027
 20
10.263048205963
 30
0.0
 11
122.9885736084027
 21
6.596977317672951
 31
0.0
  0
ARC
  5
C0D
330
36
100
AcDbEntity
  8
0
100
AcDbCircle
 10
124.3510736084028
 20
8.832423205962982
 30
0.0
 40
1.97562500000002
100
AcDbArc
 50
46.39718102729727
 51
133.6028189727027
  0
ARC
  5
C0E
330
36
100
AcDbEntity
  8
0
100
AcDbCircle
 10
124.3510736084028
 20
11.69367320596302
 30
0.0
 40
1.97562500000002
100
AcDbArc
 50
226.3971810272973
 51
313.6028189727027
  0
ARC
  5
C0F
330
36
100
AcDbEntity
  8
0
100
AcDbCircle
 10
127.0760736084028
 20
8.832423205962982
 30
0.0
 40
1.97562500000002
100
AcDbArc
 50
46.39718102729754
 51
133.6028189727027
  0
LINE
  5
CDF
330
36
100
AcDbEntity
  8
0
100
AcDbLine
 10
-138.222556
 20
43.50799499999999
 30
0.0
 11
-139.794554
 21
42.1604
 31
0.0
  0
LINE
  5
CE0
330
36
100
AcDbEntity
  8
0
100
AcDbLine
 10
-139.794554
 20
42.1604
 30
0.0
 11
-137.759367
 21
42.541453
 31
0.0
  0
LINE
  5
CE1
330
36
100
AcDbEntity
  8
0
100
AcDbLine
 10
-124.121038
 20
98.054114
 30
0.0
 11
-125.561775
 21
96.567015
 31
0.0
  0
LINE
  5
CE2
330
36
100
AcDbEntity
  8
0
100
AcDbLine
 10
-125.561775
 20
96.567015
 30
0.0
 11
-123.57051
 21
97.134511
 31
0.0
  0
LINE
  5
CE3
330
36
100
AcDbEntity
  8
0
100
AcDbLine
 10
-169.084744
 20
87.43034599999999
 30
0.0
 11
-167.029825
 21
87.176383
 31
0.0
  0
LINE
  5
CE4
330
36
100
AcDbEntity
  8
0
100
AcDbLine
 10
-167.029825
 20
87.176383
 30
0.0
 11
-168.682455
 21
88.42378100000003
 31
0.0
  0
LINE
  5
CE5
330
36
100
AcDbEntity
  8
0
100
AcDbLine
 10
38.242055
 20
118.050459
 30
0.0
 11
36.434628
 21
117.040312
 31
0.0
  0
LINE
  5
CE6
330
36
100
AcDbEntity
  8
0
100
AcDbLine
 10
36.434628
 20
117.040312
 30
0.0
 11
38.504979
 21
117.011412
 31
0.0
  0
LINE
  5
CE7
330
36
100
AcDbEntity
  8
0
100
AcDbLine
 10
-172.07589
 20
50.129948
 30
0.0
 11
-170.059124
 21
49.661077
 31
0.0
  0
LINE
  5
CE8
330
36
100
AcDbEntity
  8
0
100
AcDbLine
 10
-170.059124
 20
49.661077
 30
0.0
 11
-171.571259
 21
51.075515
 31
0.0
  0
LINE
  5
CE9
330
36
100
AcDbEntity
  8
0
100
AcDbLine
 10
-167.960525
 20
7.678167
 30
0.0
 11
-165.89559
 21
7.525761999999997
 31
0.0
  0
LINE
  5
CEA
330
36
100
AcDbEntity
  8
0
100
AcDbLine
 10
-165.89559
 20
7.525761999999997
 30
0.0
 11
-167.607674
 21
8.690215999999999
 31
0.0
  0
LINE
  5
CEB
330
36
100
AcDbEntity
  8
0
100
AcDbLine
 10
-60.28663
 20
11.126383
 30
0.0
 11
-60.28663
 21
-5.789755999999997
 31
0.0
  0
LINE
  5
CEC
330
36
100
AcDbEntity
  8
0
100
AcDbLine
 10
79.71337
 20
11.126383
 30
0.0
 11
79.71337
 21
-5.789755999999997
 31
0.0
  0
LINE
  5
CED
330
36
100
AcDbEntity
  8
0
100
AcDbLine
 10
-57.78663
 20
-4.539755999999997
 30
0.0
 11
77.21337
 21
-4.539755999999997
 31
0.0
  0
LINE
  5
CF1
330
36
100
AcDbEntity
  8
0
100
AcDbLine
 10
-176.002727
 20
22.126383
 30
0.0
 11
-176.002727
 21
-5.789755999999997
 31
0.0
  0
LINE
  5
CF2
330
36
100
AcDbEntity
  8
0
100
AcDbLine
 10
-111.060388
 20
22.126383
 30
0.0
 11
-111.060388
 21
-5.789755999999997
 31
0.0
  0
LINE
  5
CF3
330
36
100
AcDbEntity
  8
0
100
AcDbLine
 10
-173.502727
 20
-4.539755999999997
 30
0.0
 11
-113.560388
 21
-4.539755999999997
 31
0.0
  0
LINE
  5
CF7
330
36
100
AcDbEntity
  8
0
100
AcDbLine
 10
-30.289138
 20
6.376383
 30
0.0
 11
-74.932371
 21
6.376383000000013
 31
0.0
  0
LINE
  5
CF8
330
36
100
AcDbEntity
  8
0
100
AcDbLine
 10
-34.60513
 20
115.614792
 30
0.0
 11
-74.93237099999998
 21
115.614792
 31
0.0
  0
LINE
  5
CF9
330
36
100
AcDbEntity
  8
0
100
AcDbLine
 10
-73.682371
 20
8.876383000000013
 30
0.0
 11
-73.68237099999998
 21
113.114792
 31
0.0
  0
LINE
  5
CFD
330
36
100
AcDbEntity
  8
0
100
AcDbLine
 10
130.425429628569
 20
17.04345264354299
 30
0.0
 11
140.5349189266377
 21
24.76409626293795
 31
0.0
1001
ACAD
1000
DSTYLE
1002
{
1070
   147
1040
0.625
1070
    77
1070
     0
1002
}
  0
LINE
  5
CFE
330
36
100
AcDbEntity
  8
0
  6
ByBlock
 62
     0
370
    -2
100
AcDbLine
 10
130.8320066467462
 20
16.51107655979548
 30
0.0
 11
128.4385736084028
 21
15.52608546479906
 31
0.0
  0
LINE
  5
CFF
330
36
100
AcDbEntity
  8
0
  6
ByBlock
 62
     0
370
    -2
100
AcDbLine
 10
128.4385736084028
 20
15.52608546479906
 30
0.0
 11
130.0188526103917
 21
17.57582872729051
 31
0.0
  0
LINE
  5
D00
330
36
100
AcDbEntity
  8
0
  6
ByBlock
 62
     0
370
    -2
100
AcDbLine
 10
128.4385736084028
 20
15.52608546479906
 30
0.0
 11
130.425429628569
 21
17.04345264354299
 31
0.0
  0
LINE
  5
D01
330
36
100
AcDbEntity
  8
0
100
AcDbLine
 10
38.25228471539021
 20
15.51156400452775
 30
0.0
 11
41.25621368027181
 21
6.66212439040183
 31
0.0
1001
ACAD
1000
DSTYLE
1002
{
1070
   147
1040
0.625
1070
    77
1070
     0
1002
}
  0
LINE
  5
D02
330
36
100
AcDbEntity
  8
0
  6
ByBlock
 62
     0
370
    -2
100
AcDbLine
 10
37.61796114950247
 20
15.29624382429445
 30
0.0
 11
37.44869828575887
 21
17.87889348098689
 31
0.0
  0
LINE
  5
D03
330
36
100
AcDbEntity
  8
0
  6
ByBlock
 62
     0
370
    -2
100
AcDbLine
 10
37.44869828575887
 20
17.87889348098689
 30
0.0
 11
38.88660828127797
 21
15.72688418476104
 31
0.0
  0
LINE
  5
D04
330
36
100
AcDbEntity
  8
0
  6
ByBlock
 62
     0
370
    -2
100
AcDbLine
 10
37.44869828575887
 20
17.87889348098689
 30
0.0
 11
38.25228471539021
 21
15.51156400452775
 31
0.0
  0
LINE
  5
D05
330
36
100
AcDbEntity
  8
0
100
AcDbLine
 10
50.46210226767776
 20
9.282416159122089
 30
0.0
 11
52.52774533179707
 21
6.115399119239348
 31
0.0
1001
ACAD
1000
DSTYLE
1002
{
1070
   147
1040
0.625
1070
    77
1070
     0
1002
}
  0
LINE
  5
D06
330
36
100
AcDbEntity
  8
0
  6
ByBlock
 62
     0
370
    -2
100
AcDbLine
 10
49.90102594663137
 20
8.916461888457991
 30
0.0
 11
49.09634135547396
 21
11.376383
 31
0.0
  0
LINE
  5
D07
330
36
100
AcDbEntity
  8
0
  6
ByBlock
 62
     0
370
    -2
100
AcDbLine
 10
49.09634135547396
 20
11.376383
 30
0.0
 11
51.02317858872416
 21
9.648370429786186
 31
0.0
  0
LINE
  5
D08
330
36
100
AcDbEntity
  8
0
  6
ByBlock
 62
     0
370
    -2
100
AcDbLine
 10
49.09634135547396
 20
11.376383
 30
0.0
 11
50.46210226767776
 21
9.282416159122089
 31
0.0
  0
LINE
  5
D09
330
36
100
AcDbEntity
  8
0
100
AcDbLine
 10
77.10030885354838
 20
113.694763768129
 30
0.0
 11
79.86875582707431
 21
120.555796628551
 31
0.0
1001
ACAD
1000
DSTYLE
1002
{
1070
   147
1040
0.625
1070
    77
1070
     0
1002
}
  0
LINE
  5
D0A
330
36
100
AcDbEntity
  8
0
  6
ByBlock
 62
     0
370
    -2
100
AcDbLine
 10
77.72151666198777
 20
113.4441045871877
 30
0.0
 11
76.16483538306965
 21
111.376383
 31
0.0
  0
LINE
  5
D0B
330
36
100
AcDbEntity
  8
0
  6
ByBlock
 62
     0
370
    -2
100
AcDbLine
 10
76.16483538306965
 20
111.376383
 30
0.0
 11
76.47910104510898
 21
113.9454229490703
 31
0.0
  0
LINE
  5
D0C
330
36
100
AcDbEntity
  8
0
  6
ByBlock
 62
     0
370
    -2
100
AcDbLine
 10
76.16483538306965
 20
111.376383
 30
0.0
 11
77.10030885354838
 21
113.694763768129
 31
0.0
  0
LINE
  5
D0D
330
36
100
AcDbEntity
  8
0
100
AcDbLine
 10
-120.6495002713789
 20
72.99503471422848
 30
0.0
 11
-102.9218573807239
 21
84.24677995623914
 31
0.0
1001
ACAD
1000
DSTYLE
1002
{
1070
   341
1005
74E
1070
   147
1040
0.625
1070
    77
1070
     0
1002
}
  0
TEXT
  5
D0F
330
36
100
AcDbEntity
  8
0
 62
     4
100
AcDbText
 10
5.963369999999997
 20
-3.914755999999997
 30
0.0
 40
3.0
  1
220
100
AcDbText
  0
LINE
  5
D10
330
36
100
AcDbEntity
  8
0
  6
ByBlock
 62
     0
370
    -2
100
AcDbLine
 10
77.21337
 20
-3.869883499999997
 30
0.0
 11
79.71337
 21
-4.539755999999997
 31
0.0
  0
LINE
  5
D11
330
36
100
AcDbEntity
  8
0
  6
ByBlock
 62
     0
370
    -2
100
AcDbLine
 10
79.71337
 20
-4.539755999999997
 30
0.0
 11
77.21337
 21
-5.209628499999997
 31
0.0
  0
LINE
  5
D12
330
36
100
AcDbEntity
  8
0
  6
ByBlock
 62
     0
370
    -2
100
AcDbLine
 10
79.71337
 20
-4.539755999999997
 30
0.0
 11
77.21337
 21
-4.539755999999997
 31
0.0
  0
LINE
  5
D13
330
36
100
AcDbEntity
  8
0
  6
ByBlock
 62
     0
370
    -2
100
AcDbLine
 10
-57.78663
 20
-5.209628499999997
 30
0.0
 11
-60.28663
 21
-4.539755999999997
 31
0.0
  0
LINE
  5
D14
330
36
100
AcDbEntity
  8
0
  6
ByBlock
 62
     0
370
    -2
100
AcDbLine
 10
-60.28663
 20
-4.539755999999997
 30
0.0
 11
-57.78663
 21
-3.869883499999997
 31
0.0
  0
LINE
  5
D15
330
36
100
AcDbEntity
  8
0
  6
ByBlock
 62
     0
370
    -2
100
AcDbLine
 10
-60.28663
 20
-4.539755999999997
 30
0.0
 11
-57.78663
 21
-4.539755999999997
 31
0.0
  0
TEXT
  5
D16
330
36
100
AcDbEntity
  8
0
 62
     4
100
AcDbText
 10
-146.7815575
 20
-3.914755999999997
 30
0.0
 40
3.0
  1
120
100
AcDbText
  0
LINE
  5
D17
330
36
100
AcDbEntity
  8
0
  6
ByBlock
 62
     0
370
    -2
100
AcDbLine
 10
-113.560388
 20
-3.869883499999997
 30
0.0
 11
-111.060388
 21
-4.539755999999997
 31
0.0
  0
LINE
  5
D18
330
36
100
AcDbEntity
  8
0
  6
ByBlock
 62
     0
370
    -2
100
AcDbLine
 10
-111.060388
 20
-4.539755999999997
 30
0.0
 11
-113.560388
 21
-5.209628499999997
 31
0.0
  0
LINE
  5
D19
330
36
100
AcDbEntity
  8
0
  6
ByBlock
 62
     0
370
    -2
100
AcDbLine
 10
-111.060388
 20
-4.539755999999997
 30
0.0
 11
-113.560388
 21
-4.539755999999997
 31
0.0
  0
LINE
  5
D1A
330
36
100
AcDbEntity
  8
0
  6
ByBlock
 62
     0
370
    -2
100
AcDbLine
 10
-173.502727
 20
-5.209628499999997
 30
0.0
 11
-176.002727
 21
-4.539755999999997
 31
0.0
  0
LINE
  5
D1B
330
36
100
AcDbEntity
  8
0
  6
ByBlock
 62
     0
370
    -2
100
AcDbLine
 10
-176.002727
 20
-4.539755999999997
 30
0.0
 11
-173.502727
 21
-3.869883499999997
 31
0.0
  0
LINE
  5
D1C
330
36
100
AcDbEntity
  8
0
  6
ByBlock
 62
     0
370
    -2
100
AcDbLine
 10
-176.002727
 20
-4.539755999999997
 30
0.0
 11
-173.502727
 21
-4.539755999999997
 31
0.0
  0
TEXT
  5
D1D
330
36
100
AcDbEntity
  8
0
 62
     4
100
AcDbText
 10
-74.307371
 20
57.49558749999999
 30
0.0
 40
3.0
  1
185
 50
90.0
100
AcDbText
  0
LINE
  5
D1E
330
36
100
AcDbEntity
  8
0
  6
ByBlock
 62
     0
370
    -2
100
AcDbLine
 10
-74.35224349999997
 20
113.114792
 30
0.0
 11
-73.68237099999998
 21
115.614792
 31
0.0
  0
LINE
  5
D1F
330
36
100
AcDbEntity
  8
0
  6
ByBlock
 62
     0
370
    -2
100
AcDbLine
 10
-73.68237099999998
 20
115.614792
 30
0.0
 11
-73.01249849999997
 21
113.114792
 31
0.0
  0
LINE
  5
D20
330
36
100
AcDbEntity
  8
0
  6
ByBlock
 62
     0
370
    -2
100
AcDbLine
 10
-73.68237099999998
 20
115.614792
 30
0.0
 11
-73.68237099999998
 21
113.114792
 31
0.0
  0
LINE
  5
D21
330
36
100
AcDbEntity
  8
0
  6
ByBlock
 62
     0
370
    -2
100
AcDbLine
 10
-73.01249850000001
 20
8.876383000000011
 30
0.0
 11
-73.682371
 21
6.376383000000012
 31
0.0
  0
LINE
  5
D22
330
36
100
AcDbEntity
  8
0
  6
ByBlock
 62
     0
370
    -2
100
AcDbLine
 10
-73.682371
 20
6.376383000000012
 30
0.0
 11
-74.3522435
 21
8.876383000000011
 31
0.0
  0
LINE
  5
D23
330
36
100
AcDbEntity
  8
0
  6
ByBlock
 62
     0
370
    -2
100
AcDbLine
 10
-73.682371
 20
6.376383000000012
 30
0.0
 11
-73.682371
 21
8.876383000000011
 31
0.0
  0
ARC
  5
D24
330
36
100
AcDbEntity
  8
0
  6
ByBlock
 62
     0
100
AcDbCircle
 10
-120.6495002713789
 20
72.99503471422848
 30
0.0
 40
0.1562499999999932
100
AcDbArc
 50
32.40331994579536
 51
212.4033199457953
  0
ARC
  5
D25
330
36
100
AcDbEntity
  8
0
  6
ByBlock
 62
     0
100
AcDbCircle
 10
-120.6495002713789
 20
72.99503471422848
 30
0.0
 40
0.1562499999999932
100
AcDbArc
 50
212.4033199457953
 51
32.40331994579536
  0
ENDSEC
  0
SECTION
  2
OBJECTS
  0
DICTIONARY
  5
C
330
0
100
AcDbDictionary
281
     1
  3
ACAD_2007HEADERVARS_RT
350
D29
  3
ACAD_COLOR
350
2F
  3
ACAD_GROUP
350
D
  3
ACAD_LAYOUT
350
2E
  3
ACAD_MATERIAL
350
10
  3
ACAD_MLEADERSTYLE
350
507
  3
ACAD_MLINESTYLE
350
2B
  3
ACAD_PLOTSETTINGS
350
2D
  3
ACAD_PLOTSTYLENAME
350
E
  3
ACAD_SCALELIST
350
4F5
  3
ACAD_TABLESTYLE
350
30
  3
ACAD_VISUALSTYLE
350
14
  3
ACDB_RECOMPOSE_DATA
350
D27
  3
AcDbVariableDictionary
350
4D5
  3
AEC_PROPERTY_SET_DEFS
350
A01
  3
DWGPROPS
350
D28
  0
DICTIONARY
  5
5AE
330
2
100
AcDbDictionary
280
     1
281
     1
  3
ACAD_LAYERSTATES
360
5AF
  0
DICTIONARY
  5
793
330
25
100
AcDbDictionary
280
     1
281
     1
  3
ADSK_XREC_LAYER_RECONCILED
360
794
  0
DICTIONARY
  5
7FD
330
36
100
AcDbDictionary
280
     1
281
     1
  3
ACAD_SORTENTS
360
7FE
  0
DICTIONARY
  5
D29
102
{ACAD_REACTORS
330
C
102
}
330
C
100
AcDbDictionary
281
     1
  3
DIMARCSYM
350
D2B
  3
DIMFXL
350
D2A
  3
DIMJOGANG
350
D2C
  0
DICTIONARY
  5
2F
102
{ACAD_REACTORS
330
C
102
}
330
C
100
AcDbDictionary
281
     1
  0
DICTIONARY
  5
D
102
{ACAD_REACTORS
330
C
102
}
330
C
100
AcDbDictionary
281
     1
  0
DICTIONARY
  5
2E
102
{ACAD_REACTORS
330
C
102
}
330
C
100
AcDbDictionary
281
     1
  3
Model
350
39
  3
レイアウト1
350
35
  0
DICTIONARY
  5
10
102
{ACAD_REACTORS
330
C
102
}
330
C
100
AcDbDictionary
281
     1
  3
ByBlock
350
12
  3
ByLayer
350
11
  3
Global
350
13
  0
DICTIONARY
  5
507
102
{ACAD_REACTORS
330
C
102
}
330
C
100
AcDbDictionary
281
     1
  3
Standard
350
508
  0
DICTIONARY
  5
2B
102
{ACAD_REACTORS
330
C
102
}
330
C
100
AcDbDictionary
281
     1
  3
Standard
350
2C
  0
DICTIONARY
  5
2D
102
{ACAD_REACTORS
330
C
102
}
330
C
100
AcDbDictionary
281
     1
  0
ACDBDICTIONARYWDFLT
  5
E
102
{ACAD_REACTORS
330
C
102
}
330
C
100
AcDbDictionary
281
     1
  3
Normal
350
F
100
AcDbDictionaryWithDefault
340
F
  0
DICTIONARY
  5
4F5
102
{ACAD_REACTORS
330
C
102
}
330
C
100
AcDbDictionary
281
     1
  3
A0
350
4F6
  3
A1
350
4F7
  3
A2
350
4F8
  3
A3
350
4F9
  3
A4
350
4FA
  3
A5
350
4FB
  3
A6
350
4FC
  3
A7
350
4FD
  3
A8
350
4FE
  3
A9
350
4FF
  3
B0
350
500
  3
B1
350
501
  3
B2
350
502
  3
B3
350
503
  3
B4
350
504
  3
B5
350
505
  3
B6
350
506
  0
DICTIONARY
  5
30
102
{ACAD_REACTORS
330
C
102
}
330
C
100
AcDbDictionary
281
     1
  3
Standard
350
31
  0
DICTIONARY
  5
14
102
{ACAD_REACTORS
330
C
102
}
330
C
100
AcDbDictionary
281
     1
  3
2dWireframe
350
1A
  3
3D Hidden
350
1C
  3
3dWireframe
350
1B
  3
Basic
350
19
  3
Brighten
350
20
  3
ColorChange
350
24
  3
Conceptual
350
1D
  3
Dim
350
1F
  3
EdgeColorOff
350
4F4
  3
Facepattern
350
23
  3
Flat
350
15
  3
FlatWithEdges
350
16
  3
Gouraud
350
17
  3
GouraudWithEdges
350
18
  3
Hidden
350
4EC
  3
JitterOff
350
4F2
  3
Linepattern
350
22
  3
OverhangOff
350
4F3
  3
Realistic
350
1E
  3
Shaded
350
4F1
  3
Shaded with edges
350
4F0
  3
Shades of Gray
350
4ED
  3
Sketchy
350
4EE
  3
Thicken
350
21
  3
Wireframe
350
4EB
  3
X-Ray
350
4EF
  0
XRECORD
  5
D27
102
{ACAD_REACTORS
330
C
102
}
330
C
100
AcDbXrecord
280
     1
 90
        1
330
31
  0
DICTIONARY
  5
4D5
102
{ACAD_REACTORS
330
C
102
}
330
C
100
AcDbDictionary
281
     1
  3
CANNOSCALE
350
796
  3
CMLEADERSTYLE
350
795
  3
CTABLESTYLE
350
4D6
  3
DIMASSOC
350
4D9
  3
INDEXCTL
350
4D8
  3
SORTENTS
350
4D7
  3
XCLIPFRAME
350
C14
  0
DICTIONARY
  5
A01
102
{ACAD_REACTORS
330
C
102
}
330
C
100
AcDbDictionary
281
     1
  0
XRECORD
  5
D28
102
{ACAD_REACTORS
330
C
102
}
330
C
100
AcDbXrecord
280
     1
  1
DWGPROPS COOKIE
  2

  3

  4

  6

  7

  8
imamura
  9

300
=
301
=
302
=
303
=
304
=
305
=
306
=
307
=
308
=
309
=
 40
0.172126724537037
 41
2455825.640289884
 42
2460251.686133924
  1

 90
        0
  0
DICTIONARY
  5
5AF
102
{ACAD_REACTORS
330
5AE
102
}
330
5AE
100
AcDbDictionary
281
     1
  0
XRECORD
  5
794
102
{ACAD_REACTORS
330
793
102
}
330
793
100
AcDbXrecord
280
     1
290
     1
  0
SORTENTSTABLE
  5
7FE
102
{ACAD_REACTORS
330
7FD
102
}
330
7FD
100
AcDbSortentsTable
330
36
331
BEC
  5
D02
331
BB5
  5
C06
331
B76
  5
BC7
331
BE8
  5
CFE
331
BB1
  5
C02
331
B72
  5
BC3
331
BE4
  5
CFA
331
BAD
  5
BFE
331
B6E
  5
BBF
331
BE0
  5
CF6
331
BA9
  5
BFA
331
B6A
  5
BBB
331
28E
  5
2BF
331
24F
  5
280
331
28A
  5
2BB
331
24B
  5
27C
331
214
  5
245
331
1D5
  5
206
331
19E
  5
1EA
331
15F
  5
19D
331
286
  5
2B7
331
247
  5
278
331
210
  5
241
331
1D1
  5
202
331
19A
  5
1E6
331
15B
  5
199
331
124
  5
156
331
E5
  5
117
331
D1C
  5
9E
331
282
  5
2B3
331
243
  5
274
331
20C
  5
23D
331
1CD
  5
1FE
331
196
  5
1E2
331
157
  5
194
331
120
  5
152
331
E1
  5
114
331
D18
  5
A0
331
208
  5
239
331
1C9
  5
1FA
331
192
  5
1DE
331
153
  5
190
331
11C
  5
14E
331
DD
  5
110
331
D14
  5
CB
331
118
  5
14A
331
D9
  5
10C
331
D10
  5
CD
331
97
  5
ED
331
93
  5
E2
331
8F
  5
DE
331
8B
  5
DA
331
8EF
  5
BA2
331
8EB
  5
B9E
331
764
  5
B76
331
4B5
  5
770
331
8DF
  5
B9B
331
760
  5
B72
331
43F
  5
5F2
331
75C
  5
B6E
331
43B
  5
5EE
331
404
  5
435
331
3C5
  5
3F6
331
758
  5
B66
331
437
  5
5EA
331
400
  5
431
331
3C1
  5
3F2
331
38E
  5
3BF
331
433
  5
4D4
331
3FC
  5
42D
331
3BD
  5
3EE
331
38A
  5
3BB
331
304
  5
375
331
2C5
  5
2F6
331
3F8
  5
429
331
3B9
  5
3EA
331
386
  5
3B7
331
300
  5
371
331
2C1
  5
2F2
331
382
  5
3B3
331
2FC
  5
36D
331
2BD
  5
2EE
331
2F8
  5
369
331
2B9
  5
2EA
331
BDC
  5
CF2
331
BA5
  5
BF6
331
B66
  5
BB7
331
BD8
  5
CEE
331
BA1
  5
BF2
331
B62
  5
BB3
331
BD4
  5
CEA
331
B9D
  5
BEE
331
BD0
  5
CE6
331
B99
  5
BEA
331
27E
  5
2AF
331
23F
  5
270
331
27A
  5
2AB
331
23B
  5
26C
331
204
  5
235
331
18E
  5
1DA
331
14F
  5
18C
331
276
  5
2A7
331
237
  5
268
331
200
  5
231
331
18A
  5
1D8
331
14B
  5
188
331
D0C
  5
B8A
331
114
  5
13B
331
272
  5
2A3
331
233
  5
264
331
1FC
  5
22D
331
1BD
  5
1F7
331
186
  5
1D4
331
147
  5
184
331
D08
  5
B90
331
110
  5
137
331
D1
  5
108
331
1F8
  5
229
331
182
  5
1C7
331
143
  5
181
331
D04
  5
BA7
331
10C
  5
133
331
CD
  5
104
331
D00
  5
BAE
331
108
  5
12F
331
C9
  5
100
331
4C5
  5
806
331
877
  5
B99
331
873
  5
B95
331
5F4
  5
8F5
331
5F0
  5
8EE
331
42F
  5
4CF
331
86B
  5
B8D
331
5EC
  5
8EA
331
49D
  5
76B
331
42B
  5
4B3
331
3F4
  5
425
331
3B5
  5
3E6
331
5E8
  5
877
331
427
  5
49E
331
3F0
  5
421
331
3B1
  5
3E2
331
37E
  5
3AF
331
423
  5
495
331
3EC
  5
41D
331
3AD
  5
3DE
331
37A
  5
3AB
331
2F4
  5
365
331
2B5
  5
2E6
331
3E8
  5
419
331
3A9
  5
3DA
331
327
  5
38C
331
2F0
  5
35D
331
2B1
  5
2E2
331
372
  5
3A7
331
323
  5
388
331
2EC
  5
343
331
2AD
  5
2DE
331
2E8
  5
329
331
2A9
  5
2DA
331
C0F
  5
D25
331
C0B
  5
D21
331
BCC
  5
CE2
331
B95
  5
BE6
331
C07
  5
D1D
331
BC8
  5
CDE
331
B91
  5
BE2
331
C03
  5
D19
331
BC4
  5
CDA
331
B8D
  5
BDE
331
BC0
  5
CD6
331
B89
  5
BDA
331
26E
  5
29F
331
22F
  5
260
331
26A
  5
29B
331
22B
  5
25C
331
1F4
  5
225
331
17E
  5
1B1
331
13F
  5
173
331
266
  5
297
331
227
  5
258
331
1F0
  5
221
331
13B
  5
16F
331
104
  5
12B
331
C5
  5
FD
331
262
  5
293
331
223
  5
254
331
1EC
  5
21D
331
137
  5
16B
331
100
  5
127
331
CF8
  5
87
331
1E8
  5
219
331
1A9
  5
1F5
331
172
  5
1AF
331
133
  5
166
331
FC
  5
123
331
F8
  5
11F
331
74B
  5
B60
331
807
  5
145
331
5E4
  5
871
331
803
  5
141
331
495
  5
769
331
41F
  5
450
331
4D4
  5
86B
331
48D
  5
764
331
41B
  5
44C
331
3E4
  5
415
331
3A5
  5
3D6
331
417
  5
448
331
3E0
  5
411
331
3A1
  5
3D2
331
36E
  5
3A3
331
31F
  5
384
331
413
  5
444
331
3DC
  5
40D
331
39D
  5
3CE
331
36A
  5
39F
331
2E4
  5
315
331
2A5
  5
2D6
331
3D8
  5
409
331
399
  5
3CA
331
366
  5
39B
331
2E0
  5
311
331
2A1
  5
2D2
331
362
  5
397
331
2DC
  5
30D
331
29D
  5
2CE
331
2D8
  5
309
331
299
  5
2CA
331
BFF
  5
D15
331
BFB
  5
D11
331
B85
  5
BD6
331
BF7
  5
D0D
331
B81
  5
BD2
331
BF3
  5
D09
331
BBC
  5
C0D
331
B7D
  5
BCE
331
BB8
  5
C09
331
B79
  5
BCA
331
25E
  5
28F
331
25A
  5
28B
331
1E4
  5
215
331
16E
  5
1AB
331
295
  5
2C6
331
256
  5
287
331
21F
  5
250
331
1E0
  5
211
331
F4
  5
11B
331
CEC
  5
C8
331
291
  5
2C2
331
252
  5
283
331
21B
  5
24C
331
1DC
  5
20D
331
1A5
  5
1F1
331
166
  5
1A4
331
CE8
  5
760
331
12F
  5
162
331
1D8
  5
209
331
1A1
  5
1ED
331
162
  5
1A0
331
12B
  5
15E
331
CE4
  5
76D
331
D23
  5
8E
331
CE0
  5
803
331
9E
  5
F9
331
9A
  5
F5
331
76F
  5
B83
331
8F2
  5
BA4
331
76B
  5
B7D
331
4BC
  5
800
331
3D4
  5
405
331
485
  5
75E
331
446
  5
74C
331
40F
  5
440
331
3D0
  5
401
331
35E
  5
393
331
442
  5
5F5
331
40B
  5
43C
331
3CC
  5
3FD
331
2D4
  5
305
331
3C8
  5
3F9
331
395
  5
3C6
331
2D0
  5
301
331
391
  5
3C2
331
30B
  5
37C
331
2CC
  5
2FD
331
2C8
  5
2F9
331
BEF
  5
D05
331
BEB
  5
D01
331
BB4
  5
C05
331
B75
  5
BC6
331
BE7
  5
CFD
331
BB0
  5
C01
331
B71
  5
BC2
331
BE3
  5
CF9
331
BAC
  5
BFD
331
B6D
  5
BBE
331
BA8
  5
BF9
331
B69
  5
BBA
331
28D
  5
2BE
331
24E
  5
27F
331
217
  5
248
331
289
  5
2BA
331
24A
  5
27B
331
213
  5
244
331
1D4
  5
205
331
19D
  5
1E9
331
15E
  5
19C
331
127
  5
15A
331
D1F
  5
93
331
285
  5
2B6
331
246
  5
277
331
20F
  5
240
331
1D0
  5
201
331
199
  5
1E5
331
15A
  5
198
331
123
  5
155
331
D1B
  5
9D
331
281
  5
2B2
331
242
  5
273
331
20B
  5
23C
331
1CC
  5
1FD
331
195
  5
1E1
331
156
  5
193
331
11F
  5
151
331
E0
  5
113
331
D17
  5
9F
331
1C8
  5
1F9
331
191
  5
1DD
331
152
  5
18F
331
11B
  5
14D
331
DC
  5
10F
331
D13
  5
CA
331
7FC
  5
13C
331
D8
  5
10B
331
96
  5
E7
331
92
  5
E1
331
8E
  5
DD
331
8A
  5
D9
331
8EE
  5
BA1
331
767
  5
B79
331
8EA
  5
B9D
331
763
  5
B75
331
4B4
  5
76F
331
75F
  5
B71
331
47D
  5
759
331
43E
  5
5F1
331
407
  5
438
331
75B
  5
B6D
331
43A
  5
5ED
331
403
  5
434
331
3C4
  5
3F5
331
436
  5
5E6
331
3FF
  5
430
331
3C0
  5
3F1
331
38D
  5
3BE
331
307
  5
378
331
432
  5
4D3
331
3FB
  5
42C
331
3BC
  5
3ED
331
389
  5
3BA
331
303
  5
374
331
2C4
  5
2F5
331
3B8
  5
3E9
331
385
  5
3B6
331
2FF
  5
370
331
2C0
  5
2F1
331
381
  5
3B2
331
2FB
  5
36C
331
2BC
  5
2ED
331
2B8
  5
2E9
331
BDF
  5
CF5
331
BDB
  5
CF1
331
BA4
  5
BF5
331
B65
  5
BB6
331
BD7
  5
CED
331
BA0
  5
BF1
331
B61
  5
BB2
331
BD3
  5
CE9
331
B9C
  5
BED
331
B5D
  5
BAB
331
B98
  5
BE9
331
27D
  5
2AE
331
23E
  5
26F
331
207
  5
238
331
279
  5
2AA
331
23A
  5
26B
331
203
  5
234
331
18D
  5
1D9
331
14E
  5
18B
331
117
  5
149
331
D0F
  5
D0
331
275
  5
2A6
331
236
  5
267
331
1FF
  5
230
331
189
  5
1D7
331
14A
  5
187
331
D0B
  5
B89
331
113
  5
13A
331
271
  5
2A2
331
232
  5
263
331
1FB
  5
22C
331
185
  5
1D3
331
D07
  5
B8F
331
10F
  5
136
331
D0
  5
107
331
181
  5
1B4
331
142
  5
180
331
D03
  5
BA6
331
10B
  5
132
331
CC
  5
103
331
C8
  5
FF
331
4C4
  5
805
331
876
  5
B98
331
5F7
  5
B5F
331
872
  5
B94
331
5F3
  5
8F2
331
5EF
  5
8ED
331
42E
  5
4C5
331
3F7
  5
428
331
86A
  5
B8C
331
5EB
  5
8E9
331
49C
  5
76A
331
42A
  5
4AE
331
3F3
  5
424
331
3B4
  5
3E5
331
426
  5
49D
331
3EF
  5
420
331
3B0
  5
3E1
331
37D
  5
3AE
331
2F7
  5
368
331
422
  5
493
331
3EB
  5
41C
331
3AC
  5
3DD
331
32A
  5
38F
331
2F3
  5
360
331
2B4
  5
2E5
331
3A8
  5
3D9
331
375
  5
3AA
331
326
  5
38B
331
2EF
  5
35C
331
2B0
  5
2E1
331
371
  5
3A6
331
322
  5
387
331
2EB
  5
338
331
2AC
  5
2DD
331
2A8
  5
2D9
331
C0E
  5
D24
331
BCF
  5
CE5
331
C0A
  5
D20
331
BCB
  5
CE1
331
B94
  5
BE5
331
C06
  5
D1C
331
BC7
  5
CDD
331
B90
  5
BE1
331
C02
  5
D18
331
BC3
  5
CD9
331
B8C
  5
BDD
331
B88
  5
BD9
331
26D
  5
29E
331
22E
  5
25F
331
1F7
  5
228
331
269
  5
29A
331
22A
  5
25B
331
1F3
  5
224
331
13E
  5
172
331
CFF
  5
BAD
331
107
  5
12E
331
265
  5
296
331
226
  5
257
331
1EF
  5
220
331
13A
  5
16E
331
103
  5
12A
331
261
  5
292
331
222
  5
253
331
1EB
  5
21C
331
136
  5
169
331
FF
  5
126
331
CF7
  5
86
331
1A8
  5
1F4
331
171
  5
1AE
331
132
  5
165
331
FB
  5
122
331
CF3
  5
9B
331
A0
  5
FB
331
5E7
  5
876
331
806
  5
144
331
5E3
  5
870
331
802
  5
140
331
494
  5
768
331
41E
  5
44F
331
3E7
  5
418
331
4D3
  5
86A
331
48C
  5
763
331
41A
  5
44B
331
3E3
  5
414
331
3A4
  5
3D5
331
416
  5
447
331
3DF
  5
410
331
3A0
  5
3D1
331
36D
  5
3A2
331
31E
  5
37F
331
2E7
  5
328
331
412
  5
443
331
3DB
  5
40C
331
39C
  5
3CD
331
369
  5
39E
331
2E3
  5
314
331
2A4
  5
2D5
331
398
  5
3C9
331
365
  5
39A
331
2DF
  5
310
331
2A0
  5
2D1
331
361
  5
396
331
2DB
  5
30C
331
29C
  5
2CD
331
298
  5
2C9
331
BFE
  5
D14
331
BFA
  5
D10
331
B84
  5
BD5
331
BF6
  5
D0C
331
BBF
  5
CD5
331
B80
  5
BD1
331
BF2
  5
D08
331
BBB
  5
C0C
331
B7C
  5
BCD
331
B78
  5
BC9
331
25D
  5
28E
331
1E7
  5
218
331
259
  5
28A
331
1E3
  5
214
331
16D
  5
1AA
331
F7
  5
11E
331
294
  5
2C5
331
255
  5
286
331
21E
  5
24F
331
1DF
  5
210
331
169
  5
1A7
331
F3
  5
11A
331
CEB
  5
C7
331
290
  5
2C1
331
251
  5
282
331
21A
  5
24B
331
1DB
  5
20C
331
1A4
  5
1F0
331
165
  5
1A3
331
CE7
  5
75F
331
12E
  5
161
331
1A0
  5
1EC
331
161
  5
19F
331
12A
  5
15D
331
CE3
  5
76C
331
D22
  5
8D
331
9D
  5
F8
331
99
  5
F4
331
8F5
  5
BA9
331
76E
  5
B82
331
3D7
  5
408
331
8F1
  5
BA3
331
76A
  5
B7C
331
4BB
  5
7FF
331
3D3
  5
404
331
484
  5
75D
331
445
  5
74B
331
40E
  5
43F
331
3CF
  5
400
331
35D
  5
392
331
2D7
  5
308
331
441
  5
5F4
331
40A
  5
43B
331
3CB
  5
3FC
331
2D3
  5
304
331
394
  5
3C5
331
2CF
  5
300
331
390
  5
3C1
331
30A
  5
37B
331
2CB
  5
2FC
331
BEE
  5
D04
331
BB7
  5
C08
331
BEA
  5
D00
331
BB3
  5
C04
331
B74
  5
BC5
331
BE6
  5
CFC
331
BAF
  5
C00
331
B70
  5
BC1
331
BE2
  5
CF8
331
BAB
  5
BFC
331
B6C
  5
BBD
331
B68
  5
BB9
331
28C
  5
2BD
331
24D
  5
27E
331
216
  5
247
331
1D7
  5
208
331
288
  5
2B9
331
249
  5
27A
331
212
  5
243
331
1D3
  5
204
331
19C
  5
1E8
331
15D
  5
19B
331
126
  5
158
331
CDF
  5
802
331
E7
  5
118
331
D1E
  5
92
331
284
  5
2B5
331
245
  5
276
331
20E
  5
23F
331
1CF
  5
200
331
198
  5
1E4
331
122
  5
154
331
E3
  5
116
331
D1A
  5
9C
331
280
  5
2B1
331
241
  5
272
331
20A
  5
23B
331
1CB
  5
1FC
331
194
  5
1E0
331
155
  5
192
331
11E
  5
150
331
DF
  5
112
331
D16
  5
C5
331
190
  5
1DC
331
151
  5
18E
331
11A
  5
14C
331
7FF
  5
13D
331
DB
  5
10E
331
D12
  5
CF
331
95
  5
E5
331
91
  5
E0
331
8D
  5
DC
331
89
  5
D8
331
8ED
  5
BA0
331
766
  5
B78
331
8E9
  5
B9C
331
762
  5
B74
331
4B3
  5
76E
331
75E
  5
B70
331
43D
  5
5F0
331
406
  5
437
331
3C7
  5
3F8
331
75A
  5
B6A
331
439
  5
5EC
331
402
  5
433
331
3C3
  5
3F4
331
435
  5
5E5
331
3FE
  5
42F
331
3BF
  5
3F0
331
38C
  5
3BD
331
306
  5
377
331
2C7
  5
2F8
331
431
  5
4D2
331
3FA
  5
42B
331
3BB
  5
3EC
331
388
  5
3B9
331
302
  5
373
331
2C3
  5
2F4
331
384
  5
3B5
331
2FE
  5
36F
331
2BF
  5
2F0
331
380
  5
3B1
331
2FA
  5
36B
331
2BB
  5
2EC
331
BDE
  5
CF4
331
BA7
  5
BF8
331
BDA
  5
CF0
331
BA3
  5
BF4
331
B64
  5
BB5
331
BD6
  5
CEC
331
B9F
  5
BF0
331
B60
  5
BB1
331
BD2
  5
CE8
331
B9B
  5
BEC
331
B5C
  5
BAA
331
27C
  5
2AD
331
23D
  5
26E
331
206
  5
237
331
1C7
  5
1F8
331
278
  5
2A9
331
239
  5
26A
331
202
  5
233
331
14D
  5
18A
331
116
  5
148
331
D7
  5
10A
331
274
  5
2A5
331
235
  5
266
331
1FE
  5
22F
331
188
  5
1D6
331
149
  5
186
331
D0A
  5
B88
331
112
  5
139
331
270
  5
2A1
331
231
  5
262
331
1FA
  5
22B
331
184
  5
1D2
331
145
  5
183
331
D06
  5
B8E
331
10E
  5
135
331
CF
  5
106
331
180
  5
1B3
331
141
  5
17F
331
D02
  5
BA5
331
10A
  5
131
331
CB
  5
102
331
87
  5
D2
331
4C3
  5
804
331
875
  5
B97
331
5F6
  5
B5D
331
871
  5
B93
331
5F2
  5
8F1
331
5EE
  5
8EC
331
42D
  5
4BB
331
3F6
  5
427
331
3B7
  5
3E8
331
5EA
  5
8DF
331
429
  5
4A5
331
3F2
  5
423
331
3B3
  5
3E4
331
425
  5
49B
331
3EE
  5
41F
331
3AF
  5
3E0
331
37C
  5
3AD
331
2F6
  5
367
331
2B7
  5
2E8
331
421
  5
452
331
3EA
  5
41B
331
3AB
  5
3DC
331
329
  5
38E
331
2F2
  5
35F
331
2B3
  5
2E4
331
374
  5
3A9
331
325
  5
38A
331
2EE
  5
35B
331
2AF
  5
2E0
331
370
  5
3A5
331
321
  5
386
331
2EA
  5
32B
331
2AB
  5
2DC
331
C0D
  5
D23
331
BCE
  5
CE4
331
B97
  5
BE8
331
C09
  5
D1F
331
BCA
  5
CE0
331
B93
  5
BE4
331
C05
  5
D1B
331
BC6
  5
CDC
331
B8F
  5
BE0
331
C01
  5
D17
331
BC2
  5
CD8
331
B8B
  5
BDC
331
26C
  5
29D
331
22D
  5
25E
331
1F6
  5
227
331
268
  5
299
331
229
  5
25A
331
1F2
  5
223
331
13D
  5
171
331
CFE
  5
BAC
331
106
  5
12D
331
C7
  5
FE
331
264
  5
295
331
225
  5
256
331
1EE
  5
21F
331
139
  5
16D
331
102
  5
129
331
C3
  5
FC
331
260
  5
291
331
221
  5
252
331
1EA
  5
21B
331
135
  5
168
331
FE
  5
125
331
170
  5
1AD
331
131
  5
164
331
FA
  5
121
331
CF2
  5
9A
331
5E6
  5
875
331
805
  5
143
331
493
  5
767
331
801
  5
13F
331
41D
  5
44E
331
3E6
  5
417
331
3A7
  5
3D8
331
771
  5
B87
331
4D2
  5
807
331
48B
  5
762
331
419
  5
44A
331
3E2
  5
413
331
3A3
  5
3D4
331
415
  5
446
331
3DE
  5
40F
331
39F
  5
3D0
331
36C
  5
3A1
331
2E6
  5
317
331
2A7
  5
2D8
331
411
  5
442
331
3DA
  5
40B
331
39B
  5
3CC
331
368
  5
39D
331
2E2
  5
313
331
2A3
  5
2D4
331
364
  5
399
331
2DE
  5
30F
331
29F
  5
2D0
331
360
  5
395
331
2DA
  5
30B
331
29B
  5
2CC
331
BFD
  5
D13
331
B87
  5
BD8
331
BF9
  5
D0F
331
B83
  5
BD4
331
BF5
  5
D0B
331
BBE
  5
C0F
331
B7F
  5
BD0
331
BF1
  5
D07
331
BBA
  5
C0B
331
B7B
  5
BCC
331
25C
  5
28D
331
1E6
  5
217
331
297
  5
2C8
331
258
  5
289
331
1E2
  5
213
331
16C
  5
1A9
331
F6
  5
11D
331
293
  5
2C4
331
254
  5
285
331
21D
  5
24E
331
1DE
  5
20F
331
1A7
  5
1F3
331
CEA
  5
75B
331
168
  5
1A6
331
250
  5
281
331
219
  5
24A
331
1DA
  5
20B
331
1A3
  5
1EF
331
164
  5
1A2
331
D25
  5
B64
331
CE6
  5
766
331
12D
  5
160
331
160
  5
19E
331
129
  5
15C
331
CE2
  5
7FC
331
D21
  5
8C
331
9C
  5
F7
331
98
  5
F3
331
76D
  5
B7F
331
3D6
  5
407
331
769
  5
B7B
331
448
  5
758
331
3D2
  5
403
331
483
  5
75C
331
444
  5
5F7
331
40D
  5
43E
331
3CE
  5
3FF
331
35C
  5
391
331
2D6
  5
307
331
440
  5
5F3
331
409
  5
43A
331
3CA
  5
3FB
331
397
  5
3C8
331
2D2
  5
303
331
393
  5
3C4
331
30D
  5
37E
331
2CE
  5
2FF
331
309
  5
37A
331
2CA
  5
2FB
331
BED
  5
D03
331
BB6
  5
C07
331
B77
  5
BC8
331
BE9
  5
CFF
331
BB2
  5
C03
331
B73
  5
BC4
331
BE5
  5
CFB
331
BAE
  5
BFF
331
B6F
  5
BC0
331
BE1
  5
CF7
331
BAA
  5
BFB
331
B6B
  5
BBC
331
28F
  5
2C0
331
28B
  5
2BC
331
24C
  5
27D
331
215
  5
246
331
1D6
  5
207
331
19F
  5
1EB
331
287
  5
2B8
331
248
  5
279
331
211
  5
242
331
1D2
  5
203
331
19B
  5
1E7
331
15C
  5
19A
331
125
  5
157
331
D1D
  5
98
331
283
  5
2B4
331
244
  5
275
331
20D
  5
23E
331
1CE
  5
1FF
331
197
  5
1E3
331
158
  5
197
331
121
  5
153
331
E2
  5
115
331
D19
  5
C3
331
240
  5
271
331
209
  5
23A
331
1CA
  5
1FB
331
193
  5
1DF
331
154
  5
191
331
11D
  5
14F
331
DE
  5
111
331
D15
  5
CC
331
150
  5
18D
331
119
  5
14B
331
DA
  5
10D
331
D11
  5
CE
331
94
  5
E3
331
90
  5
DF
331
8C
  5
DB
331
88
  5
D7
331
8EC
  5
B9F
331
765
  5
B77
331
761
  5
B73
331
8DC
  5
B9A
331
75D
  5
B6F
331
43C
  5
5EF
331
405
  5
436
331
3C6
  5
3F7
331
759
  5
B69
331
438
  5
5EB
331
401
  5
432
331
3C2
  5
3F3
331
38F
  5
3C0
331
434
  5
5E4
331
3FD
  5
42E
331
3BE
  5
3EF
331
38B
  5
3BC
331
305
  5
376
331
2C6
  5
2F7
331
430
  5
4D0
331
3F9
  5
42A
331
3BA
  5
3EB
331
387
  5
3B8
331
301
  5
372
331
2C2
  5
2F3
331
383
  5
3B4
331
2FD
  5
36E
331
2BE
  5
2EF
331
2F9
  5
36A
331
2BA
  5
2EB
331
BDD
  5
CF3
331
BA6
  5
BF7
331
B67
  5
BB8
331
BD9
  5
CEF
331
BA2
  5
BF3
331
B63
  5
BB4
331
BD5
  5
CEB
331
B9E
  5
BEF
331
B5F
  5
BB0
331
BD1
  5
CE7
331
B9A
  5
BEB
331
27F
  5
2B0
331
27B
  5
2AC
331
23C
  5
26D
331
205
  5
236
331
18F
  5
1DB
331
277
  5
2A8
331
238
  5
269
331
201
  5
232
331
14C
  5
189
331
D0D
  5
B65
331
115
  5
147
331
273
  5
2A4
331
234
  5
265
331
1FD
  5
22E
331
187
  5
1D5
331
148
  5
185
331
D09
  5
B8B
331
111
  5
138
331
D2
  5
109
331
230
  5
261
331
1F9
  5
22A
331
183
  5
1D1
331
144
  5
182
331
D05
  5
B91
331
10D
  5
134
331
CE
  5
105
331
140
  5
17E
331
D01
  5
BA8
331
109
  5
130
331
CA
  5
101
331
86
  5
D1
331
874
  5
B96
331
5F5
  5
B5C
331
870
  5
B92
331
5F1
  5
8EF
331
5ED
  5
8EB
331
42C
  5
4B6
331
3F5
  5
426
331
3B6
  5
3E7
331
5E9
  5
8DC
331
428
  5
4A3
331
3F1
  5
422
331
3B2
  5
3E3
331
37F
  5
3B0
331
424
  5
496
331
3ED
  5
41E
331
3AE
  5
3DF
331
37B
  5
3AC
331
2F5
  5
366
331
2B6
  5
2E7
331
420
  5
451
331
3E9
  5
41A
331
3AA
  5
3DB
331
328
  5
38D
331
2F1
  5
35E
331
2B2
  5
2E3
331
373
  5
3A8
331
324
  5
389
331
2ED
  5
34E
331
2AE
  5
2DF
331
320
  5
385
331
2E9
  5
32A
331
2AA
  5
2DB
331
C0C
  5
D22
331
BCD
  5
CE3
331
B96
  5
BE7
331
C08
  5
D1E
331
BC9
  5
CDF
331
B92
  5
BE3
331
C04
  5
D1A
331
BC5
  5
CDB
331
B8E
  5
BDF
331
C00
  5
D16
331
BC1
  5
CD7
331
B8A
  5
BDB
331
26F
  5
2A0
331
26B
  5
29C
331
22C
  5
25D
331
1F5
  5
226
331
17F
  5
1B2
331
267
  5
298
331
228
  5
259
331
1F1
  5
222
331
13C
  5
170
331
CFD
  5
BAF
331
105
  5
12C
331
263
  5
294
331
224
  5
255
331
1ED
  5
21E
331
138
  5
16C
331
101
  5
128
331
CF9
  5
88
331
220
  5
251
331
1E9
  5
21A
331
1AA
  5
1F6
331
173
  5
1B0
331
134
  5
167
331
FD
  5
124
331
130
  5
163
331
F9
  5
120
331
CF1
  5
99
331
74C
  5
B61
331
5E5
  5
874
331
804
  5
142
331
800
  5
13E
331
41C
  5
44D
331
3E5
  5
416
331
3A6
  5
3D7
331
770
  5
B84
331
418
  5
449
331
3E1
  5
412
331
3A2
  5
3D3
331
36F
  5
3A4
331
414
  5
445
331
3DD
  5
40E
331
39E
  5
3CF
331
36B
  5
3A0
331
2E5
  5
316
331
2A6
  5
2D7
331
410
  5
441
331
3D9
  5
40A
331
39A
  5
3CB
331
367
  5
39C
331
2E1
  5
312
331
2A2
  5
2D3
331
363
  5
398
331
2DD
  5
30E
331
29E
  5
2CF
331
2D9
  5
30A
331
29A
  5
2CB
331
BFC
  5
D12
331
B86
  5
BD7
331
BF8
  5
D0E
331
B82
  5
BD3
331
BF4
  5
D0A
331
BBD
  5
C0E
331
B7E
  5
BCF
331
BF0
  5
D06
331
BB9
  5
C0A
331
B7A
  5
BCB
331
25F
  5
290
331
25B
  5
28C
331
1E5
  5
216
331
16F
  5
1AC
331
296
  5
2C7
331
257
  5
288
331
1E1
  5
212
331
16B
  5
1A8
331
F5
  5
11C
331
CED
  5
C9
331
292
  5
2C3
331
253
  5
284
331
21C
  5
24D
331
1DD
  5
20E
331
1A6
  5
1F2
331
CE9
  5
75A
331
167
  5
1A5
331
218
  5
249
331
1D9
  5
20A
331
1A2
  5
1EE
331
163
  5
1A1
331
D24
  5
B63
331
12C
  5
15F
331
CE5
  5
765
331
ED
  5
119
331
128
  5
15B
331
CE1
  5
771
331
D20
  5
94
331
9F
  5
FA
331
9B
  5
F6
331
76C
  5
B7E
331
4BD
  5
801
331
3D5
  5
406
331
768
  5
B7A
331
447
  5
74D
331
3D1
  5
402
331
35F
  5
394
331
443
  5
5F6
331
40C
  5
43D
331
3CD
  5
3FE
331
35B
  5
390
331
2D5
  5
306
331
408
  5
439
331
3C9
  5
3FA
331
396
  5
3C7
331
2D1
  5
302
331
392
  5
3C3
331
30C
  5
37D
331
2CD
  5
2FE
331
308
  5
379
331
2C9
  5
2FA
  0
XRECORD
  5
D2B
102
{ACAD_REACTORS
330
D29
102
}
330
D29
100
AcDbXrecord
280
     1
 70
     2
  0
XRECORD
  5
D2A
102
{ACAD_REACTORS
330
D29
102
}
330
D29
100
AcDbXrecord
280
     1
 40
1.25
  0
XRECORD
  5
D2C
102
{ACAD_REACTORS
330
D29
102
}
330
D29
100
AcDbXrecord
280
     1
 40
1.570796326794896
  0
LAYOUT
  5
39
102
{ACAD_XDICTIONARY
360
D50
102
}
102
{ACAD_REACTORS
330
2E
102
}
330
2E
100
AcDbPlotSettings
  1

  2
PDF Complete
  4

  6

 40
0.0
 41
0.0
 42
0.0
 43
0.0
 44
0.0
 45
0.0
 46
0.0
 47
0.0
 48
0.0
 49
0.0
140
0.0
141
0.0
142
1.0
143
1.0
 70
  1712
 72
     0
 73
     0
 74
     0
  7

 75
     0
147
1.0
148
0.0
149
0.0
100
AcDbLayout
  1
Model
 70
     1
 71
     0
 10
0.0
 20
0.0
 11
12.0
 21
9.0
 12
0.0
 22
0.0
 32
0.0
 14
0.0
 24
0.0
 34
0.0
 15
0.0
 25
0.0
 35
0.0
146
0.0
 13
0.0
 23
0.0
 33
0.0
 16
1.0
 26
0.0
 36
0.0
 17
0.0
 27
1.0
 37
0.0
 76
     0
330
36
331
56
  0
LAYOUT
  5
35
102
{ACAD_XDICTIONARY
360
D4E
102
}
102
{ACAD_REACTORS
330
2E
102
}
330
2E
100
AcDbPlotSettings
  1

  2
PDF Complete
  4

  6

 40
0.0
 41
0.0
 42
0.0
 43
0.0
 44
0.0
 45
0.0
 46
0.0
 47
0.0
 48
0.0
 49
0.0
140
0.0
141
0.0
142
1.0
143
1.0
 70
   688
 72
     0
 73
     0
 74
     5
  7

 75
    16
147
1.0
148
0.0
149
0.0
100
AcDbLayout
  1
レイアウト1
 70
     1
 71
     1
 10
0.0
 20
0.0
 11
12.0
 21
9.0
 12
0.0
 22
0.0
 32
0.0
 14
1.000000000000000E+20
 24
1.000000000000000E+20
 34
1.000000000000000E+20
 15
-1.000000000000000E+20
 25
-1.000000000000000E+20
 35
-1.000000000000000E+20
146
0.0
 13
0.0
 23
0.0
 33
0.0
 16
1.0
 26
0.0
 36
0.0
 17
0.0
 27
1.0
 37
0.0
 76
     0
330
32
  0
MATERIAL
  5
12
102
{ACAD_XDICTIONARY
360
4DD
102
}
102
{ACAD_REACTORS
330
10
102
}
330
10
100
AcDbMaterial
  1
ByBlock
  0
MATERIAL
  5
11
102
{ACAD_XDICTIONARY
360
4DB
102
}
102
{ACAD_REACTORS
330
10
102
}
330
10
100
AcDbMaterial
  1
ByLayer
  0
MATERIAL
  5
13
102
{ACAD_XDICTIONARY
360
4DF
102
}
102
{ACAD_REACTORS
330
10
102
}
330
10
100
AcDbMaterial
  1
Global
  0
MLEADERSTYLE
  5
508
102
{ACAD_REACTORS
330
507
102
}
330
507
100
AcDbMLeaderStyle
170
     2
171
     1
172
     0
 90
        2
 40
0.0
 41
0.0
173
     1
 91
-1056964608
340
28
 92
       -2
290
     1
 42
0.09
291
     1
 43
0.36
  3
Standard
 44
0.18
300

342
26
174
     1
178
     6
175
     1
176
     0
 93
-1056964608
 45
0.18
292
     0
297
     0
 46
0.18
 94
-1056964608
 47
1.0
 49
1.0
140
1.0
293
     1
141
0.0
294
     1
177
     0
142
1.0
295
     0
296
     0
143
0.125
1001
ACAD_MLEADERVER
1070
     2
  0
MLINESTYLE
  5
2C
102
{ACAD_REACTORS
330
2B
102
}
330
2B
100
AcDbMlineStyle
  2
STANDARD
 70
     0
  3

 62
   256
 51
90.0
 52
90.0
 71
     2
 49
0.5
 62
   256
  6
BYLAYER
 49
-0.5
 62
   256
  6
BYLAYER
  0
ACDBPLACEHOLDER
  5
F
102
{ACAD_REACTORS
330
E
102
}
330
E
  0
SCALE
  5
4F6
102
{ACAD_REACTORS
330
4F5
102
}
330
4F5
100
AcDbScale
 70
     0
300
1:1
140
1.0
141
1.0
290
     1
  0
SCALE
  5
4F7
102
{ACAD_REACTORS
330
4F5
102
}
330
4F5
100
AcDbScale
 70
     0
300
1/128" = 1'-0"
140
0.0078125
141
12.0
290
     0
  0
SCALE
  5
4F8
102
{ACAD_REACTORS
330
4F5
102
}
330
4F5
100
AcDbScale
 70
     0
300
1/64" = 1'-0"
140
0.015625
141
12.0
290
     0
  0
SCALE
  5
4F9
102
{ACAD_REACTORS
330
4F5
102
}
330
4F5
100
AcDbScale
 70
     0
300
1/32" = 1'-0"
140
0.03125
141
12.0
290
     0
  0
SCALE
  5
4FA
102
{ACAD_REACTORS
330
4F5
102
}
330
4F5
100
AcDbScale
 70
     0
300
1/16" = 1'-0"
140
0.0625
141
12.0
290
     0
  0
SCALE
  5
4FB
102
{ACAD_REACTORS
330
4F5
102
}
330
4F5
100
AcDbScale
 70
     0
300
3/32" = 1'-0"
140
0.09375
141
12.0
290
     0
  0
SCALE
  5
4FC
102
{ACAD_REACTORS
330
4F5
102
}
330
4F5
100
AcDbScale
 70
     0
300
1/8" = 1'-0"
140
0.125
141
12.0
290
     0
  0
SCALE
  5
4FD
102
{ACAD_REACTORS
330
4F5
102
}
330
4F5
100
AcDbScale
 70
     0
300
3/16" = 1'-0"
140
0.1875
141
12.0
290
     0
  0
SCALE
  5
4FE
102
{ACAD_REACTORS
330
4F5
102
}
330
4F5
100
AcDbScale
 70
     0
300
1/4" = 1'-0"
140
0.25
141
12.0
290
     0
  0
SCALE
  5
4FF
102
{ACAD_REACTORS
330
4F5
102
}
330
4F5
100
AcDbScale
 70
     0
300
3/8" = 1'-0"
140
0.375
141
12.0
290
     0
  0
SCALE
  5
500
102
{ACAD_REACTORS
330
4F5
102
}
330
4F5
100
AcDbScale
 70
     0
300
1/2" = 1'-0"
140
0.5
141
12.0
290
     0
  0
SCALE
  5
501
102
{ACAD_REACTORS
330
4F5
102
}
330
4F5
100
AcDbScale
 70
     0
300
3/4" = 1'-0"
140
0.75
141
12.0
290
     0
  0
SCALE
  5
502
102
{ACAD_REACTORS
330
4F5
102
}
330
4F5
100
AcDbScale
 70
     0
300
1" = 1'-0"
140
1.0
141
12.0
290
     0
  0
SCALE
  5
503
102
{ACAD_REACTORS
330
4F5
102
}
330
4F5
100
AcDbScale
 70
     0
300
1-1/2" = 1'-0"
140
1.5
141
12.0
290
     0
  0
SCALE
  5
504
102
{ACAD_REACTORS
330
4F5
102
}
330
4F5
100
AcDbScale
 70
     0
300
3" = 1'-0"
140
3.0
141
12.0
290
     0
  0
SCALE
  5
505
102
{ACAD_REACTORS
330
4F5
102
}
330
4F5
100
AcDbScale
 70
     0
300
6" = 1'-0"
140
6.0
141
12.0
290
     0
  0
SCALE
  5
506
102
{ACAD_REACTORS
330
4F5
102
}
330
4F5
100
AcDbScale
 70
     0
300
1'-0" = 1'-0"
140
12.0
141
12.0
290
     0
  0
TABLESTYLE
  5
31
102
{ACAD_XDICTIONARY
360
798
102
}
102
{ACAD_REACTORS
330
30
102
}
330
30
100
AcDbTableStyle
  3
Standard
 70
     0
 71
     0
 40
0.06
 41
0.06
280
     0
281
     0
  7
STANDARD
140
0.18
170
     2
 62
     0
 63
     7
283
     0
274
    -2
284
     1
 64
     0
275
    -2
285
     1
 65
     0
276
    -2
286
     1
 66
     0
277
    -2
287
     1
 67
     0
278
    -2
288
     1
 68
     0
279
    -2
289
     1
 69
     0
  7
STANDARD
140
0.25
170
     5
 62
     0
 63
     7
283
     0
274
    -2
284
     1
 64
     0
275
    -2
285
     1
 65
     0
276
    -2
286
     1
 66
     0
277
    -2
287
     1
 67
     0
278
    -2
288
     1
 68
     0
279
    -2
289
     1
 69
     0
  7
STANDARD
140
0.18
170
     5
 62
     0
 63
     7
283
     0
274
    -2
284
     1
 64
     0
275
    -2
285
     1
 65
     0
276
    -2
286
     1
 66
     0
277
    -2
287
     1
 67
     0
278
    -2
288
     1
 68
     0
279
    -2
289
     1
 69
     0
  0
VISUALSTYLE
  5
1A
102
{ACAD_XDICTIONARY
360
D37
102
}
102
{ACAD_REACTORS
330
14
102
}
330
14
100
AcDbVisualStyle
  2

 70
     4
 71
     0
 72
     2
 73
     0
 90
        0
 40
-0.6
 41
-30.0
 62
     5
 63
     7
 74
     1
 91
        4
 64
     7
 65
   257
 75
     1
175
     1
 42
1.0
 92
        0
 66
   257
 43
1.0
 76
     1
 77
     6
 78
     2
 67
     7
 79
     5
170
     0
171
     0
290
     0
174
     0
 93
        1
 44
0.0
173
     0
291
     0
 45
0.0
1001
ACAD
1000
AcDbSavedByObjectVersion
1070
     0
  0
VISUALSTYLE
  5
1C
102
{ACAD_XDICTIONARY
360
D3B
102
}
102
{ACAD_REACTORS
330
14
102
}
330
14
100
AcDbVisualStyle
  2

 70
     6
 71
     1
 72
     2
 73
     2
 90
        0
 40
-0.6
 41
-30.0
 62
     5
 63
     7
 74
     2
 91
        2
 64
     7
 65
   257
 75
     2
175
     1
 42
40.0
 92
        0
 66
   257
 43
1.0
 76
     1
 77
     6
 78
     2
 67
     7
 79
     3
170
     0
171
     0
290
     0
174
     0
 93
        1
 44
0.0
173
     0
291
     0
 45
0.0
1001
ACAD
1000
AcDbSavedByObjectVersion
1070
     0
  0
VISUALSTYLE
  5
1B
102
{ACAD_XDICTIONARY
360
D39
102
}
102
{ACAD_REACTORS
330
14
102
}
330
14
100
AcDbVisualStyle
  2

 70
     5
 71
     0
 72
     2
 73
     0
 90
        0
 40
-0.6
 41
-30.0
 62
     5
 63
     7
 74
     1
 91
        4
 64
     7
 65
   257
 75
     1
175
     1
 42
1.0
 92
        0
 66
   257
 43
1.0
 76
     1
 77
     6
 78
     2
 67
     7
 79
     5
170
     0
171
     0
290
     0
174
     0
 93
        1
 44
0.0
173
     0
291
     0
 45
0.0
1001
ACAD
1000
AcDbSavedByObjectVersion
1070
     0
  0
VISUALSTYLE
  5
19
102
{ACAD_XDICTIONARY
360
D35
102
}
102
{ACAD_REACTORS
330
14
102
}
330
14
100
AcDbVisualStyle
  2

 70
     7
 71
     1
 72
     0
 73
     1
 90
        0
 40
-0.6
 41
-30.0
 62
     5
 63
     7
 74
     0
 91
        4
 64
     7
 65
   257
 75
     1
175
     1
 42
1.0
 92
        8
 66
     7
 43
1.0
 76
     1
 77
     6
 78
     2
 67
     7
 79
     5
170
     0
171
     0
290
     0
174
     0
 93
        1
 44
0.0
173
     0
291
     1
 45
0.0
1001
ACAD
1000
AcDbSavedByObjectVersion
1070
     0
  0
VISUALSTYLE
  5
20
102
{ACAD_XDICTIONARY
360
D43
102
}
102
{ACAD_REACTORS
330
14
102
}
330
14
100
AcDbVisualStyle
  2

 70
    12
 71
     2
 72
     2
 73
     0
 90
        0
 40
-0.6
 41
-30.0
 62
     5
 63
     7
 74
     1
 91
        4
 64
     7
 65
   257
 75
     1
175
     1
 42
1.0
 92
        8
 66
     7
 43
1.0
 76
     1
 77
     6
 78
     2
 67
     7
 79
     5
170
     0
171
     0
290
     0
174
     0
 93
        1
 44
50.0
173
     0
291
     1
 45
0.0
1001
ACAD
1000
AcDbSavedByObjectVersion
1070
     0
  0
VISUALSTYLE
  5
24
102
{ACAD_XDICTIONARY
360
D4B
102
}
102
{ACAD_REACTORS
330
14
102
}
330
14
100
AcDbVisualStyle
  2

 70
    16
 71
     2
 72
     2
 73
     3
 90
        0
 40
-0.6
 41
-30.0
 62
     5
 63
     8
 74
     1
 91
        4
 64
     7
 65
   257
 75
     1
175
     1
 42
1.0
 92
        8
 66
     8
 43
1.0
 76
     1
 77
     6
 78
     2
 67
     7
 79
     5
170
     0
171
     0
290
     0
174
     0
 93
        1
 44
0.0
173
     0
291
     1
 45
0.0
1001
ACAD
1000
AcDbSavedByObjectVersion
1070
     0
  0
VISUALSTYLE
  5
1D
102
{ACAD_XDICTIONARY
360
D3D
102
}
102
{ACAD_REACTORS
330
14
102
}
330
14
100
AcDbVisualStyle
  2

 70
     9
 71
     3
 72
     2
 73
     0
 90
        0
 40
-0.6
 41
-30.0
 62
     5
 63
     7
 74
     2
 91
        2
 64
     7
 65
   257
 75
     1
175
     1
 42
40.0
 92
        8
 66
     7
 43
1.0
 76
     1
 77
     6
 78
     2
 67
     7
 79
     3
170
     0
171
     0
290
     0
174
     0
 93
        1
 44
0.0
173
     0
291
     0
 45
0.0
1001
ACAD
1000
AcDbSavedByObjectVersion
1070
     0
  0
VISUALSTYLE
  5
1F
102
{ACAD_XDICTIONARY
360
D41
102
}
102
{ACAD_REACTORS
330
14
102
}
330
14
100
AcDbVisualStyle
  2

 70
    11
 71
     2
 72
     2
 73
     0
 90
        0
 40
-0.6
 41
-30.0
 62
     5
 63
     7
 74
     1
 91
        4
 64
     7
 65
   257
 75
     1
175
     1
 42
1.0
 92
        8
 66
     7
 43
1.0
 76
     1
 77
     6
 78
     2
 67
     7
 79
     5
170
     0
171
     0
290
     0
174
     0
 93
        1
 44
-50.0
173
     0
291
     1
 45
0.0
1001
ACAD
1000
AcDbSavedByObjectVersion
1070
     0
  0
VISUALSTYLE
  5
4F4
102
{ACAD_XDICTIONARY
360
D64
102
}
102
{ACAD_REACTORS
330
14
102
}
330
14
100
AcDbVisualStyle
  2

 70
    22
 71
     2
 72
     2
 73
     0
 90
        0
 40
-0.6
 41
-30.0
 62
     5
 63
     7
 74
     1
 91
        4
 64
     7
 65
   257
 75
     1
175
     1
 42
1.0
 92
        8
 66
     7
 43
1.0
 76
     1
 77
     6
 78
     2
 67
     7
 79
     5
170
     0
171
     0
290
     0
174
     0
 93
        1
 44
0.0
173
     0
291
     1
 45
0.0
1001
ACAD
1000
AcDbSavedByObjectVersion
1070
     0
  0
VISUALSTYLE
  5
23
102
{ACAD_XDICTIONARY
360
D49
102
}
102
{ACAD_REACTORS
330
14
102
}
330
14
100
AcDbVisualStyle
  2

 70
    15
 71
     2
 72
     2
 73
     0
 90
        0
 40
-0.6
 41
-30.0
 62
     5
 63
     7
 74
     1
 91
        4
 64
     7
 65
   257
 75
     1
175
     1
 42
1.0
 92
        8
 66
     7
 43
1.0
 76
     1
 77
     6
 78
     2
 67
     7
 79
     5
170
     0
171
     0
290
     0
174
     0
 93
        1
 44
0.0
173
     0
291
     1
 45
0.0
1001
ACAD
1000
AcDbSavedByObjectVersion
1070
     0
  0
VISUALSTYLE
  5
15
102
{ACAD_XDICTIONARY
360
D2D
102
}
102
{ACAD_REACTORS
330
14
102
}
330
14
100
AcDbVisualStyle
  2

 70
     0
 71
     2
 72
     1
 73
     1
 90
        2
 40
-0.6
 41
30.0
 62
     5
 63
     7
 74
     0
 91
        4
 64
     7
 65
   257
 75
     1
175
     1
 42
1.0
 92
        8
 66
     7
 43
1.0
 76
     1
 77
     6
 78
     2
 67
     7
 79
     5
170
     0
171
     0
290
     0
174
     0
 93
       13
 44
0.0
173
     0
291
     1
 45
0.0
1001
ACAD
1000
AcDbSavedByObjectVersion
1070
     0
  0
VISUALSTYLE
  5
16
102
{ACAD_XDICTIONARY
360
D2F
102
}
102
{ACAD_REACTORS
330
14
102
}
330
14
100
AcDbVisualStyle
  2

 70
     1
 71
     2
 72
     1
 73
     1
 90
        2
 40
-0.6
 41
30.0
 62
     5
 63
     7
 74
     1
 91
        4
 64
     7
 65
   257
 75
     1
175
     1
 42
1.0
 92
        0
 66
   257
 43
1.0
 76
     1
 77
     6
 78
     2
 67
     7
 79
     5
170
     0
171
     0
290
     0
174
     0
 93
       13
 44
0.0
173
     0
291
     1
 45
0.0
1001
ACAD
1000
AcDbSavedByObjectVersion
1070
     0
  0
VISUALSTYLE
  5
17
102
{ACAD_XDICTIONARY
360
D31
102
}
102
{ACAD_REACTORS
330
14
102
}
330
14
100
AcDbVisualStyle
  2

 70
     2
 71
     2
 72
     2
 73
     1
 90
        2
 40
-0.6
 41
30.0
 62
     5
 63
     7
 74
     0
 91
        4
 64
     7
 65
   257
 75
     1
175
     1
 42
1.0
 92
        0
 66
     7
 43
1.0
 76
     1
 77
     6
 78
     2
 67
     7
 79
     5
170
     0
171
     0
290
     0
174
     0
 93
       13
 44
0.0
173
     0
291
     1
 45
0.0
1001
ACAD
1000
AcDbSavedByObjectVersion
1070
     0
  0
VISUALSTYLE
  5
18
102
{ACAD_XDICTIONARY
360
D33
102
}
102
{ACAD_REACTORS
330
14
102
}
330
14
100
AcDbVisualStyle
  2

 70
     3
 71
     2
 72
     2
 73
     1
 90
        2
 40
-0.6
 41
30.0
 62
     5
 63
     7
 74
     1
 91
        4
 64
     7
 65
   257
 75
     1
175
     1
 42
1.0
 92
        0
 66
   257
 43
1.0
 76
     1
 77
     6
 78
     2
 67
     7
 79
     5
170
     0
171
     0
290
     0
174
     0
 93
       13
 44
0.0
173
     0
291
     1
 45
0.0
1001
ACAD
1000
AcDbSavedByObjectVersion
1070
     0
  0
VISUALSTYLE
  5
4EC
102
{ACAD_XDICTIONARY
360
D54
102
}
102
{ACAD_REACTORS
330
14
102
}
330
14
100
AcDbVisualStyle
  2

 70
     6
 71
     1
 72
     2
 73
     2
 90
        0
 40
-0.6
 41
-30.0
 62
     5
 63
     7
 74
     2
 91
        2
 64
     7
 65
   257
 75
     2
175
     1
 42
40.0
 92
        0
 66
   257
 43
1.0
 76
     1
 77
     6
 78
     2
 67
     7
 79
     3
170
     0
171
     0
290
     0
174
     0
 93
        1
 44
0.0
173
     0
291
     0
 45
0.0
1001
ACAD
1000
AcDbSavedByObjectVersion
1070
     0
  0
VISUALSTYLE
  5
4F2
102
{ACAD_XDICTIONARY
360
D60
102
}
102
{ACAD_REACTORS
330
14
102
}
330
14
100
AcDbVisualStyle
  2

 70
    20
 71
     2
 72
     2
 73
     0
 90
        0
 40
-0.6
 41
-30.0
 62
     5
 63
     7
 74
     1
 91
        4
 64
     7
 65
   257
 75
     1
175
     1
 42
1.0
 92
       10
 66
     7
 43
1.0
 76
     1
 77
     6
 78
     2
 67
     7
 79
     5
170
     0
171
     0
290
     0
174
     0
 93
        1
 44
0.0
173
     0
291
     1
 45
0.0
1001
ACAD
1000
AcDbSavedByObjectVersion
1070
     0
  0
VISUALSTYLE
  5
22
102
{ACAD_XDICTIONARY
360
D47
102
}
102
{ACAD_REACTORS
330
14
102
}
330
14
100
AcDbVisualStyle
  2

 70
    14
 71
     2
 72
     2
 73
     0
 90
        0
 40
-0.6
 41
-30.0
 62
     5
 63
     7
 74
     1
 91
        4
 64
     7
 65
   257
 75
     7
175
     7
 42
1.0
 92
        8
 66
     7
 43
1.0
 76
     1
 77
     6
 78
     2
 67
     7
 79
     5
170
     0
171
     0
290
     0
174
     0
 93
        1
 44
0.0
173
     0
291
     1
 45
0.0
1001
ACAD
1000
AcDbSavedByObjectVersion
1070
     0
  0
VISUALSTYLE
  5
4F3
102
{ACAD_XDICTIONARY
360
D62
102
}
102
{ACAD_REACTORS
330
14
102
}
330
14
100
AcDbVisualStyle
  2

 70
    21
 71
     2
 72
     2
 73
     0
 90
        0
 40
-0.6
 41
-30.0
 62
     5
 63
     7
 74
     1
 91
        4
 64
     7
 65
   257
 75
     1
175
     1
 42
1.0
 92
        9
 66
     7
 43
1.0
 76
     1
 77
     6
 78
     2
 67
     7
 79
     5
170
     0
171
     0
290
     0
174
     0
 93
        1
 44
0.0
173
     0
291
     1
 45
0.0
1001
ACAD
1000
AcDbSavedByObjectVersion
1070
     0
  0
VISUALSTYLE
  5
1E
102
{ACAD_XDICTIONARY
360
D3F
102
}
102
{ACAD_REACTORS
330
14
102
}
330
14
100
AcDbVisualStyle
  2

 70
     8
 71
     2
 72
     2
 73
     0
 90
        0
 40
-0.6
 41
-30.0
 62
     5
 63
     7
 74
     1
 91
        0
 64
     7
 65
   257
 75
     1
175
     1
 42
1.0
 92
        8
 66
     8
 43
1.0
 76
     1
 77
     6
 78
     2
 67
     7
 79
     5
170
     0
171
     0
290
     0
174
     0
 93
       13
 44
0.0
173
     0
291
     0
 45
0.0
1001
ACAD
1000
AcDbSavedByObjectVersion
1070
     0
  0
VISUALSTYLE
  5
4F1
102
{ACAD_XDICTIONARY
360
D5E
102
}
102
{ACAD_REACTORS
330
14
102
}
330
14
100
AcDbVisualStyle
  2

 70
    27
 71
     2
 72
     2
 73
     1
 90
        2
 40
-0.6
 41
30.0
 62
     5
 63
     7
 74
     0
 91
        4
 64
     7
 65
   257
 75
     1
175
     1
 42
1.0
 92
        8
 66
   257
 43
1.0
 76
     1
 77
     6
 78
     2
 67
     8
 79
     3
170
     0
171
     0
290
     0
174
     0
 93
        5
 44
0.0
173
     0
291
     0
 45
0.0
1001
ACAD
1000
AcDbSavedByObjectVersion
1070
     0
  0
VISUALSTYLE
  5
4F0
102
{ACAD_XDICTIONARY
360
D5C
102
}
102
{ACAD_REACTORS
330
14
102
}
330
14
100
AcDbVisualStyle
  2

 70
    26
 71
     2
 72
     2
 73
     1
 90
        2
 40
-0.6
 41
30.0
 62
     5
 63
     7
 74
     1
 91
       10
 64
     7
 65
   257
 75
     2
175
     1
 42
1.0
 92
        8
 66
   257
 43
1.0
 76
     1
 77
     6
 78
     2
 67
     7
 79
     3
170
     0
171
     0
290
     0
174
     0
 93
        5
 44
0.0
173
     0
291
     0
 45
0.0
1001
ACAD
1000
AcDbSavedByObjectVersion
1070
     0
  0
VISUALSTYLE
  5
4ED
102
{ACAD_XDICTIONARY
360
D56
102
}
102
{ACAD_REACTORS
330
14
102
}
330
14
100
AcDbVisualStyle
  2

 70
    23
 71
     2
 72
     2
 73
     3
 90
        0
 40
-0.6
 41
-30.0
 62
     5
 63
     7
 74
     2
 91
        2
 64
     7
 65
     7
 75
     1
175
     1
 42
40.0
 92
        8
 66
     7
 43
1.0
 76
     1
 77
     6
 78
     2
 67
     7
 79
     3
170
     0
171
     0
290
     0
174
     0
 93
        1
 44
0.0
173
     0
291
     0
 45
0.0
1001
ACAD
1000
AcDbSavedByObjectVersion
1070
     0
  0
VISUALSTYLE
  5
4EE
102
{ACAD_XDICTIONARY
360
D58
102
}
102
{ACAD_REACTORS
330
14
102
}
330
14
100
AcDbVisualStyle
  2

 70
    24
 71
     1
 72
     2
 73
     2
 90
        0
 40
-0.6
 41
-30.0
 62
     5
 63
     7
 74
     2
 91
        2
 64
     7
 65
     7
 75
     1
175
     1
 42
40.0
 92
       11
 66
     7
 43
1.0
 76
     1
 77
     6
 78
     2
 67
     7
 79
     6
170
     0
171
     0
290
     0
174
     0
 93
        1
 44
0.0
173
     0
291
     0
 45
0.0
1001
ACAD
1000
AcDbSavedByObjectVersion
1070
     0
  0
VISUALSTYLE
  5
21
102
{ACAD_XDICTIONARY
360
D45
102
}
102
{ACAD_REACTORS
330
14
102
}
330
14
100
AcDbVisualStyle
  2

 70
    13
 71
     2
 72
     2
 73
     0
 90
        0
 40
-0.6
 41
-30.0
 62
     5
 63
     7
 74
     1
 91
        4
 64
     7
 65
   257
 75
     1
175
     1
 42
1.0
 92
       12
 66
     7
 43
1.0
 76
     1
 77
     6
 78
     2
 67
     7
 79
     5
170
     0
171
     0
290
     0
174
     0
 93
        1
 44
0.0
173
     0
291
     1
 45
0.0
1001
ACAD
1000
AcDbSavedByObjectVersion
1070
     0
  0
VISUALSTYLE
  5
4EB
102
{ACAD_XDICTIONARY
360
D52
102
}
102
{ACAD_REACTORS
330
14
102
}
330
14
100
AcDbVisualStyle
  2

 70
     5
 71
     0
 72
     2
 73
     0
 90
        0
 40
-0.6
 41
-30.0
 62
     5
 63
     7
 74
     1
 91
        4
 64
     7
 65
   257
 75
     1
175
     1
 42
1.0
 92
        0
 66
   257
 43
1.0
 76
     1
 77
     6
 78
     2
 67
     7
 79
     3
170
     0
171
     0
290
     0
174
     0
 93
        1
 44
0.0
173
     0
291
     0
 45
0.0
1001
ACAD
1000
AcDbSavedByObjectVersion
1070
     0
  0
VISUALSTYLE
  5
4EF
102
{ACAD_XDICTIONARY
360
D5A
102
}
102
{ACAD_REACTORS
330
14
102
}
330
14
100
AcDbVisualStyle
  2

 70
    25
 71
     2
 72
     2
 73
     1
 90
        1
 40
0.5
 41
-30.0
 62
     5
 63
     7
 74
     1
 91
        0
 64
     7
 65
   257
 75
     1
175
     1
 42
1.0
 92
        8
 66
     7
 43
1.0
 76
     1
 77
     6
 78
     2
 67
     7
 79
     3
170
     0
171
     0
290
     0
174
     0
 93
       13
 44
0.0
173
     0
291
     0
 45
0.0
1001
ACAD
1000
AcDbSavedByObjectVersion
1070
     0
  0
DICTIONARYVAR
  5
796
102
{ACAD_REACTORS
330
4D5
102
}
330
4D5
100
DictionaryVariables
280
     0
  1
1:1
  0
DICTIONARYVAR
  5
795
102
{ACAD_REACTORS
330
4D5
102
}
330
4D5
100
DictionaryVariables
280
     0
  1
STANDARD
  0
DICTIONARYVAR
  5
4D6
102
{ACAD_REACTORS
330
4D5
102
}
330
4D5
100
DictionaryVariables
280
     0
  1
STANDARD
  0
DICTIONARYVAR
  5
4D9
102
{ACAD_REACTORS
330
4D5
102
}
330
4D5
100
DictionaryVariables
280
     0
  1
1
  0
DICTIONARYVAR
  5
4D8
102
{ACAD_REACTORS
330
4D5
102
}
330
4D5
100
DictionaryVariables
280
     0
  1
0
  0
DICTIONARYVAR
  5
4D7
102
{ACAD_REACTORS
330
4D5
102
}
330
4D5
100
DictionaryVariables
280
     0
  1
127
  0
DICTIONARYVAR
  5
C14
102
{ACAD_REACTORS
330
4D5
102
}
330
4D5
100
DictionaryVariables
280
     0
  1
2
  0
DICTIONARY
  5
D50
330
39
100
AcDbDictionary
280
     1
281
     1
  3
ACAD_XREC_ROUNDTRIP
360
D51
  0
DICTIONARY
  5
D4E
330
35
100
AcDbDictionary
280
     1
281
     1
  3
ACAD_XREC_ROUNDTRIP
360
D4F
  0
DICTIONARY
  5
4DD
330
12
100
AcDbDictionary
280
     1
281
     1
  3
ACAD_XREC_ROUNDTRIP
360
4DE
  0
DICTIONARY
  5
4DB
330
11
100
AcDbDictionary
280
     1
281
     1
  3
ACAD_XREC_ROUNDTRIP
360
4DC
  0
DICTIONARY
  5
4DF
330
13
100
AcDbDictionary
280
     1
281
     1
  3
ACAD_XREC_ROUNDTRIP
360
4E0
  0
DICTIONARY
  5
798
330
31
100
AcDbDictionary
280
     1
281
     1
  3
ACAD_ROUNDTRIP_2008_TABLESTYLE_CELLSTYLEMAP
360
D26
  3
ACAD_XREC_ROUNDTRIP
360
D4D
  0
DICTIONARY
  5
D37
330
1A
100
AcDbDictionary
280
     1
281
     1
  3
ACAD_XREC_ROUNDTRIP
360
D38
  0
DICTIONARY
  5
D3B
330
1C
100
AcDbDictionary
280
     1
281
     1
  3
ACAD_XREC_ROUNDTRIP
360
D3C
  0
DICTIONARY
  5
D39
330
1B
100
AcDbDictionary
280
     1
281
     1
  3
ACAD_XREC_ROUNDTRIP
360
D3A
  0
DICTIONARY
  5
D35
330
19
100
AcDbDictionary
280
     1
281
     1
  3
ACAD_XREC_ROUNDTRIP
360
D36
  0
DICTIONARY
  5
D43
330
20
100
AcDbDictionary
280
     1
281
     1
  3
ACAD_XREC_ROUNDTRIP
360
D44
  0
DICTIONARY
  5
D4B
330
24
100
AcDbDictionary
280
     1
281
     1
  3
ACAD_XREC_ROUNDTRIP
360
D4C
  0
DICTIONARY
  5
D3D
330
1D
100
AcDbDictionary
280
     1
281
     1
  3
ACAD_XREC_ROUNDTRIP
360
D3E
  0
DICTIONARY
  5
D41
330
1F
100
AcDbDictionary
280
     1
281
     1
  3
ACAD_XREC_ROUNDTRIP
360
D42
  0
DICTIONARY
  5
D64
330
4F4
100
AcDbDictionary
280
     1
281
     1
  3
ACAD_XREC_ROUNDTRIP
360
D65
  0
DICTIONARY
  5
D49
330
23
100
AcDbDictionary
280
     1
281
     1
  3
ACAD_XREC_ROUNDTRIP
360
D4A
  0
DICTIONARY
  5
D2D
330
15
100
AcDbDictionary
280
     1
281
     1
  3
ACAD_XREC_ROUNDTRIP
360
D2E
  0
DICTIONARY
  5
D2F
330
16
100
AcDbDictionary
280
     1
281
     1
  3
ACAD_XREC_ROUNDTRIP
360
D30
  0
DICTIONARY
  5
D31
330
17
100
AcDbDictionary
280
     1
281
     1
  3
ACAD_XREC_ROUNDTRIP
360
D32
  0
DICTIONARY
  5
D33
330
18
100
AcDbDictionary
280
     1
281
     1
  3
ACAD_XREC_ROUNDTRIP
360
D34
  0
DICTIONARY
  5
D54
330
4EC
100
AcDbDictionary
280
     1
281
     1
  3
ACAD_XREC_ROUNDTRIP
360
D55
  0
DICTIONARY
  5
D60
330
4F2
100
AcDbDictionary
280
     1
281
     1
  3
ACAD_XREC_ROUNDTRIP
360
D61
  0
DICTIONARY
  5
D47
330
22
100
AcDbDictionary
280
     1
281
     1
  3
ACAD_XREC_ROUNDTRIP
360
D48
  0
DICTIONARY
  5
D62
330
4F3
100
AcDbDictionary
280
     1
281
     1
  3
ACAD_XREC_ROUNDTRIP
360
D63
  0
DICTIONARY
  5
D3F
330
1E
100
AcDbDictionary
280
     1
281
     1
  3
ACAD_XREC_ROUNDTRIP
360
D40
  0
DICTIONARY
  5
D5E
330
4F1
100
AcDbDictionary
280
     1
281
     1
  3
ACAD_XREC_ROUNDTRIP
360
D5F
  0
DICTIONARY
  5
D5C
330
4F0
100
AcDbDictionary
280
     1
281
     1
  3
ACAD_XREC_ROUNDTRIP
360
D5D
  0
DICTIONARY
  5
D56
330
4ED
100
AcDbDictionary
280
     1
281
     1
  3
ACAD_XREC_ROUNDTRIP
360
D57
  0
DICTIONARY
  5
D58
330
4EE
100
AcDbDictionary
280
     1
281
     1
  3
ACAD_XREC_ROUNDTRIP
360
D59
  0
DICTIONARY
  5
D45
330
21
100
AcDbDictionary
280
     1
281
     1
  3
ACAD_XREC_ROUNDTRIP
360
D46
  0
DICTIONARY
  5
D52
330
4EB
100
AcDbDictionary
280
     1
281
     1
  3
ACAD_XREC_ROUNDTRIP
360
D53
  0
DICTIONARY
  5
D5A
330
4EF
100
AcDbDictionary
280
     1
281
     1
  3
ACAD_XREC_ROUNDTRIP
360
D5B
  0
XRECORD
  5
D51
102
{ACAD_REACTORS
330
D50
102
}
330
D50
100
AcDbXrecord
280
     1
102
SHADEPLOT
 70
     0
102
SHADEPLOTRESLEVEL
 70
     2
102
SHADEPLOTCUSTOMDPI
 70
   300
  0
XRECORD
  5
D4F
102
{ACAD_REACTORS
330
D4E
102
}
330
D4E
100
AcDbXrecord
280
     1
102
SHADEPLOT
 70
     0
102
SHADEPLOTRESLEVEL
 70
     2
102
SHADEPLOTCUSTOMDPI
 70
   300
  0
XRECORD
  5
4DE
102
{ACAD_REACTORS
330
4DD
102
}
330
4DD
100
AcDbXrecord
280
     1
102
MATERIAL
148
0.0
149
0.0
149
0.0
 93
        0
 94
      127
282
     0
 72
     1
 77
     1
171
     1
175
     1
179
     1
273
     0
  0
XRECORD
  5
4DC
102
{ACAD_REACTORS
330
4DB
102
}
330
4DB
100
AcDbXrecord
280
     1
102
MATERIAL
148
0.0
149
0.0
149
0.0
 93
        0
 94
      127
282
     0
 72
     1
 77
     1
171
     1
175
     1
179
     1
273
     0
  0
XRECORD
  5
4E0
102
{ACAD_REACTORS
330
4DF
102
}
330
4DF
100
AcDbXrecord
280
     1
102
MATERIAL
148
0.0
149
0.0
149
0.0
 93
        0
 94
      127
282
     0
 72
     1
 77
     1
171
     1
175
     1
179
     1
273
     0
  0
CELLSTYLEMAP
  5
D26
102
{ACAD_REACTORS
330
798
102
}
330
798
100
AcDbCellStyleMap
 90
        3
300
CELLSTYLE
  1
TABLEFORMAT_BEGIN
 90
        5
170
     1
 91
        0
 92
    32768
 62
   257
 93
        1
300
CONTENTFORMAT
  1
CONTENTFORMAT_BEGIN
 90
        0
 91
        0
 92
      512
 93
        0
300

 40
0.0
140
1.0
 94
        5
 62
     0
340
26
144
0.25
309
CONTENTFORMAT_END
171
     1
301
MARGIN
  1
CELLMARGIN_BEGIN
 40
0.06
 40
0.06
 40
0.06
 40
0.06
 40
0.18
 40
0.18
309
CELLMARGIN_END
 94
        6
 95
        1
302
GRIDFORMAT
  1
GRIDFORMAT_BEGIN
 90
        0
 91
        1
 62
     0
 92
       -2
340
0
 93
        0
 40
0.045
309
GRIDFORMAT_END
 95
        2
302
GRIDFORMAT
  1
GRIDFORMAT_BEGIN
 90
        0
 91
        1
 62
     0
 92
       -2
340
0
 93
        0
 40
0.045
309
GRIDFORMAT_END
 95
        4
302
GRIDFORMAT
  1
GRIDFORMAT_BEGIN
 90
        0
 91
        1
 62
     0
 92
       -2
340
0
 93
        0
 40
0.045
309
GRIDFORMAT_END
 95
        8
302
GRIDFORMAT
  1
GRIDFORMAT_BEGIN
 90
        0
 91
        1
 62
     0
 92
       -2
340
0
 93
        0
 40
0.045
309
GRIDFORMAT_END
 95
       16
302
GRIDFORMAT
  1
GRIDFORMAT_BEGIN
 90
        0
 91
        1
 62
     0
 92
       -2
340
0
 93
        0
 40
0.045
309
GRIDFORMAT_END
 95
       32
302
GRIDFORMAT
  1
GRIDFORMAT_BEGIN
 90
        0
 91
        1
 62
     0
 92
       -2
340
0
 93
        0
 40
0.045
309
GRIDFORMAT_END
309
TABLEFORMAT_END
  1
CELLSTYLE_BEGIN
 90
        1
 91
        1
300
_TITLE
309
CELLSTYLE_END
300
CELLSTYLE
  1
TABLEFORMAT_BEGIN
 90
        5
170
     1
 91
        0
 92
        0
 62
   257
 93
        1
300
CONTENTFORMAT
  1
CONTENTFORMAT_BEGIN
 90
        0
 91
        0
 92
      512
 93
        0
300

 40
0.0
140
1.0
 94
        5
 62
     0
340
26
144
0.18
309
CONTENTFORMAT_END
171
     1
301
MARGIN
  1
CELLMARGIN_BEGIN
 40
0.06
 40
0.06
 40
0.06
 40
0.06
 40
0.18
 40
0.18
309
CELLMARGIN_END
 94
        6
 95
        1
302
GRIDFORMAT
  1
GRIDFORMAT_BEGIN
 90
        0
 91
        1
 62
     0
 92
       -2
340
0
 93
        0
 40
0.045
309
GRIDFORMAT_END
 95
        2
302
GRIDFORMAT
  1
GRIDFORMAT_BEGIN
 90
        0
 91
        1
 62
     0
 92
       -2
340
0
 93
        0
 40
0.045
309
GRIDFORMAT_END
 95
        4
302
GRIDFORMAT
  1
GRIDFORMAT_BEGIN
 90
        0
 91
        1
 62
     0
 92
       -2
340
0
 93
        0
 40
0.045
309
GRIDFORMAT_END
 95
        8
302
GRIDFORMAT
  1
GRIDFORMAT_BEGIN
 90
        0
 91
        1
 62
     0
 92
       -2
340
0
 93
        0
 40
0.045
309
GRIDFORMAT_END
 95
       16
302
GRIDFORMAT
  1
GRIDFORMAT_BEGIN
 90
        0
 91
        1
 62
     0
 92
       -2
340
0
 93
        0
 40
0.045
309
GRIDFORMAT_END
 95
       32
302
GRIDFORMAT
  1
GRIDFORMAT_BEGIN
 90
        0
 91
        1
 62
     0
 92
       -2
340
0
 93
        0
 40
0.045
309
GRIDFORMAT_END
309
TABLEFORMAT_END
  1
CELLSTYLE_BEGIN
 90
        2
 91
        1
300
_HEADER
309
CELLSTYLE_END
300
CELLSTYLE
  1
TABLEFORMAT_BEGIN
 90
        5
170
     1
 91
        0
 92
        0
 62
   257
 93
        1
300
CONTENTFORMAT
  1
CONTENTFORMAT_BEGIN
 90
        0
 91
        0
 92
      512
 93
        0
300

 40
0.0
140
1.0
 94
        2
 62
     0
340
26
144
0.18
309
CONTENTFORMAT_END
171
     1
301
MARGIN
  1
CELLMARGIN_BEGIN
 40
0.06
 40
0.06
 40
0.06
 40
0.06
 40
0.18
 40
0.18
309
CELLMARGIN_END
 94
        6
 95
        1
302
GRIDFORMAT
  1
GRIDFORMAT_BEGIN
 90
        0
 91
        1
 62
     0
 92
       -2
340
0
 93
        0
 40
0.045
309
GRIDFORMAT_END
 95
        2
302
GRIDFORMAT
  1
GRIDFORMAT_BEGIN
 90
        0
 91
        1
 62
     0
 92
       -2
340
0
 93
        0
 40
0.045
309
GRIDFORMAT_END
 95
        4
302
GRIDFORMAT
  1
GRIDFORMAT_BEGIN
 90
        0
 91
        1
 62
     0
 92
       -2
340
0
 93
        0
 40
0.045
309
GRIDFORMAT_END
 95
        8
302
GRIDFORMAT
  1
GRIDFORMAT_BEGIN
 90
        0
 91
        1
 62
     0
 92
       -2
340
0
 93
        0
 40
0.045
309
GRIDFORMAT_END
 95
       16
302
GRIDFORMAT
  1
GRIDFORMAT_BEGIN
 90
        0
 91
        1
 62
     0
 92
       -2
340
0
 93
        0
 40
0.045
309
GRIDFORMAT_END
 95
       32
302
GRIDFORMAT
  1
GRIDFORMAT_BEGIN
 90
        0
 91
        1
 62
     0
 92
       -2
340
0
 93
        0
 40
0.045
309
GRIDFORMAT_END
309
TABLEFORMAT_END
  1
CELLSTYLE_BEGIN
 90
        3
 91
        2
300
_DATA
309
CELLSTYLE_END
  0
XRECORD
  5
D4D
102
{ACAD_REACTORS
330
798
102
}
330
798
100
AcDbXrecord
280
     1
102
ACAD_ROUNDTRIP_PRE2007_TABLESTYLE
 90
      512
 91
        0
  1

 92
      512
 93
        0
  2

 94
      512
 95
        0
  3

  0
XRECORD
  5
D38
102
{ACAD_REACTORS
330
D37
102
}
330
D37
100
AcDbXrecord
280
     1
102
RTVSPropertyOp0
 70
     1
102
RTVSPropertyOp1
 70
     1
102
RTVSPropertyOp2
 70
     1
102
RTVSPropertyOp3
 70
     1
102
RTVSPropertyOp4
 70
     1
102
RTVSPropertyOp5
 70
     1
102
RTVSPropertyOp6
 70
     1
102
RTVSPropertyOp7
 70
     1
102
RTVSPropertyOp8
 70
     1
102
RTVSPropertyOp9
 70
     1
102
RTVSPropertyOp10
 70
     1
102
RTVSPropertyOp11
 70
     1
102
RTVSPropertyOp12
 70
     1
102
RTVSPropertyOp13
 70
     1
102
RTVSPropertyOp14
 70
     1
102
RTVSPropertyOp15
 70
     1
102
RTVSPropertyOp16
 70
     1
102
RTVSPropertyOp17
 70
     1
102
RTVSPropertyOp18
 70
     1
102
RTVSPropertyOp19
 70
     1
102
RTVSPropertyOp20
 70
     1
102
RTVSPropertyOp21
 70
     1
102
RTVSPropertyOp22
 70
     1
102
RTVSPropertyOp23
 70
     1
102
RTVSPropertyOp24
 70
     1
102
RTVSPropertyOp25
 70
     1
102
RTVSPropertyOp26
 70
     1
102
RTVSPropertyOp27
 70
     1
102
RTVSPropertyOp28
 70
     1
102
RTVSPropertyOp29
 70
     1
102
RTVSPropertyOp30
 70
     1
102
RTVSPropertyOp31
 70
     1
102
RTVSPropertyOp32
 70
     1
  0
XRECORD
  5
D3C
102
{ACAD_REACTORS
330
D3B
102
}
330
D3B
100
AcDbXrecord
280
     1
102
RTVSPropertyOp0
 70
     1
102
RTVSPropertyOp1
 70
     1
102
RTVSPropertyOp2
 70
     1
102
RTVSPropertyOp3
 70
     1
102
RTVSPropertyOp4
 70
     1
102
RTVSPropertyOp5
 70
     1
102
RTVSPropertyOp6
 70
     1
102
RTVSPropertyOp7
 70
     1
102
RTVSPropertyOp8
 70
     1
102
RTVSPropertyOp9
 70
     1
102
RTVSPropertyOp10
 70
     1
102
RTVSPropertyOp11
 70
     1
102
RTVSPropertyOp12
 70
     1
102
RTVSPropertyOp13
 70
     1
102
RTVSPropertyOp14
 70
     1
102
RTVSPropertyOp15
 70
     1
102
RTVSPropertyOp16
 70
     1
102
RTVSPropertyOp17
 70
     1
102
RTVSPropertyOp18
 70
     1
102
RTVSPropertyOp19
 70
     1
102
RTVSPropertyOp20
 70
     1
102
RTVSPropertyOp21
 70
     1
102
RTVSPropertyOp22
 70
     1
102
RTVSPropertyOp23
 70
     1
102
RTVSPropertyOp24
 70
     1
102
RTVSPropertyOp25
 70
     1
102
RTVSPropertyOp26
 70
     1
102
RTVSPropertyOp27
 70
     1
102
RTVSPropertyOp28
 70
     1
102
RTVSPropertyOp29
 70
     1
102
RTVSPropertyOp30
 70
     1
102
RTVSPropertyOp31
 70
     1
102
RTVSPropertyOp32
 70
     1
  0
XRECORD
  5
D3A
102
{ACAD_REACTORS
330
D39
102
}
330
D39
100
AcDbXrecord
280
     1
102
RTVSPropertyOp0
 70
     1
102
RTVSPropertyOp1
 70
     1
102
RTVSPropertyOp2
 70
     1
102
RTVSPropertyOp3
 70
     1
102
RTVSPropertyOp4
 70
     1
102
RTVSPropertyOp5
 70
     1
102
RTVSPropertyOp6
 70
     1
102
RTVSPropertyOp7
 70
     1
102
RTVSPropertyOp8
 70
     1
102
RTVSPropertyOp9
 70
     1
102
RTVSPropertyOp10
 70
     1
102
RTVSPropertyOp11
 70
     1
102
RTVSPropertyOp12
 70
     1
102
RTVSPropertyOp13
 70
     1
102
RTVSPropertyOp14
 70
     1
102
RTVSPropertyOp15
 70
     1
102
RTVSPropertyOp16
 70
     1
102
RTVSPropertyOp17
 70
     1
102
RTVSPropertyOp18
 70
     1
102
RTVSPropertyOp19
 70
     1
102
RTVSPropertyOp20
 70
     1
102
RTVSPropertyOp21
 70
     1
102
RTVSPropertyOp22
 70
     1
102
RTVSPropertyOp23
 70
     1
102
RTVSPropertyOp24
 70
     1
102
RTVSPropertyOp25
 70
     1
102
RTVSPropertyOp26
 70
     1
102
RTVSPropertyOp27
 70
     1
102
RTVSPropertyOp28
 70
     1
102
RTVSPropertyOp29
 70
     1
102
RTVSPropertyOp30
 70
     1
102
RTVSPropertyOp31
 70
     1
102
RTVSPropertyOp32
 70
     1
  0
XRECORD
  5
D36
102
{ACAD_REACTORS
330
D35
102
}
330
D35
100
AcDbXrecord
280
     1
102
RTVSPropertyOp0
 70
     1
102
RTVSPropertyOp1
 70
     1
102
RTVSPropertyOp2
 70
     1
102
RTVSPropertyOp3
 70
     1
102
RTVSPropertyOp4
 70
     1
102
RTVSPropertyOp5
 70
     1
102
RTVSPropertyOp6
 70
     1
102
RTVSPropertyOp7
 70
     1
102
RTVSPropertyOp8
 70
     1
102
RTVSPropertyOp9
 70
     1
102
RTVSPropertyOp10
 70
     1
102
RTVSPropertyOp11
 70
     1
102
RTVSPropertyOp12
 70
     1
102
RTVSPropertyOp13
 70
     1
102
RTVSPropertyOp14
 70
     1
102
RTVSPropertyOp15
 70
     1
102
RTVSPropertyOp16
 70
     1
102
RTVSPropertyOp17
 70
     1
102
RTVSPropertyOp18
 70
     1
102
RTVSPropertyOp19
 70
     1
102
RTVSPropertyOp20
 70
     1
102
RTVSPropertyOp21
 70
     1
102
RTVSPropertyOp22
 70
     1
102
RTVSPropertyOp23
 70
     1
102
RTVSPropertyOp24
 70
     1
102
RTVSPropertyOp25
 70
     1
102
RTVSPropertyOp26
 70
     1
102
RTVSPropertyOp27
 70
     1
102
RTVSPropertyOp28
 70
     1
102
RTVSPropertyOp29
 70
     1
102
RTVSPropertyOp30
 70
     1
102
RTVSPropertyOp31
 70
     1
102
RTVSPropertyOp32
 70
     1
  0
XRECORD
  5
D44
102
{ACAD_REACTORS
330
D43
102
}
330
D43
100
AcDbXrecord
280
     1
102
RTVSPropertyOp0
 70
     1
102
RTVSPropertyOp1
 70
     1
102
RTVSPropertyOp2
 70
     1
102
RTVSPropertyOp3
 70
     1
102
RTVSPropertyOp4
 70
     1
102
RTVSPropertyOp5
 70
     1
102
RTVSPropertyOp6
 70
     1
102
RTVSPropertyOp7
 70
     1
102
RTVSPropertyOp8
 70
     1
102
RTVSPropertyOp9
 70
     1
102
RTVSPropertyOp10
 70
     1
102
RTVSPropertyOp11
 70
     1
102
RTVSPropertyOp12
 70
     1
102
RTVSPropertyOp13
 70
     1
102
RTVSPropertyOp14
 70
     1
102
RTVSPropertyOp15
 70
     1
102
RTVSPropertyOp16
 70
     1
102
RTVSPropertyOp17
 70
     1
102
RTVSPropertyOp18
 70
     1
102
RTVSPropertyOp19
 70
     1
102
RTVSPropertyOp20
 70
     1
102
RTVSPropertyOp21
 70
     1
102
RTVSPropertyOp22
 70
     1
102
RTVSPropertyOp23
 70
     1
102
RTVSPropertyOp24
 70
     1
102
RTVSPropertyOp25
 70
     1
102
RTVSPropertyOp26
 70
     1
102
RTVSPropertyOp27
 70
     1
102
RTVSPropertyOp28
 70
     1
102
RTVSPropertyOp29
 70
     1
102
RTVSPropertyOp30
 70
     1
102
RTVSPropertyOp31
 70
     1
102
RTVSPropertyOp32
 70
     1
  0
XRECORD
  5
D4C
102
{ACAD_REACTORS
330
D4B
102
}
330
D4B
100
AcDbXrecord
280
     1
102
RTVSPropertyOp0
 70
     1
102
RTVSPropertyOp1
 70
     1
102
RTVSPropertyOp2
 70
     1
102
RTVSPropertyOp3
 70
     1
102
RTVSPropertyOp4
 70
     1
102
RTVSPropertyOp5
 70
     1
102
RTVSPropertyOp6
 70
     1
102
RTVSPropertyOp7
 70
     1
102
RTVSPropertyOp8
 70
     1
102
RTVSPropertyOp9
 70
     1
102
RTVSPropertyOp10
 70
     1
102
RTVSPropertyOp11
 70
     1
102
RTVSPropertyOp12
 70
     1
102
RTVSPropertyOp13
 70
     1
102
RTVSPropertyOp14
 70
     1
102
RTVSPropertyOp15
 70
     1
102
RTVSPropertyOp16
 70
     1
102
RTVSPropertyOp17
 70
     1
102
RTVSPropertyOp18
 70
     1
102
RTVSPropertyOp19
 70
     1
102
RTVSPropertyOp20
 70
     1
102
RTVSPropertyOp21
 70
     1
102
RTVSPropertyOp22
 70
     1
102
RTVSPropertyOp23
 70
     1
102
RTVSPropertyOp24
 70
     1
102
RTVSPropertyOp25
 70
     1
102
RTVSPropertyOp26
 70
     1
102
RTVSPropertyOp27
 70
     1
102
RTVSPropertyOp28
 70
     1
102
RTVSPropertyOp29
 70
     1
102
RTVSPropertyOp30
 70
     1
102
RTVSPropertyOp31
 70
     1
102
RTVSPropertyOp32
 70
     1
  0
XRECORD
  5
D3E
102
{ACAD_REACTORS
330
D3D
102
}
330
D3D
100
AcDbXrecord
280
     1
102
RTVSPropertyOp0
 70
     1
102
RTVSPropertyOp1
 70
     1
102
RTVSPropertyOp2
 70
     1
102
RTVSPropertyOp3
 70
     1
102
RTVSPropertyOp4
 70
     1
102
RTVSPropertyOp5
 70
     1
102
RTVSPropertyOp6
 70
     1
102
RTVSPropertyOp7
 70
     1
102
RTVSPropertyOp8
 70
     1
102
RTVSPropertyOp9
 70
     1
102
RTVSPropertyOp10
 70
     1
102
RTVSPropertyOp11
 70
     1
102
RTVSPropertyOp12
 70
     1
102
RTVSPropertyOp13
 70
     1
102
RTVSPropertyOp14
 70
     1
102
RTVSPropertyOp15
 70
     1
102
RTVSPropertyOp16
 70
     1
102
RTVSPropertyOp17
 70
     1
102
RTVSPropertyOp18
 70
     1
102
RTVSPropertyOp19
 70
     1
102
RTVSPropertyOp20
 70
     1
102
RTVSPropertyOp21
 70
     1
102
RTVSPropertyOp22
 70
     1
102
RTVSPropertyOp23
 70
     1
102
RTVSPropertyOp24
 70
     1
102
RTVSPropertyOp25
 70
     1
102
RTVSPropertyOp26
 70
     1
102
RTVSPropertyOp27
 70
     1
102
RTVSPropertyOp28
 70
     1
102
RTVSPropertyOp29
 70
     1
102
RTVSPropertyOp30
 70
     1
102
RTVSPropertyOp31
 70
     1
102
RTVSPropertyOp32
 70
     1
  0
XRECORD
  5
D42
102
{ACAD_REACTORS
330
D41
102
}
330
D41
100
AcDbXrecord
280
     1
102
RTVSPropertyOp0
 70
     1
102
RTVSPropertyOp1
 70
     1
102
RTVSPropertyOp2
 70
     1
102
RTVSPropertyOp3
 70
     1
102
RTVSPropertyOp4
 70
     1
102
RTVSPropertyOp5
 70
     1
102
RTVSPropertyOp6
 70
     1
102
RTVSPropertyOp7
 70
     1
102
RTVSPropertyOp8
 70
     1
102
RTVSPropertyOp9
 70
     1
102
RTVSPropertyOp10
 70
     1
102
RTVSPropertyOp11
 70
     1
102
RTVSPropertyOp12
 70
     1
102
RTVSPropertyOp13
 70
     1
102
RTVSPropertyOp14
 70
     1
102
RTVSPropertyOp15
 70
     1
102
RTVSPropertyOp16
 70
     1
102
RTVSPropertyOp17
 70
     1
102
RTVSPropertyOp18
 70
     1
102
RTVSPropertyOp19
 70
     1
102
RTVSPropertyOp20
 70
     1
102
RTVSPropertyOp21
 70
     1
102
RTVSPropertyOp22
 70
     1
102
RTVSPropertyOp23
 70
     1
102
RTVSPropertyOp24
 70
     1
102
RTVSPropertyOp25
 70
     1
102
RTVSPropertyOp26
 70
     1
102
RTVSPropertyOp27
 70
     1
102
RTVSPropertyOp28
 70
     1
102
RTVSPropertyOp29
 70
     1
102
RTVSPropertyOp30
 70
     1
102
RTVSPropertyOp31
 70
     1
102
RTVSPropertyOp32
 70
     1
  0
XRECORD
  5
D65
102
{ACAD_REACTORS
330
D64
102
}
330
D64
100
AcDbXrecord
280
     1
102
RTVSPropertyOp0
 70
     0
102
RTVSPropertyOp1
 70
     0
102
RTVSPropertyOp2
 70
     0
102
RTVSPropertyOp3
 70
     0
102
RTVSPropertyOp4
 70
     0
102
RTVSPropertyOp5
 70
     0
102
RTVSPropertyOp6
 70
     0
102
RTVSPropertyOp7
 70
     0
102
RTVSPropertyOp8
 70
     0
102
RTVSPropertyOp9
 70
     0
102
RTVSPropertyOp10
 70
     0
102
RTVSPropertyOp11
 70
     0
102
RTVSPropertyOp12
 70
     0
102
RTVSPropertyOp13
 70
     0
102
RTVSPropertyOp14
 70
     2
102
RTVSPropertyOp15
 70
     0
102
RTVSPropertyOp16
 70
     0
102
RTVSPropertyOp17
 70
     0
102
RTVSPropertyOp18
 70
     0
102
RTVSPropertyOp19
 70
     0
102
RTVSPropertyOp20
 70
     0
102
RTVSPropertyOp21
 70
     0
102
RTVSPropertyOp22
 70
     0
102
RTVSPropertyOp23
 70
     0
102
RTVSPropertyOp24
 70
     0
102
RTVSPropertyOp25
 70
     0
102
RTVSPropertyOp26
 70
     0
102
RTVSPropertyOp27
 70
     0
102
RTVSPropertyOp28
 70
     0
102
RTVSPropertyOp29
 70
     0
102
RTVSPropertyOp30
 70
     0
102
RTVSPropertyOp31
 70
     0
102
RTVSPropertyOp32
 70
     0
  0
XRECORD
  5
D4A
102
{ACAD_REACTORS
330
D49
102
}
330
D49
100
AcDbXrecord
280
     1
102
RTVSPropertyOp0
 70
     1
102
RTVSPropertyOp1
 70
     1
102
RTVSPropertyOp2
 70
     1
102
RTVSPropertyOp3
 70
     1
102
RTVSPropertyOp4
 70
     1
102
RTVSPropertyOp5
 70
     1
102
RTVSPropertyOp6
 70
     1
102
RTVSPropertyOp7
 70
     1
102
RTVSPropertyOp8
 70
     1
102
RTVSPropertyOp9
 70
     1
102
RTVSPropertyOp10
 70
     1
102
RTVSPropertyOp11
 70
     1
102
RTVSPropertyOp12
 70
     1
102
RTVSPropertyOp13
 70
     1
102
RTVSPropertyOp14
 70
     1
102
RTVSPropertyOp15
 70
     1
102
RTVSPropertyOp16
 70
     1
102
RTVSPropertyOp17
 70
     1
102
RTVSPropertyOp18
 70
     1
102
RTVSPropertyOp19
 70
     1
102
RTVSPropertyOp20
 70
     1
102
RTVSPropertyOp21
 70
     1
102
RTVSPropertyOp22
 70
     1
102
RTVSPropertyOp23
 70
     1
102
RTVSPropertyOp24
 70
     1
102
RTVSPropertyOp25
 70
     1
102
RTVSPropertyOp26
 70
     1
102
RTVSPropertyOp27
 70
     1
102
RTVSPropertyOp28
 70
     1
102
RTVSPropertyOp29
 70
     1
102
RTVSPropertyOp30
 70
     1
102
RTVSPropertyOp31
 70
     1
102
RTVSPropertyOp32
 70
     1
  0
XRECORD
  5
D2E
102
{ACAD_REACTORS
330
D2D
102
}
330
D2D
100
AcDbXrecord
280
     1
102
RTVSPropertyOp0
 70
     1
102
RTVSPropertyOp1
 70
     1
102
RTVSPropertyOp2
 70
     1
102
RTVSPropertyOp3
 70
     1
102
RTVSPropertyOp4
 70
     1
102
RTVSPropertyOp5
 70
     1
102
RTVSPropertyOp6
 70
     1
102
RTVSPropertyOp7
 70
     1
102
RTVSPropertyOp8
 70
     1
102
RTVSPropertyOp9
 70
     1
102
RTVSPropertyOp10
 70
     1
102
RTVSPropertyOp11
 70
     1
102
RTVSPropertyOp12
 70
     1
102
RTVSPropertyOp13
 70
     1
102
RTVSPropertyOp14
 70
     1
102
RTVSPropertyOp15
 70
     1
102
RTVSPropertyOp16
 70
     1
102
RTVSPropertyOp17
 70
     1
102
RTVSPropertyOp18
 70
     1
102
RTVSPropertyOp19
 70
     1
102
RTVSPropertyOp20
 70
     1
102
RTVSPropertyOp21
 70
     1
102
RTVSPropertyOp22
 70
     1
102
RTVSPropertyOp23
 70
     1
102
RTVSPropertyOp24
 70
     1
102
RTVSPropertyOp25
 70
     1
102
RTVSPropertyOp26
 70
     1
102
RTVSPropertyOp27
 70
     1
102
RTVSPropertyOp28
 70
     1
102
RTVSPropertyOp29
 70
     1
102
RTVSPropertyOp30
 70
     1
102
RTVSPropertyOp31
 70
     1
102
RTVSPropertyOp32
 70
     1
  0
XRECORD
  5
D30
102
{ACAD_REACTORS
330
D2F
102
}
330
D2F
100
AcDbXrecord
280
     1
102
RTVSPropertyOp0
 70
     1
102
RTVSPropertyOp1
 70
     1
102
RTVSPropertyOp2
 70
     1
102
RTVSPropertyOp3
 70
     1
102
RTVSPropertyOp4
 70
     1
102
RTVSPropertyOp5
 70
     1
102
RTVSPropertyOp6
 70
     1
102
RTVSPropertyOp7
 70
     1
102
RTVSPropertyOp8
 70
     1
102
RTVSPropertyOp9
 70
     1
102
RTVSPropertyOp10
 70
     1
102
RTVSPropertyOp11
 70
     1
102
RTVSPropertyOp12
 70
     1
102
RTVSPropertyOp13
 70
     1
102
RTVSPropertyOp14
 70
     1
102
RTVSPropertyOp15
 70
     1
102
RTVSPropertyOp16
 70
     1
102
RTVSPropertyOp17
 70
     1
102
RTVSPropertyOp18
 70
     1
102
RTVSPropertyOp19
 70
     1
102
RTVSPropertyOp20
 70
     1
102
RTVSPropertyOp21
 70
     1
102
RTVSPropertyOp22
 70
     1
102
RTVSPropertyOp23
 70
     1
102
RTVSPropertyOp24
 70
     1
102
RTVSPropertyOp25
 70
     1
102
RTVSPropertyOp26
 70
     1
102
RTVSPropertyOp27
 70
     1
102
RTVSPropertyOp28
 70
     1
102
RTVSPropertyOp29
 70
     1
102
RTVSPropertyOp30
 70
     1
102
RTVSPropertyOp31
 70
     1
102
RTVSPropertyOp32
 70
     1
  0
XRECORD
  5
D32
102
{ACAD_REACTORS
330
D31
102
}
330
D31
100
AcDbXrecord
280
     1
102
RTVSPropertyOp0
 70
     1
102
RTVSPropertyOp1
 70
     1
102
RTVSPropertyOp2
 70
     1
102
RTVSPropertyOp3
 70
     1
102
RTVSPropertyOp4
 70
     1
102
RTVSPropertyOp5
 70
     1
102
RTVSPropertyOp6
 70
     1
102
RTVSPropertyOp7
 70
     1
102
RTVSPropertyOp8
 70
     1
102
RTVSPropertyOp9
 70
     1
102
RTVSPropertyOp10
 70
     1
102
RTVSPropertyOp11
 70
     1
102
RTVSPropertyOp12
 70
     1
102
RTVSPropertyOp13
 70
     1
102
RTVSPropertyOp14
 70
     1
102
RTVSPropertyOp15
 70
     1
102
RTVSPropertyOp16
 70
     1
102
RTVSPropertyOp17
 70
     1
102
RTVSPropertyOp18
 70
     1
102
RTVSPropertyOp19
 70
     1
102
RTVSPropertyOp20
 70
     1
102
RTVSPropertyOp21
 70
     1
102
RTVSPropertyOp22
 70
     1
102
RTVSPropertyOp23
 70
     1
102
RTVSPropertyOp24
 70
     1
102
RTVSPropertyOp25
 70
     1
102
RTVSPropertyOp26
 70
     1
102
RTVSPropertyOp27
 70
     1
102
RTVSPropertyOp28
 70
     1
102
RTVSPropertyOp29
 70
     1
102
RTVSPropertyOp30
 70
     1
102
RTVSPropertyOp31
 70
     1
102
RTVSPropertyOp32
 70
     1
  0
XRECORD
  5
D34
102
{ACAD_REACTORS
330
D33
102
}
330
D33
100
AcDbXrecord
280
     1
102
RTVSPropertyOp0
 70
     1
102
RTVSPropertyOp1
 70
     1
102
RTVSPropertyOp2
 70
     1
102
RTVSPropertyOp3
 70
     1
102
RTVSPropertyOp4
 70
     1
102
RTVSPropertyOp5
 70
     1
102
RTVSPropertyOp6
 70
     1
102
RTVSPropertyOp7
 70
     1
102
RTVSPropertyOp8
 70
     1
102
RTVSPropertyOp9
 70
     1
102
RTVSPropertyOp10
 70
     1
102
RTVSPropertyOp11
 70
     1
102
RTVSPropertyOp12
 70
     1
102
RTVSPropertyOp13
 70
     1
102
RTVSPropertyOp14
 70
     1
102
RTVSPropertyOp15
 70
     1
102
RTVSPropertyOp16
 70
     1
102
RTVSPropertyOp17
 70
     1
102
RTVSPropertyOp18
 70
     1
102
RTVSPropertyOp19
 70
     1
102
RTVSPropertyOp20
 70
     1
102
RTVSPropertyOp21
 70
     1
102
RTVSPropertyOp22
 70
     1
102
RTVSPropertyOp23
 70
     1
102
RTVSPropertyOp24
 70
     1
102
RTVSPropertyOp25
 70
     1
102
RTVSPropertyOp26
 70
     1
102
RTVSPropertyOp27
 70
     1
102
RTVSPropertyOp28
 70
     1
102
RTVSPropertyOp29
 70
     1
102
RTVSPropertyOp30
 70
     1
102
RTVSPropertyOp31
 70
     1
102
RTVSPropertyOp32
 70
     1
  0
XRECORD
  5
D55
102
{ACAD_REACTORS
330
D54
102
}
330
D54
100
AcDbXrecord
280
     1
102
RTVSPropertyOp0
 70
     1
102
RTVSPropertyOp1
 70
     1
102
RTVSPropertyOp2
 70
     1
102
RTVSPropertyOp3
 70
     1
102
RTVSPropertyOp4
 70
     1
102
RTVSPropertyOp5
 70
     1
102
RTVSPropertyOp6
 70
     1
102
RTVSPropertyOp7
 70
     1
102
RTVSPropertyOp8
 70
     1
102
RTVSPropertyOp9
 70
     1
102
RTVSPropertyOp10
 70
     1
102
RTVSPropertyOp11
 70
     1
102
RTVSPropertyOp12
 70
     1
102
RTVSPropertyOp13
 70
     1
102
RTVSPropertyOp14
 70
     1
102
RTVSPropertyOp15
 70
     1
102
RTVSPropertyOp16
 70
     1
102
RTVSPropertyOp17
 70
     1
102
RTVSPropertyOp18
 70
     1
102
RTVSPropertyOp19
 70
     1
102
RTVSPropertyOp20
 70
     1
102
RTVSPropertyOp21
 70
     1
102
RTVSPropertyOp22
 70
     1
102
RTVSPropertyOp23
 70
     1
102
RTVSPropertyOp24
 70
     1
102
RTVSPropertyOp25
 70
     1
102
RTVSPropertyOp26
 70
     1
102
RTVSPropertyOp27
 70
     1
102
RTVSPropertyOp28
 70
     1
102
RTVSPropertyOp29
 70
     1
102
RTVSPropertyOp30
 70
     1
102
RTVSPropertyOp31
 70
     1
102
RTVSPropertyOp32
 70
     1
  0
XRECORD
  5
D61
102
{ACAD_REACTORS
330
D60
102
}
330
D60
100
AcDbXrecord
280
     1
102
RTVSPropertyOp0
 70
     0
102
RTVSPropertyOp1
 70
     0
102
RTVSPropertyOp2
 70
     0
102
RTVSPropertyOp3
 70
     0
102
RTVSPropertyOp4
 70
     0
102
RTVSPropertyOp5
 70
     0
102
RTVSPropertyOp6
 70
     0
102
RTVSPropertyOp7
 70
     0
102
RTVSPropertyOp8
 70
     0
102
RTVSPropertyOp9
 70
     0
102
RTVSPropertyOp10
 70
     0
102
RTVSPropertyOp11
 70
     0
102
RTVSPropertyOp12
 70
     0
102
RTVSPropertyOp13
 70
     0
102
RTVSPropertyOp14
 70
     2
102
RTVSPropertyOp15
 70
     0
102
RTVSPropertyOp16
 70
     0
102
RTVSPropertyOp17
 70
     0
102
RTVSPropertyOp18
 70
     0
102
RTVSPropertyOp19
 70
     0
102
RTVSPropertyOp20
 70
     0
102
RTVSPropertyOp21
 70
     0
102
RTVSPropertyOp22
 70
     0
102
RTVSPropertyOp23
 70
     0
102
RTVSPropertyOp24
 70
     0
102
RTVSPropertyOp25
 70
     0
102
RTVSPropertyOp26
 70
     0
102
RTVSPropertyOp27
 70
     0
102
RTVSPropertyOp28
 70
     0
102
RTVSPropertyOp29
 70
     0
102
RTVSPropertyOp30
 70
     0
102
RTVSPropertyOp31
 70
     0
102
RTVSPropertyOp32
 70
     0
  0
XRECORD
  5
D48
102
{ACAD_REACTORS
330
D47
102
}
330
D47
100
AcDbXrecord
280
     1
102
RTVSPropertyOp0
 70
     1
102
RTVSPropertyOp1
 70
     1
102
RTVSPropertyOp2
 70
     1
102
RTVSPropertyOp3
 70
     1
102
RTVSPropertyOp4
 70
     1
102
RTVSPropertyOp5
 70
     1
102
RTVSPropertyOp6
 70
     1
102
RTVSPropertyOp7
 70
     1
102
RTVSPropertyOp8
 70
     1
102
RTVSPropertyOp9
 70
     1
102
RTVSPropertyOp10
 70
     1
102
RTVSPropertyOp11
 70
     1
102
RTVSPropertyOp12
 70
     1
102
RTVSPropertyOp13
 70
     1
102
RTVSPropertyOp14
 70
     1
102
RTVSPropertyOp15
 70
     1
102
RTVSPropertyOp16
 70
     1
102
RTVSPropertyOp17
 70
     1
102
RTVSPropertyOp18
 70
     1
102
RTVSPropertyOp19
 70
     1
102
RTVSPropertyOp20
 70
     1
102
RTVSPropertyOp21
 70
     1
102
RTVSPropertyOp22
 70
     1
102
RTVSPropertyOp23
 70
     1
102
RTVSPropertyOp24
 70
     1
102
RTVSPropertyOp25
 70
     1
102
RTVSPropertyOp26
 70
     1
102
RTVSPropertyOp27
 70
     1
102
RTVSPropertyOp28
 70
     1
102
RTVSPropertyOp29
 70
     1
102
RTVSPropertyOp30
 70
     1
102
RTVSPropertyOp31
 70
     1
102
RTVSPropertyOp32
 70
     1
  0
XRECORD
  5
D63
102
{ACAD_REACTORS
330
D62
102
}
330
D62
100
AcDbXrecord
280
     1
102
RTVSPropertyOp0
 70
     0
102
RTVSPropertyOp1
 70
     0
102
RTVSPropertyOp2
 70
     0
102
RTVSPropertyOp3
 70
     0
102
RTVSPropertyOp4
 70
     0
102
RTVSPropertyOp5
 70
     0
102
RTVSPropertyOp6
 70
     0
102
RTVSPropertyOp7
 70
     0
102
RTVSPropertyOp8
 70
     0
102
RTVSPropertyOp9
 70
     0
102
RTVSPropertyOp10
 70
     0
102
RTVSPropertyOp11
 70
     0
102
RTVSPropertyOp12
 70
     0
102
RTVSPropertyOp13
 70
     0
102
RTVSPropertyOp14
 70
     2
102
RTVSPropertyOp15
 70
     0
102
RTVSPropertyOp16
 70
     0
102
RTVSPropertyOp17
 70
     0
102
RTVSPropertyOp18
 70
     0
102
RTVSPropertyOp19
 70
     0
102
RTVSPropertyOp20
 70
     0
102
RTVSPropertyOp21
 70
     0
102
RTVSPropertyOp22
 70
     0
102
RTVSPropertyOp23
 70
     0
102
RTVSPropertyOp24
 70
     0
102
RTVSPropertyOp25
 70
     0
102
RTVSPropertyOp26
 70
     0
102
RTVSPropertyOp27
 70
     0
102
RTVSPropertyOp28
 70
     0
102
RTVSPropertyOp29
 70
     0
102
RTVSPropertyOp30
 70
     0
102
RTVSPropertyOp31
 70
     0
102
RTVSPropertyOp32
 70
     0
  0
XRECORD
  5
D40
102
{ACAD_REACTORS
330
D3F
102
}
330
D3F
100
AcDbXrecord
280
     1
102
RTVSPropertyOp0
 70
     1
102
RTVSPropertyOp1
 70
     1
102
RTVSPropertyOp2
 70
     1
102
RTVSPropertyOp3
 70
     1
102
RTVSPropertyOp4
 70
     1
102
RTVSPropertyOp5
 70
     1
102
RTVSPropertyOp6
 70
     1
102
RTVSPropertyOp7
 70
     1
102
RTVSPropertyOp8
 70
     1
102
RTVSPropertyOp9
 70
     1
102
RTVSPropertyOp10
 70
     1
102
RTVSPropertyOp11
 70
     1
102
RTVSPropertyOp12
 70
     1
102
RTVSPropertyOp13
 70
     1
102
RTVSPropertyOp14
 70
     1
102
RTVSPropertyOp15
 70
     1
102
RTVSPropertyOp16
 70
     1
102
RTVSPropertyOp17
 70
     1
102
RTVSPropertyOp18
 70
     1
102
RTVSPropertyOp19
 70
     1
102
RTVSPropertyOp20
 70
     1
102
RTVSPropertyOp21
 70
     1
102
RTVSPropertyOp22
 70
     1
102
RTVSPropertyOp23
 70
     1
102
RTVSPropertyOp24
 70
     1
102
RTVSPropertyOp25
 70
     1
102
RTVSPropertyOp26
 70
     1
102
RTVSPropertyOp27
 70
     1
102
RTVSPropertyOp28
 70
     1
102
RTVSPropertyOp29
 70
     1
102
RTVSPropertyOp30
 70
     1
102
RTVSPropertyOp31
 70
     1
102
RTVSPropertyOp32
 70
     1
  0
XRECORD
  5
D5F
102
{ACAD_REACTORS
330
D5E
102
}
330
D5E
100
AcDbXrecord
280
     1
102
RTVSPropertyOp0
 70
     1
102
RTVSPropertyOp1
 70
     1
102
RTVSPropertyOp2
 70
     1
102
RTVSPropertyOp3
 70
     1
102
RTVSPropertyOp4
 70
     1
102
RTVSPropertyOp5
 70
     1
102
RTVSPropertyOp6
 70
     1
102
RTVSPropertyOp7
 70
     1
102
RTVSPropertyOp8
 70
     1
102
RTVSPropertyOp9
 70
     1
102
RTVSPropertyOp10
 70
     1
102
RTVSPropertyOp11
 70
     1
102
RTVSPropertyOp12
 70
     1
102
RTVSPropertyOp13
 70
     1
102
RTVSPropertyOp14
 70
     1
102
RTVSPropertyOp15
 70
     1
102
RTVSPropertyOp16
 70
     1
102
RTVSPropertyOp17
 70
     1
102
RTVSPropertyOp18
 70
     1
102
RTVSPropertyOp19
 70
     1
102
RTVSPropertyOp20
 70
     1
102
RTVSPropertyOp21
 70
     1
102
RTVSPropertyOp22
 70
     1
102
RTVSPropertyOp23
 70
     1
102
RTVSPropertyOp24
 70
     1
102
RTVSPropertyOp25
 70
     1
102
RTVSPropertyOp26
 70
     1
102
RTVSPropertyOp27
 70
     1
102
RTVSPropertyOp28
 70
     1
102
RTVSPropertyOp29
 70
     1
102
RTVSPropertyOp30
 70
     1
102
RTVSPropertyOp31
 70
     1
102
RTVSPropertyOp32
 70
     1
  0
XRECORD
  5
D5D
102
{ACAD_REACTORS
330
D5C
102
}
330
D5C
100
AcDbXrecord
280
     1
102
RTVSPropertyOp0
 70
     1
102
RTVSPropertyOp1
 70
     1
102
RTVSPropertyOp2
 70
     1
102
RTVSPropertyOp3
 70
     1
102
RTVSPropertyOp4
 70
     1
102
RTVSPropertyOp5
 70
     1
102
RTVSPropertyOp6
 70
     1
102
RTVSPropertyOp7
 70
     1
102
RTVSPropertyOp8
 70
     1
102
RTVSPropertyOp9
 70
     1
102
RTVSPropertyOp10
 70
     1
102
RTVSPropertyOp11
 70
     1
102
RTVSPropertyOp12
 70
     1
102
RTVSPropertyOp13
 70
     1
102
RTVSPropertyOp14
 70
     1
102
RTVSPropertyOp15
 70
     1
102
RTVSPropertyOp16
 70
     1
102
RTVSPropertyOp17
 70
     1
102
RTVSPropertyOp18
 70
     1
102
RTVSPropertyOp19
 70
     1
102
RTVSPropertyOp20
 70
     1
102
RTVSPropertyOp21
 70
     1
102
RTVSPropertyOp22
 70
     1
102
RTVSPropertyOp23
 70
     1
102
RTVSPropertyOp24
 70
     1
102
RTVSPropertyOp25
 70
     1
102
RTVSPropertyOp26
 70
     1
102
RTVSPropertyOp27
 70
     1
102
RTVSPropertyOp28
 70
     1
102
RTVSPropertyOp29
 70
     1
102
RTVSPropertyOp30
 70
     1
102
RTVSPropertyOp31
 70
     1
102
RTVSPropertyOp32
 70
     1
  0
XRECORD
  5
D57
102
{ACAD_REACTORS
330
D56
102
}
330
D56
100
AcDbXrecord
280
     1
102
RTVSPropertyOp0
 70
     1
102
RTVSPropertyOp1
 70
     1
102
RTVSPropertyOp2
 70
     1
102
RTVSPropertyOp3
 70
     1
102
RTVSPropertyOp4
 70
     1
102
RTVSPropertyOp5
 70
     1
102
RTVSPropertyOp6
 70
     1
102
RTVSPropertyOp7
 70
     1
102
RTVSPropertyOp8
 70
     1
102
RTVSPropertyOp9
 70
     1
102
RTVSPropertyOp10
 70
     1
102
RTVSPropertyOp11
 70
     1
102
RTVSPropertyOp12
 70
     1
102
RTVSPropertyOp13
 70
     1
102
RTVSPropertyOp14
 70
     1
102
RTVSPropertyOp15
 70
     1
102
RTVSPropertyOp16
 70
     1
102
RTVSPropertyOp17
 70
     1
102
RTVSPropertyOp18
 70
     1
102
RTVSPropertyOp19
 70
     1
102
RTVSPropertyOp20
 70
     1
102
RTVSPropertyOp21
 70
     1
102
RTVSPropertyOp22
 70
     1
102
RTVSPropertyOp23
 70
     1
102
RTVSPropertyOp24
 70
     1
102
RTVSPropertyOp25
 70
     1
102
RTVSPropertyOp26
 70
     1
102
RTVSPropertyOp27
 70
     1
102
RTVSPropertyOp28
 70
     1
102
RTVSPropertyOp29
 70
     1
102
RTVSPropertyOp30
 70
     1
102
RTVSPropertyOp31
 70
     1
102
RTVSPropertyOp32
 70
     1
  0
XRECORD
  5
D59
102
{ACAD_REACTORS
330
D58
102
}
330
D58
100
AcDbXrecord
280
     1
102
RTVSPropertyOp0
 70
     1
102
RTVSPropertyOp1
 70
     1
102
RTVSPropertyOp2
 70
     1
102
RTVSPropertyOp3
 70
     1
102
RTVSPropertyOp4
 70
     1
102
RTVSPropertyOp5
 70
     1
102
RTVSPropertyOp6
 70
     1
102
RTVSPropertyOp7
 70
     1
102
RTVSPropertyOp8
 70
     1
102
RTVSPropertyOp9
 70
     1
102
RTVSPropertyOp10
 70
     1
102
RTVSPropertyOp11
 70
     1
102
RTVSPropertyOp12
 70
     1
102
RTVSPropertyOp13
 70
     1
102
RTVSPropertyOp14
 70
     1
102
RTVSPropertyOp15
 70
     1
102
RTVSPropertyOp16
 70
     1
102
RTVSPropertyOp17
 70
     1
102
RTVSPropertyOp18
 70
     1
102
RTVSPropertyOp19
 70
     1
102
RTVSPropertyOp20
 70
     1
102
RTVSPropertyOp21
 70
     1
102
RTVSPropertyOp22
 70
     1
102
RTVSPropertyOp23
 70
     1
102
RTVSPropertyOp24
 70
     1
102
RTVSPropertyOp25
 70
     1
102
RTVSPropertyOp26
 70
     1
102
RTVSPropertyOp27
 70
     1
102
RTVSPropertyOp28
 70
     1
102
RTVSPropertyOp29
 70
     1
102
RTVSPropertyOp30
 70
     1
102
RTVSPropertyOp31
 70
     1
102
RTVSPropertyOp32
 70
     1
  0
XRECORD
  5
D46
102
{ACAD_REACTORS
330
D45
102
}
330
D45
100
AcDbXrecord
280
     1
102
RTVSPropertyOp0
 70
     1
102
RTVSPropertyOp1
 70
     1
102
RTVSPropertyOp2
 70
     1
102
RTVSPropertyOp3
 70
     1
102
RTVSPropertyOp4
 70
     1
102
RTVSPropertyOp5
 70
     1
102
RTVSPropertyOp6
 70
     1
102
RTVSPropertyOp7
 70
     1
102
RTVSPropertyOp8
 70
     1
102
RTVSPropertyOp9
 70
     1
102
RTVSPropertyOp10
 70
     1
102
RTVSPropertyOp11
 70
     1
102
RTVSPropertyOp12
 70
     1
102
RTVSPropertyOp13
 70
     1
102
RTVSPropertyOp14
 70
     1
102
RTVSPropertyOp15
 70
     1
102
RTVSPropertyOp16
 70
     1
102
RTVSPropertyOp17
 70
     1
102
RTVSPropertyOp18
 70
     1
102
RTVSPropertyOp19
 70
     1
102
RTVSPropertyOp20
 70
     1
102
RTVSPropertyOp21
 70
     1
102
RTVSPropertyOp22
 70
     1
102
RTVSPropertyOp23
 70
     1
102
RTVSPropertyOp24
 70
     1
102
RTVSPropertyOp25
 70
     1
102
RTVSPropertyOp26
 70
     1
102
RTVSPropertyOp27
 70
     1
102
RTVSPropertyOp28
 70
     1
102
RTVSPropertyOp29
 70
     1
102
RTVSPropertyOp30
 70
     1
102
RTVSPropertyOp31
 70
     1
102
RTVSPropertyOp32
 70
     1
  0
XRECORD
  5
D53
102
{ACAD_REACTORS
330
D52
102
}
330
D52
100
AcDbXrecord
280
     1
102
RTVSPropertyOp0
 70
     1
102
RTVSPropertyOp1
 70
     1
102
RTVSPropertyOp2
 70
     1
102
RTVSPropertyOp3
 70
     1
102
RTVSPropertyOp4
 70
     1
102
RTVSPropertyOp5
 70
     1
102
RTVSPropertyOp6
 70
     1
102
RTVSPropertyOp7
 70
     1
102
RTVSPropertyOp8
 70
     1
102
RTVSPropertyOp9
 70
     1
102
RTVSPropertyOp10
 70
     1
102
RTVSPropertyOp11
 70
     1
102
RTVSPropertyOp12
 70
     1
102
RTVSPropertyOp13
 70
     1
102
RTVSPropertyOp14
 70
     1
102
RTVSPropertyOp15
 70
     1
102
RTVSPropertyOp16
 70
     1
102
RTVSPropertyOp17
 70
     1
102
RTVSPropertyOp18
 70
     1
102
RTVSPropertyOp19
 70
     1
102
RTVSPropertyOp20
 70
     1
102
RTVSPropertyOp21
 70
     1
102
RTVSPropertyOp22
 70
     1
102
RTVSPropertyOp23
 70
     1
102
RTVSPropertyOp24
 70
     1
102
RTVSPropertyOp25
 70
     1
102
RTVSPropertyOp26
 70
     1
102
RTVSPropertyOp27
 70
     1
102
RTVSPropertyOp28
 70
     1
102
RTVSPropertyOp29
 70
     1
102
RTVSPropertyOp30
 70
     1
102
RTVSPropertyOp31
 70
     1
102
RTVSPropertyOp32
 70
     1
  0
XRECORD
  5
D5B
102
{ACAD_REACTORS
330
D5A
102
}
330
D5A
100
AcDbXrecord
280
     1
102
RTVSPropertyOp0
 70
     1
102
RTVSPropertyOp1
 70
     1
102
RTVSPropertyOp2
 70
     1
102
RTVSPropertyOp3
 70
     1
102
RTVSPropertyOp4
 70
     1
102
RTVSPropertyOp5
 70
     1
102
RTVSPropertyOp6
 70
     1
102
RTVSPropertyOp7
 70
     1
102
RTVSPropertyOp8
 70
     1
102
RTVSPropertyOp9
 70
     1
102
RTVSPropertyOp10
 70
     1
102
RTVSPropertyOp11
 70
     1
102
RTVSPropertyOp12
 70
     1
102
RTVSPropertyOp13
 70
     1
102
RTVSPropertyOp14
 70
     1
102
RTVSPropertyOp15
 70
     1
102
RTVSPropertyOp16
 70
     1
102
RTVSPropertyOp17
 70
     1
102
RTVSPropertyOp18
 70
     1
102
RTVSPropertyOp19
 70
     1
102
RTVSPropertyOp20
 70
     1
102
RTVSPropertyOp21
 70
     1
102
RTVSPropertyOp22
 70
     1
102
RTVSPropertyOp23
 70
     1
102
RTVSPropertyOp24
 70
     1
102
RTVSPropertyOp25
 70
     1
102
RTVSPropertyOp26
 70
     1
102
RTVSPropertyOp27
 70
     1
102
RTVSPropertyOp28
 70
     1
102
RTVSPropertyOp29
 70
     1
102
RTVSPropertyOp30
 70
     1
102
RTVSPropertyOp31
 70
     1
102
RTVSPropertyOp32
 70
     1
  0
ENDSEC
  0
EOF
