  0
SECTION
  2
HEADER
  9
$ACADVER
  1
AC1015
  9
$ACADMAINTVER
 70
    20
  9
$DWGCODEPAGE
  3
ANSI_932
  9
$INSBASE
 10
0.0
 20
0.0
 30
0.0
  9
$EXTMIN
 10
-188.268559
 20
-984.451911
 30
0.0
  9
$EXTMAX
 10
389.1091422184522
 20
-707.4519109999997
 30
0.0
  9
$LIMMIN
 10
-188.269555
 20
-984.4529039999999
  9
$LIMMAX
 10
216.758294
 20
-707.450904
  9
$ORTHOMODE
 70
     1
  9
$REGENMODE
 70
     1
  9
$FILLMODE
 70
     1
  9
$QTEXTMODE
 70
     0
  9
$MIRRTEXT
 70
     0
  9
$LTSCALE
 40
6.750430999999997
  9
$ATTMODE
 70
     1
  9
$TEXTSIZE
 40
3.2
  9
$TRACEWID
 40
0.05
  9
$TEXTSTYLE
  7
高3.2
  9
$CLAYER
  8
0
  9
$CELTYPE
  6
ByLayer
  9
$CECOLOR
 62
   256
  9
$CELTSCALE
 40
1.0
  9
$DISPSILH
 70
     0
  9
$DIMSCALE
 40
1.0
  9
$DIMASZ
 40
2.5
  9
$DIMEXO
 40
0.25
  9
$DIMDLI
 40
0.2
  9
$DIMRND
 40
0.0
  9
$DIMDLE
 40
0.0
  9
$DIMEXE
 40
1.25
  9
$DIMTP
 40
0.0
  9
$DIMTM
 40
0.0
  9
$DIMTXT
 40
3.0
  9
$DIMCEN
 40
0.0
  9
$DIMTSZ
 40
0.0
  9
$DIMTOL
 70
     0
  9
$DIMLIM
 70
     0
  9
$DIMTIH
 70
     0
  9
$DIMTOH
 70
     0
  9
$DIMSE1
 70
     0
  9
$DIMSE2
 70
     0
  9
$DIMTAD
 70
     3
  9
$DIMZIN
 70
     8
  9
$DIMBLK
  1
Open30
  9
$DIMASO
 70
     1
  9
$DIMSHO
 70
     1
  9
$DIMPOST
  1

  9
$DIMAPOST
  1

  9
$DIMALT
 70
     0
  9
$DIMALTD
 70
     3
  9
$DIMALTF
 40
0.03937007874016
  9
$DIMLFAC
 40
1.0
  9
$DIMTOFL
 70
     1
  9
$DIMTVP
 40
0.0
  9
$DIMTIX
 70
     0
  9
$DIMSOXD
 70
     0
  9
$DIMSAH
 70
     0
  9
$DIMBLK1
  1

  9
$DIMBLK2
  1

  9
$DIMSTYLE
  2
FREE
  9
$DIMCLRD
 70
     0
  9
$DIMCLRE
 70
     0
  9
$DIMCLRT
 70
     4
  9
$DIMTFAC
 40
1.0
  9
$DIMGAP
 40
0.625
  9
$DIMJUST
 70
     0
  9
$DIMSD1
 70
     0
  9
$DIMSD2
 70
     0
  9
$DIMTOLJ
 70
     0
  9
$DIMTZIN
 70
     8
  9
$DIMALTZ
 70
     0
  9
$DIMALTTZ
 70
     0
  9
$DIMUPT
 70
     1
  9
$DIMDEC
 70
     2
  9
$DIMTDEC
 70
     2
  9
$DIMALTU
 70
     2
  9
$DIMALTTD
 70
     3
  9
$DIMTXSTY
  7
STANDARD
  9
$DIMAUNIT
 70
     0
  9
$DIMADEC
 70
     1
  9
$DIMALTRND
 40
0.0
  9
$DIMAZIN
 70
     2
  9
$DIMDSEP
 70
    46
  9
$DIMATFIT
 70
     0
  9
$DIMFRAC
 70
     0
  9
$DIMLDRBLK
  1
Open30
  9
$DIMLUNIT
 70
     2
  9
$DIMLWD
 70
    -2
  9
$DIMLWE
 70
    -2
  9
$DIMTMOVE
 70
     0
  9
$LUNITS
 70
     2
  9
$LUPREC
 70
     4
  9
$SKETCHINC
 40
0.1
  9
$FILLETRAD
 40
0.0
  9
$AUNITS
 70
     0
  9
$AUPREC
 70
     0
  9
$MENU
  1
.
  9
$ELEVATION
 40
0.0
  9
$PELEVATION
 40
0.0
  9
$THICKNESS
 40
0.0
  9
$LIMCHECK
 70
     0
  9
$CHAMFERA
 40
0.0
  9
$CHAMFERB
 40
0.0
  9
$CHAMFERC
 40
0.0
  9
$CHAMFERD
 40
0.0
  9
$SKPOLY
 70
     0
  9
$TDCREATE
 40
2455825.636741354
  9
$TDUCREATE
 40
2455825.261741354
  9
$TDUPDATE
 40
2460251.685343970
  9
$TDUUPDATE
 40
2460251.310343970
  9
$TDINDWG
 40
0.1496761111
  9
$TDUSRTIMER
 40
0.1496758102
  9
$USRTIMER
 70
     1
  9
$ANGBASE
 50
0.0
  9
$ANGDIR
 70
     0
  9
$PDMODE
 70
     0
  9
$PDSIZE
 40
0.0
  9
$PLINEWID
 40
0.0
  9
$SPLFRAME
 70
     0
  9
$SPLINETYPE
 70
     6
  9
$SPLINESEGS
 70
     8
  9
$HANDSEED
  5
DD7
  9
$SURFTAB1
 70
     6
  9
$SURFTAB2
 70
     6
  9
$SURFTYPE
 70
     6
  9
$SURFU
 70
     6
  9
$SURFV
 70
     6
  9
$UCSBASE
  2

  9
$UCSNAME
  2

  9
$UCSORG
 10
0.0
 20
0.0
 30
0.0
  9
$UCSXDIR
 10
1.0
 20
0.0
 30
0.0
  9
$UCSYDIR
 10
0.0
 20
1.0
 30
0.0
  9
$UCSORTHOREF
  2

  9
$UCSORTHOVIEW
 70
     0
  9
$UCSORGTOP
 10
0.0
 20
0.0
 30
0.0
  9
$UCSORGBOTTOM
 10
0.0
 20
0.0
 30
0.0
  9
$UCSORGLEFT
 10
0.0
 20
0.0
 30
0.0
  9
$UCSORGRIGHT
 10
0.0
 20
0.0
 30
0.0
  9
$UCSORGFRONT
 10
0.0
 20
0.0
 30
0.0
  9
$UCSORGBACK
 10
0.0
 20
0.0
 30
0.0
  9
$PUCSBASE
  2

  9
$PUCSNAME
  2

  9
$PUCSORG
 10
0.0
 20
0.0
 30
0.0
  9
$PUCSXDIR
 10
1.0
 20
0.0
 30
0.0
  9
$PUCSYDIR
 10
0.0
 20
1.0
 30
0.0
  9
$PUCSORTHOREF
  2

  9
$PUCSORTHOVIEW
 70
     0
  9
$PUCSORGTOP
 10
0.0
 20
0.0
 30
0.0
  9
$PUCSORGBOTTOM
 10
0.0
 20
0.0
 30
0.0
  9
$PUCSORGLEFT
 10
0.0
 20
0.0
 30
0.0
  9
$PUCSORGRIGHT
 10
0.0
 20
0.0
 30
0.0
  9
$PUCSORGFRONT
 10
0.0
 20
0.0
 30
0.0
  9
$PUCSORGBACK
 10
0.0
 20
0.0
 30
0.0
  9
$USERI1
 70
     0
  9
$USERI2
 70
     0
  9
$USERI3
 70
     0
  9
$USERI4
 70
     0
  9
$USERI5
 70
     0
  9
$USERR1
 40
0.0
  9
$USERR2
 40
0.0
  9
$USERR3
 40
0.0
  9
$USERR4
 40
0.0
  9
$USERR5
 40
0.0
  9
$WORLDVIEW
 70
     1
  9
$SHADEDGE
 70
     3
  9
$SHADEDIF
 70
    70
  9
$TILEMODE
 70
     1
  9
$MAXACTVP
 70
    64
  9
$PINSBASE
 10
0.0
 20
0.0
 30
0.0
  9
$PLIMCHECK
 70
     0
  9
$PEXTMIN
 10
1.000000000000000E+20
 20
1.000000000000000E+20
 30
1.000000000000000E+20
  9
$PEXTMAX
 10
-1.000000000000000E+20
 20
-1.000000000000000E+20
 30
-1.000000000000000E+20
  9
$PLIMMIN
 10
0.0
 20
0.0
  9
$PLIMMAX
 10
12.0
 20
9.0
  9
$UNITMODE
 70
     0
  9
$VISRETAIN
 70
     1
  9
$PLINEGEN
 70
     0
  9
$PSLTSCALE
 70
     1
  9
$TREEDEPTH
 70
  3020
  9
$CMLSTYLE
  2
Standard
  9
$CMLJUST
 70
     0
  9
$CMLSCALE
 40
1.0
  9
$PROXYGRAPHICS
 70
     1
  9
$MEASUREMENT
 70
     0
  9
$CELWEIGHT
370
    -1
  9
$ENDCAPS
280
     0
  9
$JOINSTYLE
280
     0
  9
$LWDISPLAY
290
     0
  9
$INSUNITS
 70
     0
  9
$HYPERLINKBASE
  1

  9
$STYLESHEET
  1

  9
$XEDIT
290
     1
  9
$CEPSNTYPE
380
     0
  9
$PSTYLEMODE
290
     1
  9
$FINGERPRINTGUID
  2
{CE28739D-ACC3-4573-BC9A-82A297988B62}
  9
$VERSIONGUID
  2
{CED3786A-7C58-4A0E-A6AD-C256CE27B506}
  9
$EXTNAMES
290
     1
  9
$PSVPSCALE
 40
0.0
  9
$OLESTARTUP
290
     0
  0
ENDSEC
  0
SECTION
  2
CLASSES
  0
CLASS
  1
ACDBDICTIONARYWDFLT
  2
AcDbDictionaryWithDefault
  3
ObjectDBX Classes
 90
        0
280
     0
281
     0
  0
CLASS
  1
MATERIAL
  2
AcDbMaterial
  3
ObjectDBX Classes
 90
     1153
280
     0
281
     0
  0
CLASS
  1
VISUALSTYLE
  2
AcDbVisualStyle
  3
ObjectDBX Classes
 90
     4095
280
     0
281
     0
  0
CLASS
  1
TABLESTYLE
  2
AcDbTableStyle
  3
ObjectDBX Classes
 90
     4095
280
     0
281
     0
  0
CLASS
  1
DICTIONARYVAR
  2
AcDbDictionaryVar
  3
ObjectDBX Classes
 90
        0
280
     0
281
     0
  0
CLASS
  1
ACDBPLACEHOLDER
  2
AcDbPlaceHolder
  3
ObjectDBX Classes
 90
        0
280
     0
281
     0
  0
CLASS
  1
LAYOUT
  2
AcDbLayout
  3
ObjectDBX Classes
 90
        0
280
     0
281
     0
  0
CLASS
  1
SCALE
  2
AcDbScale
  3
ObjectDBX Classes
 90
     1153
280
     0
281
     0
  0
CLASS
  1
MLEADERSTYLE
  2
AcDbMLeaderStyle
  3
ACDB_MLEADERSTYLE_CLASS
 90
     4095
280
     0
281
     0
  0
CLASS
  1
SORTENTSTABLE
  2
AcDbSortentsTable
  3
ObjectDBX Classes
 90
        0
280
     0
281
     0
  0
CLASS
  1
CELLSTYLEMAP
  2
AcDbCellStyleMap
  3
ObjectDBX Classes
 90
     1152
280
     0
281
     0
  0
CLASS
  1
AEC_REFEDIT_STATUS_TRACKER
  2
AecDbRefEditStatusTracker
  3
AecArchBase60|Product Desc: Autodesk Architectural Desktop 2007 |Company: Autodesk,Inc. |WEB Address: www.autodesk.com
 90
      129
280
     0
281
     0
  0
CLASS
  1
NPOCOLLECTION
  2
AcDbImpNonPersistentObjectsCollection
  3
ObjectDBX Classes
 90
     1153
280
     0
281
     0
  0
ENDSEC
  0
SECTION
  2
TABLES
  0
TABLE
  2
VPORT
  5
8
330
0
100
AcDbSymbolTable
 70
     1
  0
VPORT
  5
56
330
8
100
AcDbSymbolTableRecord
100
AcDbViewportTableRecord
  2
*Active
 70
     0
 10
0.0
 20
0.0
 11
1.0
 21
1.0
 12
-2.507549933819007
 22
-827.6591808620093
 13
0.0
 23
0.0
 14
1.0
 24
1.0
 15
0.0
 25
0.0
 16
0.0
 26
0.0
 36
1.0
 17
0.0
 27
0.0
 37
0.0
 40
705.0124237746635
 41
1.419127988748241
 42
50.0
 43
0.0
 44
0.0
 50
0.0
 51
0.0
 71
     0
 72
   100
 73
     1
 74
     1
 75
     0
 76
     0
 77
     0
 78
     0
281
     0
 65
     1
110
0.0
120
0.0
130
0.0
111
1.0
121
0.0
131
0.0
112
0.0
122
1.0
132
0.0
 79
     0
146
0.0
  0
ENDTAB
  0
TABLE
  2
LTYPE
  5
5
330
0
100
AcDbSymbolTable
 70
     1
  0
LTYPE
  5
28
330
5
100
AcDbSymbolTableRecord
100
AcDbLinetypeTableRecord
  2
ByBlock
 70
     0
  3

 72
    65
 73
     0
 40
0.0
  0
LTYPE
  5
29
330
5
100
AcDbSymbolTableRecord
100
AcDbLinetypeTableRecord
  2
ByLayer
 70
     0
  3

 72
    65
 73
     0
 40
0.0
  0
LTYPE
  5
2A
330
5
100
AcDbSymbolTableRecord
100
AcDbLinetypeTableRecord
  2
CONTINUOUS
 70
     0
  3
Solid-line
 72
    65
 73
     0
 40
0.0
  0
ENDTAB
  0
TABLE
  2
LAYER
  5
2
102
{ACAD_XDICTIONARY
360
68F
102
}
330
0
100
AcDbSymbolTable
 70
     2
  0
LAYER
  5
25
102
{ACAD_XDICTIONARY
360
857
102
}
330
2
100
AcDbSymbolTableRecord
100
AcDbLayerTableRecord
  2
0
 70
     0
 62
     7
  6
CONTINUOUS
370
    -3
390
F
  0
LAYER
  5
67B
330
2
100
AcDbSymbolTableRecord
100
AcDbLayerTableRecord
  2
Defpoints
 70
     0
 62
     7
  6
CONTINUOUS
290
     0
370
    -3
390
F
  0
ENDTAB
  0
TABLE
  2
STYLE
  5
3
330
0
100
AcDbSymbolTable
 70
     5
  0
STYLE
  5
26
330
3
100
AcDbSymbolTableRecord
100
AcDbTextStyleTableRecord
  2
STANDARD
 70
     0
 40
0.0
 41
1.0
 50
0.0
 71
     0
 42
0.2
  3
TXT
  4
BIGFONT
  0
STYLE
  5
67C
330
3
100
AcDbSymbolTableRecord
100
AcDbTextStyleTableRecord
  2
高3.2
 70
     0
 40
3.2
 41
1.0
 50
0.0
 71
     0
 42
3.2
  3
txt.shx
  4
bigfont.shx
  0
STYLE
  5
67D
330
3
100
AcDbSymbolTableRecord
100
AcDbTextStyleTableRecord
  2
高6.3
 70
     0
 40
6.299999999999998
 41
1.0
 50
0.0
 71
     0
 42
6.299999999999998
  3
txt.shx
  4
bigfont.shx
  0
STYLE
  5
67F
330
3
100
AcDbSymbolTableRecord
100
AcDbTextStyleTableRecord
  2
高4.5
 70
     0
 40
4.5
 41
1.0
 50
0.0
 71
     0
 42
6.299999999999998
  3
txt.shx
  4
bigfont.shx
  0
STYLE
  5
680
330
3
100
AcDbSymbolTableRecord
100
AcDbTextStyleTableRecord
  2
高2
 70
     0
 40
2.0
 41
1.0
 50
0.0
 71
     0
 42
2.0
  3
txt.shx
  4
bigfont.shx
  0
ENDTAB
  0
TABLE
  2
VIEW
  5
6
330
0
100
AcDbSymbolTable
 70
     0
  0
ENDTAB
  0
TABLE
  2
UCS
  5
7
330
0
100
AcDbSymbolTable
 70
     0
  0
ENDTAB
  0
TABLE
  2
APPID
  5
9
330
0
100
AcDbSymbolTable
 70
    10
  0
APPID
  5
27
330
9
100
AcDbSymbolTableRecord
100
AcDbRegAppTableRecord
  2
ACAD
 70
     0
  0
APPID
  5
4C7
330
9
100
AcDbSymbolTableRecord
100
AcDbRegAppTableRecord
  2
ACAD_PSEXT
 70
     0
  0
APPID
  5
68B
330
9
100
AcDbSymbolTableRecord
100
AcDbRegAppTableRecord
  2
ACAD_DSTYLE_DIMJOGGED_JOGANGLE_SYMBOL
 70
     0
  0
APPID
  5
68C
330
9
100
AcDbSymbolTableRecord
100
AcDbRegAppTableRecord
  2
ACAD_DSTYLE_DIMJAG
 70
     0
  0
APPID
  5
68D
330
9
100
AcDbSymbolTableRecord
100
AcDbRegAppTableRecord
  2
ACAD_DSTYLE_DIMBREAK
 70
     0
  0
APPID
  5
68E
330
9
100
AcDbSymbolTableRecord
100
AcDbRegAppTableRecord
  2
ACAD_DSTYLE_DIMTALN
 70
     0
  0
APPID
  5
7CF
330
9
100
AcDbSymbolTableRecord
100
AcDbRegAppTableRecord
  2
ACAD_EXEMPT_FROM_CAD_STANDARDS
 70
     0
  0
APPID
  5
899
330
9
100
AcDbSymbolTableRecord
100
AcDbRegAppTableRecord
  2
ACAD_MLEADERVER
 70
     0
  0
APPID
  5
89A
330
9
100
AcDbSymbolTableRecord
100
AcDbRegAppTableRecord
  2
ACAD_DSTYLE_DIMARC_LENGTH_SYMBOL
 70
     0
  0
APPID
  5
89B
330
9
100
AcDbSymbolTableRecord
100
AcDbRegAppTableRecord
  2
ACAD_DSTYLE_DIMEXT_LENGTH
 70
     0
  0
ENDTAB
  0
TABLE
  2
DIMSTYLE
  5
A
330
0
100
AcDbSymbolTable
 70
     8
100
AcDbDimStyleTable
 71
     2
340
68A
340
4C5
  0
DIMSTYLE
105
4C5
330
A
100
AcDbSymbolTableRecord
100
AcDbDimStyleTableRecord
  2
Standard
 70
     0
340
26
  0
DIMSTYLE
105
68A
330
A
100
AcDbSymbolTableRecord
100
AcDbDimStyleTableRecord
  2
FREE
 70
     0
 41
2.5
 42
0.25
 43
0.2
 44
1.25
 73
     0
 74
     0
 77
     3
 78
     8
 79
     2
140
3.0
141
0.0
143
0.03937007874016
147
0.625
171
     3
172
     1
178
     4
179
     1
271
     2
272
     2
274
     3
283
     0
284
     8
288
     1
289
     0
340
26
341
5EB
342
5EB
1001
ACAD_DSTYLE_DIMBREAK
1070
   391
1040
3.75
1001
ACAD_DSTYLE_DIMJAG
1070
   388
1040
1.5
1001
ACAD_DSTYLE_DIMTALN
1070
   392
1070
     0
1001
ACAD_DSTYLE_DIMARC_LENGTH_SYMBOL
1070
   379
1070
     2
1001
ACAD_DSTYLE_DIMEXT_LENGTH
1070
   378
1040
1.25
1001
ACAD_DSTYLE_DIMJOGGED_JOGANGLE_SYMBOL
1070
   384
1040
1.570796326794896
  0
DIMSTYLE
105
992
330
A
100
AcDbSymbolTableRecord
100
AcDbDimStyleTableRecord
  2
1：1
 70
     0
 41
2.5
 42
0.25
 43
0.2
 44
1.25
 73
     0
 74
     0
 77
     3
 78
     8
 79
     2
140
3.0
141
0.0
143
0.03937007874016
147
0.625
171
     3
172
     1
178
     4
179
     1
271
     2
272
     2
274
     3
283
     0
284
     8
288
     1
289
     0
340
26
341
5EB
342
5EB
1001
ACAD_DSTYLE_DIMARC_LENGTH_SYMBOL
1070
   379
1070
     2
1001
ACAD_DSTYLE_DIMEXT_LENGTH
1070
   378
1040
1.25
1001
ACAD_DSTYLE_DIMJOGGED_JOGANGLE_SYMBOL
1070
   384
1040
1.570796326794896
  0
DIMSTYLE
105
993
330
A
100
AcDbSymbolTableRecord
100
AcDbDimStyleTableRecord
  2
2：1
 70
     0
 41
2.5
 42
0.25
 43
0.2
 44
1.25
 73
     0
 74
     0
 77
     3
 78
     8
 79
     2
140
3.0
141
0.0
143
0.03937007874016
144
0.5
147
0.625
171
     3
172
     1
178
     4
179
     1
271
     2
272
     2
274
     3
283
     0
284
     8
288
     1
289
     0
340
26
341
5EB
342
5EB
1001
ACAD_DSTYLE_DIMARC_LENGTH_SYMBOL
1070
   379
1070
     2
1001
ACAD_DSTYLE_DIMEXT_LENGTH
1070
   378
1040
1.25
1001
ACAD_DSTYLE_DIMJOGGED_JOGANGLE_SYMBOL
1070
   384
1040
1.570796326794896
  0
DIMSTYLE
105
994
330
A
100
AcDbSymbolTableRecord
100
AcDbDimStyleTableRecord
  2
5：1
 70
     0
 41
2.5
 42
0.25
 43
0.2
 44
1.25
 73
     0
 74
     0
 77
     3
 78
     8
 79
     2
140
3.0
141
0.0
143
0.03937007874016
144
0.2
147
0.625
171
     3
172
     1
178
     4
179
     1
271
     2
272
     2
274
     3
283
     0
284
     8
288
     1
289
     0
340
26
341
5EB
342
5EB
1001
ACAD_DSTYLE_DIMARC_LENGTH_SYMBOL
1070
   379
1070
     2
1001
ACAD_DSTYLE_DIMEXT_LENGTH
1070
   378
1040
1.25
1001
ACAD_DSTYLE_DIMJOGGED_JOGANGLE_SYMBOL
1070
   384
1040
1.570796326794896
  0
DIMSTYLE
105
995
330
A
100
AcDbSymbolTableRecord
100
AcDbDimStyleTableRecord
  2
10：1
 70
     0
 41
2.5
 42
0.25
 43
0.2
 44
1.25
 73
     0
 74
     0
 77
     3
 78
     8
 79
     2
140
3.0
141
0.0
143
0.03937007874016
144
0.1
147
0.625
171
     3
172
     1
178
     4
179
     1
271
     2
272
     2
274
     3
283
     0
284
     8
288
     1
289
     0
340
26
341
5EB
342
5EB
1001
ACAD_DSTYLE_DIMARC_LENGTH_SYMBOL
1070
   379
1070
     2
1001
ACAD_DSTYLE_DIMEXT_LENGTH
1070
   378
1040
1.25
1001
ACAD_DSTYLE_DIMJOGGED_JOGANGLE_SYMBOL
1070
   384
1040
1.570796326794896
  0
DIMSTYLE
105
996
330
A
100
AcDbSymbolTableRecord
100
AcDbDimStyleTableRecord
  2
1／5
 70
     0
 41
2.5
 42
0.25
 43
0.2
 44
1.25
 73
     0
 74
     0
 77
     3
 78
     8
 79
     2
140
3.0
141
0.0
143
0.03937007874016
144
5.0
147
0.625
171
     3
172
     1
178
     4
179
     1
271
     2
272
     2
274
     3
283
     0
284
     8
288
     1
289
     0
340
26
341
5EB
342
5EB
1001
ACAD_DSTYLE_DIMARC_LENGTH_SYMBOL
1070
   379
1070
     2
1001
ACAD_DSTYLE_DIMEXT_LENGTH
1070
   378
1040
1.25
1001
ACAD_DSTYLE_DIMJOGGED_JOGANGLE_SYMBOL
1070
   384
1040
1.570796326794896
  0
DIMSTYLE
105
AD6
330
A
100
AcDbSymbolTableRecord
100
AcDbDimStyleTableRecord
  2
1／2
 70
     0
 41
2.5
 42
0.25
 43
0.2
 44
1.25
 73
     0
 74
     0
 77
     3
 78
     8
 79
     2
140
3.0
141
0.0
143
0.03937007874016
144
2.0
147
0.625
171
     3
172
     1
178
     4
179
     1
271
     2
272
     2
274
     3
283
     0
284
     8
288
     1
289
     0
340
26
341
5EB
342
5EB
1001
ACAD_DSTYLE_DIMARC_LENGTH_SYMBOL
1070
   379
1070
     2
1001
ACAD_DSTYLE_DIMEXT_LENGTH
1070
   378
1040
1.25
1001
ACAD_DSTYLE_DIMJOGGED_JOGANGLE_SYMBOL
1070
   384
1040
1.570796326794896
  0
ENDTAB
  0
TABLE
  2
BLOCK_RECORD
  5
1
330
0
100
AcDbSymbolTable
 70
     7
  0
BLOCK_RECORD
  5
36
102
{ACAD_XDICTIONARY
360
D4C
102
}
330
1
100
AcDbSymbolTableRecord
100
AcDbBlockTableRecord
  2
*Model_Space
340
39
  0
BLOCK_RECORD
  5
32
330
1
100
AcDbSymbolTableRecord
100
AcDbBlockTableRecord
  2
*Paper_Space
340
35
  0
BLOCK_RECORD
  5
5EB
330
1
100
AcDbSymbolTableRecord
100
AcDbBlockTableRecord
  2
_Open30
340
0
102
{BLKREFS
331
979
331
97A
331
982
331
983
331
98B
331
98C
102
}
  0
BLOCK_RECORD
  5
7D8
330
1
100
AcDbSymbolTableRecord
100
AcDbBlockTableRecord
  2
*D1
340
0
  0
BLOCK_RECORD
  5
7E5
330
1
100
AcDbSymbolTableRecord
100
AcDbBlockTableRecord
  2
*D2
340
0
  0
BLOCK_RECORD
  5
7F2
330
1
100
AcDbSymbolTableRecord
100
AcDbBlockTableRecord
  2
*D3
340
0
  0
BLOCK_RECORD
  5
925
330
1
100
AcDbSymbolTableRecord
100
AcDbBlockTableRecord
  2
_DotSmall
340
0
  0
ENDTAB
  0
ENDSEC
  0
SECTION
  2
BLOCKS
  0
BLOCK
  5
37
330
36
100
AcDbEntity
  8
0
100
AcDbBlockBegin
  2
*Model_Space
 70
     0
 10
0.0
 20
0.0
 30
0.0
  3
*Model_Space
  1

  0
ENDBLK
  5
38
330
36
100
AcDbEntity
  8
0
100
AcDbBlockEnd
  0
BLOCK
  5
33
330
32
100
AcDbEntity
 67
     1
  8
0
100
AcDbBlockBegin
  2
*Paper_Space
 70
     0
 10
0.0
 20
0.0
 30
0.0
  3
*Paper_Space
  1

  0
ENDBLK
  5
34
330
32
100
AcDbEntity
 67
     1
  8
0
100
AcDbBlockEnd
  0
BLOCK
  5
5EC
330
5EB
100
AcDbEntity
  8
0
100
AcDbBlockBegin
  2
_Open30
 70
     0
 10
0.0
 20
0.0
 30
0.0
  3
_Open30
  1

  0
LINE
  5
5ED
330
5EB
100
AcDbEntity
  8
0
  6
ByBlock
 62
     0
370
    -2
100
AcDbLine
 10
-1.0
 20
0.267949
 30
0.0
 11
0.0
 21
0.0
 31
0.0
  0
LINE
  5
5EE
330
5EB
100
AcDbEntity
  8
0
  6
ByBlock
 62
     0
370
    -2
100
AcDbLine
 10
0.0
 20
0.0
 30
0.0
 11
-1.0
 21
-0.267949
 31
0.0
  0
LINE
  5
5EF
330
5EB
100
AcDbEntity
  8
0
  6
ByBlock
 62
     0
370
    -2
100
AcDbLine
 10
0.0
 20
0.0
 30
0.0
 11
-1.0
 21
0.0
 31
0.0
  0
ENDBLK
  5
5F0
330
5EB
100
AcDbEntity
  8
0
100
AcDbBlockEnd
  0
BLOCK
  5
7D9
330
7D8
100
AcDbEntity
  8
0
100
AcDbBlockBegin
  2
*D1
 70
     1
 10
0.0
 20
0.0
 30
0.0
  3
*D1
  1

  0
LINE
  5
988
330
7D8
100
AcDbEntity
  8
0
 62
     0
370
    -2
100
AcDbLine
 10
-16.138173
 20
-858.3491279999998
 30
0.0
 11
-16.138173
 21
-875.2652679999998
 31
0.0
  0
LINE
  5
989
330
7D8
100
AcDbEntity
  8
0
 62
     0
370
    -2
100
AcDbLine
 10
123.861827
 20
-858.3491279999998
 30
0.0
 11
123.861827
 21
-875.2652679999998
 31
0.0
  0
LINE
  5
98A
330
7D8
100
AcDbEntity
  8
0
 62
     0
370
    -2
100
AcDbLine
 10
-13.638173
 20
-874.0152679999999
 30
0.0
 11
121.361827
 21
-874.0152679999999
 31
0.0
  0
INSERT
  5
98B
330
7D8
100
AcDbEntity
  8
0
 62
     0
370
    -2
100
AcDbBlockReference
  2
_Open30
 10
-16.138173
 20
-874.0152679999999
 30
0.0
 41
2.5
 42
2.5
 43
2.5
 50
180.0
  0
INSERT
  5
98C
330
7D8
100
AcDbEntity
  8
0
 62
     0
370
    -2
100
AcDbBlockReference
  2
_Open30
 10
123.861827
 20
-874.0152679999999
 30
0.0
 41
2.5
 42
2.5
 43
2.5
  0
MTEXT
  5
98D
330
7D8
100
AcDbEntity
  8
0
 62
     4
100
AcDbMText
 10
53.861827
 20
-871.8902679999999
 30
0.0
 40
3.0
 41
0.0
 71
     5
 72
     1
  1
220
 73
     1
 44
1.0
1001
ACAD
1000
MTEXTBEGIN
1070
    73
1070
     1
1070
    44
1040
1.0
1070
    74
1070
     0
1000
MTEXTEND
  0
POINT
  5
98E
330
7D8
100
AcDbEntity
  8
Defpoints
 62
     0
100
AcDbPoint
 10
-16.138173
 20
-858.0991279999999
 30
0.0
  0
POINT
  5
98F
330
7D8
100
AcDbEntity
  8
Defpoints
 62
     0
100
AcDbPoint
 10
123.861827
 20
-858.0991279999999
 30
0.0
  0
POINT
  5
990
330
7D8
100
AcDbEntity
  8
Defpoints
 62
     0
100
AcDbPoint
 10
123.861827
 20
-874.0152679999999
 30
0.0
  0
ENDBLK
  5
7DA
330
7D8
100
AcDbEntity
  8
0
100
AcDbBlockEnd
  0
BLOCK
  5
7E6
330
7E5
100
AcDbEntity
  8
0
100
AcDbBlockBegin
  2
*D2
 70
     1
 10
0.0
 20
0.0
 30
0.0
  3
*D2
  1

  0
LINE
  5
97F
330
7E5
100
AcDbEntity
  8
0
 62
     0
370
    -2
100
AcDbLine
 10
13.859319
 20
-863.0991279999998
 30
0.0
 11
-30.78391400000003
 21
-863.0991279999998
 31
0.0
  0
LINE
  5
980
330
7E5
100
AcDbEntity
  8
0
 62
     0
370
    -2
100
AcDbLine
 10
9.543326999999999
 20
-753.86072
 30
0.0
 11
-30.783914
 21
-753.86072
 31
0.0
  0
LINE
  5
981
330
7E5
100
AcDbEntity
  8
0
 62
     0
370
    -2
100
AcDbLine
 10
-29.53391400000003
 20
-860.5991279999997
 30
0.0
 11
-29.533914
 21
-756.3607199999999
 31
0.0
  0
INSERT
  5
982
330
7E5
100
AcDbEntity
  8
0
 62
     0
370
    -2
100
AcDbBlockReference
  2
_Open30
 10
-29.53391400000003
 20
-863.0991279999998
 30
0.0
 41
2.5
 42
2.5
 43
2.5
 50
270.0
  0
INSERT
  5
983
330
7E5
100
AcDbEntity
  8
0
 62
     0
370
    -2
100
AcDbBlockReference
  2
_Open30
 10
-29.533914
 20
-753.86072
 30
0.0
 41
2.5
 42
2.5
 43
2.5
 50
90.0
  0
MTEXT
  5
984
330
7E5
100
AcDbEntity
  8
0
 62
     4
100
AcDbMText
 10
-31.65891399999989
 20
-808.4799239999998
 30
0.0
 40
3.0
 41
0.0
 71
     5
 72
     1
  1
185
 11
0.0000000000000001
 21
1.0
 31
0.0
 73
     1
 44
1.0
1001
ACAD
1000
MTEXTBEGIN
1070
    73
1070
     1
1070
    44
1040
1.0
1070
    74
1070
     0
1000
MTEXTEND
  0
POINT
  5
985
330
7E5
100
AcDbEntity
  8
Defpoints
 62
     0
100
AcDbPoint
 10
14.109319
 20
-863.0991279999998
 30
0.0
  0
POINT
  5
986
330
7E5
100
AcDbEntity
  8
Defpoints
 62
     0
100
AcDbPoint
 10
9.793326999999999
 20
-753.86072
 30
0.0
  0
POINT
  5
987
330
7E5
100
AcDbEntity
  8
Defpoints
 62
     0
100
AcDbPoint
 10
-29.533914
 20
-753.86072
 30
0.0
  0
ENDBLK
  5
7E7
330
7E5
100
AcDbEntity
  8
0
100
AcDbBlockEnd
  0
BLOCK
  5
7F3
330
7F2
100
AcDbEntity
  8
0
100
AcDbBlockBegin
  2
*D3
 70
     1
 10
0.0
 20
0.0
 30
0.0
  3
*D3
  1

  0
LINE
  5
976
330
7F2
100
AcDbEntity
  8
0
 62
     0
370
    -2
100
AcDbLine
 10
-131.854271
 20
-847.3491279999997
 30
0.0
 11
-131.854271
 21
-875.2652679999998
 31
0.0
  0
LINE
  5
977
330
7F2
100
AcDbEntity
  8
0
 62
     0
370
    -2
100
AcDbLine
 10
-66.91193100000001
 20
-847.3491279999997
 30
0.0
 11
-66.91193100000001
 21
-875.2652679999998
 31
0.0
  0
LINE
  5
978
330
7F2
100
AcDbEntity
  8
0
 62
     0
370
    -2
100
AcDbLine
 10
-129.354271
 20
-874.0152679999999
 30
0.0
 11
-69.41193100000001
 21
-874.0152679999999
 31
0.0
  0
INSERT
  5
979
330
7F2
100
AcDbEntity
  8
0
 62
     0
370
    -2
100
AcDbBlockReference
  2
_Open30
 10
-131.854271
 20
-874.0152679999999
 30
0.0
 41
2.5
 42
2.5
 43
2.5
 50
180.0
  0
INSERT
  5
97A
330
7F2
100
AcDbEntity
  8
0
 62
     0
370
    -2
100
AcDbBlockReference
  2
_Open30
 10
-66.91193100000001
 20
-874.0152679999999
 30
0.0
 41
2.5
 42
2.5
 43
2.5
  0
MTEXT
  5
97B
330
7F2
100
AcDbEntity
  8
0
 62
     4
100
AcDbMText
 10
-99.383101
 20
-871.8902679999999
 30
0.0
 40
3.0
 41
0.0
 71
     5
 72
     1
  1
120
 73
     1
 44
1.0
1001
ACAD
1000
MTEXTBEGIN
1070
    73
1070
     1
1070
    44
1040
1.0
1070
    74
1070
     0
1000
MTEXTEND
  0
POINT
  5
97C
330
7F2
100
AcDbEntity
  8
Defpoints
 62
     0
100
AcDbPoint
 10
-131.854271
 20
-847.0991279999998
 30
0.0
  0
POINT
  5
97D
330
7F2
100
AcDbEntity
  8
Defpoints
 62
     0
100
AcDbPoint
 10
-66.91193100000001
 20
-847.0991279999998
 30
0.0
  0
POINT
  5
97E
330
7F2
100
AcDbEntity
  8
Defpoints
 62
     0
100
AcDbPoint
 10
-66.91193100000001
 20
-874.0152679999999
 30
0.0
  0
ENDBLK
  5
7F4
330
7F2
100
AcDbEntity
  8
0
100
AcDbBlockEnd
  0
BLOCK
  5
927
330
925
100
AcDbEntity
  8
0
100
AcDbBlockBegin
  2
_DotSmall
 70
     0
 10
0.0
 20
0.0
 30
0.0
  3
_DotSmall
  1

  0
LWPOLYLINE
  5
926
330
925
100
AcDbEntity
  8
0
  6
ByBlock
 62
     0
100
AcDbPolyline
 90
        2
 70
     1
 43
0.5
 10
-0.0625
 20
0.0
 42
1.0
 10
0.0625
 20
0.0
 42
1.0
  0
ENDBLK
  5
928
330
925
100
AcDbEntity
  8
0
100
AcDbBlockEnd
  0
ENDSEC
  0
SECTION
  2
ENTITIES
  0
LINE
  5
86
330
36
100
AcDbEntity
  8
0
 62
     3
100
AcDbLine
 10
103.548552
 20
-755.42072
 30
0.0
 11
103.548552
 21
-758.1446689999997
 31
0.0
  0
LINE
  5
87
330
36
100
AcDbEntity
  8
0
 62
     3
100
AcDbLine
 10
8.233327
 20
-755.42072
 30
0.0
 11
8.233327
 21
-758.1446689999997
 31
0.0
  0
LINE
  5
88
330
36
100
AcDbEntity
  8
0
 62
     3
100
AcDbLine
 10
90.671143
 20
-753.86072
 30
0.0
 11
90.671143
 21
-758.1446689999997
 31
0.0
  0
LINE
  5
89
330
36
100
AcDbEntity
  8
0
 62
     3
100
AcDbLine
 10
21.110736
 20
-753.86072
 30
0.0
 11
21.110736
 21
-758.1446689999997
 31
0.0
  0
ARC
  5
8A
330
36
100
AcDbEntity
  8
0
 62
     3
100
AcDbCircle
 10
101.988552
 20
-755.42072
 30
0.0
 40
1.56
100
AcDbArc
 50
0.0
 51
90.0
  0
ARC
  5
8B
330
36
100
AcDbEntity
  8
0
 62
     3
100
AcDbCircle
 10
9.793326999999999
 20
-755.42072
 30
0.0
 40
1.56
100
AcDbArc
 50
90.0
 51
180.0
  0
LINE
  5
8C
330
36
100
AcDbEntity
  8
0
 62
     3
100
AcDbLine
 10
9.793326999999999
 20
-753.86072
 30
0.0
 11
21.110736
 21
-753.86072
 31
0.0
  0
LINE
  5
8D
330
36
100
AcDbEntity
  8
0
 62
     3
100
AcDbLine
 10
90.671143
 20
-753.86072
 30
0.0
 11
101.988552
 21
-753.86072
 31
0.0
  0
ARC
  5
8E
330
36
100
AcDbEntity
  8
0
 62
     3
100
AcDbCircle
 10
55.89094
 20
-918.2509389999999
 30
0.0
 40
167.10437
100
AcDbArc
 50
77.98694199999999
 51
102.013058
  0
ARC
  5
8F
330
36
100
AcDbEntity
  8
0
 62
     3
100
AcDbCircle
 10
55.89094
 20
-918.2509389999999
 30
0.0
 40
164.76437
100
AcDbArc
 50
77.98694199999999
 51
102.013058
  0
TEXT
  5
90
330
36
100
AcDbEntity
  8
0
 62
     3
100
AcDbText
 10
150.854845
 20
-973.2758270000001
 30
0.0
 40
3.2
  1
FREE
  7
高3.2
100
AcDbText
  0
LINE
  5
91
330
36
100
AcDbEntity
  8
0
 62
     3
100
AcDbLine
 10
-121.880681
 20
-858.0991279999999
 30
0.0
 11
-76.88068100000002
 21
-858.0991279999999
 31
0.0
  0
LINE
  5
92
330
36
100
AcDbEntity
  8
0
 62
     3
100
AcDbLine
 10
-13.638173
 20
-858.0991279999999
 30
0.0
 11
111.861827
 21
-858.0991279999999
 31
0.0
  0
CIRCLE
  5
93
330
36
100
AcDbEntity
  8
0
 62
     3
100
AcDbCircle
 10
39.684889
 20
-909.348927
 30
0.0
 40
8.96
  0
LINE
  5
96
330
36
100
AcDbEntity
  8
0
 62
     3
100
AcDbLine
 10
-119.380681
 20
-758.099128
 30
0.0
 11
-79.38068100000002
 21
-758.099128
 31
0.0
  0
ARC
  5
97
330
36
100
AcDbEntity
  8
0
 62
     3
100
AcDbCircle
 10
-76.88068100000002
 20
-848.0991279999997
 30
0.0
 40
10.0
100
AcDbArc
 50
270.0
 51
0.0
  0
ARC
  5
98
330
36
100
AcDbEntity
  8
0
 62
     3
100
AcDbCircle
 10
-121.880681
 20
-848.0991279999997
 30
0.0
 40
10.0
100
AcDbArc
 50
180.0
 51
270.0
  0
ARC
  5
99
330
36
100
AcDbEntity
  8
0
 62
     3
100
AcDbCircle
 10
-79.38068100000002
 20
-768.099128
 30
0.0
 40
10.0
100
AcDbArc
 50
0.0
 51
90.0
  0
ARC
  5
9A
330
36
100
AcDbEntity
  8
0
 62
     3
100
AcDbCircle
 10
-119.380681
 20
-768.099128
 30
0.0
 40
10.0
100
AcDbArc
 50
90.0
 51
180.0
  0
LINE
  5
9B
330
36
100
AcDbEntity
  8
0
 62
     3
100
AcDbLine
 10
-66.88068100000001
 20
-848.0991279999997
 30
0.0
 11
-69.38068100000001
 21
-768.099128
 31
0.0
  0
LINE
  5
9C
330
36
100
AcDbEntity
  8
0
 62
     3
100
AcDbLine
 10
-131.875783
 20
-847.7861689999999
 30
0.0
 11
-129.380681
 21
-768.099128
 31
0.0
  0
LINE
  5
9D
330
36
100
AcDbEntity
  8
0
 62
     3
100
AcDbLine
 10
-121.630681
 20
-863.0991279999998
 30
0.0
 11
-112.130681
 21
-863.0991279999998
 31
0.0
  0
LINE
  5
9E
330
36
100
AcDbEntity
  8
0
 62
     3
100
AcDbLine
 10
-121.880681
 20
-858.0991279999999
 30
0.0
 11
-121.630681
 21
-863.0991279999998
 31
0.0
  0
LINE
  5
9F
330
36
100
AcDbEntity
  8
0
 62
     3
100
AcDbLine
 10
-112.130681
 20
-863.0991279999998
 30
0.0
 11
-111.880681
 21
-858.0991279999999
 31
0.0
  0
LINE
  5
A0
330
36
100
AcDbEntity
  8
0
 62
     3
100
AcDbLine
 10
-77.130681
 20
-863.0991279999998
 30
0.0
 11
-76.88068100000002
 21
-858.0991279999999
 31
0.0
  0
LINE
  5
A1
330
36
100
AcDbEntity
  8
0
 62
     3
100
AcDbLine
 10
-86.63068100000002
 20
-863.0991279999998
 30
0.0
 11
-77.130681
 21
-863.0991279999998
 31
0.0
  0
LINE
  5
A2
330
36
100
AcDbEntity
  8
0
 62
     3
100
AcDbLine
 10
-86.880681
 20
-858.0991279999999
 30
0.0
 11
-86.63068100000002
 21
-863.0991279999998
 31
0.0
  0
LINE
  5
A3
330
36
100
AcDbEntity
  8
0
 62
     3
100
AcDbLine
 10
-16.138173
 20
-858.0991279999999
 30
0.0
 11
123.861827
 21
-858.0991279999999
 31
0.0
  0
LINE
  5
A4
330
36
100
AcDbEntity
  8
0
 62
     3
100
AcDbLine
 10
-16.138173
 20
-758.099128
 30
0.0
 11
123.861827
 21
-758.099128
 31
0.0
  0
LINE
  5
A5
330
36
100
AcDbEntity
  8
0
 62
     3
100
AcDbLine
 10
-16.138173
 20
-758.099128
 30
0.0
 11
-16.138173
 21
-858.0991279999999
 31
0.0
  0
LINE
  5
A6
330
36
100
AcDbEntity
  8
0
 62
     3
100
AcDbLine
 10
123.861827
 20
-758.099128
 30
0.0
 11
123.861827
 21
-858.0991279999999
 31
0.0
  0
LINE
  5
A7
330
36
100
AcDbEntity
  8
0
 62
     3
100
AcDbLine
 10
-13.638173
 20
-838.0991279999998
 30
0.0
 11
111.861827
 21
-838.0991279999998
 31
0.0
  0
LINE
  5
A8
330
36
100
AcDbEntity
  8
0
 62
     3
100
AcDbLine
 10
123.861827
 20
-838.0991279999998
 30
0.0
 11
-16.138173
 21
-838.0991279999998
 31
0.0
  0
LINE
  5
A9
330
36
100
AcDbEntity
  8
0
 62
     3
100
AcDbLine
 10
-67.19318100000001
 20
-838.0991279999998
 30
0.0
 11
-68.193669
 21
-838.0991279999998
 31
0.0
  0
LINE
  5
AA
330
36
100
AcDbEntity
  8
0
 62
     3
100
AcDbLine
 10
-130.571979
 20
-838.0991279999998
 30
0.0
 11
-131.572469
 21
-838.0991279999998
 31
0.0
  0
LINE
  5
AB
330
36
100
AcDbEntity
  8
0
 62
     3
100
AcDbLine
 10
-104.880681
 20
-753.349128
 30
0.0
 11
-93.88068099999999
 21
-753.349128
 31
0.0
  0
LINE
  5
AC
330
36
100
AcDbEntity
  8
0
 62
     3
100
AcDbLine
 10
-93.88068099999999
 20
-758.099128
 30
0.0
 11
-93.88068099999999
 21
-753.349128
 31
0.0
  0
LINE
  5
AD
330
36
100
AcDbEntity
  8
0
 62
     3
100
AcDbLine
 10
-104.880681
 20
-758.099128
 30
0.0
 11
-104.880681
 21
-753.349128
 31
0.0
  0
LINE
  5
AE
330
36
100
AcDbEntity
  8
0
 62
     3
100
AcDbLine
 10
14.109319
 20
-863.0991279999998
 30
0.0
 11
23.609319
 21
-863.0991279999998
 31
0.0
  0
LINE
  5
AF
330
36
100
AcDbEntity
  8
0
 62
     3
100
AcDbLine
 10
23.609319
 20
-863.0991279999998
 30
0.0
 11
23.859319
 21
-858.0991279999999
 31
0.0
  0
LINE
  5
B0
330
36
100
AcDbEntity
  8
0
 62
     3
100
AcDbLine
 10
13.859319
 20
-858.0991279999999
 30
0.0
 11
14.109319
 21
-863.0991279999998
 31
0.0
  0
LINE
  5
B1
330
36
100
AcDbEntity
  8
0
 62
     3
100
AcDbLine
 10
109.109319
 20
-863.0991279999998
 30
0.0
 11
118.609319
 21
-863.0991279999998
 31
0.0
  0
LINE
  5
B2
330
36
100
AcDbEntity
  8
0
 62
     3
100
AcDbLine
 10
118.609319
 20
-863.0991279999998
 30
0.0
 11
118.859319
 21
-858.0991279999999
 31
0.0
  0
LINE
  5
B3
330
36
100
AcDbEntity
  8
0
 62
     3
100
AcDbLine
 10
108.859319
 20
-858.0991279999999
 30
0.0
 11
109.109319
 21
-863.0991279999998
 31
0.0
  0
LINE
  5
B4
330
36
100
AcDbEntity
  8
0
 62
     3
100
AcDbLine
 10
216.731441
 20
-707.4519109999997
 30
0.0
 11
-173.268559
 21
-707.4519109999997
 31
0.0
  0
LINE
  5
B5
330
36
100
AcDbEntity
  8
0
100
AcDbLine
 10
138.8957675443827
 20
-894.8036749999996
 30
0.0
 11
138.8957675443827
 21
-929.453675
 31
0.0
  0
LINE
  5
B6
330
36
100
AcDbEntity
  8
0
 62
     3
100
AcDbLine
 10
193.2355302494682
 20
-894.8036749999996
 30
0.0
 11
193.2355302494682
 21
-929.453675
 31
0.0
  0
TEXT
  5
C9
330
36
100
AcDbEntity
  8
0
 62
     3
100
AcDbText
 10
183.075308
 20
-973.140785
 30
0.0
 40
3.2
  1
2005.3.4
  7
高3.2
100
AcDbText
  0
TEXT
  5
CA
330
36
100
AcDbEntity
  8
0
 62
     3
100
AcDbText
 10
160.3525969590669
 20
-748.5018089325598
 30
0.0
 40
3.2
  1
20A 250V
  7
高3.2
100
AcDbText
  0
TEXT
  5
CB
330
36
100
AcDbEntity
  8
0
 62
     3
100
AcDbText
 10
121.398117
 20
-960.079275
 30
0.0
 40
4.5
  1
RTB-100D-100V
 41
0.8
  7
高4.5
100
AcDbText
  0
LINE
  5
D5
330
36
100
AcDbEntity
  8
0
100
AcDbLine
 10
103.861827
 20
-775.099128
 30
0.0
 11
103.861827
 21
-784.099128
 31
0.0
  0
LINE
  5
D6
330
36
100
AcDbEntity
  8
0
100
AcDbLine
 10
102.861827
 20
-775.099128
 30
0.0
 11
102.861827
 21
-784.099128
 31
0.0
  0
ARC
  5
D7
330
36
100
AcDbEntity
  8
0
100
AcDbCircle
 10
103.361827
 20
-784.099128
 30
0.0
 40
0.5
100
AcDbArc
 50
180.0
 51
0.0
  0
ARC
  5
D8
330
36
100
AcDbEntity
  8
0
100
AcDbCircle
 10
103.361827
 20
-775.099128
 30
0.0
 40
0.5
100
AcDbArc
 50
0.0
 51
180.0
  0
LINE
  5
D9
330
36
100
AcDbEntity
  8
0
100
AcDbLine
 10
103.861827
 20
-790.099128
 30
0.0
 11
103.861827
 21
-799.0991280000002
 31
0.0
  0
LINE
  5
DA
330
36
100
AcDbEntity
  8
0
100
AcDbLine
 10
102.861827
 20
-790.099128
 30
0.0
 11
102.861827
 21
-799.0991280000002
 31
0.0
  0
ARC
  5
DB
330
36
100
AcDbEntity
  8
0
100
AcDbCircle
 10
103.361827
 20
-799.0991280000002
 30
0.0
 40
0.5
100
AcDbArc
 50
180.0
 51
0.0
  0
ARC
  5
DC
330
36
100
AcDbEntity
  8
0
100
AcDbCircle
 10
103.361827
 20
-790.099128
 30
0.0
 40
0.5
100
AcDbArc
 50
0.0
 51
180.0
  0
LINE
  5
DD
330
36
100
AcDbEntity
  8
0
100
AcDbLine
 10
101.861827
 20
-775.099128
 30
0.0
 11
101.861827
 21
-784.099128
 31
0.0
  0
LINE
  5
DE
330
36
100
AcDbEntity
  8
0
100
AcDbLine
 10
100.861827
 20
-775.099128
 30
0.0
 11
100.861827
 21
-784.099128
 31
0.0
  0
ARC
  5
DF
330
36
100
AcDbEntity
  8
0
100
AcDbCircle
 10
101.361827
 20
-784.099128
 30
0.0
 40
0.5
100
AcDbArc
 50
180.0
 51
0.0
  0
ARC
  5
E0
330
36
100
AcDbEntity
  8
0
100
AcDbCircle
 10
101.361827
 20
-775.099128
 30
0.0
 40
0.5
100
AcDbArc
 50
0.0
 51
180.0
  0
LINE
  5
E1
330
36
100
AcDbEntity
  8
0
100
AcDbLine
 10
101.861827
 20
-790.099128
 30
0.0
 11
101.861827
 21
-799.0991280000002
 31
0.0
  0
LINE
  5
E2
330
36
100
AcDbEntity
  8
0
100
AcDbLine
 10
100.861827
 20
-790.099128
 30
0.0
 11
100.861827
 21
-799.0991280000002
 31
0.0
  0
ARC
  5
E3
330
36
100
AcDbEntity
  8
0
100
AcDbCircle
 10
101.361827
 20
-799.0991280000002
 30
0.0
 40
0.5
100
AcDbArc
 50
180.0
 51
0.0
  0
ARC
  5
E4
330
36
100
AcDbEntity
  8
0
100
AcDbCircle
 10
101.361827
 20
-790.099128
 30
0.0
 40
0.5
100
AcDbArc
 50
0.0
 51
180.0
  0
LINE
  5
E5
330
36
100
AcDbEntity
  8
0
100
AcDbLine
 10
99.861827
 20
-775.099128
 30
0.0
 11
99.861827
 21
-784.099128
 31
0.0
  0
LINE
  5
E6
330
36
100
AcDbEntity
  8
0
100
AcDbLine
 10
98.861827
 20
-775.099128
 30
0.0
 11
98.861827
 21
-784.099128
 31
0.0
  0
ARC
  5
E7
330
36
100
AcDbEntity
  8
0
100
AcDbCircle
 10
99.36182700000001
 20
-784.099128
 30
0.0
 40
0.5
100
AcDbArc
 50
180.0
 51
0.0
  0
ARC
  5
E8
330
36
100
AcDbEntity
  8
0
100
AcDbCircle
 10
99.36182700000001
 20
-775.099128
 30
0.0
 40
0.5
100
AcDbArc
 50
0.0
 51
180.0
  0
LINE
  5
E9
330
36
100
AcDbEntity
  8
0
100
AcDbLine
 10
99.861827
 20
-790.099128
 30
0.0
 11
99.861827
 21
-799.0991280000002
 31
0.0
  0
LINE
  5
EA
330
36
100
AcDbEntity
  8
0
100
AcDbLine
 10
98.861827
 20
-790.099128
 30
0.0
 11
98.861827
 21
-799.0991280000002
 31
0.0
  0
ARC
  5
EB
330
36
100
AcDbEntity
  8
0
100
AcDbCircle
 10
99.36182700000001
 20
-799.0991280000002
 30
0.0
 40
0.5
100
AcDbArc
 50
180.0
 51
0.0
  0
ARC
  5
EC
330
36
100
AcDbEntity
  8
0
100
AcDbCircle
 10
99.36182700000001
 20
-790.099128
 30
0.0
 40
0.5
100
AcDbArc
 50
0.0
 51
180.0
  0
LINE
  5
ED
330
36
100
AcDbEntity
  8
0
100
AcDbLine
 10
97.86182700000001
 20
-775.099128
 30
0.0
 11
97.86182700000001
 21
-784.099128
 31
0.0
  0
LINE
  5
EE
330
36
100
AcDbEntity
  8
0
100
AcDbLine
 10
96.86182700000001
 20
-775.099128
 30
0.0
 11
96.86182700000001
 21
-784.099128
 31
0.0
  0
ARC
  5
EF
330
36
100
AcDbEntity
  8
0
100
AcDbCircle
 10
97.361827
 20
-784.099128
 30
0.0
 40
0.5
100
AcDbArc
 50
180.0
 51
0.0
  0
ARC
  5
F0
330
36
100
AcDbEntity
  8
0
100
AcDbCircle
 10
97.361827
 20
-775.099128
 30
0.0
 40
0.5
100
AcDbArc
 50
0.0
 51
180.0
  0
LINE
  5
F1
330
36
100
AcDbEntity
  8
0
100
AcDbLine
 10
97.86182700000001
 20
-790.099128
 30
0.0
 11
97.86182700000001
 21
-799.0991280000002
 31
0.0
  0
LINE
  5
F2
330
36
100
AcDbEntity
  8
0
100
AcDbLine
 10
96.86182700000001
 20
-790.099128
 30
0.0
 11
96.86182700000001
 21
-799.0991280000002
 31
0.0
  0
ARC
  5
F3
330
36
100
AcDbEntity
  8
0
100
AcDbCircle
 10
97.361827
 20
-799.0991280000002
 30
0.0
 40
0.5
100
AcDbArc
 50
180.0
 51
0.0
  0
ARC
  5
F4
330
36
100
AcDbEntity
  8
0
100
AcDbCircle
 10
97.361827
 20
-790.099128
 30
0.0
 40
0.5
100
AcDbArc
 50
0.0
 51
180.0
  0
LINE
  5
F5
330
36
100
AcDbEntity
  8
0
100
AcDbLine
 10
95.861827
 20
-775.099128
 30
0.0
 11
95.861827
 21
-784.099128
 31
0.0
  0
LINE
  5
F6
330
36
100
AcDbEntity
  8
0
100
AcDbLine
 10
94.861827
 20
-775.099128
 30
0.0
 11
94.861827
 21
-784.099128
 31
0.0
  0
ARC
  5
F7
330
36
100
AcDbEntity
  8
0
100
AcDbCircle
 10
95.36182700000001
 20
-784.099128
 30
0.0
 40
0.5
100
AcDbArc
 50
180.0
 51
0.0
  0
ARC
  5
F8
330
36
100
AcDbEntity
  8
0
100
AcDbCircle
 10
95.36182700000001
 20
-775.099128
 30
0.0
 40
0.5
100
AcDbArc
 50
0.0
 51
180.0
  0
LINE
  5
F9
330
36
100
AcDbEntity
  8
0
100
AcDbLine
 10
95.861827
 20
-790.099128
 30
0.0
 11
95.861827
 21
-799.0991280000002
 31
0.0
  0
LINE
  5
FA
330
36
100
AcDbEntity
  8
0
100
AcDbLine
 10
94.861827
 20
-790.099128
 30
0.0
 11
94.861827
 21
-799.0991280000002
 31
0.0
  0
ARC
  5
FB
330
36
100
AcDbEntity
  8
0
100
AcDbCircle
 10
95.36182700000001
 20
-799.0991280000002
 30
0.0
 40
0.5
100
AcDbArc
 50
180.0
 51
0.0
  0
ARC
  5
FC
330
36
100
AcDbEntity
  8
0
100
AcDbCircle
 10
95.36182700000001
 20
-790.099128
 30
0.0
 40
0.5
100
AcDbArc
 50
0.0
 51
180.0
  0
LINE
  5
FD
330
36
100
AcDbEntity
  8
0
100
AcDbLine
 10
93.861827
 20
-775.099128
 30
0.0
 11
93.861827
 21
-784.099128
 31
0.0
  0
LINE
  5
FE
330
36
100
AcDbEntity
  8
0
100
AcDbLine
 10
92.86182700000001
 20
-775.099128
 30
0.0
 11
92.86182700000001
 21
-784.099128
 31
0.0
  0
ARC
  5
FF
330
36
100
AcDbEntity
  8
0
100
AcDbCircle
 10
93.361827
 20
-784.099128
 30
0.0
 40
0.5
100
AcDbArc
 50
180.0
 51
0.0
  0
ARC
  5
100
330
36
100
AcDbEntity
  8
0
100
AcDbCircle
 10
93.361827
 20
-775.099128
 30
0.0
 40
0.5
100
AcDbArc
 50
0.0
 51
180.0
  0
LINE
  5
101
330
36
100
AcDbEntity
  8
0
100
AcDbLine
 10
93.861827
 20
-790.099128
 30
0.0
 11
93.861827
 21
-799.0991280000002
 31
0.0
  0
LINE
  5
102
330
36
100
AcDbEntity
  8
0
100
AcDbLine
 10
92.86182700000001
 20
-790.099128
 30
0.0
 11
92.86182700000001
 21
-799.0991280000002
 31
0.0
  0
ARC
  5
103
330
36
100
AcDbEntity
  8
0
100
AcDbCircle
 10
93.361827
 20
-799.0991280000002
 30
0.0
 40
0.5
100
AcDbArc
 50
180.0
 51
0.0
  0
ARC
  5
104
330
36
100
AcDbEntity
  8
0
100
AcDbCircle
 10
93.361827
 20
-790.099128
 30
0.0
 40
0.5
100
AcDbArc
 50
0.0
 51
180.0
  0
LINE
  5
105
330
36
100
AcDbEntity
  8
0
100
AcDbLine
 10
91.86182700000001
 20
-775.099128
 30
0.0
 11
91.86182700000001
 21
-784.099128
 31
0.0
  0
LINE
  5
106
330
36
100
AcDbEntity
  8
0
100
AcDbLine
 10
90.861827
 20
-775.099128
 30
0.0
 11
90.861827
 21
-784.099128
 31
0.0
  0
ARC
  5
107
330
36
100
AcDbEntity
  8
0
100
AcDbCircle
 10
91.361827
 20
-784.099128
 30
0.0
 40
0.5
100
AcDbArc
 50
180.0
 51
0.0
  0
ARC
  5
108
330
36
100
AcDbEntity
  8
0
100
AcDbCircle
 10
91.361827
 20
-775.099128
 30
0.0
 40
0.5
100
AcDbArc
 50
0.0
 51
180.0
  0
LINE
  5
109
330
36
100
AcDbEntity
  8
0
100
AcDbLine
 10
91.86182700000001
 20
-790.099128
 30
0.0
 11
91.86182700000001
 21
-799.0991280000002
 31
0.0
  0
LINE
  5
10A
330
36
100
AcDbEntity
  8
0
100
AcDbLine
 10
90.861827
 20
-790.099128
 30
0.0
 11
90.861827
 21
-799.0991280000002
 31
0.0
  0
ARC
  5
10B
330
36
100
AcDbEntity
  8
0
100
AcDbCircle
 10
91.361827
 20
-799.0991280000002
 30
0.0
 40
0.5
100
AcDbArc
 50
180.0
 51
0.0
  0
ARC
  5
10C
330
36
100
AcDbEntity
  8
0
100
AcDbCircle
 10
91.361827
 20
-790.099128
 30
0.0
 40
0.5
100
AcDbArc
 50
0.0
 51
180.0
  0
LINE
  5
10D
330
36
100
AcDbEntity
  8
0
100
AcDbLine
 10
89.861827
 20
-775.099128
 30
0.0
 11
89.861827
 21
-784.099128
 31
0.0
  0
LINE
  5
10E
330
36
100
AcDbEntity
  8
0
100
AcDbLine
 10
88.861827
 20
-775.099128
 30
0.0
 11
88.861827
 21
-784.099128
 31
0.0
  0
ARC
  5
10F
330
36
100
AcDbEntity
  8
0
100
AcDbCircle
 10
89.36182700000001
 20
-784.099128
 30
0.0
 40
0.5
100
AcDbArc
 50
180.0
 51
0.0
  0
ARC
  5
110
330
36
100
AcDbEntity
  8
0
100
AcDbCircle
 10
89.36182700000001
 20
-775.099128
 30
0.0
 40
0.5
100
AcDbArc
 50
0.0
 51
180.0
  0
LINE
  5
111
330
36
100
AcDbEntity
  8
0
100
AcDbLine
 10
89.861827
 20
-790.099128
 30
0.0
 11
89.861827
 21
-799.0991280000002
 31
0.0
  0
LINE
  5
112
330
36
100
AcDbEntity
  8
0
100
AcDbLine
 10
88.861827
 20
-790.099128
 30
0.0
 11
88.861827
 21
-799.0991280000002
 31
0.0
  0
ARC
  5
113
330
36
100
AcDbEntity
  8
0
100
AcDbCircle
 10
89.36182700000001
 20
-799.0991280000002
 30
0.0
 40
0.5
100
AcDbArc
 50
180.0
 51
0.0
  0
ARC
  5
114
330
36
100
AcDbEntity
  8
0
100
AcDbCircle
 10
89.36182700000001
 20
-790.099128
 30
0.0
 40
0.5
100
AcDbArc
 50
0.0
 51
180.0
  0
LINE
  5
115
330
36
100
AcDbEntity
  8
0
100
AcDbLine
 10
87.86182700000003
 20
-775.099128
 30
0.0
 11
87.86182700000003
 21
-784.099128
 31
0.0
  0
LINE
  5
116
330
36
100
AcDbEntity
  8
0
100
AcDbLine
 10
86.86182700000001
 20
-775.099128
 30
0.0
 11
86.86182700000001
 21
-784.099128
 31
0.0
  0
ARC
  5
117
330
36
100
AcDbEntity
  8
0
100
AcDbCircle
 10
87.361827
 20
-784.099128
 30
0.0
 40
0.5
100
AcDbArc
 50
180.0
 51
0.0
  0
ARC
  5
118
330
36
100
AcDbEntity
  8
0
100
AcDbCircle
 10
87.361827
 20
-775.099128
 30
0.0
 40
0.5
100
AcDbArc
 50
0.0
 51
180.0
  0
LINE
  5
119
330
36
100
AcDbEntity
  8
0
100
AcDbLine
 10
87.86182700000003
 20
-790.099128
 30
0.0
 11
87.86182700000003
 21
-799.0991280000002
 31
0.0
  0
LINE
  5
11A
330
36
100
AcDbEntity
  8
0
100
AcDbLine
 10
86.86182700000001
 20
-790.099128
 30
0.0
 11
86.86182700000001
 21
-799.0991280000002
 31
0.0
  0
ARC
  5
11B
330
36
100
AcDbEntity
  8
0
100
AcDbCircle
 10
87.361827
 20
-799.0991280000002
 30
0.0
 40
0.5
100
AcDbArc
 50
180.0
 51
0.0
  0
ARC
  5
11C
330
36
100
AcDbEntity
  8
0
100
AcDbCircle
 10
87.361827
 20
-790.099128
 30
0.0
 40
0.5
100
AcDbArc
 50
0.0
 51
180.0
  0
LINE
  5
11D
330
36
100
AcDbEntity
  8
0
100
AcDbLine
 10
85.861827
 20
-775.099128
 30
0.0
 11
85.861827
 21
-784.099128
 31
0.0
  0
LINE
  5
11E
330
36
100
AcDbEntity
  8
0
100
AcDbLine
 10
84.861827
 20
-775.099128
 30
0.0
 11
84.861827
 21
-784.099128
 31
0.0
  0
ARC
  5
11F
330
36
100
AcDbEntity
  8
0
100
AcDbCircle
 10
85.36182700000003
 20
-784.099128
 30
0.0
 40
0.5
100
AcDbArc
 50
180.0
 51
0.0
  0
ARC
  5
120
330
36
100
AcDbEntity
  8
0
100
AcDbCircle
 10
85.36182700000003
 20
-775.099128
 30
0.0
 40
0.5
100
AcDbArc
 50
0.0
 51
180.0
  0
LINE
  5
121
330
36
100
AcDbEntity
  8
0
100
AcDbLine
 10
85.861827
 20
-790.099128
 30
0.0
 11
85.861827
 21
-799.0991280000002
 31
0.0
  0
LINE
  5
122
330
36
100
AcDbEntity
  8
0
100
AcDbLine
 10
84.861827
 20
-790.099128
 30
0.0
 11
84.861827
 21
-799.0991280000002
 31
0.0
  0
ARC
  5
123
330
36
100
AcDbEntity
  8
0
100
AcDbCircle
 10
85.36182700000003
 20
-799.0991280000002
 30
0.0
 40
0.5
100
AcDbArc
 50
180.0
 51
0.0
  0
ARC
  5
124
330
36
100
AcDbEntity
  8
0
100
AcDbCircle
 10
85.36182700000003
 20
-790.099128
 30
0.0
 40
0.5
100
AcDbArc
 50
0.0
 51
180.0
  0
LINE
  5
125
330
36
100
AcDbEntity
  8
0
100
AcDbLine
 10
83.861827
 20
-775.099128
 30
0.0
 11
83.861827
 21
-784.099128
 31
0.0
  0
LINE
  5
126
330
36
100
AcDbEntity
  8
0
100
AcDbLine
 10
82.86182700000003
 20
-775.099128
 30
0.0
 11
82.86182700000003
 21
-784.099128
 31
0.0
  0
ARC
  5
127
330
36
100
AcDbEntity
  8
0
100
AcDbCircle
 10
83.361827
 20
-784.099128
 30
0.0
 40
0.5
100
AcDbArc
 50
180.0
 51
0.0
  0
ARC
  5
128
330
36
100
AcDbEntity
  8
0
100
AcDbCircle
 10
83.361827
 20
-775.099128
 30
0.0
 40
0.5
100
AcDbArc
 50
0.0
 51
180.0
  0
LINE
  5
129
330
36
100
AcDbEntity
  8
0
100
AcDbLine
 10
83.861827
 20
-790.099128
 30
0.0
 11
83.861827
 21
-799.0991280000002
 31
0.0
  0
LINE
  5
12A
330
36
100
AcDbEntity
  8
0
100
AcDbLine
 10
82.86182700000003
 20
-790.099128
 30
0.0
 11
82.86182700000003
 21
-799.0991280000002
 31
0.0
  0
ARC
  5
12B
330
36
100
AcDbEntity
  8
0
100
AcDbCircle
 10
83.361827
 20
-799.0991280000002
 30
0.0
 40
0.5
100
AcDbArc
 50
180.0
 51
0.0
  0
ARC
  5
12C
330
36
100
AcDbEntity
  8
0
100
AcDbCircle
 10
83.361827
 20
-790.099128
 30
0.0
 40
0.5
100
AcDbArc
 50
0.0
 51
180.0
  0
LINE
  5
12D
330
36
100
AcDbEntity
  8
0
100
AcDbLine
 10
81.86182700000001
 20
-775.099128
 30
0.0
 11
81.86182700000001
 21
-784.099128
 31
0.0
  0
LINE
  5
12E
330
36
100
AcDbEntity
  8
0
100
AcDbLine
 10
80.861827
 20
-775.099128
 30
0.0
 11
80.861827
 21
-784.099128
 31
0.0
  0
ARC
  5
12F
330
36
100
AcDbEntity
  8
0
100
AcDbCircle
 10
81.361827
 20
-784.099128
 30
0.0
 40
0.5
100
AcDbArc
 50
180.0
 51
0.0
  0
ARC
  5
130
330
36
100
AcDbEntity
  8
0
100
AcDbCircle
 10
81.361827
 20
-775.099128
 30
0.0
 40
0.5
100
AcDbArc
 50
0.0
 51
180.0
  0
LINE
  5
131
330
36
100
AcDbEntity
  8
0
100
AcDbLine
 10
81.86182700000001
 20
-790.099128
 30
0.0
 11
81.86182700000001
 21
-799.0991280000002
 31
0.0
  0
LINE
  5
132
330
36
100
AcDbEntity
  8
0
100
AcDbLine
 10
80.861827
 20
-790.099128
 30
0.0
 11
80.861827
 21
-799.0991280000002
 31
0.0
  0
ARC
  5
133
330
36
100
AcDbEntity
  8
0
100
AcDbCircle
 10
81.361827
 20
-799.0991280000002
 30
0.0
 40
0.5
100
AcDbArc
 50
180.0
 51
0.0
  0
ARC
  5
134
330
36
100
AcDbEntity
  8
0
100
AcDbCircle
 10
81.361827
 20
-790.099128
 30
0.0
 40
0.5
100
AcDbArc
 50
0.0
 51
180.0
  0
LINE
  5
135
330
36
100
AcDbEntity
  8
0
100
AcDbLine
 10
79.861827
 20
-775.099128
 30
0.0
 11
79.861827
 21
-784.099128
 31
0.0
  0
LINE
  5
136
330
36
100
AcDbEntity
  8
0
100
AcDbLine
 10
78.861827
 20
-775.099128
 30
0.0
 11
78.861827
 21
-784.099128
 31
0.0
  0
ARC
  5
137
330
36
100
AcDbEntity
  8
0
100
AcDbCircle
 10
79.361827
 20
-784.099128
 30
0.0
 40
0.5
100
AcDbArc
 50
180.0
 51
0.0
  0
ARC
  5
138
330
36
100
AcDbEntity
  8
0
100
AcDbCircle
 10
79.361827
 20
-775.099128
 30
0.0
 40
0.5
100
AcDbArc
 50
0.0
 51
180.0
  0
LINE
  5
139
330
36
100
AcDbEntity
  8
0
100
AcDbLine
 10
79.861827
 20
-790.099128
 30
0.0
 11
79.861827
 21
-799.0991280000002
 31
0.0
  0
LINE
  5
13A
330
36
100
AcDbEntity
  8
0
100
AcDbLine
 10
78.861827
 20
-790.099128
 30
0.0
 11
78.861827
 21
-799.0991280000002
 31
0.0
  0
ARC
  5
13B
330
36
100
AcDbEntity
  8
0
100
AcDbCircle
 10
79.361827
 20
-799.0991280000002
 30
0.0
 40
0.5
100
AcDbArc
 50
180.0
 51
0.0
  0
ARC
  5
13C
330
36
100
AcDbEntity
  8
0
100
AcDbCircle
 10
79.361827
 20
-790.099128
 30
0.0
 40
0.5
100
AcDbArc
 50
0.0
 51
180.0
  0
LINE
  5
13D
330
36
100
AcDbEntity
  8
0
100
AcDbLine
 10
77.86182700000002
 20
-775.099128
 30
0.0
 11
77.86182700000002
 21
-784.099128
 31
0.0
  0
LINE
  5
13E
330
36
100
AcDbEntity
  8
0
100
AcDbLine
 10
76.861827
 20
-775.099128
 30
0.0
 11
76.861827
 21
-784.099128
 31
0.0
  0
ARC
  5
13F
330
36
100
AcDbEntity
  8
0
100
AcDbCircle
 10
77.361827
 20
-784.099128
 30
0.0
 40
0.5
100
AcDbArc
 50
180.0
 51
0.0
  0
ARC
  5
140
330
36
100
AcDbEntity
  8
0
100
AcDbCircle
 10
77.361827
 20
-775.099128
 30
0.0
 40
0.5
100
AcDbArc
 50
0.0
 51
180.0
  0
LINE
  5
141
330
36
100
AcDbEntity
  8
0
100
AcDbLine
 10
77.86182700000002
 20
-790.099128
 30
0.0
 11
77.86182700000002
 21
-799.0991280000002
 31
0.0
  0
LINE
  5
142
330
36
100
AcDbEntity
  8
0
100
AcDbLine
 10
76.861827
 20
-790.099128
 30
0.0
 11
76.861827
 21
-799.0991280000002
 31
0.0
  0
ARC
  5
143
330
36
100
AcDbEntity
  8
0
100
AcDbCircle
 10
77.361827
 20
-799.0991280000002
 30
0.0
 40
0.5
100
AcDbArc
 50
180.0
 51
0.0
  0
ARC
  5
144
330
36
100
AcDbEntity
  8
0
100
AcDbCircle
 10
77.361827
 20
-790.099128
 30
0.0
 40
0.5
100
AcDbArc
 50
0.0
 51
180.0
  0
LINE
  5
145
330
36
100
AcDbEntity
  8
0
100
AcDbLine
 10
75.86182700000001
 20
-775.099128
 30
0.0
 11
75.86182700000001
 21
-784.099128
 31
0.0
  0
LINE
  5
146
330
36
100
AcDbEntity
  8
0
100
AcDbLine
 10
74.861827
 20
-775.099128
 30
0.0
 11
74.861827
 21
-784.099128
 31
0.0
  0
ARC
  5
147
330
36
100
AcDbEntity
  8
0
100
AcDbCircle
 10
75.36182700000002
 20
-784.099128
 30
0.0
 40
0.5
100
AcDbArc
 50
180.0
 51
0.0
  0
ARC
  5
148
330
36
100
AcDbEntity
  8
0
100
AcDbCircle
 10
75.36182700000002
 20
-775.099128
 30
0.0
 40
0.5
100
AcDbArc
 50
0.0
 51
180.0
  0
LINE
  5
149
330
36
100
AcDbEntity
  8
0
100
AcDbLine
 10
75.86182700000001
 20
-790.099128
 30
0.0
 11
75.86182700000001
 21
-799.0991280000002
 31
0.0
  0
LINE
  5
14A
330
36
100
AcDbEntity
  8
0
100
AcDbLine
 10
74.861827
 20
-790.099128
 30
0.0
 11
74.861827
 21
-799.0991280000002
 31
0.0
  0
ARC
  5
14B
330
36
100
AcDbEntity
  8
0
100
AcDbCircle
 10
75.36182700000002
 20
-799.0991280000002
 30
0.0
 40
0.5
100
AcDbArc
 50
180.0
 51
0.0
  0
ARC
  5
14C
330
36
100
AcDbEntity
  8
0
100
AcDbCircle
 10
75.36182700000002
 20
-790.099128
 30
0.0
 40
0.5
100
AcDbArc
 50
0.0
 51
180.0
  0
LINE
  5
14D
330
36
100
AcDbEntity
  8
0
100
AcDbLine
 10
73.861827
 20
-775.099128
 30
0.0
 11
73.861827
 21
-784.099128
 31
0.0
  0
LINE
  5
14E
330
36
100
AcDbEntity
  8
0
100
AcDbLine
 10
72.86182700000002
 20
-775.099128
 30
0.0
 11
72.86182700000002
 21
-784.099128
 31
0.0
  0
ARC
  5
14F
330
36
100
AcDbEntity
  8
0
100
AcDbCircle
 10
73.36182700000001
 20
-784.099128
 30
0.0
 40
0.5
100
AcDbArc
 50
180.0
 51
0.0
  0
ARC
  5
150
330
36
100
AcDbEntity
  8
0
100
AcDbCircle
 10
73.36182700000001
 20
-775.099128
 30
0.0
 40
0.5
100
AcDbArc
 50
0.0
 51
180.0
  0
LINE
  5
151
330
36
100
AcDbEntity
  8
0
100
AcDbLine
 10
73.861827
 20
-790.099128
 30
0.0
 11
73.861827
 21
-799.0991280000002
 31
0.0
  0
LINE
  5
152
330
36
100
AcDbEntity
  8
0
100
AcDbLine
 10
72.86182700000002
 20
-790.099128
 30
0.0
 11
72.86182700000002
 21
-799.0991280000002
 31
0.0
  0
ARC
  5
153
330
36
100
AcDbEntity
  8
0
100
AcDbCircle
 10
73.36182700000001
 20
-799.0991280000002
 30
0.0
 40
0.5
100
AcDbArc
 50
180.0
 51
0.0
  0
ARC
  5
154
330
36
100
AcDbEntity
  8
0
100
AcDbCircle
 10
73.36182700000001
 20
-790.099128
 30
0.0
 40
0.5
100
AcDbArc
 50
0.0
 51
180.0
  0
LINE
  5
155
330
36
100
AcDbEntity
  8
0
100
AcDbLine
 10
71.861827
 20
-775.099128
 30
0.0
 11
71.861827
 21
-784.099128
 31
0.0
  0
LINE
  5
156
330
36
100
AcDbEntity
  8
0
100
AcDbLine
 10
70.86182700000001
 20
-775.099128
 30
0.0
 11
70.86182700000001
 21
-784.099128
 31
0.0
  0
ARC
  5
157
330
36
100
AcDbEntity
  8
0
100
AcDbCircle
 10
71.361827
 20
-784.099128
 30
0.0
 40
0.5
100
AcDbArc
 50
180.0
 51
0.0
  0
ARC
  5
158
330
36
100
AcDbEntity
  8
0
100
AcDbCircle
 10
71.361827
 20
-775.099128
 30
0.0
 40
0.5
100
AcDbArc
 50
0.0
 51
180.0
  0
LINE
  5
159
330
36
100
AcDbEntity
  8
0
100
AcDbLine
 10
71.861827
 20
-790.099128
 30
0.0
 11
71.861827
 21
-799.0991280000002
 31
0.0
  0
LINE
  5
15A
330
36
100
AcDbEntity
  8
0
100
AcDbLine
 10
70.86182700000001
 20
-790.099128
 30
0.0
 11
70.86182700000001
 21
-799.0991280000002
 31
0.0
  0
ARC
  5
15B
330
36
100
AcDbEntity
  8
0
100
AcDbCircle
 10
71.361827
 20
-799.0991280000002
 30
0.0
 40
0.5
100
AcDbArc
 50
180.0
 51
0.0
  0
ARC
  5
15C
330
36
100
AcDbEntity
  8
0
100
AcDbCircle
 10
71.361827
 20
-790.099128
 30
0.0
 40
0.5
100
AcDbArc
 50
0.0
 51
180.0
  0
LINE
  5
15D
330
36
100
AcDbEntity
  8
0
100
AcDbLine
 10
69.861827
 20
-775.099128
 30
0.0
 11
69.861827
 21
-784.099128
 31
0.0
  0
LINE
  5
15E
330
36
100
AcDbEntity
  8
0
100
AcDbLine
 10
68.861827
 20
-775.099128
 30
0.0
 11
68.861827
 21
-784.099128
 31
0.0
  0
ARC
  5
15F
330
36
100
AcDbEntity
  8
0
100
AcDbCircle
 10
69.361827
 20
-784.099128
 30
0.0
 40
0.5
100
AcDbArc
 50
180.0
 51
0.0
  0
ARC
  5
160
330
36
100
AcDbEntity
  8
0
100
AcDbCircle
 10
69.361827
 20
-775.099128
 30
0.0
 40
0.5
100
AcDbArc
 50
0.0
 51
180.0
  0
LINE
  5
161
330
36
100
AcDbEntity
  8
0
100
AcDbLine
 10
69.861827
 20
-790.099128
 30
0.0
 11
69.861827
 21
-799.0991280000002
 31
0.0
  0
LINE
  5
162
330
36
100
AcDbEntity
  8
0
100
AcDbLine
 10
68.861827
 20
-790.099128
 30
0.0
 11
68.861827
 21
-799.0991280000002
 31
0.0
  0
ARC
  5
163
330
36
100
AcDbEntity
  8
0
100
AcDbCircle
 10
69.361827
 20
-799.0991280000002
 30
0.0
 40
0.5
100
AcDbArc
 50
180.0
 51
0.0
  0
ARC
  5
164
330
36
100
AcDbEntity
  8
0
100
AcDbCircle
 10
69.361827
 20
-790.099128
 30
0.0
 40
0.5
100
AcDbArc
 50
0.0
 51
180.0
  0
LINE
  5
165
330
36
100
AcDbEntity
  8
0
100
AcDbLine
 10
67.86182700000001
 20
-775.099128
 30
0.0
 11
67.86182700000001
 21
-784.099128
 31
0.0
  0
LINE
  5
166
330
36
100
AcDbEntity
  8
0
100
AcDbLine
 10
66.861827
 20
-775.099128
 30
0.0
 11
66.861827
 21
-784.099128
 31
0.0
  0
ARC
  5
167
330
36
100
AcDbEntity
  8
0
100
AcDbCircle
 10
67.361827
 20
-784.099128
 30
0.0
 40
0.5
100
AcDbArc
 50
180.0
 51
0.0
  0
ARC
  5
168
330
36
100
AcDbEntity
  8
0
100
AcDbCircle
 10
67.361827
 20
-775.099128
 30
0.0
 40
0.5
100
AcDbArc
 50
0.0
 51
180.0
  0
LINE
  5
169
330
36
100
AcDbEntity
  8
0
100
AcDbLine
 10
67.86182700000001
 20
-790.099128
 30
0.0
 11
67.86182700000001
 21
-799.0991280000002
 31
0.0
  0
LINE
  5
16A
330
36
100
AcDbEntity
  8
0
100
AcDbLine
 10
66.861827
 20
-790.099128
 30
0.0
 11
66.861827
 21
-799.0991280000002
 31
0.0
  0
ARC
  5
16B
330
36
100
AcDbEntity
  8
0
100
AcDbCircle
 10
67.361827
 20
-799.0991280000002
 30
0.0
 40
0.5
100
AcDbArc
 50
180.0
 51
0.0
  0
ARC
  5
16C
330
36
100
AcDbEntity
  8
0
100
AcDbCircle
 10
67.361827
 20
-790.099128
 30
0.0
 40
0.5
100
AcDbArc
 50
0.0
 51
180.0
  0
LINE
  5
16D
330
36
100
AcDbEntity
  8
0
100
AcDbLine
 10
65.86182700000001
 20
-775.099128
 30
0.0
 11
65.86182700000001
 21
-784.099128
 31
0.0
  0
LINE
  5
16E
330
36
100
AcDbEntity
  8
0
100
AcDbLine
 10
64.861827
 20
-775.099128
 30
0.0
 11
64.861827
 21
-784.099128
 31
0.0
  0
ARC
  5
16F
330
36
100
AcDbEntity
  8
0
100
AcDbCircle
 10
65.36182700000001
 20
-784.099128
 30
0.0
 40
0.5
100
AcDbArc
 50
180.0
 51
0.0
  0
ARC
  5
170
330
36
100
AcDbEntity
  8
0
100
AcDbCircle
 10
65.36182700000001
 20
-775.099128
 30
0.0
 40
0.5
100
AcDbArc
 50
0.0
 51
180.0
  0
LINE
  5
171
330
36
100
AcDbEntity
  8
0
100
AcDbLine
 10
65.86182700000001
 20
-790.099128
 30
0.0
 11
65.86182700000001
 21
-799.0991280000002
 31
0.0
  0
LINE
  5
172
330
36
100
AcDbEntity
  8
0
100
AcDbLine
 10
64.861827
 20
-790.099128
 30
0.0
 11
64.861827
 21
-799.0991280000002
 31
0.0
  0
ARC
  5
173
330
36
100
AcDbEntity
  8
0
100
AcDbCircle
 10
65.36182700000001
 20
-799.0991280000002
 30
0.0
 40
0.5
100
AcDbArc
 50
180.0
 51
0.0
  0
ARC
  5
174
330
36
100
AcDbEntity
  8
0
100
AcDbCircle
 10
65.36182700000001
 20
-790.099128
 30
0.0
 40
0.5
100
AcDbArc
 50
0.0
 51
180.0
  0
LINE
  5
175
330
36
100
AcDbEntity
  8
0
100
AcDbLine
 10
53.861827
 20
-775.099128
 30
0.0
 11
53.861827
 21
-784.099128
 31
0.0
  0
LINE
  5
176
330
36
100
AcDbEntity
  8
0
100
AcDbLine
 10
52.86182700000001
 20
-775.099128
 30
0.0
 11
52.86182700000001
 21
-784.099128
 31
0.0
  0
ARC
  5
177
330
36
100
AcDbEntity
  8
0
100
AcDbCircle
 10
53.36182700000001
 20
-784.099128
 30
0.0
 40
0.5
100
AcDbArc
 50
180.0
 51
0.0
  0
ARC
  5
178
330
36
100
AcDbEntity
  8
0
100
AcDbCircle
 10
53.36182700000001
 20
-775.099128
 30
0.0
 40
0.5
100
AcDbArc
 50
0.0
 51
180.0
  0
LINE
  5
179
330
36
100
AcDbEntity
  8
0
100
AcDbLine
 10
53.861827
 20
-790.099128
 30
0.0
 11
53.861827
 21
-799.0991280000002
 31
0.0
  0
LINE
  5
17A
330
36
100
AcDbEntity
  8
0
100
AcDbLine
 10
52.86182700000001
 20
-790.099128
 30
0.0
 11
52.86182700000001
 21
-799.0991280000002
 31
0.0
  0
ARC
  5
17B
330
36
100
AcDbEntity
  8
0
100
AcDbCircle
 10
53.36182700000001
 20
-799.0991280000002
 30
0.0
 40
0.5
100
AcDbArc
 50
180.0
 51
0.0
  0
ARC
  5
17C
330
36
100
AcDbEntity
  8
0
100
AcDbCircle
 10
53.36182700000001
 20
-790.099128
 30
0.0
 40
0.5
100
AcDbArc
 50
0.0
 51
180.0
  0
LINE
  5
17D
330
36
100
AcDbEntity
  8
0
100
AcDbLine
 10
51.861827
 20
-775.099128
 30
0.0
 11
51.861827
 21
-784.099128
 31
0.0
  0
LINE
  5
17E
330
36
100
AcDbEntity
  8
0
100
AcDbLine
 10
50.86182700000001
 20
-775.099128
 30
0.0
 11
50.86182700000001
 21
-784.099128
 31
0.0
  0
ARC
  5
17F
330
36
100
AcDbEntity
  8
0
100
AcDbCircle
 10
51.361827
 20
-784.099128
 30
0.0
 40
0.5
100
AcDbArc
 50
180.0
 51
0.0
  0
ARC
  5
180
330
36
100
AcDbEntity
  8
0
100
AcDbCircle
 10
51.361827
 20
-775.099128
 30
0.0
 40
0.5
100
AcDbArc
 50
0.0
 51
180.0
  0
LINE
  5
181
330
36
100
AcDbEntity
  8
0
100
AcDbLine
 10
51.861827
 20
-790.099128
 30
0.0
 11
51.861827
 21
-799.0991280000002
 31
0.0
  0
LINE
  5
182
330
36
100
AcDbEntity
  8
0
100
AcDbLine
 10
50.86182700000001
 20
-790.099128
 30
0.0
 11
50.86182700000001
 21
-799.0991280000002
 31
0.0
  0
ARC
  5
183
330
36
100
AcDbEntity
  8
0
100
AcDbCircle
 10
51.361827
 20
-799.0991280000002
 30
0.0
 40
0.5
100
AcDbArc
 50
180.0
 51
0.0
  0
ARC
  5
184
330
36
100
AcDbEntity
  8
0
100
AcDbCircle
 10
51.361827
 20
-790.099128
 30
0.0
 40
0.5
100
AcDbArc
 50
0.0
 51
180.0
  0
LINE
  5
185
330
36
100
AcDbEntity
  8
0
100
AcDbLine
 10
49.861827
 20
-775.099128
 30
0.0
 11
49.861827
 21
-784.099128
 31
0.0
  0
LINE
  5
186
330
36
100
AcDbEntity
  8
0
100
AcDbLine
 10
48.861827
 20
-775.099128
 30
0.0
 11
48.861827
 21
-784.099128
 31
0.0
  0
ARC
  5
187
330
36
100
AcDbEntity
  8
0
100
AcDbCircle
 10
49.361827
 20
-784.099128
 30
0.0
 40
0.5
100
AcDbArc
 50
180.0
 51
0.0
  0
ARC
  5
188
330
36
100
AcDbEntity
  8
0
100
AcDbCircle
 10
49.361827
 20
-775.099128
 30
0.0
 40
0.5
100
AcDbArc
 50
0.0
 51
180.0
  0
LINE
  5
189
330
36
100
AcDbEntity
  8
0
100
AcDbLine
 10
49.861827
 20
-790.099128
 30
0.0
 11
49.861827
 21
-799.0991280000002
 31
0.0
  0
LINE
  5
18A
330
36
100
AcDbEntity
  8
0
100
AcDbLine
 10
48.861827
 20
-790.099128
 30
0.0
 11
48.861827
 21
-799.0991280000002
 31
0.0
  0
ARC
  5
18B
330
36
100
AcDbEntity
  8
0
100
AcDbCircle
 10
49.361827
 20
-799.0991280000002
 30
0.0
 40
0.5
100
AcDbArc
 50
180.0
 51
0.0
  0
ARC
  5
18C
330
36
100
AcDbEntity
  8
0
100
AcDbCircle
 10
49.361827
 20
-790.099128
 30
0.0
 40
0.5
100
AcDbArc
 50
0.0
 51
180.0
  0
LINE
  5
18D
330
36
100
AcDbEntity
  8
0
100
AcDbLine
 10
47.861827
 20
-775.099128
 30
0.0
 11
47.861827
 21
-784.099128
 31
0.0
  0
LINE
  5
18E
330
36
100
AcDbEntity
  8
0
100
AcDbLine
 10
46.861827
 20
-775.099128
 30
0.0
 11
46.861827
 21
-784.099128
 31
0.0
  0
ARC
  5
18F
330
36
100
AcDbEntity
  8
0
100
AcDbCircle
 10
47.361827
 20
-784.099128
 30
0.0
 40
0.5
100
AcDbArc
 50
180.0
 51
0.0
  0
ARC
  5
190
330
36
100
AcDbEntity
  8
0
100
AcDbCircle
 10
47.361827
 20
-775.099128
 30
0.0
 40
0.5
100
AcDbArc
 50
0.0
 51
180.0
  0
LINE
  5
191
330
36
100
AcDbEntity
  8
0
100
AcDbLine
 10
47.861827
 20
-790.099128
 30
0.0
 11
47.861827
 21
-799.0991280000002
 31
0.0
  0
LINE
  5
192
330
36
100
AcDbEntity
  8
0
100
AcDbLine
 10
46.861827
 20
-790.099128
 30
0.0
 11
46.861827
 21
-799.0991280000002
 31
0.0
  0
ARC
  5
193
330
36
100
AcDbEntity
  8
0
100
AcDbCircle
 10
47.361827
 20
-799.0991280000002
 30
0.0
 40
0.5
100
AcDbArc
 50
180.0
 51
0.0
  0
ARC
  5
194
330
36
100
AcDbEntity
  8
0
100
AcDbCircle
 10
47.361827
 20
-790.099128
 30
0.0
 40
0.5
100
AcDbArc
 50
0.0
 51
180.0
  0
LINE
  5
195
330
36
100
AcDbEntity
  8
0
100
AcDbLine
 10
45.86182700000001
 20
-775.099128
 30
0.0
 11
45.86182700000001
 21
-784.099128
 31
0.0
  0
LINE
  5
196
330
36
100
AcDbEntity
  8
0
100
AcDbLine
 10
44.861827
 20
-775.099128
 30
0.0
 11
44.861827
 21
-784.099128
 31
0.0
  0
ARC
  5
197
330
36
100
AcDbEntity
  8
0
100
AcDbCircle
 10
45.361827
 20
-784.099128
 30
0.0
 40
0.5
100
AcDbArc
 50
180.0
 51
0.0
  0
ARC
  5
198
330
36
100
AcDbEntity
  8
0
100
AcDbCircle
 10
45.361827
 20
-775.099128
 30
0.0
 40
0.5
100
AcDbArc
 50
0.0
 51
180.0
  0
LINE
  5
199
330
36
100
AcDbEntity
  8
0
100
AcDbLine
 10
45.86182700000001
 20
-790.099128
 30
0.0
 11
45.86182700000001
 21
-799.0991280000002
 31
0.0
  0
LINE
  5
19A
330
36
100
AcDbEntity
  8
0
100
AcDbLine
 10
44.861827
 20
-790.099128
 30
0.0
 11
44.861827
 21
-799.0991280000002
 31
0.0
  0
ARC
  5
19B
330
36
100
AcDbEntity
  8
0
100
AcDbCircle
 10
45.361827
 20
-799.0991280000002
 30
0.0
 40
0.5
100
AcDbArc
 50
180.0
 51
0.0
  0
ARC
  5
19C
330
36
100
AcDbEntity
  8
0
100
AcDbCircle
 10
45.361827
 20
-790.099128
 30
0.0
 40
0.5
100
AcDbArc
 50
0.0
 51
180.0
  0
LINE
  5
19D
330
36
100
AcDbEntity
  8
0
100
AcDbLine
 10
43.861827
 20
-775.099128
 30
0.0
 11
43.861827
 21
-784.099128
 31
0.0
  0
LINE
  5
19E
330
36
100
AcDbEntity
  8
0
100
AcDbLine
 10
42.861827
 20
-775.099128
 30
0.0
 11
42.861827
 21
-784.099128
 31
0.0
  0
ARC
  5
19F
330
36
100
AcDbEntity
  8
0
100
AcDbCircle
 10
43.36182700000001
 20
-784.099128
 30
0.0
 40
0.5
100
AcDbArc
 50
180.0
 51
0.0
  0
ARC
  5
1A0
330
36
100
AcDbEntity
  8
0
100
AcDbCircle
 10
43.36182700000001
 20
-775.099128
 30
0.0
 40
0.5
100
AcDbArc
 50
0.0
 51
180.0
  0
LINE
  5
1A1
330
36
100
AcDbEntity
  8
0
100
AcDbLine
 10
43.861827
 20
-790.099128
 30
0.0
 11
43.861827
 21
-799.0991280000002
 31
0.0
  0
LINE
  5
1A2
330
36
100
AcDbEntity
  8
0
100
AcDbLine
 10
42.861827
 20
-790.099128
 30
0.0
 11
42.861827
 21
-799.0991280000002
 31
0.0
  0
ARC
  5
1A3
330
36
100
AcDbEntity
  8
0
100
AcDbCircle
 10
43.36182700000001
 20
-799.0991280000002
 30
0.0
 40
0.5
100
AcDbArc
 50
180.0
 51
0.0
  0
ARC
  5
1A4
330
36
100
AcDbEntity
  8
0
100
AcDbCircle
 10
43.36182700000001
 20
-790.099128
 30
0.0
 40
0.5
100
AcDbArc
 50
0.0
 51
180.0
  0
LINE
  5
1A5
330
36
100
AcDbEntity
  8
0
100
AcDbLine
 10
41.861827
 20
-775.099128
 30
0.0
 11
41.861827
 21
-784.099128
 31
0.0
  0
LINE
  5
1A6
330
36
100
AcDbEntity
  8
0
100
AcDbLine
 10
40.86182700000001
 20
-775.099128
 30
0.0
 11
40.86182700000001
 21
-784.099128
 31
0.0
  0
ARC
  5
1A7
330
36
100
AcDbEntity
  8
0
100
AcDbCircle
 10
41.361827
 20
-784.099128
 30
0.0
 40
0.5
100
AcDbArc
 50
180.0
 51
0.0
  0
ARC
  5
1A8
330
36
100
AcDbEntity
  8
0
100
AcDbCircle
 10
41.361827
 20
-775.099128
 30
0.0
 40
0.5
100
AcDbArc
 50
0.0
 51
180.0
  0
LINE
  5
1A9
330
36
100
AcDbEntity
  8
0
100
AcDbLine
 10
41.861827
 20
-790.099128
 30
0.0
 11
41.861827
 21
-799.0991280000002
 31
0.0
  0
LINE
  5
1AA
330
36
100
AcDbEntity
  8
0
100
AcDbLine
 10
40.86182700000001
 20
-790.099128
 30
0.0
 11
40.86182700000001
 21
-799.0991280000002
 31
0.0
  0
ARC
  5
1AB
330
36
100
AcDbEntity
  8
0
100
AcDbCircle
 10
41.361827
 20
-799.0991280000002
 30
0.0
 40
0.5
100
AcDbArc
 50
180.0
 51
0.0
  0
ARC
  5
1AC
330
36
100
AcDbEntity
  8
0
100
AcDbCircle
 10
41.361827
 20
-790.099128
 30
0.0
 40
0.5
100
AcDbArc
 50
0.0
 51
180.0
  0
LINE
  5
1AD
330
36
100
AcDbEntity
  8
0
100
AcDbLine
 10
39.861827
 20
-775.099128
 30
0.0
 11
39.861827
 21
-784.099128
 31
0.0
  0
LINE
  5
1AE
330
36
100
AcDbEntity
  8
0
100
AcDbLine
 10
38.86182700000001
 20
-775.099128
 30
0.0
 11
38.86182700000001
 21
-784.099128
 31
0.0
  0
ARC
  5
1AF
330
36
100
AcDbEntity
  8
0
100
AcDbCircle
 10
39.36182700000001
 20
-784.099128
 30
0.0
 40
0.5
100
AcDbArc
 50
180.0
 51
0.0
  0
ARC
  5
1B0
330
36
100
AcDbEntity
  8
0
100
AcDbCircle
 10
39.36182700000001
 20
-775.099128
 30
0.0
 40
0.5
100
AcDbArc
 50
0.0
 51
180.0
  0
LINE
  5
1B1
330
36
100
AcDbEntity
  8
0
100
AcDbLine
 10
39.861827
 20
-790.099128
 30
0.0
 11
39.861827
 21
-799.0991280000002
 31
0.0
  0
LINE
  5
1B2
330
36
100
AcDbEntity
  8
0
100
AcDbLine
 10
38.86182700000001
 20
-790.099128
 30
0.0
 11
38.86182700000001
 21
-799.0991280000002
 31
0.0
  0
ARC
  5
1B3
330
36
100
AcDbEntity
  8
0
100
AcDbCircle
 10
39.36182700000001
 20
-799.0991280000002
 30
0.0
 40
0.5
100
AcDbArc
 50
180.0
 51
0.0
  0
ARC
  5
1B4
330
36
100
AcDbEntity
  8
0
100
AcDbCircle
 10
39.36182700000001
 20
-790.099128
 30
0.0
 40
0.5
100
AcDbArc
 50
0.0
 51
180.0
  0
LINE
  5
1B5
330
36
100
AcDbEntity
  8
0
100
AcDbLine
 10
37.86182700000001
 20
-775.099128
 30
0.0
 11
37.86182700000001
 21
-784.099128
 31
0.0
  0
LINE
  5
1B6
330
36
100
AcDbEntity
  8
0
100
AcDbLine
 10
36.86182700000003
 20
-775.099128
 30
0.0
 11
36.86182700000003
 21
-784.099128
 31
0.0
  0
ARC
  5
1B7
330
36
100
AcDbEntity
  8
0
100
AcDbCircle
 10
37.361827
 20
-784.099128
 30
0.0
 40
0.5
100
AcDbArc
 50
180.0
 51
0.0
  0
ARC
  5
1B8
330
36
100
AcDbEntity
  8
0
100
AcDbCircle
 10
37.361827
 20
-775.099128
 30
0.0
 40
0.5
100
AcDbArc
 50
0.0
 51
180.0
  0
LINE
  5
1B9
330
36
100
AcDbEntity
  8
0
100
AcDbLine
 10
37.86182700000001
 20
-790.099128
 30
0.0
 11
37.86182700000001
 21
-799.0991280000002
 31
0.0
  0
LINE
  5
1BA
330
36
100
AcDbEntity
  8
0
100
AcDbLine
 10
36.86182700000003
 20
-790.099128
 30
0.0
 11
36.86182700000003
 21
-799.0991280000002
 31
0.0
  0
ARC
  5
1BB
330
36
100
AcDbEntity
  8
0
100
AcDbCircle
 10
37.361827
 20
-799.0991280000002
 30
0.0
 40
0.5
100
AcDbArc
 50
180.0
 51
0.0
  0
ARC
  5
1BC
330
36
100
AcDbEntity
  8
0
100
AcDbCircle
 10
37.361827
 20
-790.099128
 30
0.0
 40
0.5
100
AcDbArc
 50
0.0
 51
180.0
  0
LINE
  5
1BD
330
36
100
AcDbEntity
  8
0
100
AcDbLine
 10
35.86182700000001
 20
-775.099128
 30
0.0
 11
35.86182700000001
 21
-784.099128
 31
0.0
  0
LINE
  5
1BE
330
36
100
AcDbEntity
  8
0
100
AcDbLine
 10
34.861827
 20
-775.099128
 30
0.0
 11
34.861827
 21
-784.099128
 31
0.0
  0
ARC
  5
1BF
330
36
100
AcDbEntity
  8
0
100
AcDbCircle
 10
35.36182700000001
 20
-784.099128
 30
0.0
 40
0.5
100
AcDbArc
 50
180.0
 51
0.0
  0
ARC
  5
1C0
330
36
100
AcDbEntity
  8
0
100
AcDbCircle
 10
35.36182700000001
 20
-775.099128
 30
0.0
 40
0.5
100
AcDbArc
 50
0.0
 51
180.0
  0
LINE
  5
1C1
330
36
100
AcDbEntity
  8
0
100
AcDbLine
 10
35.86182700000001
 20
-790.099128
 30
0.0
 11
35.86182700000001
 21
-799.0991280000002
 31
0.0
  0
LINE
  5
1C2
330
36
100
AcDbEntity
  8
0
100
AcDbLine
 10
34.861827
 20
-790.099128
 30
0.0
 11
34.861827
 21
-799.0991280000002
 31
0.0
  0
ARC
  5
1C3
330
36
100
AcDbEntity
  8
0
100
AcDbCircle
 10
35.36182700000001
 20
-799.0991280000002
 30
0.0
 40
0.5
100
AcDbArc
 50
180.0
 51
0.0
  0
ARC
  5
1C4
330
36
100
AcDbEntity
  8
0
100
AcDbCircle
 10
35.36182700000001
 20
-790.099128
 30
0.0
 40
0.5
100
AcDbArc
 50
0.0
 51
180.0
  0
LINE
  5
1C5
330
36
100
AcDbEntity
  8
0
100
AcDbLine
 10
33.86182700000001
 20
-775.099128
 30
0.0
 11
33.86182700000001
 21
-784.099128
 31
0.0
  0
LINE
  5
1C6
330
36
100
AcDbEntity
  8
0
100
AcDbLine
 10
32.86182700000001
 20
-775.099128
 30
0.0
 11
32.86182700000001
 21
-784.099128
 31
0.0
  0
ARC
  5
1C7
330
36
100
AcDbEntity
  8
0
100
AcDbCircle
 10
33.36182700000001
 20
-784.099128
 30
0.0
 40
0.5
100
AcDbArc
 50
180.0
 51
0.0
  0
ARC
  5
1C8
330
36
100
AcDbEntity
  8
0
100
AcDbCircle
 10
33.36182700000001
 20
-775.099128
 30
0.0
 40
0.5
100
AcDbArc
 50
0.0
 51
180.0
  0
LINE
  5
1C9
330
36
100
AcDbEntity
  8
0
100
AcDbLine
 10
33.86182700000001
 20
-790.099128
 30
0.0
 11
33.86182700000001
 21
-799.0991280000002
 31
0.0
  0
LINE
  5
1CA
330
36
100
AcDbEntity
  8
0
100
AcDbLine
 10
32.86182700000001
 20
-790.099128
 30
0.0
 11
32.86182700000001
 21
-799.0991280000002
 31
0.0
  0
ARC
  5
1CB
330
36
100
AcDbEntity
  8
0
100
AcDbCircle
 10
33.36182700000001
 20
-799.0991280000002
 30
0.0
 40
0.5
100
AcDbArc
 50
180.0
 51
0.0
  0
ARC
  5
1CC
330
36
100
AcDbEntity
  8
0
100
AcDbCircle
 10
33.36182700000001
 20
-790.099128
 30
0.0
 40
0.5
100
AcDbArc
 50
0.0
 51
180.0
  0
LINE
  5
1CD
330
36
100
AcDbEntity
  8
0
100
AcDbLine
 10
31.861827
 20
-775.099128
 30
0.0
 11
31.861827
 21
-784.099128
 31
0.0
  0
LINE
  5
1CE
330
36
100
AcDbEntity
  8
0
100
AcDbLine
 10
30.861827
 20
-775.099128
 30
0.0
 11
30.861827
 21
-784.099128
 31
0.0
  0
ARC
  5
1CF
330
36
100
AcDbEntity
  8
0
100
AcDbCircle
 10
31.361827
 20
-784.099128
 30
0.0
 40
0.5
100
AcDbArc
 50
180.0
 51
0.0
  0
ARC
  5
1D0
330
36
100
AcDbEntity
  8
0
100
AcDbCircle
 10
31.361827
 20
-775.099128
 30
0.0
 40
0.5
100
AcDbArc
 50
0.0
 51
180.0
  0
LINE
  5
1D1
330
36
100
AcDbEntity
  8
0
100
AcDbLine
 10
31.861827
 20
-790.099128
 30
0.0
 11
31.861827
 21
-799.0991280000002
 31
0.0
  0
LINE
  5
1D2
330
36
100
AcDbEntity
  8
0
100
AcDbLine
 10
30.861827
 20
-790.099128
 30
0.0
 11
30.861827
 21
-799.0991280000002
 31
0.0
  0
ARC
  5
1D3
330
36
100
AcDbEntity
  8
0
100
AcDbCircle
 10
31.361827
 20
-799.0991280000002
 30
0.0
 40
0.5
100
AcDbArc
 50
180.0
 51
0.0
  0
ARC
  5
1D4
330
36
100
AcDbEntity
  8
0
100
AcDbCircle
 10
31.361827
 20
-790.099128
 30
0.0
 40
0.5
100
AcDbArc
 50
0.0
 51
180.0
  0
LINE
  5
1D5
330
36
100
AcDbEntity
  8
0
100
AcDbLine
 10
29.861827
 20
-775.099128
 30
0.0
 11
29.861827
 21
-784.099128
 31
0.0
  0
LINE
  5
1D6
330
36
100
AcDbEntity
  8
0
100
AcDbLine
 10
28.861827
 20
-775.099128
 30
0.0
 11
28.861827
 21
-784.099128
 31
0.0
  0
ARC
  5
1D7
330
36
100
AcDbEntity
  8
0
100
AcDbCircle
 10
29.361827
 20
-784.099128
 30
0.0
 40
0.5
100
AcDbArc
 50
180.0
 51
0.0
  0
ARC
  5
1D8
330
36
100
AcDbEntity
  8
0
100
AcDbCircle
 10
29.361827
 20
-775.099128
 30
0.0
 40
0.5
100
AcDbArc
 50
0.0
 51
180.0
  0
LINE
  5
1D9
330
36
100
AcDbEntity
  8
0
100
AcDbLine
 10
29.861827
 20
-790.099128
 30
0.0
 11
29.861827
 21
-799.0991280000002
 31
0.0
  0
LINE
  5
1DA
330
36
100
AcDbEntity
  8
0
100
AcDbLine
 10
28.861827
 20
-790.099128
 30
0.0
 11
28.861827
 21
-799.0991280000002
 31
0.0
  0
ARC
  5
1DB
330
36
100
AcDbEntity
  8
0
100
AcDbCircle
 10
29.361827
 20
-799.0991280000002
 30
0.0
 40
0.5
100
AcDbArc
 50
180.0
 51
0.0
  0
ARC
  5
1DC
330
36
100
AcDbEntity
  8
0
100
AcDbCircle
 10
29.361827
 20
-790.099128
 30
0.0
 40
0.5
100
AcDbArc
 50
0.0
 51
180.0
  0
LINE
  5
1DD
330
36
100
AcDbEntity
  8
0
100
AcDbLine
 10
27.861827
 20
-775.099128
 30
0.0
 11
27.861827
 21
-784.099128
 31
0.0
  0
LINE
  5
1DE
330
36
100
AcDbEntity
  8
0
100
AcDbLine
 10
26.861827
 20
-775.099128
 30
0.0
 11
26.861827
 21
-784.099128
 31
0.0
  0
ARC
  5
1DF
330
36
100
AcDbEntity
  8
0
100
AcDbCircle
 10
27.361827
 20
-784.099128
 30
0.0
 40
0.5
100
AcDbArc
 50
180.0
 51
0.0
  0
ARC
  5
1E0
330
36
100
AcDbEntity
  8
0
100
AcDbCircle
 10
27.361827
 20
-775.099128
 30
0.0
 40
0.5
100
AcDbArc
 50
0.0
 51
180.0
  0
LINE
  5
1E1
330
36
100
AcDbEntity
  8
0
100
AcDbLine
 10
27.861827
 20
-790.099128
 30
0.0
 11
27.861827
 21
-799.0991280000002
 31
0.0
  0
LINE
  5
1E2
330
36
100
AcDbEntity
  8
0
100
AcDbLine
 10
26.861827
 20
-790.099128
 30
0.0
 11
26.861827
 21
-799.0991280000002
 31
0.0
  0
ARC
  5
1E3
330
36
100
AcDbEntity
  8
0
100
AcDbCircle
 10
27.361827
 20
-799.0991280000002
 30
0.0
 40
0.5
100
AcDbArc
 50
180.0
 51
0.0
  0
ARC
  5
1E4
330
36
100
AcDbEntity
  8
0
100
AcDbCircle
 10
27.361827
 20
-790.099128
 30
0.0
 40
0.5
100
AcDbArc
 50
0.0
 51
180.0
  0
LINE
  5
1E5
330
36
100
AcDbEntity
  8
0
100
AcDbLine
 10
25.861827
 20
-775.099128
 30
0.0
 11
25.861827
 21
-784.099128
 31
0.0
  0
LINE
  5
1E6
330
36
100
AcDbEntity
  8
0
100
AcDbLine
 10
24.861827
 20
-775.099128
 30
0.0
 11
24.861827
 21
-784.099128
 31
0.0
  0
ARC
  5
1E7
330
36
100
AcDbEntity
  8
0
100
AcDbCircle
 10
25.361827
 20
-784.099128
 30
0.0
 40
0.5
100
AcDbArc
 50
180.0
 51
0.0
  0
ARC
  5
1E8
330
36
100
AcDbEntity
  8
0
100
AcDbCircle
 10
25.361827
 20
-775.099128
 30
0.0
 40
0.5
100
AcDbArc
 50
0.0
 51
180.0
  0
LINE
  5
1E9
330
36
100
AcDbEntity
  8
0
100
AcDbLine
 10
25.861827
 20
-790.099128
 30
0.0
 11
25.861827
 21
-799.0991280000002
 31
0.0
  0
LINE
  5
1EA
330
36
100
AcDbEntity
  8
0
100
AcDbLine
 10
24.861827
 20
-790.099128
 30
0.0
 11
24.861827
 21
-799.0991280000002
 31
0.0
  0
ARC
  5
1EB
330
36
100
AcDbEntity
  8
0
100
AcDbCircle
 10
25.361827
 20
-799.0991280000002
 30
0.0
 40
0.5
100
AcDbArc
 50
180.0
 51
0.0
  0
ARC
  5
1EC
330
36
100
AcDbEntity
  8
0
100
AcDbCircle
 10
25.361827
 20
-790.099128
 30
0.0
 40
0.5
100
AcDbArc
 50
0.0
 51
180.0
  0
LINE
  5
1ED
330
36
100
AcDbEntity
  8
0
100
AcDbLine
 10
23.861827
 20
-775.099128
 30
0.0
 11
23.861827
 21
-784.099128
 31
0.0
  0
LINE
  5
1EE
330
36
100
AcDbEntity
  8
0
100
AcDbLine
 10
22.861827
 20
-775.099128
 30
0.0
 11
22.861827
 21
-784.099128
 31
0.0
  0
ARC
  5
1EF
330
36
100
AcDbEntity
  8
0
100
AcDbCircle
 10
23.361827
 20
-784.099128
 30
0.0
 40
0.5
100
AcDbArc
 50
180.0
 51
0.0
  0
ARC
  5
1F0
330
36
100
AcDbEntity
  8
0
100
AcDbCircle
 10
23.361827
 20
-775.099128
 30
0.0
 40
0.5
100
AcDbArc
 50
0.0
 51
180.0
  0
LINE
  5
1F1
330
36
100
AcDbEntity
  8
0
100
AcDbLine
 10
23.861827
 20
-790.099128
 30
0.0
 11
23.861827
 21
-799.0991280000002
 31
0.0
  0
LINE
  5
1F2
330
36
100
AcDbEntity
  8
0
100
AcDbLine
 10
22.861827
 20
-790.099128
 30
0.0
 11
22.861827
 21
-799.0991280000002
 31
0.0
  0
ARC
  5
1F3
330
36
100
AcDbEntity
  8
0
100
AcDbCircle
 10
23.361827
 20
-799.0991280000002
 30
0.0
 40
0.5
100
AcDbArc
 50
180.0
 51
0.0
  0
ARC
  5
1F4
330
36
100
AcDbEntity
  8
0
100
AcDbCircle
 10
23.361827
 20
-790.099128
 30
0.0
 40
0.5
100
AcDbArc
 50
0.0
 51
180.0
  0
LINE
  5
1F5
330
36
100
AcDbEntity
  8
0
100
AcDbLine
 10
21.861827
 20
-775.099128
 30
0.0
 11
21.861827
 21
-784.099128
 31
0.0
  0
LINE
  5
1F6
330
36
100
AcDbEntity
  8
0
100
AcDbLine
 10
20.861827
 20
-775.099128
 30
0.0
 11
20.861827
 21
-784.099128
 31
0.0
  0
ARC
  5
1F7
330
36
100
AcDbEntity
  8
0
100
AcDbCircle
 10
21.361827
 20
-784.099128
 30
0.0
 40
0.5
100
AcDbArc
 50
180.0
 51
0.0
  0
ARC
  5
1F8
330
36
100
AcDbEntity
  8
0
100
AcDbCircle
 10
21.361827
 20
-775.099128
 30
0.0
 40
0.5
100
AcDbArc
 50
0.0
 51
180.0
  0
LINE
  5
1F9
330
36
100
AcDbEntity
  8
0
100
AcDbLine
 10
21.861827
 20
-790.099128
 30
0.0
 11
21.861827
 21
-799.0991280000002
 31
0.0
  0
LINE
  5
1FA
330
36
100
AcDbEntity
  8
0
100
AcDbLine
 10
20.861827
 20
-790.099128
 30
0.0
 11
20.861827
 21
-799.0991280000002
 31
0.0
  0
ARC
  5
1FB
330
36
100
AcDbEntity
  8
0
100
AcDbCircle
 10
21.361827
 20
-799.0991280000002
 30
0.0
 40
0.5
100
AcDbArc
 50
180.0
 51
0.0
  0
ARC
  5
1FC
330
36
100
AcDbEntity
  8
0
100
AcDbCircle
 10
21.361827
 20
-790.099128
 30
0.0
 40
0.5
100
AcDbArc
 50
0.0
 51
180.0
  0
LINE
  5
1FD
330
36
100
AcDbEntity
  8
0
100
AcDbLine
 10
19.861827
 20
-775.099128
 30
0.0
 11
19.861827
 21
-784.099128
 31
0.0
  0
LINE
  5
1FE
330
36
100
AcDbEntity
  8
0
100
AcDbLine
 10
18.861827
 20
-775.099128
 30
0.0
 11
18.861827
 21
-784.099128
 31
0.0
  0
ARC
  5
1FF
330
36
100
AcDbEntity
  8
0
100
AcDbCircle
 10
19.36182699999999
 20
-784.099128
 30
0.0
 40
0.5
100
AcDbArc
 50
180.0
 51
0.0
  0
ARC
  5
200
330
36
100
AcDbEntity
  8
0
100
AcDbCircle
 10
19.36182699999999
 20
-775.099128
 30
0.0
 40
0.5
100
AcDbArc
 50
0.0
 51
180.0
  0
LINE
  5
201
330
36
100
AcDbEntity
  8
0
100
AcDbLine
 10
19.861827
 20
-790.099128
 30
0.0
 11
19.861827
 21
-799.0991280000002
 31
0.0
  0
LINE
  5
202
330
36
100
AcDbEntity
  8
0
100
AcDbLine
 10
18.861827
 20
-790.099128
 30
0.0
 11
18.861827
 21
-799.0991280000002
 31
0.0
  0
ARC
  5
203
330
36
100
AcDbEntity
  8
0
100
AcDbCircle
 10
19.36182699999999
 20
-799.0991280000002
 30
0.0
 40
0.5
100
AcDbArc
 50
180.0
 51
0.0
  0
ARC
  5
204
330
36
100
AcDbEntity
  8
0
100
AcDbCircle
 10
19.36182699999999
 20
-790.099128
 30
0.0
 40
0.5
100
AcDbArc
 50
0.0
 51
180.0
  0
LINE
  5
205
330
36
100
AcDbEntity
  8
0
100
AcDbLine
 10
17.861827
 20
-775.099128
 30
0.0
 11
17.861827
 21
-784.099128
 31
0.0
  0
LINE
  5
206
330
36
100
AcDbEntity
  8
0
100
AcDbLine
 10
16.86182699999999
 20
-775.099128
 30
0.0
 11
16.86182699999999
 21
-784.099128
 31
0.0
  0
ARC
  5
207
330
36
100
AcDbEntity
  8
0
100
AcDbCircle
 10
17.361827
 20
-784.099128
 30
0.0
 40
0.5
100
AcDbArc
 50
180.0
 51
0.0
  0
ARC
  5
208
330
36
100
AcDbEntity
  8
0
100
AcDbCircle
 10
17.361827
 20
-775.099128
 30
0.0
 40
0.5
100
AcDbArc
 50
0.0
 51
180.0
  0
LINE
  5
209
330
36
100
AcDbEntity
  8
0
100
AcDbLine
 10
17.861827
 20
-790.099128
 30
0.0
 11
17.861827
 21
-799.0991280000002
 31
0.0
  0
LINE
  5
20A
330
36
100
AcDbEntity
  8
0
100
AcDbLine
 10
16.86182699999999
 20
-790.099128
 30
0.0
 11
16.86182699999999
 21
-799.0991280000002
 31
0.0
  0
ARC
  5
20B
330
36
100
AcDbEntity
  8
0
100
AcDbCircle
 10
17.361827
 20
-799.0991280000002
 30
0.0
 40
0.5
100
AcDbArc
 50
180.0
 51
0.0
  0
ARC
  5
20C
330
36
100
AcDbEntity
  8
0
100
AcDbCircle
 10
17.361827
 20
-790.099128
 30
0.0
 40
0.5
100
AcDbArc
 50
0.0
 51
180.0
  0
LINE
  5
20D
330
36
100
AcDbEntity
  8
0
100
AcDbLine
 10
14.861827
 20
-775.099128
 30
0.0
 11
14.861827
 21
-784.099128
 31
0.0
  0
ARC
  5
20E
330
36
100
AcDbEntity
  8
0
100
AcDbCircle
 10
15.361827
 20
-784.099128
 30
0.0
 40
0.5
100
AcDbArc
 50
180.0
 51
0.0
  0
ARC
  5
20F
330
36
100
AcDbEntity
  8
0
100
AcDbCircle
 10
15.361827
 20
-775.099128
 30
0.0
 40
0.5
100
AcDbArc
 50
0.0
 51
180.0
  0
LINE
  5
210
330
36
100
AcDbEntity
  8
0
100
AcDbLine
 10
15.861827
 20
-790.099128
 30
0.0
 11
15.861827
 21
-799.0991280000002
 31
0.0
  0
LINE
  5
211
330
36
100
AcDbEntity
  8
0
100
AcDbLine
 10
14.861827
 20
-790.099128
 30
0.0
 11
14.861827
 21
-799.0991280000002
 31
0.0
  0
ARC
  5
212
330
36
100
AcDbEntity
  8
0
100
AcDbCircle
 10
15.361827
 20
-799.0991280000002
 30
0.0
 40
0.5
100
AcDbArc
 50
180.0
 51
0.0
  0
ARC
  5
213
330
36
100
AcDbEntity
  8
0
100
AcDbCircle
 10
15.361827
 20
-790.099128
 30
0.0
 40
0.5
100
AcDbArc
 50
0.0
 51
180.0
  0
LINE
  5
214
330
36
100
AcDbEntity
  8
0
100
AcDbLine
 10
15.861827
 20
-775.099128
 30
0.0
 11
15.861827
 21
-784.099128
 31
0.0
  0
LINE
  5
215
330
36
100
AcDbEntity
  8
0
100
AcDbLine
 10
-130.876273
 20
-847.8174650000001
 30
0.0
 11
-128.381171
 21
-768.1304240000002
 31
0.0
  0
ARC
  5
216
330
36
100
AcDbEntity
  8
0
100
AcDbCircle
 10
-119.380681
 20
-768.099128
 30
0.0
 40
9.0
100
AcDbArc
 50
90.0
 51
180.0
  0
ARC
  5
217
330
36
100
AcDbEntity
  8
0
100
AcDbCircle
 10
-121.880681
 20
-848.0991279999997
 30
0.0
 40
9.0
100
AcDbArc
 50
180.0
 51
270.0
  0
LINE
  5
218
330
36
100
AcDbEntity
  8
0
100
AcDbLine
 10
-121.880681
 20
-857.0991279999999
 30
0.0
 11
-76.88068100000002
 21
-857.0991279999999
 31
0.0
  0
ARC
  5
219
330
36
100
AcDbEntity
  8
0
100
AcDbCircle
 10
-76.88068100000002
 20
-848.0991279999997
 30
0.0
 40
9.0
100
AcDbArc
 50
270.0
 51
0.0
  0
LINE
  5
21A
330
36
100
AcDbEntity
  8
0
100
AcDbLine
 10
-67.88019300000001
 20
-848.1303630000001
 30
0.0
 11
-70.38019300000001
 21
-768.130363
 31
0.0
  0
LINE
  5
21B
330
36
100
AcDbEntity
  8
0
100
AcDbLine
 10
-119.380681
 20
-759.099128
 30
0.0
 11
-79.38068100000002
 21
-759.099128
 31
0.0
  0
CIRCLE
  5
22C
330
36
100
AcDbEntity
  8
0
100
AcDbCircle
 10
-99.535791
 20
-813.7694639999999
 30
0.0
 40
1.5
  0
CIRCLE
  5
22D
330
36
100
AcDbEntity
  8
0
100
AcDbCircle
 10
-99.44516700000001
 20
-846.1090039999996
 30
0.0
 40
1.5
  0
CIRCLE
  5
22E
330
36
100
AcDbEntity
  8
0
100
AcDbCircle
 10
-82.65307699999999
 20
-774.3531059999996
 30
0.0
 40
2.375
  0
LINE
  5
22F
330
36
100
AcDbEntity
  8
0
100
AcDbLine
 10
156.3209253029724
 20
-741.253495198014
 30
0.0
 11
185.2452547798657
 21
-741.253495198014
 31
0.0
  0
LINE
  5
230
330
36
100
AcDbEntity
  8
0
100
AcDbLine
 10
160.3525969590669
 20
-749.3102538447855
 30
0.0
 11
184.4810015033134
 21
-749.3102538447855
 31
0.0
  0
CIRCLE
  5
231
330
36
100
AcDbEntity
  8
0
100
AcDbCircle
 10
121.111827
 20
-840.599128
 30
0.0
 40
2.0
  0
CIRCLE
  5
232
330
36
100
AcDbEntity
  8
0
100
AcDbCircle
 10
121.111827
 20
-835.5991280000001
 30
0.0
 40
2.0
  0
CIRCLE
  5
233
330
36
100
AcDbEntity
  8
0
100
AcDbCircle
 10
-6.138173
 20
-835.5991280000001
 30
0.0
 40
2.0
  0
CIRCLE
  5
234
330
36
100
AcDbEntity
  8
0
100
AcDbCircle
 10
-6.138173
 20
-840.599128
 30
0.0
 40
2.0
  0
LINE
  5
235
330
36
100
AcDbEntity
  8
0
100
AcDbLine
 10
-109.267395
 20
-854.6944789999999
 30
0.0
 11
-109.267395
 21
-856.586831
 31
0.0
  0
LINE
  5
236
330
36
100
AcDbEntity
  8
0
100
AcDbLine
 10
-109.267395
 20
-856.586831
 30
0.0
 11
-108.217585
 21
-854.8186199999999
 31
0.0
  0
LINE
  5
237
330
36
100
AcDbEntity
  8
0
100
AcDbLine
 10
-109.267395
 20
-854.6944789999999
 30
0.0
 11
-110.324848
 21
-856.428013
 31
0.0
  0
LINE
  5
238
330
36
100
AcDbEntity
  8
0
100
AcDbLine
 10
40.516889
 20
-911.7809269999996
 30
0.0
 11
40.516889
 21
-916.6449270000001
 31
0.0
  0
LINE
  5
239
330
36
100
AcDbEntity
  8
0
100
AcDbLine
 10
38.85288900000001
 20
-911.7809269999996
 30
0.0
 11
40.516889
 21
-911.7809269999996
 31
0.0
  0
LINE
  5
23A
330
36
100
AcDbEntity
  8
0
100
AcDbLine
 10
38.85288900000001
 20
-911.7809269999996
 30
0.0
 11
38.85288900000001
 21
-916.6449270000001
 31
0.0
  0
LINE
  5
23B
330
36
100
AcDbEntity
  8
0
100
AcDbLine
 10
38.91688900000001
 20
-916.6449270000001
 30
0.0
 11
40.516889
 21
-916.6449270000001
 31
0.0
  0
LINE
  5
23C
330
36
100
AcDbEntity
  8
0
100
AcDbLine
 10
44.164889
 20
-911.7809269999996
 30
0.0
 11
45.828889
 21
-911.7809269999996
 31
0.0
  0
LINE
  5
23D
330
36
100
AcDbEntity
  8
0
100
AcDbLine
 10
44.164889
 20
-906.9169269999999
 30
0.0
 11
44.164889
 21
-911.7809269999996
 31
0.0
  0
LINE
  5
23E
330
36
100
AcDbEntity
  8
0
100
AcDbLine
 10
45.828889
 20
-906.9169269999999
 30
0.0
 11
45.828889
 21
-911.7809269999996
 31
0.0
  0
LINE
  5
23F
330
36
100
AcDbEntity
  8
0
100
AcDbLine
 10
44.164889
 20
-906.9169269999999
 30
0.0
 11
45.828889
 21
-906.9169269999999
 31
0.0
  0
LINE
  5
240
330
36
100
AcDbEntity
  8
0
100
AcDbLine
 10
81.27097500000003
 20
-909.348927
 30
0.0
 11
45.828889
 21
-909.348927
 31
0.0
  0
LINE
  5
241
330
36
100
AcDbEntity
  8
0
100
AcDbLine
 10
37.25288900000001
 20
-904.868927
 30
0.0
 11
42.116889
 21
-904.868927
 31
0.0
  0
LINE
  5
242
330
36
100
AcDbEntity
  8
0
100
AcDbLine
 10
37.25288900000001
 20
-903.076927
 30
0.0
 11
42.116889
 21
-903.076927
 31
0.0
  0
LINE
  5
243
330
36
100
AcDbEntity
  8
0
100
AcDbLine
 10
42.116889
 20
-903.076927
 30
0.0
 11
42.116889
 21
-904.868927
 31
0.0
  0
LINE
  5
244
330
36
100
AcDbEntity
  8
0
100
AcDbLine
 10
37.25288900000001
 20
-903.076927
 30
0.0
 11
37.25288900000001
 21
-904.868927
 31
0.0
  0
LINE
  5
245
330
36
100
AcDbEntity
  8
0
100
AcDbLine
 10
39.684889
 20
-903.2049269999999
 30
0.0
 11
39.684889
 21
-896.577042
 31
0.0
  0
LINE
  5
246
330
36
100
AcDbEntity
  8
0
100
AcDbLine
 10
35.204889
 20
-906.9169269999999
 30
0.0
 11
35.204889
 21
-911.7809269999996
 31
0.0
  0
LINE
  5
247
330
36
100
AcDbEntity
  8
0
100
AcDbLine
 10
33.540889
 20
-906.9169269999999
 30
0.0
 11
35.204889
 21
-906.9169269999999
 31
0.0
  0
LINE
  5
248
330
36
100
AcDbEntity
  8
0
100
AcDbLine
 10
33.540889
 20
-911.7809269999996
 30
0.0
 11
35.204889
 21
-911.7809269999996
 31
0.0
  0
LINE
  5
249
330
36
100
AcDbEntity
  8
0
100
AcDbLine
 10
33.540889
 20
-906.9169269999999
 30
0.0
 11
33.540889
 21
-911.7809269999996
 31
0.0
  0
LINE
  5
24A
330
36
100
AcDbEntity
  8
0
100
AcDbLine
 10
139.553021
 20
-893.6522065864432
 30
0.0
 11
178.928021
 21
-893.6522065864432
 31
0.0
  0
LINE
  5
267
330
36
100
AcDbEntity
  8
0
 62
     3
100
AcDbLine
 10
191.032077
 20
-967.786188
 30
0.0
 11
191.032077
 21
-944.7861880000001
 31
0.0
  0
LINE
  5
269
330
36
100
AcDbEntity
  8
0
 62
     3
100
AcDbLine
 10
137.978468
 20
-974.786188
 30
0.0
 11
137.978468
 21
-960.7861879999999
 31
0.0
  0
TEXT
  5
26B
330
36
100
AcDbEntity
  8
0
 62
     3
100
AcDbText
 10
167.042396
 20
-948.5810719999999
 30
0.0
 40
2.0
  1
A
 41
0.7
100
AcDbText
  0
TEXT
  5
26C
330
36
100
AcDbEntity
  8
0
 62
     3
100
AcDbText
 10
169.577682
 20
-948.5810719999999
 30
0.0
 40
2.0
  1
P
 41
0.7
100
AcDbText
  0
TEXT
  5
26D
330
36
100
AcDbEntity
  8
0
 62
     3
100
AcDbText
 10
172.112968
 20
-948.5810719999999
 30
0.0
 40
2.0
  1
P
 41
0.7
100
AcDbText
  0
TEXT
  5
26E
330
36
100
AcDbEntity
  8
0
 62
     3
100
AcDbText
 10
174.648254
 20
-948.5810719999999
 30
0.0
 40
2.0
  1
D
 41
0.7
100
AcDbText
  0
TEXT
  5
26F
330
36
100
AcDbEntity
  8
0
 62
     3
100
AcDbText
 10
180.016937
 20
-948.5810719999999
 30
0.0
 40
2.0
  1
C
 41
0.7
100
AcDbText
  0
TEXT
  5
270
330
36
100
AcDbEntity
  8
0
 62
     3
100
AcDbText
 10
182.552224
 20
-948.5810719999999
 30
0.0
 40
2.0
  1
H
 41
0.7
100
AcDbText
  0
TEXT
  5
271
330
36
100
AcDbEntity
  8
0
 62
     3
100
AcDbText
 10
185.08751
 20
-948.5810719999999
 30
0.0
 40
2.0
  1
C
 41
0.7
100
AcDbText
  0
TEXT
  5
272
330
36
100
AcDbEntity
  8
0
 62
     3
100
AcDbText
 10
187.622796
 20
-948.5810719999999
 30
0.0
 40
2.0
  1
K
 41
0.7
100
AcDbText
  0
TEXT
  5
273
330
36
100
AcDbEntity
  8
0
 62
     3
100
AcDbText
 10
193.296763
 20
-948.5810719999999
 30
0.0
 40
2.0
  1
DESN
 41
1.216762999999998
100
AcDbText
  0
TEXT
  5
274
330
36
100
AcDbEntity
  8
0
 62
     3
100
AcDbText
 10
108.290404
 20
-977.9275699999999
 30
0.0
 40
2.0
  1
NICHIDO IND.CO.LTD
 41
1.274876
100
AcDbText
  0
LINE
  5
275
330
36
100
AcDbEntity
  8
0
 62
     3
100
AcDbLine
 10
118.673433
 20
-944.7861880000001
 30
0.0
 11
118.673433
 21
-967.786188
 31
0.0
  0
LINE
  5
276
330
36
100
AcDbEntity
  8
0
 62
     3
100
AcDbLine
 10
165.032077
 20
-944.7861880000001
 30
0.0
 11
165.032077
 21
-984.451911
 31
0.0
  0
LINE
  5
27B
330
36
100
AcDbEntity
  8
0
 62
     3
100
AcDbLine
 10
178.032077
 20
-944.7861880000001
 30
0.0
 11
178.032077
 21
-974.786188
 31
0.0
  0
TEXT
  5
27C
330
36
100
AcDbEntity
  8
0
 62
     3
100
AcDbText
 10
166.144522
 20
-973.9215020000001
 30
0.0
 40
3.2
  1
作成日
 41
1.017225999999997
100
AcDbText
  0
LINE
  5
27D
330
36
100
AcDbEntity
  8
0
 62
     3
100
AcDbLine
 10
216.731441
 20
-944.7861880000001
 30
0.0
 11
105.427998
 21
-944.7861880000001
 31
0.0
  0
LINE
  5
27E
330
36
100
AcDbEntity
  8
0
 62
     3
100
AcDbLine
 10
204.032077
 20
-967.786188
 30
0.0
 11
204.032077
 21
-944.7861880000001
 31
0.0
  0
TEXT
  5
27F
330
36
100
AcDbEntity
  8
0
 62
     3
100
AcDbText
 10
207.355881
 20
-948.495254
 30
0.0
 40
1.8
  1
D
 41
0.666667
100
AcDbText
  0
TEXT
  5
280
330
36
100
AcDbEntity
  8
0
 62
     3
100
AcDbText
 10
210.172509
 20
-948.495254
 30
0.0
 40
1.8
  1
E
 41
0.666667
100
AcDbText
  0
TEXT
  5
281
330
36
100
AcDbEntity
  8
0
 62
     3
100
AcDbText
 10
212.989137
 20
-948.495254
 30
0.0
 40
1.8
  1
F
 41
0.666667
100
AcDbText
  0
TEXT
  5
282
330
36
100
AcDbEntity
  8
0
 62
     3
100
AcDbText
 10
207.355881
 20
-952.4878069999999
 30
0.0
 40
3.2
  1
製図
 41
1.076369
100
AcDbText
  0
LINE
  5
283
330
36
100
AcDbEntity
  8
0
 62
     3
100
AcDbLine
 10
105.427998
 20
-944.7861880000001
 30
0.0
 11
105.427998
 21
-984.451911
 31
0.0
  0
TEXT
  5
284
330
36
100
AcDbEntity
  8
0
 62
     3
100
AcDbText
 10
106.804651
 20
-984.1194450000001
 30
0.0
 40
5.0
  1
日動工業株式会社
 41
0.833333
100
AcDbText
  0
LINE
  5
285
330
36
100
AcDbEntity
  8
0
 62
     3
100
AcDbLine
 10
148.310402
 20
-960.7861880000003
 30
0.0
 11
148.310402
 21
-984.451911
 31
0.0
  0
LINE
  5
286
330
36
100
AcDbEntity
  8
0
 62
     3
100
AcDbLine
 10
148.310402
 20
-979.6190499999999
 30
0.0
 11
165.032077
 21
-979.6190499999999
 31
0.0
  0
TEXT
  5
287
330
36
100
AcDbEntity
  8
0
 62
     3
100
AcDbText
 10
148.897004
 20
-978.802619
 30
0.0
 40
3.2
  1
出図コード
 41
0.8356860000000001
100
AcDbText
  0
LINE
  5
289
330
36
100
AcDbEntity
  8
0
 62
     3
100
AcDbLine
 10
105.427998
 20
-974.786188
 30
0.0
 11
216.731441
 21
-974.786188
 31
0.0
  0
LINE
  5
28B
330
36
100
AcDbEntity
  8
0
 62
     3
100
AcDbLine
 10
105.427998
 20
-953.7861880000001
 30
0.0
 11
216.731441
 21
-953.7861880000001
 31
0.0
  0
LINE
  5
291
330
36
100
AcDbEntity
  8
0
 62
     3
100
AcDbLine
 10
105.427998
 20
-960.7861879999999
 30
0.0
 11
165.032077
 21
-960.7861879999999
 31
0.0
  0
LINE
  5
297
330
36
100
AcDbEntity
  8
0
 62
     3
100
AcDbLine
 10
105.427998
 20
-967.786188
 30
0.0
 11
216.731441
 21
-967.786188
 31
0.0
  0
TEXT
  5
298
330
36
100
AcDbEntity
  8
0
 62
     3
100
AcDbText
 10
148.764456
 20
-983.9674622909814
 30
0.0
 40
3.2
  1
ZK-A3X
 41
0.8112849999999999
100
AcDbText
  0
TEXT
  5
299
330
36
100
AcDbEntity
  8
0
 62
     3
100
AcDbText
 10
107.245395
 20
-948.6166629999999
 30
0.0
 40
2.0
  1
CONPONENTS
 41
0.5331600000000001
100
AcDbText
  0
TEXT
  5
29A
330
36
100
AcDbEntity
  8
0
 62
     3
100
AcDbText
 10
106.895669
 20
-967.5488389999999
 30
0.0
 40
3.0
  1
材
 41
0.833333
100
AcDbText
  0
TEXT
  5
29B
330
36
100
AcDbEntity
  8
0
 62
     3
100
AcDbText
 10
114.431311
 20
-967.5488389999999
 30
0.0
 40
3.0
  1
質
 41
0.833333
100
AcDbText
  0
TEXT
  5
29C
330
36
100
AcDbEntity
  8
0
 62
     3
100
AcDbText
 10
106.9837389999999
 20
-956.9243150000001
 30
0.0
 40
2.0
  1
MODEL
 41
1.031072999999999
100
AcDbText
  0
TEXT
  5
29D
330
36
100
AcDbEntity
  8
0
 62
     3
100
AcDbText
 10
106.895669
 20
-963.866531
 30
0.0
 40
2.0
  1
MATERIAL
 41
0.659278
100
AcDbText
  0
TEXT
  5
29E
330
36
100
AcDbEntity
  8
0
 62
     3
100
AcDbText
 10
138.202949
 20
-967.5488389999999
 30
0.0
 40
3.0
  1
備
 41
0.833333
100
AcDbText
  0
TEXT
  5
29F
330
36
100
AcDbEntity
  8
0
 62
     3
100
AcDbText
 10
144.935951
 20
-967.5488389999999
 30
0.0
 40
3.0
  1
考
 41
0.833333
100
AcDbText
  0
TEXT
  5
2A0
330
36
100
AcDbEntity
  8
0
 62
     3
100
AcDbText
 10
138.5679056771698
 20
-963.866531
 30
0.0
 40
2.0
  1
REMARKS
 41
0.675794
100
AcDbText
  0
TEXT
  5
2A1
330
36
100
AcDbEntity
  8
0
 62
     3
100
AcDbText
 10
108.485398
 20
-970.7866519999999
 30
0.0
 40
2.0
  1
3AD
 41
1.42614
100
AcDbText
  0
TEXT
  5
2A2
330
36
100
AcDbEntity
  8
0
 62
     3
100
AcDbText
 10
117.796377
 20
-970.620918
 30
0.0
 40
2.0
  1
ANGLE
 41
1.669883999999995
100
AcDbText
  0
TEXT
  5
2A3
330
36
100
AcDbEntity
  8
0
 62
     3
100
AcDbText
 10
138.730265
 20
-970.9977589999999
 30
0.0
 40
2.0
  1
SCALE
 41
0.7719630000000001
100
AcDbText
  0
TEXT
  5
2A4
330
36
100
AcDbEntity
  8
0
 62
     3
100
AcDbText
 10
108.171528
 20
-974.786188
 30
0.0
 40
3.0
  1
第
 41
0.833333
100
AcDbText
  0
TEXT
  5
2A5
330
36
100
AcDbEntity
  8
0
 62
     3
100
AcDbText
 10
115.958378
 20
-974.786188
 30
0.0
 40
3.0
  1
三
 41
0.833333
100
AcDbText
  0
TEXT
  5
2A6
330
36
100
AcDbEntity
  8
0
 62
     3
100
AcDbText
 10
123.745228
 20
-974.786188
 30
0.0
 40
3.0
  1
角
 41
0.833333
100
AcDbText
  0
TEXT
  5
2A7
330
36
100
AcDbEntity
  8
0
 62
     3
100
AcDbText
 10
131.532077
 20
-974.786188
 30
0.0
 40
3.0
  1
法
 41
0.833333
100
AcDbText
  0
TEXT
  5
2A8
330
36
100
AcDbEntity
  8
0
 62
     3
100
AcDbText
 10
138.59347
 20
-974.4977589999999
 30
0.0
 40
3.0
  1
尺
 41
0.833333
100
AcDbText
  0
TEXT
  5
2A9
330
36
100
AcDbEntity
  8
0
 62
     3
100
AcDbText
 10
145.326471
 20
-974.4977589999999
 30
0.0
 40
3.0
  1
度
 41
0.833333
100
AcDbText
  0
TEXT
  5
2AA
330
36
100
AcDbEntity
  8
0
 62
     3
100
AcDbText
 10
167.909742
 20
-952.3284589999999
 30
0.0
 40
3.0
  1
承認
 41
1.089472999999999
100
AcDbText
  0
TEXT
  5
2AB
330
36
100
AcDbEntity
  8
0
 62
     3
100
AcDbText
 10
181.152622
 20
-952.386188
 30
0.0
 40
3.0
  1
検図
 41
0.931761
100
AcDbText
  0
TEXT
  5
2AC
330
36
100
AcDbEntity
  8
0
 62
     3
100
AcDbText
 10
194.153019
 20
-952.386188
 30
0.0
 40
3.0
  1
設
 41
0.833333
100
AcDbText
  0
TEXT
  5
2AD
330
36
100
AcDbEntity
  8
0
 62
     3
100
AcDbText
 10
198.642887
 20
-952.386188
 30
0.0
 40
3.0
  1
計
 41
0.833333
100
AcDbText
  0
TEXT
  5
2AE
330
36
100
AcDbEntity
  8
0
 62
     3
100
AcDbText
 10
107.315502
 20
-952.2136359999999
 30
0.0
 40
3.0
  1
品
 41
0.833333
100
AcDbText
  0
TEXT
  5
2AF
330
36
100
AcDbEntity
  8
0
 62
     3
100
AcDbText
 10
114.851144
 20
-952.2136359999999
 30
0.0
 40
3.0
  1
名
 41
0.833333
100
AcDbText
  0
TEXT
  5
2B0
330
36
100
AcDbEntity
  8
0
 62
     3
100
AcDbText
 10
106.9837389999999
 20
-960.525108178721
 30
0.0
 40
3.0
  1
型
 41
0.833333
100
AcDbText
  0
TEXT
  5
2B1
330
36
100
AcDbEntity
  8
0
 62
     3
100
AcDbText
 10
114.53183
 20
-960.525108178721
 30
0.0
 40
3.0
  1
式
 41
0.833333
100
AcDbText
  0
TEXT
  5
2B2
330
36
100
AcDbEntity
  8
0
 62
     3
100
AcDbText
 10
167.7546555809165
 20
-983.3918989999999
 30
0.0
 40
6.299999999999998
  1
RTB-100D-100V
 41
0.6
  7
高6.3
100
AcDbText
  0
ARC
  5
2B3
330
36
100
AcDbEntity
  8
0
100
AcDbCircle
 10
-79.38068100000002
 20
-768.099128
 30
0.0
 40
9.0
100
AcDbArc
 50
0.0
 51
90.0
  0
LINE
  5
2E4
330
36
100
AcDbEntity
  8
0
100
AcDbLine
 10
-96.445167
 20
-836.859004
 30
0.0
 11
-102.445167
 21
-836.859004
 31
0.0
  0
LINE
  5
2E5
330
36
100
AcDbEntity
  8
0
100
AcDbLine
 10
-96.445167
 20
-824.359004
 30
0.0
 11
-97.82016699999999
 21
-824.359004
 31
0.0
  0
LINE
  5
2E6
330
36
100
AcDbEntity
  8
0
100
AcDbLine
 10
-101.070167
 20
-824.359004
 30
0.0
 11
-102.445167
 21
-824.359004
 31
0.0
  0
LINE
  5
2E7
330
36
100
AcDbEntity
  8
0
100
AcDbLine
 10
-97.82016699999999
 20
-823.609004
 30
0.0
 11
-97.82016699999999
 21
-834.359004
 31
0.0
  0
LINE
  5
2E8
330
36
100
AcDbEntity
  8
0
100
AcDbLine
 10
-101.070167
 20
-823.609004
 30
0.0
 11
-101.070167
 21
-834.359004
 31
0.0
  0
LINE
  5
2E9
330
36
100
AcDbEntity
  8
0
100
AcDbLine
 10
-97.82016699999999
 20
-834.359004
 30
0.0
 11
-101.070167
 21
-834.359004
 31
0.0
  0
LINE
  5
2EA
330
36
100
AcDbEntity
  8
0
100
AcDbLine
 10
-97.57016700000001
 20
-828.109004
 30
0.0
 11
-97.82016699999999
 21
-828.109004
 31
0.0
  0
LINE
  5
2EB
330
36
100
AcDbEntity
  8
0
100
AcDbLine
 10
-101.070167
 20
-828.109004
 30
0.0
 11
-101.320167
 21
-828.109004
 31
0.0
  0
LINE
  5
2EC
330
36
100
AcDbEntity
  8
0
100
AcDbLine
 10
-97.57016700000001
 20
-834.6090039999996
 30
0.0
 11
-97.82016699999999
 21
-834.359004
 31
0.0
  0
TEXT
  5
2ED
330
36
100
AcDbEntity
  8
0
100
AcDbText
 10
-89.37022199999999
 20
-832.2008440000001
 30
0.0
 40
3.839999999999998
  1
100V
 41
1.090908999999999
100
AcDbText
  0
TEXT
  5
2EE
330
36
100
AcDbEntity
  8
0
100
AcDbText
 10
-124.211141
 20
-832.2008440000001
 30
0.0
 40
3.839999999999998
  1
100V
 41
1.090908999999999
100
AcDbText
  0
LINE
  5
2EF
330
36
100
AcDbEntity
  8
0
 62
     3
100
AcDbLine
 10
-101.42214
 20
-758.099128
 30
0.0
 11
-97.339222
 21
-758.099128
 31
0.0
  0
LINE
  5
2F0
330
36
100
AcDbEntity
  8
0
 62
     3
100
AcDbLine
 10
-77.05885600000002
 20
-847.0991279999998
 30
0.0
 11
-86.702507
 21
-847.0991279999998
 31
0.0
  0
ARC
  5
2F1
330
36
100
AcDbEntity
  8
0
 62
     3
100
AcDbCircle
 10
-81.880681
 20
-840.0991279999997
 30
0.0
 40
8.5
100
AcDbArc
 50
124.560322
 51
235.439678
  0
LINE
  5
2F2
330
36
100
AcDbEntity
  8
0
 62
     3
100
AcDbLine
 10
-112.058856
 20
-847.0991279999998
 30
0.0
 11
-121.702507
 21
-847.0991279999998
 31
0.0
  0
ARC
  5
2F3
330
36
100
AcDbEntity
  8
0
 62
     3
100
AcDbCircle
 10
-116.880681
 20
-840.0991279999997
 30
0.0
 40
8.5
100
AcDbArc
 50
304.560322
 51
55.439678
  0
ARC
  5
2F4
330
36
100
AcDbEntity
  8
0
 62
     3
100
AcDbCircle
 10
-116.880681
 20
-840.0991279999997
 30
0.0
 40
8.5
100
AcDbArc
 50
124.560322
 51
235.439678
  0
LINE
  5
2F5
330
36
100
AcDbEntity
  8
0
 62
     3
100
AcDbLine
 10
-112.058856
 20
-833.099128
 30
0.0
 11
-121.702507
 21
-833.099128
 31
0.0
  0
LINE
  5
2F6
330
36
100
AcDbEntity
  8
0
 62
     3
100
AcDbLine
 10
-112.058856
 20
-827.5991280000001
 30
0.0
 11
-121.702507
 21
-827.5991280000001
 31
0.0
  0
ARC
  5
2F7
330
36
100
AcDbEntity
  8
0
 62
     3
100
AcDbCircle
 10
-116.880681
 20
-820.599128
 30
0.0
 40
8.5
100
AcDbArc
 50
124.560322
 51
235.439678
  0
LINE
  5
2F8
330
36
100
AcDbEntity
  8
0
 62
     3
100
AcDbLine
 10
-112.058856
 20
-813.599128
 30
0.0
 11
-121.702507
 21
-813.599128
 31
0.0
  0
ARC
  5
2F9
330
36
100
AcDbEntity
  8
0
 62
     3
100
AcDbCircle
 10
-116.880681
 20
-820.599128
 30
0.0
 40
8.5
100
AcDbArc
 50
304.560322
 51
55.439678
  0
ARC
  5
2FA
330
36
100
AcDbEntity
  8
0
 62
     3
100
AcDbCircle
 10
-81.880681
 20
-820.599128
 30
0.0
 40
8.5
100
AcDbArc
 50
124.560322
 51
235.439678
  0
LINE
  5
2FB
330
36
100
AcDbEntity
  8
0
 62
     3
100
AcDbLine
 10
-77.05885600000002
 20
-813.599128
 30
0.0
 11
-86.702507
 21
-813.599128
 31
0.0
  0
ARC
  5
2FC
330
36
100
AcDbEntity
  8
0
 62
     3
100
AcDbCircle
 10
-81.880681
 20
-820.599128
 30
0.0
 40
8.5
100
AcDbArc
 50
304.560322
 51
55.439678
  0
LINE
  5
2FD
330
36
100
AcDbEntity
  8
0
 62
     3
100
AcDbLine
 10
-77.05885600000002
 20
-827.5991280000001
 30
0.0
 11
-86.702507
 21
-827.5991280000001
 31
0.0
  0
LINE
  5
2FE
330
36
100
AcDbEntity
  8
0
 62
     3
100
AcDbLine
 10
-77.05885600000002
 20
-833.099128
 30
0.0
 11
-86.702507
 21
-833.099128
 31
0.0
  0
ARC
  5
303
330
36
100
AcDbEntity
  8
0
 62
     3
100
AcDbCircle
 10
-81.880681
 20
-840.0991279999997
 30
0.0
 40
8.5
100
AcDbArc
 50
304.560322
 51
55.439678
  0
LINE
  5
304
330
36
100
AcDbEntity
  8
0
100
AcDbLine
 10
-79.58068100000001
 20
-834.949128
 30
0.0
 11
-77.33068100000001
 21
-834.949128
 31
0.0
  0
ARC
  5
305
330
36
100
AcDbEntity
  8
0
100
AcDbCircle
 10
-79.58068100000001
 20
-835.4491279999999
 30
0.0
 40
0.5
100
AcDbArc
 50
90.0
 51
180.0
  0
LINE
  5
306
330
36
100
AcDbEntity
  8
0
100
AcDbLine
 10
-76.83068100000001
 20
-835.4491279999999
 30
0.0
 11
-76.83068100000001
 21
-841.599128
 31
0.0
  0
ARC
  5
307
330
36
100
AcDbEntity
  8
0
100
AcDbCircle
 10
-77.33068100000001
 20
-841.599128
 30
0.0
 40
0.5
100
AcDbArc
 50
270.0
 51
0.0
  0
ARC
  5
308
330
36
100
AcDbEntity
  8
0
100
AcDbCircle
 10
-86.430681
 20
-841.1741279999999
 30
0.0
 40
0.5
100
AcDbArc
 50
180.0
 51
270.0
  0
LINE
  5
309
330
36
100
AcDbEntity
  8
0
100
AcDbLine
 10
-86.93068100000003
 20
-835.874128
 30
0.0
 11
-86.93068100000003
 21
-841.1741279999999
 31
0.0
  0
ARC
  5
30A
330
36
100
AcDbEntity
  8
0
100
AcDbCircle
 10
-86.430681
 20
-835.874128
 30
0.0
 40
0.5
100
AcDbArc
 50
90.0
 51
180.0
  0
LINE
  5
30B
330
36
100
AcDbEntity
  8
0
100
AcDbLine
 10
-86.430681
 20
-835.3741280000001
 30
0.0
 11
-84.18068100000002
 21
-835.3741280000001
 31
0.0
  0
ARC
  5
30C
330
36
100
AcDbEntity
  8
0
100
AcDbCircle
 10
-84.18068100000002
 20
-835.874128
 30
0.0
 40
0.5
100
AcDbArc
 50
0.0
 51
90.0
  0
ARC
  5
30D
330
36
100
AcDbEntity
  8
0
100
AcDbCircle
 10
-83.230681
 20
-846.0241279999996
 30
0.0
 40
0.5
100
AcDbArc
 50
180.0
 51
270.0
  0
LINE
  5
30E
330
36
100
AcDbEntity
  8
0
100
AcDbLine
 10
-83.230681
 20
-846.5241279999997
 30
0.0
 11
-82.63068100000003
 21
-846.5241279999997
 31
0.0
  0
LINE
  5
30F
330
36
100
AcDbEntity
  8
0
100
AcDbLine
 10
-81.13068100000003
 20
-846.5241279999997
 30
0.0
 11
-82.63068100000003
 21
-846.5241279999997
 31
0.0
  0
LINE
  5
310
330
36
100
AcDbEntity
  8
0
100
AcDbLine
 10
-81.13068100000003
 20
-846.5241279999997
 30
0.0
 11
-80.530681
 21
-846.5241279999997
 31
0.0
  0
ARC
  5
311
330
36
100
AcDbEntity
  8
0
100
AcDbCircle
 10
-80.530681
 20
-846.0241279999996
 30
0.0
 40
0.5
100
AcDbArc
 50
270.0
 51
0.0
  0
LINE
  5
312
330
36
100
AcDbEntity
  8
0
100
AcDbLine
 10
-76.83068100000001
 20
-815.9491279999999
 30
0.0
 11
-76.83068100000001
 21
-822.0991280000001
 31
0.0
  0
ARC
  5
313
330
36
100
AcDbEntity
  8
0
100
AcDbCircle
 10
-77.33068100000001
 20
-822.0991280000001
 30
0.0
 40
0.5
100
AcDbArc
 50
270.0
 51
0.0
  0
LINE
  5
314
330
36
100
AcDbEntity
  8
0
100
AcDbLine
 10
-86.93068100000003
 20
-816.3741279999996
 30
0.0
 11
-86.93068100000003
 21
-821.674128
 31
0.0
  0
ARC
  5
315
330
36
100
AcDbEntity
  8
0
100
AcDbCircle
 10
-83.230681
 20
-826.5241279999996
 30
0.0
 40
0.5
100
AcDbArc
 50
180.0
 51
270.0
  0
LINE
  5
316
330
36
100
AcDbEntity
  8
0
100
AcDbLine
 10
-83.230681
 20
-827.024128
 30
0.0
 11
-82.63068100000003
 21
-827.024128
 31
0.0
  0
LINE
  5
317
330
36
100
AcDbEntity
  8
0
100
AcDbLine
 10
-81.13068100000003
 20
-827.024128
 30
0.0
 11
-80.530681
 21
-827.024128
 31
0.0
  0
LINE
  5
318
330
36
100
AcDbEntity
  8
0
100
AcDbLine
 10
-81.13068100000003
 20
-827.024128
 30
0.0
 11
-82.63068100000003
 21
-827.024128
 31
0.0
  0
ARC
  5
319
330
36
100
AcDbEntity
  8
0
100
AcDbCircle
 10
-80.530681
 20
-826.5241279999996
 30
0.0
 40
0.5
100
AcDbArc
 50
270.0
 51
0.0
  0
LINE
  5
31A
330
36
100
AcDbEntity
  8
0
100
AcDbLine
 10
-79.58068100000001
 20
-815.449128
 30
0.0
 11
-77.33068100000001
 21
-815.449128
 31
0.0
  0
ARC
  5
31B
330
36
100
AcDbEntity
  8
0
100
AcDbCircle
 10
-77.33068100000001
 20
-815.9491279999999
 30
0.0
 40
0.5
100
AcDbArc
 50
0.0
 51
90.0
  0
ARC
  5
31C
330
36
100
AcDbEntity
  8
0
100
AcDbCircle
 10
-79.58068100000001
 20
-815.9491279999999
 30
0.0
 40
0.5
100
AcDbArc
 50
90.0
 51
180.0
  0
ARC
  5
31D
330
36
100
AcDbEntity
  8
0
100
AcDbCircle
 10
-86.430681
 20
-816.3741279999996
 30
0.0
 40
0.5
100
AcDbArc
 50
90.0
 51
180.0
  0
LINE
  5
31E
330
36
100
AcDbEntity
  8
0
100
AcDbLine
 10
-86.430681
 20
-815.874128
 30
0.0
 11
-84.18068100000002
 21
-815.874128
 31
0.0
  0
ARC
  5
31F
330
36
100
AcDbEntity
  8
0
100
AcDbCircle
 10
-84.18068100000002
 20
-816.3741279999996
 30
0.0
 40
0.5
100
AcDbArc
 50
0.0
 51
90.0
  0
ARC
  5
320
330
36
100
AcDbEntity
  8
0
100
AcDbCircle
 10
-112.330681
 20
-835.4491279999999
 30
0.0
 40
0.5
100
AcDbArc
 50
0.0
 51
90.0
  0
LINE
  5
321
330
36
100
AcDbEntity
  8
0
100
AcDbLine
 10
-114.580681
 20
-834.949128
 30
0.0
 11
-112.330681
 21
-834.949128
 31
0.0
  0
ARC
  5
322
330
36
100
AcDbEntity
  8
0
100
AcDbCircle
 10
-114.580681
 20
-835.4491279999999
 30
0.0
 40
0.5
100
AcDbArc
 50
90.0
 51
180.0
  0
LINE
  5
323
330
36
100
AcDbEntity
  8
0
100
AcDbLine
 10
-111.830681
 20
-835.4491279999999
 30
0.0
 11
-111.830681
 21
-841.599128
 31
0.0
  0
ARC
  5
324
330
36
100
AcDbEntity
  8
0
100
AcDbCircle
 10
-112.330681
 20
-841.599128
 30
0.0
 40
0.5
100
AcDbArc
 50
270.0
 51
0.0
  0
ARC
  5
325
330
36
100
AcDbEntity
  8
0
100
AcDbCircle
 10
-121.430681
 20
-841.1741279999999
 30
0.0
 40
0.5
100
AcDbArc
 50
180.0
 51
270.0
  0
LINE
  5
326
330
36
100
AcDbEntity
  8
0
100
AcDbLine
 10
-121.930681
 20
-835.874128
 30
0.0
 11
-121.930681
 21
-841.1741279999999
 31
0.0
  0
ARC
  5
327
330
36
100
AcDbEntity
  8
0
100
AcDbCircle
 10
-121.430681
 20
-835.874128
 30
0.0
 40
0.5
100
AcDbArc
 50
90.0
 51
180.0
  0
LINE
  5
328
330
36
100
AcDbEntity
  8
0
100
AcDbLine
 10
-121.430681
 20
-835.3741280000001
 30
0.0
 11
-119.180681
 21
-835.3741280000001
 31
0.0
  0
ARC
  5
329
330
36
100
AcDbEntity
  8
0
100
AcDbCircle
 10
-119.180681
 20
-835.874128
 30
0.0
 40
0.5
100
AcDbArc
 50
0.0
 51
90.0
  0
ARC
  5
32A
330
36
100
AcDbEntity
  8
0
100
AcDbCircle
 10
-118.230681
 20
-846.0241279999996
 30
0.0
 40
0.5
100
AcDbArc
 50
180.0
 51
270.0
  0
LINE
  5
32B
330
36
100
AcDbEntity
  8
0
100
AcDbLine
 10
-118.230681
 20
-846.5241279999997
 30
0.0
 11
-117.630681
 21
-846.5241279999997
 31
0.0
  0
LINE
  5
32C
330
36
100
AcDbEntity
  8
0
100
AcDbLine
 10
-116.130681
 20
-846.5241279999997
 30
0.0
 11
-117.630681
 21
-846.5241279999997
 31
0.0
  0
LINE
  5
32D
330
36
100
AcDbEntity
  8
0
100
AcDbLine
 10
-116.130681
 20
-846.5241279999997
 30
0.0
 11
-115.530681
 21
-846.5241279999997
 31
0.0
  0
ARC
  5
32E
330
36
100
AcDbEntity
  8
0
100
AcDbCircle
 10
-115.530681
 20
-846.0241279999996
 30
0.0
 40
0.5
100
AcDbArc
 50
270.0
 51
0.0
  0
LINE
  5
32F
330
36
100
AcDbEntity
  8
0
100
AcDbLine
 10
-111.830681
 20
-815.9491279999999
 30
0.0
 11
-111.830681
 21
-822.0991280000001
 31
0.0
  0
ARC
  5
330
330
36
100
AcDbEntity
  8
0
100
AcDbCircle
 10
-112.330681
 20
-822.0991280000001
 30
0.0
 40
0.5
100
AcDbArc
 50
270.0
 51
0.0
  0
ARC
  5
331
330
36
100
AcDbEntity
  8
0
100
AcDbCircle
 10
-121.430681
 20
-821.674128
 30
0.0
 40
0.5
100
AcDbArc
 50
180.0
 51
270.0
  0
LINE
  5
332
330
36
100
AcDbEntity
  8
0
100
AcDbLine
 10
-121.930681
 20
-816.3741279999996
 30
0.0
 11
-121.930681
 21
-821.674128
 31
0.0
  0
LINE
  5
333
330
36
100
AcDbEntity
  8
0
100
AcDbLine
 10
-118.230681
 20
-827.024128
 30
0.0
 11
-117.630681
 21
-827.024128
 31
0.0
  0
LINE
  5
334
330
36
100
AcDbEntity
  8
0
100
AcDbLine
 10
-116.130681
 20
-827.024128
 30
0.0
 11
-115.530681
 21
-827.024128
 31
0.0
  0
LINE
  5
335
330
36
100
AcDbEntity
  8
0
100
AcDbLine
 10
-116.130681
 20
-827.024128
 30
0.0
 11
-117.630681
 21
-827.024128
 31
0.0
  0
LINE
  5
336
330
36
100
AcDbEntity
  8
0
100
AcDbLine
 10
-114.580681
 20
-815.449128
 30
0.0
 11
-112.330681
 21
-815.449128
 31
0.0
  0
ARC
  5
337
330
36
100
AcDbEntity
  8
0
100
AcDbCircle
 10
-112.330681
 20
-815.9491279999999
 30
0.0
 40
0.5
100
AcDbArc
 50
0.0
 51
90.0
  0
ARC
  5
338
330
36
100
AcDbEntity
  8
0
100
AcDbCircle
 10
-114.580681
 20
-815.9491279999999
 30
0.0
 40
0.5
100
AcDbArc
 50
90.0
 51
180.0
  0
ARC
  5
339
330
36
100
AcDbEntity
  8
0
100
AcDbCircle
 10
-121.430681
 20
-816.3741279999996
 30
0.0
 40
0.5
100
AcDbArc
 50
90.0
 51
180.0
  0
LINE
  5
33A
330
36
100
AcDbEntity
  8
0
100
AcDbLine
 10
-121.430681
 20
-815.874128
 30
0.0
 11
-119.180681
 21
-815.874128
 31
0.0
  0
LINE
  5
33B
330
36
100
AcDbEntity
  8
0
100
AcDbLine
 10
-113.880681
 20
-854.849128
 30
0.0
 11
-119.880681
 21
-854.849128
 31
0.0
  0
LINE
  5
33C
330
36
100
AcDbEntity
  8
0
100
AcDbLine
 10
-119.880681
 20
-854.849128
 30
0.0
 11
-119.880681
 21
-853.949128
 31
0.0
  0
LINE
  5
33D
330
36
100
AcDbEntity
  8
0
100
AcDbLine
 10
-113.880681
 20
-853.949128
 30
0.0
 11
-119.880681
 21
-853.949128
 31
0.0
  0
LINE
  5
33E
330
36
100
AcDbEntity
  8
0
100
AcDbLine
 10
-113.880681
 20
-854.765418
 30
0.0
 11
-113.880681
 21
-853.949128
 31
0.0
  0
LINE
  5
33F
330
36
100
AcDbEntity
  8
0
100
AcDbLine
 10
-78.88068100000002
 20
-853.949128
 30
0.0
 11
-84.88068100000003
 21
-853.949128
 31
0.0
  0
LINE
  5
340
330
36
100
AcDbEntity
  8
0
100
AcDbLine
 10
-78.88068100000002
 20
-854.849128
 30
0.0
 11
-84.88068100000003
 21
-854.849128
 31
0.0
  0
ARC
  5
341
330
36
100
AcDbEntity
  8
0
100
AcDbCircle
 10
-77.33068100000001
 20
-835.4491279999999
 30
0.0
 40
0.5
100
AcDbArc
 50
0.0
 51
90.0
  0
LINE
  5
342
330
36
100
AcDbEntity
  8
0
100
AcDbLine
 10
-84.58068100000001
 20
-836.3491280000001
 30
0.0
 11
-84.58068100000001
 21
-840.6991279999997
 31
0.0
  0
LINE
  5
343
330
36
100
AcDbEntity
  8
0
100
AcDbLine
 10
-85.530681
 20
-836.3491280000001
 30
0.0
 11
-85.530681
 21
-840.6991279999997
 31
0.0
  0
LINE
  5
344
330
36
100
AcDbEntity
  8
0
100
AcDbLine
 10
-84.58068100000001
 20
-836.3491280000001
 30
0.0
 11
-85.530681
 21
-836.3491280000001
 31
0.0
  0
LINE
  5
345
330
36
100
AcDbEntity
  8
0
100
AcDbLine
 10
-84.58068100000001
 20
-840.6991279999997
 30
0.0
 11
-85.530681
 21
-840.6991279999997
 31
0.0
  0
LINE
  5
346
330
36
100
AcDbEntity
  8
0
100
AcDbLine
 10
-82.63068100000003
 20
-845.4241279999999
 30
0.0
 11
-82.63068100000003
 21
-844.139138
 31
0.0
  0
ARC
  5
347
330
36
100
AcDbEntity
  8
0
100
AcDbCircle
 10
-81.880681
 20
-844.2889430000001
 30
0.0
 40
0.764815
100
AcDbArc
 50
11.295648
 51
168.704352
  0
LINE
  5
348
330
36
100
AcDbEntity
  8
0
100
AcDbLine
 10
-81.13068100000003
 20
-845.4241279999999
 30
0.0
 11
-81.13068100000003
 21
-844.139138
 31
0.0
  0
LINE
  5
349
330
36
100
AcDbEntity
  8
0
100
AcDbLine
 10
-82.63068100000003
 20
-845.4241279999999
 30
0.0
 11
-81.13068100000003
 21
-845.4241279999999
 31
0.0
  0
LINE
  5
34A
330
36
100
AcDbEntity
  8
0
100
AcDbLine
 10
-78.230681
 20
-836.774128
 30
0.0
 11
-79.18068100000002
 21
-836.774128
 31
0.0
  0
LINE
  5
34B
330
36
100
AcDbEntity
  8
0
100
AcDbLine
 10
-78.230681
 20
-836.774128
 30
0.0
 11
-78.230681
 21
-840.2741279999997
 31
0.0
  0
LINE
  5
34C
330
36
100
AcDbEntity
  8
0
100
AcDbLine
 10
-79.18068100000002
 20
-836.774128
 30
0.0
 11
-79.18068100000002
 21
-840.2741279999997
 31
0.0
  0
LINE
  5
34D
330
36
100
AcDbEntity
  8
0
100
AcDbLine
 10
-78.230681
 20
-840.2741279999997
 30
0.0
 11
-79.18068100000002
 21
-840.2741279999997
 31
0.0
  0
LINE
  5
34E
330
36
100
AcDbEntity
  8
0
100
AcDbLine
 10
-80.080681
 20
-835.4491279999999
 30
0.0
 11
-80.080681
 21
-841.599128
 31
0.0
  0
LINE
  5
34F
330
36
100
AcDbEntity
  8
0
100
AcDbLine
 10
-79.58068100000001
 20
-842.0991279999999
 30
0.0
 11
-77.33068100000001
 21
-842.0991279999999
 31
0.0
  0
ARC
  5
350
330
36
100
AcDbEntity
  8
0
100
AcDbCircle
 10
-79.58068100000001
 20
-841.599128
 30
0.0
 40
0.5
100
AcDbArc
 50
180.0
 51
270.0
  0
ARC
  5
351
330
36
100
AcDbEntity
  8
0
100
AcDbCircle
 10
-84.18068100000002
 20
-841.1741279999999
 30
0.0
 40
0.5
100
AcDbArc
 50
270.0
 51
0.0
  0
LINE
  5
352
330
36
100
AcDbEntity
  8
0
100
AcDbLine
 10
-86.430681
 20
-841.6741279999996
 30
0.0
 11
-84.18068100000002
 21
-841.6741279999996
 31
0.0
  0
LINE
  5
353
330
36
100
AcDbEntity
  8
0
100
AcDbLine
 10
-83.680681
 20
-835.874128
 30
0.0
 11
-83.680681
 21
-841.1741279999999
 31
0.0
  0
LINE
  5
354
330
36
100
AcDbEntity
  8
0
100
AcDbLine
 10
-80.030681
 20
-846.0241279999996
 30
0.0
 11
-80.030681
 21
-844.1037579999997
 31
0.0
  0
ARC
  5
355
330
36
100
AcDbEntity
  8
0
100
AcDbCircle
 10
-81.880681
 20
-844.2889430000001
 30
0.0
 40
1.864815
100
AcDbArc
 50
9.147842999999999
 51
171.550276
  0
LINE
  5
356
330
36
100
AcDbEntity
  8
0
100
AcDbLine
 10
-83.73068100000002
 20
-846.0241279999996
 30
0.0
 11
-83.73068100000002
 21
-844.0883949999996
 31
0.0
  0
ARC
  5
357
330
36
100
AcDbEntity
  8
0
100
AcDbCircle
 10
-81.880681
 20
-824.788943
 30
0.0
 40
0.764815
100
AcDbArc
 50
11.295648
 51
168.704352
  0
LINE
  5
358
330
36
100
AcDbEntity
  8
0
100
AcDbLine
 10
-78.230681
 20
-817.274128
 30
0.0
 11
-78.230681
 21
-820.774128
 31
0.0
  0
LINE
  5
359
330
36
100
AcDbEntity
  8
0
100
AcDbLine
 10
-79.18068100000002
 20
-817.274128
 30
0.0
 11
-79.18068100000002
 21
-820.774128
 31
0.0
  0
LINE
  5
35A
330
36
100
AcDbEntity
  8
0
100
AcDbLine
 10
-78.230681
 20
-820.774128
 30
0.0
 11
-79.18068100000002
 21
-820.774128
 31
0.0
  0
LINE
  5
35B
330
36
100
AcDbEntity
  8
0
100
AcDbLine
 10
-84.58068100000001
 20
-821.1991279999999
 30
0.0
 11
-85.530681
 21
-821.1991279999999
 31
0.0
  0
LINE
  5
35C
330
36
100
AcDbEntity
  8
0
100
AcDbLine
 10
-84.58068100000001
 20
-816.8491280000001
 30
0.0
 11
-84.58068100000001
 21
-821.1991279999999
 31
0.0
  0
LINE
  5
35D
330
36
100
AcDbEntity
  8
0
100
AcDbLine
 10
-85.530681
 20
-816.8491280000001
 30
0.0
 11
-85.530681
 21
-821.1991279999999
 31
0.0
  0
LINE
  5
35E
330
36
100
AcDbEntity
  8
0
100
AcDbLine
 10
-81.13068100000003
 20
-825.9241279999999
 30
0.0
 11
-81.13068100000003
 21
-824.639138
 31
0.0
  0
LINE
  5
35F
330
36
100
AcDbEntity
  8
0
100
AcDbLine
 10
-82.63068100000003
 20
-825.9241279999999
 30
0.0
 11
-82.63068100000003
 21
-824.639138
 31
0.0
  0
LINE
  5
360
330
36
100
AcDbEntity
  8
0
100
AcDbLine
 10
-82.63068100000003
 20
-825.9241279999999
 30
0.0
 11
-81.13068100000003
 21
-825.9241279999999
 31
0.0
  0
LINE
  5
361
330
36
100
AcDbEntity
  8
0
100
AcDbLine
 10
-80.080681
 20
-815.9491279999999
 30
0.0
 11
-80.080681
 21
-822.0991280000001
 31
0.0
  0
ARC
  5
362
330
36
100
AcDbEntity
  8
0
100
AcDbCircle
 10
-79.58068100000001
 20
-822.0991280000001
 30
0.0
 40
0.5
100
AcDbArc
 50
180.0
 51
270.0
  0
LINE
  5
363
330
36
100
AcDbEntity
  8
0
100
AcDbLine
 10
-79.58068100000001
 20
-822.599128
 30
0.0
 11
-77.33068100000001
 21
-822.599128
 31
0.0
  0
ARC
  5
364
330
36
100
AcDbEntity
  8
0
100
AcDbCircle
 10
-86.430681
 20
-821.674128
 30
0.0
 40
0.5
100
AcDbArc
 50
180.0
 51
270.0
  0
LINE
  5
365
330
36
100
AcDbEntity
  8
0
100
AcDbLine
 10
-83.680681
 20
-816.3741279999996
 30
0.0
 11
-83.680681
 21
-821.674128
 31
0.0
  0
ARC
  5
366
330
36
100
AcDbEntity
  8
0
100
AcDbCircle
 10
-84.18068100000002
 20
-821.674128
 30
0.0
 40
0.5
100
AcDbArc
 50
270.0
 51
0.0
  0
LINE
  5
367
330
36
100
AcDbEntity
  8
0
100
AcDbLine
 10
-86.430681
 20
-822.1741279999999
 30
0.0
 11
-84.18068100000002
 21
-822.1741279999999
 31
0.0
  0
LINE
  5
368
330
36
100
AcDbEntity
  8
0
100
AcDbLine
 10
-80.030681
 20
-826.5241279999996
 30
0.0
 11
-80.030681
 21
-824.5543489999999
 31
0.0
  0
ARC
  5
369
330
36
100
AcDbEntity
  8
0
100
AcDbCircle
 10
-81.880681
 20
-824.788943
 30
0.0
 40
1.864815
100
AcDbArc
 50
7.226963
 51
172.773037
  0
LINE
  5
36A
330
36
100
AcDbEntity
  8
0
100
AcDbLine
 10
-83.73068100000002
 20
-826.5241279999996
 30
0.0
 11
-83.73068100000002
 21
-824.5543489999999
 31
0.0
  0
LINE
  5
36B
330
36
100
AcDbEntity
  8
0
100
AcDbLine
 10
-78.230681
 20
-817.274128
 30
0.0
 11
-79.18068100000002
 21
-817.274128
 31
0.0
  0
LINE
  5
36C
330
36
100
AcDbEntity
  8
0
100
AcDbLine
 10
-84.58068100000001
 20
-816.8491280000001
 30
0.0
 11
-85.530681
 21
-816.8491280000001
 31
0.0
  0
ARC
  5
36D
330
36
100
AcDbEntity
  8
0
100
AcDbCircle
 10
-116.880681
 20
-824.788943
 30
0.0
 40
0.764815
100
AcDbArc
 50
11.295648
 51
168.704352
  0
LINE
  5
36E
330
36
100
AcDbEntity
  8
0
100
AcDbLine
 10
-113.230681
 20
-817.274128
 30
0.0
 11
-113.230681
 21
-820.774128
 31
0.0
  0
LINE
  5
36F
330
36
100
AcDbEntity
  8
0
100
AcDbLine
 10
-114.180681
 20
-817.274128
 30
0.0
 11
-114.180681
 21
-820.774128
 31
0.0
  0
LINE
  5
370
330
36
100
AcDbEntity
  8
0
100
AcDbLine
 10
-113.230681
 20
-820.774128
 30
0.0
 11
-114.180681
 21
-820.774128
 31
0.0
  0
LINE
  5
371
330
36
100
AcDbEntity
  8
0
100
AcDbLine
 10
-119.580681
 20
-821.1991279999999
 30
0.0
 11
-120.530681
 21
-821.1991279999999
 31
0.0
  0
LINE
  5
372
330
36
100
AcDbEntity
  8
0
100
AcDbLine
 10
-119.580681
 20
-816.8491280000001
 30
0.0
 11
-119.580681
 21
-821.1991279999999
 31
0.0
  0
LINE
  5
373
330
36
100
AcDbEntity
  8
0
100
AcDbLine
 10
-120.530681
 20
-816.8491280000001
 30
0.0
 11
-120.530681
 21
-821.1991279999999
 31
0.0
  0
LINE
  5
374
330
36
100
AcDbEntity
  8
0
100
AcDbLine
 10
-116.130681
 20
-825.9241279999999
 30
0.0
 11
-116.130681
 21
-824.639138
 31
0.0
  0
LINE
  5
375
330
36
100
AcDbEntity
  8
0
100
AcDbLine
 10
-117.630681
 20
-825.9241279999999
 30
0.0
 11
-117.630681
 21
-824.639138
 31
0.0
  0
LINE
  5
376
330
36
100
AcDbEntity
  8
0
100
AcDbLine
 10
-117.630681
 20
-825.9241279999999
 30
0.0
 11
-116.130681
 21
-825.9241279999999
 31
0.0
  0
LINE
  5
377
330
36
100
AcDbEntity
  8
0
100
AcDbLine
 10
-115.080681
 20
-815.9491279999999
 30
0.0
 11
-115.080681
 21
-822.0991280000001
 31
0.0
  0
ARC
  5
378
330
36
100
AcDbEntity
  8
0
100
AcDbCircle
 10
-114.580681
 20
-822.0991280000001
 30
0.0
 40
0.5
100
AcDbArc
 50
180.0
 51
270.0
  0
LINE
  5
379
330
36
100
AcDbEntity
  8
0
100
AcDbLine
 10
-114.580681
 20
-822.599128
 30
0.0
 11
-112.330681
 21
-822.599128
 31
0.0
  0
LINE
  5
37A
330
36
100
AcDbEntity
  8
0
100
AcDbLine
 10
-118.680681
 20
-816.3741279999996
 30
0.0
 11
-118.680681
 21
-821.674128
 31
0.0
  0
ARC
  5
37B
330
36
100
AcDbEntity
  8
0
100
AcDbCircle
 10
-119.180681
 20
-821.674128
 30
0.0
 40
0.5
100
AcDbArc
 50
270.0
 51
0.0
  0
LINE
  5
37C
330
36
100
AcDbEntity
  8
0
100
AcDbLine
 10
-121.430681
 20
-822.1741279999999
 30
0.0
 11
-119.180681
 21
-822.1741279999999
 31
0.0
  0
LINE
  5
37D
330
36
100
AcDbEntity
  8
0
100
AcDbLine
 10
-115.030681
 20
-826.5241279999996
 30
0.0
 11
-115.030681
 21
-824.5543489999999
 31
0.0
  0
ARC
  5
37E
330
36
100
AcDbEntity
  8
0
100
AcDbCircle
 10
-116.880681
 20
-824.788943
 30
0.0
 40
1.864815
100
AcDbArc
 50
7.226963
 51
172.773037
  0
LINE
  5
37F
330
36
100
AcDbEntity
  8
0
100
AcDbLine
 10
-118.730681
 20
-826.5241279999996
 30
0.0
 11
-118.730681
 21
-824.5543489999999
 31
0.0
  0
ARC
  5
380
330
36
100
AcDbEntity
  8
0
100
AcDbCircle
 10
-118.230681
 20
-826.5241279999996
 30
0.0
 40
0.5
100
AcDbArc
 50
180.0
 51
270.0
  0
ARC
  5
381
330
36
100
AcDbEntity
  8
0
100
AcDbCircle
 10
-115.530681
 20
-826.5241279999996
 30
0.0
 40
0.5
100
AcDbArc
 50
270.0
 51
0.0
  0
LINE
  5
382
330
36
100
AcDbEntity
  8
0
100
AcDbLine
 10
-113.230681
 20
-817.274128
 30
0.0
 11
-114.180681
 21
-817.274128
 31
0.0
  0
LINE
  5
383
330
36
100
AcDbEntity
  8
0
100
AcDbLine
 10
-119.580681
 20
-816.8491280000001
 30
0.0
 11
-120.530681
 21
-816.8491280000001
 31
0.0
  0
ARC
  5
384
330
36
100
AcDbEntity
  8
0
100
AcDbCircle
 10
-119.180681
 20
-816.3741279999996
 30
0.0
 40
0.5
100
AcDbArc
 50
0.0
 51
90.0
  0
LINE
  5
385
330
36
100
AcDbEntity
  8
0
100
AcDbLine
 10
-119.580681
 20
-836.3491280000001
 30
0.0
 11
-119.580681
 21
-840.6991279999997
 31
0.0
  0
LINE
  5
386
330
36
100
AcDbEntity
  8
0
100
AcDbLine
 10
-120.530681
 20
-836.3491280000001
 30
0.0
 11
-120.530681
 21
-840.6991279999997
 31
0.0
  0
LINE
  5
387
330
36
100
AcDbEntity
  8
0
100
AcDbLine
 10
-119.580681
 20
-836.3491280000001
 30
0.0
 11
-120.530681
 21
-836.3491280000001
 31
0.0
  0
LINE
  5
388
330
36
100
AcDbEntity
  8
0
100
AcDbLine
 10
-119.580681
 20
-840.6991279999997
 30
0.0
 11
-120.530681
 21
-840.6991279999997
 31
0.0
  0
LINE
  5
389
330
36
100
AcDbEntity
  8
0
100
AcDbLine
 10
-117.630681
 20
-845.4241279999999
 30
0.0
 11
-117.630681
 21
-844.139138
 31
0.0
  0
ARC
  5
38A
330
36
100
AcDbEntity
  8
0
100
AcDbCircle
 10
-116.880681
 20
-844.2889430000001
 30
0.0
 40
0.764815
100
AcDbArc
 50
11.295648
 51
168.704352
  0
LINE
  5
38B
330
36
100
AcDbEntity
  8
0
100
AcDbLine
 10
-116.130681
 20
-845.4241279999999
 30
0.0
 11
-116.130681
 21
-844.139138
 31
0.0
  0
LINE
  5
38C
330
36
100
AcDbEntity
  8
0
100
AcDbLine
 10
-117.630681
 20
-845.4241279999999
 30
0.0
 11
-116.130681
 21
-845.4241279999999
 31
0.0
  0
LINE
  5
38D
330
36
100
AcDbEntity
  8
0
100
AcDbLine
 10
-113.230681
 20
-836.774128
 30
0.0
 11
-114.180681
 21
-836.774128
 31
0.0
  0
LINE
  5
38E
330
36
100
AcDbEntity
  8
0
100
AcDbLine
 10
-113.230681
 20
-836.774128
 30
0.0
 11
-113.230681
 21
-840.2741279999997
 31
0.0
  0
LINE
  5
38F
330
36
100
AcDbEntity
  8
0
100
AcDbLine
 10
-114.180681
 20
-836.774128
 30
0.0
 11
-114.180681
 21
-840.2741279999997
 31
0.0
  0
LINE
  5
390
330
36
100
AcDbEntity
  8
0
100
AcDbLine
 10
-113.230681
 20
-840.2741279999997
 30
0.0
 11
-114.180681
 21
-840.2741279999997
 31
0.0
  0
LINE
  5
391
330
36
100
AcDbEntity
  8
0
100
AcDbLine
 10
-115.080681
 20
-835.4491279999999
 30
0.0
 11
-115.080681
 21
-841.599128
 31
0.0
  0
LINE
  5
392
330
36
100
AcDbEntity
  8
0
100
AcDbLine
 10
-114.580681
 20
-842.0991279999999
 30
0.0
 11
-112.330681
 21
-842.0991279999999
 31
0.0
  0
ARC
  5
393
330
36
100
AcDbEntity
  8
0
100
AcDbCircle
 10
-114.580681
 20
-841.599128
 30
0.0
 40
0.5
100
AcDbArc
 50
180.0
 51
270.0
  0
ARC
  5
394
330
36
100
AcDbEntity
  8
0
100
AcDbCircle
 10
-119.180681
 20
-841.1741279999999
 30
0.0
 40
0.5
100
AcDbArc
 50
270.0
 51
0.0
  0
LINE
  5
395
330
36
100
AcDbEntity
  8
0
100
AcDbLine
 10
-121.430681
 20
-841.6741279999996
 30
0.0
 11
-119.180681
 21
-841.6741279999996
 31
0.0
  0
LINE
  5
396
330
36
100
AcDbEntity
  8
0
100
AcDbLine
 10
-118.680681
 20
-835.874128
 30
0.0
 11
-118.680681
 21
-841.1741279999999
 31
0.0
  0
LINE
  5
397
330
36
100
AcDbEntity
  8
0
100
AcDbLine
 10
-115.030681
 20
-846.0241279999996
 30
0.0
 11
-115.030681
 21
-844.1037579999997
 31
0.0
  0
ARC
  5
398
330
36
100
AcDbEntity
  8
0
100
AcDbCircle
 10
-116.880681
 20
-844.2889430000001
 30
0.0
 40
1.864815
100
AcDbArc
 50
9.147842999999999
 51
171.550276
  0
LINE
  5
399
330
36
100
AcDbEntity
  8
0
100
AcDbLine
 10
-118.730681
 20
-846.0241279999996
 30
0.0
 11
-118.730681
 21
-844.0883949999996
 31
0.0
  0
CIRCLE
  5
39A
330
36
100
AcDbEntity
  8
0
100
AcDbCircle
 10
-81.880681
 20
-809.349128
 30
0.0
 40
2.0
  0
CIRCLE
  5
39B
330
36
100
AcDbEntity
  8
0
100
AcDbCircle
 10
-116.880681
 20
-809.349128
 30
0.0
 40
2.0
  0
CIRCLE
  5
39C
330
36
100
AcDbEntity
  8
0
100
AcDbCircle
 10
-81.880681
 20
-851.349128
 30
0.0
 40
2.0
  0
LINE
  5
39D
330
36
100
AcDbEntity
  8
0
100
AcDbLine
 10
-84.88068100000003
 20
-854.849128
 30
0.0
 11
-84.88068100000003
 21
-853.949128
 31
0.0
  0
LINE
  5
39E
330
36
100
AcDbEntity
  8
0
100
AcDbLine
 10
-78.88068100000002
 20
-854.765418
 30
0.0
 11
-78.88068100000002
 21
-853.949128
 31
0.0
  0
CIRCLE
  5
39F
330
36
100
AcDbEntity
  8
0
100
AcDbCircle
 10
-116.880681
 20
-851.349128
 30
0.0
 40
2.0
  0
LINE
  5
3A0
330
36
100
AcDbEntity
  8
0
100
AcDbLine
 10
123.861827
 20
-837.099128
 30
0.0
 11
125.361827
 21
-838.0991279999998
 31
0.0
  0
LINE
  5
3A1
330
36
100
AcDbEntity
  8
0
100
AcDbLine
 10
125.361827
 20
-848.0991279999997
 30
0.0
 11
125.361827
 21
-838.0991279999998
 31
0.0
  0
LINE
  5
3A2
330
36
100
AcDbEntity
  8
0
100
AcDbLine
 10
123.861827
 20
-849.0991279999999
 30
0.0
 11
125.361827
 21
-848.0991279999997
 31
0.0
  0
LINE
  5
3A3
330
36
100
AcDbEntity
  8
0
 62
     3
100
AcDbLine
 10
-102.780702
 20
-786.299128
 30
0.0
 11
-102.780702
 21
-769.099128
 31
0.0
  0
LINE
  5
3A4
330
36
100
AcDbEntity
  8
0
 62
     3
100
AcDbLine
 10
-124.980702
 20
-786.299128
 30
0.0
 11
-124.980702
 21
-769.099128
 31
0.0
  0
LINE
  5
3A5
330
36
100
AcDbEntity
  8
0
 62
     3
100
AcDbLine
 10
-124.480702
 20
-768.599128
 30
0.0
 11
-103.280702
 21
-768.599128
 31
0.0
  0
LINE
  5
3A6
330
36
100
AcDbEntity
  8
0
 62
     3
100
AcDbLine
 10
-103.280702
 20
-786.799128
 30
0.0
 11
-124.480702
 21
-786.799128
 31
0.0
  0
ARC
  5
3A7
330
36
100
AcDbEntity
  8
0
 62
     3
100
AcDbCircle
 10
-103.280702
 20
-769.099128
 30
0.0
 40
0.5
100
AcDbArc
 50
0.0
 51
90.0
  0
ARC
  5
3A8
330
36
100
AcDbEntity
  8
0
 62
     3
100
AcDbCircle
 10
-124.480702
 20
-769.099128
 30
0.0
 40
0.5
100
AcDbArc
 50
90.0
 51
180.0
  0
ARC
  5
3A9
330
36
100
AcDbEntity
  8
0
 62
     3
100
AcDbCircle
 10
-124.480702
 20
-786.299128
 30
0.0
 40
0.5
100
AcDbArc
 50
180.0
 51
270.0
  0
ARC
  5
3AA
330
36
100
AcDbEntity
  8
0
 62
     3
100
AcDbCircle
 10
-103.280702
 20
-786.299128
 30
0.0
 40
0.5
100
AcDbArc
 50
270.0
 51
0.0
  0
ARC
  5
3AB
330
36
100
AcDbEntity
  8
0
 62
     3
100
AcDbCircle
 10
-113.880702
 20
-783.299078
 30
0.0
 40
2.5
100
AcDbArc
 50
23.576928
 51
156.423072
  0
CIRCLE
  5
3AC
330
36
100
AcDbEntity
  8
0
 62
     3
100
AcDbCircle
 10
-113.880702
 20
-783.299078
 30
0.0
 40
0.5
  0
LINE
  5
3AD
330
36
100
AcDbEntity
  8
0
 62
     3
100
AcDbLine
 10
-173.268559
 20
-707.4519109999997
 30
0.0
 11
-173.268559
 21
-984.451911
 31
0.0
  0
LINE
  5
3AE
330
36
100
AcDbEntity
  8
0
 62
     3
100
AcDbLine
 10
216.731441
 20
-984.451911
 30
0.0
 11
216.731441
 21
-707.4519109999997
 31
0.0
  0
LINE
  5
3AF
330
36
100
AcDbEntity
  8
0
 62
     3
100
AcDbLine
 10
-173.268559
 20
-984.451911
 30
0.0
 11
216.731441
 21
-984.451911
 31
0.0
  0
LINE
  5
3B0
330
36
100
AcDbEntity
  8
0
100
AcDbLine
 10
-103.780702
 20
-782.299128
 30
0.0
 11
-123.980702
 21
-782.299128
 31
0.0
  0
LINE
  5
3B1
330
36
100
AcDbEntity
  8
0
100
AcDbLine
 10
-103.780702
 20
-783.049128
 30
0.0
 11
-123.980702
 21
-783.049128
 31
0.0
  0
LINE
  5
3B2
330
36
100
AcDbEntity
  8
0
100
AcDbLine
 10
-103.780702
 20
-783.7991279999997
 30
0.0
 11
-123.980702
 21
-783.7991279999997
 31
0.0
  0
LINE
  5
3B3
330
36
100
AcDbEntity
  8
0
100
AcDbLine
 10
-103.780702
 20
-784.549128
 30
0.0
 11
-123.980702
 21
-784.549128
 31
0.0
  0
LINE
  5
3B4
330
36
100
AcDbEntity
  8
0
100
AcDbLine
 10
-103.780702
 20
-785.299128
 30
0.0
 11
-123.980702
 21
-785.299128
 31
0.0
  0
LINE
  5
3B5
330
36
100
AcDbEntity
  8
0
 62
     3
100
AcDbLine
 10
12.44837122402259
 20
-984.451911
 30
0.0
 11
12.44837122402259
 21
-929.4519817895755
 31
0.0
  0
LINE
  5
3B6
330
36
100
AcDbEntity
  8
0
100
AcDbLine
 10
-103.780702
 20
-769.5991280000002
 30
0.0
 11
-123.980702
 21
-769.5991280000002
 31
0.0
  0
LINE
  5
3B7
330
36
100
AcDbEntity
  8
0
100
AcDbLine
 10
-103.780702
 20
-769.5991280000002
 30
0.0
 11
-103.780702
 21
-785.299128
 31
0.0
  0
LINE
  5
3B8
330
36
100
AcDbEntity
  8
0
100
AcDbLine
 10
-123.980702
 20
-785.299128
 30
0.0
 11
-123.980702
 21
-769.5991280000002
 31
0.0
  0
LINE
  5
3B9
330
36
100
AcDbEntity
  8
0
100
AcDbLine
 10
-96.445167
 20
-824.359004
 30
0.0
 11
-96.445167
 21
-836.859004
 31
0.0
  0
LINE
  5
3BA
330
36
100
AcDbEntity
  8
0
100
AcDbLine
 10
-102.445167
 20
-836.859004
 30
0.0
 11
-102.445167
 21
-824.359004
 31
0.0
  0
LINE
  5
3BB
330
36
100
AcDbEntity
  8
0
100
AcDbLine
 10
-101.070167
 20
-823.609004
 30
0.0
 11
-97.82016699999999
 21
-823.609004
 31
0.0
  0
LINE
  5
3BC
330
36
100
AcDbEntity
  8
0
100
AcDbLine
 10
-97.82016699999999
 20
-825.1090040000001
 30
0.0
 11
-101.070167
 21
-825.1090040000001
 31
0.0
  0
LINE
  5
3BD
330
36
100
AcDbEntity
  8
0
100
AcDbLine
 10
-97.82016699999999
 20
-831.1090039999996
 30
0.0
 11
-101.070167
 21
-831.1090039999996
 31
0.0
  0
TEXT
  5
3BE
330
36
100
AcDbEntity
  8
0
100
AcDbText
 10
-100.724212
 20
-824.977301
 30
0.0
 40
1.28
  1
15
 41
1.199999999999999
100
AcDbText
  0
LINE
  5
3BF
330
36
100
AcDbEntity
  8
0
100
AcDbLine
 10
-105.388771
 20
-774.807147
 30
0.0
 11
-106.81109
 21
-776.229466
 31
0.0
  0
LINE
  5
3C0
330
36
100
AcDbEntity
  8
0
100
AcDbLine
 10
-106.421296
 20
-774.409405
 30
0.0
 11
-107.067101
 21
-775.1790449999997
 31
0.0
  0
LINE
  5
3C1
330
36
100
AcDbEntity
  8
0
100
AcDbLine
 10
-107.173587
 20
-773.720427
 30
0.0
 11
-107.749304
 21
-774.542636
 31
0.0
  0
LINE
  5
3C2
330
36
100
AcDbEntity
  8
0
100
AcDbLine
 10
-108.876731
 20
-772.568138
 30
0.0
 11
-109.300203
 21
-773.4762769999997
 31
0.0
  0
LINE
  5
3C3
330
36
100
AcDbEntity
  8
0
100
AcDbLine
 10
-109.640446
 20
-771.6491900000002
 30
0.0
 11
-113.880681
 21
-783.2991409999999
 31
0.0
  0
LINE
  5
3C4
330
36
100
AcDbEntity
  8
0
100
AcDbLine
 10
-110.789926
 20
-771.7642839999999
 30
0.0
 11
-111.048941
 21
-772.73094
 31
0.0
  0
LINE
  5
3C5
330
36
100
AcDbEntity
  8
0
100
AcDbLine
 10
-107.994549
 20
-773.104068
 30
0.0
 11
-108.495965
 21
-773.9725459999997
 31
0.0
  0
LINE
  5
3C6
330
36
100
AcDbEntity
  8
0
100
AcDbLine
 10
-111.801412
 20
-771.507016
 30
0.0
 11
-111.97512
 21
-772.492159
 31
0.0
  0
LINE
  5
3C7
330
36
100
AcDbEntity
  8
0
100
AcDbLine
 10
-112.835376
 20
-771.3512419999997
 30
0.0
 11
-112.922539
 21
-772.347522
 31
0.0
  0
LINE
  5
3C8
330
36
100
AcDbEntity
  8
0
100
AcDbLine
 10
-114.925986
 20
-771.351238
 30
0.0
 11
-114.838823
 21
-772.3475179999996
 31
0.0
  0
LINE
  5
3C9
330
36
100
AcDbEntity
  8
0
100
AcDbLine
 10
-115.959949
 20
-771.507007
 30
0.0
 11
-115.786242
 21
-772.49215
 31
0.0
  0
LINE
  5
3CA
330
36
100
AcDbEntity
  8
0
100
AcDbLine
 10
-116.971435
 20
-771.7642699999997
 30
0.0
 11
-116.71242
 21
-772.730927
 31
0.0
  0
LINE
  5
3CB
330
36
100
AcDbEntity
  8
0
100
AcDbLine
 10
-119.766809
 20
-773.104037
 30
0.0
 11
-119.265393
 21
-773.972515
 31
0.0
  0
LINE
  5
3CC
330
36
100
AcDbEntity
  8
0
100
AcDbLine
 10
-118.884628
 20
-772.568113
 30
0.0
 11
-118.461156
 21
-773.4762519999997
 31
0.0
  0
LINE
  5
3CD
330
36
100
AcDbEntity
  8
0
100
AcDbLine
 10
-118.1209139999999
 20
-771.649172
 30
0.0
 11
-117.607236
 21
-773.0604889999997
 31
0.0
  0
LINE
  5
3CE
330
36
100
AcDbEntity
  8
0
100
AcDbLine
 10
-120.587771
 20
-773.7203889999997
 30
0.0
 11
-120.012054
 21
-774.542598
 31
0.0
  0
LINE
  5
3CF
330
36
100
AcDbEntity
  8
0
100
AcDbLine
 10
-121.340062
 20
-774.409359
 30
0.0
 11
-120.694258
 21
-775.1789989999998
 31
0.0
  0
LINE
  5
3D0
330
36
100
AcDbEntity
  8
0
100
AcDbLine
 10
-122.372678
 20
-774.8072019999997
 30
0.0
 11
-121.306261
 21
-775.8736190000003
 31
0.0
  0
TEXT
  5
3D1
330
36
100
AcDbEntity
  8
0
100
AcDbText
 10
-88.199163
 20
-780.1892289999997
 30
0.0
 40
2.5
  1
電源ランプ
 41
0.833333
100
AcDbText
  0
TEXT
  5
3D2
330
36
100
AcDbEntity
  8
0
100
AcDbText
 10
-122.478064
 20
-767.8365679999997
 30
0.0
 40
2.5
  1
出力電圧計
 41
0.833333
100
AcDbText
  0
TEXT
  5
3D3
330
36
100
AcDbEntity
  8
0
100
AcDbText
 10
-100.657501
 20
-830.1369519999997
 30
0.0
 40
2.5
  1
入
 41
0.833333
100
AcDbText
  0
CIRCLE
  5
3D4
330
36
100
AcDbEntity
  8
0
100
AcDbCircle
 10
-109.267395
 20
-855.640655
 30
0.0
 40
0.9461759999999999
  0
TEXT
  5
3D5
330
36
100
AcDbEntity
  8
0
100
AcDbText
 10
-107.429647
 20
-856.9499630000001
 30
0.0
 40
2.5
  1
日動工業株式会社
 41
0.833333
100
AcDbText
  0
LINE
  5
3D6
330
36
100
AcDbEntity
  8
0
 62
     7
100
AcDbLine
 10
33.218807
 20
-890.2101742301763
 30
0.0
 11
60.43977099999999
 21
-890.2101742301763
 31
0.0
  0
CIRCLE
  5
3D7
330
36
100
AcDbEntity
  8
0
 62
     3
100
AcDbCircle
 10
82.23097499999999
 20
-909.348927
 30
0.0
 40
0.9599999999999999
  0
CIRCLE
  5
3D8
330
36
100
AcDbEntity
  8
0
 62
     3
100
AcDbCircle
 10
82.23097499999999
 20
-922.1489269999999
 30
0.0
 40
0.9599999999999999
  0
TEXT
  5
3D9
330
36
100
AcDbEntity
  8
0
 62
     4
100
AcDbText
 10
33.218807
 20
-889.339131
 30
0.0
 40
3.2
  1
入力プラグ結線
  7
高3.2
100
AcDbText
  0
LINE
  5
3DA
330
36
100
AcDbEntity
  8
0
 62
     3
100
AcDbLine
 10
118.9660233579005
 20
-894.8036749999996
 30
0.0
 11
118.9660233579005
 21
-929.453675
 31
0.0
  0
CIRCLE
  5
3F2
330
36
100
AcDbEntity
  8
0
 62
     3
100
AcDbCircle
 10
82.23097499999999
 20
-896.5489269999999
 30
0.0
 40
0.9599999999999999
  0
TEXT
  5
3F3
330
36
100
AcDbEntity
  8
0
 62
     3
100
AcDbText
 10
144.5404965443827
 20
-907.4692780000001
 30
0.0
 40
3.2
  1
AC200V 50/60Hz
  7
高3.2
100
AcDbText
  0
TEXT
  5
3F4
330
36
100
AcDbEntity
  8
0
 62
     3
100
AcDbText
 10
158.3810235443826
 20
-914.258959
 30
0.0
 40
3.2
  1
AC100V
  7
高3.2
100
AcDbText
  0
TEXT
  5
3F5
330
36
100
AcDbEntity
  8
0
 62
     3
100
AcDbText
 10
128.220843
 20
-951.7743960000002
 30
0.0
 40
4.5
  1
降圧トランス
  7
高4.5
100
AcDbText
  0
TEXT
  5
3F6
330
36
100
AcDbEntity
  8
0
 62
     4
100
AcDbText
 10
139.553021
 20
-892.4721599999996
 30
0.0
 40
4.5
  1
主　　仕　　様
  7
高4.5
100
AcDbText
  0
LINE
  5
3F7
330
36
100
AcDbEntity
  8
0
100
AcDbLine
 10
118.9660233579005
 20
-901.733675
 30
0.0
 11
193.235530249468
 21
-901.733675
 31
0.0
  0
LINE
  5
3F8
330
36
100
AcDbEntity
  8
0
100
AcDbLine
 10
118.9660233579005
 20
-908.663675
 30
0.0
 11
193.235530249468
 21
-908.6636750000003
 31
0.0
  0
LINE
  5
3F9
330
36
100
AcDbEntity
  8
0
100
AcDbLine
 10
118.9660233579005
 20
-915.593675
 30
0.0
 11
193.235530249468
 21
-915.5936750000003
 31
0.0
  0
LINE
  5
3FA
330
36
100
AcDbEntity
  8
0
100
AcDbLine
 10
118.9660233579005
 20
-922.523675
 30
0.0
 11
193.235530249468
 21
-922.523675
 31
0.0
  0
TEXT
  5
3FB
330
36
100
AcDbEntity
  8
0
 62
     3
100
AcDbText
 10
120.9460233579005
 20
-900.743675
 30
0.0
 40
3.2
  1
型　　式
  7
高3.2
100
AcDbText
  0
TEXT
  5
3FC
330
36
100
AcDbEntity
  8
0
 62
     3
100
AcDbText
 10
120.9460233579005
 20
-907.673675
 30
0.0
 40
3.2
  1
入力電圧
  7
高3.2
100
AcDbText
  0
TEXT
  5
3FD
330
36
100
AcDbEntity
  8
0
 62
     3
100
AcDbText
 10
120.9460233579005
 20
-914.603675
 30
0.0
 40
3.2
  1
出力電圧
  7
高3.2
100
AcDbText
  0
TEXT
  5
3FE
330
36
100
AcDbEntity
  8
0
 62
     3
100
AcDbText
 10
120.9460233579005
 20
-921.533675
 30
0.0
 40
3.2
  1
容　　量
  7
高3.2
100
AcDbText
  0
TEXT
  5
3FF
330
36
100
AcDbEntity
  8
0
 62
     3
100
AcDbText
 10
120.9460233579005
 20
-928.463675
 30
0.0
 40
3.2
  1
質　　量
  7
高3.2
100
AcDbText
  0
CIRCLE
  5
400
330
36
100
AcDbEntity
  8
0
 62
     3
100
AcDbCircle
 10
39.731691
 20
-922.1410210000001
 30
0.0
 40
0.9599999999999999
  0
TEXT
  5
401
330
36
100
AcDbEntity
  8
0
 62
     3
100
AcDbText
 10
145.0890145443826
 20
-900.6094369999997
 30
0.0
 40
3.2
  1
RTB-100D-100V
  7
高3.2
100
AcDbText
  0
TEXT
  5
402
330
36
100
AcDbEntity
  8
0
 62
     3
100
AcDbText
 10
160.1944605443827
 20
-920.9782829999999
 30
0.0
 40
3.2
  1
1KVA
  7
高3.2
100
AcDbText
  0
TEXT
  5
403
330
36
100
AcDbEntity
  8
0
 62
     3
100
AcDbText
 10
158.1531405443828
 20
-927.9081839999999
 30
0.0
 40
3.2
  1
約6.0kg
  7
高3.2
100
AcDbText
  0
LINE
  5
421
330
36
100
AcDbEntity
  8
0
100
AcDbLine
 10
81.27097500000003
 20
-896.5489269999999
 30
0.0
 11
39.684889
 21
-896.5489269999999
 31
0.0
  0
LINE
  5
422
330
36
100
AcDbEntity
  8
0
100
AcDbLine
 10
81.27097500000003
 20
-922.1489269999999
 30
0.0
 11
40.691659
 21
-922.1489269999999
 31
0.0
  0
LINE
  5
423
330
36
100
AcDbEntity
  8
0
100
AcDbLine
 10
39.757843
 20
-923.100415
 30
0.0
 11
39.757843
 21
-924.5666959999999
 31
0.0
  0
LINE
  5
424
330
36
100
AcDbEntity
  8
0
100
AcDbLine
 10
36.558163
 20
-924.5666959999999
 30
0.0
 11
42.958163
 21
-924.5666959999999
 31
0.0
  0
LINE
  5
425
330
36
100
AcDbEntity
  8
0
100
AcDbLine
 10
37.198163
 20
-925.206696
 30
0.0
 11
42.318163
 21
-925.206696
 31
0.0
  0
LINE
  5
426
330
36
100
AcDbEntity
  8
0
100
AcDbLine
 10
37.838163
 20
-925.8466959999999
 30
0.0
 11
41.678163
 21
-925.8466959999999
 31
0.0
  0
LINE
  5
427
330
36
100
AcDbEntity
  8
0
100
AcDbLine
 10
38.478163
 20
-926.486696
 30
0.0
 11
41.038163
 21
-926.486696
 31
0.0
  0
LINE
  5
428
330
36
100
AcDbEntity
  8
0
100
AcDbLine
 10
40.96699
 20
-915.239223
 30
0.0
 11
44.16699
 21
-915.239223
 31
0.0
  0
LINE
  5
429
330
36
100
AcDbEntity
  8
0
100
AcDbLine
 10
41.28699
 20
-915.5592229999999
 30
0.0
 11
43.84699
 21
-915.5592229999999
 31
0.0
  0
LINE
  5
42A
330
36
100
AcDbEntity
  8
0
100
AcDbLine
 10
41.60699
 20
-915.8792230000001
 30
0.0
 11
43.52699
 21
-915.8792230000001
 31
0.0
  0
LINE
  5
42B
330
36
100
AcDbEntity
  8
0
100
AcDbLine
 10
41.92699
 20
-916.199223
 30
0.0
 11
43.20699
 21
-916.199223
 31
0.0
  0
LINE
  5
42C
330
36
100
AcDbEntity
  8
0
100
AcDbLine
 10
42.56699
 20
-914.3025699999999
 30
0.0
 11
42.56699
 21
-915.239223
 31
0.0
  0
LINE
  5
42D
330
36
100
AcDbEntity
  8
0
100
AcDbLine
 10
39.684889
 20
-921.182162
 30
0.0
 11
39.684889
 21
-916.6449270000001
 31
0.0
  0
LINE
  5
42E
330
36
100
AcDbEntity
  8
0
 62
     3
100
AcDbLine
 10
118.9660233579005
 20
-929.453675
 30
0.0
 11
193.235530249468
 21
-929.453675
 31
0.0
  0
LINE
  5
42F
330
36
100
AcDbEntity
  8
0
 62
     3
100
AcDbLine
 10
118.9660233579005
 20
-894.8036749999996
 30
0.0
 11
193.235530249468
 21
-894.8036749999996
 31
0.0
  0
TEXT
  5
430
330
36
100
AcDbEntity
  8
0
 62
     3
100
AcDbText
 10
-65.73740692415134
 20
-978.9519172232596
 30
0.0
 40
3.2
  1
1
 41
0.8
  7
高3.2
100
AcDbText
  0
TEXT
  5
431
330
36
100
AcDbEntity
  8
0
 62
     3
100
AcDbText
 10
-65.73740692415134
 20
-958.9519428942047
 30
0.0
 40
3.2
  1
1
 41
0.8
  7
高3.2
100
AcDbText
  0
TEXT
  5
433
330
36
100
AcDbEntity
  8
0
 62
     3
100
AcDbText
 10
-65.73740692415134
 20
-933.9519755663166
 30
0.0
 40
3.2
  1
1
 41
0.8
  7
高3.2
100
AcDbText
  0
TEXT
  5
434
330
36
100
AcDbEntity
  8
0
 62
     3
100
AcDbText
 10
-65.73740692415134
 20
-948.9519561186304
 30
0.0
 40
3.2
  1
1
 41
0.8
  7
高3.2
100
AcDbText
  0
TEXT
  5
435
330
36
100
AcDbEntity
  8
0
 62
     3
100
AcDbText
 10
-65.73740692415134
 20
-938.9519693430573
 30
0.0
 40
3.2
  1
1
 41
0.8
  7
高3.2
100
AcDbText
  0
TEXT
  5
436
330
36
100
AcDbEntity
  8
0
 62
     3
100
AcDbText
 10
-65.73740692415134
 20
-953.9519498953712
 30
0.0
 40
3.2
  1
4
 41
0.8
  7
高3.2
100
AcDbText
  0
TEXT
  5
437
330
36
100
AcDbEntity
  8
0
 62
     3
100
AcDbText
 10
-65.73740692415134
 20
-943.9519623418899
 30
0.0
 40
3.2
  1
2
 41
0.8
  7
高3.2
100
AcDbText
  0
TEXT
  5
438
330
36
100
AcDbEntity
  8
0
 62
     3
100
AcDbText
 10
-106.3138716759176
 20
-968.9519304476858
 30
0.0
 40
3.2
  1
塗装
 41
0.8
  7
高3.2
100
AcDbText
  0
TEXT
  5
439
330
36
100
AcDbEntity
  8
0
 62
     3
100
AcDbText
 10
-65.73740692415134
 20
-968.9519304476858
 30
0.0
 40
3.2
  1
1
 41
0.8
  7
高3.2
100
AcDbText
  0
LINE
  5
43A
330
36
100
AcDbEntity
  8
0
100
AcDbLine
 10
-67.23740692415134
 20
-984.451911
 30
0.0
 11
-67.23740692415134
 21
-929.4519817895755
 31
0.0
  0
TEXT
  5
43B
330
36
100
AcDbEntity
  8
0
 62
     3
100
AcDbText
 10
-129.1867302056924
 20
-968.9519304476858
 30
0.0
 40
3.2
  1
SPCC
 41
0.8
  7
高3.2
100
AcDbText
  0
TEXT
  5
43C
330
36
100
AcDbEntity
  8
0
 62
     3
100
AcDbText
 10
-164.5460010264048
 20
-978.9519172232596
 30
0.0
 40
3.2
  1
把手
 41
0.8
  7
高3.2
100
AcDbText
  0
TEXT
  5
43D
330
36
100
AcDbEntity
  8
0
 62
     3
100
AcDbText
 10
-164.5460010264048
 20
-968.9519304476858
 30
0.0
 40
3.2
  1
上カバー
 41
0.8
  7
高3.2
100
AcDbText
  0
TEXT
  5
43E
330
36
100
AcDbEntity
  8
0
 62
     3
100
AcDbText
 10
-129.1867302056924
 20
-958.9519428942047
 30
0.0
 40
3.2
  1
VCT
 41
0.8
  7
高3.2
100
AcDbText
  0
TEXT
  5
43F
330
36
100
AcDbEntity
  8
0
 62
     3
100
AcDbText
 10
-106.3138716759176
 20
-958.9519428942047
 30
0.0
 40
3.2
  1
2sqx3芯x2m
 41
0.8
  7
高3.2
100
AcDbText
  0
TEXT
  5
440
330
36
100
AcDbEntity
  8
0
 62
     3
100
AcDbText
 10
-164.5460010264048
 20
-953.9519498953712
 30
0.0
 40
3.2
  1
脚ゴム
 41
0.8
  7
高3.2
100
AcDbText
  0
TEXT
  5
441
330
36
100
AcDbEntity
  8
0
 62
     3
100
AcDbText
 10
-164.5460010264048
 20
-948.9519561186304
 30
0.0
 40
3.2
  1
安全ブレーカー
 41
0.8
  7
高3.2
100
AcDbText
  0
TEXT
  5
442
330
36
100
AcDbEntity
  8
0
 62
     3
100
AcDbText
 10
-164.5460010264048
 20
-943.9519623418899
 30
0.0
 40
3.2
  1
E付Wコンセント（白）
 41
0.8
  7
高3.2
100
AcDbText
  0
TEXT
  5
444
330
36
100
AcDbEntity
  8
0
 62
     3
100
AcDbText
 10
-164.5460010264048
 20
-938.9519693430573
 30
0.0
 40
3.2
  1
電源ランプ
 41
0.8
  7
高3.2
100
AcDbText
  0
TEXT
  5
445
330
36
100
AcDbEntity
  8
0
 62
     3
100
AcDbText
 10
-164.5460010264048
 20
-933.9519755663166
 30
0.0
 40
3.2
  1
電圧計
 41
0.8
  7
高3.2
100
AcDbText
  0
TEXT
  5
446
330
36
100
AcDbEntity
  8
0
 62
     3
100
AcDbText
 10
-106.3138716759176
 20
-933.9519755663166
 30
0.0
 40
3.2
  1
AC150V計
 41
0.8
  7
高3.2
100
AcDbText
  0
TEXT
  5
447
330
36
100
AcDbEntity
  8
0
 62
     3
100
AcDbText
 10
-171.768559
 20
-978.9519172232596
 30
0.0
 40
3.2
  1
1
 41
0.8
  7
高3.2
100
AcDbText
  0
TEXT
  5
448
330
36
100
AcDbEntity
  8
0
 62
     3
100
AcDbText
 10
-171.768559
 20
-973.9519242244265
 30
0.0
 40
3.2
  1
2
 41
0.8
  7
高3.2
100
AcDbText
  0
TEXT
  5
449
330
36
100
AcDbEntity
  8
0
 62
     3
100
AcDbText
 10
-171.768559
 20
-968.9519304476858
 30
0.0
 40
3.2
  1
3
 41
0.8
  7
高3.2
100
AcDbText
  0
TEXT
  5
44A
330
36
100
AcDbEntity
  8
0
 62
     3
100
AcDbText
 10
-171.768559
 20
-963.9519366709453
 30
0.0
 40
3.2
  1
4
 41
0.8
  7
高3.2
100
AcDbText
  0
TEXT
  5
44B
330
36
100
AcDbEntity
  8
0
 62
     3
100
AcDbText
 10
-171.768559
 20
-958.9519436721118
 30
0.0
 40
3.2
  1
5
 41
0.8
  7
高3.2
100
AcDbText
  0
TEXT
  5
44C
330
36
100
AcDbEntity
  8
0
 62
     3
100
AcDbText
 10
-171.768559
 20
-953.9519498953712
 30
0.0
 40
3.2
  1
6
 41
0.8
  7
高3.2
100
AcDbText
  0
TEXT
  5
44D
330
36
100
AcDbEntity
  8
0
 62
     3
100
AcDbText
 10
-171.768559
 20
-948.9519561186307
 30
0.0
 40
3.2
  1
7
 41
0.8
  7
高3.2
100
AcDbText
  0
TEXT
  5
44E
330
36
100
AcDbEntity
  8
0
 62
     3
100
AcDbText
 10
-171.768559
 20
-943.9519631197978
 30
0.0
 40
3.2
  1
8
 41
0.8
  7
高3.2
100
AcDbText
  0
TEXT
  5
44F
330
36
100
AcDbEntity
  8
0
 62
     3
100
AcDbText
 10
-171.768559
 20
-938.9519693430573
 30
0.0
 40
3.2
  1
9
 41
0.8
  7
高3.2
100
AcDbText
  0
TEXT
  5
450
330
36
100
AcDbEntity
  8
0
 62
     3
100
AcDbText
 10
-129.1867302056924
 20
-938.9519693430573
 30
0.0
 40
3.2
  1
PC樹脂
 41
0.8
  7
高3.2
100
AcDbText
  0
TEXT
  5
451
330
36
100
AcDbEntity
  8
0
 62
     3
100
AcDbText
 10
-129.1867302056924
 20
-948.9519561186304
 30
0.0
 40
3.2
  1
PF樹脂
 41
0.8
  7
高3.2
100
AcDbText
  0
TEXT
  5
452
330
36
100
AcDbEntity
  8
0
 62
     3
100
AcDbText
 10
-129.1867302056924
 20
-953.9519498953712
 30
0.0
 40
3.2
  1
合成ゴム
 41
0.8
  7
高3.2
100
AcDbText
  0
TEXT
  5
453
330
36
100
AcDbEntity
  8
0
 62
     3
100
AcDbText
 10
-129.1867302056924
 20
-943.9519623418899
 30
0.0
 40
3.2
  1
耐熱ABS樹脂
 41
0.8
  7
高3.2
100
AcDbText
  0
TEXT
  5
454
330
36
100
AcDbEntity
  8
0
 62
     3
100
AcDbText
 10
-106.3138716759176
 20
-943.9519623418899
 30
0.0
 40
3.2
  1
2PE 15A 125V
 41
0.8
  7
高3.2
100
AcDbText
  0
TEXT
  5
456
330
36
100
AcDbEntity
  8
0
 62
     3
100
AcDbText
 10
-164.5460010264048
 20
-958.9519428942047
 30
0.0
 40
3.2
  1
電線4Pプラグ付き
 41
0.8
  7
高3.2
100
AcDbText
  0
TEXT
  5
457
330
36
100
AcDbEntity
  8
0
 62
     3
100
AcDbText
 10
-106.3138716759176
 20
-948.9519561186304
 30
0.0
 40
3.2
  1
220V/110V 6A
 41
0.8
  7
高3.2
100
AcDbText
  0
LINE
  5
458
330
36
100
AcDbEntity
  8
0
100
AcDbLine
 10
-107.8138716759176
 20
-984.451911
 30
0.0
 11
-107.8138716759176
 21
-929.4519817895755
 31
0.0
  0
LINE
  5
459
330
36
100
AcDbEntity
  8
0
100
AcDbLine
 10
-130.6867302056924
 20
-984.451911
 30
0.0
 11
-130.6867302056924
 21
-929.4519817895755
 31
0.0
  0
LINE
  5
45A
330
36
100
AcDbEntity
  8
0
100
AcDbLine
 10
-166.0460010264049
 20
-984.451911
 30
0.0
 11
-166.0460010264049
 21
-929.4519817895755
 31
0.0
  0
TEXT
  5
45B
330
36
100
AcDbEntity
  8
0
 62
     3
100
AcDbText
 10
-65.73740692415134
 20
-983.9519109999999
 30
0.0
 40
3.2
  1
個数
 41
0.8
  7
高3.2
100
AcDbText
  0
TEXT
  5
45C
330
36
100
AcDbEntity
  8
0
 62
     3
100
AcDbText
 10
-106.3138716759176
 20
-983.9519109999999
 30
0.0
 40
3.2
  1
備　　　考
 41
0.8
  7
高3.2
100
AcDbText
  0
TEXT
  5
45D
330
36
100
AcDbEntity
  8
0
 62
     3
100
AcDbText
 10
-129.1867302056924
 20
-983.9519109999999
 30
0.0
 40
3.2
  1
材　　　質
 41
0.8
  7
高3.2
100
AcDbText
  0
TEXT
  5
45E
330
36
100
AcDbEntity
  8
0
 62
     3
100
AcDbText
 10
-164.5460010264048
 20
-983.9519109999999
 30
0.0
 40
3.2
  1
部　　品　　名
 41
0.8
  7
高3.2
100
AcDbText
  0
TEXT
  5
45F
330
36
100
AcDbEntity
  8
0
 62
     3
100
AcDbText
 10
-171.768559
 20
-983.9519109999999
 30
0.0
 40
3.2
  1
No
 41
0.8
  7
高3.2
100
AcDbText
  0
TEXT
  5
460
330
36
100
AcDbEntity
  8
0
 62
     3
100
AcDbText
 10
-129.1867302056924
 20
-978.9519172232596
 30
0.0
 40
3.2
  1
PA樹脂
 41
0.8
  7
高3.2
100
AcDbText
  0
LINE
  5
461
330
36
100
AcDbEntity
  8
0
 62
     3
100
AcDbLine
 10
216.631405
 20
-938.786188
 30
0.0
 11
165.032041
 21
-938.786188
 31
0.0
  0
TEXT
  5
462
330
36
100
AcDbEntity
  8
0
 62
     3
100
AcDbText
 10
170.2444247491912
 20
-944.2301029999999
 30
0.0
 40
4.5
  1
コード
  7
高4.5
100
AcDbText
  0
LINE
  5
463
330
36
100
AcDbEntity
  8
0
 62
     3
100
AcDbLine
 10
191.032041
 20
-944.7861880000001
 30
0.0
 11
191.032041
 21
-938.786188
 31
0.0
  0
LINE
  5
464
330
36
100
AcDbEntity
  8
0
 62
     3
100
AcDbLine
 10
165.032041
 20
-944.7861880000001
 30
0.0
 11
165.032041
 21
-938.786188
 31
0.0
  0
LINE
  5
465
330
36
100
AcDbEntity
  8
0
 62
     3
100
AcDbLine
 10
-173.268559
 20
-929.4519817895755
 30
0.0
 11
12.44837122402259
 21
-929.4519817895755
 31
0.0
  0
LINE
  5
466
330
36
100
AcDbEntity
  8
0
100
AcDbLine
 10
-173.268559
 20
-969.4519304476857
 30
0.0
 11
12.44837122402259
 21
-969.4519304476857
 31
0.0
  0
LINE
  5
467
330
36
100
AcDbEntity
  8
0
100
AcDbLine
 10
-173.268559
 20
-964.4519366709452
 30
0.0
 11
12.44837122402259
 21
-964.4519366709452
 31
0.0
  0
LINE
  5
468
330
36
100
AcDbEntity
  8
0
100
AcDbLine
 10
-173.268559
 20
-959.4519428942046
 30
0.0
 11
12.44837122402259
 21
-959.4519428942046
 31
0.0
  0
LINE
  5
469
330
36
100
AcDbEntity
  8
0
100
AcDbLine
 10
-173.268559
 20
-954.4519498953713
 30
0.0
 11
12.44837122402259
 21
-954.4519498953713
 31
0.0
  0
LINE
  5
46A
330
36
100
AcDbEntity
  8
0
100
AcDbLine
 10
-173.268559
 20
-949.4519561186306
 30
0.0
 11
12.44837122402259
 21
-949.4519561186306
 31
0.0
  0
LINE
  5
46B
330
36
100
AcDbEntity
  8
0
100
AcDbLine
 10
-173.268559
 20
-944.4519623418903
 30
0.0
 11
12.44837122402259
 21
-944.4519623418903
 31
0.0
  0
LINE
  5
46C
330
36
100
AcDbEntity
  8
0
100
AcDbLine
 10
-173.268559
 20
-939.4519693430568
 30
0.0
 11
12.44837122402259
 21
-939.4519693430568
 31
0.0
  0
LINE
  5
46D
330
36
100
AcDbEntity
  8
0
100
AcDbLine
 10
-173.268559
 20
-934.4519755663164
 30
0.0
 11
12.44837122402259
 21
-934.4519755663164
 31
0.0
  0
LINE
  5
46E
330
36
100
AcDbEntity
  8
0
 62
     3
100
AcDbLine
 10
-173.268559
 20
-979.4519172232595
 30
0.0
 11
12.44837122402259
 21
-979.4519172232595
 31
0.0
  0
TEXT
  5
46F
330
36
100
AcDbEntity
  8
0
 62
     3
100
AcDbText
 10
195.7252176986799
 20
-944.287832
 30
0.0
 40
4.5
  1
5606
  7
高4.5
100
AcDbText
  0
LINE
  5
475
330
36
100
AcDbEntity
  8
0
100
AcDbLine
 10
-121.747133
 20
-861.9497499999999
 30
0.0
 11
-142.273785
 21
-854.793122
 31
0.0
  0
CIRCLE
  5
476
330
36
100
AcDbEntity
  8
0
100
AcDbCircle
 10
-146.99506
 20
-853.147047
 30
0.0
 40
5.0
  0
TEXT
  5
477
330
36
100
AcDbEntity
  8
0
 62
     4
100
AcDbText
 10
-149.1369600407309
 20
-856.6379559999997
 30
0.0
 40
6.299999999999998
  1
6
  7
高6.3
100
AcDbText
  0
LINE
  5
47D
330
36
100
AcDbEntity
  8
0
100
AcDbLine
 10
-125.910667
 20
-819.8144349999999
 30
0.0
 11
-142.583933
 21
-810.916225
 31
0.0
  0
CIRCLE
  5
47E
330
36
100
AcDbEntity
  8
0
100
AcDbCircle
 10
-146.99506
 20
-808.5620889999999
 30
0.0
 40
5.0
  0
TEXT
  5
47F
330
36
100
AcDbEntity
  8
0
 62
     4
100
AcDbText
 10
-149.1369600407309
 20
-812.052998
 30
0.0
 40
6.299999999999998
  1
8
  7
高6.3
100
AcDbText
  0
LINE
  5
485
330
36
100
AcDbEntity
  8
0
100
AcDbLine
 10
80.583085
 20
-752.435199
 30
0.0
 11
108.811899
 21
-745.2920799999997
 31
0.0
  0
CIRCLE
  5
486
330
36
100
AcDbEntity
  8
0
100
AcDbCircle
 10
113.65912
 20
-744.065522
 30
0.0
 40
5.0
  0
TEXT
  5
487
330
36
100
AcDbEntity
  8
0
 62
     4
100
AcDbText
 10
112.5472689362059
 20
-747.556431
 30
0.0
 40
6.299999999999998
  1
1
  7
高6.3
100
AcDbText
  0
CIRCLE
  5
48E
330
36
100
AcDbEntity
  8
0
100
AcDbCircle
 10
125.6692893257814
 20
-744.2981145160298
 30
0.0
 40
5.0
  0
TEXT
  5
48F
330
36
100
AcDbEntity
  8
0
 62
     4
100
AcDbText
 10
123.5273892850504
 20
-747.7890245160295
 30
0.0
 40
6.299999999999998
  1
3
  7
高6.3
100
AcDbText
  0
LINE
  5
4A5
330
36
100
AcDbEntity
  8
0
100
AcDbLine
 10
-122.881369
 20
-782.299128
 30
0.0
 11
-142.360625
 21
-774.4110599999997
 31
0.0
  0
CIRCLE
  5
4A6
330
36
100
AcDbEntity
  8
0
100
AcDbCircle
 10
-146.99506
 20
-772.534358
 30
0.0
 40
5.0
  0
TEXT
  5
4A7
330
36
100
AcDbEntity
  8
0
 62
     4
100
AcDbText
 10
-149.7314733344469
 20
-774.9336512893855
 30
0.0
 40
4.5
  1
10
  7
高4.5
100
AcDbText
  0
LINE
  5
4AE
330
36
100
AcDbEntity
  8
0
 62
     3
100
AcDbLine
 10
-185.670483
 20
-845.951911
 30
0.0
 11
-188.268559
 21
-847.4519109999999
 31
0.0
  0
LINE
  5
4AF
330
36
100
AcDbEntity
  8
0
 62
     3
100
AcDbLine
 10
-185.670483
 20
-845.951911
 30
0.0
 11
-188.268559
 21
-844.4519109999996
 31
0.0
  0
LINE
  5
4B0
330
36
100
AcDbEntity
  8
0
 62
     3
100
AcDbLine
 10
-188.268559
 20
-847.4519109999999
 30
0.0
 11
-188.268559
 21
-844.4519109999996
 31
0.0
  0
LINE
  5
4B6
330
36
100
AcDbEntity
  8
0
100
AcDbLine
 10
-81.41331800000001
 20
-772.908497
 30
0.0
 11
-58.841919
 21
-759.3959489999997
 31
0.0
  0
CIRCLE
  5
4B7
330
36
100
AcDbEntity
  8
0
100
AcDbCircle
 10
-54.551916
 20
-756.827705
 30
0.0
 40
5.0
  0
TEXT
  5
4B8
330
36
100
AcDbEntity
  8
0
 62
     4
100
AcDbText
 10
-56.69381604073088
 20
-760.3186139999997
 30
0.0
 40
6.299999999999998
  1
9
  7
高6.3
100
AcDbText
  0
LINE
  5
4BE
330
36
100
AcDbEntity
  8
0
100
AcDbLine
 10
-95.646097
 20
-827.315111
 30
0.0
 11
-59.06089699999998
 21
-809.7826320000001
 31
0.0
  0
CIRCLE
  5
4BF
330
36
100
AcDbEntity
  8
0
100
AcDbCircle
 10
-54.551916
 20
-807.621823
 30
0.0
 40
5.0
  0
TEXT
  5
4C0
330
36
100
AcDbEntity
  8
0
 62
     4
100
AcDbText
 10
-56.69381604073088
 20
-811.1127320000001
 30
0.0
 40
6.299999999999998
  1
7
  7
高6.3
100
AcDbText
  0
TEXT
  5
4C1
330
36
100
AcDbEntity
  8
0
 62
     3
100
AcDbText
 10
156.8028479563055
 20
-740.5502819325598
 30
0.0
 40
3.2
  1
E付き4Pプラグ
  7
高3.2
100
AcDbText
  0
TEXT
  5
4C2
330
36
100
AcDbEntity
  8
0
 62
     4
100
AcDbText
 10
64.083015
 20
-895.4709349999998
 30
0.0
 40
3.2
  1
白線
  7
高3.2
100
AcDbText
  0
TEXT
  5
4C3
330
36
100
AcDbEntity
  8
0
 62
     4
100
AcDbText
 10
64.002432
 20
-908.3460529999999
 30
0.0
 40
3.2
  1
黒線
  7
高3.2
100
AcDbText
  0
TEXT
  5
4C4
330
36
100
AcDbEntity
  8
0
 62
     4
100
AcDbText
 10
63.958204
 20
-921.389221
 30
0.0
 40
3.2
  1
緑線
  7
高3.2
100
AcDbText
  0
TEXT
  5
5AF
330
36
100
AcDbEntity
  8
0
 62
     3
100
AcDbText
 10
49.88895020107412
 20
-907.4440584033252
 30
0.0
 40
3.2
  1
X
  7
高3.2
100
AcDbText
  0
TEXT
  5
5B0
330
36
100
AcDbEntity
  8
0
 62
     3
100
AcDbText
 10
26.74600581392934
 20
-910.1884327174223
 30
0.0
 40
3.2
  1
Z
  7
高3.2
100
AcDbText
  0
TEXT
  5
5B1
330
36
100
AcDbEntity
  8
0
 62
     3
100
AcDbText
 10
36.29083564025819
 20
-898.8188821719381
 30
0.0
 40
3.2
  1
Y
  7
高3.2
100
AcDbText
  0
TEXT
  5
6C4
330
36
100
AcDbEntity
  8
0
 62
     3
100
AcDbText
 10
204.231441
 20
-716.9519109999996
 30
0.0
 40
3.2
  1
担　当
  7
高3.2
100
AcDbText
  0
TEXT
  5
6C5
330
36
100
AcDbEntity
  8
0
 62
     3
100
AcDbText
 10
160.231441
 20
-716.9519109999996
 30
0.0
 40
3.2
  1
変更・追記内容
  7
高3.2
100
AcDbText
  0
TEXT
  5
6C6
330
36
100
AcDbEntity
  8
0
 62
     3
100
AcDbText
 10
135.3449560003392
 20
-721.6224495099083
 30
0.0
 40
2.0
  1
1
  7
高2
100
AcDbText
  0
TEXT
  5
6C7
330
36
100
AcDbEntity
  8
0
 62
     3
100
AcDbText
 10
135.0364445235819
 20
-726.7922662221811
 30
0.0
 40
2.0
  1
2
  7
高2
100
AcDbText
  0
TEXT
  5
6C8
330
36
100
AcDbEntity
  8
0
 62
     3
100
AcDbText
 10
142.231441
 20
-716.9519109999996
 30
0.0
 40
3.2
  1
日　付
  7
高3.2
100
AcDbText
  0
TEXT
  5
6C9
330
36
100
AcDbEntity
  8
0
 62
     3
100
AcDbText
 10
142.231441
 20
-711.9519109999997
 30
0.0
 40
3.2
  1
図　　　　面　　　　略　　　　歴
  7
高3.2
100
AcDbText
  0
TEXT
  5
6CA
330
36
100
AcDbEntity
  8
0
 62
     3
100
AcDbText
 10
132.231441
 20
-716.9519109999996
 30
0.0
 40
3.2
  1
記号
  7
高3.2
100
AcDbText
  0
LINE
  5
6CB
330
36
100
AcDbEntity
  8
0
100
AcDbLine
 10
135.731441
 20
-723.6610149999997
 30
0.0
 11
133.831441
 21
-726.9519109999999
 31
0.0
  0
LINE
  5
6CC
330
36
100
AcDbEntity
  8
0
100
AcDbLine
 10
135.731441
 20
-723.6610149999997
 30
0.0
 11
137.631441
 21
-726.9519109999999
 31
0.0
  0
LINE
  5
6CD
330
36
100
AcDbEntity
  8
0
100
AcDbLine
 10
133.831441
 20
-726.9519109999999
 30
0.0
 11
137.631441
 21
-726.9519109999999
 31
0.0
  0
LINE
  5
6CE
330
36
100
AcDbEntity
  8
0
100
AcDbLine
 10
135.731441
 20
-718.6610139999997
 30
0.0
 11
133.831441
 21
-721.9519109999999
 31
0.0
  0
LINE
  5
6CF
330
36
100
AcDbEntity
  8
0
100
AcDbLine
 10
135.731441
 20
-718.6610139999997
 30
0.0
 11
137.631441
 21
-721.9519109999999
 31
0.0
  0
LINE
  5
6D0
330
36
100
AcDbEntity
  8
0
100
AcDbLine
 10
133.831441
 20
-721.9519109999999
 30
0.0
 11
137.631441
 21
-721.9519109999999
 31
0.0
  0
LINE
  5
6D1
330
36
100
AcDbEntity
  8
0
 62
     3
100
AcDbLine
 10
130.731441
 20
-712.4519109999996
 30
0.0
 11
216.731441
 21
-712.4519109999996
 31
0.0
  0
LINE
  5
6D2
330
36
100
AcDbEntity
  8
0
 62
     3
100
AcDbLine
 10
130.731441
 20
-717.4519109999996
 30
0.0
 11
216.731441
 21
-717.4519109999996
 31
0.0
  0
LINE
  5
6D3
330
36
100
AcDbEntity
  8
0
 62
     7
100
AcDbLine
 10
130.731441
 20
-722.4519109999999
 30
0.0
 11
216.731441
 21
-722.4519109999999
 31
0.0
  0
LINE
  5
6D4
330
36
100
AcDbEntity
  8
0
 62
     3
100
AcDbLine
 10
130.731441
 20
-727.4519109999999
 30
0.0
 11
216.731441
 21
-727.4519109999999
 31
0.0
  0
LINE
  5
6D5
330
36
100
AcDbEntity
  8
0
 62
     7
100
AcDbLine
 10
202.731441
 20
-727.4519109999999
 30
0.0
 11
202.731441
 21
-712.4519109999996
 31
0.0
  0
LINE
  5
6D6
330
36
100
AcDbEntity
  8
0
 62
     7
100
AcDbLine
 10
158.731441
 20
-727.4519109999999
 30
0.0
 11
158.731441
 21
-712.4519109999996
 31
0.0
  0
LINE
  5
6D7
330
36
100
AcDbEntity
  8
0
 62
     7
100
AcDbLine
 10
140.731441
 20
-727.4519109999999
 30
0.0
 11
140.731441
 21
-712.4519109999996
 31
0.0
  0
LINE
  5
6D8
330
36
100
AcDbEntity
  8
0
 62
     3
100
AcDbLine
 10
130.731441
 20
-727.4519109999999
 30
0.0
 11
130.731441
 21
-707.4519109999997
 31
0.0
  0
CIRCLE
  5
81A
330
36
100
AcDbEntity
  8
0
100
AcDbCircle
 10
-54.551916
 20
-781.7968291437152
 30
0.0
 40
5.0
  0
TEXT
  5
81B
330
36
100
AcDbEntity
  8
0
 62
     4
100
AcDbText
 10
-56.69381604073088
 20
-785.2877381437149
 30
0.0
 40
6.299999999999998
  1
4
  7
高6.3
100
AcDbText
  0
TEXT
  5
81C
330
36
100
AcDbEntity
  8
0
 62
     3
100
AcDbText
 10
-106.3138716759176
 20
-963.951936670945
 30
0.0
 40
3.2
  1
-
 41
0.8
  7
高3.2
100
AcDbText
  0
TEXT
  5
81D
330
36
100
AcDbEntity
  8
0
 62
     3
100
AcDbText
 10
-129.1867302056924
 20
-963.951936670945
 30
0.0
 40
3.2
  1
SPCC
 41
0.8
  7
高3.2
100
AcDbText
  0
TEXT
  5
81E
330
36
100
AcDbEntity
  8
0
 62
     3
100
AcDbText
 10
-164.5460010264048
 20
-963.951936670945
 30
0.0
 40
3.2
  1
フロントパネル
 41
0.8
  7
高3.2
100
AcDbText
  0
TEXT
  5
81F
330
36
100
AcDbEntity
  8
0
 62
     3
100
AcDbText
 10
-65.73740692415134
 20
-963.951936670945
 30
0.0
 40
3.2
  1
1
 41
0.8
  7
高3.2
100
AcDbText
  0
TEXT
  5
826
330
36
100
AcDbEntity
  8
0
 62
     3
100
AcDbText
 10
-57.76685394576944
 20
-978.9519172232596
 30
0.0
 40
3.2
  1
55285
 41
0.8
  7
高3.2
100
AcDbText
  0
TEXT
  5
827
330
36
100
AcDbEntity
  8
0
 62
     3
100
AcDbText
 10
-57.76685394576944
 20
-968.9519304476858
 30
0.0
 40
3.2
  1
55280
 41
0.8
  7
高3.2
100
AcDbText
  0
TEXT
  5
828
330
36
100
AcDbEntity
  8
0
 62
     3
100
AcDbText
 10
-57.76685394576944
 20
-953.9519498953712
 30
0.0
 40
3.2
  1
54927
 41
0.8
  7
高3.2
100
AcDbText
  0
TEXT
  5
829
330
36
100
AcDbEntity
  8
0
 62
     3
100
AcDbText
 10
-57.76685394576944
 20
-948.9519561186304
 30
0.0
 40
3.2
  1
55300
 41
0.8
  7
高3.2
100
AcDbText
  0
TEXT
  5
82A
330
36
100
AcDbEntity
  8
0
 62
     3
100
AcDbText
 10
-57.76685394576944
 20
-943.9519623418899
 30
0.0
 40
3.2
  1
51411
 41
0.8
  7
高3.2
100
AcDbText
  0
TEXT
  5
82B
330
36
100
AcDbEntity
  8
0
 62
     3
100
AcDbText
 10
-57.76685394576944
 20
-938.9519693430573
 30
0.0
 40
3.2
  1
55286
 41
0.8
  7
高3.2
100
AcDbText
  0
TEXT
  5
82C
330
36
100
AcDbEntity
  8
0
 62
     3
100
AcDbText
 10
-57.76685394576944
 20
-933.9519755663166
 30
0.0
 40
3.2
  1
55287
 41
0.8
  7
高3.2
100
AcDbText
  0
TEXT
  5
82D
330
36
100
AcDbEntity
  8
0
 62
     3
100
AcDbText
 10
-57.76685394576944
 20
-958.9519428942047
 30
0.0
 40
3.2
  1
51322
 41
0.8
  7
高3.2
100
AcDbText
  0
LINE
  5
82E
330
36
100
AcDbEntity
  8
0
100
AcDbLine
 10
-59.26685394576943
 20
-984.451911
 30
0.0
 11
-59.26685394576943
 21
-929.4519817895755
 31
0.0
  0
TEXT
  5
82F
330
36
100
AcDbEntity
  8
0
 62
     3
100
AcDbText
 10
-57.76685394576944
 20
-983.9519109999999
 30
0.0
 40
3.2
  1
コード
 41
0.8
  7
高3.2
100
AcDbText
  0
TEXT
  5
830
330
36
100
AcDbEntity
  8
0
 62
     3
100
AcDbText
 10
-57.76685394576944
 20
-963.951936670945
 30
0.0
 40
3.2
  1
55283
 41
0.8
  7
高3.2
100
AcDbText
  0
TEXT
  5
831
330
36
100
AcDbEntity
  8
0
 62
     3
100
AcDbText
 10
-42.39498744747279
 20
-978.9519172232596
 30
0.0
 40
3.2
  1
RTB-100/200D-100V兼用　取手
 41
0.6
  7
高3.2
100
AcDbText
  0
TEXT
  5
832
330
36
100
AcDbEntity
  8
0
 62
     3
100
AcDbText
 10
-42.39498744747279
 20
-968.9519304476858
 30
0.0
 40
3.2
  1
RTB-100/200-100V兼用　上カバー
 41
0.6
  7
高3.2
100
AcDbText
  0
TEXT
  5
833
330
36
100
AcDbEntity
  8
0
 62
     3
100
AcDbText
 10
-42.39498744747279
 20
-953.9519498953712
 30
0.0
 40
3.2
  1
RTB-100/200/300兼用　脚ゴム(1/4)
 41
0.6
  7
高3.2
100
AcDbText
  0
TEXT
  5
834
330
36
100
AcDbEntity
  8
0
 62
     3
100
AcDbText
 10
-42.39498744747279
 20
-948.9519561186304
 30
0.0
 40
3.2
  1
RTB-100D-100V用　安全ブレーカー(6A)
 41
0.6
  7
高3.2
100
AcDbText
  0
TEXT
  5
835
330
36
100
AcDbEntity
  8
0
 62
     3
100
AcDbText
 10
-42.39498744747279
 20
-943.9519623418899
 30
0.0
 40
3.2
  1
2PE-WK(金具付コンセント白)
 41
0.6
  7
高3.2
100
AcDbText
  0
TEXT
  5
836
330
36
100
AcDbEntity
  8
0
 62
     3
100
AcDbText
 10
-42.39498744747279
 20
-938.9519693430573
 30
0.0
 40
3.2
  1
RTB-100/200/300兼用　電源ランプ
 41
0.6
  7
高3.2
100
AcDbText
  0
TEXT
  5
837
330
36
100
AcDbEntity
  8
0
 62
     3
100
AcDbText
 10
-42.39498744747279
 20
-933.9519755663166
 30
0.0
 40
3.2
  1
RTB-100/200D-100V兼用　電圧計
 41
0.6
  7
高3.2
100
AcDbText
  0
TEXT
  5
838
330
36
100
AcDbEntity
  8
0
 62
     3
100
AcDbText
 10
-42.39498744747279
 20
-958.9519428942047
 30
0.0
 40
3.2
  1
VCT2x3x2.5M防雨型4Pプラグ付
 41
0.6
  7
高3.2
100
AcDbText
  0
LINE
  5
839
330
36
100
AcDbEntity
  8
0
100
AcDbLine
 10
-43.89498744747277
 20
-984.451911
 30
0.0
 11
-43.89498744747277
 21
-929.4519817895755
 31
0.0
  0
TEXT
  5
83A
330
36
100
AcDbEntity
  8
0
 62
     3
100
AcDbText
 10
-42.39498744747279
 20
-983.9519109999999
 30
0.0
 40
3.2
  1
コード番号名称
 41
0.6
  7
高3.2
100
AcDbText
  0
TEXT
  5
83B
330
36
100
AcDbEntity
  8
0
 62
     3
100
AcDbText
 10
-42.39498744747279
 20
-963.951936670945
 30
0.0
 40
3.2
  1
RTB-100D-100V兼用　フロントパネル
 41
0.6
  7
高3.2
100
AcDbText
  0
CIRCLE
  5
91E
330
36
100
AcDbEntity
  8
0
100
AcDbCircle
 10
91.13850533140658
 20
-866.7904111302071
 30
0.0
 40
5.0
  0
TEXT
  5
91F
330
36
100
AcDbEntity
  8
0
 62
     4
100
AcDbText
 10
88.99660529067565
 20
-870.2813211302069
 30
0.0
 40
6.299999999999998
  1
2
  7
高6.3
100
AcDbText
  0
TEXT
  5
929
330
36
100
AcDbEntity
  8
0
 62
     3
100
AcDbText
 10
-106.3138716759176
 20
-973.9519242244265
 30
0.0
 40
3.2
  1
塗装
 41
0.8
  7
高3.2
100
AcDbText
  0
TEXT
  5
92A
330
36
100
AcDbEntity
  8
0
 62
     3
100
AcDbText
 10
-65.73740692415134
 20
-973.9519242244265
 30
0.0
 40
3.2
  1
1
 41
0.8
  7
高3.2
100
AcDbText
  0
TEXT
  5
92B
330
36
100
AcDbEntity
  8
0
 62
     3
100
AcDbText
 10
-129.1867302056924
 20
-973.9519242244265
 30
0.0
 40
3.2
  1
SPCC
 41
0.8
  7
高3.2
100
AcDbText
  0
TEXT
  5
92C
330
36
100
AcDbEntity
  8
0
 62
     3
100
AcDbText
 10
-164.5460010264048
 20
-973.9519242244265
 30
0.0
 40
3.2
  1
シャーシ
 41
0.8
  7
高3.2
100
AcDbText
  0
LINE
  5
92D
330
36
100
AcDbEntity
  8
0
100
AcDbLine
 10
-173.268559
 20
-974.4519242244264
 30
0.0
 11
12.44837122402259
 21
-974.4519242244264
 31
0.0
  0
TEXT
  5
92E
330
36
100
AcDbEntity
  8
0
 62
     3
100
AcDbText
 10
-57.76685394576944
 20
-973.9519242244265
 30
0.0
 40
3.2
  1
56194
 41
0.8
  7
高3.2
100
AcDbText
  0
TEXT
  5
92F
330
36
100
AcDbEntity
  8
0
 62
     3
100
AcDbText
 10
-42.39498744747279
 20
-973.9519242244265
 30
0.0
 40
3.2
  1
RTB-100/200-100V兼用　シャーシ
 41
0.6
  7
高3.2
100
AcDbText
  0
TEXT
  5
930
330
36
100
AcDbEntity
  8
0
 62
     3
100
AcDbText
 10
-171.768559
 20
-933.9519755663166
 30
0.0
 40
3.2
  1
10
 41
0.8
  7
高3.2
100
AcDbText
  0
CIRCLE
  5
B91
330
36
100
AcDbEntity
  8
0
100
AcDbCircle
 10
188.6570879669702
 20
-841.6766803795741
 30
0.0
 40
5.0
  0
TEXT
  5
B92
330
36
100
AcDbEntity
  8
0
 62
     4
100
AcDbText
 10
186.4626262764706
 20
-844.57237516968
 30
0.0
 40
6.299999999999998
  1
5
  7
高6.3
100
AcDbText
  0
ARC
  5
B94
330
36
100
AcDbEntity
  8
0
 62
     3
100
AcDbCircle
 10
156.6120306084029
 20
-800.5527624083521
 30
0.0
 40
2.0
100
AcDbArc
 50
90.0
 51
270.0
  0
ARC
  5
B95
330
36
100
AcDbEntity
  8
0
 62
     3
100
AcDbCircle
 10
183.1120306084029
 20
-800.5527624083521
 30
0.0
 40
2.0
100
AcDbArc
 50
270.0
 51
90.0
  0
LINE
  5
B96
330
36
100
AcDbEntity
  8
0
 62
     3
100
AcDbLine
 10
156.6120306084029
 20
-802.5527624083521
 30
0.0
 11
156.6120306084029
 21
-805.0527624083521
 31
0.0
  0
LINE
  5
B97
330
36
100
AcDbEntity
  8
0
 62
     3
100
AcDbLine
 10
183.1120306084029
 20
-805.0527624083521
 30
0.0
 11
183.1120306084029
 21
-802.5527624083521
 31
0.0
  0
LINE
  5
B98
330
36
100
AcDbEntity
  8
0
 62
     3
100
AcDbLine
 10
156.6120306084029
 20
-805.0527624083521
 30
0.0
 11
157.3620306084029
 21
-806.552762408352
 31
0.0
  0
LINE
  5
B99
330
36
100
AcDbEntity
  8
0
 62
     3
100
AcDbLine
 10
182.3620306084029
 20
-806.552762408352
 30
0.0
 11
183.1120306084029
 21
-805.0527624083521
 31
0.0
  0
LINE
  5
B9A
330
36
100
AcDbEntity
  8
0
 62
     3
100
AcDbLine
 10
156.6120306084029
 20
-797.0527624083521
 30
0.0
 11
156.6120306084029
 21
-798.5527624083521
 31
0.0
  0
LINE
  5
B9B
330
36
100
AcDbEntity
  8
0
 62
     3
100
AcDbLine
 10
183.1120306084029
 20
-798.5527624083521
 30
0.0
 11
183.1120306084029
 21
-797.0527624083521
 31
0.0
  0
ARC
  5
B9C
330
36
100
AcDbEntity
  8
0
 62
     3
100
AcDbCircle
 10
169.8620306084029
 20
-810.5527624083519
 30
0.0
 40
12.50000000000002
100
AcDbArc
 50
306.6531750701012
 51
334.1582287284916
  0
ARC
  5
B9D
330
36
100
AcDbEntity
  8
0
 62
     3
100
AcDbCircle
 10
169.8620306084029
 20
-810.5527624083519
 30
0.0
 40
12.50000000000001
100
AcDbArc
 50
205.8417712364052
 51
233.346824929917
  0
ARC
  5
B9E
330
36
100
AcDbEntity
  8
0
 62
     3
100
AcDbCircle
 10
160.012030608403
 20
-823.7901148626761
 30
0.0
 40
4.0
100
AcDbArc
 50
0.0
 51
53.34682492991696
  0
ARC
  5
B9F
330
36
100
AcDbEntity
  8
0
 62
     3
100
AcDbCircle
 10
179.7120306084028
 20
-823.7901148626761
 30
0.0
 40
4.0
100
AcDbArc
 50
126.653175070083
 51
180.0
  0
ARC
  5
BA0
330
36
100
AcDbEntity
  8
0
 62
     3
100
AcDbCircle
 10
164.7864701088263
 20
-832.0846163896179
 30
0.0
 40
2.174439500423603
100
AcDbArc
 50
110.8643046745888
 51
244.8405244688162
  0
ARC
  5
BA1
330
36
100
AcDbEntity
  8
0
 62
     3
100
AcDbCircle
 10
174.9375911079792
 20
-832.0846163896179
 30
0.0
 40
2.174439500423597
100
AcDbArc
 50
295.1594755311838
 51
69.13569532541112
  0
LINE
  5
BA2
330
36
100
AcDbEntity
  8
0
 62
     3
100
AcDbLine
 10
163.8620306084029
 20
-834.052762408352
 30
0.0
 11
163.8620306084029
 21
-835.5527624083519
 31
0.0
  0
LINE
  5
BA3
330
36
100
AcDbEntity
  8
0
 62
     3
100
AcDbLine
 10
175.8620306084029
 20
-835.5527624083519
 30
0.0
 11
175.8620306084029
 21
-834.052762408352
 31
0.0
  0
LINE
  5
BA4
330
36
100
AcDbEntity
  8
0
 62
     3
100
AcDbLine
 10
164.012030608403
 20
-823.7901148626761
 30
0.0
 11
164.012030608403
 21
-830.0527624083521
 31
0.0
  0
LINE
  5
BA5
330
36
100
AcDbEntity
  8
0
 62
     3
100
AcDbLine
 10
175.7120306084028
 20
-830.0527624083521
 30
0.0
 11
175.7120306084028
 21
-823.7901148626761
 31
0.0
  0
LINE
  5
BA6
330
36
100
AcDbEntity
  8
0
 62
     3
100
AcDbLine
 10
164.9870306084029
 20
-835.5527624083519
 30
0.0
 11
165.3489963598816
 21
-849.0661504635621
 31
0.0
  0
LINE
  5
BA7
330
36
100
AcDbEntity
  8
0
 62
     3
100
AcDbLine
 10
174.375064856924
 20
-849.0661504635621
 30
0.0
 11
174.7370306084029
 21
-835.5527624083519
 31
0.0
  0
ARC
  5
BA8
330
36
100
AcDbEntity
  8
0
 62
     3
100
AcDbCircle
 10
173.8752441290847
 20
-849.0527624083521
 30
0.0
 40
0.5
100
AcDbArc
 50
270.0
 51
358.4656585003048
  0
ARC
  5
BA9
330
36
100
AcDbEntity
  8
0
 62
     3
100
AcDbCircle
 10
165.8488170877209
 20
-849.0527624083521
 30
0.0
 40
0.5
100
AcDbArc
 50
181.5343414996952
 51
270.0
  0
LINE
  5
BAA
330
36
100
AcDbEntity
  8
0
 62
     3
100
AcDbLine
 10
183.1120306084029
 20
-798.5527624083521
 30
0.0
 11
156.6120306084029
 21
-798.5527624083521
 31
0.0
  0
LINE
  5
BAB
330
36
100
AcDbEntity
  8
0
 62
     3
100
AcDbLine
 10
156.6120306084029
 20
-802.5527624083521
 30
0.0
 11
183.1120306084029
 21
-802.5527624083521
 31
0.0
  0
LINE
  5
BAC
330
36
100
AcDbEntity
  8
0
 62
     3
100
AcDbLine
 10
156.6120306084029
 20
-805.0527624083521
 30
0.0
 11
183.1120306084029
 21
-805.0527624083521
 31
0.0
  0
LINE
  5
BAD
330
36
100
AcDbEntity
  8
0
 62
     3
100
AcDbLine
 10
157.3620306084029
 20
-806.552762408352
 30
0.0
 11
182.3620306084029
 21
-806.552762408352
 31
0.0
  0
LINE
  5
BAE
330
36
100
AcDbEntity
  8
0
 62
     3
100
AcDbLine
 10
183.1120306084029
 20
-797.0527624083521
 30
0.0
 11
156.6120306084029
 21
-797.0527624083521
 31
0.0
  0
LINE
  5
BAF
330
36
100
AcDbEntity
  8
0
 62
     3
100
AcDbLine
 10
164.012030608403
 20
-830.0527624083521
 30
0.0
 11
175.7120306084026
 21
-830.0527624083521
 31
0.0
  0
LINE
  5
BB0
330
36
100
AcDbEntity
  8
0
 62
     3
100
AcDbLine
 10
163.8620306084029
 20
-834.052762408352
 30
0.0
 11
175.8620306084027
 21
-834.0527624083522
 31
0.0
  0
LINE
  5
BB1
330
36
100
AcDbEntity
  8
0
 62
     3
100
AcDbLine
 10
170.3620306084029
 20
-786.5527624083521
 30
0.0
 11
170.2120306084028
 21
-785.5527624083521
 31
0.0
  0
LINE
  5
BB2
330
36
100
AcDbEntity
  8
0
 62
     3
100
AcDbLine
 10
169.512030608403
 20
-785.5527624083521
 30
0.0
 11
169.3620306084029
 21
-786.5527624083521
 31
0.0
  0
LINE
  5
BB3
330
36
100
AcDbEntity
  8
0
 62
     3
100
AcDbLine
 10
169.512030608403
 20
-785.5527624083521
 30
0.0
 11
170.2120306084028
 21
-785.5527624083521
 31
0.0
  0
LINE
  5
BB4
330
36
100
AcDbEntity
  8
0
 62
     3
100
AcDbLine
 10
169.3620306084029
 20
-797.0527624083521
 30
0.0
 11
169.3620306084029
 21
-786.5527624083521
 31
0.0
  0
LINE
  5
BB5
330
36
100
AcDbEntity
  8
0
 62
     3
100
AcDbLine
 10
170.3620306084029
 20
-786.5527624083521
 30
0.0
 11
170.3620306084029
 21
-797.0527624083521
 31
0.0
  0
LINE
  5
BB6
330
36
100
AcDbEntity
  8
0
 62
     3
100
AcDbLine
 10
163.8620306084029
 20
-835.5527624083519
 30
0.0
 11
175.8620306084029
 21
-835.5527624083519
 31
0.0
  0
LINE
  5
BB7
330
36
100
AcDbEntity
  8
0
 62
     3
100
AcDbLine
 10
169.1120306084029
 20
-844.8527624083521
 30
0.0
 11
165.2973417114718
 21
-844.8527624083521
 31
0.0
  0
LINE
  5
BB8
330
36
100
AcDbEntity
  8
0
 62
     3
100
AcDbLine
 10
165.3407789721389
 20
-846.4527624083521
 30
0.0
 11
165.2973417114718
 21
-844.8527624083521
 31
0.0
  0
LINE
  5
BB9
330
36
100
AcDbEntity
  8
0
 62
     3
100
AcDbLine
 10
165.3407789721389
 20
-846.4527624083521
 30
0.0
 11
169.1120306084029
 21
-846.4527624083519
 31
0.0
  0
LINE
  5
BBA
330
36
100
AcDbEntity
  8
0
 62
     3
100
AcDbLine
 10
169.1120306084029
 20
-846.4527624083519
 30
0.0
 11
169.1120306084029
 21
-844.8527624083521
 31
0.0
  0
LINE
  5
BBB
330
36
100
AcDbEntity
  8
0
 62
     3
100
AcDbLine
 10
170.6120306084029
 20
-843.352762408352
 30
0.0
 11
174.4674320650113
 21
-843.352762408352
 31
0.0
  0
LINE
  5
BBC
330
36
100
AcDbEntity
  8
0
 62
     3
100
AcDbLine
 10
174.5108485539475
 20
-841.752762408352
 30
0.0
 11
174.4674320650113
 21
-843.352762408352
 31
0.0
  0
LINE
  5
BBD
330
36
100
AcDbEntity
  8
0
 62
     3
100
AcDbLine
 10
174.5108485539475
 20
-841.752762408352
 30
0.0
 11
170.6120306084029
 21
-841.752762408352
 31
0.0
  0
LINE
  5
BBE
330
36
100
AcDbEntity
  8
0
 62
     3
100
AcDbLine
 10
170.6120306084029
 20
-841.752762408352
 30
0.0
 11
170.6120306084029
 21
-843.352762408352
 31
0.0
  0
LINE
  5
BBF
330
36
100
AcDbEntity
  8
0
 62
     3
100
AcDbLine
 10
170.6120306084029
 20
-846.4527624083519
 30
0.0
 11
174.3832822446666
 21
-846.4527624083521
 31
0.0
  0
LINE
  5
BC0
330
36
100
AcDbEntity
  8
0
 62
     3
100
AcDbLine
 10
174.4267195053337
 20
-844.8527624083521
 30
0.0
 11
174.3832822446666
 21
-846.4527624083521
 31
0.0
  0
LINE
  5
BC1
330
36
100
AcDbEntity
  8
0
 62
     3
100
AcDbLine
 10
174.4267195053337
 20
-844.8527624083521
 30
0.0
 11
170.6120306084029
 21
-844.8527624083521
 31
0.0
  0
LINE
  5
BC2
330
36
100
AcDbEntity
  8
0
 62
     3
100
AcDbLine
 10
170.6120306084029
 20
-844.8527624083521
 30
0.0
 11
170.6120306084029
 21
-846.4527624083519
 31
0.0
  0
LINE
  5
BC3
330
36
100
AcDbEntity
  8
0
 62
     3
100
AcDbLine
 10
170.6120306084029
 20
-835.5527624083519
 30
0.0
 11
170.6120306084029
 21
-837.1527624083521
 31
0.0
  0
LINE
  5
BC4
330
36
100
AcDbEntity
  8
0
 62
     3
100
AcDbLine
 10
170.6120306084029
 20
-837.1527624083521
 30
0.0
 11
174.6356146489154
 21
-837.1527624083521
 31
0.0
  0
LINE
  5
BC5
330
36
100
AcDbEntity
  8
0
 62
     3
100
AcDbLine
 10
174.6356146489154
 20
-837.1527624083521
 30
0.0
 11
174.6789928254023
 21
-835.5527624083519
 31
0.0
  0
LINE
  5
BC6
330
36
100
AcDbEntity
  8
0
 62
     3
100
AcDbLine
 10
165.0884465678903
 20
-837.1527624083521
 30
0.0
 11
165.0450683914035
 21
-835.5527624083519
 31
0.0
  0
LINE
  5
BC7
330
36
100
AcDbEntity
  8
0
 62
     3
100
AcDbLine
 10
165.0884465678903
 20
-837.1527624083521
 30
0.0
 11
169.1120306084029
 21
-837.1527624083521
 31
0.0
  0
LINE
  5
BC8
330
36
100
AcDbEntity
  8
0
 62
     3
100
AcDbLine
 10
169.1120306084029
 20
-837.1527624083521
 30
0.0
 11
169.1120306084029
 21
-835.5527624083519
 31
0.0
  0
LINE
  5
BC9
330
36
100
AcDbEntity
  8
0
 62
     3
100
AcDbLine
 10
169.1120306084029
 20
-840.252762408352
 30
0.0
 11
169.1120306084029
 21
-838.652762408352
 31
0.0
  0
LINE
  5
BCA
330
36
100
AcDbEntity
  8
0
 62
     3
100
AcDbLine
 10
169.1120306084029
 20
-838.652762408352
 30
0.0
 11
165.129122230295
 21
-838.652762408352
 31
0.0
  0
LINE
  5
BCB
330
36
100
AcDbEntity
  8
0
 62
     3
100
AcDbLine
 10
165.1725190502193
 20
-840.252762408352
 30
0.0
 11
165.129122230295
 21
-838.652762408352
 31
0.0
  0
LINE
  5
BCC
330
36
100
AcDbEntity
  8
0
 62
     3
100
AcDbLine
 10
165.1725190502193
 20
-840.252762408352
 30
0.0
 11
169.1120306084029
 21
-840.252762408352
 31
0.0
  0
LINE
  5
BCD
330
36
100
AcDbEntity
  8
0
 62
     3
100
AcDbLine
 10
170.6120306084029
 20
-840.252762408352
 30
0.0
 11
174.5515421665862
 21
-840.252762408352
 31
0.0
  0
LINE
  5
BCE
330
36
100
AcDbEntity
  8
0
 62
     3
100
AcDbLine
 10
174.5949389865105
 20
-838.652762408352
 30
0.0
 11
174.5515421665862
 21
-840.252762408352
 31
0.0
  0
LINE
  5
BCF
330
36
100
AcDbEntity
  8
0
 62
     3
100
AcDbLine
 10
174.5949389865105
 20
-838.652762408352
 30
0.0
 11
170.6120306084029
 21
-838.652762408352
 31
0.0
  0
LINE
  5
BD0
330
36
100
AcDbEntity
  8
0
 62
     3
100
AcDbLine
 10
170.6120306084029
 20
-838.652762408352
 30
0.0
 11
170.6120306084029
 21
-840.252762408352
 31
0.0
  0
LINE
  5
BD1
330
36
100
AcDbEntity
  8
0
 62
     3
100
AcDbLine
 10
169.1120306084029
 20
-841.752762408352
 30
0.0
 11
165.2132126628583
 21
-841.752762408352
 31
0.0
  0
LINE
  5
BD2
330
36
100
AcDbEntity
  8
0
 62
     3
100
AcDbLine
 10
165.2566291517944
 20
-843.352762408352
 30
0.0
 11
165.2132126628583
 21
-841.752762408352
 31
0.0
  0
LINE
  5
BD3
330
36
100
AcDbEntity
  8
0
 62
     3
100
AcDbLine
 10
165.2566291517944
 20
-843.352762408352
 30
0.0
 11
169.1120306084029
 21
-843.352762408352
 31
0.0
  0
LINE
  5
BD4
330
36
100
AcDbEntity
  8
0
 62
     3
100
AcDbLine
 10
169.1120306084029
 20
-843.352762408352
 30
0.0
 11
169.1120306084029
 21
-841.752762408352
 31
0.0
  0
LINE
  5
BD5
330
36
100
AcDbEntity
  8
0
 62
     3
100
AcDbLine
 10
173.8752441290847
 20
-849.5527624083521
 30
0.0
 11
165.8488170877209
 21
-849.5527624083521
 31
0.0
  0
LINE
  5
BD6
330
36
100
AcDbEntity
  8
0
 62
     3
100
AcDbLine
 10
167.0089620848655
 20
-844.8527624083521
 30
0.0
 11
167.0089620848655
 21
-846.4527624083521
 31
0.0
  0
LINE
  5
BD7
330
36
100
AcDbEntity
  8
0
 62
     3
100
AcDbLine
 10
172.7150991319402
 20
-843.352762408352
 30
0.0
 11
172.7150991319402
 21
-841.752762408352
 31
0.0
  0
LINE
  5
BD8
330
36
100
AcDbEntity
  8
0
 62
     3
100
AcDbLine
 10
172.7150991319402
 20
-846.4527624083521
 30
0.0
 11
172.7150991319402
 21
-844.8527624083521
 31
0.0
  0
LINE
  5
BD9
330
36
100
AcDbEntity
  8
0
 62
     3
100
AcDbLine
 10
167.0089620848655
 20
-835.5527624083519
 30
0.0
 11
167.0089620848655
 21
-837.1527624083521
 31
0.0
  0
LINE
  5
BDA
330
36
100
AcDbEntity
  8
0
 62
     3
100
AcDbLine
 10
167.0089620848655
 20
-838.652762408352
 30
0.0
 11
167.0089620848655
 21
-840.252762408352
 31
0.0
  0
LINE
  5
BDB
330
36
100
AcDbEntity
  8
0
 62
     3
100
AcDbLine
 10
172.7150991319402
 20
-840.252762408352
 30
0.0
 11
172.7150991319402
 21
-838.652762408352
 31
0.0
  0
LINE
  5
BDC
330
36
100
AcDbEntity
  8
0
 62
     3
100
AcDbLine
 10
167.0089620848655
 20
-841.752762408352
 30
0.0
 11
167.0089620848655
 21
-843.352762408352
 31
0.0
  0
LINE
  5
BDD
330
36
100
AcDbEntity
  8
0
 62
     3
100
AcDbLine
 10
172.7150991319402
 20
-835.5527624083519
 30
0.0
 11
172.7150991319402
 21
-837.1527624083521
 31
0.0
  0
LINE
  5
BDE
330
36
100
AcDbEntity
  8
0
 62
     3
100
AcDbLine
 10
174.512030608403
 20
-788.5527624083521
 30
0.0
 11
174.512030608403
 21
-797.0027624083521
 31
0.0
  0
LINE
  5
BDF
330
36
100
AcDbEntity
  8
0
 62
     3
100
AcDbLine
 10
175.512030608403
 20
-788.5527624083521
 30
0.0
 11
174.512030608403
 21
-788.5527624083521
 31
0.0
  0
LINE
  5
BE0
330
36
100
AcDbEntity
  8
0
 62
     3
100
AcDbLine
 10
175.512030608403
 20
-788.5527624083521
 30
0.0
 11
175.512030608403
 21
-797.052762408352
 31
0.0
  0
LINE
  5
BE1
330
36
100
AcDbEntity
  8
0
 62
     3
100
AcDbLine
 10
175.512030608403
 20
-788.0527624083521
 30
0.0
 11
175.3620306084029
 21
-787.0527624083521
 31
0.0
  0
LINE
  5
BE2
330
36
100
AcDbEntity
  8
0
 62
     3
100
AcDbLine
 10
174.6620306084028
 20
-787.0527624083521
 30
0.0
 11
174.512030608403
 21
-788.0527624083521
 31
0.0
  0
LINE
  5
BE3
330
36
100
AcDbEntity
  8
0
 62
     3
100
AcDbLine
 10
174.6620306084028
 20
-787.0527624083521
 30
0.0
 11
175.3620306084029
 21
-787.0527624083521
 31
0.0
  0
LINE
  5
BE4
330
36
100
AcDbEntity
  8
0
 62
     3
100
AcDbLine
 10
174.512030608403
 20
-788.5527624083521
 30
0.0
 11
174.512030608403
 21
-788.0527624083521
 31
0.0
  0
LINE
  5
BE5
330
36
100
AcDbEntity
  8
0
 62
     3
100
AcDbLine
 10
175.512030608403
 20
-788.0527624083521
 30
0.0
 11
175.512030608403
 21
-788.5527624083521
 31
0.0
  0
LINE
  5
BE6
330
36
100
AcDbEntity
  8
0
 62
     3
100
AcDbLine
 10
164.2120306084028
 20
-788.5527624083521
 30
0.0
 11
164.2120306084028
 21
-797.052762408352
 31
0.0
  0
LINE
  5
BE7
330
36
100
AcDbEntity
  8
0
 62
     3
100
AcDbLine
 10
165.2120306084028
 20
-788.5527624083521
 30
0.0
 11
164.2120306084028
 21
-788.5527624083521
 31
0.0
  0
LINE
  5
BE8
330
36
100
AcDbEntity
  8
0
 62
     3
100
AcDbLine
 10
165.2120306084028
 20
-788.5527624083521
 30
0.0
 11
165.2120306084028
 21
-797.0027624083521
 31
0.0
  0
LINE
  5
BE9
330
36
100
AcDbEntity
  8
0
 62
     3
100
AcDbLine
 10
165.2120306084028
 20
-788.0527624083521
 30
0.0
 11
165.0620306084027
 21
-787.0527624083521
 31
0.0
  0
LINE
  5
BEA
330
36
100
AcDbEntity
  8
0
 62
     3
100
AcDbLine
 10
164.3620306084029
 20
-787.0527624083521
 30
0.0
 11
164.2120306084028
 21
-788.0527624083521
 31
0.0
  0
LINE
  5
BEB
330
36
100
AcDbEntity
  8
0
 62
     3
100
AcDbLine
 10
164.3620306084029
 20
-787.0527624083521
 30
0.0
 11
165.0620306084027
 21
-787.0527624083521
 31
0.0
  0
LINE
  5
BEC
330
36
100
AcDbEntity
  8
0
 62
     3
100
AcDbLine
 10
164.2120306084028
 20
-788.5527624083521
 30
0.0
 11
164.2120306084028
 21
-788.0527624083521
 31
0.0
  0
LINE
  5
BED
330
36
100
AcDbEntity
  8
0
 62
     3
100
AcDbLine
 10
165.2120306084028
 20
-788.0527624083521
 30
0.0
 11
165.2120306084028
 21
-788.5527624083521
 31
0.0
  0
LINE
  5
BEE
330
36
100
AcDbEntity
  8
0
 62
     3
100
AcDbLine
 10
171.8620306084029
 20
-788.5527624083521
 30
0.0
 11
171.8620306084029
 21
-797.0027624083519
 31
0.0
  0
LINE
  5
BEF
330
36
100
AcDbEntity
  8
0
 62
     3
100
AcDbLine
 10
167.8620306084029
 20
-788.5527624083521
 30
0.0
 11
167.8620306084029
 21
-797.0027624083519
 31
0.0
  0
LINE
  5
BF0
330
36
100
AcDbEntity
  8
0
 62
     3
100
AcDbLine
 10
168.1120306084029
 20
-788.0527624083521
 30
0.0
 11
167.8620306084029
 21
-788.5527624083521
 31
0.0
  0
LINE
  5
BF1
330
36
100
AcDbEntity
  8
0
 62
     3
100
AcDbLine
 10
171.6120306084029
 20
-788.0527624083521
 30
0.0
 11
170.3620306084029
 21
-788.0527624083521
 31
0.0
  0
LINE
  5
BF2
330
36
100
AcDbEntity
  8
0
 62
     3
100
AcDbLine
 10
169.3620306084029
 20
-788.0527624083521
 30
0.0
 11
168.1120306084029
 21
-788.0527624083521
 31
0.0
  0
LINE
  5
BF3
330
36
100
AcDbEntity
  8
0
 62
     3
100
AcDbLine
 10
171.8620306084029
 20
-788.5527624083521
 30
0.0
 11
171.6120306084029
 21
-788.0527624083521
 31
0.0
  0
LINE
  5
BF4
330
36
100
AcDbEntity
  8
0
 62
     3
100
AcDbLine
 10
168.6120306084029
 20
-787.0527624083521
 30
0.0
 11
169.3620306084029
 21
-787.0527624083521
 31
0.0
  0
LINE
  5
BF5
330
36
100
AcDbEntity
  8
0
 62
     3
100
AcDbLine
 10
170.3620306084029
 20
-787.0527624083521
 30
0.0
 11
171.1120306084029
 21
-787.0527624083521
 31
0.0
  0
LINE
  5
BF6
330
36
100
AcDbEntity
  8
0
 62
     3
100
AcDbLine
 10
168.1120306084029
 20
-788.0527624083521
 30
0.0
 11
168.6120306084029
 21
-787.0527624083521
 31
0.0
  0
LINE
  5
BF7
330
36
100
AcDbEntity
  8
0
 62
     3
100
AcDbLine
 10
171.1120306084029
 20
-787.0527624083521
 30
0.0
 11
171.6120306084029
 21
-788.0527624083521
 31
0.0
  0
LINE
  5
BF8
330
36
100
AcDbEntity
  8
0
 62
     3
100
AcDbLine
 10
158.6120152478307
 20
-816.0013543720507
 30
0.0
 11
158.6120152478307
 21
-806.552762408352
 31
0.0
  0
LINE
  5
BF9
330
36
100
AcDbEntity
  8
0
 62
     3
100
AcDbLine
 10
181.1120459656363
 20
-816.0013543789435
 30
0.0
 11
181.1120459656368
 21
-806.552762408352
 31
0.0
  0
LINE
  5
BFA
330
36
100
AcDbEntity
  8
0
 62
     7
100
AcDbLine
 10
175.5120306084027
 20
-770.3080339378246
 30
0.0
 11
174.5120306084027
 21
-770.3080339378246
 31
0.0
  0
LINE
  5
BFB
330
36
100
AcDbEntity
  8
0
 62
     7
100
AcDbLine
 10
175.3620306084038
 20
-770.1580339378246
 30
0.0
 11
174.6620306084037
 21
-770.1580339378246
 31
0.0
  0
LINE
  5
BFC
330
36
100
AcDbEntity
  8
0
 62
     7
100
AcDbLine
 10
165.2120306084028
 20
-770.3080339378246
 30
0.0
 11
164.2120306084028
 21
-770.3080339378246
 31
0.0
  0
LINE
  5
BFD
330
36
100
AcDbEntity
  8
0
 62
     7
100
AcDbLine
 10
165.0620306084027
 20
-770.1580339378246
 30
0.0
 11
164.3620306084029
 21
-770.1580339378246
 31
0.0
  0
LINE
  5
BFE
330
36
100
AcDbEntity
  8
0
 62
     7
100
AcDbLine
 10
175.5120306084027
 20
-766.3080339378246
 30
0.0
 11
174.5120306084027
 21
-766.3080339378246
 31
0.0
  0
LINE
  5
BFF
330
36
100
AcDbEntity
  8
0
 62
     7
100
AcDbLine
 10
175.3620306084038
 20
-766.4580339378245
 30
0.0
 11
174.6620306084037
 21
-766.4580339378245
 31
0.0
  0
LINE
  5
C00
330
36
100
AcDbEntity
  8
0
 62
     7
100
AcDbLine
 10
165.2120306084028
 20
-766.3080339378246
 30
0.0
 11
164.2120306084028
 21
-766.3080339378246
 31
0.0
  0
LINE
  5
C01
330
36
100
AcDbEntity
  8
0
 62
     7
100
AcDbLine
 10
165.0620306084027
 20
-766.4580339378245
 30
0.0
 11
164.3620306084029
 21
-766.4580339378245
 31
0.0
  0
LINE
  5
C02
330
36
100
AcDbEntity
  8
0
 62
     7
100
AcDbLine
 10
171.8620306084029
 20
-763.6580339378245
 30
0.0
 11
167.8620306084029
 21
-763.6580339378245
 31
0.0
  0
LINE
  5
C03
330
36
100
AcDbEntity
  8
0
 62
     7
100
AcDbLine
 10
171.7120306084028
 20
-763.5080339378247
 30
0.0
 11
168.0120306084027
 21
-763.5080339378247
 31
0.0
  0
LINE
  5
C04
330
36
100
AcDbEntity
  8
0
 62
     7
100
AcDbLine
 10
171.8620306084029
 20
-762.6580339378246
 30
0.0
 11
167.8620306084029
 21
-762.6580339378246
 31
0.0
  0
LINE
  5
C05
330
36
100
AcDbEntity
  8
0
 62
     7
100
AcDbLine
 10
171.7120306084028
 20
-762.8080339378247
 30
0.0
 11
168.0120306084027
 21
-762.8080339378247
 31
0.0
  0
LINE
  5
C06
330
36
100
AcDbEntity
  8
0
 62
     7
100
AcDbLine
 10
170.3620306084029
 20
-775.0580339378246
 30
0.0
 11
169.3620306084029
 21
-775.0580339378246
 31
0.0
  0
LINE
  5
C07
330
36
100
AcDbEntity
  8
0
 62
     7
100
AcDbLine
 10
170.2120306084028
 20
-774.9080339378246
 30
0.0
 11
169.5120306084027
 21
-774.9080339378246
 31
0.0
  0
LINE
  5
C08
330
36
100
AcDbEntity
  8
0
 62
     7
100
AcDbLine
 10
170.3620306084029
 20
-771.0580339378247
 30
0.0
 11
169.3620306084029
 21
-771.0580339378247
 31
0.0
  0
LINE
  5
C09
330
36
100
AcDbEntity
  8
0
 62
     7
100
AcDbLine
 10
170.2120306084028
 20
-771.2080339378246
 30
0.0
 11
169.5120306084027
 21
-771.2080339378246
 31
0.0
  0
LINE
  5
C0A
330
36
100
AcDbEntity
  8
0
 62
     7
100
AcDbLine
 10
167.8620306084029
 20
-763.6580339378245
 30
0.0
 11
167.8620306084029
 21
-762.6580339378246
 31
0.0
  0
LINE
  5
C0B
330
36
100
AcDbEntity
  8
0
 62
     7
100
AcDbLine
 10
168.0120306084027
 20
-763.5080339378247
 30
0.0
 11
168.0120306084027
 21
-762.8080339378247
 31
0.0
  0
LINE
  5
C0C
330
36
100
AcDbEntity
  8
0
 62
     7
100
AcDbLine
 10
171.8620306084029
 20
-763.6580339378245
 30
0.0
 11
171.8620306084029
 21
-762.6580339378246
 31
0.0
  0
LINE
  5
C0D
330
36
100
AcDbEntity
  8
0
 62
     7
100
AcDbLine
 10
171.7120306084028
 20
-763.5080339378247
 30
0.0
 11
171.7120306084028
 21
-762.8080339378247
 31
0.0
  0
LINE
  5
C0E
330
36
100
AcDbEntity
  8
0
 62
     7
100
AcDbLine
 10
169.3620306084029
 20
-775.0580339378246
 30
0.0
 11
169.3620306084029
 21
-771.0580339378247
 31
0.0
  0
LINE
  5
C0F
330
36
100
AcDbEntity
  8
0
 62
     7
100
AcDbLine
 10
169.5120306084027
 20
-774.9080339378246
 30
0.0
 11
169.5120306084027
 21
-771.2080339378246
 31
0.0
  0
LINE
  5
C10
330
36
100
AcDbEntity
  8
0
 62
     7
100
AcDbLine
 10
170.3620306084029
 20
-775.0580339378246
 30
0.0
 11
170.3620306084029
 21
-771.0580339378247
 31
0.0
  0
LINE
  5
C11
330
36
100
AcDbEntity
  8
0
 62
     7
100
AcDbLine
 10
170.2120306084028
 20
-774.9080339378246
 30
0.0
 11
170.2120306084028
 21
-771.2080339378246
 31
0.0
  0
LINE
  5
C12
330
36
100
AcDbEntity
  8
0
 62
     7
100
AcDbLine
 10
164.2120306084028
 20
-770.3080339378246
 30
0.0
 11
164.2120306084028
 21
-766.3080339378246
 31
0.0
  0
LINE
  5
C13
330
36
100
AcDbEntity
  8
0
 62
     7
100
AcDbLine
 10
164.3620306084029
 20
-770.1580339378246
 30
0.0
 11
164.3620306084029
 21
-766.4580339378245
 31
0.0
  0
LINE
  5
C14
330
36
100
AcDbEntity
  8
0
 62
     7
100
AcDbLine
 10
165.2120306084028
 20
-770.3080339378246
 30
0.0
 11
165.2120306084028
 21
-766.3080339378246
 31
0.0
  0
LINE
  5
C15
330
36
100
AcDbEntity
  8
0
 62
     7
100
AcDbLine
 10
165.0620306084027
 20
-770.1580339378246
 30
0.0
 11
165.0620306084027
 21
-766.4580339378245
 31
0.0
  0
LINE
  5
C16
330
36
100
AcDbEntity
  8
0
 62
     7
100
AcDbLine
 10
174.5120306084027
 20
-770.3080339378246
 30
0.0
 11
174.5120306084027
 21
-766.3080339378246
 31
0.0
  0
LINE
  5
C17
330
36
100
AcDbEntity
  8
0
 62
     7
100
AcDbLine
 10
174.6620306084037
 20
-770.1580339378246
 30
0.0
 11
174.6620306084037
 21
-766.4580339378245
 31
0.0
  0
LINE
  5
C18
330
36
100
AcDbEntity
  8
0
 62
     7
100
AcDbLine
 10
175.5120306084027
 20
-770.3080339378246
 30
0.0
 11
175.5120306084027
 21
-766.3080339378246
 31
0.0
  0
LINE
  5
C19
330
36
100
AcDbEntity
  8
0
 62
     7
100
AcDbLine
 10
175.3620306084038
 20
-770.1580339378246
 30
0.0
 11
175.3620306084029
 21
-766.4580339378245
 31
0.0
  0
LINE
  5
C1A
330
36
100
AcDbEntity
  8
0
 62
     7
100
AcDbLine
 10
165.0620306084027
 20
-766.4580339378245
 30
0.0
 11
165.2120306084028
 21
-766.3080339378246
 31
0.0
  0
LINE
  5
C1B
330
36
100
AcDbEntity
  8
0
 62
     7
100
AcDbLine
 10
164.3620306084029
 20
-766.4580339378245
 30
0.0
 11
164.2120306084028
 21
-766.3080339378246
 31
0.0
  0
LINE
  5
C1C
330
36
100
AcDbEntity
  8
0
 62
     7
100
AcDbLine
 10
164.3620306084029
 20
-770.1580339378246
 30
0.0
 11
164.2120306084028
 21
-770.3080339378246
 31
0.0
  0
LINE
  5
C1D
330
36
100
AcDbEntity
  8
0
 62
     7
100
AcDbLine
 10
165.0620306084027
 20
-770.1580339378246
 30
0.0
 11
165.2120306084028
 21
-770.3080339378246
 31
0.0
  0
LINE
  5
C1E
330
36
100
AcDbEntity
  8
0
 62
     7
100
AcDbLine
 10
169.5120306084027
 20
-771.2080339378246
 30
0.0
 11
169.3620306084029
 21
-771.0580339378247
 31
0.0
  0
LINE
  5
C1F
330
36
100
AcDbEntity
  8
0
 62
     7
100
AcDbLine
 10
170.2120306084028
 20
-771.2080339378246
 30
0.0
 11
170.3620306084029
 21
-771.0580339378247
 31
0.0
  0
LINE
  5
C20
330
36
100
AcDbEntity
  8
0
 62
     7
100
AcDbLine
 10
169.5120306084027
 20
-774.9080339378246
 30
0.0
 11
169.3620306084029
 21
-775.0580339378246
 31
0.0
  0
LINE
  5
C21
330
36
100
AcDbEntity
  8
0
 62
     7
100
AcDbLine
 10
170.2120306084028
 20
-774.9080339378246
 30
0.0
 11
170.3620306084029
 21
-775.0580339378246
 31
0.0
  0
LINE
  5
C22
330
36
100
AcDbEntity
  8
0
 62
     7
100
AcDbLine
 10
174.6620306084037
 20
-770.1580339378246
 30
0.0
 11
174.5120306084027
 21
-770.3080339378246
 31
0.0
  0
LINE
  5
C23
330
36
100
AcDbEntity
  8
0
 62
     7
100
AcDbLine
 10
175.3620306084038
 20
-770.1580339378246
 30
0.0
 11
175.5120306084027
 21
-770.3080339378246
 31
0.0
  0
LINE
  5
C24
330
36
100
AcDbEntity
  8
0
 62
     7
100
AcDbLine
 10
175.3620306084038
 20
-766.4580339378245
 30
0.0
 11
175.5120306084027
 21
-766.3080339378246
 31
0.0
  0
LINE
  5
C25
330
36
100
AcDbEntity
  8
0
 62
     7
100
AcDbLine
 10
174.6620306084037
 20
-766.4580339378245
 30
0.0
 11
174.5120306084027
 21
-766.3080339378246
 31
0.0
  0
LINE
  5
C26
330
36
100
AcDbEntity
  8
0
 62
     7
100
AcDbLine
 10
171.7120306084028
 20
-762.8080339378247
 30
0.0
 11
171.8620306084029
 21
-762.6580339378246
 31
0.0
  0
LINE
  5
C27
330
36
100
AcDbEntity
  8
0
 62
     7
100
AcDbLine
 10
171.7120306084028
 20
-763.5080339378247
 30
0.0
 11
171.8620306084029
 21
-763.6580339378245
 31
0.0
  0
LINE
  5
C28
330
36
100
AcDbEntity
  8
0
 62
     7
100
AcDbLine
 10
168.0120306084027
 20
-762.8080339378247
 30
0.0
 11
167.8620306084029
 21
-762.6580339378246
 31
0.0
  0
LINE
  5
C29
330
36
100
AcDbEntity
  8
0
 62
     7
100
AcDbLine
 10
168.0120306084027
 20
-763.5080339378247
 30
0.0
 11
167.8620306084029
 21
-763.6580339378245
 31
0.0
  0
CIRCLE
  5
C2A
330
36
100
AcDbEntity
  8
0
 62
     3
100
AcDbCircle
 10
169.8620306084029
 20
-768.3080339378245
 30
0.0
 40
13.25
  0
CIRCLE
  5
C2B
330
36
100
AcDbEntity
  8
0
 62
     3
100
AcDbCircle
 10
169.8620306084029
 20
-768.3080339378245
 30
0.0
 40
15.25
  0
TEXT
  5
C2C
330
36
100
AcDbEntity
  8
0
 62
     4
100
AcDbText
 10
177.1153294021708
 20
-770.0175295203272
 30
0.0
 40
3.2
  1
X
  7
高3.2
100
AcDbText
  0
TEXT
  5
C2D
330
36
100
AcDbEntity
  8
0
 62
     4
100
AcDbText
 10
160.5612116638665
 20
-770.0660862771248
 30
0.0
 40
3.2
  1
Z
  7
高3.2
100
AcDbText
  0
TEXT
  5
C2E
330
36
100
AcDbEntity
  8
0
 62
     4
100
AcDbText
 10
168.8930381503776
 20
-761.6184794029788
 30
0.0
 40
3.2
  1
Y
  7
高3.2
100
AcDbText
  0
LINE
  5
C2F
330
36
100
AcDbEntity
  8
0
 62
     3
100
AcDbLine
 10
167.1370306084027
 20
-855.9739817093046
 30
0.0
 11
167.1370306084027
 21
-849.5527624083521
 31
0.0
  0
LINE
  5
C30
330
36
100
AcDbEntity
  8
0
 62
     3
100
AcDbLine
 10
172.5870306084028
 20
-855.9739817093046
 30
0.0
 11
172.5870306084028
 21
-849.5527624083521
 31
0.0
  0
ARC
  5
C31
330
36
100
AcDbEntity
  8
0
100
AcDbCircle
 10
171.2245306084027
 20
-854.5433567093045
 30
0.0
 40
1.975625000000008
100
AcDbArc
 50
226.3971810272993
 51
313.6028189727074
  0
ARC
  5
C32
330
36
100
AcDbEntity
  8
0
100
AcDbCircle
 10
171.2245306084027
 20
-857.4046067093044
 30
0.0
 40
1.975625000000008
100
AcDbArc
 50
46.39718102729929
 51
133.6028189727074
  0
ARC
  5
C33
330
36
100
AcDbEntity
  8
0
100
AcDbCircle
 10
168.4995306084027
 20
-854.5433567093045
 30
0.0
 40
1.975625000000008
100
AcDbArc
 50
226.3971810272993
 51
313.6028189727007
  0
LINE
  5
C34
330
36
100
AcDbEntity
  8
0
 62
     3
100
AcDbLine
 10
125.361827
 20
-840.374128
 30
0.0
 11
133.3237486335389
 21
-840.374128
 31
0.0
  0
LINE
  5
C35
330
36
100
AcDbEntity
  8
0
 62
     3
100
AcDbLine
 10
125.361827
 20
-845.8241279999999
 30
0.0
 11
133.3237486335389
 21
-845.8241279999999
 31
0.0
  0
LINE
  5
C36
330
36
100
AcDbEntity
  8
0
 62
     3
100
AcDbLine
 10
146.048748633539
 20
-853.099128
 30
0.0
 11
146.048748633539
 21
-862.878533682327
 31
0.0
  0
LINE
  5
C37
330
36
100
AcDbEntity
  8
0
 62
     3
100
AcDbLine
 10
140.5987486335389
 20
-853.099128
 30
0.0
 11
140.5987486335389
 21
-862.878533682327
 31
0.0
  0
ARC
  5
C38
330
36
100
AcDbEntity
  8
0
 62
     3
100
AcDbCircle
 10
133.3237486335389
 20
-853.099128
 30
0.0
 40
7.275
100
AcDbArc
 50
0.0
 51
90.0
  0
ARC
  5
C39
330
36
100
AcDbEntity
  8
0
 62
     3
100
AcDbCircle
 10
133.3237486335389
 20
-853.099128
 30
0.0
 40
12.725
100
AcDbArc
 50
0.0
 51
90.0
  0
LINE
  5
C3A
330
36
100
AcDbEntity
  8
0
 62
     3
100
AcDbLine
 10
153.3237486335389
 20
-875.603533682327
 30
0.0
 11
159.8620306084028
 21
-875.603533682327
 31
0.0
  0
LINE
  5
C3B
330
36
100
AcDbEntity
  8
0
 62
     3
100
AcDbLine
 10
153.3237486335389
 20
-870.1535336823269
 30
0.0
 11
159.8620306084028
 21
-870.1535336823269
 31
0.0
  0
ARC
  5
C3C
330
36
100
AcDbEntity
  8
0
 62
     3
100
AcDbCircle
 10
159.8620306084028
 20
-862.878533682327
 30
0.0
 40
7.275
100
AcDbArc
 50
270.0
 51
0.0
  0
ARC
  5
C3D
330
36
100
AcDbEntity
  8
0
 62
     3
100
AcDbCircle
 10
159.8620306084028
 20
-862.878533682327
 30
0.0
 40
12.725
100
AcDbArc
 50
270.0
 51
0.0
  0
ARC
  5
C3E
330
36
100
AcDbEntity
  8
0
 62
     3
100
AcDbCircle
 10
153.3237486335389
 20
-862.878533682327
 30
0.0
 40
7.275
100
AcDbArc
 50
180.0
 51
270.0
  0
ARC
  5
C3F
330
36
100
AcDbEntity
  8
0
 62
     3
100
AcDbCircle
 10
153.3237486335389
 20
-862.878533682327
 30
0.0
 40
12.725
100
AcDbArc
 50
180.0
 51
270.0
  0
LINE
  5
C40
330
36
100
AcDbEntity
  8
0
 62
     3
100
AcDbLine
 10
172.5870306084028
 20
-859.212462794037
 30
0.0
 11
172.5870306084028
 21
-862.878533682327
 31
0.0
  0
LINE
  5
C41
330
36
100
AcDbEntity
  8
0
 62
     3
100
AcDbLine
 10
167.1370306084027
 20
-859.212462794037
 30
0.0
 11
167.1370306084027
 21
-862.878533682327
 31
0.0
  0
ARC
  5
C42
330
36
100
AcDbEntity
  8
0
100
AcDbCircle
 10
168.4995306084028
 20
-860.6430877940368
 30
0.0
 40
1.97562500000002
100
AcDbArc
 50
46.39718102729929
 51
133.6028189727007
  0
ARC
  5
C43
330
36
100
AcDbEntity
  8
0
100
AcDbCircle
 10
168.4995306084028
 20
-857.7818377940369
 30
0.0
 40
1.97562500000002
100
AcDbArc
 50
226.3971810272993
 51
313.6028189727007
  0
ARC
  5
C44
330
36
100
AcDbEntity
  8
0
100
AcDbCircle
 10
171.2245306084028
 20
-860.6430877940368
 30
0.0
 40
1.97562500000002
100
AcDbArc
 50
46.39718102729929
 51
133.6028189727007
  0
LINE
  5
D54
330
36
100
AcDbEntity
  8
0
100
AcDbLine
 10
-94.0741
 20
-825.9675170000001
 30
0.0
 11
-95.646097
 21
-827.315111
 31
0.0
  0
LINE
  5
D55
330
36
100
AcDbEntity
  8
0
100
AcDbLine
 10
-95.646097
 20
-827.315111
 30
0.0
 11
-93.61091
 21
-826.9340589999996
 31
0.0
  0
LINE
  5
D56
330
36
100
AcDbEntity
  8
0
100
AcDbLine
 10
-79.972581
 20
-771.4213980000002
 30
0.0
 11
-81.41331800000001
 21
-772.908497
 31
0.0
  0
LINE
  5
D57
330
36
100
AcDbEntity
  8
0
100
AcDbLine
 10
-81.41331800000001
 20
-772.908497
 30
0.0
 11
-79.422054
 21
-772.341
 31
0.0
  0
LINE
  5
D58
330
36
100
AcDbEntity
  8
0
100
AcDbLine
 10
-124.936287
 20
-782.0451649999996
 30
0.0
 11
-122.881369
 21
-782.299128
 31
0.0
  0
LINE
  5
D59
330
36
100
AcDbEntity
  8
0
100
AcDbLine
 10
-122.881369
 20
-782.299128
 30
0.0
 11
-124.533999
 21
-781.0517309999997
 31
0.0
  0
LINE
  5
D5A
330
36
100
AcDbEntity
  8
0
100
AcDbLine
 10
82.39051100000002
 20
-751.4250519999997
 30
0.0
 11
80.583085
 21
-752.435199
 31
0.0
  0
LINE
  5
D5B
330
36
100
AcDbEntity
  8
0
100
AcDbLine
 10
80.583085
 20
-752.435199
 30
0.0
 11
82.653435
 21
-752.4641
 31
0.0
  0
LINE
  5
D5C
330
36
100
AcDbEntity
  8
0
100
AcDbLine
 10
-127.927434
 20
-819.3455629999997
 30
0.0
 11
-125.910667
 21
-819.8144349999999
 31
0.0
  0
LINE
  5
D5D
330
36
100
AcDbEntity
  8
0
100
AcDbLine
 10
-125.910667
 20
-819.8144349999999
 30
0.0
 11
-127.422802
 21
-818.399997
 31
0.0
  0
LINE
  5
D5E
330
36
100
AcDbEntity
  8
0
100
AcDbLine
 10
-123.812069
 20
-861.7973449999999
 30
0.0
 11
-121.747133
 21
-861.9497499999999
 31
0.0
  0
LINE
  5
D5F
330
36
100
AcDbEntity
  8
0
100
AcDbLine
 10
-121.747133
 20
-861.9497499999999
 30
0.0
 11
-123.459217
 21
-860.7852949999996
 31
0.0
  0
LINE
  5
D60
330
36
100
AcDbEntity
  8
0
100
AcDbLine
 10
-16.138173
 20
-858.3491279999998
 30
0.0
 11
-16.138173
 21
-875.2652679999998
 31
0.0
  0
LINE
  5
D61
330
36
100
AcDbEntity
  8
0
100
AcDbLine
 10
123.861827
 20
-858.3491279999998
 30
0.0
 11
123.861827
 21
-875.2652679999998
 31
0.0
  0
LINE
  5
D62
330
36
100
AcDbEntity
  8
0
100
AcDbLine
 10
-13.638173
 20
-874.0152679999999
 30
0.0
 11
121.361827
 21
-874.0152679999999
 31
0.0
  0
LINE
  5
D66
330
36
100
AcDbEntity
  8
0
100
AcDbLine
 10
-131.854271
 20
-847.3491279999997
 30
0.0
 11
-131.854271
 21
-875.2652679999998
 31
0.0
  0
LINE
  5
D67
330
36
100
AcDbEntity
  8
0
100
AcDbLine
 10
-66.91193100000001
 20
-847.3491279999997
 30
0.0
 11
-66.91193100000001
 21
-875.2652679999998
 31
0.0
  0
LINE
  5
D68
330
36
100
AcDbEntity
  8
0
100
AcDbLine
 10
-129.354271
 20
-874.0152679999999
 30
0.0
 11
-69.41193100000001
 21
-874.0152679999999
 31
0.0
  0
LINE
  5
D6C
330
36
100
AcDbEntity
  8
0
100
AcDbLine
 10
13.859319
 20
-863.0991279999998
 30
0.0
 11
-30.78391400000003
 21
-863.0991279999998
 31
0.0
  0
LINE
  5
D6D
330
36
100
AcDbEntity
  8
0
100
AcDbLine
 10
9.543326999999999
 20
-753.86072
 30
0.0
 11
-30.783914
 21
-753.86072
 31
0.0
  0
LINE
  5
D6E
330
36
100
AcDbEntity
  8
0
100
AcDbLine
 10
-29.53391400000003
 20
-860.5991279999997
 30
0.0
 11
-29.533914
 21
-756.3607199999999
 31
0.0
  0
LINE
  5
D72
330
36
100
AcDbEntity
  8
0
100
AcDbLine
 10
174.573886628569
 20
-852.4320583564568
 30
0.0
 11
184.6833759266378
 21
-844.7114147370619
 31
0.0
1001
ACAD
1000
DSTYLE
1002
{
1070
   147
1040
0.625
1070
    77
1070
     0
1002
}
  0
LINE
  5
D73
330
36
100
AcDbEntity
  8
0
  6
ByBlock
 62
     0
370
    -2
100
AcDbLine
 10
174.9804636467463
 20
-852.9644344402043
 30
0.0
 11
172.5870306084028
 21
-853.9494255352009
 31
0.0
  0
LINE
  5
D74
330
36
100
AcDbEntity
  8
0
  6
ByBlock
 62
     0
370
    -2
100
AcDbLine
 10
172.5870306084028
 20
-853.9494255352009
 30
0.0
 11
174.1673096103917
 21
-851.8996822727093
 31
0.0
  0
LINE
  5
D75
330
36
100
AcDbEntity
  8
0
  6
ByBlock
 62
     0
370
    -2
100
AcDbLine
 10
172.5870306084028
 20
-853.9494255352009
 30
0.0
 11
174.573886628569
 21
-852.4320583564568
 31
0.0
  0
LINE
  5
D76
330
36
100
AcDbEntity
  8
0
100
AcDbLine
 10
-77.66839072720086
 20
-793.6000345236053
 30
0.0
 11
-59.00501659478082
 21
-784.0705694747033
 31
0.0
1001
ACAD
1000
DSTYLE
1002
{
1070
   341
1005
925
1070
   147
1040
0.625
1070
    77
1070
     0
1002
}
  0
LINE
  5
D78
330
36
100
AcDbEntity
  8
0
100
AcDbLine
 10
86.2644465039615
 20
-860.1178955027421
 30
0.0
 11
88.1892154033923
 21
-862.7528761247225
 31
0.0
1001
ACAD
1000
DSTYLE
1002
{
1070
   147
1040
0.625
1070
    77
1070
     0
1002
}
  0
LINE
  5
D79
330
36
100
AcDbEntity
  8
0
  6
ByBlock
 62
     0
370
    -2
100
AcDbLine
 10
85.72351977036921
 20
-860.5130251462028
 30
0.0
 11
84.78980153995435
 21
-858.0991279999999
 31
0.0
  0
LINE
  5
D7A
330
36
100
AcDbEntity
  8
0
  6
ByBlock
 62
     0
370
    -2
100
AcDbLine
 10
84.78980153995435
 20
-858.0991279999999
 30
0.0
 11
86.8053732375538
 21
-859.7227658592814
 31
0.0
  0
LINE
  5
D7B
330
36
100
AcDbEntity
  8
0
  6
ByBlock
 62
     0
370
    -2
100
AcDbLine
 10
84.78980153995435
 20
-858.0991279999999
 30
0.0
 11
86.2644465039615
 21
-860.1178955027421
 31
0.0
  0
LINE
  5
D7C
330
36
100
AcDbEntity
  8
0
100
AcDbLine
 10
117.0177003269184
 20
-756.0838278321706
 30
0.0
 11
122.7105292925602
 21
-748.3287148516885
 31
0.0
1001
ACAD
1000
DSTYLE
1002
{
1070
   147
1040
0.625
1070
    77
1070
     0
1002
}
  0
LINE
  5
D7D
330
36
100
AcDbEntity
  8
0
  6
ByBlock
 62
     0
370
    -2
100
AcDbLine
 10
117.5576979915882
 20
-756.4802262282413
 30
0.0
 11
115.5383203103079
 21
-758.099128
 31
0.0
  0
LINE
  5
D7E
330
36
100
AcDbEntity
  8
0
  6
ByBlock
 62
     0
370
    -2
100
AcDbLine
 10
115.5383203103079
 20
-758.099128
 30
0.0
 11
116.4777026622487
 21
-755.6874294360998
 31
0.0
  0
LINE
  5
D7F
330
36
100
AcDbEntity
  8
0
  6
ByBlock
 62
     0
370
    -2
100
AcDbLine
 10
115.5383203103079
 20
-758.099128
 30
0.0
 11
117.0177003269184
 21
-756.0838278321706
 31
0.0
  0
TEXT
  5
D80
330
36
100
AcDbEntity
  8
0
 62
     4
100
AcDbText
 10
50.111827
 20
-873.3902679999998
 30
0.0
 40
3.0
  1
220
100
AcDbText
  0
LINE
  5
D81
330
36
100
AcDbEntity
  8
0
  6
ByBlock
 62
     0
370
    -2
100
AcDbLine
 10
121.361827
 20
-873.3453954999999
 30
0.0
 11
123.861827
 21
-874.0152679999999
 31
0.0
  0
LINE
  5
D82
330
36
100
AcDbEntity
  8
0
  6
ByBlock
 62
     0
370
    -2
100
AcDbLine
 10
123.861827
 20
-874.0152679999999
 30
0.0
 11
121.361827
 21
-874.6851404999999
 31
0.0
  0
LINE
  5
D83
330
36
100
AcDbEntity
  8
0
  6
ByBlock
 62
     0
370
    -2
100
AcDbLine
 10
123.861827
 20
-874.0152679999999
 30
0.0
 11
121.361827
 21
-874.0152679999999
 31
0.0
  0
LINE
  5
D84
330
36
100
AcDbEntity
  8
0
  6
ByBlock
 62
     0
370
    -2
100
AcDbLine
 10
-13.638173
 20
-874.6851404999999
 30
0.0
 11
-16.138173
 21
-874.0152679999999
 31
0.0
  0
LINE
  5
D85
330
36
100
AcDbEntity
  8
0
  6
ByBlock
 62
     0
370
    -2
100
AcDbLine
 10
-16.138173
 20
-874.0152679999999
 30
0.0
 11
-13.638173
 21
-873.3453954999999
 31
0.0
  0
LINE
  5
D86
330
36
100
AcDbEntity
  8
0
  6
ByBlock
 62
     0
370
    -2
100
AcDbLine
 10
-16.138173
 20
-874.0152679999999
 30
0.0
 11
-13.638173
 21
-874.0152679999999
 31
0.0
  0
TEXT
  5
D87
330
36
100
AcDbEntity
  8
0
 62
     4
100
AcDbText
 10
-102.633101
 20
-873.3902679999998
 30
0.0
 40
3.0
  1
120
100
AcDbText
  0
LINE
  5
D88
330
36
100
AcDbEntity
  8
0
  6
ByBlock
 62
     0
370
    -2
100
AcDbLine
 10
-69.41193100000001
 20
-873.3453954999999
 30
0.0
 11
-66.91193100000001
 21
-874.0152679999999
 31
0.0
  0
LINE
  5
D89
330
36
100
AcDbEntity
  8
0
  6
ByBlock
 62
     0
370
    -2
100
AcDbLine
 10
-66.91193100000001
 20
-874.0152679999999
 30
0.0
 11
-69.41193100000001
 21
-874.6851404999999
 31
0.0
  0
LINE
  5
D8A
330
36
100
AcDbEntity
  8
0
  6
ByBlock
 62
     0
370
    -2
100
AcDbLine
 10
-66.91193100000001
 20
-874.0152679999999
 30
0.0
 11
-69.41193100000001
 21
-874.0152679999999
 31
0.0
  0
LINE
  5
D8B
330
36
100
AcDbEntity
  8
0
  6
ByBlock
 62
     0
370
    -2
100
AcDbLine
 10
-129.354271
 20
-874.6851404999999
 30
0.0
 11
-131.854271
 21
-874.0152679999999
 31
0.0
  0
LINE
  5
D8C
330
36
100
AcDbEntity
  8
0
  6
ByBlock
 62
     0
370
    -2
100
AcDbLine
 10
-131.854271
 20
-874.0152679999999
 30
0.0
 11
-129.354271
 21
-873.3453954999999
 31
0.0
  0
LINE
  5
D8D
330
36
100
AcDbEntity
  8
0
  6
ByBlock
 62
     0
370
    -2
100
AcDbLine
 10
-131.854271
 20
-874.0152679999999
 30
0.0
 11
-129.354271
 21
-874.0152679999999
 31
0.0
  0
TEXT
  5
D8E
330
36
100
AcDbEntity
  8
0
 62
     4
100
AcDbText
 10
-30.15891399999989
 20
-811.9799239999998
 30
0.0
 40
3.0
  1
185
 50
90.0
100
AcDbText
  0
LINE
  5
D8F
330
36
100
AcDbEntity
  8
0
  6
ByBlock
 62
     0
370
    -2
100
AcDbLine
 10
-30.2037865
 20
-756.3607199999999
 30
0.0
 11
-29.533914
 21
-753.86072
 31
0.0
  0
LINE
  5
D90
330
36
100
AcDbEntity
  8
0
  6
ByBlock
 62
     0
370
    -2
100
AcDbLine
 10
-29.533914
 20
-753.86072
 30
0.0
 11
-28.8640415
 21
-756.3607199999999
 31
0.0
  0
LINE
  5
D91
330
36
100
AcDbEntity
  8
0
  6
ByBlock
 62
     0
370
    -2
100
AcDbLine
 10
-29.533914
 20
-753.86072
 30
0.0
 11
-29.533914
 21
-756.3607199999999
 31
0.0
  0
LINE
  5
D92
330
36
100
AcDbEntity
  8
0
  6
ByBlock
 62
     0
370
    -2
100
AcDbLine
 10
-28.86404150000003
 20
-860.5991279999997
 30
0.0
 11
-29.53391400000003
 21
-863.0991279999998
 31
0.0
  0
LINE
  5
D93
330
36
100
AcDbEntity
  8
0
  6
ByBlock
 62
     0
370
    -2
100
AcDbLine
 10
-29.53391400000003
 20
-863.0991279999998
 30
0.0
 11
-30.20378650000003
 21
-860.5991279999997
 31
0.0
  0
LINE
  5
D94
330
36
100
AcDbEntity
  8
0
  6
ByBlock
 62
     0
370
    -2
100
AcDbLine
 10
-29.53391400000003
 20
-863.0991279999998
 30
0.0
 11
-29.53391400000003
 21
-860.5991279999997
 31
0.0
  0
ARC
  5
D95
330
36
100
AcDbEntity
  8
0
  6
ByBlock
 62
     0
100
AcDbCircle
 10
-77.66839072720086
 20
-793.6000345236053
 30
0.0
 40
0.1562499999999829
100
AcDbArc
 50
27.04872553774972
 51
207.0487255377497
  0
ARC
  5
D96
330
36
100
AcDbEntity
  8
0
  6
ByBlock
 62
     0
100
AcDbCircle
 10
-77.66839072720086
 20
-793.6000345236053
 30
0.0
 40
0.1562499999999829
100
AcDbArc
 50
207.0487255377497
 51
27.04872553774972
  0
ENDSEC
  0
SECTION
  2
OBJECTS
  0
DICTIONARY
  5
C
330
0
100
AcDbDictionary
281
     1
  3
ACAD_2007HEADERVARS_RT
350
D9A
  3
ACAD_COLOR
350
2F
  3
ACAD_GROUP
350
D
  3
ACAD_LAYOUT
350
2E
  3
ACAD_MATERIAL
350
10
  3
ACAD_MLEADERSTYLE
350
5E8
  3
ACAD_MLINESTYLE
350
2B
  3
ACAD_PLOTSETTINGS
350
2D
  3
ACAD_PLOTSTYLENAME
350
E
  3
ACAD_SCALELIST
350
5D6
  3
ACAD_TABLESTYLE
350
30
  3
ACAD_VISUALSTYLE
350
14
  3
ACDB_RECOMPOSE_DATA
350
D98
  3
AcDbVariableDictionary
350
5B6
  3
AEC_PROPERTY_SET_DEFS
350
A37
  3
DWGPROPS
350
D99
  0
DICTIONARY
  5
68F
330
2
100
AcDbDictionary
280
     1
281
     1
  3
ACAD_LAYERSTATES
360
690
  0
DICTIONARY
  5
857
330
25
100
AcDbDictionary
280
     1
281
     1
  3
ADSK_XREC_LAYER_RECONCILED
360
858
  0
DICTIONARY
  5
D4C
330
36
100
AcDbDictionary
280
     1
281
     1
  3
ACAD_SORTENTS
360
D4D
  0
DICTIONARY
  5
D9A
102
{ACAD_REACTORS
330
C
102
}
330
C
100
AcDbDictionary
281
     1
  3
DIMARCSYM
350
D9C
  3
DIMFXL
350
D9B
  3
DIMJOGANG
350
D9D
  0
DICTIONARY
  5
2F
102
{ACAD_REACTORS
330
C
102
}
330
C
100
AcDbDictionary
281
     1
  0
DICTIONARY
  5
D
102
{ACAD_REACTORS
330
C
102
}
330
C
100
AcDbDictionary
281
     1
  0
DICTIONARY
  5
2E
102
{ACAD_REACTORS
330
C
102
}
330
C
100
AcDbDictionary
281
     1
  3
Model
350
39
  3
レイアウト1
350
35
  0
DICTIONARY
  5
10
102
{ACAD_REACTORS
330
C
102
}
330
C
100
AcDbDictionary
281
     1
  3
ByBlock
350
12
  3
ByLayer
350
11
  3
Global
350
13
  0
DICTIONARY
  5
5E8
102
{ACAD_REACTORS
330
C
102
}
330
C
100
AcDbDictionary
281
     1
  3
Standard
350
5E9
  0
DICTIONARY
  5
2B
102
{ACAD_REACTORS
330
C
102
}
330
C
100
AcDbDictionary
281
     1
  3
Standard
350
2C
  0
DICTIONARY
  5
2D
102
{ACAD_REACTORS
330
C
102
}
330
C
100
AcDbDictionary
281
     1
  0
ACDBDICTIONARYWDFLT
  5
E
102
{ACAD_REACTORS
330
C
102
}
330
C
100
AcDbDictionary
281
     1
  3
Normal
350
F
100
AcDbDictionaryWithDefault
340
F
  0
DICTIONARY
  5
5D6
102
{ACAD_REACTORS
330
C
102
}
330
C
100
AcDbDictionary
281
     1
  3
A0
350
5D7
  3
A1
350
5D8
  3
A2
350
5D9
  3
A3
350
5DA
  3
A4
350
5DB
  3
A5
350
5DC
  3
A6
350
5DD
  3
A7
350
5DE
  3
A8
350
5DF
  3
A9
350
5E0
  3
B0
350
5E1
  3
B1
350
5E2
  3
B2
350
5E3
  3
B3
350
5E4
  3
B4
350
5E5
  3
B5
350
5E6
  3
B6
350
5E7
  0
DICTIONARY
  5
30
102
{ACAD_REACTORS
330
C
102
}
330
C
100
AcDbDictionary
281
     1
  3
Standard
350
31
  0
DICTIONARY
  5
14
102
{ACAD_REACTORS
330
C
102
}
330
C
100
AcDbDictionary
281
     1
  3
2dWireframe
350
1A
  3
3D Hidden
350
1C
  3
3dWireframe
350
1B
  3
Basic
350
19
  3
Brighten
350
20
  3
ColorChange
350
24
  3
Conceptual
350
1D
  3
Dim
350
1F
  3
EdgeColorOff
350
5D5
  3
Facepattern
350
23
  3
Flat
350
15
  3
FlatWithEdges
350
16
  3
Gouraud
350
17
  3
GouraudWithEdges
350
18
  3
Hidden
350
5CD
  3
JitterOff
350
5D3
  3
Linepattern
350
22
  3
OverhangOff
350
5D4
  3
Realistic
350
1E
  3
Shaded
350
5D2
  3
Shaded with edges
350
5D1
  3
Shades of Gray
350
5CE
  3
Sketchy
350
5CF
  3
Thicken
350
21
  3
Wireframe
350
5CC
  3
X-Ray
350
5D0
  0
XRECORD
  5
D98
102
{ACAD_REACTORS
330
C
102
}
330
C
100
AcDbXrecord
280
     1
 90
        1
330
31
  0
DICTIONARY
  5
5B6
102
{ACAD_REACTORS
330
C
102
}
330
C
100
AcDbDictionary
281
     1
  3
CANNOSCALE
350
85A
  3
CMLEADERSTYLE
350
859
  3
CTABLESTYLE
350
5B7
  3
DIMASSOC
350
5BA
  3
INDEXCTL
350
5B9
  3
SORTENTS
350
5B8
  3
XCLIPFRAME
350
C49
  0
DICTIONARY
  5
A37
102
{ACAD_REACTORS
330
C
102
}
330
C
100
AcDbDictionary
281
     1
  0
XRECORD
  5
D99
102
{ACAD_REACTORS
330
C
102
}
330
C
100
AcDbXrecord
280
     1
  1
DWGPROPS COOKIE
  2

  3

  4

  6

  7

  8
imamura
  9

300
=
301
=
302
=
303
=
304
=
305
=
306
=
307
=
308
=
309
=
 40
0.1496757407407407
 41
2455825.636741354
 42
2460251.68534397
  1

 90
        0
  0
DICTIONARY
  5
690
102
{ACAD_REACTORS
330
68F
102
}
330
68F
100
AcDbDictionary
281
     1
  0
XRECORD
  5
858
102
{ACAD_REACTORS
330
857
102
}
330
857
100
AcDbXrecord
280
     1
290
     1
  0
SORTENTSTABLE
  5
D4D
102
{ACAD_REACTORS
330
D4C
102
}
330
D4C
100
AcDbSortentsTable
330
36
331
B98
  5
BE3
331
1F8
  5
22F
331
160
  5
187
331
BE0
  5
C2B
331
318
  5
33F
331
4C1
  5
837
331
BF1
  5
C3C
331
431
  5
45B
331
321
  5
348
331
209
  5
240
331
171
  5
198
331
C02
  5
D54
331
442
  5
46B
331
332
  5
359
331
212
  5
249
331
182
  5
1A9
331
C13
  5
D65
331
453
  5
4A5
331
343
  5
36A
331
193
  5
1BA
331
C1C
  5
D6E
331
464
  5
5AF
331
354
  5
37B
331
234
  5
27D
331
D83
  5
AD
331
C2D
  5
D7F
331
475
  5
6CF
331
365
  5
38C
331
245
  5
29A
331
AD
  5
EF
331
D94
  5
8E
331
C3E
  5
D90
331
486
  5
81B
331
376
  5
39D
331
48F
  5
81E
331
387
  5
3AE
331
E0
  5
107
331
3A0
  5
3C7
331
D60
  5
A5
331
3B1
  5
3D8
331
3C2
  5
400
331
2A2
  5
2F9
331
102
  5
129
331
F1
  5
118
331
6CB
  5
930
331
3D3
  5
42E
331
2B3
  5
30E
331
1A3
  5
1CA
331
1B4
  5
1DB
331
BAD
  5
BF8
331
3F5
  5
43A
331
2E5
  5
310
331
1C5
  5
1EC
331
12D
  5
154
331
8D
  5
B6
331
BBE
  5
C09
331
2F6
  5
321
331
1D6
  5
1FD
331
13E
  5
165
331
9E
  5
E0
331
BCF
  5
C1A
331
307
  5
32E
331
1E7
  5
20E
331
14F
  5
176
331
113
  5
13A
331
BD0
  5
C1B
331
930
  5
BD8
331
308
  5
32F
331
1E8
  5
20F
331
150
  5
177
331
B99
  5
BE4
331
1F9
  5
230
331
161
  5
188
331
BE1
  5
C2C
331
421
  5
44A
331
319
  5
340
331
4C2
  5
838
331
BF2
  5
C3D
331
322
  5
349
331
20A
  5
241
331
172
  5
199
331
C03
  5
D55
331
333
  5
35A
331
213
  5
24A
331
183
  5
1AA
331
C14
  5
D66
331
454
  5
4A6
331
344
  5
36B
331
194
  5
1BB
331
C1D
  5
D6F
331
D95
  5
BCE
331
465
  5
5B0
331
355
  5
37C
331
235
  5
27E
331
D84
  5
A8
331
C2E
  5
D80
331
476
  5
6D0
331
366
  5
38D
331
246
  5
29B
331
C3F
  5
D91
331
487
  5
81C
331
377
  5
39E
331
267
  5
2A0
331
AE
  5
F0
331
388
  5
3AF
331
289
  5
2EB
331
3A1
  5
3C8
331
D61
  5
A6
331
E1
  5
108
331
D72
  5
BDE
331
3B2
  5
3D9
331
3C3
  5
401
331
2A3
  5
2FA
331
103
  5
12A
331
6CC
  5
B91
331
3D4
  5
42F
331
1A4
  5
1CB
331
1B5
  5
1DC
331
114
  5
13B
331
F2
  5
119
331
BAE
  5
BF9
331
3F6
  5
43B
331
2E6
  5
311
331
1C6
  5
1ED
331
12E
  5
155
331
826
  5
BA5
331
BBF
  5
C0A
331
2F7
  5
322
331
1D7
  5
1FE
331
13F
  5
166
331
9F
  5
E1
331
8E
  5
C9
331
BC0
  5
C0B
331
2F8
  5
323
331
1D8
  5
1FF
331
140
  5
167
331
A0
  5
E2
331
830
  5
BB5
331
BD1
  5
C1C
331
309
  5
330
331
1E9
  5
210
331
151
  5
178
331
B9A
  5
BE5
331
1FA
  5
231
331
162
  5
189
331
BE2
  5
C2D
331
422
  5
44B
331
31A
  5
341
331
4C3
  5
839
331
BF3
  5
C3E
331
433
  5
45C
331
323
  5
34A
331
20B
  5
242
331
173
  5
19A
331
C04
  5
D56
331
444
  5
46C
331
334
  5
35B
331
214
  5
267
331
184
  5
1AB
331
C15
  5
D67
331
345
  5
36C
331
195
  5
1BC
331
C1E
  5
D70
331
D96
  5
BCF
331
466
  5
5B1
331
356
  5
37D
331
236
  5
27F
331
D85
  5
A9
331
C2F
  5
D81
331
477
  5
6D1
331
367
  5
38E
331
247
  5
29C
331
AF
  5
F1
331
C40
  5
D92
331
378
  5
39F
331
E2
  5
109
331
3A2
  5
3C9
331
D73
  5
BDB
331
F3
  5
11A
331
3C4
  5
402
331
2A4
  5
2FB
331
104
  5
12B
331
3B3
  5
3DA
331
91E
  5
BC7
331
6CD
  5
B92
331
3D5
  5
430
331
1A5
  5
1CC
331
1B6
  5
1DD
331
115
  5
13C
331
D62
  5
A7
331
389
  5
3B0
331
BAF
  5
BFA
331
3F7
  5
43C
331
2E7
  5
312
331
1C7
  5
1EE
331
12F
  5
156
331
827
  5
BA8
331
8F
  5
CA
331
BB0
  5
BFB
331
3F8
  5
43D
331
2E8
  5
313
331
1C8
  5
1EF
331
130
  5
157
331
90
  5
CB
331
828
  5
BA9
331
BC1
  5
C0C
331
2F9
  5
324
331
1D9
  5
200
331
141
  5
168
331
A1
  5
E3
331
831
  5
BB6
331
BD2
  5
C1D
331
30A
  5
331
331
1EA
  5
211
331
152
  5
179
331
B9B
  5
BE6
331
1FB
  5
232
331
163
  5
18A
331
BE3
  5
C2E
331
423
  5
44C
331
31B
  5
342
331
4C4
  5
83A
331
BF4
  5
C3F
331
434
  5
45D
331
324
  5
34B
331
20C
  5
243
331
174
  5
19B
331
C05
  5
D57
331
445
  5
46D
331
335
  5
35C
331
215
  5
269
331
185
  5
1AC
331
C16
  5
D68
331
456
  5
4A7
331
346
  5
36D
331
196
  5
1BD
331
C1F
  5
D71
331
467
  5
6C4
331
357
  5
37E
331
237
  5
280
331
D86
  5
AA
331
C30
  5
D82
331
368
  5
38F
331
248
  5
29D
331
C41
  5
D93
331
379
  5
3A0
331
269
  5
2A1
331
B0
  5
F2
331
3A3
  5
3CA
331
28B
  5
2EC
331
E3
  5
10A
331
D74
  5
BDC
331
3B4
  5
3F2
331
3C5
  5
403
331
2A5
  5
2FC
331
91F
  5
BC8
331
6CE
  5
B94
331
3D6
  5
431
331
1A6
  5
1CD
331
116
  5
13D
331
105
  5
12C
331
1B7
  5
1DE
331
F4
  5
11B
331
38A
  5
3B1
331
BA0
  5
BEB
331
1B8
  5
1DF
331
120
  5
147
331
BB1
  5
BFC
331
3F9
  5
43E
331
2E9
  5
314
331
1C9
  5
1F0
331
131
  5
158
331
91
  5
D5
331
829
  5
BAE
331
BC2
  5
C0D
331
2FA
  5
325
331
1DA
  5
201
331
142
  5
169
331
A2
  5
E4
331
832
  5
BB7
331
BD3
  5
C1E
331
30B
  5
332
331
1EB
  5
212
331
153
  5
17A
331
B9C
  5
BE7
331
1FC
  5
233
331
164
  5
18B
331
BE4
  5
C2F
331
424
  5
44D
331
31C
  5
343
331
BF5
  5
C40
331
435
  5
45E
331
325
  5
34C
331
20D
  5
244
331
175
  5
19C
331
C06
  5
D58
331
446
  5
46E
331
336
  5
35D
331
216
  5
26B
331
186
  5
1AD
331
C17
  5
D69
331
457
  5
4AE
331
347
  5
36E
331
197
  5
1BE
331
C20
  5
D72
331
468
  5
6C5
331
358
  5
37F
331
238
  5
281
331
D87
  5
A4
331
C31
  5
D83
331
369
  5
390
331
249
  5
29E
331
B1
  5
F3
331
C42
  5
D94
331
38B
  5
3B2
331
27B
  5
2AE
331
3A4
  5
3CB
331
D75
  5
BDD
331
F5
  5
11C
331
3C6
  5
421
331
2A6
  5
2FD
331
106
  5
12D
331
6CF
  5
B95
331
3D7
  5
433
331
1A7
  5
1CE
331
117
  5
13E
331
3B5
  5
3F3
331
E4
  5
10B
331
37A
  5
3A1
331
929
  5
BD1
331
6D0
  5
B96
331
3D8
  5
434
331
1A8
  5
1CF
331
118
  5
13F
331
BA1
  5
BEC
331
1B9
  5
1E0
331
121
  5
148
331
BB2
  5
BFD
331
3FA
  5
43F
331
2EA
  5
315
331
1CA
  5
1F1
331
132
  5
159
331
92
  5
D6
331
82A
  5
BAF
331
BC3
  5
C0E
331
2FB
  5
326
331
1DB
  5
202
331
143
  5
16A
331
A3
  5
E5
331
833
  5
BBA
331
BD4
  5
C1F
331
30C
  5
333
331
1EC
  5
213
331
154
  5
17B
331
B9D
  5
BE8
331
1FD
  5
234
331
165
  5
18C
331
BE5
  5
C30
331
425
  5
44E
331
31D
  5
344
331
BF6
  5
C41
331
436
  5
45F
331
326
  5
34D
331
20E
  5
245
331
176
  5
19D
331
C07
  5
D59
331
447
  5
46F
331
337
  5
35E
331
217
  5
26C
331
187
  5
1AE
331
458
  5
4AF
331
348
  5
36F
331
C21
  5
D73
331
469
  5
6C6
331
359
  5
380
331
239
  5
282
331
D88
  5
A1
331
C32
  5
D84
331
36A
  5
391
331
24A
  5
29F
331
B2
  5
F4
331
C43
  5
D95
331
37B
  5
3A2
331
D54
  5
832
331
27C
  5
2AF
331
3A5
  5
3CC
331
E5
  5
10C
331
D76
  5
BD0
331
4BE
  5
834
331
3B6
  5
3F4
331
3C7
  5
422
331
2A7
  5
2FE
331
107
  5
12E
331
F6
  5
11D
331
38C
  5
3B3
331
26B
  5
2A2
331
3C8
  5
423
331
2A8
  5
303
331
198
  5
1BF
331
108
  5
12F
331
92A
  5
BD2
331
6D1
  5
B97
331
3D9
  5
435
331
1A9
  5
1D0
331
119
  5
140
331
BA2
  5
BED
331
1BA
  5
1E1
331
122
  5
149
331
81A
  5
B9F
331
BB3
  5
BFE
331
3FB
  5
440
331
2EB
  5
316
331
1CB
  5
1F2
331
133
  5
15A
331
93
  5
D7
331
82B
  5
BB0
331
BC4
  5
C0F
331
2FC
  5
327
331
1DC
  5
203
331
144
  5
16B
331
A4
  5
E6
331
834
  5
BBB
331
BD5
  5
C20
331
30D
  5
334
331
1ED
  5
214
331
155
  5
17C
331
B9E
  5
BE9
331
1FE
  5
235
331
166
  5
18D
331
BE6
  5
C31
331
426
  5
44F
331
31E
  5
345
331
BF7
  5
C42
331
437
  5
460
331
327
  5
34E
331
20F
  5
246
331
177
  5
19E
331
C08
  5
D5A
331
448
  5
475
331
338
  5
35F
331
218
  5
26D
331
188
  5
1AF
331
459
  5
4B0
331
C22
  5
D74
331
46A
  5
6C7
331
35A
  5
381
331
23A
  5
283
331
D89
  5
A2
331
C33
  5
D85
331
36B
  5
392
331
B3
  5
F5
331
349
  5
370
331
C44
  5
D96
331
37C
  5
3A3
331
D55
  5
833
331
27D
  5
2B0
331
D5
  5
FC
331
E6
  5
10D
331
4AE
  5
82A
331
3A6
  5
3CD
331
F7
  5
11E
331
4BF
  5
835
331
3B7
  5
3F5
331
D66
  5
9B
331
38D
  5
3B4
331
26C
  5
2A3
331
D78
  5
BCC
331
298
  5
2EF
331
F8
  5
11F
331
3B8
  5
3F6
331
3C9
  5
424
331
2A9
  5
304
331
199
  5
1C0
331
109
  5
130
331
92B
  5
BD3
331
6D2
  5
B98
331
3DA
  5
436
331
1AA
  5
1D1
331
11A
  5
141
331
BA3
  5
BEE
331
1BB
  5
1E2
331
123
  5
14A
331
81B
  5
BA0
331
BB4
  5
BFF
331
3FC
  5
441
331
2EC
  5
317
331
1CC
  5
1F3
331
134
  5
15B
331
82C
  5
BB1
331
BC5
  5
C10
331
2FD
  5
328
331
1DD
  5
204
331
145
  5
16C
331
A5
  5
E7
331
BD6
  5
C21
331
30E
  5
335
331
1EE
  5
215
331
156
  5
17D
331
835
  5
BBC
331
B9F
  5
BEA
331
1FF
  5
236
331
167
  5
18E
331
BE7
  5
C32
331
427
  5
450
331
31F
  5
346
331
BF8
  5
C43
331
438
  5
461
331
328
  5
34F
331
178
  5
19F
331
C09
  5
D5B
331
449
  5
476
331
339
  5
360
331
219
  5
26E
331
45A
  5
4B6
331
34A
  5
371
331
C23
  5
D75
331
46B
  5
6C8
331
35B
  5
382
331
23B
  5
284
331
D8A
  5
A3
331
C34
  5
D86
331
36C
  5
393
331
B4
  5
F6
331
37D
  5
3A4
331
D56
  5
82D
331
27E
  5
2B1
331
D6
  5
FD
331
26D
  5
2A4
331
189
  5
1B0
331
E7
  5
10E
331
4AF
  5
82B
331
3A7
  5
3CE
331
D67
  5
9C
331
38E
  5
3B5
331
E8
  5
10F
331
4B0
  5
82C
331
3A8
  5
3CF
331
D68
  5
9D
331
D79
  5
BC9
331
299
  5
2F0
331
F9
  5
120
331
3B9
  5
3F7
331
3CA
  5
425
331
2AA
  5
305
331
19A
  5
1C1
331
92C
  5
BD4
331
6D3
  5
B99
331
1AB
  5
1D2
331
11B
  5
142
331
BA4
  5
BEF
331
1BC
  5
1E3
331
124
  5
14B
331
81C
  5
BA1
331
BB5
  5
C00
331
3FD
  5
442
331
2ED
  5
318
331
1CD
  5
1F4
331
135
  5
15C
331
82D
  5
BB2
331
BC6
  5
C11
331
2FE
  5
329
331
1DE
  5
205
331
146
  5
16D
331
A6
  5
E8
331
10A
  5
131
331
BD7
  5
C22
331
30F
  5
336
331
1EF
  5
216
331
157
  5
17E
331
836
  5
BBD
331
BE8
  5
C33
331
428
  5
451
331
200
  5
237
331
168
  5
18F
331
BF9
  5
C44
331
439
  5
462
331
329
  5
350
331
179
  5
1A0
331
C0A
  5
D5C
331
44A
  5
477
331
33A
  5
361
331
21A
  5
26F
331
45B
  5
4B7
331
34B
  5
372
331
C24
  5
D76
331
46C
  5
6C9
331
35C
  5
383
331
23C
  5
285
331
D8B
  5
9E
331
C35
  5
D87
331
47D
  5
6D4
331
36D
  5
394
331
B5
  5
F7
331
37E
  5
3A5
331
26E
  5
2A5
331
D57
  5
82E
331
27F
  5
2B2
331
38F
  5
3B6
331
D7
  5
FE
331
18A
  5
1B1
331
D58
  5
81F
331
280
  5
2B3
331
D8
  5
FF
331
398
  5
3BF
331
390
  5
3B7
331
3A9
  5
3D0
331
291
  5
2ED
331
E9
  5
110
331
D7A
  5
BCA
331
29A
  5
2F1
331
FA
  5
121
331
3BA
  5
3F8
331
3CB
  5
426
331
2AB
  5
306
331
19B
  5
1C2
331
92D
  5
BD5
331
6D4
  5
B9A
331
1AC
  5
1D3
331
11C
  5
143
331
BA5
  5
BF0
331
1BD
  5
1E4
331
125
  5
14C
331
81D
  5
BA2
331
BB6
  5
C01
331
3FE
  5
444
331
2EE
  5
319
331
1CE
  5
1F5
331
136
  5
15D
331
96
  5
D8
331
82E
  5
BB3
331
BC7
  5
C12
331
1DF
  5
206
331
147
  5
16E
331
A7
  5
E9
331
BD8
  5
C23
331
310
  5
337
331
1F0
  5
217
331
158
  5
17F
331
837
  5
BBE
331
BE9
  5
C34
331
429
  5
452
331
201
  5
238
331
169
  5
190
331
10B
  5
132
331
BFA
  5
D4A
331
43A
  5
463
331
32A
  5
351
331
C0B
  5
D5D
331
44B
  5
47D
331
33B
  5
362
331
21B
  5
270
331
18B
  5
1B2
331
45C
  5
4B8
331
34C
  5
373
331
22C
  5
271
331
C25
  5
D77
331
46D
  5
6CA
331
35D
  5
384
331
23D
  5
286
331
D8C
  5
9F
331
C36
  5
D88
331
47E
  5
6D5
331
36E
  5
395
331
B6
  5
F8
331
37F
  5
3A6
331
26F
  5
2A6
331
17A
  5
1A1
331
380
  5
3A7
331
270
  5
2A7
331
D59
  5
826
331
281
  5
2E4
331
D9
  5
100
331
399
  5
3C0
331
391
  5
3B8
331
3AA
  5
3D1
331
EA
  5
111
331
D7B
  5
BCB
331
29B
  5
2F2
331
FB
  5
122
331
3BB
  5
3F9
331
6C4
  5
929
331
3CC
  5
427
331
2AC
  5
307
331
19C
  5
1C3
331
10C
  5
133
331
92E
  5
BD6
331
6D5
  5
B9B
331
1AD
  5
1D4
331
BA6
  5
BF1
331
1BE
  5
1E5
331
126
  5
14D
331
81E
  5
BA3
331
BB7
  5
C02
331
3FF
  5
445
331
2EF
  5
31A
331
1CF
  5
1F6
331
137
  5
15E
331
97
  5
D9
331
82F
  5
BB4
331
BC8
  5
C13
331
1E0
  5
207
331
148
  5
16F
331
B91
  5
BD9
331
1F1
  5
218
331
159
  5
180
331
838
  5
BBF
331
BD9
  5
C24
331
311
  5
338
331
BEA
  5
C35
331
42A
  5
453
331
202
  5
239
331
BFB
  5
D4B
331
43B
  5
464
331
32B
  5
352
331
17B
  5
1A2
331
C0C
  5
D5E
331
44C
  5
47E
331
33C
  5
363
331
45D
  5
4BE
331
34D
  5
374
331
22D
  5
272
331
C26
  5
D78
331
46E
  5
6CB
331
35E
  5
385
331
23E
  5
287
331
86
  5
AF
331
D8D
  5
A0
331
C37
  5
D89
331
47F
  5
6D6
331
36F
  5
396
331
18C
  5
1B3
331
16A
  5
191
331
11D
  5
144
331
C38
  5
D8A
331
370
  5
397
331
381
  5
3A8
331
271
  5
2A8
331
C9
  5
F9
331
D5A
  5
6D7
331
282
  5
2E5
331
DA
  5
101
331
39A
  5
3C1
331
392
  5
3B9
331
3AB
  5
3D2
331
EB
  5
112
331
D7C
  5
BC6
331
29C
  5
2F3
331
FC
  5
123
331
3BC
  5
3FA
331
6C5
  5
92A
331
3CD
  5
428
331
2AD
  5
308
331
19D
  5
1C4
331
10D
  5
134
331
92F
  5
BD7
331
6D6
  5
B9C
331
1AE
  5
1D5
331
11E
  5
145
331
BA7
  5
BF2
331
1BF
  5
1E6
331
81F
  5
BA4
331
BB8
  5
C03
331
400
  5
446
331
2F0
  5
31B
331
1D0
  5
1F7
331
138
  5
15F
331
98
  5
DA
331
BC9
  5
C14
331
1E1
  5
208
331
149
  5
170
331
839
  5
BC0
331
B92
  5
BDA
331
1F2
  5
219
331
BDA
  5
C25
331
312
  5
339
331
BEB
  5
C36
331
42B
  5
454
331
203
  5
23A
331
16B
  5
192
331
15A
  5
181
331
BFC
  5
D4E
331
43C
  5
465
331
32C
  5
353
331
C0D
  5
D5F
331
44D
  5
47F
331
33D
  5
364
331
18D
  5
1B4
331
45E
  5
4BF
331
34E
  5
375
331
C27
  5
D79
331
46F
  5
6CC
331
35F
  5
386
331
23F
  5
289
331
87
  5
B0
331
D8E
  5
9A
331
22E
  5
273
331
17C
  5
1A3
331
127
  5
14E
331
C28
  5
D7A
331
360
  5
387
331
240
  5
28B
331
A8
  5
EA
331
C39
  5
D8B
331
371
  5
398
331
382
  5
3A9
331
272
  5
2A9
331
CA
  5
FA
331
D5B
  5
6D8
331
283
  5
2E6
331
DB
  5
102
331
39B
  5
3C2
331
393
  5
3BA
331
EC
  5
113
331
3AC
  5
3D3
331
D7D
  5
BC3
331
29D
  5
2F4
331
FD
  5
124
331
3BD
  5
3FB
331
6C6
  5
92B
331
3CE
  5
429
331
2AE
  5
309
331
19E
  5
1C5
331
10E
  5
135
331
6D7
  5
B9D
331
1AF
  5
1D6
331
11F
  5
146
331
BA8
  5
BF3
331
1C0
  5
1E7
331
128
  5
14F
331
88
  5
B1
331
BB9
  5
C04
331
401
  5
447
331
2F1
  5
31C
331
1D1
  5
1F8
331
139
  5
160
331
99
  5
DB
331
BCA
  5
C15
331
1E2
  5
209
331
14A
  5
171
331
83A
  5
BC1
331
BDB
  5
C26
331
313
  5
33A
331
1F3
  5
21A
331
15B
  5
182
331
BEC
  5
C37
331
42C
  5
456
331
204
  5
23B
331
BFD
  5
D4F
331
43D
  5
466
331
32D
  5
354
331
17D
  5
1A4
331
16C
  5
193
331
C0E
  5
D60
331
44E
  5
485
331
33E
  5
365
331
18E
  5
1B5
331
45F
  5
4C0
331
34F
  5
376
331
D8F
  5
92
331
22F
  5
274
331
D6C
  5
86
331
C18
  5
D6A
331
460
  5
4C1
331
350
  5
377
331
230
  5
275
331
C29
  5
D7B
331
361
  5
388
331
241
  5
291
331
A9
  5
EB
331
D90
  5
93
331
C3A
  5
D8C
331
372
  5
399
331
383
  5
3AA
331
273
  5
2AA
331
CB
  5
FB
331
D5C
  5
6D2
331
284
  5
2E7
331
DC
  5
103
331
39C
  5
3C3
331
394
  5
3BB
331
ED
  5
114
331
3AD
  5
3D4
331
D7E
  5
BC4
331
29E
  5
2F5
331
FE
  5
125
331
3BE
  5
3FC
331
6C7
  5
92C
331
3CF
  5
42A
331
2AF
  5
30A
331
19F
  5
1C6
331
10F
  5
136
331
6D8
  5
B9E
331
1B0
  5
1D7
331
BA9
  5
BF4
331
1C1
  5
1E8
331
129
  5
150
331
89
  5
B2
331
BBA
  5
C05
331
402
  5
448
331
2F2
  5
31D
331
1D2
  5
1F9
331
13A
  5
161
331
9A
  5
DC
331
BCB
  5
C16
331
303
  5
32A
331
1E3
  5
20A
331
14B
  5
172
331
83B
  5
BC2
331
B94
  5
BDF
331
1F4
  5
21B
331
15C
  5
183
331
BDC
  5
C27
331
BED
  5
C38
331
42D
  5
457
331
205
  5
23C
331
16D
  5
194
331
314
  5
33B
331
BFE
  5
D50
331
43E
  5
467
331
32E
  5
355
331
17E
  5
1A5
331
C0F
  5
D61
331
44F
  5
486
331
33F
  5
366
331
18F
  5
1B6
331
D6D
  5
87
331
C10
  5
D62
331
450
  5
487
331
340
  5
367
331
190
  5
1B7
331
C19
  5
D6B
331
461
  5
4C2
331
351
  5
378
331
231
  5
276
331
D80
  5
AE
331
C2A
  5
D7C
331
362
  5
389
331
242
  5
297
331
AA
  5
EC
331
D91
  5
96
331
C3B
  5
D8D
331
373
  5
39A
331
384
  5
3AB
331
274
  5
2AB
331
D5D
  5
6D3
331
285
  5
2E8
331
DD
  5
104
331
4A5
  5
827
331
39D
  5
3C4
331
395
  5
3BC
331
EE
  5
115
331
4B6
  5
82F
331
3AE
  5
3D5
331
D7F
  5
BC5
331
29F
  5
2F6
331
FF
  5
126
331
5AF
  5
83B
331
3BF
  5
3FD
331
6C8
  5
92D
331
3D0
  5
42B
331
2B0
  5
30B
331
1A0
  5
1C7
331
110
  5
137
331
1B1
  5
1D8
331
BAA
  5
BF5
331
3F2
  5
437
331
1C2
  5
1E9
331
12A
  5
151
331
8A
  5
B3
331
BBB
  5
C06
331
403
  5
449
331
2F3
  5
31E
331
1D3
  5
1FA
331
13B
  5
162
331
9B
  5
DD
331
BCC
  5
C17
331
304
  5
32B
331
1E4
  5
20B
331
14C
  5
173
331
B95
  5
BE0
331
1F5
  5
22C
331
15D
  5
184
331
BDD
  5
C28
331
315
  5
33C
331
BEE
  5
C39
331
42E
  5
458
331
206
  5
23D
331
BFF
  5
D51
331
43F
  5
468
331
32F
  5
356
331
17F
  5
1A6
331
16E
  5
195
331
D6E
  5
88
331
C00
  5
D52
331
440
  5
469
331
330
  5
357
331
210
  5
247
331
180
  5
1A7
331
C11
  5
D63
331
451
  5
48E
331
341
  5
368
331
191
  5
1B8
331
C1A
  5
D6C
331
462
  5
4C3
331
352
  5
379
331
232
  5
27B
331
D81
  5
AB
331
C2B
  5
D7D
331
363
  5
38A
331
243
  5
298
331
AB
  5
ED
331
D92
  5
8C
331
C3C
  5
D8E
331
374
  5
39B
331
385
  5
3AC
331
275
  5
2AC
331
D5E
  5
6CD
331
286
  5
2E9
331
DE
  5
105
331
4A6
  5
828
331
39E
  5
3C5
331
396
  5
3BD
331
297
  5
2EE
331
EF
  5
116
331
4B7
  5
830
331
5B0
  5
91E
331
3C0
  5
3FE
331
2A0
  5
2F7
331
100
  5
127
331
6C9
  5
92E
331
3D1
  5
42C
331
2B1
  5
30C
331
1A1
  5
1C8
331
111
  5
138
331
1B2
  5
1D9
331
BAB
  5
BF6
331
3F3
  5
438
331
1C3
  5
1EA
331
12B
  5
152
331
8B
  5
B4
331
BBC
  5
C07
331
2F4
  5
31F
331
1D4
  5
1FB
331
13C
  5
163
331
9C
  5
DE
331
BCD
  5
C18
331
305
  5
32C
331
1E5
  5
20C
331
14D
  5
174
331
B96
  5
BE1
331
1F6
  5
22D
331
15E
  5
185
331
BDE
  5
C29
331
316
  5
33D
331
BEF
  5
C3A
331
42F
  5
459
331
207
  5
23E
331
16F
  5
196
331
3AF
  5
3D6
331
4C0
  5
836
331
BF0
  5
C3B
331
430
  5
45A
331
320
  5
347
331
208
  5
23F
331
170
  5
197
331
C01
  5
D53
331
441
  5
46A
331
331
  5
358
331
211
  5
248
331
181
  5
1A8
331
C12
  5
D64
331
452
  5
48F
331
342
  5
369
331
192
  5
1B9
331
C1B
  5
D6D
331
463
  5
4C4
331
353
  5
37A
331
233
  5
27C
331
D82
  5
AC
331
C2C
  5
D7E
331
364
  5
38B
331
244
  5
299
331
AC
  5
EE
331
D93
  5
8D
331
C3D
  5
D8F
331
485
  5
81A
331
375
  5
39C
331
48E
  5
81D
331
386
  5
3AD
331
276
  5
2AD
331
D5F
  5
6CE
331
287
  5
2EA
331
DF
  5
106
331
4A7
  5
829
331
39F
  5
3C6
331
397
  5
3BE
331
4B8
  5
831
331
3B0
  5
3D7
331
F0
  5
117
331
5B1
  5
91F
331
3C1
  5
3FF
331
2A1
  5
2F8
331
6CA
  5
92F
331
3D2
  5
42D
331
2B2
  5
30D
331
1A2
  5
1C9
331
112
  5
139
331
1B3
  5
1DA
331
BAC
  5
BF7
331
3F4
  5
439
331
2E4
  5
30F
331
1C4
  5
1EB
331
12C
  5
153
331
8C
  5
B5
331
BBD
  5
C08
331
2F5
  5
320
331
1D5
  5
1FC
331
13D
  5
164
331
9D
  5
DF
331
BCE
  5
C19
331
306
  5
32D
331
1E6
  5
20D
331
14E
  5
175
331
B97
  5
BE2
331
1F7
  5
22E
331
15F
  5
186
331
BDF
  5
C2A
331
317
  5
33E
331
101
  5
128
  0
XRECORD
  5
D9C
102
{ACAD_REACTORS
330
D9A
102
}
330
D9A
100
AcDbXrecord
280
     1
 70
     2
  0
XRECORD
  5
D9B
102
{ACAD_REACTORS
330
D9A
102
}
330
D9A
100
AcDbXrecord
280
     1
 40
1.25
  0
XRECORD
  5
D9D
102
{ACAD_REACTORS
330
D9A
102
}
330
D9A
100
AcDbXrecord
280
     1
 40
1.570796326794896
  0
LAYOUT
  5
39
102
{ACAD_XDICTIONARY
360
DC1
102
}
102
{ACAD_REACTORS
330
2E
102
}
330
2E
100
AcDbPlotSettings
  1

  2
PDF Complete
  4

  6

 40
0.0
 41
0.0
 42
0.0
 43
0.0
 44
0.0
 45
0.0
 46
0.0
 47
0.0
 48
0.0
 49
0.0
140
0.0
141
0.0
142
1.0
143
1.0
 70
  1712
 72
     0
 73
     0
 74
     0
  7

 75
     0
147
1.0
148
0.0
149
0.0
100
AcDbLayout
  1
Model
 70
     1
 71
     0
 10
0.0
 20
0.0
 11
12.0
 21
9.0
 12
0.0
 22
0.0
 32
0.0
 14
0.0
 24
0.0
 34
0.0
 15
0.0
 25
0.0
 35
0.0
146
0.0
 13
0.0
 23
0.0
 33
0.0
 16
1.0
 26
0.0
 36
0.0
 17
0.0
 27
1.0
 37
0.0
 76
     0
330
36
331
56
  0
LAYOUT
  5
35
102
{ACAD_XDICTIONARY
360
DBF
102
}
102
{ACAD_REACTORS
330
2E
102
}
330
2E
100
AcDbPlotSettings
  1

  2
PDF Complete
  4

  6

 40
0.0
 41
0.0
 42
0.0
 43
0.0
 44
0.0
 45
0.0
 46
0.0
 47
0.0
 48
0.0
 49
0.0
140
0.0
141
0.0
142
1.0
143
1.0
 70
   688
 72
     0
 73
     0
 74
     5
  7

 75
    16
147
1.0
148
0.0
149
0.0
100
AcDbLayout
  1
レイアウト1
 70
     1
 71
     1
 10
0.0
 20
0.0
 11
12.0
 21
9.0
 12
0.0
 22
0.0
 32
0.0
 14
1.000000000000000E+20
 24
1.000000000000000E+20
 34
1.000000000000000E+20
 15
-1.000000000000000E+20
 25
-1.000000000000000E+20
 35
-1.000000000000000E+20
146
0.0
 13
0.0
 23
0.0
 33
0.0
 16
1.0
 26
0.0
 36
0.0
 17
0.0
 27
1.0
 37
0.0
 76
     0
330
32
  0
MATERIAL
  5
12
102
{ACAD_XDICTIONARY
360
5BE
102
}
102
{ACAD_REACTORS
330
10
102
}
330
10
100
AcDbMaterial
  1
ByBlock
  0
MATERIAL
  5
11
102
{ACAD_XDICTIONARY
360
5BC
102
}
102
{ACAD_REACTORS
330
10
102
}
330
10
100
AcDbMaterial
  1
ByLayer
  0
MATERIAL
  5
13
102
{ACAD_XDICTIONARY
360
5C0
102
}
102
{ACAD_REACTORS
330
10
102
}
330
10
100
AcDbMaterial
  1
Global
  0
MLEADERSTYLE
  5
5E9
102
{ACAD_REACTORS
330
5E8
102
}
330
5E8
100
AcDbMLeaderStyle
170
     2
171
     1
172
     0
 90
        2
 40
0.0
 41
0.0
173
     1
 91
-1056964608
340
28
 92
       -2
290
     1
 42
0.09
291
     1
 43
0.36
  3
Standard
 44
0.18
300

342
26
174
     1
178
     6
175
     1
176
     0
 93
-1056964608
 45
0.18
292
     0
297
     0
 46
0.18
 94
-1056964608
 47
1.0
 49
1.0
140
1.0
293
     1
141
0.0
294
     1
177
     0
142
1.0
295
     0
296
     0
143
0.125
1001
ACAD_MLEADERVER
1070
     2
  0
MLINESTYLE
  5
2C
102
{ACAD_REACTORS
330
2B
102
}
330
2B
100
AcDbMlineStyle
  2
STANDARD
 70
     0
  3

 62
   256
 51
90.0
 52
90.0
 71
     2
 49
0.5
 62
   256
  6
BYLAYER
 49
-0.5
 62
   256
  6
BYLAYER
  0
ACDBPLACEHOLDER
  5
F
102
{ACAD_REACTORS
330
E
102
}
330
E
  0
SCALE
  5
5D7
102
{ACAD_REACTORS
330
5D6
102
}
330
5D6
100
AcDbScale
 70
     0
300
1:1
140
1.0
141
1.0
290
     1
  0
SCALE
  5
5D8
102
{ACAD_REACTORS
330
5D6
102
}
330
5D6
100
AcDbScale
 70
     0
300
1/128" = 1'-0"
140
0.0078125
141
12.0
290
     0
  0
SCALE
  5
5D9
102
{ACAD_REACTORS
330
5D6
102
}
330
5D6
100
AcDbScale
 70
     0
300
1/64" = 1'-0"
140
0.015625
141
12.0
290
     0
  0
SCALE
  5
5DA
102
{ACAD_REACTORS
330
5D6
102
}
330
5D6
100
AcDbScale
 70
     0
300
1/32" = 1'-0"
140
0.03125
141
12.0
290
     0
  0
SCALE
  5
5DB
102
{ACAD_REACTORS
330
5D6
102
}
330
5D6
100
AcDbScale
 70
     0
300
1/16" = 1'-0"
140
0.0625
141
12.0
290
     0
  0
SCALE
  5
5DC
102
{ACAD_REACTORS
330
5D6
102
}
330
5D6
100
AcDbScale
 70
     0
300
3/32" = 1'-0"
140
0.09375
141
12.0
290
     0
  0
SCALE
  5
5DD
102
{ACAD_REACTORS
330
5D6
102
}
330
5D6
100
AcDbScale
 70
     0
300
1/8" = 1'-0"
140
0.125
141
12.0
290
     0
  0
SCALE
  5
5DE
102
{ACAD_REACTORS
330
5D6
102
}
330
5D6
100
AcDbScale
 70
     0
300
3/16" = 1'-0"
140
0.1875
141
12.0
290
     0
  0
SCALE
  5
5DF
102
{ACAD_REACTORS
330
5D6
102
}
330
5D6
100
AcDbScale
 70
     0
300
1/4" = 1'-0"
140
0.25
141
12.0
290
     0
  0
SCALE
  5
5E0
102
{ACAD_REACTORS
330
5D6
102
}
330
5D6
100
AcDbScale
 70
     0
300
3/8" = 1'-0"
140
0.375
141
12.0
290
     0
  0
SCALE
  5
5E1
102
{ACAD_REACTORS
330
5D6
102
}
330
5D6
100
AcDbScale
 70
     0
300
1/2" = 1'-0"
140
0.5
141
12.0
290
     0
  0
SCALE
  5
5E2
102
{ACAD_REACTORS
330
5D6
102
}
330
5D6
100
AcDbScale
 70
     0
300
3/4" = 1'-0"
140
0.75
141
12.0
290
     0
  0
SCALE
  5
5E3
102
{ACAD_REACTORS
330
5D6
102
}
330
5D6
100
AcDbScale
 70
     0
300
1" = 1'-0"
140
1.0
141
12.0
290
     0
  0
SCALE
  5
5E4
102
{ACAD_REACTORS
330
5D6
102
}
330
5D6
100
AcDbScale
 70
     0
300
1-1/2" = 1'-0"
140
1.5
141
12.0
290
     0
  0
SCALE
  5
5E5
102
{ACAD_REACTORS
330
5D6
102
}
330
5D6
100
AcDbScale
 70
     0
300
3" = 1'-0"
140
3.0
141
12.0
290
     0
  0
SCALE
  5
5E6
102
{ACAD_REACTORS
330
5D6
102
}
330
5D6
100
AcDbScale
 70
     0
300
6" = 1'-0"
140
6.0
141
12.0
290
     0
  0
SCALE
  5
5E7
102
{ACAD_REACTORS
330
5D6
102
}
330
5D6
100
AcDbScale
 70
     0
300
1'-0" = 1'-0"
140
12.0
141
12.0
290
     0
  0
TABLESTYLE
  5
31
102
{ACAD_XDICTIONARY
360
85C
102
}
102
{ACAD_REACTORS
330
30
102
}
330
30
100
AcDbTableStyle
  3
Standard
 70
     0
 71
     0
 40
0.06
 41
0.06
280
     0
281
     0
  7
STANDARD
140
0.18
170
     2
 62
     0
 63
     7
283
     0
274
    -2
284
     1
 64
     0
275
    -2
285
     1
 65
     0
276
    -2
286
     1
 66
     0
277
    -2
287
     1
 67
     0
278
    -2
288
     1
 68
     0
279
    -2
289
     1
 69
     0
  7
STANDARD
140
0.25
170
     5
 62
     0
 63
     7
283
     0
274
    -2
284
     1
 64
     0
275
    -2
285
     1
 65
     0
276
    -2
286
     1
 66
     0
277
    -2
287
     1
 67
     0
278
    -2
288
     1
 68
     0
279
    -2
289
     1
 69
     0
  7
STANDARD
140
0.18
170
     5
 62
     0
 63
     7
283
     0
274
    -2
284
     1
 64
     0
275
    -2
285
     1
 65
     0
276
    -2
286
     1
 66
     0
277
    -2
287
     1
 67
     0
278
    -2
288
     1
 68
     0
279
    -2
289
     1
 69
     0
  0
VISUALSTYLE
  5
1A
102
{ACAD_XDICTIONARY
360
DA8
102
}
102
{ACAD_REACTORS
330
14
102
}
330
14
100
AcDbVisualStyle
  2

 70
     4
 71
     0
 72
     2
 73
     0
 90
        0
 40
-0.6
 41
-30.0
 62
     5
 63
     7
 74
     1
 91
        4
 64
     7
 65
   257
 75
     1
175
     1
 42
1.0
 92
        0
 66
   257
 43
1.0
 76
     1
 77
     6
 78
     2
 67
     7
 79
     5
170
     0
171
     0
290
     0
174
     0
 93
        1
 44
0.0
173
     0
291
     0
 45
0.0
1001
ACAD
1000
AcDbSavedByObjectVersion
1070
     0
  0
VISUALSTYLE
  5
1C
102
{ACAD_XDICTIONARY
360
DAC
102
}
102
{ACAD_REACTORS
330
14
102
}
330
14
100
AcDbVisualStyle
  2

 70
     6
 71
     1
 72
     2
 73
     2
 90
        0
 40
-0.6
 41
-30.0
 62
     5
 63
     7
 74
     2
 91
        2
 64
     7
 65
   257
 75
     2
175
     1
 42
40.0
 92
        0
 66
   257
 43
1.0
 76
     1
 77
     6
 78
     2
 67
     7
 79
     3
170
     0
171
     0
290
     0
174
     0
 93
        1
 44
0.0
173
     0
291
     0
 45
0.0
1001
ACAD
1000
AcDbSavedByObjectVersion
1070
     0
  0
VISUALSTYLE
  5
1B
102
{ACAD_XDICTIONARY
360
DAA
102
}
102
{ACAD_REACTORS
330
14
102
}
330
14
100
AcDbVisualStyle
  2

 70
     5
 71
     0
 72
     2
 73
     0
 90
        0
 40
-0.6
 41
-30.0
 62
     5
 63
     7
 74
     1
 91
        4
 64
     7
 65
   257
 75
     1
175
     1
 42
1.0
 92
        0
 66
   257
 43
1.0
 76
     1
 77
     6
 78
     2
 67
     7
 79
     5
170
     0
171
     0
290
     0
174
     0
 93
        1
 44
0.0
173
     0
291
     0
 45
0.0
1001
ACAD
1000
AcDbSavedByObjectVersion
1070
     0
  0
VISUALSTYLE
  5
19
102
{ACAD_XDICTIONARY
360
DA6
102
}
102
{ACAD_REACTORS
330
14
102
}
330
14
100
AcDbVisualStyle
  2

 70
     7
 71
     1
 72
     0
 73
     1
 90
        0
 40
-0.6
 41
-30.0
 62
     5
 63
     7
 74
     0
 91
        4
 64
     7
 65
   257
 75
     1
175
     1
 42
1.0
 92
        8
 66
     7
 43
1.0
 76
     1
 77
     6
 78
     2
 67
     7
 79
     5
170
     0
171
     0
290
     0
174
     0
 93
        1
 44
0.0
173
     0
291
     1
 45
0.0
1001
ACAD
1000
AcDbSavedByObjectVersion
1070
     0
  0
VISUALSTYLE
  5
20
102
{ACAD_XDICTIONARY
360
DB4
102
}
102
{ACAD_REACTORS
330
14
102
}
330
14
100
AcDbVisualStyle
  2

 70
    12
 71
     2
 72
     2
 73
     0
 90
        0
 40
-0.6
 41
-30.0
 62
     5
 63
     7
 74
     1
 91
        4
 64
     7
 65
   257
 75
     1
175
     1
 42
1.0
 92
        8
 66
     7
 43
1.0
 76
     1
 77
     6
 78
     2
 67
     7
 79
     5
170
     0
171
     0
290
     0
174
     0
 93
        1
 44
50.0
173
     0
291
     1
 45
0.0
1001
ACAD
1000
AcDbSavedByObjectVersion
1070
     0
  0
VISUALSTYLE
  5
24
102
{ACAD_XDICTIONARY
360
DBC
102
}
102
{ACAD_REACTORS
330
14
102
}
330
14
100
AcDbVisualStyle
  2

 70
    16
 71
     2
 72
     2
 73
     3
 90
        0
 40
-0.6
 41
-30.0
 62
     5
 63
     8
 74
     1
 91
        4
 64
     7
 65
   257
 75
     1
175
     1
 42
1.0
 92
        8
 66
     8
 43
1.0
 76
     1
 77
     6
 78
     2
 67
     7
 79
     5
170
     0
171
     0
290
     0
174
     0
 93
        1
 44
0.0
173
     0
291
     1
 45
0.0
1001
ACAD
1000
AcDbSavedByObjectVersion
1070
     0
  0
VISUALSTYLE
  5
1D
102
{ACAD_XDICTIONARY
360
DAE
102
}
102
{ACAD_REACTORS
330
14
102
}
330
14
100
AcDbVisualStyle
  2

 70
     9
 71
     3
 72
     2
 73
     0
 90
        0
 40
-0.6
 41
-30.0
 62
     5
 63
     7
 74
     2
 91
        2
 64
     7
 65
   257
 75
     1
175
     1
 42
40.0
 92
        8
 66
     7
 43
1.0
 76
     1
 77
     6
 78
     2
 67
     7
 79
     3
170
     0
171
     0
290
     0
174
     0
 93
        1
 44
0.0
173
     0
291
     0
 45
0.0
1001
ACAD
1000
AcDbSavedByObjectVersion
1070
     0
  0
VISUALSTYLE
  5
1F
102
{ACAD_XDICTIONARY
360
DB2
102
}
102
{ACAD_REACTORS
330
14
102
}
330
14
100
AcDbVisualStyle
  2

 70
    11
 71
     2
 72
     2
 73
     0
 90
        0
 40
-0.6
 41
-30.0
 62
     5
 63
     7
 74
     1
 91
        4
 64
     7
 65
   257
 75
     1
175
     1
 42
1.0
 92
        8
 66
     7
 43
1.0
 76
     1
 77
     6
 78
     2
 67
     7
 79
     5
170
     0
171
     0
290
     0
174
     0
 93
        1
 44
-50.0
173
     0
291
     1
 45
0.0
1001
ACAD
1000
AcDbSavedByObjectVersion
1070
     0
  0
VISUALSTYLE
  5
5D5
102
{ACAD_XDICTIONARY
360
DD5
102
}
102
{ACAD_REACTORS
330
14
102
}
330
14
100
AcDbVisualStyle
  2

 70
    22
 71
     2
 72
     2
 73
     0
 90
        0
 40
-0.6
 41
-30.0
 62
     5
 63
     7
 74
     1
 91
        4
 64
     7
 65
   257
 75
     1
175
     1
 42
1.0
 92
        8
 66
     7
 43
1.0
 76
     1
 77
     6
 78
     2
 67
     7
 79
     5
170
     0
171
     0
290
     0
174
     0
 93
        1
 44
0.0
173
     0
291
     1
 45
0.0
1001
ACAD
1000
AcDbSavedByObjectVersion
1070
     0
  0
VISUALSTYLE
  5
23
102
{ACAD_XDICTIONARY
360
DBA
102
}
102
{ACAD_REACTORS
330
14
102
}
330
14
100
AcDbVisualStyle
  2

 70
    15
 71
     2
 72
     2
 73
     0
 90
        0
 40
-0.6
 41
-30.0
 62
     5
 63
     7
 74
     1
 91
        4
 64
     7
 65
   257
 75
     1
175
     1
 42
1.0
 92
        8
 66
     7
 43
1.0
 76
     1
 77
     6
 78
     2
 67
     7
 79
     5
170
     0
171
     0
290
     0
174
     0
 93
        1
 44
0.0
173
     0
291
     1
 45
0.0
1001
ACAD
1000
AcDbSavedByObjectVersion
1070
     0
  0
VISUALSTYLE
  5
15
102
{ACAD_XDICTIONARY
360
D9E
102
}
102
{ACAD_REACTORS
330
14
102
}
330
14
100
AcDbVisualStyle
  2

 70
     0
 71
     2
 72
     1
 73
     1
 90
        2
 40
-0.6
 41
30.0
 62
     5
 63
     7
 74
     0
 91
        4
 64
     7
 65
   257
 75
     1
175
     1
 42
1.0
 92
        8
 66
     7
 43
1.0
 76
     1
 77
     6
 78
     2
 67
     7
 79
     5
170
     0
171
     0
290
     0
174
     0
 93
       13
 44
0.0
173
     0
291
     1
 45
0.0
1001
ACAD
1000
AcDbSavedByObjectVersion
1070
     0
  0
VISUALSTYLE
  5
16
102
{ACAD_XDICTIONARY
360
DA0
102
}
102
{ACAD_REACTORS
330
14
102
}
330
14
100
AcDbVisualStyle
  2

 70
     1
 71
     2
 72
     1
 73
     1
 90
        2
 40
-0.6
 41
30.0
 62
     5
 63
     7
 74
     1
 91
        4
 64
     7
 65
   257
 75
     1
175
     1
 42
1.0
 92
        0
 66
   257
 43
1.0
 76
     1
 77
     6
 78
     2
 67
     7
 79
     5
170
     0
171
     0
290
     0
174
     0
 93
       13
 44
0.0
173
     0
291
     1
 45
0.0
1001
ACAD
1000
AcDbSavedByObjectVersion
1070
     0
  0
VISUALSTYLE
  5
17
102
{ACAD_XDICTIONARY
360
DA2
102
}
102
{ACAD_REACTORS
330
14
102
}
330
14
100
AcDbVisualStyle
  2

 70
     2
 71
     2
 72
     2
 73
     1
 90
        2
 40
-0.6
 41
30.0
 62
     5
 63
     7
 74
     0
 91
        4
 64
     7
 65
   257
 75
     1
175
     1
 42
1.0
 92
        0
 66
     7
 43
1.0
 76
     1
 77
     6
 78
     2
 67
     7
 79
     5
170
     0
171
     0
290
     0
174
     0
 93
       13
 44
0.0
173
     0
291
     1
 45
0.0
1001
ACAD
1000
AcDbSavedByObjectVersion
1070
     0
  0
VISUALSTYLE
  5
18
102
{ACAD_XDICTIONARY
360
DA4
102
}
102
{ACAD_REACTORS
330
14
102
}
330
14
100
AcDbVisualStyle
  2

 70
     3
 71
     2
 72
     2
 73
     1
 90
        2
 40
-0.6
 41
30.0
 62
     5
 63
     7
 74
     1
 91
        4
 64
     7
 65
   257
 75
     1
175
     1
 42
1.0
 92
        0
 66
   257
 43
1.0
 76
     1
 77
     6
 78
     2
 67
     7
 79
     5
170
     0
171
     0
290
     0
174
     0
 93
       13
 44
0.0
173
     0
291
     1
 45
0.0
1001
ACAD
1000
AcDbSavedByObjectVersion
1070
     0
  0
VISUALSTYLE
  5
5CD
102
{ACAD_XDICTIONARY
360
DC5
102
}
102
{ACAD_REACTORS
330
14
102
}
330
14
100
AcDbVisualStyle
  2

 70
     6
 71
     1
 72
     2
 73
     2
 90
        0
 40
-0.6
 41
-30.0
 62
     5
 63
     7
 74
     2
 91
        2
 64
     7
 65
   257
 75
     2
175
     1
 42
40.0
 92
        0
 66
   257
 43
1.0
 76
     1
 77
     6
 78
     2
 67
     7
 79
     3
170
     0
171
     0
290
     0
174
     0
 93
        1
 44
0.0
173
     0
291
     0
 45
0.0
1001
ACAD
1000
AcDbSavedByObjectVersion
1070
     0
  0
VISUALSTYLE
  5
5D3
102
{ACAD_XDICTIONARY
360
DD1
102
}
102
{ACAD_REACTORS
330
14
102
}
330
14
100
AcDbVisualStyle
  2

 70
    20
 71
     2
 72
     2
 73
     0
 90
        0
 40
-0.6
 41
-30.0
 62
     5
 63
     7
 74
     1
 91
        4
 64
     7
 65
   257
 75
     1
175
     1
 42
1.0
 92
       10
 66
     7
 43
1.0
 76
     1
 77
     6
 78
     2
 67
     7
 79
     5
170
     0
171
     0
290
     0
174
     0
 93
        1
 44
0.0
173
     0
291
     1
 45
0.0
1001
ACAD
1000
AcDbSavedByObjectVersion
1070
     0
  0
VISUALSTYLE
  5
22
102
{ACAD_XDICTIONARY
360
DB8
102
}
102
{ACAD_REACTORS
330
14
102
}
330
14
100
AcDbVisualStyle
  2

 70
    14
 71
     2
 72
     2
 73
     0
 90
        0
 40
-0.6
 41
-30.0
 62
     5
 63
     7
 74
     1
 91
        4
 64
     7
 65
   257
 75
     7
175
     7
 42
1.0
 92
        8
 66
     7
 43
1.0
 76
     1
 77
     6
 78
     2
 67
     7
 79
     5
170
     0
171
     0
290
     0
174
     0
 93
        1
 44
0.0
173
     0
291
     1
 45
0.0
1001
ACAD
1000
AcDbSavedByObjectVersion
1070
     0
  0
VISUALSTYLE
  5
5D4
102
{ACAD_XDICTIONARY
360
DD3
102
}
102
{ACAD_REACTORS
330
14
102
}
330
14
100
AcDbVisualStyle
  2

 70
    21
 71
     2
 72
     2
 73
     0
 90
        0
 40
-0.6
 41
-30.0
 62
     5
 63
     7
 74
     1
 91
        4
 64
     7
 65
   257
 75
     1
175
     1
 42
1.0
 92
        9
 66
     7
 43
1.0
 76
     1
 77
     6
 78
     2
 67
     7
 79
     5
170
     0
171
     0
290
     0
174
     0
 93
        1
 44
0.0
173
     0
291
     1
 45
0.0
1001
ACAD
1000
AcDbSavedByObjectVersion
1070
     0
  0
VISUALSTYLE
  5
1E
102
{ACAD_XDICTIONARY
360
DB0
102
}
102
{ACAD_REACTORS
330
14
102
}
330
14
100
AcDbVisualStyle
  2

 70
     8
 71
     2
 72
     2
 73
     0
 90
        0
 40
-0.6
 41
-30.0
 62
     5
 63
     7
 74
     1
 91
        0
 64
     7
 65
   257
 75
     1
175
     1
 42
1.0
 92
        8
 66
     8
 43
1.0
 76
     1
 77
     6
 78
     2
 67
     7
 79
     5
170
     0
171
     0
290
     0
174
     0
 93
       13
 44
0.0
173
     0
291
     0
 45
0.0
1001
ACAD
1000
AcDbSavedByObjectVersion
1070
     0
  0
VISUALSTYLE
  5
5D2
102
{ACAD_XDICTIONARY
360
DCF
102
}
102
{ACAD_REACTORS
330
14
102
}
330
14
100
AcDbVisualStyle
  2

 70
    27
 71
     2
 72
     2
 73
     1
 90
        2
 40
-0.6
 41
30.0
 62
     5
 63
     7
 74
     0
 91
        4
 64
     7
 65
   257
 75
     1
175
     1
 42
1.0
 92
        8
 66
   257
 43
1.0
 76
     1
 77
     6
 78
     2
 67
     8
 79
     3
170
     0
171
     0
290
     0
174
     0
 93
        5
 44
0.0
173
     0
291
     0
 45
0.0
1001
ACAD
1000
AcDbSavedByObjectVersion
1070
     0
  0
VISUALSTYLE
  5
5D1
102
{ACAD_XDICTIONARY
360
DCD
102
}
102
{ACAD_REACTORS
330
14
102
}
330
14
100
AcDbVisualStyle
  2

 70
    26
 71
     2
 72
     2
 73
     1
 90
        2
 40
-0.6
 41
30.0
 62
     5
 63
     7
 74
     1
 91
       10
 64
     7
 65
   257
 75
     2
175
     1
 42
1.0
 92
        8
 66
   257
 43
1.0
 76
     1
 77
     6
 78
     2
 67
     7
 79
     3
170
     0
171
     0
290
     0
174
     0
 93
        5
 44
0.0
173
     0
291
     0
 45
0.0
1001
ACAD
1000
AcDbSavedByObjectVersion
1070
     0
  0
VISUALSTYLE
  5
5CE
102
{ACAD_XDICTIONARY
360
DC7
102
}
102
{ACAD_REACTORS
330
14
102
}
330
14
100
AcDbVisualStyle
  2

 70
    23
 71
     2
 72
     2
 73
     3
 90
        0
 40
-0.6
 41
-30.0
 62
     5
 63
     7
 74
     2
 91
        2
 64
     7
 65
     7
 75
     1
175
     1
 42
40.0
 92
        8
 66
     7
 43
1.0
 76
     1
 77
     6
 78
     2
 67
     7
 79
     3
170
     0
171
     0
290
     0
174
     0
 93
        1
 44
0.0
173
     0
291
     0
 45
0.0
1001
ACAD
1000
AcDbSavedByObjectVersion
1070
     0
  0
VISUALSTYLE
  5
5CF
102
{ACAD_XDICTIONARY
360
DC9
102
}
102
{ACAD_REACTORS
330
14
102
}
330
14
100
AcDbVisualStyle
  2

 70
    24
 71
     1
 72
     2
 73
     2
 90
        0
 40
-0.6
 41
-30.0
 62
     5
 63
     7
 74
     2
 91
        2
 64
     7
 65
     7
 75
     1
175
     1
 42
40.0
 92
       11
 66
     7
 43
1.0
 76
     1
 77
     6
 78
     2
 67
     7
 79
     6
170
     0
171
     0
290
     0
174
     0
 93
        1
 44
0.0
173
     0
291
     0
 45
0.0
1001
ACAD
1000
AcDbSavedByObjectVersion
1070
     0
  0
VISUALSTYLE
  5
21
102
{ACAD_XDICTIONARY
360
DB6
102
}
102
{ACAD_REACTORS
330
14
102
}
330
14
100
AcDbVisualStyle
  2

 70
    13
 71
     2
 72
     2
 73
     0
 90
        0
 40
-0.6
 41
-30.0
 62
     5
 63
     7
 74
     1
 91
        4
 64
     7
 65
   257
 75
     1
175
     1
 42
1.0
 92
       12
 66
     7
 43
1.0
 76
     1
 77
     6
 78
     2
 67
     7
 79
     5
170
     0
171
     0
290
     0
174
     0
 93
        1
 44
0.0
173
     0
291
     1
 45
0.0
1001
ACAD
1000
AcDbSavedByObjectVersion
1070
     0
  0
VISUALSTYLE
  5
5CC
102
{ACAD_XDICTIONARY
360
DC3
102
}
102
{ACAD_REACTORS
330
14
102
}
330
14
100
AcDbVisualStyle
  2

 70
     5
 71
     0
 72
     2
 73
     0
 90
        0
 40
-0.6
 41
-30.0
 62
     5
 63
     7
 74
     1
 91
        4
 64
     7
 65
   257
 75
     1
175
     1
 42
1.0
 92
        0
 66
   257
 43
1.0
 76
     1
 77
     6
 78
     2
 67
     7
 79
     3
170
     0
171
     0
290
     0
174
     0
 93
        1
 44
0.0
173
     0
291
     0
 45
0.0
1001
ACAD
1000
AcDbSavedByObjectVersion
1070
     0
  0
VISUALSTYLE
  5
5D0
102
{ACAD_XDICTIONARY
360
DCB
102
}
102
{ACAD_REACTORS
330
14
102
}
330
14
100
AcDbVisualStyle
  2

 70
    25
 71
     2
 72
     2
 73
     1
 90
        1
 40
0.5
 41
-30.0
 62
     5
 63
     7
 74
     1
 91
        0
 64
     7
 65
   257
 75
     1
175
     1
 42
1.0
 92
        8
 66
     7
 43
1.0
 76
     1
 77
     6
 78
     2
 67
     7
 79
     3
170
     0
171
     0
290
     0
174
     0
 93
       13
 44
0.0
173
     0
291
     0
 45
0.0
1001
ACAD
1000
AcDbSavedByObjectVersion
1070
     0
  0
DICTIONARYVAR
  5
85A
102
{ACAD_REACTORS
330
5B6
102
}
330
5B6
100
DictionaryVariables
280
     0
  1
1:1
  0
DICTIONARYVAR
  5
859
102
{ACAD_REACTORS
330
5B6
102
}
330
5B6
100
DictionaryVariables
280
     0
  1
STANDARD
  0
DICTIONARYVAR
  5
5B7
102
{ACAD_REACTORS
330
5B6
102
}
330
5B6
100
DictionaryVariables
280
     0
  1
STANDARD
  0
DICTIONARYVAR
  5
5BA
102
{ACAD_REACTORS
330
5B6
102
}
330
5B6
100
DictionaryVariables
280
     0
  1
1
  0
DICTIONARYVAR
  5
5B9
102
{ACAD_REACTORS
330
5B6
102
}
330
5B6
100
DictionaryVariables
280
     0
  1
0
  0
DICTIONARYVAR
  5
5B8
102
{ACAD_REACTORS
330
5B6
102
}
330
5B6
100
DictionaryVariables
280
     0
  1
127
  0
DICTIONARYVAR
  5
C49
102
{ACAD_REACTORS
330
5B6
102
}
330
5B6
100
DictionaryVariables
280
     0
  1
2
  0
DICTIONARY
  5
DC1
330
39
100
AcDbDictionary
280
     1
281
     1
  3
ACAD_XREC_ROUNDTRIP
360
DC2
  0
DICTIONARY
  5
DBF
330
35
100
AcDbDictionary
280
     1
281
     1
  3
ACAD_XREC_ROUNDTRIP
360
DC0
  0
DICTIONARY
  5
5BE
330
12
100
AcDbDictionary
280
     1
281
     1
  3
ACAD_XREC_ROUNDTRIP
360
5BF
  0
DICTIONARY
  5
5BC
330
11
100
AcDbDictionary
280
     1
281
     1
  3
ACAD_XREC_ROUNDTRIP
360
5BD
  0
DICTIONARY
  5
5C0
330
13
100
AcDbDictionary
280
     1
281
     1
  3
ACAD_XREC_ROUNDTRIP
360
5C1
  0
DICTIONARY
  5
85C
330
31
100
AcDbDictionary
280
     1
281
     1
  3
ACAD_ROUNDTRIP_2008_TABLESTYLE_CELLSTYLEMAP
360
D97
  3
ACAD_XREC_ROUNDTRIP
360
DBE
  0
DICTIONARY
  5
DA8
330
1A
100
AcDbDictionary
280
     1
281
     1
  3
ACAD_XREC_ROUNDTRIP
360
DA9
  0
DICTIONARY
  5
DAC
330
1C
100
AcDbDictionary
280
     1
281
     1
  3
ACAD_XREC_ROUNDTRIP
360
DAD
  0
DICTIONARY
  5
DAA
330
1B
100
AcDbDictionary
280
     1
281
     1
  3
ACAD_XREC_ROUNDTRIP
360
DAB
  0
DICTIONARY
  5
DA6
330
19
100
AcDbDictionary
280
     1
281
     1
  3
ACAD_XREC_ROUNDTRIP
360
DA7
  0
DICTIONARY
  5
DB4
330
20
100
AcDbDictionary
280
     1
281
     1
  3
ACAD_XREC_ROUNDTRIP
360
DB5
  0
DICTIONARY
  5
DBC
330
24
100
AcDbDictionary
280
     1
281
     1
  3
ACAD_XREC_ROUNDTRIP
360
DBD
  0
DICTIONARY
  5
DAE
330
1D
100
AcDbDictionary
280
     1
281
     1
  3
ACAD_XREC_ROUNDTRIP
360
DAF
  0
DICTIONARY
  5
DB2
330
1F
100
AcDbDictionary
280
     1
281
     1
  3
ACAD_XREC_ROUNDTRIP
360
DB3
  0
DICTIONARY
  5
DD5
330
5D5
100
AcDbDictionary
280
     1
281
     1
  3
ACAD_XREC_ROUNDTRIP
360
DD6
  0
DICTIONARY
  5
DBA
330
23
100
AcDbDictionary
280
     1
281
     1
  3
ACAD_XREC_ROUNDTRIP
360
DBB
  0
DICTIONARY
  5
D9E
330
15
100
AcDbDictionary
280
     1
281
     1
  3
ACAD_XREC_ROUNDTRIP
360
D9F
  0
DICTIONARY
  5
DA0
330
16
100
AcDbDictionary
280
     1
281
     1
  3
ACAD_XREC_ROUNDTRIP
360
DA1
  0
DICTIONARY
  5
DA2
330
17
100
AcDbDictionary
280
     1
281
     1
  3
ACAD_XREC_ROUNDTRIP
360
DA3
  0
DICTIONARY
  5
DA4
330
18
100
AcDbDictionary
280
     1
281
     1
  3
ACAD_XREC_ROUNDTRIP
360
DA5
  0
DICTIONARY
  5
DC5
330
5CD
100
AcDbDictionary
280
     1
281
     1
  3
ACAD_XREC_ROUNDTRIP
360
DC6
  0
DICTIONARY
  5
DD1
330
5D3
100
AcDbDictionary
280
     1
281
     1
  3
ACAD_XREC_ROUNDTRIP
360
DD2
  0
DICTIONARY
  5
DB8
330
22
100
AcDbDictionary
280
     1
281
     1
  3
ACAD_XREC_ROUNDTRIP
360
DB9
  0
DICTIONARY
  5
DD3
330
5D4
100
AcDbDictionary
280
     1
281
     1
  3
ACAD_XREC_ROUNDTRIP
360
DD4
  0
DICTIONARY
  5
DB0
330
1E
100
AcDbDictionary
280
     1
281
     1
  3
ACAD_XREC_ROUNDTRIP
360
DB1
  0
DICTIONARY
  5
DCF
330
5D2
100
AcDbDictionary
280
     1
281
     1
  3
ACAD_XREC_ROUNDTRIP
360
DD0
  0
DICTIONARY
  5
DCD
330
5D1
100
AcDbDictionary
280
     1
281
     1
  3
ACAD_XREC_ROUNDTRIP
360
DCE
  0
DICTIONARY
  5
DC7
330
5CE
100
AcDbDictionary
280
     1
281
     1
  3
ACAD_XREC_ROUNDTRIP
360
DC8
  0
DICTIONARY
  5
DC9
330
5CF
100
AcDbDictionary
280
     1
281
     1
  3
ACAD_XREC_ROUNDTRIP
360
DCA
  0
DICTIONARY
  5
DB6
330
21
100
AcDbDictionary
280
     1
281
     1
  3
ACAD_XREC_ROUNDTRIP
360
DB7
  0
DICTIONARY
  5
DC3
330
5CC
100
AcDbDictionary
280
     1
281
     1
  3
ACAD_XREC_ROUNDTRIP
360
DC4
  0
DICTIONARY
  5
DCB
330
5D0
100
AcDbDictionary
280
     1
281
     1
  3
ACAD_XREC_ROUNDTRIP
360
DCC
  0
XRECORD
  5
DC2
102
{ACAD_REACTORS
330
DC1
102
}
330
DC1
100
AcDbXrecord
280
     1
102
SHADEPLOT
 70
     0
102
SHADEPLOTRESLEVEL
 70
     2
102
SHADEPLOTCUSTOMDPI
 70
   300
  0
XRECORD
  5
DC0
102
{ACAD_REACTORS
330
DBF
102
}
330
DBF
100
AcDbXrecord
280
     1
102
SHADEPLOT
 70
     0
102
SHADEPLOTRESLEVEL
 70
     2
102
SHADEPLOTCUSTOMDPI
 70
   300
  0
XRECORD
  5
5BF
102
{ACAD_REACTORS
330
5BE
102
}
330
5BE
100
AcDbXrecord
280
     1
102
MATERIAL
148
0.0
149
0.0
149
0.0
 93
        0
 94
      127
282
     0
 72
     1
 77
     1
171
     1
175
     1
179
     1
273
     0
  0
XRECORD
  5
5BD
102
{ACAD_REACTORS
330
5BC
102
}
330
5BC
100
AcDbXrecord
280
     1
102
MATERIAL
148
0.0
149
0.0
149
0.0
 93
        0
 94
      127
282
     0
 72
     1
 77
     1
171
     1
175
     1
179
     1
273
     0
  0
XRECORD
  5
5C1
102
{ACAD_REACTORS
330
5C0
102
}
330
5C0
100
AcDbXrecord
280
     1
102
MATERIAL
148
0.0
149
0.0
149
0.0
 93
        0
 94
      127
282
     0
 72
     1
 77
     1
171
     1
175
     1
179
     1
273
     0
  0
CELLSTYLEMAP
  5
D97
102
{ACAD_REACTORS
330
85C
102
}
330
85C
100
AcDbCellStyleMap
 90
        3
300
CELLSTYLE
  1
TABLEFORMAT_BEGIN
 90
        5
170
     1
 91
        0
 92
    32768
 62
   257
 93
        1
300
CONTENTFORMAT
  1
CONTENTFORMAT_BEGIN
 90
        0
 91
        0
 92
      512
 93
        0
300

 40
0.0
140
1.0
 94
        5
 62
     0
340
26
144
0.25
309
CONTENTFORMAT_END
171
     1
301
MARGIN
  1
CELLMARGIN_BEGIN
 40
0.06
 40
0.06
 40
0.06
 40
0.06
 40
0.18
 40
0.18
309
CELLMARGIN_END
 94
        6
 95
        1
302
GRIDFORMAT
  1
GRIDFORMAT_BEGIN
 90
        0
 91
        1
 62
     0
 92
       -2
340
0
 93
        0
 40
0.045
309
GRIDFORMAT_END
 95
        2
302
GRIDFORMAT
  1
GRIDFORMAT_BEGIN
 90
        0
 91
        1
 62
     0
 92
       -2
340
0
 93
        0
 40
0.045
309
GRIDFORMAT_END
 95
        4
302
GRIDFORMAT
  1
GRIDFORMAT_BEGIN
 90
        0
 91
        1
 62
     0
 92
       -2
340
0
 93
        0
 40
0.045
309
GRIDFORMAT_END
 95
        8
302
GRIDFORMAT
  1
GRIDFORMAT_BEGIN
 90
        0
 91
        1
 62
     0
 92
       -2
340
0
 93
        0
 40
0.045
309
GRIDFORMAT_END
 95
       16
302
GRIDFORMAT
  1
GRIDFORMAT_BEGIN
 90
        0
 91
        1
 62
     0
 92
       -2
340
0
 93
        0
 40
0.045
309
GRIDFORMAT_END
 95
       32
302
GRIDFORMAT
  1
GRIDFORMAT_BEGIN
 90
        0
 91
        1
 62
     0
 92
       -2
340
0
 93
        0
 40
0.045
309
GRIDFORMAT_END
309
TABLEFORMAT_END
  1
CELLSTYLE_BEGIN
 90
        1
 91
        1
300
_TITLE
309
CELLSTYLE_END
300
CELLSTYLE
  1
TABLEFORMAT_BEGIN
 90
        5
170
     1
 91
        0
 92
        0
 62
   257
 93
        1
300
CONTENTFORMAT
  1
CONTENTFORMAT_BEGIN
 90
        0
 91
        0
 92
      512
 93
        0
300

 40
0.0
140
1.0
 94
        5
 62
     0
340
26
144
0.18
309
CONTENTFORMAT_END
171
     1
301
MARGIN
  1
CELLMARGIN_BEGIN
 40
0.06
 40
0.06
 40
0.06
 40
0.06
 40
0.18
 40
0.18
309
CELLMARGIN_END
 94
        6
 95
        1
302
GRIDFORMAT
  1
GRIDFORMAT_BEGIN
 90
        0
 91
        1
 62
     0
 92
       -2
340
0
 93
        0
 40
0.045
309
GRIDFORMAT_END
 95
        2
302
GRIDFORMAT
  1
GRIDFORMAT_BEGIN
 90
        0
 91
        1
 62
     0
 92
       -2
340
0
 93
        0
 40
0.045
309
GRIDFORMAT_END
 95
        4
302
GRIDFORMAT
  1
GRIDFORMAT_BEGIN
 90
        0
 91
        1
 62
     0
 92
       -2
340
0
 93
        0
 40
0.045
309
GRIDFORMAT_END
 95
        8
302
GRIDFORMAT
  1
GRIDFORMAT_BEGIN
 90
        0
 91
        1
 62
     0
 92
       -2
340
0
 93
        0
 40
0.045
309
GRIDFORMAT_END
 95
       16
302
GRIDFORMAT
  1
GRIDFORMAT_BEGIN
 90
        0
 91
        1
 62
     0
 92
       -2
340
0
 93
        0
 40
0.045
309
GRIDFORMAT_END
 95
       32
302
GRIDFORMAT
  1
GRIDFORMAT_BEGIN
 90
        0
 91
        1
 62
     0
 92
       -2
340
0
 93
        0
 40
0.045
309
GRIDFORMAT_END
309
TABLEFORMAT_END
  1
CELLSTYLE_BEGIN
 90
        2
 91
        1
300
_HEADER
309
CELLSTYLE_END
300
CELLSTYLE
  1
TABLEFORMAT_BEGIN
 90
        5
170
     1
 91
        0
 92
        0
 62
   257
 93
        1
300
CONTENTFORMAT
  1
CONTENTFORMAT_BEGIN
 90
        0
 91
        0
 92
      512
 93
        0
300

 40
0.0
140
1.0
 94
        2
 62
     0
340
26
144
0.18
309
CONTENTFORMAT_END
171
     1
301
MARGIN
  1
CELLMARGIN_BEGIN
 40
0.06
 40
0.06
 40
0.06
 40
0.06
 40
0.18
 40
0.18
309
CELLMARGIN_END
 94
        6
 95
        1
302
GRIDFORMAT
  1
GRIDFORMAT_BEGIN
 90
        0
 91
        1
 62
     0
 92
       -2
340
0
 93
        0
 40
0.045
309
GRIDFORMAT_END
 95
        2
302
GRIDFORMAT
  1
GRIDFORMAT_BEGIN
 90
        0
 91
        1
 62
     0
 92
       -2
340
0
 93
        0
 40
0.045
309
GRIDFORMAT_END
 95
        4
302
GRIDFORMAT
  1
GRIDFORMAT_BEGIN
 90
        0
 91
        1
 62
     0
 92
       -2
340
0
 93
        0
 40
0.045
309
GRIDFORMAT_END
 95
        8
302
GRIDFORMAT
  1
GRIDFORMAT_BEGIN
 90
        0
 91
        1
 62
     0
 92
       -2
340
0
 93
        0
 40
0.045
309
GRIDFORMAT_END
 95
       16
302
GRIDFORMAT
  1
GRIDFORMAT_BEGIN
 90
        0
 91
        1
 62
     0
 92
       -2
340
0
 93
        0
 40
0.045
309
GRIDFORMAT_END
 95
       32
302
GRIDFORMAT
  1
GRIDFORMAT_BEGIN
 90
        0
 91
        1
 62
     0
 92
       -2
340
0
 93
        0
 40
0.045
309
GRIDFORMAT_END
309
TABLEFORMAT_END
  1
CELLSTYLE_BEGIN
 90
        3
 91
        2
300
_DATA
309
CELLSTYLE_END
  0
XRECORD
  5
DBE
102
{ACAD_REACTORS
330
85C
102
}
330
85C
100
AcDbXrecord
280
     1
102
ACAD_ROUNDTRIP_PRE2007_TABLESTYLE
 90
      512
 91
        0
  1

 92
      512
 93
        0
  2

 94
      512
 95
        0
  3

  0
XRECORD
  5
DA9
102
{ACAD_REACTORS
330
DA8
102
}
330
DA8
100
AcDbXrecord
280
     1
102
RTVSPropertyOp0
 70
     1
102
RTVSPropertyOp1
 70
     1
102
RTVSPropertyOp2
 70
     1
102
RTVSPropertyOp3
 70
     1
102
RTVSPropertyOp4
 70
     1
102
RTVSPropertyOp5
 70
     1
102
RTVSPropertyOp6
 70
     1
102
RTVSPropertyOp7
 70
     1
102
RTVSPropertyOp8
 70
     1
102
RTVSPropertyOp9
 70
     1
102
RTVSPropertyOp10
 70
     1
102
RTVSPropertyOp11
 70
     1
102
RTVSPropertyOp12
 70
     1
102
RTVSPropertyOp13
 70
     1
102
RTVSPropertyOp14
 70
     1
102
RTVSPropertyOp15
 70
     1
102
RTVSPropertyOp16
 70
     1
102
RTVSPropertyOp17
 70
     1
102
RTVSPropertyOp18
 70
     1
102
RTVSPropertyOp19
 70
     1
102
RTVSPropertyOp20
 70
     1
102
RTVSPropertyOp21
 70
     1
102
RTVSPropertyOp22
 70
     1
102
RTVSPropertyOp23
 70
     1
102
RTVSPropertyOp24
 70
     1
102
RTVSPropertyOp25
 70
     1
102
RTVSPropertyOp26
 70
     1
102
RTVSPropertyOp27
 70
     1
102
RTVSPropertyOp28
 70
     1
102
RTVSPropertyOp29
 70
     1
102
RTVSPropertyOp30
 70
     1
102
RTVSPropertyOp31
 70
     1
102
RTVSPropertyOp32
 70
     1
  0
XRECORD
  5
DAD
102
{ACAD_REACTORS
330
DAC
102
}
330
DAC
100
AcDbXrecord
280
     1
102
RTVSPropertyOp0
 70
     1
102
RTVSPropertyOp1
 70
     1
102
RTVSPropertyOp2
 70
     1
102
RTVSPropertyOp3
 70
     1
102
RTVSPropertyOp4
 70
     1
102
RTVSPropertyOp5
 70
     1
102
RTVSPropertyOp6
 70
     1
102
RTVSPropertyOp7
 70
     1
102
RTVSPropertyOp8
 70
     1
102
RTVSPropertyOp9
 70
     1
102
RTVSPropertyOp10
 70
     1
102
RTVSPropertyOp11
 70
     1
102
RTVSPropertyOp12
 70
     1
102
RTVSPropertyOp13
 70
     1
102
RTVSPropertyOp14
 70
     1
102
RTVSPropertyOp15
 70
     1
102
RTVSPropertyOp16
 70
     1
102
RTVSPropertyOp17
 70
     1
102
RTVSPropertyOp18
 70
     1
102
RTVSPropertyOp19
 70
     1
102
RTVSPropertyOp20
 70
     1
102
RTVSPropertyOp21
 70
     1
102
RTVSPropertyOp22
 70
     1
102
RTVSPropertyOp23
 70
     1
102
RTVSPropertyOp24
 70
     1
102
RTVSPropertyOp25
 70
     1
102
RTVSPropertyOp26
 70
     1
102
RTVSPropertyOp27
 70
     1
102
RTVSPropertyOp28
 70
     1
102
RTVSPropertyOp29
 70
     1
102
RTVSPropertyOp30
 70
     1
102
RTVSPropertyOp31
 70
     1
102
RTVSPropertyOp32
 70
     1
  0
XRECORD
  5
DAB
102
{ACAD_REACTORS
330
DAA
102
}
330
DAA
100
AcDbXrecord
280
     1
102
RTVSPropertyOp0
 70
     1
102
RTVSPropertyOp1
 70
     1
102
RTVSPropertyOp2
 70
     1
102
RTVSPropertyOp3
 70
     1
102
RTVSPropertyOp4
 70
     1
102
RTVSPropertyOp5
 70
     1
102
RTVSPropertyOp6
 70
     1
102
RTVSPropertyOp7
 70
     1
102
RTVSPropertyOp8
 70
     1
102
RTVSPropertyOp9
 70
     1
102
RTVSPropertyOp10
 70
     1
102
RTVSPropertyOp11
 70
     1
102
RTVSPropertyOp12
 70
     1
102
RTVSPropertyOp13
 70
     1
102
RTVSPropertyOp14
 70
     1
102
RTVSPropertyOp15
 70
     1
102
RTVSPropertyOp16
 70
     1
102
RTVSPropertyOp17
 70
     1
102
RTVSPropertyOp18
 70
     1
102
RTVSPropertyOp19
 70
     1
102
RTVSPropertyOp20
 70
     1
102
RTVSPropertyOp21
 70
     1
102
RTVSPropertyOp22
 70
     1
102
RTVSPropertyOp23
 70
     1
102
RTVSPropertyOp24
 70
     1
102
RTVSPropertyOp25
 70
     1
102
RTVSPropertyOp26
 70
     1
102
RTVSPropertyOp27
 70
     1
102
RTVSPropertyOp28
 70
     1
102
RTVSPropertyOp29
 70
     1
102
RTVSPropertyOp30
 70
     1
102
RTVSPropertyOp31
 70
     1
102
RTVSPropertyOp32
 70
     1
  0
XRECORD
  5
DA7
102
{ACAD_REACTORS
330
DA6
102
}
330
DA6
100
AcDbXrecord
280
     1
102
RTVSPropertyOp0
 70
     1
102
RTVSPropertyOp1
 70
     1
102
RTVSPropertyOp2
 70
     1
102
RTVSPropertyOp3
 70
     1
102
RTVSPropertyOp4
 70
     1
102
RTVSPropertyOp5
 70
     1
102
RTVSPropertyOp6
 70
     1
102
RTVSPropertyOp7
 70
     1
102
RTVSPropertyOp8
 70
     1
102
RTVSPropertyOp9
 70
     1
102
RTVSPropertyOp10
 70
     1
102
RTVSPropertyOp11
 70
     1
102
RTVSPropertyOp12
 70
     1
102
RTVSPropertyOp13
 70
     1
102
RTVSPropertyOp14
 70
     1
102
RTVSPropertyOp15
 70
     1
102
RTVSPropertyOp16
 70
     1
102
RTVSPropertyOp17
 70
     1
102
RTVSPropertyOp18
 70
     1
102
RTVSPropertyOp19
 70
     1
102
RTVSPropertyOp20
 70
     1
102
RTVSPropertyOp21
 70
     1
102
RTVSPropertyOp22
 70
     1
102
RTVSPropertyOp23
 70
     1
102
RTVSPropertyOp24
 70
     1
102
RTVSPropertyOp25
 70
     1
102
RTVSPropertyOp26
 70
     1
102
RTVSPropertyOp27
 70
     1
102
RTVSPropertyOp28
 70
     1
102
RTVSPropertyOp29
 70
     1
102
RTVSPropertyOp30
 70
     1
102
RTVSPropertyOp31
 70
     1
102
RTVSPropertyOp32
 70
     1
  0
XRECORD
  5
DB5
102
{ACAD_REACTORS
330
DB4
102
}
330
DB4
100
AcDbXrecord
280
     1
102
RTVSPropertyOp0
 70
     1
102
RTVSPropertyOp1
 70
     1
102
RTVSPropertyOp2
 70
     1
102
RTVSPropertyOp3
 70
     1
102
RTVSPropertyOp4
 70
     1
102
RTVSPropertyOp5
 70
     1
102
RTVSPropertyOp6
 70
     1
102
RTVSPropertyOp7
 70
     1
102
RTVSPropertyOp8
 70
     1
102
RTVSPropertyOp9
 70
     1
102
RTVSPropertyOp10
 70
     1
102
RTVSPropertyOp11
 70
     1
102
RTVSPropertyOp12
 70
     1
102
RTVSPropertyOp13
 70
     1
102
RTVSPropertyOp14
 70
     1
102
RTVSPropertyOp15
 70
     1
102
RTVSPropertyOp16
 70
     1
102
RTVSPropertyOp17
 70
     1
102
RTVSPropertyOp18
 70
     1
102
RTVSPropertyOp19
 70
     1
102
RTVSPropertyOp20
 70
     1
102
RTVSPropertyOp21
 70
     1
102
RTVSPropertyOp22
 70
     1
102
RTVSPropertyOp23
 70
     1
102
RTVSPropertyOp24
 70
     1
102
RTVSPropertyOp25
 70
     1
102
RTVSPropertyOp26
 70
     1
102
RTVSPropertyOp27
 70
     1
102
RTVSPropertyOp28
 70
     1
102
RTVSPropertyOp29
 70
     1
102
RTVSPropertyOp30
 70
     1
102
RTVSPropertyOp31
 70
     1
102
RTVSPropertyOp32
 70
     1
  0
XRECORD
  5
DBD
102
{ACAD_REACTORS
330
DBC
102
}
330
DBC
100
AcDbXrecord
280
     1
102
RTVSPropertyOp0
 70
     1
102
RTVSPropertyOp1
 70
     1
102
RTVSPropertyOp2
 70
     1
102
RTVSPropertyOp3
 70
     1
102
RTVSPropertyOp4
 70
     1
102
RTVSPropertyOp5
 70
     1
102
RTVSPropertyOp6
 70
     1
102
RTVSPropertyOp7
 70
     1
102
RTVSPropertyOp8
 70
     1
102
RTVSPropertyOp9
 70
     1
102
RTVSPropertyOp10
 70
     1
102
RTVSPropertyOp11
 70
     1
102
RTVSPropertyOp12
 70
     1
102
RTVSPropertyOp13
 70
     1
102
RTVSPropertyOp14
 70
     1
102
RTVSPropertyOp15
 70
     1
102
RTVSPropertyOp16
 70
     1
102
RTVSPropertyOp17
 70
     1
102
RTVSPropertyOp18
 70
     1
102
RTVSPropertyOp19
 70
     1
102
RTVSPropertyOp20
 70
     1
102
RTVSPropertyOp21
 70
     1
102
RTVSPropertyOp22
 70
     1
102
RTVSPropertyOp23
 70
     1
102
RTVSPropertyOp24
 70
     1
102
RTVSPropertyOp25
 70
     1
102
RTVSPropertyOp26
 70
     1
102
RTVSPropertyOp27
 70
     1
102
RTVSPropertyOp28
 70
     1
102
RTVSPropertyOp29
 70
     1
102
RTVSPropertyOp30
 70
     1
102
RTVSPropertyOp31
 70
     1
102
RTVSPropertyOp32
 70
     1
  0
XRECORD
  5
DAF
102
{ACAD_REACTORS
330
DAE
102
}
330
DAE
100
AcDbXrecord
280
     1
102
RTVSPropertyOp0
 70
     1
102
RTVSPropertyOp1
 70
     1
102
RTVSPropertyOp2
 70
     1
102
RTVSPropertyOp3
 70
     1
102
RTVSPropertyOp4
 70
     1
102
RTVSPropertyOp5
 70
     1
102
RTVSPropertyOp6
 70
     1
102
RTVSPropertyOp7
 70
     1
102
RTVSPropertyOp8
 70
     1
102
RTVSPropertyOp9
 70
     1
102
RTVSPropertyOp10
 70
     1
102
RTVSPropertyOp11
 70
     1
102
RTVSPropertyOp12
 70
     1
102
RTVSPropertyOp13
 70
     1
102
RTVSPropertyOp14
 70
     1
102
RTVSPropertyOp15
 70
     1
102
RTVSPropertyOp16
 70
     1
102
RTVSPropertyOp17
 70
     1
102
RTVSPropertyOp18
 70
     1
102
RTVSPropertyOp19
 70
     1
102
RTVSPropertyOp20
 70
     1
102
RTVSPropertyOp21
 70
     1
102
RTVSPropertyOp22
 70
     1
102
RTVSPropertyOp23
 70
     1
102
RTVSPropertyOp24
 70
     1
102
RTVSPropertyOp25
 70
     1
102
RTVSPropertyOp26
 70
     1
102
RTVSPropertyOp27
 70
     1
102
RTVSPropertyOp28
 70
     1
102
RTVSPropertyOp29
 70
     1
102
RTVSPropertyOp30
 70
     1
102
RTVSPropertyOp31
 70
     1
102
RTVSPropertyOp32
 70
     1
  0
XRECORD
  5
DB3
102
{ACAD_REACTORS
330
DB2
102
}
330
DB2
100
AcDbXrecord
280
     1
102
RTVSPropertyOp0
 70
     1
102
RTVSPropertyOp1
 70
     1
102
RTVSPropertyOp2
 70
     1
102
RTVSPropertyOp3
 70
     1
102
RTVSPropertyOp4
 70
     1
102
RTVSPropertyOp5
 70
     1
102
RTVSPropertyOp6
 70
     1
102
RTVSPropertyOp7
 70
     1
102
RTVSPropertyOp8
 70
     1
102
RTVSPropertyOp9
 70
     1
102
RTVSPropertyOp10
 70
     1
102
RTVSPropertyOp11
 70
     1
102
RTVSPropertyOp12
 70
     1
102
RTVSPropertyOp13
 70
     1
102
RTVSPropertyOp14
 70
     1
102
RTVSPropertyOp15
 70
     1
102
RTVSPropertyOp16
 70
     1
102
RTVSPropertyOp17
 70
     1
102
RTVSPropertyOp18
 70
     1
102
RTVSPropertyOp19
 70
     1
102
RTVSPropertyOp20
 70
     1
102
RTVSPropertyOp21
 70
     1
102
RTVSPropertyOp22
 70
     1
102
RTVSPropertyOp23
 70
     1
102
RTVSPropertyOp24
 70
     1
102
RTVSPropertyOp25
 70
     1
102
RTVSPropertyOp26
 70
     1
102
RTVSPropertyOp27
 70
     1
102
RTVSPropertyOp28
 70
     1
102
RTVSPropertyOp29
 70
     1
102
RTVSPropertyOp30
 70
     1
102
RTVSPropertyOp31
 70
     1
102
RTVSPropertyOp32
 70
     1
  0
XRECORD
  5
DD6
102
{ACAD_REACTORS
330
DD5
102
}
330
DD5
100
AcDbXrecord
280
     1
102
RTVSPropertyOp0
 70
     0
102
RTVSPropertyOp1
 70
     0
102
RTVSPropertyOp2
 70
     0
102
RTVSPropertyOp3
 70
     0
102
RTVSPropertyOp4
 70
     0
102
RTVSPropertyOp5
 70
     0
102
RTVSPropertyOp6
 70
     0
102
RTVSPropertyOp7
 70
     0
102
RTVSPropertyOp8
 70
     0
102
RTVSPropertyOp9
 70
     0
102
RTVSPropertyOp10
 70
     0
102
RTVSPropertyOp11
 70
     0
102
RTVSPropertyOp12
 70
     0
102
RTVSPropertyOp13
 70
     0
102
RTVSPropertyOp14
 70
     2
102
RTVSPropertyOp15
 70
     0
102
RTVSPropertyOp16
 70
     0
102
RTVSPropertyOp17
 70
     0
102
RTVSPropertyOp18
 70
     0
102
RTVSPropertyOp19
 70
     0
102
RTVSPropertyOp20
 70
     0
102
RTVSPropertyOp21
 70
     0
102
RTVSPropertyOp22
 70
     0
102
RTVSPropertyOp23
 70
     0
102
RTVSPropertyOp24
 70
     0
102
RTVSPropertyOp25
 70
     0
102
RTVSPropertyOp26
 70
     0
102
RTVSPropertyOp27
 70
     0
102
RTVSPropertyOp28
 70
     0
102
RTVSPropertyOp29
 70
     0
102
RTVSPropertyOp30
 70
     0
102
RTVSPropertyOp31
 70
     0
102
RTVSPropertyOp32
 70
     0
  0
XRECORD
  5
DBB
102
{ACAD_REACTORS
330
DBA
102
}
330
DBA
100
AcDbXrecord
280
     1
102
RTVSPropertyOp0
 70
     1
102
RTVSPropertyOp1
 70
     1
102
RTVSPropertyOp2
 70
     1
102
RTVSPropertyOp3
 70
     1
102
RTVSPropertyOp4
 70
     1
102
RTVSPropertyOp5
 70
     1
102
RTVSPropertyOp6
 70
     1
102
RTVSPropertyOp7
 70
     1
102
RTVSPropertyOp8
 70
     1
102
RTVSPropertyOp9
 70
     1
102
RTVSPropertyOp10
 70
     1
102
RTVSPropertyOp11
 70
     1
102
RTVSPropertyOp12
 70
     1
102
RTVSPropertyOp13
 70
     1
102
RTVSPropertyOp14
 70
     1
102
RTVSPropertyOp15
 70
     1
102
RTVSPropertyOp16
 70
     1
102
RTVSPropertyOp17
 70
     1
102
RTVSPropertyOp18
 70
     1
102
RTVSPropertyOp19
 70
     1
102
RTVSPropertyOp20
 70
     1
102
RTVSPropertyOp21
 70
     1
102
RTVSPropertyOp22
 70
     1
102
RTVSPropertyOp23
 70
     1
102
RTVSPropertyOp24
 70
     1
102
RTVSPropertyOp25
 70
     1
102
RTVSPropertyOp26
 70
     1
102
RTVSPropertyOp27
 70
     1
102
RTVSPropertyOp28
 70
     1
102
RTVSPropertyOp29
 70
     1
102
RTVSPropertyOp30
 70
     1
102
RTVSPropertyOp31
 70
     1
102
RTVSPropertyOp32
 70
     1
  0
XRECORD
  5
D9F
102
{ACAD_REACTORS
330
D9E
102
}
330
D9E
100
AcDbXrecord
280
     1
102
RTVSPropertyOp0
 70
     1
102
RTVSPropertyOp1
 70
     1
102
RTVSPropertyOp2
 70
     1
102
RTVSPropertyOp3
 70
     1
102
RTVSPropertyOp4
 70
     1
102
RTVSPropertyOp5
 70
     1
102
RTVSPropertyOp6
 70
     1
102
RTVSPropertyOp7
 70
     1
102
RTVSPropertyOp8
 70
     1
102
RTVSPropertyOp9
 70
     1
102
RTVSPropertyOp10
 70
     1
102
RTVSPropertyOp11
 70
     1
102
RTVSPropertyOp12
 70
     1
102
RTVSPropertyOp13
 70
     1
102
RTVSPropertyOp14
 70
     1
102
RTVSPropertyOp15
 70
     1
102
RTVSPropertyOp16
 70
     1
102
RTVSPropertyOp17
 70
     1
102
RTVSPropertyOp18
 70
     1
102
RTVSPropertyOp19
 70
     1
102
RTVSPropertyOp20
 70
     1
102
RTVSPropertyOp21
 70
     1
102
RTVSPropertyOp22
 70
     1
102
RTVSPropertyOp23
 70
     1
102
RTVSPropertyOp24
 70
     1
102
RTVSPropertyOp25
 70
     1
102
RTVSPropertyOp26
 70
     1
102
RTVSPropertyOp27
 70
     1
102
RTVSPropertyOp28
 70
     1
102
RTVSPropertyOp29
 70
     1
102
RTVSPropertyOp30
 70
     1
102
RTVSPropertyOp31
 70
     1
102
RTVSPropertyOp32
 70
     1
  0
XRECORD
  5
DA1
102
{ACAD_REACTORS
330
DA0
102
}
330
DA0
100
AcDbXrecord
280
     1
102
RTVSPropertyOp0
 70
     1
102
RTVSPropertyOp1
 70
     1
102
RTVSPropertyOp2
 70
     1
102
RTVSPropertyOp3
 70
     1
102
RTVSPropertyOp4
 70
     1
102
RTVSPropertyOp5
 70
     1
102
RTVSPropertyOp6
 70
     1
102
RTVSPropertyOp7
 70
     1
102
RTVSPropertyOp8
 70
     1
102
RTVSPropertyOp9
 70
     1
102
RTVSPropertyOp10
 70
     1
102
RTVSPropertyOp11
 70
     1
102
RTVSPropertyOp12
 70
     1
102
RTVSPropertyOp13
 70
     1
102
RTVSPropertyOp14
 70
     1
102
RTVSPropertyOp15
 70
     1
102
RTVSPropertyOp16
 70
     1
102
RTVSPropertyOp17
 70
     1
102
RTVSPropertyOp18
 70
     1
102
RTVSPropertyOp19
 70
     1
102
RTVSPropertyOp20
 70
     1
102
RTVSPropertyOp21
 70
     1
102
RTVSPropertyOp22
 70
     1
102
RTVSPropertyOp23
 70
     1
102
RTVSPropertyOp24
 70
     1
102
RTVSPropertyOp25
 70
     1
102
RTVSPropertyOp26
 70
     1
102
RTVSPropertyOp27
 70
     1
102
RTVSPropertyOp28
 70
     1
102
RTVSPropertyOp29
 70
     1
102
RTVSPropertyOp30
 70
     1
102
RTVSPropertyOp31
 70
     1
102
RTVSPropertyOp32
 70
     1
  0
XRECORD
  5
DA3
102
{ACAD_REACTORS
330
DA2
102
}
330
DA2
100
AcDbXrecord
280
     1
102
RTVSPropertyOp0
 70
     1
102
RTVSPropertyOp1
 70
     1
102
RTVSPropertyOp2
 70
     1
102
RTVSPropertyOp3
 70
     1
102
RTVSPropertyOp4
 70
     1
102
RTVSPropertyOp5
 70
     1
102
RTVSPropertyOp6
 70
     1
102
RTVSPropertyOp7
 70
     1
102
RTVSPropertyOp8
 70
     1
102
RTVSPropertyOp9
 70
     1
102
RTVSPropertyOp10
 70
     1
102
RTVSPropertyOp11
 70
     1
102
RTVSPropertyOp12
 70
     1
102
RTVSPropertyOp13
 70
     1
102
RTVSPropertyOp14
 70
     1
102
RTVSPropertyOp15
 70
     1
102
RTVSPropertyOp16
 70
     1
102
RTVSPropertyOp17
 70
     1
102
RTVSPropertyOp18
 70
     1
102
RTVSPropertyOp19
 70
     1
102
RTVSPropertyOp20
 70
     1
102
RTVSPropertyOp21
 70
     1
102
RTVSPropertyOp22
 70
     1
102
RTVSPropertyOp23
 70
     1
102
RTVSPropertyOp24
 70
     1
102
RTVSPropertyOp25
 70
     1
102
RTVSPropertyOp26
 70
     1
102
RTVSPropertyOp27
 70
     1
102
RTVSPropertyOp28
 70
     1
102
RTVSPropertyOp29
 70
     1
102
RTVSPropertyOp30
 70
     1
102
RTVSPropertyOp31
 70
     1
102
RTVSPropertyOp32
 70
     1
  0
XRECORD
  5
DA5
102
{ACAD_REACTORS
330
DA4
102
}
330
DA4
100
AcDbXrecord
280
     1
102
RTVSPropertyOp0
 70
     1
102
RTVSPropertyOp1
 70
     1
102
RTVSPropertyOp2
 70
     1
102
RTVSPropertyOp3
 70
     1
102
RTVSPropertyOp4
 70
     1
102
RTVSPropertyOp5
 70
     1
102
RTVSPropertyOp6
 70
     1
102
RTVSPropertyOp7
 70
     1
102
RTVSPropertyOp8
 70
     1
102
RTVSPropertyOp9
 70
     1
102
RTVSPropertyOp10
 70
     1
102
RTVSPropertyOp11
 70
     1
102
RTVSPropertyOp12
 70
     1
102
RTVSPropertyOp13
 70
     1
102
RTVSPropertyOp14
 70
     1
102
RTVSPropertyOp15
 70
     1
102
RTVSPropertyOp16
 70
     1
102
RTVSPropertyOp17
 70
     1
102
RTVSPropertyOp18
 70
     1
102
RTVSPropertyOp19
 70
     1
102
RTVSPropertyOp20
 70
     1
102
RTVSPropertyOp21
 70
     1
102
RTVSPropertyOp22
 70
     1
102
RTVSPropertyOp23
 70
     1
102
RTVSPropertyOp24
 70
     1
102
RTVSPropertyOp25
 70
     1
102
RTVSPropertyOp26
 70
     1
102
RTVSPropertyOp27
 70
     1
102
RTVSPropertyOp28
 70
     1
102
RTVSPropertyOp29
 70
     1
102
RTVSPropertyOp30
 70
     1
102
RTVSPropertyOp31
 70
     1
102
RTVSPropertyOp32
 70
     1
  0
XRECORD
  5
DC6
102
{ACAD_REACTORS
330
DC5
102
}
330
DC5
100
AcDbXrecord
280
     1
102
RTVSPropertyOp0
 70
     1
102
RTVSPropertyOp1
 70
     1
102
RTVSPropertyOp2
 70
     1
102
RTVSPropertyOp3
 70
     1
102
RTVSPropertyOp4
 70
     1
102
RTVSPropertyOp5
 70
     1
102
RTVSPropertyOp6
 70
     1
102
RTVSPropertyOp7
 70
     1
102
RTVSPropertyOp8
 70
     1
102
RTVSPropertyOp9
 70
     1
102
RTVSPropertyOp10
 70
     1
102
RTVSPropertyOp11
 70
     1
102
RTVSPropertyOp12
 70
     1
102
RTVSPropertyOp13
 70
     1
102
RTVSPropertyOp14
 70
     1
102
RTVSPropertyOp15
 70
     1
102
RTVSPropertyOp16
 70
     1
102
RTVSPropertyOp17
 70
     1
102
RTVSPropertyOp18
 70
     1
102
RTVSPropertyOp19
 70
     1
102
RTVSPropertyOp20
 70
     1
102
RTVSPropertyOp21
 70
     1
102
RTVSPropertyOp22
 70
     1
102
RTVSPropertyOp23
 70
     1
102
RTVSPropertyOp24
 70
     1
102
RTVSPropertyOp25
 70
     1
102
RTVSPropertyOp26
 70
     1
102
RTVSPropertyOp27
 70
     1
102
RTVSPropertyOp28
 70
     1
102
RTVSPropertyOp29
 70
     1
102
RTVSPropertyOp30
 70
     1
102
RTVSPropertyOp31
 70
     1
102
RTVSPropertyOp32
 70
     1
  0
XRECORD
  5
DD2
102
{ACAD_REACTORS
330
DD1
102
}
330
DD1
100
AcDbXrecord
280
     1
102
RTVSPropertyOp0
 70
     0
102
RTVSPropertyOp1
 70
     0
102
RTVSPropertyOp2
 70
     0
102
RTVSPropertyOp3
 70
     0
102
RTVSPropertyOp4
 70
     0
102
RTVSPropertyOp5
 70
     0
102
RTVSPropertyOp6
 70
     0
102
RTVSPropertyOp7
 70
     0
102
RTVSPropertyOp8
 70
     0
102
RTVSPropertyOp9
 70
     0
102
RTVSPropertyOp10
 70
     0
102
RTVSPropertyOp11
 70
     0
102
RTVSPropertyOp12
 70
     0
102
RTVSPropertyOp13
 70
     0
102
RTVSPropertyOp14
 70
     2
102
RTVSPropertyOp15
 70
     0
102
RTVSPropertyOp16
 70
     0
102
RTVSPropertyOp17
 70
     0
102
RTVSPropertyOp18
 70
     0
102
RTVSPropertyOp19
 70
     0
102
RTVSPropertyOp20
 70
     0
102
RTVSPropertyOp21
 70
     0
102
RTVSPropertyOp22
 70
     0
102
RTVSPropertyOp23
 70
     0
102
RTVSPropertyOp24
 70
     0
102
RTVSPropertyOp25
 70
     0
102
RTVSPropertyOp26
 70
     0
102
RTVSPropertyOp27
 70
     0
102
RTVSPropertyOp28
 70
     0
102
RTVSPropertyOp29
 70
     0
102
RTVSPropertyOp30
 70
     0
102
RTVSPropertyOp31
 70
     0
102
RTVSPropertyOp32
 70
     0
  0
XRECORD
  5
DB9
102
{ACAD_REACTORS
330
DB8
102
}
330
DB8
100
AcDbXrecord
280
     1
102
RTVSPropertyOp0
 70
     1
102
RTVSPropertyOp1
 70
     1
102
RTVSPropertyOp2
 70
     1
102
RTVSPropertyOp3
 70
     1
102
RTVSPropertyOp4
 70
     1
102
RTVSPropertyOp5
 70
     1
102
RTVSPropertyOp6
 70
     1
102
RTVSPropertyOp7
 70
     1
102
RTVSPropertyOp8
 70
     1
102
RTVSPropertyOp9
 70
     1
102
RTVSPropertyOp10
 70
     1
102
RTVSPropertyOp11
 70
     1
102
RTVSPropertyOp12
 70
     1
102
RTVSPropertyOp13
 70
     1
102
RTVSPropertyOp14
 70
     1
102
RTVSPropertyOp15
 70
     1
102
RTVSPropertyOp16
 70
     1
102
RTVSPropertyOp17
 70
     1
102
RTVSPropertyOp18
 70
     1
102
RTVSPropertyOp19
 70
     1
102
RTVSPropertyOp20
 70
     1
102
RTVSPropertyOp21
 70
     1
102
RTVSPropertyOp22
 70
     1
102
RTVSPropertyOp23
 70
     1
102
RTVSPropertyOp24
 70
     1
102
RTVSPropertyOp25
 70
     1
102
RTVSPropertyOp26
 70
     1
102
RTVSPropertyOp27
 70
     1
102
RTVSPropertyOp28
 70
     1
102
RTVSPropertyOp29
 70
     1
102
RTVSPropertyOp30
 70
     1
102
RTVSPropertyOp31
 70
     1
102
RTVSPropertyOp32
 70
     1
  0
XRECORD
  5
DD4
102
{ACAD_REACTORS
330
DD3
102
}
330
DD3
100
AcDbXrecord
280
     1
102
RTVSPropertyOp0
 70
     0
102
RTVSPropertyOp1
 70
     0
102
RTVSPropertyOp2
 70
     0
102
RTVSPropertyOp3
 70
     0
102
RTVSPropertyOp4
 70
     0
102
RTVSPropertyOp5
 70
     0
102
RTVSPropertyOp6
 70
     0
102
RTVSPropertyOp7
 70
     0
102
RTVSPropertyOp8
 70
     0
102
RTVSPropertyOp9
 70
     0
102
RTVSPropertyOp10
 70
     0
102
RTVSPropertyOp11
 70
     0
102
RTVSPropertyOp12
 70
     0
102
RTVSPropertyOp13
 70
     0
102
RTVSPropertyOp14
 70
     2
102
RTVSPropertyOp15
 70
     0
102
RTVSPropertyOp16
 70
     0
102
RTVSPropertyOp17
 70
     0
102
RTVSPropertyOp18
 70
     0
102
RTVSPropertyOp19
 70
     0
102
RTVSPropertyOp20
 70
     0
102
RTVSPropertyOp21
 70
     0
102
RTVSPropertyOp22
 70
     0
102
RTVSPropertyOp23
 70
     0
102
RTVSPropertyOp24
 70
     0
102
RTVSPropertyOp25
 70
     0
102
RTVSPropertyOp26
 70
     0
102
RTVSPropertyOp27
 70
     0
102
RTVSPropertyOp28
 70
     0
102
RTVSPropertyOp29
 70
     0
102
RTVSPropertyOp30
 70
     0
102
RTVSPropertyOp31
 70
     0
102
RTVSPropertyOp32
 70
     0
  0
XRECORD
  5
DB1
102
{ACAD_REACTORS
330
DB0
102
}
330
DB0
100
AcDbXrecord
280
     1
102
RTVSPropertyOp0
 70
     1
102
RTVSPropertyOp1
 70
     1
102
RTVSPropertyOp2
 70
     1
102
RTVSPropertyOp3
 70
     1
102
RTVSPropertyOp4
 70
     1
102
RTVSPropertyOp5
 70
     1
102
RTVSPropertyOp6
 70
     1
102
RTVSPropertyOp7
 70
     1
102
RTVSPropertyOp8
 70
     1
102
RTVSPropertyOp9
 70
     1
102
RTVSPropertyOp10
 70
     1
102
RTVSPropertyOp11
 70
     1
102
RTVSPropertyOp12
 70
     1
102
RTVSPropertyOp13
 70
     1
102
RTVSPropertyOp14
 70
     1
102
RTVSPropertyOp15
 70
     1
102
RTVSPropertyOp16
 70
     1
102
RTVSPropertyOp17
 70
     1
102
RTVSPropertyOp18
 70
     1
102
RTVSPropertyOp19
 70
     1
102
RTVSPropertyOp20
 70
     1
102
RTVSPropertyOp21
 70
     1
102
RTVSPropertyOp22
 70
     1
102
RTVSPropertyOp23
 70
     1
102
RTVSPropertyOp24
 70
     1
102
RTVSPropertyOp25
 70
     1
102
RTVSPropertyOp26
 70
     1
102
RTVSPropertyOp27
 70
     1
102
RTVSPropertyOp28
 70
     1
102
RTVSPropertyOp29
 70
     1
102
RTVSPropertyOp30
 70
     1
102
RTVSPropertyOp31
 70
     1
102
RTVSPropertyOp32
 70
     1
  0
XRECORD
  5
DD0
102
{ACAD_REACTORS
330
DCF
102
}
330
DCF
100
AcDbXrecord
280
     1
102
RTVSPropertyOp0
 70
     1
102
RTVSPropertyOp1
 70
     1
102
RTVSPropertyOp2
 70
     1
102
RTVSPropertyOp3
 70
     1
102
RTVSPropertyOp4
 70
     1
102
RTVSPropertyOp5
 70
     1
102
RTVSPropertyOp6
 70
     1
102
RTVSPropertyOp7
 70
     1
102
RTVSPropertyOp8
 70
     1
102
RTVSPropertyOp9
 70
     1
102
RTVSPropertyOp10
 70
     1
102
RTVSPropertyOp11
 70
     1
102
RTVSPropertyOp12
 70
     1
102
RTVSPropertyOp13
 70
     1
102
RTVSPropertyOp14
 70
     1
102
RTVSPropertyOp15
 70
     1
102
RTVSPropertyOp16
 70
     1
102
RTVSPropertyOp17
 70
     1
102
RTVSPropertyOp18
 70
     1
102
RTVSPropertyOp19
 70
     1
102
RTVSPropertyOp20
 70
     1
102
RTVSPropertyOp21
 70
     1
102
RTVSPropertyOp22
 70
     1
102
RTVSPropertyOp23
 70
     1
102
RTVSPropertyOp24
 70
     1
102
RTVSPropertyOp25
 70
     1
102
RTVSPropertyOp26
 70
     1
102
RTVSPropertyOp27
 70
     1
102
RTVSPropertyOp28
 70
     1
102
RTVSPropertyOp29
 70
     1
102
RTVSPropertyOp30
 70
     1
102
RTVSPropertyOp31
 70
     1
102
RTVSPropertyOp32
 70
     1
  0
XRECORD
  5
DCE
102
{ACAD_REACTORS
330
DCD
102
}
330
DCD
100
AcDbXrecord
280
     1
102
RTVSPropertyOp0
 70
     1
102
RTVSPropertyOp1
 70
     1
102
RTVSPropertyOp2
 70
     1
102
RTVSPropertyOp3
 70
     1
102
RTVSPropertyOp4
 70
     1
102
RTVSPropertyOp5
 70
     1
102
RTVSPropertyOp6
 70
     1
102
RTVSPropertyOp7
 70
     1
102
RTVSPropertyOp8
 70
     1
102
RTVSPropertyOp9
 70
     1
102
RTVSPropertyOp10
 70
     1
102
RTVSPropertyOp11
 70
     1
102
RTVSPropertyOp12
 70
     1
102
RTVSPropertyOp13
 70
     1
102
RTVSPropertyOp14
 70
     1
102
RTVSPropertyOp15
 70
     1
102
RTVSPropertyOp16
 70
     1
102
RTVSPropertyOp17
 70
     1
102
RTVSPropertyOp18
 70
     1
102
RTVSPropertyOp19
 70
     1
102
RTVSPropertyOp20
 70
     1
102
RTVSPropertyOp21
 70
     1
102
RTVSPropertyOp22
 70
     1
102
RTVSPropertyOp23
 70
     1
102
RTVSPropertyOp24
 70
     1
102
RTVSPropertyOp25
 70
     1
102
RTVSPropertyOp26
 70
     1
102
RTVSPropertyOp27
 70
     1
102
RTVSPropertyOp28
 70
     1
102
RTVSPropertyOp29
 70
     1
102
RTVSPropertyOp30
 70
     1
102
RTVSPropertyOp31
 70
     1
102
RTVSPropertyOp32
 70
     1
  0
XRECORD
  5
DC8
102
{ACAD_REACTORS
330
DC7
102
}
330
DC7
100
AcDbXrecord
280
     1
102
RTVSPropertyOp0
 70
     1
102
RTVSPropertyOp1
 70
     1
102
RTVSPropertyOp2
 70
     1
102
RTVSPropertyOp3
 70
     1
102
RTVSPropertyOp4
 70
     1
102
RTVSPropertyOp5
 70
     1
102
RTVSPropertyOp6
 70
     1
102
RTVSPropertyOp7
 70
     1
102
RTVSPropertyOp8
 70
     1
102
RTVSPropertyOp9
 70
     1
102
RTVSPropertyOp10
 70
     1
102
RTVSPropertyOp11
 70
     1
102
RTVSPropertyOp12
 70
     1
102
RTVSPropertyOp13
 70
     1
102
RTVSPropertyOp14
 70
     1
102
RTVSPropertyOp15
 70
     1
102
RTVSPropertyOp16
 70
     1
102
RTVSPropertyOp17
 70
     1
102
RTVSPropertyOp18
 70
     1
102
RTVSPropertyOp19
 70
     1
102
RTVSPropertyOp20
 70
     1
102
RTVSPropertyOp21
 70
     1
102
RTVSPropertyOp22
 70
     1
102
RTVSPropertyOp23
 70
     1
102
RTVSPropertyOp24
 70
     1
102
RTVSPropertyOp25
 70
     1
102
RTVSPropertyOp26
 70
     1
102
RTVSPropertyOp27
 70
     1
102
RTVSPropertyOp28
 70
     1
102
RTVSPropertyOp29
 70
     1
102
RTVSPropertyOp30
 70
     1
102
RTVSPropertyOp31
 70
     1
102
RTVSPropertyOp32
 70
     1
  0
XRECORD
  5
DCA
102
{ACAD_REACTORS
330
DC9
102
}
330
DC9
100
AcDbXrecord
280
     1
102
RTVSPropertyOp0
 70
     1
102
RTVSPropertyOp1
 70
     1
102
RTVSPropertyOp2
 70
     1
102
RTVSPropertyOp3
 70
     1
102
RTVSPropertyOp4
 70
     1
102
RTVSPropertyOp5
 70
     1
102
RTVSPropertyOp6
 70
     1
102
RTVSPropertyOp7
 70
     1
102
RTVSPropertyOp8
 70
     1
102
RTVSPropertyOp9
 70
     1
102
RTVSPropertyOp10
 70
     1
102
RTVSPropertyOp11
 70
     1
102
RTVSPropertyOp12
 70
     1
102
RTVSPropertyOp13
 70
     1
102
RTVSPropertyOp14
 70
     1
102
RTVSPropertyOp15
 70
     1
102
RTVSPropertyOp16
 70
     1
102
RTVSPropertyOp17
 70
     1
102
RTVSPropertyOp18
 70
     1
102
RTVSPropertyOp19
 70
     1
102
RTVSPropertyOp20
 70
     1
102
RTVSPropertyOp21
 70
     1
102
RTVSPropertyOp22
 70
     1
102
RTVSPropertyOp23
 70
     1
102
RTVSPropertyOp24
 70
     1
102
RTVSPropertyOp25
 70
     1
102
RTVSPropertyOp26
 70
     1
102
RTVSPropertyOp27
 70
     1
102
RTVSPropertyOp28
 70
     1
102
RTVSPropertyOp29
 70
     1
102
RTVSPropertyOp30
 70
     1
102
RTVSPropertyOp31
 70
     1
102
RTVSPropertyOp32
 70
     1
  0
XRECORD
  5
DB7
102
{ACAD_REACTORS
330
DB6
102
}
330
DB6
100
AcDbXrecord
280
     1
102
RTVSPropertyOp0
 70
     1
102
RTVSPropertyOp1
 70
     1
102
RTVSPropertyOp2
 70
     1
102
RTVSPropertyOp3
 70
     1
102
RTVSPropertyOp4
 70
     1
102
RTVSPropertyOp5
 70
     1
102
RTVSPropertyOp6
 70
     1
102
RTVSPropertyOp7
 70
     1
102
RTVSPropertyOp8
 70
     1
102
RTVSPropertyOp9
 70
     1
102
RTVSPropertyOp10
 70
     1
102
RTVSPropertyOp11
 70
     1
102
RTVSPropertyOp12
 70
     1
102
RTVSPropertyOp13
 70
     1
102
RTVSPropertyOp14
 70
     1
102
RTVSPropertyOp15
 70
     1
102
RTVSPropertyOp16
 70
     1
102
RTVSPropertyOp17
 70
     1
102
RTVSPropertyOp18
 70
     1
102
RTVSPropertyOp19
 70
     1
102
RTVSPropertyOp20
 70
     1
102
RTVSPropertyOp21
 70
     1
102
RTVSPropertyOp22
 70
     1
102
RTVSPropertyOp23
 70
     1
102
RTVSPropertyOp24
 70
     1
102
RTVSPropertyOp25
 70
     1
102
RTVSPropertyOp26
 70
     1
102
RTVSPropertyOp27
 70
     1
102
RTVSPropertyOp28
 70
     1
102
RTVSPropertyOp29
 70
     1
102
RTVSPropertyOp30
 70
     1
102
RTVSPropertyOp31
 70
     1
102
RTVSPropertyOp32
 70
     1
  0
XRECORD
  5
DC4
102
{ACAD_REACTORS
330
DC3
102
}
330
DC3
100
AcDbXrecord
280
     1
102
RTVSPropertyOp0
 70
     1
102
RTVSPropertyOp1
 70
     1
102
RTVSPropertyOp2
 70
     1
102
RTVSPropertyOp3
 70
     1
102
RTVSPropertyOp4
 70
     1
102
RTVSPropertyOp5
 70
     1
102
RTVSPropertyOp6
 70
     1
102
RTVSPropertyOp7
 70
     1
102
RTVSPropertyOp8
 70
     1
102
RTVSPropertyOp9
 70
     1
102
RTVSPropertyOp10
 70
     1
102
RTVSPropertyOp11
 70
     1
102
RTVSPropertyOp12
 70
     1
102
RTVSPropertyOp13
 70
     1
102
RTVSPropertyOp14
 70
     1
102
RTVSPropertyOp15
 70
     1
102
RTVSPropertyOp16
 70
     1
102
RTVSPropertyOp17
 70
     1
102
RTVSPropertyOp18
 70
     1
102
RTVSPropertyOp19
 70
     1
102
RTVSPropertyOp20
 70
     1
102
RTVSPropertyOp21
 70
     1
102
RTVSPropertyOp22
 70
     1
102
RTVSPropertyOp23
 70
     1
102
RTVSPropertyOp24
 70
     1
102
RTVSPropertyOp25
 70
     1
102
RTVSPropertyOp26
 70
     1
102
RTVSPropertyOp27
 70
     1
102
RTVSPropertyOp28
 70
     1
102
RTVSPropertyOp29
 70
     1
102
RTVSPropertyOp30
 70
     1
102
RTVSPropertyOp31
 70
     1
102
RTVSPropertyOp32
 70
     1
  0
XRECORD
  5
DCC
102
{ACAD_REACTORS
330
DCB
102
}
330
DCB
100
AcDbXrecord
280
     1
102
RTVSPropertyOp0
 70
     1
102
RTVSPropertyOp1
 70
     1
102
RTVSPropertyOp2
 70
     1
102
RTVSPropertyOp3
 70
     1
102
RTVSPropertyOp4
 70
     1
102
RTVSPropertyOp5
 70
     1
102
RTVSPropertyOp6
 70
     1
102
RTVSPropertyOp7
 70
     1
102
RTVSPropertyOp8
 70
     1
102
RTVSPropertyOp9
 70
     1
102
RTVSPropertyOp10
 70
     1
102
RTVSPropertyOp11
 70
     1
102
RTVSPropertyOp12
 70
     1
102
RTVSPropertyOp13
 70
     1
102
RTVSPropertyOp14
 70
     1
102
RTVSPropertyOp15
 70
     1
102
RTVSPropertyOp16
 70
     1
102
RTVSPropertyOp17
 70
     1
102
RTVSPropertyOp18
 70
     1
102
RTVSPropertyOp19
 70
     1
102
RTVSPropertyOp20
 70
     1
102
RTVSPropertyOp21
 70
     1
102
RTVSPropertyOp22
 70
     1
102
RTVSPropertyOp23
 70
     1
102
RTVSPropertyOp24
 70
     1
102
RTVSPropertyOp25
 70
     1
102
RTVSPropertyOp26
 70
     1
102
RTVSPropertyOp27
 70
     1
102
RTVSPropertyOp28
 70
     1
102
RTVSPropertyOp29
 70
     1
102
RTVSPropertyOp30
 70
     1
102
RTVSPropertyOp31
 70
     1
102
RTVSPropertyOp32
 70
     1
  0
ENDSEC
  0
EOF
