  0
SECTION
  2
HEADER
  9
$ACADVER
  1
AC1015
  9
$ACADMAINTVER
 70
    20
  9
$DWGCODEPAGE
  3
ANSI_932
  9
$INSBASE
 10
0.0
 20
0.0
 30
0.0
  9
$EXTMIN
 10
456.2596980000001
 20
29.91380199999998
 30
0.0
  9
$EXTMAX
 10
861.2596980000002
 20
303.969163
 30
0.0
  9
$LIMMIN
 10
456.2587049999998
 20
29.912801
  9
$LIMMAX
 10
861.286583
 20
303.970177
  9
$ORTHOMODE
 70
     0
  9
$REGENMODE
 70
     1
  9
$FILLMODE
 70
     1
  9
$QTEXTMODE
 70
     0
  9
$MIRRTEXT
 70
     0
  9
$LTSCALE
 40
6.750430999999997
  9
$ATTMODE
 70
     1
  9
$TEXTSIZE
 40
3.2
  9
$TRACEWID
 40
0.05
  9
$TEXTSTYLE
  7
高3.2
  9
$CLAYER
  8
0
  9
$CELTYPE
  6
CONTINUOUS
  9
$CECOLOR
 62
   256
  9
$CELTSCALE
 40
1.0
  9
$DISPSILH
 70
     0
  9
$DIMSCALE
 40
1.0
  9
$DIMASZ
 40
2.5
  9
$DIMEXO
 40
0.25
  9
$DIMDLI
 40
0.2
  9
$DIMRND
 40
0.0
  9
$DIMDLE
 40
0.0
  9
$DIMEXE
 40
1.25
  9
$DIMTP
 40
0.0
  9
$DIMTM
 40
0.0
  9
$DIMTXT
 40
3.0
  9
$DIMCEN
 40
0.0
  9
$DIMTSZ
 40
0.0
  9
$DIMTOL
 70
     0
  9
$DIMLIM
 70
     0
  9
$DIMTIH
 70
     0
  9
$DIMTOH
 70
     0
  9
$DIMSE1
 70
     0
  9
$DIMSE2
 70
     0
  9
$DIMTAD
 70
     3
  9
$DIMZIN
 70
     8
  9
$DIMBLK
  1
Open30
  9
$DIMASO
 70
     1
  9
$DIMSHO
 70
     1
  9
$DIMPOST
  1

  9
$DIMAPOST
  1

  9
$DIMALT
 70
     0
  9
$DIMALTD
 70
     3
  9
$DIMALTF
 40
0.03937007874016
  9
$DIMLFAC
 40
1.0
  9
$DIMTOFL
 70
     1
  9
$DIMTVP
 40
0.0
  9
$DIMTIX
 70
     0
  9
$DIMSOXD
 70
     0
  9
$DIMSAH
 70
     0
  9
$DIMBLK1
  1

  9
$DIMBLK2
  1

  9
$DIMSTYLE
  2
FREE
  9
$DIMCLRD
 70
     0
  9
$DIMCLRE
 70
     0
  9
$DIMCLRT
 70
     4
  9
$DIMTFAC
 40
1.0
  9
$DIMGAP
 40
0.625
  9
$DIMJUST
 70
     0
  9
$DIMSD1
 70
     0
  9
$DIMSD2
 70
     0
  9
$DIMTOLJ
 70
     0
  9
$DIMTZIN
 70
     8
  9
$DIMALTZ
 70
     0
  9
$DIMALTTZ
 70
     0
  9
$DIMUPT
 70
     1
  9
$DIMDEC
 70
     2
  9
$DIMTDEC
 70
     2
  9
$DIMALTU
 70
     2
  9
$DIMALTTD
 70
     3
  9
$DIMTXSTY
  7
STANDARD
  9
$DIMAUNIT
 70
     0
  9
$DIMADEC
 70
     1
  9
$DIMALTRND
 40
0.0
  9
$DIMAZIN
 70
     2
  9
$DIMDSEP
 70
    46
  9
$DIMATFIT
 70
     0
  9
$DIMFRAC
 70
     0
  9
$DIMLDRBLK
  1
Open30
  9
$DIMLUNIT
 70
     2
  9
$DIMLWD
 70
    -2
  9
$DIMLWE
 70
    -2
  9
$DIMTMOVE
 70
     0
  9
$LUNITS
 70
     2
  9
$LUPREC
 70
     4
  9
$SKETCHINC
 40
0.1
  9
$FILLETRAD
 40
0.0
  9
$AUNITS
 70
     0
  9
$AUPREC
 70
     0
  9
$MENU
  1
.
  9
$ELEVATION
 40
0.0
  9
$PELEVATION
 40
0.0
  9
$THICKNESS
 40
0.0
  9
$LIMCHECK
 70
     0
  9
$CHAMFERA
 40
0.0
  9
$CHAMFERB
 40
0.0
  9
$CHAMFERC
 40
0.0
  9
$CHAMFERD
 40
0.0
  9
$SKPOLY
 70
     0
  9
$TDCREATE
 40
2456350.799588750
  9
$TDUCREATE
 40
2456350.424588750
  9
$TDUPDATE
 40
2457269.370936748
  9
$TDUUPDATE
 40
2457268.995936748
  9
$TDINDWG
 40
0.0105935069
  9
$TDUSRTIMER
 40
0.0105926968
  9
$USRTIMER
 70
     1
  9
$ANGBASE
 50
0.0
  9
$ANGDIR
 70
     0
  9
$PDMODE
 70
     0
  9
$PDSIZE
 40
0.0
  9
$PLINEWID
 40
0.0
  9
$SPLFRAME
 70
     0
  9
$SPLINETYPE
 70
     6
  9
$SPLINESEGS
 70
     8
  9
$HANDSEED
  5
8CB
  9
$SURFTAB1
 70
     6
  9
$SURFTAB2
 70
     6
  9
$SURFTYPE
 70
     6
  9
$SURFU
 70
     6
  9
$SURFV
 70
     6
  9
$UCSBASE
  2

  9
$UCSNAME
  2

  9
$UCSORG
 10
0.0
 20
0.0
 30
0.0
  9
$UCSXDIR
 10
1.0
 20
0.0
 30
0.0
  9
$UCSYDIR
 10
0.0
 20
1.0
 30
0.0
  9
$UCSORTHOREF
  2

  9
$UCSORTHOVIEW
 70
     0
  9
$UCSORGTOP
 10
0.0
 20
0.0
 30
0.0
  9
$UCSORGBOTTOM
 10
0.0
 20
0.0
 30
0.0
  9
$UCSORGLEFT
 10
0.0
 20
0.0
 30
0.0
  9
$UCSORGRIGHT
 10
0.0
 20
0.0
 30
0.0
  9
$UCSORGFRONT
 10
0.0
 20
0.0
 30
0.0
  9
$UCSORGBACK
 10
0.0
 20
0.0
 30
0.0
  9
$PUCSBASE
  2

  9
$PUCSNAME
  2

  9
$PUCSORG
 10
0.0
 20
0.0
 30
0.0
  9
$PUCSXDIR
 10
1.0
 20
0.0
 30
0.0
  9
$PUCSYDIR
 10
0.0
 20
1.0
 30
0.0
  9
$PUCSORTHOREF
  2

  9
$PUCSORTHOVIEW
 70
     0
  9
$PUCSORGTOP
 10
0.0
 20
0.0
 30
0.0
  9
$PUCSORGBOTTOM
 10
0.0
 20
0.0
 30
0.0
  9
$PUCSORGLEFT
 10
0.0
 20
0.0
 30
0.0
  9
$PUCSORGRIGHT
 10
0.0
 20
0.0
 30
0.0
  9
$PUCSORGFRONT
 10
0.0
 20
0.0
 30
0.0
  9
$PUCSORGBACK
 10
0.0
 20
0.0
 30
0.0
  9
$USERI1
 70
     0
  9
$USERI2
 70
     0
  9
$USERI3
 70
     0
  9
$USERI4
 70
     0
  9
$USERI5
 70
     0
  9
$USERR1
 40
0.0
  9
$USERR2
 40
0.0
  9
$USERR3
 40
0.0
  9
$USERR4
 40
0.0
  9
$USERR5
 40
0.0
  9
$WORLDVIEW
 70
     1
  9
$SHADEDGE
 70
     3
  9
$SHADEDIF
 70
    70
  9
$TILEMODE
 70
     1
  9
$MAXACTVP
 70
    64
  9
$PINSBASE
 10
0.0
 20
0.0
 30
0.0
  9
$PLIMCHECK
 70
     0
  9
$PEXTMIN
 10
1.000000000000000E+20
 20
1.000000000000000E+20
 30
1.000000000000000E+20
  9
$PEXTMAX
 10
-1.000000000000000E+20
 20
-1.000000000000000E+20
 30
-1.000000000000000E+20
  9
$PLIMMIN
 10
0.0
 20
0.0
  9
$PLIMMAX
 10
12.0
 20
9.0
  9
$UNITMODE
 70
     0
  9
$VISRETAIN
 70
     1
  9
$PLINEGEN
 70
     0
  9
$PSLTSCALE
 70
     1
  9
$TREEDEPTH
 70
  3020
  9
$CMLSTYLE
  2
Standard
  9
$CMLJUST
 70
     0
  9
$CMLSCALE
 40
1.0
  9
$PROXYGRAPHICS
 70
     1
  9
$MEASUREMENT
 70
     0
  9
$CELWEIGHT
370
    -1
  9
$ENDCAPS
280
     0
  9
$JOINSTYLE
280
     0
  9
$LWDISPLAY
290
     0
  9
$INSUNITS
 70
     0
  9
$HYPERLINKBASE
  1

  9
$STYLESHEET
  1

  9
$XEDIT
290
     1
  9
$CEPSNTYPE
380
     0
  9
$PSTYLEMODE
290
     1
  9
$FINGERPRINTGUID
  2
{E2861E94-B653-4C61-B592-2D20A0DF1574}
  9
$VERSIONGUID
  2
{C4233FA0-4460-4072-B2B9-606E46194CC3}
  9
$EXTNAMES
290
     1
  9
$PSVPSCALE
 40
0.0
  9
$OLESTARTUP
290
     0
  0
ENDSEC
  0
SECTION
  2
CLASSES
  0
CLASS
  1
ACDBDICTIONARYWDFLT
  2
AcDbDictionaryWithDefault
  3
ObjectDBX Classes
 90
        0
280
     0
281
     0
  0
CLASS
  1
MATERIAL
  2
AcDbMaterial
  3
ObjectDBX Classes
 90
     1153
280
     0
281
     0
  0
CLASS
  1
VISUALSTYLE
  2
AcDbVisualStyle
  3
ObjectDBX Classes
 90
     4095
280
     0
281
     0
  0
CLASS
  1
SCALE
  2
AcDbScale
  3
ObjectDBX Classes
 90
     1153
280
     0
281
     0
  0
CLASS
  1
TABLESTYLE
  2
AcDbTableStyle
  3
ObjectDBX Classes
 90
     4095
280
     0
281
     0
  0
CLASS
  1
MLEADERSTYLE
  2
AcDbMLeaderStyle
  3
ACDB_MLEADERSTYLE_CLASS
 90
     4095
280
     0
281
     0
  0
CLASS
  1
SORTENTSTABLE
  2
AcDbSortentsTable
  3
ObjectDBX Classes
 90
        0
280
     0
281
     0
  0
CLASS
  1
DICTIONARYVAR
  2
AcDbDictionaryVar
  3
ObjectDBX Classes
 90
        0
280
     0
281
     0
  0
CLASS
  1
CELLSTYLEMAP
  2
AcDbCellStyleMap
  3
ObjectDBX Classes
 90
     1152
280
     0
281
     0
  0
CLASS
  1
ACDBPLACEHOLDER
  2
AcDbPlaceHolder
  3
ObjectDBX Classes
 90
        0
280
     0
281
     0
  0
CLASS
  1
LAYOUT
  2
AcDbLayout
  3
ObjectDBX Classes
 90
        0
280
     0
281
     0
  0
ENDSEC
  0
SECTION
  2
TABLES
  0
TABLE
  2
VPORT
  5
8
330
0
100
AcDbSymbolTable
 70
     1
  0
VPORT
  5
8B
330
8
100
AcDbSymbolTableRecord
100
AcDbViewportTableRecord
  2
*Active
 70
     0
 10
0.0
 20
0.0
 11
1.0
 21
1.0
 12
673.6706461110754
 22
143.9789510985989
 13
0.0
 23
0.0
 14
1.0
 24
1.0
 15
0.0
 25
0.0
 16
0.0
 26
0.0
 36
1.0
 17
0.0
 27
0.0
 37
0.0
 40
507.4645554215655
 41
1.894899536321483
 42
50.0
 43
0.0
 44
0.0
 50
0.0
 51
0.0
 71
     0
 72
   100
 73
     1
 74
     1
 75
     0
 76
     0
 77
     0
 78
     0
281
     0
 65
     1
110
0.0
120
0.0
130
0.0
111
1.0
121
0.0
131
0.0
112
0.0
122
1.0
132
0.0
 79
     0
146
0.0
  0
ENDTAB
  0
TABLE
  2
LTYPE
  5
5
330
0
100
AcDbSymbolTable
 70
     2
  0
LTYPE
  5
5A
330
5
100
AcDbSymbolTableRecord
100
AcDbLinetypeTableRecord
  2
ByBlock
 70
     0
  3

 72
    65
 73
     0
 40
0.0
  0
LTYPE
  5
5B
330
5
100
AcDbSymbolTableRecord
100
AcDbLinetypeTableRecord
  2
ByLayer
 70
     0
  3

 72
    65
 73
     0
 40
0.0
  0
LTYPE
  5
5C
330
5
100
AcDbSymbolTableRecord
100
AcDbLinetypeTableRecord
  2
CONTINUOUS
 70
     0
  3
Solid-line
 72
    65
 73
     0
 40
0.0
  0
ENDTAB
  0
TABLE
  2
LAYER
  5
2
102
{ACAD_XDICTIONARY
360
545
102
}
330
0
100
AcDbSymbolTable
 70
     2
  0
LAYER
  5
54
102
{ACAD_XDICTIONARY
360
6EA
102
}
330
2
100
AcDbSymbolTableRecord
100
AcDbLayerTableRecord
  2
0
 70
     0
 62
     7
  6
CONTINUOUS
370
    -3
390
F
  0
LAYER
  5
52E
330
2
100
AcDbSymbolTableRecord
100
AcDbLayerTableRecord
  2
Defpoints
 70
     0
 62
     7
  6
CONTINUOUS
290
     0
370
    -3
390
F
  0
ENDTAB
  0
TABLE
  2
STYLE
  5
3
330
0
100
AcDbSymbolTable
 70
     5
  0
STYLE
  5
55
330
3
100
AcDbSymbolTableRecord
100
AcDbTextStyleTableRecord
  2
STANDARD
 70
     0
 40
0.0
 41
1.0
 50
0.0
 71
     0
 42
0.2
  3
TXT
  4
BIGFONT
  0
STYLE
  5
52F
330
3
100
AcDbSymbolTableRecord
100
AcDbTextStyleTableRecord
  2
高3.2
 70
     0
 40
3.2
 41
1.0
 50
0.0
 71
     0
 42
3.2
  3
txt.shx
  4
bigfont.shx
  0
STYLE
  5
530
330
3
100
AcDbSymbolTableRecord
100
AcDbTextStyleTableRecord
  2
高6.3
 70
     0
 40
6.299999999999998
 41
1.0
 50
0.0
 71
     0
 42
6.299999999999998
  3
txt.shx
  4
bigfont.shx
  0
STYLE
  5
532
330
3
100
AcDbSymbolTableRecord
100
AcDbTextStyleTableRecord
  2
高4.5
 70
     0
 40
4.5
 41
1.0
 50
0.0
 71
     0
 42
6.299999999999998
  3
txt.shx
  4
bigfont.shx
  0
STYLE
  5
533
330
3
100
AcDbSymbolTableRecord
100
AcDbTextStyleTableRecord
  2
高2
 70
     0
 40
2.0
 41
1.0
 50
0.0
 71
     0
 42
2.0
  3
txt.shx
  4
bigfont.shx
  0
ENDTAB
  0
TABLE
  2
VIEW
  5
6
330
0
100
AcDbSymbolTable
 70
     0
  0
ENDTAB
  0
TABLE
  2
UCS
  5
7
330
0
100
AcDbSymbolTable
 70
     0
  0
ENDTAB
  0
TABLE
  2
APPID
  5
9
330
0
100
AcDbSymbolTable
 70
    10
  0
APPID
  5
56
330
9
100
AcDbSymbolTableRecord
100
AcDbRegAppTableRecord
  2
ACAD
 70
     0
  0
APPID
  5
5D
330
9
100
AcDbSymbolTableRecord
100
AcDbRegAppTableRecord
  2
AcadAnnotative
 70
     0
  0
APPID
  5
53E
330
9
100
AcDbSymbolTableRecord
100
AcDbRegAppTableRecord
  2
ACAD_DSTYLE_DIMJOGGED_JOGANGLE_SYMBOL
 70
     0
  0
APPID
  5
53F
330
9
100
AcDbSymbolTableRecord
100
AcDbRegAppTableRecord
  2
ACAD_DSTYLE_DIMJAG
 70
     0
  0
APPID
  5
540
330
9
100
AcDbSymbolTableRecord
100
AcDbRegAppTableRecord
  2
ACAD_DSTYLE_DIMBREAK
 70
     0
  0
APPID
  5
541
330
9
100
AcDbSymbolTableRecord
100
AcDbRegAppTableRecord
  2
ACAD_DSTYLE_DIMTALN
 70
     0
  0
APPID
  5
685
330
9
100
AcDbSymbolTableRecord
100
AcDbRegAppTableRecord
  2
ACAD_EXEMPT_FROM_CAD_STANDARDS
 70
     0
  0
APPID
  5
730
330
9
100
AcDbSymbolTableRecord
100
AcDbRegAppTableRecord
  2
ACAD_MLEADERVER
 70
     0
  0
APPID
  5
735
330
9
100
AcDbSymbolTableRecord
100
AcDbRegAppTableRecord
  2
ACAD_DSTYLE_DIMARC_LENGTH_SYMBOL
 70
     0
  0
APPID
  5
736
330
9
100
AcDbSymbolTableRecord
100
AcDbRegAppTableRecord
  2
ACAD_DSTYLE_DIMEXT_LENGTH
 70
     0
  0
ENDTAB
  0
TABLE
  2
DIMSTYLE
  5
A
330
0
100
AcDbSymbolTable
 70
     2
100
AcDbDimStyleTable
 71
     2
340
53D
340
57
  0
DIMSTYLE
105
57
330
A
100
AcDbSymbolTableRecord
100
AcDbDimStyleTableRecord
  2
Standard
 70
     0
340
55
  0
DIMSTYLE
105
53D
330
A
100
AcDbSymbolTableRecord
100
AcDbDimStyleTableRecord
  2
FREE
 70
     0
 41
2.5
 42
0.25
 43
0.2
 44
1.25
 73
     0
 74
     0
 77
     3
 78
     8
 79
     2
140
3.0
141
0.0
143
0.03937007874016
147
0.625
171
     3
172
     1
178
     4
179
     1
271
     2
272
     2
274
     3
283
     0
284
     8
288
     1
289
     0
340
55
341
49E
342
49E
1001
ACAD_DSTYLE_DIMBREAK
1070
   391
1040
3.75
1001
ACAD_DSTYLE_DIMJAG
1070
   388
1040
1.5
1001
ACAD_DSTYLE_DIMTALN
1070
   392
1070
     0
1001
ACAD_DSTYLE_DIMARC_LENGTH_SYMBOL
1070
   379
1070
     2
1001
ACAD_DSTYLE_DIMEXT_LENGTH
1070
   378
1040
1.25
1001
ACAD_DSTYLE_DIMJOGGED_JOGANGLE_SYMBOL
1070
   384
1040
1.570796326794896
  0
ENDTAB
  0
TABLE
  2
BLOCK_RECORD
  5
1
330
0
100
AcDbSymbolTable
 70
     4
  0
BLOCK_RECORD
  5
6B
102
{ACAD_XDICTIONARY
360
83C
102
}
330
1
100
AcDbSymbolTableRecord
100
AcDbBlockTableRecord
  2
*Model_Space
340
6E
  0
BLOCK_RECORD
  5
67
330
1
100
AcDbSymbolTableRecord
100
AcDbBlockTableRecord
  2
*Paper_Space
340
6A
  0
BLOCK_RECORD
  5
49E
330
1
100
AcDbSymbolTableRecord
100
AcDbBlockTableRecord
  2
_Open30
340
0
102
{BLKREFS
331
79F
331
7A0
331
7A8
331
7A9
331
7B1
331
7B2
102
}
  0
BLOCK_RECORD
  5
687
330
1
100
AcDbSymbolTableRecord
100
AcDbBlockTableRecord
  2
*D1
340
0
  0
BLOCK_RECORD
  5
694
330
1
100
AcDbSymbolTableRecord
100
AcDbBlockTableRecord
  2
*D2
340
0
  0
BLOCK_RECORD
  5
6A1
330
1
100
AcDbSymbolTableRecord
100
AcDbBlockTableRecord
  2
*D3
340
0
  0
ENDTAB
  0
ENDSEC
  0
SECTION
  2
BLOCKS
  0
BLOCK
  5
6C
330
6B
100
AcDbEntity
  8
0
100
AcDbBlockBegin
  2
*Model_Space
 70
     0
 10
0.0
 20
0.0
 30
0.0
  3
*Model_Space
  1

  0
ENDBLK
  5
6D
330
6B
100
AcDbEntity
  8
0
100
AcDbBlockEnd
  0
BLOCK
  5
68
330
67
100
AcDbEntity
 67
     1
  8
0
100
AcDbBlockBegin
  2
*Paper_Space
 70
     0
 10
0.0
 20
0.0
 30
0.0
  3
*Paper_Space
  1

  0
ENDBLK
  5
69
330
67
100
AcDbEntity
 67
     1
  8
0
100
AcDbBlockEnd
  0
BLOCK
  5
49F
330
49E
100
AcDbEntity
  8
0
100
AcDbBlockBegin
  2
_Open30
 70
     0
 10
0.0
 20
0.0
 30
0.0
  3
_Open30
  1

  0
LINE
  5
4A0
330
49E
100
AcDbEntity
  8
0
  6
ByBlock
 62
     0
370
    -2
100
AcDbLine
 10
-1.0
 20
0.267949
 30
0.0
 11
0.0
 21
0.0
 31
0.0
  0
LINE
  5
4A1
330
49E
100
AcDbEntity
  8
0
  6
ByBlock
 62
     0
370
    -2
100
AcDbLine
 10
0.0
 20
0.0
 30
0.0
 11
-1.0
 21
-0.267949
 31
0.0
  0
LINE
  5
4A2
330
49E
100
AcDbEntity
  8
0
  6
ByBlock
 62
     0
370
    -2
100
AcDbLine
 10
0.0
 20
0.0
 30
0.0
 11
-1.0
 21
0.0
 31
0.0
  0
ENDBLK
  5
4A3
330
49E
100
AcDbEntity
  8
0
100
AcDbBlockEnd
  0
BLOCK
  5
688
330
687
100
AcDbEntity
  8
0
100
AcDbBlockBegin
  2
*D1
 70
     1
 10
0.0
 20
0.0
 30
0.0
  3
*D1
  1

  0
LINE
  5
7AE
330
687
100
AcDbEntity
  8
0
 62
     0
370
    -2
100
AcDbLine
 10
610.485006
 20
165.492695
 30
0.0
 11
610.485006
 21
154.502896
 31
0.0
  0
LINE
  5
7AF
330
687
100
AcDbEntity
  8
0
 62
     0
370
    -2
100
AcDbLine
 10
729.4850059999999
 20
166.1926949999999
 30
0.0
 11
729.4850059999999
 21
154.502896
 31
0.0
  0
LINE
  5
7B0
330
687
100
AcDbEntity
  8
0
 62
     0
370
    -2
100
AcDbLine
 10
612.9850059999999
 20
155.752896
 30
0.0
 11
726.9850059999998
 21
155.752896
 31
0.0
  0
INSERT
  5
7B1
330
687
100
AcDbEntity
  8
0
 62
     0
370
    -2
100
AcDbBlockReference
  2
_Open30
 10
610.485006
 20
155.752896
 30
0.0
 41
2.5
 42
2.5
 43
2.5
 50
180.0
  0
INSERT
  5
7B2
330
687
100
AcDbEntity
  8
0
 62
     0
370
    -2
100
AcDbBlockReference
  2
_Open30
 10
729.4850059999999
 20
155.752896
 30
0.0
 41
2.5
 42
2.5
 43
2.5
  0
MTEXT
  5
7B3
330
687
100
AcDbEntity
  8
0
 62
     4
100
AcDbMText
 10
669.9850059999999
 20
157.877896
 30
0.0
 40
3.0
 41
0.0
 71
     5
 72
     1
  1
170
 73
     1
 44
1.0
1001
ACAD
1000
MTEXTBEGIN
1070
    73
1070
     1
1070
    44
1040
1.0
1070
    74
1070
     0
1000
MTEXTEND
  0
POINT
  5
7B4
330
687
100
AcDbEntity
  8
Defpoints
 62
     0
100
AcDbPoint
 10
610.485006
 20
165.742695
 30
0.0
  0
POINT
  5
7B5
330
687
100
AcDbEntity
  8
Defpoints
 62
     0
100
AcDbPoint
 10
729.4850059999999
 20
166.442695
 30
0.0
  0
POINT
  5
7B6
330
687
100
AcDbEntity
  8
Defpoints
 62
     0
100
AcDbPoint
 10
729.4850059999999
 20
155.752896
 30
0.0
  0
ENDBLK
  5
689
330
687
100
AcDbEntity
  8
0
100
AcDbBlockEnd
  0
BLOCK
  5
695
330
694
100
AcDbEntity
  8
0
100
AcDbBlockBegin
  2
*D2
 70
     1
 10
0.0
 20
0.0
 30
0.0
  3
*D2
  1

  0
LINE
  5
7A5
330
694
100
AcDbEntity
  8
0
 62
     0
370
    -2
100
AcDbLine
 10
564.2462559999997
 20
164.543945
 30
0.0
 11
586.2438449999997
 21
164.543945
 31
0.0
  0
LINE
  5
7A6
330
694
100
AcDbEntity
  8
0
 62
     0
370
    -2
100
AcDbLine
 10
555.3674559999998
 20
248.543945
 30
0.0
 11
586.2438449999997
 21
248.543945
 31
0.0
  0
LINE
  5
7A7
330
694
100
AcDbEntity
  8
0
 62
     0
370
    -2
100
AcDbLine
 10
584.9938449999997
 20
167.043945
 30
0.0
 11
584.9938449999997
 21
246.043945
 31
0.0
  0
INSERT
  5
7A8
330
694
100
AcDbEntity
  8
0
 62
     0
370
    -2
100
AcDbBlockReference
  2
_Open30
 10
584.9938449999997
 20
164.543945
 30
0.0
 41
2.5
 42
2.5
 43
2.5
 50
270.0
  0
INSERT
  5
7A9
330
694
100
AcDbEntity
  8
0
 62
     0
370
    -2
100
AcDbBlockReference
  2
_Open30
 10
584.9938449999997
 20
248.543945
 30
0.0
 41
2.5
 42
2.5
 43
2.5
 50
90.0
  0
MTEXT
  5
7AA
330
694
100
AcDbEntity
  8
0
 62
     4
100
AcDbMText
 10
582.8688449999997
 20
206.5439450000001
 30
0.0
 40
3.0
 41
0.0
 71
     5
 72
     1
  1
120
 11
0.0000000000000001
 21
1.0
 31
0.0
 73
     1
 44
1.0
1001
ACAD
1000
MTEXTBEGIN
1070
    73
1070
     1
1070
    44
1040
1.0
1070
    74
1070
     0
1000
MTEXTEND
  0
POINT
  5
7AB
330
694
100
AcDbEntity
  8
Defpoints
 62
     0
100
AcDbPoint
 10
563.9962559999998
 20
164.543945
 30
0.0
  0
POINT
  5
7AC
330
694
100
AcDbEntity
  8
Defpoints
 62
     0
100
AcDbPoint
 10
555.1174559999998
 20
248.543945
 30
0.0
  0
POINT
  5
7AD
330
694
100
AcDbEntity
  8
Defpoints
 62
     0
100
AcDbPoint
 10
584.9938449999997
 20
248.543945
 30
0.0
  0
ENDBLK
  5
696
330
694
100
AcDbEntity
  8
0
100
AcDbBlockEnd
  0
BLOCK
  5
6A2
330
6A1
100
AcDbEntity
  8
0
100
AcDbBlockBegin
  2
*D3
 70
     1
 10
0.0
 20
0.0
 30
0.0
  3
*D3
  1

  0
LINE
  5
79C
330
6A1
100
AcDbEntity
  8
0
 62
     0
370
    -2
100
AcDbLine
 10
525.104956
 20
170.421395
 30
0.0
 11
525.104956
 21
150.474037
 31
0.0
  0
LINE
  5
79D
330
6A1
100
AcDbEntity
  8
0
 62
     0
370
    -2
100
AcDbLine
 10
574.104956
 20
170.421395
 30
0.0
 11
574.104956
 21
150.474037
 31
0.0
  0
LINE
  5
79E
330
6A1
100
AcDbEntity
  8
0
 62
     0
370
    -2
100
AcDbLine
 10
527.604956
 20
151.724037
 30
0.0
 11
571.604956
 21
151.724037
 31
0.0
  0
INSERT
  5
79F
330
6A1
100
AcDbEntity
  8
0
 62
     0
370
    -2
100
AcDbBlockReference
  2
_Open30
 10
525.104956
 20
151.724037
 30
0.0
 41
2.5
 42
2.5
 43
2.5
 50
180.0
  0
INSERT
  5
7A0
330
6A1
100
AcDbEntity
  8
0
 62
     0
370
    -2
100
AcDbBlockReference
  2
_Open30
 10
574.104956
 20
151.724037
 30
0.0
 41
2.5
 42
2.5
 43
2.5
  0
MTEXT
  5
7A1
330
6A1
100
AcDbEntity
  8
0
 62
     4
100
AcDbMText
 10
549.604956
 20
153.849037
 30
0.0
 40
3.0
 41
0.0
 71
     5
 72
     1
  1
70
 73
     1
 44
1.0
1001
ACAD
1000
MTEXTBEGIN
1070
    73
1070
     1
1070
    44
1040
1.0
1070
    74
1070
     0
1000
MTEXTEND
  0
POINT
  5
7A2
330
6A1
100
AcDbEntity
  8
Defpoints
 62
     0
100
AcDbPoint
 10
525.104956
 20
170.671395
 30
0.0
  0
POINT
  5
7A3
330
6A1
100
AcDbEntity
  8
Defpoints
 62
     0
100
AcDbPoint
 10
574.104956
 20
170.671395
 30
0.0
  0
POINT
  5
7A4
330
6A1
100
AcDbEntity
  8
Defpoints
 62
     0
100
AcDbPoint
 10
574.104956
 20
151.724037
 30
0.0
  0
ENDBLK
  5
6A3
330
6A1
100
AcDbEntity
  8
0
100
AcDbBlockEnd
  0
ENDSEC
  0
SECTION
  2
ENTITIES
  0
LINE
  5
BB
330
6B
100
AcDbEntity
  8
0
 62
     3
100
AcDbLine
 10
615.365406
 20
244.46102
 30
0.0
 11
615.365406
 21
246.29852
 31
0.0
  0
ARC
  5
BC
330
6B
100
AcDbEntity
  8
0
 62
     3
100
AcDbCircle
 10
616.5904059999998
 20
246.29852
 30
0.0
 40
1.225
100
AcDbArc
 50
90.0
 51
180.0
  0
ARC
  5
BD
330
6B
100
AcDbEntity
  8
0
 62
     3
100
AcDbCircle
 10
569.8174559999999
 20
240.243345
 30
0.0
 40
4.287499999999997
100
AcDbArc
 50
0.0
 51
90.0
  0
LINE
  5
BE
330
6B
100
AcDbEntity
  8
0
 62
     3
100
AcDbLine
 10
569.8174559999999
 20
244.530845
 30
0.0
 11
529.3924559999998
 21
244.530845
 31
0.0
  0
ARC
  5
BF
330
6B
100
AcDbEntity
  8
0
 62
     3
100
AcDbCircle
 10
529.3924559999998
 20
240.243345
 30
0.0
 40
4.287499999999997
100
AcDbArc
 50
90.0
 51
180.0
  0
LINE
  5
C0
330
6B
100
AcDbEntity
  8
0
 62
     3
100
AcDbLine
 10
574.104956
 20
170.671395
 30
0.0
 11
574.104956
 21
240.243345
 31
0.0
  0
ARC
  5
C1
330
6B
100
AcDbEntity
  8
0
 62
     3
100
AcDbCircle
 10
569.8174559999999
 20
170.671395
 30
0.0
 40
4.287499999999997
100
AcDbArc
 50
270.0
 51
0.0
  0
LINE
  5
C2
330
6B
100
AcDbEntity
  8
0
 62
     3
100
AcDbLine
 10
525.104956
 20
240.243345
 30
0.0
 11
525.104956
 21
170.671395
 31
0.0
  0
LINE
  5
C3
330
6B
100
AcDbEntity
  8
0
 62
     3
100
AcDbLine
 10
529.3924559999998
 20
166.383895
 30
0.0
 11
569.8174559999999
 21
166.383895
 31
0.0
  0
ARC
  5
C4
330
6B
100
AcDbEntity
  8
0
 62
     3
100
AcDbCircle
 10
529.3924559999998
 20
170.671395
 30
0.0
 40
4.287499999999997
100
AcDbArc
 50
180.0
 51
270.0
  0
ARC
  5
C5
330
6B
100
AcDbEntity
  8
0
 62
     3
100
AcDbCircle
 10
559.404956
 20
230.083895
 30
0.0
 40
0.6125
100
AcDbArc
 50
90.0
 51
180.0
  0
LINE
  5
C6
330
6B
100
AcDbEntity
  8
0
 62
     3
100
AcDbLine
 10
558.792456
 20
230.083895
 30
0.0
 11
558.792456
 21
219.058895
 31
0.0
  0
ARC
  5
C7
330
6B
100
AcDbEntity
  8
0
 62
     3
100
AcDbCircle
 10
559.404956
 20
219.058895
 30
0.0
 40
0.6125
100
AcDbArc
 50
180.0
 51
270.0
  0
LINE
  5
C8
330
6B
100
AcDbEntity
  8
0
 62
     3
100
AcDbLine
 10
559.404956
 20
218.446395
 30
0.0
 11
564.3049559999997
 21
218.446395
 31
0.0
  0
ARC
  5
C9
330
6B
100
AcDbEntity
  8
0
 62
     3
100
AcDbCircle
 10
564.3049559999997
 20
219.058895
 30
0.0
 40
0.6125
100
AcDbArc
 50
270.0
 51
0.0
  0
LINE
  5
CA
330
6B
100
AcDbEntity
  8
0
 62
     3
100
AcDbLine
 10
564.3049559999997
 20
230.696395
 30
0.0
 11
559.404956
 21
230.696395
 31
0.0
  0
LINE
  5
CB
330
6B
100
AcDbEntity
  8
0
 62
     3
100
AcDbLine
 10
564.917456
 20
219.058895
 30
0.0
 11
564.917456
 21
230.083895
 31
0.0
  0
ARC
  5
CC
330
6B
100
AcDbEntity
  8
0
 62
     3
100
AcDbCircle
 10
564.3049559999997
 20
230.083895
 30
0.0
 40
0.6125
100
AcDbArc
 50
0.0
 51
90.0
  0
LINE
  5
CD
330
6B
100
AcDbEntity
  8
0
 62
     3
100
AcDbLine
 10
615.365406
 20
244.46102
 30
0.0
 11
615.365406
 21
246.29852
 31
0.0
  0
ARC
  5
CE
330
6B
100
AcDbEntity
  8
0
 62
     3
100
AcDbCircle
 10
616.5904059999998
 20
246.29852
 30
0.0
 40
1.225
100
AcDbArc
 50
90.0
 51
180.0
  0
ARC
  5
CF
330
6B
100
AcDbEntity
  8
0
 62
     3
100
AcDbCircle
 10
544.092456
 20
181.083895
 30
0.0
 40
0.6125
100
AcDbArc
 50
270.0
 51
0.0
  0
LINE
  5
D0
330
6B
100
AcDbEntity
  8
0
 62
     3
100
AcDbLine
 10
544.7049559999998
 20
181.083895
 30
0.0
 11
544.7049559999998
 21
194.558895
 31
0.0
  0
ARC
  5
D1
330
6B
100
AcDbEntity
  8
0
 62
     3
100
AcDbCircle
 10
544.092456
 20
194.558895
 30
0.0
 40
0.6125
100
AcDbArc
 50
0.0
 51
90.0
  0
LINE
  5
D2
330
6B
100
AcDbEntity
  8
0
 62
     3
100
AcDbLine
 10
544.092456
 20
195.171395
 30
0.0
 11
530.6174559999998
 21
195.171395
 31
0.0
  0
ARC
  5
D3
330
6B
100
AcDbEntity
  8
0
 62
     3
100
AcDbCircle
 10
530.6174559999998
 20
194.558895
 30
0.0
 40
0.6125
100
AcDbArc
 50
90.0
 51
180.0
  0
LINE
  5
D4
330
6B
100
AcDbEntity
  8
0
 62
     3
100
AcDbLine
 10
530.6174559999998
 20
180.471395
 30
0.0
 11
544.092456
 21
180.471395
 31
0.0
  0
LINE
  5
D5
330
6B
100
AcDbEntity
  8
0
 62
     3
100
AcDbLine
 10
530.0049559999998
 20
194.558895
 30
0.0
 11
530.0049559999998
 21
181.083895
 31
0.0
  0
ARC
  5
D6
330
6B
100
AcDbEntity
  8
0
 62
     3
100
AcDbCircle
 10
530.6174559999998
 20
181.083895
 30
0.0
 40
0.6125
100
AcDbArc
 50
180.0
 51
270.0
  0
LINE
  5
D7
330
6B
100
AcDbEntity
  8
0
 62
     3
100
AcDbLine
 10
544.092456
 20
244.530845
 30
0.0
 11
544.092456
 21
246.980845
 31
0.0
  0
LINE
  5
D8
330
6B
100
AcDbEntity
  8
0
 62
     3
100
AcDbLine
 10
555.1174559999998
 20
246.980845
 30
0.0
 11
555.1174559999998
 21
244.530845
 31
0.0
  0
LINE
  5
D9
330
6B
100
AcDbEntity
  8
0
 62
     3
100
AcDbLine
 10
544.092456
 20
244.530845
 30
0.0
 11
544.092456
 21
248.543945
 31
0.0
  0
LINE
  5
DA
330
6B
100
AcDbEntity
  8
0
 62
     3
100
AcDbLine
 10
555.1174559999998
 20
248.543945
 30
0.0
 11
555.1174559999998
 21
244.530845
 31
0.0
  0
LINE
  5
DB
330
6B
100
AcDbEntity
  8
0
 62
     3
100
AcDbLine
 10
544.092456
 20
248.543945
 30
0.0
 11
555.1174559999998
 21
248.543945
 31
0.0
  0
CIRCLE
  5
DC
330
6B
100
AcDbEntity
  8
0
 62
     3
100
AcDbCircle
 10
561.8549559999999
 20
187.821395
 30
0.0
 40
3.674999999999998
  0
LINE
  5
DD
330
6B
100
AcDbEntity
  8
0
 62
     3
100
AcDbLine
 10
729.4850059999999
 20
166.442695
 30
0.0
 11
729.4850059999999
 21
184.817695
 31
0.0
  0
LINE
  5
DE
330
6B
100
AcDbEntity
  8
0
 62
     3
100
AcDbLine
 10
613.110006
 20
184.817695
 30
0.0
 11
729.4850059999999
 21
184.817695
 31
0.0
  0
LINE
  5
DF
330
6B
100
AcDbEntity
  8
0
 62
     3
100
AcDbLine
 10
610.485006
 20
244.467145
 30
0.0
 11
610.485006
 21
184.817695
 31
0.0
  0
LINE
  5
E0
330
6B
100
AcDbEntity
  8
0
 62
     3
100
AcDbLine
 10
610.485006
 20
166.442695
 30
0.0
 11
729.4850059999999
 21
166.442695
 31
0.0
  0
LINE
  5
E1
330
6B
100
AcDbEntity
  8
0
 62
     3
100
AcDbLine
 10
729.4850059999999
 20
184.817695
 30
0.0
 11
610.485006
 21
184.817695
 31
0.0
  0
LINE
  5
E2
330
6B
100
AcDbEntity
  8
0
 62
     3
100
AcDbLine
 10
610.485006
 20
184.817695
 30
0.0
 11
610.485006
 21
166.442695
 31
0.0
  0
ARC
  5
E3
330
6B
100
AcDbEntity
  8
0
 62
     3
100
AcDbCircle
 10
761.4013309999997
 20
240.243345
 30
0.0
 40
4.287499999999997
100
AcDbArc
 50
90.0
 51
180.0
  0
LINE
  5
E4
330
6B
100
AcDbEntity
  8
0
 62
     3
100
AcDbLine
 10
761.4013309999997
 20
244.530845
 30
0.0
 11
801.826331
 21
244.530845
 31
0.0
  0
ARC
  5
E5
330
6B
100
AcDbEntity
  8
0
 62
     3
100
AcDbCircle
 10
801.826331
 20
240.243345
 30
0.0
 40
4.287499999999997
100
AcDbArc
 50
0.0
 51
90.0
  0
LINE
  5
E6
330
6B
100
AcDbEntity
  8
0
 62
     3
100
AcDbLine
 10
787.1263309999997
 20
244.530845
 30
0.0
 11
787.1263309999997
 21
246.980845
 31
0.0
  0
LINE
  5
E7
330
6B
100
AcDbEntity
  8
0
 62
     3
100
AcDbLine
 10
776.101331
 20
246.980845
 30
0.0
 11
776.101331
 21
244.530845
 31
0.0
  0
LINE
  5
E8
330
6B
100
AcDbEntity
  8
0
 62
     3
100
AcDbLine
 10
787.1263309999997
 20
246.277695
 30
0.0
 11
787.1263309999997
 21
248.543945
 31
0.0
  0
LINE
  5
E9
330
6B
100
AcDbEntity
  8
0
 62
     3
100
AcDbLine
 10
787.1263309999997
 20
248.543945
 30
0.0
 11
776.101331
 21
248.543945
 31
0.0
  0
LINE
  5
EA
330
6B
100
AcDbEntity
  8
0
 62
     3
100
AcDbLine
 10
776.101331
 20
248.543945
 30
0.0
 11
776.101331
 21
246.032695
 31
0.0
  0
LINE
  5
EB
330
6B
100
AcDbEntity
  8
0
 62
     3
100
AcDbLine
 10
787.1263309999997
 20
244.530845
 30
0.0
 11
787.1263309999997
 21
246.980845
 31
0.0
  0
LINE
  5
EC
330
6B
100
AcDbEntity
  8
0
 62
     3
100
AcDbLine
 10
776.101331
 20
246.980845
 30
0.0
 11
776.101331
 21
244.530845
 31
0.0
  0
LINE
  5
ED
330
6B
100
AcDbEntity
  8
0
 62
     3
100
AcDbLine
 10
787.1263309999997
 20
246.277695
 30
0.0
 11
787.1263309999997
 21
248.543945
 31
0.0
  0
LINE
  5
EE
330
6B
100
AcDbEntity
  8
0
 62
     3
100
AcDbLine
 10
787.1263309999997
 20
248.543945
 30
0.0
 11
776.101331
 21
248.543945
 31
0.0
  0
LINE
  5
EF
330
6B
100
AcDbEntity
  8
0
 62
     3
100
AcDbLine
 10
776.101331
 20
248.543945
 30
0.0
 11
776.101331
 21
246.032695
 31
0.0
  0
LINE
  5
F0
330
6B
100
AcDbEntity
  8
0
 62
     3
100
AcDbLine
 10
757.113831
 20
170.671395
 30
0.0
 11
757.113831
 21
240.243345
 31
0.0
  0
ARC
  5
F1
330
6B
100
AcDbEntity
  8
0
 62
     3
100
AcDbCircle
 10
761.4013309999997
 20
170.671395
 30
0.0
 40
4.287499999999997
100
AcDbArc
 50
180.0
 51
270.0
  0
LINE
  5
F2
330
6B
100
AcDbEntity
  8
0
 62
     3
100
AcDbLine
 10
806.113831
 20
240.243345
 30
0.0
 11
806.113831
 21
170.671395
 31
0.0
  0
LINE
  5
F3
330
6B
100
AcDbEntity
  8
0
 62
     3
100
AcDbLine
 10
801.826331
 20
166.383895
 30
0.0
 11
761.4013309999997
 21
166.383895
 31
0.0
  0
ARC
  5
F4
330
6B
100
AcDbEntity
  8
0
 62
     3
100
AcDbCircle
 10
801.826331
 20
170.671395
 30
0.0
 40
4.287499999999997
100
AcDbArc
 50
270.0
 51
0.0
  0
LINE
  5
F5
330
6B
100
AcDbEntity
  8
0
 62
     3
100
AcDbLine
 10
724.5654059999997
 20
244.46102
 30
0.0
 11
724.5654059999997
 21
246.29852
 31
0.0
  0
LINE
  5
F6
330
6B
100
AcDbEntity
  8
0
 62
     3
100
AcDbLine
 10
723.3404059999997
 20
247.52352
 30
0.0
 11
708.6404059999996
 21
247.52352
 31
0.0
  0
ARC
  5
F7
330
6B
100
AcDbEntity
  8
0
 62
     3
100
AcDbCircle
 10
723.3404059999997
 20
246.29852
 30
0.0
 40
1.225
100
AcDbArc
 50
0.0
 51
90.0
  0
LINE
  5
F8
330
6B
100
AcDbEntity
  8
0
 62
     3
100
AcDbLine
 10
729.4850059999999
 20
238.717695
 30
0.0
 11
729.4850059999999
 21
239.942695
 31
0.0
  0
LINE
  5
F9
330
6B
100
AcDbEntity
  8
0
 62
     3
100
AcDbLine
 10
724.5654059999997
 20
244.46102
 30
0.0
 11
724.5654059999997
 21
246.29852
 31
0.0
  0
LINE
  5
FA
330
6B
100
AcDbEntity
  8
0
 62
     3
100
AcDbLine
 10
723.3404059999997
 20
247.52352
 30
0.0
 11
708.6404059999996
 21
247.52352
 31
0.0
  0
ARC
  5
FB
330
6B
100
AcDbEntity
  8
0
 62
     3
100
AcDbCircle
 10
723.3404059999997
 20
246.29852
 30
0.0
 40
1.225
100
AcDbArc
 50
0.0
 51
90.0
  0
LINE
  5
FC
330
6B
100
AcDbEntity
  8
0
 62
     3
100
AcDbLine
 10
729.4850059999999
 20
184.817695
 30
0.0
 11
729.4850059999999
 21
244.467145
 31
0.0
  0
LINE
  5
FD
330
6B
100
AcDbEntity
  8
0
 62
     3
100
AcDbLine
 10
715.6841559999996
 20
247.52352
 30
0.0
 11
715.6841559999996
 21
248.1360200000001
 31
0.0
  0
LINE
  5
FE
330
6B
100
AcDbEntity
  8
0
 62
     3
100
AcDbLine
 10
711.396656
 20
247.52352
 30
0.0
 11
711.396656
 21
248.1360200000001
 31
0.0
  0
ARC
  5
FF
330
6B
100
AcDbEntity
  8
0
 62
     3
100
AcDbCircle
 10
713.5404059999999
 20
246.093945
 30
0.0
 40
2.960824999999998
100
AcDbArc
 50
43.603
 51
136.397
  0
LINE
  5
100
330
6B
100
AcDbEntity
  8
0
 62
     3
100
AcDbLine
 10
715.6841559999996
 20
247.52352
 30
0.0
 11
715.6841559999996
 21
248.1360200000001
 31
0.0
  0
LINE
  5
101
330
6B
100
AcDbEntity
  8
0
 62
     3
100
AcDbLine
 10
711.396656
 20
247.52352
 30
0.0
 11
711.396656
 21
248.1360200000001
 31
0.0
  0
ARC
  5
102
330
6B
100
AcDbEntity
  8
0
 62
     3
100
AcDbCircle
 10
713.5404059999999
 20
246.093945
 30
0.0
 40
2.960824999999998
100
AcDbArc
 50
43.603
 51
136.397
  0
LINE
  5
103
330
6B
100
AcDbEntity
  8
0
 62
     3
100
AcDbLine
 10
708.6404059999996
 20
246.91102
 30
0.0
 11
708.6404059999996
 21
244.46102
 31
0.0
  0
LINE
  5
104
330
6B
100
AcDbEntity
  8
0
 62
     3
100
AcDbLine
 10
708.6404059999996
 20
246.91102
 30
0.0
 11
708.6404059999996
 21
244.46102
 31
0.0
  0
LINE
  5
105
330
6B
100
AcDbEntity
  8
0
 62
     3
100
AcDbLine
 10
631.290406
 20
246.91102
 30
0.0
 11
631.290406
 21
244.46102
 31
0.0
  0
LINE
  5
106
330
6B
100
AcDbEntity
  8
0
 62
     3
100
AcDbLine
 10
631.290406
 20
246.91102
 30
0.0
 11
631.290406
 21
244.46102
 31
0.0
  0
LINE
  5
107
330
6B
100
AcDbEntity
  8
0
 62
     3
100
AcDbLine
 10
628.5341559999998
 20
247.52352
 30
0.0
 11
628.5341559999998
 21
248.1360200000001
 31
0.0
  0
LINE
  5
108
330
6B
100
AcDbEntity
  8
0
 62
     3
100
AcDbLine
 10
628.5341559999998
 20
247.52352
 30
0.0
 11
628.5341559999998
 21
248.1360200000001
 31
0.0
  0
LINE
  5
109
330
6B
100
AcDbEntity
  8
0
 62
     3
100
AcDbLine
 10
624.2466559999997
 20
247.52352
 30
0.0
 11
624.2466559999997
 21
248.1360200000001
 31
0.0
  0
LINE
  5
10A
330
6B
100
AcDbEntity
  8
0
 62
     3
100
AcDbLine
 10
624.2466559999997
 20
247.52352
 30
0.0
 11
624.2466559999997
 21
248.1360200000001
 31
0.0
  0
LINE
  5
10B
330
6B
100
AcDbEntity
  8
0
 62
     3
100
AcDbLine
 10
729.4850059999999
 20
244.467145
 30
0.0
 11
610.485006
 21
244.467145
 31
0.0
  0
ARC
  5
10C
330
6B
100
AcDbEntity
  8
0
 62
     3
100
AcDbCircle
 10
626.3904059999997
 20
246.093945
 30
0.0
 40
2.960824999999998
100
AcDbArc
 50
43.603
 51
136.397
  0
ARC
  5
10D
330
6B
100
AcDbEntity
  8
0
 62
     3
100
AcDbCircle
 10
626.3904059999997
 20
246.093945
 30
0.0
 40
2.960824999999998
100
AcDbArc
 50
43.603
 51
136.397
  0
LINE
  5
10E
330
6B
100
AcDbEntity
  8
0
 62
     3
100
AcDbLine
 10
616.5904059999998
 20
247.52352
 30
0.0
 11
631.290406
 21
247.52352
 31
0.0
  0
LINE
  5
10F
330
6B
100
AcDbEntity
  8
0
 62
     3
100
AcDbLine
 10
616.5904059999998
 20
247.52352
 30
0.0
 11
631.290406
 21
247.52352
 31
0.0
  0
ARC
  5
110
330
6B
100
AcDbEntity
  8
0
 62
     3
100
AcDbCircle
 10
766.913831
 20
175.94992
 30
0.0
 40
4.287499999999997
100
AcDbArc
 50
27.66
 51
152.34
  0
LINE
  5
111
330
6B
100
AcDbEntity
  8
0
 62
     3
100
AcDbLine
 10
763.1163309999997
 20
177.879295
 30
0.0
 11
763.1163309999997
 21
173.56117
 31
0.0
  0
LINE
  5
112
330
6B
100
AcDbEntity
  8
0
 62
     3
100
AcDbLine
 10
763.1163309999997
 20
173.56117
 30
0.0
 11
770.7113309999997
 21
173.56117
 31
0.0
  0
LINE
  5
113
330
6B
100
AcDbEntity
  8
0
 62
     3
100
AcDbLine
 10
770.7113309999997
 20
177.879295
 30
0.0
 11
770.7113309999997
 21
173.56117
 31
0.0
  0
LINE
  5
114
330
6B
100
AcDbEntity
  8
0
 62
     3
100
AcDbLine
 10
734.5600059999997
 20
175.061795
 30
0.0
 11
731.9350059999996
 21
175.061795
 31
0.0
  0
LINE
  5
115
330
6B
100
AcDbEntity
  8
0
 62
     3
100
AcDbLine
 10
734.735006
 20
178.736795
 30
0.0
 11
731.9350059999996
 21
178.736795
 31
0.0
  0
LINE
  5
116
330
6B
100
AcDbEntity
  8
0
 62
     3
100
AcDbLine
 10
746.4600059999996
 20
145.311795
 30
0.0
 11
740.3350059999996
 21
145.311795
 31
0.0
  0
LINE
  5
117
330
6B
100
AcDbEntity
  8
0
 62
     3
100
AcDbLine
 10
739.4162559999998
 20
134.286795
 30
0.0
 11
740.3350059999996
 21
145.311795
 31
0.0
  0
LINE
  5
118
330
6B
100
AcDbEntity
  8
0
 62
     3
100
AcDbLine
 10
747.3787559999997
 20
134.286795
 30
0.0
 11
746.4600059999996
 21
145.311795
 31
0.0
  0
LINE
  5
119
330
6B
100
AcDbEntity
  8
0
 62
     3
100
AcDbLine
 10
741.5600059999997
 20
158.218045
 30
0.0
 11
741.5600059999997
 21
145.311795
 31
0.0
  0
LINE
  5
11A
330
6B
100
AcDbEntity
  8
0
 62
     3
100
AcDbLine
 10
741.5600059999997
 20
168.061795
 30
0.0
 11
741.5600059999997
 21
160.668045
 31
0.0
  0
LINE
  5
11B
330
6B
100
AcDbEntity
  8
0
 62
     3
100
AcDbLine
 10
745.235006
 20
158.218045
 30
0.0
 11
745.235006
 21
145.311795
 31
0.0
  0
LINE
  5
11C
330
6B
100
AcDbEntity
  8
0
 62
     3
100
AcDbLine
 10
745.235006
 20
168.236795
 30
0.0
 11
745.235006
 21
160.668045
 31
0.0
  0
TEXT
  5
11D
330
6B
100
AcDbEntity
  8
0
 62
     3
100
AcDbText
 10
528.7799559999998
 20
228.246395
 30
0.0
 40
4.287499999999997
  1
TRANS PAL
 41
0.669857
100
AcDbText
  0
TEXT
  5
11E
330
6B
100
AcDbEntity
  8
0
 62
     3
100
AcDbText
 10
558.1799559999998
 20
234.371395
 30
0.0
 40
2.45
  1
POWER
 41
0.5760000000000001
100
AcDbText
  0
TEXT
  5
11F
330
6B
100
AcDbEntity
  8
0
 62
     3
100
AcDbText
 10
532.4549559999998
 20
175.571395
 30
0.0
 40
3.0625
  1
OUT PUT
 41
0.4921870000000001
100
AcDbText
  0
TEXT
  5
120
330
6B
100
AcDbEntity
  8
0
 62
     3
100
AcDbText
 10
541.6424559999998
 20
222.733895
 30
0.0
 40
4.287499999999997
  1
500
 41
0.9490499999999999
100
AcDbText
  0
TEXT
  5
121
330
6B
100
AcDbEntity
  8
0
 62
     3
100
AcDbText
 10
533.5403059999999
 20
168.833895
 30
0.0
 40
4.9
  1
AC100V 500VA
 41
0.594651
100
AcDbText
  0
CIRCLE
  5
122
330
6B
100
AcDbEntity
  8
0
 62
     3
100
AcDbCircle
 10
561.8549559999999
 20
187.821395
 30
0.0
 40
1.597399999999999
  0
TEXT
  5
123
330
6B
100
AcDbEntity
  8
0
 62
     3
100
AcDbText
 10
771.8138309999996
 20
231.308895
 30
0.0
 40
4.287499999999997
  1
TRANS PAL
 41
0.5361430000000002
100
AcDbText
  0
TEXT
  5
124
330
6B
100
AcDbEntity
  8
0
 62
     3
100
AcDbText
 10
776.7138309999997
 20
228.062645
 30
0.0
 40
2.45
  1
ご使用上の注意
 41
0.7320000000000002
100
AcDbText
  0
LINE
  5
125
330
6B
100
AcDbEntity
  8
0
 62
     3
100
AcDbLine
 10
752.5850059999997
 20
118.974295
 30
0.0
 11
734.2100059999997
 21
118.974295
 31
0.0
  0
ARC
  5
126
330
6B
100
AcDbEntity
  8
0
 62
     3
100
AcDbCircle
 10
762.306606
 20
117.962445
 30
0.0
 40
28.1162
100
AcDbArc
 50
144.506
 51
177.937
  0
ARC
  5
127
330
6B
100
AcDbEntity
  8
0
 62
     3
100
AcDbCircle
 10
724.4871809999997
 20
117.962445
 30
0.0
 40
28.1162
100
AcDbArc
 50
2.063
 51
35.494
  0
LINE
  5
128
330
6B
100
AcDbEntity
  8
0
 62
     3
100
AcDbLine
 10
739.4162559999998
 20
134.286795
 30
0.0
 11
747.3787559999997
 21
134.286795
 31
0.0
  0
LINE
  5
129
330
6B
100
AcDbEntity
  8
0
 62
     3
100
AcDbLine
 10
748.297506
 20
108.561795
 30
0.0
 11
748.297506
 21
118.974295
 31
0.0
  0
ARC
  5
12A
330
6B
100
AcDbEntity
  8
0
 62
     3
100
AcDbCircle
 10
749.5225059999996
 20
108.561795
 30
0.0
 40
1.225
100
AcDbArc
 50
180.0
 51
0.0
  0
LINE
  5
12B
330
6B
100
AcDbEntity
  8
0
 62
     3
100
AcDbLine
 10
750.7475059999997
 20
118.974295
 30
0.0
 11
750.7475059999997
 21
108.561795
 31
0.0
  0
LINE
  5
12C
330
6B
100
AcDbEntity
  8
0
 62
     3
100
AcDbLine
 10
738.4975059999996
 20
108.561795
 30
0.0
 11
738.4975059999996
 21
118.974295
 31
0.0
  0
ARC
  5
12D
330
6B
100
AcDbEntity
  8
0
 62
     3
100
AcDbCircle
 10
737.2725059999996
 20
108.561795
 30
0.0
 40
1.225
100
AcDbArc
 50
180.0
 51
0.0
  0
LINE
  5
12E
330
6B
100
AcDbEntity
  8
0
 62
     3
100
AcDbLine
 10
736.0475059999997
 20
118.974295
 30
0.0
 11
736.0475059999997
 21
108.561795
 31
0.0
  0
LINE
  5
12F
330
6B
100
AcDbEntity
  8
0
 62
     3
100
AcDbLine
 10
729.4850059999999
 20
244.467145
 30
0.0
 11
729.4850059999999
 21
184.817695
 31
0.0
  0
CIRCLE
  5
130
330
6B
100
AcDbEntity
  8
0
100
AcDbCircle
 10
685.8225059999997
 20
206.255195
 30
0.0
 40
12.25
  0
CIRCLE
  5
131
330
6B
100
AcDbEntity
  8
0
100
AcDbCircle
 10
685.8225059999997
 20
206.255195
 30
0.0
 40
1.225
  0
CIRCLE
  5
132
330
6B
100
AcDbEntity
  8
0
100
AcDbCircle
 10
679.697506
 20
200.130195
 30
0.0
 40
1.225
  0
CIRCLE
  5
133
330
6B
100
AcDbEntity
  8
0
100
AcDbCircle
 10
691.9475059999999
 20
200.130195
 30
0.0
 40
1.225
  0
CIRCLE
  5
134
330
6B
100
AcDbEntity
  8
0
100
AcDbCircle
 10
691.9475059999999
 20
212.380195
 30
0.0
 40
1.225
  0
CIRCLE
  5
135
330
6B
100
AcDbEntity
  8
0
100
AcDbCircle
 10
679.697506
 20
212.380195
 30
0.0
 40
1.225
  0
CIRCLE
  5
136
330
6B
100
AcDbEntity
  8
0
100
AcDbCircle
 10
633.7600059999997
 20
218.137695
 30
0.0
 40
0.91875
  0
CIRCLE
  5
137
330
6B
100
AcDbEntity
  8
0
100
AcDbCircle
 10
631.9225059999999
 20
216.606445
 30
0.0
 40
0.91875
  0
CIRCLE
  5
138
330
6B
100
AcDbEntity
  8
0
100
AcDbCircle
 10
631.9225059999999
 20
213.543945
 30
0.0
 40
0.91875
  0
CIRCLE
  5
139
330
6B
100
AcDbEntity
  8
0
100
AcDbCircle
 10
633.7600059999997
 20
215.075195
 30
0.0
 40
0.91875
  0
CIRCLE
  5
13A
330
6B
100
AcDbEntity
  8
0
100
AcDbCircle
 10
635.5975059999997
 20
216.606445
 30
0.0
 40
0.91875
  0
CIRCLE
  5
13B
330
6B
100
AcDbEntity
  8
0
100
AcDbCircle
 10
635.5975059999997
 20
213.543945
 30
0.0
 40
0.91875
  0
CIRCLE
  5
13C
330
6B
100
AcDbEntity
  8
0
100
AcDbCircle
 10
639.2725059999998
 20
216.606445
 30
0.0
 40
0.91875
  0
CIRCLE
  5
13D
330
6B
100
AcDbEntity
  8
0
100
AcDbCircle
 10
639.2725059999998
 20
213.543945
 30
0.0
 40
0.91875
  0
CIRCLE
  5
13E
330
6B
100
AcDbEntity
  8
0
100
AcDbCircle
 10
642.9475059999997
 20
216.606445
 30
0.0
 40
0.91875
  0
CIRCLE
  5
13F
330
6B
100
AcDbEntity
  8
0
100
AcDbCircle
 10
642.9475059999997
 20
213.543945
 30
0.0
 40
0.91875
  0
CIRCLE
  5
140
330
6B
100
AcDbEntity
  8
0
100
AcDbCircle
 10
646.6225059999998
 20
216.606445
 30
0.0
 40
0.91875
  0
CIRCLE
  5
141
330
6B
100
AcDbEntity
  8
0
100
AcDbCircle
 10
646.6225059999998
 20
213.543945
 30
0.0
 40
0.91875
  0
CIRCLE
  5
142
330
6B
100
AcDbEntity
  8
0
100
AcDbCircle
 10
650.2975059999998
 20
216.606445
 30
0.0
 40
0.91875
  0
CIRCLE
  5
143
330
6B
100
AcDbEntity
  8
0
100
AcDbCircle
 10
650.2975059999998
 20
213.543945
 30
0.0
 40
0.91875
  0
CIRCLE
  5
144
330
6B
100
AcDbEntity
  8
0
100
AcDbCircle
 10
653.9725059999997
 20
216.606445
 30
0.0
 40
0.91875
  0
CIRCLE
  5
145
330
6B
100
AcDbEntity
  8
0
100
AcDbCircle
 10
653.9725059999997
 20
213.543945
 30
0.0
 40
0.91875
  0
CIRCLE
  5
146
330
6B
100
AcDbEntity
  8
0
100
AcDbCircle
 10
657.6475059999998
 20
216.606445
 30
0.0
 40
0.91875
  0
CIRCLE
  5
147
330
6B
100
AcDbEntity
  8
0
100
AcDbCircle
 10
657.6475059999998
 20
213.543945
 30
0.0
 40
0.91875
  0
CIRCLE
  5
148
330
6B
100
AcDbEntity
  8
0
100
AcDbCircle
 10
661.3225059999997
 20
216.606445
 30
0.0
 40
0.91875
  0
CIRCLE
  5
149
330
6B
100
AcDbEntity
  8
0
100
AcDbCircle
 10
661.3225059999997
 20
213.543945
 30
0.0
 40
0.91875
  0
CIRCLE
  5
14A
330
6B
100
AcDbEntity
  8
0
100
AcDbCircle
 10
664.9975059999998
 20
216.606445
 30
0.0
 40
0.91875
  0
CIRCLE
  5
14B
330
6B
100
AcDbEntity
  8
0
100
AcDbCircle
 10
664.9975059999998
 20
213.543945
 30
0.0
 40
0.91875
  0
CIRCLE
  5
14C
330
6B
100
AcDbEntity
  8
0
100
AcDbCircle
 10
668.672506
 20
216.606445
 30
0.0
 40
0.91875
  0
CIRCLE
  5
14D
330
6B
100
AcDbEntity
  8
0
100
AcDbCircle
 10
668.672506
 20
213.543945
 30
0.0
 40
0.91875
  0
CIRCLE
  5
14E
330
6B
100
AcDbEntity
  8
0
100
AcDbCircle
 10
637.4350059999998
 20
218.137695
 30
0.0
 40
0.91875
  0
CIRCLE
  5
14F
330
6B
100
AcDbEntity
  8
0
100
AcDbCircle
 10
637.4350059999998
 20
215.075195
 30
0.0
 40
0.91875
  0
CIRCLE
  5
150
330
6B
100
AcDbEntity
  8
0
100
AcDbCircle
 10
641.1100059999998
 20
218.137695
 30
0.0
 40
0.91875
  0
CIRCLE
  5
151
330
6B
100
AcDbEntity
  8
0
100
AcDbCircle
 10
641.1100059999998
 20
215.075195
 30
0.0
 40
0.91875
  0
CIRCLE
  5
152
330
6B
100
AcDbEntity
  8
0
100
AcDbCircle
 10
644.7850059999997
 20
218.137695
 30
0.0
 40
0.91875
  0
CIRCLE
  5
153
330
6B
100
AcDbEntity
  8
0
100
AcDbCircle
 10
644.7850059999997
 20
215.075195
 30
0.0
 40
0.91875
  0
CIRCLE
  5
154
330
6B
100
AcDbEntity
  8
0
100
AcDbCircle
 10
648.4600059999998
 20
218.137695
 30
0.0
 40
0.91875
  0
CIRCLE
  5
155
330
6B
100
AcDbEntity
  8
0
100
AcDbCircle
 10
648.4600059999998
 20
215.075195
 30
0.0
 40
0.91875
  0
CIRCLE
  5
156
330
6B
100
AcDbEntity
  8
0
100
AcDbCircle
 10
652.1350059999997
 20
218.137695
 30
0.0
 40
0.91875
  0
CIRCLE
  5
157
330
6B
100
AcDbEntity
  8
0
100
AcDbCircle
 10
652.1350059999997
 20
215.075195
 30
0.0
 40
0.91875
  0
CIRCLE
  5
158
330
6B
100
AcDbEntity
  8
0
100
AcDbCircle
 10
655.8100059999998
 20
218.137695
 30
0.0
 40
0.91875
  0
CIRCLE
  5
159
330
6B
100
AcDbEntity
  8
0
100
AcDbCircle
 10
655.8100059999998
 20
215.075195
 30
0.0
 40
0.91875
  0
CIRCLE
  5
15A
330
6B
100
AcDbEntity
  8
0
100
AcDbCircle
 10
659.4850059999997
 20
218.137695
 30
0.0
 40
0.91875
  0
CIRCLE
  5
15B
330
6B
100
AcDbEntity
  8
0
100
AcDbCircle
 10
659.4850059999997
 20
215.075195
 30
0.0
 40
0.91875
  0
CIRCLE
  5
15C
330
6B
100
AcDbEntity
  8
0
100
AcDbCircle
 10
663.1600059999997
 20
218.137695
 30
0.0
 40
0.91875
  0
CIRCLE
  5
15D
330
6B
100
AcDbEntity
  8
0
100
AcDbCircle
 10
663.1600059999997
 20
215.075195
 30
0.0
 40
0.91875
  0
CIRCLE
  5
15E
330
6B
100
AcDbEntity
  8
0
100
AcDbCircle
 10
666.8350059999998
 20
218.137695
 30
0.0
 40
0.91875
  0
CIRCLE
  5
15F
330
6B
100
AcDbEntity
  8
0
100
AcDbCircle
 10
666.8350059999998
 20
215.075195
 30
0.0
 40
0.91875
  0
CIRCLE
  5
160
330
6B
100
AcDbEntity
  8
0
100
AcDbCircle
 10
726.422506
 20
227.570195
 30
0.0
 40
2.143749999999998
  0
LINE
  5
161
330
6B
100
AcDbEntity
  8
0
100
AcDbLine
 10
725.1975059999997
 20
227.35582
 30
0.0
 11
725.1975059999997
 21
227.78457
 31
0.0
  0
LINE
  5
162
330
6B
100
AcDbEntity
  8
0
100
AcDbLine
 10
725.1975059999997
 20
227.78457
 30
0.0
 11
725.656881
 21
227.78457
 31
0.0
  0
LINE
  5
163
330
6B
100
AcDbEntity
  8
0
100
AcDbLine
 10
725.1975059999997
 20
227.35582
 30
0.0
 11
725.656881
 21
227.35582
 31
0.0
  0
LINE
  5
164
330
6B
100
AcDbEntity
  8
0
100
AcDbLine
 10
726.6368809999999
 20
226.345195
 30
0.0
 11
726.208131
 21
226.345195
 31
0.0
  0
LINE
  5
165
330
6B
100
AcDbEntity
  8
0
100
AcDbLine
 10
726.208131
 20
226.345195
 30
0.0
 11
726.208131
 21
226.80457
 31
0.0
  0
LINE
  5
166
330
6B
100
AcDbEntity
  8
0
100
AcDbLine
 10
726.6368809999999
 20
226.345195
 30
0.0
 11
726.6368809999999
 21
226.80457
 31
0.0
  0
LINE
  5
167
330
6B
100
AcDbEntity
  8
0
100
AcDbLine
 10
727.6475059999996
 20
227.78457
 30
0.0
 11
727.6475059999996
 21
227.35582
 31
0.0
  0
LINE
  5
168
330
6B
100
AcDbEntity
  8
0
100
AcDbLine
 10
727.6475059999996
 20
227.35582
 30
0.0
 11
727.188131
 21
227.35582
 31
0.0
  0
LINE
  5
169
330
6B
100
AcDbEntity
  8
0
100
AcDbLine
 10
727.6475059999996
 20
227.78457
 30
0.0
 11
727.188131
 21
227.78457
 31
0.0
  0
LINE
  5
16A
330
6B
100
AcDbEntity
  8
0
100
AcDbLine
 10
726.208131
 20
228.795195
 30
0.0
 11
726.6368809999999
 21
228.795195
 31
0.0
  0
LINE
  5
16B
330
6B
100
AcDbEntity
  8
0
100
AcDbLine
 10
726.6368809999999
 20
228.795195
 30
0.0
 11
726.6368809999999
 21
228.33582
 31
0.0
  0
LINE
  5
16C
330
6B
100
AcDbEntity
  8
0
100
AcDbLine
 10
726.208131
 20
228.795195
 30
0.0
 11
726.208131
 21
228.33582
 31
0.0
  0
ARC
  5
16D
330
6B
100
AcDbEntity
  8
0
100
AcDbCircle
 10
727.188131
 20
226.80457
 30
0.0
 40
0.5512500000000001
100
AcDbArc
 50
90.0
 51
180.0
  0
ARC
  5
16E
330
6B
100
AcDbEntity
  8
0
100
AcDbCircle
 10
727.188131
 20
228.33582
 30
0.0
 40
0.5512500000000001
100
AcDbArc
 50
180.0
 51
270.0
  0
ARC
  5
16F
330
6B
100
AcDbEntity
  8
0
100
AcDbCircle
 10
725.656881
 20
228.33582
 30
0.0
 40
0.5512500000000001
100
AcDbArc
 50
270.0
 51
0.0
  0
ARC
  5
170
330
6B
100
AcDbEntity
  8
0
100
AcDbCircle
 10
725.656881
 20
226.80457
 30
0.0
 40
0.5512500000000001
100
AcDbArc
 50
0.0
 51
90.0
  0
CIRCLE
  5
171
330
6B
100
AcDbEntity
  8
0
100
AcDbCircle
 10
726.422506
 20
227.570195
 30
0.0
 40
2.143749999999998
  0
LINE
  5
172
330
6B
100
AcDbEntity
  8
0
100
AcDbLine
 10
725.1975059999997
 20
227.35582
 30
0.0
 11
725.1975059999997
 21
227.78457
 31
0.0
  0
LINE
  5
173
330
6B
100
AcDbEntity
  8
0
100
AcDbLine
 10
725.1975059999997
 20
227.78457
 30
0.0
 11
725.656881
 21
227.78457
 31
0.0
  0
LINE
  5
174
330
6B
100
AcDbEntity
  8
0
100
AcDbLine
 10
725.1975059999997
 20
227.35582
 30
0.0
 11
725.656881
 21
227.35582
 31
0.0
  0
LINE
  5
175
330
6B
100
AcDbEntity
  8
0
100
AcDbLine
 10
726.6368809999999
 20
226.345195
 30
0.0
 11
726.208131
 21
226.345195
 31
0.0
  0
LINE
  5
176
330
6B
100
AcDbEntity
  8
0
100
AcDbLine
 10
726.208131
 20
226.345195
 30
0.0
 11
726.208131
 21
226.80457
 31
0.0
  0
LINE
  5
177
330
6B
100
AcDbEntity
  8
0
100
AcDbLine
 10
726.6368809999999
 20
226.345195
 30
0.0
 11
726.6368809999999
 21
226.80457
 31
0.0
  0
LINE
  5
178
330
6B
100
AcDbEntity
  8
0
100
AcDbLine
 10
727.6475059999996
 20
227.78457
 30
0.0
 11
727.6475059999996
 21
227.35582
 31
0.0
  0
LINE
  5
179
330
6B
100
AcDbEntity
  8
0
100
AcDbLine
 10
727.6475059999996
 20
227.35582
 30
0.0
 11
727.188131
 21
227.35582
 31
0.0
  0
LINE
  5
17A
330
6B
100
AcDbEntity
  8
0
100
AcDbLine
 10
727.6475059999996
 20
227.78457
 30
0.0
 11
727.188131
 21
227.78457
 31
0.0
  0
LINE
  5
17B
330
6B
100
AcDbEntity
  8
0
100
AcDbLine
 10
726.208131
 20
228.795195
 30
0.0
 11
726.6368809999999
 21
228.795195
 31
0.0
  0
LINE
  5
17C
330
6B
100
AcDbEntity
  8
0
100
AcDbLine
 10
726.6368809999999
 20
228.795195
 30
0.0
 11
726.6368809999999
 21
228.33582
 31
0.0
  0
LINE
  5
17D
330
6B
100
AcDbEntity
  8
0
100
AcDbLine
 10
726.208131
 20
228.795195
 30
0.0
 11
726.208131
 21
228.33582
 31
0.0
  0
ARC
  5
17E
330
6B
100
AcDbEntity
  8
0
100
AcDbCircle
 10
727.188131
 20
226.80457
 30
0.0
 40
0.5512500000000001
100
AcDbArc
 50
90.0
 51
180.0
  0
ARC
  5
17F
330
6B
100
AcDbEntity
  8
0
100
AcDbCircle
 10
727.188131
 20
228.33582
 30
0.0
 40
0.5512500000000001
100
AcDbArc
 50
180.0
 51
270.0
  0
ARC
  5
180
330
6B
100
AcDbEntity
  8
0
100
AcDbCircle
 10
725.656881
 20
228.33582
 30
0.0
 40
0.5512500000000001
100
AcDbArc
 50
270.0
 51
0.0
  0
ARC
  5
181
330
6B
100
AcDbEntity
  8
0
100
AcDbCircle
 10
725.656881
 20
226.80457
 30
0.0
 40
0.5512500000000001
100
AcDbArc
 50
0.0
 51
90.0
  0
CIRCLE
  5
182
330
6B
100
AcDbEntity
  8
0
100
AcDbCircle
 10
726.422506
 20
187.757695
 30
0.0
 40
2.143749999999998
  0
LINE
  5
183
330
6B
100
AcDbEntity
  8
0
100
AcDbLine
 10
725.1975059999997
 20
187.54332
 30
0.0
 11
725.1975059999997
 21
187.97207
 31
0.0
  0
LINE
  5
184
330
6B
100
AcDbEntity
  8
0
100
AcDbLine
 10
725.1975059999997
 20
187.97207
 30
0.0
 11
725.656881
 21
187.97207
 31
0.0
  0
LINE
  5
185
330
6B
100
AcDbEntity
  8
0
100
AcDbLine
 10
725.1975059999997
 20
187.54332
 30
0.0
 11
725.656881
 21
187.54332
 31
0.0
  0
LINE
  5
186
330
6B
100
AcDbEntity
  8
0
100
AcDbLine
 10
726.6368809999999
 20
186.532695
 30
0.0
 11
726.208131
 21
186.532695
 31
0.0
  0
LINE
  5
187
330
6B
100
AcDbEntity
  8
0
100
AcDbLine
 10
726.208131
 20
186.532695
 30
0.0
 11
726.208131
 21
186.9920699999999
 31
0.0
  0
LINE
  5
188
330
6B
100
AcDbEntity
  8
0
100
AcDbLine
 10
726.6368809999999
 20
186.532695
 30
0.0
 11
726.6368809999999
 21
186.9920699999999
 31
0.0
  0
LINE
  5
189
330
6B
100
AcDbEntity
  8
0
100
AcDbLine
 10
727.6475059999996
 20
187.97207
 30
0.0
 11
727.6475059999996
 21
187.54332
 31
0.0
  0
LINE
  5
18A
330
6B
100
AcDbEntity
  8
0
100
AcDbLine
 10
727.6475059999996
 20
187.54332
 30
0.0
 11
727.188131
 21
187.54332
 31
0.0
  0
LINE
  5
18B
330
6B
100
AcDbEntity
  8
0
100
AcDbLine
 10
727.6475059999996
 20
187.97207
 30
0.0
 11
727.188131
 21
187.97207
 31
0.0
  0
LINE
  5
18C
330
6B
100
AcDbEntity
  8
0
100
AcDbLine
 10
726.208131
 20
188.982695
 30
0.0
 11
726.6368809999999
 21
188.982695
 31
0.0
  0
LINE
  5
18D
330
6B
100
AcDbEntity
  8
0
100
AcDbLine
 10
726.6368809999999
 20
188.982695
 30
0.0
 11
726.6368809999999
 21
188.52332
 31
0.0
  0
LINE
  5
18E
330
6B
100
AcDbEntity
  8
0
100
AcDbLine
 10
726.208131
 20
188.982695
 30
0.0
 11
726.208131
 21
188.52332
 31
0.0
  0
ARC
  5
18F
330
6B
100
AcDbEntity
  8
0
100
AcDbCircle
 10
727.188131
 20
186.9920699999999
 30
0.0
 40
0.5512500000000001
100
AcDbArc
 50
90.0
 51
180.0
  0
ARC
  5
190
330
6B
100
AcDbEntity
  8
0
100
AcDbCircle
 10
727.188131
 20
188.52332
 30
0.0
 40
0.5512500000000001
100
AcDbArc
 50
180.0
 51
270.0
  0
ARC
  5
191
330
6B
100
AcDbEntity
  8
0
100
AcDbCircle
 10
725.656881
 20
188.52332
 30
0.0
 40
0.5512500000000001
100
AcDbArc
 50
270.0
 51
0.0
  0
ARC
  5
192
330
6B
100
AcDbEntity
  8
0
100
AcDbCircle
 10
725.656881
 20
186.9920699999999
 30
0.0
 40
0.5512500000000001
100
AcDbArc
 50
0.0
 51
90.0
  0
CIRCLE
  5
193
330
6B
100
AcDbEntity
  8
0
100
AcDbCircle
 10
726.422506
 20
187.757695
 30
0.0
 40
2.143749999999998
  0
LINE
  5
194
330
6B
100
AcDbEntity
  8
0
100
AcDbLine
 10
725.1975059999997
 20
187.54332
 30
0.0
 11
725.1975059999997
 21
187.97207
 31
0.0
  0
LINE
  5
195
330
6B
100
AcDbEntity
  8
0
100
AcDbLine
 10
725.1975059999997
 20
187.97207
 30
0.0
 11
725.656881
 21
187.97207
 31
0.0
  0
LINE
  5
196
330
6B
100
AcDbEntity
  8
0
100
AcDbLine
 10
725.1975059999997
 20
187.54332
 30
0.0
 11
725.656881
 21
187.54332
 31
0.0
  0
LINE
  5
197
330
6B
100
AcDbEntity
  8
0
100
AcDbLine
 10
726.6368809999999
 20
186.532695
 30
0.0
 11
726.208131
 21
186.532695
 31
0.0
  0
LINE
  5
198
330
6B
100
AcDbEntity
  8
0
100
AcDbLine
 10
726.208131
 20
186.532695
 30
0.0
 11
726.208131
 21
186.9920699999999
 31
0.0
  0
LINE
  5
199
330
6B
100
AcDbEntity
  8
0
100
AcDbLine
 10
726.6368809999999
 20
186.532695
 30
0.0
 11
726.6368809999999
 21
186.9920699999999
 31
0.0
  0
LINE
  5
19A
330
6B
100
AcDbEntity
  8
0
100
AcDbLine
 10
727.6475059999996
 20
187.97207
 30
0.0
 11
727.6475059999996
 21
187.54332
 31
0.0
  0
LINE
  5
19B
330
6B
100
AcDbEntity
  8
0
100
AcDbLine
 10
727.6475059999996
 20
187.54332
 30
0.0
 11
727.188131
 21
187.54332
 31
0.0
  0
LINE
  5
19C
330
6B
100
AcDbEntity
  8
0
100
AcDbLine
 10
727.6475059999996
 20
187.97207
 30
0.0
 11
727.188131
 21
187.97207
 31
0.0
  0
LINE
  5
19D
330
6B
100
AcDbEntity
  8
0
100
AcDbLine
 10
726.208131
 20
188.982695
 30
0.0
 11
726.6368809999999
 21
188.982695
 31
0.0
  0
LINE
  5
19E
330
6B
100
AcDbEntity
  8
0
100
AcDbLine
 10
726.6368809999999
 20
188.982695
 30
0.0
 11
726.6368809999999
 21
188.52332
 31
0.0
  0
LINE
  5
19F
330
6B
100
AcDbEntity
  8
0
100
AcDbLine
 10
726.208131
 20
188.982695
 30
0.0
 11
726.208131
 21
188.52332
 31
0.0
  0
ARC
  5
1A0
330
6B
100
AcDbEntity
  8
0
100
AcDbCircle
 10
727.188131
 20
186.9920699999999
 30
0.0
 40
0.5512500000000001
100
AcDbArc
 50
90.0
 51
180.0
  0
ARC
  5
1A1
330
6B
100
AcDbEntity
  8
0
100
AcDbCircle
 10
727.188131
 20
188.52332
 30
0.0
 40
0.5512500000000001
100
AcDbArc
 50
180.0
 51
270.0
  0
ARC
  5
1A2
330
6B
100
AcDbEntity
  8
0
100
AcDbCircle
 10
725.656881
 20
188.52332
 30
0.0
 40
0.5512500000000001
100
AcDbArc
 50
270.0
 51
0.0
  0
ARC
  5
1A3
330
6B
100
AcDbEntity
  8
0
100
AcDbCircle
 10
725.656881
 20
186.9920699999999
 30
0.0
 40
0.5512500000000001
100
AcDbArc
 50
0.0
 51
90.0
  0
CIRCLE
  5
1A4
330
6B
100
AcDbEntity
  8
0
100
AcDbCircle
 10
726.422506
 20
181.755195
 30
0.0
 40
2.143749999999998
  0
LINE
  5
1A5
330
6B
100
AcDbEntity
  8
0
100
AcDbLine
 10
725.1975059999997
 20
181.54082
 30
0.0
 11
725.1975059999997
 21
181.96957
 31
0.0
  0
LINE
  5
1A6
330
6B
100
AcDbEntity
  8
0
100
AcDbLine
 10
725.1975059999997
 20
181.96957
 30
0.0
 11
725.656881
 21
181.96957
 31
0.0
  0
LINE
  5
1A7
330
6B
100
AcDbEntity
  8
0
100
AcDbLine
 10
725.1975059999997
 20
181.54082
 30
0.0
 11
725.656881
 21
181.54082
 31
0.0
  0
LINE
  5
1A8
330
6B
100
AcDbEntity
  8
0
100
AcDbLine
 10
726.6368809999999
 20
180.530195
 30
0.0
 11
726.208131
 21
180.530195
 31
0.0
  0
LINE
  5
1A9
330
6B
100
AcDbEntity
  8
0
100
AcDbLine
 10
726.208131
 20
180.530195
 30
0.0
 11
726.208131
 21
180.98957
 31
0.0
  0
LINE
  5
1AA
330
6B
100
AcDbEntity
  8
0
100
AcDbLine
 10
726.6368809999999
 20
180.530195
 30
0.0
 11
726.6368809999999
 21
180.98957
 31
0.0
  0
LINE
  5
1AB
330
6B
100
AcDbEntity
  8
0
100
AcDbLine
 10
727.6475059999996
 20
181.96957
 30
0.0
 11
727.6475059999996
 21
181.54082
 31
0.0
  0
LINE
  5
1AC
330
6B
100
AcDbEntity
  8
0
100
AcDbLine
 10
727.6475059999996
 20
181.54082
 30
0.0
 11
727.188131
 21
181.54082
 31
0.0
  0
LINE
  5
1AD
330
6B
100
AcDbEntity
  8
0
100
AcDbLine
 10
727.6475059999996
 20
181.96957
 30
0.0
 11
727.188131
 21
181.96957
 31
0.0
  0
LINE
  5
1AE
330
6B
100
AcDbEntity
  8
0
100
AcDbLine
 10
726.208131
 20
182.980195
 30
0.0
 11
726.6368809999999
 21
182.980195
 31
0.0
  0
LINE
  5
1AF
330
6B
100
AcDbEntity
  8
0
100
AcDbLine
 10
726.6368809999999
 20
182.980195
 30
0.0
 11
726.6368809999999
 21
182.52082
 31
0.0
  0
LINE
  5
1B0
330
6B
100
AcDbEntity
  8
0
100
AcDbLine
 10
726.208131
 20
182.980195
 30
0.0
 11
726.208131
 21
182.52082
 31
0.0
  0
ARC
  5
1B1
330
6B
100
AcDbEntity
  8
0
100
AcDbCircle
 10
727.188131
 20
180.98957
 30
0.0
 40
0.5512500000000001
100
AcDbArc
 50
90.0
 51
180.0
  0
ARC
  5
1B2
330
6B
100
AcDbEntity
  8
0
100
AcDbCircle
 10
727.188131
 20
182.52082
 30
0.0
 40
0.5512500000000001
100
AcDbArc
 50
180.0
 51
270.0
  0
ARC
  5
1B3
330
6B
100
AcDbEntity
  8
0
100
AcDbCircle
 10
725.656881
 20
182.52082
 30
0.0
 40
0.5512500000000001
100
AcDbArc
 50
270.0
 51
0.0
  0
ARC
  5
1B4
330
6B
100
AcDbEntity
  8
0
100
AcDbCircle
 10
725.656881
 20
180.98957
 30
0.0
 40
0.5512500000000001
100
AcDbArc
 50
0.0
 51
90.0
  0
CIRCLE
  5
1B5
330
6B
100
AcDbEntity
  8
0
100
AcDbCircle
 10
726.422506
 20
181.755195
 30
0.0
 40
2.143749999999998
  0
LINE
  5
1B6
330
6B
100
AcDbEntity
  8
0
100
AcDbLine
 10
725.1975059999997
 20
181.54082
 30
0.0
 11
725.1975059999997
 21
181.96957
 31
0.0
  0
LINE
  5
1B7
330
6B
100
AcDbEntity
  8
0
100
AcDbLine
 10
725.1975059999997
 20
181.96957
 30
0.0
 11
725.656881
 21
181.96957
 31
0.0
  0
LINE
  5
1B8
330
6B
100
AcDbEntity
  8
0
100
AcDbLine
 10
725.1975059999997
 20
181.54082
 30
0.0
 11
725.656881
 21
181.54082
 31
0.0
  0
LINE
  5
1B9
330
6B
100
AcDbEntity
  8
0
100
AcDbLine
 10
726.6368809999999
 20
180.530195
 30
0.0
 11
726.208131
 21
180.530195
 31
0.0
  0
LINE
  5
1BA
330
6B
100
AcDbEntity
  8
0
100
AcDbLine
 10
726.208131
 20
180.530195
 30
0.0
 11
726.208131
 21
180.98957
 31
0.0
  0
LINE
  5
1BB
330
6B
100
AcDbEntity
  8
0
100
AcDbLine
 10
726.6368809999999
 20
180.530195
 30
0.0
 11
726.6368809999999
 21
180.98957
 31
0.0
  0
LINE
  5
1BC
330
6B
100
AcDbEntity
  8
0
100
AcDbLine
 10
727.6475059999996
 20
181.96957
 30
0.0
 11
727.6475059999996
 21
181.54082
 31
0.0
  0
LINE
  5
1BD
330
6B
100
AcDbEntity
  8
0
100
AcDbLine
 10
727.6475059999996
 20
181.54082
 30
0.0
 11
727.188131
 21
181.54082
 31
0.0
  0
LINE
  5
1BE
330
6B
100
AcDbEntity
  8
0
100
AcDbLine
 10
727.6475059999996
 20
181.96957
 30
0.0
 11
727.188131
 21
181.96957
 31
0.0
  0
LINE
  5
1BF
330
6B
100
AcDbEntity
  8
0
100
AcDbLine
 10
726.208131
 20
182.980195
 30
0.0
 11
726.6368809999999
 21
182.980195
 31
0.0
  0
LINE
  5
1C0
330
6B
100
AcDbEntity
  8
0
100
AcDbLine
 10
726.6368809999999
 20
182.980195
 30
0.0
 11
726.6368809999999
 21
182.52082
 31
0.0
  0
LINE
  5
1C1
330
6B
100
AcDbEntity
  8
0
100
AcDbLine
 10
726.208131
 20
182.980195
 30
0.0
 11
726.208131
 21
182.52082
 31
0.0
  0
ARC
  5
1C2
330
6B
100
AcDbEntity
  8
0
100
AcDbCircle
 10
727.188131
 20
180.98957
 30
0.0
 40
0.5512500000000001
100
AcDbArc
 50
90.0
 51
180.0
  0
ARC
  5
1C3
330
6B
100
AcDbEntity
  8
0
100
AcDbCircle
 10
727.188131
 20
182.52082
 30
0.0
 40
0.5512500000000001
100
AcDbArc
 50
180.0
 51
270.0
  0
ARC
  5
1C4
330
6B
100
AcDbEntity
  8
0
100
AcDbCircle
 10
725.656881
 20
182.52082
 30
0.0
 40
0.5512500000000001
100
AcDbArc
 50
270.0
 51
0.0
  0
ARC
  5
1C5
330
6B
100
AcDbEntity
  8
0
100
AcDbCircle
 10
725.656881
 20
180.98957
 30
0.0
 40
0.5512500000000001
100
AcDbArc
 50
0.0
 51
90.0
  0
CIRCLE
  5
1C6
330
6B
100
AcDbEntity
  8
0
100
AcDbCircle
 10
613.547506
 20
187.757695
 30
0.0
 40
2.143749999999998
  0
LINE
  5
1C7
330
6B
100
AcDbEntity
  8
0
100
AcDbLine
 10
612.322506
 20
187.54332
 30
0.0
 11
612.322506
 21
187.97207
 31
0.0
  0
LINE
  5
1C8
330
6B
100
AcDbEntity
  8
0
100
AcDbLine
 10
612.322506
 20
187.97207
 30
0.0
 11
612.7818809999999
 21
187.97207
 31
0.0
  0
LINE
  5
1C9
330
6B
100
AcDbEntity
  8
0
100
AcDbLine
 10
612.322506
 20
187.54332
 30
0.0
 11
612.7818809999999
 21
187.54332
 31
0.0
  0
LINE
  5
1CA
330
6B
100
AcDbEntity
  8
0
100
AcDbLine
 10
613.7618809999999
 20
186.532695
 30
0.0
 11
613.3331309999999
 21
186.532695
 31
0.0
  0
LINE
  5
1CB
330
6B
100
AcDbEntity
  8
0
100
AcDbLine
 10
613.3331309999999
 20
186.532695
 30
0.0
 11
613.3331309999999
 21
186.9920699999999
 31
0.0
  0
LINE
  5
1CC
330
6B
100
AcDbEntity
  8
0
100
AcDbLine
 10
613.7618809999999
 20
186.532695
 30
0.0
 11
613.7618809999999
 21
186.9920699999999
 31
0.0
  0
LINE
  5
1CD
330
6B
100
AcDbEntity
  8
0
100
AcDbLine
 10
614.7725059999998
 20
187.97207
 30
0.0
 11
614.7725059999998
 21
187.54332
 31
0.0
  0
LINE
  5
1CE
330
6B
100
AcDbEntity
  8
0
100
AcDbLine
 10
614.7725059999998
 20
187.54332
 30
0.0
 11
614.313131
 21
187.54332
 31
0.0
  0
LINE
  5
1CF
330
6B
100
AcDbEntity
  8
0
100
AcDbLine
 10
614.7725059999998
 20
187.97207
 30
0.0
 11
614.313131
 21
187.97207
 31
0.0
  0
LINE
  5
1D0
330
6B
100
AcDbEntity
  8
0
100
AcDbLine
 10
613.3331309999999
 20
188.982695
 30
0.0
 11
613.7618809999999
 21
188.982695
 31
0.0
  0
LINE
  5
1D1
330
6B
100
AcDbEntity
  8
0
100
AcDbLine
 10
613.7618809999999
 20
188.982695
 30
0.0
 11
613.7618809999999
 21
188.52332
 31
0.0
  0
LINE
  5
1D2
330
6B
100
AcDbEntity
  8
0
100
AcDbLine
 10
613.3331309999999
 20
188.982695
 30
0.0
 11
613.3331309999999
 21
188.52332
 31
0.0
  0
ARC
  5
1D3
330
6B
100
AcDbEntity
  8
0
100
AcDbCircle
 10
614.313131
 20
186.9920699999999
 30
0.0
 40
0.5512500000000001
100
AcDbArc
 50
90.0
 51
180.0
  0
ARC
  5
1D4
330
6B
100
AcDbEntity
  8
0
100
AcDbCircle
 10
614.313131
 20
188.52332
 30
0.0
 40
0.5512500000000001
100
AcDbArc
 50
180.0
 51
270.0
  0
ARC
  5
1D5
330
6B
100
AcDbEntity
  8
0
100
AcDbCircle
 10
612.7818809999999
 20
188.52332
 30
0.0
 40
0.5512500000000001
100
AcDbArc
 50
270.0
 51
0.0
  0
ARC
  5
1D6
330
6B
100
AcDbEntity
  8
0
100
AcDbCircle
 10
612.7818809999999
 20
186.9920699999999
 30
0.0
 40
0.5512500000000001
100
AcDbArc
 50
0.0
 51
90.0
  0
CIRCLE
  5
1D7
330
6B
100
AcDbEntity
  8
0
100
AcDbCircle
 10
613.547506
 20
227.570195
 30
0.0
 40
2.143749999999998
  0
LINE
  5
1D8
330
6B
100
AcDbEntity
  8
0
100
AcDbLine
 10
612.322506
 20
227.35582
 30
0.0
 11
612.322506
 21
227.78457
 31
0.0
  0
LINE
  5
1D9
330
6B
100
AcDbEntity
  8
0
100
AcDbLine
 10
612.322506
 20
227.78457
 30
0.0
 11
612.7818809999999
 21
227.78457
 31
0.0
  0
LINE
  5
1DA
330
6B
100
AcDbEntity
  8
0
100
AcDbLine
 10
612.322506
 20
227.35582
 30
0.0
 11
612.7818809999999
 21
227.35582
 31
0.0
  0
LINE
  5
1DB
330
6B
100
AcDbEntity
  8
0
100
AcDbLine
 10
613.7618809999999
 20
226.345195
 30
0.0
 11
613.3331309999999
 21
226.345195
 31
0.0
  0
LINE
  5
1DC
330
6B
100
AcDbEntity
  8
0
100
AcDbLine
 10
613.3331309999999
 20
226.345195
 30
0.0
 11
613.3331309999999
 21
226.80457
 31
0.0
  0
LINE
  5
1DD
330
6B
100
AcDbEntity
  8
0
100
AcDbLine
 10
613.7618809999999
 20
226.345195
 30
0.0
 11
613.7618809999999
 21
226.80457
 31
0.0
  0
LINE
  5
1DE
330
6B
100
AcDbEntity
  8
0
100
AcDbLine
 10
614.7725059999998
 20
227.78457
 30
0.0
 11
614.7725059999998
 21
227.35582
 31
0.0
  0
LINE
  5
1DF
330
6B
100
AcDbEntity
  8
0
100
AcDbLine
 10
614.7725059999998
 20
227.35582
 30
0.0
 11
614.313131
 21
227.35582
 31
0.0
  0
LINE
  5
1E0
330
6B
100
AcDbEntity
  8
0
100
AcDbLine
 10
614.7725059999998
 20
227.78457
 30
0.0
 11
614.313131
 21
227.78457
 31
0.0
  0
LINE
  5
1E1
330
6B
100
AcDbEntity
  8
0
100
AcDbLine
 10
613.3331309999999
 20
228.795195
 30
0.0
 11
613.7618809999999
 21
228.795195
 31
0.0
  0
LINE
  5
1E2
330
6B
100
AcDbEntity
  8
0
100
AcDbLine
 10
613.7618809999999
 20
228.795195
 30
0.0
 11
613.7618809999999
 21
228.33582
 31
0.0
  0
LINE
  5
1E3
330
6B
100
AcDbEntity
  8
0
100
AcDbLine
 10
613.3331309999999
 20
228.795195
 30
0.0
 11
613.3331309999999
 21
228.33582
 31
0.0
  0
ARC
  5
1E4
330
6B
100
AcDbEntity
  8
0
100
AcDbCircle
 10
614.313131
 20
226.80457
 30
0.0
 40
0.5512500000000001
100
AcDbArc
 50
90.0
 51
180.0
  0
ARC
  5
1E5
330
6B
100
AcDbEntity
  8
0
100
AcDbCircle
 10
614.313131
 20
228.33582
 30
0.0
 40
0.5512500000000001
100
AcDbArc
 50
180.0
 51
270.0
  0
ARC
  5
1E6
330
6B
100
AcDbEntity
  8
0
100
AcDbCircle
 10
612.7818809999999
 20
228.33582
 30
0.0
 40
0.5512500000000001
100
AcDbArc
 50
270.0
 51
0.0
  0
ARC
  5
1E7
330
6B
100
AcDbEntity
  8
0
100
AcDbCircle
 10
612.7818809999999
 20
226.80457
 30
0.0
 40
0.5512500000000001
100
AcDbArc
 50
0.0
 51
90.0
  0
CIRCLE
  5
1E8
330
6B
100
AcDbEntity
  8
0
100
AcDbCircle
 10
613.547506
 20
187.757695
 30
0.0
 40
2.143749999999998
  0
LINE
  5
1E9
330
6B
100
AcDbEntity
  8
0
100
AcDbLine
 10
612.322506
 20
187.54332
 30
0.0
 11
612.322506
 21
187.97207
 31
0.0
  0
LINE
  5
1EA
330
6B
100
AcDbEntity
  8
0
100
AcDbLine
 10
612.322506
 20
187.97207
 30
0.0
 11
612.7818809999999
 21
187.97207
 31
0.0
  0
LINE
  5
1EB
330
6B
100
AcDbEntity
  8
0
100
AcDbLine
 10
612.322506
 20
187.54332
 30
0.0
 11
612.7818809999999
 21
187.54332
 31
0.0
  0
LINE
  5
1EC
330
6B
100
AcDbEntity
  8
0
100
AcDbLine
 10
613.7618809999999
 20
186.532695
 30
0.0
 11
613.3331309999999
 21
186.532695
 31
0.0
  0
LINE
  5
1ED
330
6B
100
AcDbEntity
  8
0
100
AcDbLine
 10
613.3331309999999
 20
186.532695
 30
0.0
 11
613.3331309999999
 21
186.9920699999999
 31
0.0
  0
LINE
  5
1EE
330
6B
100
AcDbEntity
  8
0
100
AcDbLine
 10
613.7618809999999
 20
186.532695
 30
0.0
 11
613.7618809999999
 21
186.9920699999999
 31
0.0
  0
LINE
  5
1EF
330
6B
100
AcDbEntity
  8
0
100
AcDbLine
 10
614.7725059999998
 20
187.97207
 30
0.0
 11
614.7725059999998
 21
187.54332
 31
0.0
  0
LINE
  5
1F0
330
6B
100
AcDbEntity
  8
0
100
AcDbLine
 10
614.7725059999998
 20
187.54332
 30
0.0
 11
614.313131
 21
187.54332
 31
0.0
  0
LINE
  5
1F1
330
6B
100
AcDbEntity
  8
0
100
AcDbLine
 10
614.7725059999998
 20
187.97207
 30
0.0
 11
614.313131
 21
187.97207
 31
0.0
  0
LINE
  5
1F2
330
6B
100
AcDbEntity
  8
0
100
AcDbLine
 10
613.3331309999999
 20
188.982695
 30
0.0
 11
613.7618809999999
 21
188.982695
 31
0.0
  0
LINE
  5
1F3
330
6B
100
AcDbEntity
  8
0
100
AcDbLine
 10
613.7618809999999
 20
188.982695
 30
0.0
 11
613.7618809999999
 21
188.52332
 31
0.0
  0
LINE
  5
1F4
330
6B
100
AcDbEntity
  8
0
100
AcDbLine
 10
613.3331309999999
 20
188.982695
 30
0.0
 11
613.3331309999999
 21
188.52332
 31
0.0
  0
ARC
  5
1F5
330
6B
100
AcDbEntity
  8
0
100
AcDbCircle
 10
614.313131
 20
186.9920699999999
 30
0.0
 40
0.5512500000000001
100
AcDbArc
 50
90.0
 51
180.0
  0
ARC
  5
1F6
330
6B
100
AcDbEntity
  8
0
100
AcDbCircle
 10
614.313131
 20
188.52332
 30
0.0
 40
0.5512500000000001
100
AcDbArc
 50
180.0
 51
270.0
  0
ARC
  5
1F7
330
6B
100
AcDbEntity
  8
0
100
AcDbCircle
 10
612.7818809999999
 20
188.52332
 30
0.0
 40
0.5512500000000001
100
AcDbArc
 50
270.0
 51
0.0
  0
ARC
  5
1F8
330
6B
100
AcDbEntity
  8
0
100
AcDbCircle
 10
612.7818809999999
 20
186.9920699999999
 30
0.0
 40
0.5512500000000001
100
AcDbArc
 50
0.0
 51
90.0
  0
CIRCLE
  5
1F9
330
6B
100
AcDbEntity
  8
0
100
AcDbCircle
 10
613.547506
 20
227.570195
 30
0.0
 40
2.143749999999998
  0
LINE
  5
1FA
330
6B
100
AcDbEntity
  8
0
100
AcDbLine
 10
612.322506
 20
227.35582
 30
0.0
 11
612.322506
 21
227.78457
 31
0.0
  0
LINE
  5
1FB
330
6B
100
AcDbEntity
  8
0
100
AcDbLine
 10
612.322506
 20
227.78457
 30
0.0
 11
612.7818809999999
 21
227.78457
 31
0.0
  0
LINE
  5
1FC
330
6B
100
AcDbEntity
  8
0
100
AcDbLine
 10
612.322506
 20
227.35582
 30
0.0
 11
612.7818809999999
 21
227.35582
 31
0.0
  0
LINE
  5
1FD
330
6B
100
AcDbEntity
  8
0
100
AcDbLine
 10
613.7618809999999
 20
226.345195
 30
0.0
 11
613.3331309999999
 21
226.345195
 31
0.0
  0
LINE
  5
1FE
330
6B
100
AcDbEntity
  8
0
100
AcDbLine
 10
613.3331309999999
 20
226.345195
 30
0.0
 11
613.3331309999999
 21
226.80457
 31
0.0
  0
LINE
  5
1FF
330
6B
100
AcDbEntity
  8
0
100
AcDbLine
 10
613.7618809999999
 20
226.345195
 30
0.0
 11
613.7618809999999
 21
226.80457
 31
0.0
  0
LINE
  5
200
330
6B
100
AcDbEntity
  8
0
100
AcDbLine
 10
614.7725059999998
 20
227.78457
 30
0.0
 11
614.7725059999998
 21
227.35582
 31
0.0
  0
LINE
  5
201
330
6B
100
AcDbEntity
  8
0
100
AcDbLine
 10
614.7725059999998
 20
227.35582
 30
0.0
 11
614.313131
 21
227.35582
 31
0.0
  0
LINE
  5
202
330
6B
100
AcDbEntity
  8
0
100
AcDbLine
 10
614.7725059999998
 20
227.78457
 30
0.0
 11
614.313131
 21
227.78457
 31
0.0
  0
LINE
  5
203
330
6B
100
AcDbEntity
  8
0
100
AcDbLine
 10
613.3331309999999
 20
228.795195
 30
0.0
 11
613.7618809999999
 21
228.795195
 31
0.0
  0
LINE
  5
204
330
6B
100
AcDbEntity
  8
0
100
AcDbLine
 10
613.7618809999999
 20
228.795195
 30
0.0
 11
613.7618809999999
 21
228.33582
 31
0.0
  0
LINE
  5
205
330
6B
100
AcDbEntity
  8
0
100
AcDbLine
 10
613.3331309999999
 20
228.795195
 30
0.0
 11
613.3331309999999
 21
228.33582
 31
0.0
  0
ARC
  5
206
330
6B
100
AcDbEntity
  8
0
100
AcDbCircle
 10
614.313131
 20
226.80457
 30
0.0
 40
0.5512500000000001
100
AcDbArc
 50
90.0
 51
180.0
  0
ARC
  5
207
330
6B
100
AcDbEntity
  8
0
100
AcDbCircle
 10
614.313131
 20
228.33582
 30
0.0
 40
0.5512500000000001
100
AcDbArc
 50
180.0
 51
270.0
  0
ARC
  5
208
330
6B
100
AcDbEntity
  8
0
100
AcDbCircle
 10
612.7818809999999
 20
228.33582
 30
0.0
 40
0.5512500000000001
100
AcDbArc
 50
270.0
 51
0.0
  0
ARC
  5
209
330
6B
100
AcDbEntity
  8
0
100
AcDbCircle
 10
612.7818809999999
 20
226.80457
 30
0.0
 40
0.5512500000000001
100
AcDbArc
 50
0.0
 51
90.0
  0
CIRCLE
  5
20A
330
6B
100
AcDbEntity
  8
0
100
AcDbCircle
 10
613.547506
 20
181.755195
 30
0.0
 40
2.143749999999998
  0
LINE
  5
20B
330
6B
100
AcDbEntity
  8
0
100
AcDbLine
 10
612.322506
 20
181.54082
 30
0.0
 11
612.322506
 21
181.96957
 31
0.0
  0
LINE
  5
20C
330
6B
100
AcDbEntity
  8
0
100
AcDbLine
 10
612.322506
 20
181.96957
 30
0.0
 11
612.7818809999999
 21
181.96957
 31
0.0
  0
LINE
  5
20D
330
6B
100
AcDbEntity
  8
0
100
AcDbLine
 10
612.322506
 20
181.54082
 30
0.0
 11
612.7818809999999
 21
181.54082
 31
0.0
  0
LINE
  5
20E
330
6B
100
AcDbEntity
  8
0
100
AcDbLine
 10
613.7618809999999
 20
180.530195
 30
0.0
 11
613.3331309999999
 21
180.530195
 31
0.0
  0
LINE
  5
20F
330
6B
100
AcDbEntity
  8
0
100
AcDbLine
 10
613.3331309999999
 20
180.530195
 30
0.0
 11
613.3331309999999
 21
180.98957
 31
0.0
  0
LINE
  5
210
330
6B
100
AcDbEntity
  8
0
100
AcDbLine
 10
613.7618809999999
 20
180.530195
 30
0.0
 11
613.7618809999999
 21
180.98957
 31
0.0
  0
LINE
  5
211
330
6B
100
AcDbEntity
  8
0
100
AcDbLine
 10
614.7725059999998
 20
181.96957
 30
0.0
 11
614.7725059999998
 21
181.54082
 31
0.0
  0
LINE
  5
212
330
6B
100
AcDbEntity
  8
0
100
AcDbLine
 10
614.7725059999998
 20
181.54082
 30
0.0
 11
614.313131
 21
181.54082
 31
0.0
  0
LINE
  5
213
330
6B
100
AcDbEntity
  8
0
100
AcDbLine
 10
614.7725059999998
 20
181.96957
 30
0.0
 11
614.313131
 21
181.96957
 31
0.0
  0
LINE
  5
214
330
6B
100
AcDbEntity
  8
0
100
AcDbLine
 10
613.3331309999999
 20
182.980195
 30
0.0
 11
613.7618809999999
 21
182.980195
 31
0.0
  0
LINE
  5
215
330
6B
100
AcDbEntity
  8
0
100
AcDbLine
 10
613.7618809999999
 20
182.980195
 30
0.0
 11
613.7618809999999
 21
182.52082
 31
0.0
  0
LINE
  5
216
330
6B
100
AcDbEntity
  8
0
100
AcDbLine
 10
613.3331309999999
 20
182.980195
 30
0.0
 11
613.3331309999999
 21
182.52082
 31
0.0
  0
ARC
  5
217
330
6B
100
AcDbEntity
  8
0
100
AcDbCircle
 10
614.313131
 20
180.98957
 30
0.0
 40
0.5512500000000001
100
AcDbArc
 50
90.0
 51
180.0
  0
ARC
  5
218
330
6B
100
AcDbEntity
  8
0
100
AcDbCircle
 10
614.313131
 20
182.52082
 30
0.0
 40
0.5512500000000001
100
AcDbArc
 50
180.0
 51
270.0
  0
ARC
  5
219
330
6B
100
AcDbEntity
  8
0
100
AcDbCircle
 10
612.7818809999999
 20
182.52082
 30
0.0
 40
0.5512500000000001
100
AcDbArc
 50
270.0
 51
0.0
  0
ARC
  5
21A
330
6B
100
AcDbEntity
  8
0
100
AcDbCircle
 10
612.7818809999999
 20
180.98957
 30
0.0
 40
0.5512500000000001
100
AcDbArc
 50
0.0
 51
90.0
  0
CIRCLE
  5
21B
330
6B
100
AcDbEntity
  8
0
100
AcDbCircle
 10
613.547506
 20
181.755195
 30
0.0
 40
2.143749999999998
  0
LINE
  5
21C
330
6B
100
AcDbEntity
  8
0
100
AcDbLine
 10
612.322506
 20
181.54082
 30
0.0
 11
612.322506
 21
181.96957
 31
0.0
  0
LINE
  5
21D
330
6B
100
AcDbEntity
  8
0
100
AcDbLine
 10
612.322506
 20
181.96957
 30
0.0
 11
612.7818809999999
 21
181.96957
 31
0.0
  0
LINE
  5
21E
330
6B
100
AcDbEntity
  8
0
100
AcDbLine
 10
612.322506
 20
181.54082
 30
0.0
 11
612.7818809999999
 21
181.54082
 31
0.0
  0
LINE
  5
21F
330
6B
100
AcDbEntity
  8
0
100
AcDbLine
 10
613.7618809999999
 20
180.530195
 30
0.0
 11
613.3331309999999
 21
180.530195
 31
0.0
  0
LINE
  5
220
330
6B
100
AcDbEntity
  8
0
100
AcDbLine
 10
613.3331309999999
 20
180.530195
 30
0.0
 11
613.3331309999999
 21
180.98957
 31
0.0
  0
LINE
  5
221
330
6B
100
AcDbEntity
  8
0
100
AcDbLine
 10
613.7618809999999
 20
180.530195
 30
0.0
 11
613.7618809999999
 21
180.98957
 31
0.0
  0
LINE
  5
222
330
6B
100
AcDbEntity
  8
0
100
AcDbLine
 10
614.7725059999998
 20
181.96957
 30
0.0
 11
614.7725059999998
 21
181.54082
 31
0.0
  0
LINE
  5
223
330
6B
100
AcDbEntity
  8
0
100
AcDbLine
 10
614.7725059999998
 20
181.54082
 30
0.0
 11
614.313131
 21
181.54082
 31
0.0
  0
LINE
  5
224
330
6B
100
AcDbEntity
  8
0
100
AcDbLine
 10
614.7725059999998
 20
181.96957
 30
0.0
 11
614.313131
 21
181.96957
 31
0.0
  0
LINE
  5
225
330
6B
100
AcDbEntity
  8
0
100
AcDbLine
 10
613.3331309999999
 20
182.980195
 30
0.0
 11
613.7618809999999
 21
182.980195
 31
0.0
  0
LINE
  5
226
330
6B
100
AcDbEntity
  8
0
100
AcDbLine
 10
613.7618809999999
 20
182.980195
 30
0.0
 11
613.7618809999999
 21
182.52082
 31
0.0
  0
LINE
  5
227
330
6B
100
AcDbEntity
  8
0
100
AcDbLine
 10
613.3331309999999
 20
182.980195
 30
0.0
 11
613.3331309999999
 21
182.52082
 31
0.0
  0
ARC
  5
228
330
6B
100
AcDbEntity
  8
0
100
AcDbCircle
 10
614.313131
 20
180.98957
 30
0.0
 40
0.5512500000000001
100
AcDbArc
 50
90.0
 51
180.0
  0
ARC
  5
229
330
6B
100
AcDbEntity
  8
0
100
AcDbCircle
 10
614.313131
 20
182.52082
 30
0.0
 40
0.5512500000000001
100
AcDbArc
 50
180.0
 51
270.0
  0
ARC
  5
22A
330
6B
100
AcDbEntity
  8
0
100
AcDbCircle
 10
612.7818809999999
 20
182.52082
 30
0.0
 40
0.5512500000000001
100
AcDbArc
 50
270.0
 51
0.0
  0
ARC
  5
22B
330
6B
100
AcDbEntity
  8
0
100
AcDbCircle
 10
612.7818809999999
 20
180.98957
 30
0.0
 40
0.5512500000000001
100
AcDbArc
 50
0.0
 51
90.0
  0
LINE
  5
22C
330
6B
100
AcDbEntity
  8
0
100
AcDbLine
 10
609.3237059999998
 20
215.383895
 30
0.0
 11
609.3237059999998
 21
233.758895
 31
0.0
  0
LINE
  5
22D
330
6B
100
AcDbEntity
  8
0
100
AcDbLine
 10
610.485006
 20
215.383895
 30
0.0
 11
609.3237059999998
 21
215.383895
 31
0.0
  0
LINE
  5
22E
330
6B
100
AcDbEntity
  8
0
100
AcDbLine
 10
609.3237059999998
 20
233.758895
 30
0.0
 11
610.485006
 21
233.758895
 31
0.0
  0
LINE
  5
22F
330
6B
100
AcDbEntity
  8
0
100
AcDbLine
 10
609.3237059999998
 20
218.446395
 30
0.0
 11
606.261206
 21
219.977645
 31
0.0
  0
ARC
  5
230
330
6B
100
AcDbEntity
  8
0
100
AcDbCircle
 10
561.2730809999998
 20
240.87982
 30
0.0
 40
49.606375
100
AcDbArc
 50
335.08
 51
345.612
  0
LINE
  5
231
330
6B
100
AcDbEntity
  8
0
100
AcDbLine
 10
608.7112059999997
 20
226.408895
 30
0.0
 11
608.4049559999997
 21
226.715145
 31
0.0
  0
LINE
  5
232
330
6B
100
AcDbEntity
  8
0
100
AcDbLine
 10
608.4049559999997
 20
226.715145
 30
0.0
 11
609.0174559999998
 21
228.858895
 31
0.0
  0
LINE
  5
233
330
6B
100
AcDbEntity
  8
0
100
AcDbLine
 10
609.0174559999998
 20
228.858895
 30
0.0
 11
609.3237059999998
 21
228.858895
 31
0.0
  0
LINE
  5
234
330
6B
100
AcDbEntity
  8
0
100
AcDbLine
 10
608.6475059999997
 20
193.941495
 30
0.0
 11
610.4837809999998
 21
193.941495
 31
0.0
  0
ARC
  5
235
330
6B
100
AcDbEntity
  8
0
100
AcDbCircle
 10
608.6475059999997
 20
193.328995
 30
0.0
 40
0.6125
100
AcDbArc
 50
90.0
 51
180.0
  0
LINE
  5
236
330
6B
100
AcDbEntity
  8
0
100
AcDbLine
 10
608.6475059999997
 20
181.698845
 30
0.0
 11
610.4960309999999
 21
181.698845
 31
0.0
  0
LINE
  5
237
330
6B
100
AcDbEntity
  8
0
100
AcDbLine
 10
608.0350059999997
 20
182.311345
 30
0.0
 11
608.0350059999997
 21
193.328995
 31
0.0
  0
ARC
  5
238
330
6B
100
AcDbEntity
  8
0
100
AcDbCircle
 10
608.6475059999997
 20
182.311345
 30
0.0
 40
0.6125
100
AcDbArc
 50
180.0
 51
270.0
  0
LINE
  5
239
330
6B
100
AcDbEntity
  8
0
100
AcDbLine
 10
609.3237059999998
 20
196.090145
 30
0.0
 11
608.4049559999997
 21
195.171395
 31
0.0
  0
LINE
  5
23A
330
6B
100
AcDbEntity
  8
0
100
AcDbLine
 10
609.3237059999998
 20
196.090145
 30
0.0
 11
610.5487059999997
 21
196.090145
 31
0.0
  0
LINE
  5
23B
330
6B
100
AcDbEntity
  8
0
100
AcDbLine
 10
609.3237059999998
 20
179.552645
 30
0.0
 11
608.4049559999997
 21
180.471395
 31
0.0
  0
LINE
  5
23C
330
6B
100
AcDbEntity
  8
0
100
AcDbLine
 10
609.3237059999998
 20
179.552645
 30
0.0
 11
610.5487059999997
 21
179.552645
 31
0.0
  0
LINE
  5
23D
330
6B
100
AcDbEntity
  8
0
100
AcDbLine
 10
608.4049559999997
 20
181.74907
 30
0.0
 11
608.4049559999997
 21
180.471395
 31
0.0
  0
LINE
  5
23E
330
6B
100
AcDbEntity
  8
0
100
AcDbLine
 10
608.4049559999997
 20
195.171395
 30
0.0
 11
608.4049559999997
 21
193.880245
 31
0.0
  0
LINE
  5
23F
330
6B
100
AcDbEntity
  8
0
100
AcDbLine
 10
624.8787559999997
 20
164.605195
 30
0.0
 11
627.6350059999997
 21
166.442695
 31
0.0
  0
LINE
  5
240
330
6B
100
AcDbEntity
  8
0
100
AcDbLine
 10
617.8350059999997
 20
166.442695
 30
0.0
 11
620.5912559999998
 21
164.605195
 31
0.0
  0
LINE
  5
241
330
6B
100
AcDbEntity
  8
0
100
AcDbLine
 10
620.5912559999998
 20
164.605195
 30
0.0
 11
624.8787559999997
 21
164.605195
 31
0.0
  0
LINE
  5
242
330
6B
100
AcDbEntity
  8
0
100
AcDbLine
 10
722.1350059999998
 20
166.442695
 30
0.0
 11
719.3787559999996
 21
164.605195
 31
0.0
  0
LINE
  5
243
330
6B
100
AcDbEntity
  8
0
100
AcDbLine
 10
719.3787559999996
 20
164.605195
 30
0.0
 11
715.0912559999997
 21
164.605195
 31
0.0
  0
LINE
  5
244
330
6B
100
AcDbEntity
  8
0
100
AcDbLine
 10
715.0912559999997
 20
164.605195
 30
0.0
 11
712.3350059999997
 21
166.442695
 31
0.0
  0
LINE
  5
245
330
6B
100
AcDbEntity
  8
0
100
AcDbLine
 10
563.9962559999998
 20
164.543945
 30
0.0
 11
566.7525059999998
 21
166.381445
 31
0.0
  0
LINE
  5
246
330
6B
100
AcDbEntity
  8
0
100
AcDbLine
 10
559.708756
 20
164.543945
 30
0.0
 11
563.9962559999998
 21
164.543945
 31
0.0
  0
LINE
  5
247
330
6B
100
AcDbEntity
  8
0
100
AcDbLine
 10
556.952506
 20
166.381445
 30
0.0
 11
559.708756
 21
164.543945
 31
0.0
  0
LINE
  5
248
330
6B
100
AcDbEntity
  8
0
100
AcDbLine
 10
542.2574059999998
 20
166.381445
 30
0.0
 11
539.5011559999998
 21
164.543945
 31
0.0
  0
LINE
  5
249
330
6B
100
AcDbEntity
  8
0
100
AcDbLine
 10
539.5011559999998
 20
164.543945
 30
0.0
 11
535.2136559999999
 21
164.543945
 31
0.0
  0
LINE
  5
24A
330
6B
100
AcDbEntity
  8
0
100
AcDbLine
 10
535.2136559999999
 20
164.543945
 30
0.0
 11
532.4574059999998
 21
166.381445
 31
0.0
  0
LINE
  5
24B
330
6B
100
AcDbEntity
  8
0
100
AcDbLine
 10
774.2675059999997
 20
166.381445
 30
0.0
 11
771.511256
 21
164.543945
 31
0.0
  0
LINE
  5
24C
330
6B
100
AcDbEntity
  8
0
100
AcDbLine
 10
771.511256
 20
164.543945
 30
0.0
 11
767.223756
 21
164.543945
 31
0.0
  0
LINE
  5
24D
330
6B
100
AcDbEntity
  8
0
100
AcDbLine
 10
767.223756
 20
164.543945
 30
0.0
 11
764.4675059999997
 21
166.381445
 31
0.0
  0
LINE
  5
24E
330
6B
100
AcDbEntity
  8
0
100
AcDbLine
 10
788.961381
 20
166.381445
 30
0.0
 11
791.717631
 21
164.543945
 31
0.0
  0
LINE
  5
24F
330
6B
100
AcDbEntity
  8
0
100
AcDbLine
 10
791.717631
 20
164.543945
 30
0.0
 11
796.0051309999997
 21
164.543945
 31
0.0
  0
LINE
  5
250
330
6B
100
AcDbEntity
  8
0
100
AcDbLine
 10
796.0051309999997
 20
164.543945
 30
0.0
 11
798.7613809999997
 21
166.381445
 31
0.0
  0
LINE
  5
251
330
6B
100
AcDbEntity
  8
0
100
AcDbLine
 10
797.9051059999997
 20
177.102645
 30
0.0
 11
796.3138309999997
 21
178.021395
 31
0.0
  0
LINE
  5
252
330
6B
100
AcDbEntity
  8
0
100
AcDbLine
 10
796.3138309999997
 20
178.021395
 30
0.0
 11
794.7225559999997
 21
177.102645
 31
0.0
  0
LINE
  5
253
330
6B
100
AcDbEntity
  8
0
100
AcDbLine
 10
794.7225559999997
 20
177.102645
 30
0.0
 11
794.7225559999997
 21
175.265145
 31
0.0
  0
LINE
  5
254
330
6B
100
AcDbEntity
  8
0
100
AcDbLine
 10
794.7225559999997
 20
175.265145
 30
0.0
 11
796.3138309999997
 21
174.346395
 31
0.0
  0
LINE
  5
255
330
6B
100
AcDbEntity
  8
0
100
AcDbLine
 10
796.3138309999997
 20
174.346395
 30
0.0
 11
797.9051059999997
 21
175.265145
 31
0.0
  0
LINE
  5
256
330
6B
100
AcDbEntity
  8
0
100
AcDbLine
 10
797.9051059999997
 20
175.265145
 30
0.0
 11
797.9051059999997
 21
177.102645
 31
0.0
  0
CIRCLE
  5
257
330
6B
100
AcDbEntity
  8
0
100
AcDbCircle
 10
796.3138309999997
 20
176.183895
 30
0.0
 40
0.91875
  0
LINE
  5
258
330
6B
100
AcDbEntity
  8
0
100
AcDbLine
 10
792.9450809999997
 20
179.858895
 30
0.0
 11
799.6825809999997
 21
179.858895
 31
0.0
  0
LINE
  5
259
330
6B
100
AcDbEntity
  8
0
100
AcDbLine
 10
799.6825809999997
 20
179.858895
 30
0.0
 11
799.6825809999997
 21
184.1463949999999
 31
0.0
  0
LINE
  5
25A
330
6B
100
AcDbEntity
  8
0
100
AcDbLine
 10
799.6825809999997
 20
184.1463949999999
 30
0.0
 11
792.9450809999997
 21
184.1463949999999
 31
0.0
  0
LINE
  5
25B
330
6B
100
AcDbEntity
  8
0
100
AcDbLine
 10
792.9450809999997
 20
184.1463949999999
 30
0.0
 11
792.9450809999997
 21
179.858895
 31
0.0
  0
LINE
  5
25C
330
6B
100
AcDbEntity
  8
0
100
AcDbLine
 10
796.3138309999997
 20
183.533895
 30
0.0
 11
796.3138309999997
 21
182.002645
 31
0.0
  0
LINE
  5
25D
330
6B
100
AcDbEntity
  8
0
100
AcDbLine
 10
794.4763309999999
 20
182.002645
 30
0.0
 11
798.1513309999996
 21
182.002645
 31
0.0
  0
LINE
  5
25E
330
6B
100
AcDbEntity
  8
0
100
AcDbLine
 10
795.0888309999997
 20
181.390145
 30
0.0
 11
797.5388309999997
 21
181.390145
 31
0.0
  0
LINE
  5
25F
330
6B
100
AcDbEntity
  8
0
100
AcDbLine
 10
795.7013309999996
 20
180.777645
 30
0.0
 11
796.926331
 21
180.777645
 31
0.0
  0
LINE
  5
260
330
6B
100
AcDbEntity
  8
0
100
AcDbLine
 10
763.238831
 20
200.683895
 30
0.0
 11
799.988831
 21
200.683895
 31
0.0
  0
ARC
  5
261
330
6B
100
AcDbEntity
  8
0
100
AcDbCircle
 10
796.926331
 20
203.746395
 30
0.0
 40
1.8375
100
AcDbArc
 50
270.0
 51
0.0
  0
LINE
  5
262
330
6B
100
AcDbEntity
  8
0
100
AcDbLine
 10
796.926331
 20
201.908895
 30
0.0
 11
766.301331
 21
201.908895
 31
0.0
  0
ARC
  5
263
330
6B
100
AcDbEntity
  8
0
100
AcDbCircle
 10
766.301331
 20
203.746395
 30
0.0
 40
1.8375
100
AcDbArc
 50
180.0
 51
270.0
  0
TEXT
  5
264
330
6B
100
AcDbEntity
  8
0
100
AcDbText
 10
771.2013309999997
 20
202.950145
 30
0.0
 40
2.45
  1
スワロ－電機株式会社
 41
0.6970000000000001
100
AcDbText
  0
LINE
  5
265
330
6B
100
AcDbEntity
  8
0
100
AcDbLine
 10
799.988831
 20
237.433895
 30
0.0
 11
763.238831
 21
237.433895
 31
0.0
  0
ARC
  5
266
330
6B
100
AcDbEntity
  8
0
100
AcDbCircle
 10
766.301331
 20
234.371395
 30
0.0
 40
1.8375
100
AcDbArc
 50
90.0
 51
180.0
  0
LINE
  5
267
330
6B
100
AcDbEntity
  8
0
100
AcDbLine
 10
766.301331
 20
236.208895
 30
0.0
 11
796.926331
 21
236.208895
 31
0.0
  0
LINE
  5
268
330
6B
100
AcDbEntity
  8
0
100
AcDbLine
 10
763.238831
 20
237.433895
 30
0.0
 11
763.238831
 21
200.683895
 31
0.0
  0
LINE
  5
269
330
6B
100
AcDbEntity
  8
0
100
AcDbLine
 10
764.4638309999996
 20
203.746395
 30
0.0
 11
764.4638309999996
 21
234.371395
 31
0.0
  0
ARC
  5
26A
330
6B
100
AcDbEntity
  8
0
100
AcDbCircle
 10
796.926331
 20
234.371395
 30
0.0
 40
1.8375
100
AcDbArc
 50
0.0
 51
90.0
  0
LINE
  5
26B
330
6B
100
AcDbEntity
  8
0
100
AcDbLine
 10
799.988831
 20
200.683895
 30
0.0
 11
799.988831
 21
237.433895
 31
0.0
  0
LINE
  5
26C
330
6B
100
AcDbEntity
  8
0
100
AcDbLine
 10
798.763831
 20
234.371395
 30
0.0
 11
798.763831
 21
203.746395
 31
0.0
  0
TEXT
  5
26D
330
6B
100
AcDbEntity
  8
0
100
AcDbText
 10
772.7191089392586
 20
227.77463584518
 30
0.0
 40
2.511249999999999
  1
!
 41
3.600004
100
AcDbText
  0
TEXT
  5
26E
330
6B
100
AcDbEntity
  8
0
100
AcDbText
 10
766.913831
 20
215.200145
 30
0.0
 40
1.8375
  1
　て下さい。
 41
0.596
100
AcDbText
  0
TEXT
  5
26F
330
6B
100
AcDbEntity
  8
0
100
AcDbText
 10
766.913831
 20
213.362645
 30
0.0
 40
1.8375
  1
●ブレ－カ－がＯＦＦになった場合は、原因を取り
 41
0.596
100
AcDbText
  0
TEXT
  5
270
330
6B
100
AcDbEntity
  8
0
100
AcDbText
 10
766.913831
 20
211.525145
 30
0.0
 40
1.8375
  1
　除いてから、ブレ－カ－を復帰させて下さい。
 41
0.596
100
AcDbText
  0
TEXT
  5
271
330
6B
100
AcDbEntity
  8
0
100
AcDbText
 10
766.913831
 20
224.387645
 30
0.0
 40
1.8375
  1
●入力電圧がＡＣ２２０Ｖ～２３０Ｖであることを
 41
0.596
100
AcDbText
  0
TEXT
  5
272
330
6B
100
AcDbEntity
  8
0
100
AcDbText
 10
766.913831
 20
222.550145
 30
0.0
 40
1.8375
  1
　必ず確認して下さい。
 41
0.596
100
AcDbText
  0
TEXT
  5
273
330
6B
100
AcDbEntity
  8
0
100
AcDbText
 10
766.913831
 20
220.712645
 30
0.0
 40
1.8375
  1
●前面パネルに表示されている容量以下でご使用
 41
0.596
100
AcDbText
  0
TEXT
  5
274
330
6B
100
AcDbEntity
  8
0
100
AcDbText
 10
766.913831
 20
218.875145
 30
0.0
 40
1.8375
  1
　下さい。
 41
0.596
100
AcDbText
  0
TEXT
  5
275
330
6B
100
AcDbEntity
  8
0
100
AcDbText
 10
766.913831
 20
217.037645
 30
0.0
 40
1.8375
  1
●使用後は電源スイッチを切り電源コ－ドを抜い
 41
0.596
100
AcDbText
  0
LINE
  5
276
330
6B
100
AcDbEntity
  8
0
100
AcDbLine
 10
770.2825809999997
 20
227.327645
 30
0.0
 11
775.1825809999997
 21
227.327645
 31
0.0
  0
LINE
  5
277
330
6B
100
AcDbEntity
  8
0
100
AcDbLine
 10
772.7325809999999
 20
231.308895
 30
0.0
 11
775.1825809999997
 21
227.327645
 31
0.0
  0
LINE
  5
278
330
6B
100
AcDbEntity
  8
0
100
AcDbLine
 10
772.7325809999999
 20
231.308895
 30
0.0
 11
770.2825809999997
 21
227.327645
 31
0.0
  0
ARC
  5
279
330
6B
100
AcDbEntity
  8
0
100
AcDbCircle
 10
801.826331
 20
240.243345
 30
0.0
 40
3.674999999999998
100
AcDbArc
 50
0.0
 51
90.0
  0
LINE
  5
27A
330
6B
100
AcDbEntity
  8
0
100
AcDbLine
 10
761.4013309999997
 20
243.918345
 30
0.0
 11
801.826331
 21
243.918345
 31
0.0
  0
ARC
  5
27B
330
6B
100
AcDbEntity
  8
0
100
AcDbCircle
 10
761.4013309999997
 20
240.243345
 30
0.0
 40
3.674999999999998
100
AcDbArc
 50
90.0
 51
180.0
  0
LINE
  5
27C
330
6B
100
AcDbEntity
  8
0
100
AcDbLine
 10
757.7263309999997
 20
170.671395
 30
0.0
 11
757.7263309999997
 21
240.243345
 31
0.0
  0
ARC
  5
27D
330
6B
100
AcDbEntity
  8
0
100
AcDbCircle
 10
761.4013309999997
 20
170.671395
 30
0.0
 40
3.674999999999998
100
AcDbArc
 50
180.0
 51
270.0
  0
LINE
  5
27E
330
6B
100
AcDbEntity
  8
0
100
AcDbLine
 10
801.826331
 20
166.996395
 30
0.0
 11
761.4013309999997
 21
166.996395
 31
0.0
  0
ARC
  5
27F
330
6B
100
AcDbEntity
  8
0
100
AcDbCircle
 10
801.826331
 20
170.671395
 30
0.0
 40
3.674999999999998
100
AcDbArc
 50
270.0
 51
0.0
  0
LINE
  5
280
330
6B
100
AcDbEntity
  8
0
100
AcDbLine
 10
805.5013309999997
 20
240.243345
 30
0.0
 11
805.5013309999997
 21
170.671395
 31
0.0
  0
LINE
  5
281
330
6B
100
AcDbEntity
  8
0
100
AcDbLine
 10
731.9350059999996
 20
173.56117
 30
0.0
 11
731.9350059999996
 21
180.23742
 31
0.0
  0
LINE
  5
282
330
6B
100
AcDbEntity
  8
0
100
AcDbLine
 10
731.9350059999996
 20
173.56117
 30
0.0
 11
729.4850059999999
 21
173.56117
 31
0.0
  0
LINE
  5
283
330
6B
100
AcDbEntity
  8
0
100
AcDbLine
 10
731.9350059999996
 20
180.23742
 30
0.0
 11
729.4850059999999
 21
180.23742
 31
0.0
  0
LINE
  5
284
330
6B
100
AcDbEntity
  8
0
100
AcDbLine
 10
706.1904059999997
 20
248.44227
 30
0.0
 11
706.1904059999997
 21
249.05477
 31
0.0
  0
LINE
  5
285
330
6B
100
AcDbEntity
  8
0
100
AcDbLine
 10
706.1904059999997
 20
249.05477
 30
0.0
 11
708.6404059999996
 21
247.52352
 31
0.0
  0
LINE
  5
286
330
6B
100
AcDbEntity
  8
0
100
AcDbLine
 10
708.6404059999996
 20
246.91102
 30
0.0
 11
706.1904059999997
 21
248.44227
 31
0.0
  0
LINE
  5
287
330
6B
100
AcDbEntity
  8
0
100
AcDbLine
 10
706.1904059999997
 20
248.44227
 30
0.0
 11
706.1904059999997
 21
249.05477
 31
0.0
  0
LINE
  5
288
330
6B
100
AcDbEntity
  8
0
100
AcDbLine
 10
706.1904059999997
 20
249.05477
 30
0.0
 11
708.6404059999996
 21
247.52352
 31
0.0
  0
LINE
  5
289
330
6B
100
AcDbEntity
  8
0
100
AcDbLine
 10
708.6404059999996
 20
246.91102
 30
0.0
 11
706.1904059999997
 21
248.44227
 31
0.0
  0
LINE
  5
28A
330
6B
100
AcDbEntity
  8
0
100
AcDbLine
 10
633.7404059999999
 20
248.44227
 30
0.0
 11
633.7404059999999
 21
249.05477
 31
0.0
  0
LINE
  5
28B
330
6B
100
AcDbEntity
  8
0
100
AcDbLine
 10
633.7404059999999
 20
249.05477
 30
0.0
 11
631.290406
 21
247.52352
 31
0.0
  0
LINE
  5
28C
330
6B
100
AcDbEntity
  8
0
100
AcDbLine
 10
631.290406
 20
246.91102
 30
0.0
 11
633.7404059999999
 21
248.44227
 31
0.0
  0
LINE
  5
28D
330
6B
100
AcDbEntity
  8
0
100
AcDbLine
 10
633.7404059999999
 20
248.44227
 30
0.0
 11
633.7404059999999
 21
249.05477
 31
0.0
  0
LINE
  5
28E
330
6B
100
AcDbEntity
  8
0
100
AcDbLine
 10
633.7404059999999
 20
249.05477
 30
0.0
 11
631.290406
 21
247.52352
 31
0.0
  0
LINE
  5
28F
330
6B
100
AcDbEntity
  8
0
100
AcDbLine
 10
631.290406
 20
246.91102
 30
0.0
 11
633.7404059999999
 21
248.44227
 31
0.0
  0
CIRCLE
  5
2AA
330
6B
100
AcDbEntity
  8
0
100
AcDbCircle
 10
561.8549559999999
 20
187.821395
 30
0.0
 40
6.125
  0
LINE
  5
2AB
330
6B
100
AcDbEntity
  8
0
100
AcDbLine
 10
529.0862059999998
 20
180.165145
 30
0.0
 11
529.0862059999998
 21
195.477645
 31
0.0
  0
ARC
  5
2AC
330
6B
100
AcDbEntity
  8
0
100
AcDbCircle
 10
529.698706
 20
180.165145
 30
0.0
 40
0.6125
100
AcDbArc
 50
180.0
 51
270.0
  0
LINE
  5
2AD
330
6B
100
AcDbEntity
  8
0
100
AcDbLine
 10
545.6237059999998
 20
195.477645
 30
0.0
 11
545.6237059999998
 21
180.165145
 31
0.0
  0
LINE
  5
2AE
330
6B
100
AcDbEntity
  8
0
100
AcDbLine
 10
545.011206
 20
179.552645
 30
0.0
 11
529.698706
 21
179.552645
 31
0.0
  0
ARC
  5
2AF
330
6B
100
AcDbEntity
  8
0
100
AcDbCircle
 10
545.011206
 20
180.165145
 30
0.0
 40
0.6125
100
AcDbArc
 50
270.0
 51
0.0
  0
ARC
  5
2B0
330
6B
100
AcDbEntity
  8
0
100
AcDbCircle
 10
545.011206
 20
195.477645
 30
0.0
 40
0.6125
100
AcDbArc
 50
0.0
 51
90.0
  0
LINE
  5
2B1
330
6B
100
AcDbEntity
  8
0
100
AcDbLine
 10
529.698706
 20
196.090145
 30
0.0
 11
545.011206
 21
196.090145
 31
0.0
  0
ARC
  5
2B2
330
6B
100
AcDbEntity
  8
0
100
AcDbCircle
 10
529.698706
 20
195.477645
 30
0.0
 40
0.6125
100
AcDbArc
 50
90.0
 51
180.0
  0
ARC
  5
2B3
330
6B
100
AcDbEntity
  8
0
100
AcDbCircle
 10
537.3549559999998
 20
183.840145
 30
0.0
 40
2.143749999999998
100
AcDbArc
 50
0.0
 51
180.0
  0
LINE
  5
2B4
330
6B
100
AcDbEntity
  8
0
100
AcDbLine
 10
539.498706
 20
181.696395
 30
0.0
 11
539.498706
 21
183.840145
 31
0.0
  0
LINE
  5
2B5
330
6B
100
AcDbEntity
  8
0
100
AcDbLine
 10
535.2112059999998
 20
181.696395
 30
0.0
 11
539.498706
 21
181.696395
 31
0.0
  0
LINE
  5
2B6
330
6B
100
AcDbEntity
  8
0
100
AcDbLine
 10
535.2112059999998
 20
183.840145
 30
0.0
 11
535.2112059999998
 21
181.696395
 31
0.0
  0
LINE
  5
2B7
330
6B
100
AcDbEntity
  8
0
100
AcDbLine
 10
532.4549559999998
 20
193.946395
 30
0.0
 11
534.5987059999998
 21
193.946395
 31
0.0
  0
LINE
  5
2B8
330
6B
100
AcDbEntity
  8
0
100
AcDbLine
 10
532.4549559999998
 20
187.821395
 30
0.0
 11
532.4549559999998
 21
193.946395
 31
0.0
  0
LINE
  5
2B9
330
6B
100
AcDbEntity
  8
0
100
AcDbLine
 10
534.5987059999998
 20
187.821395
 30
0.0
 11
532.4549559999998
 21
187.821395
 31
0.0
  0
LINE
  5
2BA
330
6B
100
AcDbEntity
  8
0
100
AcDbLine
 10
534.5987059999998
 20
187.821395
 30
0.0
 11
534.5987059999998
 21
193.946395
 31
0.0
  0
LINE
  5
2BB
330
6B
100
AcDbEntity
  8
0
100
AcDbLine
 10
540.1112059999998
 20
193.640145
 30
0.0
 11
542.254956
 21
193.640145
 31
0.0
  0
LINE
  5
2BC
330
6B
100
AcDbEntity
  8
0
100
AcDbLine
 10
540.1112059999998
 20
193.640145
 30
0.0
 11
540.1112059999998
 21
188.127645
 31
0.0
  0
LINE
  5
2BD
330
6B
100
AcDbEntity
  8
0
100
AcDbLine
 10
542.254956
 20
193.640145
 30
0.0
 11
542.254956
 21
188.127645
 31
0.0
  0
LINE
  5
2BE
330
6B
100
AcDbEntity
  8
0
100
AcDbLine
 10
540.1112059999998
 20
188.127645
 30
0.0
 11
542.254956
 21
188.127645
 31
0.0
  0
ARC
  5
2BF
330
6B
100
AcDbEntity
  8
0
100
AcDbCircle
 10
534.5747519999998
 20
238.093834
 30
0.0
 40
0.942722
100
AcDbArc
 50
0.350156
 51
38.942337
  0
ARC
  5
2C0
330
6B
100
AcDbEntity
  8
0
100
AcDbCircle
 10
533.9155509999998
 20
237.616796
 30
0.0
 40
1.755804999999999
100
AcDbArc
 50
37.529117
 51
63.09109799999998
  0
ARC
  5
2C1
330
6B
100
AcDbEntity
  8
0
100
AcDbCircle
 10
533.116341
 20
236.259545
 30
0.0
 40
3.329258999999998
100
AcDbArc
 50
61.39703899999999
 51
77.86979800000001
  0
ARC
  5
2C2
330
6B
100
AcDbEntity
  8
0
100
AcDbCircle
 10
532.7798109999998
 20
234.961701
 30
0.0
 40
4.669182
100
AcDbArc
 50
77.178976
 51
90.22829299999999
  0
ARC
  5
2C3
330
6B
100
AcDbEntity
  8
0
100
AcDbCircle
 10
532.7612209999998
 20
234.792956
 30
0.0
 40
4.837889999999998
100
AcDbArc
 50
90.00017300000001
 51
102.592558
  0
ARC
  5
2C4
330
6B
100
AcDbEntity
  8
0
100
AcDbCircle
 10
532.492509
 20
236.026708
 30
0.0
 40
3.575237999999998
100
AcDbArc
 50
102.700404
 51
118.032758
  0
ARC
  5
2C5
330
6B
100
AcDbEntity
  8
0
100
AcDbCircle
 10
531.7538929999998
 20
237.439632
 30
0.0
 40
1.980984
100
AcDbArc
 50
118.382174
 51
140.99761
  0
ARC
  5
2C6
330
6B
100
AcDbEntity
  8
0
100
AcDbCircle
 10
531.021018
 20
238.067646
 30
0.0
 40
1.016564
100
AcDbArc
 50
142.50855
 51
178.198958
  0
ARC
  5
2C7
330
6B
100
AcDbEntity
  8
0
100
AcDbCircle
 10
530.945911
 20
238.105969
 30
0.0
 40
0.940976
100
AcDbArc
 50
180.388101
 51
218.980282
  0
ARC
  5
2C8
330
6B
100
AcDbEntity
  8
0
100
AcDbCircle
 10
531.6095619999998
 20
238.583007
 30
0.0
 40
1.757574
100
AcDbArc
 50
217.459663
 51
243.021644
  0
ARC
  5
2C9
330
6B
100
AcDbEntity
  8
0
100
AcDbCircle
 10
532.4018399999999
 20
239.940259
 30
0.0
 40
3.327773999999998
100
AcDbArc
 50
241.466051
 51
257.93881
  0
ARC
  5
2CA
330
6B
100
AcDbEntity
  8
0
100
AcDbCircle
 10
532.747958
 20
241.238102
 30
0.0
 40
4.669776
100
AcDbArc
 50
257.113239
 51
270.162557
  0
ARC
  5
2CB
330
6B
100
AcDbEntity
  8
0
100
AcDbCircle
 10
532.75564
 20
241.406847
 30
0.0
 40
4.838505
100
AcDbArc
 50
270.06591
 51
282.658294
  0
ARC
  5
2CC
330
6B
100
AcDbEntity
  8
0
100
AcDbCircle
 10
533.0344549999998
 20
240.173095
 30
0.0
 40
3.573643
100
AcDbArc
 50
282.631393
 51
297.963747
  0
ARC
  5
2CD
330
6B
100
AcDbEntity
  8
0
100
AcDbCircle
 10
533.7654559999998
 20
238.760171
 30
0.0
 40
1.982981
100
AcDbArc
 50
298.451628
 51
321.067064
  0
ARC
  5
2CE
330
6B
100
AcDbEntity
  8
0
100
AcDbCircle
 10
534.503297
 20
238.132157
 30
0.0
 40
1.014681999999997
100
AcDbArc
 50
322.470604
 51
358.161013
  0
TEXT
  5
2CF
330
6B
100
AcDbEntity
  8
0
100
AcDbText
 10
528.7799559999998
 20
220.283895
 30
0.0
 40
1.8375
  1
STEP DOWN TRANSFORMER
 41
0.640848
100
AcDbText
  0
LINE
  5
2D0
330
6B
100
AcDbEntity
  8
0
100
AcDbLine
 10
525.717456
 20
170.671395
 30
0.0
 11
525.717456
 21
240.243345
 31
0.0
  0
ARC
  5
2D1
330
6B
100
AcDbEntity
  8
0
100
AcDbCircle
 10
529.3924559999998
 20
240.243345
 30
0.0
 40
3.674999999999998
100
AcDbArc
 50
90.0
 51
180.0
  0
ARC
  5
2D2
330
6B
100
AcDbEntity
  8
0
100
AcDbCircle
 10
569.8174559999999
 20
240.243345
 30
0.0
 40
3.674999999999998
100
AcDbArc
 50
0.0
 51
90.0
  0
LINE
  5
2D3
330
6B
100
AcDbEntity
  8
0
100
AcDbLine
 10
573.4924559999996
 20
240.243345
 30
0.0
 11
573.4924559999996
 21
170.671395
 31
0.0
  0
LINE
  5
2D4
330
6B
100
AcDbEntity
  8
0
100
AcDbLine
 10
566.4487059999999
 20
233.146395
 30
0.0
 11
566.4487059999999
 21
215.996395
 31
0.0
  0
ARC
  5
2D5
330
6B
100
AcDbEntity
  8
0
100
AcDbCircle
 10
565.8362059999997
 20
233.146395
 30
0.0
 40
0.6125
100
AcDbArc
 50
0.0
 51
90.0
  0
LINE
  5
2D6
330
6B
100
AcDbEntity
  8
0
100
AcDbLine
 10
557.8737059999999
 20
233.758895
 30
0.0
 11
565.8362059999997
 21
233.758895
 31
0.0
  0
ARC
  5
2D7
330
6B
100
AcDbEntity
  8
0
100
AcDbCircle
 10
557.8737059999999
 20
233.146395
 30
0.0
 40
0.6125
100
AcDbArc
 50
90.0
 51
180.0
  0
LINE
  5
2D8
330
6B
100
AcDbEntity
  8
0
100
AcDbLine
 10
557.2612059999999
 20
233.146395
 30
0.0
 11
557.2612059999999
 21
215.996395
 31
0.0
  0
ARC
  5
2D9
330
6B
100
AcDbEntity
  8
0
100
AcDbCircle
 10
557.8737059999999
 20
215.996395
 30
0.0
 40
0.6125
100
AcDbArc
 50
180.0
 51
270.0
  0
LINE
  5
2DA
330
6B
100
AcDbEntity
  8
0
100
AcDbLine
 10
557.8737059999999
 20
215.383895
 30
0.0
 11
565.8362059999997
 21
215.383895
 31
0.0
  0
ARC
  5
2DB
330
6B
100
AcDbEntity
  8
0
100
AcDbCircle
 10
565.8362059999997
 20
215.996395
 30
0.0
 40
0.6125
100
AcDbArc
 50
270.0
 51
0.0
  0
LINE
  5
2DC
330
6B
100
AcDbEntity
  8
0
100
AcDbLine
 10
558.792456
 20
220.896395
 30
0.0
 11
564.917456
 21
220.896395
 31
0.0
  0
CIRCLE
  5
2DD
330
6B
100
AcDbEntity
  8
0
100
AcDbCircle
 10
561.8549559999999
 20
222.733895
 30
0.0
 40
1.225
  0
LINE
  5
2DE
330
6B
100
AcDbEntity
  8
0
100
AcDbLine
 10
559.404956
 20
226.408895
 30
0.0
 11
564.3049559999997
 21
226.408895
 31
0.0
  0
LINE
  5
2DF
330
6B
100
AcDbEntity
  8
0
100
AcDbLine
 10
564.3049559999997
 20
226.408895
 30
0.0
 11
564.3049559999997
 21
230.083895
 31
0.0
  0
LINE
  5
2E0
330
6B
100
AcDbEntity
  8
0
100
AcDbLine
 10
564.3049559999997
 20
230.083895
 30
0.0
 11
559.404956
 21
230.083895
 31
0.0
  0
LINE
  5
2E1
330
6B
100
AcDbEntity
  8
0
100
AcDbLine
 10
559.404956
 20
230.083895
 30
0.0
 11
559.404956
 21
226.408895
 31
0.0
  0
LINE
  5
2E2
330
6B
100
AcDbEntity
  8
0
100
AcDbLine
 10
529.3924559999998
 20
243.918345
 30
0.0
 11
569.8174559999999
 21
243.918345
 31
0.0
  0
ARC
  5
2E3
330
6B
100
AcDbEntity
  8
0
100
AcDbCircle
 10
554.5049559999998
 20
246.980845
 30
0.0
 40
0.6125
100
AcDbArc
 50
0.0
 51
90.0
  0
LINE
  5
2E4
330
6B
100
AcDbEntity
  8
0
100
AcDbLine
 10
544.7049559999998
 20
247.593345
 30
0.0
 11
554.5049559999998
 21
247.593345
 31
0.0
  0
ARC
  5
2E5
330
6B
100
AcDbEntity
  8
0
100
AcDbCircle
 10
549.604956
 20
245.552495
 30
0.0
 40
2.960824999999998
100
AcDbArc
 50
43.603
 51
136.397
  0
ARC
  5
2E6
330
6B
100
AcDbEntity
  8
0
100
AcDbCircle
 10
544.7049559999998
 20
246.980845
 30
0.0
 40
0.6125
100
AcDbArc
 50
90.0
 51
180.0
  0
ARC
  5
2E7
330
6B
100
AcDbEntity
  8
0
100
AcDbCircle
 10
569.8174559999999
 20
170.671395
 30
0.0
 40
3.674999999999998
100
AcDbArc
 50
270.0
 51
0.0
  0
LINE
  5
2E8
330
6B
100
AcDbEntity
  8
0
100
AcDbLine
 10
569.8174559999999
 20
166.996395
 30
0.0
 11
529.3924559999998
 21
166.996395
 31
0.0
  0
ARC
  5
2E9
330
6B
100
AcDbEntity
  8
0
100
AcDbCircle
 10
529.3924559999998
 20
170.671395
 30
0.0
 40
3.674999999999998
100
AcDbArc
 50
180.0
 51
270.0
  0
ARC
  5
2EA
330
6B
100
AcDbEntity
  8
0
 62
     3
100
AcDbCircle
 10
734.5600059999997
 20
168.061795
 30
0.0
 40
7.0
100
AcDbArc
 50
0.0
 51
90.0
  0
ARC
  5
2EB
330
6B
100
AcDbEntity
  8
0
 62
     3
100
AcDbCircle
 10
734.735006
 20
168.236795
 30
0.0
 40
10.5
100
AcDbArc
 50
0.0
 51
90.0
  0
CIRCLE
  5
2EC
330
6B
100
AcDbEntity
  8
0
100
AcDbCircle
 10
633.7600059999997
 20
221.200195
 30
0.0
 40
0.91875
  0
CIRCLE
  5
2ED
330
6B
100
AcDbEntity
  8
0
100
AcDbCircle
 10
631.9225059999999
 20
219.668945
 30
0.0
 40
0.91875
  0
CIRCLE
  5
2EE
330
6B
100
AcDbEntity
  8
0
100
AcDbCircle
 10
635.5975059999997
 20
219.668945
 30
0.0
 40
0.91875
  0
CIRCLE
  5
2EF
330
6B
100
AcDbEntity
  8
0
100
AcDbCircle
 10
639.2725059999998
 20
219.668945
 30
0.0
 40
0.91875
  0
CIRCLE
  5
2F0
330
6B
100
AcDbEntity
  8
0
100
AcDbCircle
 10
642.9475059999997
 20
219.668945
 30
0.0
 40
0.91875
  0
CIRCLE
  5
2F1
330
6B
100
AcDbEntity
  8
0
100
AcDbCircle
 10
646.6225059999998
 20
219.668945
 30
0.0
 40
0.91875
  0
CIRCLE
  5
2F2
330
6B
100
AcDbEntity
  8
0
100
AcDbCircle
 10
650.2975059999998
 20
219.668945
 30
0.0
 40
0.91875
  0
CIRCLE
  5
2F3
330
6B
100
AcDbEntity
  8
0
100
AcDbCircle
 10
653.9725059999997
 20
219.668945
 30
0.0
 40
0.91875
  0
CIRCLE
  5
2F4
330
6B
100
AcDbEntity
  8
0
100
AcDbCircle
 10
657.6475059999998
 20
219.668945
 30
0.0
 40
0.91875
  0
CIRCLE
  5
2F5
330
6B
100
AcDbEntity
  8
0
100
AcDbCircle
 10
661.3225059999997
 20
219.668945
 30
0.0
 40
0.91875
  0
CIRCLE
  5
2F6
330
6B
100
AcDbEntity
  8
0
100
AcDbCircle
 10
664.9975059999998
 20
219.668945
 30
0.0
 40
0.91875
  0
CIRCLE
  5
2F7
330
6B
100
AcDbEntity
  8
0
100
AcDbCircle
 10
668.672506
 20
219.668945
 30
0.0
 40
0.91875
  0
CIRCLE
  5
2F8
330
6B
100
AcDbEntity
  8
0
100
AcDbCircle
 10
637.4350059999998
 20
221.200195
 30
0.0
 40
0.91875
  0
CIRCLE
  5
2F9
330
6B
100
AcDbEntity
  8
0
100
AcDbCircle
 10
641.1100059999998
 20
221.200195
 30
0.0
 40
0.91875
  0
CIRCLE
  5
2FA
330
6B
100
AcDbEntity
  8
0
100
AcDbCircle
 10
644.7850059999997
 20
221.200195
 30
0.0
 40
0.91875
  0
CIRCLE
  5
2FB
330
6B
100
AcDbEntity
  8
0
100
AcDbCircle
 10
648.4600059999998
 20
221.200195
 30
0.0
 40
0.91875
  0
CIRCLE
  5
2FC
330
6B
100
AcDbEntity
  8
0
100
AcDbCircle
 10
652.1350059999997
 20
221.200195
 30
0.0
 40
0.91875
  0
CIRCLE
  5
2FD
330
6B
100
AcDbEntity
  8
0
100
AcDbCircle
 10
655.8100059999998
 20
221.200195
 30
0.0
 40
0.91875
  0
CIRCLE
  5
2FE
330
6B
100
AcDbEntity
  8
0
100
AcDbCircle
 10
659.4850059999997
 20
221.200195
 30
0.0
 40
0.91875
  0
CIRCLE
  5
2FF
330
6B
100
AcDbEntity
  8
0
100
AcDbCircle
 10
663.1600059999997
 20
221.200195
 30
0.0
 40
0.91875
  0
CIRCLE
  5
300
330
6B
100
AcDbEntity
  8
0
100
AcDbCircle
 10
666.8350059999998
 20
221.200195
 30
0.0
 40
0.91875
  0
CIRCLE
  5
301
330
6B
100
AcDbEntity
  8
0
100
AcDbCircle
 10
633.7600059999997
 20
224.262695
 30
0.0
 40
0.91875
  0
CIRCLE
  5
302
330
6B
100
AcDbEntity
  8
0
100
AcDbCircle
 10
631.9225059999999
 20
222.731445
 30
0.0
 40
0.91875
  0
CIRCLE
  5
303
330
6B
100
AcDbEntity
  8
0
100
AcDbCircle
 10
635.5975059999997
 20
222.731445
 30
0.0
 40
0.91875
  0
CIRCLE
  5
304
330
6B
100
AcDbEntity
  8
0
100
AcDbCircle
 10
639.2725059999998
 20
222.731445
 30
0.0
 40
0.91875
  0
CIRCLE
  5
305
330
6B
100
AcDbEntity
  8
0
100
AcDbCircle
 10
642.9475059999997
 20
222.731445
 30
0.0
 40
0.91875
  0
CIRCLE
  5
306
330
6B
100
AcDbEntity
  8
0
100
AcDbCircle
 10
646.6225059999998
 20
222.731445
 30
0.0
 40
0.91875
  0
CIRCLE
  5
307
330
6B
100
AcDbEntity
  8
0
100
AcDbCircle
 10
650.2975059999998
 20
222.731445
 30
0.0
 40
0.91875
  0
CIRCLE
  5
308
330
6B
100
AcDbEntity
  8
0
100
AcDbCircle
 10
653.9725059999997
 20
222.731445
 30
0.0
 40
0.91875
  0
CIRCLE
  5
309
330
6B
100
AcDbEntity
  8
0
100
AcDbCircle
 10
657.6475059999998
 20
222.731445
 30
0.0
 40
0.91875
  0
CIRCLE
  5
30A
330
6B
100
AcDbEntity
  8
0
100
AcDbCircle
 10
661.3225059999997
 20
222.731445
 30
0.0
 40
0.91875
  0
CIRCLE
  5
30B
330
6B
100
AcDbEntity
  8
0
100
AcDbCircle
 10
664.9975059999998
 20
222.731445
 30
0.0
 40
0.91875
  0
CIRCLE
  5
30C
330
6B
100
AcDbEntity
  8
0
100
AcDbCircle
 10
668.672506
 20
222.731445
 30
0.0
 40
0.91875
  0
CIRCLE
  5
30D
330
6B
100
AcDbEntity
  8
0
100
AcDbCircle
 10
637.4350059999998
 20
224.262695
 30
0.0
 40
0.91875
  0
CIRCLE
  5
30E
330
6B
100
AcDbEntity
  8
0
100
AcDbCircle
 10
641.1100059999998
 20
224.262695
 30
0.0
 40
0.91875
  0
CIRCLE
  5
30F
330
6B
100
AcDbEntity
  8
0
100
AcDbCircle
 10
644.7850059999997
 20
224.262695
 30
0.0
 40
0.91875
  0
CIRCLE
  5
310
330
6B
100
AcDbEntity
  8
0
100
AcDbCircle
 10
648.4600059999998
 20
224.262695
 30
0.0
 40
0.91875
  0
CIRCLE
  5
311
330
6B
100
AcDbEntity
  8
0
100
AcDbCircle
 10
652.1350059999997
 20
224.262695
 30
0.0
 40
0.91875
  0
CIRCLE
  5
312
330
6B
100
AcDbEntity
  8
0
100
AcDbCircle
 10
655.8100059999998
 20
224.262695
 30
0.0
 40
0.91875
  0
CIRCLE
  5
313
330
6B
100
AcDbEntity
  8
0
100
AcDbCircle
 10
659.4850059999997
 20
224.262695
 30
0.0
 40
0.91875
  0
CIRCLE
  5
314
330
6B
100
AcDbEntity
  8
0
100
AcDbCircle
 10
663.1600059999997
 20
224.262695
 30
0.0
 40
0.91875
  0
CIRCLE
  5
315
330
6B
100
AcDbEntity
  8
0
100
AcDbCircle
 10
666.8350059999998
 20
224.262695
 30
0.0
 40
0.91875
  0
CIRCLE
  5
316
330
6B
100
AcDbEntity
  8
0
100
AcDbCircle
 10
633.7600059999997
 20
227.325195
 30
0.0
 40
0.91875
  0
CIRCLE
  5
317
330
6B
100
AcDbEntity
  8
0
100
AcDbCircle
 10
631.9225059999999
 20
225.793945
 30
0.0
 40
0.91875
  0
CIRCLE
  5
318
330
6B
100
AcDbEntity
  8
0
100
AcDbCircle
 10
635.5975059999997
 20
225.793945
 30
0.0
 40
0.91875
  0
CIRCLE
  5
319
330
6B
100
AcDbEntity
  8
0
100
AcDbCircle
 10
639.2725059999998
 20
225.793945
 30
0.0
 40
0.91875
  0
CIRCLE
  5
31A
330
6B
100
AcDbEntity
  8
0
100
AcDbCircle
 10
642.9475059999997
 20
225.793945
 30
0.0
 40
0.91875
  0
CIRCLE
  5
31B
330
6B
100
AcDbEntity
  8
0
100
AcDbCircle
 10
646.6225059999998
 20
225.793945
 30
0.0
 40
0.91875
  0
CIRCLE
  5
31C
330
6B
100
AcDbEntity
  8
0
100
AcDbCircle
 10
650.2975059999998
 20
225.793945
 30
0.0
 40
0.91875
  0
CIRCLE
  5
31D
330
6B
100
AcDbEntity
  8
0
100
AcDbCircle
 10
653.9725059999997
 20
225.793945
 30
0.0
 40
0.91875
  0
CIRCLE
  5
31E
330
6B
100
AcDbEntity
  8
0
100
AcDbCircle
 10
657.6475059999998
 20
225.793945
 30
0.0
 40
0.91875
  0
CIRCLE
  5
31F
330
6B
100
AcDbEntity
  8
0
100
AcDbCircle
 10
661.3225059999997
 20
225.793945
 30
0.0
 40
0.91875
  0
CIRCLE
  5
320
330
6B
100
AcDbEntity
  8
0
100
AcDbCircle
 10
664.9975059999998
 20
225.793945
 30
0.0
 40
0.91875
  0
CIRCLE
  5
321
330
6B
100
AcDbEntity
  8
0
100
AcDbCircle
 10
668.672506
 20
225.793945
 30
0.0
 40
0.91875
  0
CIRCLE
  5
322
330
6B
100
AcDbEntity
  8
0
100
AcDbCircle
 10
637.4350059999998
 20
227.325195
 30
0.0
 40
0.91875
  0
CIRCLE
  5
323
330
6B
100
AcDbEntity
  8
0
100
AcDbCircle
 10
641.1100059999998
 20
227.325195
 30
0.0
 40
0.91875
  0
CIRCLE
  5
324
330
6B
100
AcDbEntity
  8
0
100
AcDbCircle
 10
644.7850059999997
 20
227.325195
 30
0.0
 40
0.91875
  0
CIRCLE
  5
325
330
6B
100
AcDbEntity
  8
0
100
AcDbCircle
 10
648.4600059999998
 20
227.325195
 30
0.0
 40
0.91875
  0
CIRCLE
  5
326
330
6B
100
AcDbEntity
  8
0
100
AcDbCircle
 10
652.1350059999997
 20
227.325195
 30
0.0
 40
0.91875
  0
CIRCLE
  5
327
330
6B
100
AcDbEntity
  8
0
100
AcDbCircle
 10
655.8100059999998
 20
227.325195
 30
0.0
 40
0.91875
  0
CIRCLE
  5
328
330
6B
100
AcDbEntity
  8
0
100
AcDbCircle
 10
659.4850059999997
 20
227.325195
 30
0.0
 40
0.91875
  0
CIRCLE
  5
329
330
6B
100
AcDbEntity
  8
0
100
AcDbCircle
 10
663.1600059999997
 20
227.325195
 30
0.0
 40
0.91875
  0
CIRCLE
  5
32A
330
6B
100
AcDbEntity
  8
0
100
AcDbCircle
 10
666.8350059999998
 20
227.325195
 30
0.0
 40
0.91875
  0
CIRCLE
  5
32B
330
6B
100
AcDbEntity
  8
0
100
AcDbCircle
 10
633.7600059999997
 20
230.387695
 30
0.0
 40
0.91875
  0
CIRCLE
  5
32C
330
6B
100
AcDbEntity
  8
0
100
AcDbCircle
 10
631.9225059999999
 20
228.856445
 30
0.0
 40
0.91875
  0
CIRCLE
  5
32D
330
6B
100
AcDbEntity
  8
0
100
AcDbCircle
 10
635.5975059999997
 20
228.856445
 30
0.0
 40
0.91875
  0
CIRCLE
  5
32E
330
6B
100
AcDbEntity
  8
0
100
AcDbCircle
 10
639.2725059999998
 20
228.856445
 30
0.0
 40
0.91875
  0
CIRCLE
  5
32F
330
6B
100
AcDbEntity
  8
0
100
AcDbCircle
 10
642.9475059999997
 20
228.856445
 30
0.0
 40
0.91875
  0
CIRCLE
  5
330
330
6B
100
AcDbEntity
  8
0
100
AcDbCircle
 10
646.6225059999998
 20
228.856445
 30
0.0
 40
0.91875
  0
CIRCLE
  5
331
330
6B
100
AcDbEntity
  8
0
100
AcDbCircle
 10
650.2975059999998
 20
228.856445
 30
0.0
 40
0.91875
  0
CIRCLE
  5
332
330
6B
100
AcDbEntity
  8
0
100
AcDbCircle
 10
653.9725059999997
 20
228.856445
 30
0.0
 40
0.91875
  0
CIRCLE
  5
333
330
6B
100
AcDbEntity
  8
0
100
AcDbCircle
 10
657.6475059999998
 20
228.856445
 30
0.0
 40
0.91875
  0
CIRCLE
  5
334
330
6B
100
AcDbEntity
  8
0
100
AcDbCircle
 10
661.3225059999997
 20
228.856445
 30
0.0
 40
0.91875
  0
CIRCLE
  5
335
330
6B
100
AcDbEntity
  8
0
100
AcDbCircle
 10
664.9975059999998
 20
228.856445
 30
0.0
 40
0.91875
  0
CIRCLE
  5
336
330
6B
100
AcDbEntity
  8
0
100
AcDbCircle
 10
668.672506
 20
228.856445
 30
0.0
 40
0.91875
  0
CIRCLE
  5
337
330
6B
100
AcDbEntity
  8
0
100
AcDbCircle
 10
637.4350059999998
 20
230.387695
 30
0.0
 40
0.91875
  0
CIRCLE
  5
338
330
6B
100
AcDbEntity
  8
0
100
AcDbCircle
 10
641.1100059999998
 20
230.387695
 30
0.0
 40
0.91875
  0
CIRCLE
  5
339
330
6B
100
AcDbEntity
  8
0
100
AcDbCircle
 10
644.7850059999997
 20
230.387695
 30
0.0
 40
0.91875
  0
CIRCLE
  5
33A
330
6B
100
AcDbEntity
  8
0
100
AcDbCircle
 10
648.4600059999998
 20
230.387695
 30
0.0
 40
0.91875
  0
CIRCLE
  5
33B
330
6B
100
AcDbEntity
  8
0
100
AcDbCircle
 10
652.1350059999997
 20
230.387695
 30
0.0
 40
0.91875
  0
CIRCLE
  5
33C
330
6B
100
AcDbEntity
  8
0
100
AcDbCircle
 10
655.8100059999998
 20
230.387695
 30
0.0
 40
0.91875
  0
CIRCLE
  5
33D
330
6B
100
AcDbEntity
  8
0
100
AcDbCircle
 10
659.4850059999997
 20
230.387695
 30
0.0
 40
0.91875
  0
CIRCLE
  5
33E
330
6B
100
AcDbEntity
  8
0
100
AcDbCircle
 10
663.1600059999997
 20
230.387695
 30
0.0
 40
0.91875
  0
CIRCLE
  5
33F
330
6B
100
AcDbEntity
  8
0
100
AcDbCircle
 10
666.8350059999998
 20
230.387695
 30
0.0
 40
0.91875
  0
CIRCLE
  5
340
330
6B
100
AcDbEntity
  8
0
100
AcDbCircle
 10
633.7600059999997
 20
233.450195
 30
0.0
 40
0.91875
  0
CIRCLE
  5
341
330
6B
100
AcDbEntity
  8
0
100
AcDbCircle
 10
631.9225059999999
 20
231.918945
 30
0.0
 40
0.91875
  0
CIRCLE
  5
342
330
6B
100
AcDbEntity
  8
0
100
AcDbCircle
 10
635.5975059999997
 20
231.918945
 30
0.0
 40
0.91875
  0
CIRCLE
  5
343
330
6B
100
AcDbEntity
  8
0
100
AcDbCircle
 10
639.2725059999998
 20
231.918945
 30
0.0
 40
0.91875
  0
CIRCLE
  5
344
330
6B
100
AcDbEntity
  8
0
100
AcDbCircle
 10
642.9475059999997
 20
231.918945
 30
0.0
 40
0.91875
  0
CIRCLE
  5
345
330
6B
100
AcDbEntity
  8
0
100
AcDbCircle
 10
646.6225059999998
 20
231.918945
 30
0.0
 40
0.91875
  0
CIRCLE
  5
346
330
6B
100
AcDbEntity
  8
0
100
AcDbCircle
 10
650.2975059999998
 20
231.918945
 30
0.0
 40
0.91875
  0
CIRCLE
  5
347
330
6B
100
AcDbEntity
  8
0
100
AcDbCircle
 10
653.9725059999997
 20
231.918945
 30
0.0
 40
0.91875
  0
CIRCLE
  5
348
330
6B
100
AcDbEntity
  8
0
100
AcDbCircle
 10
657.6475059999998
 20
231.918945
 30
0.0
 40
0.91875
  0
CIRCLE
  5
349
330
6B
100
AcDbEntity
  8
0
100
AcDbCircle
 10
661.3225059999997
 20
231.918945
 30
0.0
 40
0.91875
  0
CIRCLE
  5
34A
330
6B
100
AcDbEntity
  8
0
100
AcDbCircle
 10
664.9975059999998
 20
231.918945
 30
0.0
 40
0.91875
  0
CIRCLE
  5
34B
330
6B
100
AcDbEntity
  8
0
100
AcDbCircle
 10
668.672506
 20
231.918945
 30
0.0
 40
0.91875
  0
CIRCLE
  5
34C
330
6B
100
AcDbEntity
  8
0
100
AcDbCircle
 10
637.4350059999998
 20
233.450195
 30
0.0
 40
0.91875
  0
CIRCLE
  5
34D
330
6B
100
AcDbEntity
  8
0
100
AcDbCircle
 10
641.1100059999998
 20
233.450195
 30
0.0
 40
0.91875
  0
CIRCLE
  5
34E
330
6B
100
AcDbEntity
  8
0
100
AcDbCircle
 10
644.7850059999997
 20
233.450195
 30
0.0
 40
0.91875
  0
CIRCLE
  5
34F
330
6B
100
AcDbEntity
  8
0
100
AcDbCircle
 10
648.4600059999998
 20
233.450195
 30
0.0
 40
0.91875
  0
CIRCLE
  5
350
330
6B
100
AcDbEntity
  8
0
100
AcDbCircle
 10
652.1350059999997
 20
233.450195
 30
0.0
 40
0.91875
  0
CIRCLE
  5
351
330
6B
100
AcDbEntity
  8
0
100
AcDbCircle
 10
655.8100059999998
 20
233.450195
 30
0.0
 40
0.91875
  0
CIRCLE
  5
352
330
6B
100
AcDbEntity
  8
0
100
AcDbCircle
 10
659.4850059999997
 20
233.450195
 30
0.0
 40
0.91875
  0
CIRCLE
  5
353
330
6B
100
AcDbEntity
  8
0
100
AcDbCircle
 10
663.1600059999997
 20
233.450195
 30
0.0
 40
0.91875
  0
CIRCLE
  5
354
330
6B
100
AcDbEntity
  8
0
100
AcDbCircle
 10
666.8350059999998
 20
233.450195
 30
0.0
 40
0.91875
  0
CIRCLE
  5
355
330
6B
100
AcDbEntity
  8
0
100
AcDbCircle
 10
570.604956
 20
202.083523
 30
0.0
 40
0.7
  0
CIRCLE
  5
356
330
6B
100
AcDbEntity
  8
0
100
AcDbCircle
 10
570.604956
 20
204.183523
 30
0.0
 40
0.7
  0
CIRCLE
  5
357
330
6B
100
AcDbEntity
  8
0
100
AcDbCircle
 10
568.504956
 20
202.083523
 30
0.0
 40
0.7
  0
CIRCLE
  5
358
330
6B
100
AcDbEntity
  8
0
100
AcDbCircle
 10
568.504956
 20
204.183523
 30
0.0
 40
0.7
  0
CIRCLE
  5
359
330
6B
100
AcDbEntity
  8
0
100
AcDbCircle
 10
566.4049559999997
 20
202.083523
 30
0.0
 40
0.7
  0
CIRCLE
  5
35A
330
6B
100
AcDbEntity
  8
0
100
AcDbCircle
 10
566.4049559999997
 20
204.183523
 30
0.0
 40
0.7
  0
CIRCLE
  5
35B
330
6B
100
AcDbEntity
  8
0
100
AcDbCircle
 10
564.3049559999997
 20
202.083523
 30
0.0
 40
0.7
  0
CIRCLE
  5
35C
330
6B
100
AcDbEntity
  8
0
100
AcDbCircle
 10
564.3049559999997
 20
204.183523
 30
0.0
 40
0.7
  0
CIRCLE
  5
35D
330
6B
100
AcDbEntity
  8
0
100
AcDbCircle
 10
562.2049559999998
 20
202.083523
 30
0.0
 40
0.7
  0
CIRCLE
  5
35E
330
6B
100
AcDbEntity
  8
0
100
AcDbCircle
 10
562.2049559999998
 20
204.183523
 30
0.0
 40
0.7
  0
CIRCLE
  5
35F
330
6B
100
AcDbEntity
  8
0
100
AcDbCircle
 10
560.1049559999998
 20
202.083523
 30
0.0
 40
0.7
  0
CIRCLE
  5
360
330
6B
100
AcDbEntity
  8
0
100
AcDbCircle
 10
560.1049559999998
 20
204.183523
 30
0.0
 40
0.7
  0
CIRCLE
  5
361
330
6B
100
AcDbEntity
  8
0
100
AcDbCircle
 10
558.0049559999999
 20
202.083523
 30
0.0
 40
0.7
  0
CIRCLE
  5
362
330
6B
100
AcDbEntity
  8
0
100
AcDbCircle
 10
558.0049559999999
 20
204.183523
 30
0.0
 40
0.7
  0
CIRCLE
  5
363
330
6B
100
AcDbEntity
  8
0
100
AcDbCircle
 10
555.904956
 20
202.083523
 30
0.0
 40
0.7
  0
CIRCLE
  5
364
330
6B
100
AcDbEntity
  8
0
100
AcDbCircle
 10
555.904956
 20
204.183523
 30
0.0
 40
0.7
  0
CIRCLE
  5
365
330
6B
100
AcDbEntity
  8
0
100
AcDbCircle
 10
553.8049559999998
 20
202.083523
 30
0.0
 40
0.7
  0
CIRCLE
  5
366
330
6B
100
AcDbEntity
  8
0
100
AcDbCircle
 10
553.8049559999998
 20
204.183523
 30
0.0
 40
0.7
  0
CIRCLE
  5
367
330
6B
100
AcDbEntity
  8
0
100
AcDbCircle
 10
551.7049559999998
 20
202.083523
 30
0.0
 40
0.7
  0
CIRCLE
  5
368
330
6B
100
AcDbEntity
  8
0
100
AcDbCircle
 10
551.7049559999998
 20
204.183523
 30
0.0
 40
0.7
  0
CIRCLE
  5
369
330
6B
100
AcDbEntity
  8
0
100
AcDbCircle
 10
549.604956
 20
202.083523
 30
0.0
 40
0.7
  0
CIRCLE
  5
36A
330
6B
100
AcDbEntity
  8
0
100
AcDbCircle
 10
549.604956
 20
204.183523
 30
0.0
 40
0.7
  0
CIRCLE
  5
36B
330
6B
100
AcDbEntity
  8
0
100
AcDbCircle
 10
547.504956
 20
202.083523
 30
0.0
 40
0.7
  0
CIRCLE
  5
36C
330
6B
100
AcDbEntity
  8
0
100
AcDbCircle
 10
547.504956
 20
204.183523
 30
0.0
 40
0.7
  0
CIRCLE
  5
36D
330
6B
100
AcDbEntity
  8
0
100
AcDbCircle
 10
545.4049559999998
 20
202.083523
 30
0.0
 40
0.7
  0
CIRCLE
  5
36E
330
6B
100
AcDbEntity
  8
0
100
AcDbCircle
 10
545.4049559999998
 20
204.183523
 30
0.0
 40
0.7
  0
CIRCLE
  5
36F
330
6B
100
AcDbEntity
  8
0
100
AcDbCircle
 10
543.3049559999998
 20
202.083523
 30
0.0
 40
0.7
  0
CIRCLE
  5
370
330
6B
100
AcDbEntity
  8
0
100
AcDbCircle
 10
543.3049559999998
 20
204.183523
 30
0.0
 40
0.7
  0
CIRCLE
  5
371
330
6B
100
AcDbEntity
  8
0
100
AcDbCircle
 10
541.2049559999998
 20
202.083523
 30
0.0
 40
0.7
  0
CIRCLE
  5
372
330
6B
100
AcDbEntity
  8
0
100
AcDbCircle
 10
541.2049559999998
 20
204.183523
 30
0.0
 40
0.7
  0
CIRCLE
  5
373
330
6B
100
AcDbEntity
  8
0
100
AcDbCircle
 10
539.1049559999999
 20
202.083523
 30
0.0
 40
0.7
  0
CIRCLE
  5
374
330
6B
100
AcDbEntity
  8
0
100
AcDbCircle
 10
539.1049559999999
 20
204.183523
 30
0.0
 40
0.7
  0
CIRCLE
  5
375
330
6B
100
AcDbEntity
  8
0
100
AcDbCircle
 10
537.0049559999999
 20
202.083523
 30
0.0
 40
0.7
  0
CIRCLE
  5
376
330
6B
100
AcDbEntity
  8
0
100
AcDbCircle
 10
537.0049559999999
 20
204.183523
 30
0.0
 40
0.7
  0
CIRCLE
  5
377
330
6B
100
AcDbEntity
  8
0
100
AcDbCircle
 10
534.904956
 20
202.083523
 30
0.0
 40
0.7
  0
CIRCLE
  5
378
330
6B
100
AcDbEntity
  8
0
100
AcDbCircle
 10
534.904956
 20
204.183523
 30
0.0
 40
0.7
  0
CIRCLE
  5
379
330
6B
100
AcDbEntity
  8
0
100
AcDbCircle
 10
532.8049559999998
 20
202.083523
 30
0.0
 40
0.7
  0
CIRCLE
  5
37A
330
6B
100
AcDbEntity
  8
0
100
AcDbCircle
 10
532.8049559999998
 20
204.183523
 30
0.0
 40
0.7
  0
CIRCLE
  5
37B
330
6B
100
AcDbEntity
  8
0
100
AcDbCircle
 10
530.7049559999998
 20
202.083523
 30
0.0
 40
0.7
  0
CIRCLE
  5
37C
330
6B
100
AcDbEntity
  8
0
100
AcDbCircle
 10
530.7049559999998
 20
204.183523
 30
0.0
 40
0.7
  0
CIRCLE
  5
37D
330
6B
100
AcDbEntity
  8
0
100
AcDbCircle
 10
528.604956
 20
202.083523
 30
0.0
 40
0.7
  0
CIRCLE
  5
37E
330
6B
100
AcDbEntity
  8
0
100
AcDbCircle
 10
528.604956
 20
204.183523
 30
0.0
 40
0.7
  0
TEXT
  5
37F
330
6B
100
AcDbEntity
  8
0
 62
     3
100
AcDbText
 10
553.6621559999998
 20
209.871395
 30
0.0
 40
3.149999999999999
  1
２２０Ｖ～２３０Ｖ
 41
0.5185180000000002
100
AcDbText
  0
LINE
  5
380
330
6B
100
AcDbEntity
  8
0
100
AcDbLine
 10
569.292456
 20
168.956395
 30
0.0
 11
529.9174559999999
 21
168.956395
 31
0.0
  0
LINE
  5
381
330
6B
100
AcDbEntity
  8
0
100
AcDbLine
 10
569.292456
 20
173.856395
 30
0.0
 11
529.9174559999999
 21
173.856395
 31
0.0
  0
LINE
  5
382
330
6B
100
AcDbEntity
  8
0
100
AcDbLine
 10
569.292456
 20
173.856395
 30
0.0
 11
569.292456
 21
168.956395
 31
0.0
  0
LINE
  5
383
330
6B
100
AcDbEntity
  8
0
100
AcDbLine
 10
529.9174559999999
 20
168.956395
 30
0.0
 11
529.9174559999999
 21
173.856395
 31
0.0
  0
LINE
  5
384
330
6B
100
AcDbEntity
  8
0
100
AcDbLine
 10
740.0287559999997
 20
158.218045
 30
0.0
 11
746.7662559999999
 21
158.218045
 31
0.0
  0
LINE
  5
385
330
6B
100
AcDbEntity
  8
0
100
AcDbLine
 10
740.0287559999997
 20
160.668045
 30
0.0
 11
746.7662559999999
 21
160.668045
 31
0.0
  0
TEXT
  5
386
330
6B
100
AcDbEntity
  8
0
 62
     3
100
AcDbText
 10
767.7498579999999
 20
62.423785
 30
0.0
 40
4.5
  1
海外用トランス
  7
高4.5
100
AcDbText
  0
LINE
  5
389
330
6B
100
AcDbEntity
  8
0
 62
     3
100
AcDbLine
 10
835.560335
 20
46.579524
 30
0.0
 11
835.560335
 21
69.57952399999999
 31
0.0
  0
LINE
  5
38B
330
6B
100
AcDbEntity
  8
0
 62
     3
100
AcDbLine
 10
782.5067259999997
 20
39.579524
 30
0.0
 11
782.5067259999997
 21
53.579524
 31
0.0
  0
TEXT
  5
38D
330
6B
100
AcDbEntity
  8
0
 62
     3
100
AcDbText
 10
811.570653
 20
65.78464100000001
 30
0.0
 40
2.0
  1
A
 41
0.7
100
AcDbText
  0
TEXT
  5
38E
330
6B
100
AcDbEntity
  8
0
 62
     3
100
AcDbText
 10
814.1059389999997
 20
65.78464100000001
 30
0.0
 40
2.0
  1
P
 41
0.7
100
AcDbText
  0
TEXT
  5
38F
330
6B
100
AcDbEntity
  8
0
 62
     3
100
AcDbText
 10
816.641225
 20
65.78464100000001
 30
0.0
 40
2.0
  1
P
 41
0.7
100
AcDbText
  0
TEXT
  5
390
330
6B
100
AcDbEntity
  8
0
 62
     3
100
AcDbText
 10
819.1765119999999
 20
65.78464100000001
 30
0.0
 40
2.0
  1
D
 41
0.7
100
AcDbText
  0
TEXT
  5
391
330
6B
100
AcDbEntity
  8
0
 62
     3
100
AcDbText
 10
824.5451949999997
 20
65.78464100000001
 30
0.0
 40
2.0
  1
C
 41
0.7
100
AcDbText
  0
TEXT
  5
392
330
6B
100
AcDbEntity
  8
0
 62
     3
100
AcDbText
 10
827.0804809999997
 20
65.78464100000001
 30
0.0
 40
2.0
  1
H
 41
0.7
100
AcDbText
  0
TEXT
  5
393
330
6B
100
AcDbEntity
  8
0
 62
     3
100
AcDbText
 10
829.6157669999999
 20
65.78464100000001
 30
0.0
 40
2.0
  1
C
 41
0.7
100
AcDbText
  0
TEXT
  5
394
330
6B
100
AcDbEntity
  8
0
 62
     3
100
AcDbText
 10
832.1510530000001
 20
65.78464100000001
 30
0.0
 40
2.0
  1
K
 41
0.7
100
AcDbText
  0
TEXT
  5
395
330
6B
100
AcDbEntity
  8
0
 62
     3
100
AcDbText
 10
837.82502
 20
65.78464100000001
 30
0.0
 40
2.0
  1
DESN
 41
1.216762999999998
100
AcDbText
  0
TEXT
  5
396
330
6B
100
AcDbEntity
  8
0
 62
     3
100
AcDbText
 10
752.818661
 20
36.438143
 30
0.0
 40
2.0
  1
NICHIDO IND.CO.LTD
 41
1.274876
100
AcDbText
  0
LINE
  5
397
330
6B
100
AcDbEntity
  8
0
 62
     3
100
AcDbLine
 10
763.2016909999999
 20
69.57952399999999
 30
0.0
 11
763.2016909999999
 21
46.579524
 31
0.0
  0
LINE
  5
398
330
6B
100
AcDbEntity
  8
0
 62
     3
100
AcDbLine
 10
809.5603350000002
 20
69.57952399999999
 30
0.0
 11
809.5603350000001
 21
29.913802
 31
0.0
  0
LINE
  5
39D
330
6B
100
AcDbEntity
  8
0
 62
     3
100
AcDbLine
 10
822.560335
 20
69.57952399999999
 30
0.0
 11
822.560335
 21
39.579524
 31
0.0
  0
TEXT
  5
39E
330
6B
100
AcDbEntity
  8
0
 62
     3
100
AcDbText
 10
810.6727799999996
 20
40.444211
 30
0.0
 40
3.2
  1
作成日
 41
1.017225999999997
100
AcDbText
  0
LINE
  5
39F
330
6B
100
AcDbEntity
  8
0
 62
     3
100
AcDbLine
 10
861.2596980000002
 20
69.57952399999999
 30
0.0
 11
749.9562559999997
 21
69.57952399999999
 31
0.0
  0
LINE
  5
3A0
330
6B
100
AcDbEntity
  8
0
 62
     3
100
AcDbLine
 10
848.5603349999999
 20
46.579524
 30
0.0
 11
848.5603349999999
 21
69.57952399999999
 31
0.0
  0
TEXT
  5
3A1
330
6B
100
AcDbEntity
  8
0
 62
     3
100
AcDbText
 10
851.8841380000001
 20
65.87045899999999
 30
0.0
 40
1.8
  1
D
 41
0.666667
100
AcDbText
  0
TEXT
  5
3A2
330
6B
100
AcDbEntity
  8
0
 62
     3
100
AcDbText
 10
854.700766
 20
65.87045899999999
 30
0.0
 40
1.8
  1
E
 41
0.666667
100
AcDbText
  0
TEXT
  5
3A3
330
6B
100
AcDbEntity
  8
0
 62
     3
100
AcDbText
 10
857.5173949999998
 20
65.87045899999999
 30
0.0
 40
1.8
  1
F
 41
0.666667
100
AcDbText
  0
TEXT
  5
3A4
330
6B
100
AcDbEntity
  8
0
 62
     3
100
AcDbText
 10
851.8841380000001
 20
61.877906
 30
0.0
 40
3.2
  1
製図
 41
1.076369
100
AcDbText
  0
LINE
  5
3A5
330
6B
100
AcDbEntity
  8
0
 62
     3
100
AcDbLine
 10
749.9562559999997
 20
69.57952399999999
 30
0.0
 11
749.9562559999997
 21
29.913802
 31
0.0
  0
TEXT
  5
3A6
330
6B
100
AcDbEntity
  8
0
 62
     3
100
AcDbText
 10
751.332909
 20
30.246267
 30
0.0
 40
5.0
  1
日動工業株式会社
 41
0.833333
100
AcDbText
  0
LINE
  5
3A7
330
6B
100
AcDbEntity
  8
0
 62
     3
100
AcDbLine
 10
792.83866
 20
53.57952400000001
 30
0.0
 11
792.83866
 21
29.913802
 31
0.0
  0
LINE
  5
3A8
330
6B
100
AcDbEntity
  8
0
 62
     3
100
AcDbLine
 10
792.83866
 20
34.746663
 30
0.0
 11
809.5603350000001
 21
34.746663
 31
0.0
  0
TEXT
  5
3A9
330
6B
100
AcDbEntity
  8
0
 62
     3
100
AcDbText
 10
793.4252619999997
 20
35.563094
 30
0.0
 40
3.2
  1
出図コード
 41
0.8356860000000001
100
AcDbText
  0
LINE
  5
3BB
330
6B
100
AcDbEntity
  8
0
 62
     3
100
AcDbLine
 10
749.9562559999997
 20
39.579524
 30
0.0
 11
861.2596980000002
 21
39.579524
 31
0.0
  0
LINE
  5
3BD
330
6B
100
AcDbEntity
  8
0
 62
     3
100
AcDbLine
 10
749.9562559999997
 20
60.579524
 30
0.0
 11
861.2596980000002
 21
60.579524
 31
0.0
  0
LINE
  5
3C3
330
6B
100
AcDbEntity
  8
0
 62
     3
100
AcDbLine
 10
749.9562559999997
 20
53.57952400000001
 30
0.0
 11
809.5603350000001
 21
53.579524
 31
0.0
  0
LINE
  5
3C9
330
6B
100
AcDbEntity
  8
0
 62
     3
100
AcDbLine
 10
749.9562559999997
 20
46.579524
 30
0.0
 11
861.2596980000002
 21
46.579524
 31
0.0
  0
LINE
  5
3CD
330
6B
100
AcDbEntity
  8
0
 62
     3
100
AcDbLine
 10
861.2596980000002
 20
303.969163
 30
0.0
 11
861.2596980000002
 21
29.91380199999998
 31
0.0
  0
LINE
  5
3CE
330
6B
100
AcDbEntity
  8
0
 62
     3
100
AcDbLine
 10
471.259698
 20
303.969163
 30
0.0
 11
471.259698
 21
29.913802
 31
0.0
  0
LINE
  5
3CF
330
6B
100
AcDbEntity
  8
0
 62
     3
100
AcDbLine
 10
861.2596980000002
 20
29.913802
 30
0.0
 11
471.259698
 21
29.913802
 31
0.0
  0
TEXT
  5
3D2
330
6B
100
AcDbEntity
  8
0
 62
     3
100
AcDbText
 10
793.2927139999997
 20
30.35126385381386
 30
0.0
 40
3.2
  1
ZK-A3X
 41
0.8112849999999999
100
AcDbText
  0
TEXT
  5
3D3
330
6B
100
AcDbEntity
  8
0
 62
     3
100
AcDbText
 10
751.773653
 20
65.74905
 30
0.0
 40
2.0
  1
CONPONENTS
 41
0.5331600000000001
100
AcDbText
  0
TEXT
  5
3D4
330
6B
100
AcDbEntity
  8
0
 62
     3
100
AcDbText
 10
751.4239259999997
 20
46.816873
 30
0.0
 40
3.0
  1
材
 41
0.833333
100
AcDbText
  0
TEXT
  5
3D5
330
6B
100
AcDbEntity
  8
0
 62
     3
100
AcDbText
 10
758.959569
 20
46.816873
 30
0.0
 40
3.0
  1
質
 41
0.833333
100
AcDbText
  0
TEXT
  5
3D6
330
6B
100
AcDbEntity
  8
0
 62
     3
100
AcDbText
 10
751.5119969999997
 20
57.441398
 30
0.0
 40
2.0
  1
MODEL
 41
1.031072999999999
100
AcDbText
  0
TEXT
  5
3D7
330
6B
100
AcDbEntity
  8
0
 62
     3
100
AcDbText
 10
751.4239259999997
 20
50.499182
 30
0.0
 40
2.0
  1
MATERIAL
 41
0.659278
100
AcDbText
  0
TEXT
  5
3D8
330
6B
100
AcDbEntity
  8
0
 62
     3
100
AcDbText
 10
782.731207
 20
46.816873
 30
0.0
 40
3.0
  1
備
 41
0.833333
100
AcDbText
  0
TEXT
  5
3D9
330
6B
100
AcDbEntity
  8
0
 62
     3
100
AcDbText
 10
789.4642079999997
 20
46.816873
 30
0.0
 40
3.0
  1
考
 41
0.833333
100
AcDbText
  0
TEXT
  5
3DA
330
6B
100
AcDbEntity
  8
0
 62
     3
100
AcDbText
 10
783.1334318159156
 20
50.499182
 30
0.0
 40
2.0
  1
REMARKS
 41
0.675794
100
AcDbText
  0
TEXT
  5
3DB
330
6B
100
AcDbEntity
  8
0
 62
     3
100
AcDbText
 10
753.0136549999999
 20
43.579061
 30
0.0
 40
2.0
  1
3AD
 41
1.42614
100
AcDbText
  0
TEXT
  5
3DC
330
6B
100
AcDbEntity
  8
0
 62
     3
100
AcDbText
 10
762.3246349999996
 20
43.744795
 30
0.0
 40
2.0
  1
ANGLE
 41
1.669883999999997
100
AcDbText
  0
TEXT
  5
3DD
330
6B
100
AcDbEntity
  8
0
 62
     3
100
AcDbText
 10
783.2585219999997
 20
43.36795399999998
 30
0.0
 40
2.0
  1
SCALE
 41
0.7719630000000001
100
AcDbText
  0
TEXT
  5
3DE
330
6B
100
AcDbEntity
  8
0
 62
     3
100
AcDbText
 10
752.6997849999997
 20
39.579524
 30
0.0
 40
3.0
  1
第
 41
0.833333
100
AcDbText
  0
TEXT
  5
3DF
330
6B
100
AcDbEntity
  8
0
 62
     3
100
AcDbText
 10
760.4866349999999
 20
39.579524
 30
0.0
 40
3.0
  1
三
 41
0.833333
100
AcDbText
  0
TEXT
  5
3E0
330
6B
100
AcDbEntity
  8
0
 62
     3
100
AcDbText
 10
768.2734849999997
 20
39.579524
 30
0.0
 40
3.0
  1
角
 41
0.833333
100
AcDbText
  0
TEXT
  5
3E1
330
6B
100
AcDbEntity
  8
0
 62
     3
100
AcDbText
 10
776.060335
 20
39.579524
 30
0.0
 40
3.0
  1
法
 41
0.833333
100
AcDbText
  0
TEXT
  5
3E2
330
6B
100
AcDbEntity
  8
0
 62
     3
100
AcDbText
 10
783.1217269999997
 20
39.867954
 30
0.0
 40
3.0
  1
尺
 41
0.833333
100
AcDbText
  0
TEXT
  5
3E3
330
6B
100
AcDbEntity
  8
0
 62
     3
100
AcDbText
 10
789.854729
 20
39.867954
 30
0.0
 40
3.0
  1
度
 41
0.833333
100
AcDbText
  0
TEXT
  5
3E4
330
6B
100
AcDbEntity
  8
0
 62
     3
100
AcDbText
 10
812.4379989999999
 20
62.037253
 30
0.0
 40
3.0
  1
承認
 41
1.089472999999999
100
AcDbText
  0
TEXT
  5
3E5
330
6B
100
AcDbEntity
  8
0
 62
     3
100
AcDbText
 10
825.680879
 20
61.979524
 30
0.0
 40
3.0
  1
検図
 41
0.931761
100
AcDbText
  0
TEXT
  5
3E6
330
6B
100
AcDbEntity
  8
0
 62
     3
100
AcDbText
 10
838.6812759999996
 20
61.979524
 30
0.0
 40
3.0
  1
設
 41
0.833333
100
AcDbText
  0
TEXT
  5
3E7
330
6B
100
AcDbEntity
  8
0
 62
     3
100
AcDbText
 10
843.1711439999997
 20
61.979524
 30
0.0
 40
3.0
  1
計
 41
0.833333
100
AcDbText
  0
TEXT
  5
3E8
330
6B
100
AcDbEntity
  8
0
 62
     3
100
AcDbText
 10
751.8437589999997
 20
62.152077
 30
0.0
 40
3.0
  1
品
 41
0.833333
100
AcDbText
  0
TEXT
  5
3E9
330
6B
100
AcDbEntity
  8
0
 62
     3
100
AcDbText
 10
759.3794019999997
 20
62.152077
 30
0.0
 40
3.0
  1
名
 41
0.833333
100
AcDbText
  0
TEXT
  5
3EA
330
6B
100
AcDbEntity
  8
0
 62
     3
100
AcDbText
 10
751.5119969999997
 20
53.95693712821845
 30
0.0
 40
3.0
  1
型
 41
0.833333
100
AcDbText
  0
TEXT
  5
3EB
330
6B
100
AcDbEntity
  8
0
 62
     3
100
AcDbText
 10
759.0600870000002
 20
53.95693712821845
 30
0.0
 40
3.0
  1
式
 41
0.833333
100
AcDbText
  0
LINE
  5
3F3
330
6B
100
AcDbEntity
  8
0
 62
     3
100
AcDbLine
 10
861.2596980000002
 20
303.969163
 30
0.0
 11
471.259698
 21
303.969163
 31
0.0
  0
LINE
  5
3F4
330
6B
100
AcDbEntity
  8
0
 62
     3
100
AcDbLine
 10
835.560335
 20
69.57952399999999
 30
0.0
 11
835.560335
 21
75.57952399999997
 31
0.0
  0
LINE
  5
3F5
330
6B
100
AcDbEntity
  8
0
 62
     3
100
AcDbLine
 10
809.5603350000001
 20
69.57952399999999
 30
0.0
 11
809.5603350000001
 21
75.57952399999997
 31
0.0
  0
LINE
  5
3F6
330
6B
100
AcDbEntity
  8
0
 62
     3
100
AcDbLine
 10
861.2596980000002
 20
75.57952399999997
 30
0.0
 11
809.5603350000001
 21
75.57952399999997
 31
0.0
  0
TEXT
  5
3F7
330
6B
100
AcDbEntity
  8
0
 62
     3
100
AcDbText
 10
815.5559329999999
 20
70.375873
 30
0.0
 40
4.5
  1
コード
  7
高4.5
100
AcDbText
  0
TEXT
  5
3F8
330
6B
100
AcDbEntity
  8
0
 62
     3
100
AcDbText
 10
540.32826030456
 20
30.413802
 30
0.0
 40
3.2
  1
備　　　　　考　
 41
0.8
  7
高3.2
100
AcDbText
  0
TEXT
  5
3F9
330
6B
100
AcDbEntity
  8
0
 62
     3
100
AcDbText
 10
517.075778982483
 20
30.41380200000001
 30
0.0
 40
3.2
  1
個数
 41
0.8
  7
高3.2
100
AcDbText
  0
TEXT
  5
3FA
330
6B
100
AcDbEntity
  8
0
 62
     3
100
AcDbText
 10
480.3180245624998
 20
30.41380200000001
 30
0.0
 40
3.2
  1
部　　品　　名
 41
0.8
  7
高3.2
100
AcDbText
  0
TEXT
  5
3FB
330
6B
100
AcDbEntity
  8
0
 62
     3
100
AcDbText
 10
472.7596980000001
 20
30.41380200000001
 30
0.0
 40
3.2
  1
No
 41
0.8
  7
高3.2
100
AcDbText
  0
TEXT
  5
3FC
330
6B
100
AcDbEntity
  8
0
 62
     3
100
AcDbText
 10
525.7653717927738
 20
30.413802
 30
0.0
 40
3.2
  1
材　質
 41
0.8
  7
高3.2
100
AcDbText
  0
LINE
  5
3FD
330
6B
100
AcDbEntity
  8
0
100
AcDbLine
 10
801.9063919738963
 20
143.778011
 30
0.0
 11
839.441780261149
 21
143.778011
 31
0.0
  0
TEXT
  5
3FE
330
6B
100
AcDbEntity
  8
0
 62
     3
100
AcDbText
 10
802.4019086840469
 20
144.8107312911138
 30
0.0
 40
4.5
  1
主　　仕　　様
  7
高4.5
100
AcDbText
  0
TEXT
  5
3FF
330
6B
100
AcDbEntity
  8
0
 62
     3
100
AcDbText
 10
827.415288
 20
40.879228
 30
0.0
 40
3.2
  1
2006.12.06
  7
高3.2
100
AcDbText
  0
TEXT
  5
400
330
6B
100
AcDbEntity
  8
0
 62
     3
100
AcDbText
 10
472.759698
 20
45.413802
 30
0.0
 40
3.2
  1
3
 41
0.8
  7
高3.2
100
AcDbText
  0
TEXT
  5
401
330
6B
100
AcDbEntity
  8
0
 62
     3
100
AcDbText
 10
472.759698
 20
50.41380199999998
 30
0.0
 40
3.2
  1
4
 41
0.8
  7
高3.2
100
AcDbText
  0
TEXT
  5
402
330
6B
100
AcDbEntity
  8
0
 62
     3
100
AcDbText
 10
472.759698
 20
55.413802
 30
0.0
 40
3.2
  1
5
 41
0.8
  7
高3.2
100
AcDbText
  0
TEXT
  5
403
330
6B
100
AcDbEntity
  8
0
 62
     3
100
AcDbText
 10
472.759698
 20
60.41380199999998
 30
0.0
 40
3.2
  1
6
 41
0.8
  7
高3.2
100
AcDbText
  0
TEXT
  5
404
330
6B
100
AcDbEntity
  8
0
 62
     3
100
AcDbText
 10
517.075778982483
 20
45.413802
 30
0.0
 40
3.2
  1
1
 41
0.8
  7
高3.2
100
AcDbText
  0
TEXT
  5
405
330
6B
100
AcDbEntity
  8
0
 62
     3
100
AcDbText
 10
472.759698
 20
35.41380200000001
 30
0.0
 40
3.2
  1
1
 41
0.8
  7
高3.2
100
AcDbText
  0
TEXT
  5
406
330
6B
100
AcDbEntity
  8
0
 62
     3
100
AcDbText
 10
472.759698
 20
40.413802
 30
0.0
 40
3.2
  1
2
 41
0.8
  7
高3.2
100
AcDbText
  0
TEXT
  5
407
330
6B
100
AcDbEntity
  8
0
 62
     3
100
AcDbText
 10
480.3180245624998
 20
35.41380200000001
 30
0.0
 40
3.2
  1
ケース本体
 41
0.8
  7
高3.2
100
AcDbText
  0
TEXT
  5
408
330
6B
100
AcDbEntity
  8
0
 62
     3
100
AcDbText
 10
517.075778982483
 20
50.413802
 30
0.0
 40
3.2
  1
1
 41
0.8
  7
高3.2
100
AcDbText
  0
TEXT
  5
409
330
6B
100
AcDbEntity
  8
0
 62
     3
100
AcDbText
 10
517.075778982483
 20
35.41380200000001
 30
0.0
 40
3.2
  1
1式
 41
0.8
  7
高3.2
100
AcDbText
  0
TEXT
  5
40A
330
6B
100
AcDbEntity
  8
0
 62
     3
100
AcDbText
 10
795.476746
 20
125.684428
 30
0.0
 40
3.2
  1
周波数
  7
高3.2
100
AcDbText
  0
TEXT
  5
40B
330
6B
100
AcDbEntity
  8
0
 62
     3
100
AcDbText
 10
795.476746
 20
120.140428
 30
0.0
 40
3.2
  1
1次電圧
  7
高3.2
100
AcDbText
  0
TEXT
  5
40C
330
6B
100
AcDbEntity
  8
0
 62
     3
100
AcDbText
 10
795.476746
 20
114.596428
 30
0.0
 40
3.2
  1
2次電圧
  7
高3.2
100
AcDbText
  0
TEXT
  5
40D
330
6B
100
AcDbEntity
  8
0
 62
     3
100
AcDbText
 10
795.476746
 20
109.052428
 30
0.0
 40
3.2
  1
質　量
  7
高3.2
100
AcDbText
  0
TEXT
  5
40E
330
6B
100
AcDbEntity
  8
0
 62
     3
100
AcDbText
 10
795.476746
 20
136.772428
 30
0.0
 40
3.2
  1
型　式
  7
高3.2
100
AcDbText
  0
TEXT
  5
40F
330
6B
100
AcDbEntity
  8
0
 62
     3
100
AcDbText
 10
795.476746
 20
131.228428
 30
0.0
 40
3.2
  1
容　量
  7
高3.2
100
AcDbText
  0
TEXT
  5
410
330
6B
100
AcDbEntity
  8
0
 62
     3
100
AcDbText
 10
812.2482790000001
 20
125.684428
 30
0.0
 40
3.2
  1
50/ 60Hz
  7
高3.2
100
AcDbText
  0
TEXT
  5
411
330
6B
100
AcDbEntity
  8
0
 62
     3
100
AcDbText
 10
525.7653717927738
 20
35.41380200000001
 30
0.0
 40
3.2
  1
-
 41
0.8
  7
高3.2
100
AcDbText
  0
TEXT
  5
412
330
6B
100
AcDbEntity
  8
0
 62
     3
100
AcDbText
 10
525.7653717927738
 20
50.41380199999998
 30
0.0
 40
3.2
  1
-
 41
0.8
  7
高3.2
100
AcDbText
  0
TEXT
  5
413
330
6B
100
AcDbEntity
  8
0
 62
     3
100
AcDbText
 10
541.4441587420599
 20
41.06823246874999
 30
0.0
 40
3.2
  1
-
 41
0.8
  7
高3.2
100
AcDbText
  0
TEXT
  5
414
330
6B
100
AcDbEntity
  8
0
 62
     3
100
AcDbText
 10
525.7653717927738
 20
40.413802
 30
0.0
 40
3.2
  1
-
 41
0.8
  7
高3.2
100
AcDbText
  0
TEXT
  5
415
330
6B
100
AcDbEntity
  8
0
 62
     3
100
AcDbText
 10
517.075778982483
 20
40.413802
 30
0.0
 40
3.2
  1
1
 41
0.8
  7
高3.2
100
AcDbText
  0
LINE
  5
416
330
6B
100
AcDbEntity
  8
0
100
AcDbLine
 10
478.8180245624998
 20
29.913802
 30
0.0
 11
478.8180245624998
 21
69.913802
 31
0.0
  0
TEXT
  5
417
330
6B
100
AcDbEntity
  8
0
 62
     3
100
AcDbText
 10
812.2482790000001
 20
114.596428
 30
0.0
 40
3.2
  1
AC100V
  7
高3.2
100
AcDbText
  0
LINE
  5
418
330
6B
100
AcDbEntity
  8
0
 62
     3
100
AcDbLine
 10
793.976746
 20
141.816428
 30
0.0
 11
845.140221425215
 21
141.816428
 31
0.0
  0
LINE
  5
419
330
6B
100
AcDbEntity
  8
0
100
AcDbLine
 10
793.976746
 20
130.728428
 30
0.0
 11
845.140221425215
 21
130.728428
 31
0.0
  0
LINE
  5
41A
330
6B
100
AcDbEntity
  8
0
100
AcDbLine
 10
793.976746
 20
125.184428
 30
0.0
 11
845.140221425215
 21
125.184428
 31
0.0
  0
LINE
  5
41B
330
6B
100
AcDbEntity
  8
0
100
AcDbLine
 10
793.976746
 20
119.640428
 30
0.0
 11
845.140221425215
 21
119.640428
 31
0.0
  0
LINE
  5
41C
330
6B
100
AcDbEntity
  8
0
100
AcDbLine
 10
793.976746
 20
114.096428
 30
0.0
 11
845.140221425215
 21
114.096428
 31
0.0
  0
LINE
  5
41D
330
6B
100
AcDbEntity
  8
0
100
AcDbLine
 10
793.976746
 20
136.272428
 30
0.0
 11
845.140221425215
 21
136.2724279999999
 31
0.0
  0
TEXT
  5
41E
330
6B
100
AcDbEntity
  8
0
 62
     3
100
AcDbText
 10
480.3180245624998
 20
40.413802
 30
0.0
 40
3.2
  1
取手
 41
0.8
  7
高3.2
100
AcDbText
  0
TEXT
  5
41F
330
6B
100
AcDbEntity
  8
0
 62
     3
100
AcDbText
 10
525.7653717927738
 20
45.413802
 30
0.0
 40
3.2
  1
-
 41
0.8
  7
高3.2
100
AcDbText
  0
TEXT
  5
420
330
6B
100
AcDbEntity
  8
0
 62
     3
100
AcDbText
 10
480.3180245624998
 20
45.413802
 30
0.0
 40
3.2
  1
スイッチ
 41
0.8
  7
高3.2
100
AcDbText
  0
TEXT
  5
421
330
6B
100
AcDbEntity
  8
0
 62
     3
100
AcDbText
 10
541.3118603045601
 20
46.14493403125001
 30
0.0
 40
3.2
  1
ランプ付き
 41
0.8
  7
高3.2
100
AcDbText
  0
TEXT
  5
422
330
6B
100
AcDbEntity
  8
0
 62
     3
100
AcDbText
 10
480.3180245624998
 20
50.41380199999998
 30
0.0
 40
3.2
  1
電線　プラグ付き
 41
0.8
  7
高3.2
100
AcDbText
  0
TEXT
  5
423
330
6B
100
AcDbEntity
  8
0
 62
     3
100
AcDbText
 10
541.3118603045601
 20
51.14493403125
 30
0.0
 40
3.2
  1
1.3m
 41
0.8
  7
高3.2
100
AcDbText
  0
TEXT
  5
424
330
6B
100
AcDbEntity
  8
0
 62
     3
100
AcDbText
 10
517.075778982483
 20
55.413802
 30
0.0
 40
3.2
  1
1
 41
0.8
  7
高3.2
100
AcDbText
  0
TEXT
  5
425
330
6B
100
AcDbEntity
  8
0
 62
     3
100
AcDbText
 10
525.7653717927738
 20
55.413802
 30
0.0
 40
3.2
  1
-
 41
0.8
  7
高3.2
100
AcDbText
  0
TEXT
  5
426
330
6B
100
AcDbEntity
  8
0
 62
     3
100
AcDbText
 10
541.3118603045601
 20
61.14493403125
 30
0.0
 40
3.2
  1
-
 41
0.8
  7
高3.2
100
AcDbText
  0
TEXT
  5
427
330
6B
100
AcDbEntity
  8
0
 62
     3
100
AcDbText
 10
480.3180245624998
 20
55.413802
 30
0.0
 40
3.2
  1
コンセント
 41
0.8
  7
高3.2
100
AcDbText
  0
TEXT
  5
428
330
6B
100
AcDbEntity
  8
0
 62
     3
100
AcDbText
 10
541.3118603045601
 20
56.14493403124999
 30
0.0
 40
3.2
  1
出力　AC100V
 41
0.8
  7
高3.2
100
AcDbText
  0
TEXT
  5
429
330
6B
100
AcDbEntity
  8
0
 62
     3
100
AcDbText
 10
480.3180245624998
 20
65.413802
 30
0.0
 40
3.2
  1
ゴム脚
 41
0.8
  7
高3.2
100
AcDbText
  0
TEXT
  5
42A
330
6B
100
AcDbEntity
  8
0
 62
     3
100
AcDbText
 10
480.3180245624998
 20
60.41380199999998
 30
0.0
 40
3.2
  1
サーキットプロテクター
 41
0.8
  7
高3.2
100
AcDbText
  0
TEXT
  5
42B
330
6B
100
AcDbEntity
  8
0
 62
     3
100
AcDbText
 10
517.075778982483
 20
65.413802
 30
0.0
 40
3.2
  1
4
 41
0.8
  7
高3.2
100
AcDbText
  0
TEXT
  5
42C
330
6B
100
AcDbEntity
  8
0
 62
     3
100
AcDbText
 10
517.075778982483
 20
60.41380199999998
 30
0.0
 40
3.2
  1
1
 41
0.8
  7
高3.2
100
AcDbText
  0
TEXT
  5
42D
330
6B
100
AcDbEntity
  8
0
 62
     3
100
AcDbText
 10
525.7653717927738
 20
65.413802
 30
0.0
 40
3.2
  1
合成ゴム
 41
0.8
  7
高3.2
100
AcDbText
  0
TEXT
  5
42E
330
6B
100
AcDbEntity
  8
0
 62
     3
100
AcDbText
 10
525.7653717927738
 20
60.41380199999998
 30
0.0
 40
3.2
  1
-
 41
0.8
  7
高3.2
100
AcDbText
  0
TEXT
  5
42F
330
6B
100
AcDbEntity
  8
0
 62
     3
100
AcDbText
 10
541.4025134295598
 20
65.86272856249999
 30
0.0
 40
3.2
  1
-
 41
0.8
  7
高3.2
100
AcDbText
  0
TEXT
  5
430
330
6B
100
AcDbEntity
  8
0
 62
     3
100
AcDbText
 10
472.759698
 20
65.413802
 30
0.0
 40
3.2
  1
7
 41
0.8
  7
高3.2
100
AcDbText
  0
LINE
  5
431
330
6B
100
AcDbEntity
  8
0
 62
     3
100
AcDbLine
 10
566.6545628406849
 20
29.913802
 30
0.0
 11
566.6545628406849
 21
69.913802
 31
0.0
  0
LINE
  5
432
330
6B
100
AcDbEntity
  8
0
100
AcDbLine
 10
524.2653717927738
 20
29.913802
 30
0.0
 11
524.2653717927738
 21
69.913802
 31
0.0
  0
LINE
  5
433
330
6B
100
AcDbEntity
  8
0
100
AcDbLine
 10
515.575778982483
 20
29.913802
 30
0.0
 11
515.575778982483
 21
69.913802
 31
0.0
  0
LINE
  5
434
330
6B
100
AcDbEntity
  8
0
100
AcDbLine
 10
538.8282603045601
 20
29.913802
 30
0.0
 11
538.8282603045601
 21
69.913802
 31
0.0
  0
TEXT
  5
435
330
6B
100
AcDbEntity
  8
0
 62
     3
100
AcDbText
 10
795.177045
 20
40.099995
 30
0.0
 40
3.2
  1
FREE
  7
高3.2
100
AcDbText
  0
TEXT
  5
436
330
6B
100
AcDbEntity
  8
0
 62
     3
100
AcDbText
 10
541.6658642108101
 20
36.16302700000001
 30
0.0
 40
3.2
  1
-
 41
0.8
  7
高3.2
100
AcDbText
  0
LINE
  5
437
330
6B
100
AcDbEntity
  8
0
 62
     3
100
AcDbLine
 10
793.976746
 20
108.552428
 30
0.0
 11
845.140221425215
 21
108.552428
 31
0.0
  0
LINE
  5
438
330
6B
100
AcDbEntity
  8
0
 62
     3
100
AcDbLine
 10
845.140221425215
 20
141.816428
 30
0.0
 11
845.140221425215
 21
108.552428
 31
0.0
  0
LINE
  5
439
330
6B
100
AcDbEntity
  8
0
 62
     3
100
AcDbLine
 10
810.748279
 20
141.816428
 30
0.0
 11
810.748279
 21
108.552428
 31
0.0
  0
LINE
  5
43A
330
6B
100
AcDbEntity
  8
0
 62
     3
100
AcDbLine
 10
793.976746
 20
141.816428
 30
0.0
 11
793.976746
 21
108.552428
 31
0.0
  0
TEXT
  5
43B
330
6B
100
AcDbEntity
  8
0
 62
     3
100
AcDbText
 10
812.2482790000001
 20
120.140428
 30
0.0
 40
3.2
  1
AC220-230V
  7
高3.2
100
AcDbText
  0
LINE
  5
442
330
6B
100
AcDbEntity
  8
0
 62
     3
100
AcDbLine
 10
458.8577749999998
 20
170.413802
 30
0.0
 11
456.2596980000001
 21
168.913802
 31
0.0
  0
LINE
  5
443
330
6B
100
AcDbEntity
  8
0
 62
     3
100
AcDbLine
 10
458.8577749999998
 20
170.413802
 30
0.0
 11
456.2596980000001
 21
171.913802
 31
0.0
  0
LINE
  5
444
330
6B
100
AcDbEntity
  8
0
 62
     3
100
AcDbLine
 10
456.2596980000001
 20
168.913802
 30
0.0
 11
456.2596980000001
 21
171.913802
 31
0.0
  0
LINE
  5
44A
330
6B
100
AcDbEntity
  8
0
100
AcDbLine
 10
669.985006
 20
247.52352
 30
0.0
 11
672.214278
 21
262.420715
 31
0.0
  0
CIRCLE
  5
44B
330
6B
100
AcDbEntity
  8
0
100
AcDbCircle
 10
672.9542569999997
 20
267.365655
 30
0.0
 40
5.0
  0
TEXT
  5
44C
330
6B
100
AcDbEntity
  8
0
 62
     4
100
AcDbText
 10
670.8038239379699
 20
264.2285192648884
 30
0.0
 40
6.299999999999998
  1
2
  7
高6.3
100
AcDbText
  0
LINE
  5
452
330
6B
100
AcDbEntity
  8
0
100
AcDbLine
 10
530.0049559999998
 20
187.821395
 30
0.0
 11
515.3129309999997
 21
196.050871
 31
0.0
  0
CIRCLE
  5
453
330
6B
100
AcDbEntity
  8
0
100
AcDbCircle
 10
510.9506469999998
 20
198.494327
 30
0.0
 40
5.0
  0
TEXT
  5
454
330
6B
100
AcDbEntity
  8
0
 62
     4
100
AcDbText
 10
508.8002139379699
 20
195.3571912648883
 30
0.0
 40
6.299999999999998
  1
5
  7
高6.3
100
AcDbText
  0
LINE
  5
45A
330
6B
100
AcDbEntity
  8
0
100
AcDbLine
 10
565.25215
 20
182.724857
 30
0.0
 11
582.565367
 21
152.726501
 31
0.0
  0
CIRCLE
  5
45B
330
6B
100
AcDbEntity
  8
0
100
AcDbCircle
 10
585.0646799999997
 20
148.395978
 30
0.0
 40
5.0
  0
TEXT
  5
45C
330
6B
100
AcDbEntity
  8
0
 62
     4
100
AcDbText
 10
582.9142469379697
 20
145.2588422648883
 30
0.0
 40
6.299999999999998
  1
6
  7
高6.3
100
AcDbText
  0
LINE
  5
462
330
6B
100
AcDbEntity
  8
0
100
AcDbLine
 10
564.917456
 20
230.083895
 30
0.0
 11
575.2025169999996
 21
266.734493
 31
0.0
  0
CIRCLE
  5
463
330
6B
100
AcDbEntity
  8
0
100
AcDbCircle
 10
576.5534549999999
 20
271.548531
 30
0.0
 40
5.0
  0
TEXT
  5
464
330
6B
100
AcDbEntity
  8
0
 62
     4
100
AcDbText
 10
574.4030219379699
 20
268.4113952648884
 30
0.0
 40
6.299999999999998
  1
3
  7
高6.3
100
AcDbText
  0
LINE
  5
46A
330
6B
100
AcDbEntity
  8
0
100
AcDbLine
 10
529.3924559999998
 20
244.530845
 30
0.0
 11
517.0418549999998
 21
260.411193
 31
0.0
  0
CIRCLE
  5
46B
330
6B
100
AcDbEntity
  8
0
100
AcDbCircle
 10
513.972273
 20
264.358048
 30
0.0
 40
5.0
  0
TEXT
  5
46C
330
6B
100
AcDbEntity
  8
0
 62
     4
100
AcDbText
 10
513.0405221722051
 20
261.1198897311713
 30
0.0
 40
6.299999999999998
  1
1
  7
高6.3
100
AcDbText
  0
LINE
  5
472
330
6B
100
AcDbEntity
  8
0
100
AcDbLine
 10
741.5600059999997
 20
151.76492
 30
0.0
 11
724.274279
 21
138.368497
 31
0.0
  0
CIRCLE
  5
473
330
6B
100
AcDbEntity
  8
0
100
AcDbCircle
 10
720.3222019999997
 20
135.3056409999999
 30
0.0
 40
5.0
  0
TEXT
  5
474
330
6B
100
AcDbEntity
  8
0
 62
     4
100
AcDbText
 10
718.1717689379698
 20
132.1685052648883
 30
0.0
 40
6.299999999999998
  1
4
  7
高6.3
100
AcDbText
  0
LINE
  5
47A
330
6B
100
AcDbEntity
  8
0
100
AcDbLine
 10
796.3138309999997
 20
174.346395
 30
0.0
 11
810.953847
 21
162.620243
 31
0.0
  0
LINE
  5
47B
330
6B
100
AcDbEntity
  8
0
100
AcDbLine
 10
810.953847
 20
162.620243
 30
0.0
 11
830.2038469999999
 21
162.620243
 31
0.0
  0
TEXT
  5
47C
330
6B
100
AcDbEntity
  8
0
 62
     4
100
AcDbText
 10
813.703847
 20
163.620243
 30
0.0
 40
3.2
  1
アース端子
 41
0.716146
100
AcDbText
  0
LINE
  5
482
330
6B
100
AcDbEntity
  8
0
100
AcDbLine
 10
798.763831
 20
234.371395
 30
0.0
 11
812.550594
 21
240.934079
 31
0.0
  0
LINE
  5
483
330
6B
100
AcDbEntity
  8
0
100
AcDbLine
 10
812.550594
 20
240.934079
 30
0.0
 11
834.550594
 21
240.934079
 31
0.0
  0
TEXT
  5
484
330
6B
100
AcDbEntity
  8
0
 62
     4
100
AcDbText
 10
815.3005939999996
 20
241.934079
 30
0.0
 40
3.2
  1
注意書シール
 41
0.716146
100
AcDbText
  0
TEXT
  5
485
330
6B
100
AcDbEntity
  8
0
 62
     4
100
AcDbText
 10
698.2007154326518
 20
112.5500529342261
 30
0.0
 40
3.2
  1
AC220～230V
  7
高3.2
100
AcDbText
  0
TEXT
  5
486
330
6B
100
AcDbEntity
  8
0
 62
     3
100
AcDbText
 10
812.2482790000001
 20
136.772428
 30
0.0
 40
3.2
  1
PAL-500EP
  7
高3.2
100
AcDbText
  0
TEXT
  5
487
330
6B
100
AcDbEntity
  8
0
 62
     3
100
AcDbText
 10
812.2482790000001
 20
131.228428
 30
0.0
 40
3.2
  1
510VA
  7
高3.2
100
AcDbText
  0
TEXT
  5
488
330
6B
100
AcDbEntity
  8
0
 62
     3
100
AcDbText
 10
812.2482790000001
 20
109.052428
 30
0.0
 40
3.2
  1
約3.3kg
  7
高3.2
100
AcDbText
  0
TEXT
  5
489
330
6B
100
AcDbEntity
  8
0
 62
     3
100
AcDbText
 10
767.6288517419862
 20
54.390502
 30
0.0
 40
4.5
  1
PAL-500EP
  7
高4.5
100
AcDbText
  0
TEXT
  5
48A
330
6B
100
AcDbEntity
  8
0
 62
     3
100
AcDbText
 10
813.6033629227448
 20
30.688203
 30
0.0
 40
6.299999999999998
  1
PAL-500EP
 41
0.8
  7
高6.3
100
AcDbText
  0
ARC
  5
48B
330
6B
100
AcDbEntity
  8
0
100
AcDbCircle
 10
781.613831
 20
245.552495
 30
0.0
 40
2.960824999999998
100
AcDbArc
 50
43.603
 51
136.397
  0
ARC
  5
48C
330
6B
100
AcDbEntity
  8
0
100
AcDbCircle
 10
786.5138309999996
 20
246.980845
 30
0.0
 40
0.6125
100
AcDbArc
 50
0.0
 51
90.0
  0
LINE
  5
48D
330
6B
100
AcDbEntity
  8
0
100
AcDbLine
 10
786.5138309999996
 20
247.593345
 30
0.0
 11
776.7138309999997
 21
247.593345
 31
0.0
  0
ARC
  5
48E
330
6B
100
AcDbEntity
  8
0
100
AcDbCircle
 10
776.7138309999997
 20
246.980845
 30
0.0
 40
0.6125
100
AcDbArc
 50
90.0
 51
180.0
  0
ARC
  5
48F
330
6B
100
AcDbEntity
  8
0
100
AcDbCircle
 10
781.613831
 20
245.552495
 30
0.0
 40
2.960824999999998
100
AcDbArc
 50
43.603
 51
136.397
  0
ARC
  5
490
330
6B
100
AcDbEntity
  8
0
100
AcDbCircle
 10
786.5138309999996
 20
246.980845
 30
0.0
 40
0.6125
100
AcDbArc
 50
0.0
 51
90.0
  0
LINE
  5
491
330
6B
100
AcDbEntity
  8
0
100
AcDbLine
 10
786.5138309999996
 20
247.593345
 30
0.0
 11
776.7138309999997
 21
247.593345
 31
0.0
  0
ARC
  5
492
330
6B
100
AcDbEntity
  8
0
100
AcDbCircle
 10
776.7138309999997
 20
246.980845
 30
0.0
 40
0.6125
100
AcDbArc
 50
90.0
 51
180.0
  0
TEXT
  5
493
330
6B
100
AcDbEntity
  8
0
 62
     4
100
AcDbText
 10
698.6525504326518
 20
117.0684069342261
 30
0.0
 40
3.2
  1
丸ピン　C2
  7
高3.2
100
AcDbText
  0
LINE
  5
494
330
6B
100
AcDbEntity
  8
0
100
AcDbLine
 10
471.259698
 20
39.913802
 30
0.0
 11
566.6545628406849
 21
39.913802
 31
0.0
  0
LINE
  5
495
330
6B
100
AcDbEntity
  8
0
100
AcDbLine
 10
471.259698
 20
44.913802
 30
0.0
 11
566.6545628406849
 21
44.913802
 31
0.0
  0
LINE
  5
496
330
6B
100
AcDbEntity
  8
0
100
AcDbLine
 10
471.259698
 20
49.913802
 30
0.0
 11
566.6545628406849
 21
49.913802
 31
0.0
  0
LINE
  5
497
330
6B
100
AcDbEntity
  8
0
100
AcDbLine
 10
471.259698
 20
54.913802
 30
0.0
 11
566.6545628406849
 21
54.913802
 31
0.0
  0
LINE
  5
498
330
6B
100
AcDbEntity
  8
0
100
AcDbLine
 10
471.259698
 20
59.913802
 30
0.0
 11
566.6545628406849
 21
59.913802
 31
0.0
  0
LINE
  5
499
330
6B
100
AcDbEntity
  8
0
 62
     3
100
AcDbLine
 10
471.259698
 20
34.913802
 30
0.0
 11
566.6545628406849
 21
34.913802
 31
0.0
  0
LINE
  5
49A
330
6B
100
AcDbEntity
  8
0
 62
     3
100
AcDbLine
 10
471.259698
 20
69.913802
 30
0.0
 11
566.6545628406849
 21
69.913802
 31
0.0
  0
LINE
  5
49B
330
6B
100
AcDbEntity
  8
0
100
AcDbLine
 10
471.259698
 20
64.913802
 30
0.0
 11
566.6545628406849
 21
64.913802
 31
0.0
  0
TEXT
  5
49C
330
6B
100
AcDbEntity
  8
0
 62
     3
100
AcDbText
 10
840.0886357265424
 20
70.223662
 30
0.0
 40
4.5
  1
5850
  7
高4.5
100
AcDbText
  0
TEXT
  5
57A
330
6B
100
AcDbEntity
  8
0
 62
     3
100
AcDbText
 10
848.7596980000002
 20
294.469163
 30
0.0
 40
3.2
  1
担　当
  7
高3.2
100
AcDbText
  0
TEXT
  5
57B
330
6B
100
AcDbEntity
  8
0
 62
     3
100
AcDbText
 10
804.7596980000001
 20
294.469163
 30
0.0
 40
3.2
  1
変更・追記内容
  7
高3.2
100
AcDbText
  0
TEXT
  5
57C
330
6B
100
AcDbEntity
  8
0
 62
     3
100
AcDbText
 10
779.8732130003392
 20
289.7986244900917
 30
0.0
 40
2.0
  1
1
  7
高2
100
AcDbText
  0
TEXT
  5
57D
330
6B
100
AcDbEntity
  8
0
 62
     3
100
AcDbText
 10
779.564701523582
 20
284.6288077778188
 30
0.0
 40
2.0
  1
2
  7
高2
100
AcDbText
  0
TEXT
  5
57E
330
6B
100
AcDbEntity
  8
0
 62
     3
100
AcDbText
 10
786.759698
 20
294.469163
 30
0.0
 40
3.2
  1
日　付
  7
高3.2
100
AcDbText
  0
TEXT
  5
57F
330
6B
100
AcDbEntity
  8
0
 62
     3
100
AcDbText
 10
786.759698
 20
299.469163
 30
0.0
 40
3.2
  1
図　　　　面　　　　略　　　　歴
  7
高3.2
100
AcDbText
  0
TEXT
  5
580
330
6B
100
AcDbEntity
  8
0
 62
     3
100
AcDbText
 10
776.7596980000003
 20
294.469163
 30
0.0
 40
3.2
  1
記号
  7
高3.2
100
AcDbText
  0
LINE
  5
581
330
6B
100
AcDbEntity
  8
0
100
AcDbLine
 10
780.259698
 20
287.7600590000001
 30
0.0
 11
778.3596980000003
 21
284.469163
 31
0.0
  0
LINE
  5
582
330
6B
100
AcDbEntity
  8
0
100
AcDbLine
 10
780.259698
 20
287.7600590000001
 30
0.0
 11
782.159698
 21
284.469163
 31
0.0
  0
LINE
  5
583
330
6B
100
AcDbEntity
  8
0
100
AcDbLine
 10
778.3596980000003
 20
284.469163
 30
0.0
 11
782.159698
 21
284.469163
 31
0.0
  0
LINE
  5
584
330
6B
100
AcDbEntity
  8
0
100
AcDbLine
 10
780.259698
 20
292.7600600000001
 30
0.0
 11
778.3596980000003
 21
289.469163
 31
0.0
  0
LINE
  5
585
330
6B
100
AcDbEntity
  8
0
100
AcDbLine
 10
780.259698
 20
292.7600600000001
 30
0.0
 11
782.159698
 21
289.469163
 31
0.0
  0
LINE
  5
586
330
6B
100
AcDbEntity
  8
0
100
AcDbLine
 10
778.3596980000003
 20
289.469163
 30
0.0
 11
782.159698
 21
289.469163
 31
0.0
  0
LINE
  5
587
330
6B
100
AcDbEntity
  8
0
 62
     3
100
AcDbLine
 10
775.259698
 20
298.969163
 30
0.0
 11
861.2596980000002
 21
298.969163
 31
0.0
  0
LINE
  5
588
330
6B
100
AcDbEntity
  8
0
 62
     3
100
AcDbLine
 10
775.259698
 20
293.969163
 30
0.0
 11
861.2596980000002
 21
293.969163
 31
0.0
  0
LINE
  5
589
330
6B
100
AcDbEntity
  8
0
 62
     7
100
AcDbLine
 10
775.259698
 20
288.969163
 30
0.0
 11
861.2596980000002
 21
288.969163
 31
0.0
  0
LINE
  5
58A
330
6B
100
AcDbEntity
  8
0
 62
     3
100
AcDbLine
 10
775.259698
 20
283.969163
 30
0.0
 11
861.2596980000002
 21
283.969163
 31
0.0
  0
LINE
  5
58B
330
6B
100
AcDbEntity
  8
0
 62
     7
100
AcDbLine
 10
847.259698
 20
283.969163
 30
0.0
 11
847.259698
 21
298.969163
 31
0.0
  0
LINE
  5
58C
330
6B
100
AcDbEntity
  8
0
 62
     7
100
AcDbLine
 10
803.259698
 20
283.969163
 30
0.0
 11
803.259698
 21
298.969163
 31
0.0
  0
LINE
  5
58D
330
6B
100
AcDbEntity
  8
0
 62
     7
100
AcDbLine
 10
785.2596980000003
 20
283.969163
 30
0.0
 11
785.2596980000003
 21
298.969163
 31
0.0
  0
LINE
  5
58E
330
6B
100
AcDbEntity
  8
0
 62
     3
100
AcDbLine
 10
775.259698
 20
283.969163
 30
0.0
 11
775.259698
 21
303.969163
 31
0.0
  0
CIRCLE
  5
7B9
330
6B
100
AcDbEntity
  8
0
100
AcDbCircle
 10
510.9506469999998
 20
148.395978
 30
0.0
 40
5.0
  0
TEXT
  5
7BA
330
6B
100
AcDbEntity
  8
0
 62
     4
100
AcDbText
 10
508.8002139379699
 20
145.2588422648883
 30
0.0
 40
6.299999999999998
  1
7
  7
高6.3
100
AcDbText
  0
LINE
  5
83E
330
6B
100
AcDbEntity
  8
0
100
AcDbLine
 10
800.3393459999998
 20
235.714877
 30
0.0
 11
798.763831
 21
234.371395
 31
0.0
  0
LINE
  5
83F
330
6B
100
AcDbEntity
  8
0
100
AcDbLine
 10
798.763831
 20
234.371395
 30
0.0
 11
800.8000070000001
 21
234.747127
 31
0.0
  0
LINE
  5
840
330
6B
100
AcDbEntity
  8
0
100
AcDbLine
 10
798.209853
 20
173.514355
 30
0.0
 11
796.3138309999997
 21
174.346395
 31
0.0
  0
LINE
  5
841
330
6B
100
AcDbEntity
  8
0
100
AcDbLine
 10
796.3138309999997
 20
174.346395
 30
0.0
 11
797.539814
 21
172.677817
 31
0.0
  0
LINE
  5
842
330
6B
100
AcDbEntity
  8
0
100
AcDbLine
 10
740.307452
 20
150.116196
 30
0.0
 11
741.5600059999997
 21
151.76492
 31
0.0
  0
LINE
  5
843
330
6B
100
AcDbEntity
  8
0
100
AcDbLine
 10
741.5600059999997
 20
151.76492
 30
0.0
 11
739.6509
 21
150.96336
 31
0.0
  0
LINE
  5
844
330
6B
100
AcDbEntity
  8
0
100
AcDbLine
 10
527.7416009999998
 20
245.780591
 30
0.0
 11
529.3924559999998
 21
244.530845
 31
0.0
  0
LINE
  5
845
330
6B
100
AcDbEntity
  8
0
100
AcDbLine
 10
529.3924559999998
 20
244.530845
 30
0.0
 11
528.5876459999998
 21
246.438584
 31
0.0
  0
LINE
  5
846
330
6B
100
AcDbEntity
  8
0
100
AcDbLine
 10
564.941864
 20
232.154304
 30
0.0
 11
564.917456
 21
230.083895
 31
0.0
  0
LINE
  5
847
330
6B
100
AcDbEntity
  8
0
100
AcDbLine
 10
564.917456
 20
230.083895
 30
0.0
 11
565.9737989999999
 21
231.864718
 31
0.0
  0
LINE
  5
848
330
6B
100
AcDbEntity
  8
0
100
AcDbLine
 10
566.71602
 20
181.260524
 30
0.0
 11
565.25215
 21
182.724857
 31
0.0
  0
LINE
  5
849
330
6B
100
AcDbEntity
  8
0
100
AcDbLine
 10
565.25215
 20
182.724857
 30
0.0
 11
565.7877319999998
 21
180.724773
 31
0.0
  0
LINE
  5
84A
330
6B
100
AcDbEntity
  8
0
100
AcDbLine
 10
527.998154
 20
188.331229
 30
0.0
 11
530.0049559999998
 21
187.821395
 31
0.0
  0
LINE
  5
84B
330
6B
100
AcDbEntity
  8
0
100
AcDbLine
 10
530.0049559999998
 20
187.821395
 30
0.0
 11
528.521932
 21
189.266326
 31
0.0
  0
LINE
  5
84C
330
6B
100
AcDbEntity
  8
0
100
AcDbLine
 10
669.751001
 20
249.580807
 30
0.0
 11
669.985006
 21
247.52352
 31
0.0
  0
LINE
  5
84D
330
6B
100
AcDbEntity
  8
0
100
AcDbLine
 10
669.985006
 20
247.52352
 30
0.0
 11
670.810995
 21
249.422186
 31
0.0
  0
LINE
  5
84E
330
6B
100
AcDbEntity
  8
0
100
AcDbLine
 10
708.6404059999996
 20
246.302535
 30
0.0
 11
700.909328
 21
246.663828
 31
0.0
  0
LINE
  5
84F
330
6B
100
AcDbEntity
  8
0
100
AcDbLine
 10
700.909328
 20
246.663828
 30
0.0
 11
693.17825
 21
246.995847
 31
0.0
  0
LINE
  5
850
330
6B
100
AcDbEntity
  8
0
100
AcDbLine
 10
693.17825
 20
246.995847
 30
0.0
 11
685.44717
 21
247.269318
 31
0.0
  0
LINE
  5
851
330
6B
100
AcDbEntity
  8
0
100
AcDbLine
 10
685.44717
 20
247.269318
 30
0.0
 11
677.716089
 21
247.454967
 31
0.0
  0
LINE
  5
852
330
6B
100
AcDbEntity
  8
0
100
AcDbLine
 10
677.716089
 20
247.454967
 30
0.0
 11
669.985006
 21
247.52352
 31
0.0
  0
LINE
  5
853
330
6B
100
AcDbEntity
  8
0
100
AcDbLine
 10
669.985006
 20
247.52352
 30
0.0
 11
662.246089
 21
247.455323
 31
0.0
  0
LINE
  5
854
330
6B
100
AcDbEntity
  8
0
100
AcDbLine
 10
662.246089
 20
247.455323
 30
0.0
 11
654.50717
 21
247.269793
 31
0.0
  0
LINE
  5
855
330
6B
100
AcDbEntity
  8
0
100
AcDbLine
 10
654.50717
 20
247.269793
 30
0.0
 11
646.7682499999997
 21
246.996262
 31
0.0
  0
LINE
  5
856
330
6B
100
AcDbEntity
  8
0
100
AcDbLine
 10
646.7682499999997
 20
246.996262
 30
0.0
 11
639.029328
 21
246.664065
 31
0.0
  0
LINE
  5
857
330
6B
100
AcDbEntity
  8
0
100
AcDbLine
 10
639.029328
 20
246.664065
 30
0.0
 11
631.290406
 21
246.302535
 31
0.0
  0
LINE
  5
858
330
6B
100
AcDbEntity
  8
0
100
AcDbLine
 10
708.6404059999996
 20
245.07352
 30
0.0
 11
700.909328
 21
245.437189
 31
0.0
  0
LINE
  5
859
330
6B
100
AcDbEntity
  8
0
100
AcDbLine
 10
700.909328
 20
245.437189
 30
0.0
 11
693.17825
 21
245.771392
 31
0.0
  0
LINE
  5
85A
330
6B
100
AcDbEntity
  8
0
100
AcDbLine
 10
693.17825
 20
245.771392
 30
0.0
 11
685.44717
 21
246.046661
 31
0.0
  0
LINE
  5
85B
330
6B
100
AcDbEntity
  8
0
100
AcDbLine
 10
685.44717
 20
246.046661
 30
0.0
 11
677.716089
 21
246.233531
 31
0.0
  0
LINE
  5
85C
330
6B
100
AcDbEntity
  8
0
100
AcDbLine
 10
677.716089
 20
246.233531
 30
0.0
 11
669.985006
 21
246.302535
 31
0.0
  0
LINE
  5
85D
330
6B
100
AcDbEntity
  8
0
100
AcDbLine
 10
669.985006
 20
246.302535
 30
0.0
 11
662.246089
 21
246.233889
 31
0.0
  0
LINE
  5
85E
330
6B
100
AcDbEntity
  8
0
100
AcDbLine
 10
662.246089
 20
246.233889
 30
0.0
 11
654.50717
 21
246.047139
 31
0.0
  0
LINE
  5
85F
330
6B
100
AcDbEntity
  8
0
100
AcDbLine
 10
654.50717
 20
246.047139
 30
0.0
 11
646.7682499999997
 21
245.77181
 31
0.0
  0
LINE
  5
860
330
6B
100
AcDbEntity
  8
0
100
AcDbLine
 10
646.7682499999997
 20
245.77181
 30
0.0
 11
639.029328
 21
245.437428
 31
0.0
  0
LINE
  5
861
330
6B
100
AcDbEntity
  8
0
100
AcDbLine
 10
639.029328
 20
245.437428
 30
0.0
 11
631.290406
 21
245.07352
 31
0.0
  0
LINE
  5
862
330
6B
100
AcDbEntity
  8
0
100
AcDbLine
 10
564.2462559999997
 20
164.543945
 30
0.0
 11
586.2438449999997
 21
164.543945
 31
0.0
  0
LINE
  5
863
330
6B
100
AcDbEntity
  8
0
100
AcDbLine
 10
555.3674559999998
 20
248.543945
 30
0.0
 11
586.2438449999997
 21
248.543945
 31
0.0
  0
LINE
  5
864
330
6B
100
AcDbEntity
  8
0
100
AcDbLine
 10
584.9938449999997
 20
167.043945
 30
0.0
 11
584.9938449999997
 21
246.043945
 31
0.0
  0
LINE
  5
868
330
6B
100
AcDbEntity
  8
0
100
AcDbLine
 10
525.104956
 20
170.421395
 30
0.0
 11
525.104956
 21
150.474037
 31
0.0
  0
LINE
  5
869
330
6B
100
AcDbEntity
  8
0
100
AcDbLine
 10
574.104956
 20
170.421395
 30
0.0
 11
574.104956
 21
150.474037
 31
0.0
  0
LINE
  5
86A
330
6B
100
AcDbEntity
  8
0
100
AcDbLine
 10
527.604956
 20
151.724037
 30
0.0
 11
571.604956
 21
151.724037
 31
0.0
  0
LINE
  5
86E
330
6B
100
AcDbEntity
  8
0
100
AcDbLine
 10
610.485006
 20
165.492695
 30
0.0
 11
610.485006
 21
154.502896
 31
0.0
  0
LINE
  5
86F
330
6B
100
AcDbEntity
  8
0
100
AcDbLine
 10
729.4850059999999
 20
166.1926949999999
 30
0.0
 11
729.4850059999999
 21
154.502896
 31
0.0
  0
LINE
  5
870
330
6B
100
AcDbEntity
  8
0
100
AcDbLine
 10
612.9850059999999
 20
155.752896
 30
0.0
 11
726.9850059999998
 21
155.752896
 31
0.0
  0
LINE
  5
874
330
6B
100
AcDbEntity
  8
0
  6
Continuous
100
AcDbLine
 10
535.2245789609751
 20
163.2397023762505
 30
0.0
 11
515.2163010780493
 21
151.0044632474989
 31
0.0
1001
ACAD
1000
DSTYLE
1002
{
1070
   147
1040
0.625
1070
    77
1070
     0
1002
}
  0
LINE
  5
875
330
6B
100
AcDbEntity
  8
0
  6
ByBlock
 62
     0
370
    -2
100
AcDbLine
 10
534.8751084541841
 20
163.8111912485302
 30
0.0
 11
537.3574059999998
 21
164.543945
 31
0.0
  0
LINE
  5
876
330
6B
100
AcDbEntity
  8
0
  6
ByBlock
 62
     0
370
    -2
100
AcDbLine
 10
537.3574059999998
 20
164.543945
 30
0.0
 11
535.5740494677661
 21
162.6682135039709
 31
0.0
  0
LINE
  5
877
330
6B
100
AcDbEntity
  8
0
  6
ByBlock
 62
     0
370
    -2
100
AcDbLine
 10
537.3574059999998
 20
164.543945
 30
0.0
 11
535.2245789609751
 21
163.2397023762505
 31
0.0
  0
TEXT
  5
878
330
6B
100
AcDbEntity
  8
0
  6
Continuous
 62
     4
100
AcDbText
 10
584.3688449999997
 20
203.2939450000001
 30
0.0
 40
3.0
  1
120
 50
90.0
100
AcDbText
  0
LINE
  5
879
330
6B
100
AcDbEntity
  8
0
  6
ByBlock
 62
     0
370
    -2
100
AcDbLine
 10
584.3239724999997
 20
246.043945
 30
0.0
 11
584.9938449999997
 21
248.543945
 31
0.0
  0
LINE
  5
87A
330
6B
100
AcDbEntity
  8
0
  6
ByBlock
 62
     0
370
    -2
100
AcDbLine
 10
584.9938449999997
 20
248.543945
 30
0.0
 11
585.6637174999997
 21
246.043945
 31
0.0
  0
LINE
  5
87B
330
6B
100
AcDbEntity
  8
0
  6
ByBlock
 62
     0
370
    -2
100
AcDbLine
 10
584.9938449999997
 20
248.543945
 30
0.0
 11
584.9938449999997
 21
246.043945
 31
0.0
  0
LINE
  5
87C
330
6B
100
AcDbEntity
  8
0
  6
ByBlock
 62
     0
370
    -2
100
AcDbLine
 10
585.6637174999997
 20
167.043945
 30
0.0
 11
584.9938449999997
 21
164.543945
 31
0.0
  0
LINE
  5
87D
330
6B
100
AcDbEntity
  8
0
  6
ByBlock
 62
     0
370
    -2
100
AcDbLine
 10
584.9938449999997
 20
164.543945
 30
0.0
 11
584.3239724999997
 21
167.043945
 31
0.0
  0
LINE
  5
87E
330
6B
100
AcDbEntity
  8
0
  6
ByBlock
 62
     0
370
    -2
100
AcDbLine
 10
584.9938449999997
 20
164.543945
 30
0.0
 11
584.9938449999997
 21
167.043945
 31
0.0
  0
TEXT
  5
87F
330
6B
100
AcDbEntity
  8
0
  6
Continuous
 62
     4
100
AcDbText
 10
547.354956
 20
152.349037
 30
0.0
 40
3.0
  1
70
100
AcDbText
  0
LINE
  5
880
330
6B
100
AcDbEntity
  8
0
  6
ByBlock
 62
     0
370
    -2
100
AcDbLine
 10
571.604956
 20
152.3939095
 30
0.0
 11
574.104956
 21
151.724037
 31
0.0
  0
LINE
  5
881
330
6B
100
AcDbEntity
  8
0
  6
ByBlock
 62
     0
370
    -2
100
AcDbLine
 10
574.104956
 20
151.724037
 30
0.0
 11
571.604956
 21
151.0541645
 31
0.0
  0
LINE
  5
882
330
6B
100
AcDbEntity
  8
0
  6
ByBlock
 62
     0
370
    -2
100
AcDbLine
 10
574.104956
 20
151.724037
 30
0.0
 11
571.604956
 21
151.724037
 31
0.0
  0
LINE
  5
883
330
6B
100
AcDbEntity
  8
0
  6
ByBlock
 62
     0
370
    -2
100
AcDbLine
 10
527.604956
 20
151.0541645
 30
0.0
 11
525.104956
 21
151.724037
 31
0.0
  0
LINE
  5
884
330
6B
100
AcDbEntity
  8
0
  6
ByBlock
 62
     0
370
    -2
100
AcDbLine
 10
525.104956
 20
151.724037
 30
0.0
 11
527.604956
 21
152.3939095
 31
0.0
  0
LINE
  5
885
330
6B
100
AcDbEntity
  8
0
  6
ByBlock
 62
     0
370
    -2
100
AcDbLine
 10
525.104956
 20
151.724037
 30
0.0
 11
527.604956
 21
151.724037
 31
0.0
  0
TEXT
  5
886
330
6B
100
AcDbEntity
  8
0
  6
Continuous
 62
     4
100
AcDbText
 10
666.7350059999998
 20
156.377896
 30
0.0
 40
3.0
  1
170
100
AcDbText
  0
LINE
  5
887
330
6B
100
AcDbEntity
  8
0
  6
ByBlock
 62
     0
370
    -2
100
AcDbLine
 10
726.9850059999998
 20
156.4227685
 30
0.0
 11
729.4850059999999
 21
155.752896
 31
0.0
  0
LINE
  5
888
330
6B
100
AcDbEntity
  8
0
  6
ByBlock
 62
     0
370
    -2
100
AcDbLine
 10
729.4850059999999
 20
155.752896
 30
0.0
 11
726.9850059999998
 21
155.0830235
 31
0.0
  0
LINE
  5
889
330
6B
100
AcDbEntity
  8
0
  6
ByBlock
 62
     0
370
    -2
100
AcDbLine
 10
729.4850059999999
 20
155.752896
 30
0.0
 11
726.9850059999998
 21
155.752896
 31
0.0
  0
LINE
  5
88A
330
6B
100
AcDbEntity
  8
0
  6
ByBlock
 62
     0
370
    -2
100
AcDbLine
 10
612.9850059999999
 20
155.0830235
 30
0.0
 11
610.485006
 21
155.752896
 31
0.0
  0
LINE
  5
88B
330
6B
100
AcDbEntity
  8
0
  6
ByBlock
 62
     0
370
    -2
100
AcDbLine
 10
610.485006
 20
155.752896
 30
0.0
 11
612.9850059999999
 21
156.4227685
 31
0.0
  0
LINE
  5
88C
330
6B
100
AcDbEntity
  8
0
  6
ByBlock
 62
     0
370
    -2
100
AcDbLine
 10
610.485006
 20
155.752896
 30
0.0
 11
612.9850059999999
 21
155.752896
 31
0.0
  0
ENDSEC
  0
SECTION
  2
OBJECTS
  0
DICTIONARY
  5
C
330
0
100
AcDbDictionary
281
     1
  3
ACAD_2007HEADERVARS_RT
350
890
  3
ACAD_COLOR
350
62
  3
ACAD_GROUP
350
D
  3
ACAD_LAYOUT
350
61
  3
ACAD_MATERIAL
350
10
  3
ACAD_MLEADERSTYLE
350
65
  3
ACAD_MLINESTYLE
350
5E
  3
ACAD_PLOTSETTINGS
350
60
  3
ACAD_PLOTSTYLENAME
350
E
  3
ACAD_SCALELIST
350
42
  3
ACAD_TABLESTYLE
350
63
  3
ACAD_VISUALSTYLE
350
29
  3
ACDB_RECOMPOSE_DATA
350
88E
  3
AcDbVariableDictionary
350
6EC
  3
DWGPROPS
350
88F
  0
DICTIONARY
  5
545
330
2
100
AcDbDictionary
280
     1
281
     1
  3
ACAD_LAYERSTATES
360
546
  0
DICTIONARY
  5
6EA
330
54
100
AcDbDictionary
280
     1
281
     1
  3
ADSK_XREC_LAYER_RECONCILED
360
6EB
  0
DICTIONARY
  5
83C
330
6B
100
AcDbDictionary
280
     1
281
     1
  3
ACAD_SORTENTS
360
83D
  0
DICTIONARY
  5
890
102
{ACAD_REACTORS
330
C
102
}
330
C
100
AcDbDictionary
281
     1
  3
DIMARCSYM
350
892
  3
DIMFXL
350
891
  3
DIMJOGANG
350
893
  0
DICTIONARY
  5
62
102
{ACAD_REACTORS
330
C
102
}
330
C
100
AcDbDictionary
281
     1
  0
DICTIONARY
  5
D
102
{ACAD_REACTORS
330
C
102
}
330
C
100
AcDbDictionary
281
     1
  0
DICTIONARY
  5
61
102
{ACAD_REACTORS
330
C
102
}
330
C
100
AcDbDictionary
281
     1
  3
Model
350
6E
  3
レイアウト1
350
6A
  0
DICTIONARY
  5
10
102
{ACAD_REACTORS
330
C
102
}
330
C
100
AcDbDictionary
281
     1
  3
ByBlock
350
19
  3
ByLayer
350
11
  3
Global
350
21
  0
DICTIONARY
  5
65
102
{ACAD_REACTORS
330
C
102
}
330
C
100
AcDbDictionary
281
     1
  3
Standard
350
66
  0
DICTIONARY
  5
5E
102
{ACAD_REACTORS
330
C
102
}
330
C
100
AcDbDictionary
281
     1
  3
Standard
350
5F
  0
DICTIONARY
  5
60
102
{ACAD_REACTORS
330
C
102
}
330
C
100
AcDbDictionary
281
     1
  0
ACDBDICTIONARYWDFLT
  5
E
102
{ACAD_REACTORS
330
C
102
}
330
C
100
AcDbDictionary
281
     1
  3
Normal
350
F
100
AcDbDictionaryWithDefault
340
F
  0
DICTIONARY
  5
42
102
{ACAD_REACTORS
330
C
102
}
330
C
100
AcDbDictionary
281
     1
  3
A0
350
43
  3
A1
350
44
  3
A2
350
45
  3
A3
350
46
  3
A4
350
47
  3
A5
350
48
  3
A6
350
49
  3
A7
350
4A
  3
A8
350
4B
  3
A9
350
4C
  3
B0
350
4D
  3
B1
350
4E
  3
B2
350
4F
  3
B3
350
50
  3
B4
350
51
  3
B5
350
52
  3
B6
350
53
  0
DICTIONARY
  5
63
102
{ACAD_REACTORS
330
C
102
}
330
C
100
AcDbDictionary
281
     1
  3
Standard
350
64
  0
DICTIONARY
  5
29
102
{ACAD_REACTORS
330
C
102
}
330
C
100
AcDbDictionary
281
     1
  3
2dWireframe
350
2F
  3
3dWireframe
350
542
  3
Basic
350
2E
  3
Brighten
350
35
  3
ColorChange
350
39
  3
Conceptual
350
32
  3
Dim
350
34
  3
EdgeColorOff
350
41
  3
Facepattern
350
38
  3
Flat
350
2A
  3
FlatWithEdges
350
2B
  3
Gouraud
350
2C
  3
GouraudWithEdges
350
2D
  3
Hidden
350
31
  3
JitterOff
350
3F
  3
Linepattern
350
37
  3
OverhangOff
350
40
  3
Realistic
350
33
  3
Shaded
350
3E
  3
Shaded with edges
350
3D
  3
Shades of Gray
350
3A
  3
Sketchy
350
3B
  3
Thicken
350
36
  3
Wireframe
350
30
  3
X-Ray
350
3C
  0
XRECORD
  5
88E
102
{ACAD_REACTORS
330
C
102
}
330
C
100
AcDbXrecord
280
     1
 90
        1
330
64
  0
DICTIONARY
  5
6EC
102
{ACAD_REACTORS
330
C
102
}
330
C
100
AcDbDictionary
281
     1
  3
CANNOSCALE
350
6EF
  3
CMLEADERSTYLE
350
6EE
  3
CTABLESTYLE
350
6ED
  3
DIMASSOC
350
6F2
  3
INDEXCTL
350
6F1
  3
SORTENTS
350
6F0
  3
XCLIPFRAME
350
7BD
  0
XRECORD
  5
88F
102
{ACAD_REACTORS
330
C
102
}
330
C
100
AcDbXrecord
280
     1
  1
DWGPROPS COOKIE
  2

  3

  4

  6

  7

  8
imamura
  9

300
=
301
=
302
=
303
=
304
=
305
=
306
=
307
=
308
=
309
=
 40
0.0105933912037037
 41
2456350.79958875
 42
2457269.370936748
  1

 90
        0
  0
DICTIONARY
  5
546
102
{ACAD_REACTORS
330
545
102
}
330
545
100
AcDbDictionary
281
     1
  0
XRECORD
  5
6EB
102
{ACAD_REACTORS
330
6EA
102
}
330
6EA
100
AcDbXrecord
280
     1
290
     1
  0
SORTENTSTABLE
  5
83D
102
{ACAD_REACTORS
330
83C
102
}
330
83C
100
AcDbSortentsTable
330
6B
331
2E8
  5
323
331
210
  5
237
331
130
  5
157
331
880
  5
D4
331
3E1
  5
423
331
2F9
  5
334
331
221
  5
248
331
141
  5
168
331
84B
  5
58B
331
30A
  5
345
331
232
  5
259
331
152
  5
179
331
403
  5
444
331
31B
  5
356
331
243
  5
26A
331
163
  5
18A
331
85C
  5
2D5
331
414
  5
473
331
32C
  5
367
331
254
  5
27B
331
425
  5
48E
331
33D
  5
378
331
16D
  5
194
331
436
  5
57C
331
34E
  5
38D
331
25E
  5
285
331
17E
  5
1A5
331
87E
  5
DD
331
26F
  5
2B0
331
18F
  5
1B6
331
358
  5
397
331
280
  5
2C1
331
1A0
  5
1C7
331
369
  5
3C3
331
1B1
  5
1D8
331
462
  5
841
331
37A
  5
3DE
331
2AA
  5
2E5
331
473
  5
84C
331
38B
  5
3F3
331
2BB
  5
2F6
331
1D3
  5
1FA
331
484
  5
857
331
2CC
  5
307
331
C4
  5
EB
331
495
  5
868
331
FD
  5
124
331
D5
  5
FC
331
586
  5
87E
331
1EE
  5
215
331
10E
  5
135
331
E6
  5
10D
331
1FF
  5
226
331
11F
  5
146
331
1C2
  5
1E9
331
2D8
  5
313
331
200
  5
227
331
120
  5
147
331
2E9
  5
324
331
211
  5
238
331
131
  5
158
331
881
  5
D5
331
3E2
  5
424
331
2FA
  5
335
331
222
  5
249
331
142
  5
169
331
84C
  5
585
331
3F3
  5
42E
331
30B
  5
346
331
233
  5
25A
331
153
  5
17A
331
404
  5
44A
331
31C
  5
357
331
244
  5
26B
331
164
  5
18B
331
85D
  5
2D6
331
415
  5
474
331
32D
  5
368
331
255
  5
27C
331
426
  5
48F
331
33E
  5
379
331
16E
  5
195
331
437
  5
57D
331
34F
  5
38E
331
25F
  5
286
331
17F
  5
1A6
331
87F
  5
D7
331
270
  5
2B1
331
190
  5
1B7
331
359
  5
398
331
281
  5
2C2
331
1A1
  5
1C8
331
452
  5
58C
331
36A
  5
3C9
331
1B2
  5
1D9
331
463
  5
842
331
37B
  5
3DF
331
2AB
  5
2E6
331
1C3
  5
1EA
331
474
  5
84D
331
2BC
  5
2F7
331
1D4
  5
1FB
331
485
  5
858
331
39D
  5
400
331
2CD
  5
308
331
C5
  5
EC
331
496
  5
869
331
FE
  5
125
331
D6
  5
FD
331
587
  5
87F
331
1EF
  5
216
331
10F
  5
136
331
E7
  5
10E
331
86E
  5
BB
331
588
  5
880
331
1F0
  5
217
331
110
  5
137
331
E8
  5
10F
331
2D9
  5
314
331
201
  5
228
331
121
  5
148
331
3D2
  5
414
331
2EA
  5
325
331
212
  5
239
331
132
  5
159
331
882
  5
D6
331
3E3
  5
425
331
2FB
  5
336
331
223
  5
24A
331
143
  5
16A
331
84D
  5
586
331
3F4
  5
42F
331
30C
  5
347
331
234
  5
25B
331
154
  5
17B
331
405
  5
44B
331
31D
  5
358
331
245
  5
26C
331
165
  5
18C
331
85E
  5
2D7
331
416
  5
47A
331
32E
  5
369
331
256
  5
27D
331
427
  5
490
331
33F
  5
37A
331
16F
  5
196
331
438
  5
57E
331
260
  5
287
331
180
  5
1A7
331
271
  5
2B2
331
191
  5
1B8
331
35A
  5
39D
331
282
  5
2C3
331
1A2
  5
1C9
331
453
  5
58D
331
36B
  5
3CD
331
1B3
  5
1DA
331
464
  5
843
331
37C
  5
3E0
331
2AC
  5
2E7
331
1C4
  5
1EB
331
38D
  5
3F4
331
2BD
  5
2F8
331
1D5
  5
1FC
331
486
  5
859
331
39E
  5
401
331
2CE
  5
309
331
C6
  5
ED
331
497
  5
86A
331
FF
  5
126
331
D7
  5
FE
331
86F
  5
BC
331
1E0
  5
207
331
100
  5
127
331
D8
  5
FF
331
589
  5
881
331
3C9
  5
410
331
1F1
  5
218
331
111
  5
138
331
E9
  5
110
331
2DA
  5
315
331
202
  5
229
331
122
  5
149
331
3D3
  5
415
331
2EB
  5
326
331
213
  5
23A
331
133
  5
15A
331
883
  5
D1
331
3E4
  5
426
331
2FC
  5
337
331
224
  5
24B
331
144
  5
16B
331
3F5
  5
430
331
30D
  5
348
331
235
  5
25C
331
155
  5
17C
331
84E
  5
2DB
331
406
  5
44C
331
31E
  5
359
331
246
  5
26D
331
166
  5
18D
331
85F
  5
2D8
331
417
  5
47B
331
32F
  5
36A
331
257
  5
27E
331
428
  5
491
331
340
  5
37B
331
170
  5
197
331
439
  5
57F
331
261
  5
288
331
181
  5
1A8
331
272
  5
2B3
331
192
  5
1B9
331
35B
  5
39E
331
283
  5
2C4
331
1A3
  5
1CA
331
454
  5
58E
331
36C
  5
3CE
331
1B4
  5
1DB
331
37D
  5
3E1
331
2AD
  5
2E8
331
1C5
  5
1EC
331
38E
  5
3F5
331
2BE
  5
2F9
331
1D6
  5
1FD
331
487
  5
85A
331
39F
  5
402
331
2CF
  5
30A
331
C7
  5
EE
331
870
  5
BD
331
488
  5
85B
331
3A0
  5
403
331
2D0
  5
30B
331
F0
  5
117
331
C8
  5
EF
331
1E1
  5
208
331
101
  5
128
331
D9
  5
100
331
58A
  5
882
331
1F2
  5
219
331
112
  5
139
331
EA
  5
111
331
2DB
  5
316
331
203
  5
22A
331
123
  5
14A
331
3D4
  5
416
331
2EC
  5
327
331
214
  5
23B
331
134
  5
15B
331
884
  5
D2
331
83E
  5
853
331
3E5
  5
427
331
2FD
  5
338
331
225
  5
24C
331
145
  5
16C
331
3F6
  5
431
331
30E
  5
349
331
236
  5
25D
331
156
  5
17D
331
84F
  5
2DC
331
407
  5
452
331
31F
  5
35A
331
247
  5
26E
331
167
  5
18E
331
418
  5
47C
331
330
  5
36B
331
860
  5
2D9
331
429
  5
492
331
341
  5
37C
331
171
  5
198
331
43A
  5
580
331
262
  5
289
331
182
  5
1A9
331
273
  5
2B4
331
193
  5
1BA
331
35C
  5
39F
331
284
  5
2C5
331
1A4
  5
1CB
331
36D
  5
3CF
331
1B5
  5
1DC
331
37E
  5
3E2
331
2AE
  5
2E9
331
1C6
  5
1ED
331
38F
  5
3F6
331
2BF
  5
2FA
331
1D7
  5
1FE
331
390
  5
3F7
331
2C0
  5
2FB
331
1D8
  5
1FF
331
489
  5
85C
331
3A1
  5
404
331
2D1
  5
30C
331
F1
  5
118
331
C9
  5
F0
331
57A
  5
870
331
1E2
  5
209
331
102
  5
129
331
DA
  5
101
331
58B
  5
883
331
1F3
  5
21A
331
113
  5
13A
331
EB
  5
112
331
2DC
  5
317
331
204
  5
22B
331
124
  5
14B
331
3D5
  5
417
331
2ED
  5
328
331
215
  5
23C
331
135
  5
15C
331
885
  5
D3
331
83F
  5
854
331
3E6
  5
428
331
2FE
  5
339
331
226
  5
24D
331
146
  5
16D
331
3F7
  5
432
331
30F
  5
34A
331
237
  5
25E
331
157
  5
17E
331
850
  5
2DD
331
408
  5
453
331
320
  5
35B
331
248
  5
26F
331
419
  5
482
331
331
  5
36C
331
861
  5
2DA
331
42A
  5
493
331
342
  5
37D
331
172
  5
199
331
43B
  5
581
331
263
  5
28A
331
274
  5
2B5
331
194
  5
1BB
331
35D
  5
3A0
331
285
  5
2C6
331
1A5
  5
1CC
331
36E
  5
3D2
331
1B6
  5
1DD
331
37F
  5
3E3
331
2AF
  5
2EA
331
1C7
  5
1EE
331
183
  5
1AA
331
7B9
  5
887
331
380
  5
3E4
331
2B0
  5
2EB
331
1C8
  5
1EF
331
391
  5
3F8
331
2C1
  5
2FC
331
1D9
  5
200
331
48A
  5
85D
331
3A2
  5
405
331
2D2
  5
30D
331
F2
  5
119
331
CA
  5
F1
331
57B
  5
871
331
3BB
  5
40D
331
1E3
  5
20A
331
103
  5
12A
331
DB
  5
102
331
58C
  5
884
331
1F4
  5
21B
331
114
  5
13B
331
EC
  5
113
331
2DD
  5
318
331
205
  5
22C
331
125
  5
14C
331
3D6
  5
418
331
2EE
  5
329
331
216
  5
23D
331
136
  5
15D
331
886
  5
CD
331
840
  5
84E
331
3E7
  5
429
331
2FF
  5
33A
331
227
  5
24E
331
147
  5
16E
331
3F8
  5
433
331
310
  5
34B
331
238
  5
25F
331
158
  5
17F
331
851
  5
2DE
331
409
  5
454
331
321
  5
35C
331
249
  5
270
331
41A
  5
483
331
332
  5
36D
331
862
  5
D8
331
42B
  5
494
331
343
  5
37E
331
173
  5
19A
331
BB
  5
E2
331
264
  5
28B
331
184
  5
1AB
331
275
  5
2B6
331
35E
  5
3A1
331
286
  5
2C7
331
1A6
  5
1CD
331
36F
  5
3D3
331
1B7
  5
1DE
331
195
  5
1BC
331
370
  5
3D4
331
1B8
  5
1DF
331
7BA
  5
888
331
381
  5
3E5
331
2B1
  5
2EC
331
1C9
  5
1F0
331
47A
  5
850
331
392
  5
3F9
331
2C2
  5
2FD
331
1DA
  5
201
331
48B
  5
85E
331
3A3
  5
406
331
2D3
  5
30E
331
F3
  5
11A
331
CB
  5
F2
331
57C
  5
874
331
1E4
  5
20B
331
104
  5
12B
331
DC
  5
103
331
58D
  5
885
331
3CD
  5
411
331
1F5
  5
21C
331
115
  5
13C
331
ED
  5
114
331
2DE
  5
319
331
206
  5
22D
331
126
  5
14D
331
3D7
  5
419
331
2EF
  5
32A
331
217
  5
23E
331
137
  5
15E
331
887
  5
C7
331
841
  5
84F
331
3E8
  5
42A
331
300
  5
33B
331
228
  5
24F
331
148
  5
16F
331
3F9
  5
434
331
311
  5
34C
331
239
  5
260
331
159
  5
180
331
852
  5
2DF
331
40A
  5
45A
331
322
  5
35D
331
24A
  5
271
331
874
  5
88C
331
41B
  5
484
331
333
  5
36E
331
863
  5
D9
331
42C
  5
495
331
344
  5
37F
331
174
  5
19B
331
265
  5
28C
331
185
  5
1AC
331
BC
  5
E3
331
276
  5
2B7
331
35F
  5
3A2
331
287
  5
2C8
331
1A7
  5
1CE
331
196
  5
1BD
331
360
  5
3A3
331
288
  5
2C9
331
1A8
  5
1CF
331
371
  5
3D5
331
1B9
  5
1E0
331
46A
  5
846
331
382
  5
3E6
331
2B2
  5
2ED
331
1CA
  5
1F1
331
47B
  5
851
331
393
  5
3FA
331
2C3
  5
2FE
331
1DB
  5
202
331
48C
  5
85F
331
3A4
  5
407
331
2D4
  5
30F
331
F4
  5
11B
331
CC
  5
F3
331
57D
  5
875
331
3BD
  5
40E
331
1E5
  5
20C
331
105
  5
12C
331
DD
  5
104
331
58E
  5
886
331
3CE
  5
412
331
1F6
  5
21D
331
116
  5
13D
331
EE
  5
115
331
2DF
  5
31A
331
207
  5
22E
331
127
  5
14E
331
3D8
  5
41A
331
2F0
  5
32B
331
218
  5
23F
331
138
  5
15F
331
888
  5
C8
331
842
  5
849
331
3E9
  5
42B
331
301
  5
33C
331
229
  5
250
331
149
  5
170
331
3FA
  5
435
331
312
  5
34D
331
23A
  5
261
331
15A
  5
181
331
853
  5
2E0
331
40B
  5
45B
331
323
  5
35E
331
24B
  5
272
331
875
  5
889
331
41C
  5
485
331
334
  5
36F
331
42D
  5
496
331
345
  5
380
331
175
  5
19C
331
BD
  5
E4
331
266
  5
28D
331
186
  5
1AD
331
864
  5
DA
331
277
  5
2B8
331
197
  5
1BE
331
350
  5
38F
331
278
  5
2B9
331
198
  5
1BF
331
361
  5
3A4
331
289
  5
2CA
331
1A9
  5
1D0
331
45A
  5
83A
331
372
  5
3D6
331
1BA
  5
1E1
331
46B
  5
847
331
383
  5
3E7
331
2B3
  5
2EE
331
1CB
  5
1F2
331
47C
  5
852
331
394
  5
3FB
331
2C4
  5
2FF
331
1DC
  5
203
331
48D
  5
860
331
3A5
  5
408
331
2D5
  5
310
331
F5
  5
11C
331
CD
  5
F4
331
57E
  5
876
331
1E6
  5
20D
331
106
  5
12D
331
DE
  5
105
331
3CF
  5
413
331
1F7
  5
21E
331
117
  5
13E
331
EF
  5
116
331
2E0
  5
31B
331
208
  5
22F
331
128
  5
14F
331
3D9
  5
41B
331
2F1
  5
32C
331
219
  5
240
331
139
  5
160
331
889
  5
C9
331
843
  5
84A
331
3EA
  5
42C
331
302
  5
33D
331
22A
  5
251
331
14A
  5
171
331
3FB
  5
436
331
313
  5
34E
331
23B
  5
262
331
15B
  5
182
331
854
  5
2E1
331
40C
  5
45C
331
324
  5
35F
331
876
  5
88A
331
41D
  5
486
331
335
  5
370
331
42E
  5
497
331
346
  5
381
331
176
  5
19D
331
267
  5
28E
331
187
  5
1AE
331
BE
  5
E5
331
24C
  5
273
331
268
  5
28F
331
188
  5
1AF
331
351
  5
390
331
279
  5
2BA
331
199
  5
1C0
331
44A
  5
587
331
362
  5
3A5
331
28A
  5
2CB
331
1AA
  5
1D1
331
45B
  5
83B
331
373
  5
3D7
331
1BB
  5
1E2
331
46C
  5
848
331
384
  5
3E8
331
2B4
  5
2EF
331
1CC
  5
1F3
331
395
  5
3FC
331
2C5
  5
300
331
1DD
  5
204
331
48E
  5
861
331
3A6
  5
409
331
2D6
  5
311
331
F6
  5
11D
331
CE
  5
F5
331
57F
  5
877
331
1E7
  5
20E
331
107
  5
12E
331
DF
  5
106
331
1F8
  5
21F
331
118
  5
13F
331
2E1
  5
31C
331
209
  5
230
331
129
  5
150
331
3DA
  5
41C
331
2F2
  5
32D
331
21A
  5
241
331
13A
  5
161
331
88A
  5
C1
331
3EB
  5
42D
331
303
  5
33E
331
22B
  5
252
331
14B
  5
172
331
3FC
  5
437
331
314
  5
34F
331
23C
  5
263
331
15C
  5
183
331
40D
  5
462
331
325
  5
360
331
24D
  5
274
331
877
  5
88B
331
41E
  5
487
331
336
  5
371
331
42F
  5
498
331
347
  5
382
331
177
  5
19E
331
BF
  5
E6
331
855
  5
2E2
331
498
  5
86B
331
878
  5
E1
331
430
  5
499
331
348
  5
383
331
258
  5
27F
331
178
  5
19F
331
269
  5
2AA
331
189
  5
1B0
331
352
  5
391
331
27A
  5
2BB
331
19A
  5
1C1
331
44B
  5
588
331
363
  5
3A6
331
28B
  5
2CC
331
1AB
  5
1D2
331
45C
  5
83E
331
374
  5
3D8
331
1BC
  5
1E3
331
385
  5
3E9
331
2B5
  5
2F0
331
1CD
  5
1F4
331
396
  5
3FD
331
2C6
  5
301
331
1DE
  5
205
331
48F
  5
862
331
3A7
  5
40A
331
2D7
  5
312
331
F7
  5
11E
331
CF
  5
F6
331
580
  5
878
331
1E8
  5
20F
331
108
  5
12F
331
E0
  5
107
331
1F9
  5
220
331
119
  5
140
331
2E2
  5
31D
331
20A
  5
231
331
12A
  5
151
331
3DB
  5
41D
331
2F3
  5
32E
331
21B
  5
242
331
13B
  5
162
331
88B
  5
C2
331
304
  5
33F
331
22C
  5
253
331
3FD
  5
438
331
315
  5
350
331
23D
  5
264
331
15D
  5
184
331
856
  5
2E3
331
40E
  5
463
331
326
  5
361
331
41F
  5
488
331
337
  5
372
331
24E
  5
275
331
14C
  5
173
331
420
  5
489
331
338
  5
373
331
168
  5
18F
331
868
  5
CE
331
499
  5
86C
331
879
  5
DE
331
431
  5
49A
331
349
  5
384
331
259
  5
280
331
179
  5
1A0
331
442
  5
582
331
26A
  5
2AB
331
18A
  5
1B1
331
353
  5
392
331
27B
  5
2BC
331
19B
  5
1C2
331
44C
  5
589
331
364
  5
3A7
331
28C
  5
2CD
331
1AC
  5
1D3
331
375
  5
3D9
331
1BD
  5
1E4
331
386
  5
3EA
331
2B6
  5
2F1
331
1CE
  5
1F5
331
397
  5
3FE
331
2C7
  5
302
331
490
  5
863
331
3A8
  5
40B
331
F8
  5
11F
331
D0
  5
F7
331
1DF
  5
206
331
581
  5
879
331
1E9
  5
210
331
109
  5
130
331
E1
  5
108
331
1FA
  5
221
331
11A
  5
141
331
2E3
  5
31E
331
20B
  5
232
331
12B
  5
152
331
3DC
  5
41E
331
2F4
  5
32F
331
21C
  5
243
331
13C
  5
163
331
88C
  5
C3
331
846
  5
83F
331
305
  5
340
331
22D
  5
254
331
3FE
  5
439
331
316
  5
351
331
23E
  5
265
331
15E
  5
185
331
857
  5
2E4
331
40F
  5
464
331
327
  5
362
331
24F
  5
276
331
14D
  5
174
331
858
  5
2D1
331
410
  5
46A
331
328
  5
363
331
250
  5
277
331
421
  5
48A
331
339
  5
374
331
169
  5
190
331
869
  5
CF
331
49A
  5
86D
331
87A
  5
DF
331
432
  5
49B
331
34A
  5
385
331
25A
  5
281
331
17A
  5
1A1
331
443
  5
583
331
26B
  5
2AC
331
354
  5
393
331
27C
  5
2BD
331
19C
  5
1C3
331
365
  5
3A8
331
28D
  5
2CE
331
1AD
  5
1D4
331
376
  5
3DA
331
1BE
  5
1E5
331
2B7
  5
2F2
331
1CF
  5
1F6
331
398
  5
3FF
331
2C8
  5
303
331
491
  5
864
331
3A9
  5
40C
331
F9
  5
120
331
D1
  5
F8
331
C0
  5
E7
331
582
  5
87A
331
1EA
  5
211
331
10A
  5
131
331
E2
  5
109
331
18B
  5
1B2
331
1FB
  5
222
331
11B
  5
142
331
2E4
  5
31F
331
20C
  5
233
331
12C
  5
153
331
3DD
  5
41F
331
2F5
  5
330
331
21D
  5
244
331
847
  5
840
331
306
  5
341
331
22E
  5
255
331
14E
  5
175
331
3FF
  5
43A
331
317
  5
352
331
23F
  5
266
331
15F
  5
186
331
13D
  5
164
331
848
  5
7B9
331
400
  5
43B
331
318
  5
353
331
240
  5
267
331
160
  5
187
331
859
  5
2D2
331
411
  5
46B
331
329
  5
364
331
251
  5
278
331
422
  5
48B
331
33A
  5
375
331
16A
  5
191
331
86A
  5
D0
331
49B
  5
86E
331
87B
  5
E0
331
433
  5
49C
331
34B
  5
386
331
25B
  5
282
331
17B
  5
1A2
331
444
  5
584
331
26C
  5
2AD
331
355
  5
394
331
27D
  5
2BE
331
19D
  5
1C4
331
366
  5
3A9
331
28E
  5
2CF
331
1AE
  5
1D5
331
377
  5
3DB
331
1BF
  5
1E6
331
2B8
  5
2F3
331
1D0
  5
1F7
331
2C9
  5
304
331
492
  5
865
331
FA
  5
121
331
D2
  5
F9
331
C1
  5
E8
331
583
  5
87B
331
3C3
  5
40F
331
1EB
  5
212
331
10B
  5
132
331
E3
  5
10A
331
1FC
  5
223
331
11C
  5
143
331
2E5
  5
320
331
20D
  5
234
331
12D
  5
154
331
3DE
  5
420
331
2F6
  5
331
331
21E
  5
245
331
307
  5
342
331
22F
  5
256
331
14F
  5
176
331
13E
  5
165
331
18C
  5
1B3
331
849
  5
7BA
331
308
  5
343
331
230
  5
257
331
150
  5
177
331
401
  5
442
331
319
  5
354
331
241
  5
268
331
161
  5
188
331
85A
  5
2D3
331
412
  5
46C
331
32A
  5
365
331
252
  5
279
331
423
  5
48C
331
33B
  5
376
331
16B
  5
192
331
49C
  5
86F
331
87C
  5
DB
331
434
  5
57A
331
34C
  5
389
331
25C
  5
283
331
17C
  5
1A3
331
26D
  5
2AE
331
356
  5
395
331
27E
  5
2BF
331
19E
  5
1C5
331
367
  5
3BB
331
28F
  5
2D0
331
1AF
  5
1D6
331
378
  5
3DC
331
1C0
  5
1E7
331
389
  5
3EB
331
2B9
  5
2F4
331
482
  5
855
331
2CA
  5
305
331
C2
  5
E9
331
1D1
  5
1F8
331
493
  5
866
331
FB
  5
122
331
D3
  5
FA
331
584
  5
87C
331
1EC
  5
213
331
10C
  5
133
331
E4
  5
10B
331
1FD
  5
224
331
11D
  5
144
331
2E6
  5
321
331
20E
  5
235
331
12E
  5
155
331
3DF
  5
421
331
2F7
  5
332
331
21F
  5
246
331
13F
  5
166
331
18D
  5
1B4
331
3E0
  5
422
331
2F8
  5
333
331
220
  5
247
331
140
  5
167
331
84A
  5
58A
331
309
  5
344
331
231
  5
258
331
151
  5
178
331
402
  5
443
331
31A
  5
355
331
242
  5
269
331
162
  5
189
331
85B
  5
2D4
331
413
  5
472
331
32B
  5
366
331
253
  5
27A
331
424
  5
48D
331
33C
  5
377
331
16C
  5
193
331
435
  5
57B
331
34D
  5
38B
331
25D
  5
284
331
17D
  5
1A4
331
87D
  5
DC
331
26E
  5
2AF
331
18E
  5
1B5
331
357
  5
396
331
27F
  5
2C0
331
19F
  5
1C6
331
368
  5
3BD
331
379
  5
3DD
331
1C1
  5
1E8
331
472
  5
84B
331
2BA
  5
2F5
331
1D2
  5
1F9
331
483
  5
856
331
2CB
  5
306
331
C3
  5
EA
331
494
  5
867
331
FC
  5
123
331
D4
  5
FB
331
585
  5
87D
331
1ED
  5
214
331
10D
  5
134
331
E5
  5
10C
331
1FE
  5
225
331
11E
  5
145
331
2E7
  5
322
331
20F
  5
236
331
12F
  5
156
331
1B0
  5
1D7
  0
XRECORD
  5
892
102
{ACAD_REACTORS
330
890
102
}
330
890
100
AcDbXrecord
280
     1
 70
     2
  0
XRECORD
  5
891
102
{ACAD_REACTORS
330
890
102
}
330
890
100
AcDbXrecord
280
     1
 40
1.25
  0
XRECORD
  5
893
102
{ACAD_REACTORS
330
890
102
}
330
890
100
AcDbXrecord
280
     1
 40
1.570796326794896
  0
LAYOUT
  5
6E
102
{ACAD_XDICTIONARY
360
8C7
102
}
102
{ACAD_REACTORS
330
61
102
}
330
61
100
AcDbPlotSettings
  1

  2
FX DP 205
  4

  6

 40
0.0
 41
0.0
 42
0.0
 43
0.0
 44
0.0
 45
0.0
 46
0.0
 47
0.0
 48
0.0
 49
0.0
140
0.0
141
0.0
142
1.0
143
1.0
 70
  1712
 72
     0
 73
     0
 74
     0
  7

 75
     0
147
1.0
148
0.0
149
0.0
100
AcDbLayout
  1
Model
 70
     1
 71
     0
 10
0.0
 20
0.0
 11
12.0
 21
9.0
 12
0.0
 22
0.0
 32
0.0
 14
0.0
 24
0.0
 34
0.0
 15
0.0
 25
0.0
 35
0.0
146
0.0
 13
0.0
 23
0.0
 33
0.0
 16
1.0
 26
0.0
 36
0.0
 17
0.0
 27
1.0
 37
0.0
 76
     0
330
6B
331
8B
  0
LAYOUT
  5
6A
102
{ACAD_XDICTIONARY
360
8C5
102
}
102
{ACAD_REACTORS
330
61
102
}
330
61
100
AcDbPlotSettings
  1

  2
FX DP 205
  4

  6

 40
0.0
 41
0.0
 42
0.0
 43
0.0
 44
0.0
 45
0.0
 46
0.0
 47
0.0
 48
0.0
 49
0.0
140
0.0
141
0.0
142
1.0
143
1.0
 70
   688
 72
     0
 73
     0
 74
     5
  7

 75
    16
147
1.0
148
0.0
149
0.0
100
AcDbLayout
  1
レイアウト1
 70
     1
 71
     1
 10
0.0
 20
0.0
 11
12.0
 21
9.0
 12
0.0
 22
0.0
 32
0.0
 14
1.000000000000000E+20
 24
1.000000000000000E+20
 34
1.000000000000000E+20
 15
-1.000000000000000E+20
 25
-1.000000000000000E+20
 35
-1.000000000000000E+20
146
0.0
 13
0.0
 23
0.0
 33
0.0
 16
1.0
 26
0.0
 36
0.0
 17
0.0
 27
1.0
 37
0.0
 76
     0
330
67
  0
MATERIAL
  5
19
102
{ACAD_XDICTIONARY
360
1A
102
}
102
{ACAD_REACTORS
330
10
102
}
330
10
100
AcDbMaterial
  1
ByBlock
 72
     0
 43
0.0208333333333333
 43
0.0
 43
0.0
 43
0.0
 43
0.0
 43
0.0208333333333333
 43
0.0
 43
0.0
 43
0.0
 43
0.0
 43
1.0
 43
0.0
 43
0.0
 43
0.0
 43
0.0
 43
1.0
 77
     0
 47
0.0208333333333333
 47
0.0
 47
0.0
 47
0.0
 47
0.0
 47
0.0208333333333333
 47
0.0
 47
0.0
 47
0.0
 47
0.0
 47
1.0
 47
0.0
 47
0.0
 47
0.0
 47
0.0
 47
1.0
171
     0
 49
0.0208333333333333
 49
0.0
 49
0.0
 49
0.0
 49
0.0
 49
0.0208333333333333
 49
0.0
 49
0.0
 49
0.0
 49
0.0
 49
1.0
 49
0.0
 49
0.0
 49
0.0
 49
0.0
 49
1.0
175
     0
142
0.0208333333333333
142
0.0
142
0.0
142
0.0
142
0.0
142
0.0208333333333333
142
0.0
142
0.0
142
0.0
142
0.0
142
1.0
142
0.0
142
0.0
142
0.0
142
0.0
142
1.0
179
     0
144
0.0208333333333333
144
0.0
144
0.0
144
0.0
144
0.0
144
0.0208333333333333
144
0.0
144
0.0
144
0.0
144
0.0
144
1.0
144
0.0
144
0.0
144
0.0
144
0.0
144
1.0
147
0.0208333333333333
147
0.0
147
0.0
147
0.0
147
0.0
147
0.0208333333333333
147
0.0
147
0.0
147
0.0
147
0.0
147
1.0
147
0.0
147
0.0
147
0.0
147
0.0
147
1.0
  0
MATERIAL
  5
11
102
{ACAD_XDICTIONARY
360
12
102
}
102
{ACAD_REACTORS
330
10
102
}
330
10
100
AcDbMaterial
  1
ByLayer
 72
     0
 43
0.0208333333333333
 43
0.0
 43
0.0
 43
0.0
 43
0.0
 43
0.0208333333333333
 43
0.0
 43
0.0
 43
0.0
 43
0.0
 43
1.0
 43
0.0
 43
0.0
 43
0.0
 43
0.0
 43
1.0
 77
     0
 47
0.0208333333333333
 47
0.0
 47
0.0
 47
0.0
 47
0.0
 47
0.0208333333333333
 47
0.0
 47
0.0
 47
0.0
 47
0.0
 47
1.0
 47
0.0
 47
0.0
 47
0.0
 47
0.0
 47
1.0
171
     0
 49
0.0208333333333333
 49
0.0
 49
0.0
 49
0.0
 49
0.0
 49
0.0208333333333333
 49
0.0
 49
0.0
 49
0.0
 49
0.0
 49
1.0
 49
0.0
 49
0.0
 49
0.0
 49
0.0
 49
1.0
175
     0
142
0.0208333333333333
142
0.0
142
0.0
142
0.0
142
0.0
142
0.0208333333333333
142
0.0
142
0.0
142
0.0
142
0.0
142
1.0
142
0.0
142
0.0
142
0.0
142
0.0
142
1.0
179
     0
144
0.0208333333333333
144
0.0
144
0.0
144
0.0
144
0.0
144
0.0208333333333333
144
0.0
144
0.0
144
0.0
144
0.0
144
1.0
144
0.0
144
0.0
144
0.0
144
0.0
144
1.0
147
0.0208333333333333
147
0.0
147
0.0
147
0.0
147
0.0
147
0.0208333333333333
147
0.0
147
0.0
147
0.0
147
0.0
147
1.0
147
0.0
147
0.0
147
0.0
147
0.0
147
1.0
  0
MATERIAL
  5
21
102
{ACAD_XDICTIONARY
360
22
102
}
102
{ACAD_REACTORS
330
10
102
}
330
10
100
AcDbMaterial
  1
Global
 72
     0
 43
0.0208333333333333
 43
0.0
 43
0.0
 43
0.0
 43
0.0
 43
0.0208333333333333
 43
0.0
 43
0.0
 43
0.0
 43
0.0
 43
1.0
 43
0.0
 43
0.0
 43
0.0
 43
0.0
 43
1.0
 77
     0
 47
0.0208333333333333
 47
0.0
 47
0.0
 47
0.0
 47
0.0
 47
0.0208333333333333
 47
0.0
 47
0.0
 47
0.0
 47
0.0
 47
1.0
 47
0.0
 47
0.0
 47
0.0
 47
0.0
 47
1.0
171
     0
 49
0.0208333333333333
 49
0.0
 49
0.0
 49
0.0
 49
0.0
 49
0.0208333333333333
 49
0.0
 49
0.0
 49
0.0
 49
0.0
 49
1.0
 49
0.0
 49
0.0
 49
0.0
 49
0.0
 49
1.0
175
     0
142
0.0208333333333333
142
0.0
142
0.0
142
0.0
142
0.0
142
0.0208333333333333
142
0.0
142
0.0
142
0.0
142
0.0
142
1.0
142
0.0
142
0.0
142
0.0
142
0.0
142
1.0
179
     0
144
0.0208333333333333
144
0.0
144
0.0
144
0.0
144
0.0
144
0.0208333333333333
144
0.0
144
0.0
144
0.0
144
0.0
144
1.0
144
0.0
144
0.0
144
0.0
144
0.0
144
1.0
147
0.0208333333333333
147
0.0
147
0.0
147
0.0
147
0.0
147
0.0208333333333333
147
0.0
147
0.0
147
0.0
147
0.0
147
1.0
147
0.0
147
0.0
147
0.0
147
0.0
147
1.0
  0
MLEADERSTYLE
  5
66
102
{ACAD_REACTORS
330
65
102
}
330
65
100
AcDbMLeaderStyle
170
     2
171
     1
172
     0
 90
        2
 40
0.0
 41
0.0
173
     1
 91
-1056964608
340
5A
 92
       -2
290
     1
 42
0.09
291
     1
 43
0.36
  3
Standard
 44
0.18
300

342
55
174
     1
178
     6
175
     1
176
     0
 93
-1056964608
 45
0.18
292
     0
297
     0
 46
0.18
 94
-1056964608
 47
1.0
 49
1.0
140
1.0
293
     1
141
0.0
294
     1
177
     0
142
1.0
295
     0
296
     0
143
0.125
1001
ACAD_MLEADERVER
1070
     2
  0
MLINESTYLE
  5
5F
102
{ACAD_REACTORS
330
5E
102
}
330
5E
100
AcDbMlineStyle
  2
STANDARD
 70
     0
  3

 62
   256
 51
90.0
 52
90.0
 71
     2
 49
0.5
 62
   256
  6
BYLAYER
 49
-0.5
 62
   256
  6
BYLAYER
  0
ACDBPLACEHOLDER
  5
F
102
{ACAD_REACTORS
330
E
102
}
330
E
  0
SCALE
  5
43
102
{ACAD_REACTORS
330
42
102
}
330
42
100
AcDbScale
 70
     0
300
1:1
140
1.0
141
1.0
290
     1
  0
SCALE
  5
44
102
{ACAD_REACTORS
330
42
102
}
330
42
100
AcDbScale
 70
     0
300
1/128" = 1'-0"
140
0.0078125
141
12.0
290
     0
  0
SCALE
  5
45
102
{ACAD_REACTORS
330
42
102
}
330
42
100
AcDbScale
 70
     0
300
1/64" = 1'-0"
140
0.015625
141
12.0
290
     0
  0
SCALE
  5
46
102
{ACAD_REACTORS
330
42
102
}
330
42
100
AcDbScale
 70
     0
300
1/32" = 1'-0"
140
0.03125
141
12.0
290
     0
  0
SCALE
  5
47
102
{ACAD_REACTORS
330
42
102
}
330
42
100
AcDbScale
 70
     0
300
1/16" = 1'-0"
140
0.0625
141
12.0
290
     0
  0
SCALE
  5
48
102
{ACAD_REACTORS
330
42
102
}
330
42
100
AcDbScale
 70
     0
300
3/32" = 1'-0"
140
0.09375
141
12.0
290
     0
  0
SCALE
  5
49
102
{ACAD_REACTORS
330
42
102
}
330
42
100
AcDbScale
 70
     0
300
1/8" = 1'-0"
140
0.125
141
12.0
290
     0
  0
SCALE
  5
4A
102
{ACAD_REACTORS
330
42
102
}
330
42
100
AcDbScale
 70
     0
300
3/16" = 1'-0"
140
0.1875
141
12.0
290
     0
  0
SCALE
  5
4B
102
{ACAD_REACTORS
330
42
102
}
330
42
100
AcDbScale
 70
     0
300
1/4" = 1'-0"
140
0.25
141
12.0
290
     0
  0
SCALE
  5
4C
102
{ACAD_REACTORS
330
42
102
}
330
42
100
AcDbScale
 70
     0
300
3/8" = 1'-0"
140
0.375
141
12.0
290
     0
  0
SCALE
  5
4D
102
{ACAD_REACTORS
330
42
102
}
330
42
100
AcDbScale
 70
     0
300
1/2" = 1'-0"
140
0.5
141
12.0
290
     0
  0
SCALE
  5
4E
102
{ACAD_REACTORS
330
42
102
}
330
42
100
AcDbScale
 70
     0
300
3/4" = 1'-0"
140
0.75
141
12.0
290
     0
  0
SCALE
  5
4F
102
{ACAD_REACTORS
330
42
102
}
330
42
100
AcDbScale
 70
     0
300
1" = 1'-0"
140
1.0
141
12.0
290
     0
  0
SCALE
  5
50
102
{ACAD_REACTORS
330
42
102
}
330
42
100
AcDbScale
 70
     0
300
1-1/2" = 1'-0"
140
1.5
141
12.0
290
     0
  0
SCALE
  5
51
102
{ACAD_REACTORS
330
42
102
}
330
42
100
AcDbScale
 70
     0
300
3" = 1'-0"
140
3.0
141
12.0
290
     0
  0
SCALE
  5
52
102
{ACAD_REACTORS
330
42
102
}
330
42
100
AcDbScale
 70
     0
300
6" = 1'-0"
140
6.0
141
12.0
290
     0
  0
SCALE
  5
53
102
{ACAD_REACTORS
330
42
102
}
330
42
100
AcDbScale
 70
     0
300
1'-0" = 1'-0"
140
12.0
141
12.0
290
     0
  0
TABLESTYLE
  5
64
102
{ACAD_XDICTIONARY
360
6F4
102
}
102
{ACAD_REACTORS
330
63
102
}
330
63
100
AcDbTableStyle
  3
Standard
 70
     0
 71
     0
 40
0.06
 41
0.06
280
     0
281
     0
  7
STANDARD
140
0.18
170
     2
 62
     0
 63
     7
283
     0
274
    -2
284
     1
 64
     0
275
    -2
285
     1
 65
     0
276
    -2
286
     1
 66
     0
277
    -2
287
     1
 67
     0
278
    -2
288
     1
 68
     0
279
    -2
289
     1
 69
     0
  7
STANDARD
140
0.25
170
     5
 62
     0
 63
     7
283
     0
274
    -2
284
     1
 64
     0
275
    -2
285
     1
 65
     0
276
    -2
286
     1
 66
     0
277
    -2
287
     1
 67
     0
278
    -2
288
     1
 68
     0
279
    -2
289
     1
 69
     0
  7
STANDARD
140
0.18
170
     5
 62
     0
 63
     7
283
     0
274
    -2
284
     1
 64
     0
275
    -2
285
     1
 65
     0
276
    -2
286
     1
 66
     0
277
    -2
287
     1
 67
     0
278
    -2
288
     1
 68
     0
279
    -2
289
     1
 69
     0
  0
VISUALSTYLE
  5
2F
102
{ACAD_XDICTIONARY
360
89E
102
}
102
{ACAD_REACTORS
330
29
102
}
330
29
100
AcDbVisualStyle
  2

 70
     4
 71
     0
 72
     2
 73
     0
 90
        0
 40
-0.6
 41
-30.0
 62
     5
 63
     7
 74
     1
 91
        4
 64
     7
 65
   257
 75
     1
175
     1
 42
1.0
 92
        0
 66
   257
 43
1.0
 76
     1
 77
     6
 78
     2
 67
     7
 79
     5
170
     0
171
     0
290
     0
174
     0
 93
        1
 44
0.0
173
     0
291
     0
 45
0.0
1001
ACAD
1000
AcDbSavedByObjectVersion
1070
     0
  0
VISUALSTYLE
  5
542
102
{ACAD_XDICTIONARY
360
8C9
102
}
102
{ACAD_REACTORS
330
29
102
}
330
29
100
AcDbVisualStyle
  2

 70
     5
 71
     0
 72
     2
 73
     1
 90
        0
 40
-0.6
 41
-30.0
 62
     5
 63
     7
 74
     1
 91
        4
 64
     7
 65
   257
 75
     1
175
     1
 42
1.0
 92
        0
 66
   257
 43
1.0
 76
     1
 77
     6
 78
     2
 67
     7
 79
     5
170
     0
171
     0
290
     0
174
     0
 93
        1
 44
0.0
173
     0
291
     0
 45
0.0
1001
ACAD
1000
AcDbSavedByObjectVersion
1070
     0
  0
VISUALSTYLE
  5
2E
102
{ACAD_XDICTIONARY
360
89C
102
}
102
{ACAD_REACTORS
330
29
102
}
330
29
100
AcDbVisualStyle
  2

 70
     7
 71
     1
 72
     0
 73
     1
 90
        0
 40
-0.6
 41
-30.0
 62
     5
 63
     7
 74
     0
 91
        4
 64
     7
 65
   257
 75
     1
175
     1
 42
1.0
 92
        8
 66
     7
 43
1.0
 76
     1
 77
     6
 78
     2
 67
     7
 79
     5
170
     0
171
     0
290
     0
174
     0
 93
        1
 44
0.0
173
     0
291
     1
 45
0.0
1001
ACAD
1000
AcDbSavedByObjectVersion
1070
     0
  0
VISUALSTYLE
  5
35
102
{ACAD_XDICTIONARY
360
8AA
102
}
102
{ACAD_REACTORS
330
29
102
}
330
29
100
AcDbVisualStyle
  2

 70
    12
 71
     2
 72
     2
 73
     0
 90
        0
 40
-0.6
 41
-30.0
 62
     5
 63
     7
 74
     1
 91
        4
 64
     7
 65
   257
 75
     1
175
     1
 42
1.0
 92
        8
 66
     7
 43
1.0
 76
     1
 77
     6
 78
     2
 67
     7
 79
     5
170
     0
171
     0
290
     0
174
     0
 93
        1
 44
50.0
173
     0
291
     1
 45
0.0
1001
ACAD
1000
AcDbSavedByObjectVersion
1070
     0
  0
VISUALSTYLE
  5
39
102
{ACAD_XDICTIONARY
360
8B2
102
}
102
{ACAD_REACTORS
330
29
102
}
330
29
100
AcDbVisualStyle
  2

 70
    16
 71
     2
 72
     2
 73
     3
 90
        0
 40
-0.6
 41
-30.0
 62
     5
 63
     8
 74
     1
 91
        4
 64
     7
 65
   257
 75
     1
175
     1
 42
1.0
 92
        8
 66
     8
 43
1.0
 76
     1
 77
     6
 78
     2
 67
     7
 79
     5
170
     0
171
     0
290
     0
174
     0
 93
        1
 44
0.0
173
     0
291
     1
 45
0.0
1001
ACAD
1000
AcDbSavedByObjectVersion
1070
     0
  0
VISUALSTYLE
  5
32
102
{ACAD_XDICTIONARY
360
8A4
102
}
102
{ACAD_REACTORS
330
29
102
}
330
29
100
AcDbVisualStyle
  2

 70
     9
 71
     3
 72
     2
 73
     0
 90
        0
 40
-0.6
 41
-30.0
 62
     5
 63
     7
 74
     2
 91
        2
 64
     7
 65
   257
 75
     1
175
     1
 42
179.0
 92
        8
 66
     7
 43
1.0
 76
     1
 77
     6
 78
     2
 67
     7
 79
     3
170
     0
171
     0
290
     0
174
     0
 93
        1
 44
0.0
173
     0
291
     0
 45
0.0
1001
ACAD
1000
AcDbSavedByObjectVersion
1070
     0
  0
VISUALSTYLE
  5
34
102
{ACAD_XDICTIONARY
360
8A8
102
}
102
{ACAD_REACTORS
330
29
102
}
330
29
100
AcDbVisualStyle
  2

 70
    11
 71
     2
 72
     2
 73
     0
 90
        0
 40
-0.6
 41
-30.0
 62
     5
 63
     7
 74
     1
 91
        4
 64
     7
 65
   257
 75
     1
175
     1
 42
1.0
 92
        8
 66
     7
 43
1.0
 76
     1
 77
     6
 78
     2
 67
     7
 79
     5
170
     0
171
     0
290
     0
174
     0
 93
        1
 44
-50.0
173
     0
291
     1
 45
0.0
1001
ACAD
1000
AcDbSavedByObjectVersion
1070
     0
  0
VISUALSTYLE
  5
41
102
{ACAD_XDICTIONARY
360
8C2
102
}
102
{ACAD_REACTORS
330
29
102
}
330
29
100
AcDbVisualStyle
  2

 70
    22
 71
     2
 72
     2
 73
     0
 90
        0
 40
-0.6
 41
-30.0
 62
     5
 63
     7
 74
     1
 91
        4
 64
     7
 65
   257
 75
     1
175
     1
 42
1.0
 92
        8
 66
     7
 43
1.0
 76
     1
 77
     6
 78
     2
 67
     7
 79
     5
170
     0
171
     0
290
     0
174
     0
 93
        1
 44
0.0
173
     0
291
     1
 45
0.0
1001
ACAD
1000
AcDbSavedByObjectVersion
1070
     0
  0
VISUALSTYLE
  5
38
102
{ACAD_XDICTIONARY
360
8B0
102
}
102
{ACAD_REACTORS
330
29
102
}
330
29
100
AcDbVisualStyle
  2

 70
    15
 71
     2
 72
     2
 73
     0
 90
        0
 40
-0.6
 41
-30.0
 62
     5
 63
     7
 74
     1
 91
        4
 64
     7
 65
   257
 75
     1
175
     1
 42
1.0
 92
        8
 66
     7
 43
1.0
 76
     1
 77
     6
 78
     2
 67
     7
 79
     5
170
     0
171
     0
290
     0
174
     0
 93
        1
 44
0.0
173
     0
291
     1
 45
0.0
1001
ACAD
1000
AcDbSavedByObjectVersion
1070
     0
  0
VISUALSTYLE
  5
2A
102
{ACAD_XDICTIONARY
360
894
102
}
102
{ACAD_REACTORS
330
29
102
}
330
29
100
AcDbVisualStyle
  2

 70
     0
 71
     2
 72
     1
 73
     1
 90
        2
 40
-0.6
 41
30.0
 62
     5
 63
     7
 74
     0
 91
        0
 64
     7
 65
   257
 75
     1
175
     1
 42
1.0
 92
        8
 66
     7
 43
1.0
 76
     1
 77
     6
 78
     2
 67
     7
 79
     5
170
     0
171
     0
290
     0
174
     0
 93
       13
 44
0.0
173
     0
291
     1
 45
0.0
1001
ACAD
1000
AcDbSavedByObjectVersion
1070
     0
  0
VISUALSTYLE
  5
2B
102
{ACAD_XDICTIONARY
360
896
102
}
102
{ACAD_REACTORS
330
29
102
}
330
29
100
AcDbVisualStyle
  2

 70
     1
 71
     2
 72
     1
 73
     1
 90
        2
 40
-0.6
 41
30.0
 62
     5
 63
     7
 74
     1
 91
        0
 64
     7
 65
   257
 75
     1
175
     1
 42
1.0
 92
        0
 66
   257
 43
1.0
 76
     1
 77
     6
 78
     2
 67
     7
 79
     5
170
     0
171
     0
290
     0
174
     0
 93
       13
 44
0.0
173
     0
291
     1
 45
0.0
1001
ACAD
1000
AcDbSavedByObjectVersion
1070
     0
  0
VISUALSTYLE
  5
2C
102
{ACAD_XDICTIONARY
360
898
102
}
102
{ACAD_REACTORS
330
29
102
}
330
29
100
AcDbVisualStyle
  2

 70
     2
 71
     2
 72
     2
 73
     1
 90
        2
 40
-0.6
 41
30.0
 62
     5
 63
     7
 74
     0
 91
        0
 64
     7
 65
   257
 75
     1
175
     1
 42
1.0
 92
        0
 66
     7
 43
1.0
 76
     1
 77
     6
 78
     2
 67
     7
 79
     5
170
     0
171
     0
290
     0
174
     0
 93
       13
 44
0.0
173
     0
291
     1
 45
0.0
1001
ACAD
1000
AcDbSavedByObjectVersion
1070
     0
  0
VISUALSTYLE
  5
2D
102
{ACAD_XDICTIONARY
360
89A
102
}
102
{ACAD_REACTORS
330
29
102
}
330
29
100
AcDbVisualStyle
  2

 70
     3
 71
     2
 72
     2
 73
     1
 90
        2
 40
-0.6
 41
30.0
 62
     5
 63
     7
 74
     1
 91
        0
 64
     7
 65
   257
 75
     1
175
     1
 42
1.0
 92
        0
 66
   257
 43
1.0
 76
     1
 77
     6
 78
     2
 67
     7
 79
     5
170
     0
171
     0
290
     0
174
     0
 93
       13
 44
0.0
173
     0
291
     1
 45
0.0
1001
ACAD
1000
AcDbSavedByObjectVersion
1070
     0
  0
VISUALSTYLE
  5
31
102
{ACAD_XDICTIONARY
360
8A2
102
}
102
{ACAD_REACTORS
330
29
102
}
330
29
100
AcDbVisualStyle
  2

 70
     6
 71
     1
 72
     2
 73
     2
 90
        0
 40
-0.6
 41
-30.0
 62
     5
 63
     7
 74
     2
 91
        2
 64
     7
 65
   257
 75
     2
175
     1
 42
40.0
 92
        0
 66
   257
 43
1.0
 76
     1
 77
     6
 78
     2
 67
     7
 79
     3
170
     0
171
     0
290
     0
174
     0
 93
        1
 44
0.0
173
     0
291
     0
 45
0.0
1001
ACAD
1000
AcDbSavedByObjectVersion
1070
     0
  0
VISUALSTYLE
  5
3F
102
{ACAD_XDICTIONARY
360
8BE
102
}
102
{ACAD_REACTORS
330
29
102
}
330
29
100
AcDbVisualStyle
  2

 70
    20
 71
     2
 72
     2
 73
     0
 90
        0
 40
-0.6
 41
-30.0
 62
     5
 63
     7
 74
     1
 91
        4
 64
     7
 65
   257
 75
     1
175
     1
 42
1.0
 92
       10
 66
     7
 43
1.0
 76
     1
 77
     6
 78
     2
 67
     7
 79
     5
170
     0
171
     0
290
     0
174
     0
 93
        1
 44
0.0
173
     0
291
     1
 45
0.0
1001
ACAD
1000
AcDbSavedByObjectVersion
1070
     0
  0
VISUALSTYLE
  5
37
102
{ACAD_XDICTIONARY
360
8AE
102
}
102
{ACAD_REACTORS
330
29
102
}
330
29
100
AcDbVisualStyle
  2

 70
    14
 71
     2
 72
     2
 73
     0
 90
        0
 40
-0.6
 41
-30.0
 62
     5
 63
     7
 74
     1
 91
        4
 64
     7
 65
   257
 75
     7
175
     7
 42
1.0
 92
        8
 66
     7
 43
1.0
 76
     1
 77
     6
 78
     2
 67
     7
 79
     5
170
     0
171
     0
290
     0
174
     0
 93
        1
 44
0.0
173
     0
291
     1
 45
0.0
1001
ACAD
1000
AcDbSavedByObjectVersion
1070
     0
  0
VISUALSTYLE
  5
40
102
{ACAD_XDICTIONARY
360
8C0
102
}
102
{ACAD_REACTORS
330
29
102
}
330
29
100
AcDbVisualStyle
  2

 70
    21
 71
     2
 72
     2
 73
     0
 90
        0
 40
-0.6
 41
-30.0
 62
     5
 63
     7
 74
     1
 91
        4
 64
     7
 65
   257
 75
     1
175
     1
 42
1.0
 92
        9
 66
     7
 43
1.0
 76
     1
 77
     6
 78
     2
 67
     7
 79
     5
170
     0
171
     0
290
     0
174
     0
 93
        1
 44
0.0
173
     0
291
     1
 45
0.0
1001
ACAD
1000
AcDbSavedByObjectVersion
1070
     0
  0
VISUALSTYLE
  5
33
102
{ACAD_XDICTIONARY
360
8A6
102
}
102
{ACAD_REACTORS
330
29
102
}
330
29
100
AcDbVisualStyle
  2

 70
     8
 71
     2
 72
     3
 73
     0
 90
        2
 40
-0.6
 41
30.0
 62
     5
 63
     7
 74
     0
 91
        0
 64
     7
 65
   257
 75
     1
175
     1
 42
1.0
 92
        8
 66
   257
 43
1.0
 76
     1
 77
     6
 78
     2
 67
     7
 79
     3
170
     0
171
     0
290
     0
174
     0
 93
       13
 44
0.0
173
     0
291
     0
 45
0.0
1001
ACAD
1000
AcDbSavedByObjectVersion
1070
     0
  0
VISUALSTYLE
  5
3E
102
{ACAD_XDICTIONARY
360
8BC
102
}
102
{ACAD_REACTORS
330
29
102
}
330
29
100
AcDbVisualStyle
  2

 70
    27
 71
     2
 72
     2
 73
     1
 90
        2
 40
-0.6
 41
30.0
 62
     5
 63
     7
 74
     0
 91
        4
 64
     7
 65
   257
 75
     1
175
     1
 42
1.0
 92
        8
 66
   257
 43
1.0
 76
     1
 77
     6
 78
     2
 67
     8
 79
     3
170
     0
171
     0
290
     0
174
     0
 93
        5
 44
0.0
173
     0
291
     0
 45
0.0
1001
ACAD
1000
AcDbSavedByObjectVersion
1070
     0
  0
VISUALSTYLE
  5
3D
102
{ACAD_XDICTIONARY
360
8BA
102
}
102
{ACAD_REACTORS
330
29
102
}
330
29
100
AcDbVisualStyle
  2

 70
    26
 71
     2
 72
     2
 73
     1
 90
        2
 40
-0.6
 41
30.0
 62
     5
 63
     7
 74
     1
 91
       10
 64
     7
 65
   257
 75
     2
175
     1
 42
1.0
 92
        8
 66
   257
 43
1.0
 76
     1
 77
     6
 78
     2
 67
     7
 79
     3
170
     0
171
     0
290
     0
174
     0
 93
        5
 44
0.0
173
     0
291
     0
 45
0.0
1001
ACAD
1000
AcDbSavedByObjectVersion
1070
     0
  0
VISUALSTYLE
  5
3A
102
{ACAD_XDICTIONARY
360
8B4
102
}
102
{ACAD_REACTORS
330
29
102
}
330
29
100
AcDbVisualStyle
  2

 70
    23
 71
     2
 72
     2
 73
     3
 90
        0
 40
-0.6
 41
-30.0
 62
     5
 63
     7
 74
     2
 91
        2
 64
     7
 65
     7
 75
     1
175
     1
 42
40.0
 92
        8
 66
     7
 43
1.0
 76
     1
 77
     6
 78
     2
 67
     7
 79
     3
170
     0
171
     0
290
     0
174
     0
 93
        1
 44
0.0
173
     0
291
     0
 45
0.0
1001
ACAD
1000
AcDbSavedByObjectVersion
1070
     0
  0
VISUALSTYLE
  5
3B
102
{ACAD_XDICTIONARY
360
8B6
102
}
102
{ACAD_REACTORS
330
29
102
}
330
29
100
AcDbVisualStyle
  2

 70
    24
 71
     1
 72
     2
 73
     2
 90
        0
 40
-0.6
 41
-30.0
 62
     5
 63
     7
 74
     2
 91
        2
 64
     7
 65
     7
 75
     1
175
     1
 42
40.0
 92
       11
 66
     7
 43
1.0
 76
     1
 77
     6
 78
     2
 67
     7
 79
     6
170
     0
171
     0
290
     0
174
     0
 93
        1
 44
0.0
173
     0
291
     0
 45
0.0
1001
ACAD
1000
AcDbSavedByObjectVersion
1070
     0
  0
VISUALSTYLE
  5
36
102
{ACAD_XDICTIONARY
360
8AC
102
}
102
{ACAD_REACTORS
330
29
102
}
330
29
100
AcDbVisualStyle
  2

 70
    13
 71
     2
 72
     2
 73
     0
 90
        0
 40
-0.6
 41
-30.0
 62
     5
 63
     7
 74
     1
 91
        4
 64
     7
 65
   257
 75
     1
175
     1
 42
1.0
 92
       12
 66
     7
 43
1.0
 76
     1
 77
     6
 78
     2
 67
     7
 79
     5
170
     0
171
     0
290
     0
174
     0
 93
        1
 44
0.0
173
     0
291
     1
 45
0.0
1001
ACAD
1000
AcDbSavedByObjectVersion
1070
     0
  0
VISUALSTYLE
  5
30
102
{ACAD_XDICTIONARY
360
8A0
102
}
102
{ACAD_REACTORS
330
29
102
}
330
29
100
AcDbVisualStyle
  2

 70
     5
 71
     0
 72
     2
 73
     0
 90
        0
 40
-0.6
 41
-30.0
 62
     5
 63
     7
 74
     1
 91
        4
 64
     7
 65
   257
 75
     1
175
     1
 42
1.0
 92
        0
 66
   257
 43
1.0
 76
     1
 77
     6
 78
     2
 67
     7
 79
     3
170
     0
171
     0
290
     0
174
     0
 93
        1
 44
0.0
173
     0
291
     0
 45
0.0
1001
ACAD
1000
AcDbSavedByObjectVersion
1070
     0
  0
VISUALSTYLE
  5
3C
102
{ACAD_XDICTIONARY
360
8B8
102
}
102
{ACAD_REACTORS
330
29
102
}
330
29
100
AcDbVisualStyle
  2

 70
    25
 71
     2
 72
     2
 73
     1
 90
        1
 40
0.5
 41
-30.0
 62
     5
 63
     7
 74
     1
 91
        0
 64
     7
 65
   257
 75
     1
175
     1
 42
1.0
 92
        8
 66
     7
 43
1.0
 76
     1
 77
     6
 78
     2
 67
     7
 79
     3
170
     0
171
     0
290
     0
174
     0
 93
       13
 44
0.0
173
     0
291
     0
 45
0.0
1001
ACAD
1000
AcDbSavedByObjectVersion
1070
     0
  0
DICTIONARYVAR
  5
6EF
102
{ACAD_REACTORS
330
6EC
102
}
330
6EC
100
DictionaryVariables
280
     0
  1
1:1
  0
DICTIONARYVAR
  5
6EE
102
{ACAD_REACTORS
330
6EC
102
}
330
6EC
100
DictionaryVariables
280
     0
  1
STANDARD
  0
DICTIONARYVAR
  5
6ED
102
{ACAD_REACTORS
330
6EC
102
}
330
6EC
100
DictionaryVariables
280
     0
  1
STANDARD
  0
DICTIONARYVAR
  5
6F2
102
{ACAD_REACTORS
330
6EC
102
}
330
6EC
100
DictionaryVariables
280
     0
  1
1
  0
DICTIONARYVAR
  5
6F1
102
{ACAD_REACTORS
330
6EC
102
}
330
6EC
100
DictionaryVariables
280
     0
  1
0
  0
DICTIONARYVAR
  5
6F0
102
{ACAD_REACTORS
330
6EC
102
}
330
6EC
100
DictionaryVariables
280
     0
  1
127
  0
DICTIONARYVAR
  5
7BD
102
{ACAD_REACTORS
330
6EC
102
}
330
6EC
100
DictionaryVariables
280
     0
  1
2
  0
DICTIONARY
  5
8C7
330
6E
100
AcDbDictionary
280
     1
281
     1
  3
ACAD_XREC_ROUNDTRIP
360
8C8
  0
DICTIONARY
  5
8C5
330
6A
100
AcDbDictionary
280
     1
281
     1
  3
ACAD_XREC_ROUNDTRIP
360
8C6
  0
DICTIONARY
  5
1A
330
19
100
AcDbDictionary
280
     1
281
     1
  3
ACAD_XREC_ROUNDTRIP
360
6FD
  3
BUMPTILE
360
1C
  3
DIFFUSETILE
360
1B
  3
OPACITYTILE
360
1F
  3
REFLECTIONTILE
360
1E
  3
REFRACTIONTILE
360
20
  3
SPECULARTILE
360
1D
  0
DICTIONARY
  5
12
330
11
100
AcDbDictionary
280
     1
281
     1
  3
ACAD_XREC_ROUNDTRIP
360
6FC
  3
BUMPTILE
360
14
  3
DIFFUSETILE
360
13
  3
OPACITYTILE
360
17
  3
REFLECTIONTILE
360
16
  3
REFRACTIONTILE
360
18
  3
SPECULARTILE
360
15
  0
DICTIONARY
  5
22
330
21
100
AcDbDictionary
280
     1
281
     1
  3
ACAD_XREC_ROUNDTRIP
360
6FE
  3
BUMPTILE
360
24
  3
DIFFUSETILE
360
23
  3
OPACITYTILE
360
27
  3
REFLECTIONTILE
360
26
  3
REFRACTIONTILE
360
28
  3
SPECULARTILE
360
25
  0
DICTIONARY
  5
6F4
330
64
100
AcDbDictionary
280
     1
281
     1
  3
ACAD_ROUNDTRIP_2008_TABLESTYLE_CELLSTYLEMAP
360
88D
  3
ACAD_XREC_ROUNDTRIP
360
8C4
  0
DICTIONARY
  5
89E
330
2F
100
AcDbDictionary
280
     1
281
     1
  3
ACAD_XREC_ROUNDTRIP
360
89F
  0
DICTIONARY
  5
8C9
330
542
100
AcDbDictionary
280
     1
281
     1
  3
ACAD_XREC_ROUNDTRIP
360
8CA
  0
DICTIONARY
  5
89C
330
2E
100
AcDbDictionary
280
     1
281
     1
  3
ACAD_XREC_ROUNDTRIP
360
89D
  0
DICTIONARY
  5
8AA
330
35
100
AcDbDictionary
280
     1
281
     1
  3
ACAD_XREC_ROUNDTRIP
360
8AB
  0
DICTIONARY
  5
8B2
330
39
100
AcDbDictionary
280
     1
281
     1
  3
ACAD_XREC_ROUNDTRIP
360
8B3
  0
DICTIONARY
  5
8A4
330
32
100
AcDbDictionary
280
     1
281
     1
  3
ACAD_XREC_ROUNDTRIP
360
8A5
  0
DICTIONARY
  5
8A8
330
34
100
AcDbDictionary
280
     1
281
     1
  3
ACAD_XREC_ROUNDTRIP
360
8A9
  0
DICTIONARY
  5
8C2
330
41
100
AcDbDictionary
280
     1
281
     1
  3
ACAD_XREC_ROUNDTRIP
360
8C3
  0
DICTIONARY
  5
8B0
330
38
100
AcDbDictionary
280
     1
281
     1
  3
ACAD_XREC_ROUNDTRIP
360
8B1
  0
DICTIONARY
  5
894
330
2A
100
AcDbDictionary
280
     1
281
     1
  3
ACAD_XREC_ROUNDTRIP
360
895
  0
DICTIONARY
  5
896
330
2B
100
AcDbDictionary
280
     1
281
     1
  3
ACAD_XREC_ROUNDTRIP
360
897
  0
DICTIONARY
  5
898
330
2C
100
AcDbDictionary
280
     1
281
     1
  3
ACAD_XREC_ROUNDTRIP
360
899
  0
DICTIONARY
  5
89A
330
2D
100
AcDbDictionary
280
     1
281
     1
  3
ACAD_XREC_ROUNDTRIP
360
89B
  0
DICTIONARY
  5
8A2
330
31
100
AcDbDictionary
280
     1
281
     1
  3
ACAD_XREC_ROUNDTRIP
360
8A3
  0
DICTIONARY
  5
8BE
330
3F
100
AcDbDictionary
280
     1
281
     1
  3
ACAD_XREC_ROUNDTRIP
360
8BF
  0
DICTIONARY
  5
8AE
330
37
100
AcDbDictionary
280
     1
281
     1
  3
ACAD_XREC_ROUNDTRIP
360
8AF
  0
DICTIONARY
  5
8C0
330
40
100
AcDbDictionary
280
     1
281
     1
  3
ACAD_XREC_ROUNDTRIP
360
8C1
  0
DICTIONARY
  5
8A6
330
33
100
AcDbDictionary
280
     1
281
     1
  3
ACAD_XREC_ROUNDTRIP
360
8A7
  0
DICTIONARY
  5
8BC
330
3E
100
AcDbDictionary
280
     1
281
     1
  3
ACAD_XREC_ROUNDTRIP
360
8BD
  0
DICTIONARY
  5
8BA
330
3D
100
AcDbDictionary
280
     1
281
     1
  3
ACAD_XREC_ROUNDTRIP
360
8BB
  0
DICTIONARY
  5
8B4
330
3A
100
AcDbDictionary
280
     1
281
     1
  3
ACAD_XREC_ROUNDTRIP
360
8B5
  0
DICTIONARY
  5
8B6
330
3B
100
AcDbDictionary
280
     1
281
     1
  3
ACAD_XREC_ROUNDTRIP
360
8B7
  0
DICTIONARY
  5
8AC
330
36
100
AcDbDictionary
280
     1
281
     1
  3
ACAD_XREC_ROUNDTRIP
360
8AD
  0
DICTIONARY
  5
8A0
330
30
100
AcDbDictionary
280
     1
281
     1
  3
ACAD_XREC_ROUNDTRIP
360
8A1
  0
DICTIONARY
  5
8B8
330
3C
100
AcDbDictionary
280
     1
281
     1
  3
ACAD_XREC_ROUNDTRIP
360
8B9
  0
XRECORD
  5
8C8
102
{ACAD_REACTORS
330
8C7
102
}
330
8C7
100
AcDbXrecord
280
     1
102
SHADEPLOT
 70
     0
102
SHADEPLOTRESLEVEL
 70
     2
102
SHADEPLOTCUSTOMDPI
 70
   300
  0
XRECORD
  5
8C6
102
{ACAD_REACTORS
330
8C5
102
}
330
8C5
100
AcDbXrecord
280
     1
102
SHADEPLOT
 70
     0
102
SHADEPLOTRESLEVEL
 70
     2
102
SHADEPLOTCUSTOMDPI
 70
   300
  0
XRECORD
  5
6FD
102
{ACAD_REACTORS
330
1A
102
}
330
1A
100
AcDbXrecord
280
     1
102
MATERIAL
148
0.0
149
0.0
149
0.0
 93
        0
 94
      127
282
     0
 72
     0
 77
     0
171
     0
175
     0
179
     0
273
     0
  0
XRECORD
  5
1C
102
{ACAD_REACTORS
330
1A
102
}
330
1A
100
AcDbXrecord
280
     1
270
     1
271
     1
  0
XRECORD
  5
1B
102
{ACAD_REACTORS
330
1A
102
}
330
1A
100
AcDbXrecord
280
     1
270
     1
271
     1
  0
XRECORD
  5
1F
102
{ACAD_REACTORS
330
1A
102
}
330
1A
100
AcDbXrecord
280
     1
270
     1
271
     1
  0
XRECORD
  5
1E
102
{ACAD_REACTORS
330
1A
102
}
330
1A
100
AcDbXrecord
280
     1
270
     1
271
     1
  0
XRECORD
  5
20
102
{ACAD_REACTORS
330
1A
102
}
330
1A
100
AcDbXrecord
280
     1
270
     1
271
     1
  0
XRECORD
  5
1D
102
{ACAD_REACTORS
330
1A
102
}
330
1A
100
AcDbXrecord
280
     1
270
     1
271
     1
  0
XRECORD
  5
6FC
102
{ACAD_REACTORS
330
12
102
}
330
12
100
AcDbXrecord
280
     1
102
MATERIAL
148
0.0
149
0.0
149
0.0
 93
        0
 94
      127
282
     0
 72
     0
 77
     0
171
     0
175
     0
179
     0
273
     0
  0
XRECORD
  5
14
102
{ACAD_REACTORS
330
12
102
}
330
12
100
AcDbXrecord
280
     1
270
     1
271
     1
  0
XRECORD
  5
13
102
{ACAD_REACTORS
330
12
102
}
330
12
100
AcDbXrecord
280
     1
270
     1
271
     1
  0
XRECORD
  5
17
102
{ACAD_REACTORS
330
12
102
}
330
12
100
AcDbXrecord
280
     1
270
     1
271
     1
  0
XRECORD
  5
16
102
{ACAD_REACTORS
330
12
102
}
330
12
100
AcDbXrecord
280
     1
270
     1
271
     1
  0
XRECORD
  5
18
102
{ACAD_REACTORS
330
12
102
}
330
12
100
AcDbXrecord
280
     1
270
     1
271
     1
  0
XRECORD
  5
15
102
{ACAD_REACTORS
330
12
102
}
330
12
100
AcDbXrecord
280
     1
270
     1
271
     1
  0
XRECORD
  5
6FE
102
{ACAD_REACTORS
330
22
102
}
330
22
100
AcDbXrecord
280
     1
102
MATERIAL
148
0.0
149
0.0
149
0.0
 93
        0
 94
      127
282
     0
 72
     0
 77
     0
171
     0
175
     0
179
     0
273
     0
  0
XRECORD
  5
24
102
{ACAD_REACTORS
330
22
102
}
330
22
100
AcDbXrecord
280
     1
270
     1
271
     1
  0
XRECORD
  5
23
102
{ACAD_REACTORS
330
22
102
}
330
22
100
AcDbXrecord
280
     1
270
     1
271
     1
  0
XRECORD
  5
27
102
{ACAD_REACTORS
330
22
102
}
330
22
100
AcDbXrecord
280
     1
270
     1
271
     1
  0
XRECORD
  5
26
102
{ACAD_REACTORS
330
22
102
}
330
22
100
AcDbXrecord
280
     1
270
     1
271
     1
  0
XRECORD
  5
28
102
{ACAD_REACTORS
330
22
102
}
330
22
100
AcDbXrecord
280
     1
270
     1
271
     1
  0
XRECORD
  5
25
102
{ACAD_REACTORS
330
22
102
}
330
22
100
AcDbXrecord
280
     1
270
     1
271
     1
  0
CELLSTYLEMAP
  5
88D
102
{ACAD_REACTORS
330
6F4
102
}
330
6F4
100
AcDbCellStyleMap
 90
        3
300
CELLSTYLE
  1
TABLEFORMAT_BEGIN
 90
        5
170
     1
 91
        0
 92
    32768
 62
   257
 93
        1
300
CONTENTFORMAT
  1
CONTENTFORMAT_BEGIN
 90
        0
 91
        0
 92
      512
 93
        0
300

 40
0.0
140
1.0
 94
        5
 62
     0
340
55
144
0.25
309
CONTENTFORMAT_END
171
     1
301
MARGIN
  1
CELLMARGIN_BEGIN
 40
0.06
 40
0.06
 40
0.06
 40
0.06
 40
0.18
 40
0.18
309
CELLMARGIN_END
 94
        6
 95
        1
302
GRIDFORMAT
  1
GRIDFORMAT_BEGIN
 90
        0
 91
        1
 62
     0
 92
       -2
340
0
 93
        0
 40
0.045
309
GRIDFORMAT_END
 95
        2
302
GRIDFORMAT
  1
GRIDFORMAT_BEGIN
 90
        0
 91
        1
 62
     0
 92
       -2
340
0
 93
        0
 40
0.045
309
GRIDFORMAT_END
 95
        4
302
GRIDFORMAT
  1
GRIDFORMAT_BEGIN
 90
        0
 91
        1
 62
     0
 92
       -2
340
0
 93
        0
 40
0.045
309
GRIDFORMAT_END
 95
        8
302
GRIDFORMAT
  1
GRIDFORMAT_BEGIN
 90
        0
 91
        1
 62
     0
 92
       -2
340
0
 93
        0
 40
0.045
309
GRIDFORMAT_END
 95
       16
302
GRIDFORMAT
  1
GRIDFORMAT_BEGIN
 90
        0
 91
        1
 62
     0
 92
       -2
340
0
 93
        0
 40
0.045
309
GRIDFORMAT_END
 95
       32
302
GRIDFORMAT
  1
GRIDFORMAT_BEGIN
 90
        0
 91
        1
 62
     0
 92
       -2
340
0
 93
        0
 40
0.045
309
GRIDFORMAT_END
309
TABLEFORMAT_END
  1
CELLSTYLE_BEGIN
 90
        1
 91
        1
300
_TITLE
309
CELLSTYLE_END
300
CELLSTYLE
  1
TABLEFORMAT_BEGIN
 90
        5
170
     1
 91
        0
 92
        0
 62
   257
 93
        1
300
CONTENTFORMAT
  1
CONTENTFORMAT_BEGIN
 90
        0
 91
        0
 92
      512
 93
        0
300

 40
0.0
140
1.0
 94
        5
 62
     0
340
55
144
0.18
309
CONTENTFORMAT_END
171
     1
301
MARGIN
  1
CELLMARGIN_BEGIN
 40
0.06
 40
0.06
 40
0.06
 40
0.06
 40
0.18
 40
0.18
309
CELLMARGIN_END
 94
        6
 95
        1
302
GRIDFORMAT
  1
GRIDFORMAT_BEGIN
 90
        0
 91
        1
 62
     0
 92
       -2
340
0
 93
        0
 40
0.045
309
GRIDFORMAT_END
 95
        2
302
GRIDFORMAT
  1
GRIDFORMAT_BEGIN
 90
        0
 91
        1
 62
     0
 92
       -2
340
0
 93
        0
 40
0.045
309
GRIDFORMAT_END
 95
        4
302
GRIDFORMAT
  1
GRIDFORMAT_BEGIN
 90
        0
 91
        1
 62
     0
 92
       -2
340
0
 93
        0
 40
0.045
309
GRIDFORMAT_END
 95
        8
302
GRIDFORMAT
  1
GRIDFORMAT_BEGIN
 90
        0
 91
        1
 62
     0
 92
       -2
340
0
 93
        0
 40
0.045
309
GRIDFORMAT_END
 95
       16
302
GRIDFORMAT
  1
GRIDFORMAT_BEGIN
 90
        0
 91
        1
 62
     0
 92
       -2
340
0
 93
        0
 40
0.045
309
GRIDFORMAT_END
 95
       32
302
GRIDFORMAT
  1
GRIDFORMAT_BEGIN
 90
        0
 91
        1
 62
     0
 92
       -2
340
0
 93
        0
 40
0.045
309
GRIDFORMAT_END
309
TABLEFORMAT_END
  1
CELLSTYLE_BEGIN
 90
        2
 91
        1
300
_HEADER
309
CELLSTYLE_END
300
CELLSTYLE
  1
TABLEFORMAT_BEGIN
 90
        5
170
     1
 91
        0
 92
        0
 62
   257
 93
        1
300
CONTENTFORMAT
  1
CONTENTFORMAT_BEGIN
 90
        0
 91
        0
 92
      512
 93
        0
300

 40
0.0
140
1.0
 94
        2
 62
     0
340
55
144
0.18
309
CONTENTFORMAT_END
171
     1
301
MARGIN
  1
CELLMARGIN_BEGIN
 40
0.06
 40
0.06
 40
0.06
 40
0.06
 40
0.18
 40
0.18
309
CELLMARGIN_END
 94
        6
 95
        1
302
GRIDFORMAT
  1
GRIDFORMAT_BEGIN
 90
        0
 91
        1
 62
     0
 92
       -2
340
0
 93
        0
 40
0.045
309
GRIDFORMAT_END
 95
        2
302
GRIDFORMAT
  1
GRIDFORMAT_BEGIN
 90
        0
 91
        1
 62
     0
 92
       -2
340
0
 93
        0
 40
0.045
309
GRIDFORMAT_END
 95
        4
302
GRIDFORMAT
  1
GRIDFORMAT_BEGIN
 90
        0
 91
        1
 62
     0
 92
       -2
340
0
 93
        0
 40
0.045
309
GRIDFORMAT_END
 95
        8
302
GRIDFORMAT
  1
GRIDFORMAT_BEGIN
 90
        0
 91
        1
 62
     0
 92
       -2
340
0
 93
        0
 40
0.045
309
GRIDFORMAT_END
 95
       16
302
GRIDFORMAT
  1
GRIDFORMAT_BEGIN
 90
        0
 91
        1
 62
     0
 92
       -2
340
0
 93
        0
 40
0.045
309
GRIDFORMAT_END
 95
       32
302
GRIDFORMAT
  1
GRIDFORMAT_BEGIN
 90
        0
 91
        1
 62
     0
 92
       -2
340
0
 93
        0
 40
0.045
309
GRIDFORMAT_END
309
TABLEFORMAT_END
  1
CELLSTYLE_BEGIN
 90
        3
 91
        2
300
_DATA
309
CELLSTYLE_END
  0
XRECORD
  5
8C4
102
{ACAD_REACTORS
330
6F4
102
}
330
6F4
100
AcDbXrecord
280
     1
102
ACAD_ROUNDTRIP_PRE2007_TABLESTYLE
 90
      512
 91
        0
  1

 92
      512
 93
        0
  2

 94
      512
 95
        0
  3

  0
XRECORD
  5
89F
102
{ACAD_REACTORS
330
89E
102
}
330
89E
100
AcDbXrecord
280
     1
102
RTVSPropertyOp0
 70
     1
102
RTVSPropertyOp1
 70
     1
102
RTVSPropertyOp2
 70
     1
102
RTVSPropertyOp3
 70
     1
102
RTVSPropertyOp4
 70
     1
102
RTVSPropertyOp5
 70
     1
102
RTVSPropertyOp6
 70
     1
102
RTVSPropertyOp7
 70
     1
102
RTVSPropertyOp8
 70
     1
102
RTVSPropertyOp9
 70
     1
102
RTVSPropertyOp10
 70
     1
102
RTVSPropertyOp11
 70
     1
102
RTVSPropertyOp12
 70
     1
102
RTVSPropertyOp13
 70
     1
102
RTVSPropertyOp14
 70
     1
102
RTVSPropertyOp15
 70
     1
102
RTVSPropertyOp16
 70
     1
102
RTVSPropertyOp17
 70
     1
102
RTVSPropertyOp18
 70
     1
102
RTVSPropertyOp19
 70
     1
102
RTVSPropertyOp20
 70
     1
102
RTVSPropertyOp21
 70
     1
102
RTVSPropertyOp22
 70
     1
102
RTVSPropertyOp23
 70
     1
102
RTVSPropertyOp24
 70
     1
102
RTVSPropertyOp25
 70
     1
102
RTVSPropertyOp26
 70
     1
102
RTVSPropertyOp27
 70
     1
102
RTVSPropertyOp28
 70
     1
102
RTVSPropertyOp29
 70
     1
102
RTVSPropertyOp30
 70
     1
102
RTVSPropertyOp31
 70
     1
102
RTVSPropertyOp32
 70
     1
  0
XRECORD
  5
8CA
102
{ACAD_REACTORS
330
8C9
102
}
330
8C9
100
AcDbXrecord
280
     1
102
RTVSPropertyOp0
 70
     1
102
RTVSPropertyOp1
 70
     1
102
RTVSPropertyOp2
 70
     1
102
RTVSPropertyOp3
 70
     1
102
RTVSPropertyOp4
 70
     1
102
RTVSPropertyOp5
 70
     1
102
RTVSPropertyOp6
 70
     1
102
RTVSPropertyOp7
 70
     1
102
RTVSPropertyOp8
 70
     1
102
RTVSPropertyOp9
 70
     1
102
RTVSPropertyOp10
 70
     1
102
RTVSPropertyOp11
 70
     1
102
RTVSPropertyOp12
 70
     1
102
RTVSPropertyOp13
 70
     1
102
RTVSPropertyOp14
 70
     1
102
RTVSPropertyOp15
 70
     1
102
RTVSPropertyOp16
 70
     1
102
RTVSPropertyOp17
 70
     1
102
RTVSPropertyOp18
 70
     1
102
RTVSPropertyOp19
 70
     1
102
RTVSPropertyOp20
 70
     1
102
RTVSPropertyOp21
 70
     1
102
RTVSPropertyOp22
 70
     1
102
RTVSPropertyOp23
 70
     1
102
RTVSPropertyOp24
 70
     1
102
RTVSPropertyOp25
 70
     1
102
RTVSPropertyOp26
 70
     1
102
RTVSPropertyOp27
 70
     1
102
RTVSPropertyOp28
 70
     1
102
RTVSPropertyOp29
 70
     1
102
RTVSPropertyOp30
 70
     1
102
RTVSPropertyOp31
 70
     1
102
RTVSPropertyOp32
 70
     1
  0
XRECORD
  5
89D
102
{ACAD_REACTORS
330
89C
102
}
330
89C
100
AcDbXrecord
280
     1
102
RTVSPropertyOp0
 70
     1
102
RTVSPropertyOp1
 70
     1
102
RTVSPropertyOp2
 70
     1
102
RTVSPropertyOp3
 70
     1
102
RTVSPropertyOp4
 70
     1
102
RTVSPropertyOp5
 70
     1
102
RTVSPropertyOp6
 70
     1
102
RTVSPropertyOp7
 70
     1
102
RTVSPropertyOp8
 70
     1
102
RTVSPropertyOp9
 70
     1
102
RTVSPropertyOp10
 70
     1
102
RTVSPropertyOp11
 70
     1
102
RTVSPropertyOp12
 70
     1
102
RTVSPropertyOp13
 70
     1
102
RTVSPropertyOp14
 70
     1
102
RTVSPropertyOp15
 70
     1
102
RTVSPropertyOp16
 70
     1
102
RTVSPropertyOp17
 70
     1
102
RTVSPropertyOp18
 70
     1
102
RTVSPropertyOp19
 70
     1
102
RTVSPropertyOp20
 70
     1
102
RTVSPropertyOp21
 70
     1
102
RTVSPropertyOp22
 70
     1
102
RTVSPropertyOp23
 70
     1
102
RTVSPropertyOp24
 70
     1
102
RTVSPropertyOp25
 70
     1
102
RTVSPropertyOp26
 70
     1
102
RTVSPropertyOp27
 70
     1
102
RTVSPropertyOp28
 70
     1
102
RTVSPropertyOp29
 70
     1
102
RTVSPropertyOp30
 70
     1
102
RTVSPropertyOp31
 70
     1
102
RTVSPropertyOp32
 70
     1
  0
XRECORD
  5
8AB
102
{ACAD_REACTORS
330
8AA
102
}
330
8AA
100
AcDbXrecord
280
     1
102
RTVSPropertyOp0
 70
     1
102
RTVSPropertyOp1
 70
     1
102
RTVSPropertyOp2
 70
     1
102
RTVSPropertyOp3
 70
     1
102
RTVSPropertyOp4
 70
     1
102
RTVSPropertyOp5
 70
     1
102
RTVSPropertyOp6
 70
     1
102
RTVSPropertyOp7
 70
     1
102
RTVSPropertyOp8
 70
     1
102
RTVSPropertyOp9
 70
     1
102
RTVSPropertyOp10
 70
     1
102
RTVSPropertyOp11
 70
     1
102
RTVSPropertyOp12
 70
     1
102
RTVSPropertyOp13
 70
     1
102
RTVSPropertyOp14
 70
     1
102
RTVSPropertyOp15
 70
     1
102
RTVSPropertyOp16
 70
     1
102
RTVSPropertyOp17
 70
     1
102
RTVSPropertyOp18
 70
     1
102
RTVSPropertyOp19
 70
     1
102
RTVSPropertyOp20
 70
     1
102
RTVSPropertyOp21
 70
     1
102
RTVSPropertyOp22
 70
     1
102
RTVSPropertyOp23
 70
     1
102
RTVSPropertyOp24
 70
     1
102
RTVSPropertyOp25
 70
     1
102
RTVSPropertyOp26
 70
     1
102
RTVSPropertyOp27
 70
     1
102
RTVSPropertyOp28
 70
     1
102
RTVSPropertyOp29
 70
     1
102
RTVSPropertyOp30
 70
     1
102
RTVSPropertyOp31
 70
     1
102
RTVSPropertyOp32
 70
     1
  0
XRECORD
  5
8B3
102
{ACAD_REACTORS
330
8B2
102
}
330
8B2
100
AcDbXrecord
280
     1
102
RTVSPropertyOp0
 70
     1
102
RTVSPropertyOp1
 70
     1
102
RTVSPropertyOp2
 70
     1
102
RTVSPropertyOp3
 70
     1
102
RTVSPropertyOp4
 70
     1
102
RTVSPropertyOp5
 70
     1
102
RTVSPropertyOp6
 70
     1
102
RTVSPropertyOp7
 70
     1
102
RTVSPropertyOp8
 70
     1
102
RTVSPropertyOp9
 70
     1
102
RTVSPropertyOp10
 70
     1
102
RTVSPropertyOp11
 70
     1
102
RTVSPropertyOp12
 70
     1
102
RTVSPropertyOp13
 70
     1
102
RTVSPropertyOp14
 70
     1
102
RTVSPropertyOp15
 70
     1
102
RTVSPropertyOp16
 70
     1
102
RTVSPropertyOp17
 70
     1
102
RTVSPropertyOp18
 70
     1
102
RTVSPropertyOp19
 70
     1
102
RTVSPropertyOp20
 70
     1
102
RTVSPropertyOp21
 70
     1
102
RTVSPropertyOp22
 70
     1
102
RTVSPropertyOp23
 70
     1
102
RTVSPropertyOp24
 70
     1
102
RTVSPropertyOp25
 70
     1
102
RTVSPropertyOp26
 70
     1
102
RTVSPropertyOp27
 70
     1
102
RTVSPropertyOp28
 70
     1
102
RTVSPropertyOp29
 70
     1
102
RTVSPropertyOp30
 70
     1
102
RTVSPropertyOp31
 70
     1
102
RTVSPropertyOp32
 70
     1
  0
XRECORD
  5
8A5
102
{ACAD_REACTORS
330
8A4
102
}
330
8A4
100
AcDbXrecord
280
     1
102
RTVSPropertyOp0
 70
     1
102
RTVSPropertyOp1
 70
     1
102
RTVSPropertyOp2
 70
     1
102
RTVSPropertyOp3
 70
     1
102
RTVSPropertyOp4
 70
     1
102
RTVSPropertyOp5
 70
     1
102
RTVSPropertyOp6
 70
     1
102
RTVSPropertyOp7
 70
     1
102
RTVSPropertyOp8
 70
     1
102
RTVSPropertyOp9
 70
     1
102
RTVSPropertyOp10
 70
     1
102
RTVSPropertyOp11
 70
     1
102
RTVSPropertyOp12
 70
     1
102
RTVSPropertyOp13
 70
     1
102
RTVSPropertyOp14
 70
     1
102
RTVSPropertyOp15
 70
     1
102
RTVSPropertyOp16
 70
     1
102
RTVSPropertyOp17
 70
     1
102
RTVSPropertyOp18
 70
     1
102
RTVSPropertyOp19
 70
     1
102
RTVSPropertyOp20
 70
     1
102
RTVSPropertyOp21
 70
     1
102
RTVSPropertyOp22
 70
     1
102
RTVSPropertyOp23
 70
     1
102
RTVSPropertyOp24
 70
     1
102
RTVSPropertyOp25
 70
     1
102
RTVSPropertyOp26
 70
     1
102
RTVSPropertyOp27
 70
     1
102
RTVSPropertyOp28
 70
     1
102
RTVSPropertyOp29
 70
     1
102
RTVSPropertyOp30
 70
     1
102
RTVSPropertyOp31
 70
     1
102
RTVSPropertyOp32
 70
     1
  0
XRECORD
  5
8A9
102
{ACAD_REACTORS
330
8A8
102
}
330
8A8
100
AcDbXrecord
280
     1
102
RTVSPropertyOp0
 70
     1
102
RTVSPropertyOp1
 70
     1
102
RTVSPropertyOp2
 70
     1
102
RTVSPropertyOp3
 70
     1
102
RTVSPropertyOp4
 70
     1
102
RTVSPropertyOp5
 70
     1
102
RTVSPropertyOp6
 70
     1
102
RTVSPropertyOp7
 70
     1
102
RTVSPropertyOp8
 70
     1
102
RTVSPropertyOp9
 70
     1
102
RTVSPropertyOp10
 70
     1
102
RTVSPropertyOp11
 70
     1
102
RTVSPropertyOp12
 70
     1
102
RTVSPropertyOp13
 70
     1
102
RTVSPropertyOp14
 70
     1
102
RTVSPropertyOp15
 70
     1
102
RTVSPropertyOp16
 70
     1
102
RTVSPropertyOp17
 70
     1
102
RTVSPropertyOp18
 70
     1
102
RTVSPropertyOp19
 70
     1
102
RTVSPropertyOp20
 70
     1
102
RTVSPropertyOp21
 70
     1
102
RTVSPropertyOp22
 70
     1
102
RTVSPropertyOp23
 70
     1
102
RTVSPropertyOp24
 70
     1
102
RTVSPropertyOp25
 70
     1
102
RTVSPropertyOp26
 70
     1
102
RTVSPropertyOp27
 70
     1
102
RTVSPropertyOp28
 70
     1
102
RTVSPropertyOp29
 70
     1
102
RTVSPropertyOp30
 70
     1
102
RTVSPropertyOp31
 70
     1
102
RTVSPropertyOp32
 70
     1
  0
XRECORD
  5
8C3
102
{ACAD_REACTORS
330
8C2
102
}
330
8C2
100
AcDbXrecord
280
     1
102
RTVSPropertyOp0
 70
     0
102
RTVSPropertyOp1
 70
     0
102
RTVSPropertyOp2
 70
     0
102
RTVSPropertyOp3
 70
     0
102
RTVSPropertyOp4
 70
     0
102
RTVSPropertyOp5
 70
     0
102
RTVSPropertyOp6
 70
     0
102
RTVSPropertyOp7
 70
     0
102
RTVSPropertyOp8
 70
     0
102
RTVSPropertyOp9
 70
     0
102
RTVSPropertyOp10
 70
     0
102
RTVSPropertyOp11
 70
     0
102
RTVSPropertyOp12
 70
     0
102
RTVSPropertyOp13
 70
     0
102
RTVSPropertyOp14
 70
     2
102
RTVSPropertyOp15
 70
     0
102
RTVSPropertyOp16
 70
     0
102
RTVSPropertyOp17
 70
     0
102
RTVSPropertyOp18
 70
     0
102
RTVSPropertyOp19
 70
     0
102
RTVSPropertyOp20
 70
     0
102
RTVSPropertyOp21
 70
     0
102
RTVSPropertyOp22
 70
     0
102
RTVSPropertyOp23
 70
     0
102
RTVSPropertyOp24
 70
     0
102
RTVSPropertyOp25
 70
     0
102
RTVSPropertyOp26
 70
     0
102
RTVSPropertyOp27
 70
     0
102
RTVSPropertyOp28
 70
     0
102
RTVSPropertyOp29
 70
     0
102
RTVSPropertyOp30
 70
     0
102
RTVSPropertyOp31
 70
     0
102
RTVSPropertyOp32
 70
     0
  0
XRECORD
  5
8B1
102
{ACAD_REACTORS
330
8B0
102
}
330
8B0
100
AcDbXrecord
280
     1
102
RTVSPropertyOp0
 70
     1
102
RTVSPropertyOp1
 70
     1
102
RTVSPropertyOp2
 70
     1
102
RTVSPropertyOp3
 70
     1
102
RTVSPropertyOp4
 70
     1
102
RTVSPropertyOp5
 70
     1
102
RTVSPropertyOp6
 70
     1
102
RTVSPropertyOp7
 70
     1
102
RTVSPropertyOp8
 70
     1
102
RTVSPropertyOp9
 70
     1
102
RTVSPropertyOp10
 70
     1
102
RTVSPropertyOp11
 70
     1
102
RTVSPropertyOp12
 70
     1
102
RTVSPropertyOp13
 70
     1
102
RTVSPropertyOp14
 70
     1
102
RTVSPropertyOp15
 70
     1
102
RTVSPropertyOp16
 70
     1
102
RTVSPropertyOp17
 70
     1
102
RTVSPropertyOp18
 70
     1
102
RTVSPropertyOp19
 70
     1
102
RTVSPropertyOp20
 70
     1
102
RTVSPropertyOp21
 70
     1
102
RTVSPropertyOp22
 70
     1
102
RTVSPropertyOp23
 70
     1
102
RTVSPropertyOp24
 70
     1
102
RTVSPropertyOp25
 70
     1
102
RTVSPropertyOp26
 70
     1
102
RTVSPropertyOp27
 70
     1
102
RTVSPropertyOp28
 70
     1
102
RTVSPropertyOp29
 70
     1
102
RTVSPropertyOp30
 70
     1
102
RTVSPropertyOp31
 70
     1
102
RTVSPropertyOp32
 70
     1
  0
XRECORD
  5
895
102
{ACAD_REACTORS
330
894
102
}
330
894
100
AcDbXrecord
280
     1
102
RTVSPropertyOp0
 70
     1
102
RTVSPropertyOp1
 70
     1
102
RTVSPropertyOp2
 70
     1
102
RTVSPropertyOp3
 70
     1
102
RTVSPropertyOp4
 70
     1
102
RTVSPropertyOp5
 70
     1
102
RTVSPropertyOp6
 70
     1
102
RTVSPropertyOp7
 70
     1
102
RTVSPropertyOp8
 70
     1
102
RTVSPropertyOp9
 70
     1
102
RTVSPropertyOp10
 70
     1
102
RTVSPropertyOp11
 70
     1
102
RTVSPropertyOp12
 70
     1
102
RTVSPropertyOp13
 70
     1
102
RTVSPropertyOp14
 70
     1
102
RTVSPropertyOp15
 70
     1
102
RTVSPropertyOp16
 70
     1
102
RTVSPropertyOp17
 70
     1
102
RTVSPropertyOp18
 70
     1
102
RTVSPropertyOp19
 70
     1
102
RTVSPropertyOp20
 70
     1
102
RTVSPropertyOp21
 70
     1
102
RTVSPropertyOp22
 70
     1
102
RTVSPropertyOp23
 70
     1
102
RTVSPropertyOp24
 70
     1
102
RTVSPropertyOp25
 70
     1
102
RTVSPropertyOp26
 70
     1
102
RTVSPropertyOp27
 70
     1
102
RTVSPropertyOp28
 70
     1
102
RTVSPropertyOp29
 70
     1
102
RTVSPropertyOp30
 70
     1
102
RTVSPropertyOp31
 70
     1
102
RTVSPropertyOp32
 70
     1
  0
XRECORD
  5
897
102
{ACAD_REACTORS
330
896
102
}
330
896
100
AcDbXrecord
280
     1
102
RTVSPropertyOp0
 70
     1
102
RTVSPropertyOp1
 70
     1
102
RTVSPropertyOp2
 70
     1
102
RTVSPropertyOp3
 70
     1
102
RTVSPropertyOp4
 70
     1
102
RTVSPropertyOp5
 70
     1
102
RTVSPropertyOp6
 70
     1
102
RTVSPropertyOp7
 70
     1
102
RTVSPropertyOp8
 70
     1
102
RTVSPropertyOp9
 70
     1
102
RTVSPropertyOp10
 70
     1
102
RTVSPropertyOp11
 70
     1
102
RTVSPropertyOp12
 70
     1
102
RTVSPropertyOp13
 70
     1
102
RTVSPropertyOp14
 70
     1
102
RTVSPropertyOp15
 70
     1
102
RTVSPropertyOp16
 70
     1
102
RTVSPropertyOp17
 70
     1
102
RTVSPropertyOp18
 70
     1
102
RTVSPropertyOp19
 70
     1
102
RTVSPropertyOp20
 70
     1
102
RTVSPropertyOp21
 70
     1
102
RTVSPropertyOp22
 70
     1
102
RTVSPropertyOp23
 70
     1
102
RTVSPropertyOp24
 70
     1
102
RTVSPropertyOp25
 70
     1
102
RTVSPropertyOp26
 70
     1
102
RTVSPropertyOp27
 70
     1
102
RTVSPropertyOp28
 70
     1
102
RTVSPropertyOp29
 70
     1
102
RTVSPropertyOp30
 70
     1
102
RTVSPropertyOp31
 70
     1
102
RTVSPropertyOp32
 70
     1
  0
XRECORD
  5
899
102
{ACAD_REACTORS
330
898
102
}
330
898
100
AcDbXrecord
280
     1
102
RTVSPropertyOp0
 70
     1
102
RTVSPropertyOp1
 70
     1
102
RTVSPropertyOp2
 70
     1
102
RTVSPropertyOp3
 70
     1
102
RTVSPropertyOp4
 70
     1
102
RTVSPropertyOp5
 70
     1
102
RTVSPropertyOp6
 70
     1
102
RTVSPropertyOp7
 70
     1
102
RTVSPropertyOp8
 70
     1
102
RTVSPropertyOp9
 70
     1
102
RTVSPropertyOp10
 70
     1
102
RTVSPropertyOp11
 70
     1
102
RTVSPropertyOp12
 70
     1
102
RTVSPropertyOp13
 70
     1
102
RTVSPropertyOp14
 70
     1
102
RTVSPropertyOp15
 70
     1
102
RTVSPropertyOp16
 70
     1
102
RTVSPropertyOp17
 70
     1
102
RTVSPropertyOp18
 70
     1
102
RTVSPropertyOp19
 70
     1
102
RTVSPropertyOp20
 70
     1
102
RTVSPropertyOp21
 70
     1
102
RTVSPropertyOp22
 70
     1
102
RTVSPropertyOp23
 70
     1
102
RTVSPropertyOp24
 70
     1
102
RTVSPropertyOp25
 70
     1
102
RTVSPropertyOp26
 70
     1
102
RTVSPropertyOp27
 70
     1
102
RTVSPropertyOp28
 70
     1
102
RTVSPropertyOp29
 70
     1
102
RTVSPropertyOp30
 70
     1
102
RTVSPropertyOp31
 70
     1
102
RTVSPropertyOp32
 70
     1
  0
XRECORD
  5
89B
102
{ACAD_REACTORS
330
89A
102
}
330
89A
100
AcDbXrecord
280
     1
102
RTVSPropertyOp0
 70
     1
102
RTVSPropertyOp1
 70
     1
102
RTVSPropertyOp2
 70
     1
102
RTVSPropertyOp3
 70
     1
102
RTVSPropertyOp4
 70
     1
102
RTVSPropertyOp5
 70
     1
102
RTVSPropertyOp6
 70
     1
102
RTVSPropertyOp7
 70
     1
102
RTVSPropertyOp8
 70
     1
102
RTVSPropertyOp9
 70
     1
102
RTVSPropertyOp10
 70
     1
102
RTVSPropertyOp11
 70
     1
102
RTVSPropertyOp12
 70
     1
102
RTVSPropertyOp13
 70
     1
102
RTVSPropertyOp14
 70
     1
102
RTVSPropertyOp15
 70
     1
102
RTVSPropertyOp16
 70
     1
102
RTVSPropertyOp17
 70
     1
102
RTVSPropertyOp18
 70
     1
102
RTVSPropertyOp19
 70
     1
102
RTVSPropertyOp20
 70
     1
102
RTVSPropertyOp21
 70
     1
102
RTVSPropertyOp22
 70
     1
102
RTVSPropertyOp23
 70
     1
102
RTVSPropertyOp24
 70
     1
102
RTVSPropertyOp25
 70
     1
102
RTVSPropertyOp26
 70
     1
102
RTVSPropertyOp27
 70
     1
102
RTVSPropertyOp28
 70
     1
102
RTVSPropertyOp29
 70
     1
102
RTVSPropertyOp30
 70
     1
102
RTVSPropertyOp31
 70
     1
102
RTVSPropertyOp32
 70
     1
  0
XRECORD
  5
8A3
102
{ACAD_REACTORS
330
8A2
102
}
330
8A2
100
AcDbXrecord
280
     1
102
RTVSPropertyOp0
 70
     1
102
RTVSPropertyOp1
 70
     1
102
RTVSPropertyOp2
 70
     1
102
RTVSPropertyOp3
 70
     1
102
RTVSPropertyOp4
 70
     1
102
RTVSPropertyOp5
 70
     1
102
RTVSPropertyOp6
 70
     1
102
RTVSPropertyOp7
 70
     1
102
RTVSPropertyOp8
 70
     1
102
RTVSPropertyOp9
 70
     1
102
RTVSPropertyOp10
 70
     1
102
RTVSPropertyOp11
 70
     1
102
RTVSPropertyOp12
 70
     1
102
RTVSPropertyOp13
 70
     1
102
RTVSPropertyOp14
 70
     1
102
RTVSPropertyOp15
 70
     1
102
RTVSPropertyOp16
 70
     1
102
RTVSPropertyOp17
 70
     1
102
RTVSPropertyOp18
 70
     1
102
RTVSPropertyOp19
 70
     1
102
RTVSPropertyOp20
 70
     1
102
RTVSPropertyOp21
 70
     1
102
RTVSPropertyOp22
 70
     1
102
RTVSPropertyOp23
 70
     1
102
RTVSPropertyOp24
 70
     1
102
RTVSPropertyOp25
 70
     1
102
RTVSPropertyOp26
 70
     1
102
RTVSPropertyOp27
 70
     1
102
RTVSPropertyOp28
 70
     1
102
RTVSPropertyOp29
 70
     1
102
RTVSPropertyOp30
 70
     1
102
RTVSPropertyOp31
 70
     1
102
RTVSPropertyOp32
 70
     1
  0
XRECORD
  5
8BF
102
{ACAD_REACTORS
330
8BE
102
}
330
8BE
100
AcDbXrecord
280
     1
102
RTVSPropertyOp0
 70
     0
102
RTVSPropertyOp1
 70
     0
102
RTVSPropertyOp2
 70
     0
102
RTVSPropertyOp3
 70
     0
102
RTVSPropertyOp4
 70
     0
102
RTVSPropertyOp5
 70
     0
102
RTVSPropertyOp6
 70
     0
102
RTVSPropertyOp7
 70
     0
102
RTVSPropertyOp8
 70
     0
102
RTVSPropertyOp9
 70
     0
102
RTVSPropertyOp10
 70
     0
102
RTVSPropertyOp11
 70
     0
102
RTVSPropertyOp12
 70
     0
102
RTVSPropertyOp13
 70
     0
102
RTVSPropertyOp14
 70
     2
102
RTVSPropertyOp15
 70
     0
102
RTVSPropertyOp16
 70
     0
102
RTVSPropertyOp17
 70
     0
102
RTVSPropertyOp18
 70
     0
102
RTVSPropertyOp19
 70
     0
102
RTVSPropertyOp20
 70
     0
102
RTVSPropertyOp21
 70
     0
102
RTVSPropertyOp22
 70
     0
102
RTVSPropertyOp23
 70
     0
102
RTVSPropertyOp24
 70
     0
102
RTVSPropertyOp25
 70
     0
102
RTVSPropertyOp26
 70
     0
102
RTVSPropertyOp27
 70
     0
102
RTVSPropertyOp28
 70
     0
102
RTVSPropertyOp29
 70
     0
102
RTVSPropertyOp30
 70
     0
102
RTVSPropertyOp31
 70
     0
102
RTVSPropertyOp32
 70
     0
  0
XRECORD
  5
8AF
102
{ACAD_REACTORS
330
8AE
102
}
330
8AE
100
AcDbXrecord
280
     1
102
RTVSPropertyOp0
 70
     1
102
RTVSPropertyOp1
 70
     1
102
RTVSPropertyOp2
 70
     1
102
RTVSPropertyOp3
 70
     1
102
RTVSPropertyOp4
 70
     1
102
RTVSPropertyOp5
 70
     1
102
RTVSPropertyOp6
 70
     1
102
RTVSPropertyOp7
 70
     1
102
RTVSPropertyOp8
 70
     1
102
RTVSPropertyOp9
 70
     1
102
RTVSPropertyOp10
 70
     1
102
RTVSPropertyOp11
 70
     1
102
RTVSPropertyOp12
 70
     1
102
RTVSPropertyOp13
 70
     1
102
RTVSPropertyOp14
 70
     1
102
RTVSPropertyOp15
 70
     1
102
RTVSPropertyOp16
 70
     1
102
RTVSPropertyOp17
 70
     1
102
RTVSPropertyOp18
 70
     1
102
RTVSPropertyOp19
 70
     1
102
RTVSPropertyOp20
 70
     1
102
RTVSPropertyOp21
 70
     1
102
RTVSPropertyOp22
 70
     1
102
RTVSPropertyOp23
 70
     1
102
RTVSPropertyOp24
 70
     1
102
RTVSPropertyOp25
 70
     1
102
RTVSPropertyOp26
 70
     1
102
RTVSPropertyOp27
 70
     1
102
RTVSPropertyOp28
 70
     1
102
RTVSPropertyOp29
 70
     1
102
RTVSPropertyOp30
 70
     1
102
RTVSPropertyOp31
 70
     1
102
RTVSPropertyOp32
 70
     1
  0
XRECORD
  5
8C1
102
{ACAD_REACTORS
330
8C0
102
}
330
8C0
100
AcDbXrecord
280
     1
102
RTVSPropertyOp0
 70
     0
102
RTVSPropertyOp1
 70
     0
102
RTVSPropertyOp2
 70
     0
102
RTVSPropertyOp3
 70
     0
102
RTVSPropertyOp4
 70
     0
102
RTVSPropertyOp5
 70
     0
102
RTVSPropertyOp6
 70
     0
102
RTVSPropertyOp7
 70
     0
102
RTVSPropertyOp8
 70
     0
102
RTVSPropertyOp9
 70
     0
102
RTVSPropertyOp10
 70
     0
102
RTVSPropertyOp11
 70
     0
102
RTVSPropertyOp12
 70
     0
102
RTVSPropertyOp13
 70
     0
102
RTVSPropertyOp14
 70
     2
102
RTVSPropertyOp15
 70
     0
102
RTVSPropertyOp16
 70
     0
102
RTVSPropertyOp17
 70
     0
102
RTVSPropertyOp18
 70
     0
102
RTVSPropertyOp19
 70
     0
102
RTVSPropertyOp20
 70
     0
102
RTVSPropertyOp21
 70
     0
102
RTVSPropertyOp22
 70
     0
102
RTVSPropertyOp23
 70
     0
102
RTVSPropertyOp24
 70
     0
102
RTVSPropertyOp25
 70
     0
102
RTVSPropertyOp26
 70
     0
102
RTVSPropertyOp27
 70
     0
102
RTVSPropertyOp28
 70
     0
102
RTVSPropertyOp29
 70
     0
102
RTVSPropertyOp30
 70
     0
102
RTVSPropertyOp31
 70
     0
102
RTVSPropertyOp32
 70
     0
  0
XRECORD
  5
8A7
102
{ACAD_REACTORS
330
8A6
102
}
330
8A6
100
AcDbXrecord
280
     1
102
RTVSPropertyOp0
 70
     1
102
RTVSPropertyOp1
 70
     1
102
RTVSPropertyOp2
 70
     1
102
RTVSPropertyOp3
 70
     1
102
RTVSPropertyOp4
 70
     1
102
RTVSPropertyOp5
 70
     1
102
RTVSPropertyOp6
 70
     1
102
RTVSPropertyOp7
 70
     1
102
RTVSPropertyOp8
 70
     1
102
RTVSPropertyOp9
 70
     1
102
RTVSPropertyOp10
 70
     1
102
RTVSPropertyOp11
 70
     1
102
RTVSPropertyOp12
 70
     1
102
RTVSPropertyOp13
 70
     1
102
RTVSPropertyOp14
 70
     1
102
RTVSPropertyOp15
 70
     1
102
RTVSPropertyOp16
 70
     1
102
RTVSPropertyOp17
 70
     1
102
RTVSPropertyOp18
 70
     1
102
RTVSPropertyOp19
 70
     1
102
RTVSPropertyOp20
 70
     1
102
RTVSPropertyOp21
 70
     1
102
RTVSPropertyOp22
 70
     1
102
RTVSPropertyOp23
 70
     1
102
RTVSPropertyOp24
 70
     1
102
RTVSPropertyOp25
 70
     1
102
RTVSPropertyOp26
 70
     1
102
RTVSPropertyOp27
 70
     1
102
RTVSPropertyOp28
 70
     1
102
RTVSPropertyOp29
 70
     1
102
RTVSPropertyOp30
 70
     1
102
RTVSPropertyOp31
 70
     1
102
RTVSPropertyOp32
 70
     1
  0
XRECORD
  5
8BD
102
{ACAD_REACTORS
330
8BC
102
}
330
8BC
100
AcDbXrecord
280
     1
102
RTVSPropertyOp0
 70
     1
102
RTVSPropertyOp1
 70
     1
102
RTVSPropertyOp2
 70
     1
102
RTVSPropertyOp3
 70
     1
102
RTVSPropertyOp4
 70
     1
102
RTVSPropertyOp5
 70
     1
102
RTVSPropertyOp6
 70
     1
102
RTVSPropertyOp7
 70
     1
102
RTVSPropertyOp8
 70
     1
102
RTVSPropertyOp9
 70
     1
102
RTVSPropertyOp10
 70
     1
102
RTVSPropertyOp11
 70
     1
102
RTVSPropertyOp12
 70
     1
102
RTVSPropertyOp13
 70
     1
102
RTVSPropertyOp14
 70
     1
102
RTVSPropertyOp15
 70
     1
102
RTVSPropertyOp16
 70
     1
102
RTVSPropertyOp17
 70
     1
102
RTVSPropertyOp18
 70
     1
102
RTVSPropertyOp19
 70
     1
102
RTVSPropertyOp20
 70
     1
102
RTVSPropertyOp21
 70
     1
102
RTVSPropertyOp22
 70
     1
102
RTVSPropertyOp23
 70
     1
102
RTVSPropertyOp24
 70
     1
102
RTVSPropertyOp25
 70
     1
102
RTVSPropertyOp26
 70
     1
102
RTVSPropertyOp27
 70
     1
102
RTVSPropertyOp28
 70
     1
102
RTVSPropertyOp29
 70
     1
102
RTVSPropertyOp30
 70
     1
102
RTVSPropertyOp31
 70
     1
102
RTVSPropertyOp32
 70
     1
  0
XRECORD
  5
8BB
102
{ACAD_REACTORS
330
8BA
102
}
330
8BA
100
AcDbXrecord
280
     1
102
RTVSPropertyOp0
 70
     1
102
RTVSPropertyOp1
 70
     1
102
RTVSPropertyOp2
 70
     1
102
RTVSPropertyOp3
 70
     1
102
RTVSPropertyOp4
 70
     1
102
RTVSPropertyOp5
 70
     1
102
RTVSPropertyOp6
 70
     1
102
RTVSPropertyOp7
 70
     1
102
RTVSPropertyOp8
 70
     1
102
RTVSPropertyOp9
 70
     1
102
RTVSPropertyOp10
 70
     1
102
RTVSPropertyOp11
 70
     1
102
RTVSPropertyOp12
 70
     1
102
RTVSPropertyOp13
 70
     1
102
RTVSPropertyOp14
 70
     1
102
RTVSPropertyOp15
 70
     1
102
RTVSPropertyOp16
 70
     1
102
RTVSPropertyOp17
 70
     1
102
RTVSPropertyOp18
 70
     1
102
RTVSPropertyOp19
 70
     1
102
RTVSPropertyOp20
 70
     1
102
RTVSPropertyOp21
 70
     1
102
RTVSPropertyOp22
 70
     1
102
RTVSPropertyOp23
 70
     1
102
RTVSPropertyOp24
 70
     1
102
RTVSPropertyOp25
 70
     1
102
RTVSPropertyOp26
 70
     1
102
RTVSPropertyOp27
 70
     1
102
RTVSPropertyOp28
 70
     1
102
RTVSPropertyOp29
 70
     1
102
RTVSPropertyOp30
 70
     1
102
RTVSPropertyOp31
 70
     1
102
RTVSPropertyOp32
 70
     1
  0
XRECORD
  5
8B5
102
{ACAD_REACTORS
330
8B4
102
}
330
8B4
100
AcDbXrecord
280
     1
102
RTVSPropertyOp0
 70
     1
102
RTVSPropertyOp1
 70
     1
102
RTVSPropertyOp2
 70
     1
102
RTVSPropertyOp3
 70
     1
102
RTVSPropertyOp4
 70
     1
102
RTVSPropertyOp5
 70
     1
102
RTVSPropertyOp6
 70
     1
102
RTVSPropertyOp7
 70
     1
102
RTVSPropertyOp8
 70
     1
102
RTVSPropertyOp9
 70
     1
102
RTVSPropertyOp10
 70
     1
102
RTVSPropertyOp11
 70
     1
102
RTVSPropertyOp12
 70
     1
102
RTVSPropertyOp13
 70
     1
102
RTVSPropertyOp14
 70
     1
102
RTVSPropertyOp15
 70
     1
102
RTVSPropertyOp16
 70
     1
102
RTVSPropertyOp17
 70
     1
102
RTVSPropertyOp18
 70
     1
102
RTVSPropertyOp19
 70
     1
102
RTVSPropertyOp20
 70
     1
102
RTVSPropertyOp21
 70
     1
102
RTVSPropertyOp22
 70
     1
102
RTVSPropertyOp23
 70
     1
102
RTVSPropertyOp24
 70
     1
102
RTVSPropertyOp25
 70
     1
102
RTVSPropertyOp26
 70
     1
102
RTVSPropertyOp27
 70
     1
102
RTVSPropertyOp28
 70
     1
102
RTVSPropertyOp29
 70
     1
102
RTVSPropertyOp30
 70
     1
102
RTVSPropertyOp31
 70
     1
102
RTVSPropertyOp32
 70
     1
  0
XRECORD
  5
8B7
102
{ACAD_REACTORS
330
8B6
102
}
330
8B6
100
AcDbXrecord
280
     1
102
RTVSPropertyOp0
 70
     1
102
RTVSPropertyOp1
 70
     1
102
RTVSPropertyOp2
 70
     1
102
RTVSPropertyOp3
 70
     1
102
RTVSPropertyOp4
 70
     1
102
RTVSPropertyOp5
 70
     1
102
RTVSPropertyOp6
 70
     1
102
RTVSPropertyOp7
 70
     1
102
RTVSPropertyOp8
 70
     1
102
RTVSPropertyOp9
 70
     1
102
RTVSPropertyOp10
 70
     1
102
RTVSPropertyOp11
 70
     1
102
RTVSPropertyOp12
 70
     1
102
RTVSPropertyOp13
 70
     1
102
RTVSPropertyOp14
 70
     1
102
RTVSPropertyOp15
 70
     1
102
RTVSPropertyOp16
 70
     1
102
RTVSPropertyOp17
 70
     1
102
RTVSPropertyOp18
 70
     1
102
RTVSPropertyOp19
 70
     1
102
RTVSPropertyOp20
 70
     1
102
RTVSPropertyOp21
 70
     1
102
RTVSPropertyOp22
 70
     1
102
RTVSPropertyOp23
 70
     1
102
RTVSPropertyOp24
 70
     1
102
RTVSPropertyOp25
 70
     1
102
RTVSPropertyOp26
 70
     1
102
RTVSPropertyOp27
 70
     1
102
RTVSPropertyOp28
 70
     1
102
RTVSPropertyOp29
 70
     1
102
RTVSPropertyOp30
 70
     1
102
RTVSPropertyOp31
 70
     1
102
RTVSPropertyOp32
 70
     1
  0
XRECORD
  5
8AD
102
{ACAD_REACTORS
330
8AC
102
}
330
8AC
100
AcDbXrecord
280
     1
102
RTVSPropertyOp0
 70
     1
102
RTVSPropertyOp1
 70
     1
102
RTVSPropertyOp2
 70
     1
102
RTVSPropertyOp3
 70
     1
102
RTVSPropertyOp4
 70
     1
102
RTVSPropertyOp5
 70
     1
102
RTVSPropertyOp6
 70
     1
102
RTVSPropertyOp7
 70
     1
102
RTVSPropertyOp8
 70
     1
102
RTVSPropertyOp9
 70
     1
102
RTVSPropertyOp10
 70
     1
102
RTVSPropertyOp11
 70
     1
102
RTVSPropertyOp12
 70
     1
102
RTVSPropertyOp13
 70
     1
102
RTVSPropertyOp14
 70
     1
102
RTVSPropertyOp15
 70
     1
102
RTVSPropertyOp16
 70
     1
102
RTVSPropertyOp17
 70
     1
102
RTVSPropertyOp18
 70
     1
102
RTVSPropertyOp19
 70
     1
102
RTVSPropertyOp20
 70
     1
102
RTVSPropertyOp21
 70
     1
102
RTVSPropertyOp22
 70
     1
102
RTVSPropertyOp23
 70
     1
102
RTVSPropertyOp24
 70
     1
102
RTVSPropertyOp25
 70
     1
102
RTVSPropertyOp26
 70
     1
102
RTVSPropertyOp27
 70
     1
102
RTVSPropertyOp28
 70
     1
102
RTVSPropertyOp29
 70
     1
102
RTVSPropertyOp30
 70
     1
102
RTVSPropertyOp31
 70
     1
102
RTVSPropertyOp32
 70
     1
  0
XRECORD
  5
8A1
102
{ACAD_REACTORS
330
8A0
102
}
330
8A0
100
AcDbXrecord
280
     1
102
RTVSPropertyOp0
 70
     1
102
RTVSPropertyOp1
 70
     1
102
RTVSPropertyOp2
 70
     1
102
RTVSPropertyOp3
 70
     1
102
RTVSPropertyOp4
 70
     1
102
RTVSPropertyOp5
 70
     1
102
RTVSPropertyOp6
 70
     1
102
RTVSPropertyOp7
 70
     1
102
RTVSPropertyOp8
 70
     1
102
RTVSPropertyOp9
 70
     1
102
RTVSPropertyOp10
 70
     1
102
RTVSPropertyOp11
 70
     1
102
RTVSPropertyOp12
 70
     1
102
RTVSPropertyOp13
 70
     1
102
RTVSPropertyOp14
 70
     1
102
RTVSPropertyOp15
 70
     1
102
RTVSPropertyOp16
 70
     1
102
RTVSPropertyOp17
 70
     1
102
RTVSPropertyOp18
 70
     1
102
RTVSPropertyOp19
 70
     1
102
RTVSPropertyOp20
 70
     1
102
RTVSPropertyOp21
 70
     1
102
RTVSPropertyOp22
 70
     1
102
RTVSPropertyOp23
 70
     1
102
RTVSPropertyOp24
 70
     1
102
RTVSPropertyOp25
 70
     1
102
RTVSPropertyOp26
 70
     1
102
RTVSPropertyOp27
 70
     1
102
RTVSPropertyOp28
 70
     1
102
RTVSPropertyOp29
 70
     1
102
RTVSPropertyOp30
 70
     1
102
RTVSPropertyOp31
 70
     1
102
RTVSPropertyOp32
 70
     1
  0
XRECORD
  5
8B9
102
{ACAD_REACTORS
330
8B8
102
}
330
8B8
100
AcDbXrecord
280
     1
102
RTVSPropertyOp0
 70
     1
102
RTVSPropertyOp1
 70
     1
102
RTVSPropertyOp2
 70
     1
102
RTVSPropertyOp3
 70
     1
102
RTVSPropertyOp4
 70
     1
102
RTVSPropertyOp5
 70
     1
102
RTVSPropertyOp6
 70
     1
102
RTVSPropertyOp7
 70
     1
102
RTVSPropertyOp8
 70
     1
102
RTVSPropertyOp9
 70
     1
102
RTVSPropertyOp10
 70
     1
102
RTVSPropertyOp11
 70
     1
102
RTVSPropertyOp12
 70
     1
102
RTVSPropertyOp13
 70
     1
102
RTVSPropertyOp14
 70
     1
102
RTVSPropertyOp15
 70
     1
102
RTVSPropertyOp16
 70
     1
102
RTVSPropertyOp17
 70
     1
102
RTVSPropertyOp18
 70
     1
102
RTVSPropertyOp19
 70
     1
102
RTVSPropertyOp20
 70
     1
102
RTVSPropertyOp21
 70
     1
102
RTVSPropertyOp22
 70
     1
102
RTVSPropertyOp23
 70
     1
102
RTVSPropertyOp24
 70
     1
102
RTVSPropertyOp25
 70
     1
102
RTVSPropertyOp26
 70
     1
102
RTVSPropertyOp27
 70
     1
102
RTVSPropertyOp28
 70
     1
102
RTVSPropertyOp29
 70
     1
102
RTVSPropertyOp30
 70
     1
102
RTVSPropertyOp31
 70
     1
102
RTVSPropertyOp32
 70
     1
  0
ENDSEC
  0
EOF
