  0
SECTION
  2
HEADER
  9
$ACADVER
  1
AC1015
  9
$ACADMAINTVER
 70
    20
  9
$DWGCODEPAGE
  3
ANSI_932
  9
$INSBASE
 10
0.0
 20
0.0
 30
0.0
  9
$EXTMIN
 10
969.4269829999999
 20
-322.7426700000001
 30
0.0
  9
$EXTMAX
 10
1374.426983
 20
-48.687309
 30
0.0
  9
$LIMMIN
 10
969.4260019999999
 20
-322.743676
  9
$LIMMAX
 10
1374.453881
 20
-48.686309
  9
$ORTHOMODE
 70
     1
  9
$REGENMODE
 70
     1
  9
$FILLMODE
 70
     1
  9
$QTEXTMODE
 70
     0
  9
$MIRRTEXT
 70
     0
  9
$LTSCALE
 40
6.750430999999998
  9
$ATTMODE
 70
     1
  9
$TEXTSIZE
 40
3.2
  9
$TRACEWID
 40
0.05
  9
$TEXTSTYLE
  7
高3.2
  9
$CLAYER
  8
0
  9
$CELTYPE
  6
CONTINUOUS
  9
$CECOLOR
 62
   256
  9
$CELTSCALE
 40
1.0
  9
$DISPSILH
 70
     0
  9
$DIMSCALE
 40
1.0
  9
$DIMASZ
 40
2.5
  9
$DIMEXO
 40
0.25
  9
$DIMDLI
 40
0.2
  9
$DIMRND
 40
0.0
  9
$DIMDLE
 40
0.0
  9
$DIMEXE
 40
1.25
  9
$DIMTP
 40
0.0
  9
$DIMTM
 40
0.0
  9
$DIMTXT
 40
3.0
  9
$DIMCEN
 40
0.0
  9
$DIMTSZ
 40
0.0
  9
$DIMTOL
 70
     0
  9
$DIMLIM
 70
     0
  9
$DIMTIH
 70
     0
  9
$DIMTOH
 70
     0
  9
$DIMSE1
 70
     0
  9
$DIMSE2
 70
     0
  9
$DIMTAD
 70
     3
  9
$DIMZIN
 70
     8
  9
$DIMBLK
  1
Open30
  9
$DIMASO
 70
     1
  9
$DIMSHO
 70
     1
  9
$DIMPOST
  1

  9
$DIMAPOST
  1

  9
$DIMALT
 70
     0
  9
$DIMALTD
 70
     3
  9
$DIMALTF
 40
0.03937007874016
  9
$DIMLFAC
 40
1.0
  9
$DIMTOFL
 70
     1
  9
$DIMTVP
 40
0.0
  9
$DIMTIX
 70
     0
  9
$DIMSOXD
 70
     0
  9
$DIMSAH
 70
     0
  9
$DIMBLK1
  1

  9
$DIMBLK2
  1

  9
$DIMSTYLE
  2
FREE
  9
$DIMCLRD
 70
     0
  9
$DIMCLRE
 70
     0
  9
$DIMCLRT
 70
     4
  9
$DIMTFAC
 40
1.0
  9
$DIMGAP
 40
0.625
  9
$DIMJUST
 70
     0
  9
$DIMSD1
 70
     0
  9
$DIMSD2
 70
     0
  9
$DIMTOLJ
 70
     0
  9
$DIMTZIN
 70
     8
  9
$DIMALTZ
 70
     0
  9
$DIMALTTZ
 70
     0
  9
$DIMUPT
 70
     1
  9
$DIMDEC
 70
     2
  9
$DIMTDEC
 70
     2
  9
$DIMALTU
 70
     2
  9
$DIMALTTD
 70
     3
  9
$DIMTXSTY
  7
STANDARD
  9
$DIMAUNIT
 70
     0
  9
$DIMADEC
 70
     1
  9
$DIMALTRND
 40
0.0
  9
$DIMAZIN
 70
     2
  9
$DIMDSEP
 70
    46
  9
$DIMATFIT
 70
     0
  9
$DIMFRAC
 70
     0
  9
$DIMLDRBLK
  1
Open30
  9
$DIMLUNIT
 70
     2
  9
$DIMLWD
 70
    -2
  9
$DIMLWE
 70
    -2
  9
$DIMTMOVE
 70
     0
  9
$LUNITS
 70
     2
  9
$LUPREC
 70
     4
  9
$SKETCHINC
 40
0.1
  9
$FILLETRAD
 40
0.0
  9
$AUNITS
 70
     0
  9
$AUPREC
 70
     0
  9
$MENU
  1
.
  9
$ELEVATION
 40
0.0
  9
$PELEVATION
 40
0.0
  9
$THICKNESS
 40
0.0
  9
$LIMCHECK
 70
     0
  9
$CHAMFERA
 40
0.0
  9
$CHAMFERB
 40
0.0
  9
$CHAMFERC
 40
0.0
  9
$CHAMFERD
 40
0.0
  9
$SKPOLY
 70
     0
  9
$TDCREATE
 40
2456350.756517095
  9
$TDUCREATE
 40
2456350.381517095
  9
$TDUPDATE
 40
2456868.850089051
  9
$TDUUPDATE
 40
2456868.475089051
  9
$TDINDWG
 40
0.0165038889
  9
$TDUSRTIMER
 40
0.0165038889
  9
$USRTIMER
 70
     1
  9
$ANGBASE
 50
0.0
  9
$ANGDIR
 70
     0
  9
$PDMODE
 70
     0
  9
$PDSIZE
 40
0.0
  9
$PLINEWID
 40
0.0
  9
$SPLFRAME
 70
     0
  9
$SPLINETYPE
 70
     6
  9
$SPLINESEGS
 70
     8
  9
$HANDSEED
  5
6DD
  9
$SURFTAB1
 70
     6
  9
$SURFTAB2
 70
     6
  9
$SURFTYPE
 70
     6
  9
$SURFU
 70
     6
  9
$SURFV
 70
     6
  9
$UCSBASE
  2

  9
$UCSNAME
  2

  9
$UCSORG
 10
0.0
 20
0.0
 30
0.0
  9
$UCSXDIR
 10
1.0
 20
0.0
 30
0.0
  9
$UCSYDIR
 10
0.0
 20
1.0
 30
0.0
  9
$UCSORTHOREF
  2

  9
$UCSORTHOVIEW
 70
     0
  9
$UCSORGTOP
 10
0.0
 20
0.0
 30
0.0
  9
$UCSORGBOTTOM
 10
0.0
 20
0.0
 30
0.0
  9
$UCSORGLEFT
 10
0.0
 20
0.0
 30
0.0
  9
$UCSORGRIGHT
 10
0.0
 20
0.0
 30
0.0
  9
$UCSORGFRONT
 10
0.0
 20
0.0
 30
0.0
  9
$UCSORGBACK
 10
0.0
 20
0.0
 30
0.0
  9
$PUCSBASE
  2

  9
$PUCSNAME
  2

  9
$PUCSORG
 10
0.0
 20
0.0
 30
0.0
  9
$PUCSXDIR
 10
1.0
 20
0.0
 30
0.0
  9
$PUCSYDIR
 10
0.0
 20
1.0
 30
0.0
  9
$PUCSORTHOREF
  2

  9
$PUCSORTHOVIEW
 70
     0
  9
$PUCSORGTOP
 10
0.0
 20
0.0
 30
0.0
  9
$PUCSORGBOTTOM
 10
0.0
 20
0.0
 30
0.0
  9
$PUCSORGLEFT
 10
0.0
 20
0.0
 30
0.0
  9
$PUCSORGRIGHT
 10
0.0
 20
0.0
 30
0.0
  9
$PUCSORGFRONT
 10
0.0
 20
0.0
 30
0.0
  9
$PUCSORGBACK
 10
0.0
 20
0.0
 30
0.0
  9
$USERI1
 70
     0
  9
$USERI2
 70
     0
  9
$USERI3
 70
     0
  9
$USERI4
 70
     0
  9
$USERI5
 70
     0
  9
$USERR1
 40
0.0
  9
$USERR2
 40
0.0
  9
$USERR3
 40
0.0
  9
$USERR4
 40
0.0
  9
$USERR5
 40
0.0
  9
$WORLDVIEW
 70
     1
  9
$SHADEDGE
 70
     3
  9
$SHADEDIF
 70
    70
  9
$TILEMODE
 70
     1
  9
$MAXACTVP
 70
    64
  9
$PINSBASE
 10
0.0
 20
0.0
 30
0.0
  9
$PLIMCHECK
 70
     0
  9
$PEXTMIN
 10
1.000000000000000E+20
 20
1.000000000000000E+20
 30
1.000000000000000E+20
  9
$PEXTMAX
 10
-1.000000000000000E+20
 20
-1.000000000000000E+20
 30
-1.000000000000000E+20
  9
$PLIMMIN
 10
0.0
 20
0.0
  9
$PLIMMAX
 10
12.0
 20
9.0
  9
$UNITMODE
 70
     0
  9
$VISRETAIN
 70
     1
  9
$PLINEGEN
 70
     0
  9
$PSLTSCALE
 70
     1
  9
$TREEDEPTH
 70
  3020
  9
$CMLSTYLE
  2
Standard
  9
$CMLJUST
 70
     0
  9
$CMLSCALE
 40
1.0
  9
$PROXYGRAPHICS
 70
     1
  9
$MEASUREMENT
 70
     0
  9
$CELWEIGHT
370
    -1
  9
$ENDCAPS
280
     0
  9
$JOINSTYLE
280
     0
  9
$LWDISPLAY
290
     0
  9
$INSUNITS
 70
     0
  9
$HYPERLINKBASE
  1

  9
$STYLESHEET
  1

  9
$XEDIT
290
     1
  9
$CEPSNTYPE
380
     0
  9
$PSTYLEMODE
290
     1
  9
$FINGERPRINTGUID
  2
{1DE235BD-470A-4080-865F-55EE35E5ADED}
  9
$VERSIONGUID
  2
{B8762D0F-4A93-48A7-8E78-B0AE2BD71AAD}
  9
$EXTNAMES
290
     1
  9
$PSVPSCALE
 40
0.0
  9
$OLESTARTUP
290
     0
  0
ENDSEC
  0
SECTION
  2
CLASSES
  0
CLASS
  1
ACDBDICTIONARYWDFLT
  2
AcDbDictionaryWithDefault
  3
ObjectDBX Classes
 90
        0
280
     0
281
     0
  0
CLASS
  1
MATERIAL
  2
AcDbMaterial
  3
ObjectDBX Classes
 90
     1153
280
     0
281
     0
  0
CLASS
  1
VISUALSTYLE
  2
AcDbVisualStyle
  3
ObjectDBX Classes
 90
     4095
280
     0
281
     0
  0
CLASS
  1
SCALE
  2
AcDbScale
  3
ObjectDBX Classes
 90
     1153
280
     0
281
     0
  0
CLASS
  1
TABLESTYLE
  2
AcDbTableStyle
  3
ObjectDBX Classes
 90
     4095
280
     0
281
     0
  0
CLASS
  1
MLEADERSTYLE
  2
AcDbMLeaderStyle
  3
ACDB_MLEADERSTYLE_CLASS
 90
     4095
280
     0
281
     0
  0
CLASS
  1
SORTENTSTABLE
  2
AcDbSortentsTable
  3
ObjectDBX Classes
 90
        0
280
     0
281
     0
  0
CLASS
  1
DICTIONARYVAR
  2
AcDbDictionaryVar
  3
ObjectDBX Classes
 90
        0
280
     0
281
     0
  0
CLASS
  1
CELLSTYLEMAP
  2
AcDbCellStyleMap
  3
ObjectDBX Classes
 90
     1152
280
     0
281
     0
  0
CLASS
  1
ACDBPLACEHOLDER
  2
AcDbPlaceHolder
  3
ObjectDBX Classes
 90
        0
280
     0
281
     0
  0
CLASS
  1
LAYOUT
  2
AcDbLayout
  3
ObjectDBX Classes
 90
        0
280
     0
281
     0
  0
ENDSEC
  0
SECTION
  2
TABLES
  0
TABLE
  2
VPORT
  5
8
330
0
100
AcDbSymbolTable
 70
     1
  0
VPORT
  5
8B
330
8
100
AcDbSymbolTableRecord
100
AcDbViewportTableRecord
  2
*Active
 70
     0
 10
0.0
 20
0.0
 11
1.0
 21
1.0
 12
1225.880592318642
 22
-212.2420690274121
 13
0.0
 23
0.0
 14
1.0
 24
1.0
 15
0.0
 25
0.0
 16
0.0
 26
0.0
 36
1.0
 17
0.0
 27
0.0
 37
0.0
 40
626.5476010029548
 41
1.941838649155722
 42
50.0
 43
0.0
 44
0.0
 50
0.0
 51
0.0
 71
     0
 72
   100
 73
     1
 74
     1
 75
     0
 76
     0
 77
     0
 78
     0
281
     0
 65
     1
110
0.0
120
0.0
130
0.0
111
1.0
121
0.0
131
0.0
112
0.0
122
1.0
132
0.0
 79
     0
146
0.0
  0
ENDTAB
  0
TABLE
  2
LTYPE
  5
5
330
0
100
AcDbSymbolTable
 70
     1
  0
LTYPE
  5
5A
330
5
100
AcDbSymbolTableRecord
100
AcDbLinetypeTableRecord
  2
ByBlock
 70
     0
  3

 72
    65
 73
     0
 40
0.0
  0
LTYPE
  5
5B
330
5
100
AcDbSymbolTableRecord
100
AcDbLinetypeTableRecord
  2
ByLayer
 70
     0
  3

 72
    65
 73
     0
 40
0.0
  0
LTYPE
  5
5C
330
5
100
AcDbSymbolTableRecord
100
AcDbLinetypeTableRecord
  2
CONTINUOUS
 70
     0
  3
Solid-line
 72
    65
 73
     0
 40
0.0
  0
ENDTAB
  0
TABLE
  2
LAYER
  5
2
102
{ACAD_XDICTIONARY
360
3EB
102
}
330
0
100
AcDbSymbolTable
 70
     2
  0
LAYER
  5
54
102
{ACAD_XDICTIONARY
360
5BC
102
}
330
2
100
AcDbSymbolTableRecord
100
AcDbLayerTableRecord
  2
0
 70
     0
 62
     7
  6
CONTINUOUS
370
    -3
390
F
  0
LAYER
  5
3D4
330
2
100
AcDbSymbolTableRecord
100
AcDbLayerTableRecord
  2
Defpoints
 70
     0
 62
     7
  6
CONTINUOUS
290
     0
370
    -3
390
F
  0
ENDTAB
  0
TABLE
  2
STYLE
  5
3
330
0
100
AcDbSymbolTable
 70
     5
  0
STYLE
  5
55
330
3
100
AcDbSymbolTableRecord
100
AcDbTextStyleTableRecord
  2
STANDARD
 70
     0
 40
0.0
 41
1.0
 50
0.0
 71
     0
 42
0.2
  3
TXT
  4
BIGFONT
  0
STYLE
  5
3D5
330
3
100
AcDbSymbolTableRecord
100
AcDbTextStyleTableRecord
  2
高3.2
 70
     0
 40
3.2
 41
1.0
 50
0.0
 71
     0
 42
3.2
  3
txt.shx
  4
bigfont.shx
  0
STYLE
  5
3D6
330
3
100
AcDbSymbolTableRecord
100
AcDbTextStyleTableRecord
  2
高6.3
 70
     0
 40
6.299999999999998
 41
1.0
 50
0.0
 71
     0
 42
6.299999999999998
  3
txt.shx
  4
bigfont.shx
  0
STYLE
  5
3D8
330
3
100
AcDbSymbolTableRecord
100
AcDbTextStyleTableRecord
  2
高4.5
 70
     0
 40
4.5
 41
1.0
 50
0.0
 71
     0
 42
6.299999999999998
  3
txt.shx
  4
bigfont.shx
  0
STYLE
  5
3D9
330
3
100
AcDbSymbolTableRecord
100
AcDbTextStyleTableRecord
  2
高2
 70
     0
 40
2.0
 41
1.0
 50
0.0
 71
     0
 42
2.0
  3
txt.shx
  4
bigfont.shx
  0
ENDTAB
  0
TABLE
  2
VIEW
  5
6
330
0
100
AcDbSymbolTable
 70
     0
  0
ENDTAB
  0
TABLE
  2
UCS
  5
7
330
0
100
AcDbSymbolTable
 70
     0
  0
ENDTAB
  0
TABLE
  2
APPID
  5
9
330
0
100
AcDbSymbolTable
 70
    10
  0
APPID
  5
56
330
9
100
AcDbSymbolTableRecord
100
AcDbRegAppTableRecord
  2
ACAD
 70
     0
  0
APPID
  5
5D
330
9
100
AcDbSymbolTableRecord
100
AcDbRegAppTableRecord
  2
AcadAnnotative
 70
     0
  0
APPID
  5
3E4
330
9
100
AcDbSymbolTableRecord
100
AcDbRegAppTableRecord
  2
ACAD_DSTYLE_DIMJOGGED_JOGANGLE_SYMBOL
 70
     0
  0
APPID
  5
3E5
330
9
100
AcDbSymbolTableRecord
100
AcDbRegAppTableRecord
  2
ACAD_DSTYLE_DIMJAG
 70
     0
  0
APPID
  5
3E6
330
9
100
AcDbSymbolTableRecord
100
AcDbRegAppTableRecord
  2
ACAD_DSTYLE_DIMBREAK
 70
     0
  0
APPID
  5
3E7
330
9
100
AcDbSymbolTableRecord
100
AcDbRegAppTableRecord
  2
ACAD_DSTYLE_DIMTALN
 70
     0
  0
APPID
  5
54F
330
9
100
AcDbSymbolTableRecord
100
AcDbRegAppTableRecord
  2
ACAD_EXEMPT_FROM_CAD_STANDARDS
 70
     0
  0
APPID
  5
602
330
9
100
AcDbSymbolTableRecord
100
AcDbRegAppTableRecord
  2
ACAD_MLEADERVER
 70
     0
  0
APPID
  5
607
330
9
100
AcDbSymbolTableRecord
100
AcDbRegAppTableRecord
  2
ACAD_DSTYLE_DIMARC_LENGTH_SYMBOL
 70
     0
  0
APPID
  5
608
330
9
100
AcDbSymbolTableRecord
100
AcDbRegAppTableRecord
  2
ACAD_DSTYLE_DIMEXT_LENGTH
 70
     0
  0
ENDTAB
  0
TABLE
  2
DIMSTYLE
  5
A
330
0
100
AcDbSymbolTable
 70
     2
100
AcDbDimStyleTable
 71
     1
340
3E3
  0
DIMSTYLE
105
57
330
A
100
AcDbSymbolTableRecord
100
AcDbDimStyleTableRecord
  2
Standard
 70
     0
340
55
  0
DIMSTYLE
105
3E3
330
A
100
AcDbSymbolTableRecord
100
AcDbDimStyleTableRecord
  2
FREE
 70
     0
 41
2.5
 42
0.25
 43
0.2
 44
1.25
 73
     0
 74
     0
 77
     3
 78
     8
 79
     2
140
3.0
141
0.0
143
0.03937007874016
147
0.625
171
     3
172
     1
178
     4
179
     1
271
     2
272
     2
274
     3
283
     0
284
     8
288
     1
289
     0
340
55
341
344
342
344
1001
ACAD_DSTYLE_DIMBREAK
1070
   391
1040
3.75
1001
ACAD_DSTYLE_DIMJAG
1070
   388
1040
1.5
1001
ACAD_DSTYLE_DIMTALN
1070
   392
1070
     0
1001
ACAD_DSTYLE_DIMARC_LENGTH_SYMBOL
1070
   379
1070
     2
1001
ACAD_DSTYLE_DIMEXT_LENGTH
1070
   378
1040
1.25
1001
ACAD_DSTYLE_DIMJOGGED_JOGANGLE_SYMBOL
1070
   384
1040
1.570796326794896
  0
ENDTAB
  0
TABLE
  2
BLOCK_RECORD
  5
1
330
0
100
AcDbSymbolTable
 70
     4
  0
BLOCK_RECORD
  5
6B
102
{ACAD_XDICTIONARY
360
66C
102
}
330
1
100
AcDbSymbolTableRecord
100
AcDbBlockTableRecord
  2
*Model_Space
340
6E
  0
BLOCK_RECORD
  5
67
330
1
100
AcDbSymbolTableRecord
100
AcDbBlockTableRecord
  2
*Paper_Space
340
6A
  0
BLOCK_RECORD
  5
344
330
1
100
AcDbSymbolTableRecord
100
AcDbBlockTableRecord
  2
_Open30
340
0
102
{BLKREFS
331
612
331
613
331
61B
331
61C
331
624
331
625
102
}
  0
BLOCK_RECORD
  5
551
330
1
100
AcDbSymbolTableRecord
100
AcDbBlockTableRecord
  2
*D1
340
0
  0
BLOCK_RECORD
  5
55E
330
1
100
AcDbSymbolTableRecord
100
AcDbBlockTableRecord
  2
*D2
340
0
  0
BLOCK_RECORD
  5
56B
330
1
100
AcDbSymbolTableRecord
100
AcDbBlockTableRecord
  2
*D3
340
0
  0
ENDTAB
  0
ENDSEC
  0
SECTION
  2
BLOCKS
  0
BLOCK
  5
6C
330
6B
100
AcDbEntity
  8
0
100
AcDbBlockBegin
  2
*Model_Space
 70
     0
 10
0.0
 20
0.0
 30
0.0
  3
*Model_Space
  1

  0
ENDBLK
  5
6D
330
6B
100
AcDbEntity
  8
0
100
AcDbBlockEnd
  0
BLOCK
  5
68
330
67
100
AcDbEntity
 67
     1
  8
0
100
AcDbBlockBegin
  2
*Paper_Space
 70
     0
 10
0.0
 20
0.0
 30
0.0
  3
*Paper_Space
  1

  0
ENDBLK
  5
69
330
67
100
AcDbEntity
 67
     1
  8
0
100
AcDbBlockEnd
  0
BLOCK
  5
345
330
344
100
AcDbEntity
  8
0
100
AcDbBlockBegin
  2
_Open30
 70
     0
 10
0.0
 20
0.0
 30
0.0
  3
_Open30
  1

  0
LINE
  5
346
330
344
100
AcDbEntity
  8
0
  6
ByBlock
 62
     0
370
    -2
100
AcDbLine
 10
-1.0
 20
0.267949
 30
0.0
 11
0.0
 21
0.0
 31
0.0
  0
LINE
  5
347
330
344
100
AcDbEntity
  8
0
  6
ByBlock
 62
     0
370
    -2
100
AcDbLine
 10
0.0
 20
0.0
 30
0.0
 11
-1.0
 21
-0.267949
 31
0.0
  0
LINE
  5
348
330
344
100
AcDbEntity
  8
0
  6
ByBlock
 62
     0
370
    -2
100
AcDbLine
 10
0.0
 20
0.0
 30
0.0
 11
-1.0
 21
0.0
 31
0.0
  0
ENDBLK
  5
349
330
344
100
AcDbEntity
  8
0
100
AcDbBlockEnd
  0
BLOCK
  5
552
330
551
100
AcDbEntity
  8
0
100
AcDbBlockBegin
  2
*D1
 70
     1
 10
0.0
 20
0.0
 30
0.0
  3
*D1
  1

  0
LINE
  5
621
330
551
100
AcDbEntity
  8
0
 62
     0
370
    -2
100
AcDbLine
 10
1127.348618
 20
-186.195143
 30
0.0
 11
1127.348618
 21
-199.331043
 31
0.0
  0
LINE
  5
622
330
551
100
AcDbEntity
  8
0
 62
     0
370
    -2
100
AcDbLine
 10
1232.348618
 20
-186.195143
 30
0.0
 11
1232.348618
 21
-199.331043
 31
0.0
  0
LINE
  5
623
330
551
100
AcDbEntity
  8
0
 62
     0
370
    -2
100
AcDbLine
 10
1129.848618
 20
-198.081043
 30
0.0
 11
1229.848618
 21
-198.081043
 31
0.0
  0
INSERT
  5
624
330
551
100
AcDbEntity
  8
0
 62
     0
370
    -2
100
AcDbBlockReference
  2
_Open30
 10
1127.348618
 20
-198.081043
 30
0.0
 41
2.5
 42
2.5
 43
2.5
 50
180.0
  0
INSERT
  5
625
330
551
100
AcDbEntity
  8
0
 62
     0
370
    -2
100
AcDbBlockReference
  2
_Open30
 10
1232.348618
 20
-198.081043
 30
0.0
 41
2.5
 42
2.5
 43
2.5
  0
MTEXT
  5
626
330
551
100
AcDbEntity
  8
0
 62
     4
100
AcDbMText
 10
1179.848618
 20
-195.956043
 30
0.0
 40
3.0
 41
0.0
 71
     5
 72
     1
  1
150
 73
     1
 44
1.0
1001
ACAD
1000
MTEXTBEGIN
1070
    73
1070
     1
1070
    44
1040
1.0
1070
    74
1070
     0
1000
MTEXTEND
  0
POINT
  5
627
330
551
100
AcDbEntity
  8
Defpoints
 62
     0
100
AcDbPoint
 10
1127.348618
 20
-185.945143
 30
0.0
  0
POINT
  5
628
330
551
100
AcDbEntity
  8
Defpoints
 62
     0
100
AcDbPoint
 10
1232.348618
 20
-185.945143
 30
0.0
  0
POINT
  5
629
330
551
100
AcDbEntity
  8
Defpoints
 62
     0
100
AcDbPoint
 10
1232.348618
 20
-198.081043
 30
0.0
  0
ENDBLK
  5
553
330
551
100
AcDbEntity
  8
0
100
AcDbBlockEnd
  0
BLOCK
  5
55F
330
55E
100
AcDbEntity
  8
0
100
AcDbBlockBegin
  2
*D2
 70
     1
 10
0.0
 20
0.0
 30
0.0
  3
*D2
  1

  0
LINE
  5
60F
330
55E
100
AcDbEntity
  8
0
 62
     0
370
    -2
100
AcDbLine
 10
1096.448105
 20
-189.445143
 30
0.0
 11
1114.709253
 21
-189.445143
 31
0.0
  0
LINE
  5
610
330
55E
100
AcDbEntity
  8
0
 62
     0
370
    -2
100
AcDbLine
 10
1066.698618
 20
-91.445143
 30
0.0
 11
1114.709253
 21
-91.445143
 31
0.0
  0
LINE
  5
611
330
55E
100
AcDbEntity
  8
0
 62
     0
370
    -2
100
AcDbLine
 10
1113.459253
 20
-186.945143
 30
0.0
 11
1113.459253
 21
-93.945143
 31
0.0
  0
INSERT
  5
612
330
55E
100
AcDbEntity
  8
0
 62
     0
370
    -2
100
AcDbBlockReference
  2
_Open30
 10
1113.459253
 20
-189.445143
 30
0.0
 41
2.5
 42
2.5
 43
2.5
 50
270.0
  0
INSERT
  5
613
330
55E
100
AcDbEntity
  8
0
 62
     0
370
    -2
100
AcDbBlockReference
  2
_Open30
 10
1113.459253
 20
-91.445143
 30
0.0
 41
2.5
 42
2.5
 43
2.5
 50
90.0
  0
MTEXT
  5
614
330
55E
100
AcDbEntity
  8
0
 62
     4
100
AcDbMText
 10
1111.334253
 20
-140.4451429999998
 30
0.0
 40
3.0
 41
0.0
 71
     5
 72
     1
  1
140
 11
0.0000000000000001
 21
1.0
 31
0.0
 73
     1
 44
1.0
1001
ACAD
1000
MTEXTBEGIN
1070
    73
1070
     1
1070
    44
1040
1.0
1070
    74
1070
     0
1000
MTEXTEND
  0
POINT
  5
615
330
55E
100
AcDbEntity
  8
Defpoints
 62
     0
100
AcDbPoint
 10
1096.198105
 20
-189.445143
 30
0.0
  0
POINT
  5
616
330
55E
100
AcDbEntity
  8
Defpoints
 62
     0
100
AcDbPoint
 10
1066.448618
 20
-91.445143
 30
0.0
  0
POINT
  5
617
330
55E
100
AcDbEntity
  8
Defpoints
 62
     0
100
AcDbPoint
 10
1113.459253
 20
-91.445143
 30
0.0
  0
ENDBLK
  5
560
330
55E
100
AcDbEntity
  8
0
100
AcDbBlockEnd
  0
BLOCK
  5
56C
330
56B
100
AcDbEntity
  8
0
100
AcDbBlockBegin
  2
*D3
 70
     1
 10
0.0
 20
0.0
 30
0.0
  3
*D3
  1

  0
LINE
  5
618
330
56B
100
AcDbEntity
  8
0
 62
     0
370
    -2
100
AcDbLine
 10
1024.448618
 20
-182.695143
 30
0.0
 11
1024.448618
 21
-203.524947
 31
0.0
  0
LINE
  5
619
330
56B
100
AcDbEntity
  8
0
 62
     0
370
    -2
100
AcDbLine
 10
1101.448618
 20
-182.695143
 30
0.0
 11
1101.448618
 21
-203.524947
 31
0.0
  0
LINE
  5
61A
330
56B
100
AcDbEntity
  8
0
 62
     0
370
    -2
100
AcDbLine
 10
1026.948618
 20
-202.274947
 30
0.0
 11
1098.948618
 21
-202.274947
 31
0.0
  0
INSERT
  5
61B
330
56B
100
AcDbEntity
  8
0
 62
     0
370
    -2
100
AcDbBlockReference
  2
_Open30
 10
1024.448618
 20
-202.274947
 30
0.0
 41
2.5
 42
2.5
 43
2.5
 50
180.0
  0
INSERT
  5
61C
330
56B
100
AcDbEntity
  8
0
 62
     0
370
    -2
100
AcDbBlockReference
  2
_Open30
 10
1101.448618
 20
-202.274947
 30
0.0
 41
2.5
 42
2.5
 43
2.5
  0
MTEXT
  5
61D
330
56B
100
AcDbEntity
  8
0
 62
     4
100
AcDbMText
 10
1062.948618
 20
-200.149947
 30
0.0
 40
3.0
 41
0.0
 71
     5
 72
     1
  1
110
 73
     1
 44
1.0
1001
ACAD
1000
MTEXTBEGIN
1070
    73
1070
     1
1070
    44
1040
1.0
1070
    74
1070
     0
1000
MTEXTEND
  0
POINT
  5
61E
330
56B
100
AcDbEntity
  8
Defpoints
 62
     0
100
AcDbPoint
 10
1024.448618
 20
-182.445143
 30
0.0
  0
POINT
  5
61F
330
56B
100
AcDbEntity
  8
Defpoints
 62
     0
100
AcDbPoint
 10
1101.448618
 20
-182.445143
 30
0.0
  0
POINT
  5
620
330
56B
100
AcDbEntity
  8
Defpoints
 62
     0
100
AcDbPoint
 10
1101.448618
 20
-202.274947
 30
0.0
  0
ENDBLK
  5
56D
330
56B
100
AcDbEntity
  8
0
100
AcDbBlockEnd
  0
ENDSEC
  0
SECTION
  2
ENTITIES
  0
TEXT
  5
BB
330
6B
100
AcDbEntity
  8
0
 62
     3
100
AcDbText
 10
1281.49403947282
 20
-290.232688
 30
0.0
 40
4.5
  1
海外用トランス
  7
高4.5
100
AcDbText
  0
LINE
  5
BE
330
6B
100
AcDbEntity
  8
0
 62
     3
100
AcDbLine
 10
1348.727619
 20
-306.076948
 30
0.0
 11
1348.727619
 21
-283.0769480000001
 31
0.0
  0
LINE
  5
C0
330
6B
100
AcDbEntity
  8
0
 62
     3
100
AcDbLine
 10
1295.67401
 20
-313.076948
 30
0.0
 11
1295.67401
 21
-299.076948
 31
0.0
  0
TEXT
  5
C2
330
6B
100
AcDbEntity
  8
0
 62
     3
100
AcDbText
 10
1324.737937
 20
-286.871832
 30
0.0
 40
2.0
  1
A
 41
0.7
100
AcDbText
  0
TEXT
  5
C3
330
6B
100
AcDbEntity
  8
0
 62
     3
100
AcDbText
 10
1327.273224
 20
-286.871832
 30
0.0
 40
2.0
  1
P
 41
0.7
100
AcDbText
  0
TEXT
  5
C4
330
6B
100
AcDbEntity
  8
0
 62
     3
100
AcDbText
 10
1329.80851
 20
-286.871832
 30
0.0
 40
2.0
  1
P
 41
0.7
100
AcDbText
  0
TEXT
  5
C5
330
6B
100
AcDbEntity
  8
0
 62
     3
100
AcDbText
 10
1332.343796
 20
-286.871832
 30
0.0
 40
2.0
  1
D
 41
0.7
100
AcDbText
  0
TEXT
  5
C6
330
6B
100
AcDbEntity
  8
0
 62
     3
100
AcDbText
 10
1337.712479
 20
-286.871832
 30
0.0
 40
2.0
  1
C
 41
0.7
100
AcDbText
  0
TEXT
  5
C7
330
6B
100
AcDbEntity
  8
0
 62
     3
100
AcDbText
 10
1340.247765
 20
-286.871832
 30
0.0
 40
2.0
  1
H
 41
0.7
100
AcDbText
  0
TEXT
  5
C8
330
6B
100
AcDbEntity
  8
0
 62
     3
100
AcDbText
 10
1342.783052
 20
-286.871832
 30
0.0
 40
2.0
  1
C
 41
0.7
100
AcDbText
  0
TEXT
  5
C9
330
6B
100
AcDbEntity
  8
0
 62
     3
100
AcDbText
 10
1345.318338
 20
-286.871832
 30
0.0
 40
2.0
  1
K
 41
0.7
100
AcDbText
  0
TEXT
  5
CA
330
6B
100
AcDbEntity
  8
0
 62
     3
100
AcDbText
 10
1350.992304
 20
-286.871832
 30
0.0
 40
2.0
  1
DESN
 41
1.216762999999998
100
AcDbText
  0
TEXT
  5
CB
330
6B
100
AcDbEntity
  8
0
 62
     3
100
AcDbText
 10
1265.985946
 20
-316.218329
 30
0.0
 40
2.0
  1
NICHIDO IND.CO.LTD
 41
1.274876
100
AcDbText
  0
LINE
  5
CC
330
6B
100
AcDbEntity
  8
0
 62
     3
100
AcDbLine
 10
1276.368975
 20
-283.076948
 30
0.0
 11
1276.368975
 21
-306.076948
 31
0.0
  0
LINE
  5
CD
330
6B
100
AcDbEntity
  8
0
 62
     3
100
AcDbLine
 10
1322.727619
 20
-283.076948
 30
0.0
 11
1322.727619
 21
-322.74267
 31
0.0
  0
LINE
  5
D2
330
6B
100
AcDbEntity
  8
0
 62
     3
100
AcDbLine
 10
1335.727619
 20
-283.076948
 30
0.0
 11
1335.727619
 21
-313.076948
 31
0.0
  0
TEXT
  5
D3
330
6B
100
AcDbEntity
  8
0
 62
     3
100
AcDbText
 10
1323.840064
 20
-312.212261
 30
0.0
 40
3.2
  1
作成日
 41
1.017225999999998
100
AcDbText
  0
LINE
  5
D4
330
6B
100
AcDbEntity
  8
0
 62
     3
100
AcDbLine
 10
1374.426983
 20
-283.076948
 30
0.0
 11
1263.12354
 21
-283.076948
 31
0.0
  0
LINE
  5
D5
330
6B
100
AcDbEntity
  8
0
 62
     3
100
AcDbLine
 10
1361.727619
 20
-306.076948
 30
0.0
 11
1361.727619
 21
-283.076948
 31
0.0
  0
TEXT
  5
D6
330
6B
100
AcDbEntity
  8
0
 62
     3
100
AcDbText
 10
1365.051423
 20
-286.786013
 30
0.0
 40
1.8
  1
D
 41
0.666667
100
AcDbText
  0
TEXT
  5
D7
330
6B
100
AcDbEntity
  8
0
 62
     3
100
AcDbText
 10
1367.868051
 20
-286.786013
 30
0.0
 40
1.8
  1
E
 41
0.666667
100
AcDbText
  0
TEXT
  5
D8
330
6B
100
AcDbEntity
  8
0
 62
     3
100
AcDbText
 10
1370.684679
 20
-286.786013
 30
0.0
 40
1.8
  1
F
 41
0.666667
100
AcDbText
  0
TEXT
  5
D9
330
6B
100
AcDbEntity
  8
0
 62
     3
100
AcDbText
 10
1365.051423
 20
-290.778566
 30
0.0
 40
3.2
  1
製図
 41
1.076369
100
AcDbText
  0
LINE
  5
DA
330
6B
100
AcDbEntity
  8
0
 62
     3
100
AcDbLine
 10
1263.12354
 20
-283.076948
 30
0.0
 11
1263.12354
 21
-322.74267
 31
0.0
  0
TEXT
  5
DB
330
6B
100
AcDbEntity
  8
0
 62
     3
100
AcDbText
 10
1264.500193
 20
-322.4102049999999
 30
0.0
 40
5.0
  1
日動工業株式会社
 41
0.833333
100
AcDbText
  0
LINE
  5
DC
330
6B
100
AcDbEntity
  8
0
 62
     3
100
AcDbLine
 10
1306.005944
 20
-299.0769479999999
 30
0.0
 11
1306.005944
 21
-322.74267
 31
0.0
  0
LINE
  5
DD
330
6B
100
AcDbEntity
  8
0
 62
     3
100
AcDbLine
 10
1306.005944
 20
-317.909809
 30
0.0
 11
1322.727619
 21
-317.909809
 31
0.0
  0
TEXT
  5
DE
330
6B
100
AcDbEntity
  8
0
 62
     3
100
AcDbText
 10
1306.592546
 20
-317.093378
 30
0.0
 40
3.2
  1
出図コード
 41
0.8356860000000001
100
AcDbText
  0
LINE
  5
F0
330
6B
100
AcDbEntity
  8
0
 62
     3
100
AcDbLine
 10
1263.12354
 20
-313.076948
 30
0.0
 11
1374.426983
 21
-313.076948
 31
0.0
  0
LINE
  5
F2
330
6B
100
AcDbEntity
  8
0
 62
     3
100
AcDbLine
 10
1263.12354
 20
-292.076948
 30
0.0
 11
1374.426983
 21
-292.076948
 31
0.0
  0
LINE
  5
F8
330
6B
100
AcDbEntity
  8
0
 62
     3
100
AcDbLine
 10
1263.12354
 20
-299.0769479999999
 30
0.0
 11
1322.727619
 21
-299.076948
 31
0.0
  0
LINE
  5
FE
330
6B
100
AcDbEntity
  8
0
 62
     3
100
AcDbLine
 10
1263.12354
 20
-306.076948
 30
0.0
 11
1374.426983
 21
-306.076948
 31
0.0
  0
LINE
  5
102
330
6B
100
AcDbEntity
  8
0
 62
     3
100
AcDbLine
 10
1374.426983
 20
-48.687309
 30
0.0
 11
1374.426983
 21
-322.7426700000001
 31
0.0
  0
LINE
  5
103
330
6B
100
AcDbEntity
  8
0
 62
     3
100
AcDbLine
 10
984.4269829999999
 20
-48.687309
 30
0.0
 11
984.4269829999999
 21
-322.74267
 31
0.0
  0
LINE
  5
104
330
6B
100
AcDbEntity
  8
0
 62
     3
100
AcDbLine
 10
1374.426983
 20
-322.74267
 30
0.0
 11
984.4269829999999
 21
-322.74267
 31
0.0
  0
TEXT
  5
107
330
6B
100
AcDbEntity
  8
0
 62
     3
100
AcDbText
 10
1306.459998
 20
-322.31185887479
 30
0.0
 40
3.2
  1
ZK-A3X
 41
0.8112849999999999
100
AcDbText
  0
TEXT
  5
108
330
6B
100
AcDbEntity
  8
0
 62
     3
100
AcDbText
 10
1264.940937
 20
-286.907422
 30
0.0
 40
2.0
  1
CONPONENTS
 41
0.5331600000000001
100
AcDbText
  0
TEXT
  5
109
330
6B
100
AcDbEntity
  8
0
 62
     3
100
AcDbText
 10
1264.591211
 20
-305.839599
 30
0.0
 40
3.0
  1
材
 41
0.833333
100
AcDbText
  0
TEXT
  5
10A
330
6B
100
AcDbEntity
  8
0
 62
     3
100
AcDbText
 10
1272.126853
 20
-305.839599
 30
0.0
 40
3.0
  1
質
 41
0.833333
100
AcDbText
  0
TEXT
  5
10B
330
6B
100
AcDbEntity
  8
0
 62
     3
100
AcDbText
 10
1264.679281
 20
-295.215074
 30
0.0
 40
2.0
  1
MODEL
 41
1.031072999999999
100
AcDbText
  0
TEXT
  5
10C
330
6B
100
AcDbEntity
  8
0
 62
     3
100
AcDbText
 10
1264.591211
 20
-302.15729
 30
0.0
 40
2.0
  1
MATERIAL
 41
0.659278
100
AcDbText
  0
TEXT
  5
10D
330
6B
100
AcDbEntity
  8
0
 62
     3
100
AcDbText
 10
1295.898491
 20
-305.839599
 30
0.0
 40
3.0
  1
備
 41
0.833333
100
AcDbText
  0
TEXT
  5
10E
330
6B
100
AcDbEntity
  8
0
 62
     3
100
AcDbText
 10
1302.631493
 20
-305.839599
 30
0.0
 40
3.0
  1
考
 41
0.833333
100
AcDbText
  0
TEXT
  5
10F
330
6B
100
AcDbEntity
  8
0
 62
     3
100
AcDbText
 10
1296.24224240705
 20
-302.15729
 30
0.0
 40
2.0
  1
REMARKS
 41
0.675794
100
AcDbText
  0
TEXT
  5
110
330
6B
100
AcDbEntity
  8
0
 62
     3
100
AcDbText
 10
1266.18094
 20
-309.077411
 30
0.0
 40
2.0
  1
3AD
 41
1.42614
100
AcDbText
  0
TEXT
  5
111
330
6B
100
AcDbEntity
  8
0
 62
     3
100
AcDbText
 10
1275.491919
 20
-308.911677
 30
0.0
 40
2.0
  1
ANGLE
 41
1.669883999999998
100
AcDbText
  0
TEXT
  5
112
330
6B
100
AcDbEntity
  8
0
 62
     3
100
AcDbText
 10
1296.425806
 20
-309.288518
 30
0.0
 40
2.0
  1
SCALE
 41
0.7719630000000001
100
AcDbText
  0
TEXT
  5
113
330
6B
100
AcDbEntity
  8
0
 62
     3
100
AcDbText
 10
1265.867069
 20
-313.076948
 30
0.0
 40
3.0
  1
第
 41
0.833333
100
AcDbText
  0
TEXT
  5
114
330
6B
100
AcDbEntity
  8
0
 62
     3
100
AcDbText
 10
1273.653919
 20
-313.076948
 30
0.0
 40
3.0
  1
三
 41
0.833333
100
AcDbText
  0
TEXT
  5
115
330
6B
100
AcDbEntity
  8
0
 62
     3
100
AcDbText
 10
1281.440769
 20
-313.076948
 30
0.0
 40
3.0
  1
角
 41
0.833333
100
AcDbText
  0
TEXT
  5
116
330
6B
100
AcDbEntity
  8
0
 62
     3
100
AcDbText
 10
1289.227619
 20
-313.076948
 30
0.0
 40
3.0
  1
法
 41
0.833333
100
AcDbText
  0
TEXT
  5
117
330
6B
100
AcDbEntity
  8
0
 62
     3
100
AcDbText
 10
1296.289011
 20
-312.788518
 30
0.0
 40
3.0
  1
尺
 41
0.833333
100
AcDbText
  0
TEXT
  5
118
330
6B
100
AcDbEntity
  8
0
 62
     3
100
AcDbText
 10
1303.022013
 20
-312.788518
 30
0.0
 40
3.0
  1
度
 41
0.833333
100
AcDbText
  0
TEXT
  5
119
330
6B
100
AcDbEntity
  8
0
 62
     3
100
AcDbText
 10
1325.605284
 20
-290.619219
 30
0.0
 40
3.0
  1
承認
 41
1.089472999999999
100
AcDbText
  0
TEXT
  5
11A
330
6B
100
AcDbEntity
  8
0
 62
     3
100
AcDbText
 10
1338.848164
 20
-290.676948
 30
0.0
 40
3.0
  1
検図
 41
0.931761
100
AcDbText
  0
TEXT
  5
11B
330
6B
100
AcDbEntity
  8
0
 62
     3
100
AcDbText
 10
1351.84856
 20
-290.676948
 30
0.0
 40
3.0
  1
設
 41
0.833333
100
AcDbText
  0
TEXT
  5
11C
330
6B
100
AcDbEntity
  8
0
 62
     3
100
AcDbText
 10
1356.338429
 20
-290.676948
 30
0.0
 40
3.0
  1
計
 41
0.833333
100
AcDbText
  0
TEXT
  5
11D
330
6B
100
AcDbEntity
  8
0
 62
     3
100
AcDbText
 10
1265.011044
 20
-290.5043950000001
 30
0.0
 40
3.0
  1
品
 41
0.833333
100
AcDbText
  0
TEXT
  5
11E
330
6B
100
AcDbEntity
  8
0
 62
     3
100
AcDbText
 10
1272.546686
 20
-290.5043950000001
 30
0.0
 40
3.0
  1
名
 41
0.833333
100
AcDbText
  0
TEXT
  5
11F
330
6B
100
AcDbEntity
  8
0
 62
     3
100
AcDbText
 10
1264.679281
 20
-298.7462969495317
 30
0.0
 40
3.0
  1
型
 41
0.833333
100
AcDbText
  0
TEXT
  5
120
330
6B
100
AcDbEntity
  8
0
 62
     3
100
AcDbText
 10
1272.227372
 20
-298.7462969495317
 30
0.0
 40
3.0
  1
式
 41
0.833333
100
AcDbText
  0
LINE
  5
128
330
6B
100
AcDbEntity
  8
0
 62
     3
100
AcDbLine
 10
1374.426983
 20
-48.687309
 30
0.0
 11
984.4269829999999
 21
-48.687309
 31
0.0
  0
LINE
  5
129
330
6B
100
AcDbEntity
  8
0
 62
     3
100
AcDbLine
 10
1348.727619
 20
-283.076948
 30
0.0
 11
1348.727619
 21
-277.076948
 31
0.0
  0
LINE
  5
12A
330
6B
100
AcDbEntity
  8
0
 62
     3
100
AcDbLine
 10
1322.727619
 20
-283.076948
 30
0.0
 11
1322.727619
 21
-277.076948
 31
0.0
  0
LINE
  5
12B
330
6B
100
AcDbEntity
  8
0
 62
     3
100
AcDbLine
 10
1374.426983
 20
-277.076948
 30
0.0
 11
1322.727619
 21
-277.076948
 31
0.0
  0
TEXT
  5
12C
330
6B
100
AcDbEntity
  8
0
 62
     3
100
AcDbText
 10
1328.723218
 20
-282.280599
 30
0.0
 40
4.5
  1
コード
  7
高4.5
100
AcDbText
  0
TEXT
  5
12D
330
6B
100
AcDbEntity
  8
0
 62
     3
100
AcDbText
 10
1044.376118008711
 20
-322.24267
 30
0.0
 40
3.2
  1
　備　　　　　考　
 41
0.8
  7
高3.2
100
AcDbText
  0
TEXT
  5
12E
330
6B
100
AcDbEntity
  8
0
 62
     3
100
AcDbText
 10
1020.914185813316
 20
-322.24267
 30
0.0
 40
3.2
  1
個数
 41
0.8
  7
高3.2
100
AcDbText
  0
TEXT
  5
12F
330
6B
100
AcDbEntity
  8
0
 62
     3
100
AcDbText
 10
993.4853095624999
 20
-322.24267
 30
0.0
 40
3.2
  1
部　　品　　名
 41
0.8
  7
高3.2
100
AcDbText
  0
TEXT
  5
130
330
6B
100
AcDbEntity
  8
0
 62
     3
100
AcDbText
 10
985.926983
 20
-322.24267
 30
0.0
 40
3.2
  1
No
 41
0.8
  7
高3.2
100
AcDbText
  0
TEXT
  5
131
330
6B
100
AcDbEntity
  8
0
 62
     3
100
AcDbText
 10
1029.52495978342
 20
-322.24267
 30
0.0
 40
3.2
  1
材　質
 41
0.8
  7
高3.2
100
AcDbText
  0
LINE
  5
132
330
6B
100
AcDbEntity
  8
0
100
AcDbLine
 10
1318.03822296836
 20
-208.878461
 30
0.0
 11
1354.977189459168
 21
-208.878461
 31
0.0
  0
TEXT
  5
133
330
6B
100
AcDbEntity
  8
0
 62
     3
100
AcDbText
 10
1318.036274078537
 20
-208.0743947138142
 30
0.0
 40
4.5
  1
主　　仕　　様
  7
高4.5
100
AcDbText
  0
TEXT
  5
134
330
6B
100
AcDbEntity
  8
0
 62
     3
100
AcDbText
 10
1340.582573
 20
-311.777244
 30
0.0
 40
3.2
  1
2006.12.06
  7
高3.2
100
AcDbText
  0
TEXT
  5
135
330
6B
100
AcDbEntity
  8
0
 62
     3
100
AcDbText
 10
985.926983
 20
-307.24267
 30
0.0
 40
3.2
  1
3
 41
0.8
  7
高3.2
100
AcDbText
  0
TEXT
  5
136
330
6B
100
AcDbEntity
  8
0
 62
     3
100
AcDbText
 10
985.926983
 20
-302.2426700000001
 30
0.0
 40
3.2
  1
4
 41
0.8
  7
高3.2
100
AcDbText
  0
TEXT
  5
137
330
6B
100
AcDbEntity
  8
0
 62
     3
100
AcDbText
 10
985.926983
 20
-297.24267
 30
0.0
 40
3.2
  1
5
 41
0.8
  7
高3.2
100
AcDbText
  0
TEXT
  5
138
330
6B
100
AcDbEntity
  8
0
 62
     3
100
AcDbText
 10
985.926983
 20
-292.2426700000001
 30
0.0
 40
3.2
  1
6
 41
0.8
  7
高3.2
100
AcDbText
  0
TEXT
  5
139
330
6B
100
AcDbEntity
  8
0
 62
     3
100
AcDbText
 10
1020.914185813316
 20
-307.24267
 30
0.0
 40
3.2
  1
1
 41
0.8
  7
高3.2
100
AcDbText
  0
TEXT
  5
13A
330
6B
100
AcDbEntity
  8
0
 62
     3
100
AcDbText
 10
985.926983
 20
-317.2426700000001
 30
0.0
 40
3.2
  1
1
 41
0.8
  7
高3.2
100
AcDbText
  0
TEXT
  5
13B
330
6B
100
AcDbEntity
  8
0
 62
     3
100
AcDbText
 10
985.926983
 20
-312.24267
 30
0.0
 40
3.2
  1
2
 41
0.8
  7
高3.2
100
AcDbText
  0
TEXT
  5
13C
330
6B
100
AcDbEntity
  8
0
 62
     3
100
AcDbText
 10
993.4853095624999
 20
-312.24267
 30
0.0
 40
3.2
  1
ケース本体
 41
0.8
  7
高3.2
100
AcDbText
  0
TEXT
  5
13D
330
6B
100
AcDbEntity
  8
0
 62
     3
100
AcDbText
 10
1020.914185813316
 20
-302.2426700000001
 30
0.0
 40
3.2
  1
1
 41
0.8
  7
高3.2
100
AcDbText
  0
TEXT
  5
13E
330
6B
100
AcDbEntity
  8
0
 62
     3
100
AcDbText
 10
1020.914185813316
 20
-312.24267
 30
0.0
 40
3.2
  1
1式
 41
0.8
  7
高3.2
100
AcDbText
  0
TEXT
  5
13F
330
6B
100
AcDbEntity
  8
0
 62
     3
100
AcDbText
 10
993.4853095624999
 20
-307.24267
 30
0.0
 40
3.2
  1
電線　プラグ付き
 41
0.8
  7
高3.2
100
AcDbText
  0
TEXT
  5
140
330
6B
100
AcDbEntity
  8
0
 62
     3
100
AcDbText
 10
1044.376118008711
 20
-312.24267
 30
0.0
 40
3.2
  1
上部カバー、ベース
 41
0.8
  7
高3.2
100
AcDbText
  0
LINE
  5
147
330
6B
100
AcDbEntity
  8
0
 62
     3
100
AcDbLine
 10
972.025059
 20
-182.24267
 30
0.0
 11
969.4269829999999
 21
-183.74267
 31
0.0
  0
LINE
  5
148
330
6B
100
AcDbEntity
  8
0
 62
     3
100
AcDbLine
 10
972.025059
 20
-182.24267
 30
0.0
 11
969.4269829999999
 21
-180.74267
 31
0.0
  0
LINE
  5
149
330
6B
100
AcDbEntity
  8
0
 62
     3
100
AcDbLine
 10
969.4269829999999
 20
-183.74267
 30
0.0
 11
969.4269829999999
 21
-180.74267
 31
0.0
  0
LINE
  5
14A
330
6B
100
AcDbEntity
  8
0
 62
     3
100
AcDbLine
 10
1027.948618
 20
-185.945143
 30
0.0
 11
1097.948618
 21
-185.945143
 31
0.0
  0
CIRCLE
  5
14B
330
6B
100
AcDbEntity
  8
0
 62
     3
100
AcDbCircle
 10
1034.598618
 20
-123.645143
 30
0.0
 40
3.5
  0
ARC
  5
14C
330
6B
100
AcDbEntity
  8
0
 62
     3
100
AcDbCircle
 10
1027.948618
 20
-115.945143
 30
0.0
 40
3.5
100
AcDbArc
 50
90.0
 51
180.0
  0
ARC
  5
14D
330
6B
100
AcDbEntity
  8
0
 62
     3
100
AcDbCircle
 10
1097.948618
 20
-115.945143
 30
0.0
 40
3.5
100
AcDbArc
 50
0.0
 51
90.0
  0
LINE
  5
14E
330
6B
100
AcDbEntity
  8
0
 62
     3
100
AcDbLine
 10
1097.948618
 20
-112.445143
 30
0.0
 11
1027.948618
 21
-112.445143
 31
0.0
  0
ARC
  5
14F
330
6B
100
AcDbEntity
  8
0
 62
     3
100
AcDbCircle
 10
1097.948618
 20
-182.445143
 30
0.0
 40
3.5
100
AcDbArc
 50
270.0
 51
0.0
  0
ARC
  5
150
330
6B
100
AcDbEntity
  8
0
 62
     3
100
AcDbCircle
 10
1027.948618
 20
-182.445143
 30
0.0
 40
3.5
100
AcDbArc
 50
180.0
 51
270.0
  0
ARC
  5
151
330
6B
100
AcDbEntity
  8
0
 62
     3
100
AcDbCircle
 10
1038.098618
 20
-165.995143
 30
0.0
 40
1.05
100
AcDbArc
 50
90.0
 51
180.0
  0
LINE
  5
152
330
6B
100
AcDbEntity
  8
0
 62
     3
100
AcDbLine
 10
1037.048618
 20
-165.995143
 30
0.0
 11
1037.048618
 21
-175.095143
 31
0.0
  0
ARC
  5
153
330
6B
100
AcDbEntity
  8
0
 62
     3
100
AcDbCircle
 10
1038.098618
 20
-175.095143
 30
0.0
 40
1.05
100
AcDbArc
 50
180.0
 51
270.0
  0
LINE
  5
154
330
6B
100
AcDbEntity
  8
0
 62
     3
100
AcDbLine
 10
1038.098618
 20
-176.145143
 30
0.0
 11
1054.198618
 21
-176.145143
 31
0.0
  0
ARC
  5
155
330
6B
100
AcDbEntity
  8
0
 62
     3
100
AcDbCircle
 10
1054.198618
 20
-175.095143
 30
0.0
 40
1.05
100
AcDbArc
 50
270.0
 51
0.0
  0
LINE
  5
156
330
6B
100
AcDbEntity
  8
0
 62
     3
100
AcDbLine
 10
1054.198618
 20
-164.945143
 30
0.0
 11
1038.098618
 21
-164.945143
 31
0.0
  0
LINE
  5
157
330
6B
100
AcDbEntity
  8
0
 62
     3
100
AcDbLine
 10
1055.248618
 20
-175.095143
 30
0.0
 11
1055.248618
 21
-165.995143
 31
0.0
  0
ARC
  5
158
330
6B
100
AcDbEntity
  8
0
 62
     3
100
AcDbCircle
 10
1054.198618
 20
-165.995143
 30
0.0
 40
1.05
100
AcDbArc
 50
0.0
 51
90.0
  0
LINE
  5
159
330
6B
100
AcDbEntity
  8
0
 62
     3
100
AcDbLine
 10
1029.698618
 20
-189.445143
 30
0.0
 11
1033.198618
 21
-189.445143
 31
0.0
  0
ARC
  5
15A
330
6B
100
AcDbEntity
  8
0
 62
     3
100
AcDbCircle
 10
1033.076118
 20
-185.308143
 30
0.0
 40
5.3403
100
AcDbArc
 50
186.85
 51
230.771
  0
ARC
  5
15B
330
6B
100
AcDbEntity
  8
0
 62
     3
100
AcDbCircle
 10
1029.821118
 20
-185.308143
 30
0.0
 40
5.3403
100
AcDbArc
 50
309.2290000000001
 51
353.15
  0
LINE
  5
15C
330
6B
100
AcDbEntity
  8
0
 62
     3
100
AcDbLine
 10
1096.198618
 20
-189.445143
 30
0.0
 11
1092.698618
 21
-189.445143
 31
0.0
  0
ARC
  5
15D
330
6B
100
AcDbEntity
  8
0
 62
     3
100
AcDbCircle
 10
1092.821118
 20
-185.308143
 30
0.0
 40
5.3403
100
AcDbArc
 50
309.2290000000001
 51
353.15
  0
ARC
  5
15E
330
6B
100
AcDbEntity
  8
0
 62
     3
100
AcDbCircle
 10
1096.076118
 20
-185.308143
 30
0.0
 40
5.3403
100
AcDbArc
 50
186.85
 51
230.771
  0
LINE
  5
15F
330
6B
100
AcDbEntity
  8
0
 62
     3
100
AcDbLine
 10
1234.168618
 20
-172.680143
 30
0.0
 11
1232.208618
 21
-172.680143
 31
0.0
  0
LINE
  5
160
330
6B
100
AcDbEntity
  8
0
 62
     3
100
AcDbLine
 10
1232.348618
 20
-183.110143
 30
0.0
 11
1234.168618
 21
-183.110143
 31
0.0
  0
LINE
  5
161
330
6B
100
AcDbEntity
  8
0
 62
     3
100
AcDbLine
 10
1234.168618
 20
-183.110143
 30
0.0
 11
1234.168618
 21
-172.680143
 31
0.0
  0
LINE
  5
162
330
6B
100
AcDbEntity
  8
0
 62
     3
100
AcDbLine
 10
1127.348618
 20
-185.945143
 30
0.0
 11
1232.348618
 21
-185.945143
 31
0.0
  0
LINE
  5
163
330
6B
100
AcDbEntity
  8
0
 62
     3
100
AcDbLine
 10
1132.598618
 20
-189.445143
 30
0.0
 11
1136.098618
 21
-189.445143
 31
0.0
  0
ARC
  5
164
330
6B
100
AcDbEntity
  8
0
 62
     3
100
AcDbCircle
 10
1135.976118
 20
-185.308143
 30
0.0
 40
5.3403
100
AcDbArc
 50
186.85
 51
230.771
  0
ARC
  5
165
330
6B
100
AcDbEntity
  8
0
 62
     3
100
AcDbCircle
 10
1132.721118
 20
-185.308143
 30
0.0
 40
5.3403
100
AcDbArc
 50
309.2290000000001
 51
353.15
  0
LINE
  5
166
330
6B
100
AcDbEntity
  8
0
 62
     3
100
AcDbLine
 10
1227.098618
 20
-189.445143
 30
0.0
 11
1223.598618
 21
-189.445143
 31
0.0
  0
ARC
  5
167
330
6B
100
AcDbEntity
  8
0
 62
     3
100
AcDbCircle
 10
1223.721118
 20
-185.308143
 30
0.0
 40
5.3403
100
AcDbArc
 50
309.2290000000001
 51
353.15
  0
ARC
  5
168
330
6B
100
AcDbEntity
  8
0
 62
     3
100
AcDbCircle
 10
1226.976118
 20
-185.308143
 30
0.0
 40
5.3403
100
AcDbArc
 50
186.85
 51
230.771
  0
LINE
  5
169
330
6B
100
AcDbEntity
  8
0
 62
     3
100
AcDbLine
 10
1266.648618
 20
-164.945143
 30
0.0
 11
1265.948618
 21
-164.945143
 31
0.0
  0
LINE
  5
16A
330
6B
100
AcDbEntity
  8
0
 62
     3
100
AcDbLine
 10
1337.908618
 20
-176.075143
 30
0.0
 11
1337.908618
 21
-183.110143
 31
0.0
  0
LINE
  5
16B
330
6B
100
AcDbEntity
  8
0
 62
     3
100
AcDbLine
 10
1346.588618
 20
-176.075143
 30
0.0
 11
1346.588618
 21
-183.110143
 31
0.0
  0
LINE
  5
16C
330
6B
100
AcDbEntity
  8
0
 62
     3
100
AcDbLine
 10
1337.908618
 20
-183.110143
 30
0.0
 11
1346.588618
 21
-183.110143
 31
0.0
  0
ARC
  5
16D
330
6B
100
AcDbEntity
  8
0
 62
     3
100
AcDbCircle
 10
1342.248618
 20
-178.280143
 30
0.0
 40
4.9
100
AcDbArc
 50
27.66
 51
152.34
  0
LINE
  5
16E
330
6B
100
AcDbEntity
  8
0
 62
     3
100
AcDbLine
 10
1349.248618
 20
-164.945143
 30
0.0
 11
1349.948618
 21
-164.945143
 31
0.0
  0
CIRCLE
  5
16F
330
6B
100
AcDbEntity
  8
0
 62
     3
100
AcDbCircle
 10
1340.848618
 20
-121.545143
 30
0.0
 40
7.0
  0
ARC
  5
170
330
6B
100
AcDbEntity
  8
0
 62
     3
100
AcDbCircle
 10
1269.448618
 20
-182.445143
 30
0.0
 40
3.5
100
AcDbArc
 50
180.0
 51
270.0
  0
LINE
  5
171
330
6B
100
AcDbEntity
  8
0
 62
     3
100
AcDbLine
 10
1346.448618
 20
-185.945143
 30
0.0
 11
1269.448618
 21
-185.945143
 31
0.0
  0
ARC
  5
172
330
6B
100
AcDbEntity
  8
0
 62
     3
100
AcDbCircle
 10
1346.448618
 20
-182.445143
 30
0.0
 40
3.5
100
AcDbArc
 50
270.0
 51
0.0
  0
ARC
  5
173
330
6B
100
AcDbEntity
  8
0
 62
     3
100
AcDbCircle
 10
1346.448618
 20
-115.945143
 30
0.0
 40
3.5
100
AcDbArc
 50
0.0
 51
90.0
  0
LINE
  5
174
330
6B
100
AcDbEntity
  8
0
 62
     3
100
AcDbLine
 10
1269.448618
 20
-112.445143
 30
0.0
 11
1346.448618
 21
-112.445143
 31
0.0
  0
ARC
  5
175
330
6B
100
AcDbEntity
  8
0
 62
     3
100
AcDbCircle
 10
1269.448618
 20
-115.945143
 30
0.0
 40
3.5
100
AcDbArc
 50
90.0
 51
180.0
  0
LINE
  5
176
330
6B
100
AcDbEntity
  8
0
 62
     3
100
AcDbLine
 10
1271.198618
 20
-189.445143
 30
0.0
 11
1274.698618
 21
-189.445143
 31
0.0
  0
ARC
  5
177
330
6B
100
AcDbEntity
  8
0
 62
     3
100
AcDbCircle
 10
1274.576118
 20
-185.308143
 30
0.0
 40
5.3403
100
AcDbArc
 50
186.85
 51
230.771
  0
ARC
  5
178
330
6B
100
AcDbEntity
  8
0
 62
     3
100
AcDbCircle
 10
1271.321118
 20
-185.308143
 30
0.0
 40
5.3403
100
AcDbArc
 50
309.2290000000001
 51
353.15
  0
LINE
  5
179
330
6B
100
AcDbEntity
  8
0
 62
     3
100
AcDbLine
 10
1344.698618
 20
-189.445143
 30
0.0
 11
1341.198618
 21
-189.445143
 31
0.0
  0
ARC
  5
17A
330
6B
100
AcDbEntity
  8
0
 62
     3
100
AcDbCircle
 10
1341.321118
 20
-185.308143
 30
0.0
 40
5.3403
100
AcDbArc
 50
309.2290000000001
 51
353.15
  0
ARC
  5
17B
330
6B
100
AcDbEntity
  8
0
 62
     3
100
AcDbCircle
 10
1344.576118
 20
-185.308143
 30
0.0
 40
5.3403
100
AcDbArc
 50
186.85
 51
230.771
  0
LINE
  5
17C
330
6B
100
AcDbEntity
  8
0
 62
     3
100
AcDbLine
 10
1232.378018
 20
-128.545143
 30
0.0
 11
1233.778018
 21
-128.545143
 31
0.0
  0
LINE
  5
17D
330
6B
100
AcDbEntity
  8
0
 62
     3
100
AcDbLine
 10
1232.348618
 20
-185.945143
 30
0.0
 11
1232.348618
 21
-112.445143
 31
0.0
  0
ARC
  5
17E
330
6B
100
AcDbEntity
  8
0
 62
     3
100
AcDbCircle
 10
1233.778018
 20
-115.945143
 30
0.0
 40
1.399999999999999
100
AcDbArc
 50
0.0
 51
90.0
  0
LINE
  5
17F
330
6B
100
AcDbEntity
  8
0
 62
     3
100
AcDbLine
 10
1235.178018
 20
-127.145143
 30
0.0
 11
1235.178018
 21
-115.945143
 31
0.0
  0
ARC
  5
180
330
6B
100
AcDbEntity
  8
0
 62
     3
100
AcDbCircle
 10
1233.778018
 20
-127.145143
 30
0.0
 40
1.399999999999999
100
AcDbArc
 50
270.0
 51
0.0
  0
LINE
  5
181
330
6B
100
AcDbEntity
  8
0
 62
     3
100
AcDbLine
 10
1233.778018
 20
-114.545143
 30
0.0
 11
1232.378018
 21
-114.545143
 31
0.0
  0
LINE
  5
182
330
6B
100
AcDbEntity
  8
0
 62
     3
100
AcDbLine
 10
1127.348618
 20
-127.145143
 30
0.0
 11
1124.548618
 21
-127.145143
 31
0.0
  0
LINE
  5
183
330
6B
100
AcDbEntity
  8
0
 62
     3
100
AcDbLine
 10
1124.548618
 20
-127.145143
 30
0.0
 11
1124.548618
 21
-120.145143
 31
0.0
  0
LINE
  5
184
330
6B
100
AcDbEntity
  8
0
 62
     3
100
AcDbLine
 10
1124.548618
 20
-120.145143
 30
0.0
 11
1127.348618
 21
-120.145143
 31
0.0
  0
LINE
  5
185
330
6B
100
AcDbEntity
  8
0
 62
     3
100
AcDbLine
 10
1232.348618
 20
-112.445143
 30
0.0
 11
1127.348618
 21
-112.445143
 31
0.0
  0
LINE
  5
186
330
6B
100
AcDbEntity
  8
0
 62
     3
100
AcDbLine
 10
1126.298618
 20
-176.145143
 30
0.0
 11
1127.348618
 21
-176.145143
 31
0.0
  0
LINE
  5
187
330
6B
100
AcDbEntity
  8
0
 62
     3
100
AcDbLine
 10
1124.898618
 20
-166.345143
 30
0.0
 11
1126.298618
 21
-164.945143
 31
0.0
  0
LINE
  5
188
330
6B
100
AcDbEntity
  8
0
 62
     3
100
AcDbLine
 10
1126.298618
 20
-164.945143
 30
0.0
 11
1127.348618
 21
-164.945143
 31
0.0
  0
LINE
  5
189
330
6B
100
AcDbEntity
  8
0
 62
     3
100
AcDbLine
 10
1124.898618
 20
-166.345143
 30
0.0
 11
1124.898618
 21
-174.745143
 31
0.0
  0
LINE
  5
18A
330
6B
100
AcDbEntity
  8
0
 62
     3
100
AcDbLine
 10
1126.298618
 20
-176.145143
 30
0.0
 11
1124.898618
 21
-174.745143
 31
0.0
  0
LINE
  5
18B
330
6B
100
AcDbEntity
  8
0
 62
     3
100
AcDbLine
 10
1211.348618
 20
-164.945143
 30
0.0
 11
1127.348618
 21
-164.945143
 31
0.0
  0
LINE
  5
18C
330
6B
100
AcDbEntity
  8
0
 62
     3
100
AcDbLine
 10
1127.348618
 20
-164.945143
 30
0.0
 11
1232.348618
 21
-164.945143
 31
0.0
  0
LINE
  5
18D
330
6B
100
AcDbEntity
  8
0
 62
     3
100
AcDbLine
 10
1127.348618
 20
-112.445143
 30
0.0
 11
1127.348618
 21
-185.945143
 31
0.0
  0
LINE
  5
18E
330
6B
100
AcDbEntity
  8
0
 62
     3
100
AcDbLine
 10
1237.668618
 20
-179.995143
 30
0.0
 11
1234.168618
 21
-179.995143
 31
0.0
  0
LINE
  5
18F
330
6B
100
AcDbEntity
  8
0
 62
     3
100
AcDbLine
 10
1239.768618
 20
-175.795143
 30
0.0
 11
1234.168618
 21
-175.795143
 31
0.0
  0
LINE
  5
190
330
6B
100
AcDbEntity
  8
0
 62
     3
100
AcDbLine
 10
1239.068618
 20
-199.385143
 30
0.0
 11
1239.068618
 21
-211.635143
 31
0.0
  0
LINE
  5
191
330
6B
100
AcDbEntity
  8
0
 62
     3
100
AcDbLine
 10
1243.268618
 20
-199.385143
 30
0.0
 11
1243.268618
 21
-211.635143
 31
0.0
  0
LINE
  5
192
330
6B
100
AcDbEntity
  8
0
 62
     3
100
AcDbLine
 10
1239.068618
 20
-181.395143
 30
0.0
 11
1239.068618
 21
-196.585143
 31
0.0
  0
LINE
  5
193
330
6B
100
AcDbEntity
  8
0
 62
     3
100
AcDbLine
 10
1243.268618
 20
-179.295143
 30
0.0
 11
1243.268618
 21
-196.585143
 31
0.0
  0
ARC
  5
194
330
6B
100
AcDbEntity
  8
0
 62
     3
100
AcDbCircle
 10
1239.768618
 20
-179.295143
 30
0.0
 40
3.5
100
AcDbArc
 50
0.0
 51
90.0
  0
ARC
  5
195
330
6B
100
AcDbEntity
  8
0
 62
     3
100
AcDbCircle
 10
1237.668618
 20
-181.395143
 30
0.0
 40
1.399999999999999
100
AcDbArc
 50
0.0
 51
90.0
  0
ARC
  5
196
330
6B
100
AcDbEntity
  8
0
 62
     3
100
AcDbCircle
 10
1265.612618
 20
-156.613043
 30
0.0
 40
0.7
100
AcDbArc
 50
90.387
 51
180.0
  0
LINE
  5
197
330
6B
100
AcDbEntity
  8
0
 62
     3
100
AcDbLine
 10
1264.912618
 20
-159.417243
 30
0.0
 11
1264.912618
 21
-156.613043
 31
0.0
  0
ARC
  5
198
330
6B
100
AcDbEntity
  8
0
 62
     3
100
AcDbCircle
 10
1265.612618
 20
-159.417243
 30
0.0
 40
0.7
100
AcDbArc
 50
180.0
 51
270.0
  0
LINE
  5
199
330
6B
100
AcDbEntity
  8
0
 62
     3
100
AcDbLine
 10
1265.607718
 20
-155.913043
 30
0.0
 11
1265.948618
 21
-155.910243
 31
0.0
  0
LINE
  5
19A
330
6B
100
AcDbEntity
  8
0
 62
     3
100
AcDbLine
 10
1265.962618
 20
-160.117243
 30
0.0
 11
1265.612618
 21
-160.117243
 31
0.0
  0
LINE
  5
19B
330
6B
100
AcDbEntity
  8
0
 62
     3
100
AcDbLine
 10
1265.948618
 20
-182.445143
 30
0.0
 11
1265.948618
 21
-115.945143
 31
0.0
  0
LINE
  5
19C
330
6B
100
AcDbEntity
  8
0
 62
     3
100
AcDbLine
 10
1350.289518
 20
-155.913043
 30
0.0
 11
1349.948618
 21
-155.910243
 31
0.0
  0
ARC
  5
19D
330
6B
100
AcDbEntity
  8
0
 62
     3
100
AcDbCircle
 10
1350.284618
 20
-156.613043
 30
0.0
 40
0.7
100
AcDbArc
 50
0.0
 51
89.61299999999999
  0
LINE
  5
19E
330
6B
100
AcDbEntity
  8
0
 62
     3
100
AcDbLine
 10
1349.934618
 20
-160.117243
 30
0.0
 11
1350.284618
 21
-160.117243
 31
0.0
  0
LINE
  5
19F
330
6B
100
AcDbEntity
  8
0
 62
     3
100
AcDbLine
 10
1350.984618
 20
-159.417243
 30
0.0
 11
1350.984618
 21
-156.613043
 31
0.0
  0
ARC
  5
1A0
330
6B
100
AcDbEntity
  8
0
 62
     3
100
AcDbCircle
 10
1350.284618
 20
-159.417243
 30
0.0
 40
0.7
100
AcDbArc
 50
270.0
 51
0.0
  0
LINE
  5
1A1
330
6B
100
AcDbEntity
  8
0
 62
     3
100
AcDbLine
 10
1349.948618
 20
-115.945143
 30
0.0
 11
1349.948618
 21
-182.445143
 31
0.0
  0
LINE
  5
1A2
330
6B
100
AcDbEntity
  8
0
 62
     3
100
AcDbLine
 10
1101.789518
 20
-155.913043
 30
0.0
 11
1101.448618
 21
-155.910243
 31
0.0
  0
ARC
  5
1A3
330
6B
100
AcDbEntity
  8
0
 62
     3
100
AcDbCircle
 10
1101.784618
 20
-156.613043
 30
0.0
 40
0.7
100
AcDbArc
 50
0.0
 51
89.61299999999999
  0
LINE
  5
1A4
330
6B
100
AcDbEntity
  8
0
 62
     3
100
AcDbLine
 10
1101.434618
 20
-160.117243
 30
0.0
 11
1101.784618
 21
-160.117243
 31
0.0
  0
LINE
  5
1A5
330
6B
100
AcDbEntity
  8
0
 62
     3
100
AcDbLine
 10
1102.484618
 20
-159.417243
 30
0.0
 11
1102.484618
 21
-156.613043
 31
0.0
  0
ARC
  5
1A6
330
6B
100
AcDbEntity
  8
0
 62
     3
100
AcDbCircle
 10
1101.784618
 20
-159.417243
 30
0.0
 40
0.7
100
AcDbArc
 50
270.0
 51
0.0
  0
LINE
  5
1A7
330
6B
100
AcDbEntity
  8
0
 62
     3
100
AcDbLine
 10
1101.448618
 20
-182.445143
 30
0.0
 11
1101.448618
 21
-115.945143
 31
0.0
  0
LINE
  5
1A8
330
6B
100
AcDbEntity
  8
0
 62
     3
100
AcDbLine
 10
1024.107718
 20
-155.913043
 30
0.0
 11
1024.448618
 21
-155.910243
 31
0.0
  0
ARC
  5
1A9
330
6B
100
AcDbEntity
  8
0
 62
     3
100
AcDbCircle
 10
1024.112618
 20
-156.613043
 30
0.0
 40
0.7
100
AcDbArc
 50
90.387
 51
180.0
  0
LINE
  5
1AA
330
6B
100
AcDbEntity
  8
0
 62
     3
100
AcDbLine
 10
1024.462618
 20
-160.117243
 30
0.0
 11
1024.112618
 21
-160.117243
 31
0.0
  0
LINE
  5
1AB
330
6B
100
AcDbEntity
  8
0
 62
     3
100
AcDbLine
 10
1023.412618
 20
-159.417243
 30
0.0
 11
1023.412618
 21
-156.613043
 31
0.0
  0
ARC
  5
1AC
330
6B
100
AcDbEntity
  8
0
 62
     3
100
AcDbCircle
 10
1024.112618
 20
-159.417243
 30
0.0
 40
0.7
100
AcDbArc
 50
180.0
 51
270.0
  0
LINE
  5
1AD
330
6B
100
AcDbEntity
  8
0
 62
     3
100
AcDbLine
 10
1024.448618
 20
-115.945143
 30
0.0
 11
1024.448618
 21
-182.445143
 31
0.0
  0
LINE
  5
1AE
330
6B
100
AcDbEntity
  8
0
 62
     3
100
AcDbLine
 10
1244.668618
 20
-211.635143
 30
0.0
 11
1237.668618
 21
-211.635143
 31
0.0
  0
LINE
  5
1AF
330
6B
100
AcDbEntity
  8
0
 62
     3
100
AcDbLine
 10
1236.618618
 20
-224.235143
 30
0.0
 11
1237.668618
 21
-211.635143
 31
0.0
  0
LINE
  5
1B0
330
6B
100
AcDbEntity
  8
0
 62
     3
100
AcDbLine
 10
1245.718618
 20
-224.235143
 30
0.0
 11
1244.668618
 21
-211.635143
 31
0.0
  0
LINE
  5
1B1
330
6B
100
AcDbEntity
  8
0
 62
     3
100
AcDbLine
 10
1251.668618
 20
-241.735143
 30
0.0
 11
1230.668618
 21
-241.735143
 31
0.0
  0
ARC
  5
1B2
330
6B
100
AcDbEntity
  8
0
 62
     3
100
AcDbCircle
 10
1262.780418
 20
-242.891543
 30
0.0
 40
32.1321
100
AcDbArc
 50
144.506
 51
177.937
  0
ARC
  5
1B3
330
6B
100
AcDbEntity
  8
0
 62
     3
100
AcDbCircle
 10
1219.556818
 20
-242.891543
 30
0.0
 40
32.1321
100
AcDbArc
 50
2.063
 51
35.494
  0
LINE
  5
1B4
330
6B
100
AcDbEntity
  8
0
 62
     3
100
AcDbLine
 10
1236.618618
 20
-224.235143
 30
0.0
 11
1245.718618
 21
-224.235143
 31
0.0
  0
ARC
  5
1B5
330
6B
100
AcDbEntity
  8
0
100
AcDbCircle
 10
1039.148618
 20
-167.045143
 30
0.0
 40
0.7
100
AcDbArc
 50
90.0
 51
180.0
  0
LINE
  5
1B6
330
6B
100
AcDbEntity
  8
0
100
AcDbLine
 10
1038.448618
 20
-174.045143
 30
0.0
 11
1038.448618
 21
-167.045143
 31
0.0
  0
ARC
  5
1B7
330
6B
100
AcDbEntity
  8
0
100
AcDbCircle
 10
1039.148618
 20
-174.045143
 30
0.0
 40
0.7
100
AcDbArc
 50
180.0
 51
270.0
  0
LINE
  5
1B8
330
6B
100
AcDbEntity
  8
0
100
AcDbLine
 10
1053.148618
 20
-174.745143
 30
0.0
 11
1039.148618
 21
-174.745143
 31
0.0
  0
ARC
  5
1B9
330
6B
100
AcDbEntity
  8
0
100
AcDbCircle
 10
1053.148618
 20
-174.045143
 30
0.0
 40
0.7
100
AcDbArc
 50
270.0
 51
0.0
  0
LINE
  5
1BA
330
6B
100
AcDbEntity
  8
0
100
AcDbLine
 10
1039.148618
 20
-166.345143
 30
0.0
 11
1053.148618
 21
-166.345143
 31
0.0
  0
LINE
  5
1BB
330
6B
100
AcDbEntity
  8
0
100
AcDbLine
 10
1053.848618
 20
-167.045143
 30
0.0
 11
1053.848618
 21
-174.045143
 31
0.0
  0
ARC
  5
1BC
330
6B
100
AcDbEntity
  8
0
100
AcDbCircle
 10
1053.148618
 20
-167.045143
 30
0.0
 40
0.7
100
AcDbArc
 50
0.0
 51
90.0
  0
LINE
  5
1BD
330
6B
100
AcDbEntity
  8
0
100
AcDbLine
 10
1040.548618
 20
-174.045143
 30
0.0
 11
1040.548618
 21
-167.045143
 31
0.0
  0
LINE
  5
1BE
330
6B
100
AcDbEntity
  8
0
100
AcDbLine
 10
1040.548618
 20
-167.045143
 30
0.0
 11
1042.998618
 21
-167.045143
 31
0.0
  0
LINE
  5
1BF
330
6B
100
AcDbEntity
  8
0
100
AcDbLine
 10
1042.998618
 20
-167.045143
 30
0.0
 11
1042.998618
 21
-174.045143
 31
0.0
  0
LINE
  5
1C0
330
6B
100
AcDbEntity
  8
0
100
AcDbLine
 10
1042.998618
 20
-174.045143
 30
0.0
 11
1040.548618
 21
-174.045143
 31
0.0
  0
LINE
  5
1C1
330
6B
100
AcDbEntity
  8
0
100
AcDbLine
 10
1051.748618
 20
-167.745143
 30
0.0
 11
1049.298618
 21
-167.745143
 31
0.0
  0
LINE
  5
1C2
330
6B
100
AcDbEntity
  8
0
100
AcDbLine
 10
1051.748618
 20
-173.345143
 30
0.0
 11
1051.748618
 21
-167.745143
 31
0.0
  0
LINE
  5
1C3
330
6B
100
AcDbEntity
  8
0
100
AcDbLine
 10
1049.298618
 20
-167.745143
 30
0.0
 11
1049.298618
 21
-173.345143
 31
0.0
  0
LINE
  5
1C4
330
6B
100
AcDbEntity
  8
0
100
AcDbLine
 10
1049.298618
 20
-173.345143
 30
0.0
 11
1051.748618
 21
-173.345143
 31
0.0
  0
LINE
  5
1C5
330
6B
100
AcDbEntity
  8
0
100
AcDbLine
 10
1027.948618
 20
-113.145143
 30
0.0
 11
1097.948618
 21
-113.145143
 31
0.0
  0
ARC
  5
1C6
330
6B
100
AcDbEntity
  8
0
100
AcDbCircle
 10
1027.948618
 20
-115.945143
 30
0.0
 40
2.799999999999998
100
AcDbArc
 50
90.0
 51
180.0
  0
LINE
  5
1C7
330
6B
100
AcDbEntity
  8
0
100
AcDbLine
 10
1025.148618
 20
-182.445143
 30
0.0
 11
1025.148618
 21
-115.945143
 31
0.0
  0
ARC
  5
1C8
330
6B
100
AcDbEntity
  8
0
100
AcDbCircle
 10
1097.948618
 20
-115.945143
 30
0.0
 40
2.799999999999998
100
AcDbArc
 50
0.0
 51
90.0
  0
LINE
  5
1C9
330
6B
100
AcDbEntity
  8
0
100
AcDbLine
 10
1100.748618
 20
-115.945143
 30
0.0
 11
1100.748618
 21
-182.445143
 31
0.0
  0
ARC
  5
1CA
330
6B
100
AcDbEntity
  8
0
100
AcDbCircle
 10
1097.948618
 20
-182.445143
 30
0.0
 40
2.799999999999998
100
AcDbArc
 50
270.0
 51
0.0
  0
LINE
  5
1CB
330
6B
100
AcDbEntity
  8
0
100
AcDbLine
 10
1097.948618
 20
-185.245143
 30
0.0
 11
1027.948618
 21
-185.245143
 31
0.0
  0
ARC
  5
1CC
330
6B
100
AcDbEntity
  8
0
100
AcDbCircle
 10
1027.948618
 20
-182.445143
 30
0.0
 40
2.799999999999998
100
AcDbArc
 50
180.0
 51
270.0
  0
TEXT
  5
1CD
330
6B
100
AcDbEntity
  8
0
100
AcDbText
 10
1337.536218
 20
-118.607943
 30
0.0
 40
2.52
  1
F
 50
30.000001
 41
1.093199999999999
100
AcDbText
  0
TEXT
  5
1CE
330
6B
100
AcDbEntity
  8
0
100
AcDbText
 10
1341.736218
 20
-117.207943
 30
0.0
 40
2.52
  1
E
 50
329.999989
 41
1.093199999999999
100
AcDbText
  0
TEXT
  5
1CF
330
6B
100
AcDbEntity
  8
0
100
AcDbText
 10
1338.740218
 20
-117.651743
 30
0.0
 40
2.52
  1
U
 50
10.0
 41
1.093199999999999
100
AcDbText
  0
TEXT
  5
1D0
330
6B
100
AcDbEntity
  8
0
100
AcDbText
 10
1340.199018
 20
-117.165943
 30
0.0
 40
2.52
  1
S
 50
350.000012
 41
1.093199999999999
100
AcDbText
  0
ARC
  5
1D1
330
6B
100
AcDbEntity
  8
0
100
AcDbCircle
 10
1340.848618
 20
-121.545143
 30
0.0
 40
5.599999999999998
100
AcDbArc
 50
225.0
 51
315.0
  0
LINE
  5
1D2
330
6B
100
AcDbEntity
  8
0
100
AcDbLine
 10
1336.888718
 20
-125.505043
 30
0.0
 11
1337.518718
 21
-126.765043
 31
0.0
  0
LINE
  5
1D3
330
6B
100
AcDbEntity
  8
0
100
AcDbLine
 10
1337.518718
 20
-126.765043
 30
0.0
 11
1338.288718
 21
-125.785043
 31
0.0
  0
LINE
  5
1D4
330
6B
100
AcDbEntity
  8
0
100
AcDbLine
 10
1338.288718
 20
-125.785043
 30
0.0
 11
1336.888718
 21
-125.505043
 31
0.0
  0
LINE
  5
1D5
330
6B
100
AcDbEntity
  8
0
100
AcDbLine
 10
1337.028718
 20
-125.575043
 30
0.0
 11
1337.028718
 21
-125.785043
 31
0.0
  0
LINE
  5
1D6
330
6B
100
AcDbEntity
  8
0
100
AcDbLine
 10
1337.028718
 20
-125.785043
 30
0.0
 11
1337.308718
 21
-125.645043
 31
0.0
  0
LINE
  5
1D7
330
6B
100
AcDbEntity
  8
0
100
AcDbLine
 10
1337.308718
 20
-125.645043
 30
0.0
 11
1337.168718
 21
-126.065043
 31
0.0
  0
LINE
  5
1D8
330
6B
100
AcDbEntity
  8
0
100
AcDbLine
 10
1337.168718
 20
-126.065043
 30
0.0
 11
1337.588718
 21
-125.645043
 31
0.0
  0
LINE
  5
1D9
330
6B
100
AcDbEntity
  8
0
100
AcDbLine
 10
1337.588718
 20
-125.645043
 30
0.0
 11
1337.308718
 21
-126.345043
 31
0.0
  0
LINE
  5
1DA
330
6B
100
AcDbEntity
  8
0
100
AcDbLine
 10
1337.308718
 20
-126.345043
 30
0.0
 11
1337.798718
 21
-125.715043
 31
0.0
  0
LINE
  5
1DB
330
6B
100
AcDbEntity
  8
0
100
AcDbLine
 10
1337.798718
 20
-125.715043
 30
0.0
 11
1337.448718
 21
-126.485043
 31
0.0
  0
LINE
  5
1DC
330
6B
100
AcDbEntity
  8
0
100
AcDbLine
 10
1337.448718
 20
-126.485043
 30
0.0
 11
1338.008718
 21
-125.785043
 31
0.0
  0
LINE
  5
1DD
330
6B
100
AcDbEntity
  8
0
100
AcDbLine
 10
1338.008718
 20
-125.785043
 30
0.0
 11
1337.518718
 21
-126.695043
 31
0.0
  0
LINE
  5
1DE
330
6B
100
AcDbEntity
  8
0
100
AcDbLine
 10
1337.518718
 20
-126.695043
 30
0.0
 11
1338.148718
 21
-125.785043
 31
0.0
  0
LINE
  5
1DF
330
6B
100
AcDbEntity
  8
0
100
AcDbLine
 10
1341.548618
 20
-123.645143
 30
0.0
 11
1340.148618
 21
-123.645143
 31
0.0
  0
LINE
  5
1E0
330
6B
100
AcDbEntity
  8
0
100
AcDbLine
 10
1341.548618
 20
-122.245143
 30
0.0
 11
1341.548618
 21
-123.645143
 31
0.0
  0
LINE
  5
1E1
330
6B
100
AcDbEntity
  8
0
100
AcDbLine
 10
1341.548618
 20
-122.245143
 30
0.0
 11
1342.948618
 21
-122.245143
 31
0.0
  0
LINE
  5
1E2
330
6B
100
AcDbEntity
  8
0
100
AcDbLine
 10
1341.548618
 20
-120.845143
 30
0.0
 11
1342.948618
 21
-120.845143
 31
0.0
  0
LINE
  5
1E3
330
6B
100
AcDbEntity
  8
0
100
AcDbLine
 10
1340.148618
 20
-120.845143
 30
0.0
 11
1338.748618
 21
-120.845143
 31
0.0
  0
LINE
  5
1E4
330
6B
100
AcDbEntity
  8
0
100
AcDbLine
 10
1340.148618
 20
-122.245143
 30
0.0
 11
1338.748618
 21
-122.245143
 31
0.0
  0
LINE
  5
1E5
330
6B
100
AcDbEntity
  8
0
100
AcDbLine
 10
1340.148618
 20
-122.245143
 30
0.0
 11
1340.148618
 21
-123.645143
 31
0.0
  0
LINE
  5
1E6
330
6B
100
AcDbEntity
  8
0
100
AcDbLine
 10
1342.948618
 20
-120.845143
 30
0.0
 11
1342.948618
 21
-122.245143
 31
0.0
  0
LINE
  5
1E7
330
6B
100
AcDbEntity
  8
0
100
AcDbLine
 10
1338.748618
 20
-122.245143
 30
0.0
 11
1338.748618
 21
-121.545143
 31
0.0
  0
LINE
  5
1E8
330
6B
100
AcDbEntity
  8
0
100
AcDbLine
 10
1338.748618
 20
-121.545143
 30
0.0
 11
1338.748618
 21
-120.845143
 31
0.0
  0
CIRCLE
  5
1E9
330
6B
100
AcDbEntity
  8
0
100
AcDbCircle
 10
1340.848618
 20
-121.545143
 30
0.0
 40
4.2
  0
LINE
  5
1EA
330
6B
100
AcDbEntity
  8
0
100
AcDbLine
 10
1340.148618
 20
-119.445143
 30
0.0
 11
1341.548618
 21
-119.445143
 31
0.0
  0
LINE
  5
1EB
330
6B
100
AcDbEntity
  8
0
100
AcDbLine
 10
1341.548618
 20
-120.845143
 30
0.0
 11
1341.548618
 21
-119.445143
 31
0.0
  0
LINE
  5
1EC
330
6B
100
AcDbEntity
  8
0
100
AcDbLine
 10
1340.148618
 20
-120.845143
 30
0.0
 11
1340.148618
 21
-119.445143
 31
0.0
  0
ARC
  5
1ED
330
6B
100
AcDbEntity
  8
0
100
AcDbCircle
 10
1218.348618
 20
-157.945143
 30
0.0
 40
0.7
100
AcDbArc
 50
270.0
 51
90.0
  0
LINE
  5
1EE
330
6B
100
AcDbEntity
  8
0
100
AcDbLine
 10
1218.348618
 20
-157.245143
 30
0.0
 11
1204.348618
 21
-157.245143
 31
0.0
  0
ARC
  5
1EF
330
6B
100
AcDbEntity
  8
0
100
AcDbCircle
 10
1204.348618
 20
-157.945143
 30
0.0
 40
0.7
100
AcDbArc
 50
90.0
 51
270.0
  0
LINE
  5
1F0
330
6B
100
AcDbEntity
  8
0
100
AcDbLine
 10
1204.348618
 20
-158.645143
 30
0.0
 11
1218.348618
 21
-158.645143
 31
0.0
  0
ARC
  5
1F1
330
6B
100
AcDbEntity
  8
0
100
AcDbCircle
 10
1218.348618
 20
-155.495143
 30
0.0
 40
0.7
100
AcDbArc
 50
270.0
 51
90.0
  0
LINE
  5
1F2
330
6B
100
AcDbEntity
  8
0
100
AcDbLine
 10
1218.348618
 20
-154.795143
 30
0.0
 11
1204.348618
 21
-154.795143
 31
0.0
  0
ARC
  5
1F3
330
6B
100
AcDbEntity
  8
0
100
AcDbCircle
 10
1204.348618
 20
-155.495143
 30
0.0
 40
0.7
100
AcDbArc
 50
90.0
 51
270.0
  0
LINE
  5
1F4
330
6B
100
AcDbEntity
  8
0
100
AcDbLine
 10
1204.348618
 20
-156.195143
 30
0.0
 11
1218.348618
 21
-156.195143
 31
0.0
  0
ARC
  5
1F5
330
6B
100
AcDbEntity
  8
0
100
AcDbCircle
 10
1218.348618
 20
-153.045143
 30
0.0
 40
0.7
100
AcDbArc
 50
270.0
 51
90.0
  0
LINE
  5
1F6
330
6B
100
AcDbEntity
  8
0
100
AcDbLine
 10
1218.348618
 20
-152.345143
 30
0.0
 11
1204.348618
 21
-152.345143
 31
0.0
  0
ARC
  5
1F7
330
6B
100
AcDbEntity
  8
0
100
AcDbCircle
 10
1204.348618
 20
-153.045143
 30
0.0
 40
0.7
100
AcDbArc
 50
90.0
 51
270.0
  0
LINE
  5
1F8
330
6B
100
AcDbEntity
  8
0
100
AcDbLine
 10
1204.348618
 20
-153.745143
 30
0.0
 11
1218.348618
 21
-153.745143
 31
0.0
  0
ARC
  5
1F9
330
6B
100
AcDbEntity
  8
0
100
AcDbCircle
 10
1218.348618
 20
-150.595143
 30
0.0
 40
0.7
100
AcDbArc
 50
270.0
 51
90.0
  0
LINE
  5
1FA
330
6B
100
AcDbEntity
  8
0
100
AcDbLine
 10
1218.348618
 20
-149.895143
 30
0.0
 11
1204.348618
 21
-149.895143
 31
0.0
  0
ARC
  5
1FB
330
6B
100
AcDbEntity
  8
0
100
AcDbCircle
 10
1204.348618
 20
-150.595143
 30
0.0
 40
0.7
100
AcDbArc
 50
90.0
 51
270.0
  0
LINE
  5
1FC
330
6B
100
AcDbEntity
  8
0
100
AcDbLine
 10
1204.348618
 20
-151.295143
 30
0.0
 11
1218.348618
 21
-151.295143
 31
0.0
  0
ARC
  5
1FD
330
6B
100
AcDbEntity
  8
0
100
AcDbCircle
 10
1218.348618
 20
-148.145143
 30
0.0
 40
0.7
100
AcDbArc
 50
270.0
 51
90.0
  0
LINE
  5
1FE
330
6B
100
AcDbEntity
  8
0
100
AcDbLine
 10
1218.348618
 20
-147.445143
 30
0.0
 11
1204.348618
 21
-147.445143
 31
0.0
  0
ARC
  5
1FF
330
6B
100
AcDbEntity
  8
0
100
AcDbCircle
 10
1204.348618
 20
-148.145143
 30
0.0
 40
0.7
100
AcDbArc
 50
90.0
 51
270.0
  0
LINE
  5
200
330
6B
100
AcDbEntity
  8
0
100
AcDbLine
 10
1204.348618
 20
-148.845143
 30
0.0
 11
1218.348618
 21
-148.845143
 31
0.0
  0
ARC
  5
201
330
6B
100
AcDbEntity
  8
0
100
AcDbCircle
 10
1218.348618
 20
-145.695143
 30
0.0
 40
0.7
100
AcDbArc
 50
270.0
 51
90.0
  0
LINE
  5
202
330
6B
100
AcDbEntity
  8
0
100
AcDbLine
 10
1218.348618
 20
-144.995143
 30
0.0
 11
1204.348618
 21
-144.995143
 31
0.0
  0
ARC
  5
203
330
6B
100
AcDbEntity
  8
0
100
AcDbCircle
 10
1204.348618
 20
-145.695143
 30
0.0
 40
0.7
100
AcDbArc
 50
90.0
 51
270.0
  0
LINE
  5
204
330
6B
100
AcDbEntity
  8
0
100
AcDbLine
 10
1204.348618
 20
-146.395143
 30
0.0
 11
1218.348618
 21
-146.395143
 31
0.0
  0
ARC
  5
205
330
6B
100
AcDbEntity
  8
0
100
AcDbCircle
 10
1218.348618
 20
-143.245143
 30
0.0
 40
0.7
100
AcDbArc
 50
270.0
 51
90.0
  0
LINE
  5
206
330
6B
100
AcDbEntity
  8
0
100
AcDbLine
 10
1218.348618
 20
-142.545143
 30
0.0
 11
1204.348618
 21
-142.545143
 31
0.0
  0
ARC
  5
207
330
6B
100
AcDbEntity
  8
0
100
AcDbCircle
 10
1204.348618
 20
-143.245143
 30
0.0
 40
0.7
100
AcDbArc
 50
90.0
 51
270.0
  0
LINE
  5
208
330
6B
100
AcDbEntity
  8
0
100
AcDbLine
 10
1204.348618
 20
-143.945143
 30
0.0
 11
1218.348618
 21
-143.945143
 31
0.0
  0
ARC
  5
209
330
6B
100
AcDbEntity
  8
0
100
AcDbCircle
 10
1218.348618
 20
-140.795143
 30
0.0
 40
0.7
100
AcDbArc
 50
270.0
 51
90.0
  0
LINE
  5
20A
330
6B
100
AcDbEntity
  8
0
100
AcDbLine
 10
1218.348618
 20
-140.095143
 30
0.0
 11
1204.348618
 21
-140.095143
 31
0.0
  0
ARC
  5
20B
330
6B
100
AcDbEntity
  8
0
100
AcDbCircle
 10
1204.348618
 20
-140.795143
 30
0.0
 40
0.7
100
AcDbArc
 50
90.0
 51
270.0
  0
LINE
  5
20C
330
6B
100
AcDbEntity
  8
0
100
AcDbLine
 10
1204.348618
 20
-141.495143
 30
0.0
 11
1218.348618
 21
-141.495143
 31
0.0
  0
ARC
  5
20D
330
6B
100
AcDbEntity
  8
0
100
AcDbCircle
 10
1218.348618
 20
-138.345143
 30
0.0
 40
0.7
100
AcDbArc
 50
270.0
 51
90.0
  0
LINE
  5
20E
330
6B
100
AcDbEntity
  8
0
100
AcDbLine
 10
1218.348618
 20
-137.645143
 30
0.0
 11
1204.348618
 21
-137.645143
 31
0.0
  0
ARC
  5
20F
330
6B
100
AcDbEntity
  8
0
100
AcDbCircle
 10
1204.348618
 20
-138.345143
 30
0.0
 40
0.7
100
AcDbArc
 50
90.0
 51
270.0
  0
LINE
  5
210
330
6B
100
AcDbEntity
  8
0
100
AcDbLine
 10
1204.348618
 20
-139.045143
 30
0.0
 11
1218.348618
 21
-139.045143
 31
0.0
  0
ARC
  5
211
330
6B
100
AcDbEntity
  8
0
100
AcDbCircle
 10
1141.348618
 20
-157.945143
 30
0.0
 40
0.7
100
AcDbArc
 50
90.0
 51
270.0
  0
LINE
  5
212
330
6B
100
AcDbEntity
  8
0
100
AcDbLine
 10
1141.348618
 20
-157.245143
 30
0.0
 11
1155.348618
 21
-157.245143
 31
0.0
  0
ARC
  5
213
330
6B
100
AcDbEntity
  8
0
100
AcDbCircle
 10
1155.348618
 20
-157.945143
 30
0.0
 40
0.7
100
AcDbArc
 50
270.0
 51
90.0
  0
LINE
  5
214
330
6B
100
AcDbEntity
  8
0
100
AcDbLine
 10
1155.348618
 20
-158.645143
 30
0.0
 11
1141.348618
 21
-158.645143
 31
0.0
  0
ARC
  5
215
330
6B
100
AcDbEntity
  8
0
100
AcDbCircle
 10
1141.348618
 20
-155.495143
 30
0.0
 40
0.7
100
AcDbArc
 50
90.0
 51
270.0
  0
LINE
  5
216
330
6B
100
AcDbEntity
  8
0
100
AcDbLine
 10
1141.348618
 20
-154.795143
 30
0.0
 11
1155.348618
 21
-154.795143
 31
0.0
  0
ARC
  5
217
330
6B
100
AcDbEntity
  8
0
100
AcDbCircle
 10
1155.348618
 20
-155.495143
 30
0.0
 40
0.7
100
AcDbArc
 50
270.0
 51
90.0
  0
LINE
  5
218
330
6B
100
AcDbEntity
  8
0
100
AcDbLine
 10
1155.348618
 20
-156.195143
 30
0.0
 11
1141.348618
 21
-156.195143
 31
0.0
  0
ARC
  5
219
330
6B
100
AcDbEntity
  8
0
100
AcDbCircle
 10
1141.348618
 20
-153.045143
 30
0.0
 40
0.7
100
AcDbArc
 50
90.0
 51
270.0
  0
LINE
  5
21A
330
6B
100
AcDbEntity
  8
0
100
AcDbLine
 10
1141.348618
 20
-152.345143
 30
0.0
 11
1155.348618
 21
-152.345143
 31
0.0
  0
ARC
  5
21B
330
6B
100
AcDbEntity
  8
0
100
AcDbCircle
 10
1155.348618
 20
-153.045143
 30
0.0
 40
0.7
100
AcDbArc
 50
270.0
 51
90.0
  0
LINE
  5
21C
330
6B
100
AcDbEntity
  8
0
100
AcDbLine
 10
1155.348618
 20
-153.745143
 30
0.0
 11
1141.348618
 21
-153.745143
 31
0.0
  0
ARC
  5
21D
330
6B
100
AcDbEntity
  8
0
100
AcDbCircle
 10
1141.348618
 20
-150.595143
 30
0.0
 40
0.7
100
AcDbArc
 50
90.0
 51
270.0
  0
LINE
  5
21E
330
6B
100
AcDbEntity
  8
0
100
AcDbLine
 10
1141.348618
 20
-149.895143
 30
0.0
 11
1155.348618
 21
-149.895143
 31
0.0
  0
ARC
  5
21F
330
6B
100
AcDbEntity
  8
0
100
AcDbCircle
 10
1155.348618
 20
-150.595143
 30
0.0
 40
0.7
100
AcDbArc
 50
270.0
 51
90.0
  0
LINE
  5
220
330
6B
100
AcDbEntity
  8
0
100
AcDbLine
 10
1155.348618
 20
-151.295143
 30
0.0
 11
1141.348618
 21
-151.295143
 31
0.0
  0
ARC
  5
221
330
6B
100
AcDbEntity
  8
0
100
AcDbCircle
 10
1141.348618
 20
-148.145143
 30
0.0
 40
0.7
100
AcDbArc
 50
90.0
 51
270.0
  0
LINE
  5
222
330
6B
100
AcDbEntity
  8
0
100
AcDbLine
 10
1141.348618
 20
-147.445143
 30
0.0
 11
1155.348618
 21
-147.445143
 31
0.0
  0
ARC
  5
223
330
6B
100
AcDbEntity
  8
0
100
AcDbCircle
 10
1155.348618
 20
-148.145143
 30
0.0
 40
0.7
100
AcDbArc
 50
270.0
 51
90.0
  0
LINE
  5
224
330
6B
100
AcDbEntity
  8
0
100
AcDbLine
 10
1155.348618
 20
-148.845143
 30
0.0
 11
1141.348618
 21
-148.845143
 31
0.0
  0
ARC
  5
225
330
6B
100
AcDbEntity
  8
0
100
AcDbCircle
 10
1141.348618
 20
-145.695143
 30
0.0
 40
0.7
100
AcDbArc
 50
90.0
 51
270.0
  0
LINE
  5
226
330
6B
100
AcDbEntity
  8
0
100
AcDbLine
 10
1141.348618
 20
-144.995143
 30
0.0
 11
1155.348618
 21
-144.995143
 31
0.0
  0
ARC
  5
227
330
6B
100
AcDbEntity
  8
0
100
AcDbCircle
 10
1155.348618
 20
-145.695143
 30
0.0
 40
0.7
100
AcDbArc
 50
270.0
 51
90.0
  0
LINE
  5
228
330
6B
100
AcDbEntity
  8
0
100
AcDbLine
 10
1155.348618
 20
-146.395143
 30
0.0
 11
1141.348618
 21
-146.395143
 31
0.0
  0
ARC
  5
229
330
6B
100
AcDbEntity
  8
0
100
AcDbCircle
 10
1141.348618
 20
-143.245143
 30
0.0
 40
0.7
100
AcDbArc
 50
90.0
 51
270.0
  0
LINE
  5
22A
330
6B
100
AcDbEntity
  8
0
100
AcDbLine
 10
1141.348618
 20
-142.545143
 30
0.0
 11
1155.348618
 21
-142.545143
 31
0.0
  0
ARC
  5
22B
330
6B
100
AcDbEntity
  8
0
100
AcDbCircle
 10
1155.348618
 20
-143.245143
 30
0.0
 40
0.7
100
AcDbArc
 50
270.0
 51
90.0
  0
LINE
  5
22C
330
6B
100
AcDbEntity
  8
0
100
AcDbLine
 10
1155.348618
 20
-143.945143
 30
0.0
 11
1141.348618
 21
-143.945143
 31
0.0
  0
ARC
  5
22D
330
6B
100
AcDbEntity
  8
0
100
AcDbCircle
 10
1141.348618
 20
-140.795143
 30
0.0
 40
0.7
100
AcDbArc
 50
90.0
 51
270.0
  0
LINE
  5
22E
330
6B
100
AcDbEntity
  8
0
100
AcDbLine
 10
1141.348618
 20
-140.095143
 30
0.0
 11
1155.348618
 21
-140.095143
 31
0.0
  0
ARC
  5
22F
330
6B
100
AcDbEntity
  8
0
100
AcDbCircle
 10
1155.348618
 20
-140.795143
 30
0.0
 40
0.7
100
AcDbArc
 50
270.0
 51
90.0
  0
LINE
  5
230
330
6B
100
AcDbEntity
  8
0
100
AcDbLine
 10
1155.348618
 20
-141.495143
 30
0.0
 11
1141.348618
 21
-141.495143
 31
0.0
  0
ARC
  5
231
330
6B
100
AcDbEntity
  8
0
100
AcDbCircle
 10
1141.348618
 20
-138.345143
 30
0.0
 40
0.7
100
AcDbArc
 50
90.0
 51
270.0
  0
LINE
  5
232
330
6B
100
AcDbEntity
  8
0
100
AcDbLine
 10
1141.348618
 20
-137.645143
 30
0.0
 11
1155.348618
 21
-137.645143
 31
0.0
  0
ARC
  5
233
330
6B
100
AcDbEntity
  8
0
100
AcDbCircle
 10
1155.348618
 20
-138.345143
 30
0.0
 40
0.7
100
AcDbArc
 50
270.0
 51
90.0
  0
LINE
  5
234
330
6B
100
AcDbEntity
  8
0
100
AcDbLine
 10
1155.348618
 20
-139.045143
 30
0.0
 11
1141.348618
 21
-139.045143
 31
0.0
  0
ARC
  5
235
330
6B
100
AcDbEntity
  8
0
100
AcDbCircle
 10
1218.348618
 20
-178.945143
 30
0.0
 40
0.7
100
AcDbArc
 50
270.0
 51
90.0
  0
LINE
  5
236
330
6B
100
AcDbEntity
  8
0
100
AcDbLine
 10
1218.348618
 20
-178.245143
 30
0.0
 11
1204.348618
 21
-178.245143
 31
0.0
  0
ARC
  5
237
330
6B
100
AcDbEntity
  8
0
100
AcDbCircle
 10
1204.348618
 20
-178.945143
 30
0.0
 40
0.7
100
AcDbArc
 50
90.0
 51
270.0
  0
LINE
  5
238
330
6B
100
AcDbEntity
  8
0
100
AcDbLine
 10
1204.348618
 20
-179.645143
 30
0.0
 11
1218.348618
 21
-179.645143
 31
0.0
  0
ARC
  5
239
330
6B
100
AcDbEntity
  8
0
100
AcDbCircle
 10
1218.348618
 20
-176.495143
 30
0.0
 40
0.7
100
AcDbArc
 50
270.0
 51
90.0
  0
LINE
  5
23A
330
6B
100
AcDbEntity
  8
0
100
AcDbLine
 10
1218.348618
 20
-175.795143
 30
0.0
 11
1204.348618
 21
-175.795143
 31
0.0
  0
ARC
  5
23B
330
6B
100
AcDbEntity
  8
0
100
AcDbCircle
 10
1204.348618
 20
-176.495143
 30
0.0
 40
0.7
100
AcDbArc
 50
90.0
 51
270.0
  0
LINE
  5
23C
330
6B
100
AcDbEntity
  8
0
100
AcDbLine
 10
1204.348618
 20
-177.195143
 30
0.0
 11
1218.348618
 21
-177.195143
 31
0.0
  0
ARC
  5
23D
330
6B
100
AcDbEntity
  8
0
100
AcDbCircle
 10
1218.348618
 20
-174.045143
 30
0.0
 40
0.7
100
AcDbArc
 50
270.0
 51
90.0
  0
LINE
  5
23E
330
6B
100
AcDbEntity
  8
0
100
AcDbLine
 10
1218.348618
 20
-173.345143
 30
0.0
 11
1204.348618
 21
-173.345143
 31
0.0
  0
ARC
  5
23F
330
6B
100
AcDbEntity
  8
0
100
AcDbCircle
 10
1204.348618
 20
-174.045143
 30
0.0
 40
0.7
100
AcDbArc
 50
90.0
 51
270.0
  0
LINE
  5
240
330
6B
100
AcDbEntity
  8
0
100
AcDbLine
 10
1204.348618
 20
-174.745143
 30
0.0
 11
1218.348618
 21
-174.745143
 31
0.0
  0
ARC
  5
241
330
6B
100
AcDbEntity
  8
0
100
AcDbCircle
 10
1218.348618
 20
-171.595143
 30
0.0
 40
0.7
100
AcDbArc
 50
270.0
 51
90.0
  0
LINE
  5
242
330
6B
100
AcDbEntity
  8
0
100
AcDbLine
 10
1218.348618
 20
-170.895143
 30
0.0
 11
1204.348618
 21
-170.895143
 31
0.0
  0
ARC
  5
243
330
6B
100
AcDbEntity
  8
0
100
AcDbCircle
 10
1204.348618
 20
-171.595143
 30
0.0
 40
0.7
100
AcDbArc
 50
90.0
 51
270.0
  0
LINE
  5
244
330
6B
100
AcDbEntity
  8
0
100
AcDbLine
 10
1204.348618
 20
-172.295143
 30
0.0
 11
1218.348618
 21
-172.295143
 31
0.0
  0
ARC
  5
245
330
6B
100
AcDbEntity
  8
0
100
AcDbCircle
 10
1218.348618
 20
-169.145143
 30
0.0
 40
0.7
100
AcDbArc
 50
270.0
 51
90.0
  0
LINE
  5
246
330
6B
100
AcDbEntity
  8
0
100
AcDbLine
 10
1218.348618
 20
-168.445143
 30
0.0
 11
1204.348618
 21
-168.445143
 31
0.0
  0
ARC
  5
247
330
6B
100
AcDbEntity
  8
0
100
AcDbCircle
 10
1204.348618
 20
-169.145143
 30
0.0
 40
0.7
100
AcDbArc
 50
90.0
 51
270.0
  0
LINE
  5
248
330
6B
100
AcDbEntity
  8
0
100
AcDbLine
 10
1204.348618
 20
-169.845143
 30
0.0
 11
1218.348618
 21
-169.845143
 31
0.0
  0
ARC
  5
249
330
6B
100
AcDbEntity
  8
0
100
AcDbCircle
 10
1141.348618
 20
-178.945143
 30
0.0
 40
0.7
100
AcDbArc
 50
90.0
 51
270.0
  0
LINE
  5
24A
330
6B
100
AcDbEntity
  8
0
100
AcDbLine
 10
1141.348618
 20
-178.245143
 30
0.0
 11
1155.348618
 21
-178.245143
 31
0.0
  0
ARC
  5
24B
330
6B
100
AcDbEntity
  8
0
100
AcDbCircle
 10
1155.348618
 20
-178.945143
 30
0.0
 40
0.7
100
AcDbArc
 50
270.0
 51
90.0
  0
LINE
  5
24C
330
6B
100
AcDbEntity
  8
0
100
AcDbLine
 10
1155.348618
 20
-179.645143
 30
0.0
 11
1141.348618
 21
-179.645143
 31
0.0
  0
ARC
  5
24D
330
6B
100
AcDbEntity
  8
0
100
AcDbCircle
 10
1141.348618
 20
-176.495143
 30
0.0
 40
0.7
100
AcDbArc
 50
90.0
 51
270.0
  0
LINE
  5
24E
330
6B
100
AcDbEntity
  8
0
100
AcDbLine
 10
1141.348618
 20
-175.795143
 30
0.0
 11
1155.348618
 21
-175.795143
 31
0.0
  0
ARC
  5
24F
330
6B
100
AcDbEntity
  8
0
100
AcDbCircle
 10
1155.348618
 20
-176.495143
 30
0.0
 40
0.7
100
AcDbArc
 50
270.0
 51
90.0
  0
LINE
  5
250
330
6B
100
AcDbEntity
  8
0
100
AcDbLine
 10
1155.348618
 20
-177.195143
 30
0.0
 11
1141.348618
 21
-177.195143
 31
0.0
  0
ARC
  5
251
330
6B
100
AcDbEntity
  8
0
100
AcDbCircle
 10
1141.348618
 20
-174.045143
 30
0.0
 40
0.7
100
AcDbArc
 50
90.0
 51
270.0
  0
LINE
  5
252
330
6B
100
AcDbEntity
  8
0
100
AcDbLine
 10
1141.348618
 20
-173.345143
 30
0.0
 11
1155.348618
 21
-173.345143
 31
0.0
  0
ARC
  5
253
330
6B
100
AcDbEntity
  8
0
100
AcDbCircle
 10
1155.348618
 20
-174.045143
 30
0.0
 40
0.7
100
AcDbArc
 50
270.0
 51
90.0
  0
LINE
  5
254
330
6B
100
AcDbEntity
  8
0
100
AcDbLine
 10
1155.348618
 20
-174.745143
 30
0.0
 11
1141.348618
 21
-174.745143
 31
0.0
  0
ARC
  5
255
330
6B
100
AcDbEntity
  8
0
100
AcDbCircle
 10
1141.348618
 20
-171.595143
 30
0.0
 40
0.7
100
AcDbArc
 50
90.0
 51
270.0
  0
LINE
  5
256
330
6B
100
AcDbEntity
  8
0
100
AcDbLine
 10
1141.348618
 20
-170.895143
 30
0.0
 11
1155.348618
 21
-170.895143
 31
0.0
  0
ARC
  5
257
330
6B
100
AcDbEntity
  8
0
100
AcDbCircle
 10
1155.348618
 20
-171.595143
 30
0.0
 40
0.7
100
AcDbArc
 50
270.0
 51
90.0
  0
LINE
  5
258
330
6B
100
AcDbEntity
  8
0
100
AcDbLine
 10
1155.348618
 20
-172.295143
 30
0.0
 11
1141.348618
 21
-172.295143
 31
0.0
  0
ARC
  5
259
330
6B
100
AcDbEntity
  8
0
100
AcDbCircle
 10
1141.348618
 20
-169.145143
 30
0.0
 40
0.7
100
AcDbArc
 50
90.0
 51
270.0
  0
LINE
  5
25A
330
6B
100
AcDbEntity
  8
0
100
AcDbLine
 10
1141.348618
 20
-168.445143
 30
0.0
 11
1155.348618
 21
-168.445143
 31
0.0
  0
ARC
  5
25B
330
6B
100
AcDbEntity
  8
0
100
AcDbCircle
 10
1155.348618
 20
-169.145143
 30
0.0
 40
0.7
100
AcDbArc
 50
270.0
 51
90.0
  0
LINE
  5
25C
330
6B
100
AcDbEntity
  8
0
100
AcDbLine
 10
1155.348618
 20
-169.845143
 30
0.0
 11
1141.348618
 21
-169.845143
 31
0.0
  0
CIRCLE
  5
25D
330
6B
100
AcDbEntity
  8
0
100
AcDbCircle
 10
1228.148618
 20
-157.945143
 30
0.0
 40
2.1
  0
LINE
  5
25E
330
6B
100
AcDbEntity
  8
0
100
AcDbLine
 10
1227.938618
 20
-159.144943
 30
0.0
 11
1227.938618
 21
-158.694843
 31
0.0
  0
LINE
  5
25F
330
6B
100
AcDbEntity
  8
0
100
AcDbLine
 10
1226.948818
 20
-157.735143
 30
0.0
 11
1226.948818
 21
-158.155143
 31
0.0
  0
LINE
  5
260
330
6B
100
AcDbEntity
  8
0
100
AcDbLine
 10
1226.948818
 20
-158.155143
 30
0.0
 11
1227.398918
 21
-158.155143
 31
0.0
  0
ARC
  5
261
330
6B
100
AcDbEntity
  8
0
100
AcDbCircle
 10
1227.398918
 20
-158.694843
 30
0.0
 40
0.5397
100
AcDbArc
 50
0.0
 51
90.0
  0
LINE
  5
262
330
6B
100
AcDbEntity
  8
0
100
AcDbLine
 10
1229.348418
 20
-158.155143
 30
0.0
 11
1228.898318
 21
-158.155143
 31
0.0
  0
LINE
  5
263
330
6B
100
AcDbEntity
  8
0
100
AcDbLine
 10
1228.358618
 20
-159.144943
 30
0.0
 11
1228.358618
 21
-158.694843
 31
0.0
  0
ARC
  5
264
330
6B
100
AcDbEntity
  8
0
100
AcDbCircle
 10
1228.898318
 20
-158.694843
 30
0.0
 40
0.5397
100
AcDbArc
 50
90.0
 51
180.0
  0
LINE
  5
265
330
6B
100
AcDbEntity
  8
0
100
AcDbLine
 10
1227.938618
 20
-159.144943
 30
0.0
 11
1228.358618
 21
-159.144943
 31
0.0
  0
LINE
  5
266
330
6B
100
AcDbEntity
  8
0
100
AcDbLine
 10
1229.348418
 20
-157.735143
 30
0.0
 11
1228.898318
 21
-157.735143
 31
0.0
  0
LINE
  5
267
330
6B
100
AcDbEntity
  8
0
100
AcDbLine
 10
1228.358618
 20
-156.745343
 30
0.0
 11
1227.938618
 21
-156.745343
 31
0.0
  0
LINE
  5
268
330
6B
100
AcDbEntity
  8
0
100
AcDbLine
 10
1228.358618
 20
-156.745343
 30
0.0
 11
1228.358618
 21
-157.195443
 31
0.0
  0
ARC
  5
269
330
6B
100
AcDbEntity
  8
0
100
AcDbCircle
 10
1228.898318
 20
-157.195443
 30
0.0
 40
0.5397
100
AcDbArc
 50
180.0
 51
270.0
  0
LINE
  5
26A
330
6B
100
AcDbEntity
  8
0
100
AcDbLine
 10
1229.348418
 20
-158.155143
 30
0.0
 11
1229.348418
 21
-157.735143
 31
0.0
  0
LINE
  5
26B
330
6B
100
AcDbEntity
  8
0
100
AcDbLine
 10
1226.948818
 20
-157.735143
 30
0.0
 11
1227.398918
 21
-157.735143
 31
0.0
  0
LINE
  5
26C
330
6B
100
AcDbEntity
  8
0
100
AcDbLine
 10
1227.938618
 20
-156.745343
 30
0.0
 11
1227.938618
 21
-157.195443
 31
0.0
  0
ARC
  5
26D
330
6B
100
AcDbEntity
  8
0
100
AcDbCircle
 10
1227.398918
 20
-157.195443
 30
0.0
 40
0.5397
100
AcDbArc
 50
270.0
 51
0.0
  0
CIRCLE
  5
26E
330
6B
100
AcDbEntity
  8
0
100
AcDbCircle
 10
1131.548618
 20
-157.945143
 30
0.0
 40
2.1
  0
LINE
  5
26F
330
6B
100
AcDbEntity
  8
0
100
AcDbLine
 10
1131.758618
 20
-159.144943
 30
0.0
 11
1131.758618
 21
-158.694843
 31
0.0
  0
LINE
  5
270
330
6B
100
AcDbEntity
  8
0
100
AcDbLine
 10
1132.748418
 20
-157.735143
 30
0.0
 11
1132.748418
 21
-158.155143
 31
0.0
  0
LINE
  5
271
330
6B
100
AcDbEntity
  8
0
100
AcDbLine
 10
1132.748418
 20
-158.155143
 30
0.0
 11
1132.298318
 21
-158.155143
 31
0.0
  0
ARC
  5
272
330
6B
100
AcDbEntity
  8
0
100
AcDbCircle
 10
1132.298318
 20
-158.694843
 30
0.0
 40
0.5397
100
AcDbArc
 50
90.0
 51
180.0
  0
LINE
  5
273
330
6B
100
AcDbEntity
  8
0
100
AcDbLine
 10
1130.348818
 20
-158.155143
 30
0.0
 11
1130.798918
 21
-158.155143
 31
0.0
  0
LINE
  5
274
330
6B
100
AcDbEntity
  8
0
100
AcDbLine
 10
1131.338618
 20
-159.144943
 30
0.0
 11
1131.338618
 21
-158.694843
 31
0.0
  0
ARC
  5
275
330
6B
100
AcDbEntity
  8
0
100
AcDbCircle
 10
1130.798918
 20
-158.694843
 30
0.0
 40
0.5397
100
AcDbArc
 50
0.0
 51
90.0
  0
LINE
  5
276
330
6B
100
AcDbEntity
  8
0
100
AcDbLine
 10
1131.758618
 20
-159.144943
 30
0.0
 11
1131.338618
 21
-159.144943
 31
0.0
  0
LINE
  5
277
330
6B
100
AcDbEntity
  8
0
100
AcDbLine
 10
1130.348818
 20
-157.735143
 30
0.0
 11
1130.798918
 21
-157.735143
 31
0.0
  0
LINE
  5
278
330
6B
100
AcDbEntity
  8
0
100
AcDbLine
 10
1131.338618
 20
-156.745343
 30
0.0
 11
1131.758618
 21
-156.745343
 31
0.0
  0
LINE
  5
279
330
6B
100
AcDbEntity
  8
0
100
AcDbLine
 10
1131.338618
 20
-156.745343
 30
0.0
 11
1131.338618
 21
-157.195443
 31
0.0
  0
ARC
  5
27A
330
6B
100
AcDbEntity
  8
0
100
AcDbCircle
 10
1130.798918
 20
-157.195443
 30
0.0
 40
0.5397
100
AcDbArc
 50
270.0
 51
0.0
  0
LINE
  5
27B
330
6B
100
AcDbEntity
  8
0
100
AcDbLine
 10
1130.348818
 20
-158.155143
 30
0.0
 11
1130.348818
 21
-157.735143
 31
0.0
  0
LINE
  5
27C
330
6B
100
AcDbEntity
  8
0
100
AcDbLine
 10
1132.748418
 20
-157.735143
 30
0.0
 11
1132.298318
 21
-157.735143
 31
0.0
  0
LINE
  5
27D
330
6B
100
AcDbEntity
  8
0
100
AcDbLine
 10
1131.758618
 20
-156.745343
 30
0.0
 11
1131.758618
 21
-157.195443
 31
0.0
  0
ARC
  5
27E
330
6B
100
AcDbEntity
  8
0
100
AcDbCircle
 10
1132.298318
 20
-157.195443
 30
0.0
 40
0.5397
100
AcDbArc
 50
180.0
 51
270.0
  0
LINE
  5
27F
330
6B
100
AcDbEntity
  8
0
100
AcDbLine
 10
1349.248618
 20
-182.445143
 30
0.0
 11
1349.248618
 21
-115.945143
 31
0.0
  0
ARC
  5
280
330
6B
100
AcDbEntity
  8
0
100
AcDbCircle
 10
1346.448618
 20
-115.945143
 30
0.0
 40
2.799999999999998
100
AcDbArc
 50
0.0
 51
90.0
  0
LINE
  5
281
330
6B
100
AcDbEntity
  8
0
100
AcDbLine
 10
1346.448618
 20
-113.145143
 30
0.0
 11
1269.448618
 21
-113.145143
 31
0.0
  0
ARC
  5
282
330
6B
100
AcDbEntity
  8
0
100
AcDbCircle
 10
1269.448618
 20
-115.945143
 30
0.0
 40
2.799999999999998
100
AcDbArc
 50
90.0
 51
180.0
  0
LINE
  5
283
330
6B
100
AcDbEntity
  8
0
100
AcDbLine
 10
1266.648618
 20
-115.945143
 30
0.0
 11
1266.648618
 21
-182.445143
 31
0.0
  0
ARC
  5
284
330
6B
100
AcDbEntity
  8
0
100
AcDbCircle
 10
1269.448618
 20
-182.445143
 30
0.0
 40
2.799999999999998
100
AcDbArc
 50
180.0
 51
270.0
  0
LINE
  5
285
330
6B
100
AcDbEntity
  8
0
100
AcDbLine
 10
1269.448618
 20
-185.245143
 30
0.0
 11
1346.448618
 21
-185.245143
 31
0.0
  0
ARC
  5
286
330
6B
100
AcDbEntity
  8
0
100
AcDbCircle
 10
1346.448618
 20
-182.445143
 30
0.0
 40
2.799999999999998
100
AcDbArc
 50
270.0
 51
0.0
  0
LINE
  5
287
330
6B
100
AcDbEntity
  8
0
100
AcDbLine
 10
1126.298618
 20
-164.945143
 30
0.0
 11
1126.298618
 21
-176.145143
 31
0.0
  0
TEXT
  5
288
330
6B
100
AcDbEntity
  8
0
 62
     3
100
AcDbText
 10
1313.64403
 20
-226.972044
 30
0.0
 40
3.2
  1
周波数
  7
高3.2
100
AcDbText
  0
TEXT
  5
289
330
6B
100
AcDbEntity
  8
0
 62
     3
100
AcDbText
 10
1313.64403
 20
-243.604044
 30
0.0
 40
3.2
  1
質　量
  7
高3.2
100
AcDbText
  0
TEXT
  5
28A
330
6B
100
AcDbEntity
  8
0
 62
     3
100
AcDbText
 10
1313.64403
 20
-215.884044
 30
0.0
 40
3.2
  1
型　式
  7
高3.2
100
AcDbText
  0
TEXT
  5
28B
330
6B
100
AcDbEntity
  8
0
 62
     3
100
AcDbText
 10
1313.64403
 20
-221.428044
 30
0.0
 40
3.2
  1
容　量
  7
高3.2
100
AcDbText
  0
LINE
  5
28C
330
6B
100
AcDbEntity
  8
0
 62
     3
100
AcDbLine
 10
1312.14403
 20
-210.840044
 30
0.0
 11
1360.980554149996
 21
-210.840044
 31
0.0
  0
TEXT
  5
28D
330
6B
100
AcDbEntity
  8
0
 62
     3
100
AcDbText
 10
1331.195854963104
 20
-226.972044
 30
0.0
 40
3.2
  1
50/ 60Hz
  7
高3.2
100
AcDbText
  0
LINE
  5
28E
330
6B
100
AcDbEntity
  8
0
100
AcDbLine
 10
1312.14403
 20
-221.928044
 30
0.0
 11
1360.980554149996
 21
-221.928044
 31
0.0
  0
LINE
  5
28F
330
6B
100
AcDbEntity
  8
0
100
AcDbLine
 10
1312.14403
 20
-227.472044
 30
0.0
 11
1360.980554149996
 21
-227.4720439999999
 31
0.0
  0
LINE
  5
290
330
6B
100
AcDbEntity
  8
0
100
AcDbLine
 10
1312.14403
 20
-233.016044
 30
0.0
 11
1360.980554149996
 21
-233.016044
 31
0.0
  0
LINE
  5
291
330
6B
100
AcDbEntity
  8
0
100
AcDbLine
 10
1312.14403
 20
-238.560044
 30
0.0
 11
1360.980554149996
 21
-238.560044
 31
0.0
  0
LINE
  5
292
330
6B
100
AcDbEntity
  8
0
100
AcDbLine
 10
1312.14403
 20
-216.384044
 30
0.0
 11
1360.980554149996
 21
-216.3840439999999
 31
0.0
  0
TEXT
  5
293
330
6B
100
AcDbEntity
  8
0
 62
     3
100
AcDbText
 10
1029.52495978342
 20
-312.24267
 30
0.0
 40
3.2
  1
-
 41
0.8
  7
高3.2
100
AcDbText
  0
TEXT
  5
294
330
6B
100
AcDbEntity
  8
0
 62
     3
100
AcDbText
 10
1029.52495978342
 20
-307.24267
 30
0.0
 40
3.2
  1
VFF
 41
0.8
  7
高3.2
100
AcDbText
  0
TEXT
  5
295
330
6B
100
AcDbEntity
  8
0
 62
     3
100
AcDbText
 10
1044.376118008711
 20
-307.24267
 30
0.0
 40
3.2
  1
0.75sqx2cx1.3m
 41
0.8
  7
高3.2
100
AcDbText
  0
TEXT
  5
296
330
6B
100
AcDbEntity
  8
0
 62
     3
100
AcDbText
 10
993.4853095624999
 20
-302.2426700000001
 30
0.0
 40
3.2
  1
コンセント
 41
0.8
  7
高3.2
100
AcDbText
  0
TEXT
  5
297
330
6B
100
AcDbEntity
  8
0
 62
     3
100
AcDbText
 10
1029.52495978342
 20
-302.2426700000001
 30
0.0
 40
3.2
  1
-
 41
0.8
  7
高3.2
100
AcDbText
  0
TEXT
  5
298
330
6B
100
AcDbEntity
  8
0
 62
     3
100
AcDbText
 10
1020.914185813316
 20
-317.2426700000001
 30
0.0
 40
3.2
  1
1
 41
0.8
  7
高3.2
100
AcDbText
  0
TEXT
  5
299
330
6B
100
AcDbEntity
  8
0
 62
     3
100
AcDbText
 10
1044.376118008711
 20
-317.2426700000001
 30
0.0
 40
3.2
  1
ネオン球
 41
0.8
  7
高3.2
100
AcDbText
  0
TEXT
  5
29A
330
6B
100
AcDbEntity
  8
0
 62
     3
100
AcDbText
 10
993.4853095624999
 20
-317.2426700000001
 30
0.0
 40
3.2
  1
電源ランプ
 41
0.8
  7
高3.2
100
AcDbText
  0
TEXT
  5
29B
330
6B
100
AcDbEntity
  8
0
 62
     3
100
AcDbText
 10
993.4853095624999
 20
-297.24267
 30
0.0
 40
3.2
  1
ゴム脚
 41
0.8
  7
高3.2
100
AcDbText
  0
TEXT
  5
29C
330
6B
100
AcDbEntity
  8
0
 62
     3
100
AcDbText
 10
1020.914185813316
 20
-297.24267
 30
0.0
 40
3.2
  1
4
 41
0.8
  7
高3.2
100
AcDbText
  0
TEXT
  5
29D
330
6B
100
AcDbEntity
  8
0
 62
     3
100
AcDbText
 10
1029.52495978342
 20
-297.24267
 30
0.0
 40
3.2
  1
合成ゴム
 41
0.8
  7
高3.2
100
AcDbText
  0
TEXT
  5
29E
330
6B
100
AcDbEntity
  8
0
 62
     3
100
AcDbText
 10
1044.376118008711
 20
-292.2426700000001
 30
0.0
 40
3.2
  1
-
 41
0.8
  7
高3.2
100
AcDbText
  0
TEXT
  5
29F
330
6B
100
AcDbEntity
  8
0
 62
     3
100
AcDbText
 10
1029.52495978342
 20
-292.2426700000001
 30
0.0
 40
3.2
  1
-
 41
0.8
  7
高3.2
100
AcDbText
  0
TEXT
  5
2A0
330
6B
100
AcDbEntity
  8
0
 62
     3
100
AcDbText
 10
1020.914185813316
 20
-292.2426700000001
 30
0.0
 40
3.2
  1
1
 41
0.8
  7
高3.2
100
AcDbText
  0
TEXT
  5
2A1
330
6B
100
AcDbEntity
  8
0
 62
     3
100
AcDbText
 10
993.4853095624999
 20
-292.2426700000001
 30
0.0
 40
3.2
  1
フューズホルダ
 41
0.8
  7
高3.2
100
AcDbText
  0
LINE
  5
2A2
330
6B
100
AcDbEntity
  8
0
 62
     3
100
AcDbLine
 10
1077.910986298166
 20
-322.74267
 30
0.0
 11
1077.910986298166
 21
-287.74267
 31
0.0
  0
LINE
  5
2A3
330
6B
100
AcDbEntity
  8
0
100
AcDbLine
 10
1028.02495978342
 20
-322.74267
 30
0.0
 11
1028.02495978342
 21
-287.74267
 31
0.0
  0
LINE
  5
2A4
330
6B
100
AcDbEntity
  8
0
100
AcDbLine
 10
1019.414185813316
 20
-322.74267
 30
0.0
 11
1019.414185813316
 21
-287.74267
 31
0.0
  0
LINE
  5
2A5
330
6B
100
AcDbEntity
  8
0
100
AcDbLine
 10
991.9853095624999
 20
-322.74267
 30
0.0
 11
991.9853095624999
 21
-287.74267
 31
0.0
  0
LINE
  5
2A6
330
6B
100
AcDbEntity
  8
0
100
AcDbLine
 10
1042.876118008712
 20
-322.74267
 30
0.0
 11
1042.876118008712
 21
-287.74267
 31
0.0
  0
TEXT
  5
2A7
330
6B
100
AcDbEntity
  8
0
 62
     3
100
AcDbText
 10
1044.376118008711
 20
-302.2426700000001
 30
0.0
 40
3.2
  1
出力　AC100V
 41
0.8
  7
高3.2
100
AcDbText
  0
LINE
  5
2A8
330
6B
100
AcDbEntity
  8
0
100
AcDbLine
 10
1027.248618
 20
-176.589708
 30
0.0
 11
1027.248618
 21
-164.945143
 31
0.0
  0
LINE
  5
2A9
330
6B
100
AcDbEntity
  8
0
100
AcDbLine
 10
1098.648618
 20
-176.589708
 30
0.0
 11
1027.248618
 21
-176.589708
 31
0.0
  0
LINE
  5
2AA
330
6B
100
AcDbEntity
  8
0
100
AcDbLine
 10
1098.648618
 20
-164.945143
 30
0.0
 11
1027.248618
 21
-164.945143
 31
0.0
  0
TEXT
  5
2AB
330
6B
100
AcDbEntity
  8
0
 62
     3
100
AcDbText
 10
1062.276201
 20
-175.816178
 30
0.0
 40
2.24
  1
OUTPUT 100V
 41
0.939052
100
AcDbText
  0
LINE
  5
2AC
330
6B
100
AcDbEntity
  8
0
100
AcDbLine
 10
1237.318618
 20
-199.385143
 30
0.0
 11
1245.018618
 21
-199.385143
 31
0.0
  0
LINE
  5
2AD
330
6B
100
AcDbEntity
  8
0
100
AcDbLine
 10
1237.318618
 20
-196.585143
 30
0.0
 11
1245.018618
 21
-196.585143
 31
0.0
  0
LINE
  5
2B3
330
6B
100
AcDbEntity
  8
0
100
AcDbLine
 10
1340.848618
 20
-114.545143
 30
0.0
 11
1334.986586
 21
-107.298972
 31
0.0
  0
CIRCLE
  5
2B4
330
6B
100
AcDbEntity
  8
0
100
AcDbCircle
 10
1331.841863
 20
-103.411721
 30
0.0
 40
5.0
  0
TEXT
  5
2B5
330
6B
100
AcDbEntity
  8
0
 62
     4
100
AcDbText
 10
1329.592515197028
 20
-106.7150794076348
 30
0.0
 40
6.299999999999998
  1
6
  7
高6.3
100
AcDbText
  0
LINE
  5
2BB
330
6B
100
AcDbEntity
  8
0
100
AcDbLine
 10
1230.41867
 20
-150.093117
 30
0.0
 11
1253.646159
 21
-105.419548
 31
0.0
  0
CIRCLE
  5
2BC
330
6B
100
AcDbEntity
  8
0
100
AcDbCircle
 10
1255.952707
 20
-100.983352
 30
0.0
 40
5.0
  0
TEXT
  5
2BD
330
6B
100
AcDbEntity
  8
0
 62
     4
100
AcDbText
 10
1253.703359197028
 20
-104.2867104076348
 30
0.0
 40
6.299999999999998
  1
2
  7
高6.3
100
AcDbText
  0
LINE
  5
2C3
330
6B
100
AcDbEntity
  8
0
100
AcDbLine
 10
1243.268618
 20
-205.510143
 30
0.0
 11
1255.892009
 21
-199.589813
 31
0.0
  0
CIRCLE
  5
2C4
330
6B
100
AcDbEntity
  8
0
100
AcDbCircle
 10
1260.418874
 20
-197.466728
 30
0.0
 40
5.0
  0
TEXT
  5
2C5
330
6B
100
AcDbEntity
  8
0
 62
     4
100
AcDbText
 10
1258.169526197028
 20
-200.7700864076348
 30
0.0
 40
6.299999999999998
  1
3
  7
高6.3
100
AcDbText
  0
LINE
  5
2CB
330
6B
100
AcDbEntity
  8
0
100
AcDbLine
 10
1034.598618
 20
-120.145143
 30
0.0
 11
1028.327874
 21
-101.87191
 31
0.0
  0
CIRCLE
  5
2CC
330
6B
100
AcDbEntity
  8
0
100
AcDbCircle
 10
1026.704948
 20
-97.142627
 30
0.0
 40
5.0
  0
TEXT
  5
2CD
330
6B
100
AcDbEntity
  8
0
 62
     4
100
AcDbText
 10
1024.455600197028
 20
-100.4459864076348
 30
0.0
 40
6.299999999999998
  1
1
  7
高6.3
100
AcDbText
  0
LINE
  5
2D3
330
6B
100
AcDbEntity
  8
0
100
AcDbLine
 10
1046.148618
 20
-164.945143
 30
0.0
 11
1006.662525
 21
-139.181225
 31
0.0
  0
CIRCLE
  5
2D4
330
6B
100
AcDbEntity
  8
0
100
AcDbCircle
 10
1002.47506
 20
-136.448985
 30
0.0
 40
5.0
  0
TEXT
  5
2D5
330
6B
100
AcDbEntity
  8
0
 62
     4
100
AcDbText
 10
1000.225712197028
 20
-139.7523434076348
 30
0.0
 40
6.299999999999998
  1
4
  7
高6.3
100
AcDbText
  0
LINE
  5
2DB
330
6B
100
AcDbEntity
  8
0
100
AcDbLine
 10
1029.699132
 20
-189.445143
 30
0.0
 11
1010.262151
 21
-176.630016
 31
0.0
  0
CIRCLE
  5
2DC
330
6B
100
AcDbEntity
  8
0
100
AcDbCircle
 10
1006.087793
 20
-173.877792
 30
0.0
 40
5.0
  0
TEXT
  5
2DD
330
6B
100
AcDbEntity
  8
0
 62
     4
100
AcDbText
 10
1003.838445197028
 20
-177.1811504076348
 30
0.0
 40
6.299999999999998
  1
5
  7
高6.3
100
AcDbText
  0
LINE
  5
2DE
330
6B
100
AcDbEntity
  8
0
 62
     3
100
AcDbLine
 10
1101.448618
 20
-182.445143
 30
0.0
 11
1101.448618
 21
-129.945143
 31
0.0
  0
LINE
  5
2DF
330
6B
100
AcDbEntity
  8
0
 62
     3
100
AcDbLine
 10
1066.448618
 20
-91.445143
 30
0.0
 11
1059.448618
 21
-91.445143
 31
0.0
  0
LINE
  5
2E0
330
6B
100
AcDbEntity
  8
0
 62
     3
100
AcDbLine
 10
1069.948618
 20
-94.945143
 30
0.0
 11
1069.948618
 21
-112.445143
 31
0.0
  0
LINE
  5
2E1
330
6B
100
AcDbEntity
  8
0
 62
     3
100
AcDbLine
 10
1055.948618
 20
-94.945143
 30
0.0
 11
1055.948618
 21
-112.445143
 31
0.0
  0
ARC
  5
2E2
330
6B
100
AcDbEntity
  8
0
 62
     3
100
AcDbCircle
 10
1059.448618
 20
-94.945143
 30
0.0
 40
3.5
100
AcDbArc
 50
90.0
 51
180.0
  0
ARC
  5
2E3
330
6B
100
AcDbEntity
  8
0
 62
     3
100
AcDbCircle
 10
1066.448618
 20
-94.945143
 30
0.0
 40
3.5
100
AcDbArc
 50
0.0
 51
90.0
  0
LINE
  5
2E4
330
6B
100
AcDbEntity
  8
0
 62
     3
100
AcDbLine
 10
1155.348618
 20
-91.445143
 30
0.0
 11
1204.348618
 21
-91.445143
 31
0.0
  0
LINE
  5
2E5
330
6B
100
AcDbEntity
  8
0
 62
     3
100
AcDbLine
 10
1200.848618
 20
-98.445143
 30
0.0
 11
1158.848618
 21
-98.445143
 31
0.0
  0
LINE
  5
2E6
330
6B
100
AcDbEntity
  8
0
 62
     3
100
AcDbLine
 10
1211.348618
 20
-108.945143
 30
0.0
 11
1211.348618
 21
-112.445143
 31
0.0
  0
LINE
  5
2E7
330
6B
100
AcDbEntity
  8
0
 62
     3
100
AcDbLine
 10
1148.348618
 20
-108.945143
 30
0.0
 11
1148.348618
 21
-112.445143
 31
0.0
  0
ARC
  5
2E8
330
6B
100
AcDbEntity
  8
0
 62
     3
100
AcDbCircle
 10
1158.848618
 20
-108.945143
 30
0.0
 40
10.5
100
AcDbArc
 50
90.0
 51
180.0
  0
ARC
  5
2E9
330
6B
100
AcDbEntity
  8
0
 62
     3
100
AcDbCircle
 10
1200.848618
 20
-108.945143
 30
0.0
 40
10.5
100
AcDbArc
 50
0.0
 51
90.0
  0
ARC
  5
2EA
330
6B
100
AcDbEntity
  8
0
 62
     3
100
AcDbCircle
 10
1204.348618
 20
-112.445143
 30
0.0
 40
21.0
100
AcDbArc
 50
0.0
 51
90.0
  0
ARC
  5
2EB
330
6B
100
AcDbEntity
  8
0
 62
     3
100
AcDbCircle
 10
1155.348618
 20
-112.445143
 30
0.0
 40
21.0
100
AcDbArc
 50
90.0
 51
180.0
  0
ARC
  5
2EC
330
6B
100
AcDbEntity
  8
0
100
AcDbCircle
 10
1218.348618
 20
-135.895143
 30
0.0
 40
0.7
100
AcDbArc
 50
270.0
 51
90.0
  0
LINE
  5
2ED
330
6B
100
AcDbEntity
  8
0
100
AcDbLine
 10
1218.348618
 20
-135.195143
 30
0.0
 11
1204.348618
 21
-135.195143
 31
0.0
  0
LINE
  5
2EE
330
6B
100
AcDbEntity
  8
0
100
AcDbLine
 10
1204.348618
 20
-136.595143
 30
0.0
 11
1218.348618
 21
-136.595143
 31
0.0
  0
ARC
  5
2EF
330
6B
100
AcDbEntity
  8
0
100
AcDbCircle
 10
1218.348618
 20
-133.445143
 30
0.0
 40
0.7
100
AcDbArc
 50
270.0
 51
90.0
  0
LINE
  5
2F0
330
6B
100
AcDbEntity
  8
0
100
AcDbLine
 10
1218.348618
 20
-132.7451429999999
 30
0.0
 11
1204.348618
 21
-132.7451429999999
 31
0.0
  0
LINE
  5
2F1
330
6B
100
AcDbEntity
  8
0
100
AcDbLine
 10
1204.348618
 20
-134.145143
 30
0.0
 11
1218.348618
 21
-134.145143
 31
0.0
  0
ARC
  5
2F2
330
6B
100
AcDbEntity
  8
0
100
AcDbCircle
 10
1218.348618
 20
-130.995143
 30
0.0
 40
0.7
100
AcDbArc
 50
270.0
 51
90.0
  0
LINE
  5
2F3
330
6B
100
AcDbEntity
  8
0
100
AcDbLine
 10
1218.348618
 20
-130.295143
 30
0.0
 11
1204.348618
 21
-130.295143
 31
0.0
  0
LINE
  5
2F4
330
6B
100
AcDbEntity
  8
0
100
AcDbLine
 10
1204.348618
 20
-131.695143
 30
0.0
 11
1218.348618
 21
-131.695143
 31
0.0
  0
ARC
  5
2F5
330
6B
100
AcDbEntity
  8
0
100
AcDbCircle
 10
1218.348618
 20
-128.545143
 30
0.0
 40
0.7
100
AcDbArc
 50
270.0
 51
90.0
  0
LINE
  5
2F6
330
6B
100
AcDbEntity
  8
0
100
AcDbLine
 10
1218.348618
 20
-127.845143
 30
0.0
 11
1204.348618
 21
-127.845143
 31
0.0
  0
LINE
  5
2F7
330
6B
100
AcDbEntity
  8
0
100
AcDbLine
 10
1204.348618
 20
-129.245143
 30
0.0
 11
1218.348618
 21
-129.245143
 31
0.0
  0
ARC
  5
2F8
330
6B
100
AcDbEntity
  8
0
100
AcDbCircle
 10
1218.348618
 20
-126.095143
 30
0.0
 40
0.7
100
AcDbArc
 50
270.0
 51
90.0
  0
LINE
  5
2F9
330
6B
100
AcDbEntity
  8
0
100
AcDbLine
 10
1218.348618
 20
-125.395143
 30
0.0
 11
1204.348618
 21
-125.395143
 31
0.0
  0
LINE
  5
2FA
330
6B
100
AcDbEntity
  8
0
100
AcDbLine
 10
1204.348618
 20
-126.795143
 30
0.0
 11
1218.348618
 21
-126.795143
 31
0.0
  0
ARC
  5
2FB
330
6B
100
AcDbEntity
  8
0
100
AcDbCircle
 10
1218.348618
 20
-123.645143
 30
0.0
 40
0.7
100
AcDbArc
 50
270.0
 51
90.0
  0
LINE
  5
2FC
330
6B
100
AcDbEntity
  8
0
100
AcDbLine
 10
1218.348618
 20
-122.945143
 30
0.0
 11
1204.348618
 21
-122.945143
 31
0.0
  0
LINE
  5
2FD
330
6B
100
AcDbEntity
  8
0
100
AcDbLine
 10
1204.348618
 20
-124.345143
 30
0.0
 11
1218.348618
 21
-124.345143
 31
0.0
  0
ARC
  5
2FE
330
6B
100
AcDbEntity
  8
0
100
AcDbCircle
 10
1204.348618
 20
-135.895143
 30
0.0
 40
0.7
100
AcDbArc
 50
90.0
 51
270.0
  0
ARC
  5
2FF
330
6B
100
AcDbEntity
  8
0
100
AcDbCircle
 10
1204.348618
 20
-133.445143
 30
0.0
 40
0.7
100
AcDbArc
 50
90.0
 51
270.0
  0
ARC
  5
300
330
6B
100
AcDbEntity
  8
0
100
AcDbCircle
 10
1204.348618
 20
-130.995143
 30
0.0
 40
0.7
100
AcDbArc
 50
90.0
 51
270.0
  0
ARC
  5
301
330
6B
100
AcDbEntity
  8
0
100
AcDbCircle
 10
1204.348618
 20
-128.545143
 30
0.0
 40
0.7
100
AcDbArc
 50
90.0
 51
270.0
  0
ARC
  5
302
330
6B
100
AcDbEntity
  8
0
100
AcDbCircle
 10
1204.348618
 20
-126.095143
 30
0.0
 40
0.7
100
AcDbArc
 50
90.0
 51
270.0
  0
ARC
  5
303
330
6B
100
AcDbEntity
  8
0
100
AcDbCircle
 10
1204.348618
 20
-123.645143
 30
0.0
 40
0.7
100
AcDbArc
 50
90.0
 51
270.0
  0
ARC
  5
304
330
6B
100
AcDbEntity
  8
0
100
AcDbCircle
 10
1141.348618
 20
-135.895143
 30
0.0
 40
0.7
100
AcDbArc
 50
90.0
 51
270.0
  0
LINE
  5
305
330
6B
100
AcDbEntity
  8
0
100
AcDbLine
 10
1141.348618
 20
-135.195143
 30
0.0
 11
1155.348618
 21
-135.195143
 31
0.0
  0
ARC
  5
306
330
6B
100
AcDbEntity
  8
0
100
AcDbCircle
 10
1155.348618
 20
-135.895143
 30
0.0
 40
0.7
100
AcDbArc
 50
270.0
 51
90.0
  0
LINE
  5
307
330
6B
100
AcDbEntity
  8
0
100
AcDbLine
 10
1155.348618
 20
-136.595143
 30
0.0
 11
1141.348618
 21
-136.595143
 31
0.0
  0
ARC
  5
308
330
6B
100
AcDbEntity
  8
0
100
AcDbCircle
 10
1141.348618
 20
-133.445143
 30
0.0
 40
0.7
100
AcDbArc
 50
90.0
 51
270.0
  0
LINE
  5
309
330
6B
100
AcDbEntity
  8
0
100
AcDbLine
 10
1141.348618
 20
-132.7451429999999
 30
0.0
 11
1155.348618
 21
-132.7451429999999
 31
0.0
  0
ARC
  5
30A
330
6B
100
AcDbEntity
  8
0
100
AcDbCircle
 10
1155.348618
 20
-133.445143
 30
0.0
 40
0.7
100
AcDbArc
 50
270.0
 51
90.0
  0
LINE
  5
30B
330
6B
100
AcDbEntity
  8
0
100
AcDbLine
 10
1155.348618
 20
-134.145143
 30
0.0
 11
1141.348618
 21
-134.145143
 31
0.0
  0
ARC
  5
30C
330
6B
100
AcDbEntity
  8
0
100
AcDbCircle
 10
1141.348618
 20
-130.995143
 30
0.0
 40
0.7
100
AcDbArc
 50
90.0
 51
270.0
  0
LINE
  5
30D
330
6B
100
AcDbEntity
  8
0
100
AcDbLine
 10
1141.348618
 20
-130.295143
 30
0.0
 11
1155.348618
 21
-130.295143
 31
0.0
  0
ARC
  5
30E
330
6B
100
AcDbEntity
  8
0
100
AcDbCircle
 10
1155.348618
 20
-130.995143
 30
0.0
 40
0.7
100
AcDbArc
 50
270.0
 51
90.0
  0
LINE
  5
30F
330
6B
100
AcDbEntity
  8
0
100
AcDbLine
 10
1155.348618
 20
-131.695143
 30
0.0
 11
1141.348618
 21
-131.695143
 31
0.0
  0
ARC
  5
310
330
6B
100
AcDbEntity
  8
0
100
AcDbCircle
 10
1141.348618
 20
-128.545143
 30
0.0
 40
0.7
100
AcDbArc
 50
90.0
 51
270.0
  0
LINE
  5
311
330
6B
100
AcDbEntity
  8
0
100
AcDbLine
 10
1141.348618
 20
-127.845143
 30
0.0
 11
1155.348618
 21
-127.845143
 31
0.0
  0
ARC
  5
312
330
6B
100
AcDbEntity
  8
0
100
AcDbCircle
 10
1155.348618
 20
-128.545143
 30
0.0
 40
0.7
100
AcDbArc
 50
270.0
 51
90.0
  0
LINE
  5
313
330
6B
100
AcDbEntity
  8
0
100
AcDbLine
 10
1155.348618
 20
-129.245143
 30
0.0
 11
1141.348618
 21
-129.245143
 31
0.0
  0
ARC
  5
314
330
6B
100
AcDbEntity
  8
0
100
AcDbCircle
 10
1141.348618
 20
-126.095143
 30
0.0
 40
0.7
100
AcDbArc
 50
90.0
 51
270.0
  0
LINE
  5
315
330
6B
100
AcDbEntity
  8
0
100
AcDbLine
 10
1141.348618
 20
-125.395143
 30
0.0
 11
1155.348618
 21
-125.395143
 31
0.0
  0
ARC
  5
316
330
6B
100
AcDbEntity
  8
0
100
AcDbCircle
 10
1155.348618
 20
-126.095143
 30
0.0
 40
0.7
100
AcDbArc
 50
270.0
 51
90.0
  0
LINE
  5
317
330
6B
100
AcDbEntity
  8
0
100
AcDbLine
 10
1155.348618
 20
-126.795143
 30
0.0
 11
1141.348618
 21
-126.795143
 31
0.0
  0
ARC
  5
318
330
6B
100
AcDbEntity
  8
0
100
AcDbCircle
 10
1141.348618
 20
-123.645143
 30
0.0
 40
0.7
100
AcDbArc
 50
90.0
 51
270.0
  0
LINE
  5
319
330
6B
100
AcDbEntity
  8
0
100
AcDbLine
 10
1141.348618
 20
-122.945143
 30
0.0
 11
1155.348618
 21
-122.945143
 31
0.0
  0
ARC
  5
31A
330
6B
100
AcDbEntity
  8
0
100
AcDbCircle
 10
1155.348618
 20
-123.645143
 30
0.0
 40
0.7
100
AcDbArc
 50
270.0
 51
90.0
  0
LINE
  5
31B
330
6B
100
AcDbEntity
  8
0
100
AcDbLine
 10
1155.348618
 20
-124.345143
 30
0.0
 11
1141.348618
 21
-124.345143
 31
0.0
  0
LINE
  5
31C
330
6B
100
AcDbEntity
  8
0
100
AcDbLine
 10
1098.648618
 20
-164.945143
 30
0.0
 11
1098.648618
 21
-176.589708
 31
0.0
  0
TEXT
  5
31D
330
6B
100
AcDbEntity
  8
0
 62
     3
100
AcDbText
 10
1039.579966
 20
-131.088469
 30
0.0
 40
6.299999999999998
  1
trans pal
 41
0.7019700000000002
100
AcDbText
  0
TEXT
  5
31E
330
6B
100
AcDbEntity
  8
0
 62
     3
100
AcDbText
 10
1075.679389
 20
-131.130473
 30
0.0
 40
6.299999999999998
  1
350
 41
0.672269
100
AcDbText
  0
TEXT
  5
31F
330
6B
100
AcDbEntity
  8
0
100
AcDbText
 10
1040.478707
 20
-134.689352
 30
0.0
 40
3.2
  1
STEP DOWN TRANSFORMER
 41
0.717094
100
AcDbText
  0
TEXT
  5
320
330
6B
100
AcDbEntity
  8
0
 62
     3
100
AcDbText
 10
1308.344329
 20
-312.1391248628822
 30
0.0
 40
3.2
  1
FREE
  7
高3.2
100
AcDbText
  0
TEXT
  5
321
330
6B
100
AcDbEntity
  8
0
 62
     3
100
AcDbText
 10
1331.195854963104
 20
-221.428044
 30
0.0
 40
3.2
  1
350VA
  7
高3.2
100
AcDbText
  0
LINE
  5
322
330
6B
100
AcDbEntity
  8
0
 62
     3
100
AcDbLine
 10
1312.14403
 20
-244.104044
 30
0.0
 11
1360.980554149996
 21
-244.104044
 31
0.0
  0
LINE
  5
323
330
6B
100
AcDbEntity
  8
0
 62
     3
100
AcDbLine
 10
1329.695854963104
 20
-210.840044
 30
0.0
 11
1329.695854963104
 21
-244.104044
 31
0.0
  0
LINE
  5
324
330
6B
100
AcDbEntity
  8
0
 62
     3
100
AcDbLine
 10
1360.980554149996
 20
-210.840044
 30
0.0
 11
1360.980554149996
 21
-244.104044
 31
0.0
  0
LINE
  5
325
330
6B
100
AcDbEntity
  8
0
 62
     3
100
AcDbLine
 10
1312.14403
 20
-210.840044
 30
0.0
 11
1312.14403
 21
-244.104044
 31
0.0
  0
TEXT
  5
326
330
6B
100
AcDbEntity
  8
0
 62
     3
100
AcDbText
 10
1313.64403
 20
-232.516044
 30
0.0
 40
3.2
  1
入力電圧
  7
高3.2
100
AcDbText
  0
TEXT
  5
327
330
6B
100
AcDbEntity
  8
0
 62
     3
100
AcDbText
 10
1313.64403
 20
-238.060044
 30
0.0
 40
3.2
  1
出力電圧
  7
高3.2
100
AcDbText
  0
TEXT
  5
328
330
6B
100
AcDbEntity
  8
0
 62
     3
100
AcDbText
 10
1331.195854963104
 20
-238.060044
 30
0.0
 40
3.2
  1
AC100V
  7
高3.2
100
AcDbText
  0
LINE
  5
329
330
6B
100
AcDbEntity
  8
0
 62
     3
100
AcDbLine
 10
1314.948618
 20
-94.945143
 30
0.0
 11
1314.948618
 21
-112.445143
 31
0.0
  0
ARC
  5
32A
330
6B
100
AcDbEntity
  8
0
 62
     3
100
AcDbCircle
 10
1311.448618
 20
-94.945143
 30
0.0
 40
3.5
100
AcDbArc
 50
0.0
 51
90.0
  0
LINE
  5
32B
330
6B
100
AcDbEntity
  8
0
 62
     3
100
AcDbLine
 10
1311.448618
 20
-91.445143
 30
0.0
 11
1304.448618
 21
-91.445143
 31
0.0
  0
ARC
  5
32C
330
6B
100
AcDbEntity
  8
0
 62
     3
100
AcDbCircle
 10
1304.448618
 20
-94.945143
 30
0.0
 40
3.5
100
AcDbArc
 50
90.0
 51
180.0
  0
LINE
  5
32D
330
6B
100
AcDbEntity
  8
0
 62
     3
100
AcDbLine
 10
1300.948618
 20
-94.945143
 30
0.0
 11
1300.948618
 21
-112.445143
 31
0.0
  0
TEXT
  5
32E
330
6B
100
AcDbEntity
  8
0
 62
     4
100
AcDbText
 10
1204.046860075923
 20
-221.9887494282115
 30
0.0
 40
3.2
  1
平ピン　A2
  7
高3.2
100
AcDbText
  0
TEXT
  5
32F
330
6B
100
AcDbEntity
  8
0
 62
     4
100
AcDbText
 10
1203.595025075923
 20
-226.5071024282115
 30
0.0
 40
3.2
  1
AC110～130V
  7
高3.2
100
AcDbText
  0
LINE
  5
330
330
6B
100
AcDbEntity
  8
0
100
AcDbLine
 10
1246.768618
 20
-252.461243
 30
0.0
 11
1246.768618
 21
-241.735143
 31
0.0
  0
LINE
  5
331
330
6B
100
AcDbEntity
  8
0
100
AcDbLine
 10
1235.568618
 20
-252.461243
 30
0.0
 11
1235.568618
 21
-241.735143
 31
0.0
  0
LINE
  5
332
330
6B
100
AcDbEntity
  8
0
100
AcDbLine
 10
1244.768618
 20
-252.461243
 30
0.0
 11
1244.768618
 21
-241.735143
 31
0.0
  0
LINE
  5
333
330
6B
100
AcDbEntity
  8
0
100
AcDbLine
 10
1237.568618
 20
-252.461243
 30
0.0
 11
1237.568618
 21
-241.735143
 31
0.0
  0
LINE
  5
334
330
6B
100
AcDbEntity
  8
0
100
AcDbLine
 10
1246.768618
 20
-252.461243
 30
0.0
 11
1244.768618
 21
-252.461243
 31
0.0
  0
LINE
  5
335
330
6B
100
AcDbEntity
  8
0
100
AcDbLine
 10
1237.568618
 20
-252.461243
 30
0.0
 11
1235.568618
 21
-252.461243
 31
0.0
  0
TEXT
  5
336
330
6B
100
AcDbEntity
  8
0
 62
     3
100
AcDbText
 10
1331.195854963104
 20
-215.884044
 30
0.0
 40
3.2
  1
PAL-350A
  7
高3.2
100
AcDbText
  0
TEXT
  5
337
330
6B
100
AcDbEntity
  8
0
 62
     3
100
AcDbText
 10
1331.195854963104
 20
-243.604044
 30
0.0
 40
3.2
  1
約２．３ｋｇ
  7
高3.2
100
AcDbText
  0
TEXT
  5
338
330
6B
100
AcDbEntity
  8
0
 62
     3
100
AcDbText
 10
1331.195854963104
 20
-232.516044
 30
0.0
 40
3.2
  1
AC110-130V
  7
高3.2
100
AcDbText
  0
TEXT
  5
339
330
6B
100
AcDbEntity
  8
0
 62
     3
100
AcDbText
 10
1281.928161881215
 20
-298.2659700000001
 30
0.0
 40
4.5
  1
PAL-350A
  7
高4.5
100
AcDbText
  0
TEXT
  5
33A
330
6B
100
AcDbEntity
  8
0
 62
     3
100
AcDbText
 10
1324.852258622438
 20
-321.945495
 30
0.0
 40
6.299999999999998
  1
PAL-350A
  7
高6.3
100
AcDbText
  0
LINE
  5
33B
330
6B
100
AcDbEntity
  8
0
100
AcDbLine
 10
984.4269829999999
 20
-312.74267
 30
0.0
 11
1077.910986298166
 21
-312.74267
 31
0.0
  0
LINE
  5
33C
330
6B
100
AcDbEntity
  8
0
100
AcDbLine
 10
984.4269829999999
 20
-307.74267
 30
0.0
 11
1077.910986298166
 21
-307.74267
 31
0.0
  0
LINE
  5
33D
330
6B
100
AcDbEntity
  8
0
100
AcDbLine
 10
984.4269829999999
 20
-302.7426700000001
 30
0.0
 11
1077.910986298166
 21
-302.7426700000001
 31
0.0
  0
LINE
  5
33E
330
6B
100
AcDbEntity
  8
0
100
AcDbLine
 10
984.4269829999999
 20
-297.74267
 30
0.0
 11
1077.910986298166
 21
-297.74267
 31
0.0
  0
LINE
  5
33F
330
6B
100
AcDbEntity
  8
0
100
AcDbLine
 10
984.4269829999999
 20
-292.7426700000001
 30
0.0
 11
1077.910986298166
 21
-292.7426700000001
 31
0.0
  0
LINE
  5
340
330
6B
100
AcDbEntity
  8
0
 62
     3
100
AcDbLine
 10
984.4269829999999
 20
-317.7426700000001
 30
0.0
 11
1077.910986298166
 21
-317.7426700000001
 31
0.0
  0
LINE
  5
341
330
6B
100
AcDbEntity
  8
0
 62
     3
100
AcDbLine
 10
984.4269829999999
 20
-287.74267
 30
0.0
 11
1077.910986298166
 21
-287.74267
 31
0.0
  0
TEXT
  5
342
330
6B
100
AcDbEntity
  8
0
 62
     3
100
AcDbText
 10
1353.341155655529
 20
-282.43281
 30
0.0
 40
4.5
  1
5835
  7
高4.5
100
AcDbText
  0
TEXT
  5
420
330
6B
100
AcDbEntity
  8
0
 62
     3
100
AcDbText
 10
1361.926983
 20
-58.187309
 30
0.0
 40
3.2
  1
担　当
  7
高3.2
100
AcDbText
  0
TEXT
  5
421
330
6B
100
AcDbEntity
  8
0
 62
     3
100
AcDbText
 10
1317.926983
 20
-58.187309
 30
0.0
 40
3.2
  1
変更・追記内容
  7
高3.2
100
AcDbText
  0
TEXT
  5
422
330
6B
100
AcDbEntity
  8
0
 62
     3
100
AcDbText
 10
1293.040498000339
 20
-62.85784750990828
 30
0.0
 40
2.0
  1
1
  7
高2
100
AcDbText
  0
TEXT
  5
423
330
6B
100
AcDbEntity
  8
0
 62
     3
100
AcDbText
 10
1292.731986523582
 20
-68.02766422218119
 30
0.0
 40
2.0
  1
2
  7
高2
100
AcDbText
  0
TEXT
  5
424
330
6B
100
AcDbEntity
  8
0
 62
     3
100
AcDbText
 10
1299.926983
 20
-58.187309
 30
0.0
 40
3.2
  1
日　付
  7
高3.2
100
AcDbText
  0
TEXT
  5
425
330
6B
100
AcDbEntity
  8
0
 62
     3
100
AcDbText
 10
1299.926983
 20
-53.187309
 30
0.0
 40
3.2
  1
図　　　　面　　　　略　　　　歴
  7
高3.2
100
AcDbText
  0
TEXT
  5
426
330
6B
100
AcDbEntity
  8
0
 62
     3
100
AcDbText
 10
1289.926983
 20
-58.187309
 30
0.0
 40
3.2
  1
記号
  7
高3.2
100
AcDbText
  0
LINE
  5
427
330
6B
100
AcDbEntity
  8
0
100
AcDbLine
 10
1293.426983
 20
-64.89641299999991
 30
0.0
 11
1291.526983
 21
-68.187309
 31
0.0
  0
LINE
  5
428
330
6B
100
AcDbEntity
  8
0
100
AcDbLine
 10
1293.426983
 20
-64.89641299999991
 30
0.0
 11
1295.326983
 21
-68.187309
 31
0.0
  0
LINE
  5
429
330
6B
100
AcDbEntity
  8
0
100
AcDbLine
 10
1291.526983
 20
-68.187309
 30
0.0
 11
1295.326983
 21
-68.187309
 31
0.0
  0
LINE
  5
42A
330
6B
100
AcDbEntity
  8
0
100
AcDbLine
 10
1293.426983
 20
-59.8964119999999
 30
0.0
 11
1291.526983
 21
-63.187309
 31
0.0
  0
LINE
  5
42B
330
6B
100
AcDbEntity
  8
0
100
AcDbLine
 10
1293.426983
 20
-59.8964119999999
 30
0.0
 11
1295.326983
 21
-63.187309
 31
0.0
  0
LINE
  5
42C
330
6B
100
AcDbEntity
  8
0
100
AcDbLine
 10
1291.526983
 20
-63.187309
 30
0.0
 11
1295.326983
 21
-63.187309
 31
0.0
  0
LINE
  5
42D
330
6B
100
AcDbEntity
  8
0
 62
     3
100
AcDbLine
 10
1288.426983
 20
-53.687309
 30
0.0
 11
1374.426983
 21
-53.687309
 31
0.0
  0
LINE
  5
42E
330
6B
100
AcDbEntity
  8
0
 62
     3
100
AcDbLine
 10
1288.426983
 20
-58.687309
 30
0.0
 11
1374.426983
 21
-58.687309
 31
0.0
  0
LINE
  5
42F
330
6B
100
AcDbEntity
  8
0
 62
     7
100
AcDbLine
 10
1288.426983
 20
-63.687309
 30
0.0
 11
1374.426983
 21
-63.687309
 31
0.0
  0
LINE
  5
430
330
6B
100
AcDbEntity
  8
0
 62
     3
100
AcDbLine
 10
1288.426983
 20
-68.687309
 30
0.0
 11
1374.426983
 21
-68.687309
 31
0.0
  0
LINE
  5
431
330
6B
100
AcDbEntity
  8
0
 62
     7
100
AcDbLine
 10
1360.426983
 20
-68.687309
 30
0.0
 11
1360.426983
 21
-53.687309
 31
0.0
  0
LINE
  5
432
330
6B
100
AcDbEntity
  8
0
 62
     7
100
AcDbLine
 10
1316.426983
 20
-68.687309
 30
0.0
 11
1316.426983
 21
-53.687309
 31
0.0
  0
LINE
  5
433
330
6B
100
AcDbEntity
  8
0
 62
     7
100
AcDbLine
 10
1298.426983
 20
-68.687309
 30
0.0
 11
1298.426983
 21
-53.687309
 31
0.0
  0
LINE
  5
434
330
6B
100
AcDbEntity
  8
0
 62
     3
100
AcDbLine
 10
1288.426983
 20
-68.687309
 30
0.0
 11
1288.426983
 21
-48.687309
 31
0.0
  0
LINE
  5
66A
330
6B
100
AcDbEntity
  8
0
100
AcDbLine
 10
1027.734407
 20
-188.791659
 30
0.0
 11
1029.699132
 21
-189.445143
 31
0.0
  0
LINE
  5
66B
330
6B
100
AcDbEntity
  8
0
100
AcDbLine
 10
1029.699132
 20
-189.445143
 30
0.0
 11
1028.324372
 21
-187.896847
 31
0.0
  0
LINE
  5
66E
330
6B
100
AcDbEntity
  8
0
100
AcDbLine
 10
1044.180792
 20
-164.301058
 30
0.0
 11
1046.148618
 21
-164.945143
 31
0.0
  0
LINE
  5
66F
330
6B
100
AcDbEntity
  8
0
100
AcDbLine
 10
1046.148618
 20
-164.945143
 30
0.0
 11
1044.766473
 21
-163.403435
 31
0.0
  0
LINE
  5
670
330
6B
100
AcDbEntity
  8
0
100
AcDbLine
 10
1033.442565
 20
-118.427375
 30
0.0
 11
1034.598618
 21
-120.145143
 31
0.0
  0
LINE
  5
671
330
6B
100
AcDbEntity
  8
0
100
AcDbLine
 10
1034.598618
 20
-120.145143
 30
0.0
 11
1034.456331
 21
-118.079485
 31
0.0
  0
LINE
  5
672
330
6B
100
AcDbEntity
  8
0
100
AcDbLine
 10
1244.851813
 20
-204.175721
 30
0.0
 11
1243.268618
 21
-205.510143
 31
0.0
  0
LINE
  5
673
330
6B
100
AcDbEntity
  8
0
100
AcDbLine
 10
1243.268618
 20
-205.510143
 30
0.0
 11
1245.306916
 21
-205.146097
 31
0.0
  0
LINE
  5
674
330
6B
100
AcDbEntity
  8
0
100
AcDbLine
 10
1230.865819
 20
-148.071424
 30
0.0
 11
1230.41867
 21
-150.093117
 31
0.0
  0
LINE
  5
675
330
6B
100
AcDbEntity
  8
0
100
AcDbLine
 10
1230.41867
 20
-150.093117
 30
0.0
 11
1231.816759
 21
-148.565854
 31
0.0
  0
LINE
  5
676
330
6B
100
AcDbEntity
  8
0
100
AcDbLine
 10
1339.174095
 20
-113.327293
 30
0.0
 11
1340.848618
 21
-114.545143
 31
0.0
  0
LINE
  5
677
330
6B
100
AcDbEntity
  8
0
100
AcDbLine
 10
1340.848618
 20
-114.545143
 30
0.0
 11
1340.007364
 21
-112.653192
 31
0.0
  0
LINE
  5
678
330
6B
100
AcDbEntity
  8
0
100
AcDbLine
 10
1096.448105
 20
-189.445143
 30
0.0
 11
1114.709253
 21
-189.445143
 31
0.0
  0
LINE
  5
679
330
6B
100
AcDbEntity
  8
0
100
AcDbLine
 10
1066.698618
 20
-91.445143
 30
0.0
 11
1114.709253
 21
-91.445143
 31
0.0
  0
LINE
  5
67A
330
6B
100
AcDbEntity
  8
0
100
AcDbLine
 10
1113.459253
 20
-186.945143
 30
0.0
 11
1113.459253
 21
-93.945143
 31
0.0
  0
LINE
  5
67E
330
6B
100
AcDbEntity
  8
0
100
AcDbLine
 10
1024.448618
 20
-182.695143
 30
0.0
 11
1024.448618
 21
-203.524947
 31
0.0
  0
LINE
  5
67F
330
6B
100
AcDbEntity
  8
0
100
AcDbLine
 10
1101.448618
 20
-182.695143
 30
0.0
 11
1101.448618
 21
-203.524947
 31
0.0
  0
LINE
  5
680
330
6B
100
AcDbEntity
  8
0
100
AcDbLine
 10
1026.948618
 20
-202.274947
 30
0.0
 11
1098.948618
 21
-202.274947
 31
0.0
  0
LINE
  5
684
330
6B
100
AcDbEntity
  8
0
100
AcDbLine
 10
1127.348618
 20
-186.195143
 30
0.0
 11
1127.348618
 21
-199.331043
 31
0.0
  0
LINE
  5
685
330
6B
100
AcDbEntity
  8
0
100
AcDbLine
 10
1232.348618
 20
-186.195143
 30
0.0
 11
1232.348618
 21
-199.331043
 31
0.0
  0
LINE
  5
686
330
6B
100
AcDbEntity
  8
0
100
AcDbLine
 10
1129.848618
 20
-198.081043
 30
0.0
 11
1229.848618
 21
-198.081043
 31
0.0
  0
TEXT
  5
68A
330
6B
100
AcDbEntity
  8
0
  6
Continuous
 62
     4
100
AcDbText
 10
1112.834253
 20
-143.6951429999998
 30
0.0
 40
3.0
  1
140
 50
90.0
100
AcDbText
  0
LINE
  5
68B
330
6B
100
AcDbEntity
  8
0
  6
ByBlock
 62
     0
370
    -2
100
AcDbLine
 10
1112.7893805
 20
-93.945143
 30
0.0
 11
1113.459253
 21
-91.445143
 31
0.0
  0
LINE
  5
68C
330
6B
100
AcDbEntity
  8
0
  6
ByBlock
 62
     0
370
    -2
100
AcDbLine
 10
1113.459253
 20
-91.445143
 30
0.0
 11
1114.1291255
 21
-93.945143
 31
0.0
  0
LINE
  5
68D
330
6B
100
AcDbEntity
  8
0
  6
ByBlock
 62
     0
370
    -2
100
AcDbLine
 10
1113.459253
 20
-91.445143
 30
0.0
 11
1113.459253
 21
-93.945143
 31
0.0
  0
LINE
  5
68E
330
6B
100
AcDbEntity
  8
0
  6
ByBlock
 62
     0
370
    -2
100
AcDbLine
 10
1114.1291255
 20
-186.945143
 30
0.0
 11
1113.459253
 21
-189.445143
 31
0.0
  0
LINE
  5
68F
330
6B
100
AcDbEntity
  8
0
  6
ByBlock
 62
     0
370
    -2
100
AcDbLine
 10
1113.459253
 20
-189.445143
 30
0.0
 11
1112.7893805
 21
-186.945143
 31
0.0
  0
LINE
  5
690
330
6B
100
AcDbEntity
  8
0
  6
ByBlock
 62
     0
370
    -2
100
AcDbLine
 10
1113.459253
 20
-189.445143
 30
0.0
 11
1113.459253
 21
-186.945143
 31
0.0
  0
TEXT
  5
691
330
6B
100
AcDbEntity
  8
0
  6
Continuous
 62
     4
100
AcDbText
 10
1060.198618
 20
-201.649947
 30
0.0
 40
3.0
  1
110
100
AcDbText
  0
LINE
  5
692
330
6B
100
AcDbEntity
  8
0
  6
ByBlock
 62
     0
370
    -2
100
AcDbLine
 10
1098.948618
 20
-201.6050745
 30
0.0
 11
1101.448618
 21
-202.274947
 31
0.0
  0
LINE
  5
693
330
6B
100
AcDbEntity
  8
0
  6
ByBlock
 62
     0
370
    -2
100
AcDbLine
 10
1101.448618
 20
-202.274947
 30
0.0
 11
1098.948618
 21
-202.9448195
 31
0.0
  0
LINE
  5
694
330
6B
100
AcDbEntity
  8
0
  6
ByBlock
 62
     0
370
    -2
100
AcDbLine
 10
1101.448618
 20
-202.274947
 30
0.0
 11
1098.948618
 21
-202.274947
 31
0.0
  0
LINE
  5
695
330
6B
100
AcDbEntity
  8
0
  6
ByBlock
 62
     0
370
    -2
100
AcDbLine
 10
1026.948618
 20
-202.9448195
 30
0.0
 11
1024.448618
 21
-202.274947
 31
0.0
  0
LINE
  5
696
330
6B
100
AcDbEntity
  8
0
  6
ByBlock
 62
     0
370
    -2
100
AcDbLine
 10
1024.448618
 20
-202.274947
 30
0.0
 11
1026.948618
 21
-201.6050745
 31
0.0
  0
LINE
  5
697
330
6B
100
AcDbEntity
  8
0
  6
ByBlock
 62
     0
370
    -2
100
AcDbLine
 10
1024.448618
 20
-202.274947
 30
0.0
 11
1026.948618
 21
-202.274947
 31
0.0
  0
TEXT
  5
698
330
6B
100
AcDbEntity
  8
0
  6
Continuous
 62
     4
100
AcDbText
 10
1176.598618
 20
-197.456043
 30
0.0
 40
3.0
  1
150
100
AcDbText
  0
LINE
  5
699
330
6B
100
AcDbEntity
  8
0
  6
ByBlock
 62
     0
370
    -2
100
AcDbLine
 10
1229.848618
 20
-197.4111705
 30
0.0
 11
1232.348618
 21
-198.081043
 31
0.0
  0
LINE
  5
69A
330
6B
100
AcDbEntity
  8
0
  6
ByBlock
 62
     0
370
    -2
100
AcDbLine
 10
1232.348618
 20
-198.081043
 30
0.0
 11
1229.848618
 21
-198.7509155
 31
0.0
  0
LINE
  5
69B
330
6B
100
AcDbEntity
  8
0
  6
ByBlock
 62
     0
370
    -2
100
AcDbLine
 10
1232.348618
 20
-198.081043
 30
0.0
 11
1229.848618
 21
-198.081043
 31
0.0
  0
LINE
  5
69C
330
6B
100
AcDbEntity
  8
0
  6
ByBlock
 62
     0
370
    -2
100
AcDbLine
 10
1129.848618
 20
-198.7509155
 30
0.0
 11
1127.348618
 21
-198.081043
 31
0.0
  0
LINE
  5
69D
330
6B
100
AcDbEntity
  8
0
  6
ByBlock
 62
     0
370
    -2
100
AcDbLine
 10
1127.348618
 20
-198.081043
 30
0.0
 11
1129.848618
 21
-197.4111705
 31
0.0
  0
LINE
  5
69E
330
6B
100
AcDbEntity
  8
0
  6
ByBlock
 62
     0
370
    -2
100
AcDbLine
 10
1127.348618
 20
-198.081043
 30
0.0
 11
1129.848618
 21
-198.081043
 31
0.0
  0
ENDSEC
  0
SECTION
  2
OBJECTS
  0
DICTIONARY
  5
C
330
0
100
AcDbDictionary
281
     1
  3
ACAD_2007HEADERVARS_RT
350
6A2
  3
ACAD_COLOR
350
62
  3
ACAD_GROUP
350
D
  3
ACAD_LAYOUT
350
61
  3
ACAD_MATERIAL
350
10
  3
ACAD_MLEADERSTYLE
350
65
  3
ACAD_MLINESTYLE
350
5E
  3
ACAD_PLOTSETTINGS
350
60
  3
ACAD_PLOTSTYLENAME
350
E
  3
ACAD_SCALELIST
350
42
  3
ACAD_TABLESTYLE
350
63
  3
ACAD_VISUALSTYLE
350
29
  3
ACDB_RECOMPOSE_DATA
350
6A0
  3
AcDbVariableDictionary
350
5BE
  3
DWGPROPS
350
6A1
  0
DICTIONARY
  5
3EB
330
2
100
AcDbDictionary
280
     1
281
     1
  3
ACAD_LAYERSTATES
360
3EC
  0
DICTIONARY
  5
5BC
330
54
100
AcDbDictionary
280
     1
281
     1
  3
ADSK_XREC_LAYER_RECONCILED
360
5BD
  0
DICTIONARY
  5
66C
330
6B
100
AcDbDictionary
280
     1
281
     1
  3
ACAD_SORTENTS
360
66D
  0
DICTIONARY
  5
6A2
102
{ACAD_REACTORS
330
C
102
}
330
C
100
AcDbDictionary
281
     1
  3
DIMARCSYM
350
6A4
  3
DIMFXL
350
6A3
  3
DIMJOGANG
350
6A5
  0
DICTIONARY
  5
62
102
{ACAD_REACTORS
330
C
102
}
330
C
100
AcDbDictionary
281
     1
  0
DICTIONARY
  5
D
102
{ACAD_REACTORS
330
C
102
}
330
C
100
AcDbDictionary
281
     1
  0
DICTIONARY
  5
61
102
{ACAD_REACTORS
330
C
102
}
330
C
100
AcDbDictionary
281
     1
  3
Model
350
6E
  3
レイアウト1
350
6A
  0
DICTIONARY
  5
10
102
{ACAD_REACTORS
330
C
102
}
330
C
100
AcDbDictionary
281
     1
  3
ByBlock
350
19
  3
ByLayer
350
11
  3
Global
350
21
  0
DICTIONARY
  5
65
102
{ACAD_REACTORS
330
C
102
}
330
C
100
AcDbDictionary
281
     1
  3
Standard
350
66
  0
DICTIONARY
  5
5E
102
{ACAD_REACTORS
330
C
102
}
330
C
100
AcDbDictionary
281
     1
  3
Standard
350
5F
  0
DICTIONARY
  5
60
102
{ACAD_REACTORS
330
C
102
}
330
C
100
AcDbDictionary
281
     1
  0
ACDBDICTIONARYWDFLT
  5
E
102
{ACAD_REACTORS
330
C
102
}
330
C
100
AcDbDictionary
281
     1
  3
Normal
350
F
100
AcDbDictionaryWithDefault
340
F
  0
DICTIONARY
  5
42
102
{ACAD_REACTORS
330
C
102
}
330
C
100
AcDbDictionary
281
     1
  3
A0
350
43
  3
A1
350
44
  3
A2
350
45
  3
A3
350
46
  3
A4
350
47
  3
A5
350
48
  3
A6
350
49
  3
A7
350
4A
  3
A8
350
4B
  3
A9
350
4C
  3
B0
350
4D
  3
B1
350
4E
  3
B2
350
4F
  3
B3
350
50
  3
B4
350
51
  3
B5
350
52
  3
B6
350
53
  0
DICTIONARY
  5
63
102
{ACAD_REACTORS
330
C
102
}
330
C
100
AcDbDictionary
281
     1
  3
Standard
350
64
  0
DICTIONARY
  5
29
102
{ACAD_REACTORS
330
C
102
}
330
C
100
AcDbDictionary
281
     1
  3
2dWireframe
350
2F
  3
3dWireframe
350
3E8
  3
Basic
350
2E
  3
Brighten
350
35
  3
ColorChange
350
39
  3
Conceptual
350
32
  3
Dim
350
34
  3
EdgeColorOff
350
41
  3
Facepattern
350
38
  3
Flat
350
2A
  3
FlatWithEdges
350
2B
  3
Gouraud
350
2C
  3
GouraudWithEdges
350
2D
  3
Hidden
350
31
  3
JitterOff
350
3F
  3
Linepattern
350
37
  3
OverhangOff
350
40
  3
Realistic
350
33
  3
Shaded
350
3E
  3
Shaded with edges
350
3D
  3
Shades of Gray
350
3A
  3
Sketchy
350
3B
  3
Thicken
350
36
  3
Wireframe
350
30
  3
X-Ray
350
3C
  0
XRECORD
  5
6A0
102
{ACAD_REACTORS
330
C
102
}
330
C
100
AcDbXrecord
280
     1
 90
        1
330
64
  0
DICTIONARY
  5
5BE
102
{ACAD_REACTORS
330
C
102
}
330
C
100
AcDbDictionary
281
     1
  3
CANNOSCALE
350
5C1
  3
CMLEADERSTYLE
350
5C0
  3
CTABLESTYLE
350
5BF
  3
DIMASSOC
350
5C4
  3
INDEXCTL
350
5C3
  3
SORTENTS
350
5C2
  3
XCLIPFRAME
350
62B
  0
XRECORD
  5
6A1
102
{ACAD_REACTORS
330
C
102
}
330
C
100
AcDbXrecord
280
     1
  1
DWGPROPS COOKIE
  2

  3

  4

  6

  7

  8
imamura
  9

300
=
301
=
302
=
303
=
304
=
305
=
306
=
307
=
308
=
309
=
 40
0.0165038888888889
 41
2456350.756517095
 42
2456868.850089051
  1

 90
        0
  0
DICTIONARY
  5
3EC
102
{ACAD_REACTORS
330
3EB
102
}
330
3EB
100
AcDbDictionary
281
     1
  0
XRECORD
  5
5BD
102
{ACAD_REACTORS
330
5BC
102
}
330
5BC
100
AcDbXrecord
280
     1
290
     1
  0
SORTENTSTABLE
  5
66D
102
{ACAD_REACTORS
330
66C
102
}
330
66C
100
AcDbSortentsTable
330
6B
331
250
  5
277
331
338
  5
67F
331
160
  5
187
331
261
  5
288
331
272
  5
299
331
171
  5
198
331
422
  5
68C
331
182
  5
1A9
331
283
  5
2AA
331
433
  5
69D
331
193
  5
1BA
331
BB
  5
10B
331
294
  5
2D4
331
2A5
  5
2EA
331
1A4
  5
1CB
331
1E0
  5
207
331
1D7
  5
1FE
331
1C6
  5
1ED
331
1B5
  5
1DC
331
202
  5
229
331
1F1
  5
218
331
F0
  5
12E
331
213
  5
23A
331
112
  5
140
331
C2
  5
10E
331
2E3
  5
316
331
D3
  5
11B
331
2F4
  5
327
331
134
  5
161
331
305
  5
338
331
246
  5
26D
331
327
  5
66E
331
316
  5
426
331
156
  5
17D
331
68E
  5
102
331
235
  5
25C
331
224
  5
24B
331
328
  5
66F
331
251
  5
278
331
339
  5
680
331
161
  5
188
331
262
  5
289
331
273
  5
29A
331
172
  5
199
331
423
  5
68D
331
183
  5
1AA
331
284
  5
2AB
331
434
  5
69E
331
194
  5
1BB
331
295
  5
2D5
331
2A6
  5
2EB
331
1A5
  5
1CC
331
1F2
  5
219
331
1E1
  5
208
331
1C7
  5
1EE
331
1B6
  5
1DD
331
203
  5
22A
331
102
  5
132
331
2D3
  5
309
331
113
  5
147
331
C3
  5
10F
331
214
  5
23B
331
2E4
  5
317
331
225
  5
24C
331
2F5
  5
328
331
236
  5
25D
331
306
  5
339
331
67E
  5
D6
331
317
  5
427
331
157
  5
17E
331
68F
  5
103
331
247
  5
26E
331
135
  5
162
331
D4
  5
11C
331
248
  5
26F
331
329
  5
670
331
318
  5
428
331
158
  5
17F
331
690
  5
104
331
252
  5
279
331
33A
  5
681
331
162
  5
189
331
263
  5
28A
331
274
  5
29B
331
173
  5
19A
331
424
  5
68E
331
184
  5
1AB
331
285
  5
2AC
331
296
  5
2DB
331
195
  5
1BC
331
2A7
  5
2EC
331
1A6
  5
1CD
331
1E2
  5
209
331
1C8
  5
1EF
331
1B7
  5
1DE
331
1F3
  5
21A
331
F2
  5
12F
331
204
  5
22B
331
103
  5
133
331
2D4
  5
30A
331
114
  5
148
331
215
  5
23C
331
2E5
  5
318
331
66E
  5
307
331
226
  5
24D
331
2F6
  5
329
331
237
  5
25E
331
307
  5
33A
331
147
  5
16E
331
67F
  5
D7
331
136
  5
163
331
D5
  5
11D
331
C4
  5
110
331
238
  5
25F
331
308
  5
33B
331
148
  5
16F
331
680
  5
D8
331
249
  5
270
331
32A
  5
671
331
319
  5
429
331
159
  5
180
331
691
  5
F0
331
33B
  5
682
331
163
  5
18A
331
264
  5
28B
331
275
  5
29C
331
174
  5
19B
331
425
  5
68F
331
185
  5
1AC
331
286
  5
2AD
331
297
  5
2DC
331
196
  5
1BD
331
BE
  5
10C
331
253
  5
27A
331
2A8
  5
2ED
331
1A7
  5
1CE
331
1F4
  5
21B
331
1E3
  5
20A
331
1C9
  5
1F0
331
1B8
  5
1DF
331
205
  5
22C
331
2D5
  5
30B
331
115
  5
149
331
C5
  5
111
331
2E6
  5
319
331
D6
  5
11E
331
66F
  5
308
331
2F7
  5
32A
331
137
  5
164
331
227
  5
24E
331
216
  5
23D
331
104
  5
134
331
670
  5
302
331
228
  5
24F
331
2F8
  5
32B
331
138
  5
165
331
239
  5
260
331
309
  5
33C
331
149
  5
170
331
24A
  5
271
331
32B
  5
672
331
31A
  5
42A
331
15A
  5
181
331
692
  5
DC
331
33C
  5
683
331
164
  5
18B
331
265
  5
28C
331
276
  5
29D
331
175
  5
19C
331
426
  5
690
331
186
  5
1AD
331
287
  5
2B3
331
298
  5
2DD
331
197
  5
1BE
331
254
  5
27B
331
2A9
  5
2EE
331
206
  5
22D
331
1F5
  5
21C
331
1E4
  5
20B
331
1CA
  5
1F1
331
1B9
  5
1E0
331
217
  5
23E
331
116
  5
14A
331
2E7
  5
31A
331
D7
  5
11F
331
C6
  5
112
331
1A8
  5
1CF
331
218
  5
23F
331
2E8
  5
31B
331
128
  5
155
331
D8
  5
120
331
671
  5
303
331
229
  5
250
331
2F9
  5
32C
331
139
  5
166
331
23A
  5
261
331
30A
  5
33D
331
14A
  5
171
331
24B
  5
272
331
32C
  5
673
331
31B
  5
42B
331
15B
  5
182
331
693
  5
DD
331
255
  5
27C
331
33D
  5
684
331
266
  5
28D
331
277
  5
29E
331
176
  5
19D
331
427
  5
691
331
187
  5
1AE
331
340
  5
687
331
288
  5
2B4
331
299
  5
2DE
331
198
  5
1BF
331
2AA
  5
2EF
331
2BB
  5
2FA
331
1BA
  5
1E1
331
207
  5
22E
331
1F6
  5
21D
331
1E5
  5
20C
331
117
  5
14B
331
C7
  5
113
331
1CB
  5
1F2
331
1A9
  5
1D0
331
165
  5
18C
331
208
  5
22F
331
219
  5
240
331
118
  5
14C
331
C8
  5
114
331
2E9
  5
31C
331
129
  5
156
331
D9
  5
128
331
672
  5
2FD
331
22A
  5
251
331
2FA
  5
32D
331
13A
  5
167
331
23B
  5
262
331
30B
  5
33E
331
14B
  5
172
331
24C
  5
273
331
32D
  5
674
331
31C
  5
42C
331
15C
  5
183
331
694
  5
DE
331
256
  5
27D
331
33E
  5
685
331
166
  5
18D
331
278
  5
29F
331
177
  5
19E
331
428
  5
692
331
188
  5
1AF
331
341
  5
688
331
289
  5
2B5
331
29A
  5
2DF
331
199
  5
1C0
331
2AB
  5
2F0
331
2BC
  5
2FB
331
1BB
  5
1E2
331
1F7
  5
21E
331
1E6
  5
20D
331
107
  5
135
331
1CC
  5
1F3
331
1AA
  5
1D1
331
267
  5
28E
331
1F8
  5
21F
331
209
  5
230
331
108
  5
136
331
21A
  5
241
331
119
  5
14D
331
C9
  5
115
331
2EA
  5
31D
331
12A
  5
157
331
DA
  5
129
331
673
  5
2FE
331
22B
  5
252
331
2FB
  5
32E
331
13B
  5
168
331
23C
  5
263
331
30C
  5
33F
331
14C
  5
173
331
24D
  5
274
331
32E
  5
675
331
31D
  5
42D
331
15D
  5
184
331
695
  5
D9
331
257
  5
27E
331
33F
  5
686
331
167
  5
18E
331
268
  5
28F
331
279
  5
2A0
331
178
  5
19F
331
429
  5
693
331
189
  5
1B0
331
342
  5
689
331
28A
  5
2BB
331
29B
  5
2E0
331
19A
  5
1C1
331
2AC
  5
2F1
331
2BD
  5
2FC
331
1BC
  5
1E3
331
1E7
  5
20E
331
1CD
  5
1F4
331
1AB
  5
1D2
331
684
  5
BB
331
1E8
  5
20F
331
1F9
  5
220
331
F8
  5
130
331
20A
  5
231
331
109
  5
137
331
21B
  5
242
331
11A
  5
14E
331
CA
  5
116
331
2EB
  5
31E
331
12B
  5
158
331
DB
  5
12A
331
674
  5
2F8
331
22C
  5
253
331
2FC
  5
32F
331
13C
  5
169
331
23D
  5
264
331
30D
  5
340
331
14D
  5
174
331
24E
  5
275
331
32F
  5
676
331
31E
  5
42E
331
15E
  5
185
331
696
  5
DA
331
258
  5
27F
331
269
  5
290
331
168
  5
18F
331
27A
  5
2A1
331
179
  5
1A0
331
42A
  5
694
331
18A
  5
1B1
331
28B
  5
2BC
331
29C
  5
2E1
331
19B
  5
1C2
331
2AD
  5
2F2
331
1AC
  5
1D3
331
1CE
  5
1F5
331
1BD
  5
1E4
331
685
  5
BE
331
1FA
  5
221
331
1E9
  5
210
331
1D8
  5
1FF
331
20B
  5
232
331
10A
  5
138
331
2DB
  5
30E
331
11B
  5
14F
331
CB
  5
117
331
21C
  5
243
331
2EC
  5
31F
331
12C
  5
159
331
DC
  5
12B
331
675
  5
2F9
331
22D
  5
254
331
2FD
  5
330
331
13D
  5
16A
331
23E
  5
265
331
30E
  5
341
331
14E
  5
175
331
24F
  5
276
331
330
  5
677
331
31F
  5
42F
331
15F
  5
186
331
697
  5
DB
331
259
  5
280
331
26A
  5
291
331
169
  5
190
331
27B
  5
2A2
331
17A
  5
1A1
331
42B
  5
695
331
18B
  5
1B2
331
28C
  5
2BD
331
29D
  5
2E2
331
19C
  5
1C3
331
1CF
  5
1F6
331
1BE
  5
1E5
331
1AD
  5
1D4
331
686
  5
C0
331
1FB
  5
222
331
1EA
  5
211
331
1D9
  5
200
331
1D0
  5
1F7
331
2CB
  5
304
331
10B
  5
139
331
20C
  5
233
331
2DC
  5
30F
331
11C
  5
150
331
CC
  5
118
331
21D
  5
244
331
2ED
  5
320
331
12D
  5
15A
331
DD
  5
12C
331
676
  5
2F3
331
22E
  5
255
331
2FE
  5
331
331
13E
  5
16B
331
23F
  5
266
331
30F
  5
342
331
14F
  5
176
331
331
  5
678
331
320
  5
430
331
698
  5
D5
331
25A
  5
281
331
26B
  5
292
331
27C
  5
2A3
331
17B
  5
1A2
331
16A
  5
191
331
42C
  5
696
331
18C
  5
1B3
331
28D
  5
2C3
331
29E
  5
2E3
331
19D
  5
1C4
331
1BF
  5
1E6
331
1AE
  5
1D5
331
1FC
  5
223
331
1EB
  5
212
331
1DA
  5
201
331
1D1
  5
1F8
331
1C0
  5
1E7
331
2CC
  5
305
331
10C
  5
13A
331
20D
  5
234
331
2DD
  5
310
331
11D
  5
151
331
CD
  5
119
331
21E
  5
245
331
2EE
  5
321
331
12E
  5
15B
331
DE
  5
12D
331
677
  5
2F4
331
22F
  5
256
331
2FF
  5
332
331
13F
  5
16C
331
240
  5
267
331
310
  5
420
331
150
  5
177
331
332
  5
679
331
321
  5
431
331
25B
  5
282
331
26C
  5
293
331
16B
  5
192
331
27D
  5
2A4
331
17C
  5
1A3
331
42D
  5
697
331
18D
  5
1B4
331
28E
  5
2C4
331
29F
  5
2E4
331
19E
  5
1C5
331
1AF
  5
1D6
331
699
  5
CB
331
2A0
  5
2E5
331
1FD
  5
224
331
1EC
  5
213
331
1DB
  5
202
331
1D2
  5
1F9
331
1C1
  5
1E8
331
1B0
  5
1D7
331
2CD
  5
306
331
10D
  5
13B
331
20E
  5
235
331
2DE
  5
311
331
11E
  5
152
331
21F
  5
246
331
2EF
  5
322
331
12F
  5
15C
331
230
  5
257
331
300
  5
333
331
140
  5
16D
331
678
  5
F2
331
241
  5
268
331
311
  5
421
331
151
  5
178
331
333
  5
67A
331
322
  5
432
331
69A
  5
CC
331
26D
  5
294
331
16C
  5
193
331
27E
  5
2A5
331
17D
  5
1A4
331
42E
  5
698
331
18E
  5
1B5
331
28F
  5
2C5
331
19F
  5
1C6
331
25C
  5
283
331
290
  5
2CB
331
2A1
  5
2E6
331
1A0
  5
1C7
331
2C3
  5
2FF
331
1C2
  5
1E9
331
1B1
  5
1D8
331
1FE
  5
225
331
1ED
  5
214
331
1DC
  5
203
331
1D3
  5
1FA
331
20F
  5
236
331
10E
  5
13C
331
2DF
  5
312
331
11F
  5
153
331
220
  5
247
331
2F0
  5
323
331
130
  5
15D
331
231
  5
258
331
301
  5
334
331
679
  5
F8
331
242
  5
269
331
312
  5
422
331
152
  5
179
331
68A
  5
10A
331
334
  5
67B
331
323
  5
433
331
69B
  5
CD
331
26E
  5
295
331
16D
  5
194
331
27F
  5
2A6
331
17E
  5
1A5
331
25D
  5
284
331
42F
  5
699
331
18F
  5
1B6
331
280
  5
2A7
331
430
  5
69A
331
190
  5
1B7
331
291
  5
2CC
331
2A2
  5
2E7
331
1A1
  5
1C8
331
2B3
  5
2F5
331
1B2
  5
1D9
331
2C4
  5
300
331
1C3
  5
1EA
331
1EE
  5
215
331
1DD
  5
204
331
1D4
  5
1FB
331
1FF
  5
226
331
FE
  5
131
331
210
  5
237
331
10F
  5
13D
331
2E0
  5
313
331
120
  5
154
331
2F1
  5
324
331
131
  5
15E
331
232
  5
259
331
302
  5
335
331
67A
  5
FE
331
243
  5
26A
331
313
  5
423
331
153
  5
17A
331
335
  5
67C
331
324
  5
434
331
25E
  5
285
331
69C
  5
C5
331
26F
  5
296
331
17F
  5
1A6
331
16E
  5
195
331
68B
  5
107
331
221
  5
248
331
270
  5
297
331
420
  5
68A
331
180
  5
1A7
331
281
  5
2A8
331
431
  5
69B
331
191
  5
1B8
331
292
  5
2CD
331
2A3
  5
2E8
331
1A2
  5
1C9
331
2B4
  5
2F6
331
1B3
  5
1DA
331
2C5
  5
301
331
1C4
  5
1EB
331
200
  5
227
331
1EF
  5
216
331
1DE
  5
205
331
1D5
  5
1FC
331
2E1
  5
314
331
211
  5
238
331
110
  5
13E
331
C0
  5
10D
331
66A
  5
30C
331
222
  5
249
331
2F2
  5
325
331
132
  5
15F
331
303
  5
336
331
233
  5
25A
331
314
  5
424
331
154
  5
17B
331
68C
  5
108
331
336
  5
67D
331
325
  5
66A
331
25F
  5
286
331
69D
  5
C6
331
16F
  5
196
331
244
  5
26B
331
260
  5
287
331
271
  5
298
331
170
  5
197
331
421
  5
68B
331
181
  5
1A8
331
282
  5
2A9
331
432
  5
69C
331
192
  5
1B9
331
293
  5
2D3
331
2A4
  5
2E9
331
1A3
  5
1CA
331
2B5
  5
2F7
331
1B4
  5
1DB
331
201
  5
228
331
1F0
  5
217
331
1DF
  5
206
331
1D6
  5
1FD
331
1C5
  5
1EC
331
212
  5
239
331
111
  5
13F
331
2E2
  5
315
331
D2
  5
11A
331
66B
  5
30D
331
223
  5
24A
331
2F3
  5
326
331
133
  5
160
331
304
  5
337
331
245
  5
26C
331
234
  5
25B
331
315
  5
425
331
155
  5
17C
331
337
  5
67E
331
326
  5
66B
331
69E
  5
C7
331
68D
  5
109
  0
XRECORD
  5
6A4
102
{ACAD_REACTORS
330
6A2
102
}
330
6A2
100
AcDbXrecord
280
     1
 70
     2
  0
XRECORD
  5
6A3
102
{ACAD_REACTORS
330
6A2
102
}
330
6A2
100
AcDbXrecord
280
     1
 40
1.25
  0
XRECORD
  5
6A5
102
{ACAD_REACTORS
330
6A2
102
}
330
6A2
100
AcDbXrecord
280
     1
 40
1.570796326794896
  0
LAYOUT
  5
6E
102
{ACAD_XDICTIONARY
360
6D9
102
}
102
{ACAD_REACTORS
330
61
102
}
330
61
100
AcDbPlotSettings
  1

  2
FX DP 205
  4

  6

 40
0.0
 41
0.0
 42
0.0
 43
0.0
 44
0.0
 45
0.0
 46
0.0
 47
0.0
 48
0.0
 49
0.0
140
0.0
141
0.0
142
1.0
143
1.0
 70
  1712
 72
     0
 73
     0
 74
     0
  7

 75
     0
147
1.0
148
0.0
149
0.0
100
AcDbLayout
  1
Model
 70
     1
 71
     0
 10
0.0
 20
0.0
 11
12.0
 21
9.0
 12
0.0
 22
0.0
 32
0.0
 14
0.0
 24
0.0
 34
0.0
 15
0.0
 25
0.0
 35
0.0
146
0.0
 13
0.0
 23
0.0
 33
0.0
 16
1.0
 26
0.0
 36
0.0
 17
0.0
 27
1.0
 37
0.0
 76
     0
330
6B
331
8B
  0
LAYOUT
  5
6A
102
{ACAD_XDICTIONARY
360
6D7
102
}
102
{ACAD_REACTORS
330
61
102
}
330
61
100
AcDbPlotSettings
  1

  2
FX DP 205
  4

  6

 40
0.0
 41
0.0
 42
0.0
 43
0.0
 44
0.0
 45
0.0
 46
0.0
 47
0.0
 48
0.0
 49
0.0
140
0.0
141
0.0
142
1.0
143
1.0
 70
   688
 72
     0
 73
     0
 74
     5
  7

 75
    16
147
1.0
148
0.0
149
0.0
100
AcDbLayout
  1
レイアウト1
 70
     1
 71
     1
 10
0.0
 20
0.0
 11
12.0
 21
9.0
 12
0.0
 22
0.0
 32
0.0
 14
1.000000000000000E+20
 24
1.000000000000000E+20
 34
1.000000000000000E+20
 15
-1.000000000000000E+20
 25
-1.000000000000000E+20
 35
-1.000000000000000E+20
146
0.0
 13
0.0
 23
0.0
 33
0.0
 16
1.0
 26
0.0
 36
0.0
 17
0.0
 27
1.0
 37
0.0
 76
     0
330
67
  0
MATERIAL
  5
19
102
{ACAD_XDICTIONARY
360
1A
102
}
102
{ACAD_REACTORS
330
10
102
}
330
10
100
AcDbMaterial
  1
ByBlock
 72
     0
 43
0.0208333333333333
 43
0.0
 43
0.0
 43
0.0
 43
0.0
 43
0.0208333333333333
 43
0.0
 43
0.0
 43
0.0
 43
0.0
 43
1.0
 43
0.0
 43
0.0
 43
0.0
 43
0.0
 43
1.0
 77
     0
 47
0.0208333333333333
 47
0.0
 47
0.0
 47
0.0
 47
0.0
 47
0.0208333333333333
 47
0.0
 47
0.0
 47
0.0
 47
0.0
 47
1.0
 47
0.0
 47
0.0
 47
0.0
 47
0.0
 47
1.0
171
     0
 49
0.0208333333333333
 49
0.0
 49
0.0
 49
0.0
 49
0.0
 49
0.0208333333333333
 49
0.0
 49
0.0
 49
0.0
 49
0.0
 49
1.0
 49
0.0
 49
0.0
 49
0.0
 49
0.0
 49
1.0
175
     0
142
0.0208333333333333
142
0.0
142
0.0
142
0.0
142
0.0
142
0.0208333333333333
142
0.0
142
0.0
142
0.0
142
0.0
142
1.0
142
0.0
142
0.0
142
0.0
142
0.0
142
1.0
179
     0
144
0.0208333333333333
144
0.0
144
0.0
144
0.0
144
0.0
144
0.0208333333333333
144
0.0
144
0.0
144
0.0
144
0.0
144
1.0
144
0.0
144
0.0
144
0.0
144
0.0
144
1.0
147
0.0208333333333333
147
0.0
147
0.0
147
0.0
147
0.0
147
0.0208333333333333
147
0.0
147
0.0
147
0.0
147
0.0
147
1.0
147
0.0
147
0.0
147
0.0
147
0.0
147
1.0
  0
MATERIAL
  5
11
102
{ACAD_XDICTIONARY
360
12
102
}
102
{ACAD_REACTORS
330
10
102
}
330
10
100
AcDbMaterial
  1
ByLayer
 72
     0
 43
0.0208333333333333
 43
0.0
 43
0.0
 43
0.0
 43
0.0
 43
0.0208333333333333
 43
0.0
 43
0.0
 43
0.0
 43
0.0
 43
1.0
 43
0.0
 43
0.0
 43
0.0
 43
0.0
 43
1.0
 77
     0
 47
0.0208333333333333
 47
0.0
 47
0.0
 47
0.0
 47
0.0
 47
0.0208333333333333
 47
0.0
 47
0.0
 47
0.0
 47
0.0
 47
1.0
 47
0.0
 47
0.0
 47
0.0
 47
0.0
 47
1.0
171
     0
 49
0.0208333333333333
 49
0.0
 49
0.0
 49
0.0
 49
0.0
 49
0.0208333333333333
 49
0.0
 49
0.0
 49
0.0
 49
0.0
 49
1.0
 49
0.0
 49
0.0
 49
0.0
 49
0.0
 49
1.0
175
     0
142
0.0208333333333333
142
0.0
142
0.0
142
0.0
142
0.0
142
0.0208333333333333
142
0.0
142
0.0
142
0.0
142
0.0
142
1.0
142
0.0
142
0.0
142
0.0
142
0.0
142
1.0
179
     0
144
0.0208333333333333
144
0.0
144
0.0
144
0.0
144
0.0
144
0.0208333333333333
144
0.0
144
0.0
144
0.0
144
0.0
144
1.0
144
0.0
144
0.0
144
0.0
144
0.0
144
1.0
147
0.0208333333333333
147
0.0
147
0.0
147
0.0
147
0.0
147
0.0208333333333333
147
0.0
147
0.0
147
0.0
147
0.0
147
1.0
147
0.0
147
0.0
147
0.0
147
0.0
147
1.0
  0
MATERIAL
  5
21
102
{ACAD_XDICTIONARY
360
22
102
}
102
{ACAD_REACTORS
330
10
102
}
330
10
100
AcDbMaterial
  1
Global
 72
     0
 43
0.0208333333333333
 43
0.0
 43
0.0
 43
0.0
 43
0.0
 43
0.0208333333333333
 43
0.0
 43
0.0
 43
0.0
 43
0.0
 43
1.0
 43
0.0
 43
0.0
 43
0.0
 43
0.0
 43
1.0
 77
     0
 47
0.0208333333333333
 47
0.0
 47
0.0
 47
0.0
 47
0.0
 47
0.0208333333333333
 47
0.0
 47
0.0
 47
0.0
 47
0.0
 47
1.0
 47
0.0
 47
0.0
 47
0.0
 47
0.0
 47
1.0
171
     0
 49
0.0208333333333333
 49
0.0
 49
0.0
 49
0.0
 49
0.0
 49
0.0208333333333333
 49
0.0
 49
0.0
 49
0.0
 49
0.0
 49
1.0
 49
0.0
 49
0.0
 49
0.0
 49
0.0
 49
1.0
175
     0
142
0.0208333333333333
142
0.0
142
0.0
142
0.0
142
0.0
142
0.0208333333333333
142
0.0
142
0.0
142
0.0
142
0.0
142
1.0
142
0.0
142
0.0
142
0.0
142
0.0
142
1.0
179
     0
144
0.0208333333333333
144
0.0
144
0.0
144
0.0
144
0.0
144
0.0208333333333333
144
0.0
144
0.0
144
0.0
144
0.0
144
1.0
144
0.0
144
0.0
144
0.0
144
0.0
144
1.0
147
0.0208333333333333
147
0.0
147
0.0
147
0.0
147
0.0
147
0.0208333333333333
147
0.0
147
0.0
147
0.0
147
0.0
147
1.0
147
0.0
147
0.0
147
0.0
147
0.0
147
1.0
  0
MLEADERSTYLE
  5
66
102
{ACAD_REACTORS
330
65
102
}
330
65
100
AcDbMLeaderStyle
170
     2
171
     1
172
     0
 90
        2
 40
0.0
 41
0.0
173
     1
 91
-1056964608
340
5A
 92
       -2
290
     1
 42
0.09
291
     1
 43
0.36
  3
Standard
 44
0.18
300

342
55
174
     1
178
     6
175
     1
176
     0
 93
-1056964608
 45
0.18
292
     0
297
     0
 46
0.18
 94
-1056964608
 47
1.0
 49
1.0
140
1.0
293
     1
141
0.0
294
     1
177
     0
142
1.0
295
     0
296
     0
143
0.125
1001
ACAD_MLEADERVER
1070
     2
  0
MLINESTYLE
  5
5F
102
{ACAD_REACTORS
330
5E
102
}
330
5E
100
AcDbMlineStyle
  2
STANDARD
 70
     0
  3

 62
   256
 51
90.0
 52
90.0
 71
     2
 49
0.5
 62
   256
  6
BYLAYER
 49
-0.5
 62
   256
  6
BYLAYER
  0
ACDBPLACEHOLDER
  5
F
102
{ACAD_REACTORS
330
E
102
}
330
E
  0
SCALE
  5
43
102
{ACAD_REACTORS
330
42
102
}
330
42
100
AcDbScale
 70
     0
300
1:1
140
1.0
141
1.0
290
     1
  0
SCALE
  5
44
102
{ACAD_REACTORS
330
42
102
}
330
42
100
AcDbScale
 70
     0
300
1/128" = 1'-0"
140
0.0078125
141
12.0
290
     0
  0
SCALE
  5
45
102
{ACAD_REACTORS
330
42
102
}
330
42
100
AcDbScale
 70
     0
300
1/64" = 1'-0"
140
0.015625
141
12.0
290
     0
  0
SCALE
  5
46
102
{ACAD_REACTORS
330
42
102
}
330
42
100
AcDbScale
 70
     0
300
1/32" = 1'-0"
140
0.03125
141
12.0
290
     0
  0
SCALE
  5
47
102
{ACAD_REACTORS
330
42
102
}
330
42
100
AcDbScale
 70
     0
300
1/16" = 1'-0"
140
0.0625
141
12.0
290
     0
  0
SCALE
  5
48
102
{ACAD_REACTORS
330
42
102
}
330
42
100
AcDbScale
 70
     0
300
3/32" = 1'-0"
140
0.09375
141
12.0
290
     0
  0
SCALE
  5
49
102
{ACAD_REACTORS
330
42
102
}
330
42
100
AcDbScale
 70
     0
300
1/8" = 1'-0"
140
0.125
141
12.0
290
     0
  0
SCALE
  5
4A
102
{ACAD_REACTORS
330
42
102
}
330
42
100
AcDbScale
 70
     0
300
3/16" = 1'-0"
140
0.1875
141
12.0
290
     0
  0
SCALE
  5
4B
102
{ACAD_REACTORS
330
42
102
}
330
42
100
AcDbScale
 70
     0
300
1/4" = 1'-0"
140
0.25
141
12.0
290
     0
  0
SCALE
  5
4C
102
{ACAD_REACTORS
330
42
102
}
330
42
100
AcDbScale
 70
     0
300
3/8" = 1'-0"
140
0.375
141
12.0
290
     0
  0
SCALE
  5
4D
102
{ACAD_REACTORS
330
42
102
}
330
42
100
AcDbScale
 70
     0
300
1/2" = 1'-0"
140
0.5
141
12.0
290
     0
  0
SCALE
  5
4E
102
{ACAD_REACTORS
330
42
102
}
330
42
100
AcDbScale
 70
     0
300
3/4" = 1'-0"
140
0.75
141
12.0
290
     0
  0
SCALE
  5
4F
102
{ACAD_REACTORS
330
42
102
}
330
42
100
AcDbScale
 70
     0
300
1" = 1'-0"
140
1.0
141
12.0
290
     0
  0
SCALE
  5
50
102
{ACAD_REACTORS
330
42
102
}
330
42
100
AcDbScale
 70
     0
300
1-1/2" = 1'-0"
140
1.5
141
12.0
290
     0
  0
SCALE
  5
51
102
{ACAD_REACTORS
330
42
102
}
330
42
100
AcDbScale
 70
     0
300
3" = 1'-0"
140
3.0
141
12.0
290
     0
  0
SCALE
  5
52
102
{ACAD_REACTORS
330
42
102
}
330
42
100
AcDbScale
 70
     0
300
6" = 1'-0"
140
6.0
141
12.0
290
     0
  0
SCALE
  5
53
102
{ACAD_REACTORS
330
42
102
}
330
42
100
AcDbScale
 70
     0
300
1'-0" = 1'-0"
140
12.0
141
12.0
290
     0
  0
TABLESTYLE
  5
64
102
{ACAD_XDICTIONARY
360
5C6
102
}
102
{ACAD_REACTORS
330
63
102
}
330
63
100
AcDbTableStyle
  3
Standard
 70
     0
 71
     0
 40
0.06
 41
0.06
280
     0
281
     0
  7
STANDARD
140
0.18
170
     2
 62
     0
 63
     7
283
     0
274
    -2
284
     1
 64
     0
275
    -2
285
     1
 65
     0
276
    -2
286
     1
 66
     0
277
    -2
287
     1
 67
     0
278
    -2
288
     1
 68
     0
279
    -2
289
     1
 69
     0
  7
STANDARD
140
0.25
170
     5
 62
     0
 63
     7
283
     0
274
    -2
284
     1
 64
     0
275
    -2
285
     1
 65
     0
276
    -2
286
     1
 66
     0
277
    -2
287
     1
 67
     0
278
    -2
288
     1
 68
     0
279
    -2
289
     1
 69
     0
  7
STANDARD
140
0.18
170
     5
 62
     0
 63
     7
283
     0
274
    -2
284
     1
 64
     0
275
    -2
285
     1
 65
     0
276
    -2
286
     1
 66
     0
277
    -2
287
     1
 67
     0
278
    -2
288
     1
 68
     0
279
    -2
289
     1
 69
     0
  0
VISUALSTYLE
  5
2F
102
{ACAD_XDICTIONARY
360
6B0
102
}
102
{ACAD_REACTORS
330
29
102
}
330
29
100
AcDbVisualStyle
  2

 70
     4
 71
     0
 72
     2
 73
     0
 90
        0
 40
-0.6
 41
-30.0
 62
     5
 63
     7
 74
     1
 91
        4
 64
     7
 65
   257
 75
     1
175
     1
 42
1.0
 92
        0
 66
   257
 43
1.0
 76
     1
 77
     6
 78
     2
 67
     7
 79
     5
170
     0
171
     0
290
     0
174
     0
 93
        1
 44
0.0
173
     0
291
     0
 45
0.0
1001
ACAD
1000
AcDbSavedByObjectVersion
1070
     0
  0
VISUALSTYLE
  5
3E8
102
{ACAD_XDICTIONARY
360
6DB
102
}
102
{ACAD_REACTORS
330
29
102
}
330
29
100
AcDbVisualStyle
  2

 70
     5
 71
     0
 72
     2
 73
     1
 90
        0
 40
-0.6
 41
-30.0
 62
     5
 63
     7
 74
     1
 91
        4
 64
     7
 65
   257
 75
     1
175
     1
 42
1.0
 92
        0
 66
   257
 43
1.0
 76
     1
 77
     6
 78
     2
 67
     7
 79
     5
170
     0
171
     0
290
     0
174
     0
 93
        1
 44
0.0
173
     0
291
     0
 45
0.0
1001
ACAD
1000
AcDbSavedByObjectVersion
1070
     0
  0
VISUALSTYLE
  5
2E
102
{ACAD_XDICTIONARY
360
6AE
102
}
102
{ACAD_REACTORS
330
29
102
}
330
29
100
AcDbVisualStyle
  2

 70
     7
 71
     1
 72
     0
 73
     1
 90
        0
 40
-0.6
 41
-30.0
 62
     5
 63
     7
 74
     0
 91
        4
 64
     7
 65
   257
 75
     1
175
     1
 42
1.0
 92
        8
 66
     7
 43
1.0
 76
     1
 77
     6
 78
     2
 67
     7
 79
     5
170
     0
171
     0
290
     0
174
     0
 93
        1
 44
0.0
173
     0
291
     1
 45
0.0
1001
ACAD
1000
AcDbSavedByObjectVersion
1070
     0
  0
VISUALSTYLE
  5
35
102
{ACAD_XDICTIONARY
360
6BC
102
}
102
{ACAD_REACTORS
330
29
102
}
330
29
100
AcDbVisualStyle
  2

 70
    12
 71
     2
 72
     2
 73
     0
 90
        0
 40
-0.6
 41
-30.0
 62
     5
 63
     7
 74
     1
 91
        4
 64
     7
 65
   257
 75
     1
175
     1
 42
1.0
 92
        8
 66
     7
 43
1.0
 76
     1
 77
     6
 78
     2
 67
     7
 79
     5
170
     0
171
     0
290
     0
174
     0
 93
        1
 44
50.0
173
     0
291
     1
 45
0.0
1001
ACAD
1000
AcDbSavedByObjectVersion
1070
     0
  0
VISUALSTYLE
  5
39
102
{ACAD_XDICTIONARY
360
6C4
102
}
102
{ACAD_REACTORS
330
29
102
}
330
29
100
AcDbVisualStyle
  2

 70
    16
 71
     2
 72
     2
 73
     3
 90
        0
 40
-0.6
 41
-30.0
 62
     5
 63
     8
 74
     1
 91
        4
 64
     7
 65
   257
 75
     1
175
     1
 42
1.0
 92
        8
 66
     8
 43
1.0
 76
     1
 77
     6
 78
     2
 67
     7
 79
     5
170
     0
171
     0
290
     0
174
     0
 93
        1
 44
0.0
173
     0
291
     1
 45
0.0
1001
ACAD
1000
AcDbSavedByObjectVersion
1070
     0
  0
VISUALSTYLE
  5
32
102
{ACAD_XDICTIONARY
360
6B6
102
}
102
{ACAD_REACTORS
330
29
102
}
330
29
100
AcDbVisualStyle
  2

 70
     9
 71
     3
 72
     2
 73
     0
 90
        0
 40
-0.6
 41
-30.0
 62
     5
 63
     7
 74
     2
 91
        2
 64
     7
 65
   257
 75
     1
175
     1
 42
179.0
 92
        8
 66
     7
 43
1.0
 76
     1
 77
     6
 78
     2
 67
     7
 79
     3
170
     0
171
     0
290
     0
174
     0
 93
        1
 44
0.0
173
     0
291
     0
 45
0.0
1001
ACAD
1000
AcDbSavedByObjectVersion
1070
     0
  0
VISUALSTYLE
  5
34
102
{ACAD_XDICTIONARY
360
6BA
102
}
102
{ACAD_REACTORS
330
29
102
}
330
29
100
AcDbVisualStyle
  2

 70
    11
 71
     2
 72
     2
 73
     0
 90
        0
 40
-0.6
 41
-30.0
 62
     5
 63
     7
 74
     1
 91
        4
 64
     7
 65
   257
 75
     1
175
     1
 42
1.0
 92
        8
 66
     7
 43
1.0
 76
     1
 77
     6
 78
     2
 67
     7
 79
     5
170
     0
171
     0
290
     0
174
     0
 93
        1
 44
-50.0
173
     0
291
     1
 45
0.0
1001
ACAD
1000
AcDbSavedByObjectVersion
1070
     0
  0
VISUALSTYLE
  5
41
102
{ACAD_XDICTIONARY
360
6D4
102
}
102
{ACAD_REACTORS
330
29
102
}
330
29
100
AcDbVisualStyle
  2

 70
    22
 71
     2
 72
     2
 73
     0
 90
        0
 40
-0.6
 41
-30.0
 62
     5
 63
     7
 74
     1
 91
        4
 64
     7
 65
   257
 75
     1
175
     1
 42
1.0
 92
        8
 66
     7
 43
1.0
 76
     1
 77
     6
 78
     2
 67
     7
 79
     5
170
     0
171
     0
290
     0
174
     0
 93
        1
 44
0.0
173
     0
291
     1
 45
0.0
1001
ACAD
1000
AcDbSavedByObjectVersion
1070
     0
  0
VISUALSTYLE
  5
38
102
{ACAD_XDICTIONARY
360
6C2
102
}
102
{ACAD_REACTORS
330
29
102
}
330
29
100
AcDbVisualStyle
  2

 70
    15
 71
     2
 72
     2
 73
     0
 90
        0
 40
-0.6
 41
-30.0
 62
     5
 63
     7
 74
     1
 91
        4
 64
     7
 65
   257
 75
     1
175
     1
 42
1.0
 92
        8
 66
     7
 43
1.0
 76
     1
 77
     6
 78
     2
 67
     7
 79
     5
170
     0
171
     0
290
     0
174
     0
 93
        1
 44
0.0
173
     0
291
     1
 45
0.0
1001
ACAD
1000
AcDbSavedByObjectVersion
1070
     0
  0
VISUALSTYLE
  5
2A
102
{ACAD_XDICTIONARY
360
6A6
102
}
102
{ACAD_REACTORS
330
29
102
}
330
29
100
AcDbVisualStyle
  2

 70
     0
 71
     2
 72
     1
 73
     1
 90
        2
 40
-0.6
 41
30.0
 62
     5
 63
     7
 74
     0
 91
        0
 64
     7
 65
   257
 75
     1
175
     1
 42
1.0
 92
        8
 66
     7
 43
1.0
 76
     1
 77
     6
 78
     2
 67
     7
 79
     5
170
     0
171
     0
290
     0
174
     0
 93
       13
 44
0.0
173
     0
291
     1
 45
0.0
1001
ACAD
1000
AcDbSavedByObjectVersion
1070
     0
  0
VISUALSTYLE
  5
2B
102
{ACAD_XDICTIONARY
360
6A8
102
}
102
{ACAD_REACTORS
330
29
102
}
330
29
100
AcDbVisualStyle
  2

 70
     1
 71
     2
 72
     1
 73
     1
 90
        2
 40
-0.6
 41
30.0
 62
     5
 63
     7
 74
     1
 91
        0
 64
     7
 65
   257
 75
     1
175
     1
 42
1.0
 92
        0
 66
   257
 43
1.0
 76
     1
 77
     6
 78
     2
 67
     7
 79
     5
170
     0
171
     0
290
     0
174
     0
 93
       13
 44
0.0
173
     0
291
     1
 45
0.0
1001
ACAD
1000
AcDbSavedByObjectVersion
1070
     0
  0
VISUALSTYLE
  5
2C
102
{ACAD_XDICTIONARY
360
6AA
102
}
102
{ACAD_REACTORS
330
29
102
}
330
29
100
AcDbVisualStyle
  2

 70
     2
 71
     2
 72
     2
 73
     1
 90
        2
 40
-0.6
 41
30.0
 62
     5
 63
     7
 74
     0
 91
        0
 64
     7
 65
   257
 75
     1
175
     1
 42
1.0
 92
        0
 66
     7
 43
1.0
 76
     1
 77
     6
 78
     2
 67
     7
 79
     5
170
     0
171
     0
290
     0
174
     0
 93
       13
 44
0.0
173
     0
291
     1
 45
0.0
1001
ACAD
1000
AcDbSavedByObjectVersion
1070
     0
  0
VISUALSTYLE
  5
2D
102
{ACAD_XDICTIONARY
360
6AC
102
}
102
{ACAD_REACTORS
330
29
102
}
330
29
100
AcDbVisualStyle
  2

 70
     3
 71
     2
 72
     2
 73
     1
 90
        2
 40
-0.6
 41
30.0
 62
     5
 63
     7
 74
     1
 91
        0
 64
     7
 65
   257
 75
     1
175
     1
 42
1.0
 92
        0
 66
   257
 43
1.0
 76
     1
 77
     6
 78
     2
 67
     7
 79
     5
170
     0
171
     0
290
     0
174
     0
 93
       13
 44
0.0
173
     0
291
     1
 45
0.0
1001
ACAD
1000
AcDbSavedByObjectVersion
1070
     0
  0
VISUALSTYLE
  5
31
102
{ACAD_XDICTIONARY
360
6B4
102
}
102
{ACAD_REACTORS
330
29
102
}
330
29
100
AcDbVisualStyle
  2

 70
     6
 71
     1
 72
     2
 73
     2
 90
        0
 40
-0.6
 41
-30.0
 62
     5
 63
     7
 74
     2
 91
        2
 64
     7
 65
   257
 75
     2
175
     1
 42
40.0
 92
        0
 66
   257
 43
1.0
 76
     1
 77
     6
 78
     2
 67
     7
 79
     3
170
     0
171
     0
290
     0
174
     0
 93
        1
 44
0.0
173
     0
291
     0
 45
0.0
1001
ACAD
1000
AcDbSavedByObjectVersion
1070
     0
  0
VISUALSTYLE
  5
3F
102
{ACAD_XDICTIONARY
360
6D0
102
}
102
{ACAD_REACTORS
330
29
102
}
330
29
100
AcDbVisualStyle
  2

 70
    20
 71
     2
 72
     2
 73
     0
 90
        0
 40
-0.6
 41
-30.0
 62
     5
 63
     7
 74
     1
 91
        4
 64
     7
 65
   257
 75
     1
175
     1
 42
1.0
 92
       10
 66
     7
 43
1.0
 76
     1
 77
     6
 78
     2
 67
     7
 79
     5
170
     0
171
     0
290
     0
174
     0
 93
        1
 44
0.0
173
     0
291
     1
 45
0.0
1001
ACAD
1000
AcDbSavedByObjectVersion
1070
     0
  0
VISUALSTYLE
  5
37
102
{ACAD_XDICTIONARY
360
6C0
102
}
102
{ACAD_REACTORS
330
29
102
}
330
29
100
AcDbVisualStyle
  2

 70
    14
 71
     2
 72
     2
 73
     0
 90
        0
 40
-0.6
 41
-30.0
 62
     5
 63
     7
 74
     1
 91
        4
 64
     7
 65
   257
 75
     7
175
     7
 42
1.0
 92
        8
 66
     7
 43
1.0
 76
     1
 77
     6
 78
     2
 67
     7
 79
     5
170
     0
171
     0
290
     0
174
     0
 93
        1
 44
0.0
173
     0
291
     1
 45
0.0
1001
ACAD
1000
AcDbSavedByObjectVersion
1070
     0
  0
VISUALSTYLE
  5
40
102
{ACAD_XDICTIONARY
360
6D2
102
}
102
{ACAD_REACTORS
330
29
102
}
330
29
100
AcDbVisualStyle
  2

 70
    21
 71
     2
 72
     2
 73
     0
 90
        0
 40
-0.6
 41
-30.0
 62
     5
 63
     7
 74
     1
 91
        4
 64
     7
 65
   257
 75
     1
175
     1
 42
1.0
 92
        9
 66
     7
 43
1.0
 76
     1
 77
     6
 78
     2
 67
     7
 79
     5
170
     0
171
     0
290
     0
174
     0
 93
        1
 44
0.0
173
     0
291
     1
 45
0.0
1001
ACAD
1000
AcDbSavedByObjectVersion
1070
     0
  0
VISUALSTYLE
  5
33
102
{ACAD_XDICTIONARY
360
6B8
102
}
102
{ACAD_REACTORS
330
29
102
}
330
29
100
AcDbVisualStyle
  2

 70
     8
 71
     2
 72
     3
 73
     0
 90
        2
 40
-0.6
 41
30.0
 62
     5
 63
     7
 74
     0
 91
        0
 64
     7
 65
   257
 75
     1
175
     1
 42
1.0
 92
        8
 66
   257
 43
1.0
 76
     1
 77
     6
 78
     2
 67
     7
 79
     3
170
     0
171
     0
290
     0
174
     0
 93
       13
 44
0.0
173
     0
291
     0
 45
0.0
1001
ACAD
1000
AcDbSavedByObjectVersion
1070
     0
  0
VISUALSTYLE
  5
3E
102
{ACAD_XDICTIONARY
360
6CE
102
}
102
{ACAD_REACTORS
330
29
102
}
330
29
100
AcDbVisualStyle
  2

 70
    27
 71
     2
 72
     2
 73
     1
 90
        2
 40
-0.6
 41
30.0
 62
     5
 63
     7
 74
     0
 91
        4
 64
     7
 65
   257
 75
     1
175
     1
 42
1.0
 92
        8
 66
   257
 43
1.0
 76
     1
 77
     6
 78
     2
 67
     8
 79
     3
170
     0
171
     0
290
     0
174
     0
 93
        5
 44
0.0
173
     0
291
     0
 45
0.0
1001
ACAD
1000
AcDbSavedByObjectVersion
1070
     0
  0
VISUALSTYLE
  5
3D
102
{ACAD_XDICTIONARY
360
6CC
102
}
102
{ACAD_REACTORS
330
29
102
}
330
29
100
AcDbVisualStyle
  2

 70
    26
 71
     2
 72
     2
 73
     1
 90
        2
 40
-0.6
 41
30.0
 62
     5
 63
     7
 74
     1
 91
       10
 64
     7
 65
   257
 75
     2
175
     1
 42
1.0
 92
        8
 66
   257
 43
1.0
 76
     1
 77
     6
 78
     2
 67
     7
 79
     3
170
     0
171
     0
290
     0
174
     0
 93
        5
 44
0.0
173
     0
291
     0
 45
0.0
1001
ACAD
1000
AcDbSavedByObjectVersion
1070
     0
  0
VISUALSTYLE
  5
3A
102
{ACAD_XDICTIONARY
360
6C6
102
}
102
{ACAD_REACTORS
330
29
102
}
330
29
100
AcDbVisualStyle
  2

 70
    23
 71
     2
 72
     2
 73
     3
 90
        0
 40
-0.6
 41
-30.0
 62
     5
 63
     7
 74
     2
 91
        2
 64
     7
 65
     7
 75
     1
175
     1
 42
40.0
 92
        8
 66
     7
 43
1.0
 76
     1
 77
     6
 78
     2
 67
     7
 79
     3
170
     0
171
     0
290
     0
174
     0
 93
        1
 44
0.0
173
     0
291
     0
 45
0.0
1001
ACAD
1000
AcDbSavedByObjectVersion
1070
     0
  0
VISUALSTYLE
  5
3B
102
{ACAD_XDICTIONARY
360
6C8
102
}
102
{ACAD_REACTORS
330
29
102
}
330
29
100
AcDbVisualStyle
  2

 70
    24
 71
     1
 72
     2
 73
     2
 90
        0
 40
-0.6
 41
-30.0
 62
     5
 63
     7
 74
     2
 91
        2
 64
     7
 65
     7
 75
     1
175
     1
 42
40.0
 92
       11
 66
     7
 43
1.0
 76
     1
 77
     6
 78
     2
 67
     7
 79
     6
170
     0
171
     0
290
     0
174
     0
 93
        1
 44
0.0
173
     0
291
     0
 45
0.0
1001
ACAD
1000
AcDbSavedByObjectVersion
1070
     0
  0
VISUALSTYLE
  5
36
102
{ACAD_XDICTIONARY
360
6BE
102
}
102
{ACAD_REACTORS
330
29
102
}
330
29
100
AcDbVisualStyle
  2

 70
    13
 71
     2
 72
     2
 73
     0
 90
        0
 40
-0.6
 41
-30.0
 62
     5
 63
     7
 74
     1
 91
        4
 64
     7
 65
   257
 75
     1
175
     1
 42
1.0
 92
       12
 66
     7
 43
1.0
 76
     1
 77
     6
 78
     2
 67
     7
 79
     5
170
     0
171
     0
290
     0
174
     0
 93
        1
 44
0.0
173
     0
291
     1
 45
0.0
1001
ACAD
1000
AcDbSavedByObjectVersion
1070
     0
  0
VISUALSTYLE
  5
30
102
{ACAD_XDICTIONARY
360
6B2
102
}
102
{ACAD_REACTORS
330
29
102
}
330
29
100
AcDbVisualStyle
  2

 70
     5
 71
     0
 72
     2
 73
     0
 90
        0
 40
-0.6
 41
-30.0
 62
     5
 63
     7
 74
     1
 91
        4
 64
     7
 65
   257
 75
     1
175
     1
 42
1.0
 92
        0
 66
   257
 43
1.0
 76
     1
 77
     6
 78
     2
 67
     7
 79
     3
170
     0
171
     0
290
     0
174
     0
 93
        1
 44
0.0
173
     0
291
     0
 45
0.0
1001
ACAD
1000
AcDbSavedByObjectVersion
1070
     0
  0
VISUALSTYLE
  5
3C
102
{ACAD_XDICTIONARY
360
6CA
102
}
102
{ACAD_REACTORS
330
29
102
}
330
29
100
AcDbVisualStyle
  2

 70
    25
 71
     2
 72
     2
 73
     1
 90
        1
 40
0.5
 41
-30.0
 62
     5
 63
     7
 74
     1
 91
        0
 64
     7
 65
   257
 75
     1
175
     1
 42
1.0
 92
        8
 66
     7
 43
1.0
 76
     1
 77
     6
 78
     2
 67
     7
 79
     3
170
     0
171
     0
290
     0
174
     0
 93
       13
 44
0.0
173
     0
291
     0
 45
0.0
1001
ACAD
1000
AcDbSavedByObjectVersion
1070
     0
  0
DICTIONARYVAR
  5
5C1
102
{ACAD_REACTORS
330
5BE
102
}
330
5BE
100
DictionaryVariables
280
     0
  1
1:1
  0
DICTIONARYVAR
  5
5C0
102
{ACAD_REACTORS
330
5BE
102
}
330
5BE
100
DictionaryVariables
280
     0
  1
STANDARD
  0
DICTIONARYVAR
  5
5BF
102
{ACAD_REACTORS
330
5BE
102
}
330
5BE
100
DictionaryVariables
280
     0
  1
STANDARD
  0
DICTIONARYVAR
  5
5C4
102
{ACAD_REACTORS
330
5BE
102
}
330
5BE
100
DictionaryVariables
280
     0
  1
1
  0
DICTIONARYVAR
  5
5C3
102
{ACAD_REACTORS
330
5BE
102
}
330
5BE
100
DictionaryVariables
280
     0
  1
0
  0
DICTIONARYVAR
  5
5C2
102
{ACAD_REACTORS
330
5BE
102
}
330
5BE
100
DictionaryVariables
280
     0
  1
127
  0
DICTIONARYVAR
  5
62B
102
{ACAD_REACTORS
330
5BE
102
}
330
5BE
100
DictionaryVariables
280
     0
  1
2
  0
DICTIONARY
  5
6D9
330
6E
100
AcDbDictionary
280
     1
281
     1
  3
ACAD_XREC_ROUNDTRIP
360
6DA
  0
DICTIONARY
  5
6D7
330
6A
100
AcDbDictionary
280
     1
281
     1
  3
ACAD_XREC_ROUNDTRIP
360
6D8
  0
DICTIONARY
  5
1A
330
19
100
AcDbDictionary
280
     1
281
     1
  3
ACAD_XREC_ROUNDTRIP
360
5CF
  3
BUMPTILE
360
1C
  3
DIFFUSETILE
360
1B
  3
OPACITYTILE
360
1F
  3
REFLECTIONTILE
360
1E
  3
REFRACTIONTILE
360
20
  3
SPECULARTILE
360
1D
  0
DICTIONARY
  5
12
330
11
100
AcDbDictionary
280
     1
281
     1
  3
ACAD_XREC_ROUNDTRIP
360
5CE
  3
BUMPTILE
360
14
  3
DIFFUSETILE
360
13
  3
OPACITYTILE
360
17
  3
REFLECTIONTILE
360
16
  3
REFRACTIONTILE
360
18
  3
SPECULARTILE
360
15
  0
DICTIONARY
  5
22
330
21
100
AcDbDictionary
280
     1
281
     1
  3
ACAD_XREC_ROUNDTRIP
360
5D0
  3
BUMPTILE
360
24
  3
DIFFUSETILE
360
23
  3
OPACITYTILE
360
27
  3
REFLECTIONTILE
360
26
  3
REFRACTIONTILE
360
28
  3
SPECULARTILE
360
25
  0
DICTIONARY
  5
5C6
330
64
100
AcDbDictionary
280
     1
281
     1
  3
ACAD_ROUNDTRIP_2008_TABLESTYLE_CELLSTYLEMAP
360
69F
  3
ACAD_XREC_ROUNDTRIP
360
6D6
  0
DICTIONARY
  5
6B0
330
2F
100
AcDbDictionary
280
     1
281
     1
  3
ACAD_XREC_ROUNDTRIP
360
6B1
  0
DICTIONARY
  5
6DB
330
3E8
100
AcDbDictionary
280
     1
281
     1
  3
ACAD_XREC_ROUNDTRIP
360
6DC
  0
DICTIONARY
  5
6AE
330
2E
100
AcDbDictionary
280
     1
281
     1
  3
ACAD_XREC_ROUNDTRIP
360
6AF
  0
DICTIONARY
  5
6BC
330
35
100
AcDbDictionary
280
     1
281
     1
  3
ACAD_XREC_ROUNDTRIP
360
6BD
  0
DICTIONARY
  5
6C4
330
39
100
AcDbDictionary
280
     1
281
     1
  3
ACAD_XREC_ROUNDTRIP
360
6C5
  0
DICTIONARY
  5
6B6
330
32
100
AcDbDictionary
280
     1
281
     1
  3
ACAD_XREC_ROUNDTRIP
360
6B7
  0
DICTIONARY
  5
6BA
330
34
100
AcDbDictionary
280
     1
281
     1
  3
ACAD_XREC_ROUNDTRIP
360
6BB
  0
DICTIONARY
  5
6D4
330
41
100
AcDbDictionary
280
     1
281
     1
  3
ACAD_XREC_ROUNDTRIP
360
6D5
  0
DICTIONARY
  5
6C2
330
38
100
AcDbDictionary
280
     1
281
     1
  3
ACAD_XREC_ROUNDTRIP
360
6C3
  0
DICTIONARY
  5
6A6
330
2A
100
AcDbDictionary
280
     1
281
     1
  3
ACAD_XREC_ROUNDTRIP
360
6A7
  0
DICTIONARY
  5
6A8
330
2B
100
AcDbDictionary
280
     1
281
     1
  3
ACAD_XREC_ROUNDTRIP
360
6A9
  0
DICTIONARY
  5
6AA
330
2C
100
AcDbDictionary
280
     1
281
     1
  3
ACAD_XREC_ROUNDTRIP
360
6AB
  0
DICTIONARY
  5
6AC
330
2D
100
AcDbDictionary
280
     1
281
     1
  3
ACAD_XREC_ROUNDTRIP
360
6AD
  0
DICTIONARY
  5
6B4
330
31
100
AcDbDictionary
280
     1
281
     1
  3
ACAD_XREC_ROUNDTRIP
360
6B5
  0
DICTIONARY
  5
6D0
330
3F
100
AcDbDictionary
280
     1
281
     1
  3
ACAD_XREC_ROUNDTRIP
360
6D1
  0
DICTIONARY
  5
6C0
330
37
100
AcDbDictionary
280
     1
281
     1
  3
ACAD_XREC_ROUNDTRIP
360
6C1
  0
DICTIONARY
  5
6D2
330
40
100
AcDbDictionary
280
     1
281
     1
  3
ACAD_XREC_ROUNDTRIP
360
6D3
  0
DICTIONARY
  5
6B8
330
33
100
AcDbDictionary
280
     1
281
     1
  3
ACAD_XREC_ROUNDTRIP
360
6B9
  0
DICTIONARY
  5
6CE
330
3E
100
AcDbDictionary
280
     1
281
     1
  3
ACAD_XREC_ROUNDTRIP
360
6CF
  0
DICTIONARY
  5
6CC
330
3D
100
AcDbDictionary
280
     1
281
     1
  3
ACAD_XREC_ROUNDTRIP
360
6CD
  0
DICTIONARY
  5
6C6
330
3A
100
AcDbDictionary
280
     1
281
     1
  3
ACAD_XREC_ROUNDTRIP
360
6C7
  0
DICTIONARY
  5
6C8
330
3B
100
AcDbDictionary
280
     1
281
     1
  3
ACAD_XREC_ROUNDTRIP
360
6C9
  0
DICTIONARY
  5
6BE
330
36
100
AcDbDictionary
280
     1
281
     1
  3
ACAD_XREC_ROUNDTRIP
360
6BF
  0
DICTIONARY
  5
6B2
330
30
100
AcDbDictionary
280
     1
281
     1
  3
ACAD_XREC_ROUNDTRIP
360
6B3
  0
DICTIONARY
  5
6CA
330
3C
100
AcDbDictionary
280
     1
281
     1
  3
ACAD_XREC_ROUNDTRIP
360
6CB
  0
XRECORD
  5
6DA
102
{ACAD_REACTORS
330
6D9
102
}
330
6D9
100
AcDbXrecord
280
     1
102
SHADEPLOT
 70
     0
102
SHADEPLOTRESLEVEL
 70
     2
102
SHADEPLOTCUSTOMDPI
 70
   300
  0
XRECORD
  5
6D8
102
{ACAD_REACTORS
330
6D7
102
}
330
6D7
100
AcDbXrecord
280
     1
102
SHADEPLOT
 70
     0
102
SHADEPLOTRESLEVEL
 70
     2
102
SHADEPLOTCUSTOMDPI
 70
   300
  0
XRECORD
  5
5CF
102
{ACAD_REACTORS
330
1A
102
}
330
1A
100
AcDbXrecord
280
     1
102
MATERIAL
148
0.0
149
0.0
149
0.0
 93
        0
 94
      127
282
     0
 72
     0
 77
     0
171
     0
175
     0
179
     0
273
     0
  0
XRECORD
  5
1C
102
{ACAD_REACTORS
330
1A
102
}
330
1A
100
AcDbXrecord
280
     1
270
     1
271
     1
  0
XRECORD
  5
1B
102
{ACAD_REACTORS
330
1A
102
}
330
1A
100
AcDbXrecord
280
     1
270
     1
271
     1
  0
XRECORD
  5
1F
102
{ACAD_REACTORS
330
1A
102
}
330
1A
100
AcDbXrecord
280
     1
270
     1
271
     1
  0
XRECORD
  5
1E
102
{ACAD_REACTORS
330
1A
102
}
330
1A
100
AcDbXrecord
280
     1
270
     1
271
     1
  0
XRECORD
  5
20
102
{ACAD_REACTORS
330
1A
102
}
330
1A
100
AcDbXrecord
280
     1
270
     1
271
     1
  0
XRECORD
  5
1D
102
{ACAD_REACTORS
330
1A
102
}
330
1A
100
AcDbXrecord
280
     1
270
     1
271
     1
  0
XRECORD
  5
5CE
102
{ACAD_REACTORS
330
12
102
}
330
12
100
AcDbXrecord
280
     1
102
MATERIAL
148
0.0
149
0.0
149
0.0
 93
        0
 94
      127
282
     0
 72
     0
 77
     0
171
     0
175
     0
179
     0
273
     0
  0
XRECORD
  5
14
102
{ACAD_REACTORS
330
12
102
}
330
12
100
AcDbXrecord
280
     1
270
     1
271
     1
  0
XRECORD
  5
13
102
{ACAD_REACTORS
330
12
102
}
330
12
100
AcDbXrecord
280
     1
270
     1
271
     1
  0
XRECORD
  5
17
102
{ACAD_REACTORS
330
12
102
}
330
12
100
AcDbXrecord
280
     1
270
     1
271
     1
  0
XRECORD
  5
16
102
{ACAD_REACTORS
330
12
102
}
330
12
100
AcDbXrecord
280
     1
270
     1
271
     1
  0
XRECORD
  5
18
102
{ACAD_REACTORS
330
12
102
}
330
12
100
AcDbXrecord
280
     1
270
     1
271
     1
  0
XRECORD
  5
15
102
{ACAD_REACTORS
330
12
102
}
330
12
100
AcDbXrecord
280
     1
270
     1
271
     1
  0
XRECORD
  5
5D0
102
{ACAD_REACTORS
330
22
102
}
330
22
100
AcDbXrecord
280
     1
102
MATERIAL
148
0.0
149
0.0
149
0.0
 93
        0
 94
      127
282
     0
 72
     0
 77
     0
171
     0
175
     0
179
     0
273
     0
  0
XRECORD
  5
24
102
{ACAD_REACTORS
330
22
102
}
330
22
100
AcDbXrecord
280
     1
270
     1
271
     1
  0
XRECORD
  5
23
102
{ACAD_REACTORS
330
22
102
}
330
22
100
AcDbXrecord
280
     1
270
     1
271
     1
  0
XRECORD
  5
27
102
{ACAD_REACTORS
330
22
102
}
330
22
100
AcDbXrecord
280
     1
270
     1
271
     1
  0
XRECORD
  5
26
102
{ACAD_REACTORS
330
22
102
}
330
22
100
AcDbXrecord
280
     1
270
     1
271
     1
  0
XRECORD
  5
28
102
{ACAD_REACTORS
330
22
102
}
330
22
100
AcDbXrecord
280
     1
270
     1
271
     1
  0
XRECORD
  5
25
102
{ACAD_REACTORS
330
22
102
}
330
22
100
AcDbXrecord
280
     1
270
     1
271
     1
  0
CELLSTYLEMAP
  5
69F
102
{ACAD_REACTORS
330
5C6
102
}
330
5C6
100
AcDbCellStyleMap
 90
        3
300
CELLSTYLE
  1
TABLEFORMAT_BEGIN
 90
        5
170
     1
 91
        0
 92
    32768
 62
   257
 93
        1
300
CONTENTFORMAT
  1
CONTENTFORMAT_BEGIN
 90
        0
 91
        0
 92
      512
 93
        0
300

 40
0.0
140
1.0
 94
        5
 62
     0
340
55
144
0.25
309
CONTENTFORMAT_END
171
     1
301
MARGIN
  1
CELLMARGIN_BEGIN
 40
0.06
 40
0.06
 40
0.06
 40
0.06
 40
0.18
 40
0.18
309
CELLMARGIN_END
 94
        6
 95
        1
302
GRIDFORMAT
  1
GRIDFORMAT_BEGIN
 90
        0
 91
        1
 62
     0
 92
       -2
340
0
 93
        0
 40
0.045
309
GRIDFORMAT_END
 95
        2
302
GRIDFORMAT
  1
GRIDFORMAT_BEGIN
 90
        0
 91
        1
 62
     0
 92
       -2
340
0
 93
        0
 40
0.045
309
GRIDFORMAT_END
 95
        4
302
GRIDFORMAT
  1
GRIDFORMAT_BEGIN
 90
        0
 91
        1
 62
     0
 92
       -2
340
0
 93
        0
 40
0.045
309
GRIDFORMAT_END
 95
        8
302
GRIDFORMAT
  1
GRIDFORMAT_BEGIN
 90
        0
 91
        1
 62
     0
 92
       -2
340
0
 93
        0
 40
0.045
309
GRIDFORMAT_END
 95
       16
302
GRIDFORMAT
  1
GRIDFORMAT_BEGIN
 90
        0
 91
        1
 62
     0
 92
       -2
340
0
 93
        0
 40
0.045
309
GRIDFORMAT_END
 95
       32
302
GRIDFORMAT
  1
GRIDFORMAT_BEGIN
 90
        0
 91
        1
 62
     0
 92
       -2
340
0
 93
        0
 40
0.045
309
GRIDFORMAT_END
309
TABLEFORMAT_END
  1
CELLSTYLE_BEGIN
 90
        1
 91
        1
300
_TITLE
309
CELLSTYLE_END
300
CELLSTYLE
  1
TABLEFORMAT_BEGIN
 90
        5
170
     1
 91
        0
 92
        0
 62
   257
 93
        1
300
CONTENTFORMAT
  1
CONTENTFORMAT_BEGIN
 90
        0
 91
        0
 92
      512
 93
        0
300

 40
0.0
140
1.0
 94
        5
 62
     0
340
55
144
0.18
309
CONTENTFORMAT_END
171
     1
301
MARGIN
  1
CELLMARGIN_BEGIN
 40
0.06
 40
0.06
 40
0.06
 40
0.06
 40
0.18
 40
0.18
309
CELLMARGIN_END
 94
        6
 95
        1
302
GRIDFORMAT
  1
GRIDFORMAT_BEGIN
 90
        0
 91
        1
 62
     0
 92
       -2
340
0
 93
        0
 40
0.045
309
GRIDFORMAT_END
 95
        2
302
GRIDFORMAT
  1
GRIDFORMAT_BEGIN
 90
        0
 91
        1
 62
     0
 92
       -2
340
0
 93
        0
 40
0.045
309
GRIDFORMAT_END
 95
        4
302
GRIDFORMAT
  1
GRIDFORMAT_BEGIN
 90
        0
 91
        1
 62
     0
 92
       -2
340
0
 93
        0
 40
0.045
309
GRIDFORMAT_END
 95
        8
302
GRIDFORMAT
  1
GRIDFORMAT_BEGIN
 90
        0
 91
        1
 62
     0
 92
       -2
340
0
 93
        0
 40
0.045
309
GRIDFORMAT_END
 95
       16
302
GRIDFORMAT
  1
GRIDFORMAT_BEGIN
 90
        0
 91
        1
 62
     0
 92
       -2
340
0
 93
        0
 40
0.045
309
GRIDFORMAT_END
 95
       32
302
GRIDFORMAT
  1
GRIDFORMAT_BEGIN
 90
        0
 91
        1
 62
     0
 92
       -2
340
0
 93
        0
 40
0.045
309
GRIDFORMAT_END
309
TABLEFORMAT_END
  1
CELLSTYLE_BEGIN
 90
        2
 91
        1
300
_HEADER
309
CELLSTYLE_END
300
CELLSTYLE
  1
TABLEFORMAT_BEGIN
 90
        5
170
     1
 91
        0
 92
        0
 62
   257
 93
        1
300
CONTENTFORMAT
  1
CONTENTFORMAT_BEGIN
 90
        0
 91
        0
 92
      512
 93
        0
300

 40
0.0
140
1.0
 94
        2
 62
     0
340
55
144
0.18
309
CONTENTFORMAT_END
171
     1
301
MARGIN
  1
CELLMARGIN_BEGIN
 40
0.06
 40
0.06
 40
0.06
 40
0.06
 40
0.18
 40
0.18
309
CELLMARGIN_END
 94
        6
 95
        1
302
GRIDFORMAT
  1
GRIDFORMAT_BEGIN
 90
        0
 91
        1
 62
     0
 92
       -2
340
0
 93
        0
 40
0.045
309
GRIDFORMAT_END
 95
        2
302
GRIDFORMAT
  1
GRIDFORMAT_BEGIN
 90
        0
 91
        1
 62
     0
 92
       -2
340
0
 93
        0
 40
0.045
309
GRIDFORMAT_END
 95
        4
302
GRIDFORMAT
  1
GRIDFORMAT_BEGIN
 90
        0
 91
        1
 62
     0
 92
       -2
340
0
 93
        0
 40
0.045
309
GRIDFORMAT_END
 95
        8
302
GRIDFORMAT
  1
GRIDFORMAT_BEGIN
 90
        0
 91
        1
 62
     0
 92
       -2
340
0
 93
        0
 40
0.045
309
GRIDFORMAT_END
 95
       16
302
GRIDFORMAT
  1
GRIDFORMAT_BEGIN
 90
        0
 91
        1
 62
     0
 92
       -2
340
0
 93
        0
 40
0.045
309
GRIDFORMAT_END
 95
       32
302
GRIDFORMAT
  1
GRIDFORMAT_BEGIN
 90
        0
 91
        1
 62
     0
 92
       -2
340
0
 93
        0
 40
0.045
309
GRIDFORMAT_END
309
TABLEFORMAT_END
  1
CELLSTYLE_BEGIN
 90
        3
 91
        2
300
_DATA
309
CELLSTYLE_END
  0
XRECORD
  5
6D6
102
{ACAD_REACTORS
330
5C6
102
}
330
5C6
100
AcDbXrecord
280
     1
102
ACAD_ROUNDTRIP_PRE2007_TABLESTYLE
 90
      512
 91
        0
  1

 92
      512
 93
        0
  2

 94
      512
 95
        0
  3

  0
XRECORD
  5
6B1
102
{ACAD_REACTORS
330
6B0
102
}
330
6B0
100
AcDbXrecord
280
     1
102
RTVSPropertyOp0
 70
     1
102
RTVSPropertyOp1
 70
     1
102
RTVSPropertyOp2
 70
     1
102
RTVSPropertyOp3
 70
     1
102
RTVSPropertyOp4
 70
     1
102
RTVSPropertyOp5
 70
     1
102
RTVSPropertyOp6
 70
     1
102
RTVSPropertyOp7
 70
     1
102
RTVSPropertyOp8
 70
     1
102
RTVSPropertyOp9
 70
     1
102
RTVSPropertyOp10
 70
     1
102
RTVSPropertyOp11
 70
     1
102
RTVSPropertyOp12
 70
     1
102
RTVSPropertyOp13
 70
     1
102
RTVSPropertyOp14
 70
     1
102
RTVSPropertyOp15
 70
     1
102
RTVSPropertyOp16
 70
     1
102
RTVSPropertyOp17
 70
     1
102
RTVSPropertyOp18
 70
     1
102
RTVSPropertyOp19
 70
     1
102
RTVSPropertyOp20
 70
     1
102
RTVSPropertyOp21
 70
     1
102
RTVSPropertyOp22
 70
     1
102
RTVSPropertyOp23
 70
     1
102
RTVSPropertyOp24
 70
     1
102
RTVSPropertyOp25
 70
     1
102
RTVSPropertyOp26
 70
     1
102
RTVSPropertyOp27
 70
     1
102
RTVSPropertyOp28
 70
     1
102
RTVSPropertyOp29
 70
     1
102
RTVSPropertyOp30
 70
     1
102
RTVSPropertyOp31
 70
     1
102
RTVSPropertyOp32
 70
     1
  0
XRECORD
  5
6DC
102
{ACAD_REACTORS
330
6DB
102
}
330
6DB
100
AcDbXrecord
280
     1
102
RTVSPropertyOp0
 70
     1
102
RTVSPropertyOp1
 70
     1
102
RTVSPropertyOp2
 70
     1
102
RTVSPropertyOp3
 70
     1
102
RTVSPropertyOp4
 70
     1
102
RTVSPropertyOp5
 70
     1
102
RTVSPropertyOp6
 70
     1
102
RTVSPropertyOp7
 70
     1
102
RTVSPropertyOp8
 70
     1
102
RTVSPropertyOp9
 70
     1
102
RTVSPropertyOp10
 70
     1
102
RTVSPropertyOp11
 70
     1
102
RTVSPropertyOp12
 70
     1
102
RTVSPropertyOp13
 70
     1
102
RTVSPropertyOp14
 70
     1
102
RTVSPropertyOp15
 70
     1
102
RTVSPropertyOp16
 70
     1
102
RTVSPropertyOp17
 70
     1
102
RTVSPropertyOp18
 70
     1
102
RTVSPropertyOp19
 70
     1
102
RTVSPropertyOp20
 70
     1
102
RTVSPropertyOp21
 70
     1
102
RTVSPropertyOp22
 70
     1
102
RTVSPropertyOp23
 70
     1
102
RTVSPropertyOp24
 70
     1
102
RTVSPropertyOp25
 70
     1
102
RTVSPropertyOp26
 70
     1
102
RTVSPropertyOp27
 70
     1
102
RTVSPropertyOp28
 70
     1
102
RTVSPropertyOp29
 70
     1
102
RTVSPropertyOp30
 70
     1
102
RTVSPropertyOp31
 70
     1
102
RTVSPropertyOp32
 70
     1
  0
XRECORD
  5
6AF
102
{ACAD_REACTORS
330
6AE
102
}
330
6AE
100
AcDbXrecord
280
     1
102
RTVSPropertyOp0
 70
     1
102
RTVSPropertyOp1
 70
     1
102
RTVSPropertyOp2
 70
     1
102
RTVSPropertyOp3
 70
     1
102
RTVSPropertyOp4
 70
     1
102
RTVSPropertyOp5
 70
     1
102
RTVSPropertyOp6
 70
     1
102
RTVSPropertyOp7
 70
     1
102
RTVSPropertyOp8
 70
     1
102
RTVSPropertyOp9
 70
     1
102
RTVSPropertyOp10
 70
     1
102
RTVSPropertyOp11
 70
     1
102
RTVSPropertyOp12
 70
     1
102
RTVSPropertyOp13
 70
     1
102
RTVSPropertyOp14
 70
     1
102
RTVSPropertyOp15
 70
     1
102
RTVSPropertyOp16
 70
     1
102
RTVSPropertyOp17
 70
     1
102
RTVSPropertyOp18
 70
     1
102
RTVSPropertyOp19
 70
     1
102
RTVSPropertyOp20
 70
     1
102
RTVSPropertyOp21
 70
     1
102
RTVSPropertyOp22
 70
     1
102
RTVSPropertyOp23
 70
     1
102
RTVSPropertyOp24
 70
     1
102
RTVSPropertyOp25
 70
     1
102
RTVSPropertyOp26
 70
     1
102
RTVSPropertyOp27
 70
     1
102
RTVSPropertyOp28
 70
     1
102
RTVSPropertyOp29
 70
     1
102
RTVSPropertyOp30
 70
     1
102
RTVSPropertyOp31
 70
     1
102
RTVSPropertyOp32
 70
     1
  0
XRECORD
  5
6BD
102
{ACAD_REACTORS
330
6BC
102
}
330
6BC
100
AcDbXrecord
280
     1
102
RTVSPropertyOp0
 70
     1
102
RTVSPropertyOp1
 70
     1
102
RTVSPropertyOp2
 70
     1
102
RTVSPropertyOp3
 70
     1
102
RTVSPropertyOp4
 70
     1
102
RTVSPropertyOp5
 70
     1
102
RTVSPropertyOp6
 70
     1
102
RTVSPropertyOp7
 70
     1
102
RTVSPropertyOp8
 70
     1
102
RTVSPropertyOp9
 70
     1
102
RTVSPropertyOp10
 70
     1
102
RTVSPropertyOp11
 70
     1
102
RTVSPropertyOp12
 70
     1
102
RTVSPropertyOp13
 70
     1
102
RTVSPropertyOp14
 70
     1
102
RTVSPropertyOp15
 70
     1
102
RTVSPropertyOp16
 70
     1
102
RTVSPropertyOp17
 70
     1
102
RTVSPropertyOp18
 70
     1
102
RTVSPropertyOp19
 70
     1
102
RTVSPropertyOp20
 70
     1
102
RTVSPropertyOp21
 70
     1
102
RTVSPropertyOp22
 70
     1
102
RTVSPropertyOp23
 70
     1
102
RTVSPropertyOp24
 70
     1
102
RTVSPropertyOp25
 70
     1
102
RTVSPropertyOp26
 70
     1
102
RTVSPropertyOp27
 70
     1
102
RTVSPropertyOp28
 70
     1
102
RTVSPropertyOp29
 70
     1
102
RTVSPropertyOp30
 70
     1
102
RTVSPropertyOp31
 70
     1
102
RTVSPropertyOp32
 70
     1
  0
XRECORD
  5
6C5
102
{ACAD_REACTORS
330
6C4
102
}
330
6C4
100
AcDbXrecord
280
     1
102
RTVSPropertyOp0
 70
     1
102
RTVSPropertyOp1
 70
     1
102
RTVSPropertyOp2
 70
     1
102
RTVSPropertyOp3
 70
     1
102
RTVSPropertyOp4
 70
     1
102
RTVSPropertyOp5
 70
     1
102
RTVSPropertyOp6
 70
     1
102
RTVSPropertyOp7
 70
     1
102
RTVSPropertyOp8
 70
     1
102
RTVSPropertyOp9
 70
     1
102
RTVSPropertyOp10
 70
     1
102
RTVSPropertyOp11
 70
     1
102
RTVSPropertyOp12
 70
     1
102
RTVSPropertyOp13
 70
     1
102
RTVSPropertyOp14
 70
     1
102
RTVSPropertyOp15
 70
     1
102
RTVSPropertyOp16
 70
     1
102
RTVSPropertyOp17
 70
     1
102
RTVSPropertyOp18
 70
     1
102
RTVSPropertyOp19
 70
     1
102
RTVSPropertyOp20
 70
     1
102
RTVSPropertyOp21
 70
     1
102
RTVSPropertyOp22
 70
     1
102
RTVSPropertyOp23
 70
     1
102
RTVSPropertyOp24
 70
     1
102
RTVSPropertyOp25
 70
     1
102
RTVSPropertyOp26
 70
     1
102
RTVSPropertyOp27
 70
     1
102
RTVSPropertyOp28
 70
     1
102
RTVSPropertyOp29
 70
     1
102
RTVSPropertyOp30
 70
     1
102
RTVSPropertyOp31
 70
     1
102
RTVSPropertyOp32
 70
     1
  0
XRECORD
  5
6B7
102
{ACAD_REACTORS
330
6B6
102
}
330
6B6
100
AcDbXrecord
280
     1
102
RTVSPropertyOp0
 70
     1
102
RTVSPropertyOp1
 70
     1
102
RTVSPropertyOp2
 70
     1
102
RTVSPropertyOp3
 70
     1
102
RTVSPropertyOp4
 70
     1
102
RTVSPropertyOp5
 70
     1
102
RTVSPropertyOp6
 70
     1
102
RTVSPropertyOp7
 70
     1
102
RTVSPropertyOp8
 70
     1
102
RTVSPropertyOp9
 70
     1
102
RTVSPropertyOp10
 70
     1
102
RTVSPropertyOp11
 70
     1
102
RTVSPropertyOp12
 70
     1
102
RTVSPropertyOp13
 70
     1
102
RTVSPropertyOp14
 70
     1
102
RTVSPropertyOp15
 70
     1
102
RTVSPropertyOp16
 70
     1
102
RTVSPropertyOp17
 70
     1
102
RTVSPropertyOp18
 70
     1
102
RTVSPropertyOp19
 70
     1
102
RTVSPropertyOp20
 70
     1
102
RTVSPropertyOp21
 70
     1
102
RTVSPropertyOp22
 70
     1
102
RTVSPropertyOp23
 70
     1
102
RTVSPropertyOp24
 70
     1
102
RTVSPropertyOp25
 70
     1
102
RTVSPropertyOp26
 70
     1
102
RTVSPropertyOp27
 70
     1
102
RTVSPropertyOp28
 70
     1
102
RTVSPropertyOp29
 70
     1
102
RTVSPropertyOp30
 70
     1
102
RTVSPropertyOp31
 70
     1
102
RTVSPropertyOp32
 70
     1
  0
XRECORD
  5
6BB
102
{ACAD_REACTORS
330
6BA
102
}
330
6BA
100
AcDbXrecord
280
     1
102
RTVSPropertyOp0
 70
     1
102
RTVSPropertyOp1
 70
     1
102
RTVSPropertyOp2
 70
     1
102
RTVSPropertyOp3
 70
     1
102
RTVSPropertyOp4
 70
     1
102
RTVSPropertyOp5
 70
     1
102
RTVSPropertyOp6
 70
     1
102
RTVSPropertyOp7
 70
     1
102
RTVSPropertyOp8
 70
     1
102
RTVSPropertyOp9
 70
     1
102
RTVSPropertyOp10
 70
     1
102
RTVSPropertyOp11
 70
     1
102
RTVSPropertyOp12
 70
     1
102
RTVSPropertyOp13
 70
     1
102
RTVSPropertyOp14
 70
     1
102
RTVSPropertyOp15
 70
     1
102
RTVSPropertyOp16
 70
     1
102
RTVSPropertyOp17
 70
     1
102
RTVSPropertyOp18
 70
     1
102
RTVSPropertyOp19
 70
     1
102
RTVSPropertyOp20
 70
     1
102
RTVSPropertyOp21
 70
     1
102
RTVSPropertyOp22
 70
     1
102
RTVSPropertyOp23
 70
     1
102
RTVSPropertyOp24
 70
     1
102
RTVSPropertyOp25
 70
     1
102
RTVSPropertyOp26
 70
     1
102
RTVSPropertyOp27
 70
     1
102
RTVSPropertyOp28
 70
     1
102
RTVSPropertyOp29
 70
     1
102
RTVSPropertyOp30
 70
     1
102
RTVSPropertyOp31
 70
     1
102
RTVSPropertyOp32
 70
     1
  0
XRECORD
  5
6D5
102
{ACAD_REACTORS
330
6D4
102
}
330
6D4
100
AcDbXrecord
280
     1
102
RTVSPropertyOp0
 70
     0
102
RTVSPropertyOp1
 70
     0
102
RTVSPropertyOp2
 70
     0
102
RTVSPropertyOp3
 70
     0
102
RTVSPropertyOp4
 70
     0
102
RTVSPropertyOp5
 70
     0
102
RTVSPropertyOp6
 70
     0
102
RTVSPropertyOp7
 70
     0
102
RTVSPropertyOp8
 70
     0
102
RTVSPropertyOp9
 70
     0
102
RTVSPropertyOp10
 70
     0
102
RTVSPropertyOp11
 70
     0
102
RTVSPropertyOp12
 70
     0
102
RTVSPropertyOp13
 70
     0
102
RTVSPropertyOp14
 70
     2
102
RTVSPropertyOp15
 70
     0
102
RTVSPropertyOp16
 70
     0
102
RTVSPropertyOp17
 70
     0
102
RTVSPropertyOp18
 70
     0
102
RTVSPropertyOp19
 70
     0
102
RTVSPropertyOp20
 70
     0
102
RTVSPropertyOp21
 70
     0
102
RTVSPropertyOp22
 70
     0
102
RTVSPropertyOp23
 70
     0
102
RTVSPropertyOp24
 70
     0
102
RTVSPropertyOp25
 70
     0
102
RTVSPropertyOp26
 70
     0
102
RTVSPropertyOp27
 70
     0
102
RTVSPropertyOp28
 70
     0
102
RTVSPropertyOp29
 70
     0
102
RTVSPropertyOp30
 70
     0
102
RTVSPropertyOp31
 70
     0
102
RTVSPropertyOp32
 70
     0
  0
XRECORD
  5
6C3
102
{ACAD_REACTORS
330
6C2
102
}
330
6C2
100
AcDbXrecord
280
     1
102
RTVSPropertyOp0
 70
     1
102
RTVSPropertyOp1
 70
     1
102
RTVSPropertyOp2
 70
     1
102
RTVSPropertyOp3
 70
     1
102
RTVSPropertyOp4
 70
     1
102
RTVSPropertyOp5
 70
     1
102
RTVSPropertyOp6
 70
     1
102
RTVSPropertyOp7
 70
     1
102
RTVSPropertyOp8
 70
     1
102
RTVSPropertyOp9
 70
     1
102
RTVSPropertyOp10
 70
     1
102
RTVSPropertyOp11
 70
     1
102
RTVSPropertyOp12
 70
     1
102
RTVSPropertyOp13
 70
     1
102
RTVSPropertyOp14
 70
     1
102
RTVSPropertyOp15
 70
     1
102
RTVSPropertyOp16
 70
     1
102
RTVSPropertyOp17
 70
     1
102
RTVSPropertyOp18
 70
     1
102
RTVSPropertyOp19
 70
     1
102
RTVSPropertyOp20
 70
     1
102
RTVSPropertyOp21
 70
     1
102
RTVSPropertyOp22
 70
     1
102
RTVSPropertyOp23
 70
     1
102
RTVSPropertyOp24
 70
     1
102
RTVSPropertyOp25
 70
     1
102
RTVSPropertyOp26
 70
     1
102
RTVSPropertyOp27
 70
     1
102
RTVSPropertyOp28
 70
     1
102
RTVSPropertyOp29
 70
     1
102
RTVSPropertyOp30
 70
     1
102
RTVSPropertyOp31
 70
     1
102
RTVSPropertyOp32
 70
     1
  0
XRECORD
  5
6A7
102
{ACAD_REACTORS
330
6A6
102
}
330
6A6
100
AcDbXrecord
280
     1
102
RTVSPropertyOp0
 70
     1
102
RTVSPropertyOp1
 70
     1
102
RTVSPropertyOp2
 70
     1
102
RTVSPropertyOp3
 70
     1
102
RTVSPropertyOp4
 70
     1
102
RTVSPropertyOp5
 70
     1
102
RTVSPropertyOp6
 70
     1
102
RTVSPropertyOp7
 70
     1
102
RTVSPropertyOp8
 70
     1
102
RTVSPropertyOp9
 70
     1
102
RTVSPropertyOp10
 70
     1
102
RTVSPropertyOp11
 70
     1
102
RTVSPropertyOp12
 70
     1
102
RTVSPropertyOp13
 70
     1
102
RTVSPropertyOp14
 70
     1
102
RTVSPropertyOp15
 70
     1
102
RTVSPropertyOp16
 70
     1
102
RTVSPropertyOp17
 70
     1
102
RTVSPropertyOp18
 70
     1
102
RTVSPropertyOp19
 70
     1
102
RTVSPropertyOp20
 70
     1
102
RTVSPropertyOp21
 70
     1
102
RTVSPropertyOp22
 70
     1
102
RTVSPropertyOp23
 70
     1
102
RTVSPropertyOp24
 70
     1
102
RTVSPropertyOp25
 70
     1
102
RTVSPropertyOp26
 70
     1
102
RTVSPropertyOp27
 70
     1
102
RTVSPropertyOp28
 70
     1
102
RTVSPropertyOp29
 70
     1
102
RTVSPropertyOp30
 70
     1
102
RTVSPropertyOp31
 70
     1
102
RTVSPropertyOp32
 70
     1
  0
XRECORD
  5
6A9
102
{ACAD_REACTORS
330
6A8
102
}
330
6A8
100
AcDbXrecord
280
     1
102
RTVSPropertyOp0
 70
     1
102
RTVSPropertyOp1
 70
     1
102
RTVSPropertyOp2
 70
     1
102
RTVSPropertyOp3
 70
     1
102
RTVSPropertyOp4
 70
     1
102
RTVSPropertyOp5
 70
     1
102
RTVSPropertyOp6
 70
     1
102
RTVSPropertyOp7
 70
     1
102
RTVSPropertyOp8
 70
     1
102
RTVSPropertyOp9
 70
     1
102
RTVSPropertyOp10
 70
     1
102
RTVSPropertyOp11
 70
     1
102
RTVSPropertyOp12
 70
     1
102
RTVSPropertyOp13
 70
     1
102
RTVSPropertyOp14
 70
     1
102
RTVSPropertyOp15
 70
     1
102
RTVSPropertyOp16
 70
     1
102
RTVSPropertyOp17
 70
     1
102
RTVSPropertyOp18
 70
     1
102
RTVSPropertyOp19
 70
     1
102
RTVSPropertyOp20
 70
     1
102
RTVSPropertyOp21
 70
     1
102
RTVSPropertyOp22
 70
     1
102
RTVSPropertyOp23
 70
     1
102
RTVSPropertyOp24
 70
     1
102
RTVSPropertyOp25
 70
     1
102
RTVSPropertyOp26
 70
     1
102
RTVSPropertyOp27
 70
     1
102
RTVSPropertyOp28
 70
     1
102
RTVSPropertyOp29
 70
     1
102
RTVSPropertyOp30
 70
     1
102
RTVSPropertyOp31
 70
     1
102
RTVSPropertyOp32
 70
     1
  0
XRECORD
  5
6AB
102
{ACAD_REACTORS
330
6AA
102
}
330
6AA
100
AcDbXrecord
280
     1
102
RTVSPropertyOp0
 70
     1
102
RTVSPropertyOp1
 70
     1
102
RTVSPropertyOp2
 70
     1
102
RTVSPropertyOp3
 70
     1
102
RTVSPropertyOp4
 70
     1
102
RTVSPropertyOp5
 70
     1
102
RTVSPropertyOp6
 70
     1
102
RTVSPropertyOp7
 70
     1
102
RTVSPropertyOp8
 70
     1
102
RTVSPropertyOp9
 70
     1
102
RTVSPropertyOp10
 70
     1
102
RTVSPropertyOp11
 70
     1
102
RTVSPropertyOp12
 70
     1
102
RTVSPropertyOp13
 70
     1
102
RTVSPropertyOp14
 70
     1
102
RTVSPropertyOp15
 70
     1
102
RTVSPropertyOp16
 70
     1
102
RTVSPropertyOp17
 70
     1
102
RTVSPropertyOp18
 70
     1
102
RTVSPropertyOp19
 70
     1
102
RTVSPropertyOp20
 70
     1
102
RTVSPropertyOp21
 70
     1
102
RTVSPropertyOp22
 70
     1
102
RTVSPropertyOp23
 70
     1
102
RTVSPropertyOp24
 70
     1
102
RTVSPropertyOp25
 70
     1
102
RTVSPropertyOp26
 70
     1
102
RTVSPropertyOp27
 70
     1
102
RTVSPropertyOp28
 70
     1
102
RTVSPropertyOp29
 70
     1
102
RTVSPropertyOp30
 70
     1
102
RTVSPropertyOp31
 70
     1
102
RTVSPropertyOp32
 70
     1
  0
XRECORD
  5
6AD
102
{ACAD_REACTORS
330
6AC
102
}
330
6AC
100
AcDbXrecord
280
     1
102
RTVSPropertyOp0
 70
     1
102
RTVSPropertyOp1
 70
     1
102
RTVSPropertyOp2
 70
     1
102
RTVSPropertyOp3
 70
     1
102
RTVSPropertyOp4
 70
     1
102
RTVSPropertyOp5
 70
     1
102
RTVSPropertyOp6
 70
     1
102
RTVSPropertyOp7
 70
     1
102
RTVSPropertyOp8
 70
     1
102
RTVSPropertyOp9
 70
     1
102
RTVSPropertyOp10
 70
     1
102
RTVSPropertyOp11
 70
     1
102
RTVSPropertyOp12
 70
     1
102
RTVSPropertyOp13
 70
     1
102
RTVSPropertyOp14
 70
     1
102
RTVSPropertyOp15
 70
     1
102
RTVSPropertyOp16
 70
     1
102
RTVSPropertyOp17
 70
     1
102
RTVSPropertyOp18
 70
     1
102
RTVSPropertyOp19
 70
     1
102
RTVSPropertyOp20
 70
     1
102
RTVSPropertyOp21
 70
     1
102
RTVSPropertyOp22
 70
     1
102
RTVSPropertyOp23
 70
     1
102
RTVSPropertyOp24
 70
     1
102
RTVSPropertyOp25
 70
     1
102
RTVSPropertyOp26
 70
     1
102
RTVSPropertyOp27
 70
     1
102
RTVSPropertyOp28
 70
     1
102
RTVSPropertyOp29
 70
     1
102
RTVSPropertyOp30
 70
     1
102
RTVSPropertyOp31
 70
     1
102
RTVSPropertyOp32
 70
     1
  0
XRECORD
  5
6B5
102
{ACAD_REACTORS
330
6B4
102
}
330
6B4
100
AcDbXrecord
280
     1
102
RTVSPropertyOp0
 70
     1
102
RTVSPropertyOp1
 70
     1
102
RTVSPropertyOp2
 70
     1
102
RTVSPropertyOp3
 70
     1
102
RTVSPropertyOp4
 70
     1
102
RTVSPropertyOp5
 70
     1
102
RTVSPropertyOp6
 70
     1
102
RTVSPropertyOp7
 70
     1
102
RTVSPropertyOp8
 70
     1
102
RTVSPropertyOp9
 70
     1
102
RTVSPropertyOp10
 70
     1
102
RTVSPropertyOp11
 70
     1
102
RTVSPropertyOp12
 70
     1
102
RTVSPropertyOp13
 70
     1
102
RTVSPropertyOp14
 70
     1
102
RTVSPropertyOp15
 70
     1
102
RTVSPropertyOp16
 70
     1
102
RTVSPropertyOp17
 70
     1
102
RTVSPropertyOp18
 70
     1
102
RTVSPropertyOp19
 70
     1
102
RTVSPropertyOp20
 70
     1
102
RTVSPropertyOp21
 70
     1
102
RTVSPropertyOp22
 70
     1
102
RTVSPropertyOp23
 70
     1
102
RTVSPropertyOp24
 70
     1
102
RTVSPropertyOp25
 70
     1
102
RTVSPropertyOp26
 70
     1
102
RTVSPropertyOp27
 70
     1
102
RTVSPropertyOp28
 70
     1
102
RTVSPropertyOp29
 70
     1
102
RTVSPropertyOp30
 70
     1
102
RTVSPropertyOp31
 70
     1
102
RTVSPropertyOp32
 70
     1
  0
XRECORD
  5
6D1
102
{ACAD_REACTORS
330
6D0
102
}
330
6D0
100
AcDbXrecord
280
     1
102
RTVSPropertyOp0
 70
     0
102
RTVSPropertyOp1
 70
     0
102
RTVSPropertyOp2
 70
     0
102
RTVSPropertyOp3
 70
     0
102
RTVSPropertyOp4
 70
     0
102
RTVSPropertyOp5
 70
     0
102
RTVSPropertyOp6
 70
     0
102
RTVSPropertyOp7
 70
     0
102
RTVSPropertyOp8
 70
     0
102
RTVSPropertyOp9
 70
     0
102
RTVSPropertyOp10
 70
     0
102
RTVSPropertyOp11
 70
     0
102
RTVSPropertyOp12
 70
     0
102
RTVSPropertyOp13
 70
     0
102
RTVSPropertyOp14
 70
     2
102
RTVSPropertyOp15
 70
     0
102
RTVSPropertyOp16
 70
     0
102
RTVSPropertyOp17
 70
     0
102
RTVSPropertyOp18
 70
     0
102
RTVSPropertyOp19
 70
     0
102
RTVSPropertyOp20
 70
     0
102
RTVSPropertyOp21
 70
     0
102
RTVSPropertyOp22
 70
     0
102
RTVSPropertyOp23
 70
     0
102
RTVSPropertyOp24
 70
     0
102
RTVSPropertyOp25
 70
     0
102
RTVSPropertyOp26
 70
     0
102
RTVSPropertyOp27
 70
     0
102
RTVSPropertyOp28
 70
     0
102
RTVSPropertyOp29
 70
     0
102
RTVSPropertyOp30
 70
     0
102
RTVSPropertyOp31
 70
     0
102
RTVSPropertyOp32
 70
     0
  0
XRECORD
  5
6C1
102
{ACAD_REACTORS
330
6C0
102
}
330
6C0
100
AcDbXrecord
280
     1
102
RTVSPropertyOp0
 70
     1
102
RTVSPropertyOp1
 70
     1
102
RTVSPropertyOp2
 70
     1
102
RTVSPropertyOp3
 70
     1
102
RTVSPropertyOp4
 70
     1
102
RTVSPropertyOp5
 70
     1
102
RTVSPropertyOp6
 70
     1
102
RTVSPropertyOp7
 70
     1
102
RTVSPropertyOp8
 70
     1
102
RTVSPropertyOp9
 70
     1
102
RTVSPropertyOp10
 70
     1
102
RTVSPropertyOp11
 70
     1
102
RTVSPropertyOp12
 70
     1
102
RTVSPropertyOp13
 70
     1
102
RTVSPropertyOp14
 70
     1
102
RTVSPropertyOp15
 70
     1
102
RTVSPropertyOp16
 70
     1
102
RTVSPropertyOp17
 70
     1
102
RTVSPropertyOp18
 70
     1
102
RTVSPropertyOp19
 70
     1
102
RTVSPropertyOp20
 70
     1
102
RTVSPropertyOp21
 70
     1
102
RTVSPropertyOp22
 70
     1
102
RTVSPropertyOp23
 70
     1
102
RTVSPropertyOp24
 70
     1
102
RTVSPropertyOp25
 70
     1
102
RTVSPropertyOp26
 70
     1
102
RTVSPropertyOp27
 70
     1
102
RTVSPropertyOp28
 70
     1
102
RTVSPropertyOp29
 70
     1
102
RTVSPropertyOp30
 70
     1
102
RTVSPropertyOp31
 70
     1
102
RTVSPropertyOp32
 70
     1
  0
XRECORD
  5
6D3
102
{ACAD_REACTORS
330
6D2
102
}
330
6D2
100
AcDbXrecord
280
     1
102
RTVSPropertyOp0
 70
     0
102
RTVSPropertyOp1
 70
     0
102
RTVSPropertyOp2
 70
     0
102
RTVSPropertyOp3
 70
     0
102
RTVSPropertyOp4
 70
     0
102
RTVSPropertyOp5
 70
     0
102
RTVSPropertyOp6
 70
     0
102
RTVSPropertyOp7
 70
     0
102
RTVSPropertyOp8
 70
     0
102
RTVSPropertyOp9
 70
     0
102
RTVSPropertyOp10
 70
     0
102
RTVSPropertyOp11
 70
     0
102
RTVSPropertyOp12
 70
     0
102
RTVSPropertyOp13
 70
     0
102
RTVSPropertyOp14
 70
     2
102
RTVSPropertyOp15
 70
     0
102
RTVSPropertyOp16
 70
     0
102
RTVSPropertyOp17
 70
     0
102
RTVSPropertyOp18
 70
     0
102
RTVSPropertyOp19
 70
     0
102
RTVSPropertyOp20
 70
     0
102
RTVSPropertyOp21
 70
     0
102
RTVSPropertyOp22
 70
     0
102
RTVSPropertyOp23
 70
     0
102
RTVSPropertyOp24
 70
     0
102
RTVSPropertyOp25
 70
     0
102
RTVSPropertyOp26
 70
     0
102
RTVSPropertyOp27
 70
     0
102
RTVSPropertyOp28
 70
     0
102
RTVSPropertyOp29
 70
     0
102
RTVSPropertyOp30
 70
     0
102
RTVSPropertyOp31
 70
     0
102
RTVSPropertyOp32
 70
     0
  0
XRECORD
  5
6B9
102
{ACAD_REACTORS
330
6B8
102
}
330
6B8
100
AcDbXrecord
280
     1
102
RTVSPropertyOp0
 70
     1
102
RTVSPropertyOp1
 70
     1
102
RTVSPropertyOp2
 70
     1
102
RTVSPropertyOp3
 70
     1
102
RTVSPropertyOp4
 70
     1
102
RTVSPropertyOp5
 70
     1
102
RTVSPropertyOp6
 70
     1
102
RTVSPropertyOp7
 70
     1
102
RTVSPropertyOp8
 70
     1
102
RTVSPropertyOp9
 70
     1
102
RTVSPropertyOp10
 70
     1
102
RTVSPropertyOp11
 70
     1
102
RTVSPropertyOp12
 70
     1
102
RTVSPropertyOp13
 70
     1
102
RTVSPropertyOp14
 70
     1
102
RTVSPropertyOp15
 70
     1
102
RTVSPropertyOp16
 70
     1
102
RTVSPropertyOp17
 70
     1
102
RTVSPropertyOp18
 70
     1
102
RTVSPropertyOp19
 70
     1
102
RTVSPropertyOp20
 70
     1
102
RTVSPropertyOp21
 70
     1
102
RTVSPropertyOp22
 70
     1
102
RTVSPropertyOp23
 70
     1
102
RTVSPropertyOp24
 70
     1
102
RTVSPropertyOp25
 70
     1
102
RTVSPropertyOp26
 70
     1
102
RTVSPropertyOp27
 70
     1
102
RTVSPropertyOp28
 70
     1
102
RTVSPropertyOp29
 70
     1
102
RTVSPropertyOp30
 70
     1
102
RTVSPropertyOp31
 70
     1
102
RTVSPropertyOp32
 70
     1
  0
XRECORD
  5
6CF
102
{ACAD_REACTORS
330
6CE
102
}
330
6CE
100
AcDbXrecord
280
     1
102
RTVSPropertyOp0
 70
     1
102
RTVSPropertyOp1
 70
     1
102
RTVSPropertyOp2
 70
     1
102
RTVSPropertyOp3
 70
     1
102
RTVSPropertyOp4
 70
     1
102
RTVSPropertyOp5
 70
     1
102
RTVSPropertyOp6
 70
     1
102
RTVSPropertyOp7
 70
     1
102
RTVSPropertyOp8
 70
     1
102
RTVSPropertyOp9
 70
     1
102
RTVSPropertyOp10
 70
     1
102
RTVSPropertyOp11
 70
     1
102
RTVSPropertyOp12
 70
     1
102
RTVSPropertyOp13
 70
     1
102
RTVSPropertyOp14
 70
     1
102
RTVSPropertyOp15
 70
     1
102
RTVSPropertyOp16
 70
     1
102
RTVSPropertyOp17
 70
     1
102
RTVSPropertyOp18
 70
     1
102
RTVSPropertyOp19
 70
     1
102
RTVSPropertyOp20
 70
     1
102
RTVSPropertyOp21
 70
     1
102
RTVSPropertyOp22
 70
     1
102
RTVSPropertyOp23
 70
     1
102
RTVSPropertyOp24
 70
     1
102
RTVSPropertyOp25
 70
     1
102
RTVSPropertyOp26
 70
     1
102
RTVSPropertyOp27
 70
     1
102
RTVSPropertyOp28
 70
     1
102
RTVSPropertyOp29
 70
     1
102
RTVSPropertyOp30
 70
     1
102
RTVSPropertyOp31
 70
     1
102
RTVSPropertyOp32
 70
     1
  0
XRECORD
  5
6CD
102
{ACAD_REACTORS
330
6CC
102
}
330
6CC
100
AcDbXrecord
280
     1
102
RTVSPropertyOp0
 70
     1
102
RTVSPropertyOp1
 70
     1
102
RTVSPropertyOp2
 70
     1
102
RTVSPropertyOp3
 70
     1
102
RTVSPropertyOp4
 70
     1
102
RTVSPropertyOp5
 70
     1
102
RTVSPropertyOp6
 70
     1
102
RTVSPropertyOp7
 70
     1
102
RTVSPropertyOp8
 70
     1
102
RTVSPropertyOp9
 70
     1
102
RTVSPropertyOp10
 70
     1
102
RTVSPropertyOp11
 70
     1
102
RTVSPropertyOp12
 70
     1
102
RTVSPropertyOp13
 70
     1
102
RTVSPropertyOp14
 70
     1
102
RTVSPropertyOp15
 70
     1
102
RTVSPropertyOp16
 70
     1
102
RTVSPropertyOp17
 70
     1
102
RTVSPropertyOp18
 70
     1
102
RTVSPropertyOp19
 70
     1
102
RTVSPropertyOp20
 70
     1
102
RTVSPropertyOp21
 70
     1
102
RTVSPropertyOp22
 70
     1
102
RTVSPropertyOp23
 70
     1
102
RTVSPropertyOp24
 70
     1
102
RTVSPropertyOp25
 70
     1
102
RTVSPropertyOp26
 70
     1
102
RTVSPropertyOp27
 70
     1
102
RTVSPropertyOp28
 70
     1
102
RTVSPropertyOp29
 70
     1
102
RTVSPropertyOp30
 70
     1
102
RTVSPropertyOp31
 70
     1
102
RTVSPropertyOp32
 70
     1
  0
XRECORD
  5
6C7
102
{ACAD_REACTORS
330
6C6
102
}
330
6C6
100
AcDbXrecord
280
     1
102
RTVSPropertyOp0
 70
     1
102
RTVSPropertyOp1
 70
     1
102
RTVSPropertyOp2
 70
     1
102
RTVSPropertyOp3
 70
     1
102
RTVSPropertyOp4
 70
     1
102
RTVSPropertyOp5
 70
     1
102
RTVSPropertyOp6
 70
     1
102
RTVSPropertyOp7
 70
     1
102
RTVSPropertyOp8
 70
     1
102
RTVSPropertyOp9
 70
     1
102
RTVSPropertyOp10
 70
     1
102
RTVSPropertyOp11
 70
     1
102
RTVSPropertyOp12
 70
     1
102
RTVSPropertyOp13
 70
     1
102
RTVSPropertyOp14
 70
     1
102
RTVSPropertyOp15
 70
     1
102
RTVSPropertyOp16
 70
     1
102
RTVSPropertyOp17
 70
     1
102
RTVSPropertyOp18
 70
     1
102
RTVSPropertyOp19
 70
     1
102
RTVSPropertyOp20
 70
     1
102
RTVSPropertyOp21
 70
     1
102
RTVSPropertyOp22
 70
     1
102
RTVSPropertyOp23
 70
     1
102
RTVSPropertyOp24
 70
     1
102
RTVSPropertyOp25
 70
     1
102
RTVSPropertyOp26
 70
     1
102
RTVSPropertyOp27
 70
     1
102
RTVSPropertyOp28
 70
     1
102
RTVSPropertyOp29
 70
     1
102
RTVSPropertyOp30
 70
     1
102
RTVSPropertyOp31
 70
     1
102
RTVSPropertyOp32
 70
     1
  0
XRECORD
  5
6C9
102
{ACAD_REACTORS
330
6C8
102
}
330
6C8
100
AcDbXrecord
280
     1
102
RTVSPropertyOp0
 70
     1
102
RTVSPropertyOp1
 70
     1
102
RTVSPropertyOp2
 70
     1
102
RTVSPropertyOp3
 70
     1
102
RTVSPropertyOp4
 70
     1
102
RTVSPropertyOp5
 70
     1
102
RTVSPropertyOp6
 70
     1
102
RTVSPropertyOp7
 70
     1
102
RTVSPropertyOp8
 70
     1
102
RTVSPropertyOp9
 70
     1
102
RTVSPropertyOp10
 70
     1
102
RTVSPropertyOp11
 70
     1
102
RTVSPropertyOp12
 70
     1
102
RTVSPropertyOp13
 70
     1
102
RTVSPropertyOp14
 70
     1
102
RTVSPropertyOp15
 70
     1
102
RTVSPropertyOp16
 70
     1
102
RTVSPropertyOp17
 70
     1
102
RTVSPropertyOp18
 70
     1
102
RTVSPropertyOp19
 70
     1
102
RTVSPropertyOp20
 70
     1
102
RTVSPropertyOp21
 70
     1
102
RTVSPropertyOp22
 70
     1
102
RTVSPropertyOp23
 70
     1
102
RTVSPropertyOp24
 70
     1
102
RTVSPropertyOp25
 70
     1
102
RTVSPropertyOp26
 70
     1
102
RTVSPropertyOp27
 70
     1
102
RTVSPropertyOp28
 70
     1
102
RTVSPropertyOp29
 70
     1
102
RTVSPropertyOp30
 70
     1
102
RTVSPropertyOp31
 70
     1
102
RTVSPropertyOp32
 70
     1
  0
XRECORD
  5
6BF
102
{ACAD_REACTORS
330
6BE
102
}
330
6BE
100
AcDbXrecord
280
     1
102
RTVSPropertyOp0
 70
     1
102
RTVSPropertyOp1
 70
     1
102
RTVSPropertyOp2
 70
     1
102
RTVSPropertyOp3
 70
     1
102
RTVSPropertyOp4
 70
     1
102
RTVSPropertyOp5
 70
     1
102
RTVSPropertyOp6
 70
     1
102
RTVSPropertyOp7
 70
     1
102
RTVSPropertyOp8
 70
     1
102
RTVSPropertyOp9
 70
     1
102
RTVSPropertyOp10
 70
     1
102
RTVSPropertyOp11
 70
     1
102
RTVSPropertyOp12
 70
     1
102
RTVSPropertyOp13
 70
     1
102
RTVSPropertyOp14
 70
     1
102
RTVSPropertyOp15
 70
     1
102
RTVSPropertyOp16
 70
     1
102
RTVSPropertyOp17
 70
     1
102
RTVSPropertyOp18
 70
     1
102
RTVSPropertyOp19
 70
     1
102
RTVSPropertyOp20
 70
     1
102
RTVSPropertyOp21
 70
     1
102
RTVSPropertyOp22
 70
     1
102
RTVSPropertyOp23
 70
     1
102
RTVSPropertyOp24
 70
     1
102
RTVSPropertyOp25
 70
     1
102
RTVSPropertyOp26
 70
     1
102
RTVSPropertyOp27
 70
     1
102
RTVSPropertyOp28
 70
     1
102
RTVSPropertyOp29
 70
     1
102
RTVSPropertyOp30
 70
     1
102
RTVSPropertyOp31
 70
     1
102
RTVSPropertyOp32
 70
     1
  0
XRECORD
  5
6B3
102
{ACAD_REACTORS
330
6B2
102
}
330
6B2
100
AcDbXrecord
280
     1
102
RTVSPropertyOp0
 70
     1
102
RTVSPropertyOp1
 70
     1
102
RTVSPropertyOp2
 70
     1
102
RTVSPropertyOp3
 70
     1
102
RTVSPropertyOp4
 70
     1
102
RTVSPropertyOp5
 70
     1
102
RTVSPropertyOp6
 70
     1
102
RTVSPropertyOp7
 70
     1
102
RTVSPropertyOp8
 70
     1
102
RTVSPropertyOp9
 70
     1
102
RTVSPropertyOp10
 70
     1
102
RTVSPropertyOp11
 70
     1
102
RTVSPropertyOp12
 70
     1
102
RTVSPropertyOp13
 70
     1
102
RTVSPropertyOp14
 70
     1
102
RTVSPropertyOp15
 70
     1
102
RTVSPropertyOp16
 70
     1
102
RTVSPropertyOp17
 70
     1
102
RTVSPropertyOp18
 70
     1
102
RTVSPropertyOp19
 70
     1
102
RTVSPropertyOp20
 70
     1
102
RTVSPropertyOp21
 70
     1
102
RTVSPropertyOp22
 70
     1
102
RTVSPropertyOp23
 70
     1
102
RTVSPropertyOp24
 70
     1
102
RTVSPropertyOp25
 70
     1
102
RTVSPropertyOp26
 70
     1
102
RTVSPropertyOp27
 70
     1
102
RTVSPropertyOp28
 70
     1
102
RTVSPropertyOp29
 70
     1
102
RTVSPropertyOp30
 70
     1
102
RTVSPropertyOp31
 70
     1
102
RTVSPropertyOp32
 70
     1
  0
XRECORD
  5
6CB
102
{ACAD_REACTORS
330
6CA
102
}
330
6CA
100
AcDbXrecord
280
     1
102
RTVSPropertyOp0
 70
     1
102
RTVSPropertyOp1
 70
     1
102
RTVSPropertyOp2
 70
     1
102
RTVSPropertyOp3
 70
     1
102
RTVSPropertyOp4
 70
     1
102
RTVSPropertyOp5
 70
     1
102
RTVSPropertyOp6
 70
     1
102
RTVSPropertyOp7
 70
     1
102
RTVSPropertyOp8
 70
     1
102
RTVSPropertyOp9
 70
     1
102
RTVSPropertyOp10
 70
     1
102
RTVSPropertyOp11
 70
     1
102
RTVSPropertyOp12
 70
     1
102
RTVSPropertyOp13
 70
     1
102
RTVSPropertyOp14
 70
     1
102
RTVSPropertyOp15
 70
     1
102
RTVSPropertyOp16
 70
     1
102
RTVSPropertyOp17
 70
     1
102
RTVSPropertyOp18
 70
     1
102
RTVSPropertyOp19
 70
     1
102
RTVSPropertyOp20
 70
     1
102
RTVSPropertyOp21
 70
     1
102
RTVSPropertyOp22
 70
     1
102
RTVSPropertyOp23
 70
     1
102
RTVSPropertyOp24
 70
     1
102
RTVSPropertyOp25
 70
     1
102
RTVSPropertyOp26
 70
     1
102
RTVSPropertyOp27
 70
     1
102
RTVSPropertyOp28
 70
     1
102
RTVSPropertyOp29
 70
     1
102
RTVSPropertyOp30
 70
     1
102
RTVSPropertyOp31
 70
     1
102
RTVSPropertyOp32
 70
     1
  0
ENDSEC
  0
EOF
