  0
SECTION
  2
HEADER
  9
$ACADVER
  1
AC1015
  9
$ACADMAINTVER
 70
    20
  9
$DWGCODEPAGE
  3
ANSI_932
  9
$INSBASE
 10
0.0
 20
0.0
 30
0.0
  9
$EXTMIN
 10
608.5738234172695
 20
-322.7426700000001
 30
0.0
  9
$EXTMAX
 10
1509.061214076058
 20
141.2538334528072
 30
0.0
  9
$LIMMIN
 10
969.4260019999999
 20
-322.743676
  9
$LIMMAX
 10
1374.453881
 20
-48.686309
  9
$ORTHOMODE
 70
     1
  9
$REGENMODE
 70
     1
  9
$FILLMODE
 70
     1
  9
$QTEXTMODE
 70
     0
  9
$MIRRTEXT
 70
     0
  9
$LTSCALE
 40
6.750430999999997
  9
$ATTMODE
 70
     1
  9
$TEXTSIZE
 40
3.2
  9
$TRACEWID
 40
0.05
  9
$TEXTSTYLE
  7
高3.2
  9
$CLAYER
  8
0
  9
$CELTYPE
  6
CONTINUOUS
  9
$CECOLOR
 62
   256
  9
$CELTSCALE
 40
1.0
  9
$DISPSILH
 70
     0
  9
$DIMSCALE
 40
1.0
  9
$DIMASZ
 40
2.5
  9
$DIMEXO
 40
0.25
  9
$DIMDLI
 40
0.2
  9
$DIMRND
 40
0.0
  9
$DIMDLE
 40
0.0
  9
$DIMEXE
 40
1.25
  9
$DIMTP
 40
0.0
  9
$DIMTM
 40
0.0
  9
$DIMTXT
 40
3.0
  9
$DIMCEN
 40
0.0
  9
$DIMTSZ
 40
0.0
  9
$DIMTOL
 70
     0
  9
$DIMLIM
 70
     0
  9
$DIMTIH
 70
     0
  9
$DIMTOH
 70
     0
  9
$DIMSE1
 70
     0
  9
$DIMSE2
 70
     0
  9
$DIMTAD
 70
     3
  9
$DIMZIN
 70
     8
  9
$DIMBLK
  1
Open30
  9
$DIMASO
 70
     1
  9
$DIMSHO
 70
     1
  9
$DIMPOST
  1

  9
$DIMAPOST
  1

  9
$DIMALT
 70
     0
  9
$DIMALTD
 70
     3
  9
$DIMALTF
 40
0.03937007874016
  9
$DIMLFAC
 40
1.0
  9
$DIMTOFL
 70
     1
  9
$DIMTVP
 40
0.0
  9
$DIMTIX
 70
     0
  9
$DIMSOXD
 70
     0
  9
$DIMSAH
 70
     0
  9
$DIMBLK1
  1

  9
$DIMBLK2
  1

  9
$DIMSTYLE
  2
1：1
  9
$DIMCLRD
 70
     0
  9
$DIMCLRE
 70
     0
  9
$DIMCLRT
 70
     4
  9
$DIMTFAC
 40
1.0
  9
$DIMGAP
 40
0.625
  9
$DIMJUST
 70
     0
  9
$DIMSD1
 70
     0
  9
$DIMSD2
 70
     0
  9
$DIMTOLJ
 70
     0
  9
$DIMTZIN
 70
     8
  9
$DIMALTZ
 70
     0
  9
$DIMALTTZ
 70
     0
  9
$DIMUPT
 70
     1
  9
$DIMDEC
 70
     2
  9
$DIMTDEC
 70
     2
  9
$DIMALTU
 70
     2
  9
$DIMALTTD
 70
     3
  9
$DIMTXSTY
  7
STANDARD
  9
$DIMAUNIT
 70
     0
  9
$DIMADEC
 70
     1
  9
$DIMALTRND
 40
0.0
  9
$DIMAZIN
 70
     2
  9
$DIMDSEP
 70
    46
  9
$DIMATFIT
 70
     0
  9
$DIMFRAC
 70
     0
  9
$DIMLDRBLK
  1
Open30
  9
$DIMLUNIT
 70
     2
  9
$DIMLWD
 70
    -2
  9
$DIMLWE
 70
    -2
  9
$DIMTMOVE
 70
     0
  9
$LUNITS
 70
     2
  9
$LUPREC
 70
     4
  9
$SKETCHINC
 40
0.1
  9
$FILLETRAD
 40
5.0
  9
$AUNITS
 70
     0
  9
$AUPREC
 70
     0
  9
$MENU
  1
.
  9
$ELEVATION
 40
0.0
  9
$PELEVATION
 40
0.0
  9
$THICKNESS
 40
0.0
  9
$LIMCHECK
 70
     0
  9
$CHAMFERA
 40
0.0
  9
$CHAMFERB
 40
0.0
  9
$CHAMFERC
 40
0.0
  9
$CHAMFERD
 40
0.0
  9
$SKPOLY
 70
     0
  9
$TDCREATE
 40
2456350.821109178
  9
$TDUCREATE
 40
2456350.446109178
  9
$TDUPDATE
 40
2457959.414860718
  9
$TDUUPDATE
 40
2457959.039860718
  9
$TDINDWG
 40
0.1594223843
  9
$TDUSRTIMER
 40
0.1594221528
  9
$USRTIMER
 70
     1
  9
$ANGBASE
 50
0.0
  9
$ANGDIR
 70
     0
  9
$PDMODE
 70
     0
  9
$PDSIZE
 40
0.0
  9
$PLINEWID
 40
0.0
  9
$SPLFRAME
 70
     0
  9
$SPLINETYPE
 70
     6
  9
$SPLINESEGS
 70
     8
  9
$HANDSEED
  5
EF2
  9
$SURFTAB1
 70
     6
  9
$SURFTAB2
 70
     6
  9
$SURFTYPE
 70
     6
  9
$SURFU
 70
     6
  9
$SURFV
 70
     6
  9
$UCSBASE
  2

  9
$UCSNAME
  2

  9
$UCSORG
 10
0.0
 20
0.0
 30
0.0
  9
$UCSXDIR
 10
1.0
 20
0.0
 30
0.0
  9
$UCSYDIR
 10
0.0
 20
1.0
 30
0.0
  9
$UCSORTHOREF
  2

  9
$UCSORTHOVIEW
 70
     0
  9
$UCSORGTOP
 10
0.0
 20
0.0
 30
0.0
  9
$UCSORGBOTTOM
 10
0.0
 20
0.0
 30
0.0
  9
$UCSORGLEFT
 10
0.0
 20
0.0
 30
0.0
  9
$UCSORGRIGHT
 10
0.0
 20
0.0
 30
0.0
  9
$UCSORGFRONT
 10
0.0
 20
0.0
 30
0.0
  9
$UCSORGBACK
 10
0.0
 20
0.0
 30
0.0
  9
$PUCSBASE
  2

  9
$PUCSNAME
  2

  9
$PUCSORG
 10
0.0
 20
0.0
 30
0.0
  9
$PUCSXDIR
 10
1.0
 20
0.0
 30
0.0
  9
$PUCSYDIR
 10
0.0
 20
1.0
 30
0.0
  9
$PUCSORTHOREF
  2

  9
$PUCSORTHOVIEW
 70
     0
  9
$PUCSORGTOP
 10
0.0
 20
0.0
 30
0.0
  9
$PUCSORGBOTTOM
 10
0.0
 20
0.0
 30
0.0
  9
$PUCSORGLEFT
 10
0.0
 20
0.0
 30
0.0
  9
$PUCSORGRIGHT
 10
0.0
 20
0.0
 30
0.0
  9
$PUCSORGFRONT
 10
0.0
 20
0.0
 30
0.0
  9
$PUCSORGBACK
 10
0.0
 20
0.0
 30
0.0
  9
$USERI1
 70
     0
  9
$USERI2
 70
     0
  9
$USERI3
 70
     0
  9
$USERI4
 70
     0
  9
$USERI5
 70
     0
  9
$USERR1
 40
0.0
  9
$USERR2
 40
0.0
  9
$USERR3
 40
0.0
  9
$USERR4
 40
0.0
  9
$USERR5
 40
0.0
  9
$WORLDVIEW
 70
     1
  9
$SHADEDGE
 70
     3
  9
$SHADEDIF
 70
    70
  9
$TILEMODE
 70
     1
  9
$MAXACTVP
 70
    64
  9
$PINSBASE
 10
0.0
 20
0.0
 30
0.0
  9
$PLIMCHECK
 70
     0
  9
$PEXTMIN
 10
1.000000000000000E+20
 20
1.000000000000000E+20
 30
1.000000000000000E+20
  9
$PEXTMAX
 10
-1.000000000000000E+20
 20
-1.000000000000000E+20
 30
-1.000000000000000E+20
  9
$PLIMMIN
 10
0.0
 20
0.0
  9
$PLIMMAX
 10
12.0
 20
9.0
  9
$UNITMODE
 70
     0
  9
$VISRETAIN
 70
     1
  9
$PLINEGEN
 70
     0
  9
$PSLTSCALE
 70
     1
  9
$TREEDEPTH
 70
  3020
  9
$CMLSTYLE
  2
Standard
  9
$CMLJUST
 70
     0
  9
$CMLSCALE
 40
1.0
  9
$PROXYGRAPHICS
 70
     1
  9
$MEASUREMENT
 70
     0
  9
$CELWEIGHT
370
    -1
  9
$ENDCAPS
280
     0
  9
$JOINSTYLE
280
     0
  9
$LWDISPLAY
290
     0
  9
$INSUNITS
 70
     0
  9
$HYPERLINKBASE
  1

  9
$STYLESHEET
  1

  9
$XEDIT
290
     1
  9
$CEPSNTYPE
380
     0
  9
$PSTYLEMODE
290
     1
  9
$FINGERPRINTGUID
  2
{272EA965-2136-4195-9806-646BC97BE111}
  9
$VERSIONGUID
  2
{B25131AA-12C0-4D2C-AE62-D9772876EA36}
  9
$EXTNAMES
290
     1
  9
$PSVPSCALE
 40
0.0
  9
$OLESTARTUP
290
     0
  0
ENDSEC
  0
SECTION
  2
CLASSES
  0
CLASS
  1
ACDBDICTIONARYWDFLT
  2
AcDbDictionaryWithDefault
  3
ObjectDBX Classes
 90
        0
280
     0
281
     0
  0
CLASS
  1
MATERIAL
  2
AcDbMaterial
  3
ObjectDBX Classes
 90
     1153
280
     0
281
     0
  0
CLASS
  1
VISUALSTYLE
  2
AcDbVisualStyle
  3
ObjectDBX Classes
 90
     4095
280
     0
281
     0
  0
CLASS
  1
SCALE
  2
AcDbScale
  3
ObjectDBX Classes
 90
     1153
280
     0
281
     0
  0
CLASS
  1
TABLESTYLE
  2
AcDbTableStyle
  3
ObjectDBX Classes
 90
     4095
280
     0
281
     0
  0
CLASS
  1
MLEADERSTYLE
  2
AcDbMLeaderStyle
  3
ACDB_MLEADERSTYLE_CLASS
 90
     4095
280
     0
281
     0
  0
CLASS
  1
SORTENTSTABLE
  2
AcDbSortentsTable
  3
ObjectDBX Classes
 90
        0
280
     0
281
     0
  0
CLASS
  1
DICTIONARYVAR
  2
AcDbDictionaryVar
  3
ObjectDBX Classes
 90
        0
280
     0
281
     0
  0
CLASS
  1
CELLSTYLEMAP
  2
AcDbCellStyleMap
  3
ObjectDBX Classes
 90
     1152
280
     0
281
     0
  0
CLASS
  1
ACDBPLACEHOLDER
  2
AcDbPlaceHolder
  3
ObjectDBX Classes
 90
        0
280
     0
281
     0
  0
CLASS
  1
LAYOUT
  2
AcDbLayout
  3
ObjectDBX Classes
 90
        0
280
     0
281
     0
  0
CLASS
  1
IMAGEDEF
  2
AcDbRasterImageDef
  3
ISM
 90
        0
280
     0
281
     0
  0
CLASS
  1
RASTERVARIABLES
  2
AcDbRasterVariables
  3
ISM
 90
        0
280
     0
281
     0
  0
CLASS
  1
IMAGEDEF_REACTOR
  2
AcDbRasterImageDefReactor
  3
ISM
 90
        1
280
     0
281
     0
  0
CLASS
  1
IMAGE
  2
AcDbRasterImage
  3
ISM
 90
     2175
280
     0
281
     1
  0
CLASS
  1
AEC_REFEDIT_STATUS_TRACKER
  2
AecDbRefEditStatusTracker
  3
AecArchBase60|Product Desc: Autodesk Architectural Desktop 2007 |Company: Autodesk,Inc. |WEB Address: www.autodesk.com
 90
      129
280
     0
281
     0
  0
CLASS
  1
NPOCOLLECTION
  2
AcDbImpNonPersistentObjectsCollection
  3
ObjectDBX Classes
 90
     1153
280
     0
281
     0
  0
ENDSEC
  0
SECTION
  2
TABLES
  0
TABLE
  2
VPORT
  5
8
330
0
100
AcDbSymbolTable
 70
     1
  0
VPORT
  5
8B
330
8
100
AcDbSymbolTableRecord
100
AcDbViewportTableRecord
  2
*Active
 70
     0
 10
0.0
 20
0.0
 11
1.0
 21
1.0
 12
1356.249364331622
 22
-216.3376845259894
 13
0.0
 23
0.0
 14
1.0
 24
1.0
 15
0.0
 25
0.0
 16
0.0
 26
0.0
 36
1.0
 17
0.0
 27
0.0
 37
0.0
 40
604.0056574163225
 41
1.849557522123893
 42
50.0
 43
0.0
 44
0.0
 50
0.0
 51
0.0
 71
     0
 72
   100
 73
     1
 74
     1
 75
     0
 76
     0
 77
     0
 78
     0
281
     0
 65
     1
110
0.0
120
0.0
130
0.0
111
1.0
121
0.0
131
0.0
112
0.0
122
1.0
132
0.0
 79
     0
146
0.0
  0
ENDTAB
  0
TABLE
  2
LTYPE
  5
5
330
0
100
AcDbSymbolTable
 70
     2
  0
LTYPE
  5
5A
330
5
100
AcDbSymbolTableRecord
100
AcDbLinetypeTableRecord
  2
ByBlock
 70
     0
  3

 72
    65
 73
     0
 40
0.0
  0
LTYPE
  5
5B
330
5
100
AcDbSymbolTableRecord
100
AcDbLinetypeTableRecord
  2
ByLayer
 70
     0
  3

 72
    65
 73
     0
 40
0.0
  0
LTYPE
  5
5C
330
5
100
AcDbSymbolTableRecord
100
AcDbLinetypeTableRecord
  2
CONTINUOUS
 70
     0
  3
Solid-line
 72
    65
 73
     0
 40
0.0
  0
ENDTAB
  0
TABLE
  2
LAYER
  5
2
102
{ACAD_XDICTIONARY
360
442
102
}
330
0
100
AcDbSymbolTable
 70
     2
  0
LAYER
  5
54
102
{ACAD_XDICTIONARY
360
683
102
}
330
2
100
AcDbSymbolTableRecord
100
AcDbLayerTableRecord
  2
0
 70
     0
 62
     7
  6
CONTINUOUS
370
    -3
390
F
  0
LAYER
  5
42B
330
2
100
AcDbSymbolTableRecord
100
AcDbLayerTableRecord
  2
Defpoints
 70
     0
 62
     7
  6
CONTINUOUS
290
     0
370
    -3
390
F
  0
ENDTAB
  0
TABLE
  2
STYLE
  5
3
330
0
100
AcDbSymbolTable
 70
     6
  0
STYLE
  5
55
330
3
100
AcDbSymbolTableRecord
100
AcDbTextStyleTableRecord
  2
STANDARD
 70
     0
 40
0.0
 41
1.0
 50
0.0
 71
     0
 42
0.2
  3
TXT
  4
BIGFONT
  0
STYLE
  5
42C
330
3
100
AcDbSymbolTableRecord
100
AcDbTextStyleTableRecord
  2
高3.2
 70
     0
 40
3.2
 41
1.0
 50
0.0
 71
     0
 42
3.2
  3
txt.shx
  4
bigfont.shx
  0
STYLE
  5
42D
330
3
100
AcDbSymbolTableRecord
100
AcDbTextStyleTableRecord
  2
高6.3
 70
     0
 40
6.299999999999998
 41
1.0
 50
0.0
 71
     0
 42
6.299999999999998
  3
txt.shx
  4
bigfont.shx
  0
STYLE
  5
42E
330
3
100
AcDbSymbolTableRecord
100
AcDbTextStyleTableRecord
  2
高2.5
 70
     0
 40
2.5
 41
1.0
 50
0.0
 71
     0
 42
0.2
  3
txt.shx
  4
bigfont.shx
  0
STYLE
  5
42F
330
3
100
AcDbSymbolTableRecord
100
AcDbTextStyleTableRecord
  2
高4.5
 70
     0
 40
4.5
 41
1.0
 50
0.0
 71
     0
 42
6.299999999999998
  3
txt.shx
  4
bigfont.shx
  0
STYLE
  5
430
330
3
100
AcDbSymbolTableRecord
100
AcDbTextStyleTableRecord
  2
高2
 70
     0
 40
2.0
 41
1.0
 50
0.0
 71
     0
 42
2.0
  3
txt.shx
  4
bigfont.shx
  0
ENDTAB
  0
TABLE
  2
VIEW
  5
6
330
0
100
AcDbSymbolTable
 70
     0
  0
ENDTAB
  0
TABLE
  2
UCS
  5
7
330
0
100
AcDbSymbolTable
 70
     0
  0
ENDTAB
  0
TABLE
  2
APPID
  5
9
330
0
100
AcDbSymbolTable
 70
    12
  0
APPID
  5
56
330
9
100
AcDbSymbolTableRecord
100
AcDbRegAppTableRecord
  2
ACAD
 70
     0
  0
APPID
  5
5D
330
9
100
AcDbSymbolTableRecord
100
AcDbRegAppTableRecord
  2
AcadAnnotative
 70
     0
  0
APPID
  5
43B
330
9
100
AcDbSymbolTableRecord
100
AcDbRegAppTableRecord
  2
ACAD_DSTYLE_DIMJOGGED_JOGANGLE_SYMBOL
 70
     0
  0
APPID
  5
43C
330
9
100
AcDbSymbolTableRecord
100
AcDbRegAppTableRecord
  2
ACAD_DSTYLE_DIMJAG
 70
     0
  0
APPID
  5
43D
330
9
100
AcDbSymbolTableRecord
100
AcDbRegAppTableRecord
  2
ACAD_DSTYLE_DIMBREAK
 70
     0
  0
APPID
  5
43E
330
9
100
AcDbSymbolTableRecord
100
AcDbRegAppTableRecord
  2
ACAD_DSTYLE_DIMTALN
 70
     0
  0
APPID
  5
582
330
9
100
AcDbSymbolTableRecord
100
AcDbRegAppTableRecord
  2
ACAD_EXEMPT_FROM_CAD_STANDARDS
 70
     0
  0
APPID
  5
6C9
330
9
100
AcDbSymbolTableRecord
100
AcDbRegAppTableRecord
  2
ACAD_MLEADERVER
 70
     0
  0
APPID
  5
6CE
330
9
100
AcDbSymbolTableRecord
100
AcDbRegAppTableRecord
  2
ACAD_DSTYLE_DIMARC_LENGTH_SYMBOL
 70
     0
  0
APPID
  5
6CF
330
9
100
AcDbSymbolTableRecord
100
AcDbRegAppTableRecord
  2
ACAD_DSTYLE_DIMEXT_LENGTH
 70
     0
  0
APPID
  5
D11
330
9
100
AcDbSymbolTableRecord
100
AcDbRegAppTableRecord
  2
GradientColor1ACI
 70
     0
  0
APPID
  5
D12
330
9
100
AcDbSymbolTableRecord
100
AcDbRegAppTableRecord
  2
GradientColor2ACI
 70
     0
  0
ENDTAB
  0
TABLE
  2
DIMSTYLE
  5
A
330
0
100
AcDbSymbolTable
 70
    12
100
AcDbDimStyleTable
 71
     2
340
808
340
435
  0
DIMSTYLE
105
57
330
A
100
AcDbSymbolTableRecord
100
AcDbDimStyleTableRecord
  2
Standard
 70
     0
340
55
  0
DIMSTYLE
105
435
330
A
100
AcDbSymbolTableRecord
100
AcDbDimStyleTableRecord
  2
1／2
 70
     0
 41
2.5
 42
0.25
 43
0.2
 44
1.25
 73
     0
 74
     0
 77
     3
 78
     8
 79
     2
140
3.0
141
0.0
143
0.03937007874016
144
2.0
147
0.625
171
     3
172
     1
178
     4
179
     1
271
     2
272
     2
274
     3
283
     0
284
     8
288
     1
289
     0
340
55
341
39B
342
39B
1001
ACAD_DSTYLE_DIMARC_LENGTH_SYMBOL
1070
   379
1070
     2
1001
ACAD_DSTYLE_DIMEXT_LENGTH
1070
   378
1040
1.25
1001
ACAD_DSTYLE_DIMJOGGED_JOGANGLE_SYMBOL
1070
   384
1040
1.570796326794896
  0
DIMSTYLE
105
808
330
A
100
AcDbSymbolTableRecord
100
AcDbDimStyleTableRecord
  2
1：1
 70
     0
 41
2.5
 42
0.25
 43
0.2
 44
1.25
 73
     0
 74
     0
 77
     3
 78
     8
 79
     2
140
3.0
141
0.0
143
0.03937007874016
147
0.625
171
     3
172
     1
178
     4
179
     1
271
     2
272
     2
274
     3
283
     0
284
     8
288
     1
289
     0
340
55
341
39B
342
39B
1001
ACAD_DSTYLE_DIMARC_LENGTH_SYMBOL
1070
   379
1070
     2
1001
ACAD_DSTYLE_DIMEXT_LENGTH
1070
   378
1040
1.25
1001
ACAD_DSTYLE_DIMJOGGED_JOGANGLE_SYMBOL
1070
   384
1040
1.570796326794896
  0
DIMSTYLE
105
809
330
A
100
AcDbSymbolTableRecord
100
AcDbDimStyleTableRecord
  2
2：1
 70
     0
 41
2.5
 42
0.25
 43
0.2
 44
1.25
 73
     0
 74
     0
 77
     3
 78
     8
 79
     2
140
3.0
141
0.0
143
0.03937007874016
144
0.5
147
0.625
171
     3
172
     1
178
     4
179
     1
271
     2
272
     2
274
     3
283
     0
284
     8
288
     1
289
     0
340
55
341
39B
342
39B
1001
ACAD_DSTYLE_DIMARC_LENGTH_SYMBOL
1070
   379
1070
     2
1001
ACAD_DSTYLE_DIMEXT_LENGTH
1070
   378
1040
1.25
1001
ACAD_DSTYLE_DIMJOGGED_JOGANGLE_SYMBOL
1070
   384
1040
1.570796326794896
  0
DIMSTYLE
105
80A
330
A
100
AcDbSymbolTableRecord
100
AcDbDimStyleTableRecord
  2
5：1
 70
     0
 41
2.5
 42
0.25
 43
0.2
 44
1.25
 73
     0
 74
     0
 77
     3
 78
     8
 79
     2
140
3.0
141
0.0
143
0.03937007874016
144
0.2
147
0.625
171
     3
172
     1
178
     4
179
     1
271
     2
272
     2
274
     3
283
     0
284
     8
288
     1
289
     0
340
55
341
39B
342
39B
1001
ACAD_DSTYLE_DIMARC_LENGTH_SYMBOL
1070
   379
1070
     2
1001
ACAD_DSTYLE_DIMEXT_LENGTH
1070
   378
1040
1.25
1001
ACAD_DSTYLE_DIMJOGGED_JOGANGLE_SYMBOL
1070
   384
1040
1.570796326794896
  0
DIMSTYLE
105
80B
330
A
100
AcDbSymbolTableRecord
100
AcDbDimStyleTableRecord
  2
10：1
 70
     0
 41
2.5
 42
0.25
 43
0.2
 44
1.25
 73
     0
 74
     0
 77
     3
 78
     8
 79
     2
140
3.0
141
0.0
143
0.03937007874016
144
0.1
147
0.625
171
     3
172
     1
178
     4
179
     1
271
     2
272
     2
274
     3
283
     0
284
     8
288
     1
289
     0
340
55
341
39B
342
39B
1001
ACAD_DSTYLE_DIMARC_LENGTH_SYMBOL
1070
   379
1070
     2
1001
ACAD_DSTYLE_DIMEXT_LENGTH
1070
   378
1040
1.25
1001
ACAD_DSTYLE_DIMJOGGED_JOGANGLE_SYMBOL
1070
   384
1040
1.570796326794896
  0
DIMSTYLE
105
80C
330
A
100
AcDbSymbolTableRecord
100
AcDbDimStyleTableRecord
  2
1／5
 70
     0
 41
2.5
 42
0.25
 43
0.2
 44
1.25
 73
     0
 74
     0
 77
     3
 78
     8
 79
     2
140
3.0
141
0.0
143
0.03937007874016
144
5.0
147
0.625
171
     3
172
     1
178
     4
179
     1
271
     2
272
     2
274
     3
283
     0
284
     8
288
     1
289
     0
340
55
341
39B
342
39B
1001
ACAD_DSTYLE_DIMARC_LENGTH_SYMBOL
1070
   379
1070
     2
1001
ACAD_DSTYLE_DIMEXT_LENGTH
1070
   378
1040
1.25
1001
ACAD_DSTYLE_DIMJOGGED_JOGANGLE_SYMBOL
1070
   384
1040
1.570796326794896
  0
DIMSTYLE
105
80D
330
A
100
AcDbSymbolTableRecord
100
AcDbDimStyleTableRecord
  2
1／10
 70
     0
 41
2.5
 42
0.25
 43
0.2
 44
1.25
 73
     0
 74
     0
 77
     3
 78
     8
 79
     2
140
3.0
141
0.0
143
0.03937007874016
144
10.0
147
0.625
171
     3
172
     1
178
     4
179
     1
271
     2
272
     2
274
     3
283
     0
284
     8
288
     1
289
     0
340
55
341
39B
342
39B
1001
ACAD_DSTYLE_DIMARC_LENGTH_SYMBOL
1070
   379
1070
     2
1001
ACAD_DSTYLE_DIMEXT_LENGTH
1070
   378
1040
1.25
1001
ACAD_DSTYLE_DIMJOGGED_JOGANGLE_SYMBOL
1070
   384
1040
1.570796326794896
  0
DIMSTYLE
105
80E
330
A
100
AcDbSymbolTableRecord
100
AcDbDimStyleTableRecord
  2
1／4
 70
     0
 41
2.5
 42
0.25
 43
0.2
 44
1.25
 73
     0
 74
     0
 77
     3
 78
     8
 79
     2
140
3.0
141
0.0
143
0.03937007874016
144
4.0
147
0.625
171
     3
172
     1
178
     4
179
     1
271
     2
272
     2
274
     3
283
     0
284
     8
288
     1
289
     0
340
55
341
39B
342
39B
1001
ACAD_DSTYLE_DIMARC_LENGTH_SYMBOL
1070
   379
1070
     2
1001
ACAD_DSTYLE_DIMEXT_LENGTH
1070
   378
1040
1.25
1001
ACAD_DSTYLE_DIMJOGGED_JOGANGLE_SYMBOL
1070
   384
1040
1.570796326794896
  0
DIMSTYLE
105
80F
330
A
100
AcDbSymbolTableRecord
100
AcDbDimStyleTableRecord
  2
1／3
 70
     0
 41
2.5
 42
0.25
 43
0.2
 44
1.25
 73
     0
 74
     0
 77
     3
 78
     8
 79
     2
140
3.0
141
0.0
143
0.03937007874016
144
3.0
147
0.625
171
     3
172
     1
178
     4
179
     1
271
     2
272
     2
274
     3
283
     0
284
     8
288
     1
289
     0
340
55
341
39B
342
39B
1001
ACAD_DSTYLE_DIMARC_LENGTH_SYMBOL
1070
   379
1070
     2
1001
ACAD_DSTYLE_DIMEXT_LENGTH
1070
   378
1040
1.25
1001
ACAD_DSTYLE_DIMJOGGED_JOGANGLE_SYMBOL
1070
   384
1040
1.570796326794896
  0
DIMSTYLE
105
810
330
A
100
AcDbSymbolTableRecord
100
AcDbDimStyleTableRecord
  2
FREE
 70
     0
 41
2.5
 42
0.25
 43
0.2
 44
1.25
 73
     0
 74
     0
 77
     3
 78
     8
 79
     2
140
3.0
141
0.0
143
0.03937007874016
147
0.625
171
     3
172
     1
178
     4
179
     1
271
     2
272
     2
274
     3
283
     0
284
     8
288
     1
289
     0
340
55
341
39B
342
39B
1001
ACAD_DSTYLE_DIMBREAK
1070
   391
1040
3.75
1001
ACAD_DSTYLE_DIMJAG
1070
   388
1040
1.5
1001
ACAD_DSTYLE_DIMTALN
1070
   392
1070
     0
1001
ACAD_DSTYLE_DIMARC_LENGTH_SYMBOL
1070
   379
1070
     2
1001
ACAD_DSTYLE_DIMEXT_LENGTH
1070
   378
1040
1.25
1001
ACAD_DSTYLE_DIMJOGGED_JOGANGLE_SYMBOL
1070
   384
1040
1.570796326794896
  0
DIMSTYLE
105
A11
330
A
100
AcDbSymbolTableRecord
100
AcDbDimStyleTableRecord
  2
1：1S
 70
     0
 41
1.0
 42
0.25
 43
0.2
 44
0.5
 73
     0
 74
     0
 77
     3
 78
     8
 79
     2
140
1.0
141
0.0
143
0.03937007874016
147
0.625
171
     3
172
     1
178
     4
179
     1
271
     2
272
     2
274
     3
283
     0
284
     8
288
     1
289
     0
340
55
341
39B
342
39B
1001
ACAD_DSTYLE_DIMBREAK
1070
   391
1040
3.75
1001
ACAD_DSTYLE_DIMJAG
1070
   388
1040
1.5
1001
ACAD_DSTYLE_DIMTALN
1070
   392
1070
     0
1001
ACAD_DSTYLE_DIMARC_LENGTH_SYMBOL
1070
   379
1070
     2
1001
ACAD_DSTYLE_DIMEXT_LENGTH
1070
   378
1040
1.25
1001
ACAD_DSTYLE_DIMJOGGED_JOGANGLE_SYMBOL
1070
   384
1040
1.570796326794896
  0
ENDTAB
  0
TABLE
  2
BLOCK_RECORD
  5
1
330
0
100
AcDbSymbolTable
 70
    31
  0
BLOCK_RECORD
  5
6B
102
{ACAD_XDICTIONARY
360
777
102
}
330
1
100
AcDbSymbolTableRecord
100
AcDbBlockTableRecord
  2
*Model_Space
340
6E
  0
BLOCK_RECORD
  5
67
330
1
100
AcDbSymbolTableRecord
100
AcDbBlockTableRecord
  2
*Paper_Space
340
6A
  0
BLOCK_RECORD
  5
39B
330
1
100
AcDbSymbolTableRecord
100
AcDbBlockTableRecord
  2
_Open30
340
0
102
{BLKREFS
331
76D
331
76E
331
785
331
786
331
793
331
794
331
7A1
331
7A2
331
7AF
331
7B0
331
7BD
331
7BE
331
7CB
331
7CC
331
7D9
331
7DA
331
7E7
331
7E8
331
7F5
331
7F6
331
801
331
802
331
BEC
331
BED
331
BF7
331
BF8
331
C02
331
C03
331
C0D
331
C0E
331
C18
331
C19
331
C23
331
C24
331
C2E
331
C2F
331
C39
331
C3A
331
C44
331
C45
331
C4D
331
C4E
331
CA2
331
CA3
331
CAB
331
CAC
331
CB4
331
CB5
331
CDD
331
CDE
331
CEA
331
CEB
331
D17
331
D18
102
}
  0
BLOCK_RECORD
  5
584
330
1
100
AcDbSymbolTableRecord
100
AcDbBlockTableRecord
  2
*D1
340
0
  0
BLOCK_RECORD
  5
59A
330
1
100
AcDbSymbolTableRecord
100
AcDbBlockTableRecord
  2
*D2
340
0
  0
BLOCK_RECORD
  5
5A6
330
1
100
AcDbSymbolTableRecord
100
AcDbBlockTableRecord
  2
*D3
340
0
  0
BLOCK_RECORD
  5
765
330
1
100
AcDbSymbolTableRecord
100
AcDbBlockTableRecord
  2
*D4
340
0
  0
BLOCK_RECORD
  5
77E
330
1
100
AcDbSymbolTableRecord
100
AcDbBlockTableRecord
  2
*D5
340
0
  0
BLOCK_RECORD
  5
78C
330
1
100
AcDbSymbolTableRecord
100
AcDbBlockTableRecord
  2
*D6
340
0
  0
BLOCK_RECORD
  5
79A
330
1
100
AcDbSymbolTableRecord
100
AcDbBlockTableRecord
  2
*D7
340
0
  0
BLOCK_RECORD
  5
7A8
330
1
100
AcDbSymbolTableRecord
100
AcDbBlockTableRecord
  2
*D8
340
0
  0
BLOCK_RECORD
  5
7B6
330
1
100
AcDbSymbolTableRecord
100
AcDbBlockTableRecord
  2
*D9
340
0
  0
BLOCK_RECORD
  5
7C4
330
1
100
AcDbSymbolTableRecord
100
AcDbBlockTableRecord
  2
*D10
340
0
  0
BLOCK_RECORD
  5
7D2
330
1
100
AcDbSymbolTableRecord
100
AcDbBlockTableRecord
  2
*D11
340
0
  0
BLOCK_RECORD
  5
7E0
330
1
100
AcDbSymbolTableRecord
100
AcDbBlockTableRecord
  2
*D12
340
0
  0
BLOCK_RECORD
  5
7EE
330
1
100
AcDbSymbolTableRecord
100
AcDbBlockTableRecord
  2
*D13
340
0
  0
BLOCK_RECORD
  5
7FC
330
1
100
AcDbSymbolTableRecord
100
AcDbBlockTableRecord
  2
*D14
340
0
  0
BLOCK_RECORD
  5
82E
330
1
100
AcDbSymbolTableRecord
100
AcDbBlockTableRecord
  2
*D15
340
0
  0
BLOCK_RECORD
  5
83C
330
1
100
AcDbSymbolTableRecord
100
AcDbBlockTableRecord
  2
*D16
340
0
  0
BLOCK_RECORD
  5
84A
330
1
100
AcDbSymbolTableRecord
100
AcDbBlockTableRecord
  2
*D17
340
0
  0
BLOCK_RECORD
  5
858
330
1
100
AcDbSymbolTableRecord
100
AcDbBlockTableRecord
  2
*D18
340
0
  0
BLOCK_RECORD
  5
866
330
1
100
AcDbSymbolTableRecord
100
AcDbBlockTableRecord
  2
*D19
340
0
  0
BLOCK_RECORD
  5
874
330
1
100
AcDbSymbolTableRecord
100
AcDbBlockTableRecord
  2
*D20
340
0
  0
BLOCK_RECORD
  5
882
330
1
100
AcDbSymbolTableRecord
100
AcDbBlockTableRecord
  2
*D21
340
0
  0
BLOCK_RECORD
  5
890
330
1
100
AcDbSymbolTableRecord
100
AcDbBlockTableRecord
  2
*D22
340
0
  0
BLOCK_RECORD
  5
89E
330
1
100
AcDbSymbolTableRecord
100
AcDbBlockTableRecord
  2
*D23
340
0
  0
BLOCK_RECORD
  5
8AC
330
1
100
AcDbSymbolTableRecord
100
AcDbBlockTableRecord
  2
*D24
340
0
  0
BLOCK_RECORD
  5
A12
102
{ACAD_XDICTIONARY
360
A1F
102
}
330
1
100
AcDbSymbolTableRecord
100
AcDbBlockTableRecord
  2
A$C22952CF1
340
0
1001
ACAD
1000
DesignCenter Data
1002
{
1070
     1
1070
     1
1002
}
  0
BLOCK_RECORD
  5
CC1
330
1
100
AcDbSymbolTableRecord
100
AcDbBlockTableRecord
  2
*D26
340
0
  0
BLOCK_RECORD
  5
CD7
330
1
100
AcDbSymbolTableRecord
100
AcDbBlockTableRecord
  2
*D27
340
0
  0
BLOCK_RECORD
  5
CE4
330
1
100
AcDbSymbolTableRecord
100
AcDbBlockTableRecord
  2
*D28
340
0
  0
BLOCK_RECORD
  5
D00
330
1
100
AcDbSymbolTableRecord
100
AcDbBlockTableRecord
  2
_DotSmall
340
0
  0
ENDTAB
  0
ENDSEC
  0
SECTION
  2
BLOCKS
  0
BLOCK
  5
6C
330
6B
100
AcDbEntity
  8
0
100
AcDbBlockBegin
  2
*Model_Space
 70
     0
 10
0.0
 20
0.0
 30
0.0
  3
*Model_Space
  1

  0
ENDBLK
  5
6D
330
6B
100
AcDbEntity
  8
0
100
AcDbBlockEnd
  0
BLOCK
  5
68
330
67
100
AcDbEntity
 67
     1
  8
0
100
AcDbBlockBegin
  2
*Paper_Space
 70
     0
 10
0.0
 20
0.0
 30
0.0
  3
*Paper_Space
  1

  0
ENDBLK
  5
69
330
67
100
AcDbEntity
 67
     1
  8
0
100
AcDbBlockEnd
  0
BLOCK
  5
39C
330
39B
100
AcDbEntity
  8
0
100
AcDbBlockBegin
  2
_Open30
 70
     0
 10
0.0
 20
0.0
 30
0.0
  3
_Open30
  1

  0
LINE
  5
39D
330
39B
100
AcDbEntity
  8
0
  6
ByBlock
 62
     0
370
    -2
100
AcDbLine
 10
-1.0
 20
0.267949
 30
0.0
 11
0.0
 21
0.0
 31
0.0
  0
LINE
  5
39E
330
39B
100
AcDbEntity
  8
0
  6
ByBlock
 62
     0
370
    -2
100
AcDbLine
 10
0.0
 20
0.0
 30
0.0
 11
-1.0
 21
-0.267949
 31
0.0
  0
LINE
  5
39F
330
39B
100
AcDbEntity
  8
0
  6
ByBlock
 62
     0
370
    -2
100
AcDbLine
 10
0.0
 20
0.0
 30
0.0
 11
-1.0
 21
0.0
 31
0.0
  0
ENDBLK
  5
3A0
330
39B
100
AcDbEntity
  8
0
100
AcDbBlockEnd
  0
BLOCK
  5
585
330
584
100
AcDbEntity
  8
0
100
AcDbBlockBegin
  2
*D1
 70
     1
 10
0.0
 20
0.0
 30
0.0
  3
*D1
  1

  0
LINE
  5
C9F
330
584
100
AcDbEntity
  8
0
 62
     0
370
    -2
100
AcDbLine
 10
728.9125404172696
 20
-172.7239684015129
 30
0.0
 11
728.9125404172696
 21
-190.9156944015129
 31
0.0
  0
LINE
  5
CA0
330
584
100
AcDbEntity
  8
0
 62
     0
370
    -2
100
AcDbLine
 10
826.4125384172697
 20
-172.7239684015129
 30
0.0
 11
826.4125384172697
 21
-190.9156944015129
 31
0.0
  0
LINE
  5
CA1
330
584
100
AcDbEntity
  8
0
 62
     0
370
    -2
100
AcDbLine
 10
731.4125404172695
 20
-189.6656944015129
 30
0.0
 11
823.9125384172696
 21
-189.6656944015129
 31
0.0
  0
INSERT
  5
CA2
330
584
100
AcDbEntity
  8
0
 62
     0
370
    -2
100
AcDbBlockReference
  2
_Open30
 10
728.9125404172696
 20
-189.6656944015129
 30
0.0
 41
2.5
 42
2.5
 43
2.5
 50
180.0
  0
INSERT
  5
CA3
330
584
100
AcDbEntity
  8
0
 62
     0
370
    -2
100
AcDbBlockReference
  2
_Open30
 10
826.4125384172697
 20
-189.6656944015129
 30
0.0
 41
2.5
 42
2.5
 43
2.5
  0
MTEXT
  5
CA4
330
584
100
AcDbEntity
  8
0
 62
     4
100
AcDbMText
 10
777.6625394172696
 20
-187.5406944015129
 30
0.0
 40
3.0
 41
0.0
 71
     5
 72
     1
  1
195
 73
     1
 44
1.0
1001
ACAD
1000
MTEXTBEGIN
1070
    73
1070
     1
1070
    44
1040
1.0
1070
    74
1070
     0
1000
MTEXTEND
  0
POINT
  5
CA5
330
584
100
AcDbEntity
  8
Defpoints
 62
     0
100
AcDbPoint
 10
728.9125404172696
 20
-172.4739684015129
 30
0.0
  0
POINT
  5
CA6
330
584
100
AcDbEntity
  8
Defpoints
 62
     0
100
AcDbPoint
 10
826.4125384172697
 20
-172.4739684015129
 30
0.0
  0
POINT
  5
CA7
330
584
100
AcDbEntity
  8
Defpoints
 62
     0
100
AcDbPoint
 10
826.4125384172697
 20
-189.6656944015129
 30
0.0
  0
ENDBLK
  5
586
330
584
100
AcDbEntity
  8
0
100
AcDbBlockEnd
  0
BLOCK
  5
59B
330
59A
100
AcDbEntity
  8
0
100
AcDbBlockBegin
  2
*D2
 70
     1
 10
0.0
 20
0.0
 30
0.0
  3
*D2
  1

  0
LINE
  5
CB1
330
59A
100
AcDbEntity
  8
0
 62
     0
370
    -2
100
AcDbLine
 10
701.9121734172695
 20
-174.9739684015129
 30
0.0
 11
719.1370034172696
 21
-174.9739684015129
 31
0.0
  0
LINE
  5
CB2
330
59A
100
AcDbEntity
  8
0
 62
     0
370
    -2
100
AcDbLine
 10
679.4125404172696
 20
-107.4739704015129
 30
0.0
 11
719.1370034172696
 21
-107.4739704015129
 31
0.0
  0
LINE
  5
CB3
330
59A
100
AcDbEntity
  8
0
 62
     0
370
    -2
100
AcDbLine
 10
717.8870034172696
 20
-172.4739684015129
 30
0.0
 11
717.8870034172696
 21
-109.9739704015129
 31
0.0
  0
INSERT
  5
CB4
330
59A
100
AcDbEntity
  8
0
 62
     0
370
    -2
100
AcDbBlockReference
  2
_Open30
 10
717.8870034172696
 20
-174.9739684015129
 30
0.0
 41
2.5
 42
2.5
 43
2.5
 50
270.0
  0
INSERT
  5
CB5
330
59A
100
AcDbEntity
  8
0
 62
     0
370
    -2
100
AcDbBlockReference
  2
_Open30
 10
717.8870034172696
 20
-107.4739704015129
 30
0.0
 41
2.5
 42
2.5
 43
2.5
 50
90.0
  0
MTEXT
  5
CB6
330
59A
100
AcDbEntity
  8
0
 62
     4
100
AcDbMText
 10
715.7620034172696
 20
-141.2239694015128
 30
0.0
 40
3.0
 41
0.0
 71
     5
 72
     1
  1
135
 11
0.0000000000000001
 21
1.0
 31
0.0
 73
     1
 44
1.0
1001
ACAD
1000
MTEXTBEGIN
1070
    73
1070
     1
1070
    44
1040
1.0
1070
    74
1070
     0
1000
MTEXTEND
  0
POINT
  5
CB7
330
59A
100
AcDbEntity
  8
Defpoints
 62
     0
100
AcDbPoint
 10
701.6621734172694
 20
-174.9739684015129
 30
0.0
  0
POINT
  5
CB8
330
59A
100
AcDbEntity
  8
Defpoints
 62
     0
100
AcDbPoint
 10
679.1625404172696
 20
-107.4739704015129
 30
0.0
  0
POINT
  5
CB9
330
59A
100
AcDbEntity
  8
Defpoints
 62
     0
100
AcDbPoint
 10
717.8870034172696
 20
-107.4739704015129
 30
0.0
  0
ENDBLK
  5
59C
330
59A
100
AcDbEntity
  8
0
100
AcDbBlockEnd
  0
BLOCK
  5
5A7
330
5A6
100
AcDbEntity
  8
0
100
AcDbBlockBegin
  2
*D3
 70
     1
 10
0.0
 20
0.0
 30
0.0
  3
*D3
  1

  0
LINE
  5
CA8
330
5A6
100
AcDbEntity
  8
0
 62
     0
370
    -2
100
AcDbLine
 10
640.4125414172697
 20
-170.2239694015129
 30
0.0
 11
640.4125414172697
 21
-192.0574934015129
 31
0.0
  0
LINE
  5
CA9
330
5A6
100
AcDbEntity
  8
0
 62
     0
370
    -2
100
AcDbLine
 10
705.4125404172696
 20
-170.2239694015129
 30
0.0
 11
705.4125404172696
 21
-192.0574934015129
 31
0.0
  0
LINE
  5
CAA
330
5A6
100
AcDbEntity
  8
0
 62
     0
370
    -2
100
AcDbLine
 10
642.9125414172697
 20
-190.8074934015129
 30
0.0
 11
702.9125404172695
 21
-190.8074934015129
 31
0.0
  0
INSERT
  5
CAB
330
5A6
100
AcDbEntity
  8
0
 62
     0
370
    -2
100
AcDbBlockReference
  2
_Open30
 10
640.4125414172697
 20
-190.8074934015129
 30
0.0
 41
2.5
 42
2.5
 43
2.5
 50
180.0
  0
INSERT
  5
CAC
330
5A6
100
AcDbEntity
  8
0
 62
     0
370
    -2
100
AcDbBlockReference
  2
_Open30
 10
705.4125404172696
 20
-190.8074934015129
 30
0.0
 41
2.5
 42
2.5
 43
2.5
  0
MTEXT
  5
CAD
330
5A6
100
AcDbEntity
  8
0
 62
     4
100
AcDbMText
 10
672.9125409172696
 20
-188.6824934015129
 30
0.0
 40
3.0
 41
0.0
 71
     5
 72
     1
  1
130
 73
     1
 44
1.0
1001
ACAD
1000
MTEXTBEGIN
1070
    73
1070
     1
1070
    44
1040
1.0
1070
    74
1070
     0
1000
MTEXTEND
  0
POINT
  5
CAE
330
5A6
100
AcDbEntity
  8
Defpoints
 62
     0
100
AcDbPoint
 10
640.4125414172697
 20
-169.9739694015129
 30
0.0
  0
POINT
  5
CAF
330
5A6
100
AcDbEntity
  8
Defpoints
 62
     0
100
AcDbPoint
 10
705.4125404172696
 20
-169.9739694015129
 30
0.0
  0
POINT
  5
CB0
330
5A6
100
AcDbEntity
  8
Defpoints
 62
     0
100
AcDbPoint
 10
705.4125404172696
 20
-190.8074934015129
 30
0.0
  0
ENDBLK
  5
5A8
330
5A6
100
AcDbEntity
  8
0
100
AcDbBlockEnd
  0
BLOCK
  5
766
330
765
100
AcDbEntity
  8
0
 62
     1
100
AcDbBlockBegin
  2
*D4
 70
     1
 10
0.0
 20
0.0
 30
0.0
  3
*D4
  1

  0
LINE
  5
768
330
765
100
AcDbEntity
  8
0
  6
Continuous
 62
     0
370
    -2
100
AcDbLine
 10
1785.559899286088
 20
-20.40969533890461
 30
0.0
 11
1794.510066133174
 21
-20.40969533890455
 31
0.0
  0
LINE
  5
769
330
765
100
AcDbEntity
  8
0
  6
Continuous
 62
     0
370
    -2
100
AcDbLine
 10
1785.523833438421
 20
-15.78165670484192
 30
0.0
 11
1794.472913276633
 21
-15.64216964448581
 31
0.0
  0
ARC
  5
76A
330
765
100
AcDbEntity
  8
0
  6
Continuous
 62
     0
370
    -2
100
AcDbCircle
 10
1488.602476541551
 20
-20.40969533890461
 30
0.0
 40
304.657589591623
100
AcDbArc
 50
359.0596666187246
 51
359.5298333093623
  0
ARC
  5
76B
330
765
100
AcDbEntity
  8
0
  6
Continuous
 62
     0
370
    -2
100
AcDbCircle
 10
1488.602476541551
 20
-20.40969533890461
 30
0.0
 40
304.657589591623
100
AcDbArc
 50
1.363149308088538
 51
1.83331599872622
  0
ARC
  5
76C
330
765
100
AcDbEntity
  8
0
  6
Continuous
 62
     0
370
    -2
100
AcDbCircle
 10
1488.602476541551
 20
-20.40969533890461
 30
0.0
 40
304.657589591623
100
AcDbArc
 50
0.0
 51
0.8929826174508566
  0
INSERT
  5
76D
330
765
100
AcDbEntity
  8
0
  6
Continuous
 62
     0
370
    -2
100
AcDbBlockReference
  2
_Open30
 10
1793.260066133174
 20
-20.40969533890456
 30
0.0
 41
2.5
 42
2.5
 43
2.5
 50
89.76491665468115
  0
INSERT
  5
76E
330
765
100
AcDbEntity
  8
0
  6
Continuous
 62
     0
370
    -2
100
AcDbBlockReference
  2
_Open30
 10
1793.223065090685
 20
-15.66165071432776
 30
0.0
 41
2.5
 42
2.5
 43
2.5
 50
271.1280659627697
  0
MTEXT
  5
76F
330
765
100
AcDbEntity
  8
0
  6
Continuous
 62
     4
100
AcDbMText
 10
1795.378782652214
 20
-18.44620720821061
 30
0.0
 40
3.0
 41
0.0
 71
     5
 72
     1
  1
0.9\U+00B0
 11
0.0064002593279759
 21
-0.999979518130514
 31
0.0
 73
     1
 44
1.0
1001
ACAD
1000
MTEXTBEGIN
1070
    73
1070
     1
1070
    44
1040
1.0
1070
    74
1070
     0
1000
MTEXTEND
  0
POINT
  5
770
330
765
100
AcDbEntity
  8
Defpoints
  6
Continuous
 62
     0
100
AcDbPoint
 10
1793.243621040465
 20
-17.24426106069075
 30
0.0
  0
POINT
  5
771
330
765
100
AcDbEntity
  8
Defpoints
  6
Continuous
 62
     0
100
AcDbPoint
 10
1785.273863801232
 20
-15.78555291881031
 30
0.0
  0
POINT
  5
772
330
765
100
AcDbEntity
  8
Defpoints
  6
Continuous
 62
     0
100
AcDbPoint
 10
1785.309899286088
 20
-20.40969533890461
 30
0.0
  0
POINT
  5
773
330
765
100
AcDbEntity
  8
Defpoints
  6
Continuous
 62
     0
100
AcDbPoint
 10
1488.602476541551
 20
-20.40969533890461
 30
0.0
  0
POINT
  5
774
330
765
100
AcDbEntity
  8
Defpoints
  6
Continuous
 62
     0
100
AcDbPoint
 10
1488.602476541551
 20
-20.40969533890461
 30
0.0
  0
ENDBLK
  5
767
330
765
100
AcDbEntity
  8
0
 62
     1
100
AcDbBlockEnd
  0
BLOCK
  5
77F
330
77E
100
AcDbEntity
  8
0
100
AcDbBlockBegin
  2
*D5
 70
     1
 10
0.0
 20
0.0
 30
0.0
  3
*D5
  1

  0
LINE
  5
780
330
77E
100
AcDbEntity
  8
0
 62
     0
370
    -2
100
AcDbLine
 10
-178.2339678749101
 20
-812.0370112307897
 30
0.0
 11
-178.2339678749101
 21
-814.9466426527986
 31
0.0
  0
LINE
  5
781
330
77E
100
AcDbEntity
  8
0
 62
     0
370
    -2
100
AcDbLine
 10
-180.6911549290304
 20
-812.0370112307897
 30
0.0
 11
-180.6911549290304
 21
-814.9466426527986
 31
0.0
  0
LINE
  5
782
330
77E
100
AcDbEntity
  8
0
 62
     0
370
    -2
100
AcDbLine
 10
-175.7339678749101
 20
-813.6966426527985
 30
0.0
 11
-173.2339678749101
 21
-813.6966426527985
 31
0.0
  0
LINE
  5
783
330
77E
100
AcDbEntity
  8
0
 62
     0
370
    -2
100
AcDbLine
 10
-183.1911549290304
 20
-813.6966426527985
 30
0.0
 11
-195.9411549290304
 21
-813.6966426527985
 31
0.0
  0
LINE
  5
784
330
77E
100
AcDbEntity
  8
0
 62
     0
370
    -2
100
AcDbLine
 10
-178.2339678749101
 20
-813.6966426527985
 30
0.0
 11
-180.6911549290304
 21
-813.6966426527985
 31
0.0
  0
INSERT
  5
785
330
77E
100
AcDbEntity
  8
0
 62
     0
370
    -2
100
AcDbBlockReference
  2
_Open30
 10
-178.2339678749101
 20
-813.6966426527985
 30
0.0
 41
2.5
 42
2.5
 43
2.5
 50
180.0
  0
INSERT
  5
786
330
77E
100
AcDbEntity
  8
0
 62
     0
370
    -2
100
AcDbBlockReference
  2
_Open30
 10
-180.6911549290304
 20
-813.6966426527985
 30
0.0
 41
2.5
 42
2.5
 43
2.5
  0
MTEXT
  5
787
330
77E
100
AcDbEntity
  8
0
 62
     4
100
AcDbMText
 10
-190.8161549290304
 20
-811.5716426527985
 30
0.0
 40
3.0
 41
0.0
 71
     5
 72
     1
  1
2.46
 73
     1
 44
1.0
1001
ACAD
1000
MTEXTBEGIN
1070
    73
1070
     1
1070
    44
1040
1.0
1070
    74
1070
     0
1000
MTEXTEND
  0
POINT
  5
788
330
77E
100
AcDbEntity
  8
Defpoints
 62
     0
100
AcDbPoint
 10
-178.2339678749101
 20
-811.7870112307898
 30
0.0
  0
POINT
  5
789
330
77E
100
AcDbEntity
  8
Defpoints
 62
     0
100
AcDbPoint
 10
-180.6911549290304
 20
-811.7870112307898
 30
0.0
  0
POINT
  5
78A
330
77E
100
AcDbEntity
  8
Defpoints
 62
     0
100
AcDbPoint
 10
-180.6911549290304
 20
-813.6966426527985
 30
0.0
  0
ENDBLK
  5
78B
330
77E
100
AcDbEntity
  8
0
100
AcDbBlockEnd
  0
BLOCK
  5
78D
330
78C
100
AcDbEntity
  8
0
100
AcDbBlockBegin
  2
*D6
 70
     1
 10
0.0
 20
0.0
 30
0.0
  3
*D6
  1

  0
LINE
  5
78E
330
78C
100
AcDbEntity
  8
0
 62
     0
370
    -2
100
AcDbLine
 10
-176.5958429688369
 20
-817.4931008035521
 30
0.0
 11
-176.5958429688369
 21
-820.0389928730155
 31
0.0
  0
LINE
  5
78F
330
78C
100
AcDbEntity
  8
0
 62
     0
370
    -2
100
AcDbLine
 10
-179.6900787669798
 20
-817.4931008035521
 30
0.0
 11
-179.6900787669798
 21
-820.0389928730155
 31
0.0
  0
LINE
  5
790
330
78C
100
AcDbEntity
  8
0
 62
     0
370
    -2
100
AcDbLine
 10
-174.0958429688369
 20
-818.7889928730154
 30
0.0
 11
-171.5958429688369
 21
-818.7889928730154
 31
0.0
  0
LINE
  5
791
330
78C
100
AcDbEntity
  8
0
 62
     0
370
    -2
100
AcDbLine
 10
-182.1900787669798
 20
-818.7889928730154
 30
0.0
 11
-196.0234121003131
 21
-818.7889928730154
 31
0.0
  0
LINE
  5
792
330
78C
100
AcDbEntity
  8
0
 62
     0
370
    -2
100
AcDbLine
 10
-176.5958429688369
 20
-818.7889928730154
 30
0.0
 11
-179.6900787669798
 21
-818.7889928730154
 31
0.0
  0
INSERT
  5
793
330
78C
100
AcDbEntity
  8
0
 62
     0
370
    -2
100
AcDbBlockReference
  2
_Open30
 10
-176.5958429688369
 20
-818.7889928730154
 30
0.0
 41
2.5
 42
2.5
 43
2.5
 50
180.0
  0
INSERT
  5
794
330
78C
100
AcDbEntity
  8
0
 62
     0
370
    -2
100
AcDbBlockReference
  2
_Open30
 10
-179.6900787669798
 20
-818.7889928730154
 30
0.0
 41
2.5
 42
2.5
 43
2.5
  0
MTEXT
  5
795
330
78C
100
AcDbEntity
  8
0
 62
     4
100
AcDbMText
 10
-190.8150787669798
 20
-816.9139928730155
 30
0.0
 40
2.5
 41
0.0
 71
     5
 72
     1
  1
15.47
  7
高2.5
 73
     1
 44
1.0
1001
ACAD
1000
MTEXTBEGIN
1070
    73
1070
     1
1070
    44
1040
1.0
1070
    74
1070
     0
1000
MTEXTEND
  0
POINT
  5
796
330
78C
100
AcDbEntity
  8
Defpoints
 62
     0
100
AcDbPoint
 10
-176.5958429688369
 20
-817.2431008035522
 30
0.0
  0
POINT
  5
797
330
78C
100
AcDbEntity
  8
Defpoints
 62
     0
100
AcDbPoint
 10
-179.6900787669798
 20
-817.2431008035522
 30
0.0
  0
POINT
  5
798
330
78C
100
AcDbEntity
  8
Defpoints
 62
     0
100
AcDbPoint
 10
-179.6900787669798
 20
-818.7889928730154
 30
0.0
  0
ENDBLK
  5
799
330
78C
100
AcDbEntity
  8
0
100
AcDbBlockEnd
  0
BLOCK
  5
79B
330
79A
100
AcDbEntity
  8
0
100
AcDbBlockBegin
  2
*D7
 70
     1
 10
0.0
 20
0.0
 30
0.0
  3
*D7
  1

  0
LINE
  5
79C
330
79A
100
AcDbEntity
  8
0
 62
     0
370
    -2
100
AcDbLine
 10
-174.8667113607514
 20
-822.9491905193986
 30
0.0
 11
-174.8667113607514
 21
-825.2222781817659
 31
0.0
  0
LINE
  5
79D
330
79A
100
AcDbEntity
  8
0
 62
     0
370
    -2
100
AcDbLine
 10
-178.8710163139432
 20
-822.9491905193986
 30
0.0
 11
-178.8710163139432
 21
-825.2222781817659
 31
0.0
  0
LINE
  5
79E
330
79A
100
AcDbEntity
  8
0
 62
     0
370
    -2
100
AcDbLine
 10
-172.3667113607514
 20
-823.9722781817658
 30
0.0
 11
-169.8667113607514
 21
-823.9722781817658
 31
0.0
  0
LINE
  5
79F
330
79A
100
AcDbEntity
  8
0
 62
     0
370
    -2
100
AcDbLine
 10
-181.3710163139432
 20
-823.9722781817658
 30
0.0
 11
-193.1210163139432
 21
-823.9722781817658
 31
0.0
  0
LINE
  5
7A0
330
79A
100
AcDbEntity
  8
0
 62
     0
370
    -2
100
AcDbLine
 10
-174.8667113607514
 20
-823.9722781817658
 30
0.0
 11
-178.8710163139432
 21
-823.9722781817658
 31
0.0
  0
INSERT
  5
7A1
330
79A
100
AcDbEntity
  8
0
 62
     0
370
    -2
100
AcDbBlockReference
  2
_Open30
 10
-174.8667113607514
 20
-823.9722781817658
 30
0.0
 41
2.5
 42
2.5
 43
2.5
 50
180.0
  0
INSERT
  5
7A2
330
79A
100
AcDbEntity
  8
0
 62
     0
370
    -2
100
AcDbBlockReference
  2
_Open30
 10
-178.8710163139432
 20
-823.9722781817658
 30
0.0
 41
2.5
 42
2.5
 43
2.5
  0
MTEXT
  5
7A3
330
79A
100
AcDbEntity
  8
0
 62
     4
100
AcDbMText
 10
-188.4960163139432
 20
-821.7472781817658
 30
0.0
 40
3.2
 41
0.0
 71
     5
 72
     1
  1
8.01
  7
高3.2
 73
     1
 44
1.0
1001
ACAD
1000
MTEXTBEGIN
1070
    73
1070
     1
1070
    44
1040
1.0
1070
    74
1070
     0
1000
MTEXTEND
  0
POINT
  5
7A4
330
79A
100
AcDbEntity
  8
Defpoints
 62
     0
100
AcDbPoint
 10
-174.8667113607514
 20
-822.6991905193985
 30
0.0
  0
POINT
  5
7A5
330
79A
100
AcDbEntity
  8
Defpoints
 62
     0
100
AcDbPoint
 10
-178.8710163139432
 20
-822.6991905193985
 30
0.0
  0
POINT
  5
7A6
330
79A
100
AcDbEntity
  8
Defpoints
 62
     0
100
AcDbPoint
 10
-178.8710163139432
 20
-823.9722781817658
 30
0.0
  0
ENDBLK
  5
7A7
330
79A
100
AcDbEntity
  8
0
100
AcDbBlockEnd
  0
BLOCK
  5
7A9
330
7A8
100
AcDbEntity
  8
0
100
AcDbBlockBegin
  2
*D8
 70
     1
 10
0.0
 20
0.0
 30
0.0
  3
*D8
  1

  0
LINE
  5
7AA
330
7A8
100
AcDbEntity
  8
0
 62
     0
370
    -2
100
AcDbLine
 10
-174.9577180627636
 20
-828.2234104874302
 30
0.0
 11
-174.9577180627636
 21
-830.0418239948866
 31
0.0
  0
LINE
  5
7AB
330
7A8
100
AcDbEntity
  8
0
 62
     0
370
    -2
100
AcDbLine
 10
-179.6900787669798
 20
-828.2234104874302
 30
0.0
 11
-179.6900787669798
 21
-830.0418239948866
 31
0.0
  0
LINE
  5
7AC
330
7A8
100
AcDbEntity
  8
0
 62
     0
370
    -2
100
AcDbLine
 10
-172.4577180627636
 20
-828.7918239948865
 30
0.0
 11
-169.9577180627637
 21
-828.7918239948865
 31
0.0
  0
LINE
  5
7AD
330
7A8
100
AcDbEntity
  8
0
 62
     0
370
    -2
100
AcDbLine
 10
-182.1900787669798
 20
-828.7918239948865
 30
0.0
 11
-203.9400787669798
 21
-828.7918239948865
 31
0.0
  0
LINE
  5
7AE
330
7A8
100
AcDbEntity
  8
0
 62
     0
370
    -2
100
AcDbLine
 10
-174.9577180627636
 20
-828.7918239948865
 30
0.0
 11
-179.6900787669798
 21
-828.7918239948865
 31
0.0
  0
INSERT
  5
7AF
330
7A8
100
AcDbEntity
  8
0
 62
     0
370
    -2
100
AcDbBlockReference
  2
_Open30
 10
-174.9577180627636
 20
-828.7918239948865
 30
0.0
 41
2.5
 42
2.5
 43
2.5
 50
180.0
  0
INSERT
  5
7B0
330
7A8
100
AcDbEntity
  8
0
 62
     0
370
    -2
100
AcDbBlockReference
  2
_Open30
 10
-179.6900787669798
 20
-828.7918239948865
 30
0.0
 41
2.5
 42
2.5
 43
2.5
  0
MTEXT
  5
7B1
330
7A8
100
AcDbEntity
  8
0
 62
     4
100
AcDbMText
 10
-194.3150787669798
 20
-825.9168239948866
 30
0.0
 40
4.5
 41
0.0
 71
     5
 72
     1
  1
47.32
  7
高4.5
 73
     1
 44
1.0
1001
ACAD
1000
MTEXTBEGIN
1070
    73
1070
     1
1070
    44
1040
1.0
1070
    74
1070
     0
1000
MTEXTEND
  0
POINT
  5
7B2
330
7A8
100
AcDbEntity
  8
Defpoints
 62
     0
100
AcDbPoint
 10
-174.9577180627636
 20
-827.9734104874302
 30
0.0
  0
POINT
  5
7B3
330
7A8
100
AcDbEntity
  8
Defpoints
 62
     0
100
AcDbPoint
 10
-179.6900787669798
 20
-827.9734104874302
 30
0.0
  0
POINT
  5
7B4
330
7A8
100
AcDbEntity
  8
Defpoints
 62
     0
100
AcDbPoint
 10
-179.6900787669798
 20
-828.7918239948865
 30
0.0
  0
ENDBLK
  5
7B5
330
7A8
100
AcDbEntity
  8
0
100
AcDbBlockEnd
  0
BLOCK
  5
7B7
330
7B6
100
AcDbEntity
  8
0
100
AcDbBlockBegin
  2
*D9
 70
     1
 10
0.0
 20
0.0
 30
0.0
  3
*D9
  1

  0
LINE
  5
7B8
330
7B6
100
AcDbEntity
  8
0
 62
     0
370
    -2
100
AcDbLine
 10
-153.4800817947562
 20
-812.0370112307897
 30
0.0
 11
-153.4800817947562
 21
-814.9466426527986
 31
0.0
  0
LINE
  5
7B9
330
7B6
100
AcDbEntity
  8
0
 62
     0
370
    -2
100
AcDbLine
 10
-155.9372688488765
 20
-812.0370112307897
 30
0.0
 11
-155.9372688488765
 21
-814.9466426527986
 31
0.0
  0
LINE
  5
7BA
330
7B6
100
AcDbEntity
  8
0
 62
     0
370
    -2
100
AcDbLine
 10
-150.9800817947562
 20
-813.6966426527985
 30
0.0
 11
-148.4800817947562
 21
-813.6966426527985
 31
0.0
  0
LINE
  5
7BB
330
7B6
100
AcDbEntity
  8
0
 62
     0
370
    -2
100
AcDbLine
 10
-158.4372688488765
 20
-813.6966426527985
 30
0.0
 11
-180.0372688488765
 21
-813.6966426527985
 31
0.0
  0
LINE
  5
7BC
330
7B6
100
AcDbEntity
  8
0
 62
     0
370
    -2
100
AcDbLine
 10
-153.4800817947562
 20
-813.6966426527985
 30
0.0
 11
-155.9372688488765
 21
-813.6966426527985
 31
0.0
  0
INSERT
  5
7BD
330
7B6
100
AcDbEntity
  8
0
 62
     0
370
    -2
100
AcDbBlockReference
  2
_Open30
 10
-153.4800817947562
 20
-813.6966426527985
 30
0.0
 41
2.5
 42
2.5
 43
2.5
 50
180.0
  0
INSERT
  5
7BE
330
7B6
100
AcDbEntity
  8
0
 62
     0
370
    -2
100
AcDbBlockReference
  2
_Open30
 10
-155.9372688488765
 20
-813.6966426527985
 30
0.0
 41
2.5
 42
2.5
 43
2.5
  0
MTEXT
  5
7BF
330
7B6
100
AcDbEntity
  8
0
 62
     4
100
AcDbMText
 10
-170.4872688488765
 20
-809.9216426527986
 30
0.0
 40
6.299999999999998
 41
0.0
 71
     5
 72
     1
  1
0.25
  7
高6.3
 73
     1
 44
1.0
1001
ACAD
1000
MTEXTBEGIN
1070
    73
1070
     1
1070
    44
1040
1.0
1070
    74
1070
     0
1000
MTEXTEND
  0
POINT
  5
7C0
330
7B6
100
AcDbEntity
  8
Defpoints
 62
     0
100
AcDbPoint
 10
-153.4800817947562
 20
-811.7870112307898
 30
0.0
  0
POINT
  5
7C1
330
7B6
100
AcDbEntity
  8
Defpoints
 62
     0
100
AcDbPoint
 10
-155.9372688488765
 20
-811.7870112307898
 30
0.0
  0
POINT
  5
7C2
330
7B6
100
AcDbEntity
  8
Defpoints
 62
     0
100
AcDbPoint
 10
-155.9372688488765
 20
-813.6966426527985
 30
0.0
  0
ENDBLK
  5
7C3
330
7B6
100
AcDbEntity
  8
0
100
AcDbBlockEnd
  0
BLOCK
  5
7C5
330
7C4
100
AcDbEntity
  8
0
100
AcDbBlockBegin
  2
*D10
 70
     1
 10
0.0
 20
0.0
 30
0.0
  3
*D10
  1

  0
LINE
  5
7C6
330
7C4
100
AcDbEntity
  8
0
 62
     0
370
    -2
100
AcDbLine
 10
-151.841956888683
 20
-817.4931008035521
 30
0.0
 11
-151.841956888683
 21
-820.0389928730155
 31
0.0
  0
LINE
  5
7C7
330
7C4
100
AcDbEntity
  8
0
 62
     0
370
    -2
100
AcDbLine
 10
-154.9361926868259
 20
-817.4931008035521
 30
0.0
 11
-154.9361926868259
 21
-820.0389928730155
 31
0.0
  0
LINE
  5
7C8
330
7C4
100
AcDbEntity
  8
0
 62
     0
370
    -2
100
AcDbLine
 10
-149.341956888683
 20
-818.7889928730154
 30
0.0
 11
-146.841956888683
 21
-818.7889928730154
 31
0.0
  0
LINE
  5
7C9
330
7C4
100
AcDbEntity
  8
0
 62
     0
370
    -2
100
AcDbLine
 10
-157.4361926868259
 20
-818.7889928730154
 30
0.0
 11
-169.4361926868259
 21
-818.7889928730154
 31
0.0
  0
LINE
  5
7CA
330
7C4
100
AcDbEntity
  8
0
 62
     0
370
    -2
100
AcDbLine
 10
-151.841956888683
 20
-818.7889928730154
 30
0.0
 11
-154.9361926868259
 21
-818.7889928730154
 31
0.0
  0
INSERT
  5
7CB
330
7C4
100
AcDbEntity
  8
0
 62
     0
370
    -2
100
AcDbBlockReference
  2
_Open30
 10
-151.841956888683
 20
-818.7889928730154
 30
0.0
 41
2.5
 42
2.5
 43
2.5
 50
180.0
  0
INSERT
  5
7CC
330
7C4
100
AcDbEntity
  8
0
 62
     0
370
    -2
100
AcDbBlockReference
  2
_Open30
 10
-154.9361926868259
 20
-818.7889928730154
 30
0.0
 41
2.5
 42
2.5
 43
2.5
  0
MTEXT
  5
7CD
330
7C4
100
AcDbEntity
  8
0
 62
     4
100
AcDbMText
 10
-164.8111926868259
 20
-816.6639928730154
 30
0.0
 40
3.0
 41
0.0
 71
     5
 72
     1
  1
1.55
 73
     1
 44
1.0
1001
ACAD
1000
MTEXTBEGIN
1070
    73
1070
     1
1070
    44
1040
1.0
1070
    74
1070
     0
1000
MTEXTEND
  0
POINT
  5
7CE
330
7C4
100
AcDbEntity
  8
Defpoints
 62
     0
100
AcDbPoint
 10
-151.841956888683
 20
-817.2431008035522
 30
0.0
  0
POINT
  5
7CF
330
7C4
100
AcDbEntity
  8
Defpoints
 62
     0
100
AcDbPoint
 10
-154.9361926868259
 20
-817.2431008035522
 30
0.0
  0
POINT
  5
7D0
330
7C4
100
AcDbEntity
  8
Defpoints
 62
     0
100
AcDbPoint
 10
-154.9361926868259
 20
-818.7889928730154
 30
0.0
  0
ENDBLK
  5
7D1
330
7C4
100
AcDbEntity
  8
0
100
AcDbBlockEnd
  0
BLOCK
  5
7D3
330
7D2
100
AcDbEntity
  8
0
100
AcDbBlockBegin
  2
*D11
 70
     1
 10
0.0
 20
0.0
 30
0.0
  3
*D11
  1

  0
LINE
  5
7D4
330
7D2
100
AcDbEntity
  8
0
 62
     0
370
    -2
100
AcDbLine
 10
-150.1128252805975
 20
-822.9491905193986
 30
0.0
 11
-150.1128252805975
 21
-825.2222781817659
 31
0.0
  0
LINE
  5
7D5
330
7D2
100
AcDbEntity
  8
0
 62
     0
370
    -2
100
AcDbLine
 10
-154.1171302337894
 20
-822.9491905193986
 30
0.0
 11
-154.1171302337894
 21
-825.2222781817659
 31
0.0
  0
LINE
  5
7D6
330
7D2
100
AcDbEntity
  8
0
 62
     0
370
    -2
100
AcDbLine
 10
-147.6128252805976
 20
-823.9722781817658
 30
0.0
 11
-145.1128252805975
 21
-823.9722781817658
 31
0.0
  0
LINE
  5
7D7
330
7D2
100
AcDbEntity
  8
0
 62
     0
370
    -2
100
AcDbLine
 10
-156.6171302337894
 20
-823.9722781817658
 30
0.0
 11
-164.9504635671227
 21
-823.9722781817658
 31
0.0
  0
LINE
  5
7D8
330
7D2
100
AcDbEntity
  8
0
 62
     0
370
    -2
100
AcDbLine
 10
-150.1128252805975
 20
-823.9722781817658
 30
0.0
 11
-154.1171302337894
 21
-823.9722781817658
 31
0.0
  0
INSERT
  5
7D9
330
7D2
100
AcDbEntity
  8
0
 62
     0
370
    -2
100
AcDbBlockReference
  2
_Open30
 10
-150.1128252805975
 20
-823.9722781817658
 30
0.0
 41
2.5
 42
2.5
 43
2.5
 50
180.0
  0
INSERT
  5
7DA
330
7D2
100
AcDbEntity
  8
0
 62
     0
370
    -2
100
AcDbBlockReference
  2
_Open30
 10
-154.1171302337894
 20
-823.9722781817658
 30
0.0
 41
2.5
 42
2.5
 43
2.5
  0
MTEXT
  5
7DB
330
7D2
100
AcDbEntity
  8
0
 62
     4
100
AcDbMText
 10
-162.4921302337894
 20
-822.3472781817658
 30
0.0
 40
2.0
 41
0.0
 71
     5
 72
     1
  1
0.8
  7
高2
 73
     1
 44
1.0
1001
ACAD
1000
MTEXTBEGIN
1070
    73
1070
     1
1070
    44
1040
1.0
1070
    74
1070
     0
1000
MTEXTEND
  0
POINT
  5
7DC
330
7D2
100
AcDbEntity
  8
Defpoints
 62
     0
100
AcDbPoint
 10
-150.1128252805975
 20
-822.6991905193985
 30
0.0
  0
POINT
  5
7DD
330
7D2
100
AcDbEntity
  8
Defpoints
 62
     0
100
AcDbPoint
 10
-154.1171302337894
 20
-822.6991905193985
 30
0.0
  0
POINT
  5
7DE
330
7D2
100
AcDbEntity
  8
Defpoints
 62
     0
100
AcDbPoint
 10
-154.1171302337894
 20
-823.9722781817658
 30
0.0
  0
ENDBLK
  5
7DF
330
7D2
100
AcDbEntity
  8
0
100
AcDbBlockEnd
  0
BLOCK
  5
7E1
330
7E0
100
AcDbEntity
  8
0
100
AcDbBlockBegin
  2
*D12
 70
     1
 10
0.0
 20
0.0
 30
0.0
  3
*D12
  1

  0
LINE
  5
7E2
330
7E0
100
AcDbEntity
  8
0
 62
     0
370
    -2
100
AcDbLine
 10
-150.2038319826098
 20
-828.2234104874302
 30
0.0
 11
-150.2038319826098
 21
-830.0418239948866
 31
0.0
  0
LINE
  5
7E3
330
7E0
100
AcDbEntity
  8
0
 62
     0
370
    -2
100
AcDbLine
 10
-154.9361926868259
 20
-828.2234104874302
 30
0.0
 11
-154.9361926868259
 21
-830.0418239948866
 31
0.0
  0
LINE
  5
7E4
330
7E0
100
AcDbEntity
  8
0
 62
     0
370
    -2
100
AcDbLine
 10
-147.7038319826099
 20
-828.7918239948865
 30
0.0
 11
-145.2038319826098
 21
-828.7918239948865
 31
0.0
  0
LINE
  5
7E5
330
7E0
100
AcDbEntity
  8
0
 62
     0
370
    -2
100
AcDbLine
 10
-157.4361926868259
 20
-828.7918239948865
 30
0.0
 11
-172.1861926868259
 21
-828.7918239948865
 31
0.0
  0
LINE
  5
7E6
330
7E0
100
AcDbEntity
  8
0
 62
     0
370
    -2
100
AcDbLine
 10
-150.2038319826098
 20
-828.7918239948865
 30
0.0
 11
-154.9361926868259
 21
-828.7918239948865
 31
0.0
  0
INSERT
  5
7E7
330
7E0
100
AcDbEntity
  8
0
 62
     0
370
    -2
100
AcDbBlockReference
  2
_Open30
 10
-150.2038319826098
 20
-828.7918239948865
 30
0.0
 41
2.5
 42
2.5
 43
2.5
 50
180.0
  0
INSERT
  5
7E8
330
7E0
100
AcDbEntity
  8
0
 62
     0
370
    -2
100
AcDbBlockReference
  2
_Open30
 10
-154.9361926868259
 20
-828.7918239948865
 30
0.0
 41
2.5
 42
2.5
 43
2.5
  0
MTEXT
  5
7E9
330
7E0
100
AcDbEntity
  8
0
 62
     4
100
AcDbMText
 10
-166.0611926868259
 20
-826.6668239948867
 30
0.0
 40
3.0
 41
0.0
 71
     5
 72
     1
  1
18.93
 73
     1
 44
1.0
1001
ACAD
1000
MTEXTBEGIN
1070
    73
1070
     1
1070
    44
1040
1.0
1070
    74
1070
     0
1000
MTEXTEND
  0
POINT
  5
7EA
330
7E0
100
AcDbEntity
  8
Defpoints
 62
     0
100
AcDbPoint
 10
-150.2038319826098
 20
-827.9734104874302
 30
0.0
  0
POINT
  5
7EB
330
7E0
100
AcDbEntity
  8
Defpoints
 62
     0
100
AcDbPoint
 10
-154.9361926868259
 20
-827.9734104874302
 30
0.0
  0
POINT
  5
7EC
330
7E0
100
AcDbEntity
  8
Defpoints
 62
     0
100
AcDbPoint
 10
-154.9361926868259
 20
-828.7918239948865
 30
0.0
  0
ENDBLK
  5
7ED
330
7E0
100
AcDbEntity
  8
0
100
AcDbBlockEnd
  0
BLOCK
  5
7EF
330
7EE
100
AcDbEntity
  8
0
100
AcDbBlockBegin
  2
*D13
 70
     1
 10
0.0
 20
0.0
 30
0.0
  3
*D13
  1

  0
LINE
  5
7F0
330
7EE
100
AcDbEntity
  8
0
 62
     0
370
    -2
100
AcDbLine
 10
-153.0082588337482
 20
-833.2792506940199
 30
0.0
 11
-153.0082588337482
 21
-835.5891717708955
 31
0.0
  0
LINE
  5
7F1
330
7EE
100
AcDbEntity
  8
0
 62
     0
370
    -2
100
AcDbLine
 10
-157.5969340358961
 20
-833.2792506940199
 30
0.0
 11
-157.5969340358961
 21
-835.5891717708955
 31
0.0
  0
LINE
  5
7F2
330
7EE
100
AcDbEntity
  8
0
 62
     0
370
    -2
100
AcDbLine
 10
-150.5082588337482
 20
-834.3391717708955
 30
0.0
 11
-148.0082588337482
 21
-834.3391717708955
 31
0.0
  0
LINE
  5
7F3
330
7EE
100
AcDbEntity
  8
0
 62
     0
370
    -2
100
AcDbLine
 10
-160.0969340358961
 20
-834.3391717708955
 30
0.0
 11
-174.8469340358961
 21
-834.3391717708955
 31
0.0
  0
LINE
  5
7F4
330
7EE
100
AcDbEntity
  8
0
 62
     0
370
    -2
100
AcDbLine
 10
-153.0082588337482
 20
-834.3391717708955
 30
0.0
 11
-157.5969340358961
 21
-834.3391717708955
 31
0.0
  0
INSERT
  5
7F5
330
7EE
100
AcDbEntity
  8
0
 62
     0
370
    -2
100
AcDbBlockReference
  2
_Open30
 10
-153.0082588337482
 20
-834.3391717708955
 30
0.0
 41
2.5
 42
2.5
 43
2.5
 50
180.0
  0
INSERT
  5
7F6
330
7EE
100
AcDbEntity
  8
0
 62
     0
370
    -2
100
AcDbBlockReference
  2
_Open30
 10
-157.5969340358961
 20
-834.3391717708955
 30
0.0
 41
2.5
 42
2.5
 43
2.5
  0
MTEXT
  5
7F7
330
7EE
100
AcDbEntity
  8
0
 62
     4
100
AcDbMText
 10
-168.7219340358961
 20
-832.2141717708955
 30
0.0
 40
3.0
 41
0.0
 71
     5
 72
     1
  1
13.77
 73
     1
 44
1.0
1001
ACAD
1000
MTEXTBEGIN
1070
    73
1070
     1
1070
    44
1040
1.0
1070
    74
1070
     0
1000
MTEXTEND
  0
POINT
  5
7F8
330
7EE
100
AcDbEntity
  8
Defpoints
 62
     0
100
AcDbPoint
 10
-153.0082588337482
 20
-833.0292506940201
 30
0.0
  0
POINT
  5
7F9
330
7EE
100
AcDbEntity
  8
Defpoints
 62
     0
100
AcDbPoint
 10
-157.5969340358961
 20
-833.0292506940201
 30
0.0
  0
POINT
  5
7FA
330
7EE
100
AcDbEntity
  8
Defpoints
 62
     0
100
AcDbPoint
 10
-157.5969340358961
 20
-834.3391717708955
 30
0.0
  0
ENDBLK
  5
7FB
330
7EE
100
AcDbEntity
  8
0
100
AcDbBlockEnd
  0
BLOCK
  5
7FD
330
7FC
100
AcDbEntity
  8
0
100
AcDbBlockBegin
  2
*D14
 70
     1
 10
0.0
 20
0.0
 30
0.0
  3
*D14
  1

  0
LINE
  5
7FE
330
7FC
100
AcDbEntity
  8
0
 62
     0
370
    -2
100
AcDbLine
 10
-160.1045416668985
 20
-802.3497593757458
 30
0.0
 11
-160.1045416668985
 21
-794.9532258978079
 31
0.0
  0
LINE
  5
7FF
330
7FC
100
AcDbEntity
  8
0
 62
     0
370
    -2
100
AcDbLine
 10
-170.0430160363884
 20
-802.3497593757458
 30
0.0
 11
-170.0430160363884
 21
-794.9532258978079
 31
0.0
  0
LINE
  5
800
330
7FC
100
AcDbEntity
  8
0
 62
     0
370
    -2
100
AcDbLine
 10
-162.6045416668985
 20
-796.2032258978077
 30
0.0
 11
-167.5430160363885
 21
-796.2032258978077
 31
0.0
  0
INSERT
  5
801
330
7FC
100
AcDbEntity
  8
0
 62
     0
370
    -2
100
AcDbBlockReference
  2
_Open30
 10
-160.1045416668985
 20
-796.2032258978077
 30
0.0
 41
2.5
 42
2.5
 43
2.5
  0
INSERT
  5
802
330
7FC
100
AcDbEntity
  8
0
 62
     0
370
    -2
100
AcDbBlockReference
  2
_Open30
 10
-170.0430160363884
 20
-796.2032258978077
 30
0.0
 41
2.5
 42
2.5
 43
2.5
 50
180.0
  0
MTEXT
  5
803
330
7FC
100
AcDbEntity
  8
0
 62
     4
100
AcDbMText
 10
-165.0737788516435
 20
-793.1282258978077
 30
0.0
 40
3.0
 41
0.0
 71
     5
 72
     1
  1
9.94\H0.7X;\S+0^ -0.02;
 73
     1
 44
1.0
1001
ACAD
1000
MTEXTBEGIN
1070
    73
1070
     1
1070
    44
1040
1.0
1070
    74
1070
     0
1000
MTEXTEND
  0
POINT
  5
804
330
7FC
100
AcDbEntity
  8
Defpoints
 62
     0
100
AcDbPoint
 10
-160.1045416668985
 20
-802.5997593757455
 30
0.0
  0
POINT
  5
805
330
7FC
100
AcDbEntity
  8
Defpoints
 62
     0
100
AcDbPoint
 10
-170.0430160363884
 20
-802.5997593757455
 30
0.0
  0
POINT
  5
806
330
7FC
100
AcDbEntity
  8
Defpoints
 62
     0
100
AcDbPoint
 10
-170.0430160363884
 20
-796.2032258978077
 30
0.0
  0
ENDBLK
  5
807
330
7FC
100
AcDbEntity
  8
0
100
AcDbBlockEnd
  0
BLOCK
  5
82F
330
82E
100
AcDbEntity
  8
0
 62
     1
100
AcDbBlockBegin
  2
*D15
 70
     1
 10
0.0
 20
0.0
 30
0.0
  3
*D15
  1

  0
LINE
  5
BE7
330
82E
100
AcDbEntity
  8
0
 62
     0
370
    -2
100
AcDbLine
 10
890.8878144894078
 20
119.8950481198254
 30
0.0
 11
890.8878144894078
 21
116.9854166978166
 31
0.0
  0
LINE
  5
BE8
330
82E
100
AcDbEntity
  8
0
 62
     0
370
    -2
100
AcDbLine
 10
888.4306274352876
 20
119.8950481198254
 30
0.0
 11
888.4306274352876
 21
116.9854166978166
 31
0.0
  0
LINE
  5
BE9
330
82E
100
AcDbEntity
  8
0
 62
     0
370
    -2
100
AcDbLine
 10
893.3878144894078
 20
118.2354166978166
 30
0.0
 11
895.8878144894077
 21
118.2354166978166
 31
0.0
  0
LINE
  5
BEA
330
82E
100
AcDbEntity
  8
0
 62
     0
370
    -2
100
AcDbLine
 10
885.9306274352876
 20
118.2354166978166
 30
0.0
 11
873.1806274352877
 21
118.2354166978166
 31
0.0
  0
LINE
  5
BEB
330
82E
100
AcDbEntity
  8
0
 62
     0
370
    -2
100
AcDbLine
 10
890.8878144894078
 20
118.2354166978166
 30
0.0
 11
888.4306274352876
 21
118.2354166978166
 31
0.0
  0
INSERT
  5
BEC
330
82E
100
AcDbEntity
  8
0
 62
     0
370
    -2
100
AcDbBlockReference
  2
_Open30
 10
890.8878144894078
 20
118.2354166978166
 30
0.0
 41
2.5
 42
2.5
 43
2.5
 50
180.0
  0
INSERT
  5
BED
330
82E
100
AcDbEntity
  8
0
 62
     0
370
    -2
100
AcDbBlockReference
  2
_Open30
 10
888.4306274352876
 20
118.2354166978166
 30
0.0
 41
2.5
 42
2.5
 43
2.5
  0
MTEXT
  5
BEE
330
82E
100
AcDbEntity
  8
0
 62
     4
100
AcDbMText
 10
878.3056274352876
 20
120.3604166978166
 30
0.0
 40
3.0
 41
0.0
 71
     5
 72
     1
  1
2.46
 73
     1
 44
1.0
1001
ACAD
1000
MTEXTBEGIN
1070
    73
1070
     1
1070
    44
1040
1.0
1070
    74
1070
     0
1000
MTEXTEND
  0
POINT
  5
BEF
330
82E
100
AcDbEntity
  8
Defpoints
 62
     0
100
AcDbPoint
 10
890.8878144894078
 20
120.1450481198254
 30
0.0
  0
POINT
  5
BF0
330
82E
100
AcDbEntity
  8
Defpoints
 62
     0
100
AcDbPoint
 10
888.4306274352876
 20
120.1450481198254
 30
0.0
  0
POINT
  5
BF1
330
82E
100
AcDbEntity
  8
Defpoints
 62
     0
100
AcDbPoint
 10
888.4306274352876
 20
118.2354166978166
 30
0.0
  0
ENDBLK
  5
830
330
82E
100
AcDbEntity
  8
0
 62
     1
100
AcDbBlockEnd
  0
BLOCK
  5
83D
330
83C
100
AcDbEntity
  8
0
 62
     1
100
AcDbBlockBegin
  2
*D16
 70
     1
 10
0.0
 20
0.0
 30
0.0
  3
*D16
  1

  0
LINE
  5
BF2
330
83C
100
AcDbEntity
  8
0
 62
     0
370
    -2
100
AcDbLine
 10
892.5259393954812
 20
114.438958547063
 30
0.0
 11
892.5259393954812
 21
111.8930664775997
 31
0.0
  0
LINE
  5
BF3
330
83C
100
AcDbEntity
  8
0
 62
     0
370
    -2
100
AcDbLine
 10
889.4317035973383
 20
114.438958547063
 30
0.0
 11
889.4317035973383
 21
111.8930664775997
 31
0.0
  0
LINE
  5
BF4
330
83C
100
AcDbEntity
  8
0
 62
     0
370
    -2
100
AcDbLine
 10
895.0259393954812
 20
113.1430664775997
 30
0.0
 11
897.5259393954813
 21
113.1430664775997
 31
0.0
  0
LINE
  5
BF5
330
83C
100
AcDbEntity
  8
0
 62
     0
370
    -2
100
AcDbLine
 10
886.9317035973383
 20
113.1430664775997
 30
0.0
 11
873.0983702640049
 21
113.1430664775997
 31
0.0
  0
LINE
  5
BF6
330
83C
100
AcDbEntity
  8
0
 62
     0
370
    -2
100
AcDbLine
 10
892.5259393954812
 20
113.1430664775997
 30
0.0
 11
889.4317035973383
 21
113.1430664775997
 31
0.0
  0
INSERT
  5
BF7
330
83C
100
AcDbEntity
  8
0
 62
     0
370
    -2
100
AcDbBlockReference
  2
_Open30
 10
892.5259393954812
 20
113.1430664775997
 30
0.0
 41
2.5
 42
2.5
 43
2.5
 50
180.0
  0
INSERT
  5
BF8
330
83C
100
AcDbEntity
  8
0
 62
     0
370
    -2
100
AcDbBlockReference
  2
_Open30
 10
889.4317035973383
 20
113.1430664775997
 30
0.0
 41
2.5
 42
2.5
 43
2.5
  0
MTEXT
  5
BF9
330
83C
100
AcDbEntity
  8
0
 62
     4
100
AcDbMText
 10
878.3067035973383
 20
115.0180664775997
 30
0.0
 40
2.5
 41
0.0
 71
     5
 72
     1
  1
15.47
  7
高2.5
 73
     1
 44
1.0
1001
ACAD
1000
MTEXTBEGIN
1070
    73
1070
     1
1070
    44
1040
1.0
1070
    74
1070
     0
1000
MTEXTEND
  0
POINT
  5
BFA
330
83C
100
AcDbEntity
  8
Defpoints
 62
     0
100
AcDbPoint
 10
892.5259393954812
 20
114.688958547063
 30
0.0
  0
POINT
  5
BFB
330
83C
100
AcDbEntity
  8
Defpoints
 62
     0
100
AcDbPoint
 10
889.4317035973383
 20
114.688958547063
 30
0.0
  0
POINT
  5
BFC
330
83C
100
AcDbEntity
  8
Defpoints
 62
     0
100
AcDbPoint
 10
889.4317035973383
 20
113.1430664775997
 30
0.0
  0
ENDBLK
  5
83E
330
83C
100
AcDbEntity
  8
0
 62
     1
100
AcDbBlockEnd
  0
BLOCK
  5
84B
330
84A
100
AcDbEntity
  8
0
 62
     1
100
AcDbBlockBegin
  2
*D17
 70
     1
 10
0.0
 20
0.0
 30
0.0
  3
*D17
  1

  0
LINE
  5
BFD
330
84A
100
AcDbEntity
  8
0
 62
     0
370
    -2
100
AcDbLine
 10
894.2550710035666
 20
108.9828688312166
 30
0.0
 11
894.2550710035666
 21
106.7097811688493
 31
0.0
  0
LINE
  5
BFE
330
84A
100
AcDbEntity
  8
0
 62
     0
370
    -2
100
AcDbLine
 10
890.2507660503747
 20
108.9828688312166
 30
0.0
 11
890.2507660503747
 21
106.7097811688493
 31
0.0
  0
LINE
  5
BFF
330
84A
100
AcDbEntity
  8
0
 62
     0
370
    -2
100
AcDbLine
 10
896.7550710035666
 20
107.9597811688493
 30
0.0
 11
899.2550710035667
 21
107.9597811688493
 31
0.0
  0
LINE
  5
C00
330
84A
100
AcDbEntity
  8
0
 62
     0
370
    -2
100
AcDbLine
 10
887.7507660503747
 20
107.9597811688493
 30
0.0
 11
876.0007660503747
 21
107.9597811688493
 31
0.0
  0
LINE
  5
C01
330
84A
100
AcDbEntity
  8
0
 62
     0
370
    -2
100
AcDbLine
 10
894.2550710035666
 20
107.9597811688493
 30
0.0
 11
890.2507660503747
 21
107.9597811688493
 31
0.0
  0
INSERT
  5
C02
330
84A
100
AcDbEntity
  8
0
 62
     0
370
    -2
100
AcDbBlockReference
  2
_Open30
 10
894.2550710035666
 20
107.9597811688493
 30
0.0
 41
2.5
 42
2.5
 43
2.5
 50
180.0
  0
INSERT
  5
C03
330
84A
100
AcDbEntity
  8
0
 62
     0
370
    -2
100
AcDbBlockReference
  2
_Open30
 10
890.2507660503747
 20
107.9597811688493
 30
0.0
 41
2.5
 42
2.5
 43
2.5
  0
MTEXT
  5
C04
330
84A
100
AcDbEntity
  8
0
 62
     4
100
AcDbMText
 10
880.6257660503748
 20
110.1847811688493
 30
0.0
 40
3.2
 41
0.0
 71
     5
 72
     1
  1
8.01
  7
高3.2
 73
     1
 44
1.0
1001
ACAD
1000
MTEXTBEGIN
1070
    73
1070
     1
1070
    44
1040
1.0
1070
    74
1070
     0
1000
MTEXTEND
  0
POINT
  5
C05
330
84A
100
AcDbEntity
  8
Defpoints
 62
     0
100
AcDbPoint
 10
894.2550710035666
 20
109.2328688312166
 30
0.0
  0
POINT
  5
C06
330
84A
100
AcDbEntity
  8
Defpoints
 62
     0
100
AcDbPoint
 10
890.2507660503747
 20
109.2328688312166
 30
0.0
  0
POINT
  5
C07
330
84A
100
AcDbEntity
  8
Defpoints
 62
     0
100
AcDbPoint
 10
890.2507660503747
 20
107.9597811688493
 30
0.0
  0
ENDBLK
  5
84C
330
84A
100
AcDbEntity
  8
0
 62
     1
100
AcDbBlockEnd
  0
BLOCK
  5
859
330
858
100
AcDbEntity
  8
0
 62
     1
100
AcDbBlockBegin
  2
*D18
 70
     1
 10
0.0
 20
0.0
 30
0.0
  3
*D18
  1

  0
LINE
  5
C08
330
858
100
AcDbEntity
  8
0
 62
     0
370
    -2
100
AcDbLine
 10
894.1640643015544
 20
103.7086488631849
 30
0.0
 11
894.1640643015544
 21
101.8902353557286
 31
0.0
  0
LINE
  5
C09
330
858
100
AcDbEntity
  8
0
 62
     0
370
    -2
100
AcDbLine
 10
889.4317035973383
 20
103.7086488631849
 30
0.0
 11
889.4317035973383
 21
101.8902353557286
 31
0.0
  0
LINE
  5
C0A
330
858
100
AcDbEntity
  8
0
 62
     0
370
    -2
100
AcDbLine
 10
896.6640643015544
 20
103.1402353557286
 30
0.0
 11
899.1640643015543
 21
103.1402353557286
 31
0.0
  0
LINE
  5
C0B
330
858
100
AcDbEntity
  8
0
 62
     0
370
    -2
100
AcDbLine
 10
886.9317035973383
 20
103.1402353557286
 30
0.0
 11
865.1817035973381
 21
103.1402353557286
 31
0.0
  0
LINE
  5
C0C
330
858
100
AcDbEntity
  8
0
 62
     0
370
    -2
100
AcDbLine
 10
894.1640643015544
 20
103.1402353557286
 30
0.0
 11
889.4317035973383
 21
103.1402353557286
 31
0.0
  0
INSERT
  5
C0D
330
858
100
AcDbEntity
  8
0
 62
     0
370
    -2
100
AcDbBlockReference
  2
_Open30
 10
894.1640643015544
 20
103.1402353557286
 30
0.0
 41
2.5
 42
2.5
 43
2.5
 50
180.0
  0
INSERT
  5
C0E
330
858
100
AcDbEntity
  8
0
 62
     0
370
    -2
100
AcDbBlockReference
  2
_Open30
 10
889.4317035973383
 20
103.1402353557286
 30
0.0
 41
2.5
 42
2.5
 43
2.5
  0
MTEXT
  5
C0F
330
858
100
AcDbEntity
  8
0
 62
     4
100
AcDbMText
 10
874.8067035973383
 20
106.0152353557286
 30
0.0
 40
4.5
 41
0.0
 71
     5
 72
     1
  1
47.32
  7
高4.5
 73
     1
 44
1.0
1001
ACAD
1000
MTEXTBEGIN
1070
    73
1070
     1
1070
    44
1040
1.0
1070
    74
1070
     0
1000
MTEXTEND
  0
POINT
  5
C10
330
858
100
AcDbEntity
  8
Defpoints
 62
     0
100
AcDbPoint
 10
894.1640643015544
 20
103.9586488631849
 30
0.0
  0
POINT
  5
C11
330
858
100
AcDbEntity
  8
Defpoints
 62
     0
100
AcDbPoint
 10
889.4317035973383
 20
103.9586488631849
 30
0.0
  0
POINT
  5
C12
330
858
100
AcDbEntity
  8
Defpoints
 62
     0
100
AcDbPoint
 10
889.4317035973383
 20
103.1402353557286
 30
0.0
  0
ENDBLK
  5
85A
330
858
100
AcDbEntity
  8
0
 62
     1
100
AcDbBlockEnd
  0
BLOCK
  5
867
330
866
100
AcDbEntity
  8
0
 62
     1
100
AcDbBlockBegin
  2
*D19
 70
     1
 10
0.0
 20
0.0
 30
0.0
  3
*D19
  1

  0
LINE
  5
C13
330
866
100
AcDbEntity
  8
0
 62
     0
370
    -2
100
AcDbLine
 10
915.6417005695621
 20
119.8950481198254
 30
0.0
 11
915.6417005695621
 21
116.9854166978166
 31
0.0
  0
LINE
  5
C14
330
866
100
AcDbEntity
  8
0
 62
     0
370
    -2
100
AcDbLine
 10
913.1845135154415
 20
119.8950481198254
 30
0.0
 11
913.1845135154415
 21
116.9854166978166
 31
0.0
  0
LINE
  5
C15
330
866
100
AcDbEntity
  8
0
 62
     0
370
    -2
100
AcDbLine
 10
918.1417005695621
 20
118.2354166978166
 30
0.0
 11
920.6417005695621
 21
118.2354166978166
 31
0.0
  0
LINE
  5
C16
330
866
100
AcDbEntity
  8
0
 62
     0
370
    -2
100
AcDbLine
 10
910.6845135154415
 20
118.2354166978166
 30
0.0
 11
889.0845135154414
 21
118.2354166978166
 31
0.0
  0
LINE
  5
C17
330
866
100
AcDbEntity
  8
0
 62
     0
370
    -2
100
AcDbLine
 10
915.6417005695621
 20
118.2354166978166
 30
0.0
 11
913.1845135154415
 21
118.2354166978166
 31
0.0
  0
INSERT
  5
C18
330
866
100
AcDbEntity
  8
0
 62
     0
370
    -2
100
AcDbBlockReference
  2
_Open30
 10
915.6417005695621
 20
118.2354166978166
 30
0.0
 41
2.5
 42
2.5
 43
2.5
 50
180.0
  0
INSERT
  5
C19
330
866
100
AcDbEntity
  8
0
 62
     0
370
    -2
100
AcDbBlockReference
  2
_Open30
 10
913.1845135154415
 20
118.2354166978166
 30
0.0
 41
2.5
 42
2.5
 43
2.5
  0
MTEXT
  5
C1A
330
866
100
AcDbEntity
  8
0
 62
     4
100
AcDbMText
 10
898.6345135154413
 20
122.0104166978166
 30
0.0
 40
6.299999999999998
 41
0.0
 71
     5
 72
     1
  1
0.25
  7
高6.3
 73
     1
 44
1.0
1001
ACAD
1000
MTEXTBEGIN
1070
    73
1070
     1
1070
    44
1040
1.0
1070
    74
1070
     0
1000
MTEXTEND
  0
POINT
  5
C1B
330
866
100
AcDbEntity
  8
Defpoints
 62
     0
100
AcDbPoint
 10
915.6417005695621
 20
120.1450481198254
 30
0.0
  0
POINT
  5
C1C
330
866
100
AcDbEntity
  8
Defpoints
 62
     0
100
AcDbPoint
 10
913.1845135154415
 20
120.1450481198254
 30
0.0
  0
POINT
  5
C1D
330
866
100
AcDbEntity
  8
Defpoints
 62
     0
100
AcDbPoint
 10
913.1845135154415
 20
118.2354166978166
 30
0.0
  0
ENDBLK
  5
868
330
866
100
AcDbEntity
  8
0
 62
     1
100
AcDbBlockEnd
  0
BLOCK
  5
875
330
874
100
AcDbEntity
  8
0
 62
     1
100
AcDbBlockBegin
  2
*D20
 70
     1
 10
0.0
 20
0.0
 30
0.0
  3
*D20
  1

  0
LINE
  5
C1E
330
874
100
AcDbEntity
  8
0
 62
     0
370
    -2
100
AcDbLine
 10
917.2798254756347
 20
114.438958547063
 30
0.0
 11
917.2798254756347
 21
111.8930664775997
 31
0.0
  0
LINE
  5
C1F
330
874
100
AcDbEntity
  8
0
 62
     0
370
    -2
100
AcDbLine
 10
914.185589677492
 20
114.438958547063
 30
0.0
 11
914.185589677492
 21
111.8930664775997
 31
0.0
  0
LINE
  5
C20
330
874
100
AcDbEntity
  8
0
 62
     0
370
    -2
100
AcDbLine
 10
919.7798254756348
 20
113.1430664775997
 30
0.0
 11
922.2798254756348
 21
113.1430664775997
 31
0.0
  0
LINE
  5
C21
330
874
100
AcDbEntity
  8
0
 62
     0
370
    -2
100
AcDbLine
 10
911.685589677492
 20
113.1430664775997
 30
0.0
 11
899.6855896774921
 21
113.1430664775997
 31
0.0
  0
LINE
  5
C22
330
874
100
AcDbEntity
  8
0
 62
     0
370
    -2
100
AcDbLine
 10
917.2798254756347
 20
113.1430664775997
 30
0.0
 11
914.185589677492
 21
113.1430664775997
 31
0.0
  0
INSERT
  5
C23
330
874
100
AcDbEntity
  8
0
 62
     0
370
    -2
100
AcDbBlockReference
  2
_Open30
 10
917.2798254756347
 20
113.1430664775997
 30
0.0
 41
2.5
 42
2.5
 43
2.5
 50
180.0
  0
INSERT
  5
C24
330
874
100
AcDbEntity
  8
0
 62
     0
370
    -2
100
AcDbBlockReference
  2
_Open30
 10
914.185589677492
 20
113.1430664775997
 30
0.0
 41
2.5
 42
2.5
 43
2.5
  0
MTEXT
  5
C25
330
874
100
AcDbEntity
  8
0
 62
     4
100
AcDbMText
 10
904.3105896774921
 20
115.2680664775997
 30
0.0
 40
3.0
 41
0.0
 71
     5
 72
     1
  1
1.55
 73
     1
 44
1.0
1001
ACAD
1000
MTEXTBEGIN
1070
    73
1070
     1
1070
    44
1040
1.0
1070
    74
1070
     0
1000
MTEXTEND
  0
POINT
  5
C26
330
874
100
AcDbEntity
  8
Defpoints
 62
     0
100
AcDbPoint
 10
917.2798254756347
 20
114.688958547063
 30
0.0
  0
POINT
  5
C27
330
874
100
AcDbEntity
  8
Defpoints
 62
     0
100
AcDbPoint
 10
914.185589677492
 20
114.688958547063
 30
0.0
  0
POINT
  5
C28
330
874
100
AcDbEntity
  8
Defpoints
 62
     0
100
AcDbPoint
 10
914.185589677492
 20
113.1430664775997
 30
0.0
  0
ENDBLK
  5
876
330
874
100
AcDbEntity
  8
0
 62
     1
100
AcDbBlockEnd
  0
BLOCK
  5
883
330
882
100
AcDbEntity
  8
0
 62
     1
100
AcDbBlockBegin
  2
*D21
 70
     1
 10
0.0
 20
0.0
 30
0.0
  3
*D21
  1

  0
LINE
  5
C29
330
882
100
AcDbEntity
  8
0
 62
     0
370
    -2
100
AcDbLine
 10
919.0089570837203
 20
108.9828688312166
 30
0.0
 11
919.0089570837203
 21
106.7097811688493
 31
0.0
  0
LINE
  5
C2A
330
882
100
AcDbEntity
  8
0
 62
     0
370
    -2
100
AcDbLine
 10
915.0046521305286
 20
108.9828688312166
 30
0.0
 11
915.0046521305286
 21
106.7097811688493
 31
0.0
  0
LINE
  5
C2B
330
882
100
AcDbEntity
  8
0
 62
     0
370
    -2
100
AcDbLine
 10
921.5089570837204
 20
107.9597811688493
 30
0.0
 11
924.0089570837204
 21
107.9597811688493
 31
0.0
  0
LINE
  5
C2C
330
882
100
AcDbEntity
  8
0
 62
     0
370
    -2
100
AcDbLine
 10
912.5046521305286
 20
107.9597811688493
 30
0.0
 11
904.1713187971954
 21
107.9597811688493
 31
0.0
  0
LINE
  5
C2D
330
882
100
AcDbEntity
  8
0
 62
     0
370
    -2
100
AcDbLine
 10
919.0089570837203
 20
107.9597811688493
 30
0.0
 11
915.0046521305286
 21
107.9597811688493
 31
0.0
  0
INSERT
  5
C2E
330
882
100
AcDbEntity
  8
0
 62
     0
370
    -2
100
AcDbBlockReference
  2
_Open30
 10
919.0089570837203
 20
107.9597811688493
 30
0.0
 41
2.5
 42
2.5
 43
2.5
 50
180.0
  0
INSERT
  5
C2F
330
882
100
AcDbEntity
  8
0
 62
     0
370
    -2
100
AcDbBlockReference
  2
_Open30
 10
915.0046521305286
 20
107.9597811688493
 30
0.0
 41
2.5
 42
2.5
 43
2.5
  0
MTEXT
  5
C30
330
882
100
AcDbEntity
  8
0
 62
     4
100
AcDbMText
 10
906.6296521305288
 20
109.5847811688493
 30
0.0
 40
2.0
 41
0.0
 71
     5
 72
     1
  1
0.8
  7
高2
 73
     1
 44
1.0
1001
ACAD
1000
MTEXTBEGIN
1070
    73
1070
     1
1070
    44
1040
1.0
1070
    74
1070
     0
1000
MTEXTEND
  0
POINT
  5
C31
330
882
100
AcDbEntity
  8
Defpoints
 62
     0
100
AcDbPoint
 10
919.0089570837203
 20
109.2328688312166
 30
0.0
  0
POINT
  5
C32
330
882
100
AcDbEntity
  8
Defpoints
 62
     0
100
AcDbPoint
 10
915.0046521305286
 20
109.2328688312166
 30
0.0
  0
POINT
  5
C33
330
882
100
AcDbEntity
  8
Defpoints
 62
     0
100
AcDbPoint
 10
915.0046521305286
 20
107.9597811688493
 30
0.0
  0
ENDBLK
  5
884
330
882
100
AcDbEntity
  8
0
 62
     1
100
AcDbBlockEnd
  0
BLOCK
  5
891
330
890
100
AcDbEntity
  8
0
 62
     1
100
AcDbBlockBegin
  2
*D22
 70
     1
 10
0.0
 20
0.0
 30
0.0
  3
*D22
  1

  0
LINE
  5
C34
330
890
100
AcDbEntity
  8
0
 62
     0
370
    -2
100
AcDbLine
 10
918.9179503817081
 20
103.7086488631849
 30
0.0
 11
918.9179503817081
 21
101.8902353557286
 31
0.0
  0
LINE
  5
C35
330
890
100
AcDbEntity
  8
0
 62
     0
370
    -2
100
AcDbLine
 10
914.185589677492
 20
103.7086488631849
 30
0.0
 11
914.185589677492
 21
101.8902353557286
 31
0.0
  0
LINE
  5
C36
330
890
100
AcDbEntity
  8
0
 62
     0
370
    -2
100
AcDbLine
 10
921.4179503817081
 20
103.1402353557286
 30
0.0
 11
923.9179503817082
 21
103.1402353557286
 31
0.0
  0
LINE
  5
C37
330
890
100
AcDbEntity
  8
0
 62
     0
370
    -2
100
AcDbLine
 10
911.685589677492
 20
103.1402353557286
 30
0.0
 11
896.9355896774921
 21
103.1402353557286
 31
0.0
  0
LINE
  5
C38
330
890
100
AcDbEntity
  8
0
 62
     0
370
    -2
100
AcDbLine
 10
918.9179503817081
 20
103.1402353557286
 30
0.0
 11
914.185589677492
 21
103.1402353557286
 31
0.0
  0
INSERT
  5
C39
330
890
100
AcDbEntity
  8
0
 62
     0
370
    -2
100
AcDbBlockReference
  2
_Open30
 10
918.9179503817081
 20
103.1402353557286
 30
0.0
 41
2.5
 42
2.5
 43
2.5
 50
180.0
  0
INSERT
  5
C3A
330
890
100
AcDbEntity
  8
0
 62
     0
370
    -2
100
AcDbBlockReference
  2
_Open30
 10
914.185589677492
 20
103.1402353557286
 30
0.0
 41
2.5
 42
2.5
 43
2.5
  0
MTEXT
  5
C3B
330
890
100
AcDbEntity
  8
0
 62
     4
100
AcDbMText
 10
903.060589677492
 20
105.2652353557286
 30
0.0
 40
3.0
 41
0.0
 71
     5
 72
     1
  1
18.93
 73
     1
 44
1.0
1001
ACAD
1000
MTEXTBEGIN
1070
    73
1070
     1
1070
    44
1040
1.0
1070
    74
1070
     0
1000
MTEXTEND
  0
POINT
  5
C3C
330
890
100
AcDbEntity
  8
Defpoints
 62
     0
100
AcDbPoint
 10
918.9179503817081
 20
103.9586488631849
 30
0.0
  0
POINT
  5
C3D
330
890
100
AcDbEntity
  8
Defpoints
 62
     0
100
AcDbPoint
 10
914.185589677492
 20
103.9586488631849
 30
0.0
  0
POINT
  5
C3E
330
890
100
AcDbEntity
  8
Defpoints
 62
     0
100
AcDbPoint
 10
914.185589677492
 20
103.1402353557286
 30
0.0
  0
ENDBLK
  5
892
330
890
100
AcDbEntity
  8
0
 62
     1
100
AcDbBlockEnd
  0
BLOCK
  5
89F
330
89E
100
AcDbEntity
  8
0
 62
     1
100
AcDbBlockBegin
  2
*D23
 70
     1
 10
0.0
 20
0.0
 30
0.0
  3
*D23
  1

  0
LINE
  5
C3F
330
89E
100
AcDbEntity
  8
0
 62
     0
370
    -2
100
AcDbLine
 10
916.1135235305698
 20
98.65280865659521
 30
0.0
 11
916.1135235305698
 21
96.34288757971971
 31
0.0
  0
LINE
  5
C40
330
89E
100
AcDbEntity
  8
0
 62
     0
370
    -2
100
AcDbLine
 10
911.5248483284219
 20
98.65280865659521
 30
0.0
 11
911.5248483284219
 21
96.34288757971971
 31
0.0
  0
LINE
  5
C41
330
89E
100
AcDbEntity
  8
0
 62
     0
370
    -2
100
AcDbLine
 10
918.6135235305696
 20
97.59288757971971
 30
0.0
 11
921.1135235305697
 21
97.59288757971971
 31
0.0
  0
LINE
  5
C42
330
89E
100
AcDbEntity
  8
0
 62
     0
370
    -2
100
AcDbLine
 10
909.024848328422
 20
97.59288757971971
 30
0.0
 11
894.2748483284219
 21
97.59288757971971
 31
0.0
  0
LINE
  5
C43
330
89E
100
AcDbEntity
  8
0
 62
     0
370
    -2
100
AcDbLine
 10
916.1135235305698
 20
97.59288757971971
 30
0.0
 11
911.5248483284219
 21
97.59288757971971
 31
0.0
  0
INSERT
  5
C44
330
89E
100
AcDbEntity
  8
0
 62
     0
370
    -2
100
AcDbBlockReference
  2
_Open30
 10
916.1135235305698
 20
97.59288757971971
 30
0.0
 41
2.5
 42
2.5
 43
2.5
 50
180.0
  0
INSERT
  5
C45
330
89E
100
AcDbEntity
  8
0
 62
     0
370
    -2
100
AcDbBlockReference
  2
_Open30
 10
911.5248483284219
 20
97.59288757971971
 30
0.0
 41
2.5
 42
2.5
 43
2.5
  0
MTEXT
  5
C46
330
89E
100
AcDbEntity
  8
0
 62
     4
100
AcDbMText
 10
900.3998483284219
 20
99.71788757971971
 30
0.0
 40
3.0
 41
0.0
 71
     5
 72
     1
  1
13.77
 73
     1
 44
1.0
1001
ACAD
1000
MTEXTBEGIN
1070
    73
1070
     1
1070
    44
1040
1.0
1070
    74
1070
     0
1000
MTEXTEND
  0
POINT
  5
C47
330
89E
100
AcDbEntity
  8
Defpoints
 62
     0
100
AcDbPoint
 10
916.1135235305698
 20
98.90280865659521
 30
0.0
  0
POINT
  5
C48
330
89E
100
AcDbEntity
  8
Defpoints
 62
     0
100
AcDbPoint
 10
911.5248483284219
 20
98.90280865659521
 30
0.0
  0
POINT
  5
C49
330
89E
100
AcDbEntity
  8
Defpoints
 62
     0
100
AcDbPoint
 10
911.5248483284219
 20
97.59288757971971
 30
0.0
  0
ENDBLK
  5
8A0
330
89E
100
AcDbEntity
  8
0
 62
     1
100
AcDbBlockEnd
  0
BLOCK
  5
8AD
330
8AC
100
AcDbEntity
  8
0
 62
     1
100
AcDbBlockBegin
  2
*D24
 70
     1
 10
0.0
 20
0.0
 30
0.0
  3
*D24
  1

  0
LINE
  5
C4A
330
8AC
100
AcDbEntity
  8
0
 62
     0
370
    -2
100
AcDbLine
 10
909.0172406974195
 20
129.5822999748695
 30
0.0
 11
909.0172406974195
 21
136.9788334528073
 31
0.0
  0
LINE
  5
C4B
330
8AC
100
AcDbEntity
  8
0
 62
     0
370
    -2
100
AcDbLine
 10
899.0787663279295
 20
129.5822999748695
 30
0.0
 11
899.0787663279295
 21
136.9788334528073
 31
0.0
  0
LINE
  5
C4C
330
8AC
100
AcDbEntity
  8
0
 62
     0
370
    -2
100
AcDbLine
 10
906.5172406974195
 20
135.7288334528073
 30
0.0
 11
901.5787663279295
 21
135.7288334528073
 31
0.0
  0
INSERT
  5
C4D
330
8AC
100
AcDbEntity
  8
0
 62
     0
370
    -2
100
AcDbBlockReference
  2
_Open30
 10
909.0172406974195
 20
135.7288334528073
 30
0.0
 41
2.5
 42
2.5
 43
2.5
  0
INSERT
  5
C4E
330
8AC
100
AcDbEntity
  8
0
 62
     0
370
    -2
100
AcDbBlockReference
  2
_Open30
 10
899.0787663279295
 20
135.7288334528073
 30
0.0
 41
2.5
 42
2.5
 43
2.5
 50
180.0
  0
MTEXT
  5
C4F
330
8AC
100
AcDbEntity
  8
0
 62
     4
100
AcDbMText
 10
904.0480035126746
 20
138.8038334528073
 30
0.0
 40
3.0
 41
0.0
 71
     5
 72
     1
  1
9.94\H0.7X;\S+0^ -0.02;
 73
     1
 44
1.0
1001
ACAD
1000
MTEXTBEGIN
1070
    73
1070
     1
1070
    44
1040
1.0
1070
    74
1070
     0
1000
MTEXTEND
  0
POINT
  5
C50
330
8AC
100
AcDbEntity
  8
Defpoints
 62
     0
100
AcDbPoint
 10
909.0172406974195
 20
129.3322999748695
 30
0.0
  0
POINT
  5
C51
330
8AC
100
AcDbEntity
  8
Defpoints
 62
     0
100
AcDbPoint
 10
899.0787663279295
 20
129.3322999748695
 30
0.0
  0
POINT
  5
C52
330
8AC
100
AcDbEntity
  8
Defpoints
 62
     0
100
AcDbPoint
 10
899.0787663279295
 20
135.7288334528073
 30
0.0
  0
ENDBLK
  5
8AE
330
8AC
100
AcDbEntity
  8
0
 62
     1
100
AcDbBlockEnd
  0
BLOCK
  5
A21
330
A12
100
AcDbEntity
  8
0
 62
     1
100
AcDbBlockBegin
  2
A$C22952CF1
 70
     0
 10
0.0
 20
0.0
 30
0.0
  3
A$C22952CF1
  1

  0
LINE
  5
A13
330
A12
100
AcDbEntity
  8
0
 62
     3
100
AcDbLine
 10
-5.25
 20
-4.349999999999993
 30
0.0
 11
-7.449999999999817
 21
-4.349999999999993
 31
0.0
  0
LINE
  5
A14
330
A12
100
AcDbEntity
  8
0
 62
     3
100
AcDbLine
 10
-5.25
 20
4.349999999999993
 30
0.0
 11
-7.449999999999817
 21
4.349999999999993
 31
0.0
  0
LINE
  5
A15
330
A12
100
AcDbEntity
  8
0
 62
     3
100
AcDbLine
 10
7.449999999999817
 20
-3.5
 30
0.0
 11
5.25
 21
-3.5
 31
0.0
  0
LINE
  5
A16
330
A12
100
AcDbEntity
  8
0
 62
     3
100
AcDbLine
 10
7.449999999999817
 20
3.5
 30
0.0
 11
5.25
 21
3.5
 31
0.0
  0
LINE
  5
A17
330
A12
100
AcDbEntity
  8
0
 62
     3
100
AcDbLine
 10
-7.449999999999817
 20
-4.349999999999993
 30
0.0
 11
-7.449999999999817
 21
4.349999999999993
 31
0.0
  0
LINE
  5
A18
330
A12
100
AcDbEntity
  8
0
 62
     3
100
AcDbLine
 10
-5.25
 20
-4.349999999999993
 30
0.0
 11
-5.25
 21
4.349999999999993
 31
0.0
  0
LINE
  5
A19
330
A12
100
AcDbEntity
  8
0
 62
     3
100
AcDbLine
 10
7.449999999999817
 20
-3.5
 30
0.0
 11
7.449999999999817
 21
3.5
 31
0.0
  0
LINE
  5
A1A
330
A12
100
AcDbEntity
  8
0
 62
     3
100
AcDbLine
 10
5.25
 20
-3.5
 30
0.0
 11
5.25
 21
3.5
 31
0.0
  0
ARC
  5
A1B
330
A12
100
AcDbEntity
  8
0
 62
     3
100
AcDbCircle
 10
-0.0000000000004547
 20
-11.90162011230282
 30
0.0
 40
2.7
100
AcDbArc
 50
0.0
 51
180.0
  0
LINE
  5
A1C
330
A12
100
AcDbEntity
  8
0
 62
     3
100
AcDbLine
 10
2.699999999999363
 20
-14.60162011230284
 30
0.0
 11
-2.700000000000271
 21
-14.60162011230284
 31
0.0
  0
LINE
  5
A1D
330
A12
100
AcDbEntity
  8
0
 62
     3
100
AcDbLine
 10
2.699999999999363
 20
-11.90162011230282
 30
0.0
 11
2.699999999999363
 21
-14.60162011230284
 31
0.0
  0
LINE
  5
A1E
330
A12
100
AcDbEntity
  8
0
 62
     3
100
AcDbLine
 10
-2.700000000000271
 20
-11.90162011230282
 30
0.0
 11
-2.700000000000271
 21
-14.60162011230284
 31
0.0
  0
ENDBLK
  5
A22
330
A12
100
AcDbEntity
  8
0
 62
     1
100
AcDbBlockEnd
  0
BLOCK
  5
CC2
330
CC1
100
AcDbEntity
  8
0
100
AcDbBlockBegin
  2
*D26
 70
     1
 10
0.0
 20
0.0
 30
0.0
  3
*D26
  1

  0
LINE
  5
D14
330
CC1
100
AcDbEntity
  8
0
  6
Continuous
 62
     0
370
    -2
100
AcDbLine
 10
1062.167179994232
 20
-163.9604658948084
 30
0.0
 11
1006.10892796585
 21
-163.9604658948084
 31
0.0
  0
LINE
  5
D15
330
CC1
100
AcDbEntity
  8
0
  6
Continuous
 62
     0
370
    -2
100
AcDbLine
 10
1040.167179994231
 20
-231.4604658948084
 30
0.0
 11
1006.10892796585
 21
-231.4604658948084
 31
0.0
  0
LINE
  5
D16
330
CC1
100
AcDbEntity
  8
0
  6
Continuous
 62
     0
370
    -2
100
AcDbLine
 10
1007.35892796585
 20
-166.4604658948085
 30
0.0
 11
1007.35892796585
 21
-228.9604658948084
 31
0.0
  0
INSERT
  5
D17
330
CC1
100
AcDbEntity
  8
0
  6
Continuous
 62
     0
370
    -2
100
AcDbBlockReference
  2
_Open30
 10
1007.35892796585
 20
-163.9604658948084
 30
0.0
 41
2.5
 42
2.5
 43
2.5
 50
90.0
  0
INSERT
  5
D18
330
CC1
100
AcDbEntity
  8
0
  6
Continuous
 62
     0
370
    -2
100
AcDbBlockReference
  2
_Open30
 10
1007.35892796585
 20
-231.4604658948084
 30
0.0
 41
2.5
 42
2.5
 43
2.5
 50
270.0
  0
MTEXT
  5
D19
330
CC1
100
AcDbEntity
  8
0
  6
Continuous
 62
     4
100
AcDbMText
 10
1005.23392796585
 20
-199.2525548676653
 30
0.0
 40
3.0
 41
0.0
 71
     5
 72
     1
  1
135MAX
 11
0.0000000000000001
 21
1.0
 31
0.0
 73
     1
 44
1.0
1001
ACAD
1000
MTEXTBEGIN
1070
    73
1070
     1
1070
    44
1040
1.0
1070
    74
1070
     0
1000
MTEXTEND
  0
POINT
  5
D1A
330
CC1
100
AcDbEntity
  8
Defpoints
  6
Continuous
 62
     0
100
AcDbPoint
 10
1062.417179994231
 20
-163.9604658948084
 30
0.0
  0
POINT
  5
D1B
330
CC1
100
AcDbEntity
  8
Defpoints
  6
Continuous
 62
     0
100
AcDbPoint
 10
1040.417179994231
 20
-231.4604658948084
 30
0.0
  0
POINT
  5
D1C
330
CC1
100
AcDbEntity
  8
Defpoints
  6
Continuous
 62
     0
100
AcDbPoint
 10
1007.35892796585
 20
-231.4604658948084
 30
0.0
  0
ENDBLK
  5
CC3
330
CC1
100
AcDbEntity
  8
0
100
AcDbBlockEnd
  0
BLOCK
  5
CD8
330
CD7
100
AcDbEntity
  8
0
100
AcDbBlockBegin
  2
*D27
 70
     1
 10
0.0
 20
0.0
 30
0.0
  3
*D27
  1

  0
LINE
  5
CDA
330
CD7
100
AcDbEntity
  8
0
  6
Continuous
 62
     0
370
    -2
100
AcDbLine
 10
1033.417179994231
 20
-223.7104658948084
 30
0.0
 11
1033.417179994231
 21
-246.2760252052405
 31
0.0
  0
LINE
  5
CDB
330
CD7
100
AcDbEntity
  8
0
  6
Continuous
 62
     0
370
    -2
100
AcDbLine
 10
1098.417179994231
 20
-223.7104658948084
 30
0.0
 11
1098.417179994231
 21
-246.2760252052405
 31
0.0
  0
LINE
  5
CDC
330
CD7
100
AcDbEntity
  8
0
  6
Continuous
 62
     0
370
    -2
100
AcDbLine
 10
1035.917179994231
 20
-245.0260252052406
 30
0.0
 11
1095.917179994231
 21
-245.0260252052406
 31
0.0
  0
INSERT
  5
CDD
330
CD7
100
AcDbEntity
  8
0
  6
Continuous
 62
     0
370
    -2
100
AcDbBlockReference
  2
_Open30
 10
1033.417179994231
 20
-245.0260252052406
 30
0.0
 41
2.5
 42
2.5
 43
2.5
 50
180.0
  0
INSERT
  5
CDE
330
CD7
100
AcDbEntity
  8
0
  6
Continuous
 62
     0
370
    -2
100
AcDbBlockReference
  2
_Open30
 10
1098.417179994231
 20
-245.0260252052406
 30
0.0
 41
2.5
 42
2.5
 43
2.5
  0
MTEXT
  5
CDF
330
CD7
100
AcDbEntity
  8
0
  6
Continuous
 62
     4
100
AcDbMText
 10
1064.548778338143
 20
-242.9010252052405
 30
0.0
 40
3.0
 41
0.0
 71
     5
 72
     1
  1
130
 73
     1
 44
1.0
1001
ACAD
1000
MTEXTBEGIN
1070
    73
1070
     1
1070
    44
1040
1.0
1070
    74
1070
     0
1000
MTEXTEND
  0
POINT
  5
CE0
330
CD7
100
AcDbEntity
  8
Defpoints
  6
Continuous
 62
     0
100
AcDbPoint
 10
1033.417179994231
 20
-223.4604658948085
 30
0.0
  0
POINT
  5
CE1
330
CD7
100
AcDbEntity
  8
Defpoints
  6
Continuous
 62
     0
100
AcDbPoint
 10
1098.417179994231
 20
-223.4604658948085
 30
0.0
  0
POINT
  5
CE2
330
CD7
100
AcDbEntity
  8
Defpoints
  6
Continuous
 62
     0
100
AcDbPoint
 10
1098.417179994231
 20
-245.0260252052406
 30
0.0
  0
ENDBLK
  5
CD9
330
CD7
100
AcDbEntity
  8
0
100
AcDbBlockEnd
  0
BLOCK
  5
CE5
330
CE4
100
AcDbEntity
  8
0
100
AcDbBlockBegin
  2
*D28
 70
     1
 10
0.0
 20
0.0
 30
0.0
  3
*D28
  1

  0
LINE
  5
CE7
330
CE4
100
AcDbEntity
  8
0
  6
Continuous
 62
     0
370
    -2
100
AcDbLine
 10
1220.740205953422
 20
-227.7104658948085
 30
0.0
 11
1220.740205953422
 21
-245.4828987493736
 31
0.0
  0
LINE
  5
CE8
330
CE4
100
AcDbEntity
  8
0
  6
Continuous
 62
     0
370
    -2
100
AcDbLine
 10
1123.240205953422
 20
-227.7104658948085
 30
0.0
 11
1123.240205953422
 21
-245.4828987493736
 31
0.0
  0
LINE
  5
CE9
330
CE4
100
AcDbEntity
  8
0
  6
Continuous
 62
     0
370
    -2
100
AcDbLine
 10
1218.240205953422
 20
-244.2328987493736
 30
0.0
 11
1125.740205953422
 21
-244.2328987493736
 31
0.0
  0
INSERT
  5
CEA
330
CE4
100
AcDbEntity
  8
0
  6
Continuous
 62
     0
370
    -2
100
AcDbBlockReference
  2
_Open30
 10
1220.740205953422
 20
-244.2328987493736
 30
0.0
 41
2.5
 42
2.5
 43
2.5
  0
INSERT
  5
CEB
330
CE4
100
AcDbEntity
  8
0
  6
Continuous
 62
     0
370
    -2
100
AcDbBlockReference
  2
_Open30
 10
1123.240205953422
 20
-244.2328987493736
 30
0.0
 41
2.5
 42
2.5
 43
2.5
 50
180.0
  0
MTEXT
  5
CEC
330
CE4
100
AcDbEntity
  8
0
  6
Continuous
 62
     4
100
AcDbMText
 10
1169.914325406855
 20
-242.1078987493736
 30
0.0
 40
3.0
 41
0.0
 71
     5
 72
     1
  1
195
 73
     1
 44
1.0
1001
ACAD
1000
MTEXTBEGIN
1070
    73
1070
     1
1070
    44
1040
1.0
1070
    74
1070
     0
1000
MTEXTEND
  0
POINT
  5
CED
330
CE4
100
AcDbEntity
  8
Defpoints
  6
Continuous
 62
     0
100
AcDbPoint
 10
1220.740205953422
 20
-227.4604658948085
 30
0.0
  0
POINT
  5
CEE
330
CE4
100
AcDbEntity
  8
Defpoints
  6
Continuous
 62
     0
100
AcDbPoint
 10
1123.240205953422
 20
-227.4604658948085
 30
0.0
  0
POINT
  5
CEF
330
CE4
100
AcDbEntity
  8
Defpoints
  6
Continuous
 62
     0
100
AcDbPoint
 10
1123.240205953422
 20
-244.2328987493736
 30
0.0
  0
ENDBLK
  5
CE6
330
CE4
100
AcDbEntity
  8
0
100
AcDbBlockEnd
  0
BLOCK
  5
D02
330
D00
100
AcDbEntity
  8
0
100
AcDbBlockBegin
  2
_DotSmall
 70
     0
 10
0.0
 20
0.0
 30
0.0
  3
_DotSmall
  1

  0
LWPOLYLINE
  5
D01
330
D00
100
AcDbEntity
  8
0
  6
ByBlock
 62
     0
100
AcDbPolyline
 90
        2
 70
     1
 43
0.5
 10
-0.0625
 20
0.0
 42
1.0
 10
0.0625
 20
0.0
 42
1.0
  0
ENDBLK
  5
D03
330
D00
100
AcDbEntity
  8
0
100
AcDbBlockEnd
  0
ENDSEC
  0
SECTION
  2
ENTITIES
  0
TEXT
  5
BB
330
6B
100
AcDbEntity
  8
0
 62
     3
100
AcDbText
 10
1280.917142
 20
-290.232688
 30
0.0
 40
4.5
  1
海外用トランス
  7
高4.5
100
AcDbText
  0
LINE
  5
BE
330
6B
100
AcDbEntity
  8
0
 62
     3
100
AcDbLine
 10
1348.727619
 20
-306.076948
 30
0.0
 11
1348.727619
 21
-283.0769480000001
 31
0.0
  0
LINE
  5
C0
330
6B
100
AcDbEntity
  8
0
 62
     3
100
AcDbLine
 10
1295.67401
 20
-313.076948
 30
0.0
 11
1295.67401
 21
-299.076948
 31
0.0
  0
TEXT
  5
C2
330
6B
100
AcDbEntity
  8
0
 62
     3
100
AcDbText
 10
1324.737937
 20
-286.871832
 30
0.0
 40
2.0
  1
A
 41
0.7
100
AcDbText
  0
TEXT
  5
C3
330
6B
100
AcDbEntity
  8
0
 62
     3
100
AcDbText
 10
1327.273224
 20
-286.871832
 30
0.0
 40
2.0
  1
P
 41
0.7
100
AcDbText
  0
TEXT
  5
C4
330
6B
100
AcDbEntity
  8
0
 62
     3
100
AcDbText
 10
1329.80851
 20
-286.871832
 30
0.0
 40
2.0
  1
P
 41
0.7
100
AcDbText
  0
TEXT
  5
C5
330
6B
100
AcDbEntity
  8
0
 62
     3
100
AcDbText
 10
1332.343796
 20
-286.871832
 30
0.0
 40
2.0
  1
D
 41
0.7
100
AcDbText
  0
TEXT
  5
C6
330
6B
100
AcDbEntity
  8
0
 62
     3
100
AcDbText
 10
1337.712479
 20
-286.871832
 30
0.0
 40
2.0
  1
C
 41
0.7
100
AcDbText
  0
TEXT
  5
C7
330
6B
100
AcDbEntity
  8
0
 62
     3
100
AcDbText
 10
1340.247765
 20
-286.871832
 30
0.0
 40
2.0
  1
H
 41
0.7
100
AcDbText
  0
TEXT
  5
C8
330
6B
100
AcDbEntity
  8
0
 62
     3
100
AcDbText
 10
1342.783052
 20
-286.871832
 30
0.0
 40
2.0
  1
C
 41
0.7
100
AcDbText
  0
TEXT
  5
C9
330
6B
100
AcDbEntity
  8
0
 62
     3
100
AcDbText
 10
1345.318338
 20
-286.871832
 30
0.0
 40
2.0
  1
K
 41
0.7
100
AcDbText
  0
TEXT
  5
CA
330
6B
100
AcDbEntity
  8
0
 62
     3
100
AcDbText
 10
1350.992304
 20
-286.871832
 30
0.0
 40
2.0
  1
DESN
 41
1.216762999999998
100
AcDbText
  0
TEXT
  5
CB
330
6B
100
AcDbEntity
  8
0
 62
     3
100
AcDbText
 10
1265.985946
 20
-316.218329
 30
0.0
 40
2.0
  1
NICHIDO IND.CO.LTD
 41
1.274876
100
AcDbText
  0
LINE
  5
CC
330
6B
100
AcDbEntity
  8
0
 62
     3
100
AcDbLine
 10
1276.368975
 20
-283.076948
 30
0.0
 11
1276.368975
 21
-306.076948
 31
0.0
  0
LINE
  5
CD
330
6B
100
AcDbEntity
  8
0
 62
     3
100
AcDbLine
 10
1322.727619
 20
-283.076948
 30
0.0
 11
1322.727619
 21
-322.74267
 31
0.0
  0
LINE
  5
D2
330
6B
100
AcDbEntity
  8
0
 62
     3
100
AcDbLine
 10
1335.727619
 20
-283.076948
 30
0.0
 11
1335.727619
 21
-313.076948
 31
0.0
  0
TEXT
  5
D3
330
6B
100
AcDbEntity
  8
0
 62
     3
100
AcDbText
 10
1323.840064
 20
-312.212261
 30
0.0
 40
3.2
  1
作成日
 41
1.017225999999997
100
AcDbText
  0
LINE
  5
D4
330
6B
100
AcDbEntity
  8
0
 62
     3
100
AcDbLine
 10
1374.426983
 20
-283.076948
 30
0.0
 11
1263.12354
 21
-283.076948
 31
0.0
  0
LINE
  5
D5
330
6B
100
AcDbEntity
  8
0
 62
     3
100
AcDbLine
 10
1361.727619
 20
-306.076948
 30
0.0
 11
1361.727619
 21
-283.076948
 31
0.0
  0
TEXT
  5
D6
330
6B
100
AcDbEntity
  8
0
 62
     3
100
AcDbText
 10
1365.051423
 20
-286.786013
 30
0.0
 40
1.8
  1
D
 41
0.666667
100
AcDbText
  0
TEXT
  5
D7
330
6B
100
AcDbEntity
  8
0
 62
     3
100
AcDbText
 10
1367.868051
 20
-286.786013
 30
0.0
 40
1.8
  1
E
 41
0.666667
100
AcDbText
  0
TEXT
  5
D8
330
6B
100
AcDbEntity
  8
0
 62
     3
100
AcDbText
 10
1370.684679
 20
-286.786013
 30
0.0
 40
1.8
  1
F
 41
0.666667
100
AcDbText
  0
TEXT
  5
D9
330
6B
100
AcDbEntity
  8
0
 62
     3
100
AcDbText
 10
1365.051423
 20
-290.778566
 30
0.0
 40
3.2
  1
製図
 41
1.076369
100
AcDbText
  0
LINE
  5
DA
330
6B
100
AcDbEntity
  8
0
 62
     3
100
AcDbLine
 10
1263.12354
 20
-283.076948
 30
0.0
 11
1263.12354
 21
-322.74267
 31
0.0
  0
TEXT
  5
DB
330
6B
100
AcDbEntity
  8
0
 62
     3
100
AcDbText
 10
1264.500193
 20
-322.4102049999999
 30
0.0
 40
5.0
  1
日動工業株式会社
 41
0.833333
100
AcDbText
  0
LINE
  5
DC
330
6B
100
AcDbEntity
  8
0
 62
     3
100
AcDbLine
 10
1306.005944
 20
-299.0769479999999
 30
0.0
 11
1306.005944
 21
-322.74267
 31
0.0
  0
LINE
  5
DD
330
6B
100
AcDbEntity
  8
0
 62
     3
100
AcDbLine
 10
1306.005944
 20
-317.909809
 30
0.0
 11
1322.727619
 21
-317.909809
 31
0.0
  0
TEXT
  5
DE
330
6B
100
AcDbEntity
  8
0
 62
     3
100
AcDbText
 10
1306.592546
 20
-317.093378
 30
0.0
 40
3.2
  1
出図コード
 41
0.8356860000000001
100
AcDbText
  0
LINE
  5
F0
330
6B
100
AcDbEntity
  8
0
 62
     3
100
AcDbLine
 10
1263.12354
 20
-313.076948
 30
0.0
 11
1374.426983
 21
-313.076948
 31
0.0
  0
LINE
  5
F2
330
6B
100
AcDbEntity
  8
0
 62
     3
100
AcDbLine
 10
1263.12354
 20
-292.076948
 30
0.0
 11
1374.426983
 21
-292.076948
 31
0.0
  0
LINE
  5
F8
330
6B
100
AcDbEntity
  8
0
 62
     3
100
AcDbLine
 10
1263.12354
 20
-299.0769479999999
 30
0.0
 11
1322.727619
 21
-299.076948
 31
0.0
  0
LINE
  5
FE
330
6B
100
AcDbEntity
  8
0
 62
     3
100
AcDbLine
 10
1263.12354
 20
-306.076948
 30
0.0
 11
1374.426983
 21
-306.076948
 31
0.0
  0
LINE
  5
102
330
6B
100
AcDbEntity
  8
0
 62
     3
100
AcDbLine
 10
1374.426983
 20
-48.687309
 30
0.0
 11
1374.426983
 21
-322.7426700000001
 31
0.0
  0
LINE
  5
103
330
6B
100
AcDbEntity
  8
0
 62
     3
100
AcDbLine
 10
984.4269829999999
 20
-48.687309
 30
0.0
 11
984.4269829999999
 21
-322.74267
 31
0.0
  0
LINE
  5
104
330
6B
100
AcDbEntity
  8
0
 62
     3
100
AcDbLine
 10
1374.426983
 20
-322.74267
 30
0.0
 11
984.4269829999999
 21
-322.74267
 31
0.0
  0
TEXT
  5
107
330
6B
100
AcDbEntity
  8
0
 62
     3
100
AcDbText
 10
1306.459998
 20
-322.3192793178331
 30
0.0
 40
3.2
  1
ZK-A3X
 41
0.8112849999999999
100
AcDbText
  0
TEXT
  5
108
330
6B
100
AcDbEntity
  8
0
 62
     3
100
AcDbText
 10
1264.940937
 20
-286.907422
 30
0.0
 40
2.0
  1
CONPONENTS
 41
0.5331600000000001
100
AcDbText
  0
TEXT
  5
109
330
6B
100
AcDbEntity
  8
0
 62
     3
100
AcDbText
 10
1264.591211
 20
-305.839599
 30
0.0
 40
3.0
  1
材
 41
0.833333
100
AcDbText
  0
TEXT
  5
10A
330
6B
100
AcDbEntity
  8
0
 62
     3
100
AcDbText
 10
1272.126853
 20
-305.839599
 30
0.0
 40
3.0
  1
質
 41
0.833333
100
AcDbText
  0
TEXT
  5
10B
330
6B
100
AcDbEntity
  8
0
 62
     3
100
AcDbText
 10
1264.679281
 20
-295.215074
 30
0.0
 40
2.0
  1
MODEL
 41
1.031072999999999
100
AcDbText
  0
TEXT
  5
10C
330
6B
100
AcDbEntity
  8
0
 62
     3
100
AcDbText
 10
1264.591211
 20
-302.15729
 30
0.0
 40
2.0
  1
MATERIAL
 41
0.659278
100
AcDbText
  0
TEXT
  5
10D
330
6B
100
AcDbEntity
  8
0
 62
     3
100
AcDbText
 10
1295.898491
 20
-305.839599
 30
0.0
 40
3.0
  1
備
 41
0.833333
100
AcDbText
  0
TEXT
  5
10E
330
6B
100
AcDbEntity
  8
0
 62
     3
100
AcDbText
 10
1302.631493
 20
-305.839599
 30
0.0
 40
3.0
  1
考
 41
0.833333
100
AcDbText
  0
TEXT
  5
10F
330
6B
100
AcDbEntity
  8
0
 62
     3
100
AcDbText
 10
1296.267190756902
 20
-302.15729
 30
0.0
 40
2.0
  1
REMARKS
 41
0.675794
100
AcDbText
  0
TEXT
  5
110
330
6B
100
AcDbEntity
  8
0
 62
     3
100
AcDbText
 10
1266.18094
 20
-309.077411
 30
0.0
 40
2.0
  1
3AD
 41
1.42614
100
AcDbText
  0
TEXT
  5
111
330
6B
100
AcDbEntity
  8
0
 62
     3
100
AcDbText
 10
1275.491919
 20
-308.911677
 30
0.0
 40
2.0
  1
ANGLE
 41
1.669883999999996
100
AcDbText
  0
TEXT
  5
112
330
6B
100
AcDbEntity
  8
0
 62
     3
100
AcDbText
 10
1296.425806
 20
-309.288518
 30
0.0
 40
2.0
  1
SCALE
 41
0.7719630000000001
100
AcDbText
  0
TEXT
  5
113
330
6B
100
AcDbEntity
  8
0
 62
     3
100
AcDbText
 10
1265.867069
 20
-313.076948
 30
0.0
 40
3.0
  1
第
 41
0.833333
100
AcDbText
  0
TEXT
  5
114
330
6B
100
AcDbEntity
  8
0
 62
     3
100
AcDbText
 10
1273.653919
 20
-313.076948
 30
0.0
 40
3.0
  1
三
 41
0.833333
100
AcDbText
  0
TEXT
  5
115
330
6B
100
AcDbEntity
  8
0
 62
     3
100
AcDbText
 10
1281.440769
 20
-313.076948
 30
0.0
 40
3.0
  1
角
 41
0.833333
100
AcDbText
  0
TEXT
  5
116
330
6B
100
AcDbEntity
  8
0
 62
     3
100
AcDbText
 10
1289.227619
 20
-313.076948
 30
0.0
 40
3.0
  1
法
 41
0.833333
100
AcDbText
  0
TEXT
  5
117
330
6B
100
AcDbEntity
  8
0
 62
     3
100
AcDbText
 10
1296.289011
 20
-312.788518
 30
0.0
 40
3.0
  1
尺
 41
0.833333
100
AcDbText
  0
TEXT
  5
118
330
6B
100
AcDbEntity
  8
0
 62
     3
100
AcDbText
 10
1303.022013
 20
-312.788518
 30
0.0
 40
3.0
  1
度
 41
0.833333
100
AcDbText
  0
TEXT
  5
119
330
6B
100
AcDbEntity
  8
0
 62
     3
100
AcDbText
 10
1325.605284
 20
-290.619219
 30
0.0
 40
3.0
  1
承認
 41
1.089472999999999
100
AcDbText
  0
TEXT
  5
11A
330
6B
100
AcDbEntity
  8
0
 62
     3
100
AcDbText
 10
1338.848164
 20
-290.676948
 30
0.0
 40
3.0
  1
検図
 41
0.931761
100
AcDbText
  0
TEXT
  5
11B
330
6B
100
AcDbEntity
  8
0
 62
     3
100
AcDbText
 10
1351.84856
 20
-290.676948
 30
0.0
 40
3.0
  1
設
 41
0.833333
100
AcDbText
  0
TEXT
  5
11C
330
6B
100
AcDbEntity
  8
0
 62
     3
100
AcDbText
 10
1356.338429
 20
-290.676948
 30
0.0
 40
3.0
  1
計
 41
0.833333
100
AcDbText
  0
TEXT
  5
11D
330
6B
100
AcDbEntity
  8
0
 62
     3
100
AcDbText
 10
1265.011044
 20
-290.5043950000001
 30
0.0
 40
3.0
  1
品
 41
0.833333
100
AcDbText
  0
TEXT
  5
11E
330
6B
100
AcDbEntity
  8
0
 62
     3
100
AcDbText
 10
1272.546686
 20
-290.5043950000001
 30
0.0
 40
3.0
  1
名
 41
0.833333
100
AcDbText
  0
TEXT
  5
11F
330
6B
100
AcDbEntity
  8
0
 62
     3
100
AcDbText
 10
1264.679281
 20
-298.6569951457105
 30
0.0
 40
3.0
  1
型
 41
0.833333
100
AcDbText
  0
TEXT
  5
120
330
6B
100
AcDbEntity
  8
0
 62
     3
100
AcDbText
 10
1272.227372
 20
-298.6569951457105
 30
0.0
 40
3.0
  1
式
 41
0.833333
100
AcDbText
  0
LINE
  5
128
330
6B
100
AcDbEntity
  8
0
 62
     3
100
AcDbLine
 10
1374.426983
 20
-48.687309
 30
0.0
 11
984.4269829999999
 21
-48.687309
 31
0.0
  0
LINE
  5
129
330
6B
100
AcDbEntity
  8
0
 62
     3
100
AcDbLine
 10
1348.727619
 20
-283.076948
 30
0.0
 11
1348.727619
 21
-277.076948
 31
0.0
  0
LINE
  5
12A
330
6B
100
AcDbEntity
  8
0
 62
     3
100
AcDbLine
 10
1322.727619
 20
-283.076948
 30
0.0
 11
1322.727619
 21
-277.076948
 31
0.0
  0
LINE
  5
12B
330
6B
100
AcDbEntity
  8
0
 62
     3
100
AcDbLine
 10
1374.426983
 20
-277.076948
 30
0.0
 11
1322.727619
 21
-277.076948
 31
0.0
  0
TEXT
  5
12C
330
6B
100
AcDbEntity
  8
0
 62
     3
100
AcDbText
 10
1328.723218
 20
-282.280599
 30
0.0
 40
4.5
  1
コード
  7
高4.5
100
AcDbText
  0
TEXT
  5
12D
330
6B
100
AcDbEntity
  8
0
 62
     3
100
AcDbText
 10
1053.253512703473
 20
-322.24267
 30
0.0
 40
3.2
  1
備　　　　　考　
 41
0.8
  7
高3.2
100
AcDbText
  0
TEXT
  5
12E
330
6B
100
AcDbEntity
  8
0
 62
     3
100
AcDbText
 10
1029.964864858334
 20
-322.24267
 30
0.0
 40
3.2
  1
個数
 41
0.8
  7
高3.2
100
AcDbText
  0
TEXT
  5
12F
330
6B
100
AcDbEntity
  8
0
 62
     3
100
AcDbText
 10
993.4853095624999
 20
-322.24267
 30
0.0
 40
3.2
  1
部　　品　　名
 41
0.8
  7
高3.2
100
AcDbText
  0
TEXT
  5
130
330
6B
100
AcDbEntity
  8
0
 62
     3
100
AcDbText
 10
985.926983
 20
-322.24267
 30
0.0
 40
3.2
  1
No
 41
0.8
  7
高3.2
100
AcDbText
  0
TEXT
  5
131
330
6B
100
AcDbEntity
  8
0
 62
     3
100
AcDbText
 10
1038.648957407639
 20
-322.24267
 30
0.0
 40
3.2
  1
材　質
 41
0.8
  7
高3.2
100
AcDbText
  0
TEXT
  5
134
330
6B
100
AcDbEntity
  8
0
 62
     3
100
AcDbText
 10
1340.582573
 20
-311.777244
 30
0.0
 40
3.2
  1
2006.12.06
  7
高3.2
100
AcDbText
  0
TEXT
  5
135
330
6B
100
AcDbEntity
  8
0
 62
     3
100
AcDbText
 10
985.926983
 20
-307.24267
 30
0.0
 40
3.2
  1
3
 41
0.8
  7
高3.2
100
AcDbText
  0
TEXT
  5
136
330
6B
100
AcDbEntity
  8
0
 62
     3
100
AcDbText
 10
985.926983
 20
-302.2426700000001
 30
0.0
 40
3.2
  1
4
 41
0.8
  7
高3.2
100
AcDbText
  0
TEXT
  5
137
330
6B
100
AcDbEntity
  8
0
 62
     3
100
AcDbText
 10
985.926983
 20
-297.24267
 30
0.0
 40
3.2
  1
5
 41
0.8
  7
高3.2
100
AcDbText
  0
TEXT
  5
138
330
6B
100
AcDbEntity
  8
0
 62
     3
100
AcDbText
 10
985.926983
 20
-292.2426700000001
 30
0.0
 40
3.2
  1
6
 41
0.8
  7
高3.2
100
AcDbText
  0
TEXT
  5
139
330
6B
100
AcDbEntity
  8
0
 62
     3
100
AcDbText
 10
1029.964864858334
 20
-307.24267
 30
0.0
 40
3.2
  1
1
 41
0.8
  7
高3.2
100
AcDbText
  0
TEXT
  5
13A
330
6B
100
AcDbEntity
  8
0
 62
     3
100
AcDbText
 10
985.926983
 20
-317.2426700000001
 30
0.0
 40
3.2
  1
1
 41
0.8
  7
高3.2
100
AcDbText
  0
TEXT
  5
13B
330
6B
100
AcDbEntity
  8
0
 62
     3
100
AcDbText
 10
985.926983
 20
-312.24267
 30
0.0
 40
3.2
  1
2
 41
0.8
  7
高3.2
100
AcDbText
  0
TEXT
  5
13C
330
6B
100
AcDbEntity
  8
0
 62
     3
100
AcDbText
 10
993.4853095624999
 20
-312.24267
 30
0.0
 40
3.2
  1
ケース本体
 41
0.8
  7
高3.2
100
AcDbText
  0
TEXT
  5
13D
330
6B
100
AcDbEntity
  8
0
 62
     3
100
AcDbText
 10
1029.964864858334
 20
-312.24267
 30
0.0
 40
3.2
  1
1式
 41
0.8
  7
高3.2
100
AcDbText
  0
TEXT
  5
13E
330
6B
100
AcDbEntity
  8
0
 62
     3
100
AcDbText
 10
993.4853095624999
 20
-307.24267
 30
0.0
 40
3.2
  1
電線　プラグ付き
 41
0.8
  7
高3.2
100
AcDbText
  0
TEXT
  5
13F
330
6B
100
AcDbEntity
  8
0
 62
     3
100
AcDbText
 10
1053.253512703473
 20
-312.24267
 30
0.0
 40
3.2
  1
上部カバー、ベース
 41
0.8
  7
高3.2
100
AcDbText
  0
LINE
  5
146
330
6B
100
AcDbEntity
  8
0
 62
     3
100
AcDbLine
 10
972.025059
 20
-182.24267
 30
0.0
 11
969.4269829999999
 21
-183.74267
 31
0.0
  0
LINE
  5
147
330
6B
100
AcDbEntity
  8
0
 62
     3
100
AcDbLine
 10
972.025059
 20
-182.24267
 30
0.0
 11
969.4269829999999
 21
-180.74267
 31
0.0
  0
LINE
  5
148
330
6B
100
AcDbEntity
  8
0
 62
     3
100
AcDbLine
 10
969.4269829999999
 20
-183.74267
 30
0.0
 11
969.4269829999999
 21
-180.74267
 31
0.0
  0
TEXT
  5
1CD
330
6B
100
AcDbEntity
  8
0
 62
     3
100
AcDbText
 10
1038.648957407639
 20
-312.24267
 30
0.0
 40
3.2
  1
-
 41
0.8
  7
高3.2
100
AcDbText
  0
TEXT
  5
1CE
330
6B
100
AcDbEntity
  8
0
 62
     3
100
AcDbText
 10
1038.648957407639
 20
-307.24267
 30
0.0
 40
3.2
  1
PVC
 41
0.8
  7
高3.2
100
AcDbText
  0
TEXT
  5
1CF
330
6B
100
AcDbEntity
  8
0
 62
     3
100
AcDbText
 10
993.4853095624999
 20
-302.2426700000001
 30
0.0
 40
3.2
  1
コンセント
 41
0.8
  7
高3.2
100
AcDbText
  0
TEXT
  5
1D0
330
6B
100
AcDbEntity
  8
0
 62
     3
100
AcDbText
 10
1038.648957407639
 20
-302.2426700000001
 30
0.0
 40
3.2
  1
-
 41
0.8
  7
高3.2
100
AcDbText
  0
TEXT
  5
1D1
330
6B
100
AcDbEntity
  8
0
 62
     3
100
AcDbText
 10
1029.964864858334
 20
-317.2426700000001
 30
0.0
 40
3.2
  1
1
 41
0.8
  7
高3.2
100
AcDbText
  0
TEXT
  5
1D2
330
6B
100
AcDbEntity
  8
0
 62
     3
100
AcDbText
 10
1053.253512703473
 20
-317.2426700000001
 30
0.0
 40
3.2
  1
ネオン球
 41
0.8
  7
高3.2
100
AcDbText
  0
TEXT
  5
1D3
330
6B
100
AcDbEntity
  8
0
 62
     3
100
AcDbText
 10
993.4853095624999
 20
-317.2426700000001
 30
0.0
 40
3.2
  1
電源ランプ
 41
0.8
  7
高3.2
100
AcDbText
  0
TEXT
  5
1D4
330
6B
100
AcDbEntity
  8
0
 62
     3
100
AcDbText
 10
993.4853095624999
 20
-297.24267
 30
0.0
 40
3.2
  1
ゴム脚
 41
0.8
  7
高3.2
100
AcDbText
  0
TEXT
  5
1D5
330
6B
100
AcDbEntity
  8
0
 62
     3
100
AcDbText
 10
1029.964864858334
 20
-297.24267
 30
0.0
 40
3.2
  1
4
 41
0.8
  7
高3.2
100
AcDbText
  0
TEXT
  5
1D6
330
6B
100
AcDbEntity
  8
0
 62
     3
100
AcDbText
 10
1038.648957407639
 20
-297.24267
 30
0.0
 40
3.2
  1
合成ゴム
 41
0.8
  7
高3.2
100
AcDbText
  0
TEXT
  5
1D7
330
6B
100
AcDbEntity
  8
0
 62
     3
100
AcDbText
 10
1053.253512703473
 20
-292.2426700000001
 30
0.0
 40
3.2
  1
-
 41
0.8
  7
高3.2
100
AcDbText
  0
TEXT
  5
1D8
330
6B
100
AcDbEntity
  8
0
 62
     3
100
AcDbText
 10
1038.648957407639
 20
-292.2426700000001
 30
0.0
 40
3.2
  1
-
 41
0.8
  7
高3.2
100
AcDbText
  0
LINE
  5
1D9
330
6B
100
AcDbEntity
  8
0
 62
     3
100
AcDbLine
 10
1091.454945190202
 20
-322.74267
 30
0.0
 11
1091.454945190202
 21
-287.74267
 31
0.0
  0
LINE
  5
1DA
330
6B
100
AcDbEntity
  8
0
100
AcDbLine
 10
1037.148957407639
 20
-322.74267
 30
0.0
 11
1037.148957407639
 21
-287.74267
 31
0.0
  0
LINE
  5
1DB
330
6B
100
AcDbEntity
  8
0
100
AcDbLine
 10
1028.464864858333
 20
-322.74267
 30
0.0
 11
1028.464864858333
 21
-287.74267
 31
0.0
  0
LINE
  5
1DC
330
6B
100
AcDbEntity
  8
0
100
AcDbLine
 10
991.9853095624999
 20
-322.74267
 30
0.0
 11
991.9853095624999
 21
-287.74267
 31
0.0
  0
LINE
  5
1DD
330
6B
100
AcDbEntity
  8
0
100
AcDbLine
 10
1051.753512703473
 20
-322.74267
 30
0.0
 11
1051.753512703473
 21
-287.74267
 31
0.0
  0
TEXT
  5
1DE
330
6B
100
AcDbEntity
  8
0
 62
     3
100
AcDbText
 10
1053.253512703473
 20
-302.2426700000001
 30
0.0
 40
3.2
  1
出力　AC100V
 41
0.8
  7
高3.2
100
AcDbText
  0
TEXT
  5
1EA
330
6B
100
AcDbEntity
  8
0
 62
     3
100
AcDbText
 10
1308.344329
 20
-312.556477
 30
0.0
 40
3.2
  1
1/2
  7
高3.2
100
AcDbText
  0
CIRCLE
  5
201
330
6B
100
AcDbEntity
  8
0
100
AcDbCircle
 10
1233.434440557133
 20
-200.4606047315863
 30
0.0
 40
5.0
  0
TEXT
  5
202
330
6B
100
AcDbEntity
  8
0
 62
     4
100
AcDbText
 10
1231.32601764929
 20
-203.6842018942391
 30
0.0
 40
6.299999999999998
  1
3
  7
高6.3
100
AcDbText
  0
CIRCLE
  5
209
330
6B
100
AcDbEntity
  8
0
100
AcDbCircle
 10
1109.396901827711
 20
-163.9353831082051
 30
0.0
 40
5.0
  0
TEXT
  5
20A
330
6B
100
AcDbEntity
  8
0
 62
     4
100
AcDbText
 10
1108.377686756994
 20
-166.9930552940181
 30
0.0
 40
6.299999999999998
  1
1
  7
高6.3
100
AcDbText
  0
CIRCLE
  5
36C
330
6B
100
AcDbEntity
  8
0
100
AcDbCircle
 10
1109.396901827711
 20
-227.4969686779229
 30
0.0
 40
5.0
  0
TEXT
  5
36D
330
6B
100
AcDbEntity
  8
0
 62
     4
100
AcDbText
 10
1107.288478919868
 20
-230.7205648405758
 30
0.0
 40
6.299999999999998
  1
6
  7
高6.3
100
AcDbText
  0
CIRCLE
  5
374
330
6B
100
AcDbEntity
  8
0
100
AcDbCircle
 10
1109.396901827711
 20
-239.4395212332547
 30
0.0
 40
5.0
  0
TEXT
  5
375
330
6B
100
AcDbEntity
  8
0
 62
     4
100
AcDbText
 10
1107.288478919868
 20
-242.6631173959075
 30
0.0
 40
6.299999999999998
  1
5
  7
高6.3
100
AcDbText
  0
CIRCLE
  5
37C
330
6B
100
AcDbEntity
  8
0
100
AcDbCircle
 10
1021.41114313898
 20
-181.8784570108651
 30
0.0
 40
5.0
  0
TEXT
  5
37D
330
6B
100
AcDbEntity
  8
0
 62
     4
100
AcDbText
 10
1019.302720231137
 20
-185.1020531735178
 30
0.0
 40
6.299999999999998
  1
4
  7
高6.3
100
AcDbText
  0
CIRCLE
  5
384
330
6B
100
AcDbEntity
  8
0
100
AcDbCircle
 10
1233.434440557133
 20
-163.9353831082051
 30
0.0
 40
5.0
  0
TEXT
  5
385
330
6B
100
AcDbEntity
  8
0
 62
     4
100
AcDbText
 10
1231.32601764929
 20
-167.1589792708578
 30
0.0
 40
6.299999999999998
  1
2
  7
高6.3
100
AcDbText
  0
TEXT
  5
386
330
6B
100
AcDbEntity
  8
0
 62
     3
100
AcDbText
 10
993.4853095624999
 20
-292.2426700000001
 30
0.0
 40
3.2
  1
サーキットブレーカー
 41
0.8
  7
高3.2
100
AcDbText
  0
TEXT
  5
387
330
6B
100
AcDbEntity
  8
0
 62
     3
100
AcDbText
 10
1029.964864858334
 20
-292.2426700000001
 30
0.0
 40
3.2
  1
1
 41
0.8
  7
高3.2
100
AcDbText
  0
TEXT
  5
388
330
6B
100
AcDbEntity
  8
0
 62
     3
100
AcDbText
 10
1029.964864858334
 20
-302.2426700000001
 30
0.0
 40
3.2
  1
2
 41
0.8
  7
高3.2
100
AcDbText
  0
TEXT
  5
389
330
6B
100
AcDbEntity
  8
0
 62
     3
100
AcDbText
 10
1053.253512703473
 20
-307.24267
 30
0.0
 40
3.2
  1
VCTF2sqx3芯x1.3m
 41
0.8
  7
高3.2
100
AcDbText
  0
TEXT
  5
390
330
6B
100
AcDbEntity
  8
0
 62
     3
100
AcDbText
 10
1279.086075691475
 20
-298.2659700000001
 30
0.0
 40
4.5
  1
PAL-1500AP
  7
高4.5
100
AcDbText
  0
TEXT
  5
391
330
6B
100
AcDbEntity
  8
0
 62
     3
100
AcDbText
 10
1326.015515436121
 20
-321.945495
 30
0.0
 40
6.299999999999998
  1
PAL-1500AP
 41
0.8
  7
高6.3
100
AcDbText
  0
LINE
  5
392
330
6B
100
AcDbEntity
  8
0
100
AcDbLine
 10
984.4269829999999
 20
-312.74267
 30
0.0
 11
1091.454945190202
 21
-312.74267
 31
0.0
  0
LINE
  5
393
330
6B
100
AcDbEntity
  8
0
100
AcDbLine
 10
984.4269829999999
 20
-307.74267
 30
0.0
 11
1091.454945190202
 21
-307.74267
 31
0.0
  0
LINE
  5
394
330
6B
100
AcDbEntity
  8
0
100
AcDbLine
 10
984.4269829999999
 20
-302.7426700000001
 30
0.0
 11
1091.454945190202
 21
-302.7426700000001
 31
0.0
  0
LINE
  5
395
330
6B
100
AcDbEntity
  8
0
100
AcDbLine
 10
984.4269829999999
 20
-297.74267
 30
0.0
 11
1091.454945190202
 21
-297.74267
 31
0.0
  0
LINE
  5
396
330
6B
100
AcDbEntity
  8
0
100
AcDbLine
 10
984.4269829999999
 20
-292.7426700000001
 30
0.0
 11
1091.454945190202
 21
-292.7426700000001
 31
0.0
  0
LINE
  5
397
330
6B
100
AcDbEntity
  8
0
 62
     3
100
AcDbLine
 10
984.4269829999999
 20
-317.7426700000001
 30
0.0
 11
1091.454945190202
 21
-317.7426700000001
 31
0.0
  0
LINE
  5
398
330
6B
100
AcDbEntity
  8
0
 62
     3
100
AcDbLine
 10
984.4269829999999
 20
-287.74267
 30
0.0
 11
1091.454945190202
 21
-287.74267
 31
0.0
  0
TEXT
  5
399
330
6B
100
AcDbEntity
  8
0
 62
     3
100
AcDbText
 10
1353.235854802287
 20
-282.43281
 30
0.0
 40
4.5
  1
5838
  7
高4.5
100
AcDbText
  0
TEXT
  5
477
330
6B
100
AcDbEntity
  8
0
 62
     3
100
AcDbText
 10
1361.926983
 20
-58.187309
 30
0.0
 40
3.2
  1
担　当
  7
高3.2
100
AcDbText
  0
TEXT
  5
478
330
6B
100
AcDbEntity
  8
0
 62
     3
100
AcDbText
 10
1317.926983
 20
-58.187309
 30
0.0
 40
3.2
  1
変更・追記内容
  7
高3.2
100
AcDbText
  0
TEXT
  5
479
330
6B
100
AcDbEntity
  8
0
 62
     3
100
AcDbText
 10
1293.040498000339
 20
-62.85784750990828
 30
0.0
 40
2.0
  1
1
  7
高2
100
AcDbText
  0
TEXT
  5
47A
330
6B
100
AcDbEntity
  8
0
 62
     3
100
AcDbText
 10
1292.731986523582
 20
-68.02766422218119
 30
0.0
 40
2.0
  1
2
  7
高2
100
AcDbText
  0
TEXT
  5
47B
330
6B
100
AcDbEntity
  8
0
 62
     3
100
AcDbText
 10
1299.926983
 20
-58.187309
 30
0.0
 40
3.2
  1
日　付
  7
高3.2
100
AcDbText
  0
TEXT
  5
47C
330
6B
100
AcDbEntity
  8
0
 62
     3
100
AcDbText
 10
1299.926983
 20
-53.187309
 30
0.0
 40
3.2
  1
図　　　　面　　　　略　　　　歴
  7
高3.2
100
AcDbText
  0
TEXT
  5
47D
330
6B
100
AcDbEntity
  8
0
 62
     3
100
AcDbText
 10
1289.926983
 20
-58.187309
 30
0.0
 40
3.2
  1
記号
  7
高3.2
100
AcDbText
  0
LINE
  5
47E
330
6B
100
AcDbEntity
  8
0
100
AcDbLine
 10
1293.426983
 20
-64.89641299999991
 30
0.0
 11
1291.526983
 21
-68.187309
 31
0.0
  0
LINE
  5
47F
330
6B
100
AcDbEntity
  8
0
100
AcDbLine
 10
1293.426983
 20
-64.89641299999991
 30
0.0
 11
1295.326983
 21
-68.187309
 31
0.0
  0
LINE
  5
480
330
6B
100
AcDbEntity
  8
0
100
AcDbLine
 10
1291.526983
 20
-68.187309
 30
0.0
 11
1295.326983
 21
-68.187309
 31
0.0
  0
LINE
  5
481
330
6B
100
AcDbEntity
  8
0
100
AcDbLine
 10
1293.426983
 20
-59.8964119999999
 30
0.0
 11
1291.526983
 21
-63.187309
 31
0.0
  0
LINE
  5
482
330
6B
100
AcDbEntity
  8
0
100
AcDbLine
 10
1293.426983
 20
-59.8964119999999
 30
0.0
 11
1295.326983
 21
-63.187309
 31
0.0
  0
LINE
  5
483
330
6B
100
AcDbEntity
  8
0
100
AcDbLine
 10
1291.526983
 20
-63.187309
 30
0.0
 11
1295.326983
 21
-63.187309
 31
0.0
  0
LINE
  5
484
330
6B
100
AcDbEntity
  8
0
 62
     3
100
AcDbLine
 10
1288.426983
 20
-53.687309
 30
0.0
 11
1374.426983
 21
-53.687309
 31
0.0
  0
LINE
  5
485
330
6B
100
AcDbEntity
  8
0
 62
     3
100
AcDbLine
 10
1288.426983
 20
-58.687309
 30
0.0
 11
1374.426983
 21
-58.687309
 31
0.0
  0
LINE
  5
486
330
6B
100
AcDbEntity
  8
0
 62
     7
100
AcDbLine
 10
1288.426983
 20
-63.687309
 30
0.0
 11
1374.426983
 21
-63.687309
 31
0.0
  0
LINE
  5
487
330
6B
100
AcDbEntity
  8
0
 62
     3
100
AcDbLine
 10
1288.426983
 20
-68.687309
 30
0.0
 11
1374.426983
 21
-68.687309
 31
0.0
  0
LINE
  5
488
330
6B
100
AcDbEntity
  8
0
 62
     7
100
AcDbLine
 10
1360.426983
 20
-68.687309
 30
0.0
 11
1360.426983
 21
-53.687309
 31
0.0
  0
LINE
  5
489
330
6B
100
AcDbEntity
  8
0
 62
     7
100
AcDbLine
 10
1316.426983
 20
-68.687309
 30
0.0
 11
1316.426983
 21
-53.687309
 31
0.0
  0
LINE
  5
48A
330
6B
100
AcDbEntity
  8
0
 62
     7
100
AcDbLine
 10
1298.426983
 20
-68.687309
 30
0.0
 11
1298.426983
 21
-53.687309
 31
0.0
  0
LINE
  5
48B
330
6B
100
AcDbEntity
  8
0
 62
     3
100
AcDbLine
 10
1288.426983
 20
-68.687309
 30
0.0
 11
1288.426983
 21
-48.687309
 31
0.0
  0
LINE
  5
775
330
6B
100
AcDbEntity
  8
0
  6
Continuous
 62
     3
100
AcDbLine
 10
1033.417179994231
 20
-223.4604658948085
 30
0.0
 11
1033.417179994231
 21
-171.4604658948085
 31
0.0
  0
LINE
  5
776
330
6B
100
AcDbEntity
  8
0
  6
Continuous
 62
     3
100
AcDbLine
 10
1098.417179994231
 20
-223.4604658948085
 30
0.0
 11
1098.417179994231
 21
-171.4604658948085
 31
0.0
  0
LINE
  5
779
330
6B
100
AcDbEntity
  8
0
  6
Continuous
 62
     3
100
AcDbLine
 10
1094.417179994231
 20
-227.4604658948085
 30
0.0
 11
1037.417179994231
 21
-227.4604658948085
 31
0.0
  0
LINE
  5
77B
330
6B
100
AcDbEntity
  8
0
  6
Continuous
 62
     3
100
AcDbLine
 10
1123.240205953422
 20
-227.4604658948085
 30
0.0
 11
1123.240205953422
 21
-167.4604658948084
 31
0.0
  0
LINE
  5
77C
330
6B
100
AcDbEntity
  8
0
  6
Continuous
 62
     3
100
AcDbLine
 10
1220.740205953422
 20
-227.4604658948085
 30
0.0
 11
1220.740205953422
 21
-167.4604658948084
 31
0.0
  0
LINE
  5
925
330
6B
100
AcDbEntity
  8
0
  6
Continuous
 62
     3
100
AcDbLine
 10
1069.417179994232
 20
-163.9604658948084
 30
0.0
 11
1062.417179994231
 21
-163.9604658948084
 31
0.0
  0
LINE
  5
926
330
6B
100
AcDbEntity
  8
0
  6
Continuous
 62
     3
100
AcDbLine
 10
1094.417179994231
 20
-167.4604658948084
 30
0.0
 11
1037.417179994231
 21
-167.4604658948084
 31
0.0
  0
LINE
  5
937
330
6B
100
AcDbEntity
  8
0
  6
Continuous
 62
     3
100
AcDbLine
 10
1091.917179994231
 20
-227.4604658948085
 30
0.0
 11
1091.417179994231
 21
-231.4604658948084
 31
0.0
  0
LINE
  5
938
330
6B
100
AcDbEntity
  8
0
  6
Continuous
 62
     3
100
AcDbLine
 10
1091.417179994231
 20
-231.4604658948084
 30
0.0
 11
1085.417179994232
 21
-231.4604658948084
 31
0.0
  0
LINE
  5
939
330
6B
100
AcDbEntity
  8
0
  6
Continuous
 62
     3
100
AcDbLine
 10
1085.417179994232
 20
-231.4604658948084
 30
0.0
 11
1084.917179994231
 21
-227.4604658948085
 31
0.0
  0
LINE
  5
93A
330
6B
100
AcDbEntity
  8
0
  6
Continuous
 62
     3
100
AcDbLine
 10
1046.917179994231
 20
-227.4604658948085
 30
0.0
 11
1046.417179994231
 21
-231.4604658948084
 31
0.0
  0
LINE
  5
93B
330
6B
100
AcDbEntity
  8
0
  6
Continuous
 62
     3
100
AcDbLine
 10
1046.417179994231
 20
-231.4604658948084
 30
0.0
 11
1040.417179994231
 21
-231.4604658948084
 31
0.0
  0
LINE
  5
93C
330
6B
100
AcDbEntity
  8
0
  6
Continuous
 62
     3
100
AcDbLine
 10
1040.417179994231
 20
-231.4604658948084
 30
0.0
 11
1039.917179994231
 21
-227.4604658948085
 31
0.0
  0
LINE
  5
941
330
6B
100
AcDbEntity
  8
0
  6
Continuous
 62
     3
100
AcDbLine
 10
1070.417179994231
 20
-167.4604658948084
 30
0.0
 11
1070.417179994231
 21
-165.7104658948084
 31
0.0
  0
LINE
  5
942
330
6B
100
AcDbEntity
  8
0
  6
Continuous
 62
     3
100
AcDbLine
 10
1061.417179994232
 20
-167.4604658948084
 30
0.0
 11
1061.417179994232
 21
-165.7104658948084
 31
0.0
  0
LINE
  5
944
330
6B
100
AcDbEntity
  8
0
  6
Continuous
 62
     3
100
AcDbLine
 10
1069.917179994231
 20
-165.2104658948084
 30
0.0
 11
1061.917179994231
 21
-165.2104658948084
 31
0.0
  0
LINE
  5
947
330
6B
100
AcDbEntity
  8
0
  6
Continuous
 62
     3
100
AcDbLine
 10
1127.240205953422
 20
-166.2104658948084
 30
0.0
 11
1127.240205953422
 21
-167.4604658948084
 31
0.0
  0
LINE
  5
948
330
6B
100
AcDbEntity
  8
0
  6
Continuous
 62
     3
100
AcDbLine
 10
1140.240205953422
 20
-167.4604658948084
 30
0.0
 11
1140.240205953422
 21
-165.2104658948084
 31
0.0
  0
LINE
  5
949
330
6B
100
AcDbEntity
  8
0
  6
Continuous
 62
     3
100
AcDbLine
 10
1216.740205953423
 20
-166.2104658948084
 30
0.0
 11
1216.740205953423
 21
-167.4604658948084
 31
0.0
  0
LINE
  5
94A
330
6B
100
AcDbEntity
  8
0
  6
Continuous
 62
     3
100
AcDbLine
 10
1203.740205953423
 20
-167.4604658948084
 30
0.0
 11
1203.740205953423
 21
-165.2104658948084
 31
0.0
  0
LINE
  5
94C
330
6B
100
AcDbEntity
  8
0
  6
Continuous
 62
     3
100
AcDbLine
 10
1033.417179994231
 20
-217.4604658948084
 30
0.0
 11
1033.917179994231
 21
-217.4604658948084
 31
0.0
  0
ARC
  5
94D
330
6B
100
AcDbEntity
  8
0
  6
Continuous
 62
     3
100
AcDbCircle
 10
1094.417179994231
 20
-223.4604658948085
 30
0.0
 40
4.0
100
AcDbArc
 50
270.0
 51
0.0000000000016284
  0
LINE
  5
94E
330
6B
100
AcDbEntity
  8
0
  6
Continuous
 62
     3
100
AcDbLine
 10
1123.240205953422
 20
-227.4604658948085
 30
0.0
 11
1220.740205953422
 21
-227.4604658948085
 31
0.0
  0
ARC
  5
94F
330
6B
100
AcDbEntity
  8
0
  6
Continuous
 62
     3
100
AcDbCircle
 10
1037.417179994231
 20
-223.4604658948085
 30
0.0
 40
4.0
100
AcDbArc
 50
179.9999999999984
 51
270.0
  0
ARC
  5
950
330
6B
100
AcDbEntity
  8
0
  6
Continuous
 62
     3
100
AcDbCircle
 10
1094.417179994231
 20
-171.4604658948084
 30
0.0
 40
4.0
100
AcDbArc
 50
0.0
 51
90.0
  0
ARC
  5
951
330
6B
100
AcDbEntity
  8
0
  6
Continuous
 62
     3
100
AcDbCircle
 10
1037.417179994231
 20
-171.4604658948083
 30
0.0
 40
4.0
100
AcDbArc
 50
90.0
 51
180.0000000000016
  0
LINE
  5
952
330
6B
100
AcDbEntity
  8
0
  6
Continuous
 62
     3
100
AcDbLine
 10
1123.240205953422
 20
-167.4604658948084
 30
0.0
 11
1220.740205953422
 21
-167.4604658948084
 31
0.0
  0
LINE
  5
955
330
6B
100
AcDbEntity
  8
0
  6
Continuous
 62
     3
100
AcDbLine
 10
1128.240205953423
 20
-165.2104658948084
 30
0.0
 11
1140.240205953422
 21
-165.2104658948084
 31
0.0
  0
LINE
  5
956
330
6B
100
AcDbEntity
  8
0
  6
Continuous
 62
     3
100
AcDbLine
 10
1203.740205953423
 20
-165.2104658948084
 30
0.0
 11
1215.740205953423
 21
-165.2104658948084
 31
0.0
  0
ARC
  5
957
330
6B
100
AcDbEntity
  8
0
  6
Continuous
 62
     3
100
AcDbCircle
 10
1215.740205953423
 20
-166.2104658948085
 30
0.0
 40
1.0
100
AcDbArc
 50
0.0000000000016284
 51
90.0
  0
ARC
  5
958
330
6B
100
AcDbEntity
  8
0
  6
Continuous
 62
     3
100
AcDbCircle
 10
1128.240205953423
 20
-166.2104658948084
 30
0.0
 40
1.0
100
AcDbArc
 50
90.0
 51
180.0000000000032
  0
LINE
  5
959
330
6B
100
AcDbEntity
  8
0
  6
Continuous
 62
     3
100
AcDbLine
 10
1141.729897944165
 20
-163.9604658948084
 30
0.0
 11
1140.240205953422
 21
-165.2104658948084
 31
0.0
  0
LINE
  5
95A
330
6B
100
AcDbEntity
  8
0
  6
Continuous
 62
     3
100
AcDbLine
 10
1142.051291749009
 20
-164.3434881163679
 30
0.0
 11
1140.561599758265
 21
-165.5934881163679
 31
0.0
  0
LINE
  5
95B
330
6B
100
AcDbEntity
  8
0
  6
Continuous
 62
     3
100
AcDbLine
 10
1141.729897944165
 20
-163.9604658948084
 30
0.0
 11
1142.051291749009
 21
-164.3434881163679
 31
0.0
  0
ARC
  5
95C
330
6B
100
AcDbEntity
  8
0
  6
Continuous
 62
     3
100
AcDbCircle
 10
1140.240205953422
 20
-165.2104658948084
 30
0.0
 40
0.5000000000000256
100
AcDbArc
 50
270.0
 51
310.0000000000141
  0
LINE
  5
95E
330
6B
100
AcDbEntity
  8
0
  6
Continuous
 62
     3
100
AcDbLine
 10
1202.25051396268
 20
-163.9604658948084
 30
0.0
 11
1203.740205953423
 21
-165.2104658948084
 31
0.0
  0
LINE
  5
95F
330
6B
100
AcDbEntity
  8
0
  6
Continuous
 62
     3
100
AcDbLine
 10
1201.929120157836
 20
-164.3434881163679
 30
0.0
 11
1203.418812148579
 21
-165.5934881163679
 31
0.0
  0
LINE
  5
960
330
6B
100
AcDbEntity
  8
0
  6
Continuous
 62
     3
100
AcDbLine
 10
1202.25051396268
 20
-163.9604658948084
 30
0.0
 11
1201.929120157836
 21
-164.3434881163679
 31
0.0
  0
ARC
  5
961
330
6B
100
AcDbEntity
  8
0
  6
Continuous
 62
     3
100
AcDbCircle
 10
1203.740205953423
 20
-165.2104658948084
 30
0.0
 40
0.5000000000000256
100
AcDbArc
 50
230.0000000000194
 51
270.0
  0
ARC
  5
962
330
6B
100
AcDbEntity
  8
0
  6
Continuous
 62
     3
100
AcDbCircle
 10
1069.917179994231
 20
-165.7104658948085
 30
0.0
 40
0.5
100
AcDbArc
 50
0.0000000000162844
 51
90.0
  0
ARC
  5
963
330
6B
100
AcDbEntity
  8
0
  6
Continuous
 62
     3
100
AcDbCircle
 10
1061.917179994231
 20
-165.7104658948085
 30
0.0
 40
0.5
100
AcDbArc
 50
90.0
 51
179.9999999999918
  0
LINE
  5
964
330
6B
100
AcDbEntity
  8
0
  6
Continuous
 62
     3
100
AcDbLine
 10
1069.917179994231
 20
-165.2104658948084
 30
0.0
 11
1069.917179994231
 21
-164.4604658948084
 31
0.0
  0
LINE
  5
965
330
6B
100
AcDbEntity
  8
0
  6
Continuous
 62
     3
100
AcDbLine
 10
1061.917179994231
 20
-165.2104658948084
 30
0.0
 11
1061.917179994231
 21
-164.4604658948084
 31
0.0
  0
ARC
  5
966
330
6B
100
AcDbEntity
  8
0
  6
Continuous
 62
     3
100
AcDbCircle
 10
1069.417179994231
 20
-164.4604658948086
 30
0.0
 40
0.5
100
AcDbArc
 50
0.0000000000162844
 51
90.0
  0
ARC
  5
967
330
6B
100
AcDbEntity
  8
0
  6
Continuous
 62
     3
100
AcDbCircle
 10
1062.417179994231
 20
-164.4604658948086
 30
0.0
 40
0.5
100
AcDbArc
 50
90.0
 51
179.9999999999837
  0
ARC
  5
96A
330
6B
100
AcDbEntity
  8
0
  6
Continuous
 62
     3
100
AcDbCircle
 10
1171.990205953423
 20
-669.9917158948074
 30
0.0
 40
504.5312499999984
100
AcDbArc
 50
86.39200976760092
 51
93.60799023239906
  0
ARC
  5
96B
330
6B
100
AcDbEntity
  8
0
  6
Continuous
 62
     3
100
AcDbCircle
 10
1171.990205953423
 20
-670.9917158948074
 30
0.0
 40
504.5312499999984
100
AcDbArc
 50
86.39200976760092
 51
93.60799023239906
  0
LINE
  5
972
330
6B
100
AcDbEntity
  8
0
  6
Continuous
 62
     3
100
AcDbLine
 10
1137.240205953423
 20
-227.4604658948085
 30
0.0
 11
1136.740205953422
 21
-231.4604658948085
 31
0.0
  0
LINE
  5
973
330
6B
100
AcDbEntity
  8
0
  6
Continuous
 62
     3
100
AcDbLine
 10
1136.740205953422
 20
-231.4604658948085
 30
0.0
 11
1130.740205953422
 21
-231.4604658948085
 31
0.0
  0
LINE
  5
974
330
6B
100
AcDbEntity
  8
0
  6
Continuous
 62
     3
100
AcDbLine
 10
1130.740205953422
 20
-231.4604658948085
 30
0.0
 11
1130.240205953422
 21
-227.4604658948085
 31
0.0
  0
LINE
  5
975
330
6B
100
AcDbEntity
  8
0
  6
Continuous
 62
     3
100
AcDbLine
 10
1213.740205953423
 20
-227.4604658948085
 30
0.0
 11
1213.240205953423
 21
-231.4604658948085
 31
0.0
  0
LINE
  5
976
330
6B
100
AcDbEntity
  8
0
  6
Continuous
 62
     3
100
AcDbLine
 10
1213.240205953423
 20
-231.4604658948085
 30
0.0
 11
1207.240205953423
 21
-231.4604658948085
 31
0.0
  0
LINE
  5
977
330
6B
100
AcDbEntity
  8
0
  6
Continuous
 62
     3
100
AcDbLine
 10
1207.240205953423
 20
-231.4604658948085
 30
0.0
 11
1206.740205953423
 21
-227.4604658948085
 31
0.0
  0
ARC
  5
978
330
6B
100
AcDbEntity
  8
0
  6
Continuous
 62
     3
100
AcDbCircle
 10
1094.417179994231
 20
-171.4604658948084
 30
0.0
 40
3.499999999999999
100
AcDbArc
 50
0.0
 51
90.0
  0
LINE
  5
979
330
6B
100
AcDbEntity
  8
0
  6
Continuous
 62
     3
100
AcDbLine
 10
1097.917179994231
 20
-223.4604658948085
 30
0.0
 11
1097.917179994231
 21
-171.4604658948085
 31
0.0
  0
LINE
  5
97A
330
6B
100
AcDbEntity
  8
0
  6
Continuous
 62
     3
100
AcDbLine
 10
1094.417179994231
 20
-167.9604658948084
 30
0.0
 11
1037.417179994231
 21
-167.9604658948084
 31
0.0
  0
ARC
  5
97B
330
6B
100
AcDbEntity
  8
0
  6
Continuous
 62
     3
100
AcDbCircle
 10
1037.417179994231
 20
-171.4604658948083
 30
0.0
 40
3.499999999999999
100
AcDbArc
 50
90.0
 51
180.0000000000016
  0
LINE
  5
97C
330
6B
100
AcDbEntity
  8
0
  6
Continuous
 62
     3
100
AcDbLine
 10
1033.917179994231
 20
-223.4604658948085
 30
0.0
 11
1033.917179994231
 21
-171.4604658948085
 31
0.0
  0
ARC
  5
97D
330
6B
100
AcDbEntity
  8
0
  6
Continuous
 62
     3
100
AcDbCircle
 10
1037.417179994231
 20
-223.4604658948085
 30
0.0
 40
3.499999999999999
100
AcDbArc
 50
179.9999999999984
 51
270.0
  0
LINE
  5
97E
330
6B
100
AcDbEntity
  8
0
  6
Continuous
 62
     3
100
AcDbLine
 10
1094.417179994231
 20
-226.9604658948084
 30
0.0
 11
1037.417179994231
 21
-226.9604658948084
 31
0.0
  0
ARC
  5
97F
330
6B
100
AcDbEntity
  8
0
  6
Continuous
 62
     3
100
AcDbCircle
 10
1094.417179994231
 20
-223.4604658948085
 30
0.0
 40
3.499999999999999
100
AcDbArc
 50
270.0
 51
0.0000000000016284
  0
LINE
  5
980
330
6B
100
AcDbEntity
  8
0
  6
Continuous
 62
     3
100
AcDbLine
 10
1097.917179994231
 20
-217.4604658948084
 30
0.0
 11
1098.417179994231
 21
-217.4604658948084
 31
0.0
  0
LINE
  5
981
330
6B
100
AcDbEntity
  8
0
  6
Continuous
 62
     3
100
AcDbLine
 10
1123.240205953422
 20
-217.4604658948084
 30
0.0
 11
1220.740205953422
 21
-217.4604658948084
 31
0.0
  0
CIRCLE
  5
987
330
6B
100
AcDbEntity
  8
0
  6
Continuous
 62
     7
100
AcDbCircle
 10
1126.240205953422
 20
-219.9604658948084
 30
0.0
 40
1.5
  0
LINE
  5
988
330
6B
100
AcDbEntity
  8
0
  6
Continuous
 62
     7
100
AcDbLine
 10
1126.990205953422
 20
-220.2104658948084
 30
0.0
 11
1126.990205953422
 21
-219.7104658948084
 31
0.0
  0
LINE
  5
989
330
6B
100
AcDbEntity
  8
0
  6
Continuous
 62
     7
100
AcDbLine
 10
1125.490205953423
 20
-220.2104658948084
 30
0.0
 11
1125.490205953423
 21
-219.7104658948084
 31
0.0
  0
LINE
  5
98A
330
6B
100
AcDbEntity
  8
0
  6
Continuous
 62
     7
100
AcDbLine
 10
1125.990205953423
 20
-219.2104658948085
 30
0.0
 11
1126.490205953422
 21
-219.2104658948085
 31
0.0
  0
LINE
  5
98B
330
6B
100
AcDbEntity
  8
0
  6
Continuous
 62
     7
100
AcDbLine
 10
1125.990205953423
 20
-220.7104658948084
 30
0.0
 11
1126.490205953422
 21
-220.7104658948084
 31
0.0
  0
LINE
  5
98C
330
6B
100
AcDbEntity
  8
0
  6
Continuous
 62
     7
100
AcDbLine
 10
1125.490205953423
 20
-219.7104658948084
 30
0.0
 11
1125.990205953423
 21
-219.7104658948084
 31
0.0
  0
LINE
  5
98D
330
6B
100
AcDbEntity
  8
0
  6
Continuous
 62
     7
100
AcDbLine
 10
1125.490205953423
 20
-220.2104658948084
 30
0.0
 11
1125.990205953423
 21
-220.2104658948084
 31
0.0
  0
LINE
  5
98E
330
6B
100
AcDbEntity
  8
0
  6
Continuous
 62
     7
100
AcDbLine
 10
1126.490205953422
 20
-220.7104658948084
 30
0.0
 11
1126.490205953422
 21
-220.2104658948084
 31
0.0
  0
LINE
  5
98F
330
6B
100
AcDbEntity
  8
0
  6
Continuous
 62
     7
100
AcDbLine
 10
1125.990205953423
 20
-220.7104658948084
 30
0.0
 11
1125.990205953423
 21
-220.2104658948084
 31
0.0
  0
LINE
  5
990
330
6B
100
AcDbEntity
  8
0
  6
Continuous
 62
     7
100
AcDbLine
 10
1126.490205953422
 20
-219.7104658948084
 30
0.0
 11
1126.990205953422
 21
-219.7104658948084
 31
0.0
  0
LINE
  5
991
330
6B
100
AcDbEntity
  8
0
  6
Continuous
 62
     7
100
AcDbLine
 10
1125.990205953423
 20
-219.7104658948084
 30
0.0
 11
1125.990205953423
 21
-219.2104658948085
 31
0.0
  0
LINE
  5
992
330
6B
100
AcDbEntity
  8
0
  6
Continuous
 62
     7
100
AcDbLine
 10
1126.490205953422
 20
-220.2104658948084
 30
0.0
 11
1126.990205953422
 21
-220.2104658948084
 31
0.0
  0
LINE
  5
993
330
6B
100
AcDbEntity
  8
0
  6
Continuous
 62
     7
100
AcDbLine
 10
1126.490205953422
 20
-219.7104658948084
 30
0.0
 11
1126.490205953422
 21
-219.2104658948085
 31
0.0
  0
LINE
  5
994
330
6B
100
AcDbEntity
  8
0
  6
Continuous
 62
     7
100
AcDbLine
 10
1125.490205953423
 20
-212.7104658948084
 30
0.0
 11
1125.990205953423
 21
-212.7104658948084
 31
0.0
  0
LINE
  5
995
330
6B
100
AcDbEntity
  8
0
  6
Continuous
 62
     7
100
AcDbLine
 10
1126.490205953422
 20
-212.7104658948084
 30
0.0
 11
1126.990205953422
 21
-212.7104658948084
 31
0.0
  0
LINE
  5
996
330
6B
100
AcDbEntity
  8
0
  6
Continuous
 62
     7
100
AcDbLine
 10
1125.490205953423
 20
-212.2104658948084
 30
0.0
 11
1125.990205953423
 21
-212.2104658948084
 31
0.0
  0
LINE
  5
997
330
6B
100
AcDbEntity
  8
0
  6
Continuous
 62
     7
100
AcDbLine
 10
1126.490205953422
 20
-212.2104658948084
 30
0.0
 11
1126.990205953422
 21
-212.2104658948084
 31
0.0
  0
LINE
  5
998
330
6B
100
AcDbEntity
  8
0
  6
Continuous
 62
     7
100
AcDbLine
 10
1125.990205953423
 20
-213.2104658948084
 30
0.0
 11
1126.490205953422
 21
-213.2104658948084
 31
0.0
  0
LINE
  5
999
330
6B
100
AcDbEntity
  8
0
  6
Continuous
 62
     7
100
AcDbLine
 10
1125.990205953423
 20
-211.7104658948084
 30
0.0
 11
1126.490205953422
 21
-211.7104658948084
 31
0.0
  0
LINE
  5
99A
330
6B
100
AcDbEntity
  8
0
  6
Continuous
 62
     7
100
AcDbLine
 10
1125.990205953423
 20
-213.2104658948084
 30
0.0
 11
1125.990205953423
 21
-212.7104658948084
 31
0.0
  0
LINE
  5
99B
330
6B
100
AcDbEntity
  8
0
  6
Continuous
 62
     7
100
AcDbLine
 10
1125.990205953423
 20
-212.2104658948084
 30
0.0
 11
1125.990205953423
 21
-211.7104658948084
 31
0.0
  0
LINE
  5
99C
330
6B
100
AcDbEntity
  8
0
  6
Continuous
 62
     7
100
AcDbLine
 10
1126.490205953422
 20
-213.2104658948084
 30
0.0
 11
1126.490205953422
 21
-212.7104658948084
 31
0.0
  0
LINE
  5
99D
330
6B
100
AcDbEntity
  8
0
  6
Continuous
 62
     7
100
AcDbLine
 10
1126.490205953422
 20
-212.2104658948084
 30
0.0
 11
1126.490205953422
 21
-211.7104658948084
 31
0.0
  0
LINE
  5
99E
330
6B
100
AcDbEntity
  8
0
  6
Continuous
 62
     7
100
AcDbLine
 10
1125.490205953423
 20
-212.7104658948084
 30
0.0
 11
1125.490205953423
 21
-212.2104658948084
 31
0.0
  0
LINE
  5
99F
330
6B
100
AcDbEntity
  8
0
  6
Continuous
 62
     7
100
AcDbLine
 10
1126.990205953422
 20
-212.7104658948084
 30
0.0
 11
1126.990205953422
 21
-212.2104658948084
 31
0.0
  0
CIRCLE
  5
9A0
330
6B
100
AcDbEntity
  8
0
  6
Continuous
 62
     7
100
AcDbCircle
 10
1126.240205953422
 20
-212.4604658948084
 30
0.0
 40
1.5
  0
LINE
  5
9A1
330
6B
100
AcDbEntity
  8
0
  6
Continuous
 62
     7
100
AcDbLine
 10
1125.490205953423
 20
-180.2104658948084
 30
0.0
 11
1125.990205953423
 21
-180.2104658948084
 31
0.0
  0
LINE
  5
9A2
330
6B
100
AcDbEntity
  8
0
  6
Continuous
 62
     7
100
AcDbLine
 10
1126.490205953422
 20
-180.2104658948084
 30
0.0
 11
1126.990205953422
 21
-180.2104658948084
 31
0.0
  0
LINE
  5
9A3
330
6B
100
AcDbEntity
  8
0
  6
Continuous
 62
     7
100
AcDbLine
 10
1125.490205953423
 20
-179.7104658948084
 30
0.0
 11
1125.990205953423
 21
-179.7104658948084
 31
0.0
  0
LINE
  5
9A4
330
6B
100
AcDbEntity
  8
0
  6
Continuous
 62
     7
100
AcDbLine
 10
1126.490205953422
 20
-179.7104658948084
 30
0.0
 11
1126.990205953422
 21
-179.7104658948084
 31
0.0
  0
LINE
  5
9A5
330
6B
100
AcDbEntity
  8
0
  6
Continuous
 62
     7
100
AcDbLine
 10
1125.990205953423
 20
-180.7104658948084
 30
0.0
 11
1126.490205953422
 21
-180.7104658948084
 31
0.0
  0
LINE
  5
9A6
330
6B
100
AcDbEntity
  8
0
  6
Continuous
 62
     7
100
AcDbLine
 10
1125.990205953423
 20
-179.2104658948084
 30
0.0
 11
1126.490205953422
 21
-179.2104658948084
 31
0.0
  0
LINE
  5
9A7
330
6B
100
AcDbEntity
  8
0
  6
Continuous
 62
     7
100
AcDbLine
 10
1125.990205953423
 20
-180.7104658948084
 30
0.0
 11
1125.990205953423
 21
-180.2104658948084
 31
0.0
  0
LINE
  5
9A8
330
6B
100
AcDbEntity
  8
0
  6
Continuous
 62
     7
100
AcDbLine
 10
1125.990205953423
 20
-179.7104658948084
 30
0.0
 11
1125.990205953423
 21
-179.2104658948084
 31
0.0
  0
LINE
  5
9A9
330
6B
100
AcDbEntity
  8
0
  6
Continuous
 62
     7
100
AcDbLine
 10
1126.490205953422
 20
-180.7104658948084
 30
0.0
 11
1126.490205953422
 21
-180.2104658948084
 31
0.0
  0
LINE
  5
9AA
330
6B
100
AcDbEntity
  8
0
  6
Continuous
 62
     7
100
AcDbLine
 10
1126.490205953422
 20
-179.7104658948084
 30
0.0
 11
1126.490205953422
 21
-179.2104658948084
 31
0.0
  0
LINE
  5
9AB
330
6B
100
AcDbEntity
  8
0
  6
Continuous
 62
     7
100
AcDbLine
 10
1125.490205953423
 20
-180.2104658948084
 30
0.0
 11
1125.490205953423
 21
-179.7104658948084
 31
0.0
  0
LINE
  5
9AC
330
6B
100
AcDbEntity
  8
0
  6
Continuous
 62
     7
100
AcDbLine
 10
1126.990205953422
 20
-180.2104658948084
 30
0.0
 11
1126.990205953422
 21
-179.7104658948084
 31
0.0
  0
CIRCLE
  5
9AD
330
6B
100
AcDbEntity
  8
0
  6
Continuous
 62
     7
100
AcDbCircle
 10
1126.240205953422
 20
-179.9604658948084
 30
0.0
 40
1.5
  0
LINE
  5
9AE
330
6B
100
AcDbEntity
  8
0
  6
Continuous
 62
     7
100
AcDbLine
 10
1216.990205953422
 20
-180.2104658948084
 30
0.0
 11
1217.490205953423
 21
-180.2104658948084
 31
0.0
  0
LINE
  5
9AF
330
6B
100
AcDbEntity
  8
0
  6
Continuous
 62
     7
100
AcDbLine
 10
1217.990205953422
 20
-180.2104658948084
 30
0.0
 11
1218.490205953423
 21
-180.2104658948084
 31
0.0
  0
LINE
  5
9B0
330
6B
100
AcDbEntity
  8
0
  6
Continuous
 62
     7
100
AcDbLine
 10
1216.990205953422
 20
-179.7104658948084
 30
0.0
 11
1217.490205953423
 21
-179.7104658948084
 31
0.0
  0
LINE
  5
9B1
330
6B
100
AcDbEntity
  8
0
  6
Continuous
 62
     7
100
AcDbLine
 10
1217.990205953422
 20
-179.7104658948084
 30
0.0
 11
1218.490205953423
 21
-179.7104658948084
 31
0.0
  0
LINE
  5
9B2
330
6B
100
AcDbEntity
  8
0
  6
Continuous
 62
     7
100
AcDbLine
 10
1217.490205953423
 20
-180.7104658948084
 30
0.0
 11
1217.990205953422
 21
-180.7104658948084
 31
0.0
  0
LINE
  5
9B3
330
6B
100
AcDbEntity
  8
0
  6
Continuous
 62
     7
100
AcDbLine
 10
1217.490205953423
 20
-179.2104658948084
 30
0.0
 11
1217.990205953422
 21
-179.2104658948084
 31
0.0
  0
LINE
  5
9B4
330
6B
100
AcDbEntity
  8
0
  6
Continuous
 62
     7
100
AcDbLine
 10
1217.490205953423
 20
-180.7104658948084
 30
0.0
 11
1217.490205953423
 21
-180.2104658948084
 31
0.0
  0
LINE
  5
9B5
330
6B
100
AcDbEntity
  8
0
  6
Continuous
 62
     7
100
AcDbLine
 10
1217.490205953423
 20
-179.7104658948084
 30
0.0
 11
1217.490205953423
 21
-179.2104658948084
 31
0.0
  0
LINE
  5
9B6
330
6B
100
AcDbEntity
  8
0
  6
Continuous
 62
     7
100
AcDbLine
 10
1217.990205953422
 20
-180.7104658948084
 30
0.0
 11
1217.990205953422
 21
-180.2104658948084
 31
0.0
  0
LINE
  5
9B7
330
6B
100
AcDbEntity
  8
0
  6
Continuous
 62
     7
100
AcDbLine
 10
1217.990205953422
 20
-179.7104658948084
 30
0.0
 11
1217.990205953422
 21
-179.2104658948084
 31
0.0
  0
LINE
  5
9B8
330
6B
100
AcDbEntity
  8
0
  6
Continuous
 62
     7
100
AcDbLine
 10
1216.990205953422
 20
-180.2104658948084
 30
0.0
 11
1216.990205953422
 21
-179.7104658948084
 31
0.0
  0
LINE
  5
9B9
330
6B
100
AcDbEntity
  8
0
  6
Continuous
 62
     7
100
AcDbLine
 10
1218.490205953423
 20
-180.2104658948084
 30
0.0
 11
1218.490205953423
 21
-179.7104658948084
 31
0.0
  0
CIRCLE
  5
9BA
330
6B
100
AcDbEntity
  8
0
  6
Continuous
 62
     7
100
AcDbCircle
 10
1217.740205953423
 20
-179.9604658948084
 30
0.0
 40
1.5
  0
LINE
  5
9BB
330
6B
100
AcDbEntity
  8
0
  6
Continuous
 62
     7
100
AcDbLine
 10
1216.990205953422
 20
-212.7104658948084
 30
0.0
 11
1217.490205953423
 21
-212.7104658948084
 31
0.0
  0
LINE
  5
9BC
330
6B
100
AcDbEntity
  8
0
  6
Continuous
 62
     7
100
AcDbLine
 10
1217.990205953422
 20
-212.7104658948084
 30
0.0
 11
1218.490205953423
 21
-212.7104658948084
 31
0.0
  0
LINE
  5
9BD
330
6B
100
AcDbEntity
  8
0
  6
Continuous
 62
     7
100
AcDbLine
 10
1216.990205953422
 20
-212.2104658948084
 30
0.0
 11
1217.490205953423
 21
-212.2104658948084
 31
0.0
  0
LINE
  5
9BE
330
6B
100
AcDbEntity
  8
0
  6
Continuous
 62
     7
100
AcDbLine
 10
1217.990205953422
 20
-212.2104658948084
 30
0.0
 11
1218.490205953423
 21
-212.2104658948084
 31
0.0
  0
LINE
  5
9BF
330
6B
100
AcDbEntity
  8
0
  6
Continuous
 62
     7
100
AcDbLine
 10
1217.490205953423
 20
-213.2104658948084
 30
0.0
 11
1217.990205953422
 21
-213.2104658948084
 31
0.0
  0
LINE
  5
9C0
330
6B
100
AcDbEntity
  8
0
  6
Continuous
 62
     7
100
AcDbLine
 10
1217.490205953423
 20
-211.7104658948084
 30
0.0
 11
1217.990205953422
 21
-211.7104658948084
 31
0.0
  0
LINE
  5
9C1
330
6B
100
AcDbEntity
  8
0
  6
Continuous
 62
     7
100
AcDbLine
 10
1217.490205953423
 20
-213.2104658948084
 30
0.0
 11
1217.490205953423
 21
-212.7104658948084
 31
0.0
  0
LINE
  5
9C2
330
6B
100
AcDbEntity
  8
0
  6
Continuous
 62
     7
100
AcDbLine
 10
1217.490205953423
 20
-212.2104658948084
 30
0.0
 11
1217.490205953423
 21
-211.7104658948084
 31
0.0
  0
LINE
  5
9C3
330
6B
100
AcDbEntity
  8
0
  6
Continuous
 62
     7
100
AcDbLine
 10
1217.990205953422
 20
-213.2104658948084
 30
0.0
 11
1217.990205953422
 21
-212.7104658948084
 31
0.0
  0
LINE
  5
9C4
330
6B
100
AcDbEntity
  8
0
  6
Continuous
 62
     7
100
AcDbLine
 10
1217.990205953422
 20
-212.2104658948084
 30
0.0
 11
1217.990205953422
 21
-211.7104658948084
 31
0.0
  0
LINE
  5
9C5
330
6B
100
AcDbEntity
  8
0
  6
Continuous
 62
     7
100
AcDbLine
 10
1216.990205953422
 20
-212.7104658948084
 30
0.0
 11
1216.990205953422
 21
-212.2104658948084
 31
0.0
  0
LINE
  5
9C6
330
6B
100
AcDbEntity
  8
0
  6
Continuous
 62
     7
100
AcDbLine
 10
1218.490205953423
 20
-212.7104658948084
 30
0.0
 11
1218.490205953423
 21
-212.2104658948084
 31
0.0
  0
CIRCLE
  5
9C7
330
6B
100
AcDbEntity
  8
0
  6
Continuous
 62
     7
100
AcDbCircle
 10
1217.740205953423
 20
-212.4604658948084
 30
0.0
 40
1.5
  0
LINE
  5
9C8
330
6B
100
AcDbEntity
  8
0
  6
Continuous
 62
     7
100
AcDbLine
 10
1216.990205953422
 20
-220.2104658948084
 30
0.0
 11
1217.490205953423
 21
-220.2104658948084
 31
0.0
  0
LINE
  5
9C9
330
6B
100
AcDbEntity
  8
0
  6
Continuous
 62
     7
100
AcDbLine
 10
1217.990205953422
 20
-220.2104658948084
 30
0.0
 11
1218.490205953423
 21
-220.2104658948084
 31
0.0
  0
LINE
  5
9CA
330
6B
100
AcDbEntity
  8
0
  6
Continuous
 62
     7
100
AcDbLine
 10
1216.990205953422
 20
-219.7104658948084
 30
0.0
 11
1217.490205953423
 21
-219.7104658948084
 31
0.0
  0
LINE
  5
9CB
330
6B
100
AcDbEntity
  8
0
  6
Continuous
 62
     7
100
AcDbLine
 10
1217.990205953422
 20
-219.7104658948084
 30
0.0
 11
1218.490205953423
 21
-219.7104658948084
 31
0.0
  0
LINE
  5
9CC
330
6B
100
AcDbEntity
  8
0
  6
Continuous
 62
     7
100
AcDbLine
 10
1217.490205953423
 20
-220.7104658948084
 30
0.0
 11
1217.990205953422
 21
-220.7104658948084
 31
0.0
  0
LINE
  5
9CD
330
6B
100
AcDbEntity
  8
0
  6
Continuous
 62
     7
100
AcDbLine
 10
1217.490205953423
 20
-219.2104658948085
 30
0.0
 11
1217.990205953422
 21
-219.2104658948085
 31
0.0
  0
LINE
  5
9CE
330
6B
100
AcDbEntity
  8
0
  6
Continuous
 62
     7
100
AcDbLine
 10
1217.490205953423
 20
-220.7104658948084
 30
0.0
 11
1217.490205953423
 21
-220.2104658948084
 31
0.0
  0
LINE
  5
9CF
330
6B
100
AcDbEntity
  8
0
  6
Continuous
 62
     7
100
AcDbLine
 10
1217.490205953423
 20
-219.7104658948084
 30
0.0
 11
1217.490205953423
 21
-219.2104658948085
 31
0.0
  0
LINE
  5
9D0
330
6B
100
AcDbEntity
  8
0
  6
Continuous
 62
     7
100
AcDbLine
 10
1217.990205953422
 20
-220.7104658948084
 30
0.0
 11
1217.990205953422
 21
-220.2104658948084
 31
0.0
  0
LINE
  5
9D1
330
6B
100
AcDbEntity
  8
0
  6
Continuous
 62
     7
100
AcDbLine
 10
1217.990205953422
 20
-219.7104658948084
 30
0.0
 11
1217.990205953422
 21
-219.2104658948085
 31
0.0
  0
LINE
  5
9D2
330
6B
100
AcDbEntity
  8
0
  6
Continuous
 62
     7
100
AcDbLine
 10
1216.990205953422
 20
-220.2104658948084
 30
0.0
 11
1216.990205953422
 21
-219.7104658948084
 31
0.0
  0
LINE
  5
9D3
330
6B
100
AcDbEntity
  8
0
  6
Continuous
 62
     7
100
AcDbLine
 10
1218.490205953423
 20
-220.2104658948084
 30
0.0
 11
1218.490205953423
 21
-219.7104658948084
 31
0.0
  0
CIRCLE
  5
9D4
330
6B
100
AcDbEntity
  8
0
  6
Continuous
 62
     7
100
AcDbCircle
 10
1217.740205953423
 20
-219.9604658948084
 30
0.0
 40
1.5
  0
LINE
  5
9DC
330
6B
100
AcDbEntity
  8
0
  6
Continuous
 62
     7
100
AcDbLine
 10
1137.740205953422
 20
-165.2104658948084
 30
0.0
 11
1137.740205953422
 21
-164.7289720427026
 31
0.0
  0
LINE
  5
9DD
330
6B
100
AcDbEntity
  8
0
  6
Continuous
 62
     7
100
AcDbLine
 10
1134.740205953423
 20
-165.2104658948084
 30
0.0
 11
1134.740205953423
 21
-164.7289720427026
 31
0.0
  0
ARC
  5
9E1
330
6B
100
AcDbEntity
  8
0
  6
Continuous
 62
     7
100
AcDbCircle
 10
1136.240205953423
 20
-166.6394135896756
 30
0.0
 40
2.428947694867171
100
AcDbArc
 50
51.86245710000542
 51
128.1375428999941
  0
LINE
  5
9E2
330
6B
100
AcDbEntity
  8
0
  6
Continuous
 62
     7
100
AcDbLine
 10
1209.240205953422
 20
-165.2104658948084
 30
0.0
 11
1209.240205953422
 21
-164.7289720427026
 31
0.0
  0
LINE
  5
9E3
330
6B
100
AcDbEntity
  8
0
  6
Continuous
 62
     7
100
AcDbLine
 10
1206.240205953422
 20
-165.2104658948084
 30
0.0
 11
1206.240205953422
 21
-164.7289720427026
 31
0.0
  0
ARC
  5
9E4
330
6B
100
AcDbEntity
  8
0
  6
Continuous
 62
     7
100
AcDbCircle
 10
1207.740205953423
 20
-166.6394135896756
 30
0.0
 40
2.428947694867171
100
AcDbArc
 50
51.86245710000072
 51
128.1375428999993
  0
LINE
  5
9E5
330
6B
100
AcDbEntity
  8
0
  6
Continuous
 62
     7
100
AcDbLine
 10
1064.417179994231
 20
-165.2104658948084
 30
0.0
 11
1064.417179994231
 21
-164.7289720427026
 31
0.0
  0
LINE
  5
9E6
330
6B
100
AcDbEntity
  8
0
  6
Continuous
 62
     7
100
AcDbLine
 10
1067.417179994231
 20
-165.2104658948084
 30
0.0
 11
1067.417179994231
 21
-164.7289720427026
 31
0.0
  0
ARC
  5
9E7
330
6B
100
AcDbEntity
  8
0
  6
Continuous
 62
     7
100
AcDbCircle
 10
1065.917179994231
 20
-166.6394135896756
 30
0.0
 40
2.428947694867171
100
AcDbArc
 50
51.86245710000542
 51
128.1375428999941
  0
LINE
  5
9E9
330
6B
100
AcDbEntity
  8
0
  6
Continuous
 62
     3
100
AcDbLine
 10
1057.917179994231
 20
-205.9604658948084
 30
0.0
 11
1057.917179994231
 21
-218.9604658948084
 31
0.0
  0
LINE
  5
9EA
330
6B
100
AcDbEntity
  8
0
  6
Continuous
 62
     3
100
AcDbLine
 10
1043.917179994231
 20
-205.9604658948084
 30
0.0
 11
1043.917179994231
 21
-218.9604658948084
 31
0.0
  0
LINE
  5
9ED
330
6B
100
AcDbEntity
  8
0
  6
Continuous
 62
     3
100
AcDbLine
 10
1057.417179994232
 20
-200.4604658948085
 30
0.0
 11
1044.417179994231
 21
-200.4604658948085
 31
0.0
  0
LINE
  5
9EE
330
6B
100
AcDbEntity
  8
0
  6
Continuous
 62
     3
100
AcDbLine
 10
1057.417179994232
 20
-186.4604658948084
 30
0.0
 11
1044.417179994231
 21
-186.4604658948084
 31
0.0
  0
LINE
  5
9EF
330
6B
100
AcDbEntity
  8
0
  6
Continuous
 62
     3
100
AcDbLine
 10
1057.417179994232
 20
-205.4604658948084
 30
0.0
 11
1044.417179994231
 21
-205.4604658948084
 31
0.0
  0
LINE
  5
9F0
330
6B
100
AcDbEntity
  8
0
  6
Continuous
 62
     3
100
AcDbLine
 10
1057.417179994232
 20
-219.4604658948084
 30
0.0
 11
1044.417179994231
 21
-219.4604658948084
 31
0.0
  0
LINE
  5
9F1
330
6B
100
AcDbEntity
  8
0
  6
Continuous
 62
     7
100
AcDbLine
 10
1057.167179994231
 20
-206.7104658948085
 30
0.0
 11
1057.167179994231
 21
-218.2104658948084
 31
0.0
  0
LINE
  5
9F2
330
6B
100
AcDbEntity
  8
0
  6
Continuous
 62
     7
100
AcDbLine
 10
1056.667179994231
 20
-206.2104658948084
 30
0.0
 11
1045.167179994231
 21
-206.2104658948084
 31
0.0
  0
LINE
  5
9F3
330
6B
100
AcDbEntity
  8
0
  6
Continuous
 62
     7
100
AcDbLine
 10
1056.667179994231
 20
-218.7104658948084
 30
0.0
 11
1045.167179994231
 21
-218.7104658948084
 31
0.0
  0
LINE
  5
9F4
330
6B
100
AcDbEntity
  8
0
  6
Continuous
 62
     7
100
AcDbLine
 10
1044.667179994231
 20
-206.7104658948085
 30
0.0
 11
1044.667179994231
 21
-218.2104658948084
 31
0.0
  0
LINE
  5
9F5
330
6B
100
AcDbEntity
  8
0
  6
Continuous
 62
     7
100
AcDbLine
 10
1056.667179994231
 20
-199.7104658948084
 30
0.0
 11
1045.167179994231
 21
-199.7104658948084
 31
0.0
  0
LINE
  5
9FA
330
6B
100
AcDbEntity
  8
0
  6
Continuous
 62
     7
100
AcDbLine
 10
1056.667179994231
 20
-187.2104658948084
 30
0.0
 11
1045.167179994231
 21
-187.2104658948084
 31
0.0
  0
LINE
  5
9FB
330
6B
100
AcDbEntity
  8
0
  6
Continuous
 62
     3
100
AcDbLine
 10
1057.917179994231
 20
-199.9604658948084
 30
0.0
 11
1057.917179994231
 21
-186.9604658948084
 31
0.0
  0
LINE
  5
9FC
330
6B
100
AcDbEntity
  8
0
  6
Continuous
 62
     7
100
AcDbLine
 10
1057.167179994231
 20
-199.2104658948084
 30
0.0
 11
1057.167179994231
 21
-187.7104658948084
 31
0.0
  0
LINE
  5
9FD
330
6B
100
AcDbEntity
  8
0
  6
Continuous
 62
     7
100
AcDbLine
 10
1044.667179994231
 20
-199.2104658948084
 30
0.0
 11
1044.667179994231
 21
-187.7104658948084
 31
0.0
  0
LINE
  5
9FE
330
6B
100
AcDbEntity
  8
0
  6
Continuous
 62
     3
100
AcDbLine
 10
1043.917179994231
 20
-199.9604658948084
 30
0.0
 11
1043.917179994231
 21
-186.9604658948084
 31
0.0
  0
ARC
  5
A01
330
6B
100
AcDbEntity
  8
0
  6
Continuous
 62
     7
100
AcDbCircle
 10
1056.667179994231
 20
-206.7104658948085
 30
0.0
 40
0.5
100
AcDbArc
 50
0.0000000000113991
 51
90.0
  0
ARC
  5
A02
330
6B
100
AcDbEntity
  8
0
  6
Continuous
 62
     3
100
AcDbCircle
 10
1057.417179994232
 20
-205.9604658948085
 30
0.0
 40
0.5
100
AcDbArc
 50
0.0000000000097707
 51
90.0
  0
ARC
  5
A03
330
6B
100
AcDbEntity
  8
0
  6
Continuous
 62
     7
100
AcDbCircle
 10
1045.167179994231
 20
-206.7104658948085
 30
0.0
 40
0.5
100
AcDbArc
 50
90.0
 51
179.9999999999967
  0
ARC
  5
A04
330
6B
100
AcDbEntity
  8
0
  6
Continuous
 62
     3
100
AcDbCircle
 10
1044.417179994232
 20
-205.9604658948085
 30
0.0
 40
0.5
100
AcDbArc
 50
90.0
 51
179.9999999999902
  0
ARC
  5
A05
330
6B
100
AcDbEntity
  8
0
  6
Continuous
 62
     7
100
AcDbCircle
 10
1045.167179994231
 20
-218.2104658948084
 30
0.0
 40
0.5
100
AcDbArc
 50
180.0000000000065
 51
270.0
  0
ARC
  5
A06
330
6B
100
AcDbEntity
  8
0
  6
Continuous
 62
     7
100
AcDbCircle
 10
1056.667179994231
 20
-218.2104658948084
 30
0.0
 40
0.5
100
AcDbArc
 50
270.0
 51
359.9999999999935
  0
ARC
  5
A07
330
6B
100
AcDbEntity
  8
0
  6
Continuous
 62
     3
100
AcDbCircle
 10
1057.417179994231
 20
-218.9604658948083
 30
0.0
 40
0.5
100
AcDbArc
 50
270.0
 51
359.999999999987
  0
ARC
  5
A08
330
6B
100
AcDbEntity
  8
0
  6
Continuous
 62
     3
100
AcDbCircle
 10
1044.417179994232
 20
-218.9604658948083
 30
0.0
 40
0.5
100
AcDbArc
 50
180.000000000013
 51
270.0
  0
ARC
  5
A09
330
6B
100
AcDbEntity
  8
0
  6
Continuous
 62
     7
100
AcDbCircle
 10
1056.667179994231
 20
-199.2104658948084
 30
0.0
 40
0.5
100
AcDbArc
 50
270.0
 51
359.9999999999968
  0
ARC
  5
A0A
330
6B
100
AcDbEntity
  8
0
  6
Continuous
 62
     7
100
AcDbCircle
 10
1056.667179994231
 20
-187.7104658948084
 30
0.0
 40
0.5
100
AcDbArc
 50
359.9999999999968
 51
90.0
  0
ARC
  5
A0B
330
6B
100
AcDbEntity
  8
0
  6
Continuous
 62
     7
100
AcDbCircle
 10
1045.167179994231
 20
-187.7104658948085
 30
0.0
 40
0.5
100
AcDbArc
 50
90.0
 51
179.9999999999951
  0
ARC
  5
A0C
330
6B
100
AcDbEntity
  8
0
  6
Continuous
 62
     7
100
AcDbCircle
 10
1045.167179994231
 20
-199.2104658948084
 30
0.0
 40
0.5
100
AcDbArc
 50
180.0
 51
270.0
  0
ARC
  5
A0D
330
6B
100
AcDbEntity
  8
0
  6
Continuous
 62
     3
100
AcDbCircle
 10
1057.417179994231
 20
-199.9604658948083
 30
0.0
 40
0.5
100
AcDbArc
 50
270.0
 51
359.9999999999902
  0
ARC
  5
A0E
330
6B
100
AcDbEntity
  8
0
  6
Continuous
 62
     3
100
AcDbCircle
 10
1057.417179994232
 20
-186.9604658948085
 30
0.0
 40
0.5
100
AcDbArc
 50
0.0000000000032569
 51
90.0
  0
ARC
  5
A0F
330
6B
100
AcDbEntity
  8
0
  6
Continuous
 62
     3
100
AcDbCircle
 10
1044.417179994232
 20
-186.9604658948085
 30
0.0
 40
0.5
100
AcDbArc
 50
90.0
 51
179.9999999999886
  0
ARC
  5
A10
330
6B
100
AcDbEntity
  8
0
  6
Continuous
 62
     3
100
AcDbCircle
 10
1044.417179994231
 20
-199.9604658948084
 30
0.0
 40
0.5
100
AcDbArc
 50
180.0
 51
270.0
  0
CIRCLE
  5
A2D
330
6B
100
AcDbEntity
  8
0
  6
Continuous
 62
     7
100
AcDbCircle
 10
1086.167179994231
 20
-213.2104658948084
 30
0.0
 40
1.125
  0
CIRCLE
  5
A2E
330
6B
100
AcDbEntity
  8
0
  6
Continuous
 62
     7
100
AcDbCircle
 10
1086.167179994231
 20
-213.2104658948084
 30
0.0
 40
3.0
  0
CIRCLE
  5
A2F
330
6B
100
AcDbEntity
  8
0
  6
Continuous
 62
     3
100
AcDbCircle
 10
1086.167179994231
 20
-213.2104658948084
 30
0.0
 40
5.0
  0
CIRCLE
  5
A33
330
6B
100
AcDbEntity
  8
0
  6
Continuous
 62
     3
100
AcDbCircle
 10
1086.167179994231
 20
-178.2104658948084
 30
0.0
 40
2.25
  0
LINE
  5
A55
330
6B
100
AcDbEntity
  8
0
  6
Continuous
 62
     7
100
AcDbLine
 10
1190.740205953423
 20
-185.7104658948085
 30
0.0
 11
1190.740205953423
 21
-199.2104658948084
 31
0.0
  0
LINE
  5
A56
330
6B
100
AcDbEntity
  8
0
  6
Continuous
 62
     7
100
AcDbLine
 10
1192.240205953422
 20
-185.7104658948085
 30
0.0
 11
1192.240205953422
 21
-199.2104658948084
 31
0.0
  0
ARC
  5
A5D
330
6B
100
AcDbEntity
  8
0
  6
Continuous
 62
     7
100
AcDbCircle
 10
1191.490205953422
 20
-185.7104658948085
 30
0.0
 40
0.75
100
AcDbArc
 50
0.0
 51
180.0
  0
ARC
  5
A5E
330
6B
100
AcDbEntity
  8
0
  6
Continuous
 62
     7
100
AcDbCircle
 10
1191.490205953422
 20
-199.2104658948084
 30
0.0
 40
0.75
100
AcDbArc
 50
180.0
 51
0.0
  0
LINE
  5
A60
330
6B
100
AcDbEntity
  8
0
  6
Continuous
 62
     7
100
AcDbLine
 10
1187.740205953422
 20
-185.7104658948085
 30
0.0
 11
1187.740205953422
 21
-199.2104658948084
 31
0.0
  0
LINE
  5
A61
330
6B
100
AcDbEntity
  8
0
  6
Continuous
 62
     7
100
AcDbLine
 10
1189.240205953423
 20
-185.7104658948085
 30
0.0
 11
1189.240205953423
 21
-199.2104658948084
 31
0.0
  0
ARC
  5
A62
330
6B
100
AcDbEntity
  8
0
  6
Continuous
 62
     7
100
AcDbCircle
 10
1188.490205953423
 20
-185.7104658948085
 30
0.0
 40
0.75
100
AcDbArc
 50
0.0
 51
180.0
  0
ARC
  5
A63
330
6B
100
AcDbEntity
  8
0
  6
Continuous
 62
     7
100
AcDbCircle
 10
1188.490205953423
 20
-199.2104658948084
 30
0.0
 40
0.75
100
AcDbArc
 50
180.0
 51
0.0
  0
LINE
  5
A64
330
6B
100
AcDbEntity
  8
0
  6
Continuous
 62
     7
100
AcDbLine
 10
1184.740205953422
 20
-185.7104658948085
 30
0.0
 11
1184.740205953422
 21
-199.2104658948084
 31
0.0
  0
LINE
  5
A65
330
6B
100
AcDbEntity
  8
0
  6
Continuous
 62
     7
100
AcDbLine
 10
1186.240205953422
 20
-185.7104658948085
 30
0.0
 11
1186.240205953422
 21
-199.2104658948084
 31
0.0
  0
ARC
  5
A66
330
6B
100
AcDbEntity
  8
0
  6
Continuous
 62
     7
100
AcDbCircle
 10
1185.490205953422
 20
-185.7104658948085
 30
0.0
 40
0.75
100
AcDbArc
 50
0.0
 51
180.0
  0
ARC
  5
A67
330
6B
100
AcDbEntity
  8
0
  6
Continuous
 62
     7
100
AcDbCircle
 10
1185.490205953422
 20
-199.2104658948084
 30
0.0
 40
0.75
100
AcDbArc
 50
180.0
 51
0.0
  0
LINE
  5
A68
330
6B
100
AcDbEntity
  8
0
  6
Continuous
 62
     7
100
AcDbLine
 10
1181.740205953422
 20
-185.7104658948085
 30
0.0
 11
1181.740205953422
 21
-199.2104658948084
 31
0.0
  0
LINE
  5
A69
330
6B
100
AcDbEntity
  8
0
  6
Continuous
 62
     7
100
AcDbLine
 10
1183.240205953422
 20
-185.7104658948085
 30
0.0
 11
1183.240205953422
 21
-199.2104658948084
 31
0.0
  0
ARC
  5
A6A
330
6B
100
AcDbEntity
  8
0
  6
Continuous
 62
     7
100
AcDbCircle
 10
1182.490205953422
 20
-185.7104658948085
 30
0.0
 40
0.75
100
AcDbArc
 50
0.0
 51
180.0
  0
ARC
  5
A6B
330
6B
100
AcDbEntity
  8
0
  6
Continuous
 62
     7
100
AcDbCircle
 10
1182.490205953422
 20
-199.2104658948084
 30
0.0
 40
0.75
100
AcDbArc
 50
180.0
 51
0.0
  0
LINE
  5
A6C
330
6B
100
AcDbEntity
  8
0
  6
Continuous
 62
     7
100
AcDbLine
 10
1178.740205953422
 20
-185.7104658948085
 30
0.0
 11
1178.740205953422
 21
-199.2104658948084
 31
0.0
  0
LINE
  5
A6D
330
6B
100
AcDbEntity
  8
0
  6
Continuous
 62
     7
100
AcDbLine
 10
1180.240205953422
 20
-185.7104658948085
 30
0.0
 11
1180.240205953422
 21
-199.2104658948084
 31
0.0
  0
ARC
  5
A6E
330
6B
100
AcDbEntity
  8
0
  6
Continuous
 62
     7
100
AcDbCircle
 10
1179.490205953422
 20
-185.7104658948085
 30
0.0
 40
0.75
100
AcDbArc
 50
0.0
 51
180.0
  0
ARC
  5
A6F
330
6B
100
AcDbEntity
  8
0
  6
Continuous
 62
     7
100
AcDbCircle
 10
1179.490205953422
 20
-199.2104658948084
 30
0.0
 40
0.75
100
AcDbArc
 50
180.0
 51
0.0
  0
LINE
  5
A70
330
6B
100
AcDbEntity
  8
0
  6
Continuous
 62
     7
100
AcDbLine
 10
1175.740205953422
 20
-185.7104658948085
 30
0.0
 11
1175.740205953422
 21
-199.2104658948084
 31
0.0
  0
LINE
  5
A71
330
6B
100
AcDbEntity
  8
0
  6
Continuous
 62
     7
100
AcDbLine
 10
1177.240205953423
 20
-185.7104658948085
 30
0.0
 11
1177.240205953423
 21
-199.2104658948084
 31
0.0
  0
ARC
  5
A72
330
6B
100
AcDbEntity
  8
0
  6
Continuous
 62
     7
100
AcDbCircle
 10
1176.490205953423
 20
-185.7104658948085
 30
0.0
 40
0.75
100
AcDbArc
 50
0.0
 51
180.0
  0
ARC
  5
A73
330
6B
100
AcDbEntity
  8
0
  6
Continuous
 62
     7
100
AcDbCircle
 10
1176.490205953423
 20
-199.2104658948084
 30
0.0
 40
0.75
100
AcDbArc
 50
180.0
 51
0.0
  0
LINE
  5
A74
330
6B
100
AcDbEntity
  8
0
  6
Continuous
 62
     7
100
AcDbLine
 10
1172.740205953422
 20
-185.7104658948085
 30
0.0
 11
1172.740205953422
 21
-199.2104658948084
 31
0.0
  0
LINE
  5
A75
330
6B
100
AcDbEntity
  8
0
  6
Continuous
 62
     7
100
AcDbLine
 10
1174.240205953422
 20
-185.7104658948085
 30
0.0
 11
1174.240205953422
 21
-199.2104658948084
 31
0.0
  0
ARC
  5
A76
330
6B
100
AcDbEntity
  8
0
  6
Continuous
 62
     7
100
AcDbCircle
 10
1173.490205953422
 20
-185.7104658948085
 30
0.0
 40
0.75
100
AcDbArc
 50
0.0
 51
180.0
  0
ARC
  5
A77
330
6B
100
AcDbEntity
  8
0
  6
Continuous
 62
     7
100
AcDbCircle
 10
1173.490205953422
 20
-199.2104658948084
 30
0.0
 40
0.75
100
AcDbArc
 50
180.0
 51
0.0
  0
LINE
  5
A78
330
6B
100
AcDbEntity
  8
0
  6
Continuous
 62
     7
100
AcDbLine
 10
1169.740205953422
 20
-185.7104658948085
 30
0.0
 11
1169.740205953422
 21
-199.2104658948084
 31
0.0
  0
LINE
  5
A79
330
6B
100
AcDbEntity
  8
0
  6
Continuous
 62
     7
100
AcDbLine
 10
1171.240205953423
 20
-185.7104658948085
 30
0.0
 11
1171.240205953423
 21
-199.2104658948084
 31
0.0
  0
ARC
  5
A7A
330
6B
100
AcDbEntity
  8
0
  6
Continuous
 62
     7
100
AcDbCircle
 10
1170.490205953423
 20
-185.7104658948085
 30
0.0
 40
0.75
100
AcDbArc
 50
0.0
 51
180.0
  0
ARC
  5
A7B
330
6B
100
AcDbEntity
  8
0
  6
Continuous
 62
     7
100
AcDbCircle
 10
1170.490205953423
 20
-199.2104658948084
 30
0.0
 40
0.75
100
AcDbArc
 50
180.0
 51
0.0
  0
LINE
  5
A7C
330
6B
100
AcDbEntity
  8
0
  6
Continuous
 62
     7
100
AcDbLine
 10
1166.740205953423
 20
-185.7104658948085
 30
0.0
 11
1166.740205953423
 21
-199.2104658948084
 31
0.0
  0
LINE
  5
A7D
330
6B
100
AcDbEntity
  8
0
  6
Continuous
 62
     7
100
AcDbLine
 10
1168.240205953422
 20
-185.7104658948085
 30
0.0
 11
1168.240205953422
 21
-199.2104658948084
 31
0.0
  0
ARC
  5
A7E
330
6B
100
AcDbEntity
  8
0
  6
Continuous
 62
     7
100
AcDbCircle
 10
1167.490205953423
 20
-185.7104658948085
 30
0.0
 40
0.75
100
AcDbArc
 50
0.0
 51
180.0
  0
ARC
  5
A7F
330
6B
100
AcDbEntity
  8
0
  6
Continuous
 62
     7
100
AcDbCircle
 10
1167.490205953423
 20
-199.2104658948084
 30
0.0
 40
0.75
100
AcDbArc
 50
180.0
 51
0.0
  0
LINE
  5
A80
330
6B
100
AcDbEntity
  8
0
  6
Continuous
 62
     7
100
AcDbLine
 10
1163.740205953422
 20
-185.7104658948085
 30
0.0
 11
1163.740205953422
 21
-199.2104658948084
 31
0.0
  0
LINE
  5
A81
330
6B
100
AcDbEntity
  8
0
  6
Continuous
 62
     7
100
AcDbLine
 10
1165.240205953423
 20
-185.7104658948085
 30
0.0
 11
1165.240205953423
 21
-199.2104658948084
 31
0.0
  0
ARC
  5
A82
330
6B
100
AcDbEntity
  8
0
  6
Continuous
 62
     7
100
AcDbCircle
 10
1164.490205953423
 20
-185.7104658948085
 30
0.0
 40
0.75
100
AcDbArc
 50
0.0
 51
180.0
  0
ARC
  5
A83
330
6B
100
AcDbEntity
  8
0
  6
Continuous
 62
     7
100
AcDbCircle
 10
1164.490205953423
 20
-199.2104658948084
 30
0.0
 40
0.75
100
AcDbArc
 50
180.0
 51
0.0
  0
LINE
  5
A84
330
6B
100
AcDbEntity
  8
0
  6
Continuous
 62
     7
100
AcDbLine
 10
1160.740205953422
 20
-185.7104658948085
 30
0.0
 11
1160.740205953422
 21
-199.2104658948084
 31
0.0
  0
LINE
  5
A85
330
6B
100
AcDbEntity
  8
0
  6
Continuous
 62
     7
100
AcDbLine
 10
1162.240205953422
 20
-185.7104658948085
 30
0.0
 11
1162.240205953422
 21
-199.2104658948084
 31
0.0
  0
ARC
  5
A86
330
6B
100
AcDbEntity
  8
0
  6
Continuous
 62
     7
100
AcDbCircle
 10
1161.490205953422
 20
-185.7104658948085
 30
0.0
 40
0.75
100
AcDbArc
 50
0.0
 51
180.0
  0
ARC
  5
A87
330
6B
100
AcDbEntity
  8
0
  6
Continuous
 62
     7
100
AcDbCircle
 10
1161.490205953422
 20
-199.2104658948084
 30
0.0
 40
0.75
100
AcDbArc
 50
180.0
 51
0.0
  0
LINE
  5
A88
330
6B
100
AcDbEntity
  8
0
  6
Continuous
 62
     7
100
AcDbLine
 10
1157.740205953422
 20
-185.7104658948085
 30
0.0
 11
1157.740205953422
 21
-199.2104658948084
 31
0.0
  0
LINE
  5
A89
330
6B
100
AcDbEntity
  8
0
  6
Continuous
 62
     7
100
AcDbLine
 10
1159.240205953422
 20
-185.7104658948085
 30
0.0
 11
1159.240205953422
 21
-199.2104658948084
 31
0.0
  0
ARC
  5
A8A
330
6B
100
AcDbEntity
  8
0
  6
Continuous
 62
     7
100
AcDbCircle
 10
1158.490205953423
 20
-185.7104658948085
 30
0.0
 40
0.75
100
AcDbArc
 50
0.0
 51
180.0
  0
ARC
  5
A8B
330
6B
100
AcDbEntity
  8
0
  6
Continuous
 62
     7
100
AcDbCircle
 10
1158.490205953423
 20
-199.2104658948084
 30
0.0
 40
0.75
100
AcDbArc
 50
180.0
 51
0.0
  0
LINE
  5
A8C
330
6B
100
AcDbEntity
  8
0
  6
Continuous
 62
     7
100
AcDbLine
 10
1154.740205953422
 20
-185.7104658948085
 30
0.0
 11
1154.740205953422
 21
-199.2104658948084
 31
0.0
  0
LINE
  5
A8D
330
6B
100
AcDbEntity
  8
0
  6
Continuous
 62
     7
100
AcDbLine
 10
1156.240205953422
 20
-185.7104658948085
 30
0.0
 11
1156.240205953422
 21
-199.2104658948084
 31
0.0
  0
ARC
  5
A8E
330
6B
100
AcDbEntity
  8
0
  6
Continuous
 62
     7
100
AcDbCircle
 10
1155.490205953422
 20
-185.7104658948085
 30
0.0
 40
0.75
100
AcDbArc
 50
0.0
 51
180.0
  0
ARC
  5
A8F
330
6B
100
AcDbEntity
  8
0
  6
Continuous
 62
     7
100
AcDbCircle
 10
1155.490205953422
 20
-199.2104658948084
 30
0.0
 40
0.75
100
AcDbArc
 50
180.0
 51
0.0
  0
LINE
  5
A90
330
6B
100
AcDbEntity
  8
0
  6
Continuous
 62
     7
100
AcDbLine
 10
1151.740205953422
 20
-185.7104658948085
 30
0.0
 11
1151.740205953422
 21
-199.2104658948084
 31
0.0
  0
LINE
  5
A91
330
6B
100
AcDbEntity
  8
0
  6
Continuous
 62
     7
100
AcDbLine
 10
1153.240205953423
 20
-185.7104658948085
 30
0.0
 11
1153.240205953423
 21
-199.2104658948084
 31
0.0
  0
ARC
  5
A92
330
6B
100
AcDbEntity
  8
0
  6
Continuous
 62
     7
100
AcDbCircle
 10
1152.490205953422
 20
-185.7104658948085
 30
0.0
 40
0.75
100
AcDbArc
 50
0.0
 51
180.0
  0
ARC
  5
A93
330
6B
100
AcDbEntity
  8
0
  6
Continuous
 62
     7
100
AcDbCircle
 10
1152.490205953422
 20
-199.2104658948084
 30
0.0
 40
0.75
100
AcDbArc
 50
180.0
 51
0.0
  0
LINE
  5
A94
330
6B
100
AcDbEntity
  8
0
  6
Continuous
 62
     3
100
AcDbLine
 10
1222.740205953423
 20
-221.9604658948085
 30
0.0
 11
1222.740205953423
 21
-215.9604658948086
 31
0.0
  0
LINE
  5
A97
330
6B
100
AcDbEntity
  8
0
  6
Continuous
 62
     3
100
AcDbLine
 10
1222.740205953423
 20
-221.9604658948085
 30
0.0
 11
1220.740205953422
 21
-221.9604658948085
 31
0.0
  0
LINE
  5
A98
330
6B
100
AcDbEntity
  8
0
  6
Continuous
 62
     3
100
AcDbLine
 10
1222.740205953423
 20
-215.9604658948086
 30
0.0
 11
1220.740205953422
 21
-215.9604658948086
 31
0.0
  0
LINE
  5
A9A
330
6B
100
AcDbEntity
  8
0
  6
Continuous
 62
     3
100
AcDbLine
 10
1232.234840661717
 20
-244.3876522983196
 30
0.0
 11
1232.234840661717
 21
-259.6376522983196
 31
0.0
  0
LINE
  5
AA0
330
6B
100
AcDbEntity
  8
0
  6
Continuous
 62
     3
100
AcDbLine
 10
1222.740205953423
 20
-217.7104658948085
 30
0.0
 11
1226.234840661717
 21
-217.7104658948085
 31
0.0
  0
LINE
  5
AA1
330
6B
100
AcDbEntity
  8
0
  6
Continuous
 62
     3
100
AcDbLine
 10
1222.740205953423
 20
-220.2104658948086
 30
0.0
 11
1226.234840661717
 21
-220.2104658948086
 31
0.0
  0
ARC
  5
AA2
330
6B
100
AcDbEntity
  8
0
  6
Continuous
 62
     3
100
AcDbCircle
 10
1226.234840661717
 20
-224.9604658948085
 30
0.0
 40
7.25
100
AcDbArc
 50
0.0
 51
90.0
  0
ARC
  5
AA3
330
6B
100
AcDbEntity
  8
0
  6
Continuous
 62
     3
100
AcDbCircle
 10
1226.234840661717
 20
-224.9604658948085
 30
0.0
 40
4.75
100
AcDbArc
 50
0.0
 51
90.0
  0
LINE
  5
AA4
330
6B
100
AcDbEntity
  8
0
  6
Continuous
 62
     3
100
AcDbLine
 10
1230.984840661717
 20
-224.9604658948086
 30
0.0
 11
1230.984840661717
 21
-230.1511446426907
 31
0.0
  0
LINE
  5
AA5
330
6B
100
AcDbEntity
  8
0
  6
Continuous
 62
     3
100
AcDbLine
 10
1233.484840661717
 20
-224.9604658948086
 30
0.0
 11
1233.484840661717
 21
-230.1511446426907
 31
0.0
  0
LINE
  5
AA6
330
6B
100
AcDbEntity
  8
0
  6
Continuous
 62
     3
100
AcDbLine
 10
1234.359840661717
 20
-237.8876522983196
 30
0.0
 11
1230.109840661717
 21
-237.8876522983196
 31
0.0
  0
LINE
  5
AA7
330
6B
100
AcDbEntity
  8
0
  6
Continuous
 62
     3
100
AcDbLine
 10
1234.359840661717
 20
-237.8876522983196
 30
0.0
 11
1234.359840661717
 21
-244.3876522983196
 31
0.0
  0
LINE
  5
AA8
330
6B
100
AcDbEntity
  8
0
  6
Continuous
 62
     3
100
AcDbLine
 10
1230.109840661717
 20
-237.8876522983196
 30
0.0
 11
1230.109840661717
 21
-244.3876522983196
 31
0.0
  0
LINE
  5
AA9
330
6B
100
AcDbEntity
  8
0
  6
Continuous
 62
     3
100
AcDbLine
 10
1235.234840661717
 20
-244.3876522983196
 30
0.0
 11
1235.234840661717
 21
-245.8876522983196
 31
0.0
  0
LINE
  5
AAA
330
6B
100
AcDbEntity
  8
0
  6
Continuous
 62
     3
100
AcDbLine
 10
1229.234840661717
 20
-244.3876522983196
 30
0.0
 11
1229.234840661717
 21
-245.8876522983196
 31
0.0
  0
LINE
  5
AAC
330
6B
100
AcDbEntity
  8
0
  6
Continuous
 62
     3
100
AcDbLine
 10
1235.234840661717
 20
-244.3876522983196
 30
0.0
 11
1229.234840661717
 21
-244.3876522983196
 31
0.0
  0
LINE
  5
AAD
330
6B
100
AcDbEntity
  8
0
  6
Continuous
 62
     3
100
AcDbLine
 10
1235.734840661717
 20
-245.8876522983196
 30
0.0
 11
1228.734840661717
 21
-245.8876522983196
 31
0.0
  0
LINE
  5
AAE
330
6B
100
AcDbEntity
  8
0
  6
Continuous
 62
     3
100
AcDbLine
 10
1235.734840661717
 20
-245.8876522983196
 30
0.0
 11
1235.734840661717
 21
-246.8876522983197
 31
0.0
  0
LINE
  5
AAF
330
6B
100
AcDbEntity
  8
0
  6
Continuous
 62
     3
100
AcDbLine
 10
1228.734840661717
 20
-245.8876522983196
 30
0.0
 11
1228.734840661717
 21
-246.8876522983197
 31
0.0
  0
LINE
  5
AB0
330
6B
100
AcDbEntity
  8
0
  6
Continuous
 62
     3
100
AcDbLine
 10
1235.734840661717
 20
-246.8876522983197
 30
0.0
 11
1228.734840661717
 21
-246.8876522983197
 31
0.0
  0
LINE
  5
AB1
330
6B
100
AcDbEntity
  8
0
  6
Continuous
 62
     3
100
AcDbLine
 10
1235.734840661717
 20
-246.8876522983197
 30
0.0
 11
1235.234840661717
 21
-247.7536777021041
 31
0.0
  0
LINE
  5
AB2
330
6B
100
AcDbEntity
  8
0
  6
Continuous
 62
     3
100
AcDbLine
 10
1228.734840661717
 20
-246.8876522983197
 30
0.0
 11
1229.234840661717
 21
-247.7536777021041
 31
0.0
  0
LINE
  5
AB3
330
6B
100
AcDbEntity
  8
0
  6
Continuous
 62
     3
100
AcDbLine
 10
1229.234840661717
 20
-247.7536777021041
 30
0.0
 11
1229.234840661717
 21
-248.6376522983196
 31
0.0
  0
LINE
  5
AB4
330
6B
100
AcDbEntity
  8
0
  6
Continuous
 62
     3
100
AcDbLine
 10
1235.234840661717
 20
-247.7536777021041
 30
0.0
 11
1235.234840661717
 21
-252.8689832302982
 31
0.0
  0
LINE
  5
AB5
330
6B
100
AcDbEntity
  8
0
  6
Continuous
 62
     3
100
AcDbLine
 10
1235.734840661717
 20
-259.6376522983196
 30
0.0
 11
1224.234840661717
 21
-259.6376522983196
 31
0.0
  0
ARC
  5
ABB
330
6B
100
AcDbEntity
  8
0
  6
Continuous
 62
     3
100
AcDbCircle
 10
1189.669959709336
 20
-259.6376522983196
 30
0.0
 40
46.06488095238103
100
AcDbArc
 50
359.9999999999984
 51
17.36705367146495
  0
ARC
  5
AC0
330
6B
100
AcDbEntity
  8
0
  6
Continuous
 62
     3
100
AcDbCircle
 10
1285.991458308774
 20
-259.6376522983196
 30
0.0
 40
56.45661764705754
100
AcDbArc
 50
165.9038502343547
 51
179.9999999999984
  0
LINE
  5
AC5
330
6B
100
AcDbEntity
  8
0
  6
Continuous
 62
     3
100
AcDbLine
 10
1224.234840661717
 20
-254.6376522983196
 30
0.0
 11
1224.234840661717
 21
-259.6376522983196
 31
0.0
  0
LINE
  5
AC6
330
6B
100
AcDbEntity
  8
0
  6
Continuous
 62
     3
100
AcDbLine
 10
1229.756685470734
 20
-254.6376522983196
 30
0.0
 11
1224.234840661717
 21
-254.6376522983196
 31
0.0
  0
LINE
  5
AC8
330
6B
100
AcDbEntity
  8
0
  6
Continuous
 62
     3
100
AcDbLine
 10
1229.234840661717
 20
-248.6376522983196
 30
0.0
 11
1224.234840661717
 21
-254.6376522983196
 31
0.0
  0
LINE
  5
ACB
330
6B
100
AcDbEntity
  8
0
  6
Continuous
 62
     7
100
AcDbLine
 10
1233.809840661717
 20
-259.6376522983196
 30
0.0
 11
1233.809840661717
 21
-267.6909589779019
 31
0.0
  0
LINE
  5
ACC
330
6B
100
AcDbEntity
  8
0
  6
Continuous
 62
     7
100
AcDbLine
 10
1230.659840661717
 20
-259.6376522983196
 30
0.0
 11
1230.659840661717
 21
-267.6909589779019
 31
0.0
  0
LINE
  5
ACD
330
6B
100
AcDbEntity
  8
0
  6
Continuous
 62
     7
100
AcDbLine
 10
1226.284840661717
 20
-259.6376522983196
 30
0.0
 11
1226.284840661717
 21
-269.1376522983196
 31
0.0
  0
LINE
  5
ACE
330
6B
100
AcDbEntity
  8
0
  6
Continuous
 62
     7
100
AcDbLine
 10
1228.284840661717
 20
-259.6376522983196
 30
0.0
 11
1228.284840661717
 21
-269.1376522983196
 31
0.0
  0
ARC
  5
ACF
330
6B
100
AcDbEntity
  8
0
  6
Continuous
 62
     7
100
AcDbCircle
 10
1227.284840661717
 20
-269.1376522983196
 30
0.0
 40
0.9999999999998859
100
AcDbArc
 50
180.0
 51
0.0
  0
CIRCLE
  5
AD1
330
6B
100
AcDbEntity
  8
0
  6
Continuous
 62
     7
100
AcDbCircle
 10
1232.234840661717
 20
-265.1376522983196
 30
0.0
 40
0.75
  0
ARC
  5
AD2
330
6B
100
AcDbEntity
  8
0
  6
Continuous
 62
     7
100
AcDbCircle
 10
1232.234840661717
 20
-265.1376522983196
 30
0.0
 40
3.0
100
AcDbArc
 50
238.3317567464628
 51
301.6682432535372
  0
LINE
  5
AD3
330
6B
100
AcDbEntity
  8
0
  6
Continuous
 62
     7
100
AcDbLine
 10
1233.809840661717
 20
-267.6909589779019
 30
0.0
 11
1230.659840661717
 21
-267.6909589779019
 31
0.0
  0
LINE
  5
AD8
330
6B
100
AcDbEntity
  8
0
  6
Continuous
 62
     3
100
AcDbLine
 10
1055.435639973512
 20
-102.9249675993805
 30
0.0
 11
1055.435639973512
 21
-127.6749675993804
 31
0.0
  0
LINE
  5
AD9
330
6B
100
AcDbEntity
  8
0
  6
Continuous
 62
     3
100
AcDbLine
 10
1086.870707744418
 20
-74.67496759938052
 30
0.0
 11
1086.870707744418
 21
-97.1749675993805
 31
0.0
  0
LINE
  5
ADA
330
6B
100
AcDbEntity
  8
0
  6
Continuous
 62
     3
100
AcDbLine
 10
1038.452662014007
 20
-96.17496759938049
 30
0.0
 11
1038.452662014007
 21
-105.1749675993805
 31
0.0
  0
LINE
  5
ADC
330
6B
100
AcDbEntity
  8
0
  6
Continuous
 62
     3
100
AcDbLine
 10
1062.935639973512
 20
-100.6749675993805
 30
0.0
 11
1049.02576967677
 21
-100.6749675993805
 31
0.0
  0
LINE
  5
ADD
330
6B
100
AcDbEntity
  8
0
  6
Continuous
 62
     3
100
AcDbLine
 10
1044.52576967677
 20
-96.17496759938049
 30
0.0
 11
1038.452662014007
 21
-96.17496759938049
 31
0.0
  0
LINE
  5
ADE
330
6B
100
AcDbEntity
  8
0
  6
Continuous
 62
     3
100
AcDbLine
 10
1044.52576967677
 20
-105.1749675993805
 30
0.0
 11
1038.452662014007
 21
-105.1749675993805
 31
0.0
  0
ARC
  5
ADF
330
6B
100
AcDbEntity
  8
0
  6
Continuous
 62
     3
100
AcDbCircle
 10
1044.52576967677
 20
-100.6749675993805
 30
0.0
 40
4.5
100
AcDbArc
 50
270.0
 51
90.0
  0
LINE
  5
AE0
330
6B
100
AcDbEntity
  8
0
  6
Continuous
 62
     3
100
AcDbLine
 10
1048.4228839938
 20
-98.4249675993805
 30
0.0
 11
1055.435639973512
 21
-98.4249675993805
 31
0.0
  0
LINE
  5
AE1
330
6B
100
AcDbEntity
  8
0
  6
Continuous
 62
     3
100
AcDbLine
 10
1048.4228839938
 20
-102.9249675993805
 30
0.0
 11
1055.435639973512
 21
-102.9249675993805
 31
0.0
  0
LINE
  5
AE2
102
{ACAD_REACTORS
330
D13
102
}
330
6B
100
AcDbEntity
  8
0
  6
Continuous
 62
     3
100
AcDbLine
 10
1114.120707744417
 20
-74.67496759938052
 30
0.0
 11
1102.995707744418
 21
-74.67496759938052
 31
0.0
  0
LINE
  5
AE3
330
6B
100
AcDbEntity
  8
0
  6
Continuous
 62
     3
100
AcDbLine
 10
1169.620707744417
 20
-127.6749675993804
 30
0.0
 11
1138.637595505405
 21
-127.6749675993804
 31
0.0
  0
LINE
  5
AE5
330
6B
100
AcDbEntity
  8
0
  6
Continuous
 62
     3
100
AcDbLine
 10
1062.935639973512
 20
-135.6749675993805
 30
0.0
 11
1062.935639973512
 21
-100.6749675993805
 31
0.0
  0
LINE
  5
AE6
102
{ACAD_REACTORS
330
D13
102
}
330
6B
100
AcDbEntity
  8
0
  6
Continuous
 62
     3
100
AcDbLine
 10
1110.870707744418
 20
-127.6749675993804
 30
0.0
 11
1110.870707744418
 21
-74.67496759938052
 31
0.0
  0
LINE
  5
AE7
102
{ACAD_REACTORS
330
D13
102
}
330
6B
100
AcDbEntity
  8
0
  6
Continuous
 62
     3
100
AcDbLine
 10
1114.120707744417
 20
-127.6749675993804
 30
0.0
 11
1114.120707744417
 21
-74.67496759938052
 31
0.0
  0
LINE
  5
AE8
330
6B
100
AcDbEntity
  8
0
  6
Continuous
 62
     3
100
AcDbLine
 10
1118.870707744417
 20
-127.6749675993804
 30
0.0
 11
1118.870707744417
 21
-74.67496759938052
 31
0.0
  0
LINE
  5
AE9
330
6B
100
AcDbEntity
  8
0
  6
Continuous
 62
     3
100
AcDbLine
 10
1123.620707744418
 20
-127.6749675993804
 30
0.0
 11
1123.620707744418
 21
-74.67496759938052
 31
0.0
  0
LINE
  5
AEA
330
6B
100
AcDbEntity
  8
0
  6
Continuous
 62
     3
100
AcDbLine
 10
1114.120707744417
 20
-97.1749675993805
 30
0.0
 11
1135.40381998343
 21
-97.1749675993805
 31
0.0
  0
LINE
  5
AEB
330
6B
100
AcDbEntity
  8
0
  6
Continuous
 62
     3
100
AcDbLine
 10
1169.620707744417
 20
-97.1749675993805
 30
0.0
 11
1169.620707744417
 21
-110.6749675993805
 31
0.0
  0
LINE
  5
AEC
330
6B
100
AcDbEntity
  8
0
  6
Continuous
 62
     3
100
AcDbLine
 10
1176.120707744418
 20
-112.1749675993805
 30
0.0
 11
1176.120707744418
 21
-135.6749675993805
 31
0.0
  0
LINE
  5
AED
330
6B
100
AcDbEntity
  8
0
  6
Continuous
 62
     3
100
AcDbLine
 10
1176.120707744418
 20
-112.1749675993805
 30
0.0
 11
1172.870707744418
 21
-112.1749675993805
 31
0.0
  0
CIRCLE
  5
AEE
330
6B
100
AcDbEntity
  8
0
  6
Continuous
 62
     3
100
AcDbCircle
 10
1169.620707744417
 20
-112.1749675993805
 30
0.0
 40
4.5
  0
LINE
  5
AEF
330
6B
100
AcDbEntity
  8
0
  6
Continuous
 62
     3
100
AcDbLine
 10
1176.120707744418
 20
-135.6749675993805
 30
0.0
 11
1062.935639973512
 21
-135.6749675993805
 31
0.0
  0
LINE
  5
AF0
330
6B
100
AcDbEntity
  8
0
  6
Continuous
 62
     3
100
AcDbLine
 10
1055.435639973512
 20
-98.4249675993805
 30
0.0
 11
1055.435639973512
 21
-74.67496759938052
 31
0.0
  0
CIRCLE
  5
AF7
330
6B
100
AcDbEntity
  8
0
  6
Continuous
 62
     3
100
AcDbCircle
 10
1086.870707744418
 20
-100.6749675993805
 30
0.0
 40
3.499999999999999
  0
LINE
  5
AF8
330
6B
100
AcDbEntity
  8
0
  6
Continuous
 62
     3
100
AcDbLine
 10
1038.452662014007
 20
-97.9249675993805
 30
0.0
 11
1032.952662014007
 21
-97.9249675993805
 31
0.0
  0
LINE
  5
AF9
330
6B
100
AcDbEntity
  8
0
  6
Continuous
 62
     3
100
AcDbLine
 10
1038.452662014007
 20
-103.4249675993805
 30
0.0
 11
1032.952662014007
 21
-103.4249675993805
 31
0.0
  0
LINE
  5
AFB
330
6B
100
AcDbEntity
  8
0
  6
Continuous
 62
     3
100
AcDbLine
 10
1038.452662014007
 20
-99.92496759938049
 30
0.0
 11
1031.702662014008
 21
-99.92496759938049
 31
0.0
  0
LINE
  5
AFC
330
6B
100
AcDbEntity
  8
0
  6
Continuous
 62
     3
100
AcDbLine
 10
1038.452662014007
 20
-101.4249675993805
 30
0.0
 11
1031.702662014008
 21
-101.4249675993805
 31
0.0
  0
ARC
  5
AFE
330
6B
100
AcDbEntity
  8
0
  6
Continuous
 62
     3
100
AcDbCircle
 10
1031.702662014008
 20
-100.6749675993804
 30
0.0
 40
0.749999999999943
100
AcDbArc
 50
90.0
 51
270.0
  0
LINE
  5
AFF
330
6B
100
AcDbEntity
  8
0
  6
Continuous
 62
     3
100
AcDbLine
 10
1072.185639973512
 20
-76.92496759938052
 30
0.0
 11
1062.185639973512
 21
-76.92496759938052
 31
0.0
  0
LINE
  5
B00
330
6B
100
AcDbEntity
  8
0
  6
Continuous
 62
     3
100
AcDbLine
 10
1067.185639973512
 20
-76.92496759938052
 30
0.0
 11
1067.185639973512
 21
-74.67496759938052
 31
0.0
  0
CIRCLE
  5
B05
330
6B
100
AcDbEntity
  8
0
  6
Continuous
 62
     3
100
AcDbCircle
 10
1070.935639973512
 20
-74.67496759938052
 30
0.0
 40
1.0
  0
CIRCLE
  5
B06
330
6B
100
AcDbEntity
  8
0
  6
Continuous
 62
     3
100
AcDbCircle
 10
1063.435639973512
 20
-74.67496759938052
 30
0.0
 40
1.0
  0
LINE
  5
B07
330
6B
100
AcDbEntity
  8
0
  6
Continuous
 62
     3
100
AcDbLine
 10
1062.435639973512
 20
-74.67496759938052
 30
0.0
 11
1055.435639973512
 21
-74.67496759938052
 31
0.0
  0
CIRCLE
  5
B09
330
6B
100
AcDbEntity
  8
0
  6
Continuous
 62
     3
100
AcDbCircle
 10
1101.370707744417
 20
-74.67496759938052
 30
0.0
 40
1.625
  0
CIRCLE
  5
B0B
330
6B
100
AcDbEntity
  8
0
  6
Continuous
 62
     3
100
AcDbCircle
 10
1137.020707744417
 20
-97.01279803266201
 30
0.0
 40
1.625
  0
CIRCLE
  5
B0C
330
6B
100
AcDbEntity
  8
0
  6
Continuous
 62
     3
100
AcDbCircle
 10
1137.020707744417
 20
-127.512798032662
 30
0.0
 40
1.625
  0
CIRCLE
  5
B0D
330
6B
100
AcDbEntity
  8
0
  6
Continuous
 62
     3
100
AcDbCircle
 10
1101.370707744417
 20
-127.512798032662
 30
0.0
 40
1.625
  0
LINE
  5
B0F
330
6B
100
AcDbEntity
  8
0
  6
Continuous
 62
     3
100
AcDbLine
 10
1121.245707744417
 20
-127.6749675993804
 30
0.0
 11
1121.245707744418
 21
-139.9249675993805
 31
0.0
  0
LINE
  5
B10
330
6B
100
AcDbEntity
  8
0
  6
Continuous
 62
     3
100
AcDbLine
 10
1124.495707744418
 20
-139.9249675993805
 30
0.0
 11
1117.995707744418
 21
-139.9249675993805
 31
0.0
  0
LINE
  5
B11
330
6B
100
AcDbEntity
  8
0
  6
Continuous
 62
     3
100
AcDbLine
 10
1123.370707744418
 20
-141.1249675993805
 30
0.0
 11
1119.120707744418
 21
-141.1249675993805
 31
0.0
  0
LINE
  5
B12
330
6B
100
AcDbEntity
  8
0
  6
Continuous
 62
     3
100
AcDbLine
 10
1122.245707744418
 20
-142.3249675993805
 30
0.0
 11
1120.245707744418
 21
-142.3249675993805
 31
0.0
  0
CIRCLE
  5
B1A
330
6B
100
AcDbEntity
  8
0
  6
Continuous
 62
     3
100
AcDbCircle
 10
1172.370707744418
 20
-112.1749675993805
 30
0.0
 40
0.5
  0
LINE
  5
C54
330
6B
100
AcDbEntity
  8
0
  6
Continuous
 62
     3
100
AcDbLine
 10
1138.637595505405
 20
-97.1749675993805
 30
0.0
 11
1169.620707744417
 21
-97.1749675993805
 31
0.0
  0
LINE
  5
C57
102
{ACAD_REACTORS
330
D13
102
}
330
6B
100
AcDbEntity
  8
0
  6
Continuous
 62
     3
100
AcDbLine
 10
1135.40381998343
 20
-127.6749675993804
 30
0.0
 11
1102.987595505404
 21
-127.6749675993804
 31
0.0
  0
LINE
  5
C58
330
6B
100
AcDbEntity
  8
0
  6
Continuous
 62
     3
100
AcDbLine
 10
1099.75381998343
 20
-127.6749675993804
 30
0.0
 11
1055.435639973512
 21
-127.6749675993804
 31
0.0
  0
LINE
  5
C59
330
6B
100
AcDbEntity
  8
0
  6
Continuous
 62
     3
100
AcDbLine
 10
1172.120707744418
 20
-110.6749675993805
 30
0.0
 11
1167.120707744418
 21
-110.6749675993805
 31
0.0
  0
LINE
  5
C5A
330
6B
100
AcDbEntity
  8
0
  6
Continuous
 62
     3
100
AcDbLine
 10
1172.120707744418
 20
-113.6749675993805
 30
0.0
 11
1167.120707744418
 21
-113.6749675993805
 31
0.0
  0
LINE
  5
C5D
330
6B
100
AcDbEntity
  8
0
  6
Continuous
 62
     3
100
AcDbLine
 10
1169.620707744417
 20
-113.6749675993805
 30
0.0
 11
1169.620707744417
 21
-127.6749675993804
 31
0.0
  0
CIRCLE
  5
C5E
330
6B
100
AcDbEntity
  8
0
  6
Continuous
 62
     3
100
AcDbCircle
 10
1086.870707744418
 20
-74.67496759938052
 30
0.0
 40
0.2
  0
CIRCLE
  5
C5F
330
6B
100
AcDbEntity
  8
0
  6
Continuous
 62
     3
100
AcDbCircle
 10
1086.870707744418
 20
-127.6749675993804
 30
0.0
 40
0.2
  0
CIRCLE
  5
C60
330
6B
100
AcDbEntity
  8
0
  6
Continuous
 62
     3
100
AcDbCircle
 10
1121.245707744418
 20
-135.6749675993805
 30
0.0
 40
0.2
  0
LINE
  5
C61
330
6B
100
AcDbEntity
  8
0
  6
Continuous
 62
     3
100
AcDbLine
 10
1099.745707744418
 20
-74.67496759938052
 30
0.0
 11
1071.935639973512
 21
-74.67496759938052
 31
0.0
  0
LINE
  5
C62
330
6B
100
AcDbEntity
  8
0
  6
Continuous
 62
     3
100
AcDbLine
 10
1090.759795040944
 20
-96.78588030285466
 30
0.0
 11
1089.34558147857
 21
-98.20009386522768
 31
0.0
  0
LINE
  5
C63
330
6B
100
AcDbEntity
  8
0
  6
Continuous
 62
     3
100
AcDbLine
 10
1082.981620447892
 20
-96.78588030285451
 30
0.0
 11
1084.395834010265
 21
-98.20009386522759
 31
0.0
  0
LINE
  5
C65
330
6B
100
AcDbEntity
  8
0
  6
Continuous
 62
     3
100
AcDbLine
 10
1089.34558147857
 20
-103.1498413335334
 30
0.0
 11
1090.759795040944
 21
-104.5640548959066
 31
0.0
  0
LINE
  5
C66
330
6B
100
AcDbEntity
  8
0
  6
Continuous
 62
     3
100
AcDbLine
 10
1084.395834010265
 20
-103.1498413335335
 30
0.0
 11
1082.981620447892
 21
-104.5640548959067
 31
0.0
  0
TEXT
  5
C68
330
6B
100
AcDbEntity
  8
0
  6
Continuous
 62
     3
100
AcDbText
 10
1085.045733858862
 20
-101.9063091720054
 30
0.0
 40
2.5
  1
P.L
 41
0.8
  7
高2.5
100
AcDbText
  0
LINE
  5
C69
330
6B
100
AcDbEntity
  8
0
  6
Continuous
 62
     3
100
AcDbLine
 10
1086.870707744418
 20
-104.1749675993805
 30
0.0
 11
1086.870707744418
 21
-127.6749675993804
 31
0.0
  0
LINE
  5
C6E
330
6B
100
AcDbEntity
  8
0
 62
     3
100
AcDbLine
 10
1048.292179994231
 20
-212.3854658948085
 30
0.0
 11
1047.192179994232
 21
-212.3854658948085
 31
0.0
  0
LINE
  5
C6F
330
6B
100
AcDbEntity
  8
0
 62
     3
100
AcDbLine
 10
1048.292179994231
 20
-208.0354658948085
 30
0.0
 11
1047.192179994232
 21
-208.0354658948085
 31
0.0
  0
LINE
  5
C70
330
6B
100
AcDbEntity
  8
0
 62
     3
100
AcDbLine
 10
1054.642179994231
 20
-211.9604658948084
 30
0.0
 11
1053.542179994231
 21
-211.9604658948084
 31
0.0
  0
LINE
  5
C71
330
6B
100
AcDbEntity
  8
0
 62
     3
100
AcDbLine
 10
1054.642179994231
 20
-208.4604658948084
 30
0.0
 11
1053.542179994231
 21
-208.4604658948084
 31
0.0
  0
LINE
  5
C72
330
6B
100
AcDbEntity
  8
0
 62
     3
100
AcDbLine
 10
1047.192179994232
 20
-212.3854658948085
 30
0.0
 11
1047.192179994232
 21
-208.0354658948085
 31
0.0
  0
LINE
  5
C73
330
6B
100
AcDbEntity
  8
0
 62
     3
100
AcDbLine
 10
1048.292179994231
 20
-212.3854658948085
 30
0.0
 11
1048.292179994231
 21
-208.0354658948085
 31
0.0
  0
LINE
  5
C74
330
6B
100
AcDbEntity
  8
0
 62
     3
100
AcDbLine
 10
1054.642179994231
 20
-211.9604658948084
 30
0.0
 11
1054.642179994231
 21
-208.4604658948084
 31
0.0
  0
LINE
  5
C75
330
6B
100
AcDbEntity
  8
0
 62
     3
100
AcDbLine
 10
1053.542179994231
 20
-211.9604658948084
 30
0.0
 11
1053.542179994231
 21
-208.4604658948084
 31
0.0
  0
ARC
  5
C76
330
6B
100
AcDbEntity
  8
0
 62
     3
100
AcDbCircle
 10
1050.917179994231
 20
-216.1612759509599
 30
0.0
 40
1.35
100
AcDbArc
 50
0.0
 51
180.0
  0
LINE
  5
C77
330
6B
100
AcDbEntity
  8
0
 62
     3
100
AcDbLine
 10
1052.267179994231
 20
-217.5112759509599
 30
0.0
 11
1049.567179994232
 21
-217.5112759509599
 31
0.0
  0
LINE
  5
C78
330
6B
100
AcDbEntity
  8
0
 62
     3
100
AcDbLine
 10
1052.267179994231
 20
-216.1612759509599
 30
0.0
 11
1052.267179994231
 21
-217.5112759509599
 31
0.0
  0
LINE
  5
C79
330
6B
100
AcDbEntity
  8
0
 62
     3
100
AcDbLine
 10
1049.567179994232
 20
-216.1612759509599
 30
0.0
 11
1049.567179994232
 21
-217.5112759509599
 31
0.0
  0
LINE
  5
C7A
330
6B
100
AcDbEntity
  8
0
 62
     3
100
AcDbLine
 10
1048.292179994231
 20
-193.3854658948084
 30
0.0
 11
1047.192179994232
 21
-193.3854658948084
 31
0.0
  0
LINE
  5
C7B
330
6B
100
AcDbEntity
  8
0
 62
     3
100
AcDbLine
 10
1048.292179994231
 20
-189.0354658948084
 30
0.0
 11
1047.192179994232
 21
-189.0354658948084
 31
0.0
  0
LINE
  5
C7C
330
6B
100
AcDbEntity
  8
0
 62
     3
100
AcDbLine
 10
1054.642179994231
 20
-192.9604658948084
 30
0.0
 11
1053.542179994231
 21
-192.9604658948084
 31
0.0
  0
LINE
  5
C7D
330
6B
100
AcDbEntity
  8
0
 62
     3
100
AcDbLine
 10
1054.642179994231
 20
-189.4604658948084
 30
0.0
 11
1053.542179994231
 21
-189.4604658948084
 31
0.0
  0
LINE
  5
C7E
330
6B
100
AcDbEntity
  8
0
 62
     3
100
AcDbLine
 10
1047.192179994232
 20
-193.3854658948084
 30
0.0
 11
1047.192179994232
 21
-189.0354658948084
 31
0.0
  0
LINE
  5
C7F
330
6B
100
AcDbEntity
  8
0
 62
     3
100
AcDbLine
 10
1048.292179994231
 20
-193.3854658948084
 30
0.0
 11
1048.292179994231
 21
-189.0354658948084
 31
0.0
  0
LINE
  5
C80
330
6B
100
AcDbEntity
  8
0
 62
     3
100
AcDbLine
 10
1054.642179994231
 20
-192.9604658948084
 30
0.0
 11
1054.642179994231
 21
-189.4604658948084
 31
0.0
  0
LINE
  5
C81
330
6B
100
AcDbEntity
  8
0
 62
     3
100
AcDbLine
 10
1053.542179994231
 20
-192.9604658948084
 30
0.0
 11
1053.542179994231
 21
-189.4604658948084
 31
0.0
  0
ARC
  5
C82
330
6B
100
AcDbEntity
  8
0
 62
     3
100
AcDbCircle
 10
1050.917179994231
 20
-197.1612759509598
 30
0.0
 40
1.35
100
AcDbArc
 50
0.0
 51
180.0
  0
LINE
  5
C83
330
6B
100
AcDbEntity
  8
0
 62
     3
100
AcDbLine
 10
1052.267179994231
 20
-198.5112759509598
 30
0.0
 11
1049.567179994232
 21
-198.5112759509598
 31
0.0
  0
LINE
  5
C84
330
6B
100
AcDbEntity
  8
0
 62
     3
100
AcDbLine
 10
1052.267179994231
 20
-197.1612759509598
 30
0.0
 11
1052.267179994231
 21
-198.5112759509598
 31
0.0
  0
LINE
  5
C85
330
6B
100
AcDbEntity
  8
0
 62
     3
100
AcDbLine
 10
1049.567179994232
 20
-197.1612759509598
 30
0.0
 11
1049.567179994232
 21
-198.5112759509598
 31
0.0
  0
TEXT
  5
C86
330
6B
100
AcDbEntity
  8
0
  6
Continuous
 62
     3
100
AcDbText
 10
1027.380979057507
 20
-80.88262735113906
 30
0.0
 40
4.5
  1
結線図
  7
高4.5
100
AcDbText
  0
TEXT
  5
C87
330
6B
100
AcDbEntity
  8
0
  6
Continuous
 62
     3
100
AcDbText
 10
1031.811120690441
 20
-113.1715094799568
 30
0.0
 40
3.2
  1
入力
 41
0.8
  7
高3.2
100
AcDbText
  0
TEXT
  5
C88
330
6B
100
AcDbEntity
  8
0
  6
Continuous
 62
     3
100
AcDbText
 10
1032.135276998356
 20
-117.0591343930911
 30
0.0
 40
3.2
  1
50/60Hz
 41
0.8
  7
高3.2
100
AcDbText
  0
TEXT
  5
C8A
330
6B
100
AcDbEntity
  8
0
  6
Continuous
 62
     3
100
AcDbText
 10
1100.600399937667
 20
-124.4944894681564
 30
0.0
 40
3.2
  1
0
  7
高3.2
100
AcDbText
  0
TEXT
  5
C8B
330
6B
100
AcDbEntity
  8
0
  6
Continuous
 62
     3
100
AcDbText
 10
1136.250399937667
 20
-124.4944894681564
 30
0.0
 40
3.2
  1
0
  7
高3.2
100
AcDbText
  0
TEXT
  5
C8C
330
6B
100
AcDbEntity
  8
0
  6
Continuous
 62
     3
100
AcDbText
 10
1131.440168008707
 20
-112.181837807844
 30
0.0
 40
3.2
  1
1.5KVA
 41
0.8
  7
高3.2
100
AcDbText
  0
TEXT
  5
C8D
330
6B
100
AcDbEntity
  8
0
  6
Continuous
 62
     3
100
AcDbText
 10
1131.440168008707
 20
-93.55094072878825
 30
0.0
 40
3.2
  1
100V
 41
0.8
  7
高3.2
100
AcDbText
  0
TEXT
  5
C8E
330
6B
100
AcDbEntity
  8
0
  6
Continuous
 62
     3
100
AcDbText
 10
1172.507881743812
 20
-106.8592781922212
 30
0.0
 40
3.2
  1
出力コンセントx2
 41
0.8
  7
高3.2
100
AcDbText
  0
TEXT
  5
C8F
330
6B
100
AcDbEntity
  8
0
  6
Continuous
 62
     3
100
AcDbText
 10
1049.159389919575
 20
-68.2253762531177
 30
0.0
 40
3.2
  1
サーキットブレーカー
 41
0.8
  7
高3.2
100
AcDbText
  0
TEXT
  5
C90
330
6B
100
AcDbEntity
  8
0
  6
Continuous
 62
     3
100
AcDbText
 10
1064.576720450549
 20
-72.2361521171768
 30
0.0
 40
3.2
  1
15A
 41
0.8
  7
高3.2
100
AcDbText
  0
TEXT
  5
C91
330
6B
100
AcDbEntity
  8
0
  6
Continuous
 62
     3
100
AcDbText
 10
1090.663573760851
 20
-65.23569218577725
 30
0.0
 40
3.2
  1
(110～130V)
 41
0.8
  7
高3.2
100
AcDbText
  0
TEXT
  5
C92
330
6B
100
AcDbEntity
  8
0
  6
Continuous
 62
     3
100
AcDbText
 10
1097.342598501116
 20
-71.08530965318326
 30
0.0
 40
3.2
  1
120V
 41
0.8
  7
高3.2
100
AcDbText
  0
TEXT
  5
C93
330
6B
100
AcDbEntity
  8
0
  6
Continuous
 62
     3
100
AcDbText
 10
1120.152731370851
 20
-72.22688058851173
 30
0.0
 40
3.2
  1
T
  7
高3.2
100
AcDbText
  0
ARC
  5
C9A
330
6B
100
AcDbEntity
  8
0
  6
Continuous
 62
     3
100
AcDbCircle
 10
1227.284840661717
 20
-258.3876522983196
 30
0.0
 40
11.74999999999993
100
AcDbArc
 50
275.5907279484968
 51
294.335408879214
  0
LINE
  5
C9D
330
6B
100
AcDbEntity
  8
0
  6
Continuous
 62
     3
100
AcDbLine
 10
1230.902631634198
 20
-269.1047394100262
 30
0.0
 11
1232.126751622788
 21
-269.0936505350588
 31
0.0
  0
LINE
  5
C9E
330
6B
100
AcDbEntity
  8
0
  6
Continuous
 62
     3
100
AcDbLine
 10
1232.126751622788
 20
-269.0936505350588
 30
0.0
 11
1231.099999785087
 21
-270.0678063615625
 31
0.0
  0
HATCH
  5
D13
330
6B
100
AcDbEntity
  8
0
  6
Continuous
100
AcDbHatch
 10
0.0
 20
0.0
 30
0.0
210
0.0
220
0.0
230
1.0
  2
SOLID
 70
     1
 71
     1
 91
        1
 92
        7
 72
     0
 73
     1
 93
        4
 10
1114.120707744417
 20
-74.67496759938052
 10
1110.870707744418
 20
-74.67496759938052
 10
1110.870707744418
 20
-127.6749675993804
 10
1114.120707744417
 20
-127.6749675993804
 97
        4
330
AE2
330
AE6
330
C57
330
AE7
 75
     1
 76
     1
 47
0.3136918566902039
 98
        1
 10
1112.972687778563
 20
-98.86805448521954
1001
GradientColor1ACI
1070
     5
1001
GradientColor2ACI
1070
     2
1001
ACAD
1010
0.0
1020
0.0
1030
0.0
  0
LINE
  5
DCB
330
6B
100
AcDbEntity
  8
0
 62
     7
100
AcDbLine
 10
1281.06170158029
 20
-168.6604530671923
 30
0.0
 11
1356.96170158029
 21
-168.6604530671923
 31
0.0
  0
LINE
  5
DCC
330
6B
100
AcDbEntity
  8
0
 62
     7
100
AcDbLine
 10
1281.06170158029
 20
-163.1604530671923
 30
0.0
 11
1356.96170158029
 21
-163.1604530671923
 31
0.0
  0
LINE
  5
DCD
330
6B
100
AcDbEntity
  8
0
 62
     7
100
AcDbLine
 10
1281.06170158029
 20
-157.6604530671923
 30
0.0
 11
1356.96170158029
 21
-157.6604530671923
 31
0.0
  0
LINE
  5
DCE
330
6B
100
AcDbEntity
  8
0
 62
     7
100
AcDbLine
 10
1281.06170158029
 20
-152.1604530671923
 30
0.0
 11
1356.96170158029
 21
-152.1604530671923
 31
0.0
  0
LINE
  5
DCF
330
6B
100
AcDbEntity
  8
0
 62
     7
100
AcDbLine
 10
1281.06170158029
 20
-146.6604530671923
 30
0.0
 11
1356.96170158029
 21
-146.6604530671923
 31
0.0
  0
LINE
  5
DD0
330
6B
100
AcDbEntity
  8
0
 62
     7
100
AcDbLine
 10
1281.06170158029
 20
-141.1604530671923
 30
0.0
 11
1356.96170158029
 21
-141.1604530671923
 31
0.0
  0
LINE
  5
DD1
330
6B
100
AcDbEntity
  8
0
 62
     7
100
AcDbLine
 10
1281.06170158029
 20
-135.6604530671923
 30
0.0
 11
1356.96170158029
 21
-135.6604530671923
 31
0.0
  0
LINE
  5
DD2
330
6B
100
AcDbEntity
  8
0
 62
     7
100
AcDbLine
 10
1281.06170158029
 20
-130.1604530671923
 30
0.0
 11
1356.96170158029
 21
-130.1604530671923
 31
0.0
  0
TEXT
  5
DD3
330
6B
100
AcDbEntity
  8
0
 62
     3
100
AcDbText
 10
1307.489797153054
 20
-173.1604530671923
 30
0.0
 40
3.2
  1
約6.2kg
  7
高3.2
100
AcDbText
  0
TEXT
  5
DD4
330
6B
100
AcDbEntity
  8
0
 62
     3
100
AcDbText
 10
1282.56170158029
 20
-173.1604530671923
 30
0.0
 40
3.2
  1
質量
 41
0.8
  7
高3.2
100
AcDbText
  0
TEXT
  5
DD5
330
6B
100
AcDbEntity
  8
0
 62
     3
100
AcDbText
 10
1282.56170158029
 20
-167.6604530671923
 30
0.0
 40
3.2
  1
出力コンセント
 41
0.8
  7
高3.2
100
AcDbText
  0
TEXT
  5
DD6
330
6B
100
AcDbEntity
  8
0
 62
     3
100
AcDbText
 10
1282.56170158029
 20
-162.1604530671923
 30
0.0
 40
3.2
  1
入力プラグ形状
 41
0.8
  7
高3.2
100
AcDbText
  0
TEXT
  5
DD7
330
6B
100
AcDbEntity
  8
0
 62
     3
100
AcDbText
 10
1282.56170158029
 20
-156.6604530671923
 30
0.0
 40
3.2
  1
入力保護装置
 41
0.8
  7
高3.2
100
AcDbText
  0
TEXT
  5
DD8
330
6B
100
AcDbEntity
  8
0
 62
     3
100
AcDbText
 10
1282.56170158029
 20
-151.1604530671923
 30
0.0
 40
3.2
  1
動作温度
 41
0.8
  7
高3.2
100
AcDbText
  0
TEXT
  5
DD9
330
6B
100
AcDbEntity
  8
0
 62
     3
100
AcDbText
 10
1282.56170158029
 20
-145.6604530671923
 30
0.0
 40
3.2
  1
絶縁抵抗
 41
0.8
  7
高3.2
100
AcDbText
  0
TEXT
  5
DDA
330
6B
100
AcDbEntity
  8
0
 62
     3
100
AcDbText
 10
1282.56170158029
 20
-140.1604530671923
 30
0.0
 40
3.2
  1
耐圧試験
 41
0.8
  7
高3.2
100
AcDbText
  0
TEXT
  5
DDB
330
6B
100
AcDbEntity
  8
0
 62
     3
100
AcDbText
 10
1282.56170158029
 20
-134.6604530671923
 30
0.0
 40
3.2
  1
絶縁種別
 41
0.8
  7
高3.2
100
AcDbText
  0
TEXT
  5
DDC
330
6B
100
AcDbEntity
  8
0
 62
     3
100
AcDbText
 10
1282.56170158029
 20
-123.6604530671923
 30
0.0
 40
3.2
  1
容量
 41
0.8
  7
高3.2
100
AcDbText
  0
TEXT
  5
DDD
330
6B
100
AcDbEntity
  8
0
 62
     3
100
AcDbText
 10
1282.56170158029
 20
-118.1604530671923
 30
0.0
 40
3.2
  1
出力電圧
 41
0.8
  7
高3.2
100
AcDbText
  0
TEXT
  5
DDE
330
6B
100
AcDbEntity
  8
0
 62
     3
100
AcDbText
 10
1282.56170158029
 20
-112.6604530671923
 30
0.0
 40
3.2
  1
入力電圧
 41
0.8
  7
高3.2
100
AcDbText
  0
TEXT
  5
DDF
330
6B
100
AcDbEntity
  8
0
 62
     3
100
AcDbText
 10
1282.56170158029
 20
-107.1604530671923
 30
0.0
 40
3.2
  1
周波数
 41
0.8
  7
高3.2
100
AcDbText
  0
TEXT
  5
DE0
330
6B
100
AcDbEntity
  8
0
 62
     3
100
AcDbText
 10
1282.56170158029
 20
-129.1604530671923
 30
0.0
 40
3.2
  1
定格
 41
0.8
  7
高3.2
100
AcDbText
  0
LINE
  5
DE1
330
6B
100
AcDbEntity
  8
0
 62
     7
100
AcDbLine
 10
1281.06170158029
 20
-124.6604530671923
 30
0.0
 11
1356.96170158029
 21
-124.6604530671923
 31
0.0
  0
LINE
  5
DE2
330
6B
100
AcDbEntity
  8
0
 62
     7
100
AcDbLine
 10
1281.06170158029
 20
-119.1604530671923
 30
0.0
 11
1356.96170158029
 21
-119.1604530671923
 31
0.0
  0
LINE
  5
DE3
330
6B
100
AcDbEntity
  8
0
 62
     7
100
AcDbLine
 10
1281.06170158029
 20
-113.6604530671923
 30
0.0
 11
1356.96170158029
 21
-113.6604530671923
 31
0.0
  0
LINE
  5
DE4
330
6B
100
AcDbEntity
  8
0
 62
     7
100
AcDbLine
 10
1281.06170158029
 20
-108.1604530671923
 30
0.0
 11
1356.96170158029
 21
-108.1604530671923
 31
0.0
  0
LINE
  5
DE5
330
6B
100
AcDbEntity
  8
0
 62
     7
100
AcDbLine
 10
1281.06170158029
 20
-102.6604530671923
 30
0.0
 11
1356.96170158029
 21
-102.6604530671923
 31
0.0
  0
TEXT
  5
DE6
330
6B
100
AcDbEntity
  8
0
 62
     3
100
AcDbText
 10
1282.56170158029
 20
-101.6604530671923
 30
0.0
 40
3.2
  1
相数
 41
0.8
  7
高3.2
100
AcDbText
  0
LINE
  5
DE7
330
6B
100
AcDbEntity
  8
0
 62
     7
100
AcDbLine
 10
1281.06170158029
 20
-97.1604530671923
 30
0.0
 11
1356.96170158029
 21
-97.1604530671923
 31
0.0
  0
LINE
  5
DE8
330
6B
100
AcDbEntity
  8
0
 62
     3
100
AcDbLine
 10
1281.06170158029
 20
-174.1604530671923
 30
0.0
 11
1356.96170158029
 21
-174.1604530671923
 31
0.0
  0
TEXT
  5
DE9
330
6B
100
AcDbEntity
  8
0
 62
     3
100
AcDbText
 10
1307.489797153054
 20
-101.6604530671923
 30
0.0
 40
3.2
  1
単相　単巻
  7
高3.2
100
AcDbText
  0
TEXT
  5
DEA
330
6B
100
AcDbEntity
  8
0
 62
     3
100
AcDbText
 10
1307.489797153054
 20
-107.1604530671923
 30
0.0
 40
3.2
  1
50/60Hz
  7
高3.2
100
AcDbText
  0
TEXT
  5
DEB
330
6B
100
AcDbEntity
  8
0
 62
     3
100
AcDbText
 10
1307.489797153054
 20
-112.6604530671923
 30
0.0
 40
3.2
  1
AC120V(110～130V)
  7
高3.2
100
AcDbText
  0
TEXT
  5
DEC
330
6B
100
AcDbEntity
  8
0
 62
     3
100
AcDbText
 10
1307.489797153054
 20
-118.1604530671923
 30
0.0
 40
3.2
  1
AC100V
  7
高3.2
100
AcDbText
  0
TEXT
  5
DED
330
6B
100
AcDbEntity
  8
0
 62
     3
100
AcDbText
 10
1307.489797153054
 20
-123.6604530671923
 30
0.0
 40
3.2
  1
1.5KVA
  7
高3.2
100
AcDbText
  0
TEXT
  5
DEE
330
6B
100
AcDbEntity
  8
0
 62
     3
100
AcDbText
 10
1307.489797153054
 20
-129.1604530671923
 30
0.0
 40
3.2
  1
連続
  7
高3.2
100
AcDbText
  0
TEXT
  5
DEF
330
6B
100
AcDbEntity
  8
0
 62
     3
100
AcDbText
 10
1307.489797153054
 20
-134.6604530671923
 30
0.0
 40
3.2
  1
A種
  7
高3.2
100
AcDbText
  0
TEXT
  5
DF0
330
6B
100
AcDbEntity
  8
0
 62
     3
100
AcDbText
 10
1307.489797153054
 20
-140.1604530671923
 30
0.0
 40
3.2
  1
AC2000V　1分間
  7
高3.2
100
AcDbText
  0
TEXT
  5
DF1
330
6B
100
AcDbEntity
  8
0
 62
     3
100
AcDbText
 10
1307.489797153054
 20
-145.6604530671923
 30
0.0
 40
3.2
  1
DC500V　100M\U+03A9以上(入･出力ケース間)
 41
0.6
  7
高3.2
100
AcDbText
  0
TEXT
  5
DF2
330
6B
100
AcDbEntity
  8
0
 62
     3
100
AcDbText
 10
1307.489797153054
 20
-151.1604530671923
 30
0.0
 40
3.2
  1
0～40℃
  7
高3.2
100
AcDbText
  0
TEXT
  5
DF3
330
6B
100
AcDbEntity
  8
0
 62
     3
100
AcDbText
 10
1307.489797153054
 20
-156.6604530671923
 30
0.0
 40
3.2
  1
サーキットプロテクター15A付
 41
0.8
  7
高3.2
100
AcDbText
  0
TEXT
  5
DF4
330
6B
100
AcDbEntity
  8
0
 62
     3
100
AcDbText
 10
1307.489797153054
 20
-162.1604530671923
 30
0.0
 40
3.2
  1
E付平ピン(A2)
  7
高3.2
100
AcDbText
  0
TEXT
  5
DF5
330
6B
100
AcDbEntity
  8
0
 62
     3
100
AcDbText
 10
1307.489797153054
 20
-167.6604530671923
 30
0.0
 40
3.2
  1
E付平ピン(A2)
 41
0.8
  7
高3.2
100
AcDbText
  0
LINE
  5
DF6
330
6B
100
AcDbEntity
  8
0
 62
     3
100
AcDbLine
 10
1281.06170158029
 20
-91.6604530671923
 30
0.0
 11
1281.06170158029
 21
-174.1604530671923
 31
0.0
  0
LINE
  5
DF7
330
6B
100
AcDbEntity
  8
0
 62
     7
100
AcDbLine
 10
1305.989797153054
 20
-174.1604530671923
 30
0.0
 11
1305.989797153054
 21
-91.6604530671923
 31
0.0
  0
LINE
  5
DF8
330
6B
100
AcDbEntity
  8
0
 62
     3
100
AcDbLine
 10
1356.96170158029
 20
-174.1604530671923
 30
0.0
 11
1356.961701580291
 21
-91.6604530671923
 31
0.0
  0
TEXT
  5
DF9
330
6B
100
AcDbEntity
  8
0
 62
     3
100
AcDbText
 10
1300.230079062421
 20
-86.92664119016241
 30
0.0
 40
4.5
  1
主　　仕　　様
  7
高4.5
100
AcDbText
  0
LINE
  5
DFA
330
6B
100
AcDbEntity
  8
0
100
AcDbLine
 10
1299.129164694665
 20
-87.79239427400511
 30
0.0
 11
1337.721384974353
 21
-87.79239427400511
 31
0.0
  0
TEXT
  5
DFB
330
6B
100
AcDbEntity
  8
0
 62
     3
100
AcDbText
 10
1282.56170158029
 20
-96.16045306719229
 30
0.0
 40
3.2
  1
型式
 41
0.8
  7
高3.2
100
AcDbText
  0
LINE
  5
DFC
330
6B
100
AcDbEntity
  8
0
 62
     3
100
AcDbLine
 10
1281.06170158029
 20
-91.6604530671923
 30
0.0
 11
1356.96170158029
 21
-91.6604530671923
 31
0.0
  0
TEXT
  5
DFD
330
6B
100
AcDbEntity
  8
0
 62
     3
100
AcDbText
 10
1307.489797153054
 20
-96.16045306719229
 30
0.0
 40
3.2
  1
PAL-1500AP
  7
高3.2
100
AcDbText
  0
TEXT
  5
DFE
330
6B
100
AcDbEntity
  8
0
  6
Continuous
100
AcDbText
 10
1299.926983
 20
-63.187309
 30
0.0
 40
2.5
  1
'17.07.24
  7
高2.5
100
AcDbText
  0
TEXT
  5
DFF
330
6B
100
AcDbEntity
  8
0
  6
Continuous
100
AcDbText
 10
1317.926983
 20
-63.187309
 30
0.0
 40
2.5
  1
図面修正
  7
高2.5
100
AcDbText
  0
TEXT
  5
E00
330
6B
100
AcDbEntity
  8
0
  6
Continuous
100
AcDbText
 10
1361.926983
 20
-63.187309
 30
0.0
 40
2.5
  1
今村
  7
高2.5
100
AcDbText
  0
LINE
  5
E03
330
6B
100
AcDbEntity
  8
0
  6
Continuous
 62
     3
100
AcDbLine
 10
1233.484840661717
 20
-231.9168357708245
 30
0.0
 11
1233.484840661717
 21
-237.8876522983196
 31
0.0
  0
LINE
  5
E04
330
6B
100
AcDbEntity
  8
0
  6
Continuous
 62
     3
100
AcDbLine
 10
1230.984840661717
 20
-231.9168357708245
 30
0.0
 11
1230.984840661717
 21
-237.8876522983196
 31
0.0
  0
ARC
  5
E06
330
6B
100
AcDbEntity
  8
0
  6
Continuous
100
AcDbCircle
 10
1232.859840661717
 20
-229.4948946426909
 30
0.0
 40
0.9062499999998353
100
AcDbArc
 50
226.3971810272877
 51
313.6028189727135
  0
ARC
  5
E07
330
6B
100
AcDbEntity
  8
0
  6
Continuous
100
AcDbCircle
 10
1232.859840661717
 20
-230.8073946426905
 30
0.0
 40
0.9062499999998353
100
AcDbArc
 50
46.39718102728646
 51
133.6028189727129
  0
ARC
  5
E08
330
6B
100
AcDbEntity
  8
0
  6
Continuous
100
AcDbCircle
 10
1231.609840661717
 20
-229.4948946426909
 30
0.0
 40
0.9062499999998353
100
AcDbArc
 50
226.3971810272852
 51
313.6028189727148
  0
ARC
  5
E0E
330
6B
100
AcDbEntity
  8
0
  6
Continuous
100
AcDbCircle
 10
1231.609840661717
 20
-232.5730857708246
 30
0.0
 40
0.9062500000000618
100
AcDbArc
 50
46.39718102729759
 51
133.6028189726998
  0
ARC
  5
E0F
330
6B
100
AcDbEntity
  8
0
  6
Continuous
100
AcDbCircle
 10
1231.609840661717
 20
-231.2605857708244
 30
0.0
 40
0.9062500000000618
100
AcDbArc
 50
226.3971810272954
 51
313.6028189726982
  0
ARC
  5
E10
330
6B
100
AcDbEntity
  8
0
  6
Continuous
100
AcDbCircle
 10
1232.859840661717
 20
-232.5730857708246
 30
0.0
 40
0.9062500000000618
100
AcDbArc
 50
46.39718102728963
 51
133.6028189727081
  0
LINE
  5
E11
330
6B
100
AcDbEntity
  8
0
  6
Continuous
100
AcDbLine
 10
1222.740205953423
 20
-215.9604658948086
 30
0.0
 11
1222.740205953423
 21
-209.9065893572863
 31
0.0
  0
LINE
  5
E16
330
6B
100
AcDbEntity
  8
0
  6
Continuous
100
AcDbLine
 10
1232.234840661717
 20
-268.1376522983196
 30
0.0
 11
1246.857683435042
 21
-268.1376522983196
 31
0.0
  0
LINE
  5
E17
330
6B
100
AcDbEntity
  8
0
  6
Continuous
100
AcDbLine
 10
1239.546262048379
 20
-217.9335276260474
 30
0.0
 11
1239.546262048379
 21
-268.1376522983196
 31
0.0
  0
LINE
  5
E18
330
6B
100
AcDbEntity
  8
0
  6
Continuous
100
AcDbLine
 10
1234.546262048379
 20
-212.9335276260474
 30
0.0
 11
1222.740205953423
 21
-212.9335276260474
 31
0.0
  0
LINE
  5
E20
330
6B
100
AcDbEntity
  8
0
  6
Continuous
100
AcDbLine
 10
1240.246262048379
 20
-265.4376522983196
 30
0.0
 11
1239.546262048379
 21
-268.1376522983196
 31
0.0
  0
LINE
  5
E21
330
6B
100
AcDbEntity
  8
0
  6
Continuous
100
AcDbLine
 10
1239.546262048379
 20
-268.1376522983196
 30
0.0
 11
1238.846262048379
 21
-265.4376522983196
 31
0.0
  0
LINE
  5
E22
330
6B
100
AcDbEntity
  8
0
  6
Continuous
100
AcDbLine
 10
1225.440205953423
 20
-212.2335276260474
 30
0.0
 11
1222.740205953423
 21
-212.9335276260474
 31
0.0
  0
LINE
  5
E23
330
6B
100
AcDbEntity
  8
0
  6
Continuous
100
AcDbLine
 10
1222.740205953423
 20
-212.9335276260474
 30
0.0
 11
1225.440205953423
 21
-213.6335276260474
 31
0.0
  0
ARC
  5
E24
330
6B
100
AcDbEntity
  8
0
  6
Continuous
100
AcDbCircle
 10
1234.546262048379
 20
-217.9335276260475
 30
0.0
 40
5.0
100
AcDbArc
 50
0.0000000000013028
 51
89.99999999999479
  0
TEXT
  5
E25
330
6B
100
AcDbEntity
  8
0
  6
Continuous
 62
     4
100
AcDbText
 10
1241.369285599299
 20
-235.613196271076
 30
0.0
 40
3.2
  1
1300\U+00B1100
 50
270.0
  7
高3.2
100
AcDbText
  0
LINE
  5
E71
330
6B
100
AcDbEntity
  8
0
  6
Continuous
100
AcDbLine
 10
1220.740205953422
 20
-227.7104658948085
 30
0.0
 11
1220.740205953422
 21
-245.4828987493736
 31
0.0
  0
LINE
  5
E72
330
6B
100
AcDbEntity
  8
0
  6
Continuous
100
AcDbLine
 10
1123.240205953422
 20
-227.7104658948085
 30
0.0
 11
1123.240205953422
 21
-245.4828987493736
 31
0.0
  0
LINE
  5
E73
330
6B
100
AcDbEntity
  8
0
  6
Continuous
100
AcDbLine
 10
1218.240205953422
 20
-244.2328987493736
 30
0.0
 11
1125.740205953422
 21
-244.2328987493736
 31
0.0
  0
LINE
  5
E77
330
6B
100
AcDbEntity
  8
0
  6
Continuous
100
AcDbLine
 10
1033.417179994231
 20
-223.7104658948084
 30
0.0
 11
1033.417179994231
 21
-246.2760252052405
 31
0.0
  0
LINE
  5
E78
330
6B
100
AcDbEntity
  8
0
  6
Continuous
100
AcDbLine
 10
1098.417179994231
 20
-223.7104658948084
 30
0.0
 11
1098.417179994231
 21
-246.2760252052405
 31
0.0
  0
LINE
  5
E79
330
6B
100
AcDbEntity
  8
0
  6
Continuous
100
AcDbLine
 10
1035.917179994231
 20
-245.0260252052406
 30
0.0
 11
1095.917179994231
 21
-245.0260252052406
 31
0.0
  0
LINE
  5
E7D
330
6B
100
AcDbEntity
  8
0
  6
Continuous
100
AcDbLine
 10
1062.167179994232
 20
-163.9604658948084
 30
0.0
 11
1006.10892796585
 21
-163.9604658948084
 31
0.0
  0
LINE
  5
E7E
330
6B
100
AcDbEntity
  8
0
  6
Continuous
100
AcDbLine
 10
1040.167179994231
 20
-231.4604658948084
 30
0.0
 11
1006.10892796585
 21
-231.4604658948084
 31
0.0
  0
LINE
  5
E7F
330
6B
100
AcDbEntity
  8
0
  6
Continuous
100
AcDbLine
 10
1007.35892796585
 20
-166.4604658948085
 30
0.0
 11
1007.35892796585
 21
-228.9604658948084
 31
0.0
  0
LINE
  5
E85
330
6B
100
AcDbEntity
  8
0
  6
Continuous
100
AcDbLine
 10
1041.694260869997
 20
-192.3165119765439
 30
0.0
 11
1025.856981387449
 21
-184.1663648473941
 31
0.0
1001
ACAD
1000
DSTYLE
1002
{
1070
   147
1040
0.625
1070
    77
1070
     0
1002
}
  0
LINE
  5
E86
330
6B
100
AcDbEntity
  8
0
  6
ByBlock
 62
     0
370
    -2
100
AcDbLine
 10
1042.000782178442
 20
-191.7208830201244
 30
0.0
 11
1043.917179994231
 21
-193.4604658948084
 31
0.0
  0
LINE
  5
E87
330
6B
100
AcDbEntity
  8
0
  6
ByBlock
 62
     0
370
    -2
100
AcDbLine
 10
1043.917179994231
 20
-193.4604658948084
 30
0.0
 11
1041.387739561552
 21
-192.9121409329633
 31
0.0
  0
LINE
  5
E88
330
6B
100
AcDbEntity
  8
0
  6
ByBlock
 62
     0
370
    -2
100
AcDbLine
 10
1043.917179994231
 20
-193.4604658948084
 30
0.0
 11
1041.694260869997
 21
-192.3165119765439
 31
0.0
  0
LINE
  5
E89
330
6B
100
AcDbEntity
  8
0
  6
Continuous
100
AcDbLine
 10
1228.983768830193
 20
-215.6060073896594
 30
0.0
 11
1232.024733804068
 21
-205.257762939355
 31
0.0
1001
ACAD
1000
DSTYLE
1002
{
1070
   147
1040
0.625
1070
    77
1070
     0
1002
}
  0
LINE
  5
E8A
330
6B
100
AcDbEntity
  8
0
  6
ByBlock
 62
     0
370
    -2
100
AcDbLine
 10
1229.6264657025
 20
-215.7948721470479
 30
0.0
 11
1228.278915453661
 21
-218.0045864935438
 31
0.0
  0
LINE
  5
E8B
330
6B
100
AcDbEntity
  8
0
  6
ByBlock
 62
     0
370
    -2
100
AcDbLine
 10
1228.278915453661
 20
-218.0045864935438
 30
0.0
 11
1228.341071957887
 21
-215.4171426322709
 31
0.0
  0
LINE
  5
E8C
330
6B
100
AcDbEntity
  8
0
  6
ByBlock
 62
     0
370
    -2
100
AcDbLine
 10
1228.278915453661
 20
-218.0045864935438
 30
0.0
 11
1228.983768830193
 21
-215.6060073896594
 31
0.0
  0
LINE
  5
E8D
330
6B
100
AcDbEntity
  8
0
  6
Continuous
100
AcDbLine
 10
1092.555686393505
 20
-217.1394588938392
 30
0.0
 11
1105.137897561529
 21
-224.8776400119024
 31
0.0
1001
ACAD
1000
DSTYLE
1002
{
1070
   147
1040
0.625
1070
    77
1070
     0
1002
}
  0
LINE
  5
E8E
330
6B
100
AcDbEntity
  8
0
  6
ByBlock
 62
     0
370
    -2
100
AcDbLine
 10
1092.20476314514
 20
-217.7100568608989
 30
0.0
 11
1090.426184260414
 21
-215.8297945608289
 31
0.0
  0
LINE
  5
E8F
330
6B
100
AcDbEntity
  8
0
  6
ByBlock
 62
     0
370
    -2
100
AcDbLine
 10
1090.426184260414
 20
-215.8297945608289
 30
0.0
 11
1092.906609641871
 21
-216.5688609267795
 31
0.0
  0
LINE
  5
E90
330
6B
100
AcDbEntity
  8
0
  6
ByBlock
 62
     0
370
    -2
100
AcDbLine
 10
1090.426184260414
 20
-215.8297945608289
 30
0.0
 11
1092.555686393505
 21
-217.1394588938392
 31
0.0
  0
LINE
  5
E91
330
6B
100
AcDbEntity
  8
0
  6
Continuous
100
AcDbLine
 10
1093.845799166822
 20
-230.6866871231433
 30
0.0
 11
1105.039663482529
 21
-236.987078776585
 31
0.0
1001
ACAD
1000
DSTYLE
1002
{
1070
   147
1040
0.625
1070
    77
1070
     0
1002
}
  0
LINE
  5
E92
330
6B
100
AcDbEntity
  8
0
  6
ByBlock
 62
     0
370
    -2
100
AcDbLine
 10
1093.517234414911
 20
-231.2704459518199
 30
0.0
 11
1091.667179994232
 21
-229.4604658948085
 31
0.0
  0
LINE
  5
E93
330
6B
100
AcDbEntity
  8
0
  6
ByBlock
 62
     0
370
    -2
100
AcDbLine
 10
1091.667179994232
 20
-229.4604658948085
 30
0.0
 11
1094.174363918734
 21
-230.1029282944667
 31
0.0
  0
LINE
  5
E94
330
6B
100
AcDbEntity
  8
0
  6
ByBlock
 62
     0
370
    -2
100
AcDbLine
 10
1091.667179994232
 20
-229.4604658948085
 30
0.0
 11
1093.845799166822
 21
-230.6866871231433
 31
0.0
  0
LINE
  5
E95
330
6B
100
AcDbEntity
  8
0
  6
Continuous
100
AcDbLine
 10
1215.728483866234
 20
-176.0400363712217
 30
0.0
 11
1229.306823700152
 21
-166.7572227709004
 31
0.0
1001
ACAD
1000
DSTYLE
1002
{
1070
   341
1005
D00
1070
   147
1040
0.625
1070
    77
1070
     0
1002
}
  0
TEXT
  5
E97
330
6B
100
AcDbEntity
  8
0
  6
Continuous
 62
     4
100
AcDbText
 10
1166.414325406855
 20
-243.6078987493736
 30
0.0
 40
3.0
  1
195
100
AcDbText
  0
LINE
  5
E98
330
6B
100
AcDbEntity
  8
0
  6
ByBlock
 62
     0
370
    -2
100
AcDbLine
 10
1125.740205953422
 20
-244.9027712493736
 30
0.0
 11
1123.240205953422
 21
-244.2328987493736
 31
0.0
  0
LINE
  5
E99
330
6B
100
AcDbEntity
  8
0
  6
ByBlock
 62
     0
370
    -2
100
AcDbLine
 10
1123.240205953422
 20
-244.2328987493736
 30
0.0
 11
1125.740205953422
 21
-243.5630262493736
 31
0.0
  0
LINE
  5
E9A
330
6B
100
AcDbEntity
  8
0
  6
ByBlock
 62
     0
370
    -2
100
AcDbLine
 10
1123.240205953422
 20
-244.2328987493736
 30
0.0
 11
1125.740205953422
 21
-244.2328987493736
 31
0.0
  0
LINE
  5
E9B
330
6B
100
AcDbEntity
  8
0
  6
ByBlock
 62
     0
370
    -2
100
AcDbLine
 10
1218.240205953422
 20
-243.5630262493736
 30
0.0
 11
1220.740205953422
 21
-244.2328987493736
 31
0.0
  0
LINE
  5
E9C
330
6B
100
AcDbEntity
  8
0
  6
ByBlock
 62
     0
370
    -2
100
AcDbLine
 10
1220.740205953422
 20
-244.2328987493736
 30
0.0
 11
1218.240205953422
 21
-244.9027712493736
 31
0.0
  0
LINE
  5
E9D
330
6B
100
AcDbEntity
  8
0
  6
ByBlock
 62
     0
370
    -2
100
AcDbLine
 10
1220.740205953422
 20
-244.2328987493736
 30
0.0
 11
1218.240205953422
 21
-244.2328987493736
 31
0.0
  0
TEXT
  5
E9E
330
6B
100
AcDbEntity
  8
0
  6
Continuous
 62
     4
100
AcDbText
 10
1061.298778338143
 20
-244.4010252052406
 30
0.0
 40
3.0
  1
130
100
AcDbText
  0
LINE
  5
E9F
330
6B
100
AcDbEntity
  8
0
  6
ByBlock
 62
     0
370
    -2
100
AcDbLine
 10
1095.917179994231
 20
-244.3561527052406
 30
0.0
 11
1098.417179994231
 21
-245.0260252052406
 31
0.0
  0
LINE
  5
EA0
330
6B
100
AcDbEntity
  8
0
  6
ByBlock
 62
     0
370
    -2
100
AcDbLine
 10
1098.417179994231
 20
-245.0260252052406
 30
0.0
 11
1095.917179994231
 21
-245.6958977052405
 31
0.0
  0
LINE
  5
EA1
330
6B
100
AcDbEntity
  8
0
  6
ByBlock
 62
     0
370
    -2
100
AcDbLine
 10
1098.417179994231
 20
-245.0260252052406
 30
0.0
 11
1095.917179994231
 21
-245.0260252052406
 31
0.0
  0
LINE
  5
EA2
330
6B
100
AcDbEntity
  8
0
  6
ByBlock
 62
     0
370
    -2
100
AcDbLine
 10
1035.917179994231
 20
-245.6958977052405
 30
0.0
 11
1033.417179994231
 21
-245.0260252052406
 31
0.0
  0
LINE
  5
EA3
330
6B
100
AcDbEntity
  8
0
  6
ByBlock
 62
     0
370
    -2
100
AcDbLine
 10
1033.417179994231
 20
-245.0260252052406
 30
0.0
 11
1035.917179994231
 21
-244.3561527052406
 31
0.0
  0
LINE
  5
EA4
330
6B
100
AcDbEntity
  8
0
  6
ByBlock
 62
     0
370
    -2
100
AcDbLine
 10
1033.417179994231
 20
-245.0260252052406
 30
0.0
 11
1035.917179994231
 21
-245.0260252052406
 31
0.0
  0
TEXT
  5
EA5
330
6B
100
AcDbEntity
  8
0
  6
Continuous
 62
     4
100
AcDbText
 10
1006.73392796585
 20
-207.2525548676654
 30
0.0
 40
3.0
  1
135MAX
 50
90.0
100
AcDbText
  0
LINE
  5
EA6
330
6B
100
AcDbEntity
  8
0
  6
ByBlock
 62
     0
370
    -2
100
AcDbLine
 10
1008.02880046585
 20
-228.9604658948084
 30
0.0
 11
1007.35892796585
 21
-231.4604658948084
 31
0.0
  0
LINE
  5
EA7
330
6B
100
AcDbEntity
  8
0
  6
ByBlock
 62
     0
370
    -2
100
AcDbLine
 10
1007.35892796585
 20
-231.4604658948084
 30
0.0
 11
1006.68905546585
 21
-228.9604658948084
 31
0.0
  0
LINE
  5
EA8
330
6B
100
AcDbEntity
  8
0
  6
ByBlock
 62
     0
370
    -2
100
AcDbLine
 10
1007.35892796585
 20
-231.4604658948084
 30
0.0
 11
1007.35892796585
 21
-228.9604658948084
 31
0.0
  0
LINE
  5
EA9
330
6B
100
AcDbEntity
  8
0
  6
ByBlock
 62
     0
370
    -2
100
AcDbLine
 10
1006.68905546585
 20
-166.4604658948085
 30
0.0
 11
1007.35892796585
 21
-163.9604658948084
 31
0.0
  0
LINE
  5
EAA
330
6B
100
AcDbEntity
  8
0
  6
ByBlock
 62
     0
370
    -2
100
AcDbLine
 10
1007.35892796585
 20
-163.9604658948084
 30
0.0
 11
1008.02880046585
 21
-166.4604658948085
 31
0.0
  0
LINE
  5
EAB
330
6B
100
AcDbEntity
  8
0
  6
ByBlock
 62
     0
370
    -2
100
AcDbLine
 10
1007.35892796585
 20
-163.9604658948084
 30
0.0
 11
1007.35892796585
 21
-166.4604658948085
 31
0.0
  0
LINE
  5
EAC
330
6B
100
AcDbEntity
  8
0
  6
Continuous
100
AcDbLine
 10
1089.741935114003
 20
-175.2100802740039
 30
0.0
 11
1105.059806758443
 21
-166.4232750592599
 31
0.0
1001
ACAD
1000
DSTYLE
1002
{
1070
   147
1040
0.625
1070
    77
1070
     0
1002
}
  0
LINE
  5
EAD
330
6B
100
AcDbEntity
  8
0
  6
ByBlock
 62
     0
370
    -2
100
AcDbLine
 10
1090.0752491942
 20
-175.7911404173617
 30
0.0
 11
1087.573387579369
 21
-176.4540262495313
 31
0.0
  0
LINE
  5
EAE
330
6B
100
AcDbEntity
  8
0
  6
ByBlock
 62
     0
370
    -2
100
AcDbLine
 10
1087.573387579369
 20
-176.4540262495313
 30
0.0
 11
1089.408621033807
 21
-174.6290201306461
 31
0.0
  0
LINE
  5
EAF
330
6B
100
AcDbEntity
  8
0
  6
ByBlock
 62
     0
370
    -2
100
AcDbLine
 10
1087.573387579369
 20
-176.4540262495313
 30
0.0
 11
1089.741935114003
 21
-175.2100802740039
 31
0.0
  0
ARC
  5
EB0
330
6B
100
AcDbEntity
  8
0
  6
ByBlock
 62
     0
100
AcDbCircle
 10
1215.728483866234
 20
-176.0400363712217
 30
0.0
 40
0.1562500000000088
100
AcDbArc
 50
34.35841092306223
 51
214.3584109230622
  0
ARC
  5
EB1
330
6B
100
AcDbEntity
  8
0
  6
ByBlock
 62
     0
100
AcDbCircle
 10
1215.728483866234
 20
-176.0400363712217
 30
0.0
 40
0.1562500000000088
100
AcDbArc
 50
214.3584109230622
 51
34.35841092306223
  0
ENDSEC
  0
SECTION
  2
OBJECTS
  0
DICTIONARY
  5
C
330
0
100
AcDbDictionary
281
     1
  3
ACAD_2007HEADERVARS_RT
350
EB6
  3
ACAD_COLOR
350
62
  3
ACAD_GROUP
350
D
  3
ACAD_IMAGE_DICT
350
759
  3
ACAD_IMAGE_VARS
350
75B
  3
ACAD_LAYOUT
350
61
  3
ACAD_MATERIAL
350
10
  3
ACAD_MLEADERSTYLE
350
65
  3
ACAD_MLINESTYLE
350
5E
  3
ACAD_PLOTSETTINGS
350
60
  3
ACAD_PLOTSTYLENAME
350
E
  3
ACAD_SCALELIST
350
42
  3
ACAD_TABLESTYLE
350
63
  3
ACAD_VISUALSTYLE
350
29
  3
AcadDim
350
D04
  3
ACDB_RECOMPOSE_DATA
350
EB4
  3
AcDbVariableDictionary
350
685
  3
AEC_PROPERTY_SET_DEFS
350
822
  3
DWGPROPS
350
EB5
  0
DICTIONARY
  5
442
330
2
100
AcDbDictionary
280
     1
281
     1
  3
ACAD_LAYERSTATES
360
443
  0
DICTIONARY
  5
683
330
54
100
AcDbDictionary
280
     1
281
     1
  3
ADSK_XREC_LAYER_RECONCILED
360
684
  0
DICTIONARY
  5
777
330
6B
100
AcDbDictionary
280
     1
281
     1
  3
ACAD_SORTENTS
360
778
  0
DICTIONARY
  5
A1F
330
A12
100
AcDbDictionary
280
     1
281
     1
  3
ACAD_SORTENTS
360
A20
  0
DICTIONARY
  5
EB6
102
{ACAD_REACTORS
330
C
102
}
330
C
100
AcDbDictionary
281
     1
  3
DIMARCSYM
350
EB8
  3
DIMFXL
350
EB7
  3
DIMJOGANG
350
EB9
  0
DICTIONARY
  5
62
102
{ACAD_REACTORS
330
C
102
}
330
C
100
AcDbDictionary
281
     1
  0
DICTIONARY
  5
D
102
{ACAD_REACTORS
330
C
102
}
330
C
100
AcDbDictionary
281
     1
  0
DICTIONARY
  5
759
102
{ACAD_REACTORS
330
C
102
}
330
C
100
AcDbDictionary
281
     1
  3
20170721173321321
350
75A
  0
RASTERVARIABLES
  5
75B
102
{ACAD_REACTORS
330
C
102
}
330
C
100
AcDbRasterVariables
 90
        0
 70
     1
 71
     1
 72
     0
  0
DICTIONARY
  5
61
102
{ACAD_REACTORS
330
C
102
}
330
C
100
AcDbDictionary
281
     1
  3
Model
350
6E
  3
レイアウト1
350
6A
  0
DICTIONARY
  5
10
102
{ACAD_REACTORS
330
C
102
}
330
C
100
AcDbDictionary
281
     1
  3
ByBlock
350
19
  3
ByLayer
350
11
  3
Global
350
21
  0
DICTIONARY
  5
65
102
{ACAD_REACTORS
330
C
102
}
330
C
100
AcDbDictionary
281
     1
  3
Standard
350
66
  0
DICTIONARY
  5
5E
102
{ACAD_REACTORS
330
C
102
}
330
C
100
AcDbDictionary
281
     1
  3
Standard
350
5F
  0
DICTIONARY
  5
60
102
{ACAD_REACTORS
330
C
102
}
330
C
100
AcDbDictionary
281
     1
  0
ACDBDICTIONARYWDFLT
  5
E
102
{ACAD_REACTORS
330
C
102
}
330
C
100
AcDbDictionary
281
     1
  3
Normal
350
F
100
AcDbDictionaryWithDefault
340
F
  0
DICTIONARY
  5
42
102
{ACAD_REACTORS
330
C
102
}
330
C
100
AcDbDictionary
281
     1
  3
A0
350
43
  3
A1
350
44
  3
A2
350
45
  3
A3
350
46
  3
A4
350
47
  3
A5
350
48
  3
A6
350
49
  3
A7
350
4A
  3
A8
350
4B
  3
A9
350
4C
  3
B0
350
4D
  3
B1
350
4E
  3
B2
350
4F
  3
B3
350
50
  3
B4
350
51
  3
B5
350
52
  3
B6
350
53
  0
DICTIONARY
  5
63
102
{ACAD_REACTORS
330
C
102
}
330
C
100
AcDbDictionary
281
     1
  3
Standard
350
64
  3
部品表
350
811
  0
DICTIONARY
  5
29
102
{ACAD_REACTORS
330
C
102
}
330
C
100
AcDbDictionary
281
     1
  3
2dWireframe
350
2F
  3
3dWireframe
350
43F
  3
Basic
350
2E
  3
Brighten
350
35
  3
ColorChange
350
39
  3
Conceptual
350
32
  3
Dim
350
34
  3
EdgeColorOff
350
41
  3
Facepattern
350
38
  3
Flat
350
2A
  3
FlatWithEdges
350
2B
  3
Gouraud
350
2C
  3
GouraudWithEdges
350
2D
  3
Hidden
350
31
  3
JitterOff
350
3F
  3
Linepattern
350
37
  3
OverhangOff
350
40
  3
Realistic
350
33
  3
Shaded
350
3E
  3
Shaded with edges
350
3D
  3
Shades of Gray
350
3A
  3
Sketchy
350
3B
  3
Thicken
350
36
  3
Wireframe
350
30
  3
X-Ray
350
3C
  0
XRECORD
  5
D04
102
{ACAD_REACTORS
330
C
102
}
330
C
100
AcDbXrecord
280
     1
 90
   990106
  3

 60
     0
 61
     0
 62
     1
 63
     3
 64
     0
 65
     0
 66
     0
 67
     3
 68
     1
 69
     0
 70
     0
 71
     0
 72
     0
 40
0.0
170
     0
  0
XRECORD
  5
EB4
102
{ACAD_REACTORS
330
C
102
}
330
C
100
AcDbXrecord
280
     1
 90
        1
330
64
330
811
  0
DICTIONARY
  5
685
102
{ACAD_REACTORS
330
C
102
}
330
C
100
AcDbDictionary
281
     1
  3
CANNOSCALE
350
688
  3
CMLEADERSTYLE
350
687
  3
CTABLESTYLE
350
686
  3
DIMASSOC
350
68B
  3
INDEXCTL
350
68A
  3
SORTENTS
350
689
  3
XCLIPFRAME
350
E26
  0
DICTIONARY
  5
822
102
{ACAD_REACTORS
330
C
102
}
330
C
100
AcDbDictionary
281
     1
  0
XRECORD
  5
EB5
102
{ACAD_REACTORS
330
C
102
}
330
C
100
AcDbXrecord
280
     1
  1
DWGPROPS COOKIE
  2

  3

  4

  6

  7

  8
imamura
  9

300
=
301
=
302
=
303
=
304
=
305
=
306
=
307
=
308
=
309
=
 40
0.1594222106481482
 41
2456350.821109178
 42
2457959.414860718
  1

 90
        0
  0
DICTIONARY
  5
443
102
{ACAD_REACTORS
330
442
102
}
330
442
100
AcDbDictionary
281
     1
  0
XRECORD
  5
684
102
{ACAD_REACTORS
330
683
102
}
330
683
100
AcDbXrecord
280
     1
290
     1
  0
SORTENTSTABLE
  5
778
102
{ACAD_REACTORS
330
777
102
}
330
777
100
AcDbSortentsTable
330
6B
331
C58
  5
C61
331
C93
  5
CBB
331
C54
  5
C5E
331
95C
  5
9CA
331
997
  5
9E7
331
9AC
  5
A02
331
958
  5
9C6
331
993
  5
97C
331
9E7
  5
A47
331
9A8
  5
9FC
331
950
  5
9C0
331
DFD
  5
E9E
331
E77
  5
DF0
331
9A4
  5
9F4
331
9E3
  5
A43
331
10C
  5
10C
331
DF9
  5
E9A
331
E73
  5
DFC
331
9A0
  5
9F0
331
147
  5
147
331
ACF
  5
B00
331
A55
  5
99B
331
108
  5
108
331
941
  5
939
331
104
  5
104
331
ACB
  5
ACF
331
47E
  5
47E
331
47A
  5
47A
331
B06
  5
C7C
331
A8C
  5
AB5
331
A88
  5
AB0
331
EB1
  5
E0E
331
EAD
  5
DCF
331
EA9
  5
DDC
331
C8F
  5
C98
331
C8B
  5
C90
331
C87
  5
C8D
331
776
  5
779
331
C83
  5
A68
331
98F
  5
979
331
94C
  5
95E
331
98B
  5
96A
331
987
  5
9E3
331
BB
  5
BB
331
DF5
  5
E96
331
99C
  5
9EC
331
948
  5
99E
331
DF1
  5
E92
331
998
  5
9E8
331
13F
  5
13F
331
DED
  5
E8E
331
9D3
  5
A3F
331
939
  5
9B3
331
13B
  5
13B
331
E24
  5
EB0
331
DE9
  5
E8A
331
A84
  5
AAC
331
AFE
  5
C7A
331
A2D
  5
A77
331
F8
  5
F8
331
137
  5
137
331
E20
  5
EAC
331
ABB
  5
AFD
331
A80
  5
AA7
331
396
  5
396
331
F0
  5
F0
331
A7C
  5
A9A
331
A0D
  5
A53
331
392
  5
392
331
A78
  5
A95
331
AB3
  5
AD8
331
A09
  5
A50
331
EA5
  5
DEF
331
EA1
  5
DF8
331
E9D
  5
DFF
331
E99
  5
E01
331
C7F
  5
A64
331
C7B
  5
A60
331
C77
  5
A74
331
C73
  5
A70
331
97F
  5
9B8
331
9CF
  5
A3B
331
97B
  5
9C3
331
DE5
  5
E86
331
1DD
  5
1DD
331
9CB
  5
A33
331
977
  5
9E2
331
973
  5
9DE
331
DE1
  5
E82
331
9C7
  5
A2F
331
12F
  5
12F
331
1D9
  5
1D9
331
DDD
  5
E7E
331
9C3
  5
A2B
331
E18
  5
EAB
331
1D5
  5
1D5
331
DC
  5
DC
331
12B
  5
12B
331
DD9
  5
E7A
331
1D1
  5
1D1
331
A74
  5
A91
331
AEE
  5
C78
331
AAF
  5
AD1
331
A05
  5
A4C
331
D8
  5
D8
331
E10
  5
EA7
331
D4
  5
D4
331
A70
  5
A8D
331
386
  5
386
331
AEA
  5
C5D
331
A01
  5
A48
331
489
  5
489
331
A6C
  5
A89
331
AE6
  5
B0C
331
AA7
  5
AE0
331
9FD
  5
932
331
AE2
  5
C6F
331
AA3
  5
AEA
331
A68
  5
A85
331
E95
  5
E0F
331
E91
  5
E19
331
E8D
  5
E22
331
E89
  5
E67
331
C6F
  5
A6C
331
C63
  5
C88
331
96B
  5
9DC
331
9BF
  5
A27
331
DD5
  5
E76
331
1CD
  5
1CD
331
9BB
  5
A23
331
967
  5
9D4
331
963
  5
9D0
331
DD1
  5
E72
331
485
  5
485
331
11F
  5
11F
331
9B7
  5
A0D
331
E08
  5
EA4
331
DCD
  5
E6E
331
9B3
  5
A09
331
CC
  5
CC
331
11B
  5
11B
331
481
  5
481
331
E04
  5
AE8
331
117
  5
117
331
A64
  5
A81
331
ADE
  5
C75
331
9F5
  5
95B
331
C8
  5
C8
331
925
  5
976
331
E00
  5
EA1
331
C4
  5
C4
331
113
  5
113
331
A60
  5
A7D
331
ADA
  5
C54
331
9F1
  5
936
331
C0
  5
C0
331
B11
  5
C64
331
A97
  5
9BB
331
9ED
  5
956
331
AD2
  5
B02
331
B0D
  5
C80
331
A93
  5
AC5
331
9E9
  5
933
331
B09
  5
C7D
331
E85
  5
E6B
331
E7D
  5
DD6
331
E79
  5
DF2
331
C5F
  5
C84
331
C57
  5
C60
331
C92
  5
C9E
331
95F
  5
9CC
331
95B
  5
9C9
331
9AF
  5
A05
331
996
  5
9E6
331
9AB
  5
A01
331
957
  5
9C5
331
992
  5
967
331
9E6
  5
A46
331
10F
  5
10F
331
9A7
  5
9FB
331
DFC
  5
E9D
331
9A3
  5
9F3
331
9E2
  5
A42
331
10B
  5
10B
331
DF8
  5
E99
331
E72
  5
DFB
331
ACE
  5
ACD
331
107
  5
107
331
146
  5
146
331
944
  5
972
331
103
  5
103
331
A8F
  5
AB8
331
47D
  5
47D
331
479
  5
479
331
B05
  5
C7B
331
AC6
  5
AF9
331
A8B
  5
AB4
331
EB0
  5
E08
331
EAC
  5
DD5
331
EA8
  5
DEE
331
C8E
  5
C93
331
C8A
  5
C8F
331
C86
  5
C8C
331
775
  5
775
331
C82
  5
A67
331
94F
  5
9BE
331
98E
  5
97B
331
BE
  5
BE
331
99F
  5
9EF
331
98A
  5
96B
331
DF4
  5
E95
331
99B
  5
9EB
331
DF0
  5
E91
331
93C
  5
9B6
331
13E
  5
13E
331
DEC
  5
E8D
331
9D2
  5
A3E
331
A87
  5
AAF
331
13A
  5
13A
331
938
  5
9B2
331
E23
  5
EAF
331
DE8
  5
E89
331
A83
  5
AAA
331
136
  5
136
331
AF9
  5
C5A
331
A7F
  5
AA6
331
395
  5
395
331
391
  5
391
331
A0C
  5
95C
331
A7B
  5
A98
331
AB2
  5
AFC
331
A08
  5
A4F
331
EA4
  5
DF5
331
EA0
  5
DF7
331
E9C
  5
DFE
331
E98
  5
E00
331
C7E
  5
A63
331
C7A
  5
A5E
331
C76
  5
A73
331
C72
  5
A6F
331
97E
  5
95D
331
779
  5
941
331
9CE
  5
A3A
331
97A
  5
971
331
976
  5
9E1
331
DE4
  5
E85
331
1DC
  5
1DC
331
9CA
  5
A32
331
972
  5
9DD
331
DE0
  5
E81
331
9C6
  5
A2E
331
12E
  5
12E
331
1D8
  5
1D8
331
DDC
  5
E7D
331
9C2
  5
A2A
331
E17
  5
EAA
331
1D4
  5
1D4
331
DB
  5
DB
331
A77
  5
A94
331
12A
  5
12A
331
DD8
  5
E79
331
1D0
  5
1D0
331
A73
  5
A90
331
389
  5
389
331
AED
  5
C68
331
AAE
  5
AD2
331
A04
  5
A4B
331
D7
  5
D7
331
488
  5
488
331
D3
  5
D3
331
AE9
  5
B0F
331
A6F
  5
A8C
331
AAA
  5
AD3
331
385
  5
385
331
A6B
  5
A88
331
AE5
  5
B07
331
AA6
  5
AEF
331
9FC
  5
937
331
AE1
  5
C73
331
AA2
  5
AEE
331
E94
  5
E17
331
E90
  5
E21
331
E8C
  5
E25
331
E88
  5
E6A
331
C6E
  5
A6B
331
C66
  5
C87
331
C62
  5
C86
331
9BE
  5
A26
331
96A
  5
9D5
331
E0F
  5
EA6
331
DD4
  5
E75
331
9BA
  5
A10
331
966
  5
9D3
331
962
  5
9CF
331
DD0
  5
E71
331
9B6
  5
A0C
331
11E
  5
11E
331
484
  5
484
331
E07
  5
EA3
331
DCC
  5
E6D
331
9B2
  5
A08
331
37D
  5
37D
331
CB
  5
CB
331
A67
  5
A84
331
11A
  5
11A
331
480
  5
480
331
E03
  5
AE6
331
A63
  5
A80
331
ADD
  5
C76
331
9F4
  5
92F
331
C7
  5
C7
331
116
  5
116
331
C3
  5
C3
331
112
  5
112
331
375
  5
375
331
AD9
  5
B09
331
A9A
  5
ACB
331
9F0
  5
94B
331
B10
  5
C63
331
AD1
  5
B01
331
B0C
  5
C7F
331
A92
  5
AC0
331
E78
  5
DF1
331
C5E
  5
C83
331
C5A
  5
C69
331
C91
  5
C9D
331
95E
  5
9CB
331
95A
  5
9C8
331
9AE
  5
A04
331
995
  5
9E5
331
399
  5
399
331
9AA
  5
9FE
331
956
  5
974
331
952
  5
9C4
331
991
  5
97A
331
9E5
  5
A45
331
DFF
  5
EA0
331
10E
  5
10E
331
9A6
  5
9FA
331
DFB
  5
E9C
331
9A2
  5
9F2
331
9E1
  5
A41
331
36D
  5
36D
331
10A
  5
10A
331
947
  5
99D
331
E71
  5
DFA
331
ACD
  5
ACC
331
102
  5
102
331
A8E
  5
AB7
331
47C
  5
47C
331
478
  5
478
331
AC5
  5
AD0
331
A33
  5
A7A
331
A8A
  5
AB3
331
B00
  5
B06
331
EAF
  5
DD1
331
EAB
  5
DEB
331
C8D
  5
C92
331
C85
  5
A6A
331
C81
  5
A66
331
94E
  5
9B9
331
98D
  5
966
331
94A
  5
9A6
331
DF7
  5
E98
331
99E
  5
9EE
331
9DD
  5
9A0
331
989
  5
97D
331
A10
  5
959
331
DF3
  5
E94
331
99A
  5
9EA
331
DEF
  5
E90
331
981
  5
960
331
FE
  5
FE
331
13D
  5
13D
331
93B
  5
9B5
331
DEB
  5
E8C
331
9D1
  5
A3D
331
A86
  5
AAE
331
A2F
  5
A79
331
139
  5
139
331
937
  5
9B1
331
E22
  5
EAE
331
AFC
  5
C58
331
A82
  5
AA9
331
135
  5
135
331
F2
  5
F2
331
131
  5
131
331
A7E
  5
AA0
331
394
  5
394
331
AF8
  5
C5C
331
A0F
  5
A55
331
390
  5
390
331
AB5
  5
AF8
331
A0B
  5
A52
331
A7A
  5
A97
331
AF0
  5
B05
331
AB1
  5
AFB
331
EA7
  5
DED
331
EA3
  5
DF4
331
E9F
  5
DF6
331
E9B
  5
DFD
331
C7D
  5
A62
331
C79
  5
A76
331
C75
  5
A72
331
C71
  5
A6E
331
97D
  5
9BF
331
77C
  5
9A2
331
DE7
  5
E88
331
9CD
  5
A39
331
979
  5
77C
331
975
  5
9E0
331
DE3
  5
E84
331
1DB
  5
1DB
331
9C9
  5
A31
331
DDF
  5
E80
331
9C5
  5
A2D
331
1D7
  5
1D7
331
DE
  5
DE
331
12D
  5
12D
331
DDB
  5
E7C
331
9C1
  5
A29
331
E16
  5
EA9
331
A76
  5
A93
331
A07
  5
A4E
331
DA
  5
DA
331
129
  5
129
331
1D3
  5
1D3
331
48B
  5
48B
331
A72
  5
A8F
331
388
  5
388
331
AEC
  5
B1A
331
AAD
  5
AF7
331
A03
  5
A4A
331
D6
  5
D6
331
D2
  5
D2
331
AE8
  5
B0E
331
A6E
  5
A8B
331
AA9
  5
AD9
331
384
  5
384
331
A6A
  5
A87
331
AA5
  5
AE2
331
9FB
  5
935
331
AE0
  5
C74
331
AA1
  5
AC9
331
E97
  5
E06
331
E93
  5
E11
331
E8F
  5
E20
331
E8B
  5
E24
331
C9E
  5
CE3
331
C9A
  5
CC0
331
C69
  5
B0A
331
C65
  5
C8A
331
C61
  5
C70
331
DD7
  5
E78
331
1CF
  5
1CF
331
9BD
  5
A25
331
965
  5
9D2
331
E0E
  5
EA5
331
DD3
  5
E74
331
20A
  5
20A
331
487
  5
487
331
9B9
  5
A0F
331
961
  5
9CE
331
DCF
  5
E70
331
9B5
  5
A0B
331
11D
  5
11D
331
483
  5
483
331
E06
  5
EA2
331
DCB
  5
E6C
331
202
  5
202
331
9B1
  5
A07
331
37C
  5
37C
331
CA
  5
CA
331
A66
  5
A83
331
119
  5
119
331
A62
  5
A7F
331
ADC
  5
C57
331
9F3
  5
94C
331
C6
  5
C6
331
115
  5
115
331
C2
  5
C2
331
111
  5
111
331
A5E
  5
A7C
331
374
  5
374
331
AD8
  5
B04
331
9EF
  5
94D
331
B0F
  5
C81
331
B0B
  5
C7E
331
A91
  5
ABD
331
E87
  5
E69
331
E7F
  5
DDB
331
C5D
  5
B12
331
C59
  5
C6E
331
C90
  5
C9A
331
9AD
  5
A03
331
959
  5
9C7
331
994
  5
9E4
331
398
  5
398
331
9A9
  5
9FD
331
955
  5
973
331
951
  5
9C2
331
990
  5
969
331
DFE
  5
E9F
331
9A5
  5
9F5
331
9E4
  5
A44
331
10D
  5
10D
331
DFA
  5
E9B
331
9A1
  5
9F1
331
36C
  5
36C
331
A56
  5
99C
331
109
  5
109
331
942
  5
938
331
ACC
  5
ACE
331
47F
  5
47F
331
B07
  5
C71
331
AC8
  5
AFF
331
A8D
  5
AB6
331
47B
  5
47B
331
A89
  5
AB1
331
AC0
  5
AFE
331
EAE
  5
DD0
331
EAA
  5
DDD
331
C8C
  5
C91
331
C88
  5
C8E
331
C84
  5
A69
331
C80
  5
A65
331
94D
  5
9B7
331
98C
  5
968
331
949
  5
9A5
331
DF6
  5
E97
331
99D
  5
9ED
331
9DC
  5
9A1
331
988
  5
97E
331
DF2
  5
E93
331
999
  5
9E9
331
1EA
  5
1EA
331
980
  5
95F
331
DEE
  5
E8F
331
9D4
  5
A40
331
477
  5
477
331
13C
  5
13C
331
93A
  5
9B4
331
E25
  5
EB1
331
DEA
  5
E8B
331
9D0
  5
A3C
331
A85
  5
AAD
331
AFF
  5
C72
331
A2E
  5
A78
331
138
  5
138
331
E21
  5
EAD
331
134
  5
134
331
AFB
  5
C59
331
A81
  5
AA8
331
397
  5
397
331
130
  5
130
331
A7D
  5
A9F
331
AF7
  5
C79
331
A0E
  5
A54
331
393
  5
393
331
A79
  5
A96
331
AB4
  5
ADA
331
A0A
  5
A51
331
AB0
  5
AFA
331
EA6
  5
DEC
331
EA2
  5
DF3
331
E9E
  5
DF9
331
E9A
  5
E02
331
C7C
  5
A61
331
C78
  5
A75
331
C74
  5
A71
331
C70
  5
A6D
331
97C
  5
776
331
77B
  5
977
331
DE6
  5
E87
331
1DE
  5
1DE
331
9CC
  5
A38
331
978
  5
9C1
331
974
  5
9DF
331
DE2
  5
E83
331
1DA
  5
1DA
331
9C8
  5
A30
331
DDE
  5
E7F
331
9C4
  5
A2C
331
1D6
  5
1D6
331
DD
  5
DD
331
12C
  5
12C
331
DDA
  5
E7B
331
1D2
  5
1D2
331
9C0
  5
A28
331
A75
  5
A92
331
AEF
  5
C62
331
A06
  5
A4D
331
D9
  5
D9
331
128
  5
128
331
E11
  5
EA8
331
D5
  5
D5
331
A71
  5
A8E
331
387
  5
387
331
AEB
  5
B10
331
AAC
  5
AF0
331
A02
  5
A49
331
48A
  5
48A
331
120
  5
120
331
A6D
  5
A8A
331
AE7
  5
B0D
331
AA8
  5
ADF
331
9FE
  5
92E
331
A69
  5
A86
331
AE3
  5
C5F
331
AA4
  5
AE7
331
9FA
  5
955
331
B1A
  5
C82
331
AA0
  5
ACA
331
E92
  5
E10
331
E8E
  5
E1D
331
E8A
  5
E23
331
C9D
  5
CD6
331
D13
  5
B0B
331
C68
  5
C8B
331
C60
  5
C85
331
DD6
  5
E77
331
1CE
  5
1CE
331
9BC
  5
A24
331
964
  5
9D1
331
DD2
  5
E73
331
209
  5
209
331
486
  5
486
331
9B8
  5
A0E
331
960
  5
9CD
331
DCE
  5
E6F
331
9B4
  5
A0A
331
CD
  5
CD
331
11C
  5
11C
331
482
  5
482
331
201
  5
201
331
9B0
  5
A06
331
148
  5
148
331
118
  5
118
331
ADF
  5
C77
331
A65
  5
A82
331
C9
  5
C9
331
926
  5
970
331
114
  5
114
331
A61
  5
A7E
331
9F2
  5
94E
331
C5
  5
C5
331
110
  5
110
331
A5D
  5
A7B
331
B12
  5
C65
331
A98
  5
9BD
331
9EE
  5
954
331
AD3
  5
B03
331
9EA
  5
929
331
A94
  5
9A4
331
A90
  5
ABB
331
E86
  5
E68
331
E7E
  5
DD7
  0
SORTENTSTABLE
  5
A20
102
{ACAD_REACTORS
330
A1F
102
}
330
A1F
100
AcDbSortentsTable
330
A12
  0
XRECORD
  5
EB8
102
{ACAD_REACTORS
330
EB6
102
}
330
EB6
100
AcDbXrecord
280
     1
 70
     2
  0
XRECORD
  5
EB7
102
{ACAD_REACTORS
330
EB6
102
}
330
EB6
100
AcDbXrecord
280
     1
 40
1.25
  0
XRECORD
  5
EB9
102
{ACAD_REACTORS
330
EB6
102
}
330
EB6
100
AcDbXrecord
280
     1
 40
1.570796326794896
  0
IMAGEDEF
  5
75A
102
{ACAD_REACTORS
330
759
330
75C
102
}
330
759
100
AcDbRasterImageDef
 90
        0
  1
D:\ima-files\2017年\07\07-21-PAL-1500AP図面修正\20170721173321321.jpg
 10
1792.0
 20
1236.0
 11
0.01
 21
0.01
280
     1
281
     0
  0
LAYOUT
  5
6E
102
{ACAD_XDICTIONARY
360
EED
102
}
102
{ACAD_REACTORS
330
61
102
}
330
61
100
AcDbPlotSettings
  1

  2
FX DP 205
  4

  6

 40
0.0
 41
0.0
 42
0.0
 43
0.0
 44
0.0
 45
0.0
 46
0.0
 47
0.0
 48
0.0
 49
0.0
140
0.0
141
0.0
142
1.0
143
1.0
 70
  1712
 72
     0
 73
     0
 74
     0
  7

 75
     0
147
1.0
148
0.0
149
0.0
100
AcDbLayout
  1
Model
 70
     1
 71
     0
 10
0.0
 20
0.0
 11
12.0
 21
9.0
 12
0.0
 22
0.0
 32
0.0
 14
0.0
 24
0.0
 34
0.0
 15
0.0
 25
0.0
 35
0.0
146
0.0
 13
0.0
 23
0.0
 33
0.0
 16
1.0
 26
0.0
 36
0.0
 17
0.0
 27
1.0
 37
0.0
 76
     0
330
6B
331
8B
  0
LAYOUT
  5
6A
102
{ACAD_XDICTIONARY
360
EEB
102
}
102
{ACAD_REACTORS
330
61
102
}
330
61
100
AcDbPlotSettings
  1

  2
FX DP 205
  4

  6

 40
0.0
 41
0.0
 42
0.0
 43
0.0
 44
0.0
 45
0.0
 46
0.0
 47
0.0
 48
0.0
 49
0.0
140
0.0
141
0.0
142
1.0
143
1.0
 70
   688
 72
     0
 73
     0
 74
     5
  7

 75
    16
147
1.0
148
0.0
149
0.0
100
AcDbLayout
  1
レイアウト1
 70
     1
 71
     1
 10
0.0
 20
0.0
 11
12.0
 21
9.0
 12
0.0
 22
0.0
 32
0.0
 14
1.000000000000000E+20
 24
1.000000000000000E+20
 34
1.000000000000000E+20
 15
-1.000000000000000E+20
 25
-1.000000000000000E+20
 35
-1.000000000000000E+20
146
0.0
 13
0.0
 23
0.0
 33
0.0
 16
1.0
 26
0.0
 36
0.0
 17
0.0
 27
1.0
 37
0.0
 76
     0
330
67
  0
MATERIAL
  5
19
102
{ACAD_XDICTIONARY
360
1A
102
}
102
{ACAD_REACTORS
330
10
102
}
330
10
100
AcDbMaterial
  1
ByBlock
 72
     0
 43
0.0208333333333333
 43
0.0
 43
0.0
 43
0.0
 43
0.0
 43
0.0208333333333333
 43
0.0
 43
0.0
 43
0.0
 43
0.0
 43
1.0
 43
0.0
 43
0.0
 43
0.0
 43
0.0
 43
1.0
 77
     0
 47
0.0208333333333333
 47
0.0
 47
0.0
 47
0.0
 47
0.0
 47
0.0208333333333333
 47
0.0
 47
0.0
 47
0.0
 47
0.0
 47
1.0
 47
0.0
 47
0.0
 47
0.0
 47
0.0
 47
1.0
171
     0
 49
0.0208333333333333
 49
0.0
 49
0.0
 49
0.0
 49
0.0
 49
0.0208333333333333
 49
0.0
 49
0.0
 49
0.0
 49
0.0
 49
1.0
 49
0.0
 49
0.0
 49
0.0
 49
0.0
 49
1.0
175
     0
142
0.0208333333333333
142
0.0
142
0.0
142
0.0
142
0.0
142
0.0208333333333333
142
0.0
142
0.0
142
0.0
142
0.0
142
1.0
142
0.0
142
0.0
142
0.0
142
0.0
142
1.0
179
     0
144
0.0208333333333333
144
0.0
144
0.0
144
0.0
144
0.0
144
0.0208333333333333
144
0.0
144
0.0
144
0.0
144
0.0
144
1.0
144
0.0
144
0.0
144
0.0
144
0.0
144
1.0
147
0.0208333333333333
147
0.0
147
0.0
147
0.0
147
0.0
147
0.0208333333333333
147
0.0
147
0.0
147
0.0
147
0.0
147
1.0
147
0.0
147
0.0
147
0.0
147
0.0
147
1.0
  0
MATERIAL
  5
11
102
{ACAD_XDICTIONARY
360
12
102
}
102
{ACAD_REACTORS
330
10
102
}
330
10
100
AcDbMaterial
  1
ByLayer
 72
     0
 43
0.0208333333333333
 43
0.0
 43
0.0
 43
0.0
 43
0.0
 43
0.0208333333333333
 43
0.0
 43
0.0
 43
0.0
 43
0.0
 43
1.0
 43
0.0
 43
0.0
 43
0.0
 43
0.0
 43
1.0
 77
     0
 47
0.0208333333333333
 47
0.0
 47
0.0
 47
0.0
 47
0.0
 47
0.0208333333333333
 47
0.0
 47
0.0
 47
0.0
 47
0.0
 47
1.0
 47
0.0
 47
0.0
 47
0.0
 47
0.0
 47
1.0
171
     0
 49
0.0208333333333333
 49
0.0
 49
0.0
 49
0.0
 49
0.0
 49
0.0208333333333333
 49
0.0
 49
0.0
 49
0.0
 49
0.0
 49
1.0
 49
0.0
 49
0.0
 49
0.0
 49
0.0
 49
1.0
175
     0
142
0.0208333333333333
142
0.0
142
0.0
142
0.0
142
0.0
142
0.0208333333333333
142
0.0
142
0.0
142
0.0
142
0.0
142
1.0
142
0.0
142
0.0
142
0.0
142
0.0
142
1.0
179
     0
144
0.0208333333333333
144
0.0
144
0.0
144
0.0
144
0.0
144
0.0208333333333333
144
0.0
144
0.0
144
0.0
144
0.0
144
1.0
144
0.0
144
0.0
144
0.0
144
0.0
144
1.0
147
0.0208333333333333
147
0.0
147
0.0
147
0.0
147
0.0
147
0.0208333333333333
147
0.0
147
0.0
147
0.0
147
0.0
147
1.0
147
0.0
147
0.0
147
0.0
147
0.0
147
1.0
  0
MATERIAL
  5
21
102
{ACAD_XDICTIONARY
360
22
102
}
102
{ACAD_REACTORS
330
10
102
}
330
10
100
AcDbMaterial
  1
Global
 72
     0
 43
0.0208333333333333
 43
0.0
 43
0.0
 43
0.0
 43
0.0
 43
0.0208333333333333
 43
0.0
 43
0.0
 43
0.0
 43
0.0
 43
1.0
 43
0.0
 43
0.0
 43
0.0
 43
0.0
 43
1.0
 77
     0
 47
0.0208333333333333
 47
0.0
 47
0.0
 47
0.0
 47
0.0
 47
0.0208333333333333
 47
0.0
 47
0.0
 47
0.0
 47
0.0
 47
1.0
 47
0.0
 47
0.0
 47
0.0
 47
0.0
 47
1.0
171
     0
 49
0.0208333333333333
 49
0.0
 49
0.0
 49
0.0
 49
0.0
 49
0.0208333333333333
 49
0.0
 49
0.0
 49
0.0
 49
0.0
 49
1.0
 49
0.0
 49
0.0
 49
0.0
 49
0.0
 49
1.0
175
     0
142
0.0208333333333333
142
0.0
142
0.0
142
0.0
142
0.0
142
0.0208333333333333
142
0.0
142
0.0
142
0.0
142
0.0
142
1.0
142
0.0
142
0.0
142
0.0
142
0.0
142
1.0
179
     0
144
0.0208333333333333
144
0.0
144
0.0
144
0.0
144
0.0
144
0.0208333333333333
144
0.0
144
0.0
144
0.0
144
0.0
144
1.0
144
0.0
144
0.0
144
0.0
144
0.0
144
1.0
147
0.0208333333333333
147
0.0
147
0.0
147
0.0
147
0.0
147
0.0208333333333333
147
0.0
147
0.0
147
0.0
147
0.0
147
1.0
147
0.0
147
0.0
147
0.0
147
0.0
147
1.0
  0
MLEADERSTYLE
  5
66
102
{ACAD_REACTORS
330
65
102
}
330
65
100
AcDbMLeaderStyle
170
     2
171
     1
172
     0
 90
        2
 40
0.0
 41
0.0
173
     1
 91
-1056964608
340
5A
 92
       -2
290
     1
 42
0.09
291
     1
 43
0.36
  3
Standard
 44
0.18
300

342
55
174
     1
178
     6
175
     1
176
     0
 93
-1056964608
 45
0.18
292
     0
297
     0
 46
0.18
 94
-1056964608
 47
1.0
 49
1.0
140
1.0
293
     1
141
0.0
294
     1
177
     0
142
1.0
295
     0
296
     0
143
0.125
1001
ACAD_MLEADERVER
1070
     2
  0
MLINESTYLE
  5
5F
102
{ACAD_REACTORS
330
5E
102
}
330
5E
100
AcDbMlineStyle
  2
STANDARD
 70
     0
  3

 62
   256
 51
90.0
 52
90.0
 71
     2
 49
0.5
 62
   256
  6
BYLAYER
 49
-0.5
 62
   256
  6
BYLAYER
  0
ACDBPLACEHOLDER
  5
F
102
{ACAD_REACTORS
330
E
102
}
330
E
  0
SCALE
  5
43
102
{ACAD_REACTORS
330
42
102
}
330
42
100
AcDbScale
 70
     0
300
1:1
140
1.0
141
1.0
290
     1
  0
SCALE
  5
44
102
{ACAD_REACTORS
330
42
102
}
330
42
100
AcDbScale
 70
     0
300
1/128" = 1'-0"
140
0.0078125
141
12.0
290
     0
  0
SCALE
  5
45
102
{ACAD_REACTORS
330
42
102
}
330
42
100
AcDbScale
 70
     0
300
1/64" = 1'-0"
140
0.015625
141
12.0
290
     0
  0
SCALE
  5
46
102
{ACAD_REACTORS
330
42
102
}
330
42
100
AcDbScale
 70
     0
300
1/32" = 1'-0"
140
0.03125
141
12.0
290
     0
  0
SCALE
  5
47
102
{ACAD_REACTORS
330
42
102
}
330
42
100
AcDbScale
 70
     0
300
1/16" = 1'-0"
140
0.0625
141
12.0
290
     0
  0
SCALE
  5
48
102
{ACAD_REACTORS
330
42
102
}
330
42
100
AcDbScale
 70
     0
300
3/32" = 1'-0"
140
0.09375
141
12.0
290
     0
  0
SCALE
  5
49
102
{ACAD_REACTORS
330
42
102
}
330
42
100
AcDbScale
 70
     0
300
1/8" = 1'-0"
140
0.125
141
12.0
290
     0
  0
SCALE
  5
4A
102
{ACAD_REACTORS
330
42
102
}
330
42
100
AcDbScale
 70
     0
300
3/16" = 1'-0"
140
0.1875
141
12.0
290
     0
  0
SCALE
  5
4B
102
{ACAD_REACTORS
330
42
102
}
330
42
100
AcDbScale
 70
     0
300
1/4" = 1'-0"
140
0.25
141
12.0
290
     0
  0
SCALE
  5
4C
102
{ACAD_REACTORS
330
42
102
}
330
42
100
AcDbScale
 70
     0
300
3/8" = 1'-0"
140
0.375
141
12.0
290
     0
  0
SCALE
  5
4D
102
{ACAD_REACTORS
330
42
102
}
330
42
100
AcDbScale
 70
     0
300
1/2" = 1'-0"
140
0.5
141
12.0
290
     0
  0
SCALE
  5
4E
102
{ACAD_REACTORS
330
42
102
}
330
42
100
AcDbScale
 70
     0
300
3/4" = 1'-0"
140
0.75
141
12.0
290
     0
  0
SCALE
  5
4F
102
{ACAD_REACTORS
330
42
102
}
330
42
100
AcDbScale
 70
     0
300
1" = 1'-0"
140
1.0
141
12.0
290
     0
  0
SCALE
  5
50
102
{ACAD_REACTORS
330
42
102
}
330
42
100
AcDbScale
 70
     0
300
1-1/2" = 1'-0"
140
1.5
141
12.0
290
     0
  0
SCALE
  5
51
102
{ACAD_REACTORS
330
42
102
}
330
42
100
AcDbScale
 70
     0
300
3" = 1'-0"
140
3.0
141
12.0
290
     0
  0
SCALE
  5
52
102
{ACAD_REACTORS
330
42
102
}
330
42
100
AcDbScale
 70
     0
300
6" = 1'-0"
140
6.0
141
12.0
290
     0
  0
SCALE
  5
53
102
{ACAD_REACTORS
330
42
102
}
330
42
100
AcDbScale
 70
     0
300
1'-0" = 1'-0"
140
12.0
141
12.0
290
     0
  0
TABLESTYLE
  5
64
102
{ACAD_XDICTIONARY
360
68D
102
}
102
{ACAD_REACTORS
330
63
102
}
330
63
100
AcDbTableStyle
  3
Standard
 70
     0
 71
     0
 40
0.06
 41
0.06
280
     0
281
     0
  7
STANDARD
140
0.18
170
     2
 62
     0
 63
     7
283
     0
274
    -2
284
     1
 64
     0
275
    -2
285
     1
 65
     0
276
    -2
286
     1
 66
     0
277
    -2
287
     1
 67
     0
278
    -2
288
     1
 68
     0
279
    -2
289
     1
 69
     0
  7
STANDARD
140
0.25
170
     5
 62
     0
 63
     7
283
     0
274
    -2
284
     1
 64
     0
275
    -2
285
     1
 65
     0
276
    -2
286
     1
 66
     0
277
    -2
287
     1
 67
     0
278
    -2
288
     1
 68
     0
279
    -2
289
     1
 69
     0
  7
STANDARD
140
0.18
170
     5
 62
     0
 63
     7
283
     0
274
    -2
284
     1
 64
     0
275
    -2
285
     1
 65
     0
276
    -2
286
     1
 66
     0
277
    -2
287
     1
 67
     0
278
    -2
288
     1
 68
     0
279
    -2
289
     1
 69
     0
  0
TABLESTYLE
  5
811
102
{ACAD_XDICTIONARY
360
812
102
}
102
{ACAD_REACTORS
330
63
102
}
330
63
100
AcDbTableStyle
  3
Standard
 70
     1
 71
     0
 40
1.5
 41
0.5
280
     0
281
     0
  7
高3.2
140
0.18
170
     7
 62
     3
 63
     7
283
     0
274
    -2
284
     1
 64
     3
275
    -2
285
     1
 65
     7
276
    -2
286
     1
 66
     3
277
    -2
287
     1
 67
     3
278
    -2
288
     1
 68
     7
279
    -2
289
     1
 69
     3
  7
高3.2
140
0.25
170
     8
 62
     3
 63
     7
283
     0
274
    -2
284
     1
 64
     0
275
    -2
285
     1
 65
     0
276
    -2
286
     1
 66
     0
277
    -2
287
     1
 67
     0
278
    -2
288
     1
 68
     0
279
    -2
289
     1
 69
     0
  7
高3.2
140
0.18
170
     7
 62
     3
 63
     7
283
     0
274
    -2
284
     1
 64
     3
275
    -2
285
     1
 65
     7
276
    -2
286
     1
 66
     3
277
    -2
287
     1
 67
     3
278
    -2
288
     1
 68
     7
279
    -2
289
     1
 69
     3
  0
VISUALSTYLE
  5
2F
102
{ACAD_XDICTIONARY
360
EC4
102
}
102
{ACAD_REACTORS
330
29
102
}
330
29
100
AcDbVisualStyle
  2

 70
     4
 71
     0
 72
     2
 73
     0
 90
        0
 40
-0.6
 41
-30.0
 62
     5
 63
     7
 74
     1
 91
        4
 64
     7
 65
   257
 75
     1
175
     1
 42
1.0
 92
        0
 66
   257
 43
1.0
 76
     1
 77
     6
 78
     2
 67
     7
 79
     5
170
     0
171
     0
290
     0
174
     0
 93
        1
 44
0.0
173
     0
291
     0
 45
0.0
1001
ACAD
1000
AcDbSavedByObjectVersion
1070
     0
  0
VISUALSTYLE
  5
43F
102
{ACAD_XDICTIONARY
360
EEF
102
}
102
{ACAD_REACTORS
330
29
102
}
330
29
100
AcDbVisualStyle
  2

 70
     5
 71
     0
 72
     2
 73
     1
 90
        0
 40
-0.6
 41
-30.0
 62
     5
 63
     7
 74
     1
 91
        4
 64
     7
 65
   257
 75
     1
175
     1
 42
1.0
 92
        0
 66
   257
 43
1.0
 76
     1
 77
     6
 78
     2
 67
     7
 79
     5
170
     0
171
     0
290
     0
174
     0
 93
        1
 44
0.0
173
     0
291
     0
 45
0.0
1001
ACAD
1000
AcDbSavedByObjectVersion
1070
     0
  0
VISUALSTYLE
  5
2E
102
{ACAD_XDICTIONARY
360
EC2
102
}
102
{ACAD_REACTORS
330
29
102
}
330
29
100
AcDbVisualStyle
  2

 70
     7
 71
     1
 72
     0
 73
     1
 90
        0
 40
-0.6
 41
-30.0
 62
     5
 63
     7
 74
     0
 91
        4
 64
     7
 65
   257
 75
     1
175
     1
 42
1.0
 92
        8
 66
     7
 43
1.0
 76
     1
 77
     6
 78
     2
 67
     7
 79
     5
170
     0
171
     0
290
     0
174
     0
 93
        1
 44
0.0
173
     0
291
     1
 45
0.0
1001
ACAD
1000
AcDbSavedByObjectVersion
1070
     0
  0
VISUALSTYLE
  5
35
102
{ACAD_XDICTIONARY
360
ED0
102
}
102
{ACAD_REACTORS
330
29
102
}
330
29
100
AcDbVisualStyle
  2

 70
    12
 71
     2
 72
     2
 73
     0
 90
        0
 40
-0.6
 41
-30.0
 62
     5
 63
     7
 74
     1
 91
        4
 64
     7
 65
   257
 75
     1
175
     1
 42
1.0
 92
        8
 66
     7
 43
1.0
 76
     1
 77
     6
 78
     2
 67
     7
 79
     5
170
     0
171
     0
290
     0
174
     0
 93
        1
 44
50.0
173
     0
291
     1
 45
0.0
1001
ACAD
1000
AcDbSavedByObjectVersion
1070
     0
  0
VISUALSTYLE
  5
39
102
{ACAD_XDICTIONARY
360
ED8
102
}
102
{ACAD_REACTORS
330
29
102
}
330
29
100
AcDbVisualStyle
  2

 70
    16
 71
     2
 72
     2
 73
     3
 90
        0
 40
-0.6
 41
-30.0
 62
     5
 63
     8
 74
     1
 91
        4
 64
     7
 65
   257
 75
     1
175
     1
 42
1.0
 92
        8
 66
     8
 43
1.0
 76
     1
 77
     6
 78
     2
 67
     7
 79
     5
170
     0
171
     0
290
     0
174
     0
 93
        1
 44
0.0
173
     0
291
     1
 45
0.0
1001
ACAD
1000
AcDbSavedByObjectVersion
1070
     0
  0
VISUALSTYLE
  5
32
102
{ACAD_XDICTIONARY
360
ECA
102
}
102
{ACAD_REACTORS
330
29
102
}
330
29
100
AcDbVisualStyle
  2

 70
     9
 71
     3
 72
     2
 73
     0
 90
        0
 40
-0.6
 41
-30.0
 62
     5
 63
     7
 74
     2
 91
        2
 64
     7
 65
   257
 75
     1
175
     1
 42
179.0
 92
        8
 66
     7
 43
1.0
 76
     1
 77
     6
 78
     2
 67
     7
 79
     3
170
     0
171
     0
290
     0
174
     0
 93
        1
 44
0.0
173
     0
291
     0
 45
0.0
1001
ACAD
1000
AcDbSavedByObjectVersion
1070
     0
  0
VISUALSTYLE
  5
34
102
{ACAD_XDICTIONARY
360
ECE
102
}
102
{ACAD_REACTORS
330
29
102
}
330
29
100
AcDbVisualStyle
  2

 70
    11
 71
     2
 72
     2
 73
     0
 90
        0
 40
-0.6
 41
-30.0
 62
     5
 63
     7
 74
     1
 91
        4
 64
     7
 65
   257
 75
     1
175
     1
 42
1.0
 92
        8
 66
     7
 43
1.0
 76
     1
 77
     6
 78
     2
 67
     7
 79
     5
170
     0
171
     0
290
     0
174
     0
 93
        1
 44
-50.0
173
     0
291
     1
 45
0.0
1001
ACAD
1000
AcDbSavedByObjectVersion
1070
     0
  0
VISUALSTYLE
  5
41
102
{ACAD_XDICTIONARY
360
EE8
102
}
102
{ACAD_REACTORS
330
29
102
}
330
29
100
AcDbVisualStyle
  2

 70
    22
 71
     2
 72
     2
 73
     0
 90
        0
 40
-0.6
 41
-30.0
 62
     5
 63
     7
 74
     1
 91
        4
 64
     7
 65
   257
 75
     1
175
     1
 42
1.0
 92
        8
 66
     7
 43
1.0
 76
     1
 77
     6
 78
     2
 67
     7
 79
     5
170
     0
171
     0
290
     0
174
     0
 93
        1
 44
0.0
173
     0
291
     1
 45
0.0
1001
ACAD
1000
AcDbSavedByObjectVersion
1070
     0
  0
VISUALSTYLE
  5
38
102
{ACAD_XDICTIONARY
360
ED6
102
}
102
{ACAD_REACTORS
330
29
102
}
330
29
100
AcDbVisualStyle
  2

 70
    15
 71
     2
 72
     2
 73
     0
 90
        0
 40
-0.6
 41
-30.0
 62
     5
 63
     7
 74
     1
 91
        4
 64
     7
 65
   257
 75
     1
175
     1
 42
1.0
 92
        8
 66
     7
 43
1.0
 76
     1
 77
     6
 78
     2
 67
     7
 79
     5
170
     0
171
     0
290
     0
174
     0
 93
        1
 44
0.0
173
     0
291
     1
 45
0.0
1001
ACAD
1000
AcDbSavedByObjectVersion
1070
     0
  0
VISUALSTYLE
  5
2A
102
{ACAD_XDICTIONARY
360
EBA
102
}
102
{ACAD_REACTORS
330
29
102
}
330
29
100
AcDbVisualStyle
  2

 70
     0
 71
     2
 72
     1
 73
     1
 90
        2
 40
-0.6
 41
30.0
 62
     5
 63
     7
 74
     0
 91
        0
 64
     7
 65
   257
 75
     1
175
     1
 42
1.0
 92
        8
 66
     7
 43
1.0
 76
     1
 77
     6
 78
     2
 67
     7
 79
     5
170
     0
171
     0
290
     0
174
     0
 93
       13
 44
0.0
173
     0
291
     1
 45
0.0
1001
ACAD
1000
AcDbSavedByObjectVersion
1070
     0
  0
VISUALSTYLE
  5
2B
102
{ACAD_XDICTIONARY
360
EBC
102
}
102
{ACAD_REACTORS
330
29
102
}
330
29
100
AcDbVisualStyle
  2

 70
     1
 71
     2
 72
     1
 73
     1
 90
        2
 40
-0.6
 41
30.0
 62
     5
 63
     7
 74
     1
 91
        0
 64
     7
 65
   257
 75
     1
175
     1
 42
1.0
 92
        0
 66
   257
 43
1.0
 76
     1
 77
     6
 78
     2
 67
     7
 79
     5
170
     0
171
     0
290
     0
174
     0
 93
       13
 44
0.0
173
     0
291
     1
 45
0.0
1001
ACAD
1000
AcDbSavedByObjectVersion
1070
     0
  0
VISUALSTYLE
  5
2C
102
{ACAD_XDICTIONARY
360
EBE
102
}
102
{ACAD_REACTORS
330
29
102
}
330
29
100
AcDbVisualStyle
  2

 70
     2
 71
     2
 72
     2
 73
     1
 90
        2
 40
-0.6
 41
30.0
 62
     5
 63
     7
 74
     0
 91
        0
 64
     7
 65
   257
 75
     1
175
     1
 42
1.0
 92
        0
 66
     7
 43
1.0
 76
     1
 77
     6
 78
     2
 67
     7
 79
     5
170
     0
171
     0
290
     0
174
     0
 93
       13
 44
0.0
173
     0
291
     1
 45
0.0
1001
ACAD
1000
AcDbSavedByObjectVersion
1070
     0
  0
VISUALSTYLE
  5
2D
102
{ACAD_XDICTIONARY
360
EC0
102
}
102
{ACAD_REACTORS
330
29
102
}
330
29
100
AcDbVisualStyle
  2

 70
     3
 71
     2
 72
     2
 73
     1
 90
        2
 40
-0.6
 41
30.0
 62
     5
 63
     7
 74
     1
 91
        0
 64
     7
 65
   257
 75
     1
175
     1
 42
1.0
 92
        0
 66
   257
 43
1.0
 76
     1
 77
     6
 78
     2
 67
     7
 79
     5
170
     0
171
     0
290
     0
174
     0
 93
       13
 44
0.0
173
     0
291
     1
 45
0.0
1001
ACAD
1000
AcDbSavedByObjectVersion
1070
     0
  0
VISUALSTYLE
  5
31
102
{ACAD_XDICTIONARY
360
EC8
102
}
102
{ACAD_REACTORS
330
29
102
}
330
29
100
AcDbVisualStyle
  2

 70
     6
 71
     1
 72
     2
 73
     2
 90
        0
 40
-0.6
 41
-30.0
 62
     5
 63
     7
 74
     2
 91
        2
 64
     7
 65
   257
 75
     2
175
     1
 42
40.0
 92
        0
 66
   257
 43
1.0
 76
     1
 77
     6
 78
     2
 67
     7
 79
     3
170
     0
171
     0
290
     0
174
     0
 93
        1
 44
0.0
173
     0
291
     0
 45
0.0
1001
ACAD
1000
AcDbSavedByObjectVersion
1070
     0
  0
VISUALSTYLE
  5
3F
102
{ACAD_XDICTIONARY
360
EE4
102
}
102
{ACAD_REACTORS
330
29
102
}
330
29
100
AcDbVisualStyle
  2

 70
    20
 71
     2
 72
     2
 73
     0
 90
        0
 40
-0.6
 41
-30.0
 62
     5
 63
     7
 74
     1
 91
        4
 64
     7
 65
   257
 75
     1
175
     1
 42
1.0
 92
       10
 66
     7
 43
1.0
 76
     1
 77
     6
 78
     2
 67
     7
 79
     5
170
     0
171
     0
290
     0
174
     0
 93
        1
 44
0.0
173
     0
291
     1
 45
0.0
1001
ACAD
1000
AcDbSavedByObjectVersion
1070
     0
  0
VISUALSTYLE
  5
37
102
{ACAD_XDICTIONARY
360
ED4
102
}
102
{ACAD_REACTORS
330
29
102
}
330
29
100
AcDbVisualStyle
  2

 70
    14
 71
     2
 72
     2
 73
     0
 90
        0
 40
-0.6
 41
-30.0
 62
     5
 63
     7
 74
     1
 91
        4
 64
     7
 65
   257
 75
     7
175
     7
 42
1.0
 92
        8
 66
     7
 43
1.0
 76
     1
 77
     6
 78
     2
 67
     7
 79
     5
170
     0
171
     0
290
     0
174
     0
 93
        1
 44
0.0
173
     0
291
     1
 45
0.0
1001
ACAD
1000
AcDbSavedByObjectVersion
1070
     0
  0
VISUALSTYLE
  5
40
102
{ACAD_XDICTIONARY
360
EE6
102
}
102
{ACAD_REACTORS
330
29
102
}
330
29
100
AcDbVisualStyle
  2

 70
    21
 71
     2
 72
     2
 73
     0
 90
        0
 40
-0.6
 41
-30.0
 62
     5
 63
     7
 74
     1
 91
        4
 64
     7
 65
   257
 75
     1
175
     1
 42
1.0
 92
        9
 66
     7
 43
1.0
 76
     1
 77
     6
 78
     2
 67
     7
 79
     5
170
     0
171
     0
290
     0
174
     0
 93
        1
 44
0.0
173
     0
291
     1
 45
0.0
1001
ACAD
1000
AcDbSavedByObjectVersion
1070
     0
  0
VISUALSTYLE
  5
33
102
{ACAD_XDICTIONARY
360
ECC
102
}
102
{ACAD_REACTORS
330
29
102
}
330
29
100
AcDbVisualStyle
  2

 70
     8
 71
     2
 72
     3
 73
     0
 90
        2
 40
-0.6
 41
30.0
 62
     5
 63
     7
 74
     0
 91
        0
 64
     7
 65
   257
 75
     1
175
     1
 42
1.0
 92
        8
 66
   257
 43
1.0
 76
     1
 77
     6
 78
     2
 67
     7
 79
     3
170
     0
171
     0
290
     0
174
     0
 93
       13
 44
0.0
173
     0
291
     0
 45
0.0
1001
ACAD
1000
AcDbSavedByObjectVersion
1070
     0
  0
VISUALSTYLE
  5
3E
102
{ACAD_XDICTIONARY
360
EE2
102
}
102
{ACAD_REACTORS
330
29
102
}
330
29
100
AcDbVisualStyle
  2

 70
    27
 71
     2
 72
     2
 73
     1
 90
        2
 40
-0.6
 41
30.0
 62
     5
 63
     7
 74
     0
 91
        4
 64
     7
 65
   257
 75
     1
175
     1
 42
1.0
 92
        8
 66
   257
 43
1.0
 76
     1
 77
     6
 78
     2
 67
     8
 79
     3
170
     0
171
     0
290
     0
174
     0
 93
        5
 44
0.0
173
     0
291
     0
 45
0.0
1001
ACAD
1000
AcDbSavedByObjectVersion
1070
     0
  0
VISUALSTYLE
  5
3D
102
{ACAD_XDICTIONARY
360
EE0
102
}
102
{ACAD_REACTORS
330
29
102
}
330
29
100
AcDbVisualStyle
  2

 70
    26
 71
     2
 72
     2
 73
     1
 90
        2
 40
-0.6
 41
30.0
 62
     5
 63
     7
 74
     1
 91
       10
 64
     7
 65
   257
 75
     2
175
     1
 42
1.0
 92
        8
 66
   257
 43
1.0
 76
     1
 77
     6
 78
     2
 67
     7
 79
     3
170
     0
171
     0
290
     0
174
     0
 93
        5
 44
0.0
173
     0
291
     0
 45
0.0
1001
ACAD
1000
AcDbSavedByObjectVersion
1070
     0
  0
VISUALSTYLE
  5
3A
102
{ACAD_XDICTIONARY
360
EDA
102
}
102
{ACAD_REACTORS
330
29
102
}
330
29
100
AcDbVisualStyle
  2

 70
    23
 71
     2
 72
     2
 73
     3
 90
        0
 40
-0.6
 41
-30.0
 62
     5
 63
     7
 74
     2
 91
        2
 64
     7
 65
     7
 75
     1
175
     1
 42
40.0
 92
        8
 66
     7
 43
1.0
 76
     1
 77
     6
 78
     2
 67
     7
 79
     3
170
     0
171
     0
290
     0
174
     0
 93
        1
 44
0.0
173
     0
291
     0
 45
0.0
1001
ACAD
1000
AcDbSavedByObjectVersion
1070
     0
  0
VISUALSTYLE
  5
3B
102
{ACAD_XDICTIONARY
360
EDC
102
}
102
{ACAD_REACTORS
330
29
102
}
330
29
100
AcDbVisualStyle
  2

 70
    24
 71
     1
 72
     2
 73
     2
 90
        0
 40
-0.6
 41
-30.0
 62
     5
 63
     7
 74
     2
 91
        2
 64
     7
 65
     7
 75
     1
175
     1
 42
40.0
 92
       11
 66
     7
 43
1.0
 76
     1
 77
     6
 78
     2
 67
     7
 79
     6
170
     0
171
     0
290
     0
174
     0
 93
        1
 44
0.0
173
     0
291
     0
 45
0.0
1001
ACAD
1000
AcDbSavedByObjectVersion
1070
     0
  0
VISUALSTYLE
  5
36
102
{ACAD_XDICTIONARY
360
ED2
102
}
102
{ACAD_REACTORS
330
29
102
}
330
29
100
AcDbVisualStyle
  2

 70
    13
 71
     2
 72
     2
 73
     0
 90
        0
 40
-0.6
 41
-30.0
 62
     5
 63
     7
 74
     1
 91
        4
 64
     7
 65
   257
 75
     1
175
     1
 42
1.0
 92
       12
 66
     7
 43
1.0
 76
     1
 77
     6
 78
     2
 67
     7
 79
     5
170
     0
171
     0
290
     0
174
     0
 93
        1
 44
0.0
173
     0
291
     1
 45
0.0
1001
ACAD
1000
AcDbSavedByObjectVersion
1070
     0
  0
VISUALSTYLE
  5
30
102
{ACAD_XDICTIONARY
360
EC6
102
}
102
{ACAD_REACTORS
330
29
102
}
330
29
100
AcDbVisualStyle
  2

 70
     5
 71
     0
 72
     2
 73
     0
 90
        0
 40
-0.6
 41
-30.0
 62
     5
 63
     7
 74
     1
 91
        4
 64
     7
 65
   257
 75
     1
175
     1
 42
1.0
 92
        0
 66
   257
 43
1.0
 76
     1
 77
     6
 78
     2
 67
     7
 79
     3
170
     0
171
     0
290
     0
174
     0
 93
        1
 44
0.0
173
     0
291
     0
 45
0.0
1001
ACAD
1000
AcDbSavedByObjectVersion
1070
     0
  0
VISUALSTYLE
  5
3C
102
{ACAD_XDICTIONARY
360
EDE
102
}
102
{ACAD_REACTORS
330
29
102
}
330
29
100
AcDbVisualStyle
  2

 70
    25
 71
     2
 72
     2
 73
     1
 90
        1
 40
0.5
 41
-30.0
 62
     5
 63
     7
 74
     1
 91
        0
 64
     7
 65
   257
 75
     1
175
     1
 42
1.0
 92
        8
 66
     7
 43
1.0
 76
     1
 77
     6
 78
     2
 67
     7
 79
     3
170
     0
171
     0
290
     0
174
     0
 93
       13
 44
0.0
173
     0
291
     0
 45
0.0
1001
ACAD
1000
AcDbSavedByObjectVersion
1070
     0
  0
DICTIONARYVAR
  5
688
102
{ACAD_REACTORS
330
685
102
}
330
685
100
DictionaryVariables
280
     0
  1
1:1
  0
DICTIONARYVAR
  5
687
102
{ACAD_REACTORS
330
685
102
}
330
685
100
DictionaryVariables
280
     0
  1
STANDARD
  0
DICTIONARYVAR
  5
686
102
{ACAD_REACTORS
330
685
102
}
330
685
100
DictionaryVariables
280
     0
  1
STANDARD
  0
DICTIONARYVAR
  5
68B
102
{ACAD_REACTORS
330
685
102
}
330
685
100
DictionaryVariables
280
     0
  1
1
  0
DICTIONARYVAR
  5
68A
102
{ACAD_REACTORS
330
685
102
}
330
685
100
DictionaryVariables
280
     0
  1
0
  0
DICTIONARYVAR
  5
689
102
{ACAD_REACTORS
330
685
102
}
330
685
100
DictionaryVariables
280
     0
  1
127
  0
DICTIONARYVAR
  5
E26
102
{ACAD_REACTORS
330
685
102
}
330
685
100
DictionaryVariables
280
     0
  1
2
  0
DICTIONARY
  5
EED
330
6E
100
AcDbDictionary
280
     1
281
     1
  3
ACAD_XREC_ROUNDTRIP
360
EEE
  0
DICTIONARY
  5
EEB
330
6A
100
AcDbDictionary
280
     1
281
     1
  3
ACAD_XREC_ROUNDTRIP
360
EEC
  0
DICTIONARY
  5
1A
330
19
100
AcDbDictionary
280
     1
281
     1
  3
ACAD_XREC_ROUNDTRIP
360
696
  3
BUMPTILE
360
1C
  3
DIFFUSETILE
360
1B
  3
OPACITYTILE
360
1F
  3
REFLECTIONTILE
360
1E
  3
REFRACTIONTILE
360
20
  3
SPECULARTILE
360
1D
  0
DICTIONARY
  5
12
330
11
100
AcDbDictionary
280
     1
281
     1
  3
ACAD_XREC_ROUNDTRIP
360
695
  3
BUMPTILE
360
14
  3
DIFFUSETILE
360
13
  3
OPACITYTILE
360
17
  3
REFLECTIONTILE
360
16
  3
REFRACTIONTILE
360
18
  3
SPECULARTILE
360
15
  0
DICTIONARY
  5
22
330
21
100
AcDbDictionary
280
     1
281
     1
  3
ACAD_XREC_ROUNDTRIP
360
697
  3
BUMPTILE
360
24
  3
DIFFUSETILE
360
23
  3
OPACITYTILE
360
27
  3
REFLECTIONTILE
360
26
  3
REFRACTIONTILE
360
28
  3
SPECULARTILE
360
25
  0
DICTIONARY
  5
68D
330
64
100
AcDbDictionary
280
     1
281
     1
  3
ACAD_ROUNDTRIP_2008_TABLESTYLE_CELLSTYLEMAP
360
EB2
  3
ACAD_XREC_ROUNDTRIP
360
EEA
  0
DICTIONARY
  5
812
330
811
100
AcDbDictionary
280
     1
281
     1
  3
ACAD_ROUNDTRIP_2008_TABLESTYLE_CELLSTYLEMAP
360
EB3
  3
ACAD_XREC_ROUNDTRIP
360
EF1
  0
DICTIONARY
  5
EC4
330
2F
100
AcDbDictionary
280
     1
281
     1
  3
ACAD_XREC_ROUNDTRIP
360
EC5
  0
DICTIONARY
  5
EEF
330
43F
100
AcDbDictionary
280
     1
281
     1
  3
ACAD_XREC_ROUNDTRIP
360
EF0
  0
DICTIONARY
  5
EC2
330
2E
100
AcDbDictionary
280
     1
281
     1
  3
ACAD_XREC_ROUNDTRIP
360
EC3
  0
DICTIONARY
  5
ED0
330
35
100
AcDbDictionary
280
     1
281
     1
  3
ACAD_XREC_ROUNDTRIP
360
ED1
  0
DICTIONARY
  5
ED8
330
39
100
AcDbDictionary
280
     1
281
     1
  3
ACAD_XREC_ROUNDTRIP
360
ED9
  0
DICTIONARY
  5
ECA
330
32
100
AcDbDictionary
280
     1
281
     1
  3
ACAD_XREC_ROUNDTRIP
360
ECB
  0
DICTIONARY
  5
ECE
330
34
100
AcDbDictionary
280
     1
281
     1
  3
ACAD_XREC_ROUNDTRIP
360
ECF
  0
DICTIONARY
  5
EE8
330
41
100
AcDbDictionary
280
     1
281
     1
  3
ACAD_XREC_ROUNDTRIP
360
EE9
  0
DICTIONARY
  5
ED6
330
38
100
AcDbDictionary
280
     1
281
     1
  3
ACAD_XREC_ROUNDTRIP
360
ED7
  0
DICTIONARY
  5
EBA
330
2A
100
AcDbDictionary
280
     1
281
     1
  3
ACAD_XREC_ROUNDTRIP
360
EBB
  0
DICTIONARY
  5
EBC
330
2B
100
AcDbDictionary
280
     1
281
     1
  3
ACAD_XREC_ROUNDTRIP
360
EBD
  0
DICTIONARY
  5
EBE
330
2C
100
AcDbDictionary
280
     1
281
     1
  3
ACAD_XREC_ROUNDTRIP
360
EBF
  0
DICTIONARY
  5
EC0
330
2D
100
AcDbDictionary
280
     1
281
     1
  3
ACAD_XREC_ROUNDTRIP
360
EC1
  0
DICTIONARY
  5
EC8
330
31
100
AcDbDictionary
280
     1
281
     1
  3
ACAD_XREC_ROUNDTRIP
360
EC9
  0
DICTIONARY
  5
EE4
330
3F
100
AcDbDictionary
280
     1
281
     1
  3
ACAD_XREC_ROUNDTRIP
360
EE5
  0
DICTIONARY
  5
ED4
330
37
100
AcDbDictionary
280
     1
281
     1
  3
ACAD_XREC_ROUNDTRIP
360
ED5
  0
DICTIONARY
  5
EE6
330
40
100
AcDbDictionary
280
     1
281
     1
  3
ACAD_XREC_ROUNDTRIP
360
EE7
  0
DICTIONARY
  5
ECC
330
33
100
AcDbDictionary
280
     1
281
     1
  3
ACAD_XREC_ROUNDTRIP
360
ECD
  0
DICTIONARY
  5
EE2
330
3E
100
AcDbDictionary
280
     1
281
     1
  3
ACAD_XREC_ROUNDTRIP
360
EE3
  0
DICTIONARY
  5
EE0
330
3D
100
AcDbDictionary
280
     1
281
     1
  3
ACAD_XREC_ROUNDTRIP
360
EE1
  0
DICTIONARY
  5
EDA
330
3A
100
AcDbDictionary
280
     1
281
     1
  3
ACAD_XREC_ROUNDTRIP
360
EDB
  0
DICTIONARY
  5
EDC
330
3B
100
AcDbDictionary
280
     1
281
     1
  3
ACAD_XREC_ROUNDTRIP
360
EDD
  0
DICTIONARY
  5
ED2
330
36
100
AcDbDictionary
280
     1
281
     1
  3
ACAD_XREC_ROUNDTRIP
360
ED3
  0
DICTIONARY
  5
EC6
330
30
100
AcDbDictionary
280
     1
281
     1
  3
ACAD_XREC_ROUNDTRIP
360
EC7
  0
DICTIONARY
  5
EDE
330
3C
100
AcDbDictionary
280
     1
281
     1
  3
ACAD_XREC_ROUNDTRIP
360
EDF
  0
XRECORD
  5
EEE
102
{ACAD_REACTORS
330
EED
102
}
330
EED
100
AcDbXrecord
280
     1
102
SHADEPLOT
 70
     0
102
SHADEPLOTRESLEVEL
 70
     2
102
SHADEPLOTCUSTOMDPI
 70
   300
  0
XRECORD
  5
EEC
102
{ACAD_REACTORS
330
EEB
102
}
330
EEB
100
AcDbXrecord
280
     1
102
SHADEPLOT
 70
     0
102
SHADEPLOTRESLEVEL
 70
     2
102
SHADEPLOTCUSTOMDPI
 70
   300
  0
XRECORD
  5
696
102
{ACAD_REACTORS
330
1A
102
}
330
1A
100
AcDbXrecord
280
     1
102
MATERIAL
148
0.0
149
0.0
149
0.0
 93
        0
 94
      127
282
     0
 72
     0
 77
     0
171
     0
175
     0
179
     0
273
     0
  0
XRECORD
  5
1C
102
{ACAD_REACTORS
330
1A
102
}
330
1A
100
AcDbXrecord
280
     1
270
     1
271
     1
  0
XRECORD
  5
1B
102
{ACAD_REACTORS
330
1A
102
}
330
1A
100
AcDbXrecord
280
     1
270
     1
271
     1
  0
XRECORD
  5
1F
102
{ACAD_REACTORS
330
1A
102
}
330
1A
100
AcDbXrecord
280
     1
270
     1
271
     1
  0
XRECORD
  5
1E
102
{ACAD_REACTORS
330
1A
102
}
330
1A
100
AcDbXrecord
280
     1
270
     1
271
     1
  0
XRECORD
  5
20
102
{ACAD_REACTORS
330
1A
102
}
330
1A
100
AcDbXrecord
280
     1
270
     1
271
     1
  0
XRECORD
  5
1D
102
{ACAD_REACTORS
330
1A
102
}
330
1A
100
AcDbXrecord
280
     1
270
     1
271
     1
  0
XRECORD
  5
695
102
{ACAD_REACTORS
330
12
102
}
330
12
100
AcDbXrecord
280
     1
102
MATERIAL
148
0.0
149
0.0
149
0.0
 93
        0
 94
      127
282
     0
 72
     0
 77
     0
171
     0
175
     0
179
     0
273
     0
  0
XRECORD
  5
14
102
{ACAD_REACTORS
330
12
102
}
330
12
100
AcDbXrecord
280
     1
270
     1
271
     1
  0
XRECORD
  5
13
102
{ACAD_REACTORS
330
12
102
}
330
12
100
AcDbXrecord
280
     1
270
     1
271
     1
  0
XRECORD
  5
17
102
{ACAD_REACTORS
330
12
102
}
330
12
100
AcDbXrecord
280
     1
270
     1
271
     1
  0
XRECORD
  5
16
102
{ACAD_REACTORS
330
12
102
}
330
12
100
AcDbXrecord
280
     1
270
     1
271
     1
  0
XRECORD
  5
18
102
{ACAD_REACTORS
330
12
102
}
330
12
100
AcDbXrecord
280
     1
270
     1
271
     1
  0
XRECORD
  5
15
102
{ACAD_REACTORS
330
12
102
}
330
12
100
AcDbXrecord
280
     1
270
     1
271
     1
  0
XRECORD
  5
697
102
{ACAD_REACTORS
330
22
102
}
330
22
100
AcDbXrecord
280
     1
102
MATERIAL
148
0.0
149
0.0
149
0.0
 93
        0
 94
      127
282
     0
 72
     0
 77
     0
171
     0
175
     0
179
     0
273
     0
  0
XRECORD
  5
24
102
{ACAD_REACTORS
330
22
102
}
330
22
100
AcDbXrecord
280
     1
270
     1
271
     1
  0
XRECORD
  5
23
102
{ACAD_REACTORS
330
22
102
}
330
22
100
AcDbXrecord
280
     1
270
     1
271
     1
  0
XRECORD
  5
27
102
{ACAD_REACTORS
330
22
102
}
330
22
100
AcDbXrecord
280
     1
270
     1
271
     1
  0
XRECORD
  5
26
102
{ACAD_REACTORS
330
22
102
}
330
22
100
AcDbXrecord
280
     1
270
     1
271
     1
  0
XRECORD
  5
28
102
{ACAD_REACTORS
330
22
102
}
330
22
100
AcDbXrecord
280
     1
270
     1
271
     1
  0
XRECORD
  5
25
102
{ACAD_REACTORS
330
22
102
}
330
22
100
AcDbXrecord
280
     1
270
     1
271
     1
  0
CELLSTYLEMAP
  5
EB2
102
{ACAD_REACTORS
330
68D
102
}
330
68D
100
AcDbCellStyleMap
 90
        3
300
CELLSTYLE
  1
TABLEFORMAT_BEGIN
 90
        5
170
     1
 91
        0
 92
    32768
 62
   257
 93
        1
300
CONTENTFORMAT
  1
CONTENTFORMAT_BEGIN
 90
        0
 91
        0
 92
      512
 93
        0
300

 40
0.0
140
1.0
 94
        5
 62
     0
340
55
144
0.25
309
CONTENTFORMAT_END
171
     1
301
MARGIN
  1
CELLMARGIN_BEGIN
 40
0.06
 40
0.06
 40
0.06
 40
0.06
 40
0.18
 40
0.18
309
CELLMARGIN_END
 94
        6
 95
        1
302
GRIDFORMAT
  1
GRIDFORMAT_BEGIN
 90
        0
 91
        1
 62
     0
 92
       -2
340
0
 93
        0
 40
0.045
309
GRIDFORMAT_END
 95
        2
302
GRIDFORMAT
  1
GRIDFORMAT_BEGIN
 90
        0
 91
        1
 62
     0
 92
       -2
340
0
 93
        0
 40
0.045
309
GRIDFORMAT_END
 95
        4
302
GRIDFORMAT
  1
GRIDFORMAT_BEGIN
 90
        0
 91
        1
 62
     0
 92
       -2
340
0
 93
        0
 40
0.045
309
GRIDFORMAT_END
 95
        8
302
GRIDFORMAT
  1
GRIDFORMAT_BEGIN
 90
        0
 91
        1
 62
     0
 92
       -2
340
0
 93
        0
 40
0.045
309
GRIDFORMAT_END
 95
       16
302
GRIDFORMAT
  1
GRIDFORMAT_BEGIN
 90
        0
 91
        1
 62
     0
 92
       -2
340
0
 93
        0
 40
0.045
309
GRIDFORMAT_END
 95
       32
302
GRIDFORMAT
  1
GRIDFORMAT_BEGIN
 90
        0
 91
        1
 62
     0
 92
       -2
340
0
 93
        0
 40
0.045
309
GRIDFORMAT_END
309
TABLEFORMAT_END
  1
CELLSTYLE_BEGIN
 90
        1
 91
        1
300
_TITLE
309
CELLSTYLE_END
300
CELLSTYLE
  1
TABLEFORMAT_BEGIN
 90
        5
170
     1
 91
        0
 92
        0
 62
   257
 93
        1
300
CONTENTFORMAT
  1
CONTENTFORMAT_BEGIN
 90
        0
 91
        0
 92
      512
 93
        0
300

 40
0.0
140
1.0
 94
        5
 62
     0
340
55
144
0.18
309
CONTENTFORMAT_END
171
     1
301
MARGIN
  1
CELLMARGIN_BEGIN
 40
0.06
 40
0.06
 40
0.06
 40
0.06
 40
0.18
 40
0.18
309
CELLMARGIN_END
 94
        6
 95
        1
302
GRIDFORMAT
  1
GRIDFORMAT_BEGIN
 90
        0
 91
        1
 62
     0
 92
       -2
340
0
 93
        0
 40
0.045
309
GRIDFORMAT_END
 95
        2
302
GRIDFORMAT
  1
GRIDFORMAT_BEGIN
 90
        0
 91
        1
 62
     0
 92
       -2
340
0
 93
        0
 40
0.045
309
GRIDFORMAT_END
 95
        4
302
GRIDFORMAT
  1
GRIDFORMAT_BEGIN
 90
        0
 91
        1
 62
     0
 92
       -2
340
0
 93
        0
 40
0.045
309
GRIDFORMAT_END
 95
        8
302
GRIDFORMAT
  1
GRIDFORMAT_BEGIN
 90
        0
 91
        1
 62
     0
 92
       -2
340
0
 93
        0
 40
0.045
309
GRIDFORMAT_END
 95
       16
302
GRIDFORMAT
  1
GRIDFORMAT_BEGIN
 90
        0
 91
        1
 62
     0
 92
       -2
340
0
 93
        0
 40
0.045
309
GRIDFORMAT_END
 95
       32
302
GRIDFORMAT
  1
GRIDFORMAT_BEGIN
 90
        0
 91
        1
 62
     0
 92
       -2
340
0
 93
        0
 40
0.045
309
GRIDFORMAT_END
309
TABLEFORMAT_END
  1
CELLSTYLE_BEGIN
 90
        2
 91
        1
300
_HEADER
309
CELLSTYLE_END
300
CELLSTYLE
  1
TABLEFORMAT_BEGIN
 90
        5
170
     1
 91
        0
 92
        0
 62
   257
 93
        1
300
CONTENTFORMAT
  1
CONTENTFORMAT_BEGIN
 90
        0
 91
        0
 92
      512
 93
        0
300

 40
0.0
140
1.0
 94
        2
 62
     0
340
55
144
0.18
309
CONTENTFORMAT_END
171
     1
301
MARGIN
  1
CELLMARGIN_BEGIN
 40
0.06
 40
0.06
 40
0.06
 40
0.06
 40
0.18
 40
0.18
309
CELLMARGIN_END
 94
        6
 95
        1
302
GRIDFORMAT
  1
GRIDFORMAT_BEGIN
 90
        0
 91
        1
 62
     0
 92
       -2
340
0
 93
        0
 40
0.045
309
GRIDFORMAT_END
 95
        2
302
GRIDFORMAT
  1
GRIDFORMAT_BEGIN
 90
        0
 91
        1
 62
     0
 92
       -2
340
0
 93
        0
 40
0.045
309
GRIDFORMAT_END
 95
        4
302
GRIDFORMAT
  1
GRIDFORMAT_BEGIN
 90
        0
 91
        1
 62
     0
 92
       -2
340
0
 93
        0
 40
0.045
309
GRIDFORMAT_END
 95
        8
302
GRIDFORMAT
  1
GRIDFORMAT_BEGIN
 90
        0
 91
        1
 62
     0
 92
       -2
340
0
 93
        0
 40
0.045
309
GRIDFORMAT_END
 95
       16
302
GRIDFORMAT
  1
GRIDFORMAT_BEGIN
 90
        0
 91
        1
 62
     0
 92
       -2
340
0
 93
        0
 40
0.045
309
GRIDFORMAT_END
 95
       32
302
GRIDFORMAT
  1
GRIDFORMAT_BEGIN
 90
        0
 91
        1
 62
     0
 92
       -2
340
0
 93
        0
 40
0.045
309
GRIDFORMAT_END
309
TABLEFORMAT_END
  1
CELLSTYLE_BEGIN
 90
        3
 91
        2
300
_DATA
309
CELLSTYLE_END
  0
XRECORD
  5
EEA
102
{ACAD_REACTORS
330
68D
102
}
330
68D
100
AcDbXrecord
280
     1
102
ACAD_ROUNDTRIP_PRE2007_TABLESTYLE
 90
      512
 91
        0
  1

 92
      512
 93
        0
  2

 94
      512
 95
        0
  3

  0
CELLSTYLEMAP
  5
EB3
102
{ACAD_REACTORS
330
812
102
}
330
812
100
AcDbCellStyleMap
 90
        3
300
CELLSTYLE
  1
TABLEFORMAT_BEGIN
 90
        5
170
     1
 91
        0
 92
    32768
 62
   257
 93
        1
300
CONTENTFORMAT
  1
CONTENTFORMAT_BEGIN
 90
        0
 91
        0
 92
      512
 93
        0
300

 40
0.0
140
1.0
 94
        8
 62
     3
340
42C
144
0.25
309
CONTENTFORMAT_END
171
     1
301
MARGIN
  1
CELLMARGIN_BEGIN
 40
0.5
 40
10.0
 40
0.06
 40
0.06
 40
0.18
 40
0.18
309
CELLMARGIN_END
 94
        6
 95
        1
302
GRIDFORMAT
  1
GRIDFORMAT_BEGIN
 90
        0
 91
        1
 62
     0
 92
       -2
340
0
 93
        0
 40
0.045
309
GRIDFORMAT_END
 95
        2
302
GRIDFORMAT
  1
GRIDFORMAT_BEGIN
 90
        0
 91
        1
 62
     0
 92
       -2
340
0
 93
        0
 40
0.045
309
GRIDFORMAT_END
 95
        4
302
GRIDFORMAT
  1
GRIDFORMAT_BEGIN
 90
        0
 91
        1
 62
     0
 92
       -2
340
0
 93
        0
 40
0.045
309
GRIDFORMAT_END
 95
        8
302
GRIDFORMAT
  1
GRIDFORMAT_BEGIN
 90
        0
 91
        1
 62
     0
 92
       -2
340
0
 93
        0
 40
0.045
309
GRIDFORMAT_END
 95
       16
302
GRIDFORMAT
  1
GRIDFORMAT_BEGIN
 90
        0
 91
        1
 62
     0
 92
       -2
340
0
 93
        0
 40
0.045
309
GRIDFORMAT_END
 95
       32
302
GRIDFORMAT
  1
GRIDFORMAT_BEGIN
 90
        0
 91
        1
 62
     0
 92
       -2
340
0
 93
        0
 40
0.045
309
GRIDFORMAT_END
309
TABLEFORMAT_END
  1
CELLSTYLE_BEGIN
 90
        1
 91
        1
300
_TITLE
309
CELLSTYLE_END
300
CELLSTYLE
  1
TABLEFORMAT_BEGIN
 90
        5
170
     1
 91
        0
 92
        0
 62
   257
 93
        1
300
CONTENTFORMAT
  1
CONTENTFORMAT_BEGIN
 90
        0
 91
        0
 92
      512
 93
        0
300

 40
0.0
140
1.0
 94
        7
 62
     3
340
42C
144
0.18
309
CONTENTFORMAT_END
171
     1
301
MARGIN
  1
CELLMARGIN_BEGIN
 40
0.5
 40
1.5
 40
0.06
 40
0.06
 40
0.18
 40
0.18
309
CELLMARGIN_END
 94
        6
 95
        1
302
GRIDFORMAT
  1
GRIDFORMAT_BEGIN
 90
        0
 91
        1
 62
     3
 92
       -2
340
5A
 93
        0
 40
0.045
309
GRIDFORMAT_END
 95
        2
302
GRIDFORMAT
  1
GRIDFORMAT_BEGIN
 90
        0
 91
        1
 62
     7
 92
       -2
340
5A
 93
        0
 40
0.045
309
GRIDFORMAT_END
 95
        4
302
GRIDFORMAT
  1
GRIDFORMAT_BEGIN
 90
        0
 91
        1
 62
     3
 92
       -2
340
5A
 93
        0
 40
0.045
309
GRIDFORMAT_END
 95
        8
302
GRIDFORMAT
  1
GRIDFORMAT_BEGIN
 90
        0
 91
        1
 62
     3
 92
       -2
340
5A
 93
        0
 40
0.045
309
GRIDFORMAT_END
 95
       16
302
GRIDFORMAT
  1
GRIDFORMAT_BEGIN
 90
        0
 91
        1
 62
     7
 92
       -2
340
5A
 93
        0
 40
0.045
309
GRIDFORMAT_END
 95
       32
302
GRIDFORMAT
  1
GRIDFORMAT_BEGIN
 90
        0
 91
        1
 62
     3
 92
       -2
340
5A
 93
        0
 40
0.045
309
GRIDFORMAT_END
309
TABLEFORMAT_END
  1
CELLSTYLE_BEGIN
 90
        2
 91
        1
300
_HEADER
309
CELLSTYLE_END
300
CELLSTYLE
  1
TABLEFORMAT_BEGIN
 90
        5
170
     1
 91
        0
 92
        0
 62
   257
 93
        1
300
CONTENTFORMAT
  1
CONTENTFORMAT_BEGIN
 90
        0
 91
        0
 92
      512
 93
        0
300

 40
0.0
140
1.0
 94
        7
 62
     3
340
42C
144
0.18
309
CONTENTFORMAT_END
171
     1
301
MARGIN
  1
CELLMARGIN_BEGIN
 40
0.5
 40
1.5
 40
0.06
 40
0.06
 40
0.18
 40
0.18
309
CELLMARGIN_END
 94
        6
 95
        1
302
GRIDFORMAT
  1
GRIDFORMAT_BEGIN
 90
        0
 91
        1
 62
     3
 92
       -2
340
5A
 93
        0
 40
0.045
309
GRIDFORMAT_END
 95
        2
302
GRIDFORMAT
  1
GRIDFORMAT_BEGIN
 90
        0
 91
        1
 62
     7
 92
       -2
340
5A
 93
        0
 40
0.045
309
GRIDFORMAT_END
 95
        4
302
GRIDFORMAT
  1
GRIDFORMAT_BEGIN
 90
        0
 91
        1
 62
     3
 92
       -2
340
5A
 93
        0
 40
0.045
309
GRIDFORMAT_END
 95
        8
302
GRIDFORMAT
  1
GRIDFORMAT_BEGIN
 90
        0
 91
        1
 62
     3
 92
       -2
340
5A
 93
        0
 40
0.045
309
GRIDFORMAT_END
 95
       16
302
GRIDFORMAT
  1
GRIDFORMAT_BEGIN
 90
        0
 91
        1
 62
     7
 92
       -2
340
5A
 93
        0
 40
0.045
309
GRIDFORMAT_END
 95
       32
302
GRIDFORMAT
  1
GRIDFORMAT_BEGIN
 90
        0
 91
        1
 62
     3
 92
       -2
340
5A
 93
        0
 40
0.045
309
GRIDFORMAT_END
309
TABLEFORMAT_END
  1
CELLSTYLE_BEGIN
 90
        3
 91
        2
300
_DATA
309
CELLSTYLE_END
  0
XRECORD
  5
EF1
102
{ACAD_REACTORS
330
812
102
}
330
812
100
AcDbXrecord
280
     1
102
ACAD_ROUNDTRIP_PRE2007_TABLESTYLE
 90
      512
 91
        0
  1

 92
      512
 93
        0
  2

 94
      512
 95
        0
  3

  0
XRECORD
  5
EC5
102
{ACAD_REACTORS
330
EC4
102
}
330
EC4
100
AcDbXrecord
280
     1
102
RTVSPropertyOp0
 70
     1
102
RTVSPropertyOp1
 70
     1
102
RTVSPropertyOp2
 70
     1
102
RTVSPropertyOp3
 70
     1
102
RTVSPropertyOp4
 70
     1
102
RTVSPropertyOp5
 70
     1
102
RTVSPropertyOp6
 70
     1
102
RTVSPropertyOp7
 70
     1
102
RTVSPropertyOp8
 70
     1
102
RTVSPropertyOp9
 70
     1
102
RTVSPropertyOp10
 70
     1
102
RTVSPropertyOp11
 70
     1
102
RTVSPropertyOp12
 70
     1
102
RTVSPropertyOp13
 70
     1
102
RTVSPropertyOp14
 70
     1
102
RTVSPropertyOp15
 70
     1
102
RTVSPropertyOp16
 70
     1
102
RTVSPropertyOp17
 70
     1
102
RTVSPropertyOp18
 70
     1
102
RTVSPropertyOp19
 70
     1
102
RTVSPropertyOp20
 70
     1
102
RTVSPropertyOp21
 70
     1
102
RTVSPropertyOp22
 70
     1
102
RTVSPropertyOp23
 70
     1
102
RTVSPropertyOp24
 70
     1
102
RTVSPropertyOp25
 70
     1
102
RTVSPropertyOp26
 70
     1
102
RTVSPropertyOp27
 70
     1
102
RTVSPropertyOp28
 70
     1
102
RTVSPropertyOp29
 70
     1
102
RTVSPropertyOp30
 70
     1
102
RTVSPropertyOp31
 70
     1
102
RTVSPropertyOp32
 70
     1
  0
XRECORD
  5
EF0
102
{ACAD_REACTORS
330
EEF
102
}
330
EEF
100
AcDbXrecord
280
     1
102
RTVSPropertyOp0
 70
     1
102
RTVSPropertyOp1
 70
     1
102
RTVSPropertyOp2
 70
     1
102
RTVSPropertyOp3
 70
     1
102
RTVSPropertyOp4
 70
     1
102
RTVSPropertyOp5
 70
     1
102
RTVSPropertyOp6
 70
     1
102
RTVSPropertyOp7
 70
     1
102
RTVSPropertyOp8
 70
     1
102
RTVSPropertyOp9
 70
     1
102
RTVSPropertyOp10
 70
     1
102
RTVSPropertyOp11
 70
     1
102
RTVSPropertyOp12
 70
     1
102
RTVSPropertyOp13
 70
     1
102
RTVSPropertyOp14
 70
     1
102
RTVSPropertyOp15
 70
     1
102
RTVSPropertyOp16
 70
     1
102
RTVSPropertyOp17
 70
     1
102
RTVSPropertyOp18
 70
     1
102
RTVSPropertyOp19
 70
     1
102
RTVSPropertyOp20
 70
     1
102
RTVSPropertyOp21
 70
     1
102
RTVSPropertyOp22
 70
     1
102
RTVSPropertyOp23
 70
     1
102
RTVSPropertyOp24
 70
     1
102
RTVSPropertyOp25
 70
     1
102
RTVSPropertyOp26
 70
     1
102
RTVSPropertyOp27
 70
     1
102
RTVSPropertyOp28
 70
     1
102
RTVSPropertyOp29
 70
     1
102
RTVSPropertyOp30
 70
     1
102
RTVSPropertyOp31
 70
     1
102
RTVSPropertyOp32
 70
     1
  0
XRECORD
  5
EC3
102
{ACAD_REACTORS
330
EC2
102
}
330
EC2
100
AcDbXrecord
280
     1
102
RTVSPropertyOp0
 70
     1
102
RTVSPropertyOp1
 70
     1
102
RTVSPropertyOp2
 70
     1
102
RTVSPropertyOp3
 70
     1
102
RTVSPropertyOp4
 70
     1
102
RTVSPropertyOp5
 70
     1
102
RTVSPropertyOp6
 70
     1
102
RTVSPropertyOp7
 70
     1
102
RTVSPropertyOp8
 70
     1
102
RTVSPropertyOp9
 70
     1
102
RTVSPropertyOp10
 70
     1
102
RTVSPropertyOp11
 70
     1
102
RTVSPropertyOp12
 70
     1
102
RTVSPropertyOp13
 70
     1
102
RTVSPropertyOp14
 70
     1
102
RTVSPropertyOp15
 70
     1
102
RTVSPropertyOp16
 70
     1
102
RTVSPropertyOp17
 70
     1
102
RTVSPropertyOp18
 70
     1
102
RTVSPropertyOp19
 70
     1
102
RTVSPropertyOp20
 70
     1
102
RTVSPropertyOp21
 70
     1
102
RTVSPropertyOp22
 70
     1
102
RTVSPropertyOp23
 70
     1
102
RTVSPropertyOp24
 70
     1
102
RTVSPropertyOp25
 70
     1
102
RTVSPropertyOp26
 70
     1
102
RTVSPropertyOp27
 70
     1
102
RTVSPropertyOp28
 70
     1
102
RTVSPropertyOp29
 70
     1
102
RTVSPropertyOp30
 70
     1
102
RTVSPropertyOp31
 70
     1
102
RTVSPropertyOp32
 70
     1
  0
XRECORD
  5
ED1
102
{ACAD_REACTORS
330
ED0
102
}
330
ED0
100
AcDbXrecord
280
     1
102
RTVSPropertyOp0
 70
     1
102
RTVSPropertyOp1
 70
     1
102
RTVSPropertyOp2
 70
     1
102
RTVSPropertyOp3
 70
     1
102
RTVSPropertyOp4
 70
     1
102
RTVSPropertyOp5
 70
     1
102
RTVSPropertyOp6
 70
     1
102
RTVSPropertyOp7
 70
     1
102
RTVSPropertyOp8
 70
     1
102
RTVSPropertyOp9
 70
     1
102
RTVSPropertyOp10
 70
     1
102
RTVSPropertyOp11
 70
     1
102
RTVSPropertyOp12
 70
     1
102
RTVSPropertyOp13
 70
     1
102
RTVSPropertyOp14
 70
     1
102
RTVSPropertyOp15
 70
     1
102
RTVSPropertyOp16
 70
     1
102
RTVSPropertyOp17
 70
     1
102
RTVSPropertyOp18
 70
     1
102
RTVSPropertyOp19
 70
     1
102
RTVSPropertyOp20
 70
     1
102
RTVSPropertyOp21
 70
     1
102
RTVSPropertyOp22
 70
     1
102
RTVSPropertyOp23
 70
     1
102
RTVSPropertyOp24
 70
     1
102
RTVSPropertyOp25
 70
     1
102
RTVSPropertyOp26
 70
     1
102
RTVSPropertyOp27
 70
     1
102
RTVSPropertyOp28
 70
     1
102
RTVSPropertyOp29
 70
     1
102
RTVSPropertyOp30
 70
     1
102
RTVSPropertyOp31
 70
     1
102
RTVSPropertyOp32
 70
     1
  0
XRECORD
  5
ED9
102
{ACAD_REACTORS
330
ED8
102
}
330
ED8
100
AcDbXrecord
280
     1
102
RTVSPropertyOp0
 70
     1
102
RTVSPropertyOp1
 70
     1
102
RTVSPropertyOp2
 70
     1
102
RTVSPropertyOp3
 70
     1
102
RTVSPropertyOp4
 70
     1
102
RTVSPropertyOp5
 70
     1
102
RTVSPropertyOp6
 70
     1
102
RTVSPropertyOp7
 70
     1
102
RTVSPropertyOp8
 70
     1
102
RTVSPropertyOp9
 70
     1
102
RTVSPropertyOp10
 70
     1
102
RTVSPropertyOp11
 70
     1
102
RTVSPropertyOp12
 70
     1
102
RTVSPropertyOp13
 70
     1
102
RTVSPropertyOp14
 70
     1
102
RTVSPropertyOp15
 70
     1
102
RTVSPropertyOp16
 70
     1
102
RTVSPropertyOp17
 70
     1
102
RTVSPropertyOp18
 70
     1
102
RTVSPropertyOp19
 70
     1
102
RTVSPropertyOp20
 70
     1
102
RTVSPropertyOp21
 70
     1
102
RTVSPropertyOp22
 70
     1
102
RTVSPropertyOp23
 70
     1
102
RTVSPropertyOp24
 70
     1
102
RTVSPropertyOp25
 70
     1
102
RTVSPropertyOp26
 70
     1
102
RTVSPropertyOp27
 70
     1
102
RTVSPropertyOp28
 70
     1
102
RTVSPropertyOp29
 70
     1
102
RTVSPropertyOp30
 70
     1
102
RTVSPropertyOp31
 70
     1
102
RTVSPropertyOp32
 70
     1
  0
XRECORD
  5
ECB
102
{ACAD_REACTORS
330
ECA
102
}
330
ECA
100
AcDbXrecord
280
     1
102
RTVSPropertyOp0
 70
     1
102
RTVSPropertyOp1
 70
     1
102
RTVSPropertyOp2
 70
     1
102
RTVSPropertyOp3
 70
     1
102
RTVSPropertyOp4
 70
     1
102
RTVSPropertyOp5
 70
     1
102
RTVSPropertyOp6
 70
     1
102
RTVSPropertyOp7
 70
     1
102
RTVSPropertyOp8
 70
     1
102
RTVSPropertyOp9
 70
     1
102
RTVSPropertyOp10
 70
     1
102
RTVSPropertyOp11
 70
     1
102
RTVSPropertyOp12
 70
     1
102
RTVSPropertyOp13
 70
     1
102
RTVSPropertyOp14
 70
     1
102
RTVSPropertyOp15
 70
     1
102
RTVSPropertyOp16
 70
     1
102
RTVSPropertyOp17
 70
     1
102
RTVSPropertyOp18
 70
     1
102
RTVSPropertyOp19
 70
     1
102
RTVSPropertyOp20
 70
     1
102
RTVSPropertyOp21
 70
     1
102
RTVSPropertyOp22
 70
     1
102
RTVSPropertyOp23
 70
     1
102
RTVSPropertyOp24
 70
     1
102
RTVSPropertyOp25
 70
     1
102
RTVSPropertyOp26
 70
     1
102
RTVSPropertyOp27
 70
     1
102
RTVSPropertyOp28
 70
     1
102
RTVSPropertyOp29
 70
     1
102
RTVSPropertyOp30
 70
     1
102
RTVSPropertyOp31
 70
     1
102
RTVSPropertyOp32
 70
     1
  0
XRECORD
  5
ECF
102
{ACAD_REACTORS
330
ECE
102
}
330
ECE
100
AcDbXrecord
280
     1
102
RTVSPropertyOp0
 70
     1
102
RTVSPropertyOp1
 70
     1
102
RTVSPropertyOp2
 70
     1
102
RTVSPropertyOp3
 70
     1
102
RTVSPropertyOp4
 70
     1
102
RTVSPropertyOp5
 70
     1
102
RTVSPropertyOp6
 70
     1
102
RTVSPropertyOp7
 70
     1
102
RTVSPropertyOp8
 70
     1
102
RTVSPropertyOp9
 70
     1
102
RTVSPropertyOp10
 70
     1
102
RTVSPropertyOp11
 70
     1
102
RTVSPropertyOp12
 70
     1
102
RTVSPropertyOp13
 70
     1
102
RTVSPropertyOp14
 70
     1
102
RTVSPropertyOp15
 70
     1
102
RTVSPropertyOp16
 70
     1
102
RTVSPropertyOp17
 70
     1
102
RTVSPropertyOp18
 70
     1
102
RTVSPropertyOp19
 70
     1
102
RTVSPropertyOp20
 70
     1
102
RTVSPropertyOp21
 70
     1
102
RTVSPropertyOp22
 70
     1
102
RTVSPropertyOp23
 70
     1
102
RTVSPropertyOp24
 70
     1
102
RTVSPropertyOp25
 70
     1
102
RTVSPropertyOp26
 70
     1
102
RTVSPropertyOp27
 70
     1
102
RTVSPropertyOp28
 70
     1
102
RTVSPropertyOp29
 70
     1
102
RTVSPropertyOp30
 70
     1
102
RTVSPropertyOp31
 70
     1
102
RTVSPropertyOp32
 70
     1
  0
XRECORD
  5
EE9
102
{ACAD_REACTORS
330
EE8
102
}
330
EE8
100
AcDbXrecord
280
     1
102
RTVSPropertyOp0
 70
     0
102
RTVSPropertyOp1
 70
     0
102
RTVSPropertyOp2
 70
     0
102
RTVSPropertyOp3
 70
     0
102
RTVSPropertyOp4
 70
     0
102
RTVSPropertyOp5
 70
     0
102
RTVSPropertyOp6
 70
     0
102
RTVSPropertyOp7
 70
     0
102
RTVSPropertyOp8
 70
     0
102
RTVSPropertyOp9
 70
     0
102
RTVSPropertyOp10
 70
     0
102
RTVSPropertyOp11
 70
     0
102
RTVSPropertyOp12
 70
     0
102
RTVSPropertyOp13
 70
     0
102
RTVSPropertyOp14
 70
     2
102
RTVSPropertyOp15
 70
     0
102
RTVSPropertyOp16
 70
     0
102
RTVSPropertyOp17
 70
     0
102
RTVSPropertyOp18
 70
     0
102
RTVSPropertyOp19
 70
     0
102
RTVSPropertyOp20
 70
     0
102
RTVSPropertyOp21
 70
     0
102
RTVSPropertyOp22
 70
     0
102
RTVSPropertyOp23
 70
     0
102
RTVSPropertyOp24
 70
     0
102
RTVSPropertyOp25
 70
     0
102
RTVSPropertyOp26
 70
     0
102
RTVSPropertyOp27
 70
     0
102
RTVSPropertyOp28
 70
     0
102
RTVSPropertyOp29
 70
     0
102
RTVSPropertyOp30
 70
     0
102
RTVSPropertyOp31
 70
     0
102
RTVSPropertyOp32
 70
     0
  0
XRECORD
  5
ED7
102
{ACAD_REACTORS
330
ED6
102
}
330
ED6
100
AcDbXrecord
280
     1
102
RTVSPropertyOp0
 70
     1
102
RTVSPropertyOp1
 70
     1
102
RTVSPropertyOp2
 70
     1
102
RTVSPropertyOp3
 70
     1
102
RTVSPropertyOp4
 70
     1
102
RTVSPropertyOp5
 70
     1
102
RTVSPropertyOp6
 70
     1
102
RTVSPropertyOp7
 70
     1
102
RTVSPropertyOp8
 70
     1
102
RTVSPropertyOp9
 70
     1
102
RTVSPropertyOp10
 70
     1
102
RTVSPropertyOp11
 70
     1
102
RTVSPropertyOp12
 70
     1
102
RTVSPropertyOp13
 70
     1
102
RTVSPropertyOp14
 70
     1
102
RTVSPropertyOp15
 70
     1
102
RTVSPropertyOp16
 70
     1
102
RTVSPropertyOp17
 70
     1
102
RTVSPropertyOp18
 70
     1
102
RTVSPropertyOp19
 70
     1
102
RTVSPropertyOp20
 70
     1
102
RTVSPropertyOp21
 70
     1
102
RTVSPropertyOp22
 70
     1
102
RTVSPropertyOp23
 70
     1
102
RTVSPropertyOp24
 70
     1
102
RTVSPropertyOp25
 70
     1
102
RTVSPropertyOp26
 70
     1
102
RTVSPropertyOp27
 70
     1
102
RTVSPropertyOp28
 70
     1
102
RTVSPropertyOp29
 70
     1
102
RTVSPropertyOp30
 70
     1
102
RTVSPropertyOp31
 70
     1
102
RTVSPropertyOp32
 70
     1
  0
XRECORD
  5
EBB
102
{ACAD_REACTORS
330
EBA
102
}
330
EBA
100
AcDbXrecord
280
     1
102
RTVSPropertyOp0
 70
     1
102
RTVSPropertyOp1
 70
     1
102
RTVSPropertyOp2
 70
     1
102
RTVSPropertyOp3
 70
     1
102
RTVSPropertyOp4
 70
     1
102
RTVSPropertyOp5
 70
     1
102
RTVSPropertyOp6
 70
     1
102
RTVSPropertyOp7
 70
     1
102
RTVSPropertyOp8
 70
     1
102
RTVSPropertyOp9
 70
     1
102
RTVSPropertyOp10
 70
     1
102
RTVSPropertyOp11
 70
     1
102
RTVSPropertyOp12
 70
     1
102
RTVSPropertyOp13
 70
     1
102
RTVSPropertyOp14
 70
     1
102
RTVSPropertyOp15
 70
     1
102
RTVSPropertyOp16
 70
     1
102
RTVSPropertyOp17
 70
     1
102
RTVSPropertyOp18
 70
     1
102
RTVSPropertyOp19
 70
     1
102
RTVSPropertyOp20
 70
     1
102
RTVSPropertyOp21
 70
     1
102
RTVSPropertyOp22
 70
     1
102
RTVSPropertyOp23
 70
     1
102
RTVSPropertyOp24
 70
     1
102
RTVSPropertyOp25
 70
     1
102
RTVSPropertyOp26
 70
     1
102
RTVSPropertyOp27
 70
     1
102
RTVSPropertyOp28
 70
     1
102
RTVSPropertyOp29
 70
     1
102
RTVSPropertyOp30
 70
     1
102
RTVSPropertyOp31
 70
     1
102
RTVSPropertyOp32
 70
     1
  0
XRECORD
  5
EBD
102
{ACAD_REACTORS
330
EBC
102
}
330
EBC
100
AcDbXrecord
280
     1
102
RTVSPropertyOp0
 70
     1
102
RTVSPropertyOp1
 70
     1
102
RTVSPropertyOp2
 70
     1
102
RTVSPropertyOp3
 70
     1
102
RTVSPropertyOp4
 70
     1
102
RTVSPropertyOp5
 70
     1
102
RTVSPropertyOp6
 70
     1
102
RTVSPropertyOp7
 70
     1
102
RTVSPropertyOp8
 70
     1
102
RTVSPropertyOp9
 70
     1
102
RTVSPropertyOp10
 70
     1
102
RTVSPropertyOp11
 70
     1
102
RTVSPropertyOp12
 70
     1
102
RTVSPropertyOp13
 70
     1
102
RTVSPropertyOp14
 70
     1
102
RTVSPropertyOp15
 70
     1
102
RTVSPropertyOp16
 70
     1
102
RTVSPropertyOp17
 70
     1
102
RTVSPropertyOp18
 70
     1
102
RTVSPropertyOp19
 70
     1
102
RTVSPropertyOp20
 70
     1
102
RTVSPropertyOp21
 70
     1
102
RTVSPropertyOp22
 70
     1
102
RTVSPropertyOp23
 70
     1
102
RTVSPropertyOp24
 70
     1
102
RTVSPropertyOp25
 70
     1
102
RTVSPropertyOp26
 70
     1
102
RTVSPropertyOp27
 70
     1
102
RTVSPropertyOp28
 70
     1
102
RTVSPropertyOp29
 70
     1
102
RTVSPropertyOp30
 70
     1
102
RTVSPropertyOp31
 70
     1
102
RTVSPropertyOp32
 70
     1
  0
XRECORD
  5
EBF
102
{ACAD_REACTORS
330
EBE
102
}
330
EBE
100
AcDbXrecord
280
     1
102
RTVSPropertyOp0
 70
     1
102
RTVSPropertyOp1
 70
     1
102
RTVSPropertyOp2
 70
     1
102
RTVSPropertyOp3
 70
     1
102
RTVSPropertyOp4
 70
     1
102
RTVSPropertyOp5
 70
     1
102
RTVSPropertyOp6
 70
     1
102
RTVSPropertyOp7
 70
     1
102
RTVSPropertyOp8
 70
     1
102
RTVSPropertyOp9
 70
     1
102
RTVSPropertyOp10
 70
     1
102
RTVSPropertyOp11
 70
     1
102
RTVSPropertyOp12
 70
     1
102
RTVSPropertyOp13
 70
     1
102
RTVSPropertyOp14
 70
     1
102
RTVSPropertyOp15
 70
     1
102
RTVSPropertyOp16
 70
     1
102
RTVSPropertyOp17
 70
     1
102
RTVSPropertyOp18
 70
     1
102
RTVSPropertyOp19
 70
     1
102
RTVSPropertyOp20
 70
     1
102
RTVSPropertyOp21
 70
     1
102
RTVSPropertyOp22
 70
     1
102
RTVSPropertyOp23
 70
     1
102
RTVSPropertyOp24
 70
     1
102
RTVSPropertyOp25
 70
     1
102
RTVSPropertyOp26
 70
     1
102
RTVSPropertyOp27
 70
     1
102
RTVSPropertyOp28
 70
     1
102
RTVSPropertyOp29
 70
     1
102
RTVSPropertyOp30
 70
     1
102
RTVSPropertyOp31
 70
     1
102
RTVSPropertyOp32
 70
     1
  0
XRECORD
  5
EC1
102
{ACAD_REACTORS
330
EC0
102
}
330
EC0
100
AcDbXrecord
280
     1
102
RTVSPropertyOp0
 70
     1
102
RTVSPropertyOp1
 70
     1
102
RTVSPropertyOp2
 70
     1
102
RTVSPropertyOp3
 70
     1
102
RTVSPropertyOp4
 70
     1
102
RTVSPropertyOp5
 70
     1
102
RTVSPropertyOp6
 70
     1
102
RTVSPropertyOp7
 70
     1
102
RTVSPropertyOp8
 70
     1
102
RTVSPropertyOp9
 70
     1
102
RTVSPropertyOp10
 70
     1
102
RTVSPropertyOp11
 70
     1
102
RTVSPropertyOp12
 70
     1
102
RTVSPropertyOp13
 70
     1
102
RTVSPropertyOp14
 70
     1
102
RTVSPropertyOp15
 70
     1
102
RTVSPropertyOp16
 70
     1
102
RTVSPropertyOp17
 70
     1
102
RTVSPropertyOp18
 70
     1
102
RTVSPropertyOp19
 70
     1
102
RTVSPropertyOp20
 70
     1
102
RTVSPropertyOp21
 70
     1
102
RTVSPropertyOp22
 70
     1
102
RTVSPropertyOp23
 70
     1
102
RTVSPropertyOp24
 70
     1
102
RTVSPropertyOp25
 70
     1
102
RTVSPropertyOp26
 70
     1
102
RTVSPropertyOp27
 70
     1
102
RTVSPropertyOp28
 70
     1
102
RTVSPropertyOp29
 70
     1
102
RTVSPropertyOp30
 70
     1
102
RTVSPropertyOp31
 70
     1
102
RTVSPropertyOp32
 70
     1
  0
XRECORD
  5
EC9
102
{ACAD_REACTORS
330
EC8
102
}
330
EC8
100
AcDbXrecord
280
     1
102
RTVSPropertyOp0
 70
     1
102
RTVSPropertyOp1
 70
     1
102
RTVSPropertyOp2
 70
     1
102
RTVSPropertyOp3
 70
     1
102
RTVSPropertyOp4
 70
     1
102
RTVSPropertyOp5
 70
     1
102
RTVSPropertyOp6
 70
     1
102
RTVSPropertyOp7
 70
     1
102
RTVSPropertyOp8
 70
     1
102
RTVSPropertyOp9
 70
     1
102
RTVSPropertyOp10
 70
     1
102
RTVSPropertyOp11
 70
     1
102
RTVSPropertyOp12
 70
     1
102
RTVSPropertyOp13
 70
     1
102
RTVSPropertyOp14
 70
     1
102
RTVSPropertyOp15
 70
     1
102
RTVSPropertyOp16
 70
     1
102
RTVSPropertyOp17
 70
     1
102
RTVSPropertyOp18
 70
     1
102
RTVSPropertyOp19
 70
     1
102
RTVSPropertyOp20
 70
     1
102
RTVSPropertyOp21
 70
     1
102
RTVSPropertyOp22
 70
     1
102
RTVSPropertyOp23
 70
     1
102
RTVSPropertyOp24
 70
     1
102
RTVSPropertyOp25
 70
     1
102
RTVSPropertyOp26
 70
     1
102
RTVSPropertyOp27
 70
     1
102
RTVSPropertyOp28
 70
     1
102
RTVSPropertyOp29
 70
     1
102
RTVSPropertyOp30
 70
     1
102
RTVSPropertyOp31
 70
     1
102
RTVSPropertyOp32
 70
     1
  0
XRECORD
  5
EE5
102
{ACAD_REACTORS
330
EE4
102
}
330
EE4
100
AcDbXrecord
280
     1
102
RTVSPropertyOp0
 70
     0
102
RTVSPropertyOp1
 70
     0
102
RTVSPropertyOp2
 70
     0
102
RTVSPropertyOp3
 70
     0
102
RTVSPropertyOp4
 70
     0
102
RTVSPropertyOp5
 70
     0
102
RTVSPropertyOp6
 70
     0
102
RTVSPropertyOp7
 70
     0
102
RTVSPropertyOp8
 70
     0
102
RTVSPropertyOp9
 70
     0
102
RTVSPropertyOp10
 70
     0
102
RTVSPropertyOp11
 70
     0
102
RTVSPropertyOp12
 70
     0
102
RTVSPropertyOp13
 70
     0
102
RTVSPropertyOp14
 70
     2
102
RTVSPropertyOp15
 70
     0
102
RTVSPropertyOp16
 70
     0
102
RTVSPropertyOp17
 70
     0
102
RTVSPropertyOp18
 70
     0
102
RTVSPropertyOp19
 70
     0
102
RTVSPropertyOp20
 70
     0
102
RTVSPropertyOp21
 70
     0
102
RTVSPropertyOp22
 70
     0
102
RTVSPropertyOp23
 70
     0
102
RTVSPropertyOp24
 70
     0
102
RTVSPropertyOp25
 70
     0
102
RTVSPropertyOp26
 70
     0
102
RTVSPropertyOp27
 70
     0
102
RTVSPropertyOp28
 70
     0
102
RTVSPropertyOp29
 70
     0
102
RTVSPropertyOp30
 70
     0
102
RTVSPropertyOp31
 70
     0
102
RTVSPropertyOp32
 70
     0
  0
XRECORD
  5
ED5
102
{ACAD_REACTORS
330
ED4
102
}
330
ED4
100
AcDbXrecord
280
     1
102
RTVSPropertyOp0
 70
     1
102
RTVSPropertyOp1
 70
     1
102
RTVSPropertyOp2
 70
     1
102
RTVSPropertyOp3
 70
     1
102
RTVSPropertyOp4
 70
     1
102
RTVSPropertyOp5
 70
     1
102
RTVSPropertyOp6
 70
     1
102
RTVSPropertyOp7
 70
     1
102
RTVSPropertyOp8
 70
     1
102
RTVSPropertyOp9
 70
     1
102
RTVSPropertyOp10
 70
     1
102
RTVSPropertyOp11
 70
     1
102
RTVSPropertyOp12
 70
     1
102
RTVSPropertyOp13
 70
     1
102
RTVSPropertyOp14
 70
     1
102
RTVSPropertyOp15
 70
     1
102
RTVSPropertyOp16
 70
     1
102
RTVSPropertyOp17
 70
     1
102
RTVSPropertyOp18
 70
     1
102
RTVSPropertyOp19
 70
     1
102
RTVSPropertyOp20
 70
     1
102
RTVSPropertyOp21
 70
     1
102
RTVSPropertyOp22
 70
     1
102
RTVSPropertyOp23
 70
     1
102
RTVSPropertyOp24
 70
     1
102
RTVSPropertyOp25
 70
     1
102
RTVSPropertyOp26
 70
     1
102
RTVSPropertyOp27
 70
     1
102
RTVSPropertyOp28
 70
     1
102
RTVSPropertyOp29
 70
     1
102
RTVSPropertyOp30
 70
     1
102
RTVSPropertyOp31
 70
     1
102
RTVSPropertyOp32
 70
     1
  0
XRECORD
  5
EE7
102
{ACAD_REACTORS
330
EE6
102
}
330
EE6
100
AcDbXrecord
280
     1
102
RTVSPropertyOp0
 70
     0
102
RTVSPropertyOp1
 70
     0
102
RTVSPropertyOp2
 70
     0
102
RTVSPropertyOp3
 70
     0
102
RTVSPropertyOp4
 70
     0
102
RTVSPropertyOp5
 70
     0
102
RTVSPropertyOp6
 70
     0
102
RTVSPropertyOp7
 70
     0
102
RTVSPropertyOp8
 70
     0
102
RTVSPropertyOp9
 70
     0
102
RTVSPropertyOp10
 70
     0
102
RTVSPropertyOp11
 70
     0
102
RTVSPropertyOp12
 70
     0
102
RTVSPropertyOp13
 70
     0
102
RTVSPropertyOp14
 70
     2
102
RTVSPropertyOp15
 70
     0
102
RTVSPropertyOp16
 70
     0
102
RTVSPropertyOp17
 70
     0
102
RTVSPropertyOp18
 70
     0
102
RTVSPropertyOp19
 70
     0
102
RTVSPropertyOp20
 70
     0
102
RTVSPropertyOp21
 70
     0
102
RTVSPropertyOp22
 70
     0
102
RTVSPropertyOp23
 70
     0
102
RTVSPropertyOp24
 70
     0
102
RTVSPropertyOp25
 70
     0
102
RTVSPropertyOp26
 70
     0
102
RTVSPropertyOp27
 70
     0
102
RTVSPropertyOp28
 70
     0
102
RTVSPropertyOp29
 70
     0
102
RTVSPropertyOp30
 70
     0
102
RTVSPropertyOp31
 70
     0
102
RTVSPropertyOp32
 70
     0
  0
XRECORD
  5
ECD
102
{ACAD_REACTORS
330
ECC
102
}
330
ECC
100
AcDbXrecord
280
     1
102
RTVSPropertyOp0
 70
     1
102
RTVSPropertyOp1
 70
     1
102
RTVSPropertyOp2
 70
     1
102
RTVSPropertyOp3
 70
     1
102
RTVSPropertyOp4
 70
     1
102
RTVSPropertyOp5
 70
     1
102
RTVSPropertyOp6
 70
     1
102
RTVSPropertyOp7
 70
     1
102
RTVSPropertyOp8
 70
     1
102
RTVSPropertyOp9
 70
     1
102
RTVSPropertyOp10
 70
     1
102
RTVSPropertyOp11
 70
     1
102
RTVSPropertyOp12
 70
     1
102
RTVSPropertyOp13
 70
     1
102
RTVSPropertyOp14
 70
     1
102
RTVSPropertyOp15
 70
     1
102
RTVSPropertyOp16
 70
     1
102
RTVSPropertyOp17
 70
     1
102
RTVSPropertyOp18
 70
     1
102
RTVSPropertyOp19
 70
     1
102
RTVSPropertyOp20
 70
     1
102
RTVSPropertyOp21
 70
     1
102
RTVSPropertyOp22
 70
     1
102
RTVSPropertyOp23
 70
     1
102
RTVSPropertyOp24
 70
     1
102
RTVSPropertyOp25
 70
     1
102
RTVSPropertyOp26
 70
     1
102
RTVSPropertyOp27
 70
     1
102
RTVSPropertyOp28
 70
     1
102
RTVSPropertyOp29
 70
     1
102
RTVSPropertyOp30
 70
     1
102
RTVSPropertyOp31
 70
     1
102
RTVSPropertyOp32
 70
     1
  0
XRECORD
  5
EE3
102
{ACAD_REACTORS
330
EE2
102
}
330
EE2
100
AcDbXrecord
280
     1
102
RTVSPropertyOp0
 70
     1
102
RTVSPropertyOp1
 70
     1
102
RTVSPropertyOp2
 70
     1
102
RTVSPropertyOp3
 70
     1
102
RTVSPropertyOp4
 70
     1
102
RTVSPropertyOp5
 70
     1
102
RTVSPropertyOp6
 70
     1
102
RTVSPropertyOp7
 70
     1
102
RTVSPropertyOp8
 70
     1
102
RTVSPropertyOp9
 70
     1
102
RTVSPropertyOp10
 70
     1
102
RTVSPropertyOp11
 70
     1
102
RTVSPropertyOp12
 70
     1
102
RTVSPropertyOp13
 70
     1
102
RTVSPropertyOp14
 70
     1
102
RTVSPropertyOp15
 70
     1
102
RTVSPropertyOp16
 70
     1
102
RTVSPropertyOp17
 70
     1
102
RTVSPropertyOp18
 70
     1
102
RTVSPropertyOp19
 70
     1
102
RTVSPropertyOp20
 70
     1
102
RTVSPropertyOp21
 70
     1
102
RTVSPropertyOp22
 70
     1
102
RTVSPropertyOp23
 70
     1
102
RTVSPropertyOp24
 70
     1
102
RTVSPropertyOp25
 70
     1
102
RTVSPropertyOp26
 70
     1
102
RTVSPropertyOp27
 70
     1
102
RTVSPropertyOp28
 70
     1
102
RTVSPropertyOp29
 70
     1
102
RTVSPropertyOp30
 70
     1
102
RTVSPropertyOp31
 70
     1
102
RTVSPropertyOp32
 70
     1
  0
XRECORD
  5
EE1
102
{ACAD_REACTORS
330
EE0
102
}
330
EE0
100
AcDbXrecord
280
     1
102
RTVSPropertyOp0
 70
     1
102
RTVSPropertyOp1
 70
     1
102
RTVSPropertyOp2
 70
     1
102
RTVSPropertyOp3
 70
     1
102
RTVSPropertyOp4
 70
     1
102
RTVSPropertyOp5
 70
     1
102
RTVSPropertyOp6
 70
     1
102
RTVSPropertyOp7
 70
     1
102
RTVSPropertyOp8
 70
     1
102
RTVSPropertyOp9
 70
     1
102
RTVSPropertyOp10
 70
     1
102
RTVSPropertyOp11
 70
     1
102
RTVSPropertyOp12
 70
     1
102
RTVSPropertyOp13
 70
     1
102
RTVSPropertyOp14
 70
     1
102
RTVSPropertyOp15
 70
     1
102
RTVSPropertyOp16
 70
     1
102
RTVSPropertyOp17
 70
     1
102
RTVSPropertyOp18
 70
     1
102
RTVSPropertyOp19
 70
     1
102
RTVSPropertyOp20
 70
     1
102
RTVSPropertyOp21
 70
     1
102
RTVSPropertyOp22
 70
     1
102
RTVSPropertyOp23
 70
     1
102
RTVSPropertyOp24
 70
     1
102
RTVSPropertyOp25
 70
     1
102
RTVSPropertyOp26
 70
     1
102
RTVSPropertyOp27
 70
     1
102
RTVSPropertyOp28
 70
     1
102
RTVSPropertyOp29
 70
     1
102
RTVSPropertyOp30
 70
     1
102
RTVSPropertyOp31
 70
     1
102
RTVSPropertyOp32
 70
     1
  0
XRECORD
  5
EDB
102
{ACAD_REACTORS
330
EDA
102
}
330
EDA
100
AcDbXrecord
280
     1
102
RTVSPropertyOp0
 70
     1
102
RTVSPropertyOp1
 70
     1
102
RTVSPropertyOp2
 70
     1
102
RTVSPropertyOp3
 70
     1
102
RTVSPropertyOp4
 70
     1
102
RTVSPropertyOp5
 70
     1
102
RTVSPropertyOp6
 70
     1
102
RTVSPropertyOp7
 70
     1
102
RTVSPropertyOp8
 70
     1
102
RTVSPropertyOp9
 70
     1
102
RTVSPropertyOp10
 70
     1
102
RTVSPropertyOp11
 70
     1
102
RTVSPropertyOp12
 70
     1
102
RTVSPropertyOp13
 70
     1
102
RTVSPropertyOp14
 70
     1
102
RTVSPropertyOp15
 70
     1
102
RTVSPropertyOp16
 70
     1
102
RTVSPropertyOp17
 70
     1
102
RTVSPropertyOp18
 70
     1
102
RTVSPropertyOp19
 70
     1
102
RTVSPropertyOp20
 70
     1
102
RTVSPropertyOp21
 70
     1
102
RTVSPropertyOp22
 70
     1
102
RTVSPropertyOp23
 70
     1
102
RTVSPropertyOp24
 70
     1
102
RTVSPropertyOp25
 70
     1
102
RTVSPropertyOp26
 70
     1
102
RTVSPropertyOp27
 70
     1
102
RTVSPropertyOp28
 70
     1
102
RTVSPropertyOp29
 70
     1
102
RTVSPropertyOp30
 70
     1
102
RTVSPropertyOp31
 70
     1
102
RTVSPropertyOp32
 70
     1
  0
XRECORD
  5
EDD
102
{ACAD_REACTORS
330
EDC
102
}
330
EDC
100
AcDbXrecord
280
     1
102
RTVSPropertyOp0
 70
     1
102
RTVSPropertyOp1
 70
     1
102
RTVSPropertyOp2
 70
     1
102
RTVSPropertyOp3
 70
     1
102
RTVSPropertyOp4
 70
     1
102
RTVSPropertyOp5
 70
     1
102
RTVSPropertyOp6
 70
     1
102
RTVSPropertyOp7
 70
     1
102
RTVSPropertyOp8
 70
     1
102
RTVSPropertyOp9
 70
     1
102
RTVSPropertyOp10
 70
     1
102
RTVSPropertyOp11
 70
     1
102
RTVSPropertyOp12
 70
     1
102
RTVSPropertyOp13
 70
     1
102
RTVSPropertyOp14
 70
     1
102
RTVSPropertyOp15
 70
     1
102
RTVSPropertyOp16
 70
     1
102
RTVSPropertyOp17
 70
     1
102
RTVSPropertyOp18
 70
     1
102
RTVSPropertyOp19
 70
     1
102
RTVSPropertyOp20
 70
     1
102
RTVSPropertyOp21
 70
     1
102
RTVSPropertyOp22
 70
     1
102
RTVSPropertyOp23
 70
     1
102
RTVSPropertyOp24
 70
     1
102
RTVSPropertyOp25
 70
     1
102
RTVSPropertyOp26
 70
     1
102
RTVSPropertyOp27
 70
     1
102
RTVSPropertyOp28
 70
     1
102
RTVSPropertyOp29
 70
     1
102
RTVSPropertyOp30
 70
     1
102
RTVSPropertyOp31
 70
     1
102
RTVSPropertyOp32
 70
     1
  0
XRECORD
  5
ED3
102
{ACAD_REACTORS
330
ED2
102
}
330
ED2
100
AcDbXrecord
280
     1
102
RTVSPropertyOp0
 70
     1
102
RTVSPropertyOp1
 70
     1
102
RTVSPropertyOp2
 70
     1
102
RTVSPropertyOp3
 70
     1
102
RTVSPropertyOp4
 70
     1
102
RTVSPropertyOp5
 70
     1
102
RTVSPropertyOp6
 70
     1
102
RTVSPropertyOp7
 70
     1
102
RTVSPropertyOp8
 70
     1
102
RTVSPropertyOp9
 70
     1
102
RTVSPropertyOp10
 70
     1
102
RTVSPropertyOp11
 70
     1
102
RTVSPropertyOp12
 70
     1
102
RTVSPropertyOp13
 70
     1
102
RTVSPropertyOp14
 70
     1
102
RTVSPropertyOp15
 70
     1
102
RTVSPropertyOp16
 70
     1
102
RTVSPropertyOp17
 70
     1
102
RTVSPropertyOp18
 70
     1
102
RTVSPropertyOp19
 70
     1
102
RTVSPropertyOp20
 70
     1
102
RTVSPropertyOp21
 70
     1
102
RTVSPropertyOp22
 70
     1
102
RTVSPropertyOp23
 70
     1
102
RTVSPropertyOp24
 70
     1
102
RTVSPropertyOp25
 70
     1
102
RTVSPropertyOp26
 70
     1
102
RTVSPropertyOp27
 70
     1
102
RTVSPropertyOp28
 70
     1
102
RTVSPropertyOp29
 70
     1
102
RTVSPropertyOp30
 70
     1
102
RTVSPropertyOp31
 70
     1
102
RTVSPropertyOp32
 70
     1
  0
XRECORD
  5
EC7
102
{ACAD_REACTORS
330
EC6
102
}
330
EC6
100
AcDbXrecord
280
     1
102
RTVSPropertyOp0
 70
     1
102
RTVSPropertyOp1
 70
     1
102
RTVSPropertyOp2
 70
     1
102
RTVSPropertyOp3
 70
     1
102
RTVSPropertyOp4
 70
     1
102
RTVSPropertyOp5
 70
     1
102
RTVSPropertyOp6
 70
     1
102
RTVSPropertyOp7
 70
     1
102
RTVSPropertyOp8
 70
     1
102
RTVSPropertyOp9
 70
     1
102
RTVSPropertyOp10
 70
     1
102
RTVSPropertyOp11
 70
     1
102
RTVSPropertyOp12
 70
     1
102
RTVSPropertyOp13
 70
     1
102
RTVSPropertyOp14
 70
     1
102
RTVSPropertyOp15
 70
     1
102
RTVSPropertyOp16
 70
     1
102
RTVSPropertyOp17
 70
     1
102
RTVSPropertyOp18
 70
     1
102
RTVSPropertyOp19
 70
     1
102
RTVSPropertyOp20
 70
     1
102
RTVSPropertyOp21
 70
     1
102
RTVSPropertyOp22
 70
     1
102
RTVSPropertyOp23
 70
     1
102
RTVSPropertyOp24
 70
     1
102
RTVSPropertyOp25
 70
     1
102
RTVSPropertyOp26
 70
     1
102
RTVSPropertyOp27
 70
     1
102
RTVSPropertyOp28
 70
     1
102
RTVSPropertyOp29
 70
     1
102
RTVSPropertyOp30
 70
     1
102
RTVSPropertyOp31
 70
     1
102
RTVSPropertyOp32
 70
     1
  0
XRECORD
  5
EDF
102
{ACAD_REACTORS
330
EDE
102
}
330
EDE
100
AcDbXrecord
280
     1
102
RTVSPropertyOp0
 70
     1
102
RTVSPropertyOp1
 70
     1
102
RTVSPropertyOp2
 70
     1
102
RTVSPropertyOp3
 70
     1
102
RTVSPropertyOp4
 70
     1
102
RTVSPropertyOp5
 70
     1
102
RTVSPropertyOp6
 70
     1
102
RTVSPropertyOp7
 70
     1
102
RTVSPropertyOp8
 70
     1
102
RTVSPropertyOp9
 70
     1
102
RTVSPropertyOp10
 70
     1
102
RTVSPropertyOp11
 70
     1
102
RTVSPropertyOp12
 70
     1
102
RTVSPropertyOp13
 70
     1
102
RTVSPropertyOp14
 70
     1
102
RTVSPropertyOp15
 70
     1
102
RTVSPropertyOp16
 70
     1
102
RTVSPropertyOp17
 70
     1
102
RTVSPropertyOp18
 70
     1
102
RTVSPropertyOp19
 70
     1
102
RTVSPropertyOp20
 70
     1
102
RTVSPropertyOp21
 70
     1
102
RTVSPropertyOp22
 70
     1
102
RTVSPropertyOp23
 70
     1
102
RTVSPropertyOp24
 70
     1
102
RTVSPropertyOp25
 70
     1
102
RTVSPropertyOp26
 70
     1
102
RTVSPropertyOp27
 70
     1
102
RTVSPropertyOp28
 70
     1
102
RTVSPropertyOp29
 70
     1
102
RTVSPropertyOp30
 70
     1
102
RTVSPropertyOp31
 70
     1
102
RTVSPropertyOp32
 70
     1
  0
ENDSEC
  0
EOF
