  0
SECTION
  2
HEADER
  9
$ACADVER
  1
AC1015
  9
$ACADMAINTVER
 70
    20
  9
$DWGCODEPAGE
  3
ANSI_932
  9
$INSBASE
 10
0.0
 20
0.0
 30
0.0
  9
$EXTMIN
 10
-191.611198
 20
-143.124634
 30
0.0
  9
$EXTMAX
 10
422.4869416097815
 20
133.875366
 30
0.0
  9
$LIMMIN
 10
-191.612206
 20
-143.243828
  9
$LIMMAX
 10
213.415658
 20
133.876366
  9
$ORTHOMODE
 70
     0
  9
$REGENMODE
 70
     1
  9
$FILLMODE
 70
     1
  9
$QTEXTMODE
 70
     0
  9
$MIRRTEXT
 70
     0
  9
$LTSCALE
 40
6.750430999999997
  9
$ATTMODE
 70
     1
  9
$TEXTSIZE
 40
3.2
  9
$TRACEWID
 40
0.05
  9
$TEXTSTYLE
  7
高3.2
  9
$CLAYER
  8
0
  9
$CELTYPE
  6
ByLayer
  9
$CECOLOR
 62
   256
  9
$CELTSCALE
 40
1.0
  9
$DISPSILH
 70
     0
  9
$DIMSCALE
 40
1.0
  9
$DIMASZ
 40
2.5
  9
$DIMEXO
 40
0.25
  9
$DIMDLI
 40
0.2
  9
$DIMRND
 40
0.0
  9
$DIMDLE
 40
0.0
  9
$DIMEXE
 40
1.25
  9
$DIMTP
 40
0.0
  9
$DIMTM
 40
0.0
  9
$DIMTXT
 40
3.0
  9
$DIMCEN
 40
0.0
  9
$DIMTSZ
 40
0.0
  9
$DIMTOL
 70
     0
  9
$DIMLIM
 70
     0
  9
$DIMTIH
 70
     0
  9
$DIMTOH
 70
     0
  9
$DIMSE1
 70
     0
  9
$DIMSE2
 70
     0
  9
$DIMTAD
 70
     3
  9
$DIMZIN
 70
     8
  9
$DIMBLK
  1
Open30
  9
$DIMASO
 70
     1
  9
$DIMSHO
 70
     1
  9
$DIMPOST
  1

  9
$DIMAPOST
  1

  9
$DIMALT
 70
     0
  9
$DIMALTD
 70
     3
  9
$DIMALTF
 40
0.03937007874016
  9
$DIMLFAC
 40
1.0
  9
$DIMTOFL
 70
     1
  9
$DIMTVP
 40
0.0
  9
$DIMTIX
 70
     0
  9
$DIMSOXD
 70
     0
  9
$DIMSAH
 70
     0
  9
$DIMBLK1
  1

  9
$DIMBLK2
  1

  9
$DIMSTYLE
  2
FREE
  9
$DIMCLRD
 70
     0
  9
$DIMCLRE
 70
     0
  9
$DIMCLRT
 70
     4
  9
$DIMTFAC
 40
1.0
  9
$DIMGAP
 40
0.625
  9
$DIMJUST
 70
     0
  9
$DIMSD1
 70
     0
  9
$DIMSD2
 70
     0
  9
$DIMTOLJ
 70
     0
  9
$DIMTZIN
 70
     8
  9
$DIMALTZ
 70
     0
  9
$DIMALTTZ
 70
     0
  9
$DIMUPT
 70
     1
  9
$DIMDEC
 70
     2
  9
$DIMTDEC
 70
     2
  9
$DIMALTU
 70
     2
  9
$DIMALTTD
 70
     3
  9
$DIMTXSTY
  7
STANDARD
  9
$DIMAUNIT
 70
     0
  9
$DIMADEC
 70
     1
  9
$DIMALTRND
 40
0.0
  9
$DIMAZIN
 70
     2
  9
$DIMDSEP
 70
    46
  9
$DIMATFIT
 70
     0
  9
$DIMFRAC
 70
     0
  9
$DIMLDRBLK
  1
Open30
  9
$DIMLUNIT
 70
     2
  9
$DIMLWD
 70
    -2
  9
$DIMLWE
 70
    -2
  9
$DIMTMOVE
 70
     0
  9
$LUNITS
 70
     2
  9
$LUPREC
 70
     4
  9
$SKETCHINC
 40
0.1
  9
$FILLETRAD
 40
0.0
  9
$AUNITS
 70
     0
  9
$AUPREC
 70
     0
  9
$MENU
  1
.
  9
$ELEVATION
 40
0.0
  9
$PELEVATION
 40
0.0
  9
$THICKNESS
 40
0.0
  9
$LIMCHECK
 70
     0
  9
$CHAMFERA
 40
0.0
  9
$CHAMFERB
 40
0.0
  9
$CHAMFERC
 40
0.0
  9
$CHAMFERD
 40
0.0
  9
$SKPOLY
 70
     0
  9
$TDCREATE
 40
2455825.584551678
  9
$TDUCREATE
 40
2455825.209551678
  9
$TDUPDATE
 40
2460251.679579537
  9
$TDUUPDATE
 40
2460251.304579537
  9
$TDINDWG
 40
0.1990611574
  9
$TDUSRTIMER
 40
0.1990565046
  9
$USRTIMER
 70
     1
  9
$ANGBASE
 50
0.0
  9
$ANGDIR
 70
     0
  9
$PDMODE
 70
     0
  9
$PDSIZE
 40
0.0
  9
$PLINEWID
 40
0.0
  9
$SPLFRAME
 70
     0
  9
$SPLINETYPE
 70
     6
  9
$SPLINESEGS
 70
     8
  9
$HANDSEED
  5
1034
  9
$SURFTAB1
 70
     6
  9
$SURFTAB2
 70
     6
  9
$SURFTYPE
 70
     6
  9
$SURFU
 70
     6
  9
$SURFV
 70
     6
  9
$UCSBASE
  2

  9
$UCSNAME
  2

  9
$UCSORG
 10
0.0
 20
0.0
 30
0.0
  9
$UCSXDIR
 10
1.0
 20
0.0
 30
0.0
  9
$UCSYDIR
 10
0.0
 20
1.0
 30
0.0
  9
$UCSORTHOREF
  2

  9
$UCSORTHOVIEW
 70
     0
  9
$UCSORGTOP
 10
0.0
 20
0.0
 30
0.0
  9
$UCSORGBOTTOM
 10
0.0
 20
0.0
 30
0.0
  9
$UCSORGLEFT
 10
0.0
 20
0.0
 30
0.0
  9
$UCSORGRIGHT
 10
0.0
 20
0.0
 30
0.0
  9
$UCSORGFRONT
 10
0.0
 20
0.0
 30
0.0
  9
$UCSORGBACK
 10
0.0
 20
0.0
 30
0.0
  9
$PUCSBASE
  2

  9
$PUCSNAME
  2

  9
$PUCSORG
 10
0.0
 20
0.0
 30
0.0
  9
$PUCSXDIR
 10
1.0
 20
0.0
 30
0.0
  9
$PUCSYDIR
 10
0.0
 20
1.0
 30
0.0
  9
$PUCSORTHOREF
  2

  9
$PUCSORTHOVIEW
 70
     0
  9
$PUCSORGTOP
 10
0.0
 20
0.0
 30
0.0
  9
$PUCSORGBOTTOM
 10
0.0
 20
0.0
 30
0.0
  9
$PUCSORGLEFT
 10
0.0
 20
0.0
 30
0.0
  9
$PUCSORGRIGHT
 10
0.0
 20
0.0
 30
0.0
  9
$PUCSORGFRONT
 10
0.0
 20
0.0
 30
0.0
  9
$PUCSORGBACK
 10
0.0
 20
0.0
 30
0.0
  9
$USERI1
 70
     0
  9
$USERI2
 70
     0
  9
$USERI3
 70
     0
  9
$USERI4
 70
     0
  9
$USERI5
 70
     0
  9
$USERR1
 40
0.0
  9
$USERR2
 40
0.0
  9
$USERR3
 40
0.0
  9
$USERR4
 40
0.0
  9
$USERR5
 40
0.0
  9
$WORLDVIEW
 70
     1
  9
$SHADEDGE
 70
     3
  9
$SHADEDIF
 70
    70
  9
$TILEMODE
 70
     1
  9
$MAXACTVP
 70
    64
  9
$PINSBASE
 10
0.0
 20
0.0
 30
0.0
  9
$PLIMCHECK
 70
     0
  9
$PEXTMIN
 10
1.000000000000000E+20
 20
1.000000000000000E+20
 30
1.000000000000000E+20
  9
$PEXTMAX
 10
-1.000000000000000E+20
 20
-1.000000000000000E+20
 30
-1.000000000000000E+20
  9
$PLIMMIN
 10
0.0
 20
0.0
  9
$PLIMMAX
 10
12.0
 20
9.0
  9
$UNITMODE
 70
     0
  9
$VISRETAIN
 70
     1
  9
$PLINEGEN
 70
     0
  9
$PSLTSCALE
 70
     1
  9
$TREEDEPTH
 70
  3020
  9
$CMLSTYLE
  2
Standard
  9
$CMLJUST
 70
     0
  9
$CMLSCALE
 40
1.0
  9
$PROXYGRAPHICS
 70
     1
  9
$MEASUREMENT
 70
     0
  9
$CELWEIGHT
370
    -1
  9
$ENDCAPS
280
     0
  9
$JOINSTYLE
280
     0
  9
$LWDISPLAY
290
     0
  9
$INSUNITS
 70
     0
  9
$HYPERLINKBASE
  1

  9
$STYLESHEET
  1
N-PLOT.CTB
  9
$XEDIT
290
     1
  9
$CEPSNTYPE
380
     0
  9
$PSTYLEMODE
290
     1
  9
$FINGERPRINTGUID
  2
{111CE717-F771-4B32-ACFB-D840A0A8BD88}
  9
$VERSIONGUID
  2
{AF2FABE8-CBF8-4864-AE7B-07C652DDEF88}
  9
$EXTNAMES
290
     1
  9
$PSVPSCALE
 40
0.0
  9
$OLESTARTUP
290
     0
  0
ENDSEC
  0
SECTION
  2
CLASSES
  0
CLASS
  1
ACDBDICTIONARYWDFLT
  2
AcDbDictionaryWithDefault
  3
ObjectDBX Classes
 90
        0
280
     0
281
     0
  0
CLASS
  1
MATERIAL
  2
AcDbMaterial
  3
ObjectDBX Classes
 90
     1153
280
     0
281
     0
  0
CLASS
  1
VISUALSTYLE
  2
AcDbVisualStyle
  3
ObjectDBX Classes
 90
     4095
280
     0
281
     0
  0
CLASS
  1
TABLESTYLE
  2
AcDbTableStyle
  3
ObjectDBX Classes
 90
     4095
280
     0
281
     0
  0
CLASS
  1
DICTIONARYVAR
  2
AcDbDictionaryVar
  3
ObjectDBX Classes
 90
        0
280
     0
281
     0
  0
CLASS
  1
ACDBPLACEHOLDER
  2
AcDbPlaceHolder
  3
ObjectDBX Classes
 90
        0
280
     0
281
     0
  0
CLASS
  1
LAYOUT
  2
AcDbLayout
  3
ObjectDBX Classes
 90
        0
280
     0
281
     0
  0
CLASS
  1
SCALE
  2
AcDbScale
  3
ObjectDBX Classes
 90
     1153
280
     0
281
     0
  0
CLASS
  1
MLEADERSTYLE
  2
AcDbMLeaderStyle
  3
ACDB_MLEADERSTYLE_CLASS
 90
     4095
280
     0
281
     0
  0
CLASS
  1
SORTENTSTABLE
  2
AcDbSortentsTable
  3
ObjectDBX Classes
 90
        0
280
     0
281
     0
  0
CLASS
  1
CELLSTYLEMAP
  2
AcDbCellStyleMap
  3
ObjectDBX Classes
 90
     1152
280
     0
281
     0
  0
CLASS
  1
AEC_REFEDIT_STATUS_TRACKER
  2
AecDbRefEditStatusTracker
  3
AecArchBase60|Product Desc: Autodesk Architectural Desktop 2007 |Company: Autodesk,Inc. |WEB Address: www.autodesk.com
 90
      129
280
     0
281
     0
  0
CLASS
  1
NPOCOLLECTION
  2
AcDbImpNonPersistentObjectsCollection
  3
ObjectDBX Classes
 90
     1153
280
     0
281
     0
  0
ENDSEC
  0
SECTION
  2
TABLES
  0
TABLE
  2
VPORT
  5
8
330
0
100
AcDbSymbolTable
 70
     1
  0
VPORT
  5
56
330
8
100
AcDbSymbolTableRecord
100
AcDbViewportTableRecord
  2
*Active
 70
     0
 10
0.0
 20
0.0
 11
1.0
 21
1.0
 12
103.992829341445
 22
-17.04275043550018
 13
0.0
 23
0.0
 14
1.0
 24
1.0
 15
0.0
 25
0.0
 16
0.0
 26
0.0
 36
1.0
 17
0.0
 27
0.0
 37
0.0
 40
714.3491086798454
 41
1.19971870604782
 42
50.0
 43
0.0
 44
0.0
 50
0.0
 51
0.0
 71
     0
 72
   100
 73
     1
 74
     1
 75
     0
 76
     0
 77
     0
 78
     0
281
     0
 65
     1
110
0.0
120
0.0
130
0.0
111
1.0
121
0.0
131
0.0
112
0.0
122
1.0
132
0.0
 79
     0
146
0.0
  0
ENDTAB
  0
TABLE
  2
LTYPE
  5
5
330
0
100
AcDbSymbolTable
 70
     3
  0
LTYPE
  5
28
330
5
100
AcDbSymbolTableRecord
100
AcDbLinetypeTableRecord
  2
ByBlock
 70
     0
  3

 72
    65
 73
     0
 40
0.0
  0
LTYPE
  5
29
330
5
100
AcDbSymbolTableRecord
100
AcDbLinetypeTableRecord
  2
ByLayer
 70
     0
  3

 72
    65
 73
     0
 40
0.0
  0
LTYPE
  5
2A
330
5
100
AcDbSymbolTableRecord
100
AcDbLinetypeTableRecord
  2
CONTINUOUS
 70
     0
  3
Solid-line
 72
    65
 73
     0
 40
0.0
  0
LTYPE
  5
3D
330
5
100
AcDbSymbolTableRecord
100
AcDbLinetypeTableRecord
  2
CENTER
 70
     0
  3
CENTER
 72
    65
 73
     4
 40
2.0
 49
1.25
 74
     0
 49
-0.25
 74
     0
 49
0.25
 74
     0
 49
-0.25
 74
     0
  0
LTYPE
  5
4C
330
5
100
AcDbSymbolTableRecord
100
AcDbLinetypeTableRecord
  2
HIDDEN
 70
     0
  3
HIDDEN
 72
    65
 73
     2
 40
0.375
 49
0.25
 74
     0
 49
-0.125
 74
     0
  0
ENDTAB
  0
TABLE
  2
LAYER
  5
2
102
{ACAD_XDICTIONARY
360
6B8
102
}
330
0
100
AcDbSymbolTable
 70
     2
  0
LAYER
  5
25
102
{ACAD_XDICTIONARY
360
87D
102
}
330
2
100
AcDbSymbolTableRecord
100
AcDbLayerTableRecord
  2
0
 70
     0
 62
     7
  6
CONTINUOUS
370
    -3
390
F
  0
LAYER
  5
6A2
330
2
100
AcDbSymbolTableRecord
100
AcDbLayerTableRecord
  2
Defpoints
 70
     0
 62
     7
  6
CONTINUOUS
290
     0
370
    -3
390
F
  0
ENDTAB
  0
TABLE
  2
STYLE
  5
3
330
0
100
AcDbSymbolTable
 70
     6
  0
STYLE
  5
26
330
3
100
AcDbSymbolTableRecord
100
AcDbTextStyleTableRecord
  2
STANDARD
 70
     0
 40
0.0
 41
1.0
 50
0.0
 71
     0
 42
0.2
  3
TXT
  4
BIGFONT
  0
STYLE
  5
6A3
330
3
100
AcDbSymbolTableRecord
100
AcDbTextStyleTableRecord
  2
高3.2
 70
     0
 40
3.2
 41
1.0
 50
0.0
 71
     0
 42
3.2
  3
txt.shx
  4
bigfont.shx
  0
STYLE
  5
6A4
330
3
100
AcDbSymbolTableRecord
100
AcDbTextStyleTableRecord
  2
高6.3
 70
     0
 40
6.299999999999998
 41
1.0
 50
0.0
 71
     0
 42
6.299999999999998
  3
txt.shx
  4
bigfont.shx
  0
STYLE
  5
6A5
330
3
100
AcDbSymbolTableRecord
100
AcDbTextStyleTableRecord
  2
高2.5
 70
     0
 40
2.5
 41
1.0
 50
0.0
 71
     0
 42
0.2
  3
txt.shx
  4
bigfont.shx
  0
STYLE
  5
6A6
330
3
100
AcDbSymbolTableRecord
100
AcDbTextStyleTableRecord
  2
高4.5
 70
     0
 40
4.5
 41
1.0
 50
0.0
 71
     0
 42
6.299999999999998
  3
txt.shx
  4
bigfont.shx
  0
STYLE
  5
6A7
330
3
100
AcDbSymbolTableRecord
100
AcDbTextStyleTableRecord
  2
高2
 70
     0
 40
2.0
 41
1.0
 50
0.0
 71
     0
 42
2.0
  3
txt.shx
  4
bigfont.shx
  0
ENDTAB
  0
TABLE
  2
VIEW
  5
6
330
0
100
AcDbSymbolTable
 70
     0
  0
ENDTAB
  0
TABLE
  2
UCS
  5
7
330
0
100
AcDbSymbolTable
 70
     0
  0
ENDTAB
  0
TABLE
  2
APPID
  5
9
330
0
100
AcDbSymbolTable
 70
    10
  0
APPID
  5
27
330
9
100
AcDbSymbolTableRecord
100
AcDbRegAppTableRecord
  2
ACAD
 70
     0
  0
APPID
  5
5C7
330
9
100
AcDbSymbolTableRecord
100
AcDbRegAppTableRecord
  2
ACAD_PSEXT
 70
     0
  0
APPID
  5
6B2
330
9
100
AcDbSymbolTableRecord
100
AcDbRegAppTableRecord
  2
ACAD_DSTYLE_DIMJOGGED_JOGANGLE_SYMBOL
 70
     0
  0
APPID
  5
6B3
330
9
100
AcDbSymbolTableRecord
100
AcDbRegAppTableRecord
  2
ACAD_DSTYLE_DIMJAG
 70
     0
  0
APPID
  5
6B4
330
9
100
AcDbSymbolTableRecord
100
AcDbRegAppTableRecord
  2
ACAD_DSTYLE_DIMBREAK
 70
     0
  0
APPID
  5
6B5
330
9
100
AcDbSymbolTableRecord
100
AcDbRegAppTableRecord
  2
ACAD_DSTYLE_DIMTALN
 70
     0
  0
APPID
  5
7F9
330
9
100
AcDbSymbolTableRecord
100
AcDbRegAppTableRecord
  2
ACAD_EXEMPT_FROM_CAD_STANDARDS
 70
     0
  0
APPID
  5
8C3
330
9
100
AcDbSymbolTableRecord
100
AcDbRegAppTableRecord
  2
ACAD_MLEADERVER
 70
     0
  0
APPID
  5
8C4
330
9
100
AcDbSymbolTableRecord
100
AcDbRegAppTableRecord
  2
ACAD_DSTYLE_DIMARC_LENGTH_SYMBOL
 70
     0
  0
APPID
  5
8C5
330
9
100
AcDbSymbolTableRecord
100
AcDbRegAppTableRecord
  2
ACAD_DSTYLE_DIMEXT_LENGTH
 70
     0
  0
ENDTAB
  0
TABLE
  2
DIMSTYLE
  5
A
330
0
100
AcDbSymbolTable
 70
     8
100
AcDbDimStyleTable
 71
     3
340
6B1
340
6AC
340
5BF
  0
DIMSTYLE
105
5BF
330
A
100
AcDbSymbolTableRecord
100
AcDbDimStyleTableRecord
  2
Standard
 70
     0
340
26
  0
DIMSTYLE
105
6AC
330
A
100
AcDbSymbolTableRecord
100
AcDbDimStyleTableRecord
  2
1／2
 70
     0
 41
2.5
 42
0.25
 43
0.2
 44
1.25
 73
     0
 74
     0
 77
     3
 78
     8
 79
     2
140
3.0
141
0.0
143
0.03937007874016
144
2.0
147
0.625
171
     3
172
     1
178
     4
179
     1
271
     2
272
     2
274
     3
283
     0
284
     8
288
     1
289
     0
340
26
341
612
342
612
1001
ACAD_DSTYLE_DIMARC_LENGTH_SYMBOL
1070
   379
1070
     2
1001
ACAD_DSTYLE_DIMEXT_LENGTH
1070
   378
1040
1.25
1001
ACAD_DSTYLE_DIMJOGGED_JOGANGLE_SYMBOL
1070
   384
1040
1.570796326794896
  0
DIMSTYLE
105
6B1
330
A
100
AcDbSymbolTableRecord
100
AcDbDimStyleTableRecord
  2
FREE
 70
     0
 41
2.5
 42
0.25
 43
0.2
 44
1.25
 73
     0
 74
     0
 77
     3
 78
     8
 79
     2
140
3.0
141
0.0
143
0.03937007874016
147
0.625
171
     3
172
     1
178
     4
179
     1
271
     2
272
     2
274
     3
283
     0
284
     8
288
     1
289
     0
340
26
341
612
342
612
1001
ACAD_DSTYLE_DIMBREAK
1070
   391
1040
3.75
1001
ACAD_DSTYLE_DIMJAG
1070
   388
1040
1.5
1001
ACAD_DSTYLE_DIMTALN
1070
   392
1070
     0
1001
ACAD_DSTYLE_DIMARC_LENGTH_SYMBOL
1070
   379
1070
     2
1001
ACAD_DSTYLE_DIMEXT_LENGTH
1070
   378
1040
1.25
1001
ACAD_DSTYLE_DIMJOGGED_JOGANGLE_SYMBOL
1070
   384
1040
1.570796326794896
  0
DIMSTYLE
105
BE7
330
A
100
AcDbSymbolTableRecord
100
AcDbDimStyleTableRecord
  2
1：1
 70
     0
 41
2.5
 42
0.25
 43
0.2
 44
1.25
 73
     0
 74
     0
 77
     3
 78
     8
 79
     2
140
3.0
141
0.0
143
0.03937007874016
147
0.625
171
     3
172
     1
178
     4
179
     1
271
     2
272
     2
274
     3
283
     0
284
     8
288
     1
289
     0
340
26
341
612
342
612
1001
ACAD_DSTYLE_DIMARC_LENGTH_SYMBOL
1070
   379
1070
     2
1001
ACAD_DSTYLE_DIMEXT_LENGTH
1070
   378
1040
1.25
1001
ACAD_DSTYLE_DIMJOGGED_JOGANGLE_SYMBOL
1070
   384
1040
1.570796326794896
  0
DIMSTYLE
105
BE8
330
A
100
AcDbSymbolTableRecord
100
AcDbDimStyleTableRecord
  2
2：1
 70
     0
 41
2.5
 42
0.25
 43
0.2
 44
1.25
 73
     0
 74
     0
 77
     3
 78
     8
 79
     2
140
3.0
141
0.0
143
0.03937007874016
144
0.5
147
0.625
171
     3
172
     1
178
     4
179
     1
271
     2
272
     2
274
     3
283
     0
284
     8
288
     1
289
     0
340
26
341
612
342
612
1001
ACAD_DSTYLE_DIMARC_LENGTH_SYMBOL
1070
   379
1070
     2
1001
ACAD_DSTYLE_DIMEXT_LENGTH
1070
   378
1040
1.25
1001
ACAD_DSTYLE_DIMJOGGED_JOGANGLE_SYMBOL
1070
   384
1040
1.570796326794896
  0
DIMSTYLE
105
BE9
330
A
100
AcDbSymbolTableRecord
100
AcDbDimStyleTableRecord
  2
5：1
 70
     0
 41
2.5
 42
0.25
 43
0.2
 44
1.25
 73
     0
 74
     0
 77
     3
 78
     8
 79
     2
140
3.0
141
0.0
143
0.03937007874016
144
0.2
147
0.625
171
     3
172
     1
178
     4
179
     1
271
     2
272
     2
274
     3
283
     0
284
     8
288
     1
289
     0
340
26
341
612
342
612
1001
ACAD_DSTYLE_DIMARC_LENGTH_SYMBOL
1070
   379
1070
     2
1001
ACAD_DSTYLE_DIMEXT_LENGTH
1070
   378
1040
1.25
1001
ACAD_DSTYLE_DIMJOGGED_JOGANGLE_SYMBOL
1070
   384
1040
1.570796326794896
  0
DIMSTYLE
105
BEA
330
A
100
AcDbSymbolTableRecord
100
AcDbDimStyleTableRecord
  2
10：1
 70
     0
 41
2.5
 42
0.25
 43
0.2
 44
1.25
 73
     0
 74
     0
 77
     3
 78
     8
 79
     2
140
3.0
141
0.0
143
0.03937007874016
144
0.1
147
0.625
171
     3
172
     1
178
     4
179
     1
271
     2
272
     2
274
     3
283
     0
284
     8
288
     1
289
     0
340
26
341
612
342
612
1001
ACAD_DSTYLE_DIMARC_LENGTH_SYMBOL
1070
   379
1070
     2
1001
ACAD_DSTYLE_DIMEXT_LENGTH
1070
   378
1040
1.25
1001
ACAD_DSTYLE_DIMJOGGED_JOGANGLE_SYMBOL
1070
   384
1040
1.570796326794896
  0
DIMSTYLE
105
BEB
330
A
100
AcDbSymbolTableRecord
100
AcDbDimStyleTableRecord
  2
1／5
 70
     0
 41
2.5
 42
0.25
 43
0.2
 44
1.25
 73
     0
 74
     0
 77
     3
 78
     8
 79
     2
140
3.0
141
0.0
143
0.03937007874016
144
5.0
147
0.625
171
     3
172
     1
178
     4
179
     1
271
     2
272
     2
274
     3
283
     0
284
     8
288
     1
289
     0
340
26
341
612
342
612
1001
ACAD_DSTYLE_DIMARC_LENGTH_SYMBOL
1070
   379
1070
     2
1001
ACAD_DSTYLE_DIMEXT_LENGTH
1070
   378
1040
1.25
1001
ACAD_DSTYLE_DIMJOGGED_JOGANGLE_SYMBOL
1070
   384
1040
1.570796326794896
  0
ENDTAB
  0
TABLE
  2
BLOCK_RECORD
  5
1
330
0
100
AcDbSymbolTable
 70
     8
  0
BLOCK_RECORD
  5
36
102
{ACAD_XDICTIONARY
360
851
102
}
330
1
100
AcDbSymbolTableRecord
100
AcDbBlockTableRecord
  2
*Model_Space
340
39
  0
BLOCK_RECORD
  5
32
330
1
100
AcDbSymbolTableRecord
100
AcDbBlockTableRecord
  2
*Paper_Space
340
35
  0
BLOCK_RECORD
  5
612
330
1
100
AcDbSymbolTableRecord
100
AcDbBlockTableRecord
  2
_Open30
340
0
102
{BLKREFS
331
BC5
331
BC6
331
BCE
331
BCF
331
BD7
331
BD8
331
BE0
331
BE1
102
}
  0
BLOCK_RECORD
  5
7FB
330
1
100
AcDbSymbolTableRecord
100
AcDbBlockTableRecord
  2
*D1
340
0
  0
BLOCK_RECORD
  5
810
330
1
100
AcDbSymbolTableRecord
100
AcDbBlockTableRecord
  2
*D2
340
0
  0
BLOCK_RECORD
  5
81C
330
1
100
AcDbSymbolTableRecord
100
AcDbBlockTableRecord
  2
*D3
340
0
  0
BLOCK_RECORD
  5
828
330
1
100
AcDbSymbolTableRecord
100
AcDbBlockTableRecord
  2
*D4
340
0
  0
BLOCK_RECORD
  5
838
330
1
100
AcDbSymbolTableRecord
100
AcDbBlockTableRecord
  2
_DotSmall
340
0
  0
ENDTAB
  0
ENDSEC
  0
SECTION
  2
BLOCKS
  0
BLOCK
  5
37
330
36
100
AcDbEntity
  8
0
100
AcDbBlockBegin
  2
*Model_Space
 70
     0
 10
0.0
 20
0.0
 30
0.0
  3
*Model_Space
  1

  0
ENDBLK
  5
38
330
36
100
AcDbEntity
  8
0
100
AcDbBlockEnd
  0
BLOCK
  5
33
330
32
100
AcDbEntity
 67
     1
  8
0
100
AcDbBlockBegin
  2
*Paper_Space
 70
     0
 10
0.0
 20
0.0
 30
0.0
  3
*Paper_Space
  1

  0
ENDBLK
  5
34
330
32
100
AcDbEntity
 67
     1
  8
0
100
AcDbBlockEnd
  0
BLOCK
  5
613
330
612
100
AcDbEntity
  8
0
100
AcDbBlockBegin
  2
_Open30
 70
     0
 10
0.0
 20
0.0
 30
0.0
  3
_Open30
  1

  0
LINE
  5
614
330
612
100
AcDbEntity
  8
0
  6
ByBlock
 62
     0
370
    -2
100
AcDbLine
 10
-1.0
 20
0.267949
 30
0.0
 11
0.0
 21
0.0
 31
0.0
  0
LINE
  5
615
330
612
100
AcDbEntity
  8
0
  6
ByBlock
 62
     0
370
    -2
100
AcDbLine
 10
0.0
 20
0.0
 30
0.0
 11
-1.0
 21
-0.267949
 31
0.0
  0
LINE
  5
616
330
612
100
AcDbEntity
  8
0
  6
ByBlock
 62
     0
370
    -2
100
AcDbLine
 10
0.0
 20
0.0
 30
0.0
 11
-1.0
 21
0.0
 31
0.0
  0
ENDBLK
  5
617
330
612
100
AcDbEntity
  8
0
100
AcDbBlockEnd
  0
BLOCK
  5
7FC
330
7FB
100
AcDbEntity
  8
0
100
AcDbBlockBegin
  2
*D1
 70
     1
 10
0.0
 20
0.0
 30
0.0
  3
*D1
  1

  0
LINE
  5
BC2
330
7FB
100
AcDbEntity
  8
0
 62
     0
370
    -2
100
AcDbLine
 10
19.247835
 20
-3.623931999999998
 30
0.0
 11
19.247835
 21
-24.85855499999999
 31
0.0
  0
LINE
  5
BC3
330
7FB
100
AcDbEntity
  8
0
 62
     0
370
    -2
100
AcDbLine
 10
136.747835
 20
-4.023931999999998
 30
0.0
 11
136.747835
 21
-24.858555
 31
0.0
  0
LINE
  5
BC4
330
7FB
100
AcDbEntity
  8
0
 62
     0
370
    -2
100
AcDbLine
 10
21.747835
 20
-23.608555
 30
0.0
 11
134.247835
 21
-23.608555
 31
0.0
  0
INSERT
  5
BC5
330
7FB
100
AcDbEntity
  8
0
 62
     0
370
    -2
100
AcDbBlockReference
  2
_Open30
 10
19.247835
 20
-23.608555
 30
0.0
 41
2.5
 42
2.5
 43
2.5
 50
180.0
  0
INSERT
  5
BC6
330
7FB
100
AcDbEntity
  8
0
 62
     0
370
    -2
100
AcDbBlockReference
  2
_Open30
 10
136.747835
 20
-23.608555
 30
0.0
 41
2.5
 42
2.5
 43
2.5
  0
MTEXT
  5
BC7
330
7FB
100
AcDbEntity
  8
0
 62
     4
100
AcDbMText
 10
77.99783500000001
 20
-21.483555
 30
0.0
 40
3.0
 41
0.0
 71
     5
 72
     1
  1
235
 73
     1
 44
1.0
1001
ACAD
1000
MTEXTBEGIN
1070
    73
1070
     1
1070
    44
1040
1.0
1070
    74
1070
     0
1000
MTEXTEND
  0
POINT
  5
BC8
330
7FB
100
AcDbEntity
  8
Defpoints
 62
     0
100
AcDbPoint
 10
19.247835
 20
-3.373931999999998
 30
0.0
  0
POINT
  5
BC9
330
7FB
100
AcDbEntity
  8
Defpoints
 62
     0
100
AcDbPoint
 10
136.747835
 20
-3.773931999999998
 30
0.0
  0
POINT
  5
BCA
330
7FB
100
AcDbEntity
  8
Defpoints
 62
     0
100
AcDbPoint
 10
136.747835
 20
-23.608555
 30
0.0
  0
ENDBLK
  5
7FD
330
7FB
100
AcDbEntity
  8
0
100
AcDbBlockEnd
  0
BLOCK
  5
811
330
810
100
AcDbEntity
  8
0
100
AcDbBlockBegin
  2
*D2
 70
     1
 10
0.0
 20
0.0
 30
0.0
  3
*D2
  1

  0
LINE
  5
BCB
330
810
100
AcDbEntity
  8
0
 62
     0
370
    -2
100
AcDbLine
 10
26.497835
 20
-5.873931999999999
 30
0.0
 11
8.769105999999981
 21
-5.873931999999993
 31
0.0
  0
LINE
  5
BCC
330
810
100
AcDbEntity
  8
0
 62
     0
370
    -2
100
AcDbLine
 10
26.497835
 20
78.426068
 30
0.0
 11
8.769105999999997
 21
78.426068
 31
0.0
  0
LINE
  5
BCD
330
810
100
AcDbEntity
  8
0
 62
     0
370
    -2
100
AcDbLine
 10
10.01910599999998
 20
-3.373931999999994
 30
0.0
 11
10.01910599999999
 21
75.926068
 31
0.0
  0
INSERT
  5
BCE
330
810
100
AcDbEntity
  8
0
 62
     0
370
    -2
100
AcDbBlockReference
  2
_Open30
 10
10.01910599999998
 20
-5.873931999999994
 30
0.0
 41
2.5
 42
2.5
 43
2.5
 50
270.0
  0
INSERT
  5
BCF
330
810
100
AcDbEntity
  8
0
 62
     0
370
    -2
100
AcDbBlockReference
  2
_Open30
 10
10.019106
 20
78.426068
 30
0.0
 41
2.5
 42
2.5
 43
2.5
 50
90.0
  0
MTEXT
  5
BD0
330
810
100
AcDbEntity
  8
0
 62
     4
100
AcDbMText
 10
7.894105999999983
 20
36.27606800000001
 30
0.0
 40
3.0
 41
0.0
 71
     5
 72
     1
  1
170
 11
0.0000000000000001
 21
1.0
 31
0.0
 73
     1
 44
1.0
1001
ACAD
1000
MTEXTBEGIN
1070
    73
1070
     1
1070
    44
1040
1.0
1070
    74
1070
     0
1000
MTEXTEND
  0
POINT
  5
BD1
330
810
100
AcDbEntity
  8
Defpoints
 62
     0
100
AcDbPoint
 10
26.747835
 20
-5.873931999999999
 30
0.0
  0
POINT
  5
BD2
330
810
100
AcDbEntity
  8
Defpoints
 62
     0
100
AcDbPoint
 10
26.747835
 20
78.426068
 30
0.0
  0
POINT
  5
BD3
330
810
100
AcDbEntity
  8
Defpoints
 62
     0
100
AcDbPoint
 10
10.019106
 20
78.426068
 30
0.0
  0
ENDBLK
  5
812
330
810
100
AcDbEntity
  8
0
100
AcDbBlockEnd
  0
BLOCK
  5
81D
330
81C
100
AcDbEntity
  8
0
100
AcDbBlockBegin
  2
*D3
 70
     1
 10
0.0
 20
0.0
 30
0.0
  3
*D3
  1

  0
LINE
  5
BD4
330
81C
100
AcDbEntity
  8
0
 62
     0
370
    -2
100
AcDbLine
 10
47.24783499999998
 20
-11.273932
 30
0.0
 11
0.8101429999999727
 21
-11.27393199999998
 31
0.0
  0
LINE
  5
BD5
330
81C
100
AcDbEntity
  8
0
 62
     0
370
    -2
100
AcDbLine
 10
74.23827
 20
103.375468
 30
0.0
 11
0.8101430000000052
 21
103.375468
 31
0.0
  0
LINE
  5
BD6
330
81C
100
AcDbEntity
  8
0
 62
     0
370
    -2
100
AcDbLine
 10
2.060142999999975
 20
-8.773931999999986
 30
0.0
 11
2.060142999999999
 21
100.875468
 31
0.0
  0
INSERT
  5
BD7
330
81C
100
AcDbEntity
  8
0
 62
     0
370
    -2
100
AcDbBlockReference
  2
_Open30
 10
2.060142999999974
 20
-11.27393199999998
 30
0.0
 41
2.5
 42
2.5
 43
2.5
 50
270.0
  0
INSERT
  5
BD8
330
81C
100
AcDbEntity
  8
0
 62
     0
370
    -2
100
AcDbBlockReference
  2
_Open30
 10
2.060143
 20
103.375468
 30
0.0
 41
2.5
 42
2.5
 43
2.5
 50
90.0
  0
MTEXT
  5
BD9
330
81C
100
AcDbEntity
  8
0
 62
     4
100
AcDbMText
 10
-0.0648570000000202
 20
46.05076800000001
 30
0.0
 40
3.0
 41
0.0
 71
     5
 72
     1
  1
230
 11
0.0000000000000001
 21
1.0
 31
0.0
 73
     1
 44
1.0
1001
ACAD
1000
MTEXTBEGIN
1070
    73
1070
     1
1070
    44
1040
1.0
1070
    74
1070
     0
1000
MTEXTEND
  0
POINT
  5
BDA
330
81C
100
AcDbEntity
  8
Defpoints
 62
     0
100
AcDbPoint
 10
47.49783499999998
 20
-11.273932
 30
0.0
  0
POINT
  5
BDB
330
81C
100
AcDbEntity
  8
Defpoints
 62
     0
100
AcDbPoint
 10
74.48827
 20
103.375468
 30
0.0
  0
POINT
  5
BDC
330
81C
100
AcDbEntity
  8
Defpoints
 62
     0
100
AcDbPoint
 10
2.060143
 20
103.375468
 30
0.0
  0
ENDBLK
  5
81E
330
81C
100
AcDbEntity
  8
0
100
AcDbBlockEnd
  0
BLOCK
  5
829
330
828
100
AcDbEntity
  8
0
100
AcDbBlockBegin
  2
*D4
 70
     1
 10
0.0
 20
0.0
 30
0.0
  3
*D4
  1

  0
LINE
  5
BDD
330
828
100
AcDbEntity
  8
0
 62
     0
370
    -2
100
AcDbLine
 10
-146.802185
 20
3.526008
 30
0.0
 11
-146.802185
 21
-24.858555
 31
0.0
  0
LINE
  5
BDE
330
828
100
AcDbEntity
  8
0
 62
     0
370
    -2
100
AcDbLine
 10
-16.302185
 20
3.526008
 30
0.0
 11
-16.302185
 21
-24.858555
 31
0.0
  0
LINE
  5
BDF
330
828
100
AcDbEntity
  8
0
 62
     0
370
    -2
100
AcDbLine
 10
-144.302185
 20
-23.608555
 30
0.0
 11
-18.802185
 21
-23.608555
 31
0.0
  0
INSERT
  5
BE0
330
828
100
AcDbEntity
  8
0
 62
     0
370
    -2
100
AcDbBlockReference
  2
_Open30
 10
-146.802185
 20
-23.608555
 30
0.0
 41
2.5
 42
2.5
 43
2.5
 50
180.0
  0
INSERT
  5
BE1
330
828
100
AcDbEntity
  8
0
 62
     0
370
    -2
100
AcDbBlockReference
  2
_Open30
 10
-16.302185
 20
-23.608555
 30
0.0
 41
2.5
 42
2.5
 43
2.5
  0
MTEXT
  5
BE2
330
828
100
AcDbEntity
  8
0
 62
     4
100
AcDbMText
 10
-81.55218500000001
 20
-21.483555
 30
0.0
 40
3.0
 41
0.0
 71
     5
 72
     1
  1
260
 73
     1
 44
1.0
1001
ACAD
1000
MTEXTBEGIN
1070
    73
1070
     1
1070
    44
1040
1.0
1070
    74
1070
     0
1000
MTEXTEND
  0
POINT
  5
BE3
330
828
100
AcDbEntity
  8
Defpoints
 62
     0
100
AcDbPoint
 10
-146.802185
 20
3.776008
 30
0.0
  0
POINT
  5
BE4
330
828
100
AcDbEntity
  8
Defpoints
 62
     0
100
AcDbPoint
 10
-16.302185
 20
3.776008
 30
0.0
  0
POINT
  5
BE5
330
828
100
AcDbEntity
  8
Defpoints
 62
     0
100
AcDbPoint
 10
-16.302185
 20
-23.608555
 30
0.0
  0
ENDBLK
  5
82A
330
828
100
AcDbEntity
  8
0
100
AcDbBlockEnd
  0
BLOCK
  5
83A
330
838
100
AcDbEntity
  8
0
100
AcDbBlockBegin
  2
_DotSmall
 70
     0
 10
0.0
 20
0.0
 30
0.0
  3
_DotSmall
  1

  0
LWPOLYLINE
  5
839
330
838
100
AcDbEntity
  8
0
  6
ByBlock
 62
     0
100
AcDbPolyline
 90
        2
 70
     1
 43
0.5
 10
-0.0625
 20
0.0
 42
1.0
 10
0.0625
 20
0.0
 42
1.0
  0
ENDBLK
  5
83B
330
838
100
AcDbEntity
  8
0
100
AcDbBlockEnd
  0
ENDSEC
  0
SECTION
  2
ENTITIES
  0
LINE
  5
93
330
36
100
AcDbEntity
  8
0
 62
     3
100
AcDbLine
 10
-132.927185
 20
32.672831
 30
0.0
 11
-117.177185
 21
32.672831
 31
0.0
  0
LINE
  5
94
330
36
100
AcDbEntity
  8
0
 62
     3
100
AcDbLine
 10
-117.177185
 20
14.422831
 30
0.0
 11
-132.927185
 21
14.422831
 31
0.0
  0
LINE
  5
95
330
36
100
AcDbEntity
  8
0
 62
     3
100
AcDbLine
 10
-117.177185
 20
14.422831
 30
0.0
 11
-117.177185
 21
32.672831
 31
0.0
  0
LINE
  5
96
330
36
100
AcDbEntity
  8
0
 62
     3
100
AcDbLine
 10
-132.927185
 20
14.422831
 30
0.0
 11
-132.927185
 21
32.672831
 31
0.0
  0
CIRCLE
  5
97
330
36
100
AcDbEntity
  8
0
 62
     3
100
AcDbCircle
 10
46.554253
 20
-74.52335699999998
 30
0.0
 40
8.75
  0
LINE
  5
98
330
36
100
AcDbEntity
  8
0
 62
     3
100
AcDbLine
 10
38.247835
 20
102.076068
 30
0.0
 11
38.247835
 21
103.076068
 31
0.0
  0
LINE
  5
99
330
36
100
AcDbEntity
  8
0
 62
     3
100
AcDbLine
 10
38.997835
 20
103.826068
 30
0.0
 11
45.74783499999997
 21
103.826068
 31
0.0
  0
ARC
  5
9A
330
36
100
AcDbEntity
  8
0
 62
     3
100
AcDbCircle
 10
45.74783499999997
 20
96.32606800000001
 30
0.0
 40
5.0
100
AcDbArc
 50
333.891094
 51
90.0
  0
ARC
  5
9B
330
36
100
AcDbEntity
  8
0
 62
     3
100
AcDbCircle
 10
45.74783499999997
 20
96.32606800000001
 30
0.0
 40
7.5
100
AcDbArc
 50
342.9489660000001
 51
90.0
  0
ARC
  5
9C
330
36
100
AcDbEntity
  8
0
 62
     3
100
AcDbCircle
 10
38.997835
 20
103.076068
 30
0.0
 40
0.75
100
AcDbArc
 50
90.0
 51
180.0
  0
ARC
  5
9D
330
36
100
AcDbEntity
  8
0
 62
     3
100
AcDbCircle
 10
38.997835
 20
102.076068
 30
0.0
 40
0.75
100
AcDbArc
 50
180.0
 51
270.0
  0
LINE
  5
A3
330
36
100
AcDbEntity
  8
0
 62
     3
100
AcDbLine
 10
136.747835
 20
76.32606800000002
 30
0.0
 11
136.747835
 21
-3.773931999999998
 31
0.0
  0
CIRCLE
  5
A4
330
36
100
AcDbEntity
  8
0
 62
     3
100
AcDbCircle
 10
46.554253
 20
-87.02335699999997
 30
0.0
 40
0.625
  0
TEXT
  5
A5
330
36
100
AcDbEntity
  8
0
 62
     3
100
AcDbText
 10
146.8305927720723
 20
-132.433609
 30
0.0
 40
3.2
  1
FREE
  7
高3.2
100
AcDbText
  0
CIRCLE
  5
A6
330
36
100
AcDbEntity
  8
0
 62
     3
100
AcDbCircle
 10
-123.008397
 20
3.048048
 30
0.0
 40
2.203282
  0
LINE
  5
A7
330
36
100
AcDbEntity
  8
0
 62
     3
100
AcDbLine
 10
-123.008397
 20
5.25133
 30
0.0
 11
-123.008397
 21
0.844766
 31
0.0
  0
LINE
  5
A8
330
36
100
AcDbEntity
  8
0
 62
     3
100
AcDbLine
 10
-123.008397
 20
0.844766
 30
0.0
 11
-120.625641
 21
4.926758999999997
 31
0.0
  0
LINE
  5
A9
330
36
100
AcDbEntity
  8
0
 62
     3
100
AcDbLine
 10
-123.008397
 20
5.25133
 30
0.0
 11
-125.436974
 21
1.352626
 31
0.0
  0
ARC
  5
AA
330
36
100
AcDbEntity
  8
0
 62
     3
100
AcDbCircle
 10
-45.94475599999999
 20
106.343622
 30
0.0
 40
31.5
100
AcDbArc
 50
183.545661
 51
221.721501
  0
ARC
  5
AB
330
36
100
AcDbEntity
  8
0
 62
     3
100
AcDbCircle
 10
-120.666802
 20
106.343622
 30
0.0
 40
31.5
100
AcDbArc
 50
318.278499
 51
356.454339
  0
ARC
  5
AC
330
36
100
AcDbEntity
  8
0
 62
     3
100
AcDbCircle
 10
-92.304039
 20
81.05422299999998
 30
0.0
 40
6.5
100
AcDbArc
 50
138.278499
 51
180.0
  0
LINE
  5
AD
330
36
100
AcDbEntity
  8
0
 62
     3
100
AcDbLine
 10
-98.80403900000001
 20
81.05422299999998
 30
0.0
 11
-98.80403900000001
 21
78.27276399999998
 31
0.0
  0
ARC
  5
AE
330
36
100
AcDbEntity
  8
0
 62
     3
100
AcDbCircle
 10
-74.307519
 20
81.05422299999998
 30
0.0
 40
6.5
100
AcDbArc
 50
0.0
 51
41.721501
  0
ARC
  5
AF
330
36
100
AcDbEntity
  8
0
 62
     3
100
AcDbCircle
 10
-45.805779
 20
105.772764
 30
0.0
 40
31.599051
100
AcDbArc
 50
181.328499
 51
182.282375
  0
ARC
  5
B0
330
36
100
AcDbEntity
  8
0
 62
     3
100
AcDbCircle
 10
-78.146134
 20
105.022764
 30
0.0
 40
0.75
100
AcDbArc
 50
1.328498999999998
 51
90.0
  0
LINE
  5
B1
330
36
100
AcDbEntity
  8
0
 62
     3
100
AcDbLine
 10
-78.146134
 20
105.772764
 30
0.0
 11
-88.465424
 21
105.772764
 31
0.0
  0
ARC
  5
B2
330
36
100
AcDbEntity
  8
0
 62
     3
100
AcDbCircle
 10
-88.465424
 20
105.022764
 30
0.0
 40
0.75
100
AcDbArc
 50
90.0
 51
178.671501
  0
ARC
  5
B3
330
36
100
AcDbEntity
  8
0
 62
     3
100
AcDbCircle
 10
-120.805779
 20
105.772764
 30
0.0
 40
31.599051
100
AcDbArc
 50
357.717625
 51
358.671501
  0
ARC
  5
B4
330
36
100
AcDbEntity
  8
0
 62
     3
100
AcDbCircle
 10
-88.482391
 20
104.484481
 30
0.0
 40
0.75
100
AcDbArc
 50
177.717625
 51
259.806203
  0
ARC
  5
B5
330
36
100
AcDbEntity
  8
0
 62
     3
100
AcDbCircle
 10
-78.12916700000002
 20
104.484481
 30
0.0
 40
0.75
100
AcDbArc
 50
280.193797
 51
2.282375
  0
ARC
  5
B6
330
36
100
AcDbEntity
  8
0
 62
     3
100
AcDbCircle
 10
-83.30577899999999
 20
133.272764
 30
0.0
 40
30.0
100
AcDbArc
 50
259.806203
 51
280.193797
  0
ARC
  5
B7
330
36
100
AcDbEntity
  8
0
 62
     3
100
AcDbCircle
 10
-83.30577899999999
 20
133.272764
 30
0.0
 40
30.0
100
AcDbArc
 50
280.193797
 51
281.45562
  0
LINE
  5
B8
330
36
100
AcDbEntity
  8
0
 62
     3
100
AcDbLine
 10
-67.807519
 20
81.05422299999998
 30
0.0
 11
-67.807519
 21
78.27600799999998
 31
0.0
  0
ARC
  5
D8
330
36
100
AcDbEntity
  8
0
 62
     3
100
AcDbCircle
 10
125.426054
 20
96.326817
 30
0.0
 40
7.5
100
AcDbArc
 50
90.0
 51
173.163977
  0
ARC
  5
D9
330
36
100
AcDbEntity
  8
0
 62
     3
100
AcDbCircle
 10
128.896782
 20
95.874109
 30
0.0
 40
11.0
100
AcDbArc
 50
172.951156
 51
199.344329
  0
ARC
  5
DA
330
36
100
AcDbEntity
  8
0
 62
     3
100
AcDbCircle
 10
82.77506200000003
 20
79.90177299999998
 30
0.0
 40
37.809244
100
AcDbArc
 50
356.854051
 51
19.17539
  0
LINE
  5
DB
330
36
100
AcDbEntity
  8
0
 62
     3
100
AcDbLine
 10
132.676054
 20
103.826817
 30
0.0
 11
125.426054
 21
103.826817
 31
0.0
  0
LINE
  5
DC
330
36
100
AcDbEntity
  8
0
 62
     3
100
AcDbLine
 10
132.676054
 20
101.326817
 30
0.0
 11
125.926054
 21
101.326817
 31
0.0
  0
ARC
  5
DD
330
36
100
AcDbEntity
  8
0
 62
     3
100
AcDbCircle
 10
125.926054
 20
96.326817
 30
0.0
 40
5.0
100
AcDbArc
 50
90.0
 51
200.285638
  0
ARC
  5
DE
330
36
100
AcDbEntity
  8
0
 62
     3
100
AcDbCircle
 10
81.92605400000003
 20
74.826817
 30
0.0
 40
44.0
100
AcDbArc
 50
2.292443
 51
26.694842
  0
LINE
  5
DF
330
36
100
AcDbEntity
  8
0
 62
     3
100
AcDbLine
 10
125.64104
 20
76.326817
 30
0.0
 11
110.926054
 21
76.326817
 31
0.0
  0
ARC
  5
E0
330
36
100
AcDbEntity
  8
0
 62
     3
100
AcDbCircle
 10
132.676054
 20
102.076817
 30
0.0
 40
0.75
100
AcDbArc
 50
270.0
 51
0.0
  0
ARC
  5
E1
330
36
100
AcDbEntity
  8
0
 62
     3
100
AcDbCircle
 10
89.74783499999999
 20
74.762209
 30
0.0
 40
44.0
100
AcDbArc
 50
153.891094
 51
177.963151
  0
LINE
  5
E2
330
36
100
AcDbEntity
  8
0
 62
     3
100
AcDbLine
 10
51.24783499999999
 20
82.984404
 30
0.0
 11
51.24783499999999
 21
77.826068
 31
0.0
  0
ARC
  5
E3
330
36
100
AcDbEntity
  8
0
 62
     3
100
AcDbCircle
 10
89.247835
 20
82.984404
 30
0.0
 40
38.0
100
AcDbArc
 50
162.948966
 51
180.0
  0
LINE
  5
E4
330
36
100
AcDbEntity
  8
0
 62
     3
100
AcDbLine
 10
38.997835
 20
101.326068
 30
0.0
 11
45.74783499999997
 21
101.326068
 31
0.0
  0
LINE
  5
E5
330
36
100
AcDbEntity
  8
0
100
AcDbLine
 10
133.9847217969451
 20
-45.397543
 30
0.0
 11
133.9847217969451
 21
-86.97754300000005
 31
0.0
  0
LINE
  5
E6
330
36
100
AcDbEntity
  8
0
 62
     3
100
AcDbLine
 10
196.0937190362558
 20
-45.397543
 30
0.0
 11
196.0937190362558
 21
-86.97754300000005
 31
0.0
  0
CIRCLE
  5
EF
330
36
100
AcDbEntity
  8
0
100
AcDbCircle
 10
-107.150362
 20
103.711162
 30
0.0
 40
5.0
  0
TEXT
  5
F0
330
36
100
AcDbEntity
  8
0
 62
     4
100
AcDbText
 10
-108.3925593292933
 20
100.6239792587092
 30
0.0
 40
6.299999999999998
  1
1
  7
高6.3
100
AcDbText
  0
LINE
  5
F1
330
36
100
AcDbEntity
  8
0
 62
     3
100
AcDbLine
 10
16.35054689719686
 20
-143.124634
 30
0.0
 11
16.35054689719686
 21
-58.12463400000005
 31
0.0
  0
LINE
  5
F2
330
36
100
AcDbEntity
  8
0
 62
     3
100
AcDbLine
 10
-98.80403900000001
 20
78.27276399999998
 30
0.0
 11
-67.807519
 21
78.27276399999998
 31
0.0
  0
ARC
  5
F3
330
36
100
AcDbEntity
  8
0
 62
     3
100
AcDbCircle
 10
132.676054
 20
103.076817
 30
0.0
 40
0.75
100
AcDbArc
 50
0.0
 51
90.0
  0
LINE
  5
F4
330
36
100
AcDbEntity
  8
0
 62
     3
100
AcDbLine
 10
133.426054
 20
103.076817
 30
0.0
 11
133.426054
 21
102.076817
 31
0.0
  0
LINE
  5
117
330
36
100
AcDbEntity
  8
0
100
AcDbLine
 10
45.74783499999997
 20
77.826068
 30
0.0
 11
61.24783499999999
 21
77.826068
 31
0.0
  0
LINE
  5
118
330
36
100
AcDbEntity
  8
0
100
AcDbLine
 10
111.176054
 20
77.82681700000002
 30
0.0
 11
123.779966
 21
77.82681700000002
 31
0.0
  0
ARC
  5
11A
330
36
100
AcDbEntity
  8
0
100
AcDbCircle
 10
123.779966
 20
78.32681700000001
 30
0.0
 40
0.5
100
AcDbArc
 50
270.0
 51
4.780191999999995
  0
LINE
  5
11B
330
36
100
AcDbEntity
  8
0
100
AcDbLine
 10
110.926054
 20
76.57681700000002
 30
0.0
 11
110.926054
 21
77.576817
 31
0.0
  0
LINE
  5
11C
330
36
100
AcDbEntity
  8
0
100
AcDbLine
 10
135.1918553025241
 20
-43.53814139493112
 30
0.0
 11
172.3151788591262
 21
-43.53814139493112
 31
0.0
  0
LINE
  5
11D
330
36
100
AcDbEntity
  8
0
100
AcDbLine
 10
46.554253
 20
-55.77335699999999
 30
0.0
 11
46.554253
 21
-68.39835699999999
 31
0.0
  0
LINE
  5
11E
330
36
100
AcDbEntity
  8
0
100
AcDbLine
 10
87.165666
 20
-74.52335699999998
 30
0.0
 11
52.554253
 21
-74.52335699999998
 31
0.0
  0
LINE
  5
11F
330
36
100
AcDbEntity
  8
0
100
AcDbLine
 10
52.554253
 20
-72.14835699999998
 30
0.0
 11
52.554253
 21
-76.89835699999997
 31
0.0
  0
LINE
  5
120
330
36
100
AcDbEntity
  8
0
100
AcDbLine
 10
50.929253
 20
-76.89835699999997
 30
0.0
 11
52.554253
 21
-76.89835699999997
 31
0.0
  0
LINE
  5
121
330
36
100
AcDbEntity
  8
0
100
AcDbLine
 10
50.929253
 20
-72.14835699999998
 30
0.0
 11
50.929253
 21
-76.89835699999997
 31
0.0
  0
LINE
  5
122
330
36
100
AcDbEntity
  8
0
100
AcDbLine
 10
50.929253
 20
-72.14835699999998
 30
0.0
 11
52.554253
 21
-72.14835699999998
 31
0.0
  0
LINE
  5
123
330
36
100
AcDbEntity
  8
0
100
AcDbLine
 10
44.179253
 20
-70.14835699999999
 30
0.0
 11
48.929253
 21
-70.14835699999999
 31
0.0
  0
LINE
  5
124
330
36
100
AcDbEntity
  8
0
100
AcDbLine
 10
48.929253
 20
-68.39835699999999
 30
0.0
 11
48.929253
 21
-70.14835699999999
 31
0.0
  0
LINE
  5
125
330
36
100
AcDbEntity
  8
0
100
AcDbLine
 10
44.179253
 20
-68.39835699999999
 30
0.0
 11
48.929253
 21
-68.39835699999999
 31
0.0
  0
LINE
  5
126
330
36
100
AcDbEntity
  8
0
100
AcDbLine
 10
44.179253
 20
-68.39835699999999
 30
0.0
 11
44.179253
 21
-70.14835699999999
 31
0.0
  0
LINE
  5
127
330
36
100
AcDbEntity
  8
0
100
AcDbLine
 10
42.179253
 20
-72.14835699999998
 30
0.0
 11
42.179253
 21
-76.89835699999997
 31
0.0
  0
LINE
  5
128
330
36
100
AcDbEntity
  8
0
100
AcDbLine
 10
40.554253
 20
-72.14835699999998
 30
0.0
 11
42.179253
 21
-72.14835699999998
 31
0.0
  0
LINE
  5
129
330
36
100
AcDbEntity
  8
0
100
AcDbLine
 10
40.554253
 20
-72.14835699999998
 30
0.0
 11
40.554253
 21
-76.89835699999997
 31
0.0
  0
LINE
  5
12A
330
36
100
AcDbEntity
  8
0
100
AcDbLine
 10
40.554253
 20
-76.89835699999997
 30
0.0
 11
42.179253
 21
-76.89835699999997
 31
0.0
  0
LINE
  5
12B
330
36
100
AcDbEntity
  8
0
100
AcDbLine
 10
45.741753
 20
-76.89835699999997
 30
0.0
 11
45.741753
 21
-81.64835699999997
 31
0.0
  0
LINE
  5
12C
330
36
100
AcDbEntity
  8
0
100
AcDbLine
 10
45.741753
 20
-76.89835699999997
 30
0.0
 11
47.366753
 21
-76.89835699999997
 31
0.0
  0
LINE
  5
12D
330
36
100
AcDbEntity
  8
0
100
AcDbLine
 10
47.366753
 20
-76.89835699999997
 30
0.0
 11
47.366753
 21
-81.64835699999997
 31
0.0
  0
LINE
  5
12E
330
36
100
AcDbEntity
  8
0
100
AcDbLine
 10
45.804253
 20
-81.64835699999997
 30
0.0
 11
47.366753
 21
-81.64835699999997
 31
0.0
  0
LINE
  5
14B
330
36
100
AcDbEntity
  8
0
 62
     3
100
AcDbLine
 10
187.689438
 20
-126.458911
 30
0.0
 11
187.689438
 21
-103.458911
 31
0.0
  0
LINE
  5
14D
330
36
100
AcDbEntity
  8
0
 62
     3
100
AcDbLine
 10
134.635829
 20
-133.458911
 30
0.0
 11
134.635829
 21
-119.458911
 31
0.0
  0
TEXT
  5
14F
330
36
100
AcDbEntity
  8
0
 62
     3
100
AcDbText
 10
163.699756
 20
-107.253795
 30
0.0
 40
2.0
  1
A
 41
0.7
100
AcDbText
  0
TEXT
  5
150
330
36
100
AcDbEntity
  8
0
 62
     3
100
AcDbText
 10
166.235042
 20
-107.253795
 30
0.0
 40
2.0
  1
P
 41
0.7
100
AcDbText
  0
TEXT
  5
151
330
36
100
AcDbEntity
  8
0
 62
     3
100
AcDbText
 10
168.770329
 20
-107.253795
 30
0.0
 40
2.0
  1
P
 41
0.7
100
AcDbText
  0
TEXT
  5
152
330
36
100
AcDbEntity
  8
0
 62
     3
100
AcDbText
 10
171.305615
 20
-107.253795
 30
0.0
 40
2.0
  1
D
 41
0.7
100
AcDbText
  0
TEXT
  5
153
330
36
100
AcDbEntity
  8
0
 62
     3
100
AcDbText
 10
176.674298
 20
-107.253795
 30
0.0
 40
2.0
  1
C
 41
0.7
100
AcDbText
  0
TEXT
  5
154
330
36
100
AcDbEntity
  8
0
 62
     3
100
AcDbText
 10
179.209584
 20
-107.253795
 30
0.0
 40
2.0
  1
H
 41
0.7
100
AcDbText
  0
TEXT
  5
155
330
36
100
AcDbEntity
  8
0
 62
     3
100
AcDbText
 10
181.74487
 20
-107.253795
 30
0.0
 40
2.0
  1
C
 41
0.7
100
AcDbText
  0
TEXT
  5
156
330
36
100
AcDbEntity
  8
0
 62
     3
100
AcDbText
 10
184.280157
 20
-107.253795
 30
0.0
 40
2.0
  1
K
 41
0.7
100
AcDbText
  0
TEXT
  5
157
330
36
100
AcDbEntity
  8
0
 62
     3
100
AcDbText
 10
189.954123
 20
-107.253795
 30
0.0
 40
2.0
  1
DESN
 41
1.216762999999998
100
AcDbText
  0
TEXT
  5
158
330
36
100
AcDbEntity
  8
0
 62
     3
100
AcDbText
 10
104.947764
 20
-136.600293
 30
0.0
 40
2.0
  1
NICHIDO IND.CO.LTD
 41
1.274876
100
AcDbText
  0
LINE
  5
159
330
36
100
AcDbEntity
  8
0
 62
     3
100
AcDbLine
 10
115.330794
 20
-103.458911
 30
0.0
 11
115.330794
 21
-126.458911
 31
0.0
  0
LINE
  5
15A
330
36
100
AcDbEntity
  8
0
 62
     3
100
AcDbLine
 10
161.689438
 20
-103.458911
 30
0.0
 11
161.689438
 21
-143.124634
 31
0.0
  0
LINE
  5
15F
330
36
100
AcDbEntity
  8
0
 62
     3
100
AcDbLine
 10
174.689438
 20
-103.458911
 30
0.0
 11
174.689438
 21
-133.458911
 31
0.0
  0
TEXT
  5
160
330
36
100
AcDbEntity
  8
0
 62
     3
100
AcDbText
 10
162.801883
 20
-132.594224
 30
0.0
 40
3.2
  1
作成日
 41
1.017225999999997
100
AcDbText
  0
LINE
  5
161
330
36
100
AcDbEntity
  8
0
 62
     3
100
AcDbLine
 10
213.388802
 20
-103.458911
 30
0.0
 11
102.085359
 21
-103.458911
 31
0.0
  0
LINE
  5
162
330
36
100
AcDbEntity
  8
0
 62
     3
100
AcDbLine
 10
200.689438
 20
-126.458911
 30
0.0
 11
200.689438
 21
-103.458911
 31
0.0
  0
TEXT
  5
163
330
36
100
AcDbEntity
  8
0
 62
     3
100
AcDbText
 10
204.013241
 20
-107.167977
 30
0.0
 40
1.8
  1
D
 41
0.666667
100
AcDbText
  0
TEXT
  5
164
330
36
100
AcDbEntity
  8
0
 62
     3
100
AcDbText
 10
206.82987
 20
-107.167977
 30
0.0
 40
1.8
  1
E
 41
0.666667
100
AcDbText
  0
TEXT
  5
165
330
36
100
AcDbEntity
  8
0
 62
     3
100
AcDbText
 10
209.646498
 20
-107.167977
 30
0.0
 40
1.8
  1
F
 41
0.666667
100
AcDbText
  0
TEXT
  5
166
330
36
100
AcDbEntity
  8
0
 62
     3
100
AcDbText
 10
204.013241
 20
-111.16053
 30
0.0
 40
3.2
  1
製図
 41
1.076369
100
AcDbText
  0
LINE
  5
167
330
36
100
AcDbEntity
  8
0
 62
     3
100
AcDbLine
 10
102.085359
 20
-103.458911
 30
0.0
 11
102.085359
 21
-143.124634
 31
0.0
  0
TEXT
  5
168
330
36
100
AcDbEntity
  8
0
 62
     3
100
AcDbText
 10
103.462012
 20
-142.792168
 30
0.0
 40
5.0
  1
日動工業株式会社
 41
0.833333
100
AcDbText
  0
LINE
  5
169
330
36
100
AcDbEntity
  8
0
 62
     3
100
AcDbLine
 10
144.967763
 20
-119.458911
 30
0.0
 11
144.967763
 21
-143.124634
 31
0.0
  0
LINE
  5
16A
330
36
100
AcDbEntity
  8
0
 62
     3
100
AcDbLine
 10
144.967763
 20
-138.291773
 30
0.0
 11
161.689438
 21
-138.291773
 31
0.0
  0
TEXT
  5
16B
330
36
100
AcDbEntity
  8
0
 62
     3
100
AcDbText
 10
145.554365
 20
-137.475342
 30
0.0
 40
3.2
  1
出図コード
 41
0.8356860000000001
100
AcDbText
  0
LINE
  5
16D
330
36
100
AcDbEntity
  8
0
 62
     3
100
AcDbLine
 10
102.085359
 20
-133.458911
 30
0.0
 11
213.388802
 21
-133.458911
 31
0.0
  0
LINE
  5
16F
330
36
100
AcDbEntity
  8
0
 62
     3
100
AcDbLine
 10
102.0853589999999
 20
-112.458911
 30
0.0
 11
213.388802
 21
-112.458911
 31
0.0
  0
LINE
  5
175
330
36
100
AcDbEntity
  8
0
 62
     3
100
AcDbLine
 10
102.085359
 20
-119.458911
 30
0.0
 11
161.689438
 21
-119.458911
 31
0.0
  0
LINE
  5
17B
330
36
100
AcDbEntity
  8
0
 62
     3
100
AcDbLine
 10
102.085359
 20
-126.458911
 30
0.0
 11
213.388802
 21
-126.458911
 31
0.0
  0
TEXT
  5
17C
330
36
100
AcDbEntity
  8
0
 62
     3
100
AcDbText
 10
145.421817
 20
-142.8245298586544
 30
0.0
 40
3.2
  1
ZK-A3X
 41
0.8112849999999999
100
AcDbText
  0
TEXT
  5
17D
330
36
100
AcDbEntity
  8
0
 62
     3
100
AcDbText
 10
103.902756
 20
-107.289385
 30
0.0
 40
2.0
  1
CONPONENTS
 41
0.5331600000000001
100
AcDbText
  0
TEXT
  5
17E
330
36
100
AcDbEntity
  8
0
 62
     3
100
AcDbText
 10
103.553029
 20
-126.221562
 30
0.0
 40
3.0
  1
材
 41
0.833333
100
AcDbText
  0
TEXT
  5
17F
330
36
100
AcDbEntity
  8
0
 62
     3
100
AcDbText
 10
111.088672
 20
-126.221562
 30
0.0
 40
3.0
  1
質
 41
0.833333
100
AcDbText
  0
TEXT
  5
180
330
36
100
AcDbEntity
  8
0
 62
     3
100
AcDbText
 10
103.6411
 20
-115.597038
 30
0.0
 40
2.0
  1
MODEL
 41
1.031072999999999
100
AcDbText
  0
TEXT
  5
181
330
36
100
AcDbEntity
  8
0
 62
     3
100
AcDbText
 10
103.553029
 20
-122.539254
 30
0.0
 40
2.0
  1
MATERIAL
 41
0.659278
100
AcDbText
  0
TEXT
  5
182
330
36
100
AcDbEntity
  8
0
 62
     3
100
AcDbText
 10
134.86031
 20
-126.221562
 30
0.0
 40
3.0
  1
備
 41
0.833333
100
AcDbText
  0
TEXT
  5
183
330
36
100
AcDbEntity
  8
0
 62
     3
100
AcDbText
 10
141.593311
 20
-126.221562
 30
0.0
 40
3.0
  1
考
 41
0.833333
100
AcDbText
  0
TEXT
  5
184
330
36
100
AcDbEntity
  8
0
 62
     3
100
AcDbText
 10
135.1303252111877
 20
-122.539254
 30
0.0
 40
2.0
  1
REMARKS
 41
0.675794
100
AcDbText
  0
TEXT
  5
185
330
36
100
AcDbEntity
  8
0
 62
     3
100
AcDbText
 10
105.142758
 20
-129.459375
 30
0.0
 40
2.0
  1
3AD
 41
1.42614
100
AcDbText
  0
TEXT
  5
186
330
36
100
AcDbEntity
  8
0
 62
     3
100
AcDbText
 10
114.453738
 20
-129.293641
 30
0.0
 40
2.0
  1
ANGLE
 41
1.669883999999995
100
AcDbText
  0
TEXT
  5
187
330
36
100
AcDbEntity
  8
0
 62
     3
100
AcDbText
 10
135.387625
 20
-129.670482
 30
0.0
 40
2.0
  1
SCALE
 41
0.7719630000000001
100
AcDbText
  0
TEXT
  5
188
330
36
100
AcDbEntity
  8
0
 62
     3
100
AcDbText
 10
104.828888
 20
-133.458911
 30
0.0
 40
3.0
  1
第
 41
0.833333
100
AcDbText
  0
TEXT
  5
189
330
36
100
AcDbEntity
  8
0
 62
     3
100
AcDbText
 10
112.615738
 20
-133.458911
 30
0.0
 40
3.0
  1
三
 41
0.833333
100
AcDbText
  0
TEXT
  5
18A
330
36
100
AcDbEntity
  8
0
 62
     3
100
AcDbText
 10
120.402588
 20
-133.458911
 30
0.0
 40
3.0
  1
角
 41
0.833333
100
AcDbText
  0
TEXT
  5
18B
330
36
100
AcDbEntity
  8
0
 62
     3
100
AcDbText
 10
128.189438
 20
-133.458911
 30
0.0
 40
3.0
  1
法
 41
0.833333
100
AcDbText
  0
TEXT
  5
18C
330
36
100
AcDbEntity
  8
0
 62
     3
100
AcDbText
 10
135.25083
 20
-133.170482
 30
0.0
 40
3.0
  1
尺
 41
0.833333
100
AcDbText
  0
TEXT
  5
18D
330
36
100
AcDbEntity
  8
0
 62
     3
100
AcDbText
 10
141.983832
 20
-133.170482
 30
0.0
 40
3.0
  1
度
 41
0.833333
100
AcDbText
  0
TEXT
  5
18E
330
36
100
AcDbEntity
  8
0
 62
     3
100
AcDbText
 10
164.567102
 20
-111.001182
 30
0.0
 40
3.0
  1
承認
 41
1.089472999999999
100
AcDbText
  0
TEXT
  5
18F
330
36
100
AcDbEntity
  8
0
 62
     3
100
AcDbText
 10
177.809983
 20
-111.058911
 30
0.0
 40
3.0
  1
検図
 41
0.931761
100
AcDbText
  0
TEXT
  5
190
330
36
100
AcDbEntity
  8
0
 62
     3
100
AcDbText
 10
190.810379
 20
-111.058911
 30
0.0
 40
3.0
  1
設
 41
0.833333
100
AcDbText
  0
TEXT
  5
191
330
36
100
AcDbEntity
  8
0
 62
     3
100
AcDbText
 10
195.300247
 20
-111.058911
 30
0.0
 40
3.0
  1
計
 41
0.833333
100
AcDbText
  0
TEXT
  5
192
330
36
100
AcDbEntity
  8
0
 62
     3
100
AcDbText
 10
103.972863
 20
-110.886359
 30
0.0
 40
3.0
  1
品
 41
0.833333
100
AcDbText
  0
TEXT
  5
193
330
36
100
AcDbEntity
  8
0
 62
     3
100
AcDbText
 10
111.508505
 20
-110.886359
 30
0.0
 40
3.0
  1
名
 41
0.833333
100
AcDbText
  0
TEXT
  5
194
330
36
100
AcDbEntity
  8
0
 62
     3
100
AcDbText
 10
103.6411
 20
-119.1968932565999
 30
0.0
 40
3.0
  1
型
 41
0.833333
100
AcDbText
  0
TEXT
  5
195
330
36
100
AcDbEntity
  8
0
 62
     3
100
AcDbText
 10
111.189191
 20
-119.1968932565999
 30
0.0
 40
3.0
  1
式
 41
0.833333
100
AcDbText
  0
LINE
  5
196
330
36
100
AcDbEntity
  8
0
 62
     3
100
AcDbLine
 10
-189.013122
 20
-2.624633999999999
 30
0.0
 11
-191.611198
 21
-4.124633999999998
 31
0.0
  0
LINE
  5
197
330
36
100
AcDbEntity
  8
0
 62
     3
100
AcDbLine
 10
-189.013122
 20
-2.624633999999999
 30
0.0
 11
-191.611198
 21
-1.124633999999999
 31
0.0
  0
LINE
  5
198
330
36
100
AcDbEntity
  8
0
 62
     3
100
AcDbLine
 10
-191.611198
 20
-4.124633999999998
 30
0.0
 11
-191.611198
 21
-1.124633999999999
 31
0.0
  0
ARC
  5
19F
330
36
100
AcDbEntity
  8
0
 62
     3
100
AcDbCircle
 10
111.176054
 20
76.57681700000002
 30
0.0
 40
0.25
100
AcDbArc
 50
180.0
 51
270.0
  0
ARC
  5
1A0
330
36
100
AcDbEntity
  8
0
100
AcDbCircle
 10
111.176054
 20
77.576817
 30
0.0
 40
0.25
100
AcDbArc
 50
90.0
 51
180.0
  0
LINE
  5
1A1
330
36
100
AcDbEntity
  8
0
 62
     3
100
AcDbLine
 10
-96.802185
 20
27.547831
 30
0.0
 11
-109.302185
 21
27.547831
 31
0.0
  0
CIRCLE
  5
1A8
330
36
100
AcDbEntity
  8
0
100
AcDbCircle
 10
147.880138
 20
89.77584300000001
 30
0.0
 40
5.0
  0
TEXT
  5
1A9
330
36
100
AcDbEntity
  8
0
 62
     4
100
AcDbText
 10
145.6382935426788
 20
86.53747979605618
 30
0.0
 40
6.299999999999998
  1
4
  7
高6.3
100
AcDbText
  0
LINE
  5
1AA
330
36
100
AcDbEntity
  8
0
100
AcDbLine
 10
-108.302185
 20
32.547831
 30
0.0
 11
-97.802185
 21
32.547831
 31
0.0
  0
LINE
  5
1AB
330
36
100
AcDbEntity
  8
0
100
AcDbLine
 10
-97.802185
 20
28.547831
 30
0.0
 11
-97.802185
 21
32.547831
 31
0.0
  0
LINE
  5
1AC
330
36
100
AcDbEntity
  8
0
100
AcDbLine
 10
-108.302185
 20
28.547831
 30
0.0
 11
-108.302185
 21
32.547831
 31
0.0
  0
LINE
  5
1AD
330
36
100
AcDbEntity
  8
0
100
AcDbLine
 10
-106.552185
 20
21.657958
 30
0.0
 11
-99.552185
 21
21.657958
 31
0.0
  0
LINE
  5
1AE
330
36
100
AcDbEntity
  8
0
100
AcDbLine
 10
-106.552185
 20
14.657958
 30
0.0
 11
-106.552185
 21
21.657958
 31
0.0
  0
LINE
  5
1AF
330
36
100
AcDbEntity
  8
0
100
AcDbLine
 10
-99.552185
 20
14.657958
 30
0.0
 11
-99.552185
 21
21.657958
 31
0.0
  0
LINE
  5
1B0
330
36
100
AcDbEntity
  8
0
100
AcDbLine
 10
-105.177185
 20
16.03295799999999
 30
0.0
 11
-105.177185
 21
20.282958
 31
0.0
  0
LINE
  5
1B1
330
36
100
AcDbEntity
  8
0
100
AcDbLine
 10
-100.927185
 20
16.03295799999999
 30
0.0
 11
-100.927185
 21
20.282958
 31
0.0
  0
LINE
  5
1B2
330
36
100
AcDbEntity
  8
0
100
AcDbLine
 10
-105.177185
 20
20.282958
 30
0.0
 11
-100.927185
 21
20.282958
 31
0.0
  0
LINE
  5
1B3
330
36
100
AcDbEntity
  8
0
100
AcDbLine
 10
-105.177185
 20
16.03295799999999
 30
0.0
 11
-100.927185
 21
16.03295799999999
 31
0.0
  0
LINE
  5
1B4
330
36
100
AcDbEntity
  8
0
100
AcDbLine
 10
-106.552185
 20
14.657958
 30
0.0
 11
-99.552185
 21
14.657958
 31
0.0
  0
LINE
  5
1B5
330
36
100
AcDbEntity
  8
0
100
AcDbLine
 10
-97.802185
 20
28.547831
 30
0.0
 11
-108.302185
 21
28.547831
 31
0.0
  0
LINE
  5
1B6
330
36
100
AcDbEntity
  8
0
 62
     3
100
AcDbLine
 10
-96.802185
 20
27.547831
 30
0.0
 11
-96.802185
 21
33.54783100000001
 31
0.0
  0
LINE
  5
1B7
330
36
100
AcDbEntity
  8
0
 62
     3
100
AcDbLine
 10
-109.302185
 20
33.54783100000001
 30
0.0
 11
-96.802185
 21
33.54783100000001
 31
0.0
  0
LINE
  5
1B8
330
36
100
AcDbEntity
  8
0
 62
     3
100
AcDbLine
 10
-109.302185
 20
27.547831
 30
0.0
 11
-109.302185
 21
33.54783100000001
 31
0.0
  0
LINE
  5
1B9
330
36
100
AcDbEntity
  8
0
 62
     3
100
AcDbLine
 10
-48.05218499999998
 20
62.776008
 30
0.0
 11
-30.052185
 21
62.776008
 31
0.0
  0
LINE
  5
1BA
330
36
100
AcDbEntity
  8
0
 62
     3
100
AcDbLine
 10
-30.052185
 20
11.276008
 30
0.0
 11
-48.05218499999998
 21
11.276008
 31
0.0
  0
LINE
  5
1BB
330
36
100
AcDbEntity
  8
0
 62
     3
100
AcDbLine
 10
-27.552185
 20
13.776008
 30
0.0
 11
-27.552185
 21
60.276008
 31
0.0
  0
LINE
  5
1BC
330
36
100
AcDbEntity
  8
0
 62
     3
100
AcDbLine
 10
-50.55218499999998
 20
13.776008
 30
0.0
 11
-50.55218499999998
 21
60.276008
 31
0.0
  0
ARC
  5
1BD
330
36
100
AcDbEntity
  8
0
 62
     3
100
AcDbCircle
 10
-30.052185
 20
60.276008
 30
0.0
 40
2.5
100
AcDbArc
 50
0.0
 51
90.0
  0
ARC
  5
1BE
330
36
100
AcDbEntity
  8
0
 62
     3
100
AcDbCircle
 10
-48.05218499999998
 20
60.276008
 30
0.0
 40
2.5
100
AcDbArc
 50
90.0
 51
180.0
  0
ARC
  5
1BF
330
36
100
AcDbEntity
  8
0
 62
     3
100
AcDbCircle
 10
-48.05218499999998
 20
13.776008
 30
0.0
 40
2.5
100
AcDbArc
 50
180.0
 51
270.0
  0
ARC
  5
1C0
330
36
100
AcDbEntity
  8
0
 62
     3
100
AcDbCircle
 10
-30.052185
 20
13.776008
 30
0.0
 40
2.5
100
AcDbArc
 50
270.0
 51
0.0
  0
ARC
  5
1C1
330
36
100
AcDbEntity
  8
0
 62
     3
100
AcDbCircle
 10
-76.05218499999998
 20
13.776008
 30
0.0
 40
2.5
100
AcDbArc
 50
180.0
 51
270.0
  0
LINE
  5
1C2
330
36
100
AcDbEntity
  8
0
 62
     3
100
AcDbLine
 10
-78.55218499999998
 20
13.776008
 30
0.0
 11
-78.55218499999998
 21
60.276008
 31
0.0
  0
ARC
  5
1C3
330
36
100
AcDbEntity
  8
0
 62
     3
100
AcDbCircle
 10
-76.05218499999998
 20
60.276008
 30
0.0
 40
2.5
100
AcDbArc
 50
90.0
 51
180.0
  0
LINE
  5
1C4
330
36
100
AcDbEntity
  8
0
 62
     3
100
AcDbLine
 10
-58.05218499999998
 20
62.776008
 30
0.0
 11
-76.05218499999998
 21
62.776008
 31
0.0
  0
ARC
  5
1C5
330
36
100
AcDbEntity
  8
0
 62
     3
100
AcDbCircle
 10
-58.05218499999998
 20
60.276008
 30
0.0
 40
2.5
100
AcDbArc
 50
0.0
 51
90.0
  0
LINE
  5
1C6
330
36
100
AcDbEntity
  8
0
 62
     3
100
AcDbLine
 10
-55.55218499999998
 20
13.776008
 30
0.0
 11
-55.55218499999998
 21
60.276008
 31
0.0
  0
ARC
  5
1C7
330
36
100
AcDbEntity
  8
0
 62
     3
100
AcDbCircle
 10
-58.05218499999998
 20
13.776008
 30
0.0
 40
2.5
100
AcDbArc
 50
270.0
 51
0.0
  0
LINE
  5
1C8
330
36
100
AcDbEntity
  8
0
 62
     3
100
AcDbLine
 10
-76.05218499999998
 20
11.276008
 30
0.0
 11
-58.05218499999998
 21
11.276008
 31
0.0
  0
LINE
  5
1C9
330
36
100
AcDbEntity
  8
0
 62
     3
100
AcDbLine
 10
-138.152185
 20
43.426008
 30
0.0
 11
-138.152185
 21
64.626008
 31
0.0
  0
LINE
  5
1CA
330
36
100
AcDbEntity
  8
0
 62
     3
100
AcDbLine
 10
-116.452185
 20
42.926008
 30
0.0
 11
-137.652185
 21
42.926008
 31
0.0
  0
TEXT
  5
1CB
330
36
100
AcDbEntity
  8
0
 62
     3
100
AcDbText
 10
-111.04492
 20
24.888179
 30
0.0
 40
1.6
  1
電源表示
 41
0.833333
100
AcDbText
  0
TEXT
  5
1CC
330
36
100
AcDbEntity
  8
0
 62
     3
100
AcDbText
 10
-109.353672
 20
23.072455
 30
0.0
 40
1.6
  1
ランプ
 41
0.833333
100
AcDbText
  0
TEXT
  5
1CD
330
36
100
AcDbEntity
  8
0
 62
     3
100
AcDbText
 10
-101.745555
 20
25.172738
 30
0.0
 40
1.6
  1
アースチェック
 41
0.833333
100
AcDbText
  0
TEXT
  5
1CE
330
36
100
AcDbEntity
  8
0
 62
     3
100
AcDbText
 10
-100.339234
 20
23.301737
 30
0.0
 40
1.6
  1
ランプ
 41
0.833333
100
AcDbText
  0
TEXT
  5
1CF
330
36
100
AcDbEntity
  8
0
 62
     3
100
AcDbText
 10
-107.329629
 20
12.458662
 30
0.0
 40
1.6
  1
テストボタン
 41
0.833333
100
AcDbText
  0
TEXT
  5
1D0
330
36
100
AcDbEntity
  8
0
 62
     3
100
AcDbText
 10
-129.008723
 20
33.049147
 30
0.0
 40
1.6
  1
ブレーカー
 41
0.833333
100
AcDbText
  0
ARC
  5
1D1
330
36
100
AcDbEntity
  8
0
 62
     3
100
AcDbCircle
 10
-116.452185
 20
64.626008
 30
0.0
 40
0.5
100
AcDbArc
 50
0.0
 51
90.0
  0
ARC
  5
1D2
330
36
100
AcDbEntity
  8
0
 62
     3
100
AcDbCircle
 10
-137.652185
 20
64.626008
 30
0.0
 40
0.5
100
AcDbArc
 50
90.0
 51
180.0
  0
ARC
  5
1D3
330
36
100
AcDbEntity
  8
0
 62
     3
100
AcDbCircle
 10
-137.652185
 20
43.426008
 30
0.0
 40
0.5
100
AcDbArc
 50
180.0
 51
270.0
  0
ARC
  5
1D4
330
36
100
AcDbEntity
  8
0
 62
     3
100
AcDbCircle
 10
-116.452185
 20
43.426008
 30
0.0
 40
0.5
100
AcDbArc
 50
270.0
 51
0.0
  0
CIRCLE
  5
1D5
330
36
100
AcDbEntity
  8
0
 62
     3
100
AcDbCircle
 10
-127.052185
 20
50.426058
 30
0.0
 40
0.5
  0
TEXT
  5
1D6
330
36
100
AcDbEntity
  8
0
 62
     3
100
AcDbText
 10
-111.691429
 20
40.82963099999999
 30
0.0
 40
2.399999999999999
  1
出力　ＡＣ１００Ｖ
 41
0.9523419999999999
100
AcDbText
  0
LINE
  5
1D7
330
36
100
AcDbEntity
  8
0
 62
     3
100
AcDbLine
 10
-140.552185
 20
71.888483
 30
0.0
 11
-140.552185
 21
72.02600799999998
 31
0.0
  0
ARC
  5
1D8
330
36
100
AcDbEntity
  8
0
 62
     3
100
AcDbCircle
 10
47.935594
 20
-10.773932
 30
0.0
 40
0.5
100
AcDbArc
 50
187.594643
 51
270.0
  0
LINE
  5
1D9
330
36
100
AcDbEntity
  8
0
 62
     3
100
AcDbLine
 10
57.560077
 20
-11.273932
 30
0.0
 11
47.935594
 21
-11.273932
 31
0.0
  0
ARC
  5
1DA
330
36
100
AcDbEntity
  8
0
 62
     3
100
AcDbCircle
 10
57.560077
 20
-10.773932
 30
0.0
 40
0.5
100
AcDbArc
 50
270.0
 51
352.405357
  0
LINE
  5
1DB
330
36
100
AcDbEntity
  8
0
 62
     3
100
AcDbLine
 10
58.737835
 20
-5.723931999999997
 30
0.0
 11
58.055691
 21
-10.840014
 31
0.0
  0
LINE
  5
1DC
330
36
100
AcDbEntity
  8
0
 62
     3
100
AcDbLine
 10
116.757835
 20
-5.723931999999997
 30
0.0
 11
117.43998
 21
-10.840014
 31
0.0
  0
LINE
  5
1DD
330
36
100
AcDbEntity
  8
0
 62
     3
100
AcDbLine
 10
127.560077
 20
-11.273932
 30
0.0
 11
117.935594
 21
-11.273932
 31
0.0
  0
ARC
  5
1DE
330
36
100
AcDbEntity
  8
0
 62
     3
100
AcDbCircle
 10
117.935594
 20
-10.773932
 30
0.0
 40
0.5
100
AcDbArc
 50
187.594643
 51
270.0
  0
ARC
  5
1DF
330
36
100
AcDbEntity
  8
0
 62
     3
100
AcDbCircle
 10
127.560077
 20
-10.773932
 30
0.0
 40
0.5
100
AcDbArc
 50
270.0
 51
352.405357
  0
LINE
  5
1E0
330
36
100
AcDbEntity
  8
0
 62
     3
100
AcDbLine
 10
128.737835
 20
-5.723931999999997
 30
0.0
 11
128.055691
 21
-10.840014
 31
0.0
  0
LINE
  5
1E1
330
36
100
AcDbEntity
  8
0
 62
     3
100
AcDbLine
 10
32.247835
 20
21.276068
 30
0.0
 11
136.747835
 21
21.276068
 31
0.0
  0
LINE
  5
1E2
330
36
100
AcDbEntity
  8
0
 62
     3
100
AcDbLine
 10
-176.611198
 20
133.875366
 30
0.0
 11
-176.611198
 21
-143.124634
 31
0.0
  0
LINE
  5
1E3
330
36
100
AcDbEntity
  8
0
 62
     3
100
AcDbLine
 10
213.388802
 20
-143.124634
 30
0.0
 11
213.388802
 21
133.875366
 31
0.0
  0
LINE
  5
1E4
330
36
100
AcDbEntity
  8
0
 62
     3
100
AcDbLine
 10
-176.611198
 20
133.875366
 30
0.0
 11
213.388802
 21
133.875366
 31
0.0
  0
LINE
  5
1E7
330
36
100
AcDbEntity
  8
0
 62
     3
100
AcDbLine
 10
46.757835
 20
-5.723931999999997
 30
0.0
 11
46.49783499999998
 21
-3.773931999999998
 31
0.0
  0
LINE
  5
1E8
330
36
100
AcDbEntity
  8
0
 62
     3
100
AcDbLine
 10
46.757835
 20
-5.723931999999997
 30
0.0
 11
47.43998
 21
-10.840014
 31
0.0
  0
LINE
  5
1E9
330
36
100
AcDbEntity
  8
0
 62
     3
100
AcDbLine
 10
58.737835
 20
-5.723931999999997
 30
0.0
 11
58.99783499999998
 21
-3.773931999999998
 31
0.0
  0
LINE
  5
1EA
330
36
100
AcDbEntity
  8
0
 62
     3
100
AcDbLine
 10
116.757835
 20
-5.723931999999997
 30
0.0
 11
116.497835
 21
-3.773931999999998
 31
0.0
  0
LINE
  5
1EB
330
36
100
AcDbEntity
  8
0
 62
     3
100
AcDbLine
 10
128.737835
 20
-5.723931999999997
 30
0.0
 11
128.997835
 21
-3.773931999999998
 31
0.0
  0
TEXT
  5
1EC
330
36
100
AcDbEntity
  8
0
 62
     3
100
AcDbText
 10
-103.694156
 20
49.383429
 30
0.0
 40
2.399999999999999
  1
2KVA
 41
1.274038999999999
100
AcDbText
  0
LINE
  5
1ED
330
36
100
AcDbEntity
  8
0
 62
     3
100
AcDbLine
 10
-28.062185
 20
-5.723991999999999
 30
0.0
 11
-28.744329
 21
-10.840074
 31
0.0
  0
ARC
  5
1EE
330
36
100
AcDbEntity
  8
0
 62
     3
100
AcDbCircle
 10
-29.239943
 20
-10.773992
 30
0.0
 40
0.5
100
AcDbArc
 50
270.0
 51
352.405357
  0
LINE
  5
1EF
330
36
100
AcDbEntity
  8
0
 62
     3
100
AcDbLine
 10
-40.04218499999999
 20
-5.723991999999999
 30
0.0
 11
-39.36004
 21
-10.840074
 31
0.0
  0
LINE
  5
1F0
330
36
100
AcDbEntity
  8
0
 62
     3
100
AcDbLine
 10
-29.239943
 20
-11.273992
 30
0.0
 11
-38.864426
 21
-11.273992
 31
0.0
  0
LINE
  5
1F1
330
36
100
AcDbEntity
  8
0
 62
     3
100
AcDbLine
 10
-123.062185
 20
-5.723991999999999
 30
0.0
 11
-123.744329
 21
-10.840074
 31
0.0
  0
ARC
  5
1F2
330
36
100
AcDbEntity
  8
0
 62
     3
100
AcDbCircle
 10
-124.239943
 20
-10.773992
 30
0.0
 40
0.5
100
AcDbArc
 50
270.0
 51
352.405357
  0
LINE
  5
1F3
330
36
100
AcDbEntity
  8
0
 62
     3
100
AcDbLine
 10
-133.864426
 20
-11.273992
 30
0.0
 11
-124.239943
 21
-11.273992
 31
0.0
  0
ARC
  5
1F4
330
36
100
AcDbEntity
  8
0
 62
     3
100
AcDbCircle
 10
-133.864426
 20
-10.773992
 30
0.0
 40
0.5
100
AcDbArc
 50
187.594643
 51
270.0
  0
LINE
  5
1F5
330
36
100
AcDbEntity
  8
0
 62
     3
100
AcDbLine
 10
-135.042185
 20
-5.723991999999999
 30
0.0
 11
-134.36004
 21
-10.840074
 31
0.0
  0
LINE
  5
1F6
330
36
100
AcDbEntity
  8
0
 62
     3
100
AcDbLine
 10
-115.952185
 20
43.426008
 30
0.0
 11
-115.952185
 21
64.626008
 31
0.0
  0
ARC
  5
1F7
330
36
100
AcDbEntity
  8
0
 62
     3
100
AcDbCircle
 10
86.747835
 20
-196.373932
 30
0.0
 40
300.0
100
AcDbArc
 50
87.65794300000001
 51
87.831778
  0
LINE
  5
1F8
330
36
100
AcDbEntity
  8
0
 62
     3
100
AcDbLine
 10
112.12111
 20
97.742327
 30
0.0
 11
117.779975
 21
92.248745
 31
0.0
  0
ARC
  5
1F9
330
36
100
AcDbEntity
  8
0
 62
     3
100
AcDbCircle
 10
98.19009600000001
 20
83.392175
 30
0.0
 40
20.0
100
AcDbArc
 50
45.849085
 51
87.65794300000001
  0
ARC
  5
1FA
330
36
100
AcDbEntity
  8
0
 62
     3
100
AcDbCircle
 10
86.747835
 20
-196.373932
 30
0.0
 40
300.0
100
AcDbArc
 50
87.831778
 51
92.34961099999999
  0
ARC
  5
1FB
330
36
100
AcDbEntity
  8
0
 62
     3
100
AcDbCircle
 10
123.497835
 20
81.335829
 30
0.0
 40
2.0
100
AcDbArc
 50
0.0
 51
27.91033200000001
  0
ARC
  5
1FC
330
36
100
AcDbEntity
  8
0
 62
     3
100
AcDbCircle
 10
75.476698
 20
70.468522
 30
0.0
 40
37.5
100
AcDbArc
 50
11.314904
 51
22.916905
  0
ARC
  5
1FD
330
36
100
AcDbEntity
  8
0
 62
     3
100
AcDbCircle
 10
102.849009
 20
82.86356899999999
 30
0.0
 40
7.5
100
AcDbArc
 50
17.11590499999999
 51
86.709317
  0
ARC
  5
1FE
330
36
100
AcDbEntity
  8
0
 62
     3
100
AcDbCircle
 10
75.305575
 20
83.392175
 30
0.0
 40
20.0
100
AcDbArc
 50
92.342057
 51
134.150915
  0
ARC
  5
1FF
330
36
100
AcDbEntity
  8
0
 62
     3
100
AcDbCircle
 10
70.64666200000002
 20
82.86356899999999
 30
0.0
 40
7.5
100
AcDbArc
 50
93.29068300000001
 51
162.884095
  0
LINE
  5
200
330
36
100
AcDbEntity
  8
0
 62
     3
100
AcDbLine
 10
63.478827
 20
85.070861
 30
0.0
 11
61.24783499999999
 21
77.826068
 31
0.0
  0
ARC
  5
201
330
36
100
AcDbEntity
  8
0
 62
     3
100
AcDbCircle
 10
83.57772199999997
 20
63.54844100000001
 30
0.0
 40
40.0
100
AcDbArc
 50
134.150915
 51
143.286186
  0
LINE
  5
202
330
36
100
AcDbEntity
  8
0
 62
     3
100
AcDbLine
 10
32.247835
 20
76.32606800000002
 30
0.0
 11
136.747835
 21
76.32606800000002
 31
0.0
  0
ARC
  5
203
330
36
100
AcDbEntity
  8
0
 62
     3
100
AcDbCircle
 10
86.747835
 20
-197.173932
 30
0.0
 40
288.0
100
AcDbArc
 50
86.709317
 51
93.29068300000001
  0
LINE
  5
204
330
36
100
AcDbEntity
  8
0
 62
     3
100
AcDbLine
 10
32.247835
 20
-5.373931999999999
 30
0.0
 11
32.247835
 21
77.926068
 31
0.0
  0
LINE
  5
205
330
36
100
AcDbEntity
  8
0
 62
     3
100
AcDbLine
 10
19.247835
 20
-3.373931999999998
 30
0.0
 11
19.247835
 21
75.926068
 31
0.0
  0
ARC
  5
206
330
36
100
AcDbEntity
  8
0
 62
     3
100
AcDbCircle
 10
21.747835
 20
75.926068
 30
0.0
 40
2.5
100
AcDbArc
 50
90.0
 51
180.0
  0
LINE
  5
207
330
36
100
AcDbEntity
  8
0
 62
     3
100
AcDbLine
 10
31.747835
 20
78.426068
 30
0.0
 11
21.747835
 21
78.426068
 31
0.0
  0
LINE
  5
208
330
36
100
AcDbEntity
  8
0
 62
     3
100
AcDbLine
 10
32.247835
 20
-3.773931999999998
 30
0.0
 11
136.747835
 21
-3.773931999999998
 31
0.0
  0
LINE
  5
209
330
36
100
AcDbEntity
  8
0
 62
     3
100
AcDbLine
 10
31.747835
 20
-5.873931999999999
 30
0.0
 11
21.747835
 21
-5.873931999999999
 31
0.0
  0
ARC
  5
20A
330
36
100
AcDbEntity
  8
0
 62
     3
100
AcDbCircle
 10
21.747835
 20
-3.373931999999998
 30
0.0
 40
2.5
100
AcDbArc
 50
180.0
 51
270.0
  0
ARC
  5
20B
330
36
100
AcDbEntity
  8
0
 62
     3
100
AcDbCircle
 10
31.747835
 20
77.926068
 30
0.0
 40
0.5
100
AcDbArc
 50
0.0
 51
90.0
  0
TEXT
  5
20C
330
36
100
AcDbEntity
  8
0
 62
     3
100
AcDbText
 10
-111.446286
 20
44.53908199999999
 30
0.0
 40
2.399999999999999
  1
入力　ＡＣ２００Ｖ
 41
0.9602859999999999
100
AcDbText
  0
LINE
  5
20D
330
36
100
AcDbEntity
  8
0
 62
     3
100
AcDbLine
 10
213.388802
 20
-143.124634
 30
0.0
 11
-176.611198
 21
-143.124634
 31
0.0
  0
TEXT
  5
20F
330
36
100
AcDbEntity
  8
0
 62
     3
100
AcDbText
 10
-72.06927199999999
 20
66.67842199999999
 30
0.0
 40
6.575999999999997
  1
トラパック
 41
0.833333
100
AcDbText
  0
LINE
  5
210
330
36
100
AcDbEntity
  8
0
 62
     3
100
AcDbLine
 10
61.374561
 20
97.742327
 30
0.0
 11
55.71569499999998
 21
92.248745
 31
0.0
  0
ARC
  5
211
330
36
100
AcDbEntity
  8
0
 62
     3
100
AcDbCircle
 10
31.747835
 20
-5.373931999999999
 30
0.0
 40
0.5
100
AcDbArc
 50
270.0
 51
0.0
  0
ARC
  5
212
330
36
100
AcDbEntity
  8
0
 62
     3
100
AcDbCircle
 10
-38.864426
 20
-10.773992
 30
0.0
 40
0.5
100
AcDbArc
 50
187.594643
 51
270.0
  0
LINE
  5
213
330
36
100
AcDbEntity
  8
0
100
AcDbLine
 10
-116.952185
 20
64.12600799999998
 30
0.0
 11
-137.152185
 21
64.12600799999998
 31
0.0
  0
LINE
  5
214
330
36
100
AcDbEntity
  8
0
100
AcDbLine
 10
-116.952185
 20
64.12600799999998
 30
0.0
 11
-116.952185
 21
43.926008
 31
0.0
  0
LINE
  5
215
330
36
100
AcDbEntity
  8
0
100
AcDbLine
 10
-137.152185
 20
43.926008
 30
0.0
 11
-137.152185
 21
64.12600799999998
 31
0.0
  0
LINE
  5
216
330
36
100
AcDbEntity
  8
0
100
AcDbLine
 10
-116.952185
 20
51.426008
 30
0.0
 11
-137.152185
 21
51.426008
 31
0.0
  0
LINE
  5
217
330
36
100
AcDbEntity
  8
0
100
AcDbLine
 10
-116.952185
 20
50.67600800000001
 30
0.0
 11
-137.152185
 21
50.67600800000001
 31
0.0
  0
LINE
  5
218
330
36
100
AcDbEntity
  8
0
100
AcDbLine
 10
-116.952185
 20
49.926008
 30
0.0
 11
-137.152185
 21
49.926008
 31
0.0
  0
LINE
  5
219
330
36
100
AcDbEntity
  8
0
100
AcDbLine
 10
-116.952185
 20
49.176008
 30
0.0
 11
-137.152185
 21
49.176008
 31
0.0
  0
LINE
  5
21A
330
36
100
AcDbEntity
  8
0
100
AcDbLine
 10
-116.952185
 20
48.426008
 30
0.0
 11
-137.152185
 21
48.426008
 31
0.0
  0
LINE
  5
21B
330
36
100
AcDbEntity
  8
0
100
AcDbLine
 10
-116.952185
 20
47.676008
 30
0.0
 11
-137.152185
 21
47.676008
 31
0.0
  0
LINE
  5
21C
330
36
100
AcDbEntity
  8
0
100
AcDbLine
 10
-116.952185
 20
46.926008
 30
0.0
 11
-137.152185
 21
46.926008
 31
0.0
  0
LINE
  5
21D
330
36
100
AcDbEntity
  8
0
100
AcDbLine
 10
-116.952185
 20
46.176008
 30
0.0
 11
-137.152185
 21
46.176008
 31
0.0
  0
LINE
  5
21E
330
36
100
AcDbEntity
  8
0
100
AcDbLine
 10
-116.952185
 20
45.426008
 30
0.0
 11
-137.152185
 21
45.426008
 31
0.0
  0
LINE
  5
21F
330
36
100
AcDbEntity
  8
0
100
AcDbLine
 10
-116.952185
 20
44.676008
 30
0.0
 11
-137.152185
 21
44.676008
 31
0.0
  0
LINE
  5
220
330
36
100
AcDbEntity
  8
0
100
AcDbLine
 10
-122.052185
 20
15.547831
 30
0.0
 11
-122.052185
 21
31.547831
 31
0.0
  0
LINE
  5
221
330
36
100
AcDbEntity
  8
0
100
AcDbLine
 10
-128.052185
 20
15.547831
 30
0.0
 11
-128.052185
 21
31.547831
 31
0.0
  0
LINE
  5
222
330
36
100
AcDbEntity
  8
0
100
AcDbLine
 10
-122.052185
 20
15.547831
 30
0.0
 11
-128.052185
 21
15.547831
 31
0.0
  0
LINE
  5
223
330
36
100
AcDbEntity
  8
0
100
AcDbLine
 10
-123.177185
 20
30.547831
 30
0.0
 11
-123.177185
 21
23.047831
 31
0.0
  0
LINE
  5
224
330
36
100
AcDbEntity
  8
0
100
AcDbLine
 10
-126.927185
 20
30.547831
 30
0.0
 11
-126.927185
 21
23.047831
 31
0.0
  0
LINE
  5
225
330
36
100
AcDbEntity
  8
0
100
AcDbLine
 10
-126.927185
 20
30.547831
 30
0.0
 11
-123.177185
 21
30.547831
 31
0.0
  0
LINE
  5
226
330
36
100
AcDbEntity
  8
0
100
AcDbLine
 10
-123.177185
 20
29.047831
 30
0.0
 11
-126.927185
 21
29.047831
 31
0.0
  0
LINE
  5
227
330
36
100
AcDbEntity
  8
0
100
AcDbLine
 10
-123.177185
 20
26.047831
 30
0.0
 11
-126.927185
 21
26.047831
 31
0.0
  0
LINE
  5
228
330
36
100
AcDbEntity
  8
0
100
AcDbLine
 10
-123.177185
 20
23.047831
 30
0.0
 11
-126.927185
 21
23.047831
 31
0.0
  0
TEXT
  5
229
330
36
100
AcDbEntity
  8
0
100
AcDbText
 10
-125.810474
 20
24.110692
 30
0.0
 40
1.6
  1
入
 41
0.833333
100
AcDbText
  0
TEXT
  5
22A
330
36
100
AcDbEntity
  8
0
100
AcDbText
 10
-126.33123
 20
29.179534
 30
0.0
 40
1.28
  1
30
 41
1.090908999999999
100
AcDbText
  0
LINE
  5
22B
330
36
100
AcDbEntity
  8
0
100
AcDbLine
 10
-128.052185
 20
31.547831
 30
0.0
 11
-122.052185
 21
31.547831
 31
0.0
  0
ARC
  5
22C
330
36
100
AcDbEntity
  8
0
100
AcDbCircle
 10
74.247835
 20
36.27606800000001
 30
0.0
 40
5.0
100
AcDbArc
 50
0.0
 51
90.0
  0
LINE
  5
22D
330
36
100
AcDbEntity
  8
0
100
AcDbLine
 10
74.247835
 20
41.276068
 30
0.0
 11
54.247835
 21
41.276068
 31
0.0
  0
ARC
  5
22E
330
36
100
AcDbEntity
  8
0
100
AcDbCircle
 10
54.247835
 20
36.27606800000001
 30
0.0
 40
5.0
100
AcDbArc
 50
90.0
 51
180.0
  0
ARC
  5
22F
330
36
100
AcDbEntity
  8
0
100
AcDbCircle
 10
54.247835
 20
42.776068
 30
0.0
 40
5.0
100
AcDbArc
 50
90.0
 51
180.0
  0
LINE
  5
230
330
36
100
AcDbEntity
  8
0
100
AcDbLine
 10
74.247835
 20
47.776068
 30
0.0
 11
54.247835
 21
47.776068
 31
0.0
  0
ARC
  5
231
330
36
100
AcDbEntity
  8
0
100
AcDbCircle
 10
74.247835
 20
42.776068
 30
0.0
 40
5.0
100
AcDbArc
 50
0.0
 51
90.0
  0
ARC
  5
232
330
36
100
AcDbEntity
  8
0
100
AcDbCircle
 10
74.247835
 20
49.276068
 30
0.0
 40
5.0
100
AcDbArc
 50
0.0
 51
90.0
  0
LINE
  5
233
330
36
100
AcDbEntity
  8
0
100
AcDbLine
 10
74.247835
 20
54.276068
 30
0.0
 11
54.247835
 21
54.276068
 31
0.0
  0
ARC
  5
234
330
36
100
AcDbEntity
  8
0
100
AcDbCircle
 10
54.247835
 20
49.276068
 30
0.0
 40
5.0
100
AcDbArc
 50
90.0
 51
180.0
  0
ARC
  5
235
330
36
100
AcDbEntity
  8
0
100
AcDbCircle
 10
54.247835
 20
55.776068
 30
0.0
 40
5.0
100
AcDbArc
 50
90.0
 51
180.0
  0
LINE
  5
236
330
36
100
AcDbEntity
  8
0
100
AcDbLine
 10
74.247835
 20
60.776068
 30
0.0
 11
54.247835
 21
60.776068
 31
0.0
  0
ARC
  5
237
330
36
100
AcDbEntity
  8
0
100
AcDbCircle
 10
74.247835
 20
55.776068
 30
0.0
 40
5.0
100
AcDbArc
 50
0.0
 51
90.0
  0
ARC
  5
238
330
36
100
AcDbEntity
  8
0
100
AcDbCircle
 10
99.247835
 20
36.27606800000001
 30
0.0
 40
5.0
100
AcDbArc
 50
90.0
 51
180.0
  0
LINE
  5
239
330
36
100
AcDbEntity
  8
0
100
AcDbLine
 10
99.247835
 20
41.276068
 30
0.0
 11
119.247835
 21
41.276068
 31
0.0
  0
ARC
  5
23A
330
36
100
AcDbEntity
  8
0
100
AcDbCircle
 10
119.247835
 20
36.27606800000001
 30
0.0
 40
5.0
100
AcDbArc
 50
0.0
 51
90.0
  0
ARC
  5
23B
330
36
100
AcDbEntity
  8
0
100
AcDbCircle
 10
119.247835
 20
42.776068
 30
0.0
 40
5.0
100
AcDbArc
 50
0.0
 51
90.0
  0
LINE
  5
23C
330
36
100
AcDbEntity
  8
0
100
AcDbLine
 10
99.247835
 20
47.776068
 30
0.0
 11
119.247835
 21
47.776068
 31
0.0
  0
ARC
  5
23D
330
36
100
AcDbEntity
  8
0
100
AcDbCircle
 10
99.247835
 20
42.776068
 30
0.0
 40
5.0
100
AcDbArc
 50
90.0
 51
180.0
  0
ARC
  5
23E
330
36
100
AcDbEntity
  8
0
100
AcDbCircle
 10
99.247835
 20
49.276068
 30
0.0
 40
5.0
100
AcDbArc
 50
90.0
 51
180.0
  0
LINE
  5
23F
330
36
100
AcDbEntity
  8
0
100
AcDbLine
 10
99.247835
 20
54.276068
 30
0.0
 11
119.247835
 21
54.276068
 31
0.0
  0
ARC
  5
240
330
36
100
AcDbEntity
  8
0
100
AcDbCircle
 10
119.247835
 20
49.276068
 30
0.0
 40
5.0
100
AcDbArc
 50
0.0
 51
90.0
  0
ARC
  5
241
330
36
100
AcDbEntity
  8
0
100
AcDbCircle
 10
119.247835
 20
55.776068
 30
0.0
 40
5.0
100
AcDbArc
 50
0.0
 51
90.0
  0
LINE
  5
242
330
36
100
AcDbEntity
  8
0
100
AcDbLine
 10
99.247835
 20
60.776068
 30
0.0
 11
119.247835
 21
60.776068
 31
0.0
  0
ARC
  5
243
330
36
100
AcDbEntity
  8
0
100
AcDbCircle
 10
99.247835
 20
55.776068
 30
0.0
 40
5.0
100
AcDbArc
 50
90.0
 51
180.0
  0
ARC
  5
244
330
36
100
AcDbEntity
  8
0
  6
HIDDEN
 62
    15
100
AcDbCircle
 10
89.91794799999999
 20
63.54844100000001
 30
0.0
 40
40.0
100
AcDbArc
 50
27.18987
 51
27.91033200000001
  0
LINE
  5
245
330
36
100
AcDbEntity
  8
0
  6
HIDDEN
 62
    15
100
AcDbLine
 10
125.497835
 20
81.335829
 30
0.0
 11
125.497835
 21
81.826068
 31
0.0
  0
CIRCLE
  5
246
330
36
100
AcDbEntity
  8
0
100
AcDbCircle
 10
132.997835
 20
58.776068
 30
0.0
 40
2.25
  0
CIRCLE
  5
247
330
36
100
AcDbEntity
  8
0
100
AcDbCircle
 10
132.997835
 20
36.27606800000001
 30
0.0
 40
2.25
  0
CIRCLE
  5
248
330
36
100
AcDbEntity
  8
0
100
AcDbCircle
 10
132.997835
 20
13.776068
 30
0.0
 40
2.25
  0
CIRCLE
  5
249
330
36
100
AcDbEntity
  8
0
100
AcDbCircle
 10
40.49783499999999
 20
13.776068
 30
0.0
 40
2.25
  0
CIRCLE
  5
24A
330
36
100
AcDbEntity
  8
0
100
AcDbCircle
 10
40.49783499999999
 20
36.27606800000001
 30
0.0
 40
2.25
  0
CIRCLE
  5
24B
330
36
100
AcDbEntity
  8
0
100
AcDbCircle
 10
40.49783499999999
 20
58.776068
 30
0.0
 40
2.25
  0
LINE
  5
24C
330
36
100
AcDbEntity
  8
0
100
AcDbLine
 10
137.997835
 20
6.476067999999997
 30
0.0
 11
137.997835
 21
15.976068
 31
0.0
  0
LINE
  5
24D
330
36
100
AcDbEntity
  8
0
100
AcDbLine
 10
138.497835
 20
36.27606800000001
 30
0.0
 11
136.747835
 21
36.27606800000001
 31
0.0
  0
ARC
  5
24E
330
36
100
AcDbEntity
  8
0
100
AcDbCircle
 10
135.997835
 20
58.276068
 30
0.0
 40
2.5
100
AcDbArc
 50
0.0
 51
72.54239699999998
  0
ARC
  5
24F
330
36
100
AcDbEntity
  8
0
100
AcDbCircle
 10
135.997835
 20
51.776068
 30
0.0
 40
2.5
100
AcDbArc
 50
0.0
 51
72.54239699999998
  0
ARC
  5
250
330
36
100
AcDbEntity
  8
0
100
AcDbCircle
 10
135.997835
 20
45.276068
 30
0.0
 40
2.5
100
AcDbArc
 50
0.0
 51
72.54239699999998
  0
ARC
  5
251
330
36
100
AcDbEntity
  8
0
100
AcDbCircle
 10
135.997835
 20
38.776068
 30
0.0
 40
2.5
100
AcDbArc
 50
0.0
 51
72.54239699999998
  0
LINE
  5
252
330
36
100
AcDbEntity
  8
0
100
AcDbLine
 10
138.497835
 20
38.776068
 30
0.0
 11
138.497835
 21
36.27606800000001
 31
0.0
  0
LINE
  5
253
330
36
100
AcDbEntity
  8
0
100
AcDbLine
 10
138.497835
 20
45.276068
 30
0.0
 11
138.497835
 21
42.776068
 31
0.0
  0
LINE
  5
254
330
36
100
AcDbEntity
  8
0
100
AcDbLine
 10
138.497835
 20
58.276068
 30
0.0
 11
138.497835
 21
55.776068
 31
0.0
  0
LINE
  5
255
330
36
100
AcDbEntity
  8
0
100
AcDbLine
 10
138.497835
 20
51.776068
 30
0.0
 11
138.497835
 21
49.276068
 31
0.0
  0
LINE
  5
256
330
36
100
AcDbEntity
  8
0
100
AcDbLine
 10
138.497835
 20
55.776068
 30
0.0
 11
136.747835
 21
55.776068
 31
0.0
  0
LINE
  5
257
330
36
100
AcDbEntity
  8
0
100
AcDbLine
 10
138.497835
 20
49.276068
 30
0.0
 11
136.747835
 21
49.276068
 31
0.0
  0
LINE
  5
258
330
36
100
AcDbEntity
  8
0
100
AcDbLine
 10
138.497835
 20
42.776068
 30
0.0
 11
136.747835
 21
42.776068
 31
0.0
  0
LINE
  5
259
330
36
100
AcDbEntity
  8
0
100
AcDbLine
 10
-39.55218499999999
 20
68.02600799999999
 30
0.0
 11
-39.55218499999999
 21
72.02600799999998
 31
0.0
  0
LINE
  5
25A
330
36
100
AcDbEntity
  8
0
100
AcDbLine
 10
-38.052185
 20
68.02600799999999
 30
0.0
 11
-38.052185
 21
72.02600799999998
 31
0.0
  0
LINE
  5
25B
330
36
100
AcDbEntity
  8
0
100
AcDbLine
 10
-36.552185
 20
68.02600799999999
 30
0.0
 11
-36.552185
 21
72.02600799999998
 31
0.0
  0
LINE
  5
25C
330
36
100
AcDbEntity
  8
0
100
AcDbLine
 10
-35.052185
 20
68.02600799999999
 30
0.0
 11
-35.052185
 21
72.02600799999998
 31
0.0
  0
LINE
  5
25D
330
36
100
AcDbEntity
  8
0
100
AcDbLine
 10
-33.55218499999999
 20
68.02600799999999
 30
0.0
 11
-33.55218499999999
 21
72.02600799999998
 31
0.0
  0
LINE
  5
25E
330
36
100
AcDbEntity
  8
0
100
AcDbLine
 10
-32.552185
 20
72.02600799999998
 30
0.0
 11
-33.55218499999999
 21
72.02600799999998
 31
0.0
  0
LINE
  5
25F
330
36
100
AcDbEntity
  8
0
100
AcDbLine
 10
-34.052185
 20
72.02600799999998
 30
0.0
 11
-35.052185
 21
72.02600799999998
 31
0.0
  0
LINE
  5
260
330
36
100
AcDbEntity
  8
0
100
AcDbLine
 10
-35.552185
 20
72.02600799999998
 30
0.0
 11
-36.552185
 21
72.02600799999998
 31
0.0
  0
LINE
  5
261
330
36
100
AcDbEntity
  8
0
100
AcDbLine
 10
-37.05218499999999
 20
72.02600799999998
 30
0.0
 11
-38.052185
 21
72.02600799999998
 31
0.0
  0
LINE
  5
262
330
36
100
AcDbEntity
  8
0
100
AcDbLine
 10
-38.55218499999999
 20
72.02600799999998
 30
0.0
 11
-39.55218499999999
 21
72.02600799999998
 31
0.0
  0
LINE
  5
263
330
36
100
AcDbEntity
  8
0
100
AcDbLine
 10
-32.552185
 20
68.02600799999999
 30
0.0
 11
-33.55218499999999
 21
68.02600799999999
 31
0.0
  0
LINE
  5
264
330
36
100
AcDbEntity
  8
0
100
AcDbLine
 10
-34.052185
 20
68.02600799999999
 30
0.0
 11
-35.052185
 21
68.02600799999999
 31
0.0
  0
LINE
  5
265
330
36
100
AcDbEntity
  8
0
100
AcDbLine
 10
-35.552185
 20
68.02600799999999
 30
0.0
 11
-36.552185
 21
68.02600799999999
 31
0.0
  0
LINE
  5
266
330
36
100
AcDbEntity
  8
0
100
AcDbLine
 10
-37.05218499999999
 20
68.02600799999999
 30
0.0
 11
-38.052185
 21
68.02600799999999
 31
0.0
  0
LINE
  5
267
330
36
100
AcDbEntity
  8
0
100
AcDbLine
 10
-38.55218499999999
 20
68.02600799999999
 30
0.0
 11
-39.55218499999999
 21
68.02600799999999
 31
0.0
  0
LINE
  5
268
330
36
100
AcDbEntity
  8
0
100
AcDbLine
 10
-34.052185
 20
68.02600799999999
 30
0.0
 11
-34.052185
 21
72.02600799999998
 31
0.0
  0
LINE
  5
269
330
36
100
AcDbEntity
  8
0
100
AcDbLine
 10
-35.552185
 20
68.02600799999999
 30
0.0
 11
-35.552185
 21
72.02600799999998
 31
0.0
  0
LINE
  5
26A
330
36
100
AcDbEntity
  8
0
100
AcDbLine
 10
-37.05218499999999
 20
68.02600799999999
 30
0.0
 11
-37.05218499999999
 21
72.02600799999998
 31
0.0
  0
LINE
  5
26B
330
36
100
AcDbEntity
  8
0
100
AcDbLine
 10
-38.55218499999999
 20
68.02600799999999
 30
0.0
 11
-38.55218499999999
 21
72.02600799999998
 31
0.0
  0
LINE
  5
26C
330
36
100
AcDbEntity
  8
0
100
AcDbLine
 10
-32.552185
 20
68.02600799999999
 30
0.0
 11
-32.552185
 21
72.02600799999998
 31
0.0
  0
LINE
  5
26D
330
36
100
AcDbEntity
  8
0
100
AcDbLine
 10
-32.05218499999999
 20
68.02600799999999
 30
0.0
 11
-32.05218499999999
 21
72.02600799999998
 31
0.0
  0
LINE
  5
26E
330
36
100
AcDbEntity
  8
0
100
AcDbLine
 10
-30.552185
 20
68.02600799999999
 30
0.0
 11
-30.552185
 21
72.02600799999998
 31
0.0
  0
LINE
  5
26F
330
36
100
AcDbEntity
  8
0
100
AcDbLine
 10
-29.052185
 20
68.02600799999999
 30
0.0
 11
-29.052185
 21
72.02600799999998
 31
0.0
  0
LINE
  5
270
330
36
100
AcDbEntity
  8
0
100
AcDbLine
 10
-27.552185
 20
68.02600799999999
 30
0.0
 11
-27.552185
 21
72.02600799999998
 31
0.0
  0
LINE
  5
271
330
36
100
AcDbEntity
  8
0
100
AcDbLine
 10
-26.552185
 20
72.02600799999998
 30
0.0
 11
-27.552185
 21
72.02600799999998
 31
0.0
  0
LINE
  5
272
330
36
100
AcDbEntity
  8
0
100
AcDbLine
 10
-28.052185
 20
72.02600799999998
 30
0.0
 11
-29.052185
 21
72.02600799999998
 31
0.0
  0
LINE
  5
273
330
36
100
AcDbEntity
  8
0
100
AcDbLine
 10
-29.552185
 20
72.02600799999998
 30
0.0
 11
-30.552185
 21
72.02600799999998
 31
0.0
  0
LINE
  5
274
330
36
100
AcDbEntity
  8
0
100
AcDbLine
 10
-26.552185
 20
68.02600799999999
 30
0.0
 11
-27.552185
 21
68.02600799999999
 31
0.0
  0
LINE
  5
275
330
36
100
AcDbEntity
  8
0
100
AcDbLine
 10
-28.052185
 20
68.02600799999999
 30
0.0
 11
-29.052185
 21
68.02600799999999
 31
0.0
  0
LINE
  5
276
330
36
100
AcDbEntity
  8
0
100
AcDbLine
 10
-29.552185
 20
68.02600799999999
 30
0.0
 11
-30.552185
 21
68.02600799999999
 31
0.0
  0
LINE
  5
277
330
36
100
AcDbEntity
  8
0
100
AcDbLine
 10
-24.552185
 20
68.02600799999999
 30
0.0
 11
-24.552185
 21
72.02600799999998
 31
0.0
  0
LINE
  5
278
330
36
100
AcDbEntity
  8
0
100
AcDbLine
 10
-26.052185
 20
68.02600799999999
 30
0.0
 11
-26.052185
 21
72.02600799999998
 31
0.0
  0
LINE
  5
279
330
36
100
AcDbEntity
  8
0
100
AcDbLine
 10
-26.052185
 20
72.02600799999998
 30
0.0
 11
-25.052185
 21
72.02600799999998
 31
0.0
  0
LINE
  5
27A
330
36
100
AcDbEntity
  8
0
100
AcDbLine
 10
-24.552185
 20
72.02600799999998
 30
0.0
 11
-23.552185
 21
72.02600799999998
 31
0.0
  0
LINE
  5
27B
330
36
100
AcDbEntity
  8
0
100
AcDbLine
 10
-26.052185
 20
68.02600799999999
 30
0.0
 11
-25.052185
 21
68.02600799999999
 31
0.0
  0
LINE
  5
27C
330
36
100
AcDbEntity
  8
0
100
AcDbLine
 10
-24.552185
 20
68.02600799999999
 30
0.0
 11
-23.552185
 21
68.02600799999999
 31
0.0
  0
LINE
  5
27D
330
36
100
AcDbEntity
  8
0
100
AcDbLine
 10
-25.052185
 20
68.02600799999999
 30
0.0
 11
-25.052185
 21
72.02600799999998
 31
0.0
  0
LINE
  5
27E
330
36
100
AcDbEntity
  8
0
100
AcDbLine
 10
-26.552185
 20
68.02600799999999
 30
0.0
 11
-26.552185
 21
72.02600799999998
 31
0.0
  0
LINE
  5
27F
330
36
100
AcDbEntity
  8
0
100
AcDbLine
 10
-28.052185
 20
68.02600799999999
 30
0.0
 11
-28.052185
 21
72.02600799999998
 31
0.0
  0
LINE
  5
280
330
36
100
AcDbEntity
  8
0
100
AcDbLine
 10
-29.552185
 20
68.02600799999999
 30
0.0
 11
-29.552185
 21
72.02600799999998
 31
0.0
  0
LINE
  5
281
330
36
100
AcDbEntity
  8
0
100
AcDbLine
 10
-31.052185
 20
72.02600799999998
 30
0.0
 11
-32.05218499999999
 21
72.02600799999998
 31
0.0
  0
LINE
  5
282
330
36
100
AcDbEntity
  8
0
100
AcDbLine
 10
-31.052185
 20
68.02600799999999
 30
0.0
 11
-31.052185
 21
72.02600799999998
 31
0.0
  0
LINE
  5
283
330
36
100
AcDbEntity
  8
0
100
AcDbLine
 10
-31.052185
 20
68.02600799999999
 30
0.0
 11
-32.05218499999999
 21
68.02600799999999
 31
0.0
  0
LINE
  5
284
330
36
100
AcDbEntity
  8
0
100
AcDbLine
 10
-23.552185
 20
68.02600799999999
 30
0.0
 11
-23.552185
 21
72.02600799999998
 31
0.0
  0
LINE
  5
285
330
36
100
AcDbEntity
  8
0
100
AcDbLine
 10
-23.052185
 20
68.02600799999999
 30
0.0
 11
-22.052185
 21
68.02600799999999
 31
0.0
  0
LINE
  5
286
330
36
100
AcDbEntity
  8
0
100
AcDbLine
 10
-22.052185
 20
71.26347599999999
 30
0.0
 11
-22.052185
 21
68.02600799999999
 31
0.0
  0
LINE
  5
287
330
36
100
AcDbEntity
  8
0
100
AcDbLine
 10
-23.052185
 20
68.02600799999999
 30
0.0
 11
-23.052185
 21
72.02600799999998
 31
0.0
  0
LINE
  5
288
330
36
100
AcDbEntity
  8
0
100
AcDbLine
 10
-22.68971
 20
72.02600799999998
 30
0.0
 11
-23.052185
 21
72.02600799999998
 31
0.0
  0
LINE
  5
289
330
36
100
AcDbEntity
  8
0
100
AcDbLine
 10
-76.05218499999998
 20
68.02600799999999
 30
0.0
 11
-76.05218499999998
 21
72.02600799999998
 31
0.0
  0
LINE
  5
28A
330
36
100
AcDbEntity
  8
0
100
AcDbLine
 10
-77.05218499999998
 20
68.02600799999999
 30
0.0
 11
-77.05218499999998
 21
72.02600799999998
 31
0.0
  0
LINE
  5
28B
330
36
100
AcDbEntity
  8
0
100
AcDbLine
 10
-77.55218499999998
 20
68.02600799999999
 30
0.0
 11
-77.55218499999998
 21
72.02600799999998
 31
0.0
  0
LINE
  5
28C
330
36
100
AcDbEntity
  8
0
100
AcDbLine
 10
-78.55218499999998
 20
68.02600799999999
 30
0.0
 11
-78.55218499999998
 21
72.02600799999998
 31
0.0
  0
LINE
  5
28D
330
36
100
AcDbEntity
  8
0
100
AcDbLine
 10
-79.052185
 20
68.02600799999999
 30
0.0
 11
-79.052185
 21
72.02600799999998
 31
0.0
  0
LINE
  5
28E
330
36
100
AcDbEntity
  8
0
100
AcDbLine
 10
-80.05218499999998
 20
68.02600799999999
 30
0.0
 11
-80.05218499999998
 21
72.02600799999998
 31
0.0
  0
LINE
  5
28F
330
36
100
AcDbEntity
  8
0
100
AcDbLine
 10
-80.552185
 20
68.02600799999999
 30
0.0
 11
-80.552185
 21
72.02600799999998
 31
0.0
  0
LINE
  5
290
330
36
100
AcDbEntity
  8
0
100
AcDbLine
 10
-81.552185
 20
68.02600799999999
 30
0.0
 11
-81.552185
 21
72.02600799999998
 31
0.0
  0
LINE
  5
291
330
36
100
AcDbEntity
  8
0
100
AcDbLine
 10
-82.05218499999999
 20
68.02600799999999
 30
0.0
 11
-82.05218499999999
 21
72.02600799999998
 31
0.0
  0
LINE
  5
292
330
36
100
AcDbEntity
  8
0
100
AcDbLine
 10
-83.052185
 20
68.02600799999999
 30
0.0
 11
-83.052185
 21
72.02600799999998
 31
0.0
  0
LINE
  5
293
330
36
100
AcDbEntity
  8
0
100
AcDbLine
 10
-83.55218499999997
 20
68.02600799999999
 30
0.0
 11
-83.55218499999997
 21
72.02600799999998
 31
0.0
  0
LINE
  5
294
330
36
100
AcDbEntity
  8
0
100
AcDbLine
 10
-84.55218499999999
 20
68.02600799999999
 30
0.0
 11
-84.55218499999999
 21
72.02600799999998
 31
0.0
  0
LINE
  5
295
330
36
100
AcDbEntity
  8
0
100
AcDbLine
 10
-85.05218499999998
 20
68.02600799999999
 30
0.0
 11
-85.05218499999998
 21
72.02600799999998
 31
0.0
  0
LINE
  5
296
330
36
100
AcDbEntity
  8
0
100
AcDbLine
 10
-86.05218499999997
 20
68.02600799999999
 30
0.0
 11
-86.05218499999997
 21
72.02600799999998
 31
0.0
  0
LINE
  5
297
330
36
100
AcDbEntity
  8
0
100
AcDbLine
 10
-86.552185
 20
68.02600799999999
 30
0.0
 11
-86.552185
 21
72.02600799999998
 31
0.0
  0
LINE
  5
298
330
36
100
AcDbEntity
  8
0
100
AcDbLine
 10
-86.05218499999997
 20
72.02600799999998
 30
0.0
 11
-85.05218499999998
 21
72.02600799999998
 31
0.0
  0
LINE
  5
299
330
36
100
AcDbEntity
  8
0
100
AcDbLine
 10
-84.55218499999999
 20
72.02600799999998
 30
0.0
 11
-83.55218499999997
 21
72.02600799999998
 31
0.0
  0
LINE
  5
29A
330
36
100
AcDbEntity
  8
0
100
AcDbLine
 10
-83.052185
 20
72.02600799999998
 30
0.0
 11
-82.05218499999999
 21
72.02600799999998
 31
0.0
  0
LINE
  5
29B
330
36
100
AcDbEntity
  8
0
100
AcDbLine
 10
-81.552185
 20
72.02600799999998
 30
0.0
 11
-80.552185
 21
72.02600799999998
 31
0.0
  0
LINE
  5
29C
330
36
100
AcDbEntity
  8
0
100
AcDbLine
 10
-80.05218499999998
 20
72.02600799999998
 30
0.0
 11
-79.052185
 21
72.02600799999998
 31
0.0
  0
LINE
  5
29D
330
36
100
AcDbEntity
  8
0
100
AcDbLine
 10
-78.55218499999998
 20
72.02600799999998
 30
0.0
 11
-77.55218499999998
 21
72.02600799999998
 31
0.0
  0
LINE
  5
29E
330
36
100
AcDbEntity
  8
0
100
AcDbLine
 10
-77.05218499999998
 20
72.02600799999998
 30
0.0
 11
-76.05218499999998
 21
72.02600799999998
 31
0.0
  0
LINE
  5
29F
330
36
100
AcDbEntity
  8
0
100
AcDbLine
 10
-86.05218499999997
 20
68.02600799999999
 30
0.0
 11
-85.05218499999998
 21
68.02600799999999
 31
0.0
  0
LINE
  5
2A0
330
36
100
AcDbEntity
  8
0
100
AcDbLine
 10
-84.55218499999999
 20
68.02600799999999
 30
0.0
 11
-83.55218499999997
 21
68.02600799999999
 31
0.0
  0
LINE
  5
2A1
330
36
100
AcDbEntity
  8
0
100
AcDbLine
 10
-83.052185
 20
68.02600799999999
 30
0.0
 11
-82.05218499999999
 21
68.02600799999999
 31
0.0
  0
LINE
  5
2A2
330
36
100
AcDbEntity
  8
0
100
AcDbLine
 10
-81.552185
 20
68.02600799999999
 30
0.0
 11
-80.552185
 21
68.02600799999999
 31
0.0
  0
LINE
  5
2A3
330
36
100
AcDbEntity
  8
0
100
AcDbLine
 10
-80.05218499999998
 20
68.02600799999999
 30
0.0
 11
-79.052185
 21
68.02600799999999
 31
0.0
  0
LINE
  5
2A4
330
36
100
AcDbEntity
  8
0
100
AcDbLine
 10
-78.55218499999998
 20
68.02600799999999
 30
0.0
 11
-77.55218499999998
 21
68.02600799999999
 31
0.0
  0
LINE
  5
2A5
330
36
100
AcDbEntity
  8
0
100
AcDbLine
 10
-77.05218499999998
 20
68.02600799999999
 30
0.0
 11
-76.05218499999998
 21
68.02600799999999
 31
0.0
  0
LINE
  5
2A6
330
36
100
AcDbEntity
  8
0
100
AcDbLine
 10
-75.55218499999998
 20
68.02600799999999
 30
0.0
 11
-75.55218499999998
 21
72.02600799999998
 31
0.0
  0
LINE
  5
2A7
330
36
100
AcDbEntity
  8
0
100
AcDbLine
 10
-74.55218499999998
 20
68.02600799999999
 30
0.0
 11
-74.55218499999998
 21
72.02600799999998
 31
0.0
  0
LINE
  5
2A8
330
36
100
AcDbEntity
  8
0
100
AcDbLine
 10
-74.052185
 20
68.02600799999999
 30
0.0
 11
-74.052185
 21
72.02600799999998
 31
0.0
  0
LINE
  5
2A9
330
36
100
AcDbEntity
  8
0
100
AcDbLine
 10
-73.05218499999998
 20
68.02600799999999
 30
0.0
 11
-73.05218499999998
 21
72.02600799999998
 31
0.0
  0
LINE
  5
2AA
330
36
100
AcDbEntity
  8
0
100
AcDbLine
 10
-73.05218499999998
 20
72.02600799999998
 30
0.0
 11
-74.052185
 21
72.02600799999998
 31
0.0
  0
LINE
  5
2AB
330
36
100
AcDbEntity
  8
0
100
AcDbLine
 10
-74.55218499999998
 20
72.02600799999998
 30
0.0
 11
-75.55218499999998
 21
72.02600799999998
 31
0.0
  0
LINE
  5
2AC
330
36
100
AcDbEntity
  8
0
100
AcDbLine
 10
-73.05218499999998
 20
68.02600799999999
 30
0.0
 11
-74.052185
 21
68.02600799999999
 31
0.0
  0
LINE
  5
2AD
330
36
100
AcDbEntity
  8
0
100
AcDbLine
 10
-74.55218499999998
 20
68.02600799999999
 30
0.0
 11
-75.55218499999998
 21
68.02600799999999
 31
0.0
  0
LINE
  5
2AE
330
36
100
AcDbEntity
  8
0
100
AcDbLine
 10
-88.052185
 20
68.02600799999999
 30
0.0
 11
-88.052185
 21
72.02600799999998
 31
0.0
  0
LINE
  5
2AF
330
36
100
AcDbEntity
  8
0
100
AcDbLine
 10
-89.052185
 20
68.02600799999999
 30
0.0
 11
-89.052185
 21
72.02600799999998
 31
0.0
  0
LINE
  5
2B0
330
36
100
AcDbEntity
  8
0
100
AcDbLine
 10
-89.55218499999999
 20
68.02600799999999
 30
0.0
 11
-89.55218499999999
 21
72.02600799999998
 31
0.0
  0
LINE
  5
2B1
330
36
100
AcDbEntity
  8
0
100
AcDbLine
 10
-90.552185
 20
68.02600799999999
 30
0.0
 11
-90.552185
 21
72.02600799999998
 31
0.0
  0
LINE
  5
2B2
330
36
100
AcDbEntity
  8
0
100
AcDbLine
 10
-91.05218499999999
 20
68.02600799999999
 30
0.0
 11
-91.05218499999999
 21
72.02600799999998
 31
0.0
  0
LINE
  5
2B3
330
36
100
AcDbEntity
  8
0
100
AcDbLine
 10
-92.05218499999999
 20
68.02600799999999
 30
0.0
 11
-92.05218499999999
 21
72.02600799999998
 31
0.0
  0
LINE
  5
2B4
330
36
100
AcDbEntity
  8
0
100
AcDbLine
 10
-92.05218499999999
 20
72.02600799999998
 30
0.0
 11
-91.05218499999999
 21
72.02600799999998
 31
0.0
  0
LINE
  5
2B5
330
36
100
AcDbEntity
  8
0
100
AcDbLine
 10
-90.552185
 20
72.02600799999998
 30
0.0
 11
-89.55218499999999
 21
72.02600799999998
 31
0.0
  0
LINE
  5
2B6
330
36
100
AcDbEntity
  8
0
100
AcDbLine
 10
-89.052185
 20
72.02600799999998
 30
0.0
 11
-88.052185
 21
72.02600799999998
 31
0.0
  0
LINE
  5
2B7
330
36
100
AcDbEntity
  8
0
100
AcDbLine
 10
-92.05218499999999
 20
68.02600799999999
 30
0.0
 11
-91.05218499999999
 21
68.02600799999999
 31
0.0
  0
LINE
  5
2B8
330
36
100
AcDbEntity
  8
0
100
AcDbLine
 10
-90.552185
 20
68.02600799999999
 30
0.0
 11
-89.55218499999999
 21
68.02600799999999
 31
0.0
  0
LINE
  5
2B9
330
36
100
AcDbEntity
  8
0
100
AcDbLine
 10
-89.052185
 20
68.02600799999999
 30
0.0
 11
-88.052185
 21
68.02600799999999
 31
0.0
  0
LINE
  5
2BA
330
36
100
AcDbEntity
  8
0
100
AcDbLine
 10
-106.052185
 20
68.02600799999999
 30
0.0
 11
-106.052185
 21
72.02600799999998
 31
0.0
  0
LINE
  5
2BB
330
36
100
AcDbEntity
  8
0
100
AcDbLine
 10
-105.552185
 20
68.02600799999999
 30
0.0
 11
-105.552185
 21
72.02600799999998
 31
0.0
  0
LINE
  5
2BC
330
36
100
AcDbEntity
  8
0
100
AcDbLine
 10
-104.552185
 20
68.02600799999999
 30
0.0
 11
-104.552185
 21
72.02600799999998
 31
0.0
  0
LINE
  5
2BD
330
36
100
AcDbEntity
  8
0
100
AcDbLine
 10
-104.052185
 20
68.02600799999999
 30
0.0
 11
-104.052185
 21
72.02600799999998
 31
0.0
  0
LINE
  5
2BE
330
36
100
AcDbEntity
  8
0
100
AcDbLine
 10
-103.052185
 20
68.02600799999999
 30
0.0
 11
-103.052185
 21
72.02600799999998
 31
0.0
  0
LINE
  5
2BF
330
36
100
AcDbEntity
  8
0
100
AcDbLine
 10
-102.552185
 20
68.02600799999999
 30
0.0
 11
-102.552185
 21
72.02600799999998
 31
0.0
  0
LINE
  5
2C0
330
36
100
AcDbEntity
  8
0
100
AcDbLine
 10
-101.552185
 20
68.02600799999999
 30
0.0
 11
-101.552185
 21
72.02600799999998
 31
0.0
  0
LINE
  5
2C1
330
36
100
AcDbEntity
  8
0
100
AcDbLine
 10
-101.052185
 20
68.02600799999999
 30
0.0
 11
-101.052185
 21
72.02600799999998
 31
0.0
  0
LINE
  5
2C2
330
36
100
AcDbEntity
  8
0
100
AcDbLine
 10
-100.052185
 20
68.02600799999999
 30
0.0
 11
-100.052185
 21
72.02600799999998
 31
0.0
  0
LINE
  5
2C3
330
36
100
AcDbEntity
  8
0
100
AcDbLine
 10
-99.552185
 20
68.02600799999999
 30
0.0
 11
-99.552185
 21
72.02600799999998
 31
0.0
  0
LINE
  5
2C4
330
36
100
AcDbEntity
  8
0
100
AcDbLine
 10
-98.55218499999999
 20
68.02600799999999
 30
0.0
 11
-98.55218499999999
 21
72.02600799999998
 31
0.0
  0
LINE
  5
2C5
330
36
100
AcDbEntity
  8
0
100
AcDbLine
 10
-98.052185
 20
68.02600799999999
 30
0.0
 11
-98.052185
 21
72.02600799999998
 31
0.0
  0
LINE
  5
2C6
330
36
100
AcDbEntity
  8
0
100
AcDbLine
 10
-97.052185
 20
68.02600799999999
 30
0.0
 11
-97.052185
 21
72.02600799999998
 31
0.0
  0
LINE
  5
2C7
330
36
100
AcDbEntity
  8
0
100
AcDbLine
 10
-96.552185
 20
68.02600799999999
 30
0.0
 11
-96.552185
 21
72.02600799999998
 31
0.0
  0
LINE
  5
2C8
330
36
100
AcDbEntity
  8
0
100
AcDbLine
 10
-95.552185
 20
68.02600799999999
 30
0.0
 11
-95.552185
 21
72.02600799999998
 31
0.0
  0
LINE
  5
2C9
330
36
100
AcDbEntity
  8
0
100
AcDbLine
 10
-95.05218499999999
 20
68.02600799999999
 30
0.0
 11
-95.05218499999999
 21
72.02600799999998
 31
0.0
  0
LINE
  5
2CA
330
36
100
AcDbEntity
  8
0
100
AcDbLine
 10
-94.052185
 20
68.02600799999999
 30
0.0
 11
-94.052185
 21
72.02600799999998
 31
0.0
  0
LINE
  5
2CB
330
36
100
AcDbEntity
  8
0
100
AcDbLine
 10
-93.55218499999999
 20
68.02600799999999
 30
0.0
 11
-93.55218499999999
 21
72.02600799999998
 31
0.0
  0
LINE
  5
2CC
330
36
100
AcDbEntity
  8
0
100
AcDbLine
 10
-92.55218499999999
 20
68.02600799999999
 30
0.0
 11
-92.55218499999999
 21
72.02600799999998
 31
0.0
  0
LINE
  5
2CD
330
36
100
AcDbEntity
  8
0
100
AcDbLine
 10
-92.55218499999999
 20
72.02600799999998
 30
0.0
 11
-93.55218499999999
 21
72.02600799999998
 31
0.0
  0
LINE
  5
2CE
330
36
100
AcDbEntity
  8
0
100
AcDbLine
 10
-94.052185
 20
72.02600799999998
 30
0.0
 11
-95.05218499999999
 21
72.02600799999998
 31
0.0
  0
LINE
  5
2CF
330
36
100
AcDbEntity
  8
0
100
AcDbLine
 10
-95.552185
 20
72.02600799999998
 30
0.0
 11
-96.552185
 21
72.02600799999998
 31
0.0
  0
LINE
  5
2D0
330
36
100
AcDbEntity
  8
0
100
AcDbLine
 10
-97.052185
 20
72.02600799999998
 30
0.0
 11
-98.052185
 21
72.02600799999998
 31
0.0
  0
LINE
  5
2D1
330
36
100
AcDbEntity
  8
0
100
AcDbLine
 10
-98.55218499999999
 20
72.02600799999998
 30
0.0
 11
-99.552185
 21
72.02600799999998
 31
0.0
  0
LINE
  5
2D2
330
36
100
AcDbEntity
  8
0
100
AcDbLine
 10
-100.052185
 20
72.02600799999998
 30
0.0
 11
-101.052185
 21
72.02600799999998
 31
0.0
  0
LINE
  5
2D3
330
36
100
AcDbEntity
  8
0
100
AcDbLine
 10
-101.552185
 20
72.02600799999998
 30
0.0
 11
-102.552185
 21
72.02600799999998
 31
0.0
  0
LINE
  5
2D4
330
36
100
AcDbEntity
  8
0
100
AcDbLine
 10
-103.052185
 20
72.02600799999998
 30
0.0
 11
-104.052185
 21
72.02600799999998
 31
0.0
  0
LINE
  5
2D5
330
36
100
AcDbEntity
  8
0
100
AcDbLine
 10
-104.552185
 20
72.02600799999998
 30
0.0
 11
-105.552185
 21
72.02600799999998
 31
0.0
  0
LINE
  5
2D6
330
36
100
AcDbEntity
  8
0
100
AcDbLine
 10
-92.55218499999999
 20
68.02600799999999
 30
0.0
 11
-93.55218499999999
 21
68.02600799999999
 31
0.0
  0
LINE
  5
2D7
330
36
100
AcDbEntity
  8
0
100
AcDbLine
 10
-94.052185
 20
68.02600799999999
 30
0.0
 11
-95.05218499999999
 21
68.02600799999999
 31
0.0
  0
LINE
  5
2D8
330
36
100
AcDbEntity
  8
0
100
AcDbLine
 10
-95.552185
 20
68.02600799999999
 30
0.0
 11
-96.552185
 21
68.02600799999999
 31
0.0
  0
LINE
  5
2D9
330
36
100
AcDbEntity
  8
0
100
AcDbLine
 10
-97.052185
 20
68.02600799999999
 30
0.0
 11
-98.052185
 21
68.02600799999999
 31
0.0
  0
LINE
  5
2DA
330
36
100
AcDbEntity
  8
0
100
AcDbLine
 10
-98.55218499999999
 20
68.02600799999999
 30
0.0
 11
-99.552185
 21
68.02600799999999
 31
0.0
  0
LINE
  5
2DB
330
36
100
AcDbEntity
  8
0
100
AcDbLine
 10
-100.052185
 20
68.02600799999999
 30
0.0
 11
-101.052185
 21
68.02600799999999
 31
0.0
  0
LINE
  5
2DC
330
36
100
AcDbEntity
  8
0
100
AcDbLine
 10
-101.552185
 20
68.02600799999999
 30
0.0
 11
-102.552185
 21
68.02600799999999
 31
0.0
  0
LINE
  5
2DD
330
36
100
AcDbEntity
  8
0
100
AcDbLine
 10
-103.052185
 20
68.02600799999999
 30
0.0
 11
-104.052185
 21
68.02600799999999
 31
0.0
  0
LINE
  5
2DE
330
36
100
AcDbEntity
  8
0
100
AcDbLine
 10
-104.552185
 20
68.02600799999999
 30
0.0
 11
-105.552185
 21
68.02600799999999
 31
0.0
  0
LINE
  5
2DF
330
36
100
AcDbEntity
  8
0
100
AcDbLine
 10
-87.55218499999998
 20
68.02600799999999
 30
0.0
 11
-87.55218499999998
 21
72.02600799999998
 31
0.0
  0
LINE
  5
2E0
330
36
100
AcDbEntity
  8
0
100
AcDbLine
 10
-87.55218499999998
 20
72.02600799999998
 30
0.0
 11
-86.552185
 21
72.02600799999998
 31
0.0
  0
LINE
  5
2E1
330
36
100
AcDbEntity
  8
0
100
AcDbLine
 10
-87.55218499999998
 20
68.02600799999999
 30
0.0
 11
-86.552185
 21
68.02600799999999
 31
0.0
  0
LINE
  5
2E2
330
36
100
AcDbEntity
  8
0
100
AcDbLine
 10
-130.052185
 20
68.02600799999999
 30
0.0
 11
-130.052185
 21
72.02600799999998
 31
0.0
  0
LINE
  5
2E3
330
36
100
AcDbEntity
  8
0
100
AcDbLine
 10
-129.552185
 20
68.02600799999999
 30
0.0
 11
-129.552185
 21
72.02600799999998
 31
0.0
  0
LINE
  5
2E4
330
36
100
AcDbEntity
  8
0
100
AcDbLine
 10
-128.552185
 20
68.02600799999999
 30
0.0
 11
-128.552185
 21
72.02600799999998
 31
0.0
  0
LINE
  5
2E5
330
36
100
AcDbEntity
  8
0
100
AcDbLine
 10
-128.052185
 20
68.02600799999999
 30
0.0
 11
-128.052185
 21
72.02600799999998
 31
0.0
  0
LINE
  5
2E6
330
36
100
AcDbEntity
  8
0
100
AcDbLine
 10
-127.052185
 20
68.02600799999999
 30
0.0
 11
-127.052185
 21
72.02600799999998
 31
0.0
  0
LINE
  5
2E7
330
36
100
AcDbEntity
  8
0
100
AcDbLine
 10
-126.552185
 20
68.02600799999999
 30
0.0
 11
-126.552185
 21
72.02600799999998
 31
0.0
  0
LINE
  5
2E8
330
36
100
AcDbEntity
  8
0
100
AcDbLine
 10
-125.552185
 20
68.02600799999999
 30
0.0
 11
-125.552185
 21
72.02600799999998
 31
0.0
  0
LINE
  5
2E9
330
36
100
AcDbEntity
  8
0
100
AcDbLine
 10
-125.552185
 20
72.02600799999998
 30
0.0
 11
-126.552185
 21
72.02600799999998
 31
0.0
  0
LINE
  5
2EA
330
36
100
AcDbEntity
  8
0
100
AcDbLine
 10
-127.052185
 20
72.02600799999998
 30
0.0
 11
-128.052185
 21
72.02600799999998
 31
0.0
  0
LINE
  5
2EB
330
36
100
AcDbEntity
  8
0
100
AcDbLine
 10
-128.552185
 20
72.02600799999998
 30
0.0
 11
-129.552185
 21
72.02600799999998
 31
0.0
  0
LINE
  5
2EC
330
36
100
AcDbEntity
  8
0
100
AcDbLine
 10
-125.552185
 20
68.02600799999999
 30
0.0
 11
-126.552185
 21
68.02600799999999
 31
0.0
  0
LINE
  5
2ED
330
36
100
AcDbEntity
  8
0
100
AcDbLine
 10
-127.052185
 20
68.02600799999999
 30
0.0
 11
-128.052185
 21
68.02600799999999
 31
0.0
  0
LINE
  5
2EE
330
36
100
AcDbEntity
  8
0
100
AcDbLine
 10
-128.552185
 20
68.02600799999999
 30
0.0
 11
-129.552185
 21
68.02600799999999
 31
0.0
  0
LINE
  5
2EF
330
36
100
AcDbEntity
  8
0
100
AcDbLine
 10
-109.052185
 20
68.02600799999999
 30
0.0
 11
-109.052185
 21
72.02600799999998
 31
0.0
  0
LINE
  5
2F0
330
36
100
AcDbEntity
  8
0
100
AcDbLine
 10
-110.052185
 20
68.02600799999999
 30
0.0
 11
-110.052185
 21
72.02600799999998
 31
0.0
  0
LINE
  5
2F1
330
36
100
AcDbEntity
  8
0
100
AcDbLine
 10
-110.552185
 20
68.02600799999999
 30
0.0
 11
-110.552185
 21
72.02600799999998
 31
0.0
  0
LINE
  5
2F2
330
36
100
AcDbEntity
  8
0
100
AcDbLine
 10
-111.552185
 20
68.02600799999999
 30
0.0
 11
-111.552185
 21
72.02600799999998
 31
0.0
  0
LINE
  5
2F3
330
36
100
AcDbEntity
  8
0
100
AcDbLine
 10
-112.052185
 20
68.02600799999999
 30
0.0
 11
-112.052185
 21
72.02600799999998
 31
0.0
  0
LINE
  5
2F4
330
36
100
AcDbEntity
  8
0
100
AcDbLine
 10
-113.052185
 20
68.02600799999999
 30
0.0
 11
-113.052185
 21
72.02600799999998
 31
0.0
  0
LINE
  5
2F5
330
36
100
AcDbEntity
  8
0
100
AcDbLine
 10
-113.552185
 20
68.02600799999999
 30
0.0
 11
-113.552185
 21
72.02600799999998
 31
0.0
  0
LINE
  5
2F6
330
36
100
AcDbEntity
  8
0
100
AcDbLine
 10
-114.552185
 20
68.02600799999999
 30
0.0
 11
-114.552185
 21
72.02600799999998
 31
0.0
  0
LINE
  5
2F7
330
36
100
AcDbEntity
  8
0
100
AcDbLine
 10
-115.052185
 20
68.02600799999999
 30
0.0
 11
-115.052185
 21
72.02600799999998
 31
0.0
  0
LINE
  5
2F8
330
36
100
AcDbEntity
  8
0
100
AcDbLine
 10
-116.052185
 20
68.02600799999999
 30
0.0
 11
-116.052185
 21
72.02600799999998
 31
0.0
  0
LINE
  5
2F9
330
36
100
AcDbEntity
  8
0
100
AcDbLine
 10
-116.552185
 20
68.02600799999999
 30
0.0
 11
-116.552185
 21
72.02600799999998
 31
0.0
  0
LINE
  5
2FA
330
36
100
AcDbEntity
  8
0
100
AcDbLine
 10
-117.552185
 20
68.02600799999999
 30
0.0
 11
-117.552185
 21
72.02600799999998
 31
0.0
  0
LINE
  5
2FB
330
36
100
AcDbEntity
  8
0
100
AcDbLine
 10
-118.052185
 20
68.02600799999999
 30
0.0
 11
-118.052185
 21
72.02600799999998
 31
0.0
  0
LINE
  5
2FC
330
36
100
AcDbEntity
  8
0
100
AcDbLine
 10
-119.052185
 20
68.02600799999999
 30
0.0
 11
-119.052185
 21
72.02600799999998
 31
0.0
  0
LINE
  5
2FD
330
36
100
AcDbEntity
  8
0
100
AcDbLine
 10
-119.552185
 20
68.02600799999999
 30
0.0
 11
-119.552185
 21
72.02600799999998
 31
0.0
  0
LINE
  5
2FE
330
36
100
AcDbEntity
  8
0
100
AcDbLine
 10
-120.552185
 20
68.02600799999999
 30
0.0
 11
-120.552185
 21
72.02600799999998
 31
0.0
  0
LINE
  5
2FF
330
36
100
AcDbEntity
  8
0
100
AcDbLine
 10
-121.052185
 20
68.02600799999999
 30
0.0
 11
-121.052185
 21
72.02600799999998
 31
0.0
  0
LINE
  5
300
330
36
100
AcDbEntity
  8
0
100
AcDbLine
 10
-122.052185
 20
68.02600799999999
 30
0.0
 11
-122.052185
 21
72.02600799999998
 31
0.0
  0
LINE
  5
301
330
36
100
AcDbEntity
  8
0
100
AcDbLine
 10
-122.552185
 20
68.02600799999999
 30
0.0
 11
-122.552185
 21
72.02600799999998
 31
0.0
  0
LINE
  5
302
330
36
100
AcDbEntity
  8
0
100
AcDbLine
 10
-123.552185
 20
68.02600799999999
 30
0.0
 11
-123.552185
 21
72.02600799999998
 31
0.0
  0
LINE
  5
303
330
36
100
AcDbEntity
  8
0
100
AcDbLine
 10
-124.052185
 20
68.02600799999999
 30
0.0
 11
-124.052185
 21
72.02600799999998
 31
0.0
  0
LINE
  5
304
330
36
100
AcDbEntity
  8
0
100
AcDbLine
 10
-125.052185
 20
68.02600799999999
 30
0.0
 11
-125.052185
 21
72.02600799999998
 31
0.0
  0
LINE
  5
305
330
36
100
AcDbEntity
  8
0
100
AcDbLine
 10
-125.052185
 20
72.02600799999998
 30
0.0
 11
-124.052185
 21
72.02600799999998
 31
0.0
  0
LINE
  5
306
330
36
100
AcDbEntity
  8
0
100
AcDbLine
 10
-123.552185
 20
72.02600799999998
 30
0.0
 11
-122.552185
 21
72.02600799999998
 31
0.0
  0
LINE
  5
307
330
36
100
AcDbEntity
  8
0
100
AcDbLine
 10
-122.052185
 20
72.02600799999998
 30
0.0
 11
-121.052185
 21
72.02600799999998
 31
0.0
  0
LINE
  5
308
330
36
100
AcDbEntity
  8
0
100
AcDbLine
 10
-120.552185
 20
72.02600799999998
 30
0.0
 11
-119.552185
 21
72.02600799999998
 31
0.0
  0
LINE
  5
309
330
36
100
AcDbEntity
  8
0
100
AcDbLine
 10
-119.052185
 20
72.02600799999998
 30
0.0
 11
-118.052185
 21
72.02600799999998
 31
0.0
  0
LINE
  5
30A
330
36
100
AcDbEntity
  8
0
100
AcDbLine
 10
-117.552185
 20
72.02600799999998
 30
0.0
 11
-116.552185
 21
72.02600799999998
 31
0.0
  0
LINE
  5
30B
330
36
100
AcDbEntity
  8
0
100
AcDbLine
 10
-116.052185
 20
72.02600799999998
 30
0.0
 11
-115.052185
 21
72.02600799999998
 31
0.0
  0
LINE
  5
30C
330
36
100
AcDbEntity
  8
0
100
AcDbLine
 10
-114.552185
 20
72.02600799999998
 30
0.0
 11
-113.552185
 21
72.02600799999998
 31
0.0
  0
LINE
  5
30D
330
36
100
AcDbEntity
  8
0
100
AcDbLine
 10
-113.052185
 20
72.02600799999998
 30
0.0
 11
-112.052185
 21
72.02600799999998
 31
0.0
  0
LINE
  5
30E
330
36
100
AcDbEntity
  8
0
100
AcDbLine
 10
-111.552185
 20
72.02600799999998
 30
0.0
 11
-110.552185
 21
72.02600799999998
 31
0.0
  0
LINE
  5
30F
330
36
100
AcDbEntity
  8
0
100
AcDbLine
 10
-110.052185
 20
72.02600799999998
 30
0.0
 11
-109.052185
 21
72.02600799999998
 31
0.0
  0
LINE
  5
310
330
36
100
AcDbEntity
  8
0
100
AcDbLine
 10
-125.052185
 20
68.02600799999999
 30
0.0
 11
-124.052185
 21
68.02600799999999
 31
0.0
  0
LINE
  5
311
330
36
100
AcDbEntity
  8
0
100
AcDbLine
 10
-123.552185
 20
68.02600799999999
 30
0.0
 11
-122.552185
 21
68.02600799999999
 31
0.0
  0
LINE
  5
312
330
36
100
AcDbEntity
  8
0
100
AcDbLine
 10
-122.052185
 20
68.02600799999999
 30
0.0
 11
-121.052185
 21
68.02600799999999
 31
0.0
  0
LINE
  5
313
330
36
100
AcDbEntity
  8
0
100
AcDbLine
 10
-120.552185
 20
68.02600799999999
 30
0.0
 11
-119.552185
 21
68.02600799999999
 31
0.0
  0
LINE
  5
314
330
36
100
AcDbEntity
  8
0
100
AcDbLine
 10
-119.052185
 20
68.02600799999999
 30
0.0
 11
-118.052185
 21
68.02600799999999
 31
0.0
  0
LINE
  5
315
330
36
100
AcDbEntity
  8
0
100
AcDbLine
 10
-117.552185
 20
68.02600799999999
 30
0.0
 11
-116.552185
 21
68.02600799999999
 31
0.0
  0
LINE
  5
316
330
36
100
AcDbEntity
  8
0
100
AcDbLine
 10
-116.052185
 20
68.02600799999999
 30
0.0
 11
-115.052185
 21
68.02600799999999
 31
0.0
  0
LINE
  5
317
330
36
100
AcDbEntity
  8
0
100
AcDbLine
 10
-114.552185
 20
68.02600799999999
 30
0.0
 11
-113.552185
 21
68.02600799999999
 31
0.0
  0
LINE
  5
318
330
36
100
AcDbEntity
  8
0
100
AcDbLine
 10
-113.052185
 20
68.02600799999999
 30
0.0
 11
-112.052185
 21
68.02600799999999
 31
0.0
  0
LINE
  5
319
330
36
100
AcDbEntity
  8
0
100
AcDbLine
 10
-111.552185
 20
68.02600799999999
 30
0.0
 11
-110.552185
 21
68.02600799999999
 31
0.0
  0
LINE
  5
31A
330
36
100
AcDbEntity
  8
0
100
AcDbLine
 10
-110.052185
 20
68.02600799999999
 30
0.0
 11
-109.052185
 21
68.02600799999999
 31
0.0
  0
LINE
  5
31B
330
36
100
AcDbEntity
  8
0
100
AcDbLine
 10
-108.552185
 20
68.02600799999999
 30
0.0
 11
-108.552185
 21
72.02600799999998
 31
0.0
  0
LINE
  5
31C
330
36
100
AcDbEntity
  8
0
100
AcDbLine
 10
-107.552185
 20
68.02600799999999
 30
0.0
 11
-107.552185
 21
72.02600799999998
 31
0.0
  0
LINE
  5
31D
330
36
100
AcDbEntity
  8
0
100
AcDbLine
 10
-107.052185
 20
68.02600799999999
 30
0.0
 11
-107.052185
 21
72.02600799999998
 31
0.0
  0
LINE
  5
31E
330
36
100
AcDbEntity
  8
0
100
AcDbLine
 10
-106.052185
 20
72.02600799999998
 30
0.0
 11
-107.052185
 21
72.02600799999998
 31
0.0
  0
LINE
  5
31F
330
36
100
AcDbEntity
  8
0
100
AcDbLine
 10
-107.552185
 20
72.02600799999998
 30
0.0
 11
-108.552185
 21
72.02600799999998
 31
0.0
  0
LINE
  5
320
330
36
100
AcDbEntity
  8
0
100
AcDbLine
 10
-106.052185
 20
68.02600799999999
 30
0.0
 11
-107.052185
 21
68.02600799999999
 31
0.0
  0
LINE
  5
321
330
36
100
AcDbEntity
  8
0
100
AcDbLine
 10
-107.552185
 20
68.02600799999999
 30
0.0
 11
-108.552185
 21
68.02600799999999
 31
0.0
  0
LINE
  5
322
330
36
100
AcDbEntity
  8
0
100
AcDbLine
 10
-139.052185
 20
68.02600799999999
 30
0.0
 11
-139.052185
 21
72.02600799999998
 31
0.0
  0
LINE
  5
323
330
36
100
AcDbEntity
  8
0
100
AcDbLine
 10
-138.552185
 20
68.02600799999999
 30
0.0
 11
-138.552185
 21
72.02600799999998
 31
0.0
  0
LINE
  5
324
330
36
100
AcDbEntity
  8
0
100
AcDbLine
 10
-137.552185
 20
68.02600799999999
 30
0.0
 11
-137.552185
 21
72.02600799999998
 31
0.0
  0
LINE
  5
325
330
36
100
AcDbEntity
  8
0
100
AcDbLine
 10
-137.052185
 20
68.02600799999999
 30
0.0
 11
-137.052185
 21
72.02600799999998
 31
0.0
  0
LINE
  5
326
330
36
100
AcDbEntity
  8
0
100
AcDbLine
 10
-136.052185
 20
68.02600799999999
 30
0.0
 11
-136.052185
 21
72.02600799999998
 31
0.0
  0
LINE
  5
327
330
36
100
AcDbEntity
  8
0
100
AcDbLine
 10
-135.552185
 20
68.02600799999999
 30
0.0
 11
-135.552185
 21
72.02600799999998
 31
0.0
  0
LINE
  5
328
330
36
100
AcDbEntity
  8
0
100
AcDbLine
 10
-134.552185
 20
68.02600799999999
 30
0.0
 11
-134.552185
 21
72.02600799999998
 31
0.0
  0
LINE
  5
329
330
36
100
AcDbEntity
  8
0
100
AcDbLine
 10
-134.052185
 20
68.02600799999999
 30
0.0
 11
-134.052185
 21
72.02600799999998
 31
0.0
  0
LINE
  5
32A
330
36
100
AcDbEntity
  8
0
100
AcDbLine
 10
-133.052185
 20
68.02600799999999
 30
0.0
 11
-133.052185
 21
72.02600799999998
 31
0.0
  0
LINE
  5
32B
330
36
100
AcDbEntity
  8
0
100
AcDbLine
 10
-132.552185
 20
68.02600799999999
 30
0.0
 11
-132.552185
 21
72.02600799999998
 31
0.0
  0
LINE
  5
32C
330
36
100
AcDbEntity
  8
0
100
AcDbLine
 10
-131.552185
 20
68.02600799999999
 30
0.0
 11
-131.552185
 21
72.02600799999998
 31
0.0
  0
LINE
  5
32D
330
36
100
AcDbEntity
  8
0
100
AcDbLine
 10
-131.552185
 20
72.02600799999998
 30
0.0
 11
-132.552185
 21
72.02600799999998
 31
0.0
  0
LINE
  5
32E
330
36
100
AcDbEntity
  8
0
100
AcDbLine
 10
-133.052185
 20
72.02600799999998
 30
0.0
 11
-134.052185
 21
72.02600799999998
 31
0.0
  0
LINE
  5
32F
330
36
100
AcDbEntity
  8
0
100
AcDbLine
 10
-134.552185
 20
72.02600799999998
 30
0.0
 11
-135.552185
 21
72.02600799999998
 31
0.0
  0
LINE
  5
330
330
36
100
AcDbEntity
  8
0
100
AcDbLine
 10
-136.052185
 20
72.02600799999998
 30
0.0
 11
-137.052185
 21
72.02600799999998
 31
0.0
  0
LINE
  5
331
330
36
100
AcDbEntity
  8
0
100
AcDbLine
 10
-137.552185
 20
72.02600799999998
 30
0.0
 11
-138.552185
 21
72.02600799999998
 31
0.0
  0
LINE
  5
332
330
36
100
AcDbEntity
  8
0
100
AcDbLine
 10
-139.052185
 20
72.02600799999998
 30
0.0
 11
-140.052185
 21
72.02600799999998
 31
0.0
  0
LINE
  5
333
330
36
100
AcDbEntity
  8
0
100
AcDbLine
 10
-131.552185
 20
68.02600799999999
 30
0.0
 11
-132.552185
 21
68.02600799999999
 31
0.0
  0
LINE
  5
334
330
36
100
AcDbEntity
  8
0
100
AcDbLine
 10
-133.052185
 20
68.02600799999999
 30
0.0
 11
-134.052185
 21
68.02600799999999
 31
0.0
  0
LINE
  5
335
330
36
100
AcDbEntity
  8
0
100
AcDbLine
 10
-134.552185
 20
68.02600799999999
 30
0.0
 11
-135.552185
 21
68.02600799999999
 31
0.0
  0
LINE
  5
336
330
36
100
AcDbEntity
  8
0
100
AcDbLine
 10
-136.052185
 20
68.02600799999999
 30
0.0
 11
-137.052185
 21
68.02600799999999
 31
0.0
  0
LINE
  5
337
330
36
100
AcDbEntity
  8
0
100
AcDbLine
 10
-137.552185
 20
68.02600799999999
 30
0.0
 11
-138.552185
 21
68.02600799999999
 31
0.0
  0
LINE
  5
338
330
36
100
AcDbEntity
  8
0
100
AcDbLine
 10
-139.052185
 20
68.02600799999999
 30
0.0
 11
-140.052185
 21
68.02600799999999
 31
0.0
  0
LINE
  5
339
330
36
100
AcDbEntity
  8
0
100
AcDbLine
 10
-131.052185
 20
68.02600799999999
 30
0.0
 11
-131.052185
 21
72.02600799999998
 31
0.0
  0
LINE
  5
33A
330
36
100
AcDbEntity
  8
0
100
AcDbLine
 10
-130.052185
 20
72.02600799999998
 30
0.0
 11
-131.052185
 21
72.02600799999998
 31
0.0
  0
LINE
  5
33B
330
36
100
AcDbEntity
  8
0
100
AcDbLine
 10
-130.052185
 20
68.02600799999999
 30
0.0
 11
-131.052185
 21
68.02600799999999
 31
0.0
  0
LINE
  5
33C
330
36
100
AcDbEntity
  8
0
100
AcDbLine
 10
-140.052185
 20
68.02600799999999
 30
0.0
 11
-140.052185
 21
72.02600799999998
 31
0.0
  0
LINE
  5
33D
330
36
100
AcDbEntity
  8
0
100
AcDbLine
 10
-104.819306
 20
52.758429
 30
0.0
 11
-90.56930599999999
 21
52.758429
 31
0.0
  0
ARC
  5
33E
330
36
100
AcDbEntity
  8
0
100
AcDbCircle
 10
-90.56930599999999
 20
52.383429
 30
0.0
 40
0.375
100
AcDbArc
 50
0.0
 51
90.0
  0
LINE
  5
33F
330
36
100
AcDbEntity
  8
0
100
AcDbLine
 10
-90.19430599999999
 20
48.633429
 30
0.0
 11
-90.19430599999999
 21
52.383429
 31
0.0
  0
ARC
  5
340
330
36
100
AcDbEntity
  8
0
100
AcDbCircle
 10
-90.56930599999999
 20
48.633429
 30
0.0
 40
0.375
100
AcDbArc
 50
270.0
 51
0.0
  0
LINE
  5
341
330
36
100
AcDbEntity
  8
0
100
AcDbLine
 10
-90.56930599999999
 20
48.258429
 30
0.0
 11
-104.819306
 21
48.258429
 31
0.0
  0
ARC
  5
342
330
36
100
AcDbEntity
  8
0
100
AcDbCircle
 10
-104.819306
 20
48.633429
 30
0.0
 40
0.375
100
AcDbArc
 50
180.0
 51
270.0
  0
LINE
  5
343
330
36
100
AcDbEntity
  8
0
100
AcDbLine
 10
-105.194306
 20
48.633429
 30
0.0
 11
-105.194306
 21
52.383429
 31
0.0
  0
ARC
  5
344
330
36
100
AcDbEntity
  8
0
100
AcDbCircle
 10
-104.819306
 20
52.383429
 30
0.0
 40
0.375
100
AcDbArc
 50
90.0
 51
180.0
  0
CIRCLE
  5
345
330
36
100
AcDbEntity
  8
0
100
AcDbCircle
 10
-125.052185
 20
38.547831
 30
0.0
 40
2.0
  0
CIRCLE
  5
346
330
36
100
AcDbEntity
  8
0
100
AcDbCircle
 10
-125.052185
 20
8.547831
 30
0.0
 40
2.0
  0
LINE
  5
347
330
36
100
AcDbEntity
  8
0
100
AcDbLine
 10
137.997835
 20
15.976068
 30
0.0
 11
136.747835
 21
15.976068
 31
0.0
  0
LINE
  5
348
330
36
100
AcDbEntity
  8
0
100
AcDbLine
 10
137.997835
 20
6.476067999999997
 30
0.0
 11
136.747835
 21
6.476067999999997
 31
0.0
  0
LINE
  5
349
330
36
100
AcDbEntity
  8
0
100
AcDbLine
 10
125.497835
 20
77.826068
 30
0.0
 11
125.747835
 21
77.826068
 31
0.0
  0
LINE
  5
34A
330
36
100
AcDbEntity
  8
0
 62
     3
100
AcDbLine
 10
94.247835
 20
36.27606800000001
 30
0.0
 11
124.247835
 21
36.27606800000001
 31
0.0
  0
LINE
  5
34B
330
36
100
AcDbEntity
  8
0
 62
     3
100
AcDbLine
 10
94.247835
 20
42.776068
 30
0.0
 11
124.247835
 21
42.776068
 31
0.0
  0
LINE
  5
34C
330
36
100
AcDbEntity
  8
0
 62
     3
100
AcDbLine
 10
94.247835
 20
49.276068
 30
0.0
 11
124.247835
 21
49.276068
 31
0.0
  0
LINE
  5
34D
330
36
100
AcDbEntity
  8
0
 62
     3
100
AcDbLine
 10
94.247835
 20
55.776068
 30
0.0
 11
124.247835
 21
55.776068
 31
0.0
  0
LINE
  5
34E
330
36
100
AcDbEntity
  8
0
 62
     3
100
AcDbLine
 10
79.247835
 20
55.776068
 30
0.0
 11
49.247835
 21
55.776068
 31
0.0
  0
LINE
  5
34F
330
36
100
AcDbEntity
  8
0
 62
     3
100
AcDbLine
 10
79.247835
 20
49.276068
 30
0.0
 11
49.247835
 21
49.276068
 31
0.0
  0
LINE
  5
350
330
36
100
AcDbEntity
  8
0
 62
     3
100
AcDbLine
 10
79.247835
 20
42.776068
 30
0.0
 11
49.247835
 21
42.776068
 31
0.0
  0
LINE
  5
351
330
36
100
AcDbEntity
  8
0
 62
     3
100
AcDbLine
 10
79.247835
 20
36.27606800000001
 30
0.0
 11
49.247835
 21
36.27606800000001
 31
0.0
  0
LINE
  5
352
330
36
100
AcDbEntity
  8
0
100
AcDbLine
 10
-111.225646
 20
65.07896600000001
 30
0.0
 11
-111.225646
 21
64.078966
 31
0.0
  0
LINE
  5
353
330
36
100
AcDbEntity
  8
0
100
AcDbLine
 10
-108.725646
 20
65.07896600000001
 30
0.0
 11
-108.725646
 21
64.61052399999998
 31
0.0
  0
LINE
  5
354
330
36
100
AcDbEntity
  8
0
100
AcDbLine
 10
-109.475646
 20
64.078966
 30
0.0
 11
-109.475646
 21
61.578966
 31
0.0
  0
LINE
  5
355
330
36
100
AcDbEntity
  8
0
100
AcDbLine
 10
-110.475646
 20
64.078966
 30
0.0
 11
-110.475646
 21
61.578966
 31
0.0
  0
LINE
  5
356
330
36
100
AcDbEntity
  8
0
100
AcDbLine
 10
-108.725646
 20
64.078966
 30
0.0
 11
-109.475646
 21
64.078966
 31
0.0
  0
LINE
  5
357
330
36
100
AcDbEntity
  8
0
100
AcDbLine
 10
-110.475646
 20
64.078966
 30
0.0
 11
-111.225646
 21
64.078966
 31
0.0
  0
LINE
  5
358
330
36
100
AcDbEntity
  8
0
100
AcDbLine
 10
-108.475646
 20
62.328966
 30
0.0
 11
-108.475646
 21
63.79974
 31
0.0
  0
LINE
  5
359
330
36
100
AcDbEntity
  8
0
100
AcDbLine
 10
-107.475646
 20
62.703966
 30
0.0
 11
-107.475646
 21
63.953966
 31
0.0
  0
LINE
  5
35A
330
36
100
AcDbEntity
  8
0
100
AcDbLine
 10
-105.475646
 20
62.703966
 30
0.0
 11
-105.475646
 21
63.953966
 31
0.0
  0
LINE
  5
35B
330
36
100
AcDbEntity
  8
0
100
AcDbLine
 10
-104.475646
 20
62.328966
 30
0.0
 11
-104.475646
 21
63.328966
 31
0.0
  0
LINE
  5
35C
330
36
100
AcDbEntity
  8
0
100
AcDbLine
 10
-107.100646
 20
64.32896600000001
 30
0.0
 11
-105.850646
 21
64.32896600000001
 31
0.0
  0
LINE
  5
35D
330
36
100
AcDbEntity
  8
0
100
AcDbLine
 10
-105.850646
 20
62.328966
 30
0.0
 11
-107.100646
 21
62.328966
 31
0.0
  0
LINE
  5
35E
330
36
100
AcDbEntity
  8
0
100
AcDbLine
 10
-104.475646
 20
64.32896600000001
 30
0.0
 11
-105.225646
 21
65.07896600000001
 31
0.0
  0
LINE
  5
35F
330
36
100
AcDbEntity
  8
0
100
AcDbLine
 10
-107.725646
 20
65.07896600000001
 30
0.0
 11
-108.475646
 21
64.32896600000001
 31
0.0
  0
LINE
  5
360
330
36
100
AcDbEntity
  8
0
100
AcDbLine
 10
-108.475646
 20
62.328966
 30
0.0
 11
-107.725646
 21
61.578966
 31
0.0
  0
LINE
  5
361
330
36
100
AcDbEntity
  8
0
100
AcDbLine
 10
-105.225646
 20
61.578966
 30
0.0
 11
-104.475646
 21
62.328966
 31
0.0
  0
LINE
  5
362
330
36
100
AcDbEntity
  8
0
100
AcDbLine
 10
-105.475646
 20
63.953966
 30
0.0
 11
-105.850646
 21
64.32896600000001
 31
0.0
  0
LINE
  5
363
330
36
100
AcDbEntity
  8
0
100
AcDbLine
 10
-107.100646
 20
64.32896600000001
 30
0.0
 11
-107.475646
 21
63.953966
 31
0.0
  0
LINE
  5
364
330
36
100
AcDbEntity
  8
0
100
AcDbLine
 10
-107.475646
 20
62.703966
 30
0.0
 11
-107.100646
 21
62.328966
 31
0.0
  0
LINE
  5
365
330
36
100
AcDbEntity
  8
0
100
AcDbLine
 10
-105.850646
 20
62.328966
 30
0.0
 11
-105.475646
 21
62.703966
 31
0.0
  0
LINE
  5
366
330
36
100
AcDbEntity
  8
0
100
AcDbLine
 10
-108.475646
 20
64.32896600000001
 30
0.0
 11
-108.71878
 21
64.602791
 31
0.0
  0
LINE
  5
367
330
36
100
AcDbEntity
  8
0
100
AcDbLine
 10
-108.725646
 20
64.078966
 30
0.0
 11
-108.500623
 21
63.827637
 31
0.0
  0
LINE
  5
368
330
36
100
AcDbEntity
  8
0
100
AcDbLine
 10
-101.475646
 20
63.703966
 30
0.0
 11
-101.475646
 21
63.953966
 31
0.0
  0
LINE
  5
369
330
36
100
AcDbEntity
  8
0
100
AcDbLine
 10
-100.475646
 20
63.328966
 30
0.0
 11
-100.475646
 21
64.32896600000001
 31
0.0
  0
LINE
  5
36A
330
36
100
AcDbEntity
  8
0
100
AcDbLine
 10
-101.475646
 20
63.953966
 30
0.0
 11
-101.850646
 21
64.32896600000001
 31
0.0
  0
LINE
  5
36B
330
36
100
AcDbEntity
  8
0
100
AcDbLine
 10
-101.475646
 20
63.703966
 30
0.0
 11
-101.850646
 21
63.328966
 31
0.0
  0
LINE
  5
36C
330
36
100
AcDbEntity
  8
0
100
AcDbLine
 10
-100.475646
 20
64.32896600000001
 30
0.0
 11
-101.225646
 21
65.07896600000001
 31
0.0
  0
LINE
  5
36D
330
36
100
AcDbEntity
  8
0
100
AcDbLine
 10
-100.475646
 20
63.328966
 30
0.0
 11
-101.225646
 21
62.578966
 31
0.0
  0
LINE
  5
36E
330
36
100
AcDbEntity
  8
0
100
AcDbLine
 10
-102.475646
 20
62.578966
 30
0.0
 11
-101.725646
 21
61.578966
 31
0.0
  0
LINE
  5
36F
330
36
100
AcDbEntity
  8
0
100
AcDbLine
 10
-101.850646
 20
64.32896600000001
 30
0.0
 11
-102.725646
 21
64.32896600000001
 31
0.0
  0
LINE
  5
370
330
36
100
AcDbEntity
  8
0
100
AcDbLine
 10
-103.725646
 20
64.32896600000001
 30
0.0
 11
-104.475646
 21
64.32896600000001
 31
0.0
  0
LINE
  5
371
330
36
100
AcDbEntity
  8
0
100
AcDbLine
 10
-101.850646
 20
63.328966
 30
0.0
 11
-102.725646
 21
63.328966
 31
0.0
  0
LINE
  5
372
330
36
100
AcDbEntity
  8
0
100
AcDbLine
 10
-103.725646
 20
63.328966
 30
0.0
 11
-104.475646
 21
63.328966
 31
0.0
  0
LINE
  5
373
330
36
100
AcDbEntity
  8
0
100
AcDbLine
 10
-102.725646
 20
61.578966
 30
0.0
 11
-102.725646
 21
62.578966
 31
0.0
  0
LINE
  5
374
330
36
100
AcDbEntity
  8
0
100
AcDbLine
 10
-102.725646
 20
63.328966
 30
0.0
 11
-102.725646
 21
64.32896600000001
 31
0.0
  0
LINE
  5
375
330
36
100
AcDbEntity
  8
0
100
AcDbLine
 10
-102.475646
 20
62.578966
 30
0.0
 11
-102.725646
 21
62.578966
 31
0.0
  0
LINE
  5
376
330
36
100
AcDbEntity
  8
0
100
AcDbLine
 10
-97.475646
 20
63.578966
 30
0.0
 11
-97.475646
 21
65.07896600000001
 31
0.0
  0
LINE
  5
377
330
36
100
AcDbEntity
  8
0
100
AcDbLine
 10
-98.22564599999999
 20
62.314229
 30
0.0
 11
-98.22564599999999
 21
64.04576
 31
0.0
  0
LINE
  5
378
330
36
100
AcDbEntity
  8
0
100
AcDbLine
 10
-98.22564599999999
 20
65.07896600000001
 30
0.0
 11
-97.475646
 21
65.07896600000001
 31
0.0
  0
LINE
  5
379
330
36
100
AcDbEntity
  8
0
100
AcDbLine
 10
-98.22564599999999
 20
65.07896600000001
 30
0.0
 11
-101.075449
 21
62.378703
 31
0.0
  0
LINE
  5
37A
330
36
100
AcDbEntity
  8
0
100
AcDbLine
 10
-97.475646
 20
63.578966
 30
0.0
 11
-97.61001700000001
 21
63.501387
 31
0.0
  0
LINE
  5
37B
330
36
100
AcDbEntity
  8
0
100
AcDbLine
 10
-97.61001700000001
 20
63.501387
 30
0.0
 11
-97.475646
 21
61.578966
 31
0.0
  0
LINE
  5
37C
330
36
100
AcDbEntity
  8
0
100
AcDbLine
 10
-101.225646
 20
62.578966
 30
0.0
 11
-101.075449
 21
62.378703
 31
0.0
  0
LINE
  5
37D
330
36
100
AcDbEntity
  8
0
100
AcDbLine
 10
-100.622459
 20
61.774717
 30
0.0
 11
-100.475646
 21
61.578966
 31
0.0
  0
LINE
  5
37E
330
36
100
AcDbEntity
  8
0
100
AcDbLine
 10
-99.63457699999999
 20
62.710761
 30
0.0
 11
-98.562173
 21
61.578966
 31
0.0
  0
LINE
  5
37F
330
36
100
AcDbEntity
  8
0
100
AcDbLine
 10
-99.090156
 20
63.226614
 30
0.0
 11
-98.22564599999999
 21
62.314229
 31
0.0
  0
LINE
  5
380
330
36
100
AcDbEntity
  8
0
100
AcDbLine
 10
-98.22564599999999
 20
64.04576
 30
0.0
 11
-99.090156
 21
63.226614
 31
0.0
  0
LINE
  5
381
330
36
100
AcDbEntity
  8
0
100
AcDbLine
 10
-99.63457699999999
 20
62.710761
 30
0.0
 11
-100.622459
 21
61.774717
 31
0.0
  0
LINE
  5
382
330
36
100
AcDbEntity
  8
0
100
AcDbLine
 10
-97.475646
 20
61.578966
 30
0.0
 11
-98.562173
 21
61.578966
 31
0.0
  0
LINE
  5
383
330
36
100
AcDbEntity
  8
0
100
AcDbLine
 10
-100.475646
 20
61.578966
 30
0.0
 11
-101.725646
 21
61.578966
 31
0.0
  0
LINE
  5
384
330
36
100
AcDbEntity
  8
0
100
AcDbLine
 10
-97.225646
 20
63.578966
 30
0.0
 11
-97.225646
 21
65.07896600000001
 31
0.0
  0
LINE
  5
385
330
36
100
AcDbEntity
  8
0
100
AcDbLine
 10
-94.22564599999999
 20
63.328966
 30
0.0
 11
-94.22564599999999
 21
64.32896600000001
 31
0.0
  0
LINE
  5
386
330
36
100
AcDbEntity
  8
0
100
AcDbLine
 10
-96.97564599999999
 20
61.578966
 30
0.0
 11
-96.97564599999999
 21
63.578966
 31
0.0
  0
LINE
  5
387
330
36
100
AcDbEntity
  8
0
100
AcDbLine
 10
-97.225646
 20
63.578966
 30
0.0
 11
-96.97564599999999
 21
63.578966
 31
0.0
  0
LINE
  5
388
330
36
100
AcDbEntity
  8
0
100
AcDbLine
 10
-94.975646
 20
65.07896600000001
 30
0.0
 11
-97.225646
 21
65.07896600000001
 31
0.0
  0
LINE
  5
389
330
36
100
AcDbEntity
  8
0
100
AcDbLine
 10
-94.975646
 20
62.578966
 30
0.0
 11
-96.225646
 21
62.578966
 31
0.0
  0
LINE
  5
38A
330
36
100
AcDbEntity
  8
0
100
AcDbLine
 10
-94.975646
 20
63.703966
 30
0.0
 11
-94.975646
 21
63.953966
 31
0.0
  0
LINE
  5
38B
330
36
100
AcDbEntity
  8
0
100
AcDbLine
 10
-95.350646
 20
64.32896600000001
 30
0.0
 11
-96.225646
 21
64.32896600000001
 31
0.0
  0
LINE
  5
38C
330
36
100
AcDbEntity
  8
0
100
AcDbLine
 10
-95.350646
 20
63.328966
 30
0.0
 11
-96.225646
 21
63.328966
 31
0.0
  0
LINE
  5
38D
330
36
100
AcDbEntity
  8
0
100
AcDbLine
 10
-94.22564599999999
 20
64.32896600000001
 30
0.0
 11
-94.975646
 21
65.07896600000001
 31
0.0
  0
LINE
  5
38E
330
36
100
AcDbEntity
  8
0
100
AcDbLine
 10
-94.22564599999999
 20
63.328966
 30
0.0
 11
-94.975646
 21
62.578966
 31
0.0
  0
LINE
  5
38F
330
36
100
AcDbEntity
  8
0
100
AcDbLine
 10
-94.975646
 20
63.953966
 30
0.0
 11
-95.350646
 21
64.32896600000001
 31
0.0
  0
LINE
  5
390
330
36
100
AcDbEntity
  8
0
100
AcDbLine
 10
-94.975646
 20
63.703966
 30
0.0
 11
-95.350646
 21
63.328966
 31
0.0
  0
LINE
  5
391
330
36
100
AcDbEntity
  8
0
100
AcDbLine
 10
-96.225646
 20
61.578966
 30
0.0
 11
-96.225646
 21
62.578966
 31
0.0
  0
LINE
  5
392
330
36
100
AcDbEntity
  8
0
100
AcDbLine
 10
-96.225646
 20
63.328966
 30
0.0
 11
-96.225646
 21
64.32896600000001
 31
0.0
  0
LINE
  5
393
330
36
100
AcDbEntity
  8
0
100
AcDbLine
 10
-101.225646
 20
65.07896600000001
 30
0.0
 11
-103.725646
 21
65.07896600000001
 31
0.0
  0
LINE
  5
394
330
36
100
AcDbEntity
  8
0
100
AcDbLine
 10
-105.225646
 20
65.07896600000001
 30
0.0
 11
-107.725646
 21
65.07896600000001
 31
0.0
  0
LINE
  5
395
330
36
100
AcDbEntity
  8
0
100
AcDbLine
 10
-108.725646
 20
65.07896600000001
 30
0.0
 11
-111.225646
 21
65.07896600000001
 31
0.0
  0
LINE
  5
396
330
36
100
AcDbEntity
  8
0
100
AcDbLine
 10
-109.475646
 20
61.578966
 30
0.0
 11
-110.475646
 21
61.578966
 31
0.0
  0
LINE
  5
397
330
36
100
AcDbEntity
  8
0
100
AcDbLine
 10
-102.725646
 20
61.578966
 30
0.0
 11
-103.725646
 21
61.578966
 31
0.0
  0
LINE
  5
398
330
36
100
AcDbEntity
  8
0
100
AcDbLine
 10
-105.225646
 20
61.578966
 30
0.0
 11
-107.725646
 21
61.578966
 31
0.0
  0
LINE
  5
399
330
36
100
AcDbEntity
  8
0
100
AcDbLine
 10
-103.725646
 20
61.578966
 30
0.0
 11
-103.725646
 21
63.328966
 31
0.0
  0
LINE
  5
39A
330
36
100
AcDbEntity
  8
0
100
AcDbLine
 10
-103.725646
 20
64.32896600000001
 30
0.0
 11
-103.725646
 21
65.07896600000001
 31
0.0
  0
LINE
  5
39B
330
36
100
AcDbEntity
  8
0
100
AcDbLine
 10
-90.90202299999999
 20
63.69900600000001
 30
0.0
 11
-90.90202299999999
 21
65.07400600000001
 31
0.0
  0
LINE
  5
39C
330
36
100
AcDbEntity
  8
0
100
AcDbLine
 10
-91.652023
 20
65.07400600000001
 30
0.0
 11
-95.340617
 21
61.578966
 31
0.0
  0
LINE
  5
39D
330
36
100
AcDbEntity
  8
0
100
AcDbLine
 10
-91.652023
 20
64.04079899999999
 30
0.0
 11
-92.51653199999999
 21
63.221654
 31
0.0
  0
LINE
  5
39E
330
36
100
AcDbEntity
  8
0
100
AcDbLine
 10
-91.652023
 20
62.309268
 30
0.0
 11
-91.652023
 21
64.04079899999999
 31
0.0
  0
LINE
  5
39F
330
36
100
AcDbEntity
  8
0
100
AcDbLine
 10
-92.51653199999999
 20
63.221654
 30
0.0
 11
-91.652023
 21
62.309268
 31
0.0
  0
LINE
  5
3A0
330
36
100
AcDbEntity
  8
0
100
AcDbLine
 10
-93.06095400000002
 20
62.7058
 30
0.0
 11
-91.988549
 21
61.574006
 31
0.0
  0
LINE
  5
3A1
330
36
100
AcDbEntity
  8
0
100
AcDbLine
 10
-93.06095400000002
 20
62.7058
 30
0.0
 11
-94.25019199999999
 21
61.578966
 31
0.0
  0
LINE
  5
3A2
330
36
100
AcDbEntity
  8
0
100
AcDbLine
 10
-96.97564599999999
 20
61.578966
 30
0.0
 11
-96.225646
 21
61.578966
 31
0.0
  0
LINE
  5
3A3
330
36
100
AcDbEntity
  8
0
100
AcDbLine
 10
-95.340617
 20
61.578966
 30
0.0
 11
-94.25019199999999
 21
61.578966
 31
0.0
  0
LINE
  5
3A4
330
36
100
AcDbEntity
  8
0
100
AcDbLine
 10
-87.40202299999998
 20
64.32400600000001
 30
0.0
 11
-87.40202299999998
 21
65.07400600000001
 31
0.0
  0
LINE
  5
3A5
330
36
100
AcDbEntity
  8
0
100
AcDbLine
 10
-87.40202299999998
 20
62.324006
 30
0.0
 11
-89.65202299999999
 21
62.324006
 31
0.0
  0
LINE
  5
3A6
330
36
100
AcDbEntity
  8
0
100
AcDbLine
 10
-89.65202299999999
 20
62.324006
 30
0.0
 11
-89.65202299999999
 21
64.32400600000001
 31
0.0
  0
LINE
  5
3A7
330
36
100
AcDbEntity
  8
0
100
AcDbLine
 10
-87.40202299999998
 20
62.324006
 30
0.0
 11
-86.90202300000001
 21
61.574006
 31
0.0
  0
LINE
  5
3A8
330
36
100
AcDbEntity
  8
0
100
AcDbLine
 10
-90.90202299999999
 20
63.69900600000001
 30
0.0
 11
-90.402023
 21
63.69900600000001
 31
0.0
  0
LINE
  5
3A9
330
36
100
AcDbEntity
  8
0
100
AcDbLine
 10
-90.998131
 20
62.949006
 30
0.0
 11
-90.402023
 21
62.949006
 31
0.0
  0
LINE
  5
3AA
330
36
100
AcDbEntity
  8
0
100
AcDbLine
 10
-90.998131
 20
62.949006
 30
0.0
 11
-90.90202299999999
 21
61.574006
 31
0.0
  0
LINE
  5
3AB
330
36
100
AcDbEntity
  8
0
100
AcDbLine
 10
-90.402023
 20
62.324006
 30
0.0
 11
-90.402023
 21
62.949006
 31
0.0
  0
LINE
  5
3AC
330
36
100
AcDbEntity
  8
0
100
AcDbLine
 10
-90.402023
 20
64.32400600000001
 30
0.0
 11
-90.402023
 21
63.69900600000001
 31
0.0
  0
LINE
  5
3AD
330
36
100
AcDbEntity
  8
0
100
AcDbLine
 10
-89.65202299999999
 20
61.574006
 30
0.0
 11
-86.90202300000001
 21
61.574006
 31
0.0
  0
LINE
  5
3AE
330
36
100
AcDbEntity
  8
0
100
AcDbLine
 10
-90.90202299999999
 20
61.574006
 30
0.0
 11
-91.988549
 21
61.574006
 31
0.0
  0
LINE
  5
3AF
330
36
100
AcDbEntity
  8
0
100
AcDbLine
 10
-91.652023
 20
65.07400600000001
 30
0.0
 11
-90.90202299999999
 21
65.07400600000001
 31
0.0
  0
LINE
  5
3B0
330
36
100
AcDbEntity
  8
0
100
AcDbLine
 10
-89.65202299999999
 20
65.07400600000001
 30
0.0
 11
-90.402023
 21
64.32400600000001
 31
0.0
  0
LINE
  5
3B1
330
36
100
AcDbEntity
  8
0
100
AcDbLine
 10
-90.402023
 20
62.324006
 30
0.0
 11
-89.65202299999999
 21
61.574006
 31
0.0
  0
LINE
  5
3B2
330
36
100
AcDbEntity
  8
0
100
AcDbLine
 10
-86.90202300000001
 20
64.32400600000001
 30
0.0
 11
-86.90202300000001
 21
65.07400600000001
 31
0.0
  0
LINE
  5
3B3
330
36
100
AcDbEntity
  8
0
100
AcDbLine
 10
-86.402023
 20
64.07400600000001
 30
0.0
 11
-86.402023
 21
61.574006
 31
0.0
  0
LINE
  5
3B4
330
36
100
AcDbEntity
  8
0
100
AcDbLine
 10
-89.65202299999999
 20
64.32400600000001
 30
0.0
 11
-87.40202299999998
 21
64.32400600000001
 31
0.0
  0
LINE
  5
3B5
330
36
100
AcDbEntity
  8
0
100
AcDbLine
 10
-89.65202299999999
 20
65.07400600000001
 30
0.0
 11
-87.40202299999998
 21
65.07400600000001
 31
0.0
  0
LINE
  5
3B6
330
36
100
AcDbEntity
  8
0
100
AcDbLine
 10
-86.90202300000001
 20
65.07400600000001
 30
0.0
 11
-85.65202300000001
 21
65.07400600000001
 31
0.0
  0
LINE
  5
3B7
330
36
100
AcDbEntity
  8
0
100
AcDbLine
 10
-86.652023
 20
64.32400600000001
 30
0.0
 11
-86.90202300000001
 21
64.32400600000001
 31
0.0
  0
LINE
  5
3B8
330
36
100
AcDbEntity
  8
0
100
AcDbLine
 10
-85.65202300000001
 20
63.69900600000001
 30
0.0
 11
-85.152023
 21
63.69900600000001
 31
0.0
  0
LINE
  5
3B9
330
36
100
AcDbEntity
  8
0
100
AcDbLine
 10
-83.902023
 20
61.574006
 30
0.0
 11
-83.902023
 21
61.81789399999999
 31
0.0
  0
LINE
  5
3BA
330
36
100
AcDbEntity
  8
0
100
AcDbLine
 10
-85.65202300000001
 20
62.949006
 30
0.0
 11
-84.65202299999999
 21
61.574006
 31
0.0
  0
LINE
  5
3BB
330
36
100
AcDbEntity
  8
0
100
AcDbLine
 10
-84.88005799999998
 20
63.162692
 30
0.0
 11
-83.902023
 21
61.81789399999999
 31
0.0
  0
LINE
  5
3BC
330
36
100
AcDbEntity
  8
0
100
AcDbLine
 10
-85.65202300000001
 20
61.574006
 30
0.0
 11
-85.65202300000001
 21
62.949006
 31
0.0
  0
LINE
  5
3BD
330
36
100
AcDbEntity
  8
0
100
AcDbLine
 10
-85.65202300000001
 20
63.69900600000001
 30
0.0
 11
-85.65202300000001
 21
65.07400600000001
 31
0.0
  0
LINE
  5
3BE
330
36
100
AcDbEntity
  8
0
100
AcDbLine
 10
-86.402023
 20
64.07400600000001
 30
0.0
 11
-86.652023
 21
64.32400600000001
 31
0.0
  0
LINE
  5
3BF
330
36
100
AcDbEntity
  8
0
100
AcDbLine
 10
-84.152023
 20
65.07400600000001
 30
0.0
 11
-83.40202299999999
 21
65.07400600000001
 31
0.0
  0
LINE
  5
3C0
330
36
100
AcDbEntity
  8
0
100
AcDbLine
 10
-84.152023
 20
65.07400600000001
 30
0.0
 11
-85.152023
 21
63.69900600000001
 31
0.0
  0
LINE
  5
3C1
330
36
100
AcDbEntity
  8
0
100
AcDbLine
 10
-84.88005799999998
 20
63.162692
 30
0.0
 11
-83.40202299999999
 21
65.07400600000001
 31
0.0
  0
LINE
  5
3C2
330
36
100
AcDbEntity
  8
0
100
AcDbLine
 10
-86.402023
 20
61.574006
 30
0.0
 11
-85.65202300000001
 21
61.574006
 31
0.0
  0
LINE
  5
3C3
330
36
100
AcDbEntity
  8
0
100
AcDbLine
 10
-84.65202299999999
 20
61.574006
 30
0.0
 11
-83.902023
 21
61.574006
 31
0.0
  0
LINE
  5
3C4
330
36
100
AcDbEntity
  8
0
100
AcDbLine
 10
-118.560253
 20
58.917989
 30
0.0
 11
-119.982572
 21
57.49566999999998
 31
0.0
  0
LINE
  5
3C5
330
36
100
AcDbEntity
  8
0
100
AcDbLine
 10
-119.592779
 20
59.31573100000001
 30
0.0
 11
-120.238583
 21
58.54609100000001
 31
0.0
  0
LINE
  5
3C6
330
36
100
AcDbEntity
  8
0
100
AcDbLine
 10
-120.345069
 20
60.00470899999999
 30
0.0
 11
-120.920786
 21
59.1825
 31
0.0
  0
LINE
  5
3C7
330
36
100
AcDbEntity
  8
0
100
AcDbLine
 10
-121.166032
 20
60.62106800000001
 30
0.0
 11
-121.667448
 21
59.75259000000001
 31
0.0
  0
LINE
  5
3C8
330
36
100
AcDbEntity
  8
0
100
AcDbLine
 10
-122.048213
 20
61.156999
 30
0.0
 11
-122.471686
 21
60.24886
 31
0.0
  0
LINE
  5
3C9
330
36
100
AcDbEntity
  8
0
100
AcDbLine
 10
-122.811929
 20
62.075946
 30
0.0
 11
-127.052164
 21
50.425995
 31
0.0
  0
LINE
  5
3CA
330
36
100
AcDbEntity
  8
0
100
AcDbLine
 10
-123.961409
 20
61.960853
 30
0.0
 11
-124.220424
 21
60.994196
 31
0.0
  0
LINE
  5
3CB
330
36
100
AcDbEntity
  8
0
100
AcDbLine
 10
-124.972895
 20
62.218121
 30
0.0
 11
-125.146602
 21
61.232978
 31
0.0
  0
LINE
  5
3CC
330
36
100
AcDbEntity
  8
0
100
AcDbLine
 10
-126.006859
 20
62.37389499999999
 30
0.0
 11
-126.094022
 21
61.377615
 31
0.0
  0
LINE
  5
3CD
330
36
100
AcDbEntity
  8
0
100
AcDbLine
 10
-128.097469
 20
62.373899
 30
0.0
 11
-128.010305
 21
61.377619
 31
0.0
  0
LINE
  5
3CE
330
36
100
AcDbEntity
  8
0
100
AcDbLine
 10
-130.142917
 20
61.960866
 30
0.0
 11
-129.883902
 21
60.994209
 31
0.0
  0
LINE
  5
3CF
330
36
100
AcDbEntity
  8
0
100
AcDbLine
 10
-129.131432
 20
62.218129
 30
0.0
 11
-128.957725
 21
61.232986
 31
0.0
  0
LINE
  5
3D0
330
36
100
AcDbEntity
  8
0
100
AcDbLine
 10
-131.292397
 20
62.07596399999999
 30
0.0
 11
-130.778719
 21
60.664647
 31
0.0
  0
LINE
  5
3D1
330
36
100
AcDbEntity
  8
0
100
AcDbLine
 10
-132.056111
 20
61.15702299999998
 30
0.0
 11
-131.632639
 21
60.248884
 31
0.0
  0
LINE
  5
3D2
330
36
100
AcDbEntity
  8
0
100
AcDbLine
 10
-132.938292
 20
60.621099
 30
0.0
 11
-132.436876
 21
59.75262199999999
 31
0.0
  0
LINE
  5
3D3
330
36
100
AcDbEntity
  8
0
100
AcDbLine
 10
-133.759254
 20
60.00474699999998
 30
0.0
 11
-133.183537
 21
59.18253899999999
 31
0.0
  0
LINE
  5
3D4
330
36
100
AcDbEntity
  8
0
100
AcDbLine
 10
-134.511544
 20
59.315777
 30
0.0
 11
-133.86574
 21
58.546138
 31
0.0
  0
LINE
  5
3D5
330
36
100
AcDbEntity
  8
0
100
AcDbLine
 10
-135.544161
 20
58.917934
 30
0.0
 11
-134.477744
 21
57.851517
 31
0.0
  0
ARC
  5
3D6
330
36
100
AcDbEntity
  8
0
100
AcDbCircle
 10
-127.052185
 20
50.426058
 30
0.0
 40
2.5
100
AcDbArc
 50
23.576928
 51
156.423072
  0
TEXT
  5
3D7
330
36
100
AcDbEntity
  8
0
100
AcDbText
 10
-60.52700999999998
 20
0.334457
 30
0.0
 40
3.149999999999999
  1
（出力）
 41
0.833333
100
AcDbText
  0
TEXT
  5
3D8
330
36
100
AcDbEntity
  8
0
100
AcDbText
 10
-73.113254
 20
3.782370999999998
 30
0.0
 40
3.149999999999999
  1
100V
 41
1.090908999999999
100
AcDbText
  0
LINE
  5
3D9
330
36
100
AcDbEntity
  8
0
 62
     3
100
AcDbLine
 10
-92.05218499999999
 20
12.047831
 30
0.0
 11
-133.552185
 21
12.047831
 31
0.0
  0
ARC
  5
3DA
330
36
100
AcDbEntity
  8
0
 62
     3
100
AcDbCircle
 10
-92.05218499999999
 20
14.547831
 30
0.0
 40
2.5
100
AcDbArc
 50
270.0
 51
0.0
  0
LINE
  5
3DB
330
36
100
AcDbEntity
  8
0
 62
     3
100
AcDbLine
 10
-89.55218499999999
 20
14.547831
 30
0.0
 11
-89.55218499999999
 21
32.547831
 31
0.0
  0
ARC
  5
3DC
330
36
100
AcDbEntity
  8
0
 62
     3
100
AcDbCircle
 10
-92.05218499999999
 20
32.547831
 30
0.0
 40
2.5
100
AcDbArc
 50
0.0
 51
90.0
  0
LINE
  5
3DD
330
36
100
AcDbEntity
  8
0
 62
     3
100
AcDbLine
 10
-133.552185
 20
35.047831
 30
0.0
 11
-92.05218499999999
 21
35.047831
 31
0.0
  0
ARC
  5
3DE
330
36
100
AcDbEntity
  8
0
 62
     3
100
AcDbCircle
 10
-133.552185
 20
32.547831
 30
0.0
 40
2.5
100
AcDbArc
 50
90.0
 51
180.0
  0
LINE
  5
3DF
330
36
100
AcDbEntity
  8
0
 62
     3
100
AcDbLine
 10
-136.052185
 20
14.547831
 30
0.0
 11
-136.052185
 21
32.547831
 31
0.0
  0
ARC
  5
3E0
330
36
100
AcDbEntity
  8
0
 62
     3
100
AcDbCircle
 10
-133.552185
 20
14.547831
 30
0.0
 40
2.5
100
AcDbArc
 50
180.0
 51
270.0
  0
LINE
  5
3E1
330
36
100
AcDbEntity
  8
0
 62
     3
100
AcDbLine
 10
-137.652185
 20
65.126008
 30
0.0
 11
-116.452185
 21
65.126008
 31
0.0
  0
TEXT
  5
3E2
330
36
100
AcDbEntity
  8
0
100
AcDbText
 10
-130.599789
 20
65.484087
 30
0.0
 40
1.6
  1
出力電圧計
 41
0.833333
100
AcDbText
  0
LINE
  5
3E3
330
36
100
AcDbEntity
  8
0
 62
     3
100
AcDbLine
 10
-34.218787
 20
53.816208
 30
0.0
 11
-43.885582
 21
53.816208
 31
0.0
  0
LINE
  5
3E4
330
36
100
AcDbEntity
  8
0
 62
     3
100
AcDbLine
 10
-34.218787
 20
39.78260800000001
 30
0.0
 11
-43.885582
 21
39.78260800000001
 31
0.0
  0
LINE
  5
3E5
330
36
100
AcDbEntity
  8
0
 62
     3
100
AcDbLine
 10
-34.218787
 20
34.269408
 30
0.0
 11
-43.885582
 21
34.269408
 31
0.0
  0
LINE
  5
3E6
330
36
100
AcDbEntity
  8
0
 62
     3
100
AcDbLine
 10
-34.218787
 20
20.235808
 30
0.0
 11
-43.885582
 21
20.235808
 31
0.0
  0
ARC
  5
3E7
330
36
100
AcDbEntity
  8
0
 62
     3
100
AcDbCircle
 10
-39.052185
 20
46.79940799999999
 30
0.0
 40
8.5204
100
AcDbArc
 50
304.560322
 51
55.439678
  0
ARC
  5
3E8
330
36
100
AcDbEntity
  8
0
 62
     3
100
AcDbCircle
 10
-39.052185
 20
46.79940799999999
 30
0.0
 40
8.5204
100
AcDbArc
 50
124.560322
 51
235.439678
  0
ARC
  5
3E9
330
36
100
AcDbEntity
  8
0
 62
     3
100
AcDbCircle
 10
-39.052185
 20
27.252608
 30
0.0
 40
8.5204
100
AcDbArc
 50
124.560322
 51
235.439678
  0
ARC
  5
3EA
330
36
100
AcDbEntity
  8
0
 62
     3
100
AcDbCircle
 10
-39.052185
 20
27.252608
 30
0.0
 40
8.5204
100
AcDbArc
 50
304.560322
 51
55.439678
  0
LINE
  5
3EB
330
36
100
AcDbEntity
  8
0
 62
     3
100
AcDbLine
 10
-37.698945
 20
40.860188
 30
0.0
 11
-38.300385
 21
40.860188
 31
0.0
  0
LINE
  5
3EC
330
36
100
AcDbEntity
  8
0
 62
     3
100
AcDbLine
 10
-42.059385
 20
12.467208
 30
0.0
 11
-42.059385
 21
20.235808
 31
0.0
  0
LINE
  5
3ED
330
36
100
AcDbEntity
  8
0
 62
     3
100
AcDbLine
 10
-36.044985
 20
12.55112
 30
0.0
 11
-36.044985
 21
20.235808
 31
0.0
  0
LINE
  5
3EE
330
36
100
AcDbEntity
  8
0
 62
     3
100
AcDbLine
 10
-36.044985
 20
12.467208
 30
0.0
 11
-42.059385
 21
12.467208
 31
0.0
  0
LINE
  5
3EF
330
36
100
AcDbEntity
  8
0
 62
     3
100
AcDbLine
 10
-71.885582
 20
53.816208
 30
0.0
 11
-62.218787
 21
53.816208
 31
0.0
  0
LINE
  5
3F0
330
36
100
AcDbEntity
  8
0
 62
     3
100
AcDbLine
 10
-71.885582
 20
39.78260800000001
 30
0.0
 11
-62.218787
 21
39.78260800000001
 31
0.0
  0
ARC
  5
3F1
330
36
100
AcDbEntity
  8
0
 62
     3
100
AcDbCircle
 10
-67.05218499999999
 20
46.79940799999999
 30
0.0
 40
8.5204
100
AcDbArc
 50
124.560322
 51
235.439678
  0
ARC
  5
3F2
330
36
100
AcDbEntity
  8
0
 62
     3
100
AcDbCircle
 10
-67.05218499999999
 20
46.79940799999999
 30
0.0
 40
8.5204
100
AcDbArc
 50
304.560322
 51
55.439678
  0
LINE
  5
3F3
330
36
100
AcDbEntity
  8
0
 62
     3
100
AcDbLine
 10
-71.885582
 20
34.269408
 30
0.0
 11
-62.218787
 21
34.269408
 31
0.0
  0
LINE
  5
3F4
330
36
100
AcDbEntity
  8
0
 62
     3
100
AcDbLine
 10
-71.885582
 20
20.235808
 30
0.0
 11
-62.218787
 21
20.235808
 31
0.0
  0
ARC
  5
3F5
330
36
100
AcDbEntity
  8
0
 62
     3
100
AcDbCircle
 10
-67.05218499999999
 20
27.252608
 30
0.0
 40
8.5204
100
AcDbArc
 50
304.560322
 51
55.439678
  0
ARC
  5
3F6
330
36
100
AcDbEntity
  8
0
 62
     3
100
AcDbCircle
 10
-67.05218499999999
 20
27.252608
 30
0.0
 40
8.5204
100
AcDbArc
 50
124.560322
 51
235.439678
  0
LINE
  5
3F7
330
36
100
AcDbEntity
  8
0
 62
     3
100
AcDbLine
 10
-64.04498499999999
 20
12.467208
 30
0.0
 11
-64.04498499999999
 21
20.235808
 31
0.0
  0
LINE
  5
3F8
330
36
100
AcDbEntity
  8
0
 62
     3
100
AcDbLine
 10
-70.05938499999999
 20
12.55112
 30
0.0
 11
-70.05938499999999
 21
20.235808
 31
0.0
  0
LINE
  5
3F9
330
36
100
AcDbEntity
  8
0
 62
     3
100
AcDbLine
 10
-70.05938499999999
 20
12.467208
 30
0.0
 11
-64.04498499999999
 21
12.467208
 31
0.0
  0
TEXT
  5
3FA
330
36
100
AcDbEntity
  8
0
 62
     3
100
AcDbText
 10
-119.626579
 20
0.925143
 30
0.0
 40
3.779999999999998
  1
日動工業株式会社
 41
0.833333
100
AcDbText
  0
ARC
  5
3FB
330
36
100
AcDbEntity
  8
0
 62
     3
100
AcDbCircle
 10
-25.802185
 20
68.77600799999999
 30
0.0
 40
4.5
100
AcDbArc
 50
0.0
 51
90.0
  0
LINE
  5
3FC
330
36
100
AcDbEntity
  8
0
 62
     3
100
AcDbLine
 10
-137.302185
 20
73.27600799999998
 30
0.0
 11
-25.802185
 21
73.27600799999998
 31
0.0
  0
ARC
  5
3FD
330
36
100
AcDbEntity
  8
0
 62
     3
100
AcDbCircle
 10
-137.302185
 20
68.77600799999999
 30
0.0
 40
4.5
100
AcDbArc
 50
90.0
 51
180.0
  0
LINE
  5
3FE
330
36
100
AcDbEntity
  8
0
 62
     3
100
AcDbLine
 10
-141.802185
 20
3.776008
 30
0.0
 11
-141.802185
 21
68.77600799999999
 31
0.0
  0
ARC
  5
3FF
330
36
100
AcDbEntity
  8
0
 62
     3
100
AcDbCircle
 10
-137.302185
 20
3.776008
 30
0.0
 40
4.5
100
AcDbArc
 50
180.0
 51
270.0
  0
LINE
  5
400
330
36
100
AcDbEntity
  8
0
 62
     3
100
AcDbLine
 10
-25.802185
 20
-0.723992
 30
0.0
 11
-137.302185
 21
-0.723992
 31
0.0
  0
ARC
  5
401
330
36
100
AcDbEntity
  8
0
 62
     3
100
AcDbCircle
 10
-25.802185
 20
3.776008
 30
0.0
 40
4.5
100
AcDbArc
 50
270.0
 51
0.0
  0
ARC
  5
402
330
36
100
AcDbEntity
  8
0
 62
     3
100
AcDbCircle
 10
-25.802185
 20
68.77600799999999
 30
0.0
 40
9.5
100
AcDbArc
 50
0.0
 51
90.0
  0
LINE
  5
403
330
36
100
AcDbEntity
  8
0
 62
     3
100
AcDbLine
 10
-16.302185
 20
68.77600799999999
 30
0.0
 11
-16.302185
 21
3.776008
 31
0.0
  0
LINE
  5
404
330
36
100
AcDbEntity
  8
0
 62
     3
100
AcDbLine
 10
-21.302185
 20
3.776008
 30
0.0
 11
-21.302185
 21
68.77600799999999
 31
0.0
  0
ARC
  5
405
330
36
100
AcDbEntity
  8
0
 62
     3
100
AcDbCircle
 10
-25.802185
 20
3.776008
 30
0.0
 40
9.5
100
AcDbArc
 50
270.0
 51
0.0
  0
LINE
  5
406
330
36
100
AcDbEntity
  8
0
 62
     3
100
AcDbLine
 10
-137.302185
 20
-5.723991999999999
 30
0.0
 11
-25.802185
 21
-5.723991999999999
 31
0.0
  0
LINE
  5
407
330
36
100
AcDbEntity
  8
0
 62
     3
100
AcDbLine
 10
-146.802185
 20
68.77600799999999
 30
0.0
 11
-146.802185
 21
3.776008
 31
0.0
  0
ARC
  5
408
330
36
100
AcDbEntity
  8
0
 62
     3
100
AcDbCircle
 10
-137.302185
 20
3.776008
 30
0.0
 40
9.5
100
AcDbArc
 50
180.0
 51
270.0
  0
ARC
  5
409
330
36
100
AcDbEntity
  8
0
 62
     3
100
AcDbCircle
 10
-137.302185
 20
68.77600799999999
 30
0.0
 40
9.5
100
AcDbArc
 50
90.0
 51
180.0
  0
LINE
  5
40A
330
36
100
AcDbEntity
  8
0
 62
     3
100
AcDbLine
 10
-137.302185
 20
78.27600799999998
 30
0.0
 11
-25.802185
 21
78.27600799999998
 31
0.0
  0
ARC
  5
40B
330
36
100
AcDbEntity
  8
0
100
AcDbCircle
 10
-40.40542499999999
 20
40.860188
 30
0.0
 40
0.5012
100
AcDbArc
 50
180.0
 51
270.0
  0
LINE
  5
40C
330
36
100
AcDbEntity
  8
0
100
AcDbLine
 10
-40.40542499999999
 20
40.358988
 30
0.0
 11
-39.803985
 21
40.358988
 31
0.0
  0
LINE
  5
40D
330
36
100
AcDbEntity
  8
0
100
AcDbLine
 10
-38.300385
 20
40.358988
 30
0.0
 11
-37.698945
 21
40.358988
 31
0.0
  0
LINE
  5
40E
330
36
100
AcDbEntity
  8
0
100
AcDbLine
 10
-38.300385
 20
40.358988
 30
0.0
 11
-39.803985
 21
40.358988
 31
0.0
  0
ARC
  5
40F
330
36
100
AcDbEntity
  8
0
100
AcDbCircle
 10
-37.698945
 20
40.860188
 30
0.0
 40
0.5012
100
AcDbArc
 50
270.0
 51
0.0
  0
ARC
  5
410
330
36
100
AcDbEntity
  8
0
100
AcDbCircle
 10
-36.746665
 20
51.034548
 30
0.0
 40
0.5012
100
AcDbArc
 50
90.0
 51
180.0
  0
LINE
  5
411
330
36
100
AcDbEntity
  8
0
100
AcDbLine
 10
-34.49126500000001
 20
51.535748
 30
0.0
 11
-36.746665
 21
51.535748
 31
0.0
  0
ARC
  5
412
330
36
100
AcDbEntity
  8
0
100
AcDbCircle
 10
-34.49126500000001
 20
51.034548
 30
0.0
 40
0.5012
100
AcDbArc
 50
0.0
 51
90.0
  0
LINE
  5
413
330
36
100
AcDbEntity
  8
0
100
AcDbLine
 10
-33.990065
 20
51.034548
 30
0.0
 11
-33.990065
 21
45.721828
 31
0.0
  0
LINE
  5
414
330
36
100
AcDbEntity
  8
0
100
AcDbLine
 10
-40.40542499999999
 20
20.812188
 30
0.0
 11
-39.803985
 21
20.812188
 31
0.0
  0
LINE
  5
415
330
36
100
AcDbEntity
  8
0
100
AcDbLine
 10
-38.300385
 20
20.812188
 30
0.0
 11
-39.803985
 21
20.812188
 31
0.0
  0
LINE
  5
416
330
36
100
AcDbEntity
  8
0
100
AcDbLine
 10
-38.300385
 20
20.812188
 30
0.0
 11
-37.698945
 21
20.812188
 31
0.0
  0
LINE
  5
417
330
36
100
AcDbEntity
  8
0
100
AcDbLine
 10
-33.990065
 20
31.487748
 30
0.0
 11
-33.990065
 21
26.175028
 31
0.0
  0
LINE
  5
418
330
36
100
AcDbEntity
  8
0
100
AcDbLine
 10
-67.803985
 20
40.358988
 30
0.0
 11
-68.40542499999999
 21
40.358988
 31
0.0
  0
LINE
  5
419
330
36
100
AcDbEntity
  8
0
100
AcDbLine
 10
-67.803985
 20
40.358988
 30
0.0
 11
-66.30038499999999
 21
40.358988
 31
0.0
  0
LINE
  5
41A
330
36
100
AcDbEntity
  8
0
100
AcDbLine
 10
-65.698945
 20
40.358988
 30
0.0
 11
-66.30038499999999
 21
40.358988
 31
0.0
  0
LINE
  5
41B
330
36
100
AcDbEntity
  8
0
100
AcDbLine
 10
-67.803985
 20
20.812188
 30
0.0
 11
-68.40542499999999
 21
20.812188
 31
0.0
  0
LINE
  5
41C
330
36
100
AcDbEntity
  8
0
100
AcDbLine
 10
-65.698945
 20
20.812188
 30
0.0
 11
-66.30038499999999
 21
20.812188
 31
0.0
  0
LINE
  5
41D
330
36
100
AcDbEntity
  8
0
100
AcDbLine
 10
-67.803985
 20
20.812188
 30
0.0
 11
-66.30038499999999
 21
20.812188
 31
0.0
  0
LINE
  5
41E
330
36
100
AcDbEntity
  8
0
100
AcDbLine
 10
-36.044985
 20
13.369368
 30
0.0
 11
-42.059385
 21
13.369368
 31
0.0
  0
LINE
  5
41F
330
36
100
AcDbEntity
  8
0
100
AcDbLine
 10
-70.05938499999999
 20
13.369368
 30
0.0
 11
-64.04498499999999
 21
13.369368
 31
0.0
  0
CIRCLE
  5
420
330
36
100
AcDbEntity
  8
0
100
AcDbCircle
 10
-67.05218499999999
 20
15.975608
 30
0.0
 40
2.004799999999999
  0
CIRCLE
  5
421
330
36
100
AcDbEntity
  8
0
100
AcDbCircle
 10
-39.052185
 20
15.975608
 30
0.0
 40
2.004799999999999
  0
CIRCLE
  5
422
330
36
100
AcDbEntity
  8
0
100
AcDbCircle
 10
-39.052185
 20
58.07640799999999
 30
0.0
 40
2.004799999999999
  0
CIRCLE
  5
423
330
36
100
AcDbEntity
  8
0
100
AcDbCircle
 10
-67.05218499999999
 20
58.07640799999999
 30
0.0
 40
2.004799999999999
  0
LINE
  5
424
330
36
100
AcDbEntity
  8
0
100
AcDbLine
 10
-63.393425
 20
50.13238799999999
 30
0.0
 11
-64.34570500000001
 21
50.13238799999999
 31
0.0
  0
LINE
  5
425
330
36
100
AcDbEntity
  8
0
100
AcDbLine
 10
-63.393425
 20
50.13238799999999
 30
0.0
 11
-63.393425
 21
46.623988
 31
0.0
  0
LINE
  5
426
330
36
100
AcDbEntity
  8
0
100
AcDbLine
 10
-64.34570500000001
 20
50.13238799999999
 30
0.0
 11
-64.34570500000001
 21
46.623988
 31
0.0
  0
LINE
  5
427
330
36
100
AcDbEntity
  8
0
100
AcDbLine
 10
-63.393425
 20
46.623988
 30
0.0
 11
-64.34570500000001
 21
46.623988
 31
0.0
  0
LINE
  5
428
330
36
100
AcDbEntity
  8
0
100
AcDbLine
 10
-69.75866500000001
 20
46.19796799999998
 30
0.0
 11
-70.710945
 21
46.19796799999998
 31
0.0
  0
LINE
  5
429
330
36
100
AcDbEntity
  8
0
100
AcDbLine
 10
-69.75866500000001
 20
50.558408
 30
0.0
 11
-69.75866500000001
 21
46.19796799999998
 31
0.0
  0
LINE
  5
42A
330
36
100
AcDbEntity
  8
0
100
AcDbLine
 10
-70.710945
 20
50.558408
 30
0.0
 11
-70.710945
 21
46.19796799999998
 31
0.0
  0
LINE
  5
42B
330
36
100
AcDbEntity
  8
0
100
AcDbLine
 10
-69.75866500000001
 20
50.558408
 30
0.0
 11
-70.710945
 21
50.558408
 31
0.0
  0
ARC
  5
42C
330
36
100
AcDbEntity
  8
0
100
AcDbCircle
 10
-67.05218499999999
 20
42.59953699999999
 30
0.0
 40
1.36809
100
AcDbArc
 50
9.147842999999999
 51
171.550276
  0
LINE
  5
42D
330
36
100
AcDbEntity
  8
0
100
AcDbLine
 10
-68.40542499999999
 20
40.860188
 30
0.0
 11
-68.40542499999999
 21
42.800567
 31
0.0
  0
LINE
  5
42E
330
36
100
AcDbEntity
  8
0
100
AcDbLine
 10
-68.40542499999999
 20
40.860188
 30
0.0
 11
-67.803985
 21
40.860188
 31
0.0
  0
LINE
  5
42F
330
36
100
AcDbEntity
  8
0
100
AcDbLine
 10
-66.30038499999999
 20
40.860188
 30
0.0
 11
-67.803985
 21
40.860188
 31
0.0
  0
LINE
  5
430
330
36
100
AcDbEntity
  8
0
100
AcDbLine
 10
-66.30038499999999
 20
40.860188
 30
0.0
 11
-65.698945
 21
40.860188
 31
0.0
  0
LINE
  5
431
330
36
100
AcDbEntity
  8
0
100
AcDbLine
 10
-65.698945
 20
40.860188
 30
0.0
 11
-65.698945
 21
42.78516699999999
 31
0.0
  0
ARC
  5
432
330
36
100
AcDbEntity
  8
0
100
AcDbCircle
 10
-71.613105
 20
45.721828
 30
0.0
 40
0.5012
100
AcDbArc
 50
180.0
 51
270.0
  0
LINE
  5
433
330
36
100
AcDbEntity
  8
0
100
AcDbLine
 10
-71.613105
 20
45.220628
 30
0.0
 11
-69.35770500000001
 21
45.220628
 31
0.0
  0
ARC
  5
434
330
36
100
AcDbEntity
  8
0
100
AcDbCircle
 10
-69.35770500000001
 20
45.721828
 30
0.0
 40
0.5012
100
AcDbArc
 50
270.0
 51
0.0
  0
LINE
  5
435
330
36
100
AcDbEntity
  8
0
100
AcDbLine
 10
-68.856505
 20
51.034548
 30
0.0
 11
-68.856505
 21
45.721828
 31
0.0
  0
ARC
  5
436
330
36
100
AcDbEntity
  8
0
100
AcDbCircle
 10
-69.35770500000001
 20
51.034548
 30
0.0
 40
0.5012
100
AcDbArc
 50
0.0
 51
90.0
  0
ARC
  5
437
330
36
100
AcDbEntity
  8
0
100
AcDbCircle
 10
-71.613105
 20
51.034548
 30
0.0
 40
0.5012
100
AcDbArc
 50
90.0
 51
180.0
  0
LINE
  5
438
330
36
100
AcDbEntity
  8
0
100
AcDbLine
 10
-72.114305
 20
51.034548
 30
0.0
 11
-72.114305
 21
45.721828
 31
0.0
  0
LINE
  5
439
330
36
100
AcDbEntity
  8
0
100
AcDbLine
 10
-71.613105
 20
51.535748
 30
0.0
 11
-69.35770500000001
 21
51.535748
 31
0.0
  0
ARC
  5
43A
330
36
100
AcDbEntity
  8
0
100
AcDbCircle
 10
-67.05218499999999
 20
42.59953699999999
 30
0.0
 40
1.86929
100
AcDbArc
 50
8.449723999999998
 51
170.852157
  0
LINE
  5
43B
330
36
100
AcDbEntity
  8
0
100
AcDbLine
 10
-68.90662500000001
 20
40.860188
 30
0.0
 11
-68.90662500000001
 21
42.78516699999999
 31
0.0
  0
ARC
  5
43C
330
36
100
AcDbEntity
  8
0
100
AcDbCircle
 10
-68.40542499999999
 20
40.860188
 30
0.0
 40
0.5012
100
AcDbArc
 50
180.0
 51
270.0
  0
ARC
  5
43D
330
36
100
AcDbEntity
  8
0
100
AcDbCircle
 10
-65.698945
 20
40.860188
 30
0.0
 40
0.5012
100
AcDbArc
 50
270.0
 51
0.0
  0
LINE
  5
43E
330
36
100
AcDbEntity
  8
0
100
AcDbLine
 10
-65.197745
 20
40.860188
 30
0.0
 11
-65.197745
 21
42.800567
 31
0.0
  0
LINE
  5
43F
330
36
100
AcDbEntity
  8
0
100
AcDbLine
 10
-69.75866500000001
 20
31.01160800000001
 30
0.0
 11
-69.75866500000001
 21
26.651168
 31
0.0
  0
LINE
  5
440
330
36
100
AcDbEntity
  8
0
100
AcDbLine
 10
-70.710945
 20
31.01160800000001
 30
0.0
 11
-70.710945
 21
26.651168
 31
0.0
  0
LINE
  5
441
330
36
100
AcDbEntity
  8
0
100
AcDbLine
 10
-69.75866500000001
 20
31.01160800000001
 30
0.0
 11
-70.710945
 21
31.01160800000001
 31
0.0
  0
LINE
  5
442
330
36
100
AcDbEntity
  8
0
100
AcDbLine
 10
-69.75866500000001
 20
26.651168
 30
0.0
 11
-70.710945
 21
26.651168
 31
0.0
  0
ARC
  5
443
330
36
100
AcDbEntity
  8
0
100
AcDbCircle
 10
-67.05218499999999
 20
23.052737
 30
0.0
 40
1.36809
100
AcDbArc
 50
9.147842999999999
 51
171.550276
  0
LINE
  5
444
330
36
100
AcDbEntity
  8
0
100
AcDbLine
 10
-65.698945
 20
21.313388
 30
0.0
 11
-65.698945
 21
23.238367
 31
0.0
  0
LINE
  5
445
330
36
100
AcDbEntity
  8
0
100
AcDbLine
 10
-68.40542499999999
 20
21.313388
 30
0.0
 11
-68.40542499999999
 21
23.253767
 31
0.0
  0
LINE
  5
446
330
36
100
AcDbEntity
  8
0
100
AcDbLine
 10
-68.40542499999999
 20
21.313388
 30
0.0
 11
-67.803985
 21
21.313388
 31
0.0
  0
LINE
  5
447
330
36
100
AcDbEntity
  8
0
100
AcDbLine
 10
-66.30038499999999
 20
21.313388
 30
0.0
 11
-65.698945
 21
21.313388
 31
0.0
  0
LINE
  5
448
330
36
100
AcDbEntity
  8
0
100
AcDbLine
 10
-66.30038499999999
 20
21.313388
 30
0.0
 11
-67.803985
 21
21.313388
 31
0.0
  0
LINE
  5
449
330
36
100
AcDbEntity
  8
0
100
AcDbLine
 10
-63.393425
 20
30.585588
 30
0.0
 11
-64.34570500000001
 21
30.585588
 31
0.0
  0
LINE
  5
44A
330
36
100
AcDbEntity
  8
0
100
AcDbLine
 10
-63.393425
 20
30.585588
 30
0.0
 11
-63.393425
 21
27.077188
 31
0.0
  0
LINE
  5
44B
330
36
100
AcDbEntity
  8
0
100
AcDbLine
 10
-64.34570500000001
 20
30.585588
 30
0.0
 11
-64.34570500000001
 21
27.077188
 31
0.0
  0
LINE
  5
44C
330
36
100
AcDbEntity
  8
0
100
AcDbLine
 10
-63.393425
 20
27.077188
 30
0.0
 11
-64.34570500000001
 21
27.077188
 31
0.0
  0
ARC
  5
44D
330
36
100
AcDbEntity
  8
0
100
AcDbCircle
 10
-71.613105
 20
31.487748
 30
0.0
 40
0.5012
100
AcDbArc
 50
90.0
 51
180.0
  0
LINE
  5
44E
330
36
100
AcDbEntity
  8
0
100
AcDbLine
 10
-71.613105
 20
31.988948
 30
0.0
 11
-69.35770500000001
 21
31.988948
 31
0.0
  0
ARC
  5
44F
330
36
100
AcDbEntity
  8
0
100
AcDbCircle
 10
-69.35770500000001
 20
31.487748
 30
0.0
 40
0.5012
100
AcDbArc
 50
0.0
 51
90.0
  0
LINE
  5
450
330
36
100
AcDbEntity
  8
0
100
AcDbLine
 10
-68.856505
 20
31.487748
 30
0.0
 11
-68.856505
 21
26.175028
 31
0.0
  0
ARC
  5
451
330
36
100
AcDbEntity
  8
0
100
AcDbCircle
 10
-69.35770500000001
 20
26.175028
 30
0.0
 40
0.5012
100
AcDbArc
 50
270.0
 51
0.0
  0
LINE
  5
452
330
36
100
AcDbEntity
  8
0
100
AcDbLine
 10
-71.613105
 20
25.673828
 30
0.0
 11
-69.35770500000001
 21
25.673828
 31
0.0
  0
ARC
  5
453
330
36
100
AcDbEntity
  8
0
100
AcDbCircle
 10
-71.613105
 20
26.175028
 30
0.0
 40
0.5012
100
AcDbArc
 50
180.0
 51
270.0
  0
LINE
  5
454
330
36
100
AcDbEntity
  8
0
100
AcDbLine
 10
-72.114305
 20
31.487748
 30
0.0
 11
-72.114305
 21
26.175028
 31
0.0
  0
ARC
  5
455
330
36
100
AcDbEntity
  8
0
100
AcDbCircle
 10
-67.05218499999999
 20
23.052737
 30
0.0
 40
1.86929
100
AcDbArc
 50
8.449723999999998
 51
170.852157
  0
LINE
  5
456
330
36
100
AcDbEntity
  8
0
100
AcDbLine
 10
-68.90662500000001
 20
21.313388
 30
0.0
 11
-68.90662500000001
 21
23.238367
 31
0.0
  0
ARC
  5
457
330
36
100
AcDbEntity
  8
0
100
AcDbCircle
 10
-68.40542499999999
 20
21.313388
 30
0.0
 40
0.5012
100
AcDbArc
 50
180.0
 51
270.0
  0
ARC
  5
458
330
36
100
AcDbEntity
  8
0
100
AcDbCircle
 10
-65.698945
 20
21.313388
 30
0.0
 40
0.5012
100
AcDbArc
 50
270.0
 51
0.0
  0
LINE
  5
459
330
36
100
AcDbEntity
  8
0
100
AcDbLine
 10
-65.197745
 20
21.313388
 30
0.0
 11
-65.197745
 21
23.253767
 31
0.0
  0
LINE
  5
45A
330
36
100
AcDbEntity
  8
0
100
AcDbLine
 10
-65.24786500000001
 20
51.034548
 30
0.0
 11
-65.24786500000001
 21
45.721828
 31
0.0
  0
ARC
  5
45B
330
36
100
AcDbEntity
  8
0
100
AcDbCircle
 10
-64.74666500000001
 20
51.034548
 30
0.0
 40
0.5012
100
AcDbArc
 50
90.0
 51
180.0
  0
ARC
  5
45C
330
36
100
AcDbEntity
  8
0
100
AcDbCircle
 10
-62.491265
 20
51.034548
 30
0.0
 40
0.5012
100
AcDbArc
 50
0.0
 51
90.0
  0
LINE
  5
45D
330
36
100
AcDbEntity
  8
0
100
AcDbLine
 10
-61.990065
 20
51.034548
 30
0.0
 11
-61.990065
 21
45.721828
 31
0.0
  0
LINE
  5
45E
330
36
100
AcDbEntity
  8
0
100
AcDbLine
 10
-62.491265
 20
51.535748
 30
0.0
 11
-64.74666500000001
 21
51.535748
 31
0.0
  0
ARC
  5
45F
330
36
100
AcDbEntity
  8
0
100
AcDbCircle
 10
-62.491265
 20
45.721828
 30
0.0
 40
0.5012
100
AcDbArc
 50
270.0
 51
0.0
  0
LINE
  5
460
330
36
100
AcDbEntity
  8
0
100
AcDbLine
 10
-62.491265
 20
45.220628
 30
0.0
 11
-64.74666500000001
 21
45.220628
 31
0.0
  0
ARC
  5
461
330
36
100
AcDbEntity
  8
0
100
AcDbCircle
 10
-64.74666500000001
 20
45.721828
 30
0.0
 40
0.5012
100
AcDbArc
 50
180.0
 51
270.0
  0
ARC
  5
462
330
36
100
AcDbEntity
  8
0
100
AcDbCircle
 10
-62.491265
 20
31.487748
 30
0.0
 40
0.5012
100
AcDbArc
 50
0.0
 51
90.0
  0
LINE
  5
463
330
36
100
AcDbEntity
  8
0
100
AcDbLine
 10
-62.491265
 20
31.988948
 30
0.0
 11
-64.74666500000001
 21
31.988948
 31
0.0
  0
ARC
  5
464
330
36
100
AcDbEntity
  8
0
100
AcDbCircle
 10
-64.74666500000001
 20
31.487748
 30
0.0
 40
0.5012
100
AcDbArc
 50
90.0
 51
180.0
  0
LINE
  5
465
330
36
100
AcDbEntity
  8
0
100
AcDbLine
 10
-65.24786500000001
 20
31.487748
 30
0.0
 11
-65.24786500000001
 21
26.175028
 31
0.0
  0
LINE
  5
466
330
36
100
AcDbEntity
  8
0
100
AcDbLine
 10
-61.990065
 20
31.487748
 30
0.0
 11
-61.990065
 21
26.175028
 31
0.0
  0
ARC
  5
467
330
36
100
AcDbEntity
  8
0
100
AcDbCircle
 10
-64.74666500000001
 20
26.175028
 30
0.0
 40
0.5012
100
AcDbArc
 50
180.0
 51
270.0
  0
LINE
  5
468
330
36
100
AcDbEntity
  8
0
100
AcDbLine
 10
-62.491265
 20
25.673828
 30
0.0
 11
-64.74666500000001
 21
25.673828
 31
0.0
  0
ARC
  5
469
330
36
100
AcDbEntity
  8
0
100
AcDbCircle
 10
-62.491265
 20
26.175028
 30
0.0
 40
0.5012
100
AcDbArc
 50
270.0
 51
0.0
  0
ARC
  5
46A
330
36
100
AcDbEntity
  8
0
100
AcDbCircle
 10
-41.35770499999996
 20
51.034548
 30
0.0
 40
0.5012
100
AcDbArc
 50
0.0
 51
90.0
  0
LINE
  5
46B
330
36
100
AcDbEntity
  8
0
100
AcDbLine
 10
-43.613105
 20
51.535748
 30
0.0
 11
-41.35770499999996
 21
51.535748
 31
0.0
  0
LINE
  5
46C
330
36
100
AcDbEntity
  8
0
100
AcDbLine
 10
-44.114305
 20
31.487748
 30
0.0
 11
-44.114305
 21
26.175028
 31
0.0
  0
ARC
  5
46D
330
36
100
AcDbEntity
  8
0
100
AcDbCircle
 10
-43.613105
 20
51.034548
 30
0.0
 40
0.5012
100
AcDbArc
 50
90.0
 51
180.0
  0
LINE
  5
46E
330
36
100
AcDbEntity
  8
0
100
AcDbLine
 10
-42.710945
 20
50.13238799999999
 30
0.0
 11
-41.758665
 21
50.13238799999999
 31
0.0
  0
LINE
  5
46F
330
36
100
AcDbEntity
  8
0
100
AcDbLine
 10
-42.710945
 20
50.13238799999999
 30
0.0
 11
-42.710945
 21
46.623988
 31
0.0
  0
LINE
  5
470
330
36
100
AcDbEntity
  8
0
100
AcDbLine
 10
-41.758665
 20
50.13238799999999
 30
0.0
 11
-41.758665
 21
46.623988
 31
0.0
  0
LINE
  5
471
330
36
100
AcDbEntity
  8
0
100
AcDbLine
 10
-42.710945
 20
46.623988
 30
0.0
 11
-41.758665
 21
46.623988
 31
0.0
  0
LINE
  5
472
330
36
100
AcDbEntity
  8
0
100
AcDbLine
 10
-36.34570500000001
 20
46.19796799999998
 30
0.0
 11
-35.393425
 21
46.19796799999998
 31
0.0
  0
LINE
  5
473
330
36
100
AcDbEntity
  8
0
100
AcDbLine
 10
-36.34570500000001
 20
50.558408
 30
0.0
 11
-36.34570500000001
 21
46.19796799999998
 31
0.0
  0
LINE
  5
474
330
36
100
AcDbEntity
  8
0
100
AcDbLine
 10
-35.393425
 20
50.558408
 30
0.0
 11
-35.393425
 21
46.19796799999998
 31
0.0
  0
LINE
  5
475
330
36
100
AcDbEntity
  8
0
100
AcDbLine
 10
-36.34570500000001
 20
50.558408
 30
0.0
 11
-35.393425
 21
50.558408
 31
0.0
  0
ARC
  5
476
330
36
100
AcDbEntity
  8
0
100
AcDbCircle
 10
-39.052185
 20
42.59953699999999
 30
0.0
 40
1.36809
100
AcDbArc
 50
8.449723999999998
 51
170.852157
  0
LINE
  5
477
330
36
100
AcDbEntity
  8
0
100
AcDbLine
 10
-37.698945
 20
40.860188
 30
0.0
 11
-37.698945
 21
42.800567
 31
0.0
  0
LINE
  5
478
330
36
100
AcDbEntity
  8
0
100
AcDbLine
 10
-40.40542499999999
 20
40.860188
 30
0.0
 11
-40.40542499999999
 21
42.78516699999999
 31
0.0
  0
LINE
  5
479
330
36
100
AcDbEntity
  8
0
100
AcDbLine
 10
-37.197745
 20
40.860188
 30
0.0
 11
-37.197745
 21
42.78516699999999
 31
0.0
  0
ARC
  5
47A
330
36
100
AcDbEntity
  8
0
100
AcDbCircle
 10
-39.052185
 20
42.59953699999999
 30
0.0
 40
1.86929
100
AcDbArc
 50
9.147842999999999
 51
171.550276
  0
LINE
  5
47B
330
36
100
AcDbEntity
  8
0
100
AcDbLine
 10
-40.90662499999999
 20
40.860188
 30
0.0
 11
-40.90662499999999
 21
42.800567
 31
0.0
  0
ARC
  5
47C
330
36
100
AcDbEntity
  8
0
100
AcDbCircle
 10
-34.49126500000001
 20
45.721828
 30
0.0
 40
0.5012
100
AcDbArc
 50
270.0
 51
0.0
  0
LINE
  5
47D
330
36
100
AcDbEntity
  8
0
100
AcDbLine
 10
-34.49126500000001
 20
45.220628
 30
0.0
 11
-36.746665
 21
45.220628
 31
0.0
  0
ARC
  5
47E
330
36
100
AcDbEntity
  8
0
100
AcDbCircle
 10
-36.746665
 20
45.721828
 30
0.0
 40
0.5012
100
AcDbArc
 50
180.0
 51
270.0
  0
LINE
  5
47F
330
36
100
AcDbEntity
  8
0
100
AcDbLine
 10
-37.247865
 20
51.034548
 30
0.0
 11
-37.247865
 21
45.721828
 31
0.0
  0
LINE
  5
480
330
36
100
AcDbEntity
  8
0
100
AcDbLine
 10
-44.114305
 20
51.034548
 30
0.0
 11
-44.114305
 21
45.721828
 31
0.0
  0
LINE
  5
481
330
36
100
AcDbEntity
  8
0
100
AcDbLine
 10
-40.85650499999998
 20
51.034548
 30
0.0
 11
-40.85650499999998
 21
45.721828
 31
0.0
  0
ARC
  5
482
330
36
100
AcDbEntity
  8
0
100
AcDbCircle
 10
-43.613105
 20
45.721828
 30
0.0
 40
0.5012
100
AcDbArc
 50
180.0
 51
270.0
  0
LINE
  5
483
330
36
100
AcDbEntity
  8
0
100
AcDbLine
 10
-43.613105
 20
45.220628
 30
0.0
 11
-41.35770499999996
 21
45.220628
 31
0.0
  0
ARC
  5
484
330
36
100
AcDbEntity
  8
0
100
AcDbCircle
 10
-41.35770499999996
 20
45.721828
 30
0.0
 40
0.5012
100
AcDbArc
 50
270.0
 51
0.0
  0
LINE
  5
485
330
36
100
AcDbEntity
  8
0
100
AcDbLine
 10
-39.803985
 20
40.860188
 30
0.0
 11
-38.300385
 21
40.860188
 31
0.0
  0
LINE
  5
486
330
36
100
AcDbEntity
  8
0
100
AcDbLine
 10
-39.803985
 20
40.860188
 30
0.0
 11
-40.40542499999999
 21
40.860188
 31
0.0
  0
LINE
  5
487
330
36
100
AcDbEntity
  8
0
100
AcDbLine
 10
-36.34570500000001
 20
31.01160800000001
 30
0.0
 11
-36.34570500000001
 21
26.651168
 31
0.0
  0
LINE
  5
488
330
36
100
AcDbEntity
  8
0
100
AcDbLine
 10
-35.393425
 20
31.01160800000001
 30
0.0
 11
-35.393425
 21
26.651168
 31
0.0
  0
LINE
  5
489
330
36
100
AcDbEntity
  8
0
100
AcDbLine
 10
-36.34570500000001
 20
31.01160800000001
 30
0.0
 11
-35.393425
 21
31.01160800000001
 31
0.0
  0
LINE
  5
48A
330
36
100
AcDbEntity
  8
0
100
AcDbLine
 10
-36.34570500000001
 20
26.651168
 30
0.0
 11
-35.393425
 21
26.651168
 31
0.0
  0
ARC
  5
48B
330
36
100
AcDbEntity
  8
0
100
AcDbCircle
 10
-39.052185
 20
23.052737
 30
0.0
 40
1.36809
100
AcDbArc
 50
8.449723999999998
 51
170.852157
  0
LINE
  5
48C
330
36
100
AcDbEntity
  8
0
100
AcDbLine
 10
-40.40542499999999
 20
21.313388
 30
0.0
 11
-40.40542499999999
 21
23.238367
 31
0.0
  0
LINE
  5
48D
330
36
100
AcDbEntity
  8
0
100
AcDbLine
 10
-37.698945
 20
21.313388
 30
0.0
 11
-37.698945
 21
23.253767
 31
0.0
  0
LINE
  5
48E
330
36
100
AcDbEntity
  8
0
100
AcDbLine
 10
-37.698945
 20
21.313388
 30
0.0
 11
-38.300385
 21
21.313388
 31
0.0
  0
LINE
  5
48F
330
36
100
AcDbEntity
  8
0
100
AcDbLine
 10
-39.803985
 20
21.313388
 30
0.0
 11
-40.40542499999999
 21
21.313388
 31
0.0
  0
LINE
  5
490
330
36
100
AcDbEntity
  8
0
100
AcDbLine
 10
-39.803985
 20
21.313388
 30
0.0
 11
-38.300385
 21
21.313388
 31
0.0
  0
LINE
  5
491
330
36
100
AcDbEntity
  8
0
100
AcDbLine
 10
-42.710945
 20
30.585588
 30
0.0
 11
-41.758665
 21
30.585588
 31
0.0
  0
LINE
  5
492
330
36
100
AcDbEntity
  8
0
100
AcDbLine
 10
-42.710945
 20
30.585588
 30
0.0
 11
-42.710945
 21
27.077188
 31
0.0
  0
LINE
  5
493
330
36
100
AcDbEntity
  8
0
100
AcDbLine
 10
-41.758665
 20
30.585588
 30
0.0
 11
-41.758665
 21
27.077188
 31
0.0
  0
LINE
  5
494
330
36
100
AcDbEntity
  8
0
100
AcDbLine
 10
-42.710945
 20
27.077188
 30
0.0
 11
-41.758665
 21
27.077188
 31
0.0
  0
ARC
  5
495
330
36
100
AcDbEntity
  8
0
100
AcDbCircle
 10
-39.052185
 20
23.052737
 30
0.0
 40
1.86929
100
AcDbArc
 50
9.147842999999999
 51
171.550276
  0
LINE
  5
496
330
36
100
AcDbEntity
  8
0
100
AcDbLine
 10
-40.90662499999999
 20
21.313388
 30
0.0
 11
-40.90662499999999
 21
23.253767
 31
0.0
  0
ARC
  5
497
330
36
100
AcDbEntity
  8
0
100
AcDbCircle
 10
-40.40542499999999
 20
21.313388
 30
0.0
 40
0.5012
100
AcDbArc
 50
180.0
 51
270.0
  0
ARC
  5
498
330
36
100
AcDbEntity
  8
0
100
AcDbCircle
 10
-37.698945
 20
21.313388
 30
0.0
 40
0.5012
100
AcDbArc
 50
270.0
 51
0.0
  0
LINE
  5
499
330
36
100
AcDbEntity
  8
0
100
AcDbLine
 10
-37.197745
 20
21.313388
 30
0.0
 11
-37.197745
 21
23.238367
 31
0.0
  0
LINE
  5
49A
330
36
100
AcDbEntity
  8
0
100
AcDbLine
 10
-34.49126500000001
 20
25.673828
 30
0.0
 11
-36.746665
 21
25.673828
 31
0.0
  0
ARC
  5
49B
330
36
100
AcDbEntity
  8
0
100
AcDbCircle
 10
-34.49126500000001
 20
26.175028
 30
0.0
 40
0.5012
100
AcDbArc
 50
270.0
 51
0.0
  0
ARC
  5
49C
330
36
100
AcDbEntity
  8
0
100
AcDbCircle
 10
-34.49126500000001
 20
31.487748
 30
0.0
 40
0.5012
100
AcDbArc
 50
0.0
 51
90.0
  0
LINE
  5
49D
330
36
100
AcDbEntity
  8
0
100
AcDbLine
 10
-34.49126500000001
 20
31.988948
 30
0.0
 11
-36.746665
 21
31.988948
 31
0.0
  0
ARC
  5
49E
330
36
100
AcDbEntity
  8
0
100
AcDbCircle
 10
-36.746665
 20
31.487748
 30
0.0
 40
0.5012
100
AcDbArc
 50
90.0
 51
180.0
  0
LINE
  5
49F
330
36
100
AcDbEntity
  8
0
100
AcDbLine
 10
-37.247865
 20
31.487748
 30
0.0
 11
-37.247865
 21
26.175028
 31
0.0
  0
ARC
  5
4A0
330
36
100
AcDbEntity
  8
0
100
AcDbCircle
 10
-36.746665
 20
26.175028
 30
0.0
 40
0.5012
100
AcDbArc
 50
180.0
 51
270.0
  0
ARC
  5
4A1
330
36
100
AcDbEntity
  8
0
100
AcDbCircle
 10
-43.613105
 20
31.487748
 30
0.0
 40
0.5012
100
AcDbArc
 50
90.0
 51
180.0
  0
LINE
  5
4A2
330
36
100
AcDbEntity
  8
0
100
AcDbLine
 10
-43.613105
 20
31.988948
 30
0.0
 11
-41.35770499999996
 21
31.988948
 31
0.0
  0
ARC
  5
4A3
330
36
100
AcDbEntity
  8
0
100
AcDbCircle
 10
-41.35770499999996
 20
31.487748
 30
0.0
 40
0.5012
100
AcDbArc
 50
0.0
 51
90.0
  0
LINE
  5
4A4
330
36
100
AcDbEntity
  8
0
100
AcDbLine
 10
-40.85650499999998
 20
31.487748
 30
0.0
 11
-40.85650499999998
 21
26.175028
 31
0.0
  0
LINE
  5
4A5
330
36
100
AcDbEntity
  8
0
100
AcDbLine
 10
-43.613105
 20
25.673828
 30
0.0
 11
-41.35770499999996
 21
25.673828
 31
0.0
  0
ARC
  5
4A6
330
36
100
AcDbEntity
  8
0
100
AcDbCircle
 10
-43.613105
 20
26.175028
 30
0.0
 40
0.5012
100
AcDbArc
 50
180.0
 51
270.0
  0
ARC
  5
4A7
330
36
100
AcDbEntity
  8
0
100
AcDbCircle
 10
-41.35770499999996
 20
26.175028
 30
0.0
 40
0.5012
100
AcDbArc
 50
270.0
 51
0.0
  0
CIRCLE
  5
4A8
330
36
100
AcDbEntity
  8
0
 62
     3
100
AcDbCircle
 10
88.103166
 20
-55.77335699999999
 30
0.0
 40
0.9375
  0
CIRCLE
  5
4A9
330
36
100
AcDbEntity
  8
0
 62
     3
100
AcDbCircle
 10
88.103166
 20
-74.52335699999998
 30
0.0
 40
0.9375
  0
LINE
  5
4AA
330
36
100
AcDbEntity
  8
0
 62
     3
100
AcDbLine
 10
109.0929733857301
 20
-45.397543
 30
0.0
 11
109.0929733857301
 21
-86.97754300000005
 31
0.0
  0
TEXT
  5
4CD
330
36
100
AcDbEntity
  8
0
 62
     3
100
AcDbText
 10
110.5929733857301
 20
-58.75754300000001
 30
0.0
 40
4.5
  1
入力電圧
  7
高4.5
100
AcDbText
  0
TEXT
  5
4CE
330
36
100
AcDbEntity
  8
0
 62
     3
100
AcDbText
 10
110.5929733857301
 20
-65.68754300000001
 30
0.0
 40
4.5
  1
出力電圧
  7
高4.5
100
AcDbText
  0
TEXT
  5
4CF
330
36
100
AcDbEntity
  8
0
 62
     3
100
AcDbText
 10
110.5929733857301
 20
-72.61754300000003
 30
0.0
 40
4.5
  1
容　　量
  7
高4.5
100
AcDbText
  0
TEXT
  5
4D0
330
36
100
AcDbEntity
  8
0
 62
     3
100
AcDbText
 10
110.5929733857301
 20
-79.54754300000002
 30
0.0
 40
4.5
  1
質　　量
  7
高4.5
100
AcDbText
  0
TEXT
  5
4D1
330
36
100
AcDbEntity
  8
0
 62
     3
100
AcDbText
 10
110.5929733857301
 20
-86.47754300000004
 30
0.0
 40
4.5
  1
絶縁種類
  7
高4.5
100
AcDbText
  0
TEXT
  5
4D2
330
36
100
AcDbEntity
  8
0
 62
     3
100
AcDbText
 10
110.5929733857301
 20
-51.82754299999999
 30
0.0
 40
4.5
  1
型　　式
  7
高4.5
100
AcDbText
  0
LINE
  5
4D3
330
36
100
AcDbEntity
  8
0
100
AcDbLine
 10
109.0929733857301
 20
-52.32754299999999
 30
0.0
 11
196.0937190362558
 21
-52.32754299999999
 31
0.0
  0
LINE
  5
4D4
330
36
100
AcDbEntity
  8
0
100
AcDbLine
 10
109.0929733857301
 20
-59.25754300000001
 30
0.0
 11
196.0937190362558
 21
-59.25754300000001
 31
0.0
  0
LINE
  5
4D5
330
36
100
AcDbEntity
  8
0
100
AcDbLine
 10
109.0929733857301
 20
-66.187543
 30
0.0
 11
196.0937190362558
 21
-66.187543
 31
0.0
  0
LINE
  5
4D6
330
36
100
AcDbEntity
  8
0
100
AcDbLine
 10
109.0929733857301
 20
-73.11754300000003
 30
0.0
 11
196.0937190362558
 21
-73.11754300000003
 31
0.0
  0
LINE
  5
4D7
330
36
100
AcDbEntity
  8
0
100
AcDbLine
 10
109.0929733857301
 20
-80.047543
 30
0.0
 11
196.0937190362558
 21
-80.047543
 31
0.0
  0
TEXT
  5
4D8
330
36
100
AcDbEntity
  8
0
 62
     3
100
AcDbText
 10
135.453758
 20
-42.445565
 30
0.0
 40
4.5
  1
主　　仕　　様
  7
高4.5
100
AcDbText
  0
TEXT
  5
4D9
330
36
100
AcDbEntity
  8
0
 62
     3
100
AcDbText
 10
135.4847217969451
 20
-58.75754300000001
 30
0.0
 40
4.5
  1
AC200V 50/60Hz
  7
高4.5
100
AcDbText
  0
TEXT
  5
4DA
330
36
100
AcDbEntity
  8
0
 62
     3
100
AcDbText
 10
135.4847217969451
 20
-72.61754300000003
 30
0.0
 40
4.5
  1
2KVA　連続
  7
高4.5
100
AcDbText
  0
TEXT
  5
4DB
330
36
100
AcDbEntity
  8
0
 62
     3
100
AcDbText
 10
135.4847217969451
 20
-79.54754300000002
 30
0.0
 40
4.5
  1
約14kg
  7
高4.5
100
AcDbText
  0
TEXT
  5
4DC
330
36
100
AcDbEntity
  8
0
 62
     3
100
AcDbText
 10
135.4847217969451
 20
-86.47754300000004
 30
0.0
 40
4.5
  1
B種絶縁
  7
高4.5
100
AcDbText
  0
TEXT
  5
4DD
330
36
100
AcDbEntity
  8
0
 62
     3
100
AcDbText
 10
120.2959180199057
 20
-110.615928
 30
0.0
 40
4.5
  1
降圧トランス
  7
高4.5
100
AcDbText
  0
TEXT
  5
4DE
330
36
100
AcDbEntity
  8
0
 62
     3
100
AcDbText
 10
177.513977
 20
-132.525294
 30
0.0
 40
3.2
  1
2006.12.06
  7
高3.2
100
AcDbText
  0
CIRCLE
  5
4E5
330
36
100
AcDbEntity
  8
0
100
AcDbCircle
 10
-16.638821
 20
103.711162
 30
0.0
 40
5.0
  0
TEXT
  5
4E6
330
36
100
AcDbEntity
  8
0
 62
     4
100
AcDbText
 10
-19.48546720105923
 20
101.5008170796646
 30
0.0
 40
4.5
  1
15
  7
高4.5
100
AcDbText
  0
CIRCLE
  5
4ED
330
36
100
AcDbEntity
  8
0
100
AcDbCircle
 10
-159.182164
 20
90.12545600000001
 30
0.0
 40
5.0
  0
TEXT
  5
4EE
330
36
100
AcDbEntity
  8
0
 62
     4
100
AcDbText
 10
-161.4240084573211
 20
86.88709279605619
 30
0.0
 40
6.299999999999998
  1
6
  7
高6.3
100
AcDbText
  0
CIRCLE
  5
4F5
330
36
100
AcDbEntity
  8
0
100
AcDbCircle
 10
-159.182164
 20
-5.333480999999999
 30
0.0
 40
5.0
  0
TEXT
  5
4F6
330
36
100
AcDbEntity
  8
0
 62
     4
100
AcDbText
 10
-161.4240084573211
 20
-8.571844203943786
 30
0.0
 40
6.299999999999998
  1
7
  7
高6.3
100
AcDbText
  0
CIRCLE
  5
4FD
330
36
100
AcDbEntity
  8
0
100
AcDbCircle
 10
-47.613333
 20
103.946753
 30
0.0
 40
5.0
  0
TEXT
  5
4FE
330
36
100
AcDbEntity
  8
0
 62
     4
100
AcDbText
 10
-49.85517745732114
 20
100.7083897960562
 30
0.0
 40
6.299999999999998
  1
8
  7
高6.3
100
AcDbText
  0
CIRCLE
  5
505
330
36
100
AcDbEntity
  8
0
100
AcDbCircle
 10
-159.182164
 20
49.71879099999998
 30
0.0
 40
5.0
  0
TEXT
  5
506
330
36
100
AcDbEntity
  8
0
 62
     4
100
AcDbText
 10
-162.2545694396974
 20
47.37098852305462
 30
0.0
 40
4.5
  1
12
  7
高4.5
100
AcDbText
  0
CIRCLE
  5
50D
330
36
100
AcDbEntity
  8
0
100
AcDbCircle
 10
-159.182164
 20
64.33393000000001
 30
0.0
 40
5.0
  0
TEXT
  5
50E
330
36
100
AcDbEntity
  8
0
 62
     4
100
AcDbText
 10
-162.0906266214902
 20
62.10063067352177
 30
0.0
 40
4.5
  1
13
  7
高4.5
100
AcDbText
  0
CIRCLE
  5
515
330
36
100
AcDbEntity
  8
0
100
AcDbCircle
 10
-159.182164
 20
24.892063
 30
0.0
 40
5.0
  0
TEXT
  5
516
330
36
100
AcDbEntity
  8
0
 62
     4
100
AcDbText
 10
-162.182164
 20
22.6500203430305
 30
0.0
 40
4.5
  1
14
  7
高4.5
100
AcDbText
  0
CIRCLE
  5
51D
330
36
100
AcDbEntity
  8
0
100
AcDbCircle
 10
-159.182164
 20
37.423222
 30
0.0
 40
5.0
  0
TEXT
  5
51E
330
36
100
AcDbEntity
  8
0
 62
     4
100
AcDbText
 10
-161.5525297237408
 20
35.03173907667122
 30
0.0
 40
4.5
  1
11
  7
高4.5
100
AcDbText
  0
CIRCLE
  5
51F
330
36
100
AcDbEntity
  8
0
 62
     3
100
AcDbCircle
 10
88.103166
 20
-87.02335699999997
 30
0.0
 40
0.9375
  0
LINE
  5
543
330
36
100
AcDbEntity
  8
0
 62
     3
100
AcDbLine
 10
109.0929733857301
 20
-45.397543
 30
0.0
 11
196.0937190362558
 21
-45.39754300000001
 31
0.0
  0
LINE
  5
544
330
36
100
AcDbEntity
  8
0
100
AcDbLine
 10
87.165666
 20
-55.77335699999999
 30
0.0
 11
46.554253
 21
-55.77335699999999
 31
0.0
  0
LINE
  5
545
330
36
100
AcDbEntity
  8
0
100
AcDbLine
 10
46.554253
 20
-87.02335699999997
 30
0.0
 11
46.554253
 21
-81.64835699999997
 31
0.0
  0
LINE
  5
546
330
36
100
AcDbEntity
  8
0
100
AcDbLine
 10
87.165666
 20
-87.02335699999997
 30
0.0
 11
46.554253
 21
-87.02335699999997
 31
0.0
  0
LINE
  5
547
330
36
100
AcDbEntity
  8
0
  6
CENTER
100
AcDbLine
 10
46.498789
 20
-87.35341299999998
 30
0.0
 11
46.498789
 21
-89.186264
 31
0.0
  0
LINE
  5
548
330
36
100
AcDbEntity
  8
0
  6
CENTER
100
AcDbLine
 10
44.623789
 20
-89.186264
 30
0.0
 11
48.373789
 21
-89.186264
 31
0.0
  0
LINE
  5
549
330
36
100
AcDbEntity
  8
0
  6
CENTER
100
AcDbLine
 10
45.248789
 20
-89.986264
 30
0.0
 11
47.748789
 21
-89.986264
 31
0.0
  0
LINE
  5
54A
330
36
100
AcDbEntity
  8
0
  6
CENTER
100
AcDbLine
 10
45.873789
 20
-90.786264
 30
0.0
 11
47.123789
 21
-90.786264
 31
0.0
  0
LINE
  5
54B
330
36
100
AcDbEntity
  8
0
 62
     3
100
AcDbLine
 10
109.0929733857301
 20
-86.97754300000005
 30
0.0
 11
196.0937190362558
 21
-86.97754300000005
 31
0.0
  0
TEXT
  5
54C
330
36
100
AcDbEntity
  8
0
 62
     3
100
AcDbText
 10
135.4847217969451
 20
-51.82754299999999
 30
0.0
 40
4.5
  1
NTB-EK200D
  7
高4.5
100
AcDbText
  0
TEXT
  5
54D
330
36
100
AcDbEntity
  8
0
 62
     3
100
AcDbText
 10
117.4289229324829
 20
-118.507967
 30
0.0
 40
4.5
  1
NTB-EK200D
  7
高4.5
100
AcDbText
  0
TEXT
  5
54E
330
36
100
AcDbEntity
  8
0
 62
     3
100
AcDbText
 10
163.016394
 20
-142.693557
 30
0.0
 40
6.299999999999998
  1
NTB-EK200D
 41
0.8
  7
高6.3
100
AcDbText
  0
TEXT
  5
54F
330
36
100
AcDbEntity
  8
0
 62
     3
100
AcDbText
 10
119.741477
 20
-125.909955
 30
0.0
 40
3.2
  1
別　掲
  7
高3.2
100
AcDbText
  0
TEXT
  5
550
330
36
100
AcDbEntity
  8
0
 62
     3
100
AcDbText
 10
-106.5604556388889
 20
-142.624634
 30
0.0
 40
3.2
  1
備　　　　　考　
 41
0.8
  7
高3.2
100
AcDbText
  0
TEXT
  5
551
330
36
100
AcDbEntity
  8
0
 62
     3
100
AcDbText
 10
-130.17156675
 20
-142.624634
 30
0.0
 40
3.2
  1
材　　質
 41
0.8
  7
高3.2
100
AcDbText
  0
TEXT
  5
552
330
36
100
AcDbEntity
  8
0
 62
     3
100
AcDbText
 10
-137.9493445277777
 20
-142.624634
 30
0.0
 40
3.2
  1
個数　
 41
0.8
  7
高3.2
100
AcDbText
  0
TEXT
  5
553
330
36
100
AcDbEntity
  8
0
 62
     3
100
AcDbText
 10
-167.8660111944445
 20
-142.624634
 30
0.0
 40
3.2
  1
部　　品　　名
 41
0.8
  7
高3.2
100
AcDbText
  0
TEXT
  5
554
330
36
100
AcDbEntity
  8
0
100
AcDbText
 10
-44.831428
 20
3.67971
 30
0.0
 40
3.149999999999999
  1
115V
 41
1.090908999999999
100
AcDbText
  0
TEXT
  5
555
330
36
100
AcDbEntity
  8
0
 62
     3
100
AcDbText
 10
-111.79199
 20
37.09307000000001
 30
0.0
 40
2.399999999999999
  1
出力　ＡＣ１１５Ｖ
 41
0.9523419999999999
100
AcDbText
  0
TEXT
  5
556
330
36
100
AcDbEntity
  8
0
 62
     3
100
AcDbText
 10
-111.101992
 20
54.869059
 30
0.0
 40
3.2
  1
NTB-EK200D
 41
0.8090139999999998
100
AcDbText
  0
TEXT
  5
557
330
36
100
AcDbEntity
  8
0
 62
     4
100
AcDbText
 10
46.49492999999998
 20
-49.17557999999999
 30
0.0
 40
3.2
  1
200V
  7
高3.2
100
AcDbText
  0
TEXT
  5
558
330
36
100
AcDbEntity
  8
0
 62
     4
100
AcDbText
 10
40.784628
 20
-43.004018
 30
0.0
 40
3.2
  1
入力プラグ結線
  7
高3.2
100
AcDbText
  0
TEXT
  5
559
330
36
100
AcDbEntity
  8
0
 62
     3
100
AcDbText
 10
66.086298
 20
-54.78206
 30
0.0
 40
3.2
  1
白線
  7
高3.2
100
AcDbText
  0
TEXT
  5
55A
330
36
100
AcDbEntity
  8
0
 62
     3
100
AcDbText
 10
66.587177
 20
-73.681499
 30
0.0
 40
3.2
  1
黒線
  7
高3.2
100
AcDbText
  0
TEXT
  5
55B
330
36
100
AcDbEntity
  8
0
 62
     3
100
AcDbText
 10
66.587177
 20
-92.452806
 30
0.0
 40
3.2
  1
緑（アース）
  7
高3.2
100
AcDbText
  0
TEXT
  5
55C
330
36
100
AcDbEntity
  8
0
 62
     4
100
AcDbText
 10
165.499301528256
 20
103.5773481882863
 30
0.0
 40
3.2
  1
3PE 20A 250V
  7
高3.2
100
AcDbText
  0
LINE
  5
55D
330
36
100
AcDbEntity
  8
0
 62
     3
100
AcDbLine
 10
-103.052185
 20
28.547831
 30
0.0
 11
-103.052185
 21
32.547831
 31
0.0
  0
CIRCLE
  5
564
330
36
100
AcDbEntity
  8
0
100
AcDbCircle
 10
-94.985352
 20
-13.177887
 30
0.0
 40
5.0
  0
TEXT
  5
565
330
36
100
AcDbEntity
  8
0
 62
     4
100
AcDbText
 10
-97.584107564291
 20
-15.36456056351619
 30
0.0
 40
4.5
  1
10
  7
高4.5
100
AcDbText
  0
LINE
  5
56B
330
36
100
AcDbEntity
  8
0
100
AcDbLine
 10
46.479508
 20
85.93317500000003
 30
0.0
 11
38.623916
 21
93.44055500000001
 31
0.0
  0
LINE
  5
56C
330
36
100
AcDbEntity
  8
0
100
AcDbLine
 10
38.623916
 20
93.44055500000001
 30
0.0
 11
16.623916
 21
93.44055500000001
 31
0.0
  0
TEXT
  5
56D
330
36
100
AcDbEntity
  8
0
 62
     4
100
AcDbText
 10
19.373916
 20
94.44055500000001
 30
0.0
 40
3.2
  1
線巻取フック
 41
0.716146
100
AcDbText
  0
TEXT
  5
56E
330
36
100
AcDbEntity
  8
0
 62
     3
100
AcDbText
 10
135.4847217969451
 20
-65.68754300000001
 30
0.0
 40
4.5
  1
AC100V/115V
  7
高4.5
100
AcDbText
  0
LINE
  5
56F
330
36
100
AcDbEntity
  8
0
 62
     7
100
AcDbLine
 10
165.4508374485761
 20
102.8640488540698
 30
0.0
 11
200.5870987498334
 21
102.8640488540698
 31
0.0
  0
LINE
  5
570
330
36
100
AcDbEntity
  8
0
100
AcDbLine
 10
-108.0604556388889
 20
-143.124634
 30
0.0
 11
-108.0604556388889
 21
-58.12463400000005
 31
0.0
  0
TEXT
  5
571
330
36
100
AcDbEntity
  8
0
 62
     3
100
AcDbText
 10
-106.5604556388889
 20
-77.62463400000001
 30
0.0
 40
3.2
  1
AC150V用
 41
0.8
  7
高3.2
100
AcDbText
  0
TEXT
  5
572
330
36
100
AcDbEntity
  8
0
 62
     3
100
AcDbText
 10
-106.5604556388889
 20
-87.62463400000005
 30
0.0
 40
3.2
  1
アースチェック
 41
0.8
  7
高3.2
100
AcDbText
  0
TEXT
  5
573
330
36
100
AcDbEntity
  8
0
 62
     3
100
AcDbText
 10
-106.5604556388889
 20
-92.62463400000005
 30
0.0
 40
3.2
  1
クロメート処理
 41
0.8
  7
高3.2
100
AcDbText
  0
TEXT
  5
574
330
36
100
AcDbEntity
  8
0
 62
     3
100
AcDbText
 10
-106.5604556388889
 20
-102.624634
 30
0.0
 40
3.2
  1
2PE 15A 125V　100V出力
 41
0.8
  7
高3.2
100
AcDbText
  0
TEXT
  5
575
330
36
100
AcDbEntity
  8
0
 62
     3
100
AcDbText
 10
-106.5604556388889
 20
-112.624634
 30
0.0
 40
3.2
  1
黒
 41
0.8
  7
高3.2
100
AcDbText
  0
TEXT
  5
576
330
36
100
AcDbEntity
  8
0
 62
     3
100
AcDbText
 10
-106.5604556388889
 20
-117.624634
 30
0.0
 40
3.2
  1
2.0sqx3cx2m
 41
0.8
  7
高3.2
100
AcDbText
  0
TEXT
  5
577
330
36
100
AcDbEntity
  8
0
 62
     3
100
AcDbText
 10
-106.5604556388889
 20
-122.624634
 30
0.0
 40
3.2
  1
オレンジ塗装
 41
0.8
  7
高3.2
100
AcDbText
  0
TEXT
  5
578
330
36
100
AcDbEntity
  8
0
 62
     3
100
AcDbText
 10
-106.5604556388889
 20
-137.624634
 30
0.0
 40
3.2
  1
黒
 41
0.8
  7
高3.2
100
AcDbText
  0
TEXT
  5
579
330
36
100
AcDbEntity
  8
0
 62
     3
100
AcDbText
 10
-130.17156675
 20
-102.624634
 30
0.0
 40
3.2
  1
耐熱ABS樹脂
 41
0.8
  7
高3.2
100
AcDbText
  0
LINE
  5
57A
330
36
100
AcDbEntity
  8
0
100
AcDbLine
 10
-131.67156675
 20
-143.124634
 30
0.0
 11
-131.67156675
 21
-58.12463400000005
 31
0.0
  0
LINE
  5
57B
330
36
100
AcDbEntity
  8
0
100
AcDbLine
 10
-139.4493445277777
 20
-143.124634
 30
0.0
 11
-139.4493445277776
 21
-58.12463400000005
 31
0.0
  0
LINE
  5
57C
330
36
100
AcDbEntity
  8
0
100
AcDbLine
 10
-169.3660111944445
 20
-143.124634
 30
0.0
 11
-169.3660111944445
 21
-58.12463400000005
 31
0.0
  0
TEXT
  5
57D
330
36
100
AcDbEntity
  8
0
 62
     3
100
AcDbText
 10
-130.17156675
 20
-137.624634
 30
0.0
 40
3.2
  1
PF樹脂
 41
0.8
  7
高3.2
100
AcDbText
  0
TEXT
  5
57E
330
36
100
AcDbEntity
  8
0
 62
     3
100
AcDbText
 10
-130.17156675
 20
-122.624634
 30
0.0
 40
3.2
  1
SPCC
 41
0.8
  7
高3.2
100
AcDbText
  0
TEXT
  5
57F
330
36
100
AcDbEntity
  8
0
 62
     3
100
AcDbText
 10
-130.17156675
 20
-117.624634
 30
0.0
 40
3.2
  1
VCT
 41
0.8
  7
高3.2
100
AcDbText
  0
TEXT
  5
580
330
36
100
AcDbEntity
  8
0
 62
     3
100
AcDbText
 10
-130.17156675
 20
-67.62463400000005
 30
0.0
 40
3.2
  1
SPCC
 41
0.8
  7
高3.2
100
AcDbText
  0
TEXT
  5
581
330
36
100
AcDbEntity
  8
0
 62
     3
100
AcDbText
 10
-130.17156675
 20
-107.624634
 30
0.0
 40
3.2
  1
合成ゴム
 41
0.8
  7
高3.2
100
AcDbText
  0
TEXT
  5
582
330
36
100
AcDbEntity
  8
0
 62
     3
100
AcDbText
 10
-130.17156675
 20
-92.62463400000005
 30
0.0
 40
3.2
  1
SPCC
 41
0.8
  7
高3.2
100
AcDbText
  0
TEXT
  5
583
330
36
100
AcDbEntity
  8
0
 62
     3
100
AcDbText
 10
-130.1715667499999
 20
-82.62463400000005
 30
0.0
 40
3.2
  1
ネオン球
 41
0.8
  7
高3.2
100
AcDbText
  0
TEXT
  5
584
330
36
100
AcDbEntity
  8
0
 62
     3
100
AcDbText
 10
-130.1715667499999
 20
-72.62463400000003
 30
0.0
 40
3.2
  1
PF樹脂
 41
0.8
  7
高3.2
100
AcDbText
  0
TEXT
  5
585
330
36
100
AcDbEntity
  8
0
 62
     3
100
AcDbText
 10
-137.9493445277777
 20
-87.62463400000005
 30
0.0
 40
3.2
  1
1
 41
0.8
  7
高3.2
100
AcDbText
  0
TEXT
  5
586
330
36
100
AcDbEntity
  8
0
 62
     3
100
AcDbText
 10
-137.9493445277777
 20
-102.624634
 30
0.0
 40
3.2
  1
1
 41
0.8
  7
高3.2
100
AcDbText
  0
TEXT
  5
587
330
36
100
AcDbEntity
  8
0
 62
     3
100
AcDbText
 10
-137.9493445277777
 20
-107.624634
 30
0.0
 40
3.2
  1
4
 41
0.8
  7
高3.2
100
AcDbText
  0
TEXT
  5
588
330
36
100
AcDbEntity
  8
0
 62
     3
100
AcDbText
 10
-137.9493445277777
 20
-122.624634
 30
0.0
 40
3.2
  1
1式
 41
0.8
  7
高3.2
100
AcDbText
  0
TEXT
  5
589
330
36
100
AcDbEntity
  8
0
 62
     3
100
AcDbText
 10
-137.9493445277777
 20
-137.624634
 30
0.0
 40
3.2
  1
1
 41
0.8
  7
高3.2
100
AcDbText
  0
TEXT
  5
58A
330
36
100
AcDbEntity
  8
0
 62
     3
100
AcDbText
 10
-167.8660111944445
 20
-137.624634
 30
0.0
 40
3.2
  1
取手ハンドル
 41
0.8
  7
高3.2
100
AcDbText
  0
TEXT
  5
58B
330
36
100
AcDbEntity
  8
0
 62
     3
100
AcDbText
 10
-167.8660111944445
 20
-122.624634
 30
0.0
 40
3.2
  1
上カバー
 41
0.8
  7
高3.2
100
AcDbText
  0
TEXT
  5
58C
330
36
100
AcDbEntity
  8
0
 62
     3
100
AcDbText
 10
-167.8660111944445
 20
-67.62463400000005
 30
0.0
 40
3.2
  1
フロントパネル
 41
0.8
  7
高3.2
100
AcDbText
  0
TEXT
  5
58D
330
36
100
AcDbEntity
  8
0
 62
     3
100
AcDbText
 10
-167.8660111944445
 20
-112.624634
 30
0.0
 40
3.2
  1
プロテクター
 41
0.8
  7
高3.2
100
AcDbText
  0
TEXT
  5
58E
330
36
100
AcDbEntity
  8
0
 62
     3
100
AcDbText
 10
-167.8660111944445
 20
-107.624634
 30
0.0
 40
3.2
  1
脚ゴム
 41
0.8
  7
高3.2
100
AcDbText
  0
TEXT
  5
58F
330
36
100
AcDbEntity
  8
0
 62
     3
100
AcDbText
 10
-167.8660111944445
 20
-102.624634
 30
0.0
 40
3.2
  1
コンセント白
 41
0.8
  7
高3.2
100
AcDbText
  0
TEXT
  5
590
330
36
100
AcDbEntity
  8
0
 62
     3
100
AcDbText
 10
-167.8660111944445
 20
-92.62463400000005
 30
0.0
 40
3.2
  1
アース金具
 41
0.8
  7
高3.2
100
AcDbText
  0
TEXT
  5
591
330
36
100
AcDbEntity
  8
0
 62
     3
100
AcDbText
 10
-167.8660111944445
 20
-87.62463400000005
 30
0.0
 40
3.2
  1
アースチェック釦
 41
0.8
  7
高3.2
100
AcDbText
  0
TEXT
  5
592
330
36
100
AcDbEntity
  8
0
 62
     3
100
AcDbText
 10
-167.8660111944445
 20
-82.62463400000005
 30
0.0
 40
3.2
  1
電源、アースランプ
 41
0.8
  7
高3.2
100
AcDbText
  0
TEXT
  5
593
330
36
100
AcDbEntity
  8
0
 62
     3
100
AcDbText
 10
-167.8660111944445
 20
-77.62463400000001
 30
0.0
 40
3.2
  1
電圧計
 41
0.8
  7
高3.2
100
AcDbText
  0
TEXT
  5
594
330
36
100
AcDbEntity
  8
0
 62
     3
100
AcDbText
 10
-167.8660111944445
 20
-72.62463400000003
 30
0.0
 40
3.2
  1
過負荷・漏電兼用型
 41
0.8
  7
高3.2
100
AcDbText
  0
TEXT
  5
595
330
36
100
AcDbEntity
  8
0
 62
     3
100
AcDbText
 10
-175.111198
 20
-82.62463400000003
 30
0.0
 40
3.2
  1
12
 41
0.8
  7
高3.2
100
AcDbText
  0
TEXT
  5
596
330
36
100
AcDbEntity
  8
0
 62
     3
100
AcDbText
 10
-175.111198
 20
-87.62463400000005
 30
0.0
 40
3.2
  1
11
 41
0.8
  7
高3.2
100
AcDbText
  0
TEXT
  5
597
330
36
100
AcDbEntity
  8
0
 62
     3
100
AcDbText
 10
-175.111198
 20
-92.62463400000005
 30
0.0
 40
3.2
  1
10
 41
0.8
  7
高3.2
100
AcDbText
  0
TEXT
  5
598
330
36
100
AcDbEntity
  8
0
 62
     3
100
AcDbText
 10
-175.111198
 20
-97.62463400000005
 30
0.0
 40
3.2
  1
9
 41
0.8
  7
高3.2
100
AcDbText
  0
TEXT
  5
599
330
36
100
AcDbEntity
  8
0
 62
     3
100
AcDbText
 10
-175.111198
 20
-102.624634
 30
0.0
 40
3.2
  1
8
 41
0.8
  7
高3.2
100
AcDbText
  0
TEXT
  5
59A
330
36
100
AcDbEntity
  8
0
 62
     3
100
AcDbText
 10
-175.111198
 20
-107.624634
 30
0.0
 40
3.2
  1
7
 41
0.8
  7
高3.2
100
AcDbText
  0
TEXT
  5
59B
330
36
100
AcDbEntity
  8
0
 62
     3
100
AcDbText
 10
-175.111198
 20
-112.624634
 30
0.0
 40
3.2
  1
6
 41
0.8
  7
高3.2
100
AcDbText
  0
TEXT
  5
59C
330
36
100
AcDbEntity
  8
0
 62
     3
100
AcDbText
 10
-175.111198
 20
-117.624634
 30
0.0
 40
3.2
  1
5
 41
0.8
  7
高3.2
100
AcDbText
  0
TEXT
  5
59D
330
36
100
AcDbEntity
  8
0
 62
     3
100
AcDbText
 10
-175.111198
 20
-122.624634
 30
0.0
 40
3.2
  1
4
 41
0.8
  7
高3.2
100
AcDbText
  0
TEXT
  5
59E
330
36
100
AcDbEntity
  8
0
 62
     3
100
AcDbText
 10
-175.111198
 20
-127.624634
 30
0.0
 40
3.2
  1
3
 41
0.8
  7
高3.2
100
AcDbText
  0
TEXT
  5
59F
330
36
100
AcDbEntity
  8
0
 62
     3
100
AcDbText
 10
-175.111198
 20
-132.624634
 30
0.0
 40
3.2
  1
2
 41
0.8
  7
高3.2
100
AcDbText
  0
TEXT
  5
5A0
330
36
100
AcDbEntity
  8
0
 62
     3
100
AcDbText
 10
-175.111198
 20
-137.624634
 30
0.0
 40
3.2
  1
1
 41
0.8
  7
高3.2
100
AcDbText
  0
TEXT
  5
5A1
330
36
100
AcDbEntity
  8
0
 62
     3
100
AcDbText
 10
-130.17156675
 20
-112.624634
 30
0.0
 40
3.2
  1
PA樹脂
 41
0.8
  7
高3.2
100
AcDbText
  0
TEXT
  5
5A2
330
36
100
AcDbEntity
  8
0
 62
     3
100
AcDbText
 10
-137.9493445277777
 20
-82.62463400000005
 30
0.0
 40
3.2
  1
1
 41
0.8
  7
高3.2
100
AcDbText
  0
TEXT
  5
5A3
330
36
100
AcDbEntity
  8
0
 62
     3
100
AcDbText
 10
-137.9493445277777
 20
-77.62463400000001
 30
0.0
 40
3.2
  1
1
 41
0.8
  7
高3.2
100
AcDbText
  0
TEXT
  5
5A4
330
36
100
AcDbEntity
  8
0
 62
     3
100
AcDbText
 10
-137.9493445277777
 20
-72.62463400000003
 30
0.0
 40
3.2
  1
1
 41
0.8
  7
高3.2
100
AcDbText
  0
TEXT
  5
5A5
330
36
100
AcDbEntity
  8
0
 62
     3
100
AcDbText
 10
-137.9493445277777
 20
-112.624634
 30
0.0
 40
3.2
  1
1
 41
0.8
  7
高3.2
100
AcDbText
  0
TEXT
  5
5A6
330
36
100
AcDbEntity
  8
0
 62
     3
100
AcDbText
 10
-137.9493445277777
 20
-67.62463400000005
 30
0.0
 40
3.2
  1
1
 41
0.8
  7
高3.2
100
AcDbText
  0
TEXT
  5
5A7
330
36
100
AcDbEntity
  8
0
 62
     3
100
AcDbText
 10
-137.9493445277777
 20
-117.624634
 30
0.0
 40
3.2
  1
1
 41
0.8
  7
高3.2
100
AcDbText
  0
TEXT
  5
5A8
330
36
100
AcDbEntity
  8
0
 62
     3
100
AcDbText
 10
-137.9493445277777
 20
-92.62463400000005
 30
0.0
 40
3.2
  1
2
 41
0.8
  7
高3.2
100
AcDbText
  0
TEXT
  5
5A9
330
36
100
AcDbEntity
  8
0
 62
     3
100
AcDbText
 10
-167.8660111944445
 20
-117.624634
 30
0.0
 40
3.2
  1
電線　4Pプラグ付
 41
0.8
  7
高3.2
100
AcDbText
  0
TEXT
  5
5AA
330
36
100
AcDbEntity
  8
0
 62
     3
100
AcDbText
 10
-106.5604556388889
 20
-72.62463400000003
 30
0.0
 40
3.2
  1
200V/100V15A/15mA
 41
0.8
  7
高3.2
100
AcDbText
  0
TEXT
  5
5AB
330
36
100
AcDbEntity
  8
0
 62
     3
100
AcDbText
 10
-175.111198
 20
-142.624634
 30
0.0
 40
3.2
  1
No
 41
0.8
  7
高3.2
100
AcDbText
  0
LINE
  5
5AC
330
36
100
AcDbEntity
  8
0
100
AcDbLine
 10
40.784628
 20
-43.9087573565937
 30
0.0
 11
68.22212799999999
 21
-43.9087573565937
 31
0.0
  0
LINE
  5
5AD
330
36
100
AcDbEntity
  8
0
 62
     3
100
AcDbLine
 10
213.288765
 20
-97.45891100000001
 30
0.0
 11
161.689402
 21
-97.45891100000001
 31
0.0
  0
TEXT
  5
5AE
330
36
100
AcDbEntity
  8
0
 62
     3
100
AcDbText
 10
167.0825534383375
 20
-102.902826
 30
0.0
 40
4.5
  1
コード
  7
高4.5
100
AcDbText
  0
LINE
  5
5AF
330
36
100
AcDbEntity
  8
0
 62
     3
100
AcDbLine
 10
187.689402
 20
-103.458911
 30
0.0
 11
187.689402
 21
-97.45891100000001
 31
0.0
  0
LINE
  5
5B0
330
36
100
AcDbEntity
  8
0
 62
     3
100
AcDbLine
 10
161.689402
 20
-103.458911
 30
0.0
 11
161.689402
 21
-97.45891100000001
 31
0.0
  0
LINE
  5
5B1
330
36
100
AcDbEntity
  8
0
 62
     7
100
AcDbLine
 10
16.35054689719686
 20
-73.12463400000004
 30
0.0
 11
-176.611198
 21
-73.12463400000004
 31
0.0
  0
LINE
  5
5B2
330
36
100
AcDbEntity
  8
0
100
AcDbLine
 10
16.35054689719686
 20
-83.12463400000003
 30
0.0
 11
-176.611198
 21
-83.12463400000003
 31
0.0
  0
LINE
  5
5B3
330
36
100
AcDbEntity
  8
0
100
AcDbLine
 10
16.35054689719686
 20
-88.12463400000003
 30
0.0
 11
-176.611198
 21
-88.12463400000003
 31
0.0
  0
LINE
  5
5B4
330
36
100
AcDbEntity
  8
0
100
AcDbLine
 10
16.35054689719686
 20
-93.12463400000003
 30
0.0
 11
-176.611198
 21
-93.12463400000003
 31
0.0
  0
LINE
  5
5B5
330
36
100
AcDbEntity
  8
0
100
AcDbLine
 10
16.35054689719686
 20
-98.124634
 30
0.0
 11
-176.611198
 21
-98.124634
 31
0.0
  0
LINE
  5
5B6
330
36
100
AcDbEntity
  8
0
100
AcDbLine
 10
16.35054689719686
 20
-103.124634
 30
0.0
 11
-176.611198
 21
-103.124634
 31
0.0
  0
LINE
  5
5B7
330
36
100
AcDbEntity
  8
0
100
AcDbLine
 10
16.35054689719686
 20
-108.124634
 30
0.0
 11
-176.611198
 21
-108.124634
 31
0.0
  0
LINE
  5
5B8
330
36
100
AcDbEntity
  8
0
100
AcDbLine
 10
16.35054689719686
 20
-113.124634
 30
0.0
 11
-176.611198
 21
-113.124634
 31
0.0
  0
LINE
  5
5B9
330
36
100
AcDbEntity
  8
0
100
AcDbLine
 10
16.35054689719686
 20
-118.124634
 30
0.0
 11
-176.611198
 21
-118.124634
 31
0.0
  0
LINE
  5
5BA
330
36
100
AcDbEntity
  8
0
100
AcDbLine
 10
16.35054689719686
 20
-123.124634
 30
0.0
 11
-176.611198
 21
-123.124634
 31
0.0
  0
LINE
  5
5BB
330
36
100
AcDbEntity
  8
0
100
AcDbLine
 10
16.35054689719686
 20
-133.124634
 30
0.0
 11
-176.611198
 21
-133.124634
 31
0.0
  0
LINE
  5
5BC
330
36
100
AcDbEntity
  8
0
100
AcDbLine
 10
16.35054689719686
 20
-78.12463400000003
 30
0.0
 11
-176.611198
 21
-78.12463400000003
 31
0.0
  0
LINE
  5
5BD
330
36
100
AcDbEntity
  8
0
 62
     3
100
AcDbLine
 10
16.35054689719686
 20
-138.124634
 30
0.0
 11
-176.611198
 21
-138.124634
 31
0.0
  0
TEXT
  5
5BE
330
36
100
AcDbEntity
  8
0
 62
     3
100
AcDbText
 10
192.2160513285489
 20
-102.960555
 30
0.0
 40
4.5
  1
5590
  7
高4.5
100
AcDbText
  0
TEXT
  5
5C1
330
36
100
AcDbEntity
  8
0
 62
     3
100
AcDbText
 10
56.54146713974961
 20
-73.33925826526149
 30
0.0
 40
3.2
  1
X
  7
高3.2
100
AcDbText
  0
TEXT
  5
5C2
330
36
100
AcDbEntity
  8
0
 62
     3
100
AcDbText
 10
33.39852275260483
 20
-76.08363257935876
 30
0.0
 40
3.2
  1
Z
  7
高3.2
100
AcDbText
  0
TEXT
  5
5C3
330
36
100
AcDbEntity
  8
0
 62
     3
100
AcDbText
 10
42.94335257893368
 20
-64.71408203387454
 30
0.0
 40
3.2
  1
Y
  7
高3.2
100
AcDbText
  0
TEXT
  5
6ED
330
36
100
AcDbEntity
  8
0
 62
     3
100
AcDbText
 10
200.888802
 20
124.375366
 30
0.0
 40
3.2
  1
担　当
  7
高3.2
100
AcDbText
  0
TEXT
  5
6EE
330
36
100
AcDbEntity
  8
0
 62
     3
100
AcDbText
 10
156.888802
 20
124.375366
 30
0.0
 40
3.2
  1
変更・追記内容
  7
高3.2
100
AcDbText
  0
TEXT
  5
6EF
330
36
100
AcDbEntity
  8
0
 62
     3
100
AcDbText
 10
132.0023170003392
 20
119.7048274900917
 30
0.0
 40
2.0
  1
1
  7
高2
100
AcDbText
  0
TEXT
  5
6F0
330
36
100
AcDbEntity
  8
0
 62
     3
100
AcDbText
 10
131.6938055235819
 20
114.5350107778188
 30
0.0
 40
2.0
  1
2
  7
高2
100
AcDbText
  0
TEXT
  5
6F1
330
36
100
AcDbEntity
  8
0
 62
     3
100
AcDbText
 10
138.888802
 20
124.375366
 30
0.0
 40
3.2
  1
日　付
  7
高3.2
100
AcDbText
  0
TEXT
  5
6F2
330
36
100
AcDbEntity
  8
0
 62
     3
100
AcDbText
 10
138.888802
 20
129.375366
 30
0.0
 40
3.2
  1
図　　　　面　　　　略　　　　歴
  7
高3.2
100
AcDbText
  0
TEXT
  5
6F3
330
36
100
AcDbEntity
  8
0
 62
     3
100
AcDbText
 10
128.888802
 20
124.375366
 30
0.0
 40
3.2
  1
記号
  7
高3.2
100
AcDbText
  0
LINE
  5
6F4
330
36
100
AcDbEntity
  8
0
100
AcDbLine
 10
132.388802
 20
117.666262
 30
0.0
 11
130.488802
 21
114.375366
 31
0.0
  0
LINE
  5
6F5
330
36
100
AcDbEntity
  8
0
100
AcDbLine
 10
132.388802
 20
117.666262
 30
0.0
 11
134.2888019999999
 21
114.375366
 31
0.0
  0
LINE
  5
6F6
330
36
100
AcDbEntity
  8
0
100
AcDbLine
 10
130.488802
 20
114.375366
 30
0.0
 11
134.2888019999999
 21
114.375366
 31
0.0
  0
LINE
  5
6F7
330
36
100
AcDbEntity
  8
0
100
AcDbLine
 10
132.388802
 20
122.666263
 30
0.0
 11
130.488802
 21
119.375366
 31
0.0
  0
LINE
  5
6F8
330
36
100
AcDbEntity
  8
0
100
AcDbLine
 10
132.388802
 20
122.666263
 30
0.0
 11
134.2888019999999
 21
119.375366
 31
0.0
  0
LINE
  5
6F9
330
36
100
AcDbEntity
  8
0
100
AcDbLine
 10
130.488802
 20
119.375366
 30
0.0
 11
134.2888019999999
 21
119.375366
 31
0.0
  0
LINE
  5
6FA
330
36
100
AcDbEntity
  8
0
 62
     3
100
AcDbLine
 10
127.388802
 20
128.875366
 30
0.0
 11
213.388802
 21
128.875366
 31
0.0
  0
LINE
  5
6FB
330
36
100
AcDbEntity
  8
0
 62
     3
100
AcDbLine
 10
127.388802
 20
123.875366
 30
0.0
 11
213.388802
 21
123.875366
 31
0.0
  0
LINE
  5
6FC
330
36
100
AcDbEntity
  8
0
 62
     7
100
AcDbLine
 10
127.388802
 20
118.875366
 30
0.0
 11
213.388802
 21
118.875366
 31
0.0
  0
LINE
  5
6FD
330
36
100
AcDbEntity
  8
0
 62
     3
100
AcDbLine
 10
127.388802
 20
113.875366
 30
0.0
 11
213.388802
 21
113.875366
 31
0.0
  0
LINE
  5
6FE
330
36
100
AcDbEntity
  8
0
 62
     7
100
AcDbLine
 10
199.3888019999999
 20
113.875366
 30
0.0
 11
199.388802
 21
128.875366
 31
0.0
  0
LINE
  5
6FF
330
36
100
AcDbEntity
  8
0
 62
     7
100
AcDbLine
 10
155.388802
 20
113.875366
 30
0.0
 11
155.388802
 21
128.875366
 31
0.0
  0
LINE
  5
700
330
36
100
AcDbEntity
  8
0
 62
     7
100
AcDbLine
 10
137.388802
 20
113.875366
 30
0.0
 11
137.388802
 21
128.875366
 31
0.0
  0
LINE
  5
701
330
36
100
AcDbEntity
  8
0
 62
     3
100
AcDbLine
 10
127.388802
 20
113.875366
 30
0.0
 11
127.388802
 21
133.875366
 31
0.0
  0
TEXT
  5
8EF
330
36
100
AcDbEntity
  8
0
 62
     3
100
AcDbText
 10
-106.5604556388889
 20
-97.62463400000001
 30
0.0
 40
3.2
  1
2PE 15A 125V　115V出力
 41
0.8
  7
高3.2
100
AcDbText
  0
TEXT
  5
8F0
330
36
100
AcDbEntity
  8
0
 62
     3
100
AcDbText
 10
-130.17156675
 20
-97.62463400000001
 30
0.0
 40
3.2
  1
耐熱ABS樹脂
 41
0.8
  7
高3.2
100
AcDbText
  0
TEXT
  5
8F1
330
36
100
AcDbEntity
  8
0
 62
     3
100
AcDbText
 10
-137.9493445277777
 20
-97.62463400000001
 30
0.0
 40
3.2
  1
1
 41
0.8
  7
高3.2
100
AcDbText
  0
TEXT
  5
8F2
330
36
100
AcDbEntity
  8
0
 62
     3
100
AcDbText
 10
-167.8660111944445
 20
-97.62463400000001
 30
0.0
 40
3.2
  1
コンセント黒
 41
0.8
  7
高3.2
100
AcDbText
  0
TEXT
  5
8F4
330
36
100
AcDbEntity
  8
0
 62
     3
100
AcDbText
 10
-175.111198
 20
-77.62463400000005
 30
0.0
 40
3.2
  1
13
 41
0.8
  7
高3.2
100
AcDbText
  0
LINE
  5
8F5
330
36
100
AcDbEntity
  8
0
 62
     7
100
AcDbLine
 10
16.35054689719686
 20
-68.12463400000004
 30
0.0
 11
-176.611198
 21
-68.12463400000004
 31
0.0
  0
CIRCLE
  5
8FA
330
36
100
AcDbEntity
  8
0
100
AcDbCircle
 10
-35.55999696077901
 20
103.946753
 30
0.0
 40
5.0
  0
TEXT
  5
8FB
330
36
100
AcDbEntity
  8
0
 62
     4
100
AcDbText
 10
-37.80184141810015
 20
100.7083897960562
 30
0.0
 40
6.299999999999998
  1
9
  7
高6.3
100
AcDbText
  0
TEXT
  5
8FD
330
36
100
AcDbEntity
  8
0
 62
     3
100
AcDbText
 10
-106.5604556388889
 20
-82.62463400000005
 30
0.0
 40
3.2
  1
-
 41
0.8
  7
高3.2
100
AcDbText
  0
TEXT
  5
8FE
330
36
100
AcDbEntity
  8
0
 62
     3
100
AcDbText
 10
-106.5604556388889
 20
-107.624634
 30
0.0
 40
3.2
  1
-
 41
0.8
  7
高3.2
100
AcDbText
  0
TEXT
  5
8FF
330
36
100
AcDbEntity
  8
0
 62
     3
100
AcDbText
 10
-106.5604556388889
 20
-67.62463400000005
 30
0.0
 40
3.2
  1
-
 41
0.8
  7
高3.2
100
AcDbText
  0
TEXT
  5
900
330
36
100
AcDbEntity
  8
0
 62
     3
100
AcDbText
 10
-130.17156675
 20
-87.62463400000005
 30
0.0
 40
3.2
  1
-
 41
0.8
  7
高3.2
100
AcDbText
  0
TEXT
  5
901
330
36
100
AcDbEntity
  8
0
 62
     3
100
AcDbText
 10
-130.1715667499999
 20
-77.62463400000001
 30
0.0
 40
3.2
  1
-
 41
0.8
  7
高3.2
100
AcDbText
  0
TEXT
  5
902
330
36
100
AcDbEntity
  8
0
 62
     3
100
AcDbText
 10
-57.10194136950348
 20
-142.624634
 30
0.0
 40
3.2
  1
コード
 41
0.8
  7
高3.2
100
AcDbText
  0
LINE
  5
903
330
36
100
AcDbEntity
  8
0
100
AcDbLine
 10
-58.60194136950347
 20
-143.124634
 30
0.0
 11
-58.60194136950347
 21
-58.12463400000005
 31
0.0
  0
TEXT
  5
904
330
36
100
AcDbEntity
  8
0
 62
     3
100
AcDbText
 10
-57.10194136950348
 20
-77.62463400000001
 30
0.0
 40
3.2
  1
53584
 41
0.8
  7
高3.2
100
AcDbText
  0
TEXT
  5
905
330
36
100
AcDbEntity
  8
0
 62
     3
100
AcDbText
 10
-57.10194136950348
 20
-87.62463400000005
 30
0.0
 40
3.2
  1
50080
 41
0.8
  7
高3.2
100
AcDbText
  0
TEXT
  5
906
330
36
100
AcDbEntity
  8
0
 62
     3
100
AcDbText
 10
-57.10194136950348
 20
-92.62463400000005
 30
0.0
 40
3.2
  1
50091
 41
0.8
  7
高3.2
100
AcDbText
  0
TEXT
  5
907
330
36
100
AcDbEntity
  8
0
 62
     3
100
AcDbText
 10
-57.10194136950348
 20
-102.624634
 30
0.0
 40
3.2
  1
51356
 41
0.8
  7
高3.2
100
AcDbText
  0
TEXT
  5
908
330
36
100
AcDbEntity
  8
0
 62
     3
100
AcDbText
 10
-57.10194136950348
 20
-112.624634
 30
0.0
 40
3.2
  1
50105
 41
0.8
  7
高3.2
100
AcDbText
  0
TEXT
  5
909
330
36
100
AcDbEntity
  8
0
 62
     3
100
AcDbText
 10
-57.10194136950348
 20
-117.624634
 30
0.0
 40
3.2
  1
51322
 41
0.8
  7
高3.2
100
AcDbText
  0
TEXT
  5
90A
330
36
100
AcDbEntity
  8
0
 62
     3
100
AcDbText
 10
-57.10194136950348
 20
-122.624634
 30
0.0
 40
3.2
  1
54271
 41
0.8
  7
高3.2
100
AcDbText
  0
TEXT
  5
90B
330
36
100
AcDbEntity
  8
0
 62
     3
100
AcDbText
 10
-57.10194136950348
 20
-137.624634
 30
0.0
 40
3.2
  1
50101
 41
0.8
  7
高3.2
100
AcDbText
  0
TEXT
  5
90C
330
36
100
AcDbEntity
  8
0
 62
     3
100
AcDbText
 10
-57.10194136950348
 20
-72.62463400000003
 30
0.0
 40
3.2
  1
51769
 41
0.8
  7
高3.2
100
AcDbText
  0
TEXT
  5
90D
330
36
100
AcDbEntity
  8
0
 62
     3
100
AcDbText
 10
-57.10194136950348
 20
-97.62463400000001
 30
0.0
 40
3.2
  1
51355
 41
0.8
  7
高3.2
100
AcDbText
  0
TEXT
  5
90E
330
36
100
AcDbEntity
  8
0
 62
     3
100
AcDbText
 10
-57.10194136950348
 20
-82.62463400000005
 30
0.0
 40
3.2
  1
51786
 41
0.8
  7
高3.2
100
AcDbText
  0
TEXT
  5
90F
330
36
100
AcDbEntity
  8
0
 62
     3
100
AcDbText
 10
-57.10194136950348
 20
-107.624634
 30
0.0
 40
3.2
  1
53819
 41
0.8
  7
高3.2
100
AcDbText
  0
TEXT
  5
910
330
36
100
AcDbEntity
  8
0
 62
     3
100
AcDbText
 10
-57.10194136950348
 20
-67.62463400000005
 30
0.0
 40
3.2
  1
55317
 41
0.8
  7
高3.2
100
AcDbText
  0
TEXT
  5
911
330
36
100
AcDbEntity
  8
0
 62
     3
100
AcDbText
 10
-42.10222797589039
 20
-142.624634
 30
0.0
 40
3.2
  1
コード番号名称
 41
0.6
  7
高3.2
100
AcDbText
  0
LINE
  5
912
330
36
100
AcDbEntity
  8
0
100
AcDbLine
 10
-43.60222797589037
 20
-143.124634
 30
0.0
 11
-43.60222797589037
 21
-58.12463400000005
 31
0.0
  0
TEXT
  5
913
330
36
100
AcDbEntity
  8
0
 62
     3
100
AcDbText
 10
-42.10222797589039
 20
-77.62463400000001
 30
0.0
 40
3.2
  1
新150V電圧メーター
 41
0.6
  7
高3.2
100
AcDbText
  0
TEXT
  5
914
330
36
100
AcDbEntity
  8
0
 62
     3
100
AcDbText
 10
-42.10222797589039
 20
-87.62463400000005
 30
0.0
 40
3.2
  1
押しボタンスイッチリード線付
 41
0.6
  7
高3.2
100
AcDbText
  0
TEXT
  5
915
330
36
100
AcDbEntity
  8
0
 62
     3
100
AcDbText
 10
-42.10222797589039
 20
-92.62463400000005
 30
0.0
 40
3.2
  1
アース金具黒メッキ
 41
0.6
  7
高3.2
100
AcDbText
  0
TEXT
  5
916
330
36
100
AcDbEntity
  8
0
 62
     3
100
AcDbText
 10
-42.10222797589039
 20
-102.624634
 30
0.0
 40
3.2
  1
2PE-W(アース付コンセント白)
 41
0.6
  7
高3.2
100
AcDbText
  0
TEXT
  5
917
330
36
100
AcDbEntity
  8
0
 62
     3
100
AcDbText
 10
-42.10222797589039
 20
-112.624634
 30
0.0
 40
3.2
  1
トラパックプロテクター
 41
0.6
  7
高3.2
100
AcDbText
  0
TEXT
  5
918
330
36
100
AcDbEntity
  8
0
 62
     3
100
AcDbText
 10
-42.10222797589039
 20
-117.624634
 30
0.0
 40
3.2
  1
VCT2x3x2.5M防雨型4Pプラグ付
 41
0.6
  7
高3.2
100
AcDbText
  0
TEXT
  5
919
330
36
100
AcDbEntity
  8
0
 62
     3
100
AcDbText
 10
-42.10222797589039
 20
-122.624634
 30
0.0
 40
3.2
  1
NTB-200D/EK200D兼用　上カバー
 41
0.6
  7
高3.2
100
AcDbText
  0
TEXT
  5
91A
330
36
100
AcDbEntity
  8
0
 62
     3
100
AcDbText
 10
-42.10222797589039
 20
-137.624634
 30
0.0
 40
3.2
  1
トラパック取手
 41
0.6
  7
高3.2
100
AcDbText
  0
TEXT
  5
91B
330
36
100
AcDbEntity
  8
0
 62
     3
100
AcDbText
 10
-42.10222797589039
 20
-72.62463400000003
 30
0.0
 40
3.2
  1
NV-L22K　15/15
 41
0.6
  7
高3.2
100
AcDbText
  0
TEXT
  5
91C
330
36
100
AcDbEntity
  8
0
 62
     3
100
AcDbText
 10
-42.10222797589039
 20
-97.62463400000001
 30
0.0
 40
3.2
  1
2PE-B(アース付コンセント黒)
 41
0.6
  7
高3.2
100
AcDbText
  0
TEXT
  5
91D
330
36
100
AcDbEntity
  8
0
 62
     3
100
AcDbText
 10
-42.10222797589039
 20
-82.62463400000005
 30
0.0
 40
3.2
  1
二重ランプ100V　びっく用
 41
0.6
  7
高3.2
100
AcDbText
  0
TEXT
  5
91E
330
36
100
AcDbEntity
  8
0
 62
     3
100
AcDbText
 10
-42.10222797589039
 20
-107.624634
 30
0.0
 40
3.2
  1
NTB/TBO/NTBO兼用　脚ゴム(ビス付)(1/5個)
 41
0.6
  7
高3.2
100
AcDbText
  0
TEXT
  5
91F
330
36
100
AcDbEntity
  8
0
 62
     3
100
AcDbText
 10
-42.10222797589039
 20
-67.62463400000005
 30
0.0
 40
3.2
  1
NTB-EK200D用　フロントパネル
 41
0.6
  7
高3.2
100
AcDbText
  0
CIRCLE
  5
98F
330
36
100
AcDbEntity
  8
0
100
AcDbCircle
 10
147.880138
 20
102.1580798381911
 30
0.0
 40
5.0
  0
TEXT
  5
990
330
36
100
AcDbEntity
  8
0
 62
     4
100
AcDbText
 10
145.6382935426788
 20
98.91971663424731
 30
0.0
 40
6.299999999999998
  1
2
  7
高6.3
100
AcDbText
  0
CIRCLE
  5
992
330
36
100
AcDbEntity
  8
0
100
AcDbCircle
 10
151.6347655258412
 20
64.84957507544561
 30
0.0
 40
5.0
  0
TEXT
  5
993
330
36
100
AcDbEntity
  8
0
 62
     4
100
AcDbText
 10
148.726302904351
 20
62.61627574896738
 30
0.0
 40
4.5
  1
16
  7
高4.5
100
AcDbText
  0
TEXT
  5
995
330
36
100
AcDbEntity
  8
0
 62
     3
100
AcDbText
 10
-106.5604556388889
 20
-132.624634
 30
0.0
 40
3.2
  1
黒
 41
0.8
  7
高3.2
100
AcDbText
  0
TEXT
  5
996
330
36
100
AcDbEntity
  8
0
 62
     3
100
AcDbText
 10
-130.17156675
 20
-132.624634
 30
0.0
 40
3.2
  1
PF樹脂
 41
0.8
  7
高3.2
100
AcDbText
  0
TEXT
  5
997
330
36
100
AcDbEntity
  8
0
 62
     3
100
AcDbText
 10
-137.9493445277777
 20
-132.624634
 30
0.0
 40
3.2
  1
2
 41
0.8
  7
高3.2
100
AcDbText
  0
TEXT
  5
998
330
36
100
AcDbEntity
  8
0
 62
     3
100
AcDbText
 10
-167.8660111944445
 20
-132.624634
 30
0.0
 40
3.2
  1
コードフック
 41
0.8
  7
高3.2
100
AcDbText
  0
TEXT
  5
999
330
36
100
AcDbEntity
  8
0
 62
     3
100
AcDbText
 10
-57.10194136950348
 20
-132.624634
 30
0.0
 40
3.2
  1
50519
 41
0.8
  7
高3.2
100
AcDbText
  0
TEXT
  5
99A
330
36
100
AcDbEntity
  8
0
 62
     3
100
AcDbText
 10
-42.10222797589039
 20
-132.624634
 30
0.0
 40
3.2
  1
トラパック用コードフック
 41
0.6
  7
高3.2
100
AcDbText
  0
TEXT
  5
99B
330
36
100
AcDbEntity
  8
0
 62
     3
100
AcDbText
 10
-175.111198
 20
-72.62463400000005
 30
0.0
 40
3.2
  1
14
 41
0.8
  7
高3.2
100
AcDbText
  0
LINE
  5
99D
330
36
100
AcDbEntity
  8
0
 62
     7
100
AcDbLine
 10
16.35054689719686
 20
-63.12463400000003
 30
0.0
 11
-176.611198
 21
-63.12463400000003
 31
0.0
  0
TEXT
  5
99E
330
36
100
AcDbEntity
  8
0
 62
     3
100
AcDbText
 10
-130.17156675
 20
-62.62463400000005
 30
0.0
 40
3.2
  1
SPCC
 41
0.8
  7
高3.2
100
AcDbText
  0
TEXT
  5
99F
330
36
100
AcDbEntity
  8
0
 62
     3
100
AcDbText
 10
-167.8660111944445
 20
-62.62463400000005
 30
0.0
 40
3.2
  1
バックパネル
 41
0.8
  7
高3.2
100
AcDbText
  0
TEXT
  5
9A0
330
36
100
AcDbEntity
  8
0
 62
     3
100
AcDbText
 10
-137.9493445277777
 20
-62.62463400000005
 30
0.0
 40
3.2
  1
1
 41
0.8
  7
高3.2
100
AcDbText
  0
TEXT
  5
9A1
330
36
100
AcDbEntity
  8
0
 62
     3
100
AcDbText
 10
-106.5604556388889
 20
-62.62463400000005
 30
0.0
 40
3.2
  1
-
 41
0.8
  7
高3.2
100
AcDbText
  0
TEXT
  5
9A2
330
36
100
AcDbEntity
  8
0
 62
     3
100
AcDbText
 10
-57.10194136950348
 20
-62.62463400000005
 30
0.0
 40
3.2
  1
55318
 41
0.8
  7
高3.2
100
AcDbText
  0
TEXT
  5
9A3
330
36
100
AcDbEntity
  8
0
 62
     3
100
AcDbText
 10
-42.10222797589039
 20
-62.62463400000005
 30
0.0
 40
3.2
  1
NTB-200D/EK200D用　バックパネル
 41
0.6
  7
高3.2
100
AcDbText
  0
TEXT
  5
9A4
330
36
100
AcDbEntity
  8
0
 62
     3
100
AcDbText
 10
-175.111198
 20
-67.62463400000005
 30
0.0
 40
3.2
  1
15
 41
0.8
  7
高3.2
100
AcDbText
  0
LINE
  5
9A5
330
36
100
AcDbEntity
  8
0
 62
     3
100
AcDbLine
 10
16.35054689719686
 20
-58.12463400000005
 30
0.0
 11
-176.611198
 21
-58.12463400000005
 31
0.0
  0
TEXT
  5
A86
330
36
100
AcDbEntity
  8
0
 62
     3
100
AcDbText
 10
-106.5604556388889
 20
-127.624634
 30
0.0
 40
3.2
  1
オレンジ塗装
 41
0.8
  7
高3.2
100
AcDbText
  0
TEXT
  5
A87
330
36
100
AcDbEntity
  8
0
 62
     3
100
AcDbText
 10
-130.17156675
 20
-127.624634
 30
0.0
 40
3.2
  1
SPCC
 41
0.8
  7
高3.2
100
AcDbText
  0
TEXT
  5
A88
330
36
100
AcDbEntity
  8
0
 62
     3
100
AcDbText
 10
-137.9493445277777
 20
-127.624634
 30
0.0
 40
3.2
  1
1式
 41
0.8
  7
高3.2
100
AcDbText
  0
TEXT
  5
A89
330
36
100
AcDbEntity
  8
0
 62
     3
100
AcDbText
 10
-167.8660111944445
 20
-127.624634
 30
0.0
 40
3.2
  1
シャーシ
 41
0.8
  7
高3.2
100
AcDbText
  0
LINE
  5
A8A
330
36
100
AcDbEntity
  8
0
100
AcDbLine
 10
16.35054689719686
 20
-128.124634
 30
0.0
 11
-176.611198
 21
-128.124634
 31
0.0
  0
TEXT
  5
A8B
330
36
100
AcDbEntity
  8
0
 62
     3
100
AcDbText
 10
-57.10194136950348
 20
-127.624634
 30
0.0
 40
3.2
  1
56187
 41
0.8
  7
高3.2
100
AcDbText
  0
TEXT
  5
A8C
330
36
100
AcDbEntity
  8
0
 62
     3
100
AcDbText
 10
-42.10222797589039
 20
-127.624634
 30
0.0
 40
3.2
  1
NTB-200D/EK200D兼用　シャーシ
 41
0.6
  7
高3.2
100
AcDbText
  0
TEXT
  5
A8E
330
36
100
AcDbEntity
  8
0
 62
     3
100
AcDbText
 10
-175.111198
 20
-62.62463400000005
 30
0.0
 40
3.2
  1
16
 41
0.8
  7
高3.2
100
AcDbText
  0
CIRCLE
  5
A93
330
36
100
AcDbEntity
  8
0
100
AcDbCircle
 10
97.59148975597156
 20
-13.177887
 30
0.0
 40
5.0
  0
TEXT
  5
A94
330
36
100
AcDbEntity
  8
0
 62
     4
100
AcDbText
 10
95.34964529865041
 20
-16.41625020394383
 30
0.0
 40
6.299999999999998
  1
3
  7
高6.3
100
AcDbText
  0
CIRCLE
  5
DE5
330
36
100
AcDbEntity
  8
0
100
AcDbCircle
 10
201.2930959669702
 20
12.6485156204258
 30
0.0
 40
5.0
  0
TEXT
  5
DE6
330
36
100
AcDbEntity
  8
0
 62
     4
100
AcDbText
 10
199.0986342764706
 20
9.752820830319819
 30
0.0
 40
6.299999999999998
  1
5
  7
高6.3
100
AcDbText
  0
ARC
  5
DE8
330
36
100
AcDbEntity
  8
0
 62
     3
100
AcDbCircle
 10
169.2480386084029
 20
53.77243359164777
 30
0.0
 40
2.0
100
AcDbArc
 50
90.0
 51
270.0
  0
ARC
  5
DE9
330
36
100
AcDbEntity
  8
0
 62
     3
100
AcDbCircle
 10
195.7480386084029
 20
53.77243359164777
 30
0.0
 40
2.0
100
AcDbArc
 50
270.0
 51
90.0
  0
LINE
  5
DEA
330
36
100
AcDbEntity
  8
0
 62
     3
100
AcDbLine
 10
169.2480386084029
 20
51.77243359164777
 30
0.0
 11
169.2480386084029
 21
49.27243359164777
 31
0.0
  0
LINE
  5
DEB
330
36
100
AcDbEntity
  8
0
 62
     3
100
AcDbLine
 10
195.7480386084029
 20
49.27243359164777
 30
0.0
 11
195.7480386084029
 21
51.77243359164777
 31
0.0
  0
LINE
  5
DEC
330
36
100
AcDbEntity
  8
0
 62
     3
100
AcDbLine
 10
169.2480386084029
 20
49.27243359164777
 30
0.0
 11
169.9980386084029
 21
47.77243359164788
 31
0.0
  0
LINE
  5
DED
330
36
100
AcDbEntity
  8
0
 62
     3
100
AcDbLine
 10
194.9980386084029
 20
47.77243359164788
 30
0.0
 11
195.7480386084029
 21
49.27243359164777
 31
0.0
  0
LINE
  5
DEE
330
36
100
AcDbEntity
  8
0
 62
     3
100
AcDbLine
 10
169.2480386084029
 20
57.27243359164777
 30
0.0
 11
169.2480386084029
 21
55.77243359164778
 31
0.0
  0
LINE
  5
DEF
330
36
100
AcDbEntity
  8
0
 62
     3
100
AcDbLine
 10
195.7480386084029
 20
55.77243359164778
 30
0.0
 11
195.7480386084029
 21
57.27243359164777
 31
0.0
  0
ARC
  5
DF0
330
36
100
AcDbEntity
  8
0
 62
     3
100
AcDbCircle
 10
182.4980386084029
 20
43.77243359164789
 30
0.0
 40
12.50000000000002
100
AcDbArc
 50
306.6531750701011
 51
334.1582287284891
  0
ARC
  5
DF1
330
36
100
AcDbEntity
  8
0
 62
     3
100
AcDbCircle
 10
182.4980386084029
 20
43.77243359164789
 30
0.0
 40
12.50000000000001
100
AcDbArc
 50
205.8417712364031
 51
233.3468249299153
  0
ARC
  5
DF2
330
36
100
AcDbEntity
  8
0
 62
     3
100
AcDbCircle
 10
172.648038608403
 20
30.53508113732381
 30
0.0
 40
4.0
100
AcDbArc
 50
0.0
 51
53.34682492991523
  0
ARC
  5
DF3
330
36
100
AcDbEntity
  8
0
 62
     3
100
AcDbCircle
 10
192.3480386084028
 20
30.53508113732381
 30
0.0
 40
4.0
100
AcDbArc
 50
126.6531750700847
 51
180.0
  0
ARC
  5
DF4
330
36
100
AcDbEntity
  8
0
 62
     3
100
AcDbCircle
 10
177.4224781088263
 20
22.24057961038194
 30
0.0
 40
2.174439500423603
100
AcDbArc
 50
110.8643046745889
 51
244.8405244688164
  0
ARC
  5
DF5
330
36
100
AcDbEntity
  8
0
 62
     3
100
AcDbCircle
 10
187.5735991079792
 20
22.24057961038194
 30
0.0
 40
2.174439500423597
100
AcDbArc
 50
295.1594755311836
 51
69.13569532541105
  0
LINE
  5
DF6
330
36
100
AcDbEntity
  8
0
 62
     3
100
AcDbLine
 10
176.4980386084029
 20
20.27243359164778
 30
0.0
 11
176.4980386084029
 21
18.77243359164789
 31
0.0
  0
LINE
  5
DF7
330
36
100
AcDbEntity
  8
0
 62
     3
100
AcDbLine
 10
188.4980386084029
 20
18.77243359164789
 30
0.0
 11
188.4980386084029
 21
20.27243359164778
 31
0.0
  0
LINE
  5
DF8
330
36
100
AcDbEntity
  8
0
 62
     3
100
AcDbLine
 10
176.648038608403
 20
30.53508113732381
 30
0.0
 11
176.648038608403
 21
24.27243359164778
 31
0.0
  0
LINE
  5
DF9
330
36
100
AcDbEntity
  8
0
 62
     3
100
AcDbLine
 10
188.3480386084028
 20
24.27243359164778
 30
0.0
 11
188.3480386084028
 21
30.53508113732381
 31
0.0
  0
LINE
  5
DFA
330
36
100
AcDbEntity
  8
0
 62
     3
100
AcDbLine
 10
177.6230386084029
 20
18.77243359164789
 30
0.0
 11
177.9850043598816
 21
5.259045536437845
 31
0.0
  0
LINE
  5
DFB
330
36
100
AcDbEntity
  8
0
 62
     3
100
AcDbLine
 10
187.011072856924
 20
5.259045536437845
 30
0.0
 11
187.3730386084029
 21
18.77243359164789
 31
0.0
  0
ARC
  5
DFC
330
36
100
AcDbEntity
  8
0
 62
     3
100
AcDbCircle
 10
186.5112521290847
 20
5.272433591647775
 30
0.0
 40
0.5
100
AcDbArc
 50
270.0
 51
358.4656585003048
  0
ARC
  5
DFD
330
36
100
AcDbEntity
  8
0
 62
     3
100
AcDbCircle
 10
178.4848250877208
 20
5.272433591647775
 30
0.0
 40
0.5
100
AcDbArc
 50
181.5343414996951
 51
270.0
  0
LINE
  5
DFE
330
36
100
AcDbEntity
  8
0
 62
     3
100
AcDbLine
 10
195.7480386084029
 20
55.77243359164778
 30
0.0
 11
169.2480386084029
 21
55.77243359164778
 31
0.0
  0
LINE
  5
DFF
330
36
100
AcDbEntity
  8
0
 62
     3
100
AcDbLine
 10
169.2480386084029
 20
51.77243359164777
 30
0.0
 11
195.7480386084029
 21
51.77243359164777
 31
0.0
  0
LINE
  5
E00
330
36
100
AcDbEntity
  8
0
 62
     3
100
AcDbLine
 10
169.2480386084029
 20
49.27243359164777
 30
0.0
 11
195.7480386084029
 21
49.27243359164777
 31
0.0
  0
LINE
  5
E01
330
36
100
AcDbEntity
  8
0
 62
     3
100
AcDbLine
 10
169.9980386084029
 20
47.77243359164788
 30
0.0
 11
194.9980386084029
 21
47.77243359164788
 31
0.0
  0
LINE
  5
E02
330
36
100
AcDbEntity
  8
0
 62
     3
100
AcDbLine
 10
195.7480386084029
 20
57.27243359164777
 30
0.0
 11
169.2480386084029
 21
57.27243359164777
 31
0.0
  0
LINE
  5
E03
330
36
100
AcDbEntity
  8
0
 62
     3
100
AcDbLine
 10
176.648038608403
 20
24.27243359164778
 30
0.0
 11
188.3480386084026
 21
24.27243359164778
 31
0.0
  0
LINE
  5
E04
330
36
100
AcDbEntity
  8
0
 62
     3
100
AcDbLine
 10
176.4980386084029
 20
20.27243359164778
 30
0.0
 11
188.4980386084027
 21
20.27243359164772
 31
0.0
  0
LINE
  5
E05
330
36
100
AcDbEntity
  8
0
 62
     3
100
AcDbLine
 10
182.9980386084029
 20
67.77243359164777
 30
0.0
 11
182.8480386084028
 21
68.77243359164777
 31
0.0
  0
LINE
  5
E06
330
36
100
AcDbEntity
  8
0
 62
     3
100
AcDbLine
 10
182.148038608403
 20
68.77243359164777
 30
0.0
 11
181.9980386084029
 21
67.77243359164777
 31
0.0
  0
LINE
  5
E07
330
36
100
AcDbEntity
  8
0
 62
     3
100
AcDbLine
 10
182.148038608403
 20
68.77243359164777
 30
0.0
 11
182.8480386084028
 21
68.77243359164777
 31
0.0
  0
LINE
  5
E08
330
36
100
AcDbEntity
  8
0
 62
     3
100
AcDbLine
 10
181.9980386084029
 20
57.27243359164777
 30
0.0
 11
181.9980386084029
 21
67.77243359164777
 31
0.0
  0
LINE
  5
E09
330
36
100
AcDbEntity
  8
0
 62
     3
100
AcDbLine
 10
182.9980386084029
 20
67.77243359164777
 30
0.0
 11
182.9980386084029
 21
57.27243359164777
 31
0.0
  0
LINE
  5
E0A
330
36
100
AcDbEntity
  8
0
 62
     3
100
AcDbLine
 10
176.4980386084029
 20
18.77243359164789
 30
0.0
 11
188.4980386084029
 21
18.77243359164789
 31
0.0
  0
LINE
  5
E0B
330
36
100
AcDbEntity
  8
0
 62
     3
100
AcDbLine
 10
181.7480386084029
 20
9.472433591647821
 30
0.0
 11
177.9333497114718
 21
9.472433591647821
 31
0.0
  0
LINE
  5
E0C
330
36
100
AcDbEntity
  8
0
 62
     3
100
AcDbLine
 10
177.9767869721389
 20
7.872433591647798
 30
0.0
 11
177.9333497114718
 21
9.472433591647821
 31
0.0
  0
LINE
  5
E0D
330
36
100
AcDbEntity
  8
0
 62
     3
100
AcDbLine
 10
177.9767869721389
 20
7.872433591647798
 30
0.0
 11
181.7480386084029
 21
7.872433591647912
 31
0.0
  0
LINE
  5
E0E
330
36
100
AcDbEntity
  8
0
 62
     3
100
AcDbLine
 10
181.7480386084029
 20
7.872433591647912
 30
0.0
 11
181.7480386084029
 21
9.472433591647821
 31
0.0
  0
LINE
  5
E0F
330
36
100
AcDbEntity
  8
0
 62
     3
100
AcDbLine
 10
183.2480386084029
 20
10.97243359164782
 30
0.0
 11
187.1034400650113
 21
10.97243359164782
 31
0.0
  0
LINE
  5
E10
330
36
100
AcDbEntity
  8
0
 62
     3
100
AcDbLine
 10
187.1468565539475
 20
12.57243359164784
 30
0.0
 11
187.1034400650113
 21
10.97243359164782
 31
0.0
  0
LINE
  5
E11
330
36
100
AcDbEntity
  8
0
 62
     3
100
AcDbLine
 10
187.1468565539475
 20
12.57243359164784
 30
0.0
 11
183.2480386084029
 21
12.57243359164784
 31
0.0
  0
LINE
  5
E12
330
36
100
AcDbEntity
  8
0
 62
     3
100
AcDbLine
 10
183.2480386084029
 20
12.57243359164784
 30
0.0
 11
183.2480386084029
 21
10.97243359164782
 31
0.0
  0
LINE
  5
E13
330
36
100
AcDbEntity
  8
0
 62
     3
100
AcDbLine
 10
183.2480386084029
 20
7.872433591647912
 30
0.0
 11
187.0192902446666
 21
7.872433591647798
 31
0.0
  0
LINE
  5
E14
330
36
100
AcDbEntity
  8
0
 62
     3
100
AcDbLine
 10
187.0627275053338
 20
9.472433591647821
 30
0.0
 11
187.0192902446666
 21
7.872433591647798
 31
0.0
  0
LINE
  5
E15
330
36
100
AcDbEntity
  8
0
 62
     3
100
AcDbLine
 10
187.0627275053338
 20
9.472433591647821
 30
0.0
 11
183.2480386084029
 21
9.472433591647821
 31
0.0
  0
LINE
  5
E16
330
36
100
AcDbEntity
  8
0
 62
     3
100
AcDbLine
 10
183.2480386084029
 20
9.472433591647821
 30
0.0
 11
183.2480386084029
 21
7.872433591647912
 31
0.0
  0
LINE
  5
E17
330
36
100
AcDbEntity
  8
0
 62
     3
100
AcDbLine
 10
183.2480386084029
 20
18.77243359164789
 30
0.0
 11
183.2480386084029
 21
17.17243359164786
 31
0.0
  0
LINE
  5
E18
330
36
100
AcDbEntity
  8
0
 62
     3
100
AcDbLine
 10
183.2480386084029
 20
17.17243359164786
 30
0.0
 11
187.2716226489155
 21
17.17243359164786
 31
0.0
  0
LINE
  5
E19
330
36
100
AcDbEntity
  8
0
 62
     3
100
AcDbLine
 10
187.2716226489155
 20
17.17243359164786
 30
0.0
 11
187.3150008254023
 21
18.77243359164789
 31
0.0
  0
LINE
  5
E1A
330
36
100
AcDbEntity
  8
0
 62
     3
100
AcDbLine
 10
177.7244545678903
 20
17.17243359164786
 30
0.0
 11
177.6810763914035
 21
18.77243359164789
 31
0.0
  0
LINE
  5
E1B
330
36
100
AcDbEntity
  8
0
 62
     3
100
AcDbLine
 10
177.7244545678903
 20
17.17243359164786
 30
0.0
 11
181.7480386084029
 21
17.17243359164786
 31
0.0
  0
LINE
  5
E1C
330
36
100
AcDbEntity
  8
0
 62
     3
100
AcDbLine
 10
181.7480386084029
 20
17.17243359164786
 30
0.0
 11
181.7480386084029
 21
18.77243359164789
 31
0.0
  0
LINE
  5
E1D
330
36
100
AcDbEntity
  8
0
 62
     3
100
AcDbLine
 10
181.7480386084029
 20
14.07243359164784
 30
0.0
 11
181.7480386084029
 21
15.67243359164787
 31
0.0
  0
LINE
  5
E1E
330
36
100
AcDbEntity
  8
0
 62
     3
100
AcDbLine
 10
181.7480386084029
 20
15.67243359164787
 30
0.0
 11
177.7651302302951
 21
15.67243359164787
 31
0.0
  0
LINE
  5
E1F
330
36
100
AcDbEntity
  8
0
 62
     3
100
AcDbLine
 10
177.8085270502193
 20
14.07243359164784
 30
0.0
 11
177.7651302302951
 21
15.67243359164787
 31
0.0
  0
LINE
  5
E20
330
36
100
AcDbEntity
  8
0
 62
     3
100
AcDbLine
 10
177.8085270502193
 20
14.07243359164784
 30
0.0
 11
181.7480386084029
 21
14.07243359164784
 31
0.0
  0
LINE
  5
E21
330
36
100
AcDbEntity
  8
0
 62
     3
100
AcDbLine
 10
183.2480386084029
 20
14.07243359164784
 30
0.0
 11
187.1875501665862
 21
14.07243359164784
 31
0.0
  0
LINE
  5
E22
330
36
100
AcDbEntity
  8
0
 62
     3
100
AcDbLine
 10
187.2309469865105
 20
15.67243359164787
 30
0.0
 11
187.1875501665862
 21
14.07243359164784
 31
0.0
  0
LINE
  5
E23
330
36
100
AcDbEntity
  8
0
 62
     3
100
AcDbLine
 10
187.2309469865105
 20
15.67243359164787
 30
0.0
 11
183.2480386084029
 21
15.67243359164787
 31
0.0
  0
LINE
  5
E24
330
36
100
AcDbEntity
  8
0
 62
     3
100
AcDbLine
 10
183.2480386084029
 20
15.67243359164787
 30
0.0
 11
183.2480386084029
 21
14.07243359164784
 31
0.0
  0
LINE
  5
E25
330
36
100
AcDbEntity
  8
0
 62
     3
100
AcDbLine
 10
181.7480386084029
 20
12.57243359164784
 30
0.0
 11
177.8492206628583
 21
12.57243359164784
 31
0.0
  0
LINE
  5
E26
330
36
100
AcDbEntity
  8
0
 62
     3
100
AcDbLine
 10
177.8926371517945
 20
10.97243359164782
 30
0.0
 11
177.8492206628583
 21
12.57243359164784
 31
0.0
  0
LINE
  5
E27
330
36
100
AcDbEntity
  8
0
 62
     3
100
AcDbLine
 10
177.8926371517945
 20
10.97243359164782
 30
0.0
 11
181.7480386084029
 21
10.97243359164782
 31
0.0
  0
LINE
  5
E28
330
36
100
AcDbEntity
  8
0
 62
     3
100
AcDbLine
 10
181.7480386084029
 20
10.97243359164782
 30
0.0
 11
181.7480386084029
 21
12.57243359164784
 31
0.0
  0
LINE
  5
E29
330
36
100
AcDbEntity
  8
0
 62
     3
100
AcDbLine
 10
186.5112521290847
 20
4.772433591647775
 30
0.0
 11
178.4848250877208
 21
4.772433591647775
 31
0.0
  0
LINE
  5
E2A
330
36
100
AcDbEntity
  8
0
 62
     3
100
AcDbLine
 10
179.6449700848655
 20
9.472433591647821
 30
0.0
 11
179.6449700848655
 21
7.872433591647798
 31
0.0
  0
LINE
  5
E2B
330
36
100
AcDbEntity
  8
0
 62
     3
100
AcDbLine
 10
185.3511071319402
 20
10.97243359164782
 30
0.0
 11
185.3511071319402
 21
12.57243359164784
 31
0.0
  0
LINE
  5
E2C
330
36
100
AcDbEntity
  8
0
 62
     3
100
AcDbLine
 10
185.3511071319402
 20
7.872433591647798
 30
0.0
 11
185.3511071319402
 21
9.472433591647821
 31
0.0
  0
LINE
  5
E2D
330
36
100
AcDbEntity
  8
0
 62
     3
100
AcDbLine
 10
179.6449700848655
 20
18.77243359164789
 30
0.0
 11
179.6449700848655
 21
17.17243359164786
 31
0.0
  0
LINE
  5
E2E
330
36
100
AcDbEntity
  8
0
 62
     3
100
AcDbLine
 10
179.6449700848655
 20
15.67243359164787
 30
0.0
 11
179.6449700848655
 21
14.07243359164784
 31
0.0
  0
LINE
  5
E2F
330
36
100
AcDbEntity
  8
0
 62
     3
100
AcDbLine
 10
185.3511071319402
 20
14.07243359164784
 30
0.0
 11
185.3511071319402
 21
15.67243359164787
 31
0.0
  0
LINE
  5
E30
330
36
100
AcDbEntity
  8
0
 62
     3
100
AcDbLine
 10
179.6449700848655
 20
12.57243359164784
 30
0.0
 11
179.6449700848655
 21
10.97243359164782
 31
0.0
  0
LINE
  5
E31
330
36
100
AcDbEntity
  8
0
 62
     3
100
AcDbLine
 10
185.3511071319402
 20
18.77243359164789
 30
0.0
 11
185.3511071319402
 21
17.17243359164786
 31
0.0
  0
LINE
  5
E32
330
36
100
AcDbEntity
  8
0
 62
     3
100
AcDbLine
 10
187.148038608403
 20
65.77243359164777
 30
0.0
 11
187.148038608403
 21
57.32243359164773
 31
0.0
  0
LINE
  5
E33
330
36
100
AcDbEntity
  8
0
 62
     3
100
AcDbLine
 10
188.148038608403
 20
65.77243359164777
 30
0.0
 11
187.148038608403
 21
65.77243359164777
 31
0.0
  0
LINE
  5
E34
330
36
100
AcDbEntity
  8
0
 62
     3
100
AcDbLine
 10
188.148038608403
 20
65.77243359164777
 30
0.0
 11
188.148038608403
 21
57.27243359164789
 31
0.0
  0
LINE
  5
E35
330
36
100
AcDbEntity
  8
0
 62
     3
100
AcDbLine
 10
188.148038608403
 20
66.27243359164777
 30
0.0
 11
187.9980386084029
 21
67.27243359164777
 31
0.0
  0
LINE
  5
E36
330
36
100
AcDbEntity
  8
0
 62
     3
100
AcDbLine
 10
187.2980386084028
 20
67.27243359164777
 30
0.0
 11
187.148038608403
 21
66.27243359164777
 31
0.0
  0
LINE
  5
E37
330
36
100
AcDbEntity
  8
0
 62
     3
100
AcDbLine
 10
187.2980386084028
 20
67.27243359164777
 30
0.0
 11
187.9980386084029
 21
67.27243359164777
 31
0.0
  0
LINE
  5
E38
330
36
100
AcDbEntity
  8
0
 62
     3
100
AcDbLine
 10
187.148038608403
 20
65.77243359164777
 30
0.0
 11
187.148038608403
 21
66.27243359164777
 31
0.0
  0
LINE
  5
E39
330
36
100
AcDbEntity
  8
0
 62
     3
100
AcDbLine
 10
188.148038608403
 20
66.27243359164777
 30
0.0
 11
188.148038608403
 21
65.77243359164777
 31
0.0
  0
LINE
  5
E3A
330
36
100
AcDbEntity
  8
0
 62
     3
100
AcDbLine
 10
176.8480386084028
 20
65.77243359164777
 30
0.0
 11
176.8480386084028
 21
57.27243359164789
 31
0.0
  0
LINE
  5
E3B
330
36
100
AcDbEntity
  8
0
 62
     3
100
AcDbLine
 10
177.8480386084028
 20
65.77243359164777
 30
0.0
 11
176.8480386084028
 21
65.77243359164777
 31
0.0
  0
LINE
  5
E3C
330
36
100
AcDbEntity
  8
0
 62
     3
100
AcDbLine
 10
177.8480386084028
 20
65.77243359164777
 30
0.0
 11
177.8480386084028
 21
57.32243359164773
 31
0.0
  0
LINE
  5
E3D
330
36
100
AcDbEntity
  8
0
 62
     3
100
AcDbLine
 10
177.8480386084028
 20
66.27243359164777
 30
0.0
 11
177.6980386084027
 21
67.27243359164777
 31
0.0
  0
LINE
  5
E3E
330
36
100
AcDbEntity
  8
0
 62
     3
100
AcDbLine
 10
176.9980386084029
 20
67.27243359164777
 30
0.0
 11
176.8480386084028
 21
66.27243359164777
 31
0.0
  0
LINE
  5
E3F
330
36
100
AcDbEntity
  8
0
 62
     3
100
AcDbLine
 10
176.9980386084029
 20
67.27243359164777
 30
0.0
 11
177.6980386084027
 21
67.27243359164777
 31
0.0
  0
LINE
  5
E40
330
36
100
AcDbEntity
  8
0
 62
     3
100
AcDbLine
 10
176.8480386084028
 20
65.77243359164777
 30
0.0
 11
176.8480386084028
 21
66.27243359164777
 31
0.0
  0
LINE
  5
E41
330
36
100
AcDbEntity
  8
0
 62
     3
100
AcDbLine
 10
177.8480386084028
 20
66.27243359164777
 30
0.0
 11
177.8480386084028
 21
65.77243359164777
 31
0.0
  0
LINE
  5
E42
330
36
100
AcDbEntity
  8
0
 62
     3
100
AcDbLine
 10
184.4980386084029
 20
65.77243359164777
 30
0.0
 11
184.4980386084029
 21
57.32243359164796
 31
0.0
  0
LINE
  5
E43
330
36
100
AcDbEntity
  8
0
 62
     3
100
AcDbLine
 10
180.4980386084029
 20
65.77243359164777
 30
0.0
 11
180.4980386084029
 21
57.32243359164796
 31
0.0
  0
LINE
  5
E44
330
36
100
AcDbEntity
  8
0
 62
     3
100
AcDbLine
 10
180.7480386084029
 20
66.27243359164777
 30
0.0
 11
180.4980386084029
 21
65.77243359164777
 31
0.0
  0
LINE
  5
E45
330
36
100
AcDbEntity
  8
0
 62
     3
100
AcDbLine
 10
184.2480386084029
 20
66.27243359164777
 30
0.0
 11
182.9980386084029
 21
66.27243359164777
 31
0.0
  0
LINE
  5
E46
330
36
100
AcDbEntity
  8
0
 62
     3
100
AcDbLine
 10
181.9980386084029
 20
66.27243359164777
 30
0.0
 11
180.7480386084029
 21
66.27243359164777
 31
0.0
  0
LINE
  5
E47
330
36
100
AcDbEntity
  8
0
 62
     3
100
AcDbLine
 10
184.4980386084029
 20
65.77243359164777
 30
0.0
 11
184.2480386084029
 21
66.27243359164777
 31
0.0
  0
LINE
  5
E48
330
36
100
AcDbEntity
  8
0
 62
     3
100
AcDbLine
 10
181.2480386084029
 20
67.27243359164777
 30
0.0
 11
181.9980386084029
 21
67.27243359164777
 31
0.0
  0
LINE
  5
E49
330
36
100
AcDbEntity
  8
0
 62
     3
100
AcDbLine
 10
182.9980386084029
 20
67.27243359164777
 30
0.0
 11
183.7480386084029
 21
67.27243359164777
 31
0.0
  0
LINE
  5
E4A
330
36
100
AcDbEntity
  8
0
 62
     3
100
AcDbLine
 10
180.7480386084029
 20
66.27243359164777
 30
0.0
 11
181.2480386084029
 21
67.27243359164777
 31
0.0
  0
LINE
  5
E4B
330
36
100
AcDbEntity
  8
0
 62
     3
100
AcDbLine
 10
183.7480386084029
 20
67.27243359164777
 30
0.0
 11
184.2480386084029
 21
66.27243359164777
 31
0.0
  0
LINE
  5
E4C
330
36
100
AcDbEntity
  8
0
 62
     3
100
AcDbLine
 10
171.2480232478307
 20
38.32384162794907
 30
0.0
 11
171.2480232478307
 21
47.77243359164788
 31
0.0
  0
LINE
  5
E4D
330
36
100
AcDbEntity
  8
0
 62
     3
100
AcDbLine
 10
193.7480539656363
 20
38.32384162105629
 30
0.0
 11
193.7480539656368
 21
47.77243359164788
 31
0.0
  0
LINE
  5
E4E
330
36
100
AcDbEntity
  8
0
 62
     7
100
AcDbLine
 10
188.1480386084027
 20
84.01716206217532
 30
0.0
 11
187.1480386084027
 21
84.01716206217532
 31
0.0
  0
LINE
  5
E4F
330
36
100
AcDbEntity
  8
0
 62
     7
100
AcDbLine
 10
187.9980386084038
 20
84.16716206217532
 30
0.0
 11
187.2980386084037
 21
84.16716206217532
 31
0.0
  0
LINE
  5
E50
330
36
100
AcDbEntity
  8
0
 62
     7
100
AcDbLine
 10
177.8480386084028
 20
84.01716206217532
 30
0.0
 11
176.8480386084028
 21
84.01716206217532
 31
0.0
  0
LINE
  5
E51
330
36
100
AcDbEntity
  8
0
 62
     7
100
AcDbLine
 10
177.6980386084027
 20
84.16716206217532
 30
0.0
 11
176.9980386084029
 21
84.16716206217532
 31
0.0
  0
LINE
  5
E52
330
36
100
AcDbEntity
  8
0
 62
     7
100
AcDbLine
 10
188.1480386084027
 20
88.01716206217532
 30
0.0
 11
187.1480386084027
 21
88.01716206217532
 31
0.0
  0
LINE
  5
E53
330
36
100
AcDbEntity
  8
0
 62
     7
100
AcDbLine
 10
187.9980386084038
 20
87.86716206217533
 30
0.0
 11
187.2980386084037
 21
87.86716206217533
 31
0.0
  0
LINE
  5
E54
330
36
100
AcDbEntity
  8
0
 62
     7
100
AcDbLine
 10
177.8480386084028
 20
88.01716206217532
 30
0.0
 11
176.8480386084028
 21
88.01716206217532
 31
0.0
  0
LINE
  5
E55
330
36
100
AcDbEntity
  8
0
 62
     7
100
AcDbLine
 10
177.6980386084027
 20
87.86716206217533
 30
0.0
 11
176.9980386084029
 21
87.86716206217533
 31
0.0
  0
LINE
  5
E56
330
36
100
AcDbEntity
  8
0
 62
     7
100
AcDbLine
 10
184.4980386084029
 20
90.66716206217533
 30
0.0
 11
180.4980386084029
 21
90.66716206217533
 31
0.0
  0
LINE
  5
E57
330
36
100
AcDbEntity
  8
0
 62
     7
100
AcDbLine
 10
184.3480386084028
 20
90.81716206217524
 30
0.0
 11
180.6480386084027
 21
90.81716206217524
 31
0.0
  0
LINE
  5
E58
330
36
100
AcDbEntity
  8
0
 62
     7
100
AcDbLine
 10
184.4980386084029
 20
91.66716206217527
 30
0.0
 11
180.4980386084029
 21
91.66716206217527
 31
0.0
  0
LINE
  5
E59
330
36
100
AcDbEntity
  8
0
 62
     7
100
AcDbLine
 10
184.3480386084028
 20
91.51716206217527
 30
0.0
 11
180.6480386084027
 21
91.51716206217527
 31
0.0
  0
LINE
  5
E5A
330
36
100
AcDbEntity
  8
0
 62
     7
100
AcDbLine
 10
182.9980386084029
 20
79.26716206217526
 30
0.0
 11
181.9980386084029
 21
79.26716206217526
 31
0.0
  0
LINE
  5
E5B
330
36
100
AcDbEntity
  8
0
 62
     7
100
AcDbLine
 10
182.8480386084028
 20
79.41716206217527
 30
0.0
 11
182.1480386084028
 21
79.41716206217527
 31
0.0
  0
LINE
  5
E5C
330
36
100
AcDbEntity
  8
0
 62
     7
100
AcDbLine
 10
182.9980386084029
 20
83.26716206217525
 30
0.0
 11
181.9980386084029
 21
83.26716206217525
 31
0.0
  0
LINE
  5
E5D
330
36
100
AcDbEntity
  8
0
 62
     7
100
AcDbLine
 10
182.8480386084028
 20
83.11716206217525
 30
0.0
 11
182.1480386084028
 21
83.11716206217525
 31
0.0
  0
LINE
  5
E5E
330
36
100
AcDbEntity
  8
0
 62
     7
100
AcDbLine
 10
180.4980386084029
 20
90.66716206217533
 30
0.0
 11
180.4980386084029
 21
91.66716206217527
 31
0.0
  0
LINE
  5
E5F
330
36
100
AcDbEntity
  8
0
 62
     7
100
AcDbLine
 10
180.6480386084027
 20
90.81716206217524
 30
0.0
 11
180.6480386084027
 21
91.51716206217527
 31
0.0
  0
LINE
  5
E60
330
36
100
AcDbEntity
  8
0
 62
     7
100
AcDbLine
 10
184.4980386084029
 20
90.66716206217533
 30
0.0
 11
184.4980386084029
 21
91.66716206217527
 31
0.0
  0
LINE
  5
E61
330
36
100
AcDbEntity
  8
0
 62
     7
100
AcDbLine
 10
184.3480386084028
 20
90.81716206217524
 30
0.0
 11
184.3480386084028
 21
91.51716206217527
 31
0.0
  0
LINE
  5
E62
330
36
100
AcDbEntity
  8
0
 62
     7
100
AcDbLine
 10
181.9980386084029
 20
79.26716206217526
 30
0.0
 11
181.9980386084029
 21
83.26716206217525
 31
0.0
  0
LINE
  5
E63
330
36
100
AcDbEntity
  8
0
 62
     7
100
AcDbLine
 10
182.1480386084028
 20
79.41716206217527
 30
0.0
 11
182.1480386084028
 21
83.11716206217525
 31
0.0
  0
LINE
  5
E64
330
36
100
AcDbEntity
  8
0
 62
     7
100
AcDbLine
 10
182.9980386084029
 20
79.26716206217526
 30
0.0
 11
182.9980386084029
 21
83.26716206217525
 31
0.0
  0
LINE
  5
E65
330
36
100
AcDbEntity
  8
0
 62
     7
100
AcDbLine
 10
182.8480386084028
 20
79.41716206217527
 30
0.0
 11
182.8480386084028
 21
83.11716206217525
 31
0.0
  0
LINE
  5
E66
330
36
100
AcDbEntity
  8
0
 62
     7
100
AcDbLine
 10
176.8480386084028
 20
84.01716206217532
 30
0.0
 11
176.8480386084028
 21
88.01716206217532
 31
0.0
  0
LINE
  5
E67
330
36
100
AcDbEntity
  8
0
 62
     7
100
AcDbLine
 10
176.9980386084029
 20
84.16716206217532
 30
0.0
 11
176.9980386084029
 21
87.86716206217533
 31
0.0
  0
LINE
  5
E68
330
36
100
AcDbEntity
  8
0
 62
     7
100
AcDbLine
 10
177.8480386084028
 20
84.01716206217532
 30
0.0
 11
177.8480386084028
 21
88.01716206217532
 31
0.0
  0
LINE
  5
E69
330
36
100
AcDbEntity
  8
0
 62
     7
100
AcDbLine
 10
177.6980386084027
 20
84.16716206217532
 30
0.0
 11
177.6980386084027
 21
87.86716206217533
 31
0.0
  0
LINE
  5
E6A
330
36
100
AcDbEntity
  8
0
 62
     7
100
AcDbLine
 10
187.1480386084027
 20
84.01716206217532
 30
0.0
 11
187.1480386084027
 21
88.01716206217532
 31
0.0
  0
LINE
  5
E6B
330
36
100
AcDbEntity
  8
0
 62
     7
100
AcDbLine
 10
187.2980386084037
 20
84.16716206217532
 30
0.0
 11
187.2980386084037
 21
87.86716206217533
 31
0.0
  0
LINE
  5
E6C
330
36
100
AcDbEntity
  8
0
 62
     7
100
AcDbLine
 10
188.1480386084027
 20
84.01716206217532
 30
0.0
 11
188.1480386084027
 21
88.01716206217532
 31
0.0
  0
LINE
  5
E6D
330
36
100
AcDbEntity
  8
0
 62
     7
100
AcDbLine
 10
187.9980386084038
 20
84.16716206217532
 30
0.0
 11
187.9980386084029
 21
87.86716206217533
 31
0.0
  0
LINE
  5
E6E
330
36
100
AcDbEntity
  8
0
 62
     7
100
AcDbLine
 10
177.6980386084027
 20
87.86716206217533
 30
0.0
 11
177.8480386084028
 21
88.01716206217532
 31
0.0
  0
LINE
  5
E6F
330
36
100
AcDbEntity
  8
0
 62
     7
100
AcDbLine
 10
176.9980386084029
 20
87.86716206217533
 30
0.0
 11
176.8480386084028
 21
88.01716206217532
 31
0.0
  0
LINE
  5
E70
330
36
100
AcDbEntity
  8
0
 62
     7
100
AcDbLine
 10
176.9980386084029
 20
84.16716206217532
 30
0.0
 11
176.8480386084028
 21
84.01716206217532
 31
0.0
  0
LINE
  5
E71
330
36
100
AcDbEntity
  8
0
 62
     7
100
AcDbLine
 10
177.6980386084027
 20
84.16716206217532
 30
0.0
 11
177.8480386084028
 21
84.01716206217532
 31
0.0
  0
LINE
  5
E72
330
36
100
AcDbEntity
  8
0
 62
     7
100
AcDbLine
 10
182.1480386084028
 20
83.11716206217525
 30
0.0
 11
181.9980386084029
 21
83.26716206217525
 31
0.0
  0
LINE
  5
E73
330
36
100
AcDbEntity
  8
0
 62
     7
100
AcDbLine
 10
182.8480386084028
 20
83.11716206217525
 30
0.0
 11
182.9980386084029
 21
83.26716206217525
 31
0.0
  0
LINE
  5
E74
330
36
100
AcDbEntity
  8
0
 62
     7
100
AcDbLine
 10
182.1480386084028
 20
79.41716206217527
 30
0.0
 11
181.9980386084029
 21
79.26716206217526
 31
0.0
  0
LINE
  5
E75
330
36
100
AcDbEntity
  8
0
 62
     7
100
AcDbLine
 10
182.8480386084028
 20
79.41716206217527
 30
0.0
 11
182.9980386084029
 21
79.26716206217526
 31
0.0
  0
LINE
  5
E76
330
36
100
AcDbEntity
  8
0
 62
     7
100
AcDbLine
 10
187.2980386084037
 20
84.16716206217532
 30
0.0
 11
187.1480386084027
 21
84.01716206217532
 31
0.0
  0
LINE
  5
E77
330
36
100
AcDbEntity
  8
0
 62
     7
100
AcDbLine
 10
187.9980386084038
 20
84.16716206217532
 30
0.0
 11
188.1480386084027
 21
84.01716206217532
 31
0.0
  0
LINE
  5
E78
330
36
100
AcDbEntity
  8
0
 62
     7
100
AcDbLine
 10
187.9980386084038
 20
87.86716206217533
 30
0.0
 11
188.1480386084027
 21
88.01716206217532
 31
0.0
  0
LINE
  5
E79
330
36
100
AcDbEntity
  8
0
 62
     7
100
AcDbLine
 10
187.2980386084037
 20
87.86716206217533
 30
0.0
 11
187.1480386084027
 21
88.01716206217532
 31
0.0
  0
LINE
  5
E7A
330
36
100
AcDbEntity
  8
0
 62
     7
100
AcDbLine
 10
184.3480386084028
 20
91.51716206217527
 30
0.0
 11
184.4980386084029
 21
91.66716206217527
 31
0.0
  0
LINE
  5
E7B
330
36
100
AcDbEntity
  8
0
 62
     7
100
AcDbLine
 10
184.3480386084028
 20
90.81716206217524
 30
0.0
 11
184.4980386084029
 21
90.66716206217533
 31
0.0
  0
LINE
  5
E7C
330
36
100
AcDbEntity
  8
0
 62
     7
100
AcDbLine
 10
180.6480386084027
 20
91.51716206217527
 30
0.0
 11
180.4980386084029
 21
91.66716206217527
 31
0.0
  0
LINE
  5
E7D
330
36
100
AcDbEntity
  8
0
 62
     7
100
AcDbLine
 10
180.6480386084027
 20
90.81716206217524
 30
0.0
 11
180.4980386084029
 21
90.66716206217533
 31
0.0
  0
CIRCLE
  5
E7E
330
36
100
AcDbEntity
  8
0
 62
     3
100
AcDbCircle
 10
182.4980386084029
 20
86.01716206217531
 30
0.0
 40
13.25
  0
CIRCLE
  5
E7F
330
36
100
AcDbEntity
  8
0
 62
     3
100
AcDbCircle
 10
182.4980386084029
 20
86.01716206217531
 30
0.0
 40
15.25
  0
TEXT
  5
E80
330
36
100
AcDbEntity
  8
0
 62
     4
100
AcDbText
 10
189.7513374021708
 20
84.30766647967274
 30
0.0
 40
3.2
  1
X
  7
高3.2
100
AcDbText
  0
TEXT
  5
E81
330
36
100
AcDbEntity
  8
0
 62
     4
100
AcDbText
 10
173.1972196638666
 20
84.2591097228751
 30
0.0
 40
3.2
  1
Z
  7
高3.2
100
AcDbText
  0
TEXT
  5
E82
330
36
100
AcDbEntity
  8
0
 62
     4
100
AcDbText
 10
181.5290461503776
 20
92.70671659702111
 30
0.0
 40
3.2
  1
Y
  7
高3.2
100
AcDbText
  0
LINE
  5
E83
330
36
100
AcDbEntity
  8
0
 62
     3
100
AcDbLine
 10
179.7730386084027
 20
-1.648785709304611
 30
0.0
 11
179.7730386084027
 21
4.772433591647775
 31
0.0
  0
LINE
  5
E84
330
36
100
AcDbEntity
  8
0
 62
     3
100
AcDbLine
 10
185.2230386084028
 20
-1.648785709304611
 30
0.0
 11
185.2230386084028
 21
4.772433591647775
 31
0.0
  0
ARC
  5
E85
330
36
100
AcDbEntity
  8
0
100
AcDbCircle
 10
183.8605386084027
 20
-0.2181607093046374
 30
0.0
 40
1.975625000000008
100
AcDbArc
 50
226.3971810272972
 51
313.6028189727065
  0
ARC
  5
E86
330
36
100
AcDbEntity
  8
0
100
AcDbCircle
 10
183.8605386084027
 20
-3.07941070930461
 30
0.0
 40
1.975625000000008
100
AcDbArc
 50
46.3971810272972
 51
133.6028189727065
  0
ARC
  5
E87
330
36
100
AcDbEntity
  8
0
100
AcDbCircle
 10
181.1355386084027
 20
-0.2181607093046622
 30
0.0
 40
1.975625000000008
100
AcDbArc
 50
226.3971810272972
 51
313.6028189727028
  0
LINE
  5
E88
330
36
100
AcDbEntity
  8
0
 62
     3
100
AcDbLine
 10
137.997835
 20
13.951068
 30
0.0
 11
145.9597566335389
 21
13.951068
 31
0.0
  0
LINE
  5
E89
330
36
100
AcDbEntity
  8
0
 62
     3
100
AcDbLine
 10
137.997835
 20
8.501067999999996
 30
0.0
 11
145.9597566335389
 21
8.501067999999996
 31
0.0
  0
LINE
  5
E8A
330
36
100
AcDbEntity
  8
0
 62
     3
100
AcDbLine
 10
158.684756633539
 20
1.226067999999997
 30
0.0
 11
158.684756633539
 21
-8.55333768232705
 31
0.0
  0
LINE
  5
E8B
330
36
100
AcDbEntity
  8
0
 62
     3
100
AcDbLine
 10
153.2347566335389
 20
1.226067999999997
 30
0.0
 11
153.2347566335389
 21
-8.55333768232705
 31
0.0
  0
ARC
  5
E8C
330
36
100
AcDbEntity
  8
0
 62
     3
100
AcDbCircle
 10
145.9597566335389
 20
1.226067999999997
 30
0.0
 40
7.275
100
AcDbArc
 50
0.0
 51
90.0
  0
ARC
  5
E8D
330
36
100
AcDbEntity
  8
0
 62
     3
100
AcDbCircle
 10
145.9597566335389
 20
1.226067999999997
 30
0.0
 40
12.725
100
AcDbArc
 50
0.0
 51
90.0
  0
LINE
  5
E8E
330
36
100
AcDbEntity
  8
0
 62
     3
100
AcDbLine
 10
165.9597566335389
 20
-21.27833768232705
 30
0.0
 11
172.4980386084028
 21
-21.27833768232705
 31
0.0
  0
LINE
  5
E8F
330
36
100
AcDbEntity
  8
0
 62
     3
100
AcDbLine
 10
165.9597566335389
 20
-15.82833768232704
 30
0.0
 11
172.4980386084028
 21
-15.82833768232704
 31
0.0
  0
ARC
  5
E90
330
36
100
AcDbEntity
  8
0
 62
     3
100
AcDbCircle
 10
172.4980386084028
 20
-8.553337682327047
 30
0.0
 40
7.275
100
AcDbArc
 50
270.0
 51
0.0
  0
ARC
  5
E91
330
36
100
AcDbEntity
  8
0
 62
     3
100
AcDbCircle
 10
172.4980386084028
 20
-8.553337682327047
 30
0.0
 40
12.725
100
AcDbArc
 50
270.0
 51
0.0
  0
ARC
  5
E92
330
36
100
AcDbEntity
  8
0
 62
     3
100
AcDbCircle
 10
165.9597566335389
 20
-8.553337682327047
 30
0.0
 40
7.275
100
AcDbArc
 50
180.0
 51
270.0
  0
ARC
  5
E93
330
36
100
AcDbEntity
  8
0
 62
     3
100
AcDbCircle
 10
165.9597566335389
 20
-8.553337682327047
 30
0.0
 40
12.725
100
AcDbArc
 50
180.0
 51
270.0
  0
LINE
  5
E94
330
36
100
AcDbEntity
  8
0
 62
     3
100
AcDbLine
 10
185.2230386084028
 20
-4.887266794036996
 30
0.0
 11
185.2230386084028
 21
-8.55333768232705
 31
0.0
  0
LINE
  5
E95
330
36
100
AcDbEntity
  8
0
 62
     3
100
AcDbLine
 10
179.7730386084027
 20
-4.887266794036996
 30
0.0
 11
179.7730386084027
 21
-8.55333768232705
 31
0.0
  0
ARC
  5
E96
330
36
100
AcDbEntity
  8
0
100
AcDbCircle
 10
181.1355386084028
 20
-6.317891794037013
 30
0.0
 40
1.97562500000002
100
AcDbArc
 50
46.39718102729724
 51
133.6028189727027
  0
ARC
  5
E97
330
36
100
AcDbEntity
  8
0
100
AcDbCircle
 10
181.1355386084028
 20
-3.456641794036979
 30
0.0
 40
1.97562500000002
100
AcDbArc
 50
226.3971810272972
 51
313.6028189727027
  0
ARC
  5
E98
330
36
100
AcDbEntity
  8
0
100
AcDbCircle
 10
183.8605386084028
 20
-6.317891794037013
 30
0.0
 40
1.97562500000002
100
AcDbArc
 50
46.3971810272974
 51
133.6028189727026
  0
LINE
  5
F7E
330
36
100
AcDbEntity
  8
0
100
AcDbLine
 10
44.66335899999999
 20
86.92755299999998
 30
0.0
 11
46.479508
 21
85.93317500000003
 31
0.0
  0
LINE
  5
F7F
330
36
100
AcDbEntity
  8
0
100
AcDbLine
 10
46.479508
 20
85.93317500000003
 30
0.0
 11
45.403865
 21
87.70240600000002
 31
0.0
  0
LINE
  5
F80
330
36
100
AcDbEntity
  8
0
100
AcDbLine
 10
19.247835
 20
-3.623931999999998
 30
0.0
 11
19.247835
 21
-24.85855499999999
 31
0.0
  0
LINE
  5
F81
330
36
100
AcDbEntity
  8
0
100
AcDbLine
 10
136.747835
 20
-4.023931999999998
 30
0.0
 11
136.747835
 21
-24.858555
 31
0.0
  0
LINE
  5
F82
330
36
100
AcDbEntity
  8
0
100
AcDbLine
 10
21.747835
 20
-23.608555
 30
0.0
 11
134.247835
 21
-23.608555
 31
0.0
  0
LINE
  5
F86
330
36
100
AcDbEntity
  8
0
100
AcDbLine
 10
-146.802185
 20
3.526008
 30
0.0
 11
-146.802185
 21
-24.858555
 31
0.0
  0
LINE
  5
F87
330
36
100
AcDbEntity
  8
0
100
AcDbLine
 10
-16.302185
 20
3.526008
 30
0.0
 11
-16.302185
 21
-24.858555
 31
0.0
  0
LINE
  5
F88
330
36
100
AcDbEntity
  8
0
100
AcDbLine
 10
-144.302185
 20
-23.608555
 30
0.0
 11
-18.802185
 21
-23.608555
 31
0.0
  0
LINE
  5
F8C
330
36
100
AcDbEntity
  8
0
100
AcDbLine
 10
26.497835
 20
-5.873931999999999
 30
0.0
 11
8.769105999999981
 21
-5.873931999999993
 31
0.0
  0
LINE
  5
F8D
330
36
100
AcDbEntity
  8
0
100
AcDbLine
 10
26.497835
 20
78.426068
 30
0.0
 11
8.769105999999997
 21
78.426068
 31
0.0
  0
LINE
  5
F8E
330
36
100
AcDbEntity
  8
0
100
AcDbLine
 10
10.01910599999998
 20
-3.373931999999994
 30
0.0
 11
10.01910599999999
 21
75.926068
 31
0.0
  0
LINE
  5
F92
330
36
100
AcDbEntity
  8
0
100
AcDbLine
 10
47.24783499999998
 20
-11.273932
 30
0.0
 11
0.8101429999999727
 21
-11.27393199999998
 31
0.0
  0
LINE
  5
F93
330
36
100
AcDbEntity
  8
0
100
AcDbLine
 10
74.23827
 20
103.375468
 30
0.0
 11
0.8101430000000052
 21
103.375468
 31
0.0
  0
LINE
  5
F94
330
36
100
AcDbEntity
  8
0
100
AcDbLine
 10
2.060142999999975
 20
-8.773931999999986
 30
0.0
 11
2.060142999999999
 21
100.875468
 31
0.0
  0
LINE
  5
F98
330
36
100
AcDbEntity
  8
0
100
AcDbLine
 10
187.209894628569
 20
1.893137643542996
 30
0.0
 11
197.3193839266378
 21
9.613781262937948
 31
0.0
1001
ACAD
1000
DSTYLE
1002
{
1070
   147
1040
0.625
1070
    77
1070
     0
1002
}
  0
LINE
  5
F99
330
36
100
AcDbEntity
  8
0
  6
ByBlock
 62
     0
370
    -2
100
AcDbLine
 10
187.6164716467463
 20
1.360761559795483
 30
0.0
 11
185.2230386084028
 21
0.3757704647990607
 31
0.0
  0
LINE
  5
F9A
330
36
100
AcDbEntity
  8
0
  6
ByBlock
 62
     0
370
    -2
100
AcDbLine
 10
185.2230386084028
 20
0.3757704647990607
 30
0.0
 11
186.8033176103917
 21
2.425513727290509
 31
0.0
  0
LINE
  5
F9B
330
36
100
AcDbEntity
  8
0
  6
ByBlock
 62
     0
370
    -2
100
AcDbLine
 10
185.2230386084028
 20
0.3757704647990607
 30
0.0
 11
187.209894628569
 21
1.893137643542996
 31
0.0
  0
LINE
  5
F9C
330
36
100
AcDbEntity
  8
0
100
AcDbLine
 10
91.34441367077419
 20
-5.693239852576375
 30
0.0
 11
94.38758128846588
 21
-9.339271294847247
 31
0.0
1001
ACAD
1000
DSTYLE
1002
{
1070
   147
1040
0.625
1070
    77
1070
     0
1002
}
  0
LINE
  5
F9D
330
36
100
AcDbEntity
  8
0
  6
ByBlock
 62
     0
370
    -2
100
AcDbLine
 10
90.83013705098421
 20
-6.122481887556215
 30
0.0
 11
89.74245943702134
 21
-3.773931999999998
 31
0.0
  0
LINE
  5
F9E
330
36
100
AcDbEntity
  8
0
  6
ByBlock
 62
     0
370
    -2
100
AcDbLine
 10
89.74245943702134
 20
-3.773931999999998
 30
0.0
 11
91.85869029056418
 21
-5.263997817596536
 31
0.0
  0
LINE
  5
F9F
330
36
100
AcDbEntity
  8
0
  6
ByBlock
 62
     0
370
    -2
100
AcDbLine
 10
89.74245943702134
 20
-3.773931999999998
 30
0.0
 11
91.34441367077419
 21
-5.693239852576375
 31
0.0
  0
LINE
  5
FA0
330
36
100
AcDbEntity
  8
0
100
AcDbLine
 10
140.2698743693029
 20
53.53955218582096
 30
0.0
 11
148.0906867872354
 21
61.3226067038037
 31
0.0
1001
ACAD
1000
DSTYLE
1002
{
1070
   147
1040
0.625
1070
    77
1070
     0
1002
}
  0
LINE
  5
FA1
330
36
100
AcDbEntity
  8
0
  6
ByBlock
 62
     0
370
    -2
100
AcDbLine
 10
140.7423981934094
 20
53.06473600885562
 30
0.0
 11
138.497835
 21
51.776068
 31
0.0
  0
LINE
  5
FA2
330
36
100
AcDbEntity
  8
0
  6
ByBlock
 62
     0
370
    -2
100
AcDbLine
 10
138.497835
 20
51.776068
 30
0.0
 11
139.7973505451963
 21
54.0143683627863
 31
0.0
  0
LINE
  5
FA3
330
36
100
AcDbEntity
  8
0
  6
ByBlock
 62
     0
370
    -2
100
AcDbLine
 10
138.497835
 20
51.776068
 30
0.0
 11
140.2698743693029
 21
53.53955218582096
 31
0.0
  0
LINE
  5
FA4
330
36
100
AcDbEntity
  8
0
100
AcDbLine
 10
135.9250055719979
 20
102.5044219669591
 30
0.0
 11
142.8822348560041
 21
102.302869904273
 31
0.0
1001
ACAD
1000
DSTYLE
1002
{
1070
   147
1040
0.625
1070
    77
1070
     0
1002
}
  0
LINE
  5
FA5
330
36
100
AcDbEntity
  8
0
  6
ByBlock
 62
     0
370
    -2
100
AcDbLine
 10
135.9056073952896
 20
101.8348303921938
 30
0.0
 11
133.426054
 21
102.576817
 31
0.0
  0
LINE
  5
FA6
330
36
100
AcDbEntity
  8
0
  6
ByBlock
 62
     0
370
    -2
100
AcDbLine
 10
133.426054
 20
102.576817
 30
0.0
 11
135.9444037487062
 21
103.1740135417243
 31
0.0
  0
LINE
  5
FA7
330
36
100
AcDbEntity
  8
0
  6
ByBlock
 62
     0
370
    -2
100
AcDbLine
 10
133.426054
 20
102.576817
 30
0.0
 11
135.9250055719979
 21
102.5044219669591
 31
0.0
  0
LINE
  5
FA8
330
36
100
AcDbEntity
  8
0
100
AcDbLine
 10
-43.47599768397566
 20
56.28242776934963
 30
0.0
 11
-36.37916716953269
 21
99.01431342418256
 31
0.0
1001
ACAD
1000
DSTYLE
1002
{
1070
   147
1040
0.625
1070
    77
1070
     0
1002
}
  0
LINE
  5
FA9
330
36
100
AcDbEntity
  8
0
  6
ByBlock
 62
     0
370
    -2
100
AcDbLine
 10
-42.8151765580253
 20
56.17267985021697
 30
0.0
 11
-43.8855827883525
 21
53.8162079814409
 31
0.0
  0
LINE
  5
FAA
330
36
100
AcDbEntity
  8
0
  6
ByBlock
 62
     0
370
    -2
100
AcDbLine
 10
-43.8855827883525
 20
53.8162079814409
 30
0.0
 11
-44.13681880992601
 21
56.39217568848231
 31
0.0
  0
LINE
  5
FAB
330
36
100
AcDbEntity
  8
0
  6
ByBlock
 62
     0
370
    -2
100
AcDbLine
 10
-43.8855827883525
 20
53.8162079814409
 30
0.0
 11
-43.47599768397566
 21
56.28242776934963
 31
0.0
  0
LINE
  5
FAC
330
36
100
AcDbEntity
  8
0
100
AcDbLine
 10
-130.5498574769573
 20
23.65568366732898
 30
0.0
 11
-154.1868190460854
 21
24.67635766534203
 31
0.0
1001
ACAD
1000
DSTYLE
1002
{
1070
   147
1040
0.625
1070
    77
1070
     0
1002
}
  0
LINE
  5
FAD
330
36
100
AcDbEntity
  8
0
  6
ByBlock
 62
     0
370
    -2
100
AcDbLine
 10
-130.5209584625991
 20
24.32493250985722
 30
0.0
 11
-128.052185
 21
23.547831
 31
0.0
  0
LINE
  5
FAE
330
36
100
AcDbEntity
  8
0
  6
ByBlock
 62
     0
370
    -2
100
AcDbLine
 10
-128.052185
 20
23.547831
 30
0.0
 11
-130.5787564913154
 21
22.98643482480075
 31
0.0
  0
LINE
  5
FAF
330
36
100
AcDbEntity
  8
0
  6
ByBlock
 62
     0
370
    -2
100
AcDbLine
 10
-128.052185
 20
23.547831
 30
0.0
 11
-130.5498574769573
 21
23.65568366732898
 31
0.0
  0
LINE
  5
FB0
330
36
100
AcDbEntity
  8
0
100
AcDbLine
 10
-140.3970244052292
 20
55.12632433848182
 30
0.0
 11
-154.6924851895415
 21
62.13329732303638
 31
0.0
1001
ACAD
1000
DSTYLE
1002
{
1070
   147
1040
0.625
1070
    77
1070
     0
1002
}
  0
LINE
  5
FB1
330
36
100
AcDbEntity
  8
0
  6
ByBlock
 62
     0
370
    -2
100
AcDbLine
 10
-140.1021957426493
 20
55.72782681227359
 30
0.0
 11
-138.152185
 21
54.026008
 31
0.0
  0
LINE
  5
FB2
330
36
100
AcDbEntity
  8
0
  6
ByBlock
 62
     0
370
    -2
100
AcDbLine
 10
-138.152185
 20
54.026008
 30
0.0
 11
-140.6918530678091
 21
54.52482186469005
 31
0.0
  0
LINE
  5
FB3
330
36
100
AcDbEntity
  8
0
  6
ByBlock
 62
     0
370
    -2
100
AcDbLine
 10
-138.152185
 20
54.026008
 30
0.0
 11
-140.3970244052292
 21
55.12632433848182
 31
0.0
  0
LINE
  5
FB4
330
36
100
AcDbEntity
  8
0
100
AcDbLine
 10
-110.6416299461562
 20
31.42930552822187
 30
0.0
 11
-154.5032741076875
 21
47.95584194355624
 31
0.0
1001
ACAD
1000
DSTYLE
1002
{
1070
   147
1040
0.625
1070
    77
1070
     0
1002
}
  0
LINE
  5
FB5
330
36
100
AcDbEntity
  8
0
  6
ByBlock
 62
     0
370
    -2
100
AcDbLine
 10
-110.4054397277937
 20
32.05615746209949
 30
0.0
 11
-108.302185
 21
30.547831
 31
0.0
  0
LINE
  5
FB6
330
36
100
AcDbEntity
  8
0
  6
ByBlock
 62
     0
370
    -2
100
AcDbLine
 10
-108.302185
 20
30.547831
 30
0.0
 11
-110.8778201645188
 21
30.80245359434425
 31
0.0
  0
LINE
  5
FB7
330
36
100
AcDbEntity
  8
0
  6
ByBlock
 62
     0
370
    -2
100
AcDbLine
 10
-108.302185
 20
30.547831
 30
0.0
 11
-110.6416299461562
 21
31.42930552822187
 31
0.0
  0
LINE
  5
FB8
330
36
100
AcDbEntity
  8
0
100
AcDbLine
 10
-107.5318466024656
 20
18.99793939138547
 30
0.0
 11
-154.4728407950687
 21
35.74325921722902
 31
0.0
1001
ACAD
1000
DSTYLE
1002
{
1070
   147
1040
0.625
1070
    77
1070
     0
1002
}
  0
LINE
  5
FB9
330
36
100
AcDbEntity
  8
0
  6
ByBlock
 62
     0
370
    -2
100
AcDbLine
 10
-107.3067744286253
 20
19.62886861310454
 30
0.0
 11
-105.177185
 21
18.15795799999999
 31
0.0
  0
LINE
  5
FBA
330
36
100
AcDbEntity
  8
0
  6
ByBlock
 62
     0
370
    -2
100
AcDbLine
 10
-105.177185
 20
18.15795799999999
 30
0.0
 11
-107.756918776306
 21
18.3670101696664
 31
0.0
  0
LINE
  5
FBB
330
36
100
AcDbEntity
  8
0
  6
ByBlock
 62
     0
370
    -2
100
AcDbLine
 10
-105.177185
 20
18.15795799999999
 30
0.0
 11
-107.5318466024656
 21
18.99793939138547
 31
0.0
  0
LINE
  5
FBC
330
36
100
AcDbEntity
  8
0
100
AcDbLine
 10
-71.80183788070853
 20
10.6744843853537
 30
0.0
 11
-91.5004462385829
 21
-9.592439770707406
 31
0.0
1001
ACAD
1000
DSTYLE
1002
{
1070
   147
1040
0.625
1070
    77
1070
     0
1002
}
  0
LINE
  5
FBD
330
36
100
AcDbEntity
  8
0
  6
ByBlock
 62
     0
370
    -2
100
AcDbLine
 10
-72.2821963805294
 20
11.14137289228667
 30
0.0
 11
-70.05938499999999
 21
12.467208
 31
0.0
  0
LINE
  5
FBE
330
36
100
AcDbEntity
  8
0
  6
ByBlock
 62
     0
370
    -2
100
AcDbLine
 10
-70.05938499999999
 20
12.467208
 30
0.0
 11
-71.32147938088768
 21
10.20759587842072
 31
0.0
  0
LINE
  5
FBF
330
36
100
AcDbEntity
  8
0
  6
ByBlock
 62
     0
370
    -2
100
AcDbLine
 10
-70.05938499999999
 20
12.467208
 30
0.0
 11
-71.80183788070853
 21
10.6744843853537
 31
0.0
  0
LINE
  5
FC0
330
36
100
AcDbEntity
  8
0
100
AcDbLine
 10
-61.5194912767126
 20
56.21641323241274
 30
0.0
 11
-49.01192492375546
 21
99.14634253517453
 31
0.0
1001
ACAD
1000
DSTYLE
1002
{
1070
   147
1040
0.625
1070
    77
1070
     0
1002
}
  0
LINE
  5
FC1
330
36
100
AcDbEntity
  8
0
  6
ByBlock
 62
     0
370
    -2
100
AcDbLine
 10
-60.87635868489283
 20
56.02903757872357
 30
0.0
 11
-62.21878723859031
 21
53.816208
 31
0.0
  0
LINE
  5
FC2
330
36
100
AcDbEntity
  8
0
  6
ByBlock
 62
     0
370
    -2
100
AcDbLine
 10
-62.21878723859031
 20
53.816208
 30
0.0
 11
-62.16262386853236
 21
56.40378888610191
 31
0.0
  0
LINE
  5
FC3
330
36
100
AcDbEntity
  8
0
  6
ByBlock
 62
     0
370
    -2
100
AcDbLine
 10
-62.21878723859031
 20
53.816208
 30
0.0
 11
-61.51949127671259
 21
56.21641323241274
 31
0.0
  0
LINE
  5
FC4
330
36
100
AcDbEntity
  8
0
100
AcDbLine
 10
-137.1831745183337
 20
-7.983087959658003
 30
0.0
 11
-154.2180399633325
 21
-5.93137108068399
 31
0.0
1001
ACAD
1000
DSTYLE
1002
{
1070
   147
1040
0.625
1070
    77
1070
     0
1002
}
  0
LINE
  5
FC5
330
36
100
AcDbEntity
  8
0
  6
ByBlock
 62
     0
370
    -2
100
AcDbLine
 10
-137.1030724937191
 20
-7.318021923907498
 30
0.0
 11
-134.7011125
 21
-8.282033
 31
0.0
  0
LINE
  5
FC6
330
36
100
AcDbEntity
  8
0
  6
ByBlock
 62
     0
370
    -2
100
AcDbLine
 10
-134.7011125
 20
-8.282033
 30
0.0
 11
-137.2632765429483
 21
-8.648153995408508
 31
0.0
  0
LINE
  5
FC7
330
36
100
AcDbEntity
  8
0
  6
ByBlock
 62
     0
370
    -2
100
AcDbLine
 10
-134.7011125
 20
-8.282033
 30
0.0
 11
-137.1831745183337
 21
-7.983087959658003
 31
0.0
  0
LINE
  5
FC8
330
36
100
AcDbEntity
  8
0
100
AcDbLine
 10
-145.8186587678679
 20
77.22953661167956
 30
0.0
 11
-155.5842453068085
 21
86.65342761918525
 31
0.0
1001
ACAD
1000
DSTYLE
1002
{
1070
   147
1040
0.625
1070
    77
1070
     0
1002
}
  0
LINE
  5
FC9
330
36
100
AcDbEntity
  8
0
  6
ByBlock
 62
     0
370
    -2
100
AcDbLine
 10
-145.3534955015624
 20
77.71156596964054
 30
0.0
 11
-144.0196994212722
 21
75.49352242127219
 31
0.0
  0
LINE
  5
FCA
330
36
100
AcDbEntity
  8
0
  6
ByBlock
 62
     0
370
    -2
100
AcDbLine
 10
-144.0196994212722
 20
75.49352242127219
 30
0.0
 11
-146.2838220341734
 21
76.74750725371858
 31
0.0
  0
LINE
  5
FCB
330
36
100
AcDbEntity
  8
0
  6
ByBlock
 62
     0
370
    -2
100
AcDbLine
 10
-144.0196994212722
 20
75.49352242127219
 30
0.0
 11
-145.8186587678679
 21
77.22953661167956
 31
0.0
  0
LINE
  5
FCC
330
36
100
AcDbEntity
  8
0
100
AcDbLine
 10
-29.09926513475921
 20
65.84356044178003
 30
0.0
 11
-18.20165122035475
 21
98.96168184925237
 31
0.0
1001
ACAD
1000
DSTYLE
1002
{
1070
   341
1005
838
1070
   147
1040
0.625
1070
    77
1070
     0
1002
}
  0
LINE
  5
FCE
330
36
100
AcDbEntity
  8
0
100
AcDbLine
 10
133.1772902369579
 20
77.89717423751636
 30
0.0
 11
143.9908577630218
 21
86.63363052496729
 31
0.0
1001
ACAD
1000
DSTYLE
1002
{
1070
   147
1040
0.625
1070
    77
1070
     0
1002
}
  0
LINE
  5
FCF
330
36
100
AcDbEntity
  8
0
  6
ByBlock
 62
     0
370
    -2
100
AcDbLine
 10
133.5982665821941
 20
77.37610986240733
 30
0.0
 11
131.2326501184688
 21
76.32606800000002
 31
0.0
  0
LINE
  5
FD0
330
36
100
AcDbEntity
  8
0
  6
ByBlock
 62
     0
370
    -2
100
AcDbLine
 10
131.2326501184688
 20
76.32606800000002
 30
0.0
 11
132.7563138917216
 21
78.4182386126254
 31
0.0
  0
LINE
  5
FD1
330
36
100
AcDbEntity
  8
0
  6
ByBlock
 62
     0
370
    -2
100
AcDbLine
 10
131.2326501184688
 20
76.32606800000002
 30
0.0
 11
133.1772902369579
 21
77.89717423751636
 31
0.0
  0
LINE
  5
FD2
330
36
100
AcDbEntity
  8
0
100
AcDbLine
 10
-96.13232487868828
 20
90.68894842697927
 30
0.0
 11
-103.9207804409303
 21
99.89412087455784
 31
0.0
1001
ACAD
1000
DSTYLE
1002
{
1070
   147
1040
0.625
1070
    77
1070
     0
1002
}
  0
LINE
  5
FD3
330
36
100
AcDbEntity
  8
0
  6
ByBlock
 62
     0
370
    -2
100
AcDbLine
 10
-95.62093870242772
 20
91.12163000156487
 30
0.0
 11
-94.5175340991534
 21
88.78042786425821
 31
0.0
  0
LINE
  5
FD4
330
36
100
AcDbEntity
  8
0
  6
ByBlock
 62
     0
370
    -2
100
AcDbLine
 10
-94.5175340991534
 20
88.78042786425821
 30
0.0
 11
-96.64371105494883
 21
90.2562668523937
 31
0.0
  0
LINE
  5
FD5
330
36
100
AcDbEntity
  8
0
  6
ByBlock
 62
     0
370
    -2
100
AcDbLine
 10
-94.5175340991534
 20
88.78042786425821
 30
0.0
 11
-96.13232487868828
 21
90.68894842697927
 31
0.0
  0
TEXT
  5
FD6
330
36
100
AcDbEntity
  8
0
 62
     4
100
AcDbText
 10
73.99783500000001
 20
-22.983555
 30
0.0
 40
3.0
  1
235
100
AcDbText
  0
LINE
  5
FD7
330
36
100
AcDbEntity
  8
0
  6
ByBlock
 62
     0
370
    -2
100
AcDbLine
 10
134.247835
 20
-22.9386825
 30
0.0
 11
136.747835
 21
-23.608555
 31
0.0
  0
LINE
  5
FD8
330
36
100
AcDbEntity
  8
0
  6
ByBlock
 62
     0
370
    -2
100
AcDbLine
 10
136.747835
 20
-23.608555
 30
0.0
 11
134.247835
 21
-24.2784275
 31
0.0
  0
LINE
  5
FD9
330
36
100
AcDbEntity
  8
0
  6
ByBlock
 62
     0
370
    -2
100
AcDbLine
 10
136.747835
 20
-23.608555
 30
0.0
 11
134.247835
 21
-23.608555
 31
0.0
  0
LINE
  5
FDA
330
36
100
AcDbEntity
  8
0
  6
ByBlock
 62
     0
370
    -2
100
AcDbLine
 10
21.747835
 20
-24.2784275
 30
0.0
 11
19.247835
 21
-23.608555
 31
0.0
  0
LINE
  5
FDB
330
36
100
AcDbEntity
  8
0
  6
ByBlock
 62
     0
370
    -2
100
AcDbLine
 10
19.247835
 20
-23.608555
 30
0.0
 11
21.747835
 21
-22.9386825
 31
0.0
  0
LINE
  5
FDC
330
36
100
AcDbEntity
  8
0
  6
ByBlock
 62
     0
370
    -2
100
AcDbLine
 10
19.247835
 20
-23.608555
 30
0.0
 11
21.747835
 21
-23.608555
 31
0.0
  0
TEXT
  5
FDD
330
36
100
AcDbEntity
  8
0
 62
     4
100
AcDbText
 10
-85.30218500000001
 20
-22.983555
 30
0.0
 40
3.0
  1
260
100
AcDbText
  0
LINE
  5
FDE
330
36
100
AcDbEntity
  8
0
  6
ByBlock
 62
     0
370
    -2
100
AcDbLine
 10
-18.802185
 20
-22.9386825
 30
0.0
 11
-16.302185
 21
-23.608555
 31
0.0
  0
LINE
  5
FDF
330
36
100
AcDbEntity
  8
0
  6
ByBlock
 62
     0
370
    -2
100
AcDbLine
 10
-16.302185
 20
-23.608555
 30
0.0
 11
-18.802185
 21
-24.2784275
 31
0.0
  0
LINE
  5
FE0
330
36
100
AcDbEntity
  8
0
  6
ByBlock
 62
     0
370
    -2
100
AcDbLine
 10
-16.302185
 20
-23.608555
 30
0.0
 11
-18.802185
 21
-23.608555
 31
0.0
  0
LINE
  5
FE1
330
36
100
AcDbEntity
  8
0
  6
ByBlock
 62
     0
370
    -2
100
AcDbLine
 10
-144.302185
 20
-24.2784275
 30
0.0
 11
-146.802185
 21
-23.608555
 31
0.0
  0
LINE
  5
FE2
330
36
100
AcDbEntity
  8
0
  6
ByBlock
 62
     0
370
    -2
100
AcDbLine
 10
-146.802185
 20
-23.608555
 30
0.0
 11
-144.302185
 21
-22.9386825
 31
0.0
  0
LINE
  5
FE3
330
36
100
AcDbEntity
  8
0
  6
ByBlock
 62
     0
370
    -2
100
AcDbLine
 10
-146.802185
 20
-23.608555
 30
0.0
 11
-144.302185
 21
-23.608555
 31
0.0
  0
TEXT
  5
FE4
330
36
100
AcDbEntity
  8
0
 62
     4
100
AcDbText
 10
9.394105999999982
 20
33.026068
 30
0.0
 40
3.0
  1
170
 50
90.0
100
AcDbText
  0
LINE
  5
FE5
330
36
100
AcDbEntity
  8
0
  6
ByBlock
 62
     0
370
    -2
100
AcDbLine
 10
9.349233499999998
 20
75.926068
 30
0.0
 11
10.019106
 21
78.426068
 31
0.0
  0
LINE
  5
FE6
330
36
100
AcDbEntity
  8
0
  6
ByBlock
 62
     0
370
    -2
100
AcDbLine
 10
10.019106
 20
78.426068
 30
0.0
 11
10.6889785
 21
75.926068
 31
0.0
  0
LINE
  5
FE7
330
36
100
AcDbEntity
  8
0
  6
ByBlock
 62
     0
370
    -2
100
AcDbLine
 10
10.019106
 20
78.426068
 30
0.0
 11
10.019106
 21
75.926068
 31
0.0
  0
LINE
  5
FE8
330
36
100
AcDbEntity
  8
0
  6
ByBlock
 62
     0
370
    -2
100
AcDbLine
 10
10.68897849999998
 20
-3.373931999999994
 30
0.0
 11
10.01910599999998
 21
-5.873931999999994
 31
0.0
  0
LINE
  5
FE9
330
36
100
AcDbEntity
  8
0
  6
ByBlock
 62
     0
370
    -2
100
AcDbLine
 10
10.01910599999998
 20
-5.873931999999994
 30
0.0
 11
9.349233499999979
 21
-3.373931999999994
 31
0.0
  0
LINE
  5
FEA
330
36
100
AcDbEntity
  8
0
  6
ByBlock
 62
     0
370
    -2
100
AcDbLine
 10
10.01910599999998
 20
-5.873931999999994
 30
0.0
 11
10.01910599999998
 21
-3.373931999999994
 31
0.0
  0
TEXT
  5
FEB
330
36
100
AcDbEntity
  8
0
 62
     4
100
AcDbText
 10
1.435142999999979
 20
42.30076800000001
 30
0.0
 40
3.0
  1
230
 50
90.0
100
AcDbText
  0
LINE
  5
FEC
330
36
100
AcDbEntity
  8
0
  6
ByBlock
 62
     0
370
    -2
100
AcDbLine
 10
1.390270499999999
 20
100.875468
 30
0.0
 11
2.060143
 21
103.375468
 31
0.0
  0
LINE
  5
FED
330
36
100
AcDbEntity
  8
0
  6
ByBlock
 62
     0
370
    -2
100
AcDbLine
 10
2.060143
 20
103.375468
 30
0.0
 11
2.730015499999999
 21
100.875468
 31
0.0
  0
LINE
  5
FEE
330
36
100
AcDbEntity
  8
0
  6
ByBlock
 62
     0
370
    -2
100
AcDbLine
 10
2.060143
 20
103.375468
 30
0.0
 11
2.060143
 21
100.875468
 31
0.0
  0
LINE
  5
FEF
330
36
100
AcDbEntity
  8
0
  6
ByBlock
 62
     0
370
    -2
100
AcDbLine
 10
2.730015499999974
 20
-8.773931999999986
 30
0.0
 11
2.060142999999974
 21
-11.27393199999998
 31
0.0
  0
LINE
  5
FF0
330
36
100
AcDbEntity
  8
0
  6
ByBlock
 62
     0
370
    -2
100
AcDbLine
 10
2.060142999999974
 20
-11.27393199999998
 30
0.0
 11
1.390270499999974
 21
-8.773931999999986
 31
0.0
  0
LINE
  5
FF1
330
36
100
AcDbEntity
  8
0
  6
ByBlock
 62
     0
370
    -2
100
AcDbLine
 10
2.060142999999974
 20
-11.27393199999998
 30
0.0
 11
2.060142999999974
 21
-8.773931999999986
 31
0.0
  0
ARC
  5
FF2
330
36
100
AcDbEntity
  8
0
  6
ByBlock
 62
     0
100
AcDbCircle
 10
-29.09926513475921
 20
65.84356044178003
 30
0.0
 40
0.1562500000000038
100
AcDbArc
 50
71.78605953843447
 51
251.7860595384345
  0
ARC
  5
FF3
330
36
100
AcDbEntity
  8
0
  6
ByBlock
 62
     0
100
AcDbCircle
 10
-29.09926513475921
 20
65.84356044178003
 30
0.0
 40
0.1562500000000038
100
AcDbArc
 50
251.7860595384345
 51
71.78605953843447
  0
ENDSEC
  0
SECTION
  2
OBJECTS
  0
DICTIONARY
  5
C
330
0
100
AcDbDictionary
281
     1
  3
ACAD_2007HEADERVARS_RT
350
FF7
  3
ACAD_COLOR
350
2F
  3
ACAD_GROUP
350
D
  3
ACAD_LAYOUT
350
2E
  3
ACAD_MATERIAL
350
10
  3
ACAD_MLEADERSTYLE
350
60F
  3
ACAD_MLINESTYLE
350
2B
  3
ACAD_PLOTSETTINGS
350
2D
  3
ACAD_PLOTSTYLENAME
350
E
  3
ACAD_SCALELIST
350
5FD
  3
ACAD_TABLESTYLE
350
30
  3
ACAD_VISUALSTYLE
350
14
  3
ACDB_RECOMPOSE_DATA
350
FF5
  3
AcDbVariableDictionary
350
5D0
  3
AEC_PROPERTY_SET_DEFS
350
C8C
  3
DWGPROPS
350
FF6
  0
DICTIONARY
  5
6B8
330
2
100
AcDbDictionary
280
     1
281
     1
  3
ACAD_LAYERSTATES
360
6B9
  0
DICTIONARY
  5
87D
330
25
100
AcDbDictionary
280
     1
281
     1
  3
ADSK_XREC_LAYER_RECONCILED
360
87E
  0
DICTIONARY
  5
851
330
36
100
AcDbDictionary
280
     1
281
     1
  3
ACAD_SORTENTS
360
852
  0
DICTIONARY
  5
FF7
102
{ACAD_REACTORS
330
C
102
}
330
C
100
AcDbDictionary
281
     1
  3
DIMARCSYM
350
FF9
  3
DIMFXL
350
FF8
  3
DIMJOGANG
350
FFA
  0
DICTIONARY
  5
2F
102
{ACAD_REACTORS
330
C
102
}
330
C
100
AcDbDictionary
281
     1
  0
DICTIONARY
  5
D
102
{ACAD_REACTORS
330
C
102
}
330
C
100
AcDbDictionary
281
     1
  0
DICTIONARY
  5
2E
102
{ACAD_REACTORS
330
C
102
}
330
C
100
AcDbDictionary
281
     1
  3
Model
350
39
  3
レイアウト1
350
35
  0
DICTIONARY
  5
10
102
{ACAD_REACTORS
330
C
102
}
330
C
100
AcDbDictionary
281
     1
  3
ByBlock
350
12
  3
ByLayer
350
11
  3
Global
350
13
  0
DICTIONARY
  5
60F
102
{ACAD_REACTORS
330
C
102
}
330
C
100
AcDbDictionary
281
     1
  3
Standard
350
610
  0
DICTIONARY
  5
2B
102
{ACAD_REACTORS
330
C
102
}
330
C
100
AcDbDictionary
281
     1
  3
Standard
350
2C
  0
DICTIONARY
  5
2D
102
{ACAD_REACTORS
330
C
102
}
330
C
100
AcDbDictionary
281
     1
  0
ACDBDICTIONARYWDFLT
  5
E
102
{ACAD_REACTORS
330
C
102
}
330
C
100
AcDbDictionary
281
     1
  3
Normal
350
F
100
AcDbDictionaryWithDefault
340
F
  0
DICTIONARY
  5
5FD
102
{ACAD_REACTORS
330
C
102
}
330
C
100
AcDbDictionary
281
     1
  3
A0
350
5FE
  3
A1
350
5FF
  3
A2
350
600
  3
A3
350
601
  3
A4
350
602
  3
A5
350
603
  3
A6
350
604
  3
A7
350
605
  3
A8
350
606
  3
A9
350
607
  3
B0
350
608
  3
B1
350
609
  3
B2
350
60A
  3
B3
350
60B
  3
B4
350
60C
  3
B5
350
60D
  3
B6
350
60E
  0
DICTIONARY
  5
30
102
{ACAD_REACTORS
330
C
102
}
330
C
100
AcDbDictionary
281
     1
  3
Standard
350
31
  0
DICTIONARY
  5
14
102
{ACAD_REACTORS
330
C
102
}
330
C
100
AcDbDictionary
281
     1
  3
2dWireframe
350
1A
  3
3D Hidden
350
1C
  3
3dWireframe
350
1B
  3
Basic
350
19
  3
Brighten
350
20
  3
ColorChange
350
24
  3
Conceptual
350
1D
  3
Dim
350
1F
  3
EdgeColorOff
350
5FC
  3
Facepattern
350
23
  3
Flat
350
15
  3
FlatWithEdges
350
16
  3
Gouraud
350
17
  3
GouraudWithEdges
350
18
  3
Hidden
350
5F4
  3
JitterOff
350
5FA
  3
Linepattern
350
22
  3
OverhangOff
350
5FB
  3
Realistic
350
1E
  3
Shaded
350
5F9
  3
Shaded with edges
350
5F8
  3
Shades of Gray
350
5F5
  3
Sketchy
350
5F6
  3
Thicken
350
21
  3
Wireframe
350
5F3
  3
X-Ray
350
5F7
  0
XRECORD
  5
FF5
102
{ACAD_REACTORS
330
C
102
}
330
C
100
AcDbXrecord
280
     1
 90
        1
330
31
  0
DICTIONARY
  5
5D0
102
{ACAD_REACTORS
330
C
102
}
330
C
100
AcDbDictionary
281
     1
  3
CANNOSCALE
350
880
  3
CMLEADERSTYLE
350
87F
  3
CTABLESTYLE
350
5D1
  3
DIMASSOC
350
5D4
  3
INDEXCTL
350
5D3
  3
SORTENTS
350
5D2
  3
XCLIPFRAME
350
E9D
  0
DICTIONARY
  5
C8C
102
{ACAD_REACTORS
330
C
102
}
330
C
100
AcDbDictionary
281
     1
  0
XRECORD
  5
FF6
102
{ACAD_REACTORS
330
C
102
}
330
C
100
AcDbXrecord
280
     1
  1
DWGPROPS COOKIE
  2

  3

  4

  6

  7

  8
imamura
  9

300
=
301
=
302
=
303
=
304
=
305
=
306
=
307
=
308
=
309
=
 40
0.1990609953703703
 41
2455825.584551678
 42
2460251.679579537
  1

 90
        0
  0
DICTIONARY
  5
6B9
102
{ACAD_REACTORS
330
6B8
102
}
330
6B8
100
AcDbDictionary
281
     1
  0
XRECORD
  5
87E
102
{ACAD_REACTORS
330
87D
102
}
330
87D
100
AcDbXrecord
280
     1
290
     1
  0
SORTENTSTABLE
  5
852
102
{ACAD_REACTORS
330
851
102
}
330
851
100
AcDbSortentsTable
330
36
331
E84
  5
FDF
331
408
  5
43E
331
FAA
  5
E28
331
FC9
  5
DF7
331
FE0
  5
DF
331
228
  5
25E
331
E93
  5
FEE
331
E74
  5
FCF
331
3F8
  5
42E
331
F9A
  5
E7B
331
FB9
  5
E0B
331
FD0
  5
DF0
331
218
  5
24E
331
E83
  5
FDE
331
FA9
  5
E27
331
FC8
  5
DFA
331
E92
  5
FED
331
E73
  5
FCE
331
F99
  5
E7A
331
FB8
  5
E0E
331
E82
  5
FDD
331
FA8
  5
E2A
331
E91
  5
FEC
331
E72
  5
FCD
331
3EF
  5
425
331
F98
  5
E7D
331
20F
  5
245
331
E81
  5
FDC
331
3DF
  5
415
331
1FF
  5
236
331
F88
  5
D9
331
E90
  5
FEB
331
E71
  5
FCC
331
3EE
  5
424
331
3CF
  5
405
331
1EF
  5
226
331
E80
  5
FDB
331
3DE
  5
414
331
3BF
  5
3F5
331
1FE
  5
235
331
1DF
  5
218
331
E8F
  5
FEA
331
E70
  5
FCB
331
3ED
  5
423
331
3CE
  5
404
331
3AF
  5
3E5
331
20D
  5
244
331
1EE
  5
225
331
1CF
  5
205
331
E7F
  5
FDA
331
3DD
  5
413
331
3BE
  5
3F4
331
39F
  5
3D5
331
1FD
  5
234
331
1DE
  5
217
331
1BF
  5
1F5
331
E8E
  5
FE9
331
E6F
  5
FCA
331
3EC
  5
422
331
3CD
  5
403
331
3AE
  5
3E4
331
38F
  5
3C5
331
20C
  5
243
331
1ED
  5
224
331
1CE
  5
204
331
1AF
  5
1E3
331
E7E
  5
FD9
331
3DC
  5
412
331
3BD
  5
3F3
331
39E
  5
3D4
331
1FC
  5
233
331
1DD
  5
216
331
1BE
  5
1F4
331
E5F
  5
FBA
331
E8D
  5
FE8
331
E6E
  5
FC9
331
3EB
  5
421
331
3CC
  5
402
331
3AD
  5
3E3
331
6F7
  5
A8A
331
38E
  5
3C4
331
377
  5
3AD
331
20B
  5
242
331
1EC
  5
223
331
1CD
  5
203
331
1AE
  5
1E2
331
197
  5
1D7
331
E4F
  5
FAA
331
E7D
  5
FD8
331
3DB
  5
411
331
3BC
  5
3F2
331
39D
  5
3D3
331
367
  5
39D
331
1FB
  5
232
331
1DC
  5
215
331
1BD
  5
1F3
331
187
  5
1C7
331
E5E
  5
FB9
331
E3F
  5
F9A
331
E8C
  5
FE7
331
E6D
  5
FC8
331
3EA
  5
420
331
3CB
  5
401
331
3AC
  5
3E2
331
6F6
  5
A89
331
38D
  5
3C3
331
5AF
  5
904
331
376
  5
3AC
331
357
  5
38D
331
20A
  5
241
331
1EB
  5
222
331
1CC
  5
202
331
1AD
  5
1E1
331
196
  5
1D6
331
E4E
  5
FA9
331
E2F
  5
F8A
331
E7C
  5
FD7
331
3DA
  5
410
331
3BB
  5
3F1
331
39C
  5
3D2
331
59F
  5
834
331
366
  5
39C
331
347
  5
37D
331
1FA
  5
231
331
1DB
  5
214
331
1BC
  5
1F2
331
186
  5
1C6
331
167
  5
1B3
331
E5D
  5
FB8
331
E3E
  5
F99
331
E1F
  5
F7A
331
E8B
  5
FE6
331
E6C
  5
FC7
331
3E9
  5
41F
331
3CA
  5
400
331
3AB
  5
3E1
331
6F5
  5
A88
331
38C
  5
3C2
331
5AE
  5
903
331
375
  5
3AB
331
58F
  5
6F2
331
356
  5
38C
331
337
  5
36D
331
209
  5
240
331
1EA
  5
221
331
1CB
  5
201
331
1AC
  5
1E0
331
195
  5
1D5
331
157
  5
1A1
331
E4D
  5
FA8
331
E2E
  5
F89
331
E0F
  5
F6A
331
E7B
  5
FD6
331
3D9
  5
40F
331
3BA
  5
3F0
331
39B
  5
3D1
331
59E
  5
701
331
365
  5
39B
331
57F
  5
5B7
331
346
  5
37C
331
327
  5
35D
331
1F9
  5
230
331
1DA
  5
213
331
1BB
  5
1F1
331
185
  5
1C5
331
166
  5
1B2
331
E5C
  5
FB7
331
E3D
  5
F98
331
E1E
  5
F79
331
DFF
  5
E95
331
E8A
  5
FE5
331
E6B
  5
FC6
331
3E8
  5
41E
331
3C9
  5
3FF
331
3AA
  5
3E0
331
6F4
  5
A87
331
38B
  5
3C1
331
5AD
  5
902
331
374
  5
3AA
331
58E
  5
6F1
331
355
  5
38B
331
56F
  5
5A7
331
336
  5
36C
331
317
  5
34D
331
208
  5
23F
331
1E9
  5
220
331
1CA
  5
200
331
1AB
  5
1DF
331
194
  5
1D4
331
175
  5
1BA
331
156
  5
1A0
331
11F
  5
181
331
E4C
  5
FA7
331
E2D
  5
F88
331
E0E
  5
F69
331
E7A
  5
FD5
331
3F7
  5
42D
331
3D8
  5
40E
331
3B9
  5
3EF
331
39A
  5
3D0
331
59D
  5
700
331
364
  5
39A
331
57E
  5
5B6
331
345
  5
37B
331
326
  5
35C
331
217
  5
24D
331
1F8
  5
22F
331
1D9
  5
212
331
1BA
  5
1F0
331
184
  5
1C4
331
165
  5
1B1
331
12E
  5
190
331
E5B
  5
FB6
331
E3C
  5
F97
331
E1D
  5
F78
331
DFE
  5
E94
331
E89
  5
FE4
331
E6A
  5
FC5
331
3E7
  5
41D
331
3C8
  5
3FE
331
3A9
  5
3DF
331
6F3
  5
A86
331
38A
  5
3C0
331
5AC
  5
901
331
373
  5
3A9
331
58D
  5
6F0
331
354
  5
38A
331
56E
  5
5A6
331
335
  5
36B
331
557
  5
598
331
316
  5
34C
331
207
  5
23E
331
1E8
  5
21F
331
1C9
  5
1FF
331
1AA
  5
1DE
331
193
  5
1D3
331
155
  5
19F
331
2FF
  5
335
331
11E
  5
180
331
E4B
  5
FA6
331
E2C
  5
F87
331
E0D
  5
F68
331
E98
  5
FF3
331
E79
  5
FD4
331
3F6
  5
42C
331
3D7
  5
40D
331
3B8
  5
3EE
331
399
  5
3CF
331
59C
  5
6FF
331
363
  5
399
331
57D
  5
5B5
331
344
  5
37A
331
547
  5
588
331
325
  5
35B
331
4CF
  5
558
331
997
  5
E5C
331
EF
  5
168
331
216
  5
24C
331
1F7
  5
22E
331
1D8
  5
211
331
1B9
  5
1EF
331
183
  5
1C3
331
164
  5
1B0
331
2EF
  5
325
331
12D
  5
18F
331
E5A
  5
FB5
331
E3B
  5
F96
331
E1C
  5
F77
331
DFD
  5
E93
331
DE6
  5
E79
331
E88
  5
FE3
331
E69
  5
FC4
331
3E6
  5
41C
331
3C7
  5
3FD
331
3A8
  5
3DE
331
6F2
  5
9A5
331
389
  5
3BF
331
5AB
  5
900
331
372
  5
3A8
331
58C
  5
6EF
331
353
  5
389
331
56D
  5
5A5
331
334
  5
36A
331
556
  5
597
331
315
  5
34B
331
4DE
  5
572
331
91F
  5
E4D
331
DF
  5
160
331
206
  5
23D
331
1E7
  5
21E
331
1C8
  5
1FE
331
1A9
  5
1DD
331
192
  5
1D2
331
154
  5
198
331
2FE
  5
334
331
11D
  5
17F
331
2DF
  5
315
331
E4A
  5
FA5
331
E2B
  5
F86
331
E0C
  5
F67
331
E78
  5
FD3
331
3F5
  5
42B
331
3D6
  5
40C
331
3B7
  5
3ED
331
398
  5
3CE
331
59B
  5
6FE
331
362
  5
398
331
57C
  5
5B4
331
343
  5
379
331
546
  5
587
331
324
  5
35A
331
4CE
  5
557
331
996
  5
E5B
331
90F
  5
E3D
331
215
  5
24B
331
1F6
  5
22D
331
1D7
  5
20D
331
1B8
  5
1EE
331
182
  5
1C2
331
163
  5
1AF
331
2EE
  5
324
331
12C
  5
18E
331
2CF
  5
305
331
E59
  5
FB4
331
E3A
  5
F95
331
E1B
  5
F76
331
DFC
  5
E92
331
DE5
  5
E78
331
E68
  5
FC3
331
3E5
  5
41B
331
3C6
  5
3FC
331
3A7
  5
3DD
331
6F1
  5
9A4
331
388
  5
3BE
331
5AA
  5
8FF
331
371
  5
3A7
331
58B
  5
5C5
331
352
  5
388
331
56C
  5
5A4
331
333
  5
369
331
555
  5
596
331
314
  5
34A
331
4DD
  5
571
331
49F
  5
54A
331
A94
  5
E73
331
9A5
  5
E69
331
91E
  5
E4C
331
8FF
  5
E2D
331
DE
  5
15F
331
205
  5
23C
331
1C7
  5
1FD
331
1A8
  5
1DC
331
191
  5
1D1
331
153
  5
197
331
2FD
  5
333
331
11C
  5
17E
331
2DE
  5
314
331
2BF
  5
2F5
331
E49
  5
FA4
331
E2A
  5
F85
331
E0B
  5
F66
331
3F4
  5
42A
331
3D5
  5
40B
331
3B6
  5
3EC
331
397
  5
3CD
331
59A
  5
6FD
331
361
  5
397
331
57B
  5
5B3
331
342
  5
378
331
545
  5
586
331
323
  5
359
331
4CD
  5
556
331
48F
  5
505
331
995
  5
E5A
331
90E
  5
E3C
331
8EF
  5
E1B
331
AF
  5
12D
331
214
  5
24A
331
1F5
  5
22C
331
1D6
  5
20C
331
1B7
  5
1ED
331
181
  5
1C1
331
162
  5
1AE
331
2ED
  5
323
331
12B
  5
18D
331
2CE
  5
304
331
2AF
  5
2E5
331
E58
  5
FB3
331
E39
  5
F94
331
E1A
  5
F75
331
DFB
  5
E91
331
3E4
  5
41A
331
3C5
  5
3FB
331
3A6
  5
3DC
331
6F0
  5
9A3
331
387
  5
3BD
331
5A9
  5
8FE
331
370
  5
3A6
331
58A
  5
5C4
331
351
  5
387
331
56B
  5
5A3
331
332
  5
368
331
554
  5
595
331
313
  5
349
331
516
  5
580
331
4DC
  5
570
331
49E
  5
549
331
47F
  5
4D7
331
A93
  5
E72
331
9A4
  5
E68
331
91D
  5
E4B
331
8FE
  5
E2C
331
DD
  5
15A
331
A7
  5
125
331
204
  5
23B
331
1C6
  5
1FC
331
190
  5
1D0
331
152
  5
196
331
2FC
  5
332
331
11B
  5
17D
331
2DD
  5
313
331
2BE
  5
2F4
331
29F
  5
2D5
331
E67
  5
FC2
331
E48
  5
FA3
331
E29
  5
F84
331
E0A
  5
F65
331
3F3
  5
429
331
3D4
  5
40A
331
3B5
  5
3EB
331
6FF
  5
DE8
331
396
  5
3CC
331
37F
  5
3B5
331
599
  5
6FC
331
360
  5
396
331
57A
  5
5B2
331
341
  5
377
331
544
  5
585
331
322
  5
358
331
506
  5
57C
331
48E
  5
4FE
331
90D
  5
E3B
331
AE
  5
12C
331
213
  5
249
331
1F4
  5
22B
331
1D5
  5
20B
331
1B6
  5
1EC
331
19F
  5
1D9
331
180
  5
1C0
331
161
  5
1AD
331
2EC
  5
322
331
12A
  5
18C
331
2CD
  5
303
331
2AE
  5
2E4
331
E57
  5
FB2
331
E38
  5
F93
331
E19
  5
F74
331
DFA
  5
E90
331
3E3
  5
419
331
3C4
  5
3FA
331
3A5
  5
3DB
331
6EF
  5
9A2
331
386
  5
3BC
331
5A8
  5
8FC
331
36F
  5
3A5
331
589
  5
5C3
331
350
  5
386
331
331
  5
367
331
553
  5
594
331
312
  5
348
331
515
  5
57F
331
4DB
  5
56F
331
4F6
  5
578
331
49D
  5
548
331
47E
  5
4D6
331
467
  5
49D
331
9A3
  5
E67
331
91C
  5
E4A
331
8FD
  5
E2B
331
DC
  5
159
331
A6
  5
124
331
203
  5
23A
331
1E4
  5
21D
331
1C5
  5
1FB
331
18F
  5
1CF
331
151
  5
195
331
2FB
  5
331
331
11A
  5
17C
331
2DC
  5
312
331
2BD
  5
2F3
331
29E
  5
2D4
331
287
  5
2BD
331
E66
  5
FC1
331
E47
  5
FA2
331
E28
  5
F83
331
E09
  5
F64
331
3F2
  5
428
331
3D3
  5
409
331
3B4
  5
3EA
331
6FE
  5
DE6
331
395
  5
3CB
331
5B7
  5
90C
331
37E
  5
3B4
331
598
  5
6FB
331
35F
  5
395
331
579
  5
5B1
331
340
  5
376
331
543
  5
584
331
321
  5
357
331
505
  5
57B
331
48D
  5
4FD
331
457
  5
48D
331
993
  5
E55
331
90C
  5
E3A
331
AD
  5
12B
331
212
  5
248
331
1F3
  5
22A
331
1D4
  5
20A
331
1B5
  5
1EB
331
17F
  5
1BF
331
160
  5
1AC
331
2EB
  5
321
331
129
  5
18B
331
2CC
  5
302
331
2AD
  5
2E3
331
277
  5
2AD
331
E56
  5
FB1
331
E37
  5
F92
331
E18
  5
F73
331
DF9
  5
E8F
331
3E2
  5
418
331
3C3
  5
3F9
331
3A4
  5
3DA
331
6EE
  5
9A1
331
385
  5
3BB
331
5A7
  5
8FB
331
36E
  5
3A4
331
588
  5
5C2
331
34F
  5
385
331
330
  5
366
331
552
  5
593
331
311
  5
347
331
4DA
  5
56E
331
4F5
  5
577
331
49C
  5
547
331
47D
  5
4D5
331
466
  5
49C
331
447
  5
47D
331
9A2
  5
E66
331
91B
  5
E49
331
DB
  5
158
331
A5
  5
123
331
202
  5
239
331
1E3
  5
21C
331
1C4
  5
1FA
331
18E
  5
1CE
331
16F
  5
1B9
331
2FA
  5
330
331
150
  5
194
331
2DB
  5
311
331
2BC
  5
2F2
331
29D
  5
2D3
331
286
  5
2BC
331
267
  5
29D
331
E65
  5
FC0
331
E46
  5
FA1
331
E27
  5
F82
331
E08
  5
F63
331
3F1
  5
427
331
3D2
  5
408
331
3B3
  5
3E9
331
6FD
  5
DE5
331
394
  5
3CA
331
5B6
  5
90B
331
37D
  5
3B3
331
597
  5
6FA
331
35E
  5
394
331
578
  5
5B0
331
33F
  5
375
331
48C
  5
4F6
331
320
  5
356
331
456
  5
48C
331
437
  5
46D
331
992
  5
E54
331
90B
  5
E39
331
AC
  5
12A
331
211
  5
247
331
1F2
  5
229
331
1D3
  5
209
331
1B4
  5
1EA
331
17E
  5
1BE
331
15F
  5
1AB
331
2EA
  5
320
331
128
  5
18A
331
2CB
  5
301
331
2AC
  5
2E2
331
276
  5
2AC
331
257
  5
28D
331
E55
  5
FB0
331
E36
  5
F91
331
E17
  5
F72
331
DF8
  5
E8E
331
3E1
  5
417
331
3C2
  5
3F8
331
3A3
  5
3D9
331
6ED
  5
99E
331
384
  5
3BA
331
5A6
  5
8FA
331
36D
  5
3A3
331
587
  5
5C1
331
34E
  5
384
331
32F
  5
365
331
551
  5
592
331
310
  5
346
331
4D9
  5
56D
331
49B
  5
546
331
47C
  5
4D4
331
465
  5
49B
331
446
  5
47C
331
427
  5
45D
331
9A1
  5
E65
331
91A
  5
E48
331
8FB
  5
E26
331
DA
  5
157
331
A4
  5
122
331
201
  5
238
331
1E2
  5
21B
331
1C3
  5
1F9
331
18D
  5
1CD
331
14F
  5
193
331
2F9
  5
32F
331
118
  5
17B
331
2DA
  5
310
331
2BB
  5
2F1
331
29C
  5
2D2
331
285
  5
2BB
331
266
  5
29C
331
247
  5
27D
331
E64
  5
FBF
331
E45
  5
FA0
331
E26
  5
F81
331
E07
  5
F62
331
3F0
  5
426
331
3D1
  5
407
331
3B2
  5
3E8
331
6FC
  5
A94
331
393
  5
3C9
331
5B5
  5
90A
331
37C
  5
3B2
331
596
  5
6F9
331
35D
  5
393
331
577
  5
5AF
331
33E
  5
374
331
4AA
  5
555
331
31F
  5
355
331
48B
  5
4F5
331
455
  5
48B
331
436
  5
46C
331
417
  5
44D
331
90A
  5
E38
331
AB
  5
129
331
FEF
  5
99
331
210
  5
246
331
1F1
  5
228
331
1D2
  5
208
331
1B3
  5
1E9
331
17D
  5
1BD
331
2E9
  5
31F
331
127
  5
189
331
2CA
  5
300
331
2AB
  5
2E1
331
275
  5
2AB
331
256
  5
28C
331
237
  5
26D
331
E54
  5
FAF
331
E35
  5
F90
331
E16
  5
F71
331
DF7
  5
E8D
331
3E0
  5
416
331
3C1
  5
3F7
331
3A2
  5
3D8
331
383
  5
3B9
331
5A5
  5
8F5
331
36C
  5
3A2
331
586
  5
5BE
331
34D
  5
383
331
32E
  5
364
331
550
  5
591
331
30F
  5
345
331
4D8
  5
56B
331
49A
  5
545
331
47B
  5
4D3
331
464
  5
49A
331
445
  5
47B
331
426
  5
45C
331
407
  5
43D
331
9A0
  5
E64
331
919
  5
E47
331
8FA
  5
E25
331
D9
  5
156
331
A3
  5
121
331
FDF
  5
DE
331
200
  5
237
331
1E1
  5
21A
331
1C2
  5
1F8
331
18C
  5
1CC
331
16D
  5
1B8
331
2F8
  5
32E
331
117
  5
175
331
2D9
  5
30F
331
2BA
  5
2F0
331
29B
  5
2D1
331
284
  5
2BA
331
265
  5
29B
331
246
  5
27C
331
227
  5
25D
331
E63
  5
FBE
331
E44
  5
F9F
331
E25
  5
F80
331
E06
  5
F61
331
DEF
  5
E85
331
3D0
  5
406
331
3B1
  5
3E7
331
6FB
  5
A93
331
392
  5
3C8
331
5B4
  5
909
331
37B
  5
3B1
331
595
  5
6F8
331
35C
  5
392
331
576
  5
5AE
331
33D
  5
373
331
4A9
  5
554
331
31E
  5
354
331
48A
  5
4EE
331
454
  5
48A
331
435
  5
46B
331
416
  5
44C
331
A87
  5
E6B
331
990
  5
E4F
331
909
  5
E37
331
AA
  5
128
331
FEE
  5
A6
331
1F0
  5
227
331
1D1
  5
207
331
1B2
  5
1E8
331
17C
  5
1BC
331
307
  5
33D
331
126
  5
188
331
2E8
  5
31E
331
2C9
  5
2FF
331
2AA
  5
2E0
331
274
  5
2AA
331
255
  5
28B
331
236
  5
26C
331
E53
  5
FAE
331
E34
  5
F8F
331
E15
  5
F70
331
DF6
  5
E8C
331
3C0
  5
3F6
331
3A1
  5
3D7
331
382
  5
3B8
331
5A4
  5
8F4
331
36B
  5
3A1
331
585
  5
5BD
331
34C
  5
382
331
32D
  5
363
331
54F
  5
590
331
30E
  5
344
331
4D7
  5
566
331
499
  5
527
331
47A
  5
4D2
331
463
  5
499
331
444
  5
47A
331
425
  5
45B
331
406
  5
43C
331
A8E
  5
E71
331
99F
  5
E63
331
918
  5
E46
331
D8
  5
155
331
FC7
  5
DFF
331
FDE
  5
DD
331
1E0
  5
219
331
1C1
  5
1F7
331
18B
  5
1CB
331
2F7
  5
32D
331
14D
  5
192
331
2D8
  5
30E
331
2B9
  5
2EF
331
29A
  5
2D0
331
283
  5
2B9
331
264
  5
29A
331
245
  5
27B
331
226
  5
25C
331
E62
  5
FBD
331
E43
  5
F9E
331
E24
  5
F7F
331
E05
  5
F60
331
DEE
  5
E84
331
3B0
  5
3E6
331
6FA
  5
A8E
331
391
  5
3C7
331
5B3
  5
908
331
37A
  5
3B0
331
594
  5
6F7
331
35B
  5
391
331
575
  5
5AD
331
33C
  5
372
331
4E6
  5
574
331
31D
  5
353
331
4A8
  5
553
331
489
  5
4ED
331
453
  5
489
331
434
  5
46A
331
415
  5
44B
331
A86
  5
E6A
331
98F
  5
E4E
331
908
  5
E36
331
A9
  5
127
331
FB7
  5
E11
331
FED
  5
A5
331
1D0
  5
206
331
1B1
  5
1E7
331
17B
  5
1BB
331
306
  5
33C
331
125
  5
187
331
2E7
  5
31D
331
2C8
  5
2FE
331
2A9
  5
2DF
331
273
  5
2A9
331
254
  5
28A
331
235
  5
26B
331
E52
  5
FAD
331
E33
  5
F8E
331
E14
  5
F6F
331
DF5
  5
E8B
331
3A0
  5
3D6
331
381
  5
3B7
331
5A3
  5
8F2
331
36A
  5
3A0
331
584
  5
5BC
331
34B
  5
381
331
565
  5
5A0
331
32C
  5
362
331
54E
  5
58F
331
30D
  5
343
331
4D6
  5
565
331
498
  5
526
331
479
  5
4D1
331
462
  5
498
331
443
  5
479
331
424
  5
45A
331
405
  5
43B
331
99E
  5
E62
331
917
  5
E45
331
B8
  5
154
331
FA7
  5
E52
331
FC6
  5
DFE
331
FDD
  5
E0
331
1C0
  5
1F6
331
1A1
  5
1DB
331
18A
  5
1CA
331
2F6
  5
32C
331
16B
  5
1B7
331
2D7
  5
30D
331
2B8
  5
2EE
331
299
  5
2CF
331
282
  5
2B8
331
263
  5
299
331
244
  5
27A
331
225
  5
25B
331
E61
  5
FBC
331
E42
  5
F9D
331
E23
  5
F7E
331
E04
  5
F5F
331
DED
  5
E83
331
6F9
  5
A8C
331
390
  5
3C6
331
5B2
  5
907
331
379
  5
3AF
331
593
  5
6F6
331
35A
  5
390
331
574
  5
5AC
331
33B
  5
371
331
55D
  5
59E
331
31C
  5
352
331
51F
  5
583
331
4E5
  5
573
331
4A7
  5
552
331
488
  5
4E6
331
452
  5
488
331
433
  5
469
331
414
  5
44A
331
907
  5
E35
331
E6
  5
167
331
A8
  5
126
331
FB6
  5
E10
331
FEC
  5
A4
331
1B0
  5
1E4
331
305
  5
33B
331
124
  5
186
331
2E6
  5
31C
331
2C7
  5
2FD
331
2A8
  5
2DE
331
272
  5
2A8
331
253
  5
289
331
234
  5
26A
331
E51
  5
FAC
331
E32
  5
F8D
331
E13
  5
F6E
331
DF4
  5
E8A
331
380
  5
3B6
331
5A2
  5
8F1
331
369
  5
39F
331
583
  5
5BB
331
34A
  5
380
331
564
  5
59F
331
32B
  5
361
331
54D
  5
58E
331
30C
  5
342
331
4D5
  5
564
331
497
  5
51F
331
478
  5
4D0
331
461
  5
497
331
442
  5
478
331
423
  5
459
331
404
  5
43A
331
A8C
  5
E70
331
99D
  5
E61
331
916
  5
E44
331
B7
  5
153
331
FA6
  5
E51
331
FC5
  5
DFB
331
FDC
  5
E6
331
F87
  5
D8
331
1A0
  5
1DA
331
189
  5
1C9
331
16A
  5
1B6
331
2F5
  5
32B
331
14B
  5
191
331
2D6
  5
30C
331
2B7
  5
2ED
331
298
  5
2CE
331
281
  5
2B7
331
262
  5
298
331
243
  5
279
331
224
  5
25A
331
E60
  5
FBB
331
E41
  5
F9C
331
E22
  5
F7D
331
E03
  5
F5E
331
DEC
  5
E82
331
6F8
  5
A8B
331
5B1
  5
906
331
378
  5
3AE
331
592
  5
6F5
331
359
  5
38F
331
573
  5
5AB
331
33A
  5
370
331
55C
  5
59D
331
31B
  5
351
331
51E
  5
582
331
4A6
  5
551
331
487
  5
4E5
331
451
  5
487
331
432
  5
468
331
413
  5
449
331
906
  5
E34
331
E5
  5
166
331
FB5
  5
E0F
331
FEB
  5
AA
331
198
  5
1D8
331
15A
  5
1AA
331
304
  5
33A
331
123
  5
185
331
2E5
  5
31B
331
2C6
  5
2FC
331
2A7
  5
2DD
331
271
  5
2A7
331
252
  5
288
331
233
  5
269
331
E50
  5
FAB
331
E31
  5
F8C
331
E12
  5
F6D
331
DF3
  5
E89
331
5A1
  5
8F0
331
368
  5
39E
331
582
  5
5BA
331
349
  5
37F
331
32A
  5
360
331
54C
  5
58D
331
30B
  5
341
331
50E
  5
57E
331
4D4
  5
55D
331
496
  5
51E
331
477
  5
4CF
331
460
  5
496
331
441
  5
477
331
422
  5
458
331
403
  5
439
331
A8B
  5
E6F
331
915
  5
E43
331
F4
  5
16F
331
B6
  5
152
331
FA5
  5
E50
331
FC4
  5
E02
331
FDB
  5
E5
331
F86
  5
B8
331
188
  5
1C8
331
2F4
  5
32A
331
169
  5
1B5
331
2D5
  5
30B
331
2B6
  5
2EC
331
297
  5
2CD
331
280
  5
2B6
331
261
  5
297
331
242
  5
278
331
223
  5
259
331
97
  5
11A
331
E40
  5
F9B
331
E21
  5
F7C
331
E02
  5
E98
331
DEB
  5
E81
331
5B0
  5
905
331
591
  5
6F4
331
358
  5
38E
331
572
  5
5AA
331
339
  5
36F
331
55B
  5
59C
331
31A
  5
350
331
51D
  5
581
331
4FE
  5
57A
331
4A5
  5
550
331
486
  5
4DE
331
46F
  5
4A5
331
450
  5
486
331
431
  5
467
331
412
  5
448
331
905
  5
E33
331
E4
  5
165
331
FB4
  5
E12
331
FEA
  5
B3
331
159
  5
1A9
331
303
  5
339
331
122
  5
184
331
2E4
  5
31A
331
2C5
  5
2FB
331
2A6
  5
2DC
331
28F
  5
2C5
331
270
  5
2A6
331
251
  5
287
331
232
  5
268
331
E30
  5
F8B
331
E11
  5
F6C
331
DF2
  5
E88
331
5A0
  5
835
331
581
  5
5B9
331
348
  5
37E
331
329
  5
35F
331
54B
  5
58C
331
30A
  5
340
331
50D
  5
57D
331
4D3
  5
55C
331
4EE
  5
576
331
495
  5
51D
331
476
  5
4AC
331
45F
  5
495
331
440
  5
476
331
421
  5
457
331
402
  5
438
331
A8A
  5
E6E
331
99B
  5
E60
331
914
  5
E42
331
8F5
  5
E24
331
F3
  5
16D
331
B5
  5
151
331
FA4
  5
E53
331
FC3
  5
E05
331
FDA
  5
E4
331
2F3
  5
329
331
168
  5
1B4
331
2D4
  5
30A
331
2B5
  5
2EB
331
296
  5
2CC
331
27F
  5
2B5
331
260
  5
296
331
241
  5
277
331
222
  5
258
331
96
  5
118
331
E20
  5
F7B
331
E01
  5
E97
331
DEA
  5
E80
331
590
  5
6F3
331
571
  5
5A9
331
338
  5
36E
331
55A
  5
59B
331
319
  5
34F
331
4FD
  5
579
331
4A4
  5
54F
331
485
  5
4DD
331
46E
  5
4A4
331
44F
  5
485
331
430
  5
466
331
411
  5
447
331
904
  5
E32
331
E3
  5
164
331
FB3
  5
E15
331
FE9
  5
B2
331
F94
  5
95
331
158
  5
1A8
331
302
  5
338
331
121
  5
183
331
2E3
  5
319
331
2C4
  5
2FA
331
2A5
  5
2DB
331
5BE
  5
99A
331
28E
  5
2C4
331
26F
  5
2A5
331
250
  5
286
331
231
  5
267
331
E10
  5
F6B
331
DF1
  5
E87
331
580
  5
5B8
331
328
  5
35E
331
54A
  5
58B
331
309
  5
33F
331
4D2
  5
55B
331
4ED
  5
575
331
494
  5
516
331
475
  5
4AB
331
45E
  5
494
331
43F
  5
475
331
420
  5
456
331
401
  5
437
331
A89
  5
E6D
331
99A
  5
E5F
331
913
  5
E41
331
8F4
  5
E23
331
F2
  5
16B
331
B4
  5
150
331
9D
  5
120
331
FA3
  5
E58
331
FC2
  5
E04
331
FD9
  5
F1
331
2F2
  5
328
331
2D3
  5
309
331
2B4
  5
2EA
331
295
  5
2CB
331
27E
  5
2B4
331
25F
  5
295
331
240
  5
276
331
221
  5
257
331
95
  5
117
331
E00
  5
E96
331
DE9
  5
E7F
331
570
  5
5A8
331
559
  5
59A
331
318
  5
34E
331
4A3
  5
54E
331
484
  5
4DC
331
46D
  5
4A3
331
44E
  5
484
331
42F
  5
465
331
410
  5
446
331
903
  5
E31
331
E2
  5
163
331
FB2
  5
E14
331
FE8
  5
B1
331
F93
  5
94
331
301
  5
337
331
120
  5
182
331
2E2
  5
318
331
2C3
  5
2F9
331
2A4
  5
2DA
331
5BD
  5
999
331
28D
  5
2C3
331
26E
  5
2A4
331
24F
  5
285
331
230
  5
266
331
DF0
  5
E86
331
549
  5
58A
331
308
  5
33E
331
4D1
  5
55A
331
493
  5
515
331
474
  5
4AA
331
45D
  5
493
331
43E
  5
474
331
41F
  5
455
331
400
  5
436
331
A88
  5
E6C
331
999
  5
E5E
331
912
  5
E40
331
F1
  5
16A
331
B3
  5
14F
331
9C
  5
11F
331
FA2
  5
E57
331
FC1
  5
E03
331
FD8
  5
F0
331
2F1
  5
327
331
2D2
  5
308
331
2B3
  5
2E9
331
294
  5
2CA
331
27D
  5
2B3
331
25E
  5
294
331
23F
  5
275
331
220
  5
256
331
94
  5
F4
331
DE8
  5
E7E
331
558
  5
599
331
4A2
  5
54D
331
483
  5
4DB
331
46C
  5
4A2
331
44D
  5
483
331
42E
  5
464
331
40F
  5
445
331
902
  5
E30
331
E1
  5
162
331
FB1
  5
E13
331
FE7
  5
B6
331
F92
  5
93
331
300
  5
336
331
2E1
  5
317
331
2C2
  5
2F8
331
2A3
  5
2D9
331
5BC
  5
998
331
28C
  5
2C2
331
26D
  5
2A3
331
24E
  5
284
331
22F
  5
265
331
548
  5
589
331
4D0
  5
559
331
492
  5
50E
331
473
  5
4A9
331
45C
  5
492
331
43D
  5
473
331
41E
  5
454
331
3FF
  5
435
331
998
  5
E5D
331
911
  5
E3F
331
8F2
  5
E22
331
F0
  5
169
331
B2
  5
14D
331
9B
  5
11E
331
FA1
  5
E56
331
FC0
  5
E06
331
FD7
  5
EF
331
F82
  5
E3
331
2F0
  5
326
331
2D1
  5
307
331
2B2
  5
2E8
331
293
  5
2C9
331
27C
  5
2B2
331
25D
  5
293
331
23E
  5
274
331
21F
  5
255
331
93
  5
F3
331
4A1
  5
54C
331
482
  5
4DA
331
46B
  5
4A1
331
44C
  5
482
331
42D
  5
463
331
40E
  5
444
331
901
  5
E2F
331
E0
  5
161
331
FB0
  5
E16
331
FCF
  5
DEF
331
FE6
  5
B5
331
2E0
  5
316
331
2C1
  5
2F7
331
2A2
  5
2D8
331
5BB
  5
997
331
28B
  5
2C1
331
26C
  5
2A2
331
24D
  5
283
331
22E
  5
264
331
491
  5
50D
331
472
  5
4A8
331
45B
  5
491
331
43C
  5
472
331
41D
  5
453
331
3FE
  5
434
331
910
  5
E3E
331
8F1
  5
E1F
331
B1
  5
14B
331
9A
  5
11D
331
FA0
  5
E59
331
FBF
  5
E09
331
FD6
  5
F2
331
F81
  5
E2
331
2D0
  5
306
331
2B1
  5
2E7
331
292
  5
2C8
331
27B
  5
2B1
331
25C
  5
292
331
23D
  5
273
331
21E
  5
254
331
4A0
  5
54B
331
481
  5
4D9
331
46A
  5
4A0
331
44B
  5
481
331
42C
  5
462
331
40D
  5
443
331
900
  5
E2E
331
FAF
  5
E19
331
FCE
  5
DF2
331
FE5
  5
B4
331
2C0
  5
2F6
331
2A1
  5
2D7
331
5BA
  5
90F
331
28A
  5
2C0
331
26B
  5
2A1
331
24C
  5
282
331
22D
  5
263
331
490
  5
506
331
471
  5
4A7
331
45A
  5
490
331
43B
  5
471
331
41C
  5
452
331
3FD
  5
433
331
8F0
  5
E1E
331
701
  5
DEA
331
B0
  5
12E
331
F9F
  5
E76
331
FBE
  5
E08
331
FD5
  5
DED
331
99
  5
11C
331
F80
  5
E1
331
2B0
  5
2E6
331
291
  5
2C7
331
27A
  5
2B0
331
25B
  5
291
331
23C
  5
272
331
21D
  5
253
331
480
  5
4D8
331
469
  5
49F
331
44A
  5
480
331
42B
  5
461
331
40C
  5
442
331
FAE
  5
E18
331
FE4
  5
B7
331
2A0
  5
2D6
331
5B9
  5
90E
331
289
  5
2BF
331
26A
  5
2A0
331
24B
  5
281
331
22C
  5
262
331
E97
  5
FF2
331
470
  5
4A6
331
459
  5
48F
331
43A
  5
470
331
41B
  5
451
331
3FC
  5
432
331
700
  5
DE9
331
FF3
  5
DF5
331
F9E
  5
E75
331
FBD
  5
E07
331
FD4
  5
DEC
331
98
  5
11B
331
F7F
  5
5A2
331
290
  5
2C6
331
279
  5
2AF
331
25A
  5
290
331
5C3
  5
99D
331
23B
  5
271
331
21C
  5
252
331
E87
  5
FE2
331
468
  5
49E
331
449
  5
47F
331
42A
  5
460
331
40B
  5
441
331
FAD
  5
E17
331
FCC
  5
DF6
331
FE3
  5
DC
331
F8E
  5
B0
331
5B8
  5
90D
331
288
  5
2BE
331
269
  5
29F
331
24A
  5
280
331
22B
  5
261
331
E96
  5
FF1
331
E77
  5
FD2
331
458
  5
48E
331
439
  5
46F
331
41A
  5
450
331
3FB
  5
431
331
FF2
  5
DF4
331
F9D
  5
E74
331
FBC
  5
E0A
331
FD3
  5
DEB
331
F7E
  5
5A1
331
278
  5
2AE
331
259
  5
28F
331
5C2
  5
99C
331
23A
  5
270
331
21B
  5
251
331
E86
  5
FE1
331
448
  5
47E
331
429
  5
45F
331
40A
  5
440
331
FAC
  5
E1A
331
FCB
  5
DF9
331
FE2
  5
DB
331
F8D
  5
AC
331
268
  5
29E
331
249
  5
27F
331
22A
  5
260
331
E95
  5
FF0
331
E76
  5
FD1
331
438
  5
46E
331
419
  5
44F
331
3FA
  5
430
331
F9C
  5
E77
331
FBB
  5
E0D
331
FD2
  5
DEE
331
FF1
  5
9B
331
258
  5
28E
331
5C1
  5
99B
331
239
  5
26F
331
21A
  5
250
331
E85
  5
FE0
331
428
  5
45E
331
409
  5
43F
331
FAB
  5
E29
331
FCA
  5
DF8
331
FE1
  5
DA
331
F8C
  5
AB
331
248
  5
27E
331
229
  5
25F
331
E94
  5
FEF
331
E75
  5
FD0
331
418
  5
44E
331
3F9
  5
42F
331
F9B
  5
E7C
331
FBA
  5
E0C
331
FD1
  5
DF1
331
FF0
  5
9A
331
238
  5
26E
331
219
  5
24F
  0
XRECORD
  5
FF9
102
{ACAD_REACTORS
330
FF7
102
}
330
FF7
100
AcDbXrecord
280
     1
 70
     2
  0
XRECORD
  5
FF8
102
{ACAD_REACTORS
330
FF7
102
}
330
FF7
100
AcDbXrecord
280
     1
 40
1.25
  0
XRECORD
  5
FFA
102
{ACAD_REACTORS
330
FF7
102
}
330
FF7
100
AcDbXrecord
280
     1
 40
1.570796326794896
  0
LAYOUT
  5
39
102
{ACAD_XDICTIONARY
360
101E
102
}
102
{ACAD_REACTORS
330
2E
102
}
330
2E
100
AcDbPlotSettings
  1

  2
PDF Complete
  4
A4
  6

 40
3.174999952316281
 41
3.174999952316281
 42
3.175003051757812
 43
3.17498779296875
 44
209.9733276367186
 45
297.0106506347656
 46
0.0
 47
0.0
 48
0.0
 49
0.0
140
0.0
141
0.0
142
1.0
143
39.12380820411325
 70
 11952
 72
     0
 73
     1
 74
     0
  7

 75
     0
147
0.0255598840169875
148
5408.97214933129
149
3667.222993251254
100
AcDbLayout
  1
Model
 70
     1
 71
     0
 10
0.0
 20
0.0
 11
12.0
 21
9.0
 12
0.0
 22
0.0
 32
0.0
 14
0.0
 24
0.0
 34
0.0
 15
0.0
 25
0.0
 35
0.0
146
0.0
 13
0.0
 23
0.0
 33
0.0
 16
1.0
 26
0.0
 36
0.0
 17
0.0
 27
1.0
 37
0.0
 76
     0
330
36
331
56
1001
ACAD_PSEXT
1000
PDF Complete
1000
PDF Complete Converter
1000
PDFC
1000
PDF Document Creator
1070
     0
  0
LAYOUT
  5
35
102
{ACAD_XDICTIONARY
360
101C
102
}
102
{ACAD_REACTORS
330
2E
102
}
330
2E
100
AcDbPlotSettings
  1

  2
PDF Complete
  4

  6

 40
0.0
 41
0.0
 42
0.0
 43
0.0
 44
0.0
 45
0.0
 46
0.0
 47
0.0
 48
0.0
 49
0.0
140
0.0
141
0.0
142
1.0
143
1.0
 70
   688
 72
     0
 73
     0
 74
     5
  7

 75
    16
147
1.0
148
0.0
149
0.0
100
AcDbLayout
  1
レイアウト1
 70
     1
 71
     1
 10
0.0
 20
0.0
 11
12.0
 21
9.0
 12
0.0
 22
0.0
 32
0.0
 14
1.000000000000000E+20
 24
1.000000000000000E+20
 34
1.000000000000000E+20
 15
-1.000000000000000E+20
 25
-1.000000000000000E+20
 35
-1.000000000000000E+20
146
0.0
 13
0.0
 23
0.0
 33
0.0
 16
1.0
 26
0.0
 36
0.0
 17
0.0
 27
1.0
 37
0.0
 76
     0
330
32
  0
MATERIAL
  5
12
102
{ACAD_XDICTIONARY
360
5D8
102
}
102
{ACAD_REACTORS
330
10
102
}
330
10
100
AcDbMaterial
  1
ByBlock
  0
MATERIAL
  5
11
102
{ACAD_XDICTIONARY
360
5D6
102
}
102
{ACAD_REACTORS
330
10
102
}
330
10
100
AcDbMaterial
  1
ByLayer
  0
MATERIAL
  5
13
102
{ACAD_XDICTIONARY
360
5DA
102
}
102
{ACAD_REACTORS
330
10
102
}
330
10
100
AcDbMaterial
  1
Global
  0
MLEADERSTYLE
  5
610
102
{ACAD_REACTORS
330
60F
102
}
330
60F
100
AcDbMLeaderStyle
170
     2
171
     1
172
     0
 90
        2
 40
0.0
 41
0.0
173
     1
 91
-1056964608
340
28
 92
       -2
290
     1
 42
0.09
291
     1
 43
0.36
  3
Standard
 44
0.18
300

342
26
174
     1
178
     6
175
     1
176
     0
 93
-1056964608
 45
0.18
292
     0
297
     0
 46
0.18
 94
-1056964608
 47
1.0
 49
1.0
140
1.0
293
     1
141
0.0
294
     1
177
     0
142
1.0
295
     0
296
     0
143
0.125
1001
ACAD_MLEADERVER
1070
     2
  0
MLINESTYLE
  5
2C
102
{ACAD_REACTORS
330
2B
102
}
330
2B
100
AcDbMlineStyle
  2
STANDARD
 70
     0
  3

 62
   256
 51
90.0
 52
90.0
 71
     2
 49
0.5
 62
   256
  6
BYLAYER
 49
-0.5
 62
   256
  6
BYLAYER
  0
ACDBPLACEHOLDER
  5
F
102
{ACAD_REACTORS
330
E
102
}
330
E
  0
SCALE
  5
5FE
102
{ACAD_REACTORS
330
5FD
102
}
330
5FD
100
AcDbScale
 70
     0
300
1:1
140
1.0
141
1.0
290
     1
  0
SCALE
  5
5FF
102
{ACAD_REACTORS
330
5FD
102
}
330
5FD
100
AcDbScale
 70
     0
300
1/128" = 1'-0"
140
0.0078125
141
12.0
290
     0
  0
SCALE
  5
600
102
{ACAD_REACTORS
330
5FD
102
}
330
5FD
100
AcDbScale
 70
     0
300
1/64" = 1'-0"
140
0.015625
141
12.0
290
     0
  0
SCALE
  5
601
102
{ACAD_REACTORS
330
5FD
102
}
330
5FD
100
AcDbScale
 70
     0
300
1/32" = 1'-0"
140
0.03125
141
12.0
290
     0
  0
SCALE
  5
602
102
{ACAD_REACTORS
330
5FD
102
}
330
5FD
100
AcDbScale
 70
     0
300
1/16" = 1'-0"
140
0.0625
141
12.0
290
     0
  0
SCALE
  5
603
102
{ACAD_REACTORS
330
5FD
102
}
330
5FD
100
AcDbScale
 70
     0
300
3/32" = 1'-0"
140
0.09375
141
12.0
290
     0
  0
SCALE
  5
604
102
{ACAD_REACTORS
330
5FD
102
}
330
5FD
100
AcDbScale
 70
     0
300
1/8" = 1'-0"
140
0.125
141
12.0
290
     0
  0
SCALE
  5
605
102
{ACAD_REACTORS
330
5FD
102
}
330
5FD
100
AcDbScale
 70
     0
300
3/16" = 1'-0"
140
0.1875
141
12.0
290
     0
  0
SCALE
  5
606
102
{ACAD_REACTORS
330
5FD
102
}
330
5FD
100
AcDbScale
 70
     0
300
1/4" = 1'-0"
140
0.25
141
12.0
290
     0
  0
SCALE
  5
607
102
{ACAD_REACTORS
330
5FD
102
}
330
5FD
100
AcDbScale
 70
     0
300
3/8" = 1'-0"
140
0.375
141
12.0
290
     0
  0
SCALE
  5
608
102
{ACAD_REACTORS
330
5FD
102
}
330
5FD
100
AcDbScale
 70
     0
300
1/2" = 1'-0"
140
0.5
141
12.0
290
     0
  0
SCALE
  5
609
102
{ACAD_REACTORS
330
5FD
102
}
330
5FD
100
AcDbScale
 70
     0
300
3/4" = 1'-0"
140
0.75
141
12.0
290
     0
  0
SCALE
  5
60A
102
{ACAD_REACTORS
330
5FD
102
}
330
5FD
100
AcDbScale
 70
     0
300
1" = 1'-0"
140
1.0
141
12.0
290
     0
  0
SCALE
  5
60B
102
{ACAD_REACTORS
330
5FD
102
}
330
5FD
100
AcDbScale
 70
     0
300
1-1/2" = 1'-0"
140
1.5
141
12.0
290
     0
  0
SCALE
  5
60C
102
{ACAD_REACTORS
330
5FD
102
}
330
5FD
100
AcDbScale
 70
     0
300
3" = 1'-0"
140
3.0
141
12.0
290
     0
  0
SCALE
  5
60D
102
{ACAD_REACTORS
330
5FD
102
}
330
5FD
100
AcDbScale
 70
     0
300
6" = 1'-0"
140
6.0
141
12.0
290
     0
  0
SCALE
  5
60E
102
{ACAD_REACTORS
330
5FD
102
}
330
5FD
100
AcDbScale
 70
     0
300
1'-0" = 1'-0"
140
12.0
141
12.0
290
     0
  0
TABLESTYLE
  5
31
102
{ACAD_XDICTIONARY
360
882
102
}
102
{ACAD_REACTORS
330
30
102
}
330
30
100
AcDbTableStyle
  3
Standard
 70
     0
 71
     0
 40
0.06
 41
0.06
280
     0
281
     0
  7
STANDARD
140
0.18
170
     2
 62
     0
 63
     7
283
     0
274
    -2
284
     1
 64
     0
275
    -2
285
     1
 65
     0
276
    -2
286
     1
 66
     0
277
    -2
287
     1
 67
     0
278
    -2
288
     1
 68
     0
279
    -2
289
     1
 69
     0
  7
STANDARD
140
0.25
170
     5
 62
     0
 63
     7
283
     0
274
    -2
284
     1
 64
     0
275
    -2
285
     1
 65
     0
276
    -2
286
     1
 66
     0
277
    -2
287
     1
 67
     0
278
    -2
288
     1
 68
     0
279
    -2
289
     1
 69
     0
  7
STANDARD
140
0.18
170
     5
 62
     0
 63
     7
283
     0
274
    -2
284
     1
 64
     0
275
    -2
285
     1
 65
     0
276
    -2
286
     1
 66
     0
277
    -2
287
     1
 67
     0
278
    -2
288
     1
 68
     0
279
    -2
289
     1
 69
     0
  0
VISUALSTYLE
  5
1A
102
{ACAD_XDICTIONARY
360
1005
102
}
102
{ACAD_REACTORS
330
14
102
}
330
14
100
AcDbVisualStyle
  2

 70
     4
 71
     0
 72
     2
 73
     0
 90
        0
 40
-0.6
 41
-30.0
 62
     5
 63
     7
 74
     1
 91
        4
 64
     7
 65
   257
 75
     1
175
     1
 42
1.0
 92
        0
 66
   257
 43
1.0
 76
     1
 77
     6
 78
     2
 67
     7
 79
     5
170
     0
171
     0
290
     0
174
     0
 93
        1
 44
0.0
173
     0
291
     0
 45
0.0
1001
ACAD
1000
AcDbSavedByObjectVersion
1070
     0
  0
VISUALSTYLE
  5
1C
102
{ACAD_XDICTIONARY
360
1009
102
}
102
{ACAD_REACTORS
330
14
102
}
330
14
100
AcDbVisualStyle
  2

 70
     6
 71
     1
 72
     2
 73
     2
 90
        0
 40
-0.6
 41
-30.0
 62
     5
 63
     7
 74
     2
 91
        2
 64
     7
 65
   257
 75
     2
175
     1
 42
40.0
 92
        0
 66
   257
 43
1.0
 76
     1
 77
     6
 78
     2
 67
     7
 79
     3
170
     0
171
     0
290
     0
174
     0
 93
        1
 44
0.0
173
     0
291
     0
 45
0.0
1001
ACAD
1000
AcDbSavedByObjectVersion
1070
     0
  0
VISUALSTYLE
  5
1B
102
{ACAD_XDICTIONARY
360
1007
102
}
102
{ACAD_REACTORS
330
14
102
}
330
14
100
AcDbVisualStyle
  2

 70
     5
 71
     0
 72
     2
 73
     0
 90
        0
 40
-0.6
 41
-30.0
 62
     5
 63
     7
 74
     1
 91
        4
 64
     7
 65
   257
 75
     1
175
     1
 42
1.0
 92
        0
 66
   257
 43
1.0
 76
     1
 77
     6
 78
     2
 67
     7
 79
     5
170
     0
171
     0
290
     0
174
     0
 93
        1
 44
0.0
173
     0
291
     0
 45
0.0
1001
ACAD
1000
AcDbSavedByObjectVersion
1070
     0
  0
VISUALSTYLE
  5
19
102
{ACAD_XDICTIONARY
360
1003
102
}
102
{ACAD_REACTORS
330
14
102
}
330
14
100
AcDbVisualStyle
  2

 70
     7
 71
     1
 72
     0
 73
     1
 90
        0
 40
-0.6
 41
-30.0
 62
     5
 63
     7
 74
     0
 91
        4
 64
     7
 65
   257
 75
     1
175
     1
 42
1.0
 92
        8
 66
     7
 43
1.0
 76
     1
 77
     6
 78
     2
 67
     7
 79
     5
170
     0
171
     0
290
     0
174
     0
 93
        1
 44
0.0
173
     0
291
     1
 45
0.0
1001
ACAD
1000
AcDbSavedByObjectVersion
1070
     0
  0
VISUALSTYLE
  5
20
102
{ACAD_XDICTIONARY
360
1011
102
}
102
{ACAD_REACTORS
330
14
102
}
330
14
100
AcDbVisualStyle
  2

 70
    12
 71
     2
 72
     2
 73
     0
 90
        0
 40
-0.6
 41
-30.0
 62
     5
 63
     7
 74
     1
 91
        4
 64
     7
 65
   257
 75
     1
175
     1
 42
1.0
 92
        8
 66
     7
 43
1.0
 76
     1
 77
     6
 78
     2
 67
     7
 79
     5
170
     0
171
     0
290
     0
174
     0
 93
        1
 44
50.0
173
     0
291
     1
 45
0.0
1001
ACAD
1000
AcDbSavedByObjectVersion
1070
     0
  0
VISUALSTYLE
  5
24
102
{ACAD_XDICTIONARY
360
1019
102
}
102
{ACAD_REACTORS
330
14
102
}
330
14
100
AcDbVisualStyle
  2

 70
    16
 71
     2
 72
     2
 73
     3
 90
        0
 40
-0.6
 41
-30.0
 62
     5
 63
     8
 74
     1
 91
        4
 64
     7
 65
   257
 75
     1
175
     1
 42
1.0
 92
        8
 66
     8
 43
1.0
 76
     1
 77
     6
 78
     2
 67
     7
 79
     5
170
     0
171
     0
290
     0
174
     0
 93
        1
 44
0.0
173
     0
291
     1
 45
0.0
1001
ACAD
1000
AcDbSavedByObjectVersion
1070
     0
  0
VISUALSTYLE
  5
1D
102
{ACAD_XDICTIONARY
360
100B
102
}
102
{ACAD_REACTORS
330
14
102
}
330
14
100
AcDbVisualStyle
  2

 70
     9
 71
     3
 72
     2
 73
     0
 90
        0
 40
-0.6
 41
-30.0
 62
     5
 63
     7
 74
     2
 91
        2
 64
     7
 65
   257
 75
     1
175
     1
 42
40.0
 92
        8
 66
     7
 43
1.0
 76
     1
 77
     6
 78
     2
 67
     7
 79
     3
170
     0
171
     0
290
     0
174
     0
 93
        1
 44
0.0
173
     0
291
     0
 45
0.0
1001
ACAD
1000
AcDbSavedByObjectVersion
1070
     0
  0
VISUALSTYLE
  5
1F
102
{ACAD_XDICTIONARY
360
100F
102
}
102
{ACAD_REACTORS
330
14
102
}
330
14
100
AcDbVisualStyle
  2

 70
    11
 71
     2
 72
     2
 73
     0
 90
        0
 40
-0.6
 41
-30.0
 62
     5
 63
     7
 74
     1
 91
        4
 64
     7
 65
   257
 75
     1
175
     1
 42
1.0
 92
        8
 66
     7
 43
1.0
 76
     1
 77
     6
 78
     2
 67
     7
 79
     5
170
     0
171
     0
290
     0
174
     0
 93
        1
 44
-50.0
173
     0
291
     1
 45
0.0
1001
ACAD
1000
AcDbSavedByObjectVersion
1070
     0
  0
VISUALSTYLE
  5
5FC
102
{ACAD_XDICTIONARY
360
1032
102
}
102
{ACAD_REACTORS
330
14
102
}
330
14
100
AcDbVisualStyle
  2

 70
    22
 71
     2
 72
     2
 73
     0
 90
        0
 40
-0.6
 41
-30.0
 62
     5
 63
     7
 74
     1
 91
        4
 64
     7
 65
   257
 75
     1
175
     1
 42
1.0
 92
        8
 66
     7
 43
1.0
 76
     1
 77
     6
 78
     2
 67
     7
 79
     5
170
     0
171
     0
290
     0
174
     0
 93
        1
 44
0.0
173
     0
291
     1
 45
0.0
1001
ACAD
1000
AcDbSavedByObjectVersion
1070
     0
  0
VISUALSTYLE
  5
23
102
{ACAD_XDICTIONARY
360
1017
102
}
102
{ACAD_REACTORS
330
14
102
}
330
14
100
AcDbVisualStyle
  2

 70
    15
 71
     2
 72
     2
 73
     0
 90
        0
 40
-0.6
 41
-30.0
 62
     5
 63
     7
 74
     1
 91
        4
 64
     7
 65
   257
 75
     1
175
     1
 42
1.0
 92
        8
 66
     7
 43
1.0
 76
     1
 77
     6
 78
     2
 67
     7
 79
     5
170
     0
171
     0
290
     0
174
     0
 93
        1
 44
0.0
173
     0
291
     1
 45
0.0
1001
ACAD
1000
AcDbSavedByObjectVersion
1070
     0
  0
VISUALSTYLE
  5
15
102
{ACAD_XDICTIONARY
360
FFB
102
}
102
{ACAD_REACTORS
330
14
102
}
330
14
100
AcDbVisualStyle
  2

 70
     0
 71
     2
 72
     1
 73
     1
 90
        2
 40
-0.6
 41
30.0
 62
     5
 63
     7
 74
     0
 91
        4
 64
     7
 65
   257
 75
     1
175
     1
 42
1.0
 92
        8
 66
     7
 43
1.0
 76
     1
 77
     6
 78
     2
 67
     7
 79
     5
170
     0
171
     0
290
     0
174
     0
 93
       13
 44
0.0
173
     0
291
     1
 45
0.0
1001
ACAD
1000
AcDbSavedByObjectVersion
1070
     0
  0
VISUALSTYLE
  5
16
102
{ACAD_XDICTIONARY
360
FFD
102
}
102
{ACAD_REACTORS
330
14
102
}
330
14
100
AcDbVisualStyle
  2

 70
     1
 71
     2
 72
     1
 73
     1
 90
        2
 40
-0.6
 41
30.0
 62
     5
 63
     7
 74
     1
 91
        4
 64
     7
 65
   257
 75
     1
175
     1
 42
1.0
 92
        0
 66
   257
 43
1.0
 76
     1
 77
     6
 78
     2
 67
     7
 79
     5
170
     0
171
     0
290
     0
174
     0
 93
       13
 44
0.0
173
     0
291
     1
 45
0.0
1001
ACAD
1000
AcDbSavedByObjectVersion
1070
     0
  0
VISUALSTYLE
  5
17
102
{ACAD_XDICTIONARY
360
FFF
102
}
102
{ACAD_REACTORS
330
14
102
}
330
14
100
AcDbVisualStyle
  2

 70
     2
 71
     2
 72
     2
 73
     1
 90
        2
 40
-0.6
 41
30.0
 62
     5
 63
     7
 74
     0
 91
        4
 64
     7
 65
   257
 75
     1
175
     1
 42
1.0
 92
        0
 66
     7
 43
1.0
 76
     1
 77
     6
 78
     2
 67
     7
 79
     5
170
     0
171
     0
290
     0
174
     0
 93
       13
 44
0.0
173
     0
291
     1
 45
0.0
1001
ACAD
1000
AcDbSavedByObjectVersion
1070
     0
  0
VISUALSTYLE
  5
18
102
{ACAD_XDICTIONARY
360
1001
102
}
102
{ACAD_REACTORS
330
14
102
}
330
14
100
AcDbVisualStyle
  2

 70
     3
 71
     2
 72
     2
 73
     1
 90
        2
 40
-0.6
 41
30.0
 62
     5
 63
     7
 74
     1
 91
        4
 64
     7
 65
   257
 75
     1
175
     1
 42
1.0
 92
        0
 66
   257
 43
1.0
 76
     1
 77
     6
 78
     2
 67
     7
 79
     5
170
     0
171
     0
290
     0
174
     0
 93
       13
 44
0.0
173
     0
291
     1
 45
0.0
1001
ACAD
1000
AcDbSavedByObjectVersion
1070
     0
  0
VISUALSTYLE
  5
5F4
102
{ACAD_XDICTIONARY
360
1022
102
}
102
{ACAD_REACTORS
330
14
102
}
330
14
100
AcDbVisualStyle
  2

 70
     6
 71
     1
 72
     2
 73
     2
 90
        0
 40
-0.6
 41
-30.0
 62
     5
 63
     7
 74
     2
 91
        2
 64
     7
 65
   257
 75
     2
175
     1
 42
40.0
 92
        0
 66
   257
 43
1.0
 76
     1
 77
     6
 78
     2
 67
     7
 79
     3
170
     0
171
     0
290
     0
174
     0
 93
        1
 44
0.0
173
     0
291
     0
 45
0.0
1001
ACAD
1000
AcDbSavedByObjectVersion
1070
     0
  0
VISUALSTYLE
  5
5FA
102
{ACAD_XDICTIONARY
360
102E
102
}
102
{ACAD_REACTORS
330
14
102
}
330
14
100
AcDbVisualStyle
  2

 70
    20
 71
     2
 72
     2
 73
     0
 90
        0
 40
-0.6
 41
-30.0
 62
     5
 63
     7
 74
     1
 91
        4
 64
     7
 65
   257
 75
     1
175
     1
 42
1.0
 92
       10
 66
     7
 43
1.0
 76
     1
 77
     6
 78
     2
 67
     7
 79
     5
170
     0
171
     0
290
     0
174
     0
 93
        1
 44
0.0
173
     0
291
     1
 45
0.0
1001
ACAD
1000
AcDbSavedByObjectVersion
1070
     0
  0
VISUALSTYLE
  5
22
102
{ACAD_XDICTIONARY
360
1015
102
}
102
{ACAD_REACTORS
330
14
102
}
330
14
100
AcDbVisualStyle
  2

 70
    14
 71
     2
 72
     2
 73
     0
 90
        0
 40
-0.6
 41
-30.0
 62
     5
 63
     7
 74
     1
 91
        4
 64
     7
 65
   257
 75
     7
175
     7
 42
1.0
 92
        8
 66
     7
 43
1.0
 76
     1
 77
     6
 78
     2
 67
     7
 79
     5
170
     0
171
     0
290
     0
174
     0
 93
        1
 44
0.0
173
     0
291
     1
 45
0.0
1001
ACAD
1000
AcDbSavedByObjectVersion
1070
     0
  0
VISUALSTYLE
  5
5FB
102
{ACAD_XDICTIONARY
360
1030
102
}
102
{ACAD_REACTORS
330
14
102
}
330
14
100
AcDbVisualStyle
  2

 70
    21
 71
     2
 72
     2
 73
     0
 90
        0
 40
-0.6
 41
-30.0
 62
     5
 63
     7
 74
     1
 91
        4
 64
     7
 65
   257
 75
     1
175
     1
 42
1.0
 92
        9
 66
     7
 43
1.0
 76
     1
 77
     6
 78
     2
 67
     7
 79
     5
170
     0
171
     0
290
     0
174
     0
 93
        1
 44
0.0
173
     0
291
     1
 45
0.0
1001
ACAD
1000
AcDbSavedByObjectVersion
1070
     0
  0
VISUALSTYLE
  5
1E
102
{ACAD_XDICTIONARY
360
100D
102
}
102
{ACAD_REACTORS
330
14
102
}
330
14
100
AcDbVisualStyle
  2

 70
     8
 71
     2
 72
     2
 73
     0
 90
        0
 40
-0.6
 41
-30.0
 62
     5
 63
     7
 74
     1
 91
        0
 64
     7
 65
   257
 75
     1
175
     1
 42
1.0
 92
        8
 66
     8
 43
1.0
 76
     1
 77
     6
 78
     2
 67
     7
 79
     5
170
     0
171
     0
290
     0
174
     0
 93
       13
 44
0.0
173
     0
291
     0
 45
0.0
1001
ACAD
1000
AcDbSavedByObjectVersion
1070
     0
  0
VISUALSTYLE
  5
5F9
102
{ACAD_XDICTIONARY
360
102C
102
}
102
{ACAD_REACTORS
330
14
102
}
330
14
100
AcDbVisualStyle
  2

 70
    27
 71
     2
 72
     2
 73
     1
 90
        2
 40
-0.6
 41
30.0
 62
     5
 63
     7
 74
     0
 91
        4
 64
     7
 65
   257
 75
     1
175
     1
 42
1.0
 92
        8
 66
   257
 43
1.0
 76
     1
 77
     6
 78
     2
 67
     8
 79
     3
170
     0
171
     0
290
     0
174
     0
 93
        5
 44
0.0
173
     0
291
     0
 45
0.0
1001
ACAD
1000
AcDbSavedByObjectVersion
1070
     0
  0
VISUALSTYLE
  5
5F8
102
{ACAD_XDICTIONARY
360
102A
102
}
102
{ACAD_REACTORS
330
14
102
}
330
14
100
AcDbVisualStyle
  2

 70
    26
 71
     2
 72
     2
 73
     1
 90
        2
 40
-0.6
 41
30.0
 62
     5
 63
     7
 74
     1
 91
       10
 64
     7
 65
   257
 75
     2
175
     1
 42
1.0
 92
        8
 66
   257
 43
1.0
 76
     1
 77
     6
 78
     2
 67
     7
 79
     3
170
     0
171
     0
290
     0
174
     0
 93
        5
 44
0.0
173
     0
291
     0
 45
0.0
1001
ACAD
1000
AcDbSavedByObjectVersion
1070
     0
  0
VISUALSTYLE
  5
5F5
102
{ACAD_XDICTIONARY
360
1024
102
}
102
{ACAD_REACTORS
330
14
102
}
330
14
100
AcDbVisualStyle
  2

 70
    23
 71
     2
 72
     2
 73
     3
 90
        0
 40
-0.6
 41
-30.0
 62
     5
 63
     7
 74
     2
 91
        2
 64
     7
 65
     7
 75
     1
175
     1
 42
40.0
 92
        8
 66
     7
 43
1.0
 76
     1
 77
     6
 78
     2
 67
     7
 79
     3
170
     0
171
     0
290
     0
174
     0
 93
        1
 44
0.0
173
     0
291
     0
 45
0.0
1001
ACAD
1000
AcDbSavedByObjectVersion
1070
     0
  0
VISUALSTYLE
  5
5F6
102
{ACAD_XDICTIONARY
360
1026
102
}
102
{ACAD_REACTORS
330
14
102
}
330
14
100
AcDbVisualStyle
  2

 70
    24
 71
     1
 72
     2
 73
     2
 90
        0
 40
-0.6
 41
-30.0
 62
     5
 63
     7
 74
     2
 91
        2
 64
     7
 65
     7
 75
     1
175
     1
 42
40.0
 92
       11
 66
     7
 43
1.0
 76
     1
 77
     6
 78
     2
 67
     7
 79
     6
170
     0
171
     0
290
     0
174
     0
 93
        1
 44
0.0
173
     0
291
     0
 45
0.0
1001
ACAD
1000
AcDbSavedByObjectVersion
1070
     0
  0
VISUALSTYLE
  5
21
102
{ACAD_XDICTIONARY
360
1013
102
}
102
{ACAD_REACTORS
330
14
102
}
330
14
100
AcDbVisualStyle
  2

 70
    13
 71
     2
 72
     2
 73
     0
 90
        0
 40
-0.6
 41
-30.0
 62
     5
 63
     7
 74
     1
 91
        4
 64
     7
 65
   257
 75
     1
175
     1
 42
1.0
 92
       12
 66
     7
 43
1.0
 76
     1
 77
     6
 78
     2
 67
     7
 79
     5
170
     0
171
     0
290
     0
174
     0
 93
        1
 44
0.0
173
     0
291
     1
 45
0.0
1001
ACAD
1000
AcDbSavedByObjectVersion
1070
     0
  0
VISUALSTYLE
  5
5F3
102
{ACAD_XDICTIONARY
360
1020
102
}
102
{ACAD_REACTORS
330
14
102
}
330
14
100
AcDbVisualStyle
  2

 70
     5
 71
     0
 72
     2
 73
     0
 90
        0
 40
-0.6
 41
-30.0
 62
     5
 63
     7
 74
     1
 91
        4
 64
     7
 65
   257
 75
     1
175
     1
 42
1.0
 92
        0
 66
   257
 43
1.0
 76
     1
 77
     6
 78
     2
 67
     7
 79
     3
170
     0
171
     0
290
     0
174
     0
 93
        1
 44
0.0
173
     0
291
     0
 45
0.0
1001
ACAD
1000
AcDbSavedByObjectVersion
1070
     0
  0
VISUALSTYLE
  5
5F7
102
{ACAD_XDICTIONARY
360
1028
102
}
102
{ACAD_REACTORS
330
14
102
}
330
14
100
AcDbVisualStyle
  2

 70
    25
 71
     2
 72
     2
 73
     1
 90
        1
 40
0.5
 41
-30.0
 62
     5
 63
     7
 74
     1
 91
        0
 64
     7
 65
   257
 75
     1
175
     1
 42
1.0
 92
        8
 66
     7
 43
1.0
 76
     1
 77
     6
 78
     2
 67
     7
 79
     3
170
     0
171
     0
290
     0
174
     0
 93
       13
 44
0.0
173
     0
291
     0
 45
0.0
1001
ACAD
1000
AcDbSavedByObjectVersion
1070
     0
  0
DICTIONARYVAR
  5
880
102
{ACAD_REACTORS
330
5D0
102
}
330
5D0
100
DictionaryVariables
280
     0
  1
1:1
  0
DICTIONARYVAR
  5
87F
102
{ACAD_REACTORS
330
5D0
102
}
330
5D0
100
DictionaryVariables
280
     0
  1
STANDARD
  0
DICTIONARYVAR
  5
5D1
102
{ACAD_REACTORS
330
5D0
102
}
330
5D0
100
DictionaryVariables
280
     0
  1
STANDARD
  0
DICTIONARYVAR
  5
5D4
102
{ACAD_REACTORS
330
5D0
102
}
330
5D0
100
DictionaryVariables
280
     0
  1
1
  0
DICTIONARYVAR
  5
5D3
102
{ACAD_REACTORS
330
5D0
102
}
330
5D0
100
DictionaryVariables
280
     0
  1
0
  0
DICTIONARYVAR
  5
5D2
102
{ACAD_REACTORS
330
5D0
102
}
330
5D0
100
DictionaryVariables
280
     0
  1
127
  0
DICTIONARYVAR
  5
E9D
102
{ACAD_REACTORS
330
5D0
102
}
330
5D0
100
DictionaryVariables
280
     0
  1
2
  0
DICTIONARY
  5
101E
330
39
100
AcDbDictionary
280
     1
281
     1
  3
ACAD_XREC_ROUNDTRIP
360
101F
  0
DICTIONARY
  5
101C
330
35
100
AcDbDictionary
280
     1
281
     1
  3
ACAD_XREC_ROUNDTRIP
360
101D
  0
DICTIONARY
  5
5D8
330
12
100
AcDbDictionary
280
     1
281
     1
  3
ACAD_XREC_ROUNDTRIP
360
5D9
  0
DICTIONARY
  5
5D6
330
11
100
AcDbDictionary
280
     1
281
     1
  3
ACAD_XREC_ROUNDTRIP
360
5D7
  0
DICTIONARY
  5
5DA
330
13
100
AcDbDictionary
280
     1
281
     1
  3
ACAD_XREC_ROUNDTRIP
360
5DB
  0
DICTIONARY
  5
882
330
31
100
AcDbDictionary
280
     1
281
     1
  3
ACAD_ROUNDTRIP_2008_TABLESTYLE_CELLSTYLEMAP
360
FF4
  3
ACAD_XREC_ROUNDTRIP
360
101B
  0
DICTIONARY
  5
1005
330
1A
100
AcDbDictionary
280
     1
281
     1
  3
ACAD_XREC_ROUNDTRIP
360
1006
  0
DICTIONARY
  5
1009
330
1C
100
AcDbDictionary
280
     1
281
     1
  3
ACAD_XREC_ROUNDTRIP
360
100A
  0
DICTIONARY
  5
1007
330
1B
100
AcDbDictionary
280
     1
281
     1
  3
ACAD_XREC_ROUNDTRIP
360
1008
  0
DICTIONARY
  5
1003
330
19
100
AcDbDictionary
280
     1
281
     1
  3
ACAD_XREC_ROUNDTRIP
360
1004
  0
DICTIONARY
  5
1011
330
20
100
AcDbDictionary
280
     1
281
     1
  3
ACAD_XREC_ROUNDTRIP
360
1012
  0
DICTIONARY
  5
1019
330
24
100
AcDbDictionary
280
     1
281
     1
  3
ACAD_XREC_ROUNDTRIP
360
101A
  0
DICTIONARY
  5
100B
330
1D
100
AcDbDictionary
280
     1
281
     1
  3
ACAD_XREC_ROUNDTRIP
360
100C
  0
DICTIONARY
  5
100F
330
1F
100
AcDbDictionary
280
     1
281
     1
  3
ACAD_XREC_ROUNDTRIP
360
1010
  0
DICTIONARY
  5
1032
330
5FC
100
AcDbDictionary
280
     1
281
     1
  3
ACAD_XREC_ROUNDTRIP
360
1033
  0
DICTIONARY
  5
1017
330
23
100
AcDbDictionary
280
     1
281
     1
  3
ACAD_XREC_ROUNDTRIP
360
1018
  0
DICTIONARY
  5
FFB
330
15
100
AcDbDictionary
280
     1
281
     1
  3
ACAD_XREC_ROUNDTRIP
360
FFC
  0
DICTIONARY
  5
FFD
330
16
100
AcDbDictionary
280
     1
281
     1
  3
ACAD_XREC_ROUNDTRIP
360
FFE
  0
DICTIONARY
  5
FFF
330
17
100
AcDbDictionary
280
     1
281
     1
  3
ACAD_XREC_ROUNDTRIP
360
1000
  0
DICTIONARY
  5
1001
330
18
100
AcDbDictionary
280
     1
281
     1
  3
ACAD_XREC_ROUNDTRIP
360
1002
  0
DICTIONARY
  5
1022
330
5F4
100
AcDbDictionary
280
     1
281
     1
  3
ACAD_XREC_ROUNDTRIP
360
1023
  0
DICTIONARY
  5
102E
330
5FA
100
AcDbDictionary
280
     1
281
     1
  3
ACAD_XREC_ROUNDTRIP
360
102F
  0
DICTIONARY
  5
1015
330
22
100
AcDbDictionary
280
     1
281
     1
  3
ACAD_XREC_ROUNDTRIP
360
1016
  0
DICTIONARY
  5
1030
330
5FB
100
AcDbDictionary
280
     1
281
     1
  3
ACAD_XREC_ROUNDTRIP
360
1031
  0
DICTIONARY
  5
100D
330
1E
100
AcDbDictionary
280
     1
281
     1
  3
ACAD_XREC_ROUNDTRIP
360
100E
  0
DICTIONARY
  5
102C
330
5F9
100
AcDbDictionary
280
     1
281
     1
  3
ACAD_XREC_ROUNDTRIP
360
102D
  0
DICTIONARY
  5
102A
330
5F8
100
AcDbDictionary
280
     1
281
     1
  3
ACAD_XREC_ROUNDTRIP
360
102B
  0
DICTIONARY
  5
1024
330
5F5
100
AcDbDictionary
280
     1
281
     1
  3
ACAD_XREC_ROUNDTRIP
360
1025
  0
DICTIONARY
  5
1026
330
5F6
100
AcDbDictionary
280
     1
281
     1
  3
ACAD_XREC_ROUNDTRIP
360
1027
  0
DICTIONARY
  5
1013
330
21
100
AcDbDictionary
280
     1
281
     1
  3
ACAD_XREC_ROUNDTRIP
360
1014
  0
DICTIONARY
  5
1020
330
5F3
100
AcDbDictionary
280
     1
281
     1
  3
ACAD_XREC_ROUNDTRIP
360
1021
  0
DICTIONARY
  5
1028
330
5F7
100
AcDbDictionary
280
     1
281
     1
  3
ACAD_XREC_ROUNDTRIP
360
1029
  0
XRECORD
  5
101F
102
{ACAD_REACTORS
330
101E
102
}
330
101E
100
AcDbXrecord
280
     1
102
SHADEPLOT
 70
     0
102
SHADEPLOTRESLEVEL
 70
     2
102
SHADEPLOTCUSTOMDPI
 70
   300
  0
XRECORD
  5
101D
102
{ACAD_REACTORS
330
101C
102
}
330
101C
100
AcDbXrecord
280
     1
102
SHADEPLOT
 70
     0
102
SHADEPLOTRESLEVEL
 70
     2
102
SHADEPLOTCUSTOMDPI
 70
   300
  0
XRECORD
  5
5D9
102
{ACAD_REACTORS
330
5D8
102
}
330
5D8
100
AcDbXrecord
280
     1
102
MATERIAL
148
0.0
149
0.0
149
0.0
 93
        0
 94
      127
282
     0
 72
     1
 77
     1
171
     1
175
     1
179
     1
273
     0
  0
XRECORD
  5
5D7
102
{ACAD_REACTORS
330
5D6
102
}
330
5D6
100
AcDbXrecord
280
     1
102
MATERIAL
148
0.0
149
0.0
149
0.0
 93
        0
 94
      127
282
     0
 72
     1
 77
     1
171
     1
175
     1
179
     1
273
     0
  0
XRECORD
  5
5DB
102
{ACAD_REACTORS
330
5DA
102
}
330
5DA
100
AcDbXrecord
280
     1
102
MATERIAL
148
0.0
149
0.0
149
0.0
 93
        0
 94
      127
282
     0
 72
     1
 77
     1
171
     1
175
     1
179
     1
273
     0
  0
CELLSTYLEMAP
  5
FF4
102
{ACAD_REACTORS
330
882
102
}
330
882
100
AcDbCellStyleMap
 90
        3
300
CELLSTYLE
  1
TABLEFORMAT_BEGIN
 90
        5
170
     1
 91
        0
 92
    32768
 62
   257
 93
        1
300
CONTENTFORMAT
  1
CONTENTFORMAT_BEGIN
 90
        0
 91
        0
 92
      512
 93
        0
300

 40
0.0
140
1.0
 94
        5
 62
     0
340
26
144
0.25
309
CONTENTFORMAT_END
171
     1
301
MARGIN
  1
CELLMARGIN_BEGIN
 40
0.06
 40
0.06
 40
0.06
 40
0.06
 40
0.18
 40
0.18
309
CELLMARGIN_END
 94
        6
 95
        1
302
GRIDFORMAT
  1
GRIDFORMAT_BEGIN
 90
        0
 91
        1
 62
     0
 92
       -2
340
0
 93
        0
 40
0.045
309
GRIDFORMAT_END
 95
        2
302
GRIDFORMAT
  1
GRIDFORMAT_BEGIN
 90
        0
 91
        1
 62
     0
 92
       -2
340
0
 93
        0
 40
0.045
309
GRIDFORMAT_END
 95
        4
302
GRIDFORMAT
  1
GRIDFORMAT_BEGIN
 90
        0
 91
        1
 62
     0
 92
       -2
340
0
 93
        0
 40
0.045
309
GRIDFORMAT_END
 95
        8
302
GRIDFORMAT
  1
GRIDFORMAT_BEGIN
 90
        0
 91
        1
 62
     0
 92
       -2
340
0
 93
        0
 40
0.045
309
GRIDFORMAT_END
 95
       16
302
GRIDFORMAT
  1
GRIDFORMAT_BEGIN
 90
        0
 91
        1
 62
     0
 92
       -2
340
0
 93
        0
 40
0.045
309
GRIDFORMAT_END
 95
       32
302
GRIDFORMAT
  1
GRIDFORMAT_BEGIN
 90
        0
 91
        1
 62
     0
 92
       -2
340
0
 93
        0
 40
0.045
309
GRIDFORMAT_END
309
TABLEFORMAT_END
  1
CELLSTYLE_BEGIN
 90
        1
 91
        1
300
_TITLE
309
CELLSTYLE_END
300
CELLSTYLE
  1
TABLEFORMAT_BEGIN
 90
        5
170
     1
 91
        0
 92
        0
 62
   257
 93
        1
300
CONTENTFORMAT
  1
CONTENTFORMAT_BEGIN
 90
        0
 91
        0
 92
      512
 93
        0
300

 40
0.0
140
1.0
 94
        5
 62
     0
340
26
144
0.18
309
CONTENTFORMAT_END
171
     1
301
MARGIN
  1
CELLMARGIN_BEGIN
 40
0.06
 40
0.06
 40
0.06
 40
0.06
 40
0.18
 40
0.18
309
CELLMARGIN_END
 94
        6
 95
        1
302
GRIDFORMAT
  1
GRIDFORMAT_BEGIN
 90
        0
 91
        1
 62
     0
 92
       -2
340
0
 93
        0
 40
0.045
309
GRIDFORMAT_END
 95
        2
302
GRIDFORMAT
  1
GRIDFORMAT_BEGIN
 90
        0
 91
        1
 62
     0
 92
       -2
340
0
 93
        0
 40
0.045
309
GRIDFORMAT_END
 95
        4
302
GRIDFORMAT
  1
GRIDFORMAT_BEGIN
 90
        0
 91
        1
 62
     0
 92
       -2
340
0
 93
        0
 40
0.045
309
GRIDFORMAT_END
 95
        8
302
GRIDFORMAT
  1
GRIDFORMAT_BEGIN
 90
        0
 91
        1
 62
     0
 92
       -2
340
0
 93
        0
 40
0.045
309
GRIDFORMAT_END
 95
       16
302
GRIDFORMAT
  1
GRIDFORMAT_BEGIN
 90
        0
 91
        1
 62
     0
 92
       -2
340
0
 93
        0
 40
0.045
309
GRIDFORMAT_END
 95
       32
302
GRIDFORMAT
  1
GRIDFORMAT_BEGIN
 90
        0
 91
        1
 62
     0
 92
       -2
340
0
 93
        0
 40
0.045
309
GRIDFORMAT_END
309
TABLEFORMAT_END
  1
CELLSTYLE_BEGIN
 90
        2
 91
        1
300
_HEADER
309
CELLSTYLE_END
300
CELLSTYLE
  1
TABLEFORMAT_BEGIN
 90
        5
170
     1
 91
        0
 92
        0
 62
   257
 93
        1
300
CONTENTFORMAT
  1
CONTENTFORMAT_BEGIN
 90
        0
 91
        0
 92
      512
 93
        0
300

 40
0.0
140
1.0
 94
        2
 62
     0
340
26
144
0.18
309
CONTENTFORMAT_END
171
     1
301
MARGIN
  1
CELLMARGIN_BEGIN
 40
0.06
 40
0.06
 40
0.06
 40
0.06
 40
0.18
 40
0.18
309
CELLMARGIN_END
 94
        6
 95
        1
302
GRIDFORMAT
  1
GRIDFORMAT_BEGIN
 90
        0
 91
        1
 62
     0
 92
       -2
340
0
 93
        0
 40
0.045
309
GRIDFORMAT_END
 95
        2
302
GRIDFORMAT
  1
GRIDFORMAT_BEGIN
 90
        0
 91
        1
 62
     0
 92
       -2
340
0
 93
        0
 40
0.045
309
GRIDFORMAT_END
 95
        4
302
GRIDFORMAT
  1
GRIDFORMAT_BEGIN
 90
        0
 91
        1
 62
     0
 92
       -2
340
0
 93
        0
 40
0.045
309
GRIDFORMAT_END
 95
        8
302
GRIDFORMAT
  1
GRIDFORMAT_BEGIN
 90
        0
 91
        1
 62
     0
 92
       -2
340
0
 93
        0
 40
0.045
309
GRIDFORMAT_END
 95
       16
302
GRIDFORMAT
  1
GRIDFORMAT_BEGIN
 90
        0
 91
        1
 62
     0
 92
       -2
340
0
 93
        0
 40
0.045
309
GRIDFORMAT_END
 95
       32
302
GRIDFORMAT
  1
GRIDFORMAT_BEGIN
 90
        0
 91
        1
 62
     0
 92
       -2
340
0
 93
        0
 40
0.045
309
GRIDFORMAT_END
309
TABLEFORMAT_END
  1
CELLSTYLE_BEGIN
 90
        3
 91
        2
300
_DATA
309
CELLSTYLE_END
  0
XRECORD
  5
101B
102
{ACAD_REACTORS
330
882
102
}
330
882
100
AcDbXrecord
280
     1
102
ACAD_ROUNDTRIP_PRE2007_TABLESTYLE
 90
      512
 91
        0
  1

 92
      512
 93
        0
  2

 94
      512
 95
        0
  3

  0
XRECORD
  5
1006
102
{ACAD_REACTORS
330
1005
102
}
330
1005
100
AcDbXrecord
280
     1
102
RTVSPropertyOp0
 70
     1
102
RTVSPropertyOp1
 70
     1
102
RTVSPropertyOp2
 70
     1
102
RTVSPropertyOp3
 70
     1
102
RTVSPropertyOp4
 70
     1
102
RTVSPropertyOp5
 70
     1
102
RTVSPropertyOp6
 70
     1
102
RTVSPropertyOp7
 70
     1
102
RTVSPropertyOp8
 70
     1
102
RTVSPropertyOp9
 70
     1
102
RTVSPropertyOp10
 70
     1
102
RTVSPropertyOp11
 70
     1
102
RTVSPropertyOp12
 70
     1
102
RTVSPropertyOp13
 70
     1
102
RTVSPropertyOp14
 70
     1
102
RTVSPropertyOp15
 70
     1
102
RTVSPropertyOp16
 70
     1
102
RTVSPropertyOp17
 70
     1
102
RTVSPropertyOp18
 70
     1
102
RTVSPropertyOp19
 70
     1
102
RTVSPropertyOp20
 70
     1
102
RTVSPropertyOp21
 70
     1
102
RTVSPropertyOp22
 70
     1
102
RTVSPropertyOp23
 70
     1
102
RTVSPropertyOp24
 70
     1
102
RTVSPropertyOp25
 70
     1
102
RTVSPropertyOp26
 70
     1
102
RTVSPropertyOp27
 70
     1
102
RTVSPropertyOp28
 70
     1
102
RTVSPropertyOp29
 70
     1
102
RTVSPropertyOp30
 70
     1
102
RTVSPropertyOp31
 70
     1
102
RTVSPropertyOp32
 70
     1
  0
XRECORD
  5
100A
102
{ACAD_REACTORS
330
1009
102
}
330
1009
100
AcDbXrecord
280
     1
102
RTVSPropertyOp0
 70
     1
102
RTVSPropertyOp1
 70
     1
102
RTVSPropertyOp2
 70
     1
102
RTVSPropertyOp3
 70
     1
102
RTVSPropertyOp4
 70
     1
102
RTVSPropertyOp5
 70
     1
102
RTVSPropertyOp6
 70
     1
102
RTVSPropertyOp7
 70
     1
102
RTVSPropertyOp8
 70
     1
102
RTVSPropertyOp9
 70
     1
102
RTVSPropertyOp10
 70
     1
102
RTVSPropertyOp11
 70
     1
102
RTVSPropertyOp12
 70
     1
102
RTVSPropertyOp13
 70
     1
102
RTVSPropertyOp14
 70
     1
102
RTVSPropertyOp15
 70
     1
102
RTVSPropertyOp16
 70
     1
102
RTVSPropertyOp17
 70
     1
102
RTVSPropertyOp18
 70
     1
102
RTVSPropertyOp19
 70
     1
102
RTVSPropertyOp20
 70
     1
102
RTVSPropertyOp21
 70
     1
102
RTVSPropertyOp22
 70
     1
102
RTVSPropertyOp23
 70
     1
102
RTVSPropertyOp24
 70
     1
102
RTVSPropertyOp25
 70
     1
102
RTVSPropertyOp26
 70
     1
102
RTVSPropertyOp27
 70
     1
102
RTVSPropertyOp28
 70
     1
102
RTVSPropertyOp29
 70
     1
102
RTVSPropertyOp30
 70
     1
102
RTVSPropertyOp31
 70
     1
102
RTVSPropertyOp32
 70
     1
  0
XRECORD
  5
1008
102
{ACAD_REACTORS
330
1007
102
}
330
1007
100
AcDbXrecord
280
     1
102
RTVSPropertyOp0
 70
     1
102
RTVSPropertyOp1
 70
     1
102
RTVSPropertyOp2
 70
     1
102
RTVSPropertyOp3
 70
     1
102
RTVSPropertyOp4
 70
     1
102
RTVSPropertyOp5
 70
     1
102
RTVSPropertyOp6
 70
     1
102
RTVSPropertyOp7
 70
     1
102
RTVSPropertyOp8
 70
     1
102
RTVSPropertyOp9
 70
     1
102
RTVSPropertyOp10
 70
     1
102
RTVSPropertyOp11
 70
     1
102
RTVSPropertyOp12
 70
     1
102
RTVSPropertyOp13
 70
     1
102
RTVSPropertyOp14
 70
     1
102
RTVSPropertyOp15
 70
     1
102
RTVSPropertyOp16
 70
     1
102
RTVSPropertyOp17
 70
     1
102
RTVSPropertyOp18
 70
     1
102
RTVSPropertyOp19
 70
     1
102
RTVSPropertyOp20
 70
     1
102
RTVSPropertyOp21
 70
     1
102
RTVSPropertyOp22
 70
     1
102
RTVSPropertyOp23
 70
     1
102
RTVSPropertyOp24
 70
     1
102
RTVSPropertyOp25
 70
     1
102
RTVSPropertyOp26
 70
     1
102
RTVSPropertyOp27
 70
     1
102
RTVSPropertyOp28
 70
     1
102
RTVSPropertyOp29
 70
     1
102
RTVSPropertyOp30
 70
     1
102
RTVSPropertyOp31
 70
     1
102
RTVSPropertyOp32
 70
     1
  0
XRECORD
  5
1004
102
{ACAD_REACTORS
330
1003
102
}
330
1003
100
AcDbXrecord
280
     1
102
RTVSPropertyOp0
 70
     1
102
RTVSPropertyOp1
 70
     1
102
RTVSPropertyOp2
 70
     1
102
RTVSPropertyOp3
 70
     1
102
RTVSPropertyOp4
 70
     1
102
RTVSPropertyOp5
 70
     1
102
RTVSPropertyOp6
 70
     1
102
RTVSPropertyOp7
 70
     1
102
RTVSPropertyOp8
 70
     1
102
RTVSPropertyOp9
 70
     1
102
RTVSPropertyOp10
 70
     1
102
RTVSPropertyOp11
 70
     1
102
RTVSPropertyOp12
 70
     1
102
RTVSPropertyOp13
 70
     1
102
RTVSPropertyOp14
 70
     1
102
RTVSPropertyOp15
 70
     1
102
RTVSPropertyOp16
 70
     1
102
RTVSPropertyOp17
 70
     1
102
RTVSPropertyOp18
 70
     1
102
RTVSPropertyOp19
 70
     1
102
RTVSPropertyOp20
 70
     1
102
RTVSPropertyOp21
 70
     1
102
RTVSPropertyOp22
 70
     1
102
RTVSPropertyOp23
 70
     1
102
RTVSPropertyOp24
 70
     1
102
RTVSPropertyOp25
 70
     1
102
RTVSPropertyOp26
 70
     1
102
RTVSPropertyOp27
 70
     1
102
RTVSPropertyOp28
 70
     1
102
RTVSPropertyOp29
 70
     1
102
RTVSPropertyOp30
 70
     1
102
RTVSPropertyOp31
 70
     1
102
RTVSPropertyOp32
 70
     1
  0
XRECORD
  5
1012
102
{ACAD_REACTORS
330
1011
102
}
330
1011
100
AcDbXrecord
280
     1
102
RTVSPropertyOp0
 70
     1
102
RTVSPropertyOp1
 70
     1
102
RTVSPropertyOp2
 70
     1
102
RTVSPropertyOp3
 70
     1
102
RTVSPropertyOp4
 70
     1
102
RTVSPropertyOp5
 70
     1
102
RTVSPropertyOp6
 70
     1
102
RTVSPropertyOp7
 70
     1
102
RTVSPropertyOp8
 70
     1
102
RTVSPropertyOp9
 70
     1
102
RTVSPropertyOp10
 70
     1
102
RTVSPropertyOp11
 70
     1
102
RTVSPropertyOp12
 70
     1
102
RTVSPropertyOp13
 70
     1
102
RTVSPropertyOp14
 70
     1
102
RTVSPropertyOp15
 70
     1
102
RTVSPropertyOp16
 70
     1
102
RTVSPropertyOp17
 70
     1
102
RTVSPropertyOp18
 70
     1
102
RTVSPropertyOp19
 70
     1
102
RTVSPropertyOp20
 70
     1
102
RTVSPropertyOp21
 70
     1
102
RTVSPropertyOp22
 70
     1
102
RTVSPropertyOp23
 70
     1
102
RTVSPropertyOp24
 70
     1
102
RTVSPropertyOp25
 70
     1
102
RTVSPropertyOp26
 70
     1
102
RTVSPropertyOp27
 70
     1
102
RTVSPropertyOp28
 70
     1
102
RTVSPropertyOp29
 70
     1
102
RTVSPropertyOp30
 70
     1
102
RTVSPropertyOp31
 70
     1
102
RTVSPropertyOp32
 70
     1
  0
XRECORD
  5
101A
102
{ACAD_REACTORS
330
1019
102
}
330
1019
100
AcDbXrecord
280
     1
102
RTVSPropertyOp0
 70
     1
102
RTVSPropertyOp1
 70
     1
102
RTVSPropertyOp2
 70
     1
102
RTVSPropertyOp3
 70
     1
102
RTVSPropertyOp4
 70
     1
102
RTVSPropertyOp5
 70
     1
102
RTVSPropertyOp6
 70
     1
102
RTVSPropertyOp7
 70
     1
102
RTVSPropertyOp8
 70
     1
102
RTVSPropertyOp9
 70
     1
102
RTVSPropertyOp10
 70
     1
102
RTVSPropertyOp11
 70
     1
102
RTVSPropertyOp12
 70
     1
102
RTVSPropertyOp13
 70
     1
102
RTVSPropertyOp14
 70
     1
102
RTVSPropertyOp15
 70
     1
102
RTVSPropertyOp16
 70
     1
102
RTVSPropertyOp17
 70
     1
102
RTVSPropertyOp18
 70
     1
102
RTVSPropertyOp19
 70
     1
102
RTVSPropertyOp20
 70
     1
102
RTVSPropertyOp21
 70
     1
102
RTVSPropertyOp22
 70
     1
102
RTVSPropertyOp23
 70
     1
102
RTVSPropertyOp24
 70
     1
102
RTVSPropertyOp25
 70
     1
102
RTVSPropertyOp26
 70
     1
102
RTVSPropertyOp27
 70
     1
102
RTVSPropertyOp28
 70
     1
102
RTVSPropertyOp29
 70
     1
102
RTVSPropertyOp30
 70
     1
102
RTVSPropertyOp31
 70
     1
102
RTVSPropertyOp32
 70
     1
  0
XRECORD
  5
100C
102
{ACAD_REACTORS
330
100B
102
}
330
100B
100
AcDbXrecord
280
     1
102
RTVSPropertyOp0
 70
     1
102
RTVSPropertyOp1
 70
     1
102
RTVSPropertyOp2
 70
     1
102
RTVSPropertyOp3
 70
     1
102
RTVSPropertyOp4
 70
     1
102
RTVSPropertyOp5
 70
     1
102
RTVSPropertyOp6
 70
     1
102
RTVSPropertyOp7
 70
     1
102
RTVSPropertyOp8
 70
     1
102
RTVSPropertyOp9
 70
     1
102
RTVSPropertyOp10
 70
     1
102
RTVSPropertyOp11
 70
     1
102
RTVSPropertyOp12
 70
     1
102
RTVSPropertyOp13
 70
     1
102
RTVSPropertyOp14
 70
     1
102
RTVSPropertyOp15
 70
     1
102
RTVSPropertyOp16
 70
     1
102
RTVSPropertyOp17
 70
     1
102
RTVSPropertyOp18
 70
     1
102
RTVSPropertyOp19
 70
     1
102
RTVSPropertyOp20
 70
     1
102
RTVSPropertyOp21
 70
     1
102
RTVSPropertyOp22
 70
     1
102
RTVSPropertyOp23
 70
     1
102
RTVSPropertyOp24
 70
     1
102
RTVSPropertyOp25
 70
     1
102
RTVSPropertyOp26
 70
     1
102
RTVSPropertyOp27
 70
     1
102
RTVSPropertyOp28
 70
     1
102
RTVSPropertyOp29
 70
     1
102
RTVSPropertyOp30
 70
     1
102
RTVSPropertyOp31
 70
     1
102
RTVSPropertyOp32
 70
     1
  0
XRECORD
  5
1010
102
{ACAD_REACTORS
330
100F
102
}
330
100F
100
AcDbXrecord
280
     1
102
RTVSPropertyOp0
 70
     1
102
RTVSPropertyOp1
 70
     1
102
RTVSPropertyOp2
 70
     1
102
RTVSPropertyOp3
 70
     1
102
RTVSPropertyOp4
 70
     1
102
RTVSPropertyOp5
 70
     1
102
RTVSPropertyOp6
 70
     1
102
RTVSPropertyOp7
 70
     1
102
RTVSPropertyOp8
 70
     1
102
RTVSPropertyOp9
 70
     1
102
RTVSPropertyOp10
 70
     1
102
RTVSPropertyOp11
 70
     1
102
RTVSPropertyOp12
 70
     1
102
RTVSPropertyOp13
 70
     1
102
RTVSPropertyOp14
 70
     1
102
RTVSPropertyOp15
 70
     1
102
RTVSPropertyOp16
 70
     1
102
RTVSPropertyOp17
 70
     1
102
RTVSPropertyOp18
 70
     1
102
RTVSPropertyOp19
 70
     1
102
RTVSPropertyOp20
 70
     1
102
RTVSPropertyOp21
 70
     1
102
RTVSPropertyOp22
 70
     1
102
RTVSPropertyOp23
 70
     1
102
RTVSPropertyOp24
 70
     1
102
RTVSPropertyOp25
 70
     1
102
RTVSPropertyOp26
 70
     1
102
RTVSPropertyOp27
 70
     1
102
RTVSPropertyOp28
 70
     1
102
RTVSPropertyOp29
 70
     1
102
RTVSPropertyOp30
 70
     1
102
RTVSPropertyOp31
 70
     1
102
RTVSPropertyOp32
 70
     1
  0
XRECORD
  5
1033
102
{ACAD_REACTORS
330
1032
102
}
330
1032
100
AcDbXrecord
280
     1
102
RTVSPropertyOp0
 70
     0
102
RTVSPropertyOp1
 70
     0
102
RTVSPropertyOp2
 70
     0
102
RTVSPropertyOp3
 70
     0
102
RTVSPropertyOp4
 70
     0
102
RTVSPropertyOp5
 70
     0
102
RTVSPropertyOp6
 70
     0
102
RTVSPropertyOp7
 70
     0
102
RTVSPropertyOp8
 70
     0
102
RTVSPropertyOp9
 70
     0
102
RTVSPropertyOp10
 70
     0
102
RTVSPropertyOp11
 70
     0
102
RTVSPropertyOp12
 70
     0
102
RTVSPropertyOp13
 70
     0
102
RTVSPropertyOp14
 70
     2
102
RTVSPropertyOp15
 70
     0
102
RTVSPropertyOp16
 70
     0
102
RTVSPropertyOp17
 70
     0
102
RTVSPropertyOp18
 70
     0
102
RTVSPropertyOp19
 70
     0
102
RTVSPropertyOp20
 70
     0
102
RTVSPropertyOp21
 70
     0
102
RTVSPropertyOp22
 70
     0
102
RTVSPropertyOp23
 70
     0
102
RTVSPropertyOp24
 70
     0
102
RTVSPropertyOp25
 70
     0
102
RTVSPropertyOp26
 70
     0
102
RTVSPropertyOp27
 70
     0
102
RTVSPropertyOp28
 70
     0
102
RTVSPropertyOp29
 70
     0
102
RTVSPropertyOp30
 70
     0
102
RTVSPropertyOp31
 70
     0
102
RTVSPropertyOp32
 70
     0
  0
XRECORD
  5
1018
102
{ACAD_REACTORS
330
1017
102
}
330
1017
100
AcDbXrecord
280
     1
102
RTVSPropertyOp0
 70
     1
102
RTVSPropertyOp1
 70
     1
102
RTVSPropertyOp2
 70
     1
102
RTVSPropertyOp3
 70
     1
102
RTVSPropertyOp4
 70
     1
102
RTVSPropertyOp5
 70
     1
102
RTVSPropertyOp6
 70
     1
102
RTVSPropertyOp7
 70
     1
102
RTVSPropertyOp8
 70
     1
102
RTVSPropertyOp9
 70
     1
102
RTVSPropertyOp10
 70
     1
102
RTVSPropertyOp11
 70
     1
102
RTVSPropertyOp12
 70
     1
102
RTVSPropertyOp13
 70
     1
102
RTVSPropertyOp14
 70
     1
102
RTVSPropertyOp15
 70
     1
102
RTVSPropertyOp16
 70
     1
102
RTVSPropertyOp17
 70
     1
102
RTVSPropertyOp18
 70
     1
102
RTVSPropertyOp19
 70
     1
102
RTVSPropertyOp20
 70
     1
102
RTVSPropertyOp21
 70
     1
102
RTVSPropertyOp22
 70
     1
102
RTVSPropertyOp23
 70
     1
102
RTVSPropertyOp24
 70
     1
102
RTVSPropertyOp25
 70
     1
102
RTVSPropertyOp26
 70
     1
102
RTVSPropertyOp27
 70
     1
102
RTVSPropertyOp28
 70
     1
102
RTVSPropertyOp29
 70
     1
102
RTVSPropertyOp30
 70
     1
102
RTVSPropertyOp31
 70
     1
102
RTVSPropertyOp32
 70
     1
  0
XRECORD
  5
FFC
102
{ACAD_REACTORS
330
FFB
102
}
330
FFB
100
AcDbXrecord
280
     1
102
RTVSPropertyOp0
 70
     1
102
RTVSPropertyOp1
 70
     1
102
RTVSPropertyOp2
 70
     1
102
RTVSPropertyOp3
 70
     1
102
RTVSPropertyOp4
 70
     1
102
RTVSPropertyOp5
 70
     1
102
RTVSPropertyOp6
 70
     1
102
RTVSPropertyOp7
 70
     1
102
RTVSPropertyOp8
 70
     1
102
RTVSPropertyOp9
 70
     1
102
RTVSPropertyOp10
 70
     1
102
RTVSPropertyOp11
 70
     1
102
RTVSPropertyOp12
 70
     1
102
RTVSPropertyOp13
 70
     1
102
RTVSPropertyOp14
 70
     1
102
RTVSPropertyOp15
 70
     1
102
RTVSPropertyOp16
 70
     1
102
RTVSPropertyOp17
 70
     1
102
RTVSPropertyOp18
 70
     1
102
RTVSPropertyOp19
 70
     1
102
RTVSPropertyOp20
 70
     1
102
RTVSPropertyOp21
 70
     1
102
RTVSPropertyOp22
 70
     1
102
RTVSPropertyOp23
 70
     1
102
RTVSPropertyOp24
 70
     1
102
RTVSPropertyOp25
 70
     1
102
RTVSPropertyOp26
 70
     1
102
RTVSPropertyOp27
 70
     1
102
RTVSPropertyOp28
 70
     1
102
RTVSPropertyOp29
 70
     1
102
RTVSPropertyOp30
 70
     1
102
RTVSPropertyOp31
 70
     1
102
RTVSPropertyOp32
 70
     1
  0
XRECORD
  5
FFE
102
{ACAD_REACTORS
330
FFD
102
}
330
FFD
100
AcDbXrecord
280
     1
102
RTVSPropertyOp0
 70
     1
102
RTVSPropertyOp1
 70
     1
102
RTVSPropertyOp2
 70
     1
102
RTVSPropertyOp3
 70
     1
102
RTVSPropertyOp4
 70
     1
102
RTVSPropertyOp5
 70
     1
102
RTVSPropertyOp6
 70
     1
102
RTVSPropertyOp7
 70
     1
102
RTVSPropertyOp8
 70
     1
102
RTVSPropertyOp9
 70
     1
102
RTVSPropertyOp10
 70
     1
102
RTVSPropertyOp11
 70
     1
102
RTVSPropertyOp12
 70
     1
102
RTVSPropertyOp13
 70
     1
102
RTVSPropertyOp14
 70
     1
102
RTVSPropertyOp15
 70
     1
102
RTVSPropertyOp16
 70
     1
102
RTVSPropertyOp17
 70
     1
102
RTVSPropertyOp18
 70
     1
102
RTVSPropertyOp19
 70
     1
102
RTVSPropertyOp20
 70
     1
102
RTVSPropertyOp21
 70
     1
102
RTVSPropertyOp22
 70
     1
102
RTVSPropertyOp23
 70
     1
102
RTVSPropertyOp24
 70
     1
102
RTVSPropertyOp25
 70
     1
102
RTVSPropertyOp26
 70
     1
102
RTVSPropertyOp27
 70
     1
102
RTVSPropertyOp28
 70
     1
102
RTVSPropertyOp29
 70
     1
102
RTVSPropertyOp30
 70
     1
102
RTVSPropertyOp31
 70
     1
102
RTVSPropertyOp32
 70
     1
  0
XRECORD
  5
1000
102
{ACAD_REACTORS
330
FFF
102
}
330
FFF
100
AcDbXrecord
280
     1
102
RTVSPropertyOp0
 70
     1
102
RTVSPropertyOp1
 70
     1
102
RTVSPropertyOp2
 70
     1
102
RTVSPropertyOp3
 70
     1
102
RTVSPropertyOp4
 70
     1
102
RTVSPropertyOp5
 70
     1
102
RTVSPropertyOp6
 70
     1
102
RTVSPropertyOp7
 70
     1
102
RTVSPropertyOp8
 70
     1
102
RTVSPropertyOp9
 70
     1
102
RTVSPropertyOp10
 70
     1
102
RTVSPropertyOp11
 70
     1
102
RTVSPropertyOp12
 70
     1
102
RTVSPropertyOp13
 70
     1
102
RTVSPropertyOp14
 70
     1
102
RTVSPropertyOp15
 70
     1
102
RTVSPropertyOp16
 70
     1
102
RTVSPropertyOp17
 70
     1
102
RTVSPropertyOp18
 70
     1
102
RTVSPropertyOp19
 70
     1
102
RTVSPropertyOp20
 70
     1
102
RTVSPropertyOp21
 70
     1
102
RTVSPropertyOp22
 70
     1
102
RTVSPropertyOp23
 70
     1
102
RTVSPropertyOp24
 70
     1
102
RTVSPropertyOp25
 70
     1
102
RTVSPropertyOp26
 70
     1
102
RTVSPropertyOp27
 70
     1
102
RTVSPropertyOp28
 70
     1
102
RTVSPropertyOp29
 70
     1
102
RTVSPropertyOp30
 70
     1
102
RTVSPropertyOp31
 70
     1
102
RTVSPropertyOp32
 70
     1
  0
XRECORD
  5
1002
102
{ACAD_REACTORS
330
1001
102
}
330
1001
100
AcDbXrecord
280
     1
102
RTVSPropertyOp0
 70
     1
102
RTVSPropertyOp1
 70
     1
102
RTVSPropertyOp2
 70
     1
102
RTVSPropertyOp3
 70
     1
102
RTVSPropertyOp4
 70
     1
102
RTVSPropertyOp5
 70
     1
102
RTVSPropertyOp6
 70
     1
102
RTVSPropertyOp7
 70
     1
102
RTVSPropertyOp8
 70
     1
102
RTVSPropertyOp9
 70
     1
102
RTVSPropertyOp10
 70
     1
102
RTVSPropertyOp11
 70
     1
102
RTVSPropertyOp12
 70
     1
102
RTVSPropertyOp13
 70
     1
102
RTVSPropertyOp14
 70
     1
102
RTVSPropertyOp15
 70
     1
102
RTVSPropertyOp16
 70
     1
102
RTVSPropertyOp17
 70
     1
102
RTVSPropertyOp18
 70
     1
102
RTVSPropertyOp19
 70
     1
102
RTVSPropertyOp20
 70
     1
102
RTVSPropertyOp21
 70
     1
102
RTVSPropertyOp22
 70
     1
102
RTVSPropertyOp23
 70
     1
102
RTVSPropertyOp24
 70
     1
102
RTVSPropertyOp25
 70
     1
102
RTVSPropertyOp26
 70
     1
102
RTVSPropertyOp27
 70
     1
102
RTVSPropertyOp28
 70
     1
102
RTVSPropertyOp29
 70
     1
102
RTVSPropertyOp30
 70
     1
102
RTVSPropertyOp31
 70
     1
102
RTVSPropertyOp32
 70
     1
  0
XRECORD
  5
1023
102
{ACAD_REACTORS
330
1022
102
}
330
1022
100
AcDbXrecord
280
     1
102
RTVSPropertyOp0
 70
     1
102
RTVSPropertyOp1
 70
     1
102
RTVSPropertyOp2
 70
     1
102
RTVSPropertyOp3
 70
     1
102
RTVSPropertyOp4
 70
     1
102
RTVSPropertyOp5
 70
     1
102
RTVSPropertyOp6
 70
     1
102
RTVSPropertyOp7
 70
     1
102
RTVSPropertyOp8
 70
     1
102
RTVSPropertyOp9
 70
     1
102
RTVSPropertyOp10
 70
     1
102
RTVSPropertyOp11
 70
     1
102
RTVSPropertyOp12
 70
     1
102
RTVSPropertyOp13
 70
     1
102
RTVSPropertyOp14
 70
     1
102
RTVSPropertyOp15
 70
     1
102
RTVSPropertyOp16
 70
     1
102
RTVSPropertyOp17
 70
     1
102
RTVSPropertyOp18
 70
     1
102
RTVSPropertyOp19
 70
     1
102
RTVSPropertyOp20
 70
     1
102
RTVSPropertyOp21
 70
     1
102
RTVSPropertyOp22
 70
     1
102
RTVSPropertyOp23
 70
     1
102
RTVSPropertyOp24
 70
     1
102
RTVSPropertyOp25
 70
     1
102
RTVSPropertyOp26
 70
     1
102
RTVSPropertyOp27
 70
     1
102
RTVSPropertyOp28
 70
     1
102
RTVSPropertyOp29
 70
     1
102
RTVSPropertyOp30
 70
     1
102
RTVSPropertyOp31
 70
     1
102
RTVSPropertyOp32
 70
     1
  0
XRECORD
  5
102F
102
{ACAD_REACTORS
330
102E
102
}
330
102E
100
AcDbXrecord
280
     1
102
RTVSPropertyOp0
 70
     0
102
RTVSPropertyOp1
 70
     0
102
RTVSPropertyOp2
 70
     0
102
RTVSPropertyOp3
 70
     0
102
RTVSPropertyOp4
 70
     0
102
RTVSPropertyOp5
 70
     0
102
RTVSPropertyOp6
 70
     0
102
RTVSPropertyOp7
 70
     0
102
RTVSPropertyOp8
 70
     0
102
RTVSPropertyOp9
 70
     0
102
RTVSPropertyOp10
 70
     0
102
RTVSPropertyOp11
 70
     0
102
RTVSPropertyOp12
 70
     0
102
RTVSPropertyOp13
 70
     0
102
RTVSPropertyOp14
 70
     2
102
RTVSPropertyOp15
 70
     0
102
RTVSPropertyOp16
 70
     0
102
RTVSPropertyOp17
 70
     0
102
RTVSPropertyOp18
 70
     0
102
RTVSPropertyOp19
 70
     0
102
RTVSPropertyOp20
 70
     0
102
RTVSPropertyOp21
 70
     0
102
RTVSPropertyOp22
 70
     0
102
RTVSPropertyOp23
 70
     0
102
RTVSPropertyOp24
 70
     0
102
RTVSPropertyOp25
 70
     0
102
RTVSPropertyOp26
 70
     0
102
RTVSPropertyOp27
 70
     0
102
RTVSPropertyOp28
 70
     0
102
RTVSPropertyOp29
 70
     0
102
RTVSPropertyOp30
 70
     0
102
RTVSPropertyOp31
 70
     0
102
RTVSPropertyOp32
 70
     0
  0
XRECORD
  5
1016
102
{ACAD_REACTORS
330
1015
102
}
330
1015
100
AcDbXrecord
280
     1
102
RTVSPropertyOp0
 70
     1
102
RTVSPropertyOp1
 70
     1
102
RTVSPropertyOp2
 70
     1
102
RTVSPropertyOp3
 70
     1
102
RTVSPropertyOp4
 70
     1
102
RTVSPropertyOp5
 70
     1
102
RTVSPropertyOp6
 70
     1
102
RTVSPropertyOp7
 70
     1
102
RTVSPropertyOp8
 70
     1
102
RTVSPropertyOp9
 70
     1
102
RTVSPropertyOp10
 70
     1
102
RTVSPropertyOp11
 70
     1
102
RTVSPropertyOp12
 70
     1
102
RTVSPropertyOp13
 70
     1
102
RTVSPropertyOp14
 70
     1
102
RTVSPropertyOp15
 70
     1
102
RTVSPropertyOp16
 70
     1
102
RTVSPropertyOp17
 70
     1
102
RTVSPropertyOp18
 70
     1
102
RTVSPropertyOp19
 70
     1
102
RTVSPropertyOp20
 70
     1
102
RTVSPropertyOp21
 70
     1
102
RTVSPropertyOp22
 70
     1
102
RTVSPropertyOp23
 70
     1
102
RTVSPropertyOp24
 70
     1
102
RTVSPropertyOp25
 70
     1
102
RTVSPropertyOp26
 70
     1
102
RTVSPropertyOp27
 70
     1
102
RTVSPropertyOp28
 70
     1
102
RTVSPropertyOp29
 70
     1
102
RTVSPropertyOp30
 70
     1
102
RTVSPropertyOp31
 70
     1
102
RTVSPropertyOp32
 70
     1
  0
XRECORD
  5
1031
102
{ACAD_REACTORS
330
1030
102
}
330
1030
100
AcDbXrecord
280
     1
102
RTVSPropertyOp0
 70
     0
102
RTVSPropertyOp1
 70
     0
102
RTVSPropertyOp2
 70
     0
102
RTVSPropertyOp3
 70
     0
102
RTVSPropertyOp4
 70
     0
102
RTVSPropertyOp5
 70
     0
102
RTVSPropertyOp6
 70
     0
102
RTVSPropertyOp7
 70
     0
102
RTVSPropertyOp8
 70
     0
102
RTVSPropertyOp9
 70
     0
102
RTVSPropertyOp10
 70
     0
102
RTVSPropertyOp11
 70
     0
102
RTVSPropertyOp12
 70
     0
102
RTVSPropertyOp13
 70
     0
102
RTVSPropertyOp14
 70
     2
102
RTVSPropertyOp15
 70
     0
102
RTVSPropertyOp16
 70
     0
102
RTVSPropertyOp17
 70
     0
102
RTVSPropertyOp18
 70
     0
102
RTVSPropertyOp19
 70
     0
102
RTVSPropertyOp20
 70
     0
102
RTVSPropertyOp21
 70
     0
102
RTVSPropertyOp22
 70
     0
102
RTVSPropertyOp23
 70
     0
102
RTVSPropertyOp24
 70
     0
102
RTVSPropertyOp25
 70
     0
102
RTVSPropertyOp26
 70
     0
102
RTVSPropertyOp27
 70
     0
102
RTVSPropertyOp28
 70
     0
102
RTVSPropertyOp29
 70
     0
102
RTVSPropertyOp30
 70
     0
102
RTVSPropertyOp31
 70
     0
102
RTVSPropertyOp32
 70
     0
  0
XRECORD
  5
100E
102
{ACAD_REACTORS
330
100D
102
}
330
100D
100
AcDbXrecord
280
     1
102
RTVSPropertyOp0
 70
     1
102
RTVSPropertyOp1
 70
     1
102
RTVSPropertyOp2
 70
     1
102
RTVSPropertyOp3
 70
     1
102
RTVSPropertyOp4
 70
     1
102
RTVSPropertyOp5
 70
     1
102
RTVSPropertyOp6
 70
     1
102
RTVSPropertyOp7
 70
     1
102
RTVSPropertyOp8
 70
     1
102
RTVSPropertyOp9
 70
     1
102
RTVSPropertyOp10
 70
     1
102
RTVSPropertyOp11
 70
     1
102
RTVSPropertyOp12
 70
     1
102
RTVSPropertyOp13
 70
     1
102
RTVSPropertyOp14
 70
     1
102
RTVSPropertyOp15
 70
     1
102
RTVSPropertyOp16
 70
     1
102
RTVSPropertyOp17
 70
     1
102
RTVSPropertyOp18
 70
     1
102
RTVSPropertyOp19
 70
     1
102
RTVSPropertyOp20
 70
     1
102
RTVSPropertyOp21
 70
     1
102
RTVSPropertyOp22
 70
     1
102
RTVSPropertyOp23
 70
     1
102
RTVSPropertyOp24
 70
     1
102
RTVSPropertyOp25
 70
     1
102
RTVSPropertyOp26
 70
     1
102
RTVSPropertyOp27
 70
     1
102
RTVSPropertyOp28
 70
     1
102
RTVSPropertyOp29
 70
     1
102
RTVSPropertyOp30
 70
     1
102
RTVSPropertyOp31
 70
     1
102
RTVSPropertyOp32
 70
     1
  0
XRECORD
  5
102D
102
{ACAD_REACTORS
330
102C
102
}
330
102C
100
AcDbXrecord
280
     1
102
RTVSPropertyOp0
 70
     1
102
RTVSPropertyOp1
 70
     1
102
RTVSPropertyOp2
 70
     1
102
RTVSPropertyOp3
 70
     1
102
RTVSPropertyOp4
 70
     1
102
RTVSPropertyOp5
 70
     1
102
RTVSPropertyOp6
 70
     1
102
RTVSPropertyOp7
 70
     1
102
RTVSPropertyOp8
 70
     1
102
RTVSPropertyOp9
 70
     1
102
RTVSPropertyOp10
 70
     1
102
RTVSPropertyOp11
 70
     1
102
RTVSPropertyOp12
 70
     1
102
RTVSPropertyOp13
 70
     1
102
RTVSPropertyOp14
 70
     1
102
RTVSPropertyOp15
 70
     1
102
RTVSPropertyOp16
 70
     1
102
RTVSPropertyOp17
 70
     1
102
RTVSPropertyOp18
 70
     1
102
RTVSPropertyOp19
 70
     1
102
RTVSPropertyOp20
 70
     1
102
RTVSPropertyOp21
 70
     1
102
RTVSPropertyOp22
 70
     1
102
RTVSPropertyOp23
 70
     1
102
RTVSPropertyOp24
 70
     1
102
RTVSPropertyOp25
 70
     1
102
RTVSPropertyOp26
 70
     1
102
RTVSPropertyOp27
 70
     1
102
RTVSPropertyOp28
 70
     1
102
RTVSPropertyOp29
 70
     1
102
RTVSPropertyOp30
 70
     1
102
RTVSPropertyOp31
 70
     1
102
RTVSPropertyOp32
 70
     1
  0
XRECORD
  5
102B
102
{ACAD_REACTORS
330
102A
102
}
330
102A
100
AcDbXrecord
280
     1
102
RTVSPropertyOp0
 70
     1
102
RTVSPropertyOp1
 70
     1
102
RTVSPropertyOp2
 70
     1
102
RTVSPropertyOp3
 70
     1
102
RTVSPropertyOp4
 70
     1
102
RTVSPropertyOp5
 70
     1
102
RTVSPropertyOp6
 70
     1
102
RTVSPropertyOp7
 70
     1
102
RTVSPropertyOp8
 70
     1
102
RTVSPropertyOp9
 70
     1
102
RTVSPropertyOp10
 70
     1
102
RTVSPropertyOp11
 70
     1
102
RTVSPropertyOp12
 70
     1
102
RTVSPropertyOp13
 70
     1
102
RTVSPropertyOp14
 70
     1
102
RTVSPropertyOp15
 70
     1
102
RTVSPropertyOp16
 70
     1
102
RTVSPropertyOp17
 70
     1
102
RTVSPropertyOp18
 70
     1
102
RTVSPropertyOp19
 70
     1
102
RTVSPropertyOp20
 70
     1
102
RTVSPropertyOp21
 70
     1
102
RTVSPropertyOp22
 70
     1
102
RTVSPropertyOp23
 70
     1
102
RTVSPropertyOp24
 70
     1
102
RTVSPropertyOp25
 70
     1
102
RTVSPropertyOp26
 70
     1
102
RTVSPropertyOp27
 70
     1
102
RTVSPropertyOp28
 70
     1
102
RTVSPropertyOp29
 70
     1
102
RTVSPropertyOp30
 70
     1
102
RTVSPropertyOp31
 70
     1
102
RTVSPropertyOp32
 70
     1
  0
XRECORD
  5
1025
102
{ACAD_REACTORS
330
1024
102
}
330
1024
100
AcDbXrecord
280
     1
102
RTVSPropertyOp0
 70
     1
102
RTVSPropertyOp1
 70
     1
102
RTVSPropertyOp2
 70
     1
102
RTVSPropertyOp3
 70
     1
102
RTVSPropertyOp4
 70
     1
102
RTVSPropertyOp5
 70
     1
102
RTVSPropertyOp6
 70
     1
102
RTVSPropertyOp7
 70
     1
102
RTVSPropertyOp8
 70
     1
102
RTVSPropertyOp9
 70
     1
102
RTVSPropertyOp10
 70
     1
102
RTVSPropertyOp11
 70
     1
102
RTVSPropertyOp12
 70
     1
102
RTVSPropertyOp13
 70
     1
102
RTVSPropertyOp14
 70
     1
102
RTVSPropertyOp15
 70
     1
102
RTVSPropertyOp16
 70
     1
102
RTVSPropertyOp17
 70
     1
102
RTVSPropertyOp18
 70
     1
102
RTVSPropertyOp19
 70
     1
102
RTVSPropertyOp20
 70
     1
102
RTVSPropertyOp21
 70
     1
102
RTVSPropertyOp22
 70
     1
102
RTVSPropertyOp23
 70
     1
102
RTVSPropertyOp24
 70
     1
102
RTVSPropertyOp25
 70
     1
102
RTVSPropertyOp26
 70
     1
102
RTVSPropertyOp27
 70
     1
102
RTVSPropertyOp28
 70
     1
102
RTVSPropertyOp29
 70
     1
102
RTVSPropertyOp30
 70
     1
102
RTVSPropertyOp31
 70
     1
102
RTVSPropertyOp32
 70
     1
  0
XRECORD
  5
1027
102
{ACAD_REACTORS
330
1026
102
}
330
1026
100
AcDbXrecord
280
     1
102
RTVSPropertyOp0
 70
     1
102
RTVSPropertyOp1
 70
     1
102
RTVSPropertyOp2
 70
     1
102
RTVSPropertyOp3
 70
     1
102
RTVSPropertyOp4
 70
     1
102
RTVSPropertyOp5
 70
     1
102
RTVSPropertyOp6
 70
     1
102
RTVSPropertyOp7
 70
     1
102
RTVSPropertyOp8
 70
     1
102
RTVSPropertyOp9
 70
     1
102
RTVSPropertyOp10
 70
     1
102
RTVSPropertyOp11
 70
     1
102
RTVSPropertyOp12
 70
     1
102
RTVSPropertyOp13
 70
     1
102
RTVSPropertyOp14
 70
     1
102
RTVSPropertyOp15
 70
     1
102
RTVSPropertyOp16
 70
     1
102
RTVSPropertyOp17
 70
     1
102
RTVSPropertyOp18
 70
     1
102
RTVSPropertyOp19
 70
     1
102
RTVSPropertyOp20
 70
     1
102
RTVSPropertyOp21
 70
     1
102
RTVSPropertyOp22
 70
     1
102
RTVSPropertyOp23
 70
     1
102
RTVSPropertyOp24
 70
     1
102
RTVSPropertyOp25
 70
     1
102
RTVSPropertyOp26
 70
     1
102
RTVSPropertyOp27
 70
     1
102
RTVSPropertyOp28
 70
     1
102
RTVSPropertyOp29
 70
     1
102
RTVSPropertyOp30
 70
     1
102
RTVSPropertyOp31
 70
     1
102
RTVSPropertyOp32
 70
     1
  0
XRECORD
  5
1014
102
{ACAD_REACTORS
330
1013
102
}
330
1013
100
AcDbXrecord
280
     1
102
RTVSPropertyOp0
 70
     1
102
RTVSPropertyOp1
 70
     1
102
RTVSPropertyOp2
 70
     1
102
RTVSPropertyOp3
 70
     1
102
RTVSPropertyOp4
 70
     1
102
RTVSPropertyOp5
 70
     1
102
RTVSPropertyOp6
 70
     1
102
RTVSPropertyOp7
 70
     1
102
RTVSPropertyOp8
 70
     1
102
RTVSPropertyOp9
 70
     1
102
RTVSPropertyOp10
 70
     1
102
RTVSPropertyOp11
 70
     1
102
RTVSPropertyOp12
 70
     1
102
RTVSPropertyOp13
 70
     1
102
RTVSPropertyOp14
 70
     1
102
RTVSPropertyOp15
 70
     1
102
RTVSPropertyOp16
 70
     1
102
RTVSPropertyOp17
 70
     1
102
RTVSPropertyOp18
 70
     1
102
RTVSPropertyOp19
 70
     1
102
RTVSPropertyOp20
 70
     1
102
RTVSPropertyOp21
 70
     1
102
RTVSPropertyOp22
 70
     1
102
RTVSPropertyOp23
 70
     1
102
RTVSPropertyOp24
 70
     1
102
RTVSPropertyOp25
 70
     1
102
RTVSPropertyOp26
 70
     1
102
RTVSPropertyOp27
 70
     1
102
RTVSPropertyOp28
 70
     1
102
RTVSPropertyOp29
 70
     1
102
RTVSPropertyOp30
 70
     1
102
RTVSPropertyOp31
 70
     1
102
RTVSPropertyOp32
 70
     1
  0
XRECORD
  5
1021
102
{ACAD_REACTORS
330
1020
102
}
330
1020
100
AcDbXrecord
280
     1
102
RTVSPropertyOp0
 70
     1
102
RTVSPropertyOp1
 70
     1
102
RTVSPropertyOp2
 70
     1
102
RTVSPropertyOp3
 70
     1
102
RTVSPropertyOp4
 70
     1
102
RTVSPropertyOp5
 70
     1
102
RTVSPropertyOp6
 70
     1
102
RTVSPropertyOp7
 70
     1
102
RTVSPropertyOp8
 70
     1
102
RTVSPropertyOp9
 70
     1
102
RTVSPropertyOp10
 70
     1
102
RTVSPropertyOp11
 70
     1
102
RTVSPropertyOp12
 70
     1
102
RTVSPropertyOp13
 70
     1
102
RTVSPropertyOp14
 70
     1
102
RTVSPropertyOp15
 70
     1
102
RTVSPropertyOp16
 70
     1
102
RTVSPropertyOp17
 70
     1
102
RTVSPropertyOp18
 70
     1
102
RTVSPropertyOp19
 70
     1
102
RTVSPropertyOp20
 70
     1
102
RTVSPropertyOp21
 70
     1
102
RTVSPropertyOp22
 70
     1
102
RTVSPropertyOp23
 70
     1
102
RTVSPropertyOp24
 70
     1
102
RTVSPropertyOp25
 70
     1
102
RTVSPropertyOp26
 70
     1
102
RTVSPropertyOp27
 70
     1
102
RTVSPropertyOp28
 70
     1
102
RTVSPropertyOp29
 70
     1
102
RTVSPropertyOp30
 70
     1
102
RTVSPropertyOp31
 70
     1
102
RTVSPropertyOp32
 70
     1
  0
XRECORD
  5
1029
102
{ACAD_REACTORS
330
1028
102
}
330
1028
100
AcDbXrecord
280
     1
102
RTVSPropertyOp0
 70
     1
102
RTVSPropertyOp1
 70
     1
102
RTVSPropertyOp2
 70
     1
102
RTVSPropertyOp3
 70
     1
102
RTVSPropertyOp4
 70
     1
102
RTVSPropertyOp5
 70
     1
102
RTVSPropertyOp6
 70
     1
102
RTVSPropertyOp7
 70
     1
102
RTVSPropertyOp8
 70
     1
102
RTVSPropertyOp9
 70
     1
102
RTVSPropertyOp10
 70
     1
102
RTVSPropertyOp11
 70
     1
102
RTVSPropertyOp12
 70
     1
102
RTVSPropertyOp13
 70
     1
102
RTVSPropertyOp14
 70
     1
102
RTVSPropertyOp15
 70
     1
102
RTVSPropertyOp16
 70
     1
102
RTVSPropertyOp17
 70
     1
102
RTVSPropertyOp18
 70
     1
102
RTVSPropertyOp19
 70
     1
102
RTVSPropertyOp20
 70
     1
102
RTVSPropertyOp21
 70
     1
102
RTVSPropertyOp22
 70
     1
102
RTVSPropertyOp23
 70
     1
102
RTVSPropertyOp24
 70
     1
102
RTVSPropertyOp25
 70
     1
102
RTVSPropertyOp26
 70
     1
102
RTVSPropertyOp27
 70
     1
102
RTVSPropertyOp28
 70
     1
102
RTVSPropertyOp29
 70
     1
102
RTVSPropertyOp30
 70
     1
102
RTVSPropertyOp31
 70
     1
102
RTVSPropertyOp32
 70
     1
  0
ENDSEC
  0
EOF
