  0
SECTION
  2
HEADER
  9
$ACADVER
  1
AC1015
  9
$ACADMAINTVER
 70
    20
  9
$DWGCODEPAGE
  3
ANSI_932
  9
$INSBASE
 10
0.0
 20
0.0
 30
0.0
  9
$EXTMIN
 10
-191.611198
 20
-143.124634
 30
0.0
  9
$EXTMAX
 10
416.0352783449659
 20
133.875366
 30
0.0
  9
$LIMMIN
 10
-191.612206
 20
-143.125634
  9
$LIMMAX
 10
213.415658
 20
133.876366
  9
$ORTHOMODE
 70
     0
  9
$REGENMODE
 70
     1
  9
$FILLMODE
 70
     1
  9
$QTEXTMODE
 70
     0
  9
$MIRRTEXT
 70
     0
  9
$LTSCALE
 40
6.750430999999997
  9
$ATTMODE
 70
     1
  9
$TEXTSIZE
 40
3.2
  9
$TRACEWID
 40
0.05
  9
$TEXTSTYLE
  7
高3.2
  9
$CLAYER
  8
0
  9
$CELTYPE
  6
ByLayer
  9
$CECOLOR
 62
   256
  9
$CELTSCALE
 40
1.0
  9
$DISPSILH
 70
     0
  9
$DIMSCALE
 40
1.0
  9
$DIMASZ
 40
2.5
  9
$DIMEXO
 40
0.25
  9
$DIMDLI
 40
0.2
  9
$DIMRND
 40
0.0
  9
$DIMDLE
 40
0.0
  9
$DIMEXE
 40
1.25
  9
$DIMTP
 40
0.0
  9
$DIMTM
 40
0.0
  9
$DIMTXT
 40
3.0
  9
$DIMCEN
 40
0.0
  9
$DIMTSZ
 40
0.0
  9
$DIMTOL
 70
     0
  9
$DIMLIM
 70
     0
  9
$DIMTIH
 70
     0
  9
$DIMTOH
 70
     0
  9
$DIMSE1
 70
     0
  9
$DIMSE2
 70
     0
  9
$DIMTAD
 70
     3
  9
$DIMZIN
 70
     8
  9
$DIMBLK
  1
Open30
  9
$DIMASO
 70
     1
  9
$DIMSHO
 70
     1
  9
$DIMPOST
  1

  9
$DIMAPOST
  1

  9
$DIMALT
 70
     0
  9
$DIMALTD
 70
     3
  9
$DIMALTF
 40
0.03937007874016
  9
$DIMLFAC
 40
1.0
  9
$DIMTOFL
 70
     1
  9
$DIMTVP
 40
0.0
  9
$DIMTIX
 70
     0
  9
$DIMSOXD
 70
     0
  9
$DIMSAH
 70
     0
  9
$DIMBLK1
  1

  9
$DIMBLK2
  1

  9
$DIMSTYLE
  2
FREE
  9
$DIMCLRD
 70
     0
  9
$DIMCLRE
 70
     0
  9
$DIMCLRT
 70
     4
  9
$DIMTFAC
 40
1.0
  9
$DIMGAP
 40
0.625
  9
$DIMJUST
 70
     0
  9
$DIMSD1
 70
     0
  9
$DIMSD2
 70
     0
  9
$DIMTOLJ
 70
     0
  9
$DIMTZIN
 70
     8
  9
$DIMALTZ
 70
     0
  9
$DIMALTTZ
 70
     0
  9
$DIMUPT
 70
     1
  9
$DIMDEC
 70
     2
  9
$DIMTDEC
 70
     2
  9
$DIMALTU
 70
     2
  9
$DIMALTTD
 70
     3
  9
$DIMTXSTY
  7
STANDARD
  9
$DIMAUNIT
 70
     0
  9
$DIMADEC
 70
     1
  9
$DIMALTRND
 40
0.0
  9
$DIMAZIN
 70
     2
  9
$DIMDSEP
 70
    46
  9
$DIMATFIT
 70
     0
  9
$DIMFRAC
 70
     0
  9
$DIMLDRBLK
  1
Open30
  9
$DIMLUNIT
 70
     2
  9
$DIMLWD
 70
    -2
  9
$DIMLWE
 70
    -2
  9
$DIMTMOVE
 70
     0
  9
$LUNITS
 70
     2
  9
$LUPREC
 70
     4
  9
$SKETCHINC
 40
0.1
  9
$FILLETRAD
 40
0.0
  9
$AUNITS
 70
     0
  9
$AUPREC
 70
     0
  9
$MENU
  1
.
  9
$ELEVATION
 40
0.0
  9
$PELEVATION
 40
0.0
  9
$THICKNESS
 40
0.0
  9
$LIMCHECK
 70
     0
  9
$CHAMFERA
 40
0.0
  9
$CHAMFERB
 40
0.0
  9
$CHAMFERC
 40
0.0
  9
$CHAMFERD
 40
0.0
  9
$SKPOLY
 70
     0
  9
$TDCREATE
 40
2455615.656509329
  9
$TDUCREATE
 40
2455615.281509329
  9
$TDUPDATE
 40
2460251.679194653
  9
$TDUUPDATE
 40
2460251.304194653
  9
$TDINDWG
 40
0.1936176042
  9
$TDUSRTIMER
 40
0.1936056944
  9
$USRTIMER
 70
     1
  9
$ANGBASE
 50
0.0
  9
$ANGDIR
 70
     0
  9
$PDMODE
 70
     0
  9
$PDSIZE
 40
0.0
  9
$PLINEWID
 40
0.0
  9
$SPLFRAME
 70
     0
  9
$SPLINETYPE
 70
     6
  9
$SPLINESEGS
 70
     8
  9
$HANDSEED
  5
11D0
  9
$SURFTAB1
 70
     6
  9
$SURFTAB2
 70
     6
  9
$SURFTYPE
 70
     6
  9
$SURFU
 70
     6
  9
$SURFV
 70
     6
  9
$UCSBASE
  2

  9
$UCSNAME
  2

  9
$UCSORG
 10
0.0
 20
0.0
 30
0.0
  9
$UCSXDIR
 10
1.0
 20
0.0
 30
0.0
  9
$UCSYDIR
 10
0.0
 20
1.0
 30
0.0
  9
$UCSORTHOREF
  2

  9
$UCSORTHOVIEW
 70
     0
  9
$UCSORGTOP
 10
0.0
 20
0.0
 30
0.0
  9
$UCSORGBOTTOM
 10
0.0
 20
0.0
 30
0.0
  9
$UCSORGLEFT
 10
0.0
 20
0.0
 30
0.0
  9
$UCSORGRIGHT
 10
0.0
 20
0.0
 30
0.0
  9
$UCSORGFRONT
 10
0.0
 20
0.0
 30
0.0
  9
$UCSORGBACK
 10
0.0
 20
0.0
 30
0.0
  9
$PUCSBASE
  2

  9
$PUCSNAME
  2

  9
$PUCSORG
 10
0.0
 20
0.0
 30
0.0
  9
$PUCSXDIR
 10
1.0
 20
0.0
 30
0.0
  9
$PUCSYDIR
 10
0.0
 20
1.0
 30
0.0
  9
$PUCSORTHOREF
  2

  9
$PUCSORTHOVIEW
 70
     0
  9
$PUCSORGTOP
 10
0.0
 20
0.0
 30
0.0
  9
$PUCSORGBOTTOM
 10
0.0
 20
0.0
 30
0.0
  9
$PUCSORGLEFT
 10
0.0
 20
0.0
 30
0.0
  9
$PUCSORGRIGHT
 10
0.0
 20
0.0
 30
0.0
  9
$PUCSORGFRONT
 10
0.0
 20
0.0
 30
0.0
  9
$PUCSORGBACK
 10
0.0
 20
0.0
 30
0.0
  9
$USERI1
 70
     0
  9
$USERI2
 70
     0
  9
$USERI3
 70
     0
  9
$USERI4
 70
     0
  9
$USERI5
 70
     0
  9
$USERR1
 40
0.0
  9
$USERR2
 40
0.0
  9
$USERR3
 40
0.0
  9
$USERR4
 40
0.0
  9
$USERR5
 40
0.0
  9
$WORLDVIEW
 70
     1
  9
$SHADEDGE
 70
     3
  9
$SHADEDIF
 70
    70
  9
$TILEMODE
 70
     1
  9
$MAXACTVP
 70
    64
  9
$PINSBASE
 10
0.0
 20
0.0
 30
0.0
  9
$PLIMCHECK
 70
     0
  9
$PEXTMIN
 10
1.000000000000000E+20
 20
1.000000000000000E+20
 30
1.000000000000000E+20
  9
$PEXTMAX
 10
-1.000000000000000E+20
 20
-1.000000000000000E+20
 30
-1.000000000000000E+20
  9
$PLIMMIN
 10
0.0
 20
0.0
  9
$PLIMMAX
 10
12.0
 20
9.0
  9
$UNITMODE
 70
     0
  9
$VISRETAIN
 70
     1
  9
$PLINEGEN
 70
     0
  9
$PSLTSCALE
 70
     1
  9
$TREEDEPTH
 70
  3020
  9
$CMLSTYLE
  2
Standard
  9
$CMLJUST
 70
     0
  9
$CMLSCALE
 40
1.0
  9
$PROXYGRAPHICS
 70
     1
  9
$MEASUREMENT
 70
     0
  9
$CELWEIGHT
370
    -1
  9
$ENDCAPS
280
     0
  9
$JOINSTYLE
280
     0
  9
$LWDISPLAY
290
     0
  9
$INSUNITS
 70
     0
  9
$HYPERLINKBASE
  1

  9
$STYLESHEET
  1
N-PLOT.CTB
  9
$XEDIT
290
     1
  9
$CEPSNTYPE
380
     0
  9
$PSTYLEMODE
290
     1
  9
$FINGERPRINTGUID
  2
{3AEF6A6D-2F97-47CE-8F7C-19353EDDB358}
  9
$VERSIONGUID
  2
{DA780180-2226-48BB-834D-F03D6C8FEDE6}
  9
$EXTNAMES
290
     1
  9
$PSVPSCALE
 40
0.0
  9
$OLESTARTUP
290
     0
  0
ENDSEC
  0
SECTION
  2
CLASSES
  0
CLASS
  1
ACDBDICTIONARYWDFLT
  2
AcDbDictionaryWithDefault
  3
ObjectDBX Classes
 90
        0
280
     0
281
     0
  0
CLASS
  1
MATERIAL
  2
AcDbMaterial
  3
ObjectDBX Classes
 90
     1153
280
     0
281
     0
  0
CLASS
  1
VISUALSTYLE
  2
AcDbVisualStyle
  3
ObjectDBX Classes
 90
     4095
280
     0
281
     0
  0
CLASS
  1
TABLESTYLE
  2
AcDbTableStyle
  3
ObjectDBX Classes
 90
     4095
280
     0
281
     0
  0
CLASS
  1
DICTIONARYVAR
  2
AcDbDictionaryVar
  3
ObjectDBX Classes
 90
        0
280
     0
281
     0
  0
CLASS
  1
ACDBPLACEHOLDER
  2
AcDbPlaceHolder
  3
ObjectDBX Classes
 90
        0
280
     0
281
     0
  0
CLASS
  1
LAYOUT
  2
AcDbLayout
  3
ObjectDBX Classes
 90
        0
280
     0
281
     0
  0
CLASS
  1
SCALE
  2
AcDbScale
  3
ObjectDBX Classes
 90
     1153
280
     0
281
     0
  0
CLASS
  1
MLEADERSTYLE
  2
AcDbMLeaderStyle
  3
ACDB_MLEADERSTYLE_CLASS
 90
     4095
280
     0
281
     0
  0
CLASS
  1
SORTENTSTABLE
  2
AcDbSortentsTable
  3
ObjectDBX Classes
 90
        0
280
     0
281
     0
  0
CLASS
  1
CELLSTYLEMAP
  2
AcDbCellStyleMap
  3
ObjectDBX Classes
 90
     1152
280
     0
281
     0
  0
CLASS
  1
AEC_REFEDIT_STATUS_TRACKER
  2
AecDbRefEditStatusTracker
  3
AecArchBase60|Product Desc: Autodesk Architectural Desktop 2007 |Company: Autodesk,Inc. |WEB Address: www.autodesk.com
 90
      129
280
     0
281
     0
  0
CLASS
  1
NPOCOLLECTION
  2
AcDbImpNonPersistentObjectsCollection
  3
ObjectDBX Classes
 90
     1153
280
     0
281
     0
  0
ENDSEC
  0
SECTION
  2
TABLES
  0
TABLE
  2
VPORT
  5
8
330
0
100
AcDbSymbolTable
 70
     1
  0
VPORT
  5
56
330
8
100
AcDbSymbolTableRecord
100
AcDbViewportTableRecord
  2
*Active
 70
     0
 10
0.0
 20
0.0
 11
1.0
 21
1.0
 12
40.20210639525465
 22
9.890381317904939
 13
0.0
 23
0.0
 14
1.0
 24
1.0
 15
0.0
 25
0.0
 16
0.0
 26
0.0
 36
1.0
 17
0.0
 27
0.0
 37
0.0
 40
842.9029452830032
 41
1.236286919831223
 42
50.0
 43
0.0
 44
0.0
 50
0.0
 51
0.0
 71
     0
 72
  1000
 73
     1
 74
     1
 75
     0
 76
     0
 77
     0
 78
     0
281
     0
 65
     1
110
0.0
120
0.0
130
0.0
111
1.0
121
0.0
131
0.0
112
0.0
122
1.0
132
0.0
 79
     0
146
0.0
  0
ENDTAB
  0
TABLE
  2
LTYPE
  5
5
330
0
100
AcDbSymbolTable
 70
     4
  0
LTYPE
  5
28
330
5
100
AcDbSymbolTableRecord
100
AcDbLinetypeTableRecord
  2
ByBlock
 70
     0
  3

 72
    65
 73
     0
 40
0.0
  0
LTYPE
  5
29
330
5
100
AcDbSymbolTableRecord
100
AcDbLinetypeTableRecord
  2
ByLayer
 70
     0
  3

 72
    65
 73
     0
 40
0.0
  0
LTYPE
  5
2A
330
5
100
AcDbSymbolTableRecord
100
AcDbLinetypeTableRecord
  2
CONTINUOUS
 70
     0
  3
Solid-line
 72
    65
 73
     0
 40
0.0
  0
LTYPE
  5
3D
330
5
100
AcDbSymbolTableRecord
100
AcDbLinetypeTableRecord
  2
CENTER
 70
     0
  3
CENTER
 72
    65
 73
     4
 40
2.0
 49
1.25
 74
     0
 49
-0.25
 74
     0
 49
0.25
 74
     0
 49
-0.25
 74
     0
  0
LTYPE
  5
4C
330
5
100
AcDbSymbolTableRecord
100
AcDbLinetypeTableRecord
  2
HIDDEN
 70
     0
  3
HIDDEN
 72
    65
 73
     2
 40
0.375
 49
0.25
 74
     0
 49
-0.125
 74
     0
  0
ENDTAB
  0
TABLE
  2
LAYER
  5
2
102
{ACAD_XDICTIONARY
360
793
102
}
330
0
100
AcDbSymbolTable
 70
     2
  0
LAYER
  5
25
102
{ACAD_XDICTIONARY
360
A74
102
}
330
2
100
AcDbSymbolTableRecord
100
AcDbLayerTableRecord
  2
0
 70
     0
 62
     7
  6
CONTINUOUS
370
    -3
390
F
  0
LAYER
  5
77F
330
2
100
AcDbSymbolTableRecord
100
AcDbLayerTableRecord
  2
Defpoints
 70
     0
 62
     7
  6
CONTINUOUS
290
     0
370
    -3
390
F
  0
ENDTAB
  0
TABLE
  2
STYLE
  5
3
330
0
100
AcDbSymbolTable
 70
     5
  0
STYLE
  5
26
330
3
100
AcDbSymbolTableRecord
100
AcDbTextStyleTableRecord
  2
STANDARD
 70
     0
 40
0.0
 41
1.0
 50
0.0
 71
     0
 42
0.2
  3
TXT
  4
BIGFONT
  0
STYLE
  5
780
330
3
100
AcDbSymbolTableRecord
100
AcDbTextStyleTableRecord
  2
高3.2
 70
     0
 40
3.2
 41
1.0
 50
0.0
 71
     0
 42
3.2
  3
txt.shx
  4
bigfont.shx
  0
STYLE
  5
781
330
3
100
AcDbSymbolTableRecord
100
AcDbTextStyleTableRecord
  2
高6.3
 70
     0
 40
6.299999999999998
 41
1.0
 50
0.0
 71
     0
 42
6.299999999999998
  3
txt.shx
  4
bigfont.shx
  0
STYLE
  5
783
330
3
100
AcDbSymbolTableRecord
100
AcDbTextStyleTableRecord
  2
高4.5
 70
     0
 40
4.5
 41
1.0
 50
0.0
 71
     0
 42
6.299999999999998
  3
txt.shx
  4
bigfont.shx
  0
STYLE
  5
784
330
3
100
AcDbSymbolTableRecord
100
AcDbTextStyleTableRecord
  2
高2
 70
     0
 40
2.0
 41
1.0
 50
0.0
 71
     0
 42
2.0
  3
txt.shx
  4
bigfont.shx
  0
ENDTAB
  0
TABLE
  2
VIEW
  5
6
330
0
100
AcDbSymbolTable
 70
     0
  0
ENDTAB
  0
TABLE
  2
UCS
  5
7
330
0
100
AcDbSymbolTable
 70
     0
  0
ENDTAB
  0
TABLE
  2
APPID
  5
9
330
0
100
AcDbSymbolTable
 70
    10
  0
APPID
  5
27
330
9
100
AcDbSymbolTableRecord
100
AcDbRegAppTableRecord
  2
ACAD
 70
     0
  0
APPID
  5
5D6
330
9
100
AcDbSymbolTableRecord
100
AcDbRegAppTableRecord
  2
ACAD_PSEXT
 70
     0
  0
APPID
  5
78F
330
9
100
AcDbSymbolTableRecord
100
AcDbRegAppTableRecord
  2
ACAD_DSTYLE_DIMJOGGED_JOGANGLE_SYMBOL
 70
     0
  0
APPID
  5
790
330
9
100
AcDbSymbolTableRecord
100
AcDbRegAppTableRecord
  2
ACAD_DSTYLE_DIMJAG
 70
     0
  0
APPID
  5
791
330
9
100
AcDbSymbolTableRecord
100
AcDbRegAppTableRecord
  2
ACAD_DSTYLE_DIMBREAK
 70
     0
  0
APPID
  5
792
330
9
100
AcDbSymbolTableRecord
100
AcDbRegAppTableRecord
  2
ACAD_DSTYLE_DIMTALN
 70
     0
  0
APPID
  5
9C8
330
9
100
AcDbSymbolTableRecord
100
AcDbRegAppTableRecord
  2
ACAD_EXEMPT_FROM_CAD_STANDARDS
 70
     0
  0
APPID
  5
B52
330
9
100
AcDbSymbolTableRecord
100
AcDbRegAppTableRecord
  2
ACAD_MLEADERVER
 70
     0
  0
APPID
  5
B53
330
9
100
AcDbSymbolTableRecord
100
AcDbRegAppTableRecord
  2
ACAD_DSTYLE_DIMARC_LENGTH_SYMBOL
 70
     0
  0
APPID
  5
B54
330
9
100
AcDbSymbolTableRecord
100
AcDbRegAppTableRecord
  2
ACAD_DSTYLE_DIMEXT_LENGTH
 70
     0
  0
ENDTAB
  0
TABLE
  2
DIMSTYLE
  5
A
330
0
100
AcDbSymbolTable
 70
     8
100
AcDbDimStyleTable
 71
     2
340
78E
340
5BD
  0
DIMSTYLE
105
5BD
330
A
100
AcDbSymbolTableRecord
100
AcDbDimStyleTableRecord
  2
Standard
 70
     0
340
26
  0
DIMSTYLE
105
78E
330
A
100
AcDbSymbolTableRecord
100
AcDbDimStyleTableRecord
  2
FREE
 70
     0
 41
2.5
 42
0.25
 43
0.2
 44
1.25
 73
     0
 74
     0
 77
     3
 78
     8
 79
     2
140
3.0
141
0.0
143
0.03937007874016
147
0.625
171
     3
172
     1
178
     4
179
     1
271
     2
272
     2
274
     3
283
     0
284
     8
288
     1
289
     0
340
26
341
6EF
342
6EF
1001
ACAD_DSTYLE_DIMBREAK
1070
   391
1040
3.75
1001
ACAD_DSTYLE_DIMJAG
1070
   388
1040
1.5
1001
ACAD_DSTYLE_DIMTALN
1070
   392
1070
     0
1001
ACAD_DSTYLE_DIMARC_LENGTH_SYMBOL
1070
   379
1070
     2
1001
ACAD_DSTYLE_DIMEXT_LENGTH
1070
   378
1040
1.25
1001
ACAD_DSTYLE_DIMJOGGED_JOGANGLE_SYMBOL
1070
   384
1040
1.570796326794896
  0
DIMSTYLE
105
D77
330
A
100
AcDbSymbolTableRecord
100
AcDbDimStyleTableRecord
  2
1：1
 70
     0
 41
2.5
 42
0.25
 43
0.2
 44
1.25
 73
     0
 74
     0
 77
     3
 78
     8
 79
     2
140
3.0
141
0.0
143
0.03937007874016
147
0.625
171
     3
172
     1
178
     4
179
     1
271
     2
272
     2
274
     3
283
     0
284
     8
288
     1
289
     0
340
26
341
6EF
342
6EF
1001
ACAD_DSTYLE_DIMARC_LENGTH_SYMBOL
1070
   379
1070
     2
1001
ACAD_DSTYLE_DIMEXT_LENGTH
1070
   378
1040
1.25
1001
ACAD_DSTYLE_DIMJOGGED_JOGANGLE_SYMBOL
1070
   384
1040
1.570796326794896
  0
DIMSTYLE
105
D78
330
A
100
AcDbSymbolTableRecord
100
AcDbDimStyleTableRecord
  2
2：1
 70
     0
 41
2.5
 42
0.25
 43
0.2
 44
1.25
 73
     0
 74
     0
 77
     3
 78
     8
 79
     2
140
3.0
141
0.0
143
0.03937007874016
144
0.5
147
0.625
171
     3
172
     1
178
     4
179
     1
271
     2
272
     2
274
     3
283
     0
284
     8
288
     1
289
     0
340
26
341
6EF
342
6EF
1001
ACAD_DSTYLE_DIMARC_LENGTH_SYMBOL
1070
   379
1070
     2
1001
ACAD_DSTYLE_DIMEXT_LENGTH
1070
   378
1040
1.25
1001
ACAD_DSTYLE_DIMJOGGED_JOGANGLE_SYMBOL
1070
   384
1040
1.570796326794896
  0
DIMSTYLE
105
D79
330
A
100
AcDbSymbolTableRecord
100
AcDbDimStyleTableRecord
  2
5：1
 70
     0
 41
2.5
 42
0.25
 43
0.2
 44
1.25
 73
     0
 74
     0
 77
     3
 78
     8
 79
     2
140
3.0
141
0.0
143
0.03937007874016
144
0.2
147
0.625
171
     3
172
     1
178
     4
179
     1
271
     2
272
     2
274
     3
283
     0
284
     8
288
     1
289
     0
340
26
341
6EF
342
6EF
1001
ACAD_DSTYLE_DIMARC_LENGTH_SYMBOL
1070
   379
1070
     2
1001
ACAD_DSTYLE_DIMEXT_LENGTH
1070
   378
1040
1.25
1001
ACAD_DSTYLE_DIMJOGGED_JOGANGLE_SYMBOL
1070
   384
1040
1.570796326794896
  0
DIMSTYLE
105
D7A
330
A
100
AcDbSymbolTableRecord
100
AcDbDimStyleTableRecord
  2
10：1
 70
     0
 41
2.5
 42
0.25
 43
0.2
 44
1.25
 73
     0
 74
     0
 77
     3
 78
     8
 79
     2
140
3.0
141
0.0
143
0.03937007874016
144
0.1
147
0.625
171
     3
172
     1
178
     4
179
     1
271
     2
272
     2
274
     3
283
     0
284
     8
288
     1
289
     0
340
26
341
6EF
342
6EF
1001
ACAD_DSTYLE_DIMARC_LENGTH_SYMBOL
1070
   379
1070
     2
1001
ACAD_DSTYLE_DIMEXT_LENGTH
1070
   378
1040
1.25
1001
ACAD_DSTYLE_DIMJOGGED_JOGANGLE_SYMBOL
1070
   384
1040
1.570796326794896
  0
DIMSTYLE
105
D7B
330
A
100
AcDbSymbolTableRecord
100
AcDbDimStyleTableRecord
  2
1／5
 70
     0
 41
2.5
 42
0.25
 43
0.2
 44
1.25
 73
     0
 74
     0
 77
     3
 78
     8
 79
     2
140
3.0
141
0.0
143
0.03937007874016
144
5.0
147
0.625
171
     3
172
     1
178
     4
179
     1
271
     2
272
     2
274
     3
283
     0
284
     8
288
     1
289
     0
340
26
341
6EF
342
6EF
1001
ACAD_DSTYLE_DIMARC_LENGTH_SYMBOL
1070
   379
1070
     2
1001
ACAD_DSTYLE_DIMEXT_LENGTH
1070
   378
1040
1.25
1001
ACAD_DSTYLE_DIMJOGGED_JOGANGLE_SYMBOL
1070
   384
1040
1.570796326794896
  0
DIMSTYLE
105
EBF
330
A
100
AcDbSymbolTableRecord
100
AcDbDimStyleTableRecord
  2
1／2
 70
     0
 41
2.5
 42
0.25
 43
0.2
 44
1.25
 73
     0
 74
     0
 77
     3
 78
     8
 79
     2
140
3.0
141
0.0
143
0.03937007874016
144
2.0
147
0.625
171
     3
172
     1
178
     4
179
     1
271
     2
272
     2
274
     3
283
     0
284
     8
288
     1
289
     0
340
26
341
6EF
342
6EF
1001
ACAD_DSTYLE_DIMARC_LENGTH_SYMBOL
1070
   379
1070
     2
1001
ACAD_DSTYLE_DIMEXT_LENGTH
1070
   378
1040
1.25
1001
ACAD_DSTYLE_DIMJOGGED_JOGANGLE_SYMBOL
1070
   384
1040
1.570796326794896
  0
ENDTAB
  0
TABLE
  2
BLOCK_RECORD
  5
1
330
0
100
AcDbSymbolTable
 70
     8
  0
BLOCK_RECORD
  5
36
102
{ACAD_XDICTIONARY
360
9C6
102
}
330
1
100
AcDbSymbolTableRecord
100
AcDbBlockTableRecord
  2
*Model_Space
340
39
  0
BLOCK_RECORD
  5
32
330
1
100
AcDbSymbolTableRecord
100
AcDbBlockTableRecord
  2
*Paper_Space
340
35
  0
BLOCK_RECORD
  5
6EF
330
1
100
AcDbSymbolTableRecord
100
AcDbBlockTableRecord
  2
_Open30
340
0
102
{BLKREFS
331
D55
331
D56
331
D5E
331
D5F
331
D67
331
D68
331
D70
331
D71
102
}
  0
BLOCK_RECORD
  5
9DA
330
1
100
AcDbSymbolTableRecord
100
AcDbBlockTableRecord
  2
_DotSmall
340
0
  0
BLOCK_RECORD
  5
9EE
330
1
100
AcDbSymbolTableRecord
100
AcDbBlockTableRecord
  2
*D2
340
0
  0
BLOCK_RECORD
  5
9FA
330
1
100
AcDbSymbolTableRecord
100
AcDbBlockTableRecord
  2
*D3
340
0
  0
BLOCK_RECORD
  5
A06
330
1
100
AcDbSymbolTableRecord
100
AcDbBlockTableRecord
  2
*D4
340
0
  0
BLOCK_RECORD
  5
A12
330
1
100
AcDbSymbolTableRecord
100
AcDbBlockTableRecord
  2
*D5
340
0
  0
ENDTAB
  0
ENDSEC
  0
SECTION
  2
BLOCKS
  0
BLOCK
  5
37
330
36
100
AcDbEntity
  8
0
100
AcDbBlockBegin
  2
*Model_Space
 70
     0
 10
0.0
 20
0.0
 30
0.0
  3
*Model_Space
  1

  0
ENDBLK
  5
38
330
36
100
AcDbEntity
  8
0
100
AcDbBlockEnd
  0
BLOCK
  5
33
330
32
100
AcDbEntity
 67
     1
  8
0
100
AcDbBlockBegin
  2
*Paper_Space
 70
     0
 10
0.0
 20
0.0
 30
0.0
  3
*Paper_Space
  1

  0
ENDBLK
  5
34
330
32
100
AcDbEntity
 67
     1
  8
0
100
AcDbBlockEnd
  0
BLOCK
  5
6F0
330
6EF
100
AcDbEntity
  8
0
100
AcDbBlockBegin
  2
_Open30
 70
     0
 10
0.0
 20
0.0
 30
0.0
  3
_Open30
  1

  0
LINE
  5
6F1
330
6EF
100
AcDbEntity
  8
0
  6
ByBlock
 62
     0
370
    -2
100
AcDbLine
 10
-1.0
 20
0.267949
 30
0.0
 11
0.0
 21
0.0
 31
0.0
  0
LINE
  5
6F2
330
6EF
100
AcDbEntity
  8
0
  6
ByBlock
 62
     0
370
    -2
100
AcDbLine
 10
0.0
 20
0.0
 30
0.0
 11
-1.0
 21
-0.267949
 31
0.0
  0
LINE
  5
6F3
330
6EF
100
AcDbEntity
  8
0
  6
ByBlock
 62
     0
370
    -2
100
AcDbLine
 10
0.0
 20
0.0
 30
0.0
 11
-1.0
 21
0.0
 31
0.0
  0
ENDBLK
  5
6F4
330
6EF
100
AcDbEntity
  8
0
100
AcDbBlockEnd
  0
BLOCK
  5
9DC
330
9DA
100
AcDbEntity
  8
0
100
AcDbBlockBegin
  2
_DotSmall
 70
     0
 10
0.0
 20
0.0
 30
0.0
  3
_DotSmall
  1

  0
LWPOLYLINE
  5
9DB
330
9DA
100
AcDbEntity
  8
0
  6
ByBlock
 62
     0
100
AcDbPolyline
 90
        2
 70
     1
 43
0.5
 10
-0.0625
 20
0.0
 42
1.0
 10
0.0625
 20
0.0
 42
1.0
  0
ENDBLK
  5
9DD
330
9DA
100
AcDbEntity
  8
0
100
AcDbBlockEnd
  0
BLOCK
  5
9EF
330
9EE
100
AcDbEntity
  8
0
100
AcDbBlockBegin
  2
*D2
 70
     1
 10
0.0
 20
0.0
 30
0.0
  3
*D2
  1

  0
LINE
  5
D52
330
9EE
100
AcDbEntity
  8
0
 62
     0
370
    -2
100
AcDbLine
 10
19.247835
 20
-3.623931999999998
 30
0.0
 11
19.247835
 21
-24.85855499999999
 31
0.0
  0
LINE
  5
D53
330
9EE
100
AcDbEntity
  8
0
 62
     0
370
    -2
100
AcDbLine
 10
136.747835
 20
-4.023931999999998
 30
0.0
 11
136.747835
 21
-24.858555
 31
0.0
  0
LINE
  5
D54
330
9EE
100
AcDbEntity
  8
0
 62
     0
370
    -2
100
AcDbLine
 10
21.747835
 20
-23.608555
 30
0.0
 11
134.247835
 21
-23.608555
 31
0.0
  0
INSERT
  5
D55
330
9EE
100
AcDbEntity
  8
0
 62
     0
370
    -2
100
AcDbBlockReference
  2
_Open30
 10
19.247835
 20
-23.608555
 30
0.0
 41
2.5
 42
2.5
 43
2.5
 50
180.0
  0
INSERT
  5
D56
330
9EE
100
AcDbEntity
  8
0
 62
     0
370
    -2
100
AcDbBlockReference
  2
_Open30
 10
136.747835
 20
-23.608555
 30
0.0
 41
2.5
 42
2.5
 43
2.5
  0
MTEXT
  5
D57
330
9EE
100
AcDbEntity
  8
0
 62
     4
100
AcDbMText
 10
77.99783500000001
 20
-21.483555
 30
0.0
 40
3.0
 41
0.0
 71
     5
 72
     1
  1
235
 73
     1
 44
1.0
1001
ACAD
1000
MTEXTBEGIN
1070
    73
1070
     1
1070
    44
1040
1.0
1070
    74
1070
     0
1000
MTEXTEND
  0
POINT
  5
D58
330
9EE
100
AcDbEntity
  8
Defpoints
 62
     0
100
AcDbPoint
 10
19.247835
 20
-3.373931999999998
 30
0.0
  0
POINT
  5
D59
330
9EE
100
AcDbEntity
  8
Defpoints
 62
     0
100
AcDbPoint
 10
136.747835
 20
-3.773931999999998
 30
0.0
  0
POINT
  5
D5A
330
9EE
100
AcDbEntity
  8
Defpoints
 62
     0
100
AcDbPoint
 10
136.747835
 20
-23.608555
 30
0.0
  0
ENDBLK
  5
9F0
330
9EE
100
AcDbEntity
  8
0
100
AcDbBlockEnd
  0
BLOCK
  5
9FB
330
9FA
100
AcDbEntity
  8
0
100
AcDbBlockBegin
  2
*D3
 70
     1
 10
0.0
 20
0.0
 30
0.0
  3
*D3
  1

  0
LINE
  5
D5B
330
9FA
100
AcDbEntity
  8
0
 62
     0
370
    -2
100
AcDbLine
 10
26.497835
 20
-5.873931999999999
 30
0.0
 11
8.769105999999981
 21
-5.873931999999993
 31
0.0
  0
LINE
  5
D5C
330
9FA
100
AcDbEntity
  8
0
 62
     0
370
    -2
100
AcDbLine
 10
26.497835
 20
78.426068
 30
0.0
 11
8.769105999999997
 21
78.426068
 31
0.0
  0
LINE
  5
D5D
330
9FA
100
AcDbEntity
  8
0
 62
     0
370
    -2
100
AcDbLine
 10
10.01910599999998
 20
-3.373931999999994
 30
0.0
 11
10.01910599999999
 21
75.926068
 31
0.0
  0
INSERT
  5
D5E
330
9FA
100
AcDbEntity
  8
0
 62
     0
370
    -2
100
AcDbBlockReference
  2
_Open30
 10
10.01910599999998
 20
-5.873931999999994
 30
0.0
 41
2.5
 42
2.5
 43
2.5
 50
270.0
  0
INSERT
  5
D5F
330
9FA
100
AcDbEntity
  8
0
 62
     0
370
    -2
100
AcDbBlockReference
  2
_Open30
 10
10.019106
 20
78.426068
 30
0.0
 41
2.5
 42
2.5
 43
2.5
 50
90.0
  0
MTEXT
  5
D60
330
9FA
100
AcDbEntity
  8
0
 62
     4
100
AcDbMText
 10
7.894105999999983
 20
36.27606800000001
 30
0.0
 40
3.0
 41
0.0
 71
     5
 72
     1
  1
170
 11
0.0000000000000001
 21
1.0
 31
0.0
 73
     1
 44
1.0
1001
ACAD
1000
MTEXTBEGIN
1070
    73
1070
     1
1070
    44
1040
1.0
1070
    74
1070
     0
1000
MTEXTEND
  0
POINT
  5
D61
330
9FA
100
AcDbEntity
  8
Defpoints
 62
     0
100
AcDbPoint
 10
26.747835
 20
-5.873931999999999
 30
0.0
  0
POINT
  5
D62
330
9FA
100
AcDbEntity
  8
Defpoints
 62
     0
100
AcDbPoint
 10
26.747835
 20
78.426068
 30
0.0
  0
POINT
  5
D63
330
9FA
100
AcDbEntity
  8
Defpoints
 62
     0
100
AcDbPoint
 10
10.019106
 20
78.426068
 30
0.0
  0
ENDBLK
  5
9FC
330
9FA
100
AcDbEntity
  8
0
100
AcDbBlockEnd
  0
BLOCK
  5
A07
330
A06
100
AcDbEntity
  8
0
100
AcDbBlockBegin
  2
*D4
 70
     1
 10
0.0
 20
0.0
 30
0.0
  3
*D4
  1

  0
LINE
  5
D64
330
A06
100
AcDbEntity
  8
0
 62
     0
370
    -2
100
AcDbLine
 10
47.24783499999998
 20
-11.273932
 30
0.0
 11
0.8101429999999727
 21
-11.27393199999998
 31
0.0
  0
LINE
  5
D65
330
A06
100
AcDbEntity
  8
0
 62
     0
370
    -2
100
AcDbLine
 10
74.23827
 20
103.375468
 30
0.0
 11
0.8101430000000052
 21
103.375468
 31
0.0
  0
LINE
  5
D66
330
A06
100
AcDbEntity
  8
0
 62
     0
370
    -2
100
AcDbLine
 10
2.060142999999975
 20
-8.773931999999986
 30
0.0
 11
2.060142999999999
 21
100.875468
 31
0.0
  0
INSERT
  5
D67
330
A06
100
AcDbEntity
  8
0
 62
     0
370
    -2
100
AcDbBlockReference
  2
_Open30
 10
2.060142999999974
 20
-11.27393199999998
 30
0.0
 41
2.5
 42
2.5
 43
2.5
 50
270.0
  0
INSERT
  5
D68
330
A06
100
AcDbEntity
  8
0
 62
     0
370
    -2
100
AcDbBlockReference
  2
_Open30
 10
2.060143
 20
103.375468
 30
0.0
 41
2.5
 42
2.5
 43
2.5
 50
90.0
  0
MTEXT
  5
D69
330
A06
100
AcDbEntity
  8
0
 62
     4
100
AcDbMText
 10
-0.0648570000000202
 20
46.05076800000001
 30
0.0
 40
3.0
 41
0.0
 71
     5
 72
     1
  1
230
 11
0.0000000000000001
 21
1.0
 31
0.0
 73
     1
 44
1.0
1001
ACAD
1000
MTEXTBEGIN
1070
    73
1070
     1
1070
    44
1040
1.0
1070
    74
1070
     0
1000
MTEXTEND
  0
POINT
  5
D6A
330
A06
100
AcDbEntity
  8
Defpoints
 62
     0
100
AcDbPoint
 10
47.49783499999998
 20
-11.273932
 30
0.0
  0
POINT
  5
D6B
330
A06
100
AcDbEntity
  8
Defpoints
 62
     0
100
AcDbPoint
 10
74.48827
 20
103.375468
 30
0.0
  0
POINT
  5
D6C
330
A06
100
AcDbEntity
  8
Defpoints
 62
     0
100
AcDbPoint
 10
2.060143
 20
103.375468
 30
0.0
  0
ENDBLK
  5
A08
330
A06
100
AcDbEntity
  8
0
100
AcDbBlockEnd
  0
BLOCK
  5
A13
330
A12
100
AcDbEntity
  8
0
100
AcDbBlockBegin
  2
*D5
 70
     1
 10
0.0
 20
0.0
 30
0.0
  3
*D5
  1

  0
LINE
  5
D6D
330
A12
100
AcDbEntity
  8
0
 62
     0
370
    -2
100
AcDbLine
 10
-146.802185
 20
3.526008
 30
0.0
 11
-146.802185
 21
-24.858555
 31
0.0
  0
LINE
  5
D6E
330
A12
100
AcDbEntity
  8
0
 62
     0
370
    -2
100
AcDbLine
 10
-16.302185
 20
3.526008
 30
0.0
 11
-16.302185
 21
-24.858555
 31
0.0
  0
LINE
  5
D6F
330
A12
100
AcDbEntity
  8
0
 62
     0
370
    -2
100
AcDbLine
 10
-144.302185
 20
-23.608555
 30
0.0
 11
-18.802185
 21
-23.608555
 31
0.0
  0
INSERT
  5
D70
330
A12
100
AcDbEntity
  8
0
 62
     0
370
    -2
100
AcDbBlockReference
  2
_Open30
 10
-146.802185
 20
-23.608555
 30
0.0
 41
2.5
 42
2.5
 43
2.5
 50
180.0
  0
INSERT
  5
D71
330
A12
100
AcDbEntity
  8
0
 62
     0
370
    -2
100
AcDbBlockReference
  2
_Open30
 10
-16.302185
 20
-23.608555
 30
0.0
 41
2.5
 42
2.5
 43
2.5
  0
MTEXT
  5
D72
330
A12
100
AcDbEntity
  8
0
 62
     4
100
AcDbMText
 10
-81.55218500000001
 20
-21.483555
 30
0.0
 40
3.0
 41
0.0
 71
     5
 72
     1
  1
260
 73
     1
 44
1.0
1001
ACAD
1000
MTEXTBEGIN
1070
    73
1070
     1
1070
    44
1040
1.0
1070
    74
1070
     0
1000
MTEXTEND
  0
POINT
  5
D73
330
A12
100
AcDbEntity
  8
Defpoints
 62
     0
100
AcDbPoint
 10
-146.802185
 20
3.776008
 30
0.0
  0
POINT
  5
D74
330
A12
100
AcDbEntity
  8
Defpoints
 62
     0
100
AcDbPoint
 10
-16.302185
 20
3.776008
 30
0.0
  0
POINT
  5
D75
330
A12
100
AcDbEntity
  8
Defpoints
 62
     0
100
AcDbPoint
 10
-16.302185
 20
-23.608555
 30
0.0
  0
ENDBLK
  5
A14
330
A12
100
AcDbEntity
  8
0
100
AcDbBlockEnd
  0
ENDSEC
  0
SECTION
  2
ENTITIES
  0
LINE
  5
93
330
36
100
AcDbEntity
  8
0
 62
     3
100
AcDbLine
 10
-117.177185
 20
15.901008
 30
0.0
 11
-132.927185
 21
15.901008
 31
0.0
  0
LINE
  5
94
330
36
100
AcDbEntity
  8
0
 62
     3
100
AcDbLine
 10
-117.177185
 20
15.901008
 30
0.0
 11
-117.177185
 21
34.15100800000001
 31
0.0
  0
LINE
  5
95
330
36
100
AcDbEntity
  8
0
 62
     3
100
AcDbLine
 10
-132.927185
 20
15.901008
 30
0.0
 11
-132.927185
 21
34.15100800000001
 31
0.0
  0
CIRCLE
  5
96
330
36
100
AcDbEntity
  8
0
 62
     3
100
AcDbCircle
 10
34.979545
 20
-72.77287900000001
 30
0.0
 40
8.4
  0
LINE
  5
97
330
36
100
AcDbEntity
  8
0
 62
     3
100
AcDbLine
 10
38.247835
 20
102.076068
 30
0.0
 11
38.247835
 21
103.076068
 31
0.0
  0
LINE
  5
98
330
36
100
AcDbEntity
  8
0
 62
     3
100
AcDbLine
 10
38.997835
 20
103.826068
 30
0.0
 11
45.74783499999997
 21
103.826068
 31
0.0
  0
ARC
  5
99
330
36
100
AcDbEntity
  8
0
 62
     3
100
AcDbCircle
 10
45.74783499999997
 20
96.32606800000001
 30
0.0
 40
5.0
100
AcDbArc
 50
333.891094
 51
90.0
  0
ARC
  5
9A
330
36
100
AcDbEntity
  8
0
 62
     3
100
AcDbCircle
 10
45.74783499999997
 20
96.32606800000001
 30
0.0
 40
7.5
100
AcDbArc
 50
342.9489660000001
 51
90.0
  0
ARC
  5
9B
330
36
100
AcDbEntity
  8
0
 62
     3
100
AcDbCircle
 10
38.997835
 20
103.076068
 30
0.0
 40
0.75
100
AcDbArc
 50
90.0
 51
180.0
  0
ARC
  5
9C
330
36
100
AcDbEntity
  8
0
 62
     3
100
AcDbCircle
 10
38.997835
 20
102.076068
 30
0.0
 40
0.75
100
AcDbArc
 50
180.0
 51
270.0
  0
LINE
  5
A2
330
36
100
AcDbEntity
  8
0
 62
     3
100
AcDbLine
 10
136.747835
 20
76.32606800000002
 30
0.0
 11
136.747835
 21
-3.773931999999998
 31
0.0
  0
CIRCLE
  5
A3
330
36
100
AcDbEntity
  8
0
 62
     3
100
AcDbCircle
 10
34.979545
 20
-84.772879
 30
0.0
 40
0.6
  0
TEXT
  5
A4
330
36
100
AcDbEntity
  8
0
 62
     3
100
AcDbText
 10
147.927121
 20
-131.822943
 30
0.0
 40
3.2
  1
1/2
  7
高3.2
100
AcDbText
  0
CIRCLE
  5
A5
330
36
100
AcDbEntity
  8
0
 62
     3
100
AcDbCircle
 10
-123.008397
 20
3.048048
 30
0.0
 40
2.203282
  0
LINE
  5
A6
330
36
100
AcDbEntity
  8
0
 62
     3
100
AcDbLine
 10
-123.008397
 20
5.25133
 30
0.0
 11
-123.008397
 21
0.844766
 31
0.0
  0
LINE
  5
A7
330
36
100
AcDbEntity
  8
0
 62
     3
100
AcDbLine
 10
-123.008397
 20
0.844766
 30
0.0
 11
-120.625641
 21
4.926758999999997
 31
0.0
  0
LINE
  5
A8
330
36
100
AcDbEntity
  8
0
 62
     3
100
AcDbLine
 10
-123.008397
 20
5.25133
 30
0.0
 11
-125.436974
 21
1.352626
 31
0.0
  0
ARC
  5
A9
330
36
100
AcDbEntity
  8
0
 62
     3
100
AcDbCircle
 10
-45.94475599999999
 20
106.343622
 30
0.0
 40
31.5
100
AcDbArc
 50
183.545661
 51
221.721501
  0
ARC
  5
AA
330
36
100
AcDbEntity
  8
0
 62
     3
100
AcDbCircle
 10
-120.666802
 20
106.343622
 30
0.0
 40
31.5
100
AcDbArc
 50
318.278499
 51
356.454339
  0
ARC
  5
AB
330
36
100
AcDbEntity
  8
0
 62
     3
100
AcDbCircle
 10
-92.304039
 20
81.05422299999998
 30
0.0
 40
6.5
100
AcDbArc
 50
138.278499
 51
180.0
  0
LINE
  5
AC
330
36
100
AcDbEntity
  8
0
 62
     3
100
AcDbLine
 10
-98.80403900000001
 20
81.05422299999998
 30
0.0
 11
-98.80403900000001
 21
78.27276399999998
 31
0.0
  0
ARC
  5
AD
330
36
100
AcDbEntity
  8
0
 62
     3
100
AcDbCircle
 10
-74.307519
 20
81.05422299999998
 30
0.0
 40
6.5
100
AcDbArc
 50
0.0
 51
41.721501
  0
ARC
  5
AE
330
36
100
AcDbEntity
  8
0
 62
     3
100
AcDbCircle
 10
-45.805779
 20
105.772764
 30
0.0
 40
31.599051
100
AcDbArc
 50
181.328499
 51
182.282375
  0
ARC
  5
AF
330
36
100
AcDbEntity
  8
0
 62
     3
100
AcDbCircle
 10
-78.146134
 20
105.022764
 30
0.0
 40
0.75
100
AcDbArc
 50
1.328498999999998
 51
90.0
  0
LINE
  5
B0
330
36
100
AcDbEntity
  8
0
 62
     3
100
AcDbLine
 10
-78.146134
 20
105.772764
 30
0.0
 11
-88.465424
 21
105.772764
 31
0.0
  0
ARC
  5
B1
330
36
100
AcDbEntity
  8
0
 62
     3
100
AcDbCircle
 10
-88.465424
 20
105.022764
 30
0.0
 40
0.75
100
AcDbArc
 50
90.0
 51
178.671501
  0
ARC
  5
B2
330
36
100
AcDbEntity
  8
0
 62
     3
100
AcDbCircle
 10
-120.805779
 20
105.772764
 30
0.0
 40
31.599051
100
AcDbArc
 50
357.717625
 51
358.671501
  0
ARC
  5
B3
330
36
100
AcDbEntity
  8
0
 62
     3
100
AcDbCircle
 10
-88.482391
 20
104.484481
 30
0.0
 40
0.75
100
AcDbArc
 50
177.717625
 51
259.806203
  0
ARC
  5
B4
330
36
100
AcDbEntity
  8
0
 62
     3
100
AcDbCircle
 10
-78.12916700000002
 20
104.484481
 30
0.0
 40
0.75
100
AcDbArc
 50
280.193797
 51
2.282375
  0
ARC
  5
B5
330
36
100
AcDbEntity
  8
0
 62
     3
100
AcDbCircle
 10
-83.30577899999999
 20
133.272764
 30
0.0
 40
30.0
100
AcDbArc
 50
259.806203
 51
280.193797
  0
ARC
  5
B6
330
36
100
AcDbEntity
  8
0
 62
     3
100
AcDbCircle
 10
-83.30577899999999
 20
133.272764
 30
0.0
 40
30.0
100
AcDbArc
 50
280.193797
 51
281.45562
  0
LINE
  5
B7
330
36
100
AcDbEntity
  8
0
 62
     3
100
AcDbLine
 10
-67.807519
 20
81.05422299999998
 30
0.0
 11
-67.807519
 21
78.27600799999998
 31
0.0
  0
ARC
  5
D7
330
36
100
AcDbEntity
  8
0
 62
     3
100
AcDbCircle
 10
125.426054
 20
96.326817
 30
0.0
 40
7.5
100
AcDbArc
 50
90.0
 51
173.163977
  0
ARC
  5
D8
330
36
100
AcDbEntity
  8
0
 62
     3
100
AcDbCircle
 10
128.896782
 20
95.874109
 30
0.0
 40
11.0
100
AcDbArc
 50
172.951156
 51
199.344329
  0
ARC
  5
D9
330
36
100
AcDbEntity
  8
0
 62
     3
100
AcDbCircle
 10
82.77506200000003
 20
79.90177299999998
 30
0.0
 40
37.809244
100
AcDbArc
 50
356.854051
 51
19.17539
  0
LINE
  5
DA
330
36
100
AcDbEntity
  8
0
 62
     3
100
AcDbLine
 10
132.676054
 20
103.826817
 30
0.0
 11
125.426054
 21
103.826817
 31
0.0
  0
LINE
  5
DB
330
36
100
AcDbEntity
  8
0
 62
     3
100
AcDbLine
 10
132.676054
 20
101.326817
 30
0.0
 11
125.926054
 21
101.326817
 31
0.0
  0
ARC
  5
DC
330
36
100
AcDbEntity
  8
0
 62
     3
100
AcDbCircle
 10
125.926054
 20
96.326817
 30
0.0
 40
5.0
100
AcDbArc
 50
90.0
 51
200.285638
  0
ARC
  5
DD
330
36
100
AcDbEntity
  8
0
 62
     3
100
AcDbCircle
 10
81.92605400000003
 20
74.826817
 30
0.0
 40
44.0
100
AcDbArc
 50
2.292443
 51
26.694842
  0
LINE
  5
DE
330
36
100
AcDbEntity
  8
0
 62
     3
100
AcDbLine
 10
110.926054
 20
76.57681700000002
 30
0.0
 11
110.926054
 21
77.576817
 31
0.0
  0
ARC
  5
DF
330
36
100
AcDbEntity
  8
0
 62
     3
100
AcDbCircle
 10
123.779966
 20
78.32681700000001
 30
0.0
 40
0.5
100
AcDbArc
 50
270.0
 51
4.780191999999995
  0
LINE
  5
E0
330
36
100
AcDbEntity
  8
0
 62
     3
100
AcDbLine
 10
125.64104
 20
76.326817
 30
0.0
 11
110.926054
 21
76.326817
 31
0.0
  0
ARC
  5
E1
330
36
100
AcDbEntity
  8
0
 62
     3
100
AcDbCircle
 10
132.676054
 20
102.076817
 30
0.0
 40
0.75
100
AcDbArc
 50
270.0
 51
0.0
  0
ARC
  5
E2
330
36
100
AcDbEntity
  8
0
 62
     3
100
AcDbCircle
 10
89.74783499999999
 20
74.762209
 30
0.0
 40
44.0
100
AcDbArc
 50
153.891094
 51
177.963151
  0
LINE
  5
E3
330
36
100
AcDbEntity
  8
0
 62
     3
100
AcDbLine
 10
51.24783499999999
 20
82.984404
 30
0.0
 11
51.24783499999999
 21
77.826068
 31
0.0
  0
ARC
  5
E4
330
36
100
AcDbEntity
  8
0
 62
     3
100
AcDbCircle
 10
89.247835
 20
82.984404
 30
0.0
 40
38.0
100
AcDbArc
 50
162.948966
 51
180.0
  0
LINE
  5
E5
330
36
100
AcDbEntity
  8
0
 62
     3
100
AcDbLine
 10
38.997835
 20
101.326068
 30
0.0
 11
45.74783499999997
 21
101.326068
 31
0.0
  0
LINE
  5
E6
330
36
100
AcDbEntity
  8
0
100
AcDbLine
 10
122.6254468731376
 20
-48.844755
 30
0.0
 11
122.6254468731376
 21
-88.76155500000001
 31
0.0
  0
LINE
  5
E7
330
36
100
AcDbEntity
  8
0
 62
     3
100
AcDbLine
 10
174.8403270387556
 20
-48.844755
 30
0.0
 11
174.8403270387556
 21
-88.76155500000001
 31
0.0
  0
LINE
  5
EF
330
36
100
AcDbEntity
  8
0
100
AcDbLine
 10
46.479508
 20
85.93317500000003
 30
0.0
 11
38.623916
 21
93.44055500000001
 31
0.0
  0
LINE
  5
F0
330
36
100
AcDbEntity
  8
0
100
AcDbLine
 10
38.623916
 20
93.44055500000001
 30
0.0
 11
11.123916
 21
93.44055500000001
 31
0.0
  0
TEXT
  5
F1
330
36
100
AcDbEntity
  8
0
 62
     4
100
AcDbText
 10
13.873916
 20
94.44055500000001
 30
0.0
 40
3.2
  1
線巻取収納フック
 41
0.716146
100
AcDbText
  0
CIRCLE
  5
F8
330
36
100
AcDbEntity
  8
0
100
AcDbCircle
 10
80.38557731127687
 20
118.6283921334817
 30
0.0
 40
5.0
  0
TEXT
  5
F9
330
36
100
AcDbEntity
  8
0
 62
     4
100
AcDbText
 10
79.32715931193023
 20
115.6283068240506
 30
0.0
 40
6.299999999999998
  1
1
  7
高6.3
100
AcDbText
  0
TEXT
  5
FA
330
36
100
AcDbEntity
  8
0
 62
     3
100
AcDbText
 10
-175.111198
 20
-142.624634
 30
0.0
 40
3.2
  1
NO
 41
0.8
  7
高3.2
100
AcDbText
  0
LINE
  5
FB
330
36
100
AcDbEntity
  8
0
 62
     3
100
AcDbLine
 10
1.783629469657169
 20
-143.124634
 30
0.0
 11
1.783629469657165
 21
-58.12463399999986
 31
0.0
  0
LINE
  5
FC
330
36
100
AcDbEntity
  8
0
 62
     3
100
AcDbLine
 10
-98.80403900000001
 20
78.27276399999998
 30
0.0
 11
-67.807519
 21
78.27276399999998
 31
0.0
  0
ARC
  5
FD
330
36
100
AcDbEntity
  8
0
 62
     3
100
AcDbCircle
 10
132.676054
 20
103.076817
 30
0.0
 40
0.75
100
AcDbArc
 50
0.0
 51
90.0
  0
LINE
  5
FE
330
36
100
AcDbEntity
  8
0
 62
     3
100
AcDbLine
 10
133.426054
 20
103.076817
 30
0.0
 11
133.426054
 21
102.076817
 31
0.0
  0
LINE
  5
121
330
36
100
AcDbEntity
  8
0
100
AcDbLine
 10
45.74783499999997
 20
77.826068
 30
0.0
 11
61.24783499999999
 21
77.826068
 31
0.0
  0
LINE
  5
122
330
36
100
AcDbEntity
  8
0
100
AcDbLine
 10
111.176054
 20
77.82681700000002
 30
0.0
 11
123.779966
 21
77.82681700000002
 31
0.0
  0
LINE
  5
123
330
36
100
AcDbEntity
  8
0
100
AcDbLine
 10
34.979545
 20
-54.772879
 30
0.0
 11
34.979545
 21
-66.892879
 31
0.0
  0
LINE
  5
124
330
36
100
AcDbEntity
  8
0
100
AcDbLine
 10
32.699545
 20
-68.572879
 30
0.0
 11
37.259545
 21
-68.572879
 31
0.0
  0
LINE
  5
125
330
36
100
AcDbEntity
  8
0
100
AcDbLine
 10
37.259545
 20
-66.892879
 30
0.0
 11
37.259545
 21
-68.572879
 31
0.0
  0
LINE
  5
126
330
36
100
AcDbEntity
  8
0
100
AcDbLine
 10
32.699545
 20
-66.892879
 30
0.0
 11
37.259545
 21
-66.892879
 31
0.0
  0
LINE
  5
127
330
36
100
AcDbEntity
  8
0
100
AcDbLine
 10
32.699545
 20
-66.892879
 30
0.0
 11
32.699545
 21
-68.572879
 31
0.0
  0
LINE
  5
128
330
36
100
AcDbEntity
  8
0
100
AcDbLine
 10
30.77954500000001
 20
-70.492879
 30
0.0
 11
30.77954500000001
 21
-75.052879
 31
0.0
  0
LINE
  5
129
330
36
100
AcDbEntity
  8
0
100
AcDbLine
 10
29.219545
 20
-70.492879
 30
0.0
 11
30.77954500000001
 21
-70.492879
 31
0.0
  0
LINE
  5
12A
330
36
100
AcDbEntity
  8
0
100
AcDbLine
 10
29.219545
 20
-70.492879
 30
0.0
 11
29.219545
 21
-75.052879
 31
0.0
  0
LINE
  5
12B
330
36
100
AcDbEntity
  8
0
100
AcDbLine
 10
29.219545
 20
-75.052879
 30
0.0
 11
30.77954500000001
 21
-75.052879
 31
0.0
  0
LINE
  5
12C
330
36
100
AcDbEntity
  8
0
100
AcDbLine
 10
34.199545
 20
-75.052879
 30
0.0
 11
34.199545
 21
-79.61287900000002
 31
0.0
  0
LINE
  5
12D
330
36
100
AcDbEntity
  8
0
100
AcDbLine
 10
34.199545
 20
-75.052879
 30
0.0
 11
35.759545
 21
-75.052879
 31
0.0
  0
LINE
  5
12E
330
36
100
AcDbEntity
  8
0
100
AcDbLine
 10
35.759545
 20
-75.052879
 30
0.0
 11
35.759545
 21
-79.61287900000002
 31
0.0
  0
LINE
  5
12F
330
36
100
AcDbEntity
  8
0
100
AcDbLine
 10
34.259545
 20
-79.61287900000002
 30
0.0
 11
35.759545
 21
-79.61287900000002
 31
0.0
  0
LINE
  5
130
330
36
100
AcDbEntity
  8
0
100
AcDbLine
 10
39.179545
 20
-70.492879
 30
0.0
 11
39.179545
 21
-75.052879
 31
0.0
  0
LINE
  5
131
330
36
100
AcDbEntity
  8
0
100
AcDbLine
 10
39.179545
 20
-70.492879
 30
0.0
 11
40.739545
 21
-70.492879
 31
0.0
  0
LINE
  5
132
330
36
100
AcDbEntity
  8
0
100
AcDbLine
 10
40.739545
 20
-70.492879
 30
0.0
 11
40.739545
 21
-75.052879
 31
0.0
  0
LINE
  5
133
330
36
100
AcDbEntity
  8
0
100
AcDbLine
 10
39.179545
 20
-75.052879
 30
0.0
 11
40.739545
 21
-75.052879
 31
0.0
  0
LINE
  5
134
330
36
100
AcDbEntity
  8
0
100
AcDbLine
 10
73.96650099999998
 20
-72.77287900000001
 30
0.0
 11
40.739545
 21
-72.77287900000001
 31
0.0
  0
LINE
  5
136
330
36
100
AcDbEntity
  8
0
 62
     3
100
AcDbLine
 10
-132.927185
 20
34.15100800000001
 30
0.0
 11
-117.177185
 21
34.15100800000001
 31
0.0
  0
LINE
  5
139
330
36
100
AcDbEntity
  8
0
 62
     3
100
AcDbLine
 10
187.689438
 20
-126.458911
 30
0.0
 11
187.689438
 21
-103.458911
 31
0.0
  0
LINE
  5
13B
330
36
100
AcDbEntity
  8
0
 62
     3
100
AcDbLine
 10
134.635829
 20
-133.458911
 30
0.0
 11
134.635829
 21
-119.458911
 31
0.0
  0
TEXT
  5
13D
330
36
100
AcDbEntity
  8
0
 62
     3
100
AcDbText
 10
163.699756
 20
-107.253795
 30
0.0
 40
2.0
  1
A
 41
0.7
100
AcDbText
  0
TEXT
  5
13E
330
36
100
AcDbEntity
  8
0
 62
     3
100
AcDbText
 10
166.235042
 20
-107.253795
 30
0.0
 40
2.0
  1
P
 41
0.7
100
AcDbText
  0
TEXT
  5
13F
330
36
100
AcDbEntity
  8
0
 62
     3
100
AcDbText
 10
168.770329
 20
-107.253795
 30
0.0
 40
2.0
  1
P
 41
0.7
100
AcDbText
  0
TEXT
  5
140
330
36
100
AcDbEntity
  8
0
 62
     3
100
AcDbText
 10
171.305615
 20
-107.253795
 30
0.0
 40
2.0
  1
D
 41
0.7
100
AcDbText
  0
TEXT
  5
141
330
36
100
AcDbEntity
  8
0
 62
     3
100
AcDbText
 10
176.674298
 20
-107.253795
 30
0.0
 40
2.0
  1
C
 41
0.7
100
AcDbText
  0
TEXT
  5
142
330
36
100
AcDbEntity
  8
0
 62
     3
100
AcDbText
 10
179.209584
 20
-107.253795
 30
0.0
 40
2.0
  1
H
 41
0.7
100
AcDbText
  0
TEXT
  5
143
330
36
100
AcDbEntity
  8
0
 62
     3
100
AcDbText
 10
181.74487
 20
-107.253795
 30
0.0
 40
2.0
  1
C
 41
0.7
100
AcDbText
  0
TEXT
  5
144
330
36
100
AcDbEntity
  8
0
 62
     3
100
AcDbText
 10
184.280157
 20
-107.253795
 30
0.0
 40
2.0
  1
K
 41
0.7
100
AcDbText
  0
TEXT
  5
145
330
36
100
AcDbEntity
  8
0
 62
     3
100
AcDbText
 10
189.954123
 20
-107.253795
 30
0.0
 40
2.0
  1
DESN
 41
1.216762999999998
100
AcDbText
  0
TEXT
  5
146
330
36
100
AcDbEntity
  8
0
 62
     3
100
AcDbText
 10
104.947764
 20
-136.600293
 30
0.0
 40
2.0
  1
NICHIDO IND.CO.LTD
 41
1.274876
100
AcDbText
  0
LINE
  5
147
330
36
100
AcDbEntity
  8
0
 62
     3
100
AcDbLine
 10
115.330794
 20
-103.458911
 30
0.0
 11
115.330794
 21
-126.458911
 31
0.0
  0
LINE
  5
148
330
36
100
AcDbEntity
  8
0
 62
     3
100
AcDbLine
 10
161.689438
 20
-103.458911
 30
0.0
 11
161.689438
 21
-143.124634
 31
0.0
  0
LINE
  5
14D
330
36
100
AcDbEntity
  8
0
 62
     3
100
AcDbLine
 10
174.689438
 20
-103.458911
 30
0.0
 11
174.689438
 21
-133.458911
 31
0.0
  0
TEXT
  5
14E
330
36
100
AcDbEntity
  8
0
 62
     3
100
AcDbText
 10
162.801883
 20
-132.594224
 30
0.0
 40
3.2
  1
作成日
 41
1.017225999999997
100
AcDbText
  0
LINE
  5
14F
330
36
100
AcDbEntity
  8
0
 62
     3
100
AcDbLine
 10
213.388802
 20
-103.458911
 30
0.0
 11
102.085359
 21
-103.458911
 31
0.0
  0
LINE
  5
150
330
36
100
AcDbEntity
  8
0
 62
     3
100
AcDbLine
 10
200.689438
 20
-126.458911
 30
0.0
 11
200.689438
 21
-103.458911
 31
0.0
  0
TEXT
  5
151
330
36
100
AcDbEntity
  8
0
 62
     3
100
AcDbText
 10
204.013241
 20
-107.167977
 30
0.0
 40
1.8
  1
D
 41
0.666667
100
AcDbText
  0
TEXT
  5
152
330
36
100
AcDbEntity
  8
0
 62
     3
100
AcDbText
 10
206.82987
 20
-107.167977
 30
0.0
 40
1.8
  1
E
 41
0.666667
100
AcDbText
  0
TEXT
  5
153
330
36
100
AcDbEntity
  8
0
 62
     3
100
AcDbText
 10
209.646498
 20
-107.167977
 30
0.0
 40
1.8
  1
F
 41
0.666667
100
AcDbText
  0
TEXT
  5
154
330
36
100
AcDbEntity
  8
0
 62
     3
100
AcDbText
 10
204.013241
 20
-111.16053
 30
0.0
 40
3.2
  1
製図
 41
1.076369
100
AcDbText
  0
LINE
  5
155
330
36
100
AcDbEntity
  8
0
 62
     3
100
AcDbLine
 10
102.085359
 20
-103.458911
 30
0.0
 11
102.085359
 21
-143.124634
 31
0.0
  0
TEXT
  5
156
330
36
100
AcDbEntity
  8
0
 62
     3
100
AcDbText
 10
103.462012
 20
-142.792168
 30
0.0
 40
5.0
  1
日動工業株式会社
 41
0.833333
100
AcDbText
  0
LINE
  5
157
330
36
100
AcDbEntity
  8
0
 62
     3
100
AcDbLine
 10
144.967763
 20
-119.458911
 30
0.0
 11
144.967763
 21
-143.124634
 31
0.0
  0
LINE
  5
158
330
36
100
AcDbEntity
  8
0
 62
     3
100
AcDbLine
 10
144.967763
 20
-138.291773
 30
0.0
 11
161.689438
 21
-138.291773
 31
0.0
  0
TEXT
  5
159
330
36
100
AcDbEntity
  8
0
 62
     3
100
AcDbText
 10
145.554365
 20
-137.475342
 30
0.0
 40
3.2
  1
出図コード
 41
0.8356860000000001
100
AcDbText
  0
LINE
  5
15B
330
36
100
AcDbEntity
  8
0
 62
     3
100
AcDbLine
 10
102.085359
 20
-133.458911
 30
0.0
 11
213.388802
 21
-133.458911
 31
0.0
  0
LINE
  5
15D
330
36
100
AcDbEntity
  8
0
 62
     3
100
AcDbLine
 10
102.0853589999999
 20
-112.458911
 30
0.0
 11
213.388802
 21
-112.458911
 31
0.0
  0
LINE
  5
163
330
36
100
AcDbEntity
  8
0
 62
     3
100
AcDbLine
 10
102.085359
 20
-119.458911
 30
0.0
 11
161.689438
 21
-119.458911
 31
0.0
  0
LINE
  5
169
330
36
100
AcDbEntity
  8
0
 62
     3
100
AcDbLine
 10
102.085359
 20
-126.458911
 30
0.0
 11
213.388802
 21
-126.458911
 31
0.0
  0
TEXT
  5
16A
330
36
100
AcDbEntity
  8
0
 62
     3
100
AcDbText
 10
145.421817
 20
-142.648736397128
 30
0.0
 40
3.2
  1
ZK-A3X
 41
0.8112849999999999
100
AcDbText
  0
TEXT
  5
16B
330
36
100
AcDbEntity
  8
0
 62
     3
100
AcDbText
 10
103.902756
 20
-107.289385
 30
0.0
 40
2.0
  1
CONPONENTS
 41
0.5331600000000001
100
AcDbText
  0
TEXT
  5
16C
330
36
100
AcDbEntity
  8
0
 62
     3
100
AcDbText
 10
103.553029
 20
-126.221562
 30
0.0
 40
3.0
  1
材
 41
0.833333
100
AcDbText
  0
TEXT
  5
16D
330
36
100
AcDbEntity
  8
0
 62
     3
100
AcDbText
 10
111.088672
 20
-126.221562
 30
0.0
 40
3.0
  1
質
 41
0.833333
100
AcDbText
  0
TEXT
  5
16E
330
36
100
AcDbEntity
  8
0
 62
     3
100
AcDbText
 10
103.6411
 20
-115.597038
 30
0.0
 40
2.0
  1
MODEL
 41
1.031072999999999
100
AcDbText
  0
TEXT
  5
16F
330
36
100
AcDbEntity
  8
0
 62
     3
100
AcDbText
 10
103.553029
 20
-122.539254
 30
0.0
 40
2.0
  1
MATERIAL
 41
0.659278
100
AcDbText
  0
TEXT
  5
170
330
36
100
AcDbEntity
  8
0
 62
     3
100
AcDbText
 10
134.86031
 20
-126.221562
 30
0.0
 40
3.0
  1
備
 41
0.833333
100
AcDbText
  0
TEXT
  5
171
330
36
100
AcDbEntity
  8
0
 62
     3
100
AcDbText
 10
141.593311
 20
-126.221562
 30
0.0
 40
3.0
  1
考
 41
0.833333
100
AcDbText
  0
TEXT
  5
172
330
36
100
AcDbEntity
  8
0
 62
     3
100
AcDbText
 10
135.19129074025
 20
-122.539254
 30
0.0
 40
2.0
  1
REMARKS
 41
0.675794
100
AcDbText
  0
TEXT
  5
173
330
36
100
AcDbEntity
  8
0
 62
     3
100
AcDbText
 10
105.142758
 20
-129.459375
 30
0.0
 40
2.0
  1
3AD
 41
1.42614
100
AcDbText
  0
TEXT
  5
174
330
36
100
AcDbEntity
  8
0
 62
     3
100
AcDbText
 10
114.453738
 20
-129.293641
 30
0.0
 40
2.0
  1
ANGLE
 41
1.669883999999995
100
AcDbText
  0
TEXT
  5
175
330
36
100
AcDbEntity
  8
0
 62
     3
100
AcDbText
 10
135.387625
 20
-129.670482
 30
0.0
 40
2.0
  1
SCALE
 41
0.7719630000000001
100
AcDbText
  0
TEXT
  5
176
330
36
100
AcDbEntity
  8
0
 62
     3
100
AcDbText
 10
104.828888
 20
-133.458911
 30
0.0
 40
3.0
  1
第
 41
0.833333
100
AcDbText
  0
TEXT
  5
177
330
36
100
AcDbEntity
  8
0
 62
     3
100
AcDbText
 10
112.615738
 20
-133.458911
 30
0.0
 40
3.0
  1
三
 41
0.833333
100
AcDbText
  0
TEXT
  5
178
330
36
100
AcDbEntity
  8
0
 62
     3
100
AcDbText
 10
120.402588
 20
-133.458911
 30
0.0
 40
3.0
  1
角
 41
0.833333
100
AcDbText
  0
TEXT
  5
179
330
36
100
AcDbEntity
  8
0
 62
     3
100
AcDbText
 10
128.189438
 20
-133.458911
 30
0.0
 40
3.0
  1
法
 41
0.833333
100
AcDbText
  0
TEXT
  5
17A
330
36
100
AcDbEntity
  8
0
 62
     3
100
AcDbText
 10
135.25083
 20
-133.170482
 30
0.0
 40
3.0
  1
尺
 41
0.833333
100
AcDbText
  0
TEXT
  5
17B
330
36
100
AcDbEntity
  8
0
 62
     3
100
AcDbText
 10
141.983832
 20
-133.170482
 30
0.0
 40
3.0
  1
度
 41
0.833333
100
AcDbText
  0
TEXT
  5
17C
330
36
100
AcDbEntity
  8
0
 62
     3
100
AcDbText
 10
164.567102
 20
-111.001182
 30
0.0
 40
3.0
  1
承認
 41
1.089472999999999
100
AcDbText
  0
TEXT
  5
17D
330
36
100
AcDbEntity
  8
0
 62
     3
100
AcDbText
 10
177.809983
 20
-111.058911
 30
0.0
 40
3.0
  1
検図
 41
0.931761
100
AcDbText
  0
TEXT
  5
17E
330
36
100
AcDbEntity
  8
0
 62
     3
100
AcDbText
 10
190.810379
 20
-111.058911
 30
0.0
 40
3.0
  1
設
 41
0.833333
100
AcDbText
  0
TEXT
  5
17F
330
36
100
AcDbEntity
  8
0
 62
     3
100
AcDbText
 10
195.300247
 20
-111.058911
 30
0.0
 40
3.0
  1
計
 41
0.833333
100
AcDbText
  0
TEXT
  5
180
330
36
100
AcDbEntity
  8
0
 62
     3
100
AcDbText
 10
103.972863
 20
-110.886359
 30
0.0
 40
3.0
  1
品
 41
0.833333
100
AcDbText
  0
TEXT
  5
181
330
36
100
AcDbEntity
  8
0
 62
     3
100
AcDbText
 10
111.508505
 20
-110.886359
 30
0.0
 40
3.0
  1
名
 41
0.833333
100
AcDbText
  0
TEXT
  5
182
330
36
100
AcDbEntity
  8
0
 62
     3
100
AcDbText
 10
103.6411
 20
-119.1471131685174
 30
0.0
 40
3.0
  1
型
 41
0.833333
100
AcDbText
  0
TEXT
  5
183
330
36
100
AcDbEntity
  8
0
 62
     3
100
AcDbText
 10
111.189191
 20
-119.1471131685174
 30
0.0
 40
3.0
  1
式
 41
0.833333
100
AcDbText
  0
LINE
  5
19E
330
36
100
AcDbEntity
  8
0
 62
     3
100
AcDbLine
 10
-189.013122
 20
-2.624633999999999
 30
0.0
 11
-191.611198
 21
-4.124633999999998
 31
0.0
  0
LINE
  5
19F
330
36
100
AcDbEntity
  8
0
 62
     3
100
AcDbLine
 10
-189.013122
 20
-2.624633999999999
 30
0.0
 11
-191.611198
 21
-1.124633999999999
 31
0.0
  0
LINE
  5
1A0
330
36
100
AcDbEntity
  8
0
 62
     3
100
AcDbLine
 10
-191.611198
 20
-4.124633999999998
 30
0.0
 11
-191.611198
 21
-1.124633999999999
 31
0.0
  0
ARC
  5
1A7
330
36
100
AcDbEntity
  8
0
 62
     3
100
AcDbCircle
 10
111.176054
 20
76.57681700000002
 30
0.0
 40
0.25
100
AcDbArc
 50
180.0
 51
270.0
  0
ARC
  5
1A8
330
36
100
AcDbEntity
  8
0
 62
     3
100
AcDbCircle
 10
111.176054
 20
77.576817
 30
0.0
 40
0.25
100
AcDbArc
 50
90.0
 51
180.0
  0
LINE
  5
1A9
330
36
100
AcDbEntity
  8
0
 62
     3
100
AcDbLine
 10
-96.802185
 20
29.026008
 30
0.0
 11
-109.302185
 21
29.026008
 31
0.0
  0
CIRCLE
  5
1B0
330
36
100
AcDbEntity
  8
0
100
AcDbCircle
 10
147.880138
 20
89.77584300000001
 30
0.0
 40
5.0
  0
TEXT
  5
1B1
330
36
100
AcDbEntity
  8
0
 62
     4
100
AcDbText
 10
145.633361549374
 20
86.53583484880615
 30
0.0
 40
6.299999999999998
  1
4
  7
高6.3
100
AcDbText
  0
LINE
  5
1B2
330
36
100
AcDbEntity
  8
0
100
AcDbLine
 10
-108.302185
 20
34.026008
 30
0.0
 11
-97.802185
 21
34.026008
 31
0.0
  0
LINE
  5
1B3
330
36
100
AcDbEntity
  8
0
100
AcDbLine
 10
-97.802185
 20
30.026008
 30
0.0
 11
-97.802185
 21
34.026008
 31
0.0
  0
LINE
  5
1B4
330
36
100
AcDbEntity
  8
0
100
AcDbLine
 10
-108.302185
 20
30.026008
 30
0.0
 11
-108.302185
 21
34.026008
 31
0.0
  0
LINE
  5
1B5
330
36
100
AcDbEntity
  8
0
100
AcDbLine
 10
-105.177185
 20
17.511134
 30
0.0
 11
-105.177185
 21
21.761134
 31
0.0
  0
LINE
  5
1B6
330
36
100
AcDbEntity
  8
0
100
AcDbLine
 10
-100.927185
 20
17.511134
 30
0.0
 11
-100.927185
 21
21.761134
 31
0.0
  0
LINE
  5
1B7
330
36
100
AcDbEntity
  8
0
100
AcDbLine
 10
-105.177185
 20
21.761134
 30
0.0
 11
-100.927185
 21
21.761134
 31
0.0
  0
LINE
  5
1B8
330
36
100
AcDbEntity
  8
0
100
AcDbLine
 10
-105.177185
 20
17.511134
 30
0.0
 11
-100.927185
 21
17.511134
 31
0.0
  0
LINE
  5
1B9
330
36
100
AcDbEntity
  8
0
 62
     3
100
AcDbLine
 10
-99.552185
 20
16.136134
 30
0.0
 11
-99.552185
 21
23.136134
 31
0.0
  0
LINE
  5
1BA
330
36
100
AcDbEntity
  8
0
 62
     3
100
AcDbLine
 10
-106.552185
 20
23.136134
 30
0.0
 11
-99.552185
 21
23.136134
 31
0.0
  0
LINE
  5
1BB
330
36
100
AcDbEntity
  8
0
 62
     3
100
AcDbLine
 10
-106.552185
 20
16.136134
 30
0.0
 11
-106.552185
 21
23.136134
 31
0.0
  0
LINE
  5
1BC
330
36
100
AcDbEntity
  8
0
100
AcDbLine
 10
-97.802185
 20
30.026008
 30
0.0
 11
-108.302185
 21
30.026008
 31
0.0
  0
LINE
  5
1BD
330
36
100
AcDbEntity
  8
0
 62
     3
100
AcDbLine
 10
-106.552185
 20
16.136134
 30
0.0
 11
-99.552185
 21
16.136134
 31
0.0
  0
LINE
  5
1BE
330
36
100
AcDbEntity
  8
0
 62
     3
100
AcDbLine
 10
-96.802185
 20
29.026008
 30
0.0
 11
-96.802185
 21
35.02600800000001
 31
0.0
  0
LINE
  5
1BF
330
36
100
AcDbEntity
  8
0
 62
     3
100
AcDbLine
 10
-109.302185
 20
35.02600800000001
 30
0.0
 11
-96.802185
 21
35.02600800000001
 31
0.0
  0
LINE
  5
1C0
330
36
100
AcDbEntity
  8
0
 62
     3
100
AcDbLine
 10
-109.302185
 20
29.026008
 30
0.0
 11
-109.302185
 21
35.02600800000001
 31
0.0
  0
LINE
  5
1C1
330
36
100
AcDbEntity
  8
0
 62
     3
100
AcDbLine
 10
-48.05218499999998
 20
62.776008
 30
0.0
 11
-30.052185
 21
62.776008
 31
0.0
  0
LINE
  5
1C2
330
36
100
AcDbEntity
  8
0
 62
     3
100
AcDbLine
 10
-30.052185
 20
11.276008
 30
0.0
 11
-48.05218499999998
 21
11.276008
 31
0.0
  0
LINE
  5
1C3
330
36
100
AcDbEntity
  8
0
 62
     3
100
AcDbLine
 10
-27.552185
 20
13.776008
 30
0.0
 11
-27.552185
 21
60.276008
 31
0.0
  0
LINE
  5
1C4
330
36
100
AcDbEntity
  8
0
 62
     3
100
AcDbLine
 10
-50.55218499999998
 20
13.776008
 30
0.0
 11
-50.55218499999998
 21
60.276008
 31
0.0
  0
ARC
  5
1C5
330
36
100
AcDbEntity
  8
0
 62
     3
100
AcDbCircle
 10
-30.052185
 20
60.276008
 30
0.0
 40
2.5
100
AcDbArc
 50
0.0
 51
90.0
  0
ARC
  5
1C6
330
36
100
AcDbEntity
  8
0
 62
     3
100
AcDbCircle
 10
-48.05218499999998
 20
60.276008
 30
0.0
 40
2.5
100
AcDbArc
 50
90.0
 51
180.0
  0
ARC
  5
1C7
330
36
100
AcDbEntity
  8
0
 62
     3
100
AcDbCircle
 10
-48.05218499999998
 20
13.776008
 30
0.0
 40
2.5
100
AcDbArc
 50
180.0
 51
270.0
  0
ARC
  5
1C8
330
36
100
AcDbEntity
  8
0
 62
     3
100
AcDbCircle
 10
-30.052185
 20
13.776008
 30
0.0
 40
2.5
100
AcDbArc
 50
270.0
 51
0.0
  0
ARC
  5
1C9
330
36
100
AcDbEntity
  8
0
 62
     3
100
AcDbCircle
 10
-76.05218499999998
 20
13.776008
 30
0.0
 40
2.5
100
AcDbArc
 50
180.0
 51
270.0
  0
LINE
  5
1CA
330
36
100
AcDbEntity
  8
0
 62
     3
100
AcDbLine
 10
-78.55218499999998
 20
13.776008
 30
0.0
 11
-78.55218499999998
 21
60.276008
 31
0.0
  0
ARC
  5
1CB
330
36
100
AcDbEntity
  8
0
 62
     3
100
AcDbCircle
 10
-76.05218499999998
 20
60.276008
 30
0.0
 40
2.5
100
AcDbArc
 50
90.0
 51
180.0
  0
LINE
  5
1CC
330
36
100
AcDbEntity
  8
0
 62
     3
100
AcDbLine
 10
-58.05218499999998
 20
62.776008
 30
0.0
 11
-76.05218499999998
 21
62.776008
 31
0.0
  0
ARC
  5
1CD
330
36
100
AcDbEntity
  8
0
 62
     3
100
AcDbCircle
 10
-58.05218499999998
 20
60.276008
 30
0.0
 40
2.5
100
AcDbArc
 50
0.0
 51
90.0
  0
LINE
  5
1CE
330
36
100
AcDbEntity
  8
0
 62
     3
100
AcDbLine
 10
-55.55218499999998
 20
13.776008
 30
0.0
 11
-55.55218499999998
 21
60.276008
 31
0.0
  0
ARC
  5
1CF
330
36
100
AcDbEntity
  8
0
 62
     3
100
AcDbCircle
 10
-58.05218499999998
 20
13.776008
 30
0.0
 40
2.5
100
AcDbArc
 50
270.0
 51
0.0
  0
LINE
  5
1D0
330
36
100
AcDbEntity
  8
0
 62
     3
100
AcDbLine
 10
-76.05218499999998
 20
11.276008
 30
0.0
 11
-58.05218499999998
 21
11.276008
 31
0.0
  0
LINE
  5
1D1
330
36
100
AcDbEntity
  8
0
 62
     3
100
AcDbLine
 10
-138.152185
 20
43.426008
 30
0.0
 11
-138.152185
 21
64.626008
 31
0.0
  0
LINE
  5
1D2
330
36
100
AcDbEntity
  8
0
 62
     3
100
AcDbLine
 10
-116.452185
 20
42.926008
 30
0.0
 11
-137.652185
 21
42.926008
 31
0.0
  0
LINE
  5
1D3
330
36
100
AcDbEntity
  8
0
 62
     3
100
AcDbLine
 10
-92.05218499999999
 20
13.526008
 30
0.0
 11
-133.552185
 21
13.526008
 31
0.0
  0
LINE
  5
1D4
330
36
100
AcDbEntity
  8
0
 62
     3
100
AcDbLine
 10
-136.052185
 20
16.026008
 30
0.0
 11
-136.052185
 21
34.026008
 31
0.0
  0
LINE
  5
1D5
330
36
100
AcDbEntity
  8
0
 62
     3
100
AcDbLine
 10
-89.55218499999999
 20
16.026008
 30
0.0
 11
-89.55218499999999
 21
34.026008
 31
0.0
  0
ARC
  5
1D6
330
36
100
AcDbEntity
  8
0
 62
     3
100
AcDbCircle
 10
-133.552185
 20
34.026008
 30
0.0
 40
2.5
100
AcDbArc
 50
90.0
 51
180.0
  0
ARC
  5
1D7
330
36
100
AcDbEntity
  8
0
 62
     3
100
AcDbCircle
 10
-133.552185
 20
16.026008
 30
0.0
 40
2.5
100
AcDbArc
 50
180.0
 51
270.0
  0
ARC
  5
1D8
330
36
100
AcDbEntity
  8
0
 62
     3
100
AcDbCircle
 10
-92.05218499999999
 20
16.026008
 30
0.0
 40
2.5
100
AcDbArc
 50
270.0
 51
0.0
  0
ARC
  5
1D9
330
36
100
AcDbEntity
  8
0
 62
     3
100
AcDbCircle
 10
-116.452185
 20
64.626008
 30
0.0
 40
0.5
100
AcDbArc
 50
0.0
 51
90.0
  0
ARC
  5
1DA
330
36
100
AcDbEntity
  8
0
 62
     3
100
AcDbCircle
 10
-137.652185
 20
64.626008
 30
0.0
 40
0.5
100
AcDbArc
 50
90.0
 51
180.0
  0
ARC
  5
1DB
330
36
100
AcDbEntity
  8
0
 62
     3
100
AcDbCircle
 10
-137.652185
 20
43.426008
 30
0.0
 40
0.5
100
AcDbArc
 50
180.0
 51
270.0
  0
ARC
  5
1DC
330
36
100
AcDbEntity
  8
0
 62
     3
100
AcDbCircle
 10
-116.452185
 20
43.426008
 30
0.0
 40
0.5
100
AcDbArc
 50
270.0
 51
0.0
  0
CIRCLE
  5
1DD
330
36
100
AcDbEntity
  8
0
 62
     3
100
AcDbCircle
 10
-127.052185
 20
50.426058
 30
0.0
 40
0.5
  0
LINE
  5
1DE
330
36
100
AcDbEntity
  8
0
 62
     3
100
AcDbLine
 10
-111.225646
 20
65.07896600000001
 30
0.0
 11
-111.225646
 21
64.078966
 31
0.0
  0
LINE
  5
1DF
330
36
100
AcDbEntity
  8
0
 62
     3
100
AcDbLine
 10
-108.725646
 20
65.07896600000001
 30
0.0
 11
-108.725646
 21
64.61052399999998
 31
0.0
  0
LINE
  5
1E0
330
36
100
AcDbEntity
  8
0
 62
     3
100
AcDbLine
 10
-109.475646
 20
64.078966
 30
0.0
 11
-109.475646
 21
61.578966
 31
0.0
  0
LINE
  5
1E1
330
36
100
AcDbEntity
  8
0
 62
     3
100
AcDbLine
 10
-110.475646
 20
64.078966
 30
0.0
 11
-110.475646
 21
61.578966
 31
0.0
  0
LINE
  5
1E2
330
36
100
AcDbEntity
  8
0
 62
     3
100
AcDbLine
 10
-108.725646
 20
64.078966
 30
0.0
 11
-109.475646
 21
64.078966
 31
0.0
  0
LINE
  5
1E3
330
36
100
AcDbEntity
  8
0
 62
     3
100
AcDbLine
 10
-110.475646
 20
64.078966
 30
0.0
 11
-111.225646
 21
64.078966
 31
0.0
  0
LINE
  5
1E4
330
36
100
AcDbEntity
  8
0
 62
     3
100
AcDbLine
 10
-108.475646
 20
62.328966
 30
0.0
 11
-108.475646
 21
63.79974
 31
0.0
  0
LINE
  5
1E5
330
36
100
AcDbEntity
  8
0
 62
     3
100
AcDbLine
 10
-107.475646
 20
62.703966
 30
0.0
 11
-107.475646
 21
63.953966
 31
0.0
  0
LINE
  5
1E6
330
36
100
AcDbEntity
  8
0
 62
     3
100
AcDbLine
 10
-105.475646
 20
62.703966
 30
0.0
 11
-105.475646
 21
63.953966
 31
0.0
  0
LINE
  5
1E7
330
36
100
AcDbEntity
  8
0
 62
     3
100
AcDbLine
 10
-104.475646
 20
62.328966
 30
0.0
 11
-104.475646
 21
63.328966
 31
0.0
  0
LINE
  5
1E8
330
36
100
AcDbEntity
  8
0
 62
     3
100
AcDbLine
 10
-107.100646
 20
64.32896600000001
 30
0.0
 11
-105.850646
 21
64.32896600000001
 31
0.0
  0
LINE
  5
1E9
330
36
100
AcDbEntity
  8
0
 62
     3
100
AcDbLine
 10
-105.850646
 20
62.328966
 30
0.0
 11
-107.100646
 21
62.328966
 31
0.0
  0
LINE
  5
1EA
330
36
100
AcDbEntity
  8
0
 62
     3
100
AcDbLine
 10
-104.475646
 20
64.32896600000001
 30
0.0
 11
-105.225646
 21
65.07896600000001
 31
0.0
  0
LINE
  5
1EB
330
36
100
AcDbEntity
  8
0
 62
     3
100
AcDbLine
 10
-107.725646
 20
65.07896600000001
 30
0.0
 11
-108.475646
 21
64.32896600000001
 31
0.0
  0
LINE
  5
1EC
330
36
100
AcDbEntity
  8
0
 62
     3
100
AcDbLine
 10
-108.475646
 20
62.328966
 30
0.0
 11
-107.725646
 21
61.578966
 31
0.0
  0
LINE
  5
1ED
330
36
100
AcDbEntity
  8
0
 62
     3
100
AcDbLine
 10
-105.225646
 20
61.578966
 30
0.0
 11
-104.475646
 21
62.328966
 31
0.0
  0
LINE
  5
1EE
330
36
100
AcDbEntity
  8
0
 62
     3
100
AcDbLine
 10
-105.475646
 20
63.953966
 30
0.0
 11
-105.850646
 21
64.32896600000001
 31
0.0
  0
LINE
  5
1EF
330
36
100
AcDbEntity
  8
0
 62
     3
100
AcDbLine
 10
-107.100646
 20
64.32896600000001
 30
0.0
 11
-107.475646
 21
63.953966
 31
0.0
  0
LINE
  5
1F0
330
36
100
AcDbEntity
  8
0
 62
     3
100
AcDbLine
 10
-107.475646
 20
62.703966
 30
0.0
 11
-107.100646
 21
62.328966
 31
0.0
  0
LINE
  5
1F1
330
36
100
AcDbEntity
  8
0
 62
     3
100
AcDbLine
 10
-105.850646
 20
62.328966
 30
0.0
 11
-105.475646
 21
62.703966
 31
0.0
  0
LINE
  5
1F2
330
36
100
AcDbEntity
  8
0
 62
     3
100
AcDbLine
 10
-108.475646
 20
64.32896600000001
 30
0.0
 11
-108.71878
 21
64.602791
 31
0.0
  0
LINE
  5
1F3
330
36
100
AcDbEntity
  8
0
 62
     3
100
AcDbLine
 10
-108.725646
 20
64.078966
 30
0.0
 11
-108.500623
 21
63.827637
 31
0.0
  0
LINE
  5
1F4
330
36
100
AcDbEntity
  8
0
 62
     3
100
AcDbLine
 10
-101.475646
 20
63.703966
 30
0.0
 11
-101.475646
 21
63.953966
 31
0.0
  0
LINE
  5
1F5
330
36
100
AcDbEntity
  8
0
 62
     3
100
AcDbLine
 10
-100.475646
 20
63.328966
 30
0.0
 11
-100.475646
 21
64.32896600000001
 31
0.0
  0
LINE
  5
1F6
330
36
100
AcDbEntity
  8
0
 62
     3
100
AcDbLine
 10
-101.475646
 20
63.953966
 30
0.0
 11
-101.850646
 21
64.32896600000001
 31
0.0
  0
LINE
  5
1F7
330
36
100
AcDbEntity
  8
0
 62
     3
100
AcDbLine
 10
-101.475646
 20
63.703966
 30
0.0
 11
-101.850646
 21
63.328966
 31
0.0
  0
LINE
  5
1F8
330
36
100
AcDbEntity
  8
0
 62
     3
100
AcDbLine
 10
-100.475646
 20
64.32896600000001
 30
0.0
 11
-101.225646
 21
65.07896600000001
 31
0.0
  0
LINE
  5
1F9
330
36
100
AcDbEntity
  8
0
 62
     3
100
AcDbLine
 10
-100.475646
 20
63.328966
 30
0.0
 11
-101.225646
 21
62.578966
 31
0.0
  0
LINE
  5
1FA
330
36
100
AcDbEntity
  8
0
 62
     3
100
AcDbLine
 10
-102.475646
 20
62.578966
 30
0.0
 11
-101.725646
 21
61.578966
 31
0.0
  0
LINE
  5
1FB
330
36
100
AcDbEntity
  8
0
 62
     3
100
AcDbLine
 10
-101.850646
 20
64.32896600000001
 30
0.0
 11
-102.725646
 21
64.32896600000001
 31
0.0
  0
LINE
  5
1FC
330
36
100
AcDbEntity
  8
0
 62
     3
100
AcDbLine
 10
-103.725646
 20
64.32896600000001
 30
0.0
 11
-104.475646
 21
64.32896600000001
 31
0.0
  0
LINE
  5
1FD
330
36
100
AcDbEntity
  8
0
 62
     3
100
AcDbLine
 10
-101.850646
 20
63.328966
 30
0.0
 11
-102.725646
 21
63.328966
 31
0.0
  0
LINE
  5
1FE
330
36
100
AcDbEntity
  8
0
 62
     3
100
AcDbLine
 10
-103.725646
 20
63.328966
 30
0.0
 11
-104.475646
 21
63.328966
 31
0.0
  0
LINE
  5
1FF
330
36
100
AcDbEntity
  8
0
 62
     3
100
AcDbLine
 10
-102.725646
 20
61.578966
 30
0.0
 11
-102.725646
 21
62.578966
 31
0.0
  0
LINE
  5
200
330
36
100
AcDbEntity
  8
0
 62
     3
100
AcDbLine
 10
-102.725646
 20
63.328966
 30
0.0
 11
-102.725646
 21
64.32896600000001
 31
0.0
  0
LINE
  5
201
330
36
100
AcDbEntity
  8
0
 62
     3
100
AcDbLine
 10
-102.475646
 20
62.578966
 30
0.0
 11
-102.725646
 21
62.578966
 31
0.0
  0
LINE
  5
202
330
36
100
AcDbEntity
  8
0
 62
     3
100
AcDbLine
 10
-97.475646
 20
63.578966
 30
0.0
 11
-97.475646
 21
65.07896600000001
 31
0.0
  0
LINE
  5
203
330
36
100
AcDbEntity
  8
0
 62
     3
100
AcDbLine
 10
-98.22564599999999
 20
62.314229
 30
0.0
 11
-98.22564599999999
 21
64.04576
 31
0.0
  0
LINE
  5
204
330
36
100
AcDbEntity
  8
0
 62
     3
100
AcDbLine
 10
-98.22564599999999
 20
65.07896600000001
 30
0.0
 11
-97.475646
 21
65.07896600000001
 31
0.0
  0
LINE
  5
205
330
36
100
AcDbEntity
  8
0
 62
     3
100
AcDbLine
 10
-98.22564599999999
 20
65.07896600000001
 30
0.0
 11
-101.075449
 21
62.378703
 31
0.0
  0
LINE
  5
206
330
36
100
AcDbEntity
  8
0
 62
     3
100
AcDbLine
 10
-97.475646
 20
63.578966
 30
0.0
 11
-97.61001700000001
 21
63.501387
 31
0.0
  0
LINE
  5
207
330
36
100
AcDbEntity
  8
0
 62
     3
100
AcDbLine
 10
-97.61001700000001
 20
63.501387
 30
0.0
 11
-97.475646
 21
61.578966
 31
0.0
  0
LINE
  5
208
330
36
100
AcDbEntity
  8
0
 62
     3
100
AcDbLine
 10
-101.225646
 20
62.578966
 30
0.0
 11
-101.075449
 21
62.378703
 31
0.0
  0
LINE
  5
209
330
36
100
AcDbEntity
  8
0
 62
     3
100
AcDbLine
 10
-100.622459
 20
61.774717
 30
0.0
 11
-100.475646
 21
61.578966
 31
0.0
  0
LINE
  5
20A
330
36
100
AcDbEntity
  8
0
 62
     3
100
AcDbLine
 10
-99.63457699999999
 20
62.710761
 30
0.0
 11
-98.562173
 21
61.578966
 31
0.0
  0
LINE
  5
20B
330
36
100
AcDbEntity
  8
0
 62
     3
100
AcDbLine
 10
-99.090156
 20
63.226614
 30
0.0
 11
-98.22564599999999
 21
62.314229
 31
0.0
  0
LINE
  5
20C
330
36
100
AcDbEntity
  8
0
 62
     3
100
AcDbLine
 10
-98.22564599999999
 20
64.04576
 30
0.0
 11
-99.090156
 21
63.226614
 31
0.0
  0
LINE
  5
20D
330
36
100
AcDbEntity
  8
0
 62
     3
100
AcDbLine
 10
-99.63457699999999
 20
62.710761
 30
0.0
 11
-100.622459
 21
61.774717
 31
0.0
  0
LINE
  5
20E
330
36
100
AcDbEntity
  8
0
 62
     3
100
AcDbLine
 10
-97.475646
 20
61.578966
 30
0.0
 11
-98.562173
 21
61.578966
 31
0.0
  0
LINE
  5
20F
330
36
100
AcDbEntity
  8
0
 62
     3
100
AcDbLine
 10
-100.475646
 20
61.578966
 30
0.0
 11
-101.725646
 21
61.578966
 31
0.0
  0
LINE
  5
210
330
36
100
AcDbEntity
  8
0
 62
     3
100
AcDbLine
 10
-97.225646
 20
63.578966
 30
0.0
 11
-97.225646
 21
65.07896600000001
 31
0.0
  0
LINE
  5
211
330
36
100
AcDbEntity
  8
0
 62
     3
100
AcDbLine
 10
-94.22564599999999
 20
63.328966
 30
0.0
 11
-94.22564599999999
 21
64.32896600000001
 31
0.0
  0
LINE
  5
212
330
36
100
AcDbEntity
  8
0
 62
     3
100
AcDbLine
 10
-96.97564599999999
 20
61.578966
 30
0.0
 11
-96.97564599999999
 21
63.578966
 31
0.0
  0
LINE
  5
213
330
36
100
AcDbEntity
  8
0
 62
     3
100
AcDbLine
 10
-97.225646
 20
63.578966
 30
0.0
 11
-96.97564599999999
 21
63.578966
 31
0.0
  0
LINE
  5
214
330
36
100
AcDbEntity
  8
0
 62
     3
100
AcDbLine
 10
-94.975646
 20
65.07896600000001
 30
0.0
 11
-97.225646
 21
65.07896600000001
 31
0.0
  0
LINE
  5
215
330
36
100
AcDbEntity
  8
0
 62
     3
100
AcDbLine
 10
-94.975646
 20
62.578966
 30
0.0
 11
-96.225646
 21
62.578966
 31
0.0
  0
LINE
  5
216
330
36
100
AcDbEntity
  8
0
 62
     3
100
AcDbLine
 10
-94.975646
 20
63.703966
 30
0.0
 11
-94.975646
 21
63.953966
 31
0.0
  0
LINE
  5
217
330
36
100
AcDbEntity
  8
0
 62
     3
100
AcDbLine
 10
-95.350646
 20
64.32896600000001
 30
0.0
 11
-96.225646
 21
64.32896600000001
 31
0.0
  0
LINE
  5
218
330
36
100
AcDbEntity
  8
0
 62
     3
100
AcDbLine
 10
-95.350646
 20
63.328966
 30
0.0
 11
-96.225646
 21
63.328966
 31
0.0
  0
LINE
  5
219
330
36
100
AcDbEntity
  8
0
 62
     3
100
AcDbLine
 10
-94.22564599999999
 20
64.32896600000001
 30
0.0
 11
-94.975646
 21
65.07896600000001
 31
0.0
  0
LINE
  5
21A
330
36
100
AcDbEntity
  8
0
 62
     3
100
AcDbLine
 10
-94.22564599999999
 20
63.328966
 30
0.0
 11
-94.975646
 21
62.578966
 31
0.0
  0
LINE
  5
21B
330
36
100
AcDbEntity
  8
0
 62
     3
100
AcDbLine
 10
-94.975646
 20
63.953966
 30
0.0
 11
-95.350646
 21
64.32896600000001
 31
0.0
  0
LINE
  5
21C
330
36
100
AcDbEntity
  8
0
 62
     3
100
AcDbLine
 10
-94.975646
 20
63.703966
 30
0.0
 11
-95.350646
 21
63.328966
 31
0.0
  0
LINE
  5
21D
330
36
100
AcDbEntity
  8
0
 62
     3
100
AcDbLine
 10
-96.225646
 20
61.578966
 30
0.0
 11
-96.225646
 21
62.578966
 31
0.0
  0
LINE
  5
21E
330
36
100
AcDbEntity
  8
0
 62
     3
100
AcDbLine
 10
-96.225646
 20
63.328966
 30
0.0
 11
-96.225646
 21
64.32896600000001
 31
0.0
  0
LINE
  5
21F
330
36
100
AcDbEntity
  8
0
 62
     3
100
AcDbLine
 10
-101.225646
 20
65.07896600000001
 30
0.0
 11
-103.725646
 21
65.07896600000001
 31
0.0
  0
LINE
  5
220
330
36
100
AcDbEntity
  8
0
 62
     3
100
AcDbLine
 10
-105.225646
 20
65.07896600000001
 30
0.0
 11
-107.725646
 21
65.07896600000001
 31
0.0
  0
LINE
  5
221
330
36
100
AcDbEntity
  8
0
 62
     3
100
AcDbLine
 10
-108.725646
 20
65.07896600000001
 30
0.0
 11
-111.225646
 21
65.07896600000001
 31
0.0
  0
LINE
  5
222
330
36
100
AcDbEntity
  8
0
 62
     3
100
AcDbLine
 10
-109.475646
 20
61.578966
 30
0.0
 11
-110.475646
 21
61.578966
 31
0.0
  0
LINE
  5
223
330
36
100
AcDbEntity
  8
0
 62
     3
100
AcDbLine
 10
-102.725646
 20
61.578966
 30
0.0
 11
-103.725646
 21
61.578966
 31
0.0
  0
LINE
  5
224
330
36
100
AcDbEntity
  8
0
 62
     3
100
AcDbLine
 10
-105.225646
 20
61.578966
 30
0.0
 11
-107.725646
 21
61.578966
 31
0.0
  0
LINE
  5
225
330
36
100
AcDbEntity
  8
0
 62
     3
100
AcDbLine
 10
-103.725646
 20
61.578966
 30
0.0
 11
-103.725646
 21
63.328966
 31
0.0
  0
LINE
  5
226
330
36
100
AcDbEntity
  8
0
 62
     3
100
AcDbLine
 10
-103.725646
 20
64.32896600000001
 30
0.0
 11
-103.725646
 21
65.07896600000001
 31
0.0
  0
LINE
  5
227
330
36
100
AcDbEntity
  8
0
 62
     3
100
AcDbLine
 10
-90.90202299999999
 20
63.69900600000001
 30
0.0
 11
-90.90202299999999
 21
65.07400600000001
 31
0.0
  0
LINE
  5
228
330
36
100
AcDbEntity
  8
0
 62
     3
100
AcDbLine
 10
-91.652023
 20
65.07400600000001
 30
0.0
 11
-95.340617
 21
61.578966
 31
0.0
  0
LINE
  5
229
330
36
100
AcDbEntity
  8
0
 62
     3
100
AcDbLine
 10
-91.652023
 20
64.04079899999999
 30
0.0
 11
-92.51653199999999
 21
63.221654
 31
0.0
  0
LINE
  5
22A
330
36
100
AcDbEntity
  8
0
 62
     3
100
AcDbLine
 10
-91.652023
 20
62.309268
 30
0.0
 11
-91.652023
 21
64.04079899999999
 31
0.0
  0
LINE
  5
22B
330
36
100
AcDbEntity
  8
0
 62
     3
100
AcDbLine
 10
-92.51653199999999
 20
63.221654
 30
0.0
 11
-91.652023
 21
62.309268
 31
0.0
  0
LINE
  5
22C
330
36
100
AcDbEntity
  8
0
 62
     3
100
AcDbLine
 10
-93.06095400000002
 20
62.7058
 30
0.0
 11
-91.988549
 21
61.574006
 31
0.0
  0
LINE
  5
22D
330
36
100
AcDbEntity
  8
0
 62
     3
100
AcDbLine
 10
-93.06095400000002
 20
62.7058
 30
0.0
 11
-94.25019199999999
 21
61.578966
 31
0.0
  0
LINE
  5
22E
330
36
100
AcDbEntity
  8
0
 62
     3
100
AcDbLine
 10
-96.97564599999999
 20
61.578966
 30
0.0
 11
-96.225646
 21
61.578966
 31
0.0
  0
LINE
  5
22F
330
36
100
AcDbEntity
  8
0
 62
     3
100
AcDbLine
 10
-95.340617
 20
61.578966
 30
0.0
 11
-94.25019199999999
 21
61.578966
 31
0.0
  0
LINE
  5
230
330
36
100
AcDbEntity
  8
0
 62
     3
100
AcDbLine
 10
-87.40202299999998
 20
64.32400600000001
 30
0.0
 11
-87.40202299999998
 21
65.07400600000001
 31
0.0
  0
LINE
  5
231
330
36
100
AcDbEntity
  8
0
 62
     3
100
AcDbLine
 10
-87.40202299999998
 20
62.324006
 30
0.0
 11
-89.65202299999999
 21
62.324006
 31
0.0
  0
LINE
  5
232
330
36
100
AcDbEntity
  8
0
 62
     3
100
AcDbLine
 10
-89.65202299999999
 20
62.324006
 30
0.0
 11
-89.65202299999999
 21
64.32400600000001
 31
0.0
  0
LINE
  5
233
330
36
100
AcDbEntity
  8
0
 62
     3
100
AcDbLine
 10
-87.40202299999998
 20
62.324006
 30
0.0
 11
-86.90202300000001
 21
61.574006
 31
0.0
  0
LINE
  5
234
330
36
100
AcDbEntity
  8
0
 62
     3
100
AcDbLine
 10
-90.90202299999999
 20
63.69900600000001
 30
0.0
 11
-90.402023
 21
63.69900600000001
 31
0.0
  0
LINE
  5
235
330
36
100
AcDbEntity
  8
0
 62
     3
100
AcDbLine
 10
-90.998131
 20
62.949006
 30
0.0
 11
-90.402023
 21
62.949006
 31
0.0
  0
LINE
  5
236
330
36
100
AcDbEntity
  8
0
 62
     3
100
AcDbLine
 10
-90.998131
 20
62.949006
 30
0.0
 11
-90.90202299999999
 21
61.574006
 31
0.0
  0
LINE
  5
237
330
36
100
AcDbEntity
  8
0
 62
     3
100
AcDbLine
 10
-90.402023
 20
62.324006
 30
0.0
 11
-90.402023
 21
62.949006
 31
0.0
  0
LINE
  5
238
330
36
100
AcDbEntity
  8
0
 62
     3
100
AcDbLine
 10
-90.402023
 20
64.32400600000001
 30
0.0
 11
-90.402023
 21
63.69900600000001
 31
0.0
  0
LINE
  5
239
330
36
100
AcDbEntity
  8
0
 62
     3
100
AcDbLine
 10
-89.65202299999999
 20
61.574006
 30
0.0
 11
-86.90202300000001
 21
61.574006
 31
0.0
  0
LINE
  5
23A
330
36
100
AcDbEntity
  8
0
 62
     3
100
AcDbLine
 10
-90.90202299999999
 20
61.574006
 30
0.0
 11
-91.988549
 21
61.574006
 31
0.0
  0
LINE
  5
23B
330
36
100
AcDbEntity
  8
0
 62
     3
100
AcDbLine
 10
-91.652023
 20
65.07400600000001
 30
0.0
 11
-90.90202299999999
 21
65.07400600000001
 31
0.0
  0
LINE
  5
23C
330
36
100
AcDbEntity
  8
0
 62
     3
100
AcDbLine
 10
-89.65202299999999
 20
65.07400600000001
 30
0.0
 11
-90.402023
 21
64.32400600000001
 31
0.0
  0
LINE
  5
23D
330
36
100
AcDbEntity
  8
0
 62
     3
100
AcDbLine
 10
-90.402023
 20
62.324006
 30
0.0
 11
-89.65202299999999
 21
61.574006
 31
0.0
  0
LINE
  5
23E
330
36
100
AcDbEntity
  8
0
 62
     3
100
AcDbLine
 10
-86.90202300000001
 20
64.32400600000001
 30
0.0
 11
-86.90202300000001
 21
65.07400600000001
 31
0.0
  0
LINE
  5
23F
330
36
100
AcDbEntity
  8
0
 62
     3
100
AcDbLine
 10
-86.402023
 20
64.07400600000001
 30
0.0
 11
-86.402023
 21
61.574006
 31
0.0
  0
LINE
  5
240
330
36
100
AcDbEntity
  8
0
 62
     3
100
AcDbLine
 10
-89.65202299999999
 20
64.32400600000001
 30
0.0
 11
-87.40202299999998
 21
64.32400600000001
 31
0.0
  0
LINE
  5
241
330
36
100
AcDbEntity
  8
0
 62
     3
100
AcDbLine
 10
-89.65202299999999
 20
65.07400600000001
 30
0.0
 11
-87.40202299999998
 21
65.07400600000001
 31
0.0
  0
LINE
  5
242
330
36
100
AcDbEntity
  8
0
 62
     3
100
AcDbLine
 10
-86.90202300000001
 20
65.07400600000001
 30
0.0
 11
-85.65202300000001
 21
65.07400600000001
 31
0.0
  0
LINE
  5
243
330
36
100
AcDbEntity
  8
0
 62
     3
100
AcDbLine
 10
-86.652023
 20
64.32400600000001
 30
0.0
 11
-86.90202300000001
 21
64.32400600000001
 31
0.0
  0
LINE
  5
244
330
36
100
AcDbEntity
  8
0
 62
     3
100
AcDbLine
 10
-85.65202300000001
 20
63.69900600000001
 30
0.0
 11
-85.152023
 21
63.69900600000001
 31
0.0
  0
LINE
  5
245
330
36
100
AcDbEntity
  8
0
 62
     3
100
AcDbLine
 10
-83.902023
 20
61.574006
 30
0.0
 11
-83.902023
 21
61.81789399999999
 31
0.0
  0
LINE
  5
246
330
36
100
AcDbEntity
  8
0
 62
     3
100
AcDbLine
 10
-85.65202300000001
 20
62.949006
 30
0.0
 11
-84.65202299999999
 21
61.574006
 31
0.0
  0
LINE
  5
247
330
36
100
AcDbEntity
  8
0
 62
     3
100
AcDbLine
 10
-84.88005799999998
 20
63.162692
 30
0.0
 11
-83.902023
 21
61.81789399999999
 31
0.0
  0
LINE
  5
248
330
36
100
AcDbEntity
  8
0
 62
     3
100
AcDbLine
 10
-85.65202300000001
 20
61.574006
 30
0.0
 11
-85.65202300000001
 21
62.949006
 31
0.0
  0
LINE
  5
249
330
36
100
AcDbEntity
  8
0
 62
     3
100
AcDbLine
 10
-85.65202300000001
 20
63.69900600000001
 30
0.0
 11
-85.65202300000001
 21
65.07400600000001
 31
0.0
  0
LINE
  5
24A
330
36
100
AcDbEntity
  8
0
 62
     3
100
AcDbLine
 10
-86.402023
 20
64.07400600000001
 30
0.0
 11
-86.652023
 21
64.32400600000001
 31
0.0
  0
LINE
  5
24B
330
36
100
AcDbEntity
  8
0
 62
     3
100
AcDbLine
 10
-84.152023
 20
65.07400600000001
 30
0.0
 11
-83.40202299999999
 21
65.07400600000001
 31
0.0
  0
LINE
  5
24C
330
36
100
AcDbEntity
  8
0
 62
     3
100
AcDbLine
 10
-84.152023
 20
65.07400600000001
 30
0.0
 11
-85.152023
 21
63.69900600000001
 31
0.0
  0
LINE
  5
24D
330
36
100
AcDbEntity
  8
0
 62
     3
100
AcDbLine
 10
-84.88005799999998
 20
63.162692
 30
0.0
 11
-83.40202299999999
 21
65.07400600000001
 31
0.0
  0
LINE
  5
24E
330
36
100
AcDbEntity
  8
0
 62
     3
100
AcDbLine
 10
-86.402023
 20
61.574006
 30
0.0
 11
-85.65202300000001
 21
61.574006
 31
0.0
  0
LINE
  5
24F
330
36
100
AcDbEntity
  8
0
 62
     3
100
AcDbLine
 10
-84.65202299999999
 20
61.574006
 30
0.0
 11
-83.902023
 21
61.574006
 31
0.0
  0
LINE
  5
250
330
36
100
AcDbEntity
  8
0
 62
     3
100
AcDbLine
 10
-140.552185
 20
71.888483
 30
0.0
 11
-140.552185
 21
72.02600799999998
 31
0.0
  0
ARC
  5
251
330
36
100
AcDbEntity
  8
0
 62
     3
100
AcDbCircle
 10
47.935594
 20
-10.773932
 30
0.0
 40
0.5
100
AcDbArc
 50
187.594643
 51
270.0
  0
LINE
  5
252
330
36
100
AcDbEntity
  8
0
 62
     3
100
AcDbLine
 10
57.560077
 20
-11.273932
 30
0.0
 11
47.935594
 21
-11.273932
 31
0.0
  0
ARC
  5
253
330
36
100
AcDbEntity
  8
0
 62
     3
100
AcDbCircle
 10
57.560077
 20
-10.773932
 30
0.0
 40
0.5
100
AcDbArc
 50
270.0
 51
352.405357
  0
LINE
  5
254
330
36
100
AcDbEntity
  8
0
 62
     3
100
AcDbLine
 10
58.737835
 20
-5.723931999999997
 30
0.0
 11
58.055691
 21
-10.840014
 31
0.0
  0
LINE
  5
255
330
36
100
AcDbEntity
  8
0
 62
     3
100
AcDbLine
 10
116.757835
 20
-5.723931999999997
 30
0.0
 11
117.43998
 21
-10.840014
 31
0.0
  0
LINE
  5
256
330
36
100
AcDbEntity
  8
0
 62
     3
100
AcDbLine
 10
127.560077
 20
-11.273932
 30
0.0
 11
117.935594
 21
-11.273932
 31
0.0
  0
ARC
  5
257
330
36
100
AcDbEntity
  8
0
 62
     3
100
AcDbCircle
 10
117.935594
 20
-10.773932
 30
0.0
 40
0.5
100
AcDbArc
 50
187.594643
 51
270.0
  0
ARC
  5
258
330
36
100
AcDbEntity
  8
0
 62
     3
100
AcDbCircle
 10
127.560077
 20
-10.773932
 30
0.0
 40
0.5
100
AcDbArc
 50
270.0
 51
352.405357
  0
LINE
  5
259
330
36
100
AcDbEntity
  8
0
 62
     3
100
AcDbLine
 10
128.737835
 20
-5.723931999999997
 30
0.0
 11
128.055691
 21
-10.840014
 31
0.0
  0
LINE
  5
25A
330
36
100
AcDbEntity
  8
0
 62
     3
100
AcDbLine
 10
32.247835
 20
21.276068
 30
0.0
 11
136.747835
 21
21.276068
 31
0.0
  0
LINE
  5
25B
330
36
100
AcDbEntity
  8
0
 62
     3
100
AcDbLine
 10
-176.611198
 20
133.875366
 30
0.0
 11
-176.6111979999999
 21
-143.124634
 31
0.0
  0
LINE
  5
25C
330
36
100
AcDbEntity
  8
0
 62
     3
100
AcDbLine
 10
213.388802
 20
-143.124634
 30
0.0
 11
213.388802
 21
133.875366
 31
0.0
  0
LINE
  5
25D
330
36
100
AcDbEntity
  8
0
 62
     3
100
AcDbLine
 10
-176.611198
 20
133.875366
 30
0.0
 11
213.388802
 21
133.875366
 31
0.0
  0
LINE
  5
260
330
36
100
AcDbEntity
  8
0
 62
     3
100
AcDbLine
 10
46.757835
 20
-5.723931999999997
 30
0.0
 11
46.49783499999998
 21
-3.773931999999998
 31
0.0
  0
LINE
  5
261
330
36
100
AcDbEntity
  8
0
 62
     3
100
AcDbLine
 10
46.757835
 20
-5.723931999999997
 30
0.0
 11
47.43998
 21
-10.840014
 31
0.0
  0
LINE
  5
262
330
36
100
AcDbEntity
  8
0
 62
     3
100
AcDbLine
 10
58.737835
 20
-5.723931999999997
 30
0.0
 11
58.99783499999998
 21
-3.773931999999998
 31
0.0
  0
LINE
  5
263
330
36
100
AcDbEntity
  8
0
 62
     3
100
AcDbLine
 10
116.757835
 20
-5.723931999999997
 30
0.0
 11
116.497835
 21
-3.773931999999998
 31
0.0
  0
LINE
  5
264
330
36
100
AcDbEntity
  8
0
 62
     3
100
AcDbLine
 10
128.737835
 20
-5.723931999999997
 30
0.0
 11
128.997835
 21
-3.773931999999998
 31
0.0
  0
LINE
  5
265
330
36
100
AcDbEntity
  8
0
 62
     3
100
AcDbLine
 10
-28.062185
 20
-5.723991999999999
 30
0.0
 11
-28.744329
 21
-10.840074
 31
0.0
  0
ARC
  5
266
330
36
100
AcDbEntity
  8
0
 62
     3
100
AcDbCircle
 10
-29.239943
 20
-10.773992
 30
0.0
 40
0.5
100
AcDbArc
 50
270.0
 51
352.405357
  0
LINE
  5
267
330
36
100
AcDbEntity
  8
0
 62
     3
100
AcDbLine
 10
-40.04218499999999
 20
-5.723991999999999
 30
0.0
 11
-39.36004
 21
-10.840074
 31
0.0
  0
LINE
  5
268
330
36
100
AcDbEntity
  8
0
 62
     3
100
AcDbLine
 10
-29.239943
 20
-11.273992
 30
0.0
 11
-38.864426
 21
-11.273992
 31
0.0
  0
LINE
  5
269
330
36
100
AcDbEntity
  8
0
 62
     3
100
AcDbLine
 10
-123.062185
 20
-5.723991999999999
 30
0.0
 11
-123.744329
 21
-10.840074
 31
0.0
  0
ARC
  5
26A
330
36
100
AcDbEntity
  8
0
 62
     3
100
AcDbCircle
 10
-124.239943
 20
-10.773992
 30
0.0
 40
0.5
100
AcDbArc
 50
270.0
 51
352.405357
  0
LINE
  5
26B
330
36
100
AcDbEntity
  8
0
 62
     3
100
AcDbLine
 10
-133.864426
 20
-11.273992
 30
0.0
 11
-124.239943
 21
-11.273992
 31
0.0
  0
ARC
  5
26C
330
36
100
AcDbEntity
  8
0
 62
     3
100
AcDbCircle
 10
-133.864426
 20
-10.773992
 30
0.0
 40
0.5
100
AcDbArc
 50
187.594643
 51
270.0
  0
LINE
  5
26D
330
36
100
AcDbEntity
  8
0
 62
     3
100
AcDbLine
 10
-135.042185
 20
-5.723991999999999
 30
0.0
 11
-134.36004
 21
-10.840074
 31
0.0
  0
LINE
  5
26E
330
36
100
AcDbEntity
  8
0
 62
     3
100
AcDbLine
 10
-137.652185
 20
65.126008
 30
0.0
 11
-116.452185
 21
65.126008
 31
0.0
  0
LINE
  5
26F
330
36
100
AcDbEntity
  8
0
 62
     3
100
AcDbLine
 10
-115.952185
 20
43.426008
 30
0.0
 11
-115.952185
 21
64.626008
 31
0.0
  0
ARC
  5
270
330
36
100
AcDbEntity
  8
0
 62
     3
100
AcDbCircle
 10
86.747835
 20
-196.373932
 30
0.0
 40
300.0
100
AcDbArc
 50
87.65794300000001
 51
87.831778
  0
LINE
  5
271
330
36
100
AcDbEntity
  8
0
 62
     3
100
AcDbLine
 10
112.12111
 20
97.742327
 30
0.0
 11
117.779975
 21
92.248745
 31
0.0
  0
ARC
  5
272
330
36
100
AcDbEntity
  8
0
 62
     3
100
AcDbCircle
 10
98.19009600000001
 20
83.392175
 30
0.0
 40
20.0
100
AcDbArc
 50
45.849085
 51
87.65794300000001
  0
ARC
  5
273
330
36
100
AcDbEntity
  8
0
 62
     3
100
AcDbCircle
 10
86.747835
 20
-196.373932
 30
0.0
 40
300.0
100
AcDbArc
 50
87.831778
 51
92.34961099999999
  0
ARC
  5
274
330
36
100
AcDbEntity
  8
0
 62
     3
100
AcDbCircle
 10
123.497835
 20
81.335829
 30
0.0
 40
2.0
100
AcDbArc
 50
0.0
 51
27.91033200000001
  0
LINE
  5
275
330
36
100
AcDbEntity
  8
0
 62
     3
100
AcDbLine
 10
125.497835
 20
77.826068
 30
0.0
 11
125.747835
 21
77.826068
 31
0.0
  0
ARC
  5
276
330
36
100
AcDbEntity
  8
0
 62
     3
100
AcDbCircle
 10
75.476698
 20
70.468522
 30
0.0
 40
37.5
100
AcDbArc
 50
11.314904
 51
22.916905
  0
ARC
  5
277
330
36
100
AcDbEntity
  8
0
 62
     3
100
AcDbCircle
 10
102.849009
 20
82.86356899999999
 30
0.0
 40
7.5
100
AcDbArc
 50
17.11590499999999
 51
86.709317
  0
ARC
  5
278
330
36
100
AcDbEntity
  8
0
 62
     3
100
AcDbCircle
 10
75.305575
 20
83.392175
 30
0.0
 40
20.0
100
AcDbArc
 50
92.342057
 51
134.150915
  0
ARC
  5
279
330
36
100
AcDbEntity
  8
0
 62
     3
100
AcDbCircle
 10
70.64666200000002
 20
82.86356899999999
 30
0.0
 40
7.5
100
AcDbArc
 50
93.29068300000001
 51
162.884095
  0
LINE
  5
27A
330
36
100
AcDbEntity
  8
0
 62
     3
100
AcDbLine
 10
63.478827
 20
85.070861
 30
0.0
 11
61.24783499999999
 21
77.826068
 31
0.0
  0
ARC
  5
27B
330
36
100
AcDbEntity
  8
0
 62
     3
100
AcDbCircle
 10
83.57772199999997
 20
63.54844100000001
 30
0.0
 40
40.0
100
AcDbArc
 50
134.150915
 51
143.286186
  0
LINE
  5
27C
330
36
100
AcDbEntity
  8
0
 62
     3
100
AcDbLine
 10
32.247835
 20
76.32606800000002
 30
0.0
 11
136.747835
 21
76.32606800000002
 31
0.0
  0
ARC
  5
27D
330
36
100
AcDbEntity
  8
0
 62
     3
100
AcDbCircle
 10
86.747835
 20
-197.173932
 30
0.0
 40
288.0
100
AcDbArc
 50
86.709317
 51
93.29068300000001
  0
LINE
  5
27E
330
36
100
AcDbEntity
  8
0
 62
     3
100
AcDbLine
 10
32.247835
 20
-5.373931999999999
 30
0.0
 11
32.247835
 21
77.926068
 31
0.0
  0
LINE
  5
27F
330
36
100
AcDbEntity
  8
0
 62
     3
100
AcDbLine
 10
19.247835
 20
-3.373931999999998
 30
0.0
 11
19.247835
 21
75.926068
 31
0.0
  0
ARC
  5
280
330
36
100
AcDbEntity
  8
0
 62
     3
100
AcDbCircle
 10
21.747835
 20
75.926068
 30
0.0
 40
2.5
100
AcDbArc
 50
90.0
 51
180.0
  0
LINE
  5
281
330
36
100
AcDbEntity
  8
0
 62
     3
100
AcDbLine
 10
31.747835
 20
78.426068
 30
0.0
 11
21.747835
 21
78.426068
 31
0.0
  0
LINE
  5
282
330
36
100
AcDbEntity
  8
0
 62
     3
100
AcDbLine
 10
32.247835
 20
-3.773931999999998
 30
0.0
 11
136.747835
 21
-3.773931999999998
 31
0.0
  0
LINE
  5
283
330
36
100
AcDbEntity
  8
0
 62
     3
100
AcDbLine
 10
31.747835
 20
-5.873931999999999
 30
0.0
 11
21.747835
 21
-5.873931999999999
 31
0.0
  0
ARC
  5
284
330
36
100
AcDbEntity
  8
0
 62
     3
100
AcDbCircle
 10
21.747835
 20
-3.373931999999998
 30
0.0
 40
2.5
100
AcDbArc
 50
180.0
 51
270.0
  0
ARC
  5
285
330
36
100
AcDbEntity
  8
0
 62
     3
100
AcDbCircle
 10
31.747835
 20
77.926068
 30
0.0
 40
0.5
100
AcDbArc
 50
0.0
 51
90.0
  0
LINE
  5
286
330
36
100
AcDbEntity
  8
0
 62
     3
100
AcDbLine
 10
213.388802
 20
-143.124634
 30
0.0
 11
-176.611198
 21
-143.124634
 31
0.0
  0
TEXT
  5
288
330
36
100
AcDbEntity
  8
0
 62
     3
100
AcDbText
 10
-72.06927199999999
 20
66.67842199999999
 30
0.0
 40
6.575999999999997
  1
トラパック
 41
0.833333
100
AcDbText
  0
LINE
  5
289
330
36
100
AcDbEntity
  8
0
 62
     3
100
AcDbLine
 10
61.374561
 20
97.742327
 30
0.0
 11
55.71569499999998
 21
92.248745
 31
0.0
  0
ARC
  5
28A
330
36
100
AcDbEntity
  8
0
 62
     3
100
AcDbCircle
 10
31.747835
 20
-5.373931999999999
 30
0.0
 40
0.5
100
AcDbArc
 50
270.0
 51
0.0
  0
ARC
  5
28B
330
36
100
AcDbEntity
  8
0
 62
     3
100
AcDbCircle
 10
-38.864426
 20
-10.773992
 30
0.0
 40
0.5
100
AcDbArc
 50
187.594643
 51
270.0
  0
LINE
  5
28C
330
36
100
AcDbEntity
  8
0
100
AcDbLine
 10
-116.952185
 20
64.12600799999998
 30
0.0
 11
-137.152185
 21
64.12600799999998
 31
0.0
  0
LINE
  5
28D
330
36
100
AcDbEntity
  8
0
100
AcDbLine
 10
-116.952185
 20
64.12600799999998
 30
0.0
 11
-116.952185
 21
43.926008
 31
0.0
  0
LINE
  5
28E
330
36
100
AcDbEntity
  8
0
100
AcDbLine
 10
-137.152185
 20
43.926008
 30
0.0
 11
-137.152185
 21
64.12600799999998
 31
0.0
  0
LINE
  5
28F
330
36
100
AcDbEntity
  8
0
100
AcDbLine
 10
-116.952185
 20
51.426008
 30
0.0
 11
-137.152185
 21
51.426008
 31
0.0
  0
LINE
  5
290
330
36
100
AcDbEntity
  8
0
100
AcDbLine
 10
-116.952185
 20
50.67600800000001
 30
0.0
 11
-137.152185
 21
50.67600800000001
 31
0.0
  0
LINE
  5
291
330
36
100
AcDbEntity
  8
0
100
AcDbLine
 10
-116.952185
 20
49.926008
 30
0.0
 11
-137.152185
 21
49.926008
 31
0.0
  0
LINE
  5
292
330
36
100
AcDbEntity
  8
0
100
AcDbLine
 10
-116.952185
 20
49.176008
 30
0.0
 11
-137.152185
 21
49.176008
 31
0.0
  0
LINE
  5
293
330
36
100
AcDbEntity
  8
0
100
AcDbLine
 10
-116.952185
 20
48.426008
 30
0.0
 11
-137.152185
 21
48.426008
 31
0.0
  0
LINE
  5
294
330
36
100
AcDbEntity
  8
0
100
AcDbLine
 10
-116.952185
 20
47.676008
 30
0.0
 11
-137.152185
 21
47.676008
 31
0.0
  0
LINE
  5
295
330
36
100
AcDbEntity
  8
0
100
AcDbLine
 10
-116.952185
 20
46.926008
 30
0.0
 11
-137.152185
 21
46.926008
 31
0.0
  0
LINE
  5
296
330
36
100
AcDbEntity
  8
0
100
AcDbLine
 10
-116.952185
 20
46.176008
 30
0.0
 11
-137.152185
 21
46.176008
 31
0.0
  0
LINE
  5
297
330
36
100
AcDbEntity
  8
0
100
AcDbLine
 10
-116.952185
 20
45.426008
 30
0.0
 11
-137.152185
 21
45.426008
 31
0.0
  0
LINE
  5
298
330
36
100
AcDbEntity
  8
0
100
AcDbLine
 10
-116.952185
 20
44.676008
 30
0.0
 11
-137.152185
 21
44.676008
 31
0.0
  0
LINE
  5
299
330
36
100
AcDbEntity
  8
0
100
AcDbLine
 10
-122.052185
 20
17.026008
 30
0.0
 11
-122.052185
 21
33.026008
 31
0.0
  0
LINE
  5
29A
330
36
100
AcDbEntity
  8
0
100
AcDbLine
 10
-128.052185
 20
17.026008
 30
0.0
 11
-128.052185
 21
33.026008
 31
0.0
  0
LINE
  5
29B
330
36
100
AcDbEntity
  8
0
100
AcDbLine
 10
-122.052185
 20
17.026008
 30
0.0
 11
-128.052185
 21
17.026008
 31
0.0
  0
LINE
  5
29C
330
36
100
AcDbEntity
  8
0
100
AcDbLine
 10
-123.177185
 20
32.02600800000001
 30
0.0
 11
-123.177185
 21
24.526008
 31
0.0
  0
LINE
  5
29D
330
36
100
AcDbEntity
  8
0
100
AcDbLine
 10
-126.927185
 20
32.02600800000001
 30
0.0
 11
-126.927185
 21
24.526008
 31
0.0
  0
LINE
  5
29E
330
36
100
AcDbEntity
  8
0
100
AcDbLine
 10
-126.927185
 20
32.02600800000001
 30
0.0
 11
-123.177185
 21
32.02600800000001
 31
0.0
  0
LINE
  5
29F
330
36
100
AcDbEntity
  8
0
100
AcDbLine
 10
-123.177185
 20
30.526008
 30
0.0
 11
-126.927185
 21
30.526008
 31
0.0
  0
LINE
  5
2A0
330
36
100
AcDbEntity
  8
0
100
AcDbLine
 10
-123.177185
 20
27.526008
 30
0.0
 11
-126.927185
 21
27.526008
 31
0.0
  0
LINE
  5
2A1
330
36
100
AcDbEntity
  8
0
100
AcDbLine
 10
-123.177185
 20
24.526008
 30
0.0
 11
-126.927185
 21
24.526008
 31
0.0
  0
TEXT
  5
2A2
330
36
100
AcDbEntity
  8
0
100
AcDbText
 10
-125.810474
 20
25.588868
 30
0.0
 40
1.6
  1
入
 41
0.833333
100
AcDbText
  0
TEXT
  5
2A3
330
36
100
AcDbEntity
  8
0
100
AcDbText
 10
-126.33123
 20
30.657711
 30
0.0
 40
1.28
  1
30
 41
1.090908999999999
100
AcDbText
  0
LINE
  5
2A4
330
36
100
AcDbEntity
  8
0
100
AcDbLine
 10
-128.052185
 20
33.026008
 30
0.0
 11
-122.052185
 21
33.026008
 31
0.0
  0
ARC
  5
2A5
330
36
100
AcDbEntity
  8
0
100
AcDbCircle
 10
74.247835
 20
36.27606800000001
 30
0.0
 40
5.0
100
AcDbArc
 50
0.0
 51
90.0
  0
LINE
  5
2A6
330
36
100
AcDbEntity
  8
0
100
AcDbLine
 10
74.247835
 20
41.276068
 30
0.0
 11
54.247835
 21
41.276068
 31
0.0
  0
ARC
  5
2A7
330
36
100
AcDbEntity
  8
0
100
AcDbCircle
 10
54.247835
 20
36.27606800000001
 30
0.0
 40
5.0
100
AcDbArc
 50
90.0
 51
180.0
  0
ARC
  5
2A8
330
36
100
AcDbEntity
  8
0
100
AcDbCircle
 10
54.247835
 20
42.776068
 30
0.0
 40
5.0
100
AcDbArc
 50
90.0
 51
180.0
  0
LINE
  5
2A9
330
36
100
AcDbEntity
  8
0
100
AcDbLine
 10
74.247835
 20
47.776068
 30
0.0
 11
54.247835
 21
47.776068
 31
0.0
  0
ARC
  5
2AA
330
36
100
AcDbEntity
  8
0
100
AcDbCircle
 10
74.247835
 20
42.776068
 30
0.0
 40
5.0
100
AcDbArc
 50
0.0
 51
90.0
  0
ARC
  5
2AB
330
36
100
AcDbEntity
  8
0
100
AcDbCircle
 10
74.247835
 20
49.276068
 30
0.0
 40
5.0
100
AcDbArc
 50
0.0
 51
90.0
  0
LINE
  5
2AC
330
36
100
AcDbEntity
  8
0
100
AcDbLine
 10
74.247835
 20
54.276068
 30
0.0
 11
54.247835
 21
54.276068
 31
0.0
  0
ARC
  5
2AD
330
36
100
AcDbEntity
  8
0
100
AcDbCircle
 10
54.247835
 20
49.276068
 30
0.0
 40
5.0
100
AcDbArc
 50
90.0
 51
180.0
  0
ARC
  5
2AE
330
36
100
AcDbEntity
  8
0
100
AcDbCircle
 10
54.247835
 20
55.776068
 30
0.0
 40
5.0
100
AcDbArc
 50
90.0
 51
180.0
  0
LINE
  5
2AF
330
36
100
AcDbEntity
  8
0
100
AcDbLine
 10
74.247835
 20
60.776068
 30
0.0
 11
54.247835
 21
60.776068
 31
0.0
  0
ARC
  5
2B0
330
36
100
AcDbEntity
  8
0
100
AcDbCircle
 10
74.247835
 20
55.776068
 30
0.0
 40
5.0
100
AcDbArc
 50
0.0
 51
90.0
  0
ARC
  5
2B1
330
36
100
AcDbEntity
  8
0
100
AcDbCircle
 10
99.247835
 20
36.27606800000001
 30
0.0
 40
5.0
100
AcDbArc
 50
90.0
 51
180.0
  0
LINE
  5
2B2
330
36
100
AcDbEntity
  8
0
100
AcDbLine
 10
99.247835
 20
41.276068
 30
0.0
 11
119.247835
 21
41.276068
 31
0.0
  0
ARC
  5
2B3
330
36
100
AcDbEntity
  8
0
100
AcDbCircle
 10
119.247835
 20
36.27606800000001
 30
0.0
 40
5.0
100
AcDbArc
 50
0.0
 51
90.0
  0
ARC
  5
2B4
330
36
100
AcDbEntity
  8
0
100
AcDbCircle
 10
119.247835
 20
42.776068
 30
0.0
 40
5.0
100
AcDbArc
 50
0.0
 51
90.0
  0
LINE
  5
2B5
330
36
100
AcDbEntity
  8
0
100
AcDbLine
 10
99.247835
 20
47.776068
 30
0.0
 11
119.247835
 21
47.776068
 31
0.0
  0
ARC
  5
2B6
330
36
100
AcDbEntity
  8
0
100
AcDbCircle
 10
99.247835
 20
42.776068
 30
0.0
 40
5.0
100
AcDbArc
 50
90.0
 51
180.0
  0
ARC
  5
2B7
330
36
100
AcDbEntity
  8
0
100
AcDbCircle
 10
99.247835
 20
49.276068
 30
0.0
 40
5.0
100
AcDbArc
 50
90.0
 51
180.0
  0
LINE
  5
2B8
330
36
100
AcDbEntity
  8
0
100
AcDbLine
 10
99.247835
 20
54.276068
 30
0.0
 11
119.247835
 21
54.276068
 31
0.0
  0
ARC
  5
2B9
330
36
100
AcDbEntity
  8
0
100
AcDbCircle
 10
119.247835
 20
49.276068
 30
0.0
 40
5.0
100
AcDbArc
 50
0.0
 51
90.0
  0
ARC
  5
2BA
330
36
100
AcDbEntity
  8
0
100
AcDbCircle
 10
119.247835
 20
55.776068
 30
0.0
 40
5.0
100
AcDbArc
 50
0.0
 51
90.0
  0
LINE
  5
2BB
330
36
100
AcDbEntity
  8
0
100
AcDbLine
 10
99.247835
 20
60.776068
 30
0.0
 11
119.247835
 21
60.776068
 31
0.0
  0
ARC
  5
2BC
330
36
100
AcDbEntity
  8
0
100
AcDbCircle
 10
99.247835
 20
55.776068
 30
0.0
 40
5.0
100
AcDbArc
 50
90.0
 51
180.0
  0
ARC
  5
2BD
330
36
100
AcDbEntity
  8
0
  6
HIDDEN
 62
    15
100
AcDbCircle
 10
89.91794799999999
 20
63.54844100000001
 30
0.0
 40
40.0
100
AcDbArc
 50
27.18987
 51
27.91033200000001
  0
LINE
  5
2BE
330
36
100
AcDbEntity
  8
0
  6
HIDDEN
 62
    15
100
AcDbLine
 10
125.497835
 20
81.335829
 30
0.0
 11
125.497835
 21
81.826068
 31
0.0
  0
CIRCLE
  5
2BF
330
36
100
AcDbEntity
  8
0
100
AcDbCircle
 10
132.997835
 20
58.776068
 30
0.0
 40
2.25
  0
CIRCLE
  5
2C0
330
36
100
AcDbEntity
  8
0
100
AcDbCircle
 10
132.997835
 20
36.27606800000001
 30
0.0
 40
2.25
  0
CIRCLE
  5
2C1
330
36
100
AcDbEntity
  8
0
100
AcDbCircle
 10
132.997835
 20
13.776068
 30
0.0
 40
2.25
  0
CIRCLE
  5
2C2
330
36
100
AcDbEntity
  8
0
100
AcDbCircle
 10
40.49783499999999
 20
13.776068
 30
0.0
 40
2.25
  0
CIRCLE
  5
2C3
330
36
100
AcDbEntity
  8
0
100
AcDbCircle
 10
40.49783499999999
 20
36.27606800000001
 30
0.0
 40
2.25
  0
CIRCLE
  5
2C4
330
36
100
AcDbEntity
  8
0
100
AcDbCircle
 10
40.49783499999999
 20
58.776068
 30
0.0
 40
2.25
  0
LINE
  5
2C5
330
36
100
AcDbEntity
  8
0
100
AcDbLine
 10
137.997835
 20
6.476067999999997
 30
0.0
 11
137.997835
 21
15.976068
 31
0.0
  0
LINE
  5
2C6
330
36
100
AcDbEntity
  8
0
100
AcDbLine
 10
138.497835
 20
36.27606800000001
 30
0.0
 11
136.747835
 21
36.27606800000001
 31
0.0
  0
ARC
  5
2C7
330
36
100
AcDbEntity
  8
0
100
AcDbCircle
 10
135.997835
 20
58.276068
 30
0.0
 40
2.5
100
AcDbArc
 50
0.0
 51
72.54239699999998
  0
ARC
  5
2C8
330
36
100
AcDbEntity
  8
0
100
AcDbCircle
 10
135.997835
 20
51.776068
 30
0.0
 40
2.5
100
AcDbArc
 50
0.0
 51
72.54239699999998
  0
ARC
  5
2C9
330
36
100
AcDbEntity
  8
0
100
AcDbCircle
 10
135.997835
 20
45.276068
 30
0.0
 40
2.5
100
AcDbArc
 50
0.0
 51
72.54239699999998
  0
ARC
  5
2CA
330
36
100
AcDbEntity
  8
0
100
AcDbCircle
 10
135.997835
 20
38.776068
 30
0.0
 40
2.5
100
AcDbArc
 50
0.0
 51
72.54239699999998
  0
LINE
  5
2CB
330
36
100
AcDbEntity
  8
0
100
AcDbLine
 10
138.497835
 20
38.776068
 30
0.0
 11
138.497835
 21
36.27606800000001
 31
0.0
  0
LINE
  5
2CC
330
36
100
AcDbEntity
  8
0
100
AcDbLine
 10
138.497835
 20
45.276068
 30
0.0
 11
138.497835
 21
42.776068
 31
0.0
  0
LINE
  5
2CD
330
36
100
AcDbEntity
  8
0
100
AcDbLine
 10
138.497835
 20
58.276068
 30
0.0
 11
138.497835
 21
55.776068
 31
0.0
  0
LINE
  5
2CE
330
36
100
AcDbEntity
  8
0
100
AcDbLine
 10
138.497835
 20
51.776068
 30
0.0
 11
138.497835
 21
49.276068
 31
0.0
  0
LINE
  5
2CF
330
36
100
AcDbEntity
  8
0
100
AcDbLine
 10
138.497835
 20
55.776068
 30
0.0
 11
136.747835
 21
55.776068
 31
0.0
  0
LINE
  5
2D0
330
36
100
AcDbEntity
  8
0
100
AcDbLine
 10
138.497835
 20
49.276068
 30
0.0
 11
136.747835
 21
49.276068
 31
0.0
  0
LINE
  5
2D1
330
36
100
AcDbEntity
  8
0
100
AcDbLine
 10
138.497835
 20
42.776068
 30
0.0
 11
136.747835
 21
42.776068
 31
0.0
  0
LINE
  5
2D2
330
36
100
AcDbEntity
  8
0
100
AcDbLine
 10
-39.55218499999999
 20
68.02600799999999
 30
0.0
 11
-39.55218499999999
 21
72.02600799999998
 31
0.0
  0
LINE
  5
2D3
330
36
100
AcDbEntity
  8
0
100
AcDbLine
 10
-38.052185
 20
68.02600799999999
 30
0.0
 11
-38.052185
 21
72.02600799999998
 31
0.0
  0
LINE
  5
2D4
330
36
100
AcDbEntity
  8
0
100
AcDbLine
 10
-36.552185
 20
68.02600799999999
 30
0.0
 11
-36.552185
 21
72.02600799999998
 31
0.0
  0
LINE
  5
2D5
330
36
100
AcDbEntity
  8
0
100
AcDbLine
 10
-35.052185
 20
68.02600799999999
 30
0.0
 11
-35.052185
 21
72.02600799999998
 31
0.0
  0
LINE
  5
2D6
330
36
100
AcDbEntity
  8
0
100
AcDbLine
 10
-33.55218499999999
 20
68.02600799999999
 30
0.0
 11
-33.55218499999999
 21
72.02600799999998
 31
0.0
  0
LINE
  5
2D7
330
36
100
AcDbEntity
  8
0
100
AcDbLine
 10
-32.552185
 20
72.02600799999998
 30
0.0
 11
-33.55218499999999
 21
72.02600799999998
 31
0.0
  0
LINE
  5
2D8
330
36
100
AcDbEntity
  8
0
100
AcDbLine
 10
-34.052185
 20
72.02600799999998
 30
0.0
 11
-35.052185
 21
72.02600799999998
 31
0.0
  0
LINE
  5
2D9
330
36
100
AcDbEntity
  8
0
100
AcDbLine
 10
-35.552185
 20
72.02600799999998
 30
0.0
 11
-36.552185
 21
72.02600799999998
 31
0.0
  0
LINE
  5
2DA
330
36
100
AcDbEntity
  8
0
100
AcDbLine
 10
-37.05218499999999
 20
72.02600799999998
 30
0.0
 11
-38.052185
 21
72.02600799999998
 31
0.0
  0
LINE
  5
2DB
330
36
100
AcDbEntity
  8
0
100
AcDbLine
 10
-38.55218499999999
 20
72.02600799999998
 30
0.0
 11
-39.55218499999999
 21
72.02600799999998
 31
0.0
  0
LINE
  5
2DC
330
36
100
AcDbEntity
  8
0
100
AcDbLine
 10
-32.552185
 20
68.02600799999999
 30
0.0
 11
-33.55218499999999
 21
68.02600799999999
 31
0.0
  0
LINE
  5
2DD
330
36
100
AcDbEntity
  8
0
100
AcDbLine
 10
-34.052185
 20
68.02600799999999
 30
0.0
 11
-35.052185
 21
68.02600799999999
 31
0.0
  0
LINE
  5
2DE
330
36
100
AcDbEntity
  8
0
100
AcDbLine
 10
-35.552185
 20
68.02600799999999
 30
0.0
 11
-36.552185
 21
68.02600799999999
 31
0.0
  0
LINE
  5
2DF
330
36
100
AcDbEntity
  8
0
100
AcDbLine
 10
-37.05218499999999
 20
68.02600799999999
 30
0.0
 11
-38.052185
 21
68.02600799999999
 31
0.0
  0
LINE
  5
2E0
330
36
100
AcDbEntity
  8
0
100
AcDbLine
 10
-38.55218499999999
 20
68.02600799999999
 30
0.0
 11
-39.55218499999999
 21
68.02600799999999
 31
0.0
  0
LINE
  5
2E1
330
36
100
AcDbEntity
  8
0
100
AcDbLine
 10
-34.052185
 20
68.02600799999999
 30
0.0
 11
-34.052185
 21
72.02600799999998
 31
0.0
  0
LINE
  5
2E2
330
36
100
AcDbEntity
  8
0
100
AcDbLine
 10
-35.552185
 20
68.02600799999999
 30
0.0
 11
-35.552185
 21
72.02600799999998
 31
0.0
  0
LINE
  5
2E3
330
36
100
AcDbEntity
  8
0
100
AcDbLine
 10
-37.05218499999999
 20
68.02600799999999
 30
0.0
 11
-37.05218499999999
 21
72.02600799999998
 31
0.0
  0
LINE
  5
2E4
330
36
100
AcDbEntity
  8
0
100
AcDbLine
 10
-38.55218499999999
 20
68.02600799999999
 30
0.0
 11
-38.55218499999999
 21
72.02600799999998
 31
0.0
  0
LINE
  5
2E5
330
36
100
AcDbEntity
  8
0
100
AcDbLine
 10
-32.552185
 20
68.02600799999999
 30
0.0
 11
-32.552185
 21
72.02600799999998
 31
0.0
  0
LINE
  5
2E6
330
36
100
AcDbEntity
  8
0
100
AcDbLine
 10
-32.05218499999999
 20
68.02600799999999
 30
0.0
 11
-32.05218499999999
 21
72.02600799999998
 31
0.0
  0
LINE
  5
2E7
330
36
100
AcDbEntity
  8
0
100
AcDbLine
 10
-30.552185
 20
68.02600799999999
 30
0.0
 11
-30.552185
 21
72.02600799999998
 31
0.0
  0
LINE
  5
2E8
330
36
100
AcDbEntity
  8
0
100
AcDbLine
 10
-29.052185
 20
68.02600799999999
 30
0.0
 11
-29.052185
 21
72.02600799999998
 31
0.0
  0
LINE
  5
2E9
330
36
100
AcDbEntity
  8
0
100
AcDbLine
 10
-27.552185
 20
68.02600799999999
 30
0.0
 11
-27.552185
 21
72.02600799999998
 31
0.0
  0
LINE
  5
2EA
330
36
100
AcDbEntity
  8
0
100
AcDbLine
 10
-26.552185
 20
72.02600799999998
 30
0.0
 11
-27.552185
 21
72.02600799999998
 31
0.0
  0
LINE
  5
2EB
330
36
100
AcDbEntity
  8
0
100
AcDbLine
 10
-28.052185
 20
72.02600799999998
 30
0.0
 11
-29.052185
 21
72.02600799999998
 31
0.0
  0
LINE
  5
2EC
330
36
100
AcDbEntity
  8
0
100
AcDbLine
 10
-29.552185
 20
72.02600799999998
 30
0.0
 11
-30.552185
 21
72.02600799999998
 31
0.0
  0
LINE
  5
2ED
330
36
100
AcDbEntity
  8
0
100
AcDbLine
 10
-26.552185
 20
68.02600799999999
 30
0.0
 11
-27.552185
 21
68.02600799999999
 31
0.0
  0
LINE
  5
2EE
330
36
100
AcDbEntity
  8
0
100
AcDbLine
 10
-28.052185
 20
68.02600799999999
 30
0.0
 11
-29.052185
 21
68.02600799999999
 31
0.0
  0
LINE
  5
2EF
330
36
100
AcDbEntity
  8
0
100
AcDbLine
 10
-29.552185
 20
68.02600799999999
 30
0.0
 11
-30.552185
 21
68.02600799999999
 31
0.0
  0
LINE
  5
2F0
330
36
100
AcDbEntity
  8
0
100
AcDbLine
 10
-24.552185
 20
68.02600799999999
 30
0.0
 11
-24.552185
 21
72.02600799999998
 31
0.0
  0
LINE
  5
2F1
330
36
100
AcDbEntity
  8
0
100
AcDbLine
 10
-26.052185
 20
68.02600799999999
 30
0.0
 11
-26.052185
 21
72.02600799999998
 31
0.0
  0
LINE
  5
2F2
330
36
100
AcDbEntity
  8
0
100
AcDbLine
 10
-26.052185
 20
72.02600799999998
 30
0.0
 11
-25.052185
 21
72.02600799999998
 31
0.0
  0
LINE
  5
2F3
330
36
100
AcDbEntity
  8
0
100
AcDbLine
 10
-24.552185
 20
72.02600799999998
 30
0.0
 11
-23.552185
 21
72.02600799999998
 31
0.0
  0
LINE
  5
2F4
330
36
100
AcDbEntity
  8
0
100
AcDbLine
 10
-26.052185
 20
68.02600799999999
 30
0.0
 11
-25.052185
 21
68.02600799999999
 31
0.0
  0
LINE
  5
2F5
330
36
100
AcDbEntity
  8
0
100
AcDbLine
 10
-24.552185
 20
68.02600799999999
 30
0.0
 11
-23.552185
 21
68.02600799999999
 31
0.0
  0
LINE
  5
2F6
330
36
100
AcDbEntity
  8
0
100
AcDbLine
 10
-25.052185
 20
68.02600799999999
 30
0.0
 11
-25.052185
 21
72.02600799999998
 31
0.0
  0
LINE
  5
2F7
330
36
100
AcDbEntity
  8
0
100
AcDbLine
 10
-26.552185
 20
68.02600799999999
 30
0.0
 11
-26.552185
 21
72.02600799999998
 31
0.0
  0
LINE
  5
2F8
330
36
100
AcDbEntity
  8
0
100
AcDbLine
 10
-28.052185
 20
68.02600799999999
 30
0.0
 11
-28.052185
 21
72.02600799999998
 31
0.0
  0
LINE
  5
2F9
330
36
100
AcDbEntity
  8
0
100
AcDbLine
 10
-29.552185
 20
68.02600799999999
 30
0.0
 11
-29.552185
 21
72.02600799999998
 31
0.0
  0
LINE
  5
2FA
330
36
100
AcDbEntity
  8
0
100
AcDbLine
 10
-31.052185
 20
72.02600799999998
 30
0.0
 11
-32.05218499999999
 21
72.02600799999998
 31
0.0
  0
LINE
  5
2FB
330
36
100
AcDbEntity
  8
0
100
AcDbLine
 10
-31.052185
 20
68.02600799999999
 30
0.0
 11
-31.052185
 21
72.02600799999998
 31
0.0
  0
LINE
  5
2FC
330
36
100
AcDbEntity
  8
0
100
AcDbLine
 10
-31.052185
 20
68.02600799999999
 30
0.0
 11
-32.05218499999999
 21
68.02600799999999
 31
0.0
  0
LINE
  5
2FD
330
36
100
AcDbEntity
  8
0
100
AcDbLine
 10
-23.552185
 20
68.02600799999999
 30
0.0
 11
-23.552185
 21
72.02600799999998
 31
0.0
  0
LINE
  5
2FE
330
36
100
AcDbEntity
  8
0
100
AcDbLine
 10
-23.052185
 20
68.02600799999999
 30
0.0
 11
-22.052185
 21
68.02600799999999
 31
0.0
  0
LINE
  5
2FF
330
36
100
AcDbEntity
  8
0
100
AcDbLine
 10
-22.052185
 20
71.26347599999999
 30
0.0
 11
-22.052185
 21
68.02600799999999
 31
0.0
  0
LINE
  5
300
330
36
100
AcDbEntity
  8
0
100
AcDbLine
 10
-23.052185
 20
68.02600799999999
 30
0.0
 11
-23.052185
 21
72.02600799999998
 31
0.0
  0
LINE
  5
301
330
36
100
AcDbEntity
  8
0
100
AcDbLine
 10
-22.68971
 20
72.02600799999998
 30
0.0
 11
-23.052185
 21
72.02600799999998
 31
0.0
  0
LINE
  5
302
330
36
100
AcDbEntity
  8
0
100
AcDbLine
 10
-76.05218499999998
 20
68.02600799999999
 30
0.0
 11
-76.05218499999998
 21
72.02600799999998
 31
0.0
  0
LINE
  5
303
330
36
100
AcDbEntity
  8
0
100
AcDbLine
 10
-77.05218499999998
 20
68.02600799999999
 30
0.0
 11
-77.05218499999998
 21
72.02600799999998
 31
0.0
  0
LINE
  5
304
330
36
100
AcDbEntity
  8
0
100
AcDbLine
 10
-77.55218499999998
 20
68.02600799999999
 30
0.0
 11
-77.55218499999998
 21
72.02600799999998
 31
0.0
  0
LINE
  5
305
330
36
100
AcDbEntity
  8
0
100
AcDbLine
 10
-78.55218499999998
 20
68.02600799999999
 30
0.0
 11
-78.55218499999998
 21
72.02600799999998
 31
0.0
  0
LINE
  5
306
330
36
100
AcDbEntity
  8
0
100
AcDbLine
 10
-79.052185
 20
68.02600799999999
 30
0.0
 11
-79.052185
 21
72.02600799999998
 31
0.0
  0
LINE
  5
307
330
36
100
AcDbEntity
  8
0
100
AcDbLine
 10
-80.05218499999998
 20
68.02600799999999
 30
0.0
 11
-80.05218499999998
 21
72.02600799999998
 31
0.0
  0
LINE
  5
308
330
36
100
AcDbEntity
  8
0
100
AcDbLine
 10
-80.552185
 20
68.02600799999999
 30
0.0
 11
-80.552185
 21
72.02600799999998
 31
0.0
  0
LINE
  5
309
330
36
100
AcDbEntity
  8
0
100
AcDbLine
 10
-81.552185
 20
68.02600799999999
 30
0.0
 11
-81.552185
 21
72.02600799999998
 31
0.0
  0
LINE
  5
30A
330
36
100
AcDbEntity
  8
0
100
AcDbLine
 10
-82.05218499999999
 20
68.02600799999999
 30
0.0
 11
-82.05218499999999
 21
72.02600799999998
 31
0.0
  0
LINE
  5
30B
330
36
100
AcDbEntity
  8
0
100
AcDbLine
 10
-83.052185
 20
68.02600799999999
 30
0.0
 11
-83.052185
 21
72.02600799999998
 31
0.0
  0
LINE
  5
30C
330
36
100
AcDbEntity
  8
0
100
AcDbLine
 10
-83.55218499999997
 20
68.02600799999999
 30
0.0
 11
-83.55218499999997
 21
72.02600799999998
 31
0.0
  0
LINE
  5
30D
330
36
100
AcDbEntity
  8
0
100
AcDbLine
 10
-84.55218499999999
 20
68.02600799999999
 30
0.0
 11
-84.55218499999999
 21
72.02600799999998
 31
0.0
  0
LINE
  5
30E
330
36
100
AcDbEntity
  8
0
100
AcDbLine
 10
-85.05218499999998
 20
68.02600799999999
 30
0.0
 11
-85.05218499999998
 21
72.02600799999998
 31
0.0
  0
LINE
  5
30F
330
36
100
AcDbEntity
  8
0
100
AcDbLine
 10
-86.05218499999997
 20
68.02600799999999
 30
0.0
 11
-86.05218499999997
 21
72.02600799999998
 31
0.0
  0
LINE
  5
310
330
36
100
AcDbEntity
  8
0
100
AcDbLine
 10
-86.552185
 20
68.02600799999999
 30
0.0
 11
-86.552185
 21
72.02600799999998
 31
0.0
  0
LINE
  5
311
330
36
100
AcDbEntity
  8
0
100
AcDbLine
 10
-86.05218499999997
 20
72.02600799999998
 30
0.0
 11
-85.05218499999998
 21
72.02600799999998
 31
0.0
  0
LINE
  5
312
330
36
100
AcDbEntity
  8
0
100
AcDbLine
 10
-84.55218499999999
 20
72.02600799999998
 30
0.0
 11
-83.55218499999997
 21
72.02600799999998
 31
0.0
  0
LINE
  5
313
330
36
100
AcDbEntity
  8
0
100
AcDbLine
 10
-83.052185
 20
72.02600799999998
 30
0.0
 11
-82.05218499999999
 21
72.02600799999998
 31
0.0
  0
LINE
  5
314
330
36
100
AcDbEntity
  8
0
100
AcDbLine
 10
-81.552185
 20
72.02600799999998
 30
0.0
 11
-80.552185
 21
72.02600799999998
 31
0.0
  0
LINE
  5
315
330
36
100
AcDbEntity
  8
0
100
AcDbLine
 10
-80.05218499999998
 20
72.02600799999998
 30
0.0
 11
-79.052185
 21
72.02600799999998
 31
0.0
  0
LINE
  5
316
330
36
100
AcDbEntity
  8
0
100
AcDbLine
 10
-78.55218499999998
 20
72.02600799999998
 30
0.0
 11
-77.55218499999998
 21
72.02600799999998
 31
0.0
  0
LINE
  5
317
330
36
100
AcDbEntity
  8
0
100
AcDbLine
 10
-77.05218499999998
 20
72.02600799999998
 30
0.0
 11
-76.05218499999998
 21
72.02600799999998
 31
0.0
  0
LINE
  5
318
330
36
100
AcDbEntity
  8
0
100
AcDbLine
 10
-86.05218499999997
 20
68.02600799999999
 30
0.0
 11
-85.05218499999998
 21
68.02600799999999
 31
0.0
  0
LINE
  5
319
330
36
100
AcDbEntity
  8
0
100
AcDbLine
 10
-84.55218499999999
 20
68.02600799999999
 30
0.0
 11
-83.55218499999997
 21
68.02600799999999
 31
0.0
  0
LINE
  5
31A
330
36
100
AcDbEntity
  8
0
100
AcDbLine
 10
-83.052185
 20
68.02600799999999
 30
0.0
 11
-82.05218499999999
 21
68.02600799999999
 31
0.0
  0
LINE
  5
31B
330
36
100
AcDbEntity
  8
0
100
AcDbLine
 10
-81.552185
 20
68.02600799999999
 30
0.0
 11
-80.552185
 21
68.02600799999999
 31
0.0
  0
LINE
  5
31C
330
36
100
AcDbEntity
  8
0
100
AcDbLine
 10
-80.05218499999998
 20
68.02600799999999
 30
0.0
 11
-79.052185
 21
68.02600799999999
 31
0.0
  0
LINE
  5
31D
330
36
100
AcDbEntity
  8
0
100
AcDbLine
 10
-78.55218499999998
 20
68.02600799999999
 30
0.0
 11
-77.55218499999998
 21
68.02600799999999
 31
0.0
  0
LINE
  5
31E
330
36
100
AcDbEntity
  8
0
100
AcDbLine
 10
-77.05218499999998
 20
68.02600799999999
 30
0.0
 11
-76.05218499999998
 21
68.02600799999999
 31
0.0
  0
LINE
  5
31F
330
36
100
AcDbEntity
  8
0
100
AcDbLine
 10
-75.55218499999998
 20
68.02600799999999
 30
0.0
 11
-75.55218499999998
 21
72.02600799999998
 31
0.0
  0
LINE
  5
320
330
36
100
AcDbEntity
  8
0
100
AcDbLine
 10
-74.55218499999998
 20
68.02600799999999
 30
0.0
 11
-74.55218499999998
 21
72.02600799999998
 31
0.0
  0
LINE
  5
321
330
36
100
AcDbEntity
  8
0
100
AcDbLine
 10
-74.052185
 20
68.02600799999999
 30
0.0
 11
-74.052185
 21
72.02600799999998
 31
0.0
  0
LINE
  5
322
330
36
100
AcDbEntity
  8
0
100
AcDbLine
 10
-73.05218499999998
 20
68.02600799999999
 30
0.0
 11
-73.05218499999998
 21
72.02600799999998
 31
0.0
  0
LINE
  5
323
330
36
100
AcDbEntity
  8
0
100
AcDbLine
 10
-73.05218499999998
 20
72.02600799999998
 30
0.0
 11
-74.052185
 21
72.02600799999998
 31
0.0
  0
LINE
  5
324
330
36
100
AcDbEntity
  8
0
100
AcDbLine
 10
-74.55218499999998
 20
72.02600799999998
 30
0.0
 11
-75.55218499999998
 21
72.02600799999998
 31
0.0
  0
LINE
  5
325
330
36
100
AcDbEntity
  8
0
100
AcDbLine
 10
-73.05218499999998
 20
68.02600799999999
 30
0.0
 11
-74.052185
 21
68.02600799999999
 31
0.0
  0
LINE
  5
326
330
36
100
AcDbEntity
  8
0
100
AcDbLine
 10
-74.55218499999998
 20
68.02600799999999
 30
0.0
 11
-75.55218499999998
 21
68.02600799999999
 31
0.0
  0
LINE
  5
327
330
36
100
AcDbEntity
  8
0
100
AcDbLine
 10
-88.052185
 20
68.02600799999999
 30
0.0
 11
-88.052185
 21
72.02600799999998
 31
0.0
  0
LINE
  5
328
330
36
100
AcDbEntity
  8
0
100
AcDbLine
 10
-89.052185
 20
68.02600799999999
 30
0.0
 11
-89.052185
 21
72.02600799999998
 31
0.0
  0
LINE
  5
329
330
36
100
AcDbEntity
  8
0
100
AcDbLine
 10
-89.55218499999999
 20
68.02600799999999
 30
0.0
 11
-89.55218499999999
 21
72.02600799999998
 31
0.0
  0
LINE
  5
32A
330
36
100
AcDbEntity
  8
0
100
AcDbLine
 10
-90.552185
 20
68.02600799999999
 30
0.0
 11
-90.552185
 21
72.02600799999998
 31
0.0
  0
LINE
  5
32B
330
36
100
AcDbEntity
  8
0
100
AcDbLine
 10
-91.05218499999999
 20
68.02600799999999
 30
0.0
 11
-91.05218499999999
 21
72.02600799999998
 31
0.0
  0
LINE
  5
32C
330
36
100
AcDbEntity
  8
0
100
AcDbLine
 10
-92.05218499999999
 20
68.02600799999999
 30
0.0
 11
-92.05218499999999
 21
72.02600799999998
 31
0.0
  0
LINE
  5
32D
330
36
100
AcDbEntity
  8
0
100
AcDbLine
 10
-92.05218499999999
 20
72.02600799999998
 30
0.0
 11
-91.05218499999999
 21
72.02600799999998
 31
0.0
  0
LINE
  5
32E
330
36
100
AcDbEntity
  8
0
100
AcDbLine
 10
-90.552185
 20
72.02600799999998
 30
0.0
 11
-89.55218499999999
 21
72.02600799999998
 31
0.0
  0
LINE
  5
32F
330
36
100
AcDbEntity
  8
0
100
AcDbLine
 10
-89.052185
 20
72.02600799999998
 30
0.0
 11
-88.052185
 21
72.02600799999998
 31
0.0
  0
LINE
  5
330
330
36
100
AcDbEntity
  8
0
100
AcDbLine
 10
-92.05218499999999
 20
68.02600799999999
 30
0.0
 11
-91.05218499999999
 21
68.02600799999999
 31
0.0
  0
LINE
  5
331
330
36
100
AcDbEntity
  8
0
100
AcDbLine
 10
-90.552185
 20
68.02600799999999
 30
0.0
 11
-89.55218499999999
 21
68.02600799999999
 31
0.0
  0
LINE
  5
332
330
36
100
AcDbEntity
  8
0
100
AcDbLine
 10
-89.052185
 20
68.02600799999999
 30
0.0
 11
-88.052185
 21
68.02600799999999
 31
0.0
  0
LINE
  5
333
330
36
100
AcDbEntity
  8
0
100
AcDbLine
 10
-106.052185
 20
68.02600799999999
 30
0.0
 11
-106.052185
 21
72.02600799999998
 31
0.0
  0
LINE
  5
334
330
36
100
AcDbEntity
  8
0
100
AcDbLine
 10
-105.552185
 20
68.02600799999999
 30
0.0
 11
-105.552185
 21
72.02600799999998
 31
0.0
  0
LINE
  5
335
330
36
100
AcDbEntity
  8
0
100
AcDbLine
 10
-104.552185
 20
68.02600799999999
 30
0.0
 11
-104.552185
 21
72.02600799999998
 31
0.0
  0
LINE
  5
336
330
36
100
AcDbEntity
  8
0
100
AcDbLine
 10
-104.052185
 20
68.02600799999999
 30
0.0
 11
-104.052185
 21
72.02600799999998
 31
0.0
  0
LINE
  5
337
330
36
100
AcDbEntity
  8
0
100
AcDbLine
 10
-103.052185
 20
68.02600799999999
 30
0.0
 11
-103.052185
 21
72.02600799999998
 31
0.0
  0
LINE
  5
338
330
36
100
AcDbEntity
  8
0
100
AcDbLine
 10
-102.552185
 20
68.02600799999999
 30
0.0
 11
-102.552185
 21
72.02600799999998
 31
0.0
  0
LINE
  5
339
330
36
100
AcDbEntity
  8
0
100
AcDbLine
 10
-101.552185
 20
68.02600799999999
 30
0.0
 11
-101.552185
 21
72.02600799999998
 31
0.0
  0
LINE
  5
33A
330
36
100
AcDbEntity
  8
0
100
AcDbLine
 10
-101.052185
 20
68.02600799999999
 30
0.0
 11
-101.052185
 21
72.02600799999998
 31
0.0
  0
LINE
  5
33B
330
36
100
AcDbEntity
  8
0
100
AcDbLine
 10
-100.052185
 20
68.02600799999999
 30
0.0
 11
-100.052185
 21
72.02600799999998
 31
0.0
  0
LINE
  5
33C
330
36
100
AcDbEntity
  8
0
100
AcDbLine
 10
-99.552185
 20
68.02600799999999
 30
0.0
 11
-99.552185
 21
72.02600799999998
 31
0.0
  0
LINE
  5
33D
330
36
100
AcDbEntity
  8
0
100
AcDbLine
 10
-98.55218499999999
 20
68.02600799999999
 30
0.0
 11
-98.55218499999999
 21
72.02600799999998
 31
0.0
  0
LINE
  5
33E
330
36
100
AcDbEntity
  8
0
100
AcDbLine
 10
-98.052185
 20
68.02600799999999
 30
0.0
 11
-98.052185
 21
72.02600799999998
 31
0.0
  0
LINE
  5
33F
330
36
100
AcDbEntity
  8
0
100
AcDbLine
 10
-97.052185
 20
68.02600799999999
 30
0.0
 11
-97.052185
 21
72.02600799999998
 31
0.0
  0
LINE
  5
340
330
36
100
AcDbEntity
  8
0
100
AcDbLine
 10
-96.552185
 20
68.02600799999999
 30
0.0
 11
-96.552185
 21
72.02600799999998
 31
0.0
  0
LINE
  5
341
330
36
100
AcDbEntity
  8
0
100
AcDbLine
 10
-95.552185
 20
68.02600799999999
 30
0.0
 11
-95.552185
 21
72.02600799999998
 31
0.0
  0
LINE
  5
342
330
36
100
AcDbEntity
  8
0
100
AcDbLine
 10
-95.05218499999999
 20
68.02600799999999
 30
0.0
 11
-95.05218499999999
 21
72.02600799999998
 31
0.0
  0
LINE
  5
343
330
36
100
AcDbEntity
  8
0
100
AcDbLine
 10
-94.052185
 20
68.02600799999999
 30
0.0
 11
-94.052185
 21
72.02600799999998
 31
0.0
  0
LINE
  5
344
330
36
100
AcDbEntity
  8
0
100
AcDbLine
 10
-93.55218499999999
 20
68.02600799999999
 30
0.0
 11
-93.55218499999999
 21
72.02600799999998
 31
0.0
  0
LINE
  5
345
330
36
100
AcDbEntity
  8
0
100
AcDbLine
 10
-92.55218499999999
 20
68.02600799999999
 30
0.0
 11
-92.55218499999999
 21
72.02600799999998
 31
0.0
  0
LINE
  5
346
330
36
100
AcDbEntity
  8
0
100
AcDbLine
 10
-92.55218499999999
 20
72.02600799999998
 30
0.0
 11
-93.55218499999999
 21
72.02600799999998
 31
0.0
  0
LINE
  5
347
330
36
100
AcDbEntity
  8
0
100
AcDbLine
 10
-94.052185
 20
72.02600799999998
 30
0.0
 11
-95.05218499999999
 21
72.02600799999998
 31
0.0
  0
LINE
  5
348
330
36
100
AcDbEntity
  8
0
100
AcDbLine
 10
-95.552185
 20
72.02600799999998
 30
0.0
 11
-96.552185
 21
72.02600799999998
 31
0.0
  0
LINE
  5
349
330
36
100
AcDbEntity
  8
0
100
AcDbLine
 10
-97.052185
 20
72.02600799999998
 30
0.0
 11
-98.052185
 21
72.02600799999998
 31
0.0
  0
LINE
  5
34A
330
36
100
AcDbEntity
  8
0
100
AcDbLine
 10
-98.55218499999999
 20
72.02600799999998
 30
0.0
 11
-99.552185
 21
72.02600799999998
 31
0.0
  0
LINE
  5
34B
330
36
100
AcDbEntity
  8
0
100
AcDbLine
 10
-100.052185
 20
72.02600799999998
 30
0.0
 11
-101.052185
 21
72.02600799999998
 31
0.0
  0
LINE
  5
34C
330
36
100
AcDbEntity
  8
0
100
AcDbLine
 10
-101.552185
 20
72.02600799999998
 30
0.0
 11
-102.552185
 21
72.02600799999998
 31
0.0
  0
LINE
  5
34D
330
36
100
AcDbEntity
  8
0
100
AcDbLine
 10
-103.052185
 20
72.02600799999998
 30
0.0
 11
-104.052185
 21
72.02600799999998
 31
0.0
  0
LINE
  5
34E
330
36
100
AcDbEntity
  8
0
100
AcDbLine
 10
-104.552185
 20
72.02600799999998
 30
0.0
 11
-105.552185
 21
72.02600799999998
 31
0.0
  0
LINE
  5
34F
330
36
100
AcDbEntity
  8
0
100
AcDbLine
 10
-92.55218499999999
 20
68.02600799999999
 30
0.0
 11
-93.55218499999999
 21
68.02600799999999
 31
0.0
  0
LINE
  5
350
330
36
100
AcDbEntity
  8
0
100
AcDbLine
 10
-94.052185
 20
68.02600799999999
 30
0.0
 11
-95.05218499999999
 21
68.02600799999999
 31
0.0
  0
LINE
  5
351
330
36
100
AcDbEntity
  8
0
100
AcDbLine
 10
-95.552185
 20
68.02600799999999
 30
0.0
 11
-96.552185
 21
68.02600799999999
 31
0.0
  0
LINE
  5
352
330
36
100
AcDbEntity
  8
0
100
AcDbLine
 10
-97.052185
 20
68.02600799999999
 30
0.0
 11
-98.052185
 21
68.02600799999999
 31
0.0
  0
LINE
  5
353
330
36
100
AcDbEntity
  8
0
100
AcDbLine
 10
-98.55218499999999
 20
68.02600799999999
 30
0.0
 11
-99.552185
 21
68.02600799999999
 31
0.0
  0
LINE
  5
354
330
36
100
AcDbEntity
  8
0
100
AcDbLine
 10
-100.052185
 20
68.02600799999999
 30
0.0
 11
-101.052185
 21
68.02600799999999
 31
0.0
  0
LINE
  5
355
330
36
100
AcDbEntity
  8
0
100
AcDbLine
 10
-101.552185
 20
68.02600799999999
 30
0.0
 11
-102.552185
 21
68.02600799999999
 31
0.0
  0
LINE
  5
356
330
36
100
AcDbEntity
  8
0
100
AcDbLine
 10
-103.052185
 20
68.02600799999999
 30
0.0
 11
-104.052185
 21
68.02600799999999
 31
0.0
  0
LINE
  5
357
330
36
100
AcDbEntity
  8
0
100
AcDbLine
 10
-104.552185
 20
68.02600799999999
 30
0.0
 11
-105.552185
 21
68.02600799999999
 31
0.0
  0
LINE
  5
358
330
36
100
AcDbEntity
  8
0
100
AcDbLine
 10
-87.55218499999998
 20
68.02600799999999
 30
0.0
 11
-87.55218499999998
 21
72.02600799999998
 31
0.0
  0
LINE
  5
359
330
36
100
AcDbEntity
  8
0
100
AcDbLine
 10
-87.55218499999998
 20
72.02600799999998
 30
0.0
 11
-86.552185
 21
72.02600799999998
 31
0.0
  0
LINE
  5
35A
330
36
100
AcDbEntity
  8
0
100
AcDbLine
 10
-87.55218499999998
 20
68.02600799999999
 30
0.0
 11
-86.552185
 21
68.02600799999999
 31
0.0
  0
LINE
  5
35B
330
36
100
AcDbEntity
  8
0
100
AcDbLine
 10
-130.052185
 20
68.02600799999999
 30
0.0
 11
-130.052185
 21
72.02600799999998
 31
0.0
  0
LINE
  5
35C
330
36
100
AcDbEntity
  8
0
100
AcDbLine
 10
-129.552185
 20
68.02600799999999
 30
0.0
 11
-129.552185
 21
72.02600799999998
 31
0.0
  0
LINE
  5
35D
330
36
100
AcDbEntity
  8
0
100
AcDbLine
 10
-128.552185
 20
68.02600799999999
 30
0.0
 11
-128.552185
 21
72.02600799999998
 31
0.0
  0
LINE
  5
35E
330
36
100
AcDbEntity
  8
0
100
AcDbLine
 10
-128.052185
 20
68.02600799999999
 30
0.0
 11
-128.052185
 21
72.02600799999998
 31
0.0
  0
LINE
  5
35F
330
36
100
AcDbEntity
  8
0
100
AcDbLine
 10
-127.052185
 20
68.02600799999999
 30
0.0
 11
-127.052185
 21
72.02600799999998
 31
0.0
  0
LINE
  5
360
330
36
100
AcDbEntity
  8
0
100
AcDbLine
 10
-126.552185
 20
68.02600799999999
 30
0.0
 11
-126.552185
 21
72.02600799999998
 31
0.0
  0
LINE
  5
361
330
36
100
AcDbEntity
  8
0
100
AcDbLine
 10
-125.552185
 20
68.02600799999999
 30
0.0
 11
-125.552185
 21
72.02600799999998
 31
0.0
  0
LINE
  5
362
330
36
100
AcDbEntity
  8
0
100
AcDbLine
 10
-125.552185
 20
72.02600799999998
 30
0.0
 11
-126.552185
 21
72.02600799999998
 31
0.0
  0
LINE
  5
363
330
36
100
AcDbEntity
  8
0
100
AcDbLine
 10
-127.052185
 20
72.02600799999998
 30
0.0
 11
-128.052185
 21
72.02600799999998
 31
0.0
  0
LINE
  5
364
330
36
100
AcDbEntity
  8
0
100
AcDbLine
 10
-128.552185
 20
72.02600799999998
 30
0.0
 11
-129.552185
 21
72.02600799999998
 31
0.0
  0
LINE
  5
365
330
36
100
AcDbEntity
  8
0
100
AcDbLine
 10
-125.552185
 20
68.02600799999999
 30
0.0
 11
-126.552185
 21
68.02600799999999
 31
0.0
  0
LINE
  5
366
330
36
100
AcDbEntity
  8
0
100
AcDbLine
 10
-127.052185
 20
68.02600799999999
 30
0.0
 11
-128.052185
 21
68.02600799999999
 31
0.0
  0
LINE
  5
367
330
36
100
AcDbEntity
  8
0
100
AcDbLine
 10
-128.552185
 20
68.02600799999999
 30
0.0
 11
-129.552185
 21
68.02600799999999
 31
0.0
  0
LINE
  5
368
330
36
100
AcDbEntity
  8
0
100
AcDbLine
 10
-109.052185
 20
68.02600799999999
 30
0.0
 11
-109.052185
 21
72.02600799999998
 31
0.0
  0
LINE
  5
369
330
36
100
AcDbEntity
  8
0
100
AcDbLine
 10
-110.052185
 20
68.02600799999999
 30
0.0
 11
-110.052185
 21
72.02600799999998
 31
0.0
  0
LINE
  5
36A
330
36
100
AcDbEntity
  8
0
100
AcDbLine
 10
-110.552185
 20
68.02600799999999
 30
0.0
 11
-110.552185
 21
72.02600799999998
 31
0.0
  0
LINE
  5
36B
330
36
100
AcDbEntity
  8
0
100
AcDbLine
 10
-111.552185
 20
68.02600799999999
 30
0.0
 11
-111.552185
 21
72.02600799999998
 31
0.0
  0
LINE
  5
36C
330
36
100
AcDbEntity
  8
0
100
AcDbLine
 10
-112.052185
 20
68.02600799999999
 30
0.0
 11
-112.052185
 21
72.02600799999998
 31
0.0
  0
LINE
  5
36D
330
36
100
AcDbEntity
  8
0
100
AcDbLine
 10
-113.052185
 20
68.02600799999999
 30
0.0
 11
-113.052185
 21
72.02600799999998
 31
0.0
  0
LINE
  5
36E
330
36
100
AcDbEntity
  8
0
100
AcDbLine
 10
-113.552185
 20
68.02600799999999
 30
0.0
 11
-113.552185
 21
72.02600799999998
 31
0.0
  0
LINE
  5
36F
330
36
100
AcDbEntity
  8
0
100
AcDbLine
 10
-114.552185
 20
68.02600799999999
 30
0.0
 11
-114.552185
 21
72.02600799999998
 31
0.0
  0
LINE
  5
370
330
36
100
AcDbEntity
  8
0
100
AcDbLine
 10
-115.052185
 20
68.02600799999999
 30
0.0
 11
-115.052185
 21
72.02600799999998
 31
0.0
  0
LINE
  5
371
330
36
100
AcDbEntity
  8
0
100
AcDbLine
 10
-116.052185
 20
68.02600799999999
 30
0.0
 11
-116.052185
 21
72.02600799999998
 31
0.0
  0
LINE
  5
372
330
36
100
AcDbEntity
  8
0
100
AcDbLine
 10
-116.552185
 20
68.02600799999999
 30
0.0
 11
-116.552185
 21
72.02600799999998
 31
0.0
  0
LINE
  5
373
330
36
100
AcDbEntity
  8
0
100
AcDbLine
 10
-117.552185
 20
68.02600799999999
 30
0.0
 11
-117.552185
 21
72.02600799999998
 31
0.0
  0
LINE
  5
374
330
36
100
AcDbEntity
  8
0
100
AcDbLine
 10
-118.052185
 20
68.02600799999999
 30
0.0
 11
-118.052185
 21
72.02600799999998
 31
0.0
  0
LINE
  5
375
330
36
100
AcDbEntity
  8
0
100
AcDbLine
 10
-119.052185
 20
68.02600799999999
 30
0.0
 11
-119.052185
 21
72.02600799999998
 31
0.0
  0
LINE
  5
376
330
36
100
AcDbEntity
  8
0
100
AcDbLine
 10
-119.552185
 20
68.02600799999999
 30
0.0
 11
-119.552185
 21
72.02600799999998
 31
0.0
  0
LINE
  5
377
330
36
100
AcDbEntity
  8
0
100
AcDbLine
 10
-120.552185
 20
68.02600799999999
 30
0.0
 11
-120.552185
 21
72.02600799999998
 31
0.0
  0
LINE
  5
378
330
36
100
AcDbEntity
  8
0
100
AcDbLine
 10
-121.052185
 20
68.02600799999999
 30
0.0
 11
-121.052185
 21
72.02600799999998
 31
0.0
  0
LINE
  5
379
330
36
100
AcDbEntity
  8
0
100
AcDbLine
 10
-122.052185
 20
68.02600799999999
 30
0.0
 11
-122.052185
 21
72.02600799999998
 31
0.0
  0
LINE
  5
37A
330
36
100
AcDbEntity
  8
0
100
AcDbLine
 10
-122.552185
 20
68.02600799999999
 30
0.0
 11
-122.552185
 21
72.02600799999998
 31
0.0
  0
LINE
  5
37B
330
36
100
AcDbEntity
  8
0
100
AcDbLine
 10
-123.552185
 20
68.02600799999999
 30
0.0
 11
-123.552185
 21
72.02600799999998
 31
0.0
  0
LINE
  5
37C
330
36
100
AcDbEntity
  8
0
100
AcDbLine
 10
-124.052185
 20
68.02600799999999
 30
0.0
 11
-124.052185
 21
72.02600799999998
 31
0.0
  0
LINE
  5
37D
330
36
100
AcDbEntity
  8
0
100
AcDbLine
 10
-125.052185
 20
68.02600799999999
 30
0.0
 11
-125.052185
 21
72.02600799999998
 31
0.0
  0
LINE
  5
37E
330
36
100
AcDbEntity
  8
0
100
AcDbLine
 10
-125.052185
 20
72.02600799999998
 30
0.0
 11
-124.052185
 21
72.02600799999998
 31
0.0
  0
LINE
  5
37F
330
36
100
AcDbEntity
  8
0
100
AcDbLine
 10
-123.552185
 20
72.02600799999998
 30
0.0
 11
-122.552185
 21
72.02600799999998
 31
0.0
  0
LINE
  5
380
330
36
100
AcDbEntity
  8
0
100
AcDbLine
 10
-122.052185
 20
72.02600799999998
 30
0.0
 11
-121.052185
 21
72.02600799999998
 31
0.0
  0
LINE
  5
381
330
36
100
AcDbEntity
  8
0
100
AcDbLine
 10
-120.552185
 20
72.02600799999998
 30
0.0
 11
-119.552185
 21
72.02600799999998
 31
0.0
  0
LINE
  5
382
330
36
100
AcDbEntity
  8
0
100
AcDbLine
 10
-119.052185
 20
72.02600799999998
 30
0.0
 11
-118.052185
 21
72.02600799999998
 31
0.0
  0
LINE
  5
383
330
36
100
AcDbEntity
  8
0
100
AcDbLine
 10
-117.552185
 20
72.02600799999998
 30
0.0
 11
-116.552185
 21
72.02600799999998
 31
0.0
  0
LINE
  5
384
330
36
100
AcDbEntity
  8
0
100
AcDbLine
 10
-116.052185
 20
72.02600799999998
 30
0.0
 11
-115.052185
 21
72.02600799999998
 31
0.0
  0
LINE
  5
385
330
36
100
AcDbEntity
  8
0
100
AcDbLine
 10
-114.552185
 20
72.02600799999998
 30
0.0
 11
-113.552185
 21
72.02600799999998
 31
0.0
  0
LINE
  5
386
330
36
100
AcDbEntity
  8
0
100
AcDbLine
 10
-113.052185
 20
72.02600799999998
 30
0.0
 11
-112.052185
 21
72.02600799999998
 31
0.0
  0
LINE
  5
387
330
36
100
AcDbEntity
  8
0
100
AcDbLine
 10
-111.552185
 20
72.02600799999998
 30
0.0
 11
-110.552185
 21
72.02600799999998
 31
0.0
  0
LINE
  5
388
330
36
100
AcDbEntity
  8
0
100
AcDbLine
 10
-110.052185
 20
72.02600799999998
 30
0.0
 11
-109.052185
 21
72.02600799999998
 31
0.0
  0
LINE
  5
389
330
36
100
AcDbEntity
  8
0
100
AcDbLine
 10
-125.052185
 20
68.02600799999999
 30
0.0
 11
-124.052185
 21
68.02600799999999
 31
0.0
  0
LINE
  5
38A
330
36
100
AcDbEntity
  8
0
100
AcDbLine
 10
-123.552185
 20
68.02600799999999
 30
0.0
 11
-122.552185
 21
68.02600799999999
 31
0.0
  0
LINE
  5
38B
330
36
100
AcDbEntity
  8
0
100
AcDbLine
 10
-122.052185
 20
68.02600799999999
 30
0.0
 11
-121.052185
 21
68.02600799999999
 31
0.0
  0
LINE
  5
38C
330
36
100
AcDbEntity
  8
0
100
AcDbLine
 10
-120.552185
 20
68.02600799999999
 30
0.0
 11
-119.552185
 21
68.02600799999999
 31
0.0
  0
LINE
  5
38D
330
36
100
AcDbEntity
  8
0
100
AcDbLine
 10
-119.052185
 20
68.02600799999999
 30
0.0
 11
-118.052185
 21
68.02600799999999
 31
0.0
  0
LINE
  5
38E
330
36
100
AcDbEntity
  8
0
100
AcDbLine
 10
-117.552185
 20
68.02600799999999
 30
0.0
 11
-116.552185
 21
68.02600799999999
 31
0.0
  0
LINE
  5
38F
330
36
100
AcDbEntity
  8
0
100
AcDbLine
 10
-116.052185
 20
68.02600799999999
 30
0.0
 11
-115.052185
 21
68.02600799999999
 31
0.0
  0
LINE
  5
390
330
36
100
AcDbEntity
  8
0
100
AcDbLine
 10
-114.552185
 20
68.02600799999999
 30
0.0
 11
-113.552185
 21
68.02600799999999
 31
0.0
  0
LINE
  5
391
330
36
100
AcDbEntity
  8
0
100
AcDbLine
 10
-113.052185
 20
68.02600799999999
 30
0.0
 11
-112.052185
 21
68.02600799999999
 31
0.0
  0
LINE
  5
392
330
36
100
AcDbEntity
  8
0
100
AcDbLine
 10
-111.552185
 20
68.02600799999999
 30
0.0
 11
-110.552185
 21
68.02600799999999
 31
0.0
  0
LINE
  5
393
330
36
100
AcDbEntity
  8
0
100
AcDbLine
 10
-110.052185
 20
68.02600799999999
 30
0.0
 11
-109.052185
 21
68.02600799999999
 31
0.0
  0
LINE
  5
394
330
36
100
AcDbEntity
  8
0
100
AcDbLine
 10
-108.552185
 20
68.02600799999999
 30
0.0
 11
-108.552185
 21
72.02600799999998
 31
0.0
  0
LINE
  5
395
330
36
100
AcDbEntity
  8
0
100
AcDbLine
 10
-107.552185
 20
68.02600799999999
 30
0.0
 11
-107.552185
 21
72.02600799999998
 31
0.0
  0
LINE
  5
396
330
36
100
AcDbEntity
  8
0
100
AcDbLine
 10
-107.052185
 20
68.02600799999999
 30
0.0
 11
-107.052185
 21
72.02600799999998
 31
0.0
  0
LINE
  5
397
330
36
100
AcDbEntity
  8
0
100
AcDbLine
 10
-106.052185
 20
72.02600799999998
 30
0.0
 11
-107.052185
 21
72.02600799999998
 31
0.0
  0
LINE
  5
398
330
36
100
AcDbEntity
  8
0
100
AcDbLine
 10
-107.552185
 20
72.02600799999998
 30
0.0
 11
-108.552185
 21
72.02600799999998
 31
0.0
  0
LINE
  5
399
330
36
100
AcDbEntity
  8
0
100
AcDbLine
 10
-106.052185
 20
68.02600799999999
 30
0.0
 11
-107.052185
 21
68.02600799999999
 31
0.0
  0
LINE
  5
39A
330
36
100
AcDbEntity
  8
0
100
AcDbLine
 10
-107.552185
 20
68.02600799999999
 30
0.0
 11
-108.552185
 21
68.02600799999999
 31
0.0
  0
LINE
  5
39B
330
36
100
AcDbEntity
  8
0
100
AcDbLine
 10
-139.052185
 20
68.02600799999999
 30
0.0
 11
-139.052185
 21
72.02600799999998
 31
0.0
  0
LINE
  5
39C
330
36
100
AcDbEntity
  8
0
100
AcDbLine
 10
-138.552185
 20
68.02600799999999
 30
0.0
 11
-138.552185
 21
72.02600799999998
 31
0.0
  0
LINE
  5
39D
330
36
100
AcDbEntity
  8
0
100
AcDbLine
 10
-137.552185
 20
68.02600799999999
 30
0.0
 11
-137.552185
 21
72.02600799999998
 31
0.0
  0
LINE
  5
39E
330
36
100
AcDbEntity
  8
0
100
AcDbLine
 10
-137.052185
 20
68.02600799999999
 30
0.0
 11
-137.052185
 21
72.02600799999998
 31
0.0
  0
LINE
  5
39F
330
36
100
AcDbEntity
  8
0
100
AcDbLine
 10
-136.052185
 20
68.02600799999999
 30
0.0
 11
-136.052185
 21
72.02600799999998
 31
0.0
  0
LINE
  5
3A0
330
36
100
AcDbEntity
  8
0
100
AcDbLine
 10
-135.552185
 20
68.02600799999999
 30
0.0
 11
-135.552185
 21
72.02600799999998
 31
0.0
  0
LINE
  5
3A1
330
36
100
AcDbEntity
  8
0
100
AcDbLine
 10
-134.552185
 20
68.02600799999999
 30
0.0
 11
-134.552185
 21
72.02600799999998
 31
0.0
  0
LINE
  5
3A2
330
36
100
AcDbEntity
  8
0
100
AcDbLine
 10
-134.052185
 20
68.02600799999999
 30
0.0
 11
-134.052185
 21
72.02600799999998
 31
0.0
  0
LINE
  5
3A3
330
36
100
AcDbEntity
  8
0
100
AcDbLine
 10
-133.052185
 20
68.02600799999999
 30
0.0
 11
-133.052185
 21
72.02600799999998
 31
0.0
  0
LINE
  5
3A4
330
36
100
AcDbEntity
  8
0
100
AcDbLine
 10
-132.552185
 20
68.02600799999999
 30
0.0
 11
-132.552185
 21
72.02600799999998
 31
0.0
  0
LINE
  5
3A5
330
36
100
AcDbEntity
  8
0
100
AcDbLine
 10
-131.552185
 20
68.02600799999999
 30
0.0
 11
-131.552185
 21
72.02600799999998
 31
0.0
  0
LINE
  5
3A6
330
36
100
AcDbEntity
  8
0
100
AcDbLine
 10
-131.552185
 20
72.02600799999998
 30
0.0
 11
-132.552185
 21
72.02600799999998
 31
0.0
  0
LINE
  5
3A7
330
36
100
AcDbEntity
  8
0
100
AcDbLine
 10
-133.052185
 20
72.02600799999998
 30
0.0
 11
-134.052185
 21
72.02600799999998
 31
0.0
  0
LINE
  5
3A8
330
36
100
AcDbEntity
  8
0
100
AcDbLine
 10
-134.552185
 20
72.02600799999998
 30
0.0
 11
-135.552185
 21
72.02600799999998
 31
0.0
  0
LINE
  5
3A9
330
36
100
AcDbEntity
  8
0
100
AcDbLine
 10
-136.052185
 20
72.02600799999998
 30
0.0
 11
-137.052185
 21
72.02600799999998
 31
0.0
  0
LINE
  5
3AA
330
36
100
AcDbEntity
  8
0
100
AcDbLine
 10
-137.552185
 20
72.02600799999998
 30
0.0
 11
-138.552185
 21
72.02600799999998
 31
0.0
  0
LINE
  5
3AB
330
36
100
AcDbEntity
  8
0
100
AcDbLine
 10
-139.052185
 20
72.02600799999998
 30
0.0
 11
-140.052185
 21
72.02600799999998
 31
0.0
  0
LINE
  5
3AC
330
36
100
AcDbEntity
  8
0
100
AcDbLine
 10
-131.552185
 20
68.02600799999999
 30
0.0
 11
-132.552185
 21
68.02600799999999
 31
0.0
  0
LINE
  5
3AD
330
36
100
AcDbEntity
  8
0
100
AcDbLine
 10
-133.052185
 20
68.02600799999999
 30
0.0
 11
-134.052185
 21
68.02600799999999
 31
0.0
  0
LINE
  5
3AE
330
36
100
AcDbEntity
  8
0
100
AcDbLine
 10
-134.552185
 20
68.02600799999999
 30
0.0
 11
-135.552185
 21
68.02600799999999
 31
0.0
  0
LINE
  5
3AF
330
36
100
AcDbEntity
  8
0
100
AcDbLine
 10
-136.052185
 20
68.02600799999999
 30
0.0
 11
-137.052185
 21
68.02600799999999
 31
0.0
  0
LINE
  5
3B0
330
36
100
AcDbEntity
  8
0
100
AcDbLine
 10
-137.552185
 20
68.02600799999999
 30
0.0
 11
-138.552185
 21
68.02600799999999
 31
0.0
  0
LINE
  5
3B1
330
36
100
AcDbEntity
  8
0
100
AcDbLine
 10
-139.052185
 20
68.02600799999999
 30
0.0
 11
-140.052185
 21
68.02600799999999
 31
0.0
  0
LINE
  5
3B2
330
36
100
AcDbEntity
  8
0
100
AcDbLine
 10
-131.052185
 20
68.02600799999999
 30
0.0
 11
-131.052185
 21
72.02600799999998
 31
0.0
  0
LINE
  5
3B3
330
36
100
AcDbEntity
  8
0
100
AcDbLine
 10
-130.052185
 20
72.02600799999998
 30
0.0
 11
-131.052185
 21
72.02600799999998
 31
0.0
  0
LINE
  5
3B4
330
36
100
AcDbEntity
  8
0
100
AcDbLine
 10
-130.052185
 20
68.02600799999999
 30
0.0
 11
-131.052185
 21
68.02600799999999
 31
0.0
  0
LINE
  5
3B5
330
36
100
AcDbEntity
  8
0
100
AcDbLine
 10
-140.052185
 20
68.02600799999999
 30
0.0
 11
-140.052185
 21
72.02600799999998
 31
0.0
  0
LINE
  5
3B6
330
36
100
AcDbEntity
  8
0
100
AcDbLine
 10
-104.819306
 20
52.758429
 30
0.0
 11
-90.56930599999999
 21
52.758429
 31
0.0
  0
ARC
  5
3B7
330
36
100
AcDbEntity
  8
0
100
AcDbCircle
 10
-90.56930599999999
 20
52.383429
 30
0.0
 40
0.375
100
AcDbArc
 50
0.0
 51
90.0
  0
LINE
  5
3B8
330
36
100
AcDbEntity
  8
0
100
AcDbLine
 10
-90.19430599999999
 20
48.633429
 30
0.0
 11
-90.19430599999999
 21
52.383429
 31
0.0
  0
ARC
  5
3B9
330
36
100
AcDbEntity
  8
0
100
AcDbCircle
 10
-90.56930599999999
 20
48.633429
 30
0.0
 40
0.375
100
AcDbArc
 50
270.0
 51
0.0
  0
LINE
  5
3BA
330
36
100
AcDbEntity
  8
0
100
AcDbLine
 10
-90.56930599999999
 20
48.258429
 30
0.0
 11
-104.819306
 21
48.258429
 31
0.0
  0
ARC
  5
3BB
330
36
100
AcDbEntity
  8
0
100
AcDbCircle
 10
-104.819306
 20
48.633429
 30
0.0
 40
0.375
100
AcDbArc
 50
180.0
 51
270.0
  0
LINE
  5
3BC
330
36
100
AcDbEntity
  8
0
100
AcDbLine
 10
-105.194306
 20
48.633429
 30
0.0
 11
-105.194306
 21
52.383429
 31
0.0
  0
ARC
  5
3BD
330
36
100
AcDbEntity
  8
0
100
AcDbCircle
 10
-104.819306
 20
52.383429
 30
0.0
 40
0.375
100
AcDbArc
 50
90.0
 51
180.0
  0
CIRCLE
  5
3BE
330
36
100
AcDbEntity
  8
0
100
AcDbCircle
 10
-125.052185
 20
40.026008
 30
0.0
 40
2.0
  0
CIRCLE
  5
3BF
330
36
100
AcDbEntity
  8
0
100
AcDbCircle
 10
-125.052185
 20
10.026008
 30
0.0
 40
2.0
  0
LINE
  5
3C0
330
36
100
AcDbEntity
  8
0
100
AcDbLine
 10
137.997835
 20
15.976068
 30
0.0
 11
136.747835
 21
15.976068
 31
0.0
  0
LINE
  5
3C1
330
36
100
AcDbEntity
  8
0
100
AcDbLine
 10
137.997835
 20
6.476067999999997
 30
0.0
 11
136.747835
 21
6.476067999999997
 31
0.0
  0
LINE
  5
3C2
330
36
100
AcDbEntity
  8
0
 62
     3
100
AcDbLine
 10
94.247835
 20
36.27606800000001
 30
0.0
 11
124.247835
 21
36.27606800000001
 31
0.0
  0
LINE
  5
3C3
330
36
100
AcDbEntity
  8
0
 62
     3
100
AcDbLine
 10
94.247835
 20
42.776068
 30
0.0
 11
124.247835
 21
42.776068
 31
0.0
  0
LINE
  5
3C4
330
36
100
AcDbEntity
  8
0
 62
     3
100
AcDbLine
 10
94.247835
 20
49.276068
 30
0.0
 11
124.247835
 21
49.276068
 31
0.0
  0
LINE
  5
3C5
330
36
100
AcDbEntity
  8
0
 62
     3
100
AcDbLine
 10
94.247835
 20
55.776068
 30
0.0
 11
124.247835
 21
55.776068
 31
0.0
  0
LINE
  5
3C6
330
36
100
AcDbEntity
  8
0
 62
     3
100
AcDbLine
 10
79.247835
 20
55.776068
 30
0.0
 11
49.247835
 21
55.776068
 31
0.0
  0
LINE
  5
3C7
330
36
100
AcDbEntity
  8
0
 62
     3
100
AcDbLine
 10
79.247835
 20
49.276068
 30
0.0
 11
49.247835
 21
49.276068
 31
0.0
  0
LINE
  5
3C8
330
36
100
AcDbEntity
  8
0
 62
     3
100
AcDbLine
 10
79.247835
 20
42.776068
 30
0.0
 11
49.247835
 21
42.776068
 31
0.0
  0
LINE
  5
3C9
330
36
100
AcDbEntity
  8
0
 62
     3
100
AcDbLine
 10
79.247835
 20
36.27606800000001
 30
0.0
 11
49.247835
 21
36.27606800000001
 31
0.0
  0
TEXT
  5
3CA
330
36
100
AcDbEntity
  8
0
100
AcDbText
 10
-111.446286
 20
44.53908199999999
 30
0.0
 40
2.399999999999999
  1
入力　ＡＣ２００Ｖ
 41
0.9602859999999999
100
AcDbText
  0
TEXT
  5
3CB
330
36
100
AcDbEntity
  8
0
100
AcDbText
 10
-111.226548
 20
41.02394499999999
 30
0.0
 40
2.399999999999999
  1
出力　ＡＣ１００Ｖ
 41
0.9523419999999999
100
AcDbText
  0
TEXT
  5
3CC
330
36
100
AcDbEntity
  8
0
100
AcDbText
 10
-103.103791
 20
37.721905
 30
0.0
 40
2.399999999999999
  1
AC115V
 41
1.210034
100
AcDbText
  0
TEXT
  5
3CD
330
36
100
AcDbEntity
  8
0
100
AcDbText
 10
-101.745555
 20
26.650914
 30
0.0
 40
1.6
  1
アースチェック
 41
0.833333
100
AcDbText
  0
TEXT
  5
3CE
330
36
100
AcDbEntity
  8
0
100
AcDbText
 10
-100.339234
 20
24.779914
 30
0.0
 40
1.6
  1
ランプ
 41
0.833333
100
AcDbText
  0
TEXT
  5
3CF
330
36
100
AcDbEntity
  8
0
100
AcDbText
 10
-109.353672
 20
24.550632
 30
0.0
 40
1.6
  1
ランプ
 41
0.833333
100
AcDbText
  0
TEXT
  5
3D0
330
36
100
AcDbEntity
  8
0
100
AcDbText
 10
-111.04492
 20
26.366355
 30
0.0
 40
1.6
  1
電源表示
 41
0.833333
100
AcDbText
  0
TEXT
  5
3D1
330
36
100
AcDbEntity
  8
0
100
AcDbText
 10
-129.008723
 20
34.527324
 30
0.0
 40
1.6
  1
ブレーカー
 41
0.833333
100
AcDbText
  0
TEXT
  5
3D2
330
36
100
AcDbEntity
  8
0
100
AcDbText
 10
-130.599789
 20
65.484087
 30
0.0
 40
1.6
  1
出力電圧計
 41
0.833333
100
AcDbText
  0
TEXT
  5
3D3
330
36
100
AcDbEntity
  8
0
100
AcDbText
 10
-60.52700999999998
 20
0.334457
 30
0.0
 40
3.149999999999999
  1
（出力）
 41
0.833333
100
AcDbText
  0
TEXT
  5
3D4
330
36
100
AcDbEntity
  8
0
100
AcDbText
 10
-44.831428
 20
3.67971
 30
0.0
 40
3.149999999999999
  1
115V
 41
1.090908999999999
100
AcDbText
  0
TEXT
  5
3D5
330
36
100
AcDbEntity
  8
0
100
AcDbText
 10
-73.113254
 20
3.782370999999998
 30
0.0
 40
3.149999999999999
  1
100V
 41
1.090908999999999
100
AcDbText
  0
LINE
  5
3D6
330
36
100
AcDbEntity
  8
0
 62
     3
100
AcDbLine
 10
-133.552185
 20
36.526008
 30
0.0
 11
-92.05218499999999
 21
36.526008
 31
0.0
  0
ARC
  5
3D7
330
36
100
AcDbEntity
  8
0
 62
     3
100
AcDbCircle
 10
-92.05218499999999
 20
34.026008
 30
0.0
 40
2.5
100
AcDbArc
 50
0.0
 51
90.0
  0
TEXT
  5
3D8
330
36
100
AcDbEntity
  8
0
100
AcDbText
 10
-107.329629
 20
13.936838
 30
0.0
 40
1.6
  1
テストボタン
 41
0.833333
100
AcDbText
  0
LINE
  5
3D9
330
36
100
AcDbEntity
  8
0
100
AcDbLine
 10
-118.560253
 20
58.917989
 30
0.0
 11
-119.982572
 21
57.49566999999998
 31
0.0
  0
LINE
  5
3DA
330
36
100
AcDbEntity
  8
0
100
AcDbLine
 10
-119.592779
 20
59.31573100000001
 30
0.0
 11
-120.238583
 21
58.54609100000001
 31
0.0
  0
LINE
  5
3DB
330
36
100
AcDbEntity
  8
0
100
AcDbLine
 10
-120.345069
 20
60.00470899999999
 30
0.0
 11
-120.920786
 21
59.1825
 31
0.0
  0
LINE
  5
3DC
330
36
100
AcDbEntity
  8
0
100
AcDbLine
 10
-121.166032
 20
60.62106800000001
 30
0.0
 11
-121.667448
 21
59.75259000000001
 31
0.0
  0
LINE
  5
3DD
330
36
100
AcDbEntity
  8
0
100
AcDbLine
 10
-122.048213
 20
61.156999
 30
0.0
 11
-122.471686
 21
60.24886
 31
0.0
  0
LINE
  5
3DE
330
36
100
AcDbEntity
  8
0
100
AcDbLine
 10
-122.811929
 20
62.075946
 30
0.0
 11
-127.052164
 21
50.425995
 31
0.0
  0
LINE
  5
3DF
330
36
100
AcDbEntity
  8
0
100
AcDbLine
 10
-124.972895
 20
62.218121
 30
0.0
 11
-125.146602
 21
61.232978
 31
0.0
  0
LINE
  5
3E0
330
36
100
AcDbEntity
  8
0
100
AcDbLine
 10
-123.961409
 20
61.960853
 30
0.0
 11
-124.220424
 21
60.994196
 31
0.0
  0
ARC
  5
3E1
330
36
100
AcDbEntity
  8
0
100
AcDbCircle
 10
-127.052185
 20
50.426058
 30
0.0
 40
2.5
100
AcDbArc
 50
23.576928
 51
156.423072
  0
LINE
  5
3E2
330
36
100
AcDbEntity
  8
0
100
AcDbLine
 10
-126.006859
 20
62.37389499999999
 30
0.0
 11
-126.094022
 21
61.377615
 31
0.0
  0
LINE
  5
3E3
330
36
100
AcDbEntity
  8
0
100
AcDbLine
 10
-134.511544
 20
59.315777
 30
0.0
 11
-133.86574
 21
58.546138
 31
0.0
  0
LINE
  5
3E4
330
36
100
AcDbEntity
  8
0
100
AcDbLine
 10
-133.759254
 20
60.00474699999998
 30
0.0
 11
-133.183537
 21
59.18253899999999
 31
0.0
  0
LINE
  5
3E5
330
36
100
AcDbEntity
  8
0
100
AcDbLine
 10
-132.938292
 20
60.621099
 30
0.0
 11
-132.436876
 21
59.75262199999999
 31
0.0
  0
LINE
  5
3E6
330
36
100
AcDbEntity
  8
0
100
AcDbLine
 10
-132.056111
 20
61.15702299999998
 30
0.0
 11
-131.632639
 21
60.248884
 31
0.0
  0
LINE
  5
3E7
330
36
100
AcDbEntity
  8
0
100
AcDbLine
 10
-131.292397
 20
62.07596399999999
 30
0.0
 11
-130.778719
 21
60.664647
 31
0.0
  0
LINE
  5
3E8
330
36
100
AcDbEntity
  8
0
100
AcDbLine
 10
-130.142917
 20
61.960866
 30
0.0
 11
-129.883902
 21
60.994209
 31
0.0
  0
LINE
  5
3E9
330
36
100
AcDbEntity
  8
0
100
AcDbLine
 10
-135.544161
 20
58.917934
 30
0.0
 11
-134.477744
 21
57.851517
 31
0.0
  0
LINE
  5
3EA
330
36
100
AcDbEntity
  8
0
100
AcDbLine
 10
-128.097469
 20
62.373899
 30
0.0
 11
-128.010305
 21
61.377619
 31
0.0
  0
LINE
  5
3EB
330
36
100
AcDbEntity
  8
0
100
AcDbLine
 10
-129.131432
 20
62.218129
 30
0.0
 11
-128.957725
 21
61.232986
 31
0.0
  0
LINE
  5
3EC
330
36
100
AcDbEntity
  8
0
 62
     3
100
AcDbLine
 10
-34.218787
 20
53.816208
 30
0.0
 11
-43.885582
 21
53.816208
 31
0.0
  0
LINE
  5
3ED
330
36
100
AcDbEntity
  8
0
 62
     3
100
AcDbLine
 10
-34.218787
 20
39.78260800000001
 30
0.0
 11
-43.885582
 21
39.78260800000001
 31
0.0
  0
LINE
  5
3EE
330
36
100
AcDbEntity
  8
0
 62
     3
100
AcDbLine
 10
-34.218787
 20
34.269408
 30
0.0
 11
-43.885582
 21
34.269408
 31
0.0
  0
LINE
  5
3EF
330
36
100
AcDbEntity
  8
0
 62
     3
100
AcDbLine
 10
-34.218787
 20
20.235808
 30
0.0
 11
-43.885582
 21
20.235808
 31
0.0
  0
ARC
  5
3F0
330
36
100
AcDbEntity
  8
0
 62
     3
100
AcDbCircle
 10
-39.052185
 20
46.79940799999999
 30
0.0
 40
8.5204
100
AcDbArc
 50
304.560322
 51
55.439678
  0
ARC
  5
3F1
330
36
100
AcDbEntity
  8
0
 62
     3
100
AcDbCircle
 10
-39.052185
 20
46.79940799999999
 30
0.0
 40
8.5204
100
AcDbArc
 50
124.560322
 51
235.439678
  0
ARC
  5
3F2
330
36
100
AcDbEntity
  8
0
 62
     3
100
AcDbCircle
 10
-39.052185
 20
27.252608
 30
0.0
 40
8.5204
100
AcDbArc
 50
124.560322
 51
235.439678
  0
ARC
  5
3F3
330
36
100
AcDbEntity
  8
0
 62
     3
100
AcDbCircle
 10
-39.052185
 20
27.252608
 30
0.0
 40
8.5204
100
AcDbArc
 50
304.560322
 51
55.439678
  0
LINE
  5
3F4
330
36
100
AcDbEntity
  8
0
 62
     3
100
AcDbLine
 10
-37.698945
 20
40.860188
 30
0.0
 11
-38.300385
 21
40.860188
 31
0.0
  0
LINE
  5
3F5
330
36
100
AcDbEntity
  8
0
 62
     3
100
AcDbLine
 10
-42.059385
 20
12.467208
 30
0.0
 11
-42.059385
 21
20.235808
 31
0.0
  0
LINE
  5
3F6
330
36
100
AcDbEntity
  8
0
 62
     3
100
AcDbLine
 10
-36.044985
 20
12.55112
 30
0.0
 11
-36.044985
 21
20.235808
 31
0.0
  0
LINE
  5
3F7
330
36
100
AcDbEntity
  8
0
 62
     3
100
AcDbLine
 10
-36.044985
 20
12.467208
 30
0.0
 11
-42.059385
 21
12.467208
 31
0.0
  0
LINE
  5
3F8
330
36
100
AcDbEntity
  8
0
 62
     3
100
AcDbLine
 10
-71.885582
 20
53.816208
 30
0.0
 11
-62.218787
 21
53.816208
 31
0.0
  0
LINE
  5
3F9
330
36
100
AcDbEntity
  8
0
 62
     3
100
AcDbLine
 10
-71.885582
 20
39.78260800000001
 30
0.0
 11
-62.218787
 21
39.78260800000001
 31
0.0
  0
ARC
  5
3FA
330
36
100
AcDbEntity
  8
0
 62
     3
100
AcDbCircle
 10
-67.05218499999999
 20
46.79940799999999
 30
0.0
 40
8.5204
100
AcDbArc
 50
124.560322
 51
235.439678
  0
ARC
  5
3FB
330
36
100
AcDbEntity
  8
0
 62
     3
100
AcDbCircle
 10
-67.05218499999999
 20
46.79940799999999
 30
0.0
 40
8.5204
100
AcDbArc
 50
304.560322
 51
55.439678
  0
LINE
  5
3FC
330
36
100
AcDbEntity
  8
0
 62
     3
100
AcDbLine
 10
-71.885582
 20
34.269408
 30
0.0
 11
-62.218787
 21
34.269408
 31
0.0
  0
LINE
  5
3FD
330
36
100
AcDbEntity
  8
0
 62
     3
100
AcDbLine
 10
-71.885582
 20
20.235808
 30
0.0
 11
-62.218787
 21
20.235808
 31
0.0
  0
ARC
  5
3FE
330
36
100
AcDbEntity
  8
0
 62
     3
100
AcDbCircle
 10
-67.05218499999999
 20
27.252608
 30
0.0
 40
8.5204
100
AcDbArc
 50
304.560322
 51
55.439678
  0
ARC
  5
3FF
330
36
100
AcDbEntity
  8
0
 62
     3
100
AcDbCircle
 10
-67.05218499999999
 20
27.252608
 30
0.0
 40
8.5204
100
AcDbArc
 50
124.560322
 51
235.439678
  0
LINE
  5
400
330
36
100
AcDbEntity
  8
0
 62
     3
100
AcDbLine
 10
-64.04498499999999
 20
12.467208
 30
0.0
 11
-64.04498499999999
 21
20.235808
 31
0.0
  0
LINE
  5
401
330
36
100
AcDbEntity
  8
0
 62
     3
100
AcDbLine
 10
-70.05938499999999
 20
12.55112
 30
0.0
 11
-70.05938499999999
 21
20.235808
 31
0.0
  0
LINE
  5
402
330
36
100
AcDbEntity
  8
0
 62
     3
100
AcDbLine
 10
-70.05938499999999
 20
12.467208
 30
0.0
 11
-64.04498499999999
 21
12.467208
 31
0.0
  0
TEXT
  5
403
330
36
100
AcDbEntity
  8
0
 62
     3
100
AcDbText
 10
-119.626579
 20
0.925143
 30
0.0
 40
3.779999999999998
  1
日動工業株式会社
 41
0.833333
100
AcDbText
  0
ARC
  5
404
330
36
100
AcDbEntity
  8
0
 62
     3
100
AcDbCircle
 10
-25.802185
 20
68.77600799999999
 30
0.0
 40
4.5
100
AcDbArc
 50
0.0
 51
90.0
  0
LINE
  5
405
330
36
100
AcDbEntity
  8
0
 62
     3
100
AcDbLine
 10
-137.302185
 20
73.27600799999998
 30
0.0
 11
-25.802185
 21
73.27600799999998
 31
0.0
  0
ARC
  5
406
330
36
100
AcDbEntity
  8
0
 62
     3
100
AcDbCircle
 10
-137.302185
 20
68.77600799999999
 30
0.0
 40
4.5
100
AcDbArc
 50
90.0
 51
180.0
  0
LINE
  5
407
330
36
100
AcDbEntity
  8
0
 62
     3
100
AcDbLine
 10
-141.802185
 20
3.776008
 30
0.0
 11
-141.802185
 21
68.77600799999999
 31
0.0
  0
ARC
  5
408
330
36
100
AcDbEntity
  8
0
 62
     3
100
AcDbCircle
 10
-137.302185
 20
3.776008
 30
0.0
 40
4.5
100
AcDbArc
 50
180.0
 51
270.0
  0
LINE
  5
409
330
36
100
AcDbEntity
  8
0
 62
     3
100
AcDbLine
 10
-25.802185
 20
-0.723992
 30
0.0
 11
-137.302185
 21
-0.723992
 31
0.0
  0
ARC
  5
40A
330
36
100
AcDbEntity
  8
0
 62
     3
100
AcDbCircle
 10
-25.802185
 20
3.776008
 30
0.0
 40
4.5
100
AcDbArc
 50
270.0
 51
0.0
  0
ARC
  5
40B
330
36
100
AcDbEntity
  8
0
 62
     3
100
AcDbCircle
 10
-25.802185
 20
68.77600799999999
 30
0.0
 40
9.5
100
AcDbArc
 50
0.0
 51
90.0
  0
LINE
  5
40C
330
36
100
AcDbEntity
  8
0
 62
     3
100
AcDbLine
 10
-16.302185
 20
68.77600799999999
 30
0.0
 11
-16.302185
 21
3.776008
 31
0.0
  0
LINE
  5
40D
330
36
100
AcDbEntity
  8
0
 62
     3
100
AcDbLine
 10
-21.302185
 20
3.776008
 30
0.0
 11
-21.302185
 21
68.77600799999999
 31
0.0
  0
ARC
  5
40E
330
36
100
AcDbEntity
  8
0
 62
     3
100
AcDbCircle
 10
-25.802185
 20
3.776008
 30
0.0
 40
9.5
100
AcDbArc
 50
270.0
 51
0.0
  0
LINE
  5
40F
330
36
100
AcDbEntity
  8
0
 62
     3
100
AcDbLine
 10
-137.302185
 20
-5.723991999999999
 30
0.0
 11
-25.802185
 21
-5.723991999999999
 31
0.0
  0
LINE
  5
410
330
36
100
AcDbEntity
  8
0
 62
     3
100
AcDbLine
 10
-146.802185
 20
68.77600799999999
 30
0.0
 11
-146.802185
 21
3.776008
 31
0.0
  0
ARC
  5
411
330
36
100
AcDbEntity
  8
0
 62
     3
100
AcDbCircle
 10
-137.302185
 20
3.776008
 30
0.0
 40
9.5
100
AcDbArc
 50
180.0
 51
270.0
  0
ARC
  5
412
330
36
100
AcDbEntity
  8
0
 62
     3
100
AcDbCircle
 10
-137.302185
 20
68.77600799999999
 30
0.0
 40
9.5
100
AcDbArc
 50
90.0
 51
180.0
  0
LINE
  5
413
330
36
100
AcDbEntity
  8
0
 62
     3
100
AcDbLine
 10
-137.302185
 20
78.27600799999998
 30
0.0
 11
-25.802185
 21
78.27600799999998
 31
0.0
  0
ARC
  5
414
330
36
100
AcDbEntity
  8
0
100
AcDbCircle
 10
-40.40542499999999
 20
40.860188
 30
0.0
 40
0.5012
100
AcDbArc
 50
180.0
 51
270.0
  0
LINE
  5
415
330
36
100
AcDbEntity
  8
0
100
AcDbLine
 10
-40.40542499999999
 20
40.358988
 30
0.0
 11
-39.803985
 21
40.358988
 31
0.0
  0
LINE
  5
416
330
36
100
AcDbEntity
  8
0
100
AcDbLine
 10
-38.300385
 20
40.358988
 30
0.0
 11
-37.698945
 21
40.358988
 31
0.0
  0
LINE
  5
417
330
36
100
AcDbEntity
  8
0
100
AcDbLine
 10
-38.300385
 20
40.358988
 30
0.0
 11
-39.803985
 21
40.358988
 31
0.0
  0
ARC
  5
418
330
36
100
AcDbEntity
  8
0
100
AcDbCircle
 10
-37.698945
 20
40.860188
 30
0.0
 40
0.5012
100
AcDbArc
 50
270.0
 51
0.0
  0
ARC
  5
419
330
36
100
AcDbEntity
  8
0
100
AcDbCircle
 10
-36.746665
 20
51.034548
 30
0.0
 40
0.5012
100
AcDbArc
 50
90.0
 51
180.0
  0
LINE
  5
41A
330
36
100
AcDbEntity
  8
0
100
AcDbLine
 10
-34.49126500000001
 20
51.535748
 30
0.0
 11
-36.746665
 21
51.535748
 31
0.0
  0
ARC
  5
41B
330
36
100
AcDbEntity
  8
0
100
AcDbCircle
 10
-34.49126500000001
 20
51.034548
 30
0.0
 40
0.5012
100
AcDbArc
 50
0.0
 51
90.0
  0
LINE
  5
41C
330
36
100
AcDbEntity
  8
0
100
AcDbLine
 10
-33.990065
 20
51.034548
 30
0.0
 11
-33.990065
 21
45.721828
 31
0.0
  0
LINE
  5
41D
330
36
100
AcDbEntity
  8
0
100
AcDbLine
 10
-40.40542499999999
 20
20.812188
 30
0.0
 11
-39.803985
 21
20.812188
 31
0.0
  0
LINE
  5
41E
330
36
100
AcDbEntity
  8
0
100
AcDbLine
 10
-38.300385
 20
20.812188
 30
0.0
 11
-39.803985
 21
20.812188
 31
0.0
  0
LINE
  5
41F
330
36
100
AcDbEntity
  8
0
100
AcDbLine
 10
-38.300385
 20
20.812188
 30
0.0
 11
-37.698945
 21
20.812188
 31
0.0
  0
LINE
  5
420
330
36
100
AcDbEntity
  8
0
100
AcDbLine
 10
-33.990065
 20
31.487748
 30
0.0
 11
-33.990065
 21
26.175028
 31
0.0
  0
LINE
  5
421
330
36
100
AcDbEntity
  8
0
100
AcDbLine
 10
-67.803985
 20
40.358988
 30
0.0
 11
-68.40542499999999
 21
40.358988
 31
0.0
  0
LINE
  5
422
330
36
100
AcDbEntity
  8
0
100
AcDbLine
 10
-67.803985
 20
40.358988
 30
0.0
 11
-66.30038499999999
 21
40.358988
 31
0.0
  0
LINE
  5
423
330
36
100
AcDbEntity
  8
0
100
AcDbLine
 10
-65.698945
 20
40.358988
 30
0.0
 11
-66.30038499999999
 21
40.358988
 31
0.0
  0
LINE
  5
424
330
36
100
AcDbEntity
  8
0
100
AcDbLine
 10
-67.803985
 20
20.812188
 30
0.0
 11
-68.40542499999999
 21
20.812188
 31
0.0
  0
LINE
  5
425
330
36
100
AcDbEntity
  8
0
100
AcDbLine
 10
-65.698945
 20
20.812188
 30
0.0
 11
-66.30038499999999
 21
20.812188
 31
0.0
  0
LINE
  5
426
330
36
100
AcDbEntity
  8
0
100
AcDbLine
 10
-67.803985
 20
20.812188
 30
0.0
 11
-66.30038499999999
 21
20.812188
 31
0.0
  0
LINE
  5
427
330
36
100
AcDbEntity
  8
0
100
AcDbLine
 10
-36.044985
 20
13.369368
 30
0.0
 11
-42.059385
 21
13.369368
 31
0.0
  0
LINE
  5
428
330
36
100
AcDbEntity
  8
0
100
AcDbLine
 10
-70.05938499999999
 20
13.369368
 30
0.0
 11
-64.04498499999999
 21
13.369368
 31
0.0
  0
CIRCLE
  5
429
330
36
100
AcDbEntity
  8
0
100
AcDbCircle
 10
-67.05218499999999
 20
15.975608
 30
0.0
 40
2.004799999999999
  0
CIRCLE
  5
42A
330
36
100
AcDbEntity
  8
0
100
AcDbCircle
 10
-39.052185
 20
15.975608
 30
0.0
 40
2.004799999999999
  0
CIRCLE
  5
42B
330
36
100
AcDbEntity
  8
0
100
AcDbCircle
 10
-39.052185
 20
58.07640799999999
 30
0.0
 40
2.004799999999999
  0
CIRCLE
  5
42C
330
36
100
AcDbEntity
  8
0
100
AcDbCircle
 10
-67.05218499999999
 20
58.07640799999999
 30
0.0
 40
2.004799999999999
  0
LINE
  5
42D
330
36
100
AcDbEntity
  8
0
100
AcDbLine
 10
-63.393425
 20
50.13238799999999
 30
0.0
 11
-64.34570500000001
 21
50.13238799999999
 31
0.0
  0
LINE
  5
42E
330
36
100
AcDbEntity
  8
0
100
AcDbLine
 10
-63.393425
 20
50.13238799999999
 30
0.0
 11
-63.393425
 21
46.623988
 31
0.0
  0
LINE
  5
42F
330
36
100
AcDbEntity
  8
0
100
AcDbLine
 10
-64.34570500000001
 20
50.13238799999999
 30
0.0
 11
-64.34570500000001
 21
46.623988
 31
0.0
  0
LINE
  5
430
330
36
100
AcDbEntity
  8
0
100
AcDbLine
 10
-63.393425
 20
46.623988
 30
0.0
 11
-64.34570500000001
 21
46.623988
 31
0.0
  0
LINE
  5
431
330
36
100
AcDbEntity
  8
0
100
AcDbLine
 10
-69.75866500000001
 20
46.19796799999998
 30
0.0
 11
-70.710945
 21
46.19796799999998
 31
0.0
  0
LINE
  5
432
330
36
100
AcDbEntity
  8
0
100
AcDbLine
 10
-69.75866500000001
 20
50.558408
 30
0.0
 11
-69.75866500000001
 21
46.19796799999998
 31
0.0
  0
LINE
  5
433
330
36
100
AcDbEntity
  8
0
100
AcDbLine
 10
-70.710945
 20
50.558408
 30
0.0
 11
-70.710945
 21
46.19796799999998
 31
0.0
  0
LINE
  5
434
330
36
100
AcDbEntity
  8
0
100
AcDbLine
 10
-69.75866500000001
 20
50.558408
 30
0.0
 11
-70.710945
 21
50.558408
 31
0.0
  0
ARC
  5
435
330
36
100
AcDbEntity
  8
0
100
AcDbCircle
 10
-67.05218499999999
 20
42.59953699999999
 30
0.0
 40
1.36809
100
AcDbArc
 50
9.147842999999999
 51
171.550276
  0
LINE
  5
436
330
36
100
AcDbEntity
  8
0
100
AcDbLine
 10
-68.40542499999999
 20
40.860188
 30
0.0
 11
-68.40542499999999
 21
42.800567
 31
0.0
  0
LINE
  5
437
330
36
100
AcDbEntity
  8
0
100
AcDbLine
 10
-68.40542499999999
 20
40.860188
 30
0.0
 11
-67.803985
 21
40.860188
 31
0.0
  0
LINE
  5
438
330
36
100
AcDbEntity
  8
0
100
AcDbLine
 10
-66.30038499999999
 20
40.860188
 30
0.0
 11
-67.803985
 21
40.860188
 31
0.0
  0
LINE
  5
439
330
36
100
AcDbEntity
  8
0
100
AcDbLine
 10
-66.30038499999999
 20
40.860188
 30
0.0
 11
-65.698945
 21
40.860188
 31
0.0
  0
LINE
  5
43A
330
36
100
AcDbEntity
  8
0
100
AcDbLine
 10
-65.698945
 20
40.860188
 30
0.0
 11
-65.698945
 21
42.78516699999999
 31
0.0
  0
ARC
  5
43B
330
36
100
AcDbEntity
  8
0
100
AcDbCircle
 10
-71.613105
 20
45.721828
 30
0.0
 40
0.5012
100
AcDbArc
 50
180.0
 51
270.0
  0
LINE
  5
43C
330
36
100
AcDbEntity
  8
0
100
AcDbLine
 10
-71.613105
 20
45.220628
 30
0.0
 11
-69.35770500000001
 21
45.220628
 31
0.0
  0
ARC
  5
43D
330
36
100
AcDbEntity
  8
0
100
AcDbCircle
 10
-69.35770500000001
 20
45.721828
 30
0.0
 40
0.5012
100
AcDbArc
 50
270.0
 51
0.0
  0
LINE
  5
43E
330
36
100
AcDbEntity
  8
0
100
AcDbLine
 10
-68.856505
 20
51.034548
 30
0.0
 11
-68.856505
 21
45.721828
 31
0.0
  0
ARC
  5
43F
330
36
100
AcDbEntity
  8
0
100
AcDbCircle
 10
-69.35770500000001
 20
51.034548
 30
0.0
 40
0.5012
100
AcDbArc
 50
0.0
 51
90.0
  0
ARC
  5
440
330
36
100
AcDbEntity
  8
0
100
AcDbCircle
 10
-71.613105
 20
51.034548
 30
0.0
 40
0.5012
100
AcDbArc
 50
90.0
 51
180.0
  0
LINE
  5
441
330
36
100
AcDbEntity
  8
0
100
AcDbLine
 10
-72.114305
 20
51.034548
 30
0.0
 11
-72.114305
 21
45.721828
 31
0.0
  0
LINE
  5
442
330
36
100
AcDbEntity
  8
0
100
AcDbLine
 10
-71.613105
 20
51.535748
 30
0.0
 11
-69.35770500000001
 21
51.535748
 31
0.0
  0
ARC
  5
443
330
36
100
AcDbEntity
  8
0
100
AcDbCircle
 10
-67.05218499999999
 20
42.59953699999999
 30
0.0
 40
1.86929
100
AcDbArc
 50
8.449723999999998
 51
170.852157
  0
LINE
  5
444
330
36
100
AcDbEntity
  8
0
100
AcDbLine
 10
-68.90662500000001
 20
40.860188
 30
0.0
 11
-68.90662500000001
 21
42.78516699999999
 31
0.0
  0
ARC
  5
445
330
36
100
AcDbEntity
  8
0
100
AcDbCircle
 10
-68.40542499999999
 20
40.860188
 30
0.0
 40
0.5012
100
AcDbArc
 50
180.0
 51
270.0
  0
ARC
  5
446
330
36
100
AcDbEntity
  8
0
100
AcDbCircle
 10
-65.698945
 20
40.860188
 30
0.0
 40
0.5012
100
AcDbArc
 50
270.0
 51
0.0
  0
LINE
  5
447
330
36
100
AcDbEntity
  8
0
100
AcDbLine
 10
-65.197745
 20
40.860188
 30
0.0
 11
-65.197745
 21
42.800567
 31
0.0
  0
LINE
  5
448
330
36
100
AcDbEntity
  8
0
100
AcDbLine
 10
-69.75866500000001
 20
31.01160800000001
 30
0.0
 11
-69.75866500000001
 21
26.651168
 31
0.0
  0
LINE
  5
449
330
36
100
AcDbEntity
  8
0
100
AcDbLine
 10
-70.710945
 20
31.01160800000001
 30
0.0
 11
-70.710945
 21
26.651168
 31
0.0
  0
LINE
  5
44A
330
36
100
AcDbEntity
  8
0
100
AcDbLine
 10
-69.75866500000001
 20
31.01160800000001
 30
0.0
 11
-70.710945
 21
31.01160800000001
 31
0.0
  0
LINE
  5
44B
330
36
100
AcDbEntity
  8
0
100
AcDbLine
 10
-69.75866500000001
 20
26.651168
 30
0.0
 11
-70.710945
 21
26.651168
 31
0.0
  0
ARC
  5
44C
330
36
100
AcDbEntity
  8
0
100
AcDbCircle
 10
-67.05218499999999
 20
23.052737
 30
0.0
 40
1.36809
100
AcDbArc
 50
9.147842999999999
 51
171.550276
  0
LINE
  5
44D
330
36
100
AcDbEntity
  8
0
100
AcDbLine
 10
-65.698945
 20
21.313388
 30
0.0
 11
-65.698945
 21
23.238367
 31
0.0
  0
LINE
  5
44E
330
36
100
AcDbEntity
  8
0
100
AcDbLine
 10
-68.40542499999999
 20
21.313388
 30
0.0
 11
-68.40542499999999
 21
23.253767
 31
0.0
  0
LINE
  5
44F
330
36
100
AcDbEntity
  8
0
100
AcDbLine
 10
-68.40542499999999
 20
21.313388
 30
0.0
 11
-67.803985
 21
21.313388
 31
0.0
  0
LINE
  5
450
330
36
100
AcDbEntity
  8
0
100
AcDbLine
 10
-66.30038499999999
 20
21.313388
 30
0.0
 11
-65.698945
 21
21.313388
 31
0.0
  0
LINE
  5
451
330
36
100
AcDbEntity
  8
0
100
AcDbLine
 10
-66.30038499999999
 20
21.313388
 30
0.0
 11
-67.803985
 21
21.313388
 31
0.0
  0
LINE
  5
452
330
36
100
AcDbEntity
  8
0
100
AcDbLine
 10
-63.393425
 20
30.585588
 30
0.0
 11
-64.34570500000001
 21
30.585588
 31
0.0
  0
LINE
  5
453
330
36
100
AcDbEntity
  8
0
100
AcDbLine
 10
-63.393425
 20
30.585588
 30
0.0
 11
-63.393425
 21
27.077188
 31
0.0
  0
LINE
  5
454
330
36
100
AcDbEntity
  8
0
100
AcDbLine
 10
-64.34570500000001
 20
30.585588
 30
0.0
 11
-64.34570500000001
 21
27.077188
 31
0.0
  0
LINE
  5
455
330
36
100
AcDbEntity
  8
0
100
AcDbLine
 10
-63.393425
 20
27.077188
 30
0.0
 11
-64.34570500000001
 21
27.077188
 31
0.0
  0
ARC
  5
456
330
36
100
AcDbEntity
  8
0
100
AcDbCircle
 10
-71.613105
 20
31.487748
 30
0.0
 40
0.5012
100
AcDbArc
 50
90.0
 51
180.0
  0
LINE
  5
457
330
36
100
AcDbEntity
  8
0
100
AcDbLine
 10
-71.613105
 20
31.988948
 30
0.0
 11
-69.35770500000001
 21
31.988948
 31
0.0
  0
ARC
  5
458
330
36
100
AcDbEntity
  8
0
100
AcDbCircle
 10
-69.35770500000001
 20
31.487748
 30
0.0
 40
0.5012
100
AcDbArc
 50
0.0
 51
90.0
  0
LINE
  5
459
330
36
100
AcDbEntity
  8
0
100
AcDbLine
 10
-68.856505
 20
31.487748
 30
0.0
 11
-68.856505
 21
26.175028
 31
0.0
  0
ARC
  5
45A
330
36
100
AcDbEntity
  8
0
100
AcDbCircle
 10
-69.35770500000001
 20
26.175028
 30
0.0
 40
0.5012
100
AcDbArc
 50
270.0
 51
0.0
  0
LINE
  5
45B
330
36
100
AcDbEntity
  8
0
100
AcDbLine
 10
-71.613105
 20
25.673828
 30
0.0
 11
-69.35770500000001
 21
25.673828
 31
0.0
  0
ARC
  5
45C
330
36
100
AcDbEntity
  8
0
100
AcDbCircle
 10
-71.613105
 20
26.175028
 30
0.0
 40
0.5012
100
AcDbArc
 50
180.0
 51
270.0
  0
LINE
  5
45D
330
36
100
AcDbEntity
  8
0
100
AcDbLine
 10
-72.114305
 20
31.487748
 30
0.0
 11
-72.114305
 21
26.175028
 31
0.0
  0
ARC
  5
45E
330
36
100
AcDbEntity
  8
0
100
AcDbCircle
 10
-67.05218499999999
 20
23.052737
 30
0.0
 40
1.86929
100
AcDbArc
 50
8.449723999999998
 51
170.852157
  0
LINE
  5
45F
330
36
100
AcDbEntity
  8
0
100
AcDbLine
 10
-68.90662500000001
 20
21.313388
 30
0.0
 11
-68.90662500000001
 21
23.238367
 31
0.0
  0
ARC
  5
460
330
36
100
AcDbEntity
  8
0
100
AcDbCircle
 10
-68.40542499999999
 20
21.313388
 30
0.0
 40
0.5012
100
AcDbArc
 50
180.0
 51
270.0
  0
ARC
  5
461
330
36
100
AcDbEntity
  8
0
100
AcDbCircle
 10
-65.698945
 20
21.313388
 30
0.0
 40
0.5012
100
AcDbArc
 50
270.0
 51
0.0
  0
LINE
  5
462
330
36
100
AcDbEntity
  8
0
100
AcDbLine
 10
-65.197745
 20
21.313388
 30
0.0
 11
-65.197745
 21
23.253767
 31
0.0
  0
LINE
  5
463
330
36
100
AcDbEntity
  8
0
100
AcDbLine
 10
-65.24786500000001
 20
51.034548
 30
0.0
 11
-65.24786500000001
 21
45.721828
 31
0.0
  0
ARC
  5
464
330
36
100
AcDbEntity
  8
0
100
AcDbCircle
 10
-64.74666500000001
 20
51.034548
 30
0.0
 40
0.5012
100
AcDbArc
 50
90.0
 51
180.0
  0
ARC
  5
465
330
36
100
AcDbEntity
  8
0
100
AcDbCircle
 10
-62.491265
 20
51.034548
 30
0.0
 40
0.5012
100
AcDbArc
 50
0.0
 51
90.0
  0
LINE
  5
466
330
36
100
AcDbEntity
  8
0
100
AcDbLine
 10
-61.990065
 20
51.034548
 30
0.0
 11
-61.990065
 21
45.721828
 31
0.0
  0
LINE
  5
467
330
36
100
AcDbEntity
  8
0
100
AcDbLine
 10
-62.491265
 20
51.535748
 30
0.0
 11
-64.74666500000001
 21
51.535748
 31
0.0
  0
ARC
  5
468
330
36
100
AcDbEntity
  8
0
100
AcDbCircle
 10
-62.491265
 20
45.721828
 30
0.0
 40
0.5012
100
AcDbArc
 50
270.0
 51
0.0
  0
LINE
  5
469
330
36
100
AcDbEntity
  8
0
100
AcDbLine
 10
-62.491265
 20
45.220628
 30
0.0
 11
-64.74666500000001
 21
45.220628
 31
0.0
  0
ARC
  5
46A
330
36
100
AcDbEntity
  8
0
100
AcDbCircle
 10
-64.74666500000001
 20
45.721828
 30
0.0
 40
0.5012
100
AcDbArc
 50
180.0
 51
270.0
  0
ARC
  5
46B
330
36
100
AcDbEntity
  8
0
100
AcDbCircle
 10
-62.491265
 20
31.487748
 30
0.0
 40
0.5012
100
AcDbArc
 50
0.0
 51
90.0
  0
LINE
  5
46C
330
36
100
AcDbEntity
  8
0
100
AcDbLine
 10
-62.491265
 20
31.988948
 30
0.0
 11
-64.74666500000001
 21
31.988948
 31
0.0
  0
ARC
  5
46D
330
36
100
AcDbEntity
  8
0
100
AcDbCircle
 10
-64.74666500000001
 20
31.487748
 30
0.0
 40
0.5012
100
AcDbArc
 50
90.0
 51
180.0
  0
LINE
  5
46E
330
36
100
AcDbEntity
  8
0
100
AcDbLine
 10
-65.24786500000001
 20
31.487748
 30
0.0
 11
-65.24786500000001
 21
26.175028
 31
0.0
  0
LINE
  5
46F
330
36
100
AcDbEntity
  8
0
100
AcDbLine
 10
-61.990065
 20
31.487748
 30
0.0
 11
-61.990065
 21
26.175028
 31
0.0
  0
ARC
  5
470
330
36
100
AcDbEntity
  8
0
100
AcDbCircle
 10
-64.74666500000001
 20
26.175028
 30
0.0
 40
0.5012
100
AcDbArc
 50
180.0
 51
270.0
  0
LINE
  5
471
330
36
100
AcDbEntity
  8
0
100
AcDbLine
 10
-62.491265
 20
25.673828
 30
0.0
 11
-64.74666500000001
 21
25.673828
 31
0.0
  0
ARC
  5
472
330
36
100
AcDbEntity
  8
0
100
AcDbCircle
 10
-62.491265
 20
26.175028
 30
0.0
 40
0.5012
100
AcDbArc
 50
270.0
 51
0.0
  0
ARC
  5
473
330
36
100
AcDbEntity
  8
0
100
AcDbCircle
 10
-41.35770499999996
 20
51.034548
 30
0.0
 40
0.5012
100
AcDbArc
 50
0.0
 51
90.0
  0
LINE
  5
474
330
36
100
AcDbEntity
  8
0
100
AcDbLine
 10
-43.613105
 20
51.535748
 30
0.0
 11
-41.35770499999996
 21
51.535748
 31
0.0
  0
LINE
  5
475
330
36
100
AcDbEntity
  8
0
100
AcDbLine
 10
-44.114305
 20
31.487748
 30
0.0
 11
-44.114305
 21
26.175028
 31
0.0
  0
ARC
  5
476
330
36
100
AcDbEntity
  8
0
100
AcDbCircle
 10
-43.613105
 20
51.034548
 30
0.0
 40
0.5012
100
AcDbArc
 50
90.0
 51
180.0
  0
LINE
  5
477
330
36
100
AcDbEntity
  8
0
100
AcDbLine
 10
-42.710945
 20
50.13238799999999
 30
0.0
 11
-41.758665
 21
50.13238799999999
 31
0.0
  0
LINE
  5
478
330
36
100
AcDbEntity
  8
0
100
AcDbLine
 10
-42.710945
 20
50.13238799999999
 30
0.0
 11
-42.710945
 21
46.623988
 31
0.0
  0
LINE
  5
479
330
36
100
AcDbEntity
  8
0
100
AcDbLine
 10
-41.758665
 20
50.13238799999999
 30
0.0
 11
-41.758665
 21
46.623988
 31
0.0
  0
LINE
  5
47A
330
36
100
AcDbEntity
  8
0
100
AcDbLine
 10
-42.710945
 20
46.623988
 30
0.0
 11
-41.758665
 21
46.623988
 31
0.0
  0
LINE
  5
47B
330
36
100
AcDbEntity
  8
0
100
AcDbLine
 10
-36.34570500000001
 20
46.19796799999998
 30
0.0
 11
-35.393425
 21
46.19796799999998
 31
0.0
  0
LINE
  5
47C
330
36
100
AcDbEntity
  8
0
100
AcDbLine
 10
-36.34570500000001
 20
50.558408
 30
0.0
 11
-36.34570500000001
 21
46.19796799999998
 31
0.0
  0
LINE
  5
47D
330
36
100
AcDbEntity
  8
0
100
AcDbLine
 10
-35.393425
 20
50.558408
 30
0.0
 11
-35.393425
 21
46.19796799999998
 31
0.0
  0
LINE
  5
47E
330
36
100
AcDbEntity
  8
0
100
AcDbLine
 10
-36.34570500000001
 20
50.558408
 30
0.0
 11
-35.393425
 21
50.558408
 31
0.0
  0
ARC
  5
47F
330
36
100
AcDbEntity
  8
0
100
AcDbCircle
 10
-39.052185
 20
42.59953699999999
 30
0.0
 40
1.36809
100
AcDbArc
 50
8.449723999999998
 51
170.852157
  0
LINE
  5
480
330
36
100
AcDbEntity
  8
0
100
AcDbLine
 10
-37.698945
 20
40.860188
 30
0.0
 11
-37.698945
 21
42.800567
 31
0.0
  0
LINE
  5
481
330
36
100
AcDbEntity
  8
0
100
AcDbLine
 10
-40.40542499999999
 20
40.860188
 30
0.0
 11
-40.40542499999999
 21
42.78516699999999
 31
0.0
  0
LINE
  5
482
330
36
100
AcDbEntity
  8
0
100
AcDbLine
 10
-37.197745
 20
40.860188
 30
0.0
 11
-37.197745
 21
42.78516699999999
 31
0.0
  0
ARC
  5
483
330
36
100
AcDbEntity
  8
0
100
AcDbCircle
 10
-39.052185
 20
42.59953699999999
 30
0.0
 40
1.86929
100
AcDbArc
 50
9.147842999999999
 51
171.550276
  0
LINE
  5
484
330
36
100
AcDbEntity
  8
0
100
AcDbLine
 10
-40.90662499999999
 20
40.860188
 30
0.0
 11
-40.90662499999999
 21
42.800567
 31
0.0
  0
ARC
  5
485
330
36
100
AcDbEntity
  8
0
100
AcDbCircle
 10
-34.49126500000001
 20
45.721828
 30
0.0
 40
0.5012
100
AcDbArc
 50
270.0
 51
0.0
  0
LINE
  5
486
330
36
100
AcDbEntity
  8
0
100
AcDbLine
 10
-34.49126500000001
 20
45.220628
 30
0.0
 11
-36.746665
 21
45.220628
 31
0.0
  0
ARC
  5
487
330
36
100
AcDbEntity
  8
0
100
AcDbCircle
 10
-36.746665
 20
45.721828
 30
0.0
 40
0.5012
100
AcDbArc
 50
180.0
 51
270.0
  0
LINE
  5
488
330
36
100
AcDbEntity
  8
0
100
AcDbLine
 10
-37.247865
 20
51.034548
 30
0.0
 11
-37.247865
 21
45.721828
 31
0.0
  0
LINE
  5
489
330
36
100
AcDbEntity
  8
0
100
AcDbLine
 10
-44.114305
 20
51.034548
 30
0.0
 11
-44.114305
 21
45.721828
 31
0.0
  0
LINE
  5
48A
330
36
100
AcDbEntity
  8
0
100
AcDbLine
 10
-40.85650499999998
 20
51.034548
 30
0.0
 11
-40.85650499999998
 21
45.721828
 31
0.0
  0
ARC
  5
48B
330
36
100
AcDbEntity
  8
0
100
AcDbCircle
 10
-43.613105
 20
45.721828
 30
0.0
 40
0.5012
100
AcDbArc
 50
180.0
 51
270.0
  0
LINE
  5
48C
330
36
100
AcDbEntity
  8
0
100
AcDbLine
 10
-43.613105
 20
45.220628
 30
0.0
 11
-41.35770499999996
 21
45.220628
 31
0.0
  0
ARC
  5
48D
330
36
100
AcDbEntity
  8
0
100
AcDbCircle
 10
-41.35770499999996
 20
45.721828
 30
0.0
 40
0.5012
100
AcDbArc
 50
270.0
 51
0.0
  0
LINE
  5
48E
330
36
100
AcDbEntity
  8
0
100
AcDbLine
 10
-39.803985
 20
40.860188
 30
0.0
 11
-38.300385
 21
40.860188
 31
0.0
  0
LINE
  5
48F
330
36
100
AcDbEntity
  8
0
100
AcDbLine
 10
-39.803985
 20
40.860188
 30
0.0
 11
-40.40542499999999
 21
40.860188
 31
0.0
  0
LINE
  5
490
330
36
100
AcDbEntity
  8
0
100
AcDbLine
 10
-36.34570500000001
 20
31.01160800000001
 30
0.0
 11
-36.34570500000001
 21
26.651168
 31
0.0
  0
LINE
  5
491
330
36
100
AcDbEntity
  8
0
100
AcDbLine
 10
-35.393425
 20
31.01160800000001
 30
0.0
 11
-35.393425
 21
26.651168
 31
0.0
  0
LINE
  5
492
330
36
100
AcDbEntity
  8
0
100
AcDbLine
 10
-36.34570500000001
 20
31.01160800000001
 30
0.0
 11
-35.393425
 21
31.01160800000001
 31
0.0
  0
LINE
  5
493
330
36
100
AcDbEntity
  8
0
100
AcDbLine
 10
-36.34570500000001
 20
26.651168
 30
0.0
 11
-35.393425
 21
26.651168
 31
0.0
  0
ARC
  5
494
330
36
100
AcDbEntity
  8
0
100
AcDbCircle
 10
-39.052185
 20
23.052737
 30
0.0
 40
1.36809
100
AcDbArc
 50
8.449723999999998
 51
170.852157
  0
LINE
  5
495
330
36
100
AcDbEntity
  8
0
100
AcDbLine
 10
-40.40542499999999
 20
21.313388
 30
0.0
 11
-40.40542499999999
 21
23.238367
 31
0.0
  0
LINE
  5
496
330
36
100
AcDbEntity
  8
0
100
AcDbLine
 10
-37.698945
 20
21.313388
 30
0.0
 11
-37.698945
 21
23.253767
 31
0.0
  0
LINE
  5
497
330
36
100
AcDbEntity
  8
0
100
AcDbLine
 10
-37.698945
 20
21.313388
 30
0.0
 11
-38.300385
 21
21.313388
 31
0.0
  0
LINE
  5
498
330
36
100
AcDbEntity
  8
0
100
AcDbLine
 10
-39.803985
 20
21.313388
 30
0.0
 11
-40.40542499999999
 21
21.313388
 31
0.0
  0
LINE
  5
499
330
36
100
AcDbEntity
  8
0
100
AcDbLine
 10
-39.803985
 20
21.313388
 30
0.0
 11
-38.300385
 21
21.313388
 31
0.0
  0
LINE
  5
49A
330
36
100
AcDbEntity
  8
0
100
AcDbLine
 10
-42.710945
 20
30.585588
 30
0.0
 11
-41.758665
 21
30.585588
 31
0.0
  0
LINE
  5
49B
330
36
100
AcDbEntity
  8
0
100
AcDbLine
 10
-42.710945
 20
30.585588
 30
0.0
 11
-42.710945
 21
27.077188
 31
0.0
  0
LINE
  5
49C
330
36
100
AcDbEntity
  8
0
100
AcDbLine
 10
-41.758665
 20
30.585588
 30
0.0
 11
-41.758665
 21
27.077188
 31
0.0
  0
LINE
  5
49D
330
36
100
AcDbEntity
  8
0
100
AcDbLine
 10
-42.710945
 20
27.077188
 30
0.0
 11
-41.758665
 21
27.077188
 31
0.0
  0
ARC
  5
49E
330
36
100
AcDbEntity
  8
0
100
AcDbCircle
 10
-39.052185
 20
23.052737
 30
0.0
 40
1.86929
100
AcDbArc
 50
9.147842999999999
 51
171.550276
  0
LINE
  5
49F
330
36
100
AcDbEntity
  8
0
100
AcDbLine
 10
-40.90662499999999
 20
21.313388
 30
0.0
 11
-40.90662499999999
 21
23.253767
 31
0.0
  0
ARC
  5
4A0
330
36
100
AcDbEntity
  8
0
100
AcDbCircle
 10
-40.40542499999999
 20
21.313388
 30
0.0
 40
0.5012
100
AcDbArc
 50
180.0
 51
270.0
  0
ARC
  5
4A1
330
36
100
AcDbEntity
  8
0
100
AcDbCircle
 10
-37.698945
 20
21.313388
 30
0.0
 40
0.5012
100
AcDbArc
 50
270.0
 51
0.0
  0
LINE
  5
4A2
330
36
100
AcDbEntity
  8
0
100
AcDbLine
 10
-37.197745
 20
21.313388
 30
0.0
 11
-37.197745
 21
23.238367
 31
0.0
  0
LINE
  5
4A3
330
36
100
AcDbEntity
  8
0
100
AcDbLine
 10
-34.49126500000001
 20
25.673828
 30
0.0
 11
-36.746665
 21
25.673828
 31
0.0
  0
ARC
  5
4A4
330
36
100
AcDbEntity
  8
0
100
AcDbCircle
 10
-34.49126500000001
 20
26.175028
 30
0.0
 40
0.5012
100
AcDbArc
 50
270.0
 51
0.0
  0
ARC
  5
4A5
330
36
100
AcDbEntity
  8
0
100
AcDbCircle
 10
-34.49126500000001
 20
31.487748
 30
0.0
 40
0.5012
100
AcDbArc
 50
0.0
 51
90.0
  0
LINE
  5
4A6
330
36
100
AcDbEntity
  8
0
100
AcDbLine
 10
-34.49126500000001
 20
31.988948
 30
0.0
 11
-36.746665
 21
31.988948
 31
0.0
  0
ARC
  5
4A7
330
36
100
AcDbEntity
  8
0
100
AcDbCircle
 10
-36.746665
 20
31.487748
 30
0.0
 40
0.5012
100
AcDbArc
 50
90.0
 51
180.0
  0
LINE
  5
4A8
330
36
100
AcDbEntity
  8
0
100
AcDbLine
 10
-37.247865
 20
31.487748
 30
0.0
 11
-37.247865
 21
26.175028
 31
0.0
  0
ARC
  5
4A9
330
36
100
AcDbEntity
  8
0
100
AcDbCircle
 10
-36.746665
 20
26.175028
 30
0.0
 40
0.5012
100
AcDbArc
 50
180.0
 51
270.0
  0
ARC
  5
4AA
330
36
100
AcDbEntity
  8
0
100
AcDbCircle
 10
-43.613105
 20
31.487748
 30
0.0
 40
0.5012
100
AcDbArc
 50
90.0
 51
180.0
  0
LINE
  5
4AB
330
36
100
AcDbEntity
  8
0
100
AcDbLine
 10
-43.613105
 20
31.988948
 30
0.0
 11
-41.35770499999996
 21
31.988948
 31
0.0
  0
ARC
  5
4AC
330
36
100
AcDbEntity
  8
0
100
AcDbCircle
 10
-41.35770499999996
 20
31.487748
 30
0.0
 40
0.5012
100
AcDbArc
 50
0.0
 51
90.0
  0
LINE
  5
4AD
330
36
100
AcDbEntity
  8
0
100
AcDbLine
 10
-40.85650499999998
 20
31.487748
 30
0.0
 11
-40.85650499999998
 21
26.175028
 31
0.0
  0
LINE
  5
4AE
330
36
100
AcDbEntity
  8
0
100
AcDbLine
 10
-43.613105
 20
25.673828
 30
0.0
 11
-41.35770499999996
 21
25.673828
 31
0.0
  0
ARC
  5
4AF
330
36
100
AcDbEntity
  8
0
100
AcDbCircle
 10
-43.613105
 20
26.175028
 30
0.0
 40
0.5012
100
AcDbArc
 50
180.0
 51
270.0
  0
ARC
  5
4B0
330
36
100
AcDbEntity
  8
0
100
AcDbCircle
 10
-41.35770499999996
 20
26.175028
 30
0.0
 40
0.5012
100
AcDbArc
 50
270.0
 51
0.0
  0
CIRCLE
  5
4B1
330
36
100
AcDbEntity
  8
0
 62
     3
100
AcDbCircle
 10
74.866501
 20
-54.772879
 30
0.0
 40
0.9
  0
CIRCLE
  5
4B2
330
36
100
AcDbEntity
  8
0
 62
     3
100
AcDbCircle
 10
74.866501
 20
-72.77287900000001
 30
0.0
 40
0.9
  0
LINE
  5
4B3
330
36
100
AcDbEntity
  8
0
 62
     3
100
AcDbLine
 10
101.982392
 20
-48.844755
 30
0.0
 11
101.982392
 21
-88.76155500000001
 31
0.0
  0
TEXT
  5
4B4
330
36
100
AcDbEntity
  8
0
 62
     4
100
AcDbText
 10
27.538536
 20
-49.518994
 30
0.0
 40
3.2
  1
200V
  7
高3.2
100
AcDbText
  0
TEXT
  5
4B5
330
36
100
AcDbEntity
  8
0
 62
     4
100
AcDbText
 10
27.315276
 20
-44.266144
 30
0.0
 40
3.2
  1
入力プラグ
  7
高3.2
100
AcDbText
  0
TEXT
  5
4B6
330
36
100
AcDbEntity
  8
0
 62
     4
100
AcDbText
 10
54.211151
 20
-89.98515000000002
 30
0.0
 40
3.2
  1
緑（アース）
  7
高3.2
100
AcDbText
  0
LINE
  5
4D7
330
36
100
AcDbEntity
  8
0
100
AcDbLine
 10
26.840725
 20
-45.13573899999999
 30
0.0
 11
44.87256699999998
 21
-45.13573899999999
 31
0.0
  0
TEXT
  5
4DA
330
36
100
AcDbEntity
  8
0
 62
     3
100
AcDbText
 10
103.883192
 20
-61.199955
 30
0.0
 40
3.2
  1
入力電圧
  7
高3.2
100
AcDbText
  0
TEXT
  5
4DB
330
36
100
AcDbEntity
  8
0
 62
     3
100
AcDbText
 10
103.883192
 20
-67.852755
 30
0.0
 40
3.2
  1
出力電圧
  7
高3.2
100
AcDbText
  0
TEXT
  5
4DC
330
36
100
AcDbEntity
  8
0
 62
     3
100
AcDbText
 10
103.883192
 20
-74.505555
 30
0.0
 40
3.2
  1
容　　量
  7
高3.2
100
AcDbText
  0
TEXT
  5
4DD
330
36
100
AcDbEntity
  8
0
 62
     3
100
AcDbText
 10
103.883192
 20
-81.15835500000001
 30
0.0
 40
3.2
  1
質　　量
  7
高3.2
100
AcDbText
  0
TEXT
  5
4DE
330
36
100
AcDbEntity
  8
0
 62
     3
100
AcDbText
 10
103.883192
 20
-87.811155
 30
0.0
 40
3.2
  1
絶縁種類
  7
高3.2
100
AcDbText
  0
TEXT
  5
4DF
330
36
100
AcDbEntity
  8
0
 62
     3
100
AcDbText
 10
103.883192
 20
-54.547155
 30
0.0
 40
3.2
  1
型　　式
  7
高3.2
100
AcDbText
  0
LINE
  5
4E0
330
36
100
AcDbEntity
  8
0
100
AcDbLine
 10
101.982392
 20
-55.497555
 30
0.0
 11
174.8403270387556
 21
-55.497555
 31
0.0
  0
LINE
  5
4E1
330
36
100
AcDbEntity
  8
0
100
AcDbLine
 10
101.982392
 20
-62.150355
 30
0.0
 11
174.8403270387556
 21
-62.150355
 31
0.0
  0
LINE
  5
4E2
330
36
100
AcDbEntity
  8
0
100
AcDbLine
 10
101.982392
 20
-68.803155
 30
0.0
 11
174.8403270387556
 21
-68.803155
 31
0.0
  0
LINE
  5
4E3
330
36
100
AcDbEntity
  8
0
100
AcDbLine
 10
101.982392
 20
-75.45595500000001
 30
0.0
 11
174.8403270387556
 21
-75.45595500000001
 31
0.0
  0
LINE
  5
4E4
330
36
100
AcDbEntity
  8
0
100
AcDbLine
 10
101.982392
 20
-82.108755
 30
0.0
 11
174.8403270387556
 21
-82.10875500000001
 31
0.0
  0
TEXT
  5
4E5
330
36
100
AcDbEntity
  8
0
 62
     3
100
AcDbText
 10
119.2544746505776
 20
-46.490856
 30
0.0
 40
4.5
  1
主　　仕　　様
  7
高4.5
100
AcDbText
  0
TEXT
  5
4E6
330
36
100
AcDbEntity
  8
0
 62
     3
100
AcDbText
 10
127.5950797935146
 20
-61.396465
 30
0.0
 40
3.2
  1
AC200V 50/60Hz
  7
高3.2
100
AcDbText
  0
TEXT
  5
4E7
330
36
100
AcDbEntity
  8
0
 62
     3
100
AcDbText
 10
140.7344569850847
 20
-87.613789
 30
0.0
 40
3.2
  1
B種絶縁
  7
高3.2
100
AcDbText
  0
TEXT
  5
4E8
330
36
100
AcDbEntity
  8
0
 62
     3
100
AcDbText
 10
122.8579837084319
 20
-109.793663
 30
0.0
 40
4.5
  1
降圧トランス
  7
高4.5
100
AcDbText
  0
TEXT
  5
4E9
330
36
100
AcDbEntity
  8
0
 62
     3
100
AcDbText
 10
177.489865
 20
-132.17522
 30
0.0
 40
3.2
  1
2006.12.06
  7
高3.2
100
AcDbText
  0
CIRCLE
  5
4F1
330
36
100
AcDbEntity
  8
0
100
AcDbCircle
 10
-16.638821
 20
103.711162
 30
0.0
 40
5.0
  0
TEXT
  5
4F2
330
36
100
AcDbEntity
  8
0
 62
     4
100
AcDbText
 10
-18.88559745062593
 20
100.4711538488061
 30
0.0
 40
6.299999999999998
  1
5
  7
高6.3
100
AcDbText
  0
CIRCLE
  5
4F9
330
36
100
AcDbEntity
  8
0
100
AcDbCircle
 10
-159.182164
 20
90.12545600000001
 30
0.0
 40
5.0
  0
TEXT
  5
4FA
330
36
100
AcDbEntity
  8
0
 62
     4
100
AcDbText
 10
-161.4289404506259
 20
86.88544784880617
 30
0.0
 40
6.299999999999998
  1
7
  7
高6.3
100
AcDbText
  0
CIRCLE
  5
501
330
36
100
AcDbEntity
  8
0
100
AcDbCircle
 10
-159.182164
 20
-5.333480999999999
 30
0.0
 40
5.0
  0
TEXT
  5
502
330
36
100
AcDbEntity
  8
0
 62
     4
100
AcDbText
 10
-161.4289404506259
 20
-8.573489151193829
 30
0.0
 40
6.299999999999998
  1
8
  7
高6.3
100
AcDbText
  0
CIRCLE
  5
509
330
36
100
AcDbEntity
  8
0
100
AcDbCircle
 10
-47.613333
 20
103.946753
 30
0.0
 40
5.0
  0
TEXT
  5
50A
330
36
100
AcDbEntity
  8
0
 62
     4
100
AcDbText
 10
-49.86010945062592
 20
100.7067448488061
 30
0.0
 40
6.299999999999998
  1
9
  7
高6.3
100
AcDbText
  0
CIRCLE
  5
511
330
36
100
AcDbEntity
  8
0
100
AcDbCircle
 10
-159.182164
 20
51.196967
 30
0.0
 40
5.0
  0
TEXT
  5
512
330
36
100
AcDbEntity
  8
0
 62
     4
100
AcDbText
 10
-162.1640071685947
 20
48.8947454444334
 30
0.0
 40
4.5
  1
13
  7
高4.5
100
AcDbText
  0
CIRCLE
  5
519
330
36
100
AcDbEntity
  8
0
100
AcDbCircle
 10
-159.182164
 20
64.33393000000001
 30
0.0
 40
5.0
  0
TEXT
  5
51A
330
36
100
AcDbEntity
  8
0
 62
     4
100
AcDbText
 10
-162.1640071685947
 20
61.95796073886345
 30
0.0
 40
4.5
  1
14
  7
高4.5
100
AcDbText
  0
CIRCLE
  5
521
330
36
100
AcDbEntity
  8
0
100
AcDbCircle
 10
-159.182164
 20
26.370239
 30
0.0
 40
5.0
  0
TEXT
  5
522
330
36
100
AcDbEntity
  8
0
 62
     4
100
AcDbText
 10
-162.1595810867138
 20
24.21027716506137
 30
0.0
 40
4.5
  1
15
  7
高4.5
100
AcDbText
  0
CIRCLE
  5
529
330
36
100
AcDbEntity
  8
0
100
AcDbCircle
 10
-94.724775
 20
-13.397296
 30
0.0
 40
5.0
  0
TEXT
  5
52A
330
36
100
AcDbEntity
  8
0
 62
     4
100
AcDbText
 10
-96.96926956794754
 20
-15.82521240085646
 30
0.0
 40
4.5
  1
11
  7
高4.5
100
AcDbText
  0
CIRCLE
  5
531
330
36
100
AcDbEntity
  8
0
100
AcDbCircle
 10
-159.182164
 20
38.901399
 30
0.0
 40
5.0
  0
TEXT
  5
532
330
36
100
AcDbEntity
  8
0
 62
     4
100
AcDbText
 10
-162.1144851531601
 20
36.7174480855623
 30
0.0
 40
4.5
  1
12
  7
高4.5
100
AcDbText
  0
CIRCLE
  5
533
330
36
100
AcDbEntity
  8
0
 62
     3
100
AcDbCircle
 10
74.866501
 20
-84.772879
 30
0.0
 40
0.9
  0
TEXT
  5
534
330
36
100
AcDbEntity
  8
0
 62
     4
100
AcDbText
 10
53.73030799999999
 20
-53.821234
 30
0.0
 40
3.2
  1
白線
  7
高3.2
100
AcDbText
  0
TEXT
  5
535
330
36
100
AcDbEntity
  8
0
 62
     4
100
AcDbText
 10
54.211151
 20
-71.96469499999998
 30
0.0
 40
3.2
  1
黒線
  7
高3.2
100
AcDbText
  0
TEXT
  5
53E
330
36
100
AcDbEntity
  8
0
 62
     3
100
AcDbText
 10
131.7440177935146
 20
-67.71922299999999
 30
0.0
 40
3.2
  1
AC100V/115V
  7
高3.2
100
AcDbText
  0
LINE
  5
557
330
36
100
AcDbEntity
  8
0
100
AcDbLine
 10
73.96650099999998
 20
-54.772879
 30
0.0
 11
34.979545
 21
-54.772879
 31
0.0
  0
LINE
  5
558
330
36
100
AcDbEntity
  8
0
100
AcDbLine
 10
34.979545
 20
-84.772879
 30
0.0
 11
34.979545
 21
-79.61287900000002
 31
0.0
  0
LINE
  5
559
330
36
100
AcDbEntity
  8
0
100
AcDbLine
 10
73.96650099999998
 20
-84.772879
 30
0.0
 11
34.979545
 21
-84.772879
 31
0.0
  0
LINE
  5
55A
330
36
100
AcDbEntity
  8
0
  6
CENTER
100
AcDbLine
 10
34.926299
 20
-85.08973199999998
 30
0.0
 11
34.926299
 21
-86.84927
 31
0.0
  0
LINE
  5
55B
330
36
100
AcDbEntity
  8
0
  6
CENTER
100
AcDbLine
 10
33.126299
 20
-86.84927
 30
0.0
 11
36.726299
 21
-86.84927
 31
0.0
  0
LINE
  5
55C
330
36
100
AcDbEntity
  8
0
  6
CENTER
100
AcDbLine
 10
33.726299
 20
-87.61726999999998
 30
0.0
 11
36.126299
 21
-87.61726999999998
 31
0.0
  0
LINE
  5
55D
330
36
100
AcDbEntity
  8
0
  6
CENTER
100
AcDbLine
 10
34.326299
 20
-88.38526999999997
 30
0.0
 11
35.526299
 21
-88.38526999999997
 31
0.0
  0
LINE
  5
561
330
36
100
AcDbEntity
  8
0
 62
     3
100
AcDbLine
 10
101.982392
 20
-88.76155500000001
 30
0.0
 11
174.8403270387556
 21
-88.76155500000001
 31
0.0
  0
LINE
  5
562
330
36
100
AcDbEntity
  8
0
 62
     3
100
AcDbLine
 10
101.982392
 20
-48.844755
 30
0.0
 11
174.8403270387556
 21
-48.844755
 31
0.0
  0
TEXT
  5
563
330
36
100
AcDbEntity
  8
0
 62
     3
100
AcDbText
 10
145.921972
 20
-124.927674
 30
0.0
 40
3.2
  1
降圧専用型
 41
0.8
  7
高3.2
100
AcDbText
  0
LINE
  5
564
330
36
100
AcDbEntity
  8
0
100
AcDbLine
 10
119.2544746505776
 20
-47.36386441108789
 30
0.0
 11
156.4329278374746
 21
-47.36386441108789
 31
0.0
  0
TEXT
  5
565
330
36
100
AcDbEntity
  8
0
 62
     3
100
AcDbText
 10
137.1538647935146
 20
-54.743665
 30
0.0
 40
3.2
  1
NTB-200D
  7
高3.2
100
AcDbText
  0
TEXT
  5
566
330
36
100
AcDbEntity
  8
0
 62
     3
100
AcDbText
 10
136.1792213076714
 20
-74.308284
 30
0.0
 40
3.2
  1
2KVA　連続
  7
高3.2
100
AcDbText
  0
TEXT
  5
567
330
36
100
AcDbEntity
  8
0
 62
     3
100
AcDbText
 10
140.3840536412531
 20
-80.96098899999999
 30
0.0
 40
3.2
  1
約14kg
  7
高3.2
100
AcDbText
  0
TEXT
  5
568
330
36
100
AcDbEntity
  8
0
 62
     3
100
AcDbText
 10
122.3741030860487
 20
-118.227055
 30
0.0
 40
4.5
  1
NTB-200D
  7
高4.5
100
AcDbText
  0
TEXT
  5
569
330
36
100
AcDbEntity
  8
0
 62
     3
100
AcDbText
 10
164.0445340964931
 20
-142.193728
 30
0.0
 40
6.299999999999998
  1
NTB-200D
  7
高6.3
100
AcDbText
  0
TEXT
  5
56A
330
36
100
AcDbEntity
  8
0
 62
     3
100
AcDbText
 10
-113.527969
 20
55.02620799999998
 30
0.0
 40
3.2
  1
NTB-200D
 41
0.8160489999999999
100
AcDbText
  0
TEXT
  5
56B
330
36
100
AcDbEntity
  8
0
 62
     3
100
AcDbText
 10
-103.694156
 20
49.383429
 30
0.0
 40
2.399999999999999
  1
2KVA
 41
1.274038999999999
100
AcDbText
  0
TEXT
  5
56C
330
36
100
AcDbEntity
  8
0
 62
     3
100
AcDbText
 10
-167.9868172857142
 20
-142.624634
 30
0.0
 40
3.2
  1
部　　品　　名
 41
0.8
  7
高3.2
100
AcDbText
  0
TEXT
  5
56D
330
36
100
AcDbEntity
  8
0
 62
     3
100
AcDbText
 10
-78.80328128614195
 20
-142.624634
 30
0.0
 40
3.2
  1
個数　
 41
0.8
  7
高3.2
100
AcDbText
  0
TEXT
  5
56E
330
36
100
AcDbEntity
  8
0
 62
     3
100
AcDbText
 10
-113.4390346574674
 20
-142.624634
 30
0.0
 40
3.2
  1
備　　　　　考　
 41
0.8
  7
高3.2
100
AcDbText
  0
TEXT
  5
56F
330
36
100
AcDbEntity
  8
0
 62
     3
100
AcDbText
 10
-136.4152537850535
 20
-142.624634
 30
0.0
 40
3.2
  1
材　　　質
 41
0.8
  7
高3.2
100
AcDbText
  0
LINE
  5
570
330
36
100
AcDbEntity
  8
0
 62
     7
100
AcDbLine
 10
-114.9390346574673
 20
-143.124634
 30
0.0
 11
-114.9390346574673
 21
-58.12463399999987
 31
0.0
  0
TEXT
  5
571
330
36
100
AcDbEntity
  8
0
 62
     3
100
AcDbText
 10
-113.4390346574674
 20
-72.62463399999986
 30
0.0
 40
3.2
  1
AC150V用
 41
0.8
  7
高3.2
100
AcDbText
  0
TEXT
  5
572
330
36
100
AcDbEntity
  8
0
 62
     3
100
AcDbText
 10
-113.4390346574674
 20
-77.62463399999987
 30
0.0
 40
3.2
  1
ネオン球
 41
0.8
  7
高3.2
100
AcDbText
  0
TEXT
  5
573
330
36
100
AcDbEntity
  8
0
 62
     3
100
AcDbText
 10
-113.4390346574674
 20
-82.62463399999987
 30
0.0
 40
3.2
  1
アースチェック
 41
0.8
  7
高3.2
100
AcDbText
  0
TEXT
  5
574
330
36
100
AcDbEntity
  8
0
 62
     3
100
AcDbText
 10
-113.4390346574674
 20
-87.62463399999989
 30
0.0
 40
3.2
  1
亜鉛黒クロメート処理
 41
0.8
  7
高3.2
100
AcDbText
  0
TEXT
  5
575
330
36
100
AcDbEntity
  8
0
 62
     3
100
AcDbText
 10
-113.4390346574674
 20
-97.6246339999998
 30
0.0
 40
3.2
  1
2PE 15A 125V
 41
0.8
  7
高3.2
100
AcDbText
  0
TEXT
  5
576
330
36
100
AcDbEntity
  8
0
 62
     3
100
AcDbText
 10
-113.4390346574674
 20
-107.6246339999999
 30
0.0
 40
3.2
  1
黒
 41
0.8
  7
高3.2
100
AcDbText
  0
TEXT
  5
577
330
36
100
AcDbEntity
  8
0
 62
     3
100
AcDbText
 10
-113.4390346574674
 20
-112.6246339999999
 30
0.0
 40
3.2
  1
2.0sqx3cx2m
 41
0.8
  7
高3.2
100
AcDbText
  0
TEXT
  5
578
330
36
100
AcDbEntity
  8
0
 62
     3
100
AcDbText
 10
-113.4390346574674
 20
-122.6246339999999
 30
0.0
 40
3.2
  1
オレンジ塗装
 41
0.8
  7
高3.2
100
AcDbText
  0
TEXT
  5
57A
330
36
100
AcDbEntity
  8
0
 62
     3
100
AcDbText
 10
-113.4390346574674
 20
-67.62463399999986
 30
0.0
 40
3.2
  1
220V/110V 10A
 41
0.8
  7
高3.2
100
AcDbText
  0
LINE
  5
57B
330
36
100
AcDbEntity
  8
0
 62
     7
100
AcDbLine
 10
-137.9152537850535
 20
-143.124634
 30
0.0
 11
-137.9152537850535
 21
-58.12463399999987
 31
0.0
  0
LINE
  5
57C
330
36
100
AcDbEntity
  8
0
 62
     7
100
AcDbLine
 10
-80.30328128614195
 20
-143.124634
 30
0.0
 11
-80.30328128614197
 21
-58.12463399999987
 31
0.0
  0
LINE
  5
57D
330
36
100
AcDbEntity
  8
0
 62
     7
100
AcDbLine
 10
-169.4868172857141
 20
-143.124634
 30
0.0
 11
-169.4868172857141
 21
-58.12463399999987
 31
0.0
  0
TEXT
  5
57E
330
36
100
AcDbEntity
  8
0
 62
     3
100
AcDbText
 10
-175.1111979999999
 20
-82.62463399999999
 30
0.0
 40
3.2
  1
12
 41
0.8
  7
高3.2
100
AcDbText
  0
TEXT
  5
57F
330
36
100
AcDbEntity
  8
0
 62
     3
100
AcDbText
 10
-175.1111979999999
 20
-87.62463399999999
 30
0.0
 40
3.2
  1
11
 41
0.8
  7
高3.2
100
AcDbText
  0
TEXT
  5
580
330
36
100
AcDbEntity
  8
0
 62
     3
100
AcDbText
 10
-175.1111979999999
 20
-92.62463399999999
 30
0.0
 40
3.2
  1
10
 41
0.8
  7
高3.2
100
AcDbText
  0
TEXT
  5
581
330
36
100
AcDbEntity
  8
0
 62
     3
100
AcDbText
 10
-175.111198
 20
-97.62463400000001
 30
0.0
 40
3.2
  1
9
 41
0.8
  7
高3.2
100
AcDbText
  0
TEXT
  5
582
330
36
100
AcDbEntity
  8
0
 62
     3
100
AcDbText
 10
-175.111198
 20
-102.624634
 30
0.0
 40
3.2
  1
8
 41
0.8
  7
高3.2
100
AcDbText
  0
TEXT
  5
583
330
36
100
AcDbEntity
  8
0
 62
     3
100
AcDbText
 10
-175.111198
 20
-107.624634
 30
0.0
 40
3.2
  1
7
 41
0.8
  7
高3.2
100
AcDbText
  0
TEXT
  5
584
330
36
100
AcDbEntity
  8
0
 62
     3
100
AcDbText
 10
-175.111198
 20
-112.624634
 30
0.0
 40
3.2
  1
6
 41
0.8
  7
高3.2
100
AcDbText
  0
TEXT
  5
585
330
36
100
AcDbEntity
  8
0
 62
     3
100
AcDbText
 10
-175.111198
 20
-117.624634
 30
0.0
 40
3.2
  1
5
 41
0.8
  7
高3.2
100
AcDbText
  0
TEXT
  5
586
330
36
100
AcDbEntity
  8
0
 62
     3
100
AcDbText
 10
-175.111198
 20
-122.624634
 30
0.0
 40
3.2
  1
4
 41
0.8
  7
高3.2
100
AcDbText
  0
TEXT
  5
587
330
36
100
AcDbEntity
  8
0
 62
     3
100
AcDbText
 10
-175.111198
 20
-127.624634
 30
0.0
 40
3.2
  1
3
 41
0.8
  7
高3.2
100
AcDbText
  0
TEXT
  5
588
330
36
100
AcDbEntity
  8
0
 62
     3
100
AcDbText
 10
-175.111198
 20
-132.624634
 30
0.0
 40
3.2
  1
2
 41
0.8
  7
高3.2
100
AcDbText
  0
TEXT
  5
589
330
36
100
AcDbEntity
  8
0
 62
     3
100
AcDbText
 10
-175.111198
 20
-137.624634
 30
0.0
 40
3.2
  1
1
 41
0.8
  7
高3.2
100
AcDbText
  0
TEXT
  5
58A
330
36
100
AcDbEntity
  8
0
 62
     3
100
AcDbText
 10
-167.9868172857142
 20
-137.624634
 30
0.0
 40
3.2
  1
取手ハンドル
 41
0.8
  7
高3.2
100
AcDbText
  0
TEXT
  5
58B
330
36
100
AcDbEntity
  8
0
 62
     3
100
AcDbText
 10
-167.9868172857142
 20
-122.6246339999999
 30
0.0
 40
3.2
  1
上カバー
 41
0.8
  7
高3.2
100
AcDbText
  0
TEXT
  5
58C
330
36
100
AcDbEntity
  8
0
 62
     3
100
AcDbText
 10
-167.9868172857142
 20
-117.6246339999999
 30
0.0
 40
3.2
  1
パネル
 41
0.8
  7
高3.2
100
AcDbText
  0
TEXT
  5
58D
330
36
100
AcDbEntity
  8
0
 62
     3
100
AcDbText
 10
-167.9868172857142
 20
-107.6246339999999
 30
0.0
 40
3.2
  1
プロテクター
 41
0.8
  7
高3.2
100
AcDbText
  0
TEXT
  5
58E
330
36
100
AcDbEntity
  8
0
 62
     3
100
AcDbText
 10
-167.9868172857142
 20
-102.6246339999999
 30
0.0
 40
3.2
  1
脚ゴム
 41
0.8
  7
高3.2
100
AcDbText
  0
TEXT
  5
58F
330
36
100
AcDbEntity
  8
0
 62
     3
100
AcDbText
 10
-167.9868172857142
 20
-97.62463399999987
 30
0.0
 40
3.2
  1
Wコンセント(白)
 41
0.8
  7
高3.2
100
AcDbText
  0
TEXT
  5
590
330
36
100
AcDbEntity
  8
0
 62
     3
100
AcDbText
 10
-167.9868172857142
 20
-87.62463399999989
 30
0.0
 40
3.2
  1
アース端子
 41
0.8
  7
高3.2
100
AcDbText
  0
TEXT
  5
591
330
36
100
AcDbEntity
  8
0
 62
     3
100
AcDbText
 10
-167.9868172857142
 20
-82.62463399999987
 30
0.0
 40
3.2
  1
アースチェック釦
 41
0.8
  7
高3.2
100
AcDbText
  0
TEXT
  5
592
330
36
100
AcDbEntity
  8
0
 62
     3
100
AcDbText
 10
-167.9868172857142
 20
-77.62463399999987
 30
0.0
 40
3.2
  1
電源、アースランプ
 41
0.8
  7
高3.2
100
AcDbText
  0
TEXT
  5
593
330
36
100
AcDbEntity
  8
0
 62
     3
100
AcDbText
 10
-167.9868172857142
 20
-72.62463399999987
 30
0.0
 40
3.2
  1
電圧計
 41
0.8
  7
高3.2
100
AcDbText
  0
TEXT
  5
594
330
36
100
AcDbEntity
  8
0
 62
     3
100
AcDbText
 10
-167.9868172857142
 20
-67.62463399999987
 30
0.0
 40
3.2
  1
安全ブレーカー
 41
0.8
  7
高3.2
100
AcDbText
  0
TEXT
  5
595
330
36
100
AcDbEntity
  8
0
 62
     3
100
AcDbText
 10
-78.80328128614195
 20
-67.62463399999986
 30
0.0
 40
3.2
  1
1
 41
0.8
  7
高3.2
100
AcDbText
  0
TEXT
  5
596
330
36
100
AcDbEntity
  8
0
 62
     3
100
AcDbText
 10
-78.80328128614195
 20
-72.62463399999986
 30
0.0
 40
3.2
  1
1
 41
0.8
  7
高3.2
100
AcDbText
  0
TEXT
  5
597
330
36
100
AcDbEntity
  8
0
 62
     3
100
AcDbText
 10
-78.80328128614195
 20
-77.62463399999987
 30
0.0
 40
3.2
  1
1
 41
0.8
  7
高3.2
100
AcDbText
  0
TEXT
  5
598
330
36
100
AcDbEntity
  8
0
 62
     3
100
AcDbText
 10
-78.80328128614195
 20
-82.62463399999987
 30
0.0
 40
3.2
  1
1
 41
0.8
  7
高3.2
100
AcDbText
  0
TEXT
  5
599
330
36
100
AcDbEntity
  8
0
 62
     3
100
AcDbText
 10
-78.80328128614195
 20
-87.62463399999989
 30
0.0
 40
3.2
  1
2
 41
0.8
  7
高3.2
100
AcDbText
  0
TEXT
  5
59A
330
36
100
AcDbEntity
  8
0
 62
     3
100
AcDbText
 10
-78.80328128614195
 20
-97.6246339999998
 30
0.0
 40
3.2
  1
1
 41
0.8
  7
高3.2
100
AcDbText
  0
TEXT
  5
59B
330
36
100
AcDbEntity
  8
0
 62
     3
100
AcDbText
 10
-78.80328128614195
 20
-102.6246339999999
 30
0.0
 40
3.2
  1
4
 41
0.8
  7
高3.2
100
AcDbText
  0
TEXT
  5
59C
330
36
100
AcDbEntity
  8
0
 62
     3
100
AcDbText
 10
-78.80328128614195
 20
-107.6246339999999
 30
0.0
 40
3.2
  1
1
 41
0.8
  7
高3.2
100
AcDbText
  0
TEXT
  5
59D
330
36
100
AcDbEntity
  8
0
 62
     3
100
AcDbText
 10
-78.80328128614195
 20
-117.6246339999999
 30
0.0
 40
3.2
  1
1
 41
0.8
  7
高3.2
100
AcDbText
  0
TEXT
  5
59E
330
36
100
AcDbEntity
  8
0
 62
     3
100
AcDbText
 10
-78.80328128614195
 20
-112.6246339999999
 30
0.0
 40
3.2
  1
1
 41
0.8
  7
高3.2
100
AcDbText
  0
TEXT
  5
59F
330
36
100
AcDbEntity
  8
0
 62
     3
100
AcDbText
 10
-78.80328128614195
 20
-122.6246339999999
 30
0.0
 40
3.2
  1
1
 41
0.8
  7
高3.2
100
AcDbText
  0
TEXT
  5
5A0
330
36
100
AcDbEntity
  8
0
 62
     3
100
AcDbText
 10
-78.80328128614195
 20
-137.624634
 30
0.0
 40
3.2
  1
1
 41
0.8
  7
高3.2
100
AcDbText
  0
TEXT
  5
5A1
330
36
100
AcDbEntity
  8
0
 62
     3
100
AcDbText
 10
-136.4152537850535
 20
-137.624634
 30
0.0
 40
3.2
  1
PF樹脂
 41
0.8
  7
高3.2
100
AcDbText
  0
TEXT
  5
5A2
330
36
100
AcDbEntity
  8
0
 62
     3
100
AcDbText
 10
-136.4152537850535
 20
-122.6246339999999
 30
0.0
 40
3.2
  1
SPCC
 41
0.8
  7
高3.2
100
AcDbText
  0
TEXT
  5
5A3
330
36
100
AcDbEntity
  8
0
 62
     3
100
AcDbText
 10
-136.4152537850535
 20
-112.6246339999999
 30
0.0
 40
3.2
  1
VCT
 41
0.8
  7
高3.2
100
AcDbText
  0
TEXT
  5
5A4
330
36
100
AcDbEntity
  8
0
 62
     3
100
AcDbText
 10
-136.4152537850535
 20
-117.6246339999999
 30
0.0
 40
3.2
  1
SPCC
 41
0.8
  7
高3.2
100
AcDbText
  0
TEXT
  5
5A5
330
36
100
AcDbEntity
  8
0
 62
     3
100
AcDbText
 10
-136.4152537850535
 20
-102.6246339999999
 30
0.0
 40
3.2
  1
合成ゴム
 41
0.8
  7
高3.2
100
AcDbText
  0
TEXT
  5
5A6
330
36
100
AcDbEntity
  8
0
 62
     3
100
AcDbText
 10
-136.4152537850535
 20
-97.62463399999987
 30
0.0
 40
3.2
  1
耐熱ABS樹脂
 41
0.8
  7
高3.2
100
AcDbText
  0
TEXT
  5
5A7
330
36
100
AcDbEntity
  8
0
 62
     3
100
AcDbText
 10
-136.4152537850535
 20
-87.62463399999989
 30
0.0
 40
3.2
  1
SPCC
 41
0.8
  7
高3.2
100
AcDbText
  0
TEXT
  5
5A8
330
36
100
AcDbEntity
  8
0
 62
     3
100
AcDbText
 10
-136.4152537850535
 20
-67.62463399999987
 30
0.0
 40
3.2
  1
PF樹脂
 41
0.8
  7
高3.2
100
AcDbText
  0
TEXT
  5
5A9
330
36
100
AcDbEntity
  8
0
 62
     3
100
AcDbText
 10
-136.4152537850535
 20
-107.6246339999999
 30
0.0
 40
3.2
  1
PA樹脂
 41
0.8
  7
高3.2
100
AcDbText
  0
TEXT
  5
5AA
330
36
100
AcDbEntity
  8
0
 62
     3
100
AcDbText
 10
-167.9868172857142
 20
-112.6246339999999
 30
0.0
 40
3.2
  1
電線4Pプラグ付
 41
0.8
  7
高3.2
100
AcDbText
  0
LINE
  5
5AB
330
36
100
AcDbEntity
  8
0
 62
     3
100
AcDbLine
 10
213.288765
 20
-97.45891100000001
 30
0.0
 11
161.689402
 21
-97.45891100000001
 31
0.0
  0
TEXT
  5
5AC
330
36
100
AcDbEntity
  8
0
 62
     3
100
AcDbText
 10
166.981662811371
 20
-102.902826
 30
0.0
 40
4.5
  1
コード
  7
高4.5
100
AcDbText
  0
LINE
  5
5AD
330
36
100
AcDbEntity
  8
0
 62
     3
100
AcDbLine
 10
187.689402
 20
-103.458911
 30
0.0
 11
187.689402
 21
-97.45891100000001
 31
0.0
  0
LINE
  5
5AE
330
36
100
AcDbEntity
  8
0
 62
     3
100
AcDbLine
 10
161.689402
 20
-103.458911
 30
0.0
 11
161.689402
 21
-97.45891100000001
 31
0.0
  0
LINE
  5
5AF
330
36
100
AcDbEntity
  8
0
 62
     7
100
AcDbLine
 10
1.783629469657165
 20
-73.12463399999984
 30
0.0
 11
-176.611198
 21
-73.12463399999987
 31
0.0
  0
LINE
  5
5B0
330
36
100
AcDbEntity
  8
0
 62
     3
100
AcDbLine
 10
1.783629469657169
 20
-138.124634
 30
0.0
 11
-176.611198
 21
-138.124634
 31
0.0
  0
LINE
  5
5B1
330
36
100
AcDbEntity
  8
0
 62
     7
100
AcDbLine
 10
1.783629469657165
 20
-78.12463399999984
 30
0.0
 11
-176.611198
 21
-78.12463399999987
 31
0.0
  0
LINE
  5
5B2
330
36
100
AcDbEntity
  8
0
 62
     7
100
AcDbLine
 10
1.783629469657165
 20
-83.12463399999984
 30
0.0
 11
-176.611198
 21
-83.12463399999987
 31
0.0
  0
LINE
  5
5B3
330
36
100
AcDbEntity
  8
0
 62
     7
100
AcDbLine
 10
1.783629469657165
 20
-88.12463399999987
 30
0.0
 11
-176.611198
 21
-88.12463399999987
 31
0.0
  0
LINE
  5
5B4
330
36
100
AcDbEntity
  8
0
 62
     7
100
AcDbLine
 10
1.783629469657165
 20
-93.12463399999987
 30
0.0
 11
-176.611198
 21
-93.12463399999987
 31
0.0
  0
LINE
  5
5B5
330
36
100
AcDbEntity
  8
0
 62
     7
100
AcDbLine
 10
1.783629469657165
 20
-98.12463399999979
 30
0.0
 11
-176.611198
 21
-98.12463399999987
 31
0.0
  0
LINE
  5
5B6
330
36
100
AcDbEntity
  8
0
 62
     7
100
AcDbLine
 10
1.783629469657165
 20
-103.1246339999998
 30
0.0
 11
-176.611198
 21
-103.1246339999999
 31
0.0
  0
LINE
  5
5B7
330
36
100
AcDbEntity
  8
0
 62
     7
100
AcDbLine
 10
1.783629469657165
 20
-108.1246339999999
 30
0.0
 11
-176.611198
 21
-108.1246339999999
 31
0.0
  0
LINE
  5
5B8
330
36
100
AcDbEntity
  8
0
 62
     7
100
AcDbLine
 10
1.783629469657165
 20
-113.1246339999998
 30
0.0
 11
-176.611198
 21
-113.1246339999999
 31
0.0
  0
LINE
  5
5B9
330
36
100
AcDbEntity
  8
0
 62
     7
100
AcDbLine
 10
1.783629469657165
 20
-118.1246339999998
 30
0.0
 11
-176.611198
 21
-118.1246339999999
 31
0.0
  0
LINE
  5
5BA
330
36
100
AcDbEntity
  8
0
 62
     7
100
AcDbLine
 10
1.783629469657165
 20
-123.1246339999999
 30
0.0
 11
-176.611198
 21
-123.1246339999999
 31
0.0
  0
LINE
  5
5BB
330
36
100
AcDbEntity
  8
0
 62
     7
100
AcDbLine
 10
1.783629469657169
 20
-133.124634
 30
0.0
 11
-176.611198
 21
-133.124634
 31
0.0
  0
TEXT
  5
5BC
330
36
100
AcDbEntity
  8
0
 62
     3
100
AcDbText
 10
192.3853844472514
 20
-102.960555
 30
0.0
 40
4.5
  1
5580
  7
高4.5
100
AcDbText
  0
TEXT
  5
6BC
330
36
100
AcDbEntity
  8
0
 62
     4
100
AcDbText
 10
165.7091030860084
 20
105.1672850272202
 30
0.0
 40
3.2
  1
3PE 20A 250V
  7
高3.2
100
AcDbText
  0
LINE
  5
6BD
330
36
100
AcDbEntity
  8
0
 62
     7
100
AcDbLine
 10
165.6745594608024
 20
103.8836542260076
 30
0.0
 11
200.8369657532153
 21
103.8836542260076
 31
0.0
  0
TEXT
  5
6BE
330
36
100
AcDbEntity
  8
0
 62
     3
100
AcDbText
 10
45.0578753727894
 20
-71.71351534841868
 30
0.0
 40
3.2
  1
X
  7
高3.2
100
AcDbText
  0
TEXT
  5
6BF
330
36
100
AcDbEntity
  8
0
 62
     3
100
AcDbText
 10
21.91493098564462
 20
-74.45788966251597
 30
0.0
 40
3.2
  1
Z
  7
高3.2
100
AcDbText
  0
TEXT
  5
6C0
330
36
100
AcDbEntity
  8
0
 62
     3
100
AcDbText
 10
31.45976081197347
 20
-63.08833911703175
 30
0.0
 40
3.2
  1
Y
  7
高3.2
100
AcDbText
  0
TEXT
  5
7C8
330
36
100
AcDbEntity
  8
0
 62
     3
100
AcDbText
 10
200.888802
 20
124.375366
 30
0.0
 40
3.2
  1
担　当
  7
高3.2
100
AcDbText
  0
TEXT
  5
7C9
330
36
100
AcDbEntity
  8
0
 62
     3
100
AcDbText
 10
156.888802
 20
124.375366
 30
0.0
 40
3.2
  1
変更・追記内容
  7
高3.2
100
AcDbText
  0
TEXT
  5
7CA
330
36
100
AcDbEntity
  8
0
 62
     3
100
AcDbText
 10
132.0023170003392
 20
119.7048274900917
 30
0.0
 40
2.0
  1
1
  7
高2
100
AcDbText
  0
TEXT
  5
7CB
330
36
100
AcDbEntity
  8
0
 62
     3
100
AcDbText
 10
131.6938055235819
 20
114.5350107778188
 30
0.0
 40
2.0
  1
2
  7
高2
100
AcDbText
  0
TEXT
  5
7CC
330
36
100
AcDbEntity
  8
0
 62
     3
100
AcDbText
 10
138.888802
 20
124.375366
 30
0.0
 40
3.2
  1
日　付
  7
高3.2
100
AcDbText
  0
TEXT
  5
7CD
330
36
100
AcDbEntity
  8
0
 62
     3
100
AcDbText
 10
138.888802
 20
129.375366
 30
0.0
 40
3.2
  1
図　　　　面　　　　略　　　　歴
  7
高3.2
100
AcDbText
  0
TEXT
  5
7CE
330
36
100
AcDbEntity
  8
0
 62
     3
100
AcDbText
 10
128.888802
 20
124.375366
 30
0.0
 40
3.2
  1
記号
  7
高3.2
100
AcDbText
  0
LINE
  5
7CF
330
36
100
AcDbEntity
  8
0
100
AcDbLine
 10
132.388802
 20
117.666262
 30
0.0
 11
130.488802
 21
114.375366
 31
0.0
  0
LINE
  5
7D0
330
36
100
AcDbEntity
  8
0
100
AcDbLine
 10
132.388802
 20
117.666262
 30
0.0
 11
134.2888019999999
 21
114.375366
 31
0.0
  0
LINE
  5
7D1
330
36
100
AcDbEntity
  8
0
100
AcDbLine
 10
130.488802
 20
114.375366
 30
0.0
 11
134.2888019999999
 21
114.375366
 31
0.0
  0
LINE
  5
7D2
330
36
100
AcDbEntity
  8
0
100
AcDbLine
 10
132.388802
 20
122.666263
 30
0.0
 11
130.488802
 21
119.375366
 31
0.0
  0
LINE
  5
7D3
330
36
100
AcDbEntity
  8
0
100
AcDbLine
 10
132.388802
 20
122.666263
 30
0.0
 11
134.2888019999999
 21
119.375366
 31
0.0
  0
LINE
  5
7D4
330
36
100
AcDbEntity
  8
0
100
AcDbLine
 10
130.488802
 20
119.375366
 30
0.0
 11
134.2888019999999
 21
119.375366
 31
0.0
  0
LINE
  5
7D5
330
36
100
AcDbEntity
  8
0
 62
     3
100
AcDbLine
 10
127.388802
 20
128.875366
 30
0.0
 11
213.388802
 21
128.875366
 31
0.0
  0
LINE
  5
7D6
330
36
100
AcDbEntity
  8
0
 62
     3
100
AcDbLine
 10
127.388802
 20
123.875366
 30
0.0
 11
213.388802
 21
123.875366
 31
0.0
  0
LINE
  5
7D7
330
36
100
AcDbEntity
  8
0
 62
     7
100
AcDbLine
 10
127.388802
 20
118.875366
 30
0.0
 11
213.388802
 21
118.875366
 31
0.0
  0
LINE
  5
7D8
330
36
100
AcDbEntity
  8
0
 62
     3
100
AcDbLine
 10
127.388802
 20
113.875366
 30
0.0
 11
213.388802
 21
113.875366
 31
0.0
  0
LINE
  5
7D9
330
36
100
AcDbEntity
  8
0
 62
     7
100
AcDbLine
 10
199.3888019999999
 20
113.875366
 30
0.0
 11
199.388802
 21
128.875366
 31
0.0
  0
LINE
  5
7DA
330
36
100
AcDbEntity
  8
0
 62
     7
100
AcDbLine
 10
155.388802
 20
113.875366
 30
0.0
 11
155.388802
 21
128.875366
 31
0.0
  0
LINE
  5
7DB
330
36
100
AcDbEntity
  8
0
 62
     7
100
AcDbLine
 10
137.388802
 20
113.875366
 30
0.0
 11
137.388802
 21
128.875366
 31
0.0
  0
LINE
  5
7DC
330
36
100
AcDbEntity
  8
0
 62
     3
100
AcDbLine
 10
127.388802
 20
113.875366
 30
0.0
 11
127.388802
 21
133.875366
 31
0.0
  0
TEXT
  5
977
330
36
100
AcDbEntity
  8
0
 62
     3
100
AcDbText
 10
-136.4152537850535
 20
-77.62463399999987
 30
0.0
 40
3.2
  1
PC樹脂
 41
0.8
  7
高3.2
100
AcDbText
  0
TEXT
  5
978
330
36
100
AcDbEntity
  8
0
 62
     3
100
AcDbText
 10
-136.4152537850535
 20
-82.62463399999987
 30
0.0
 40
3.2
  1
PC樹脂
 41
0.8
  7
高3.2
100
AcDbText
  0
TEXT
  5
98A
330
36
100
AcDbEntity
  8
0
 62
     3
100
AcDbText
 10
-136.4152537850535
 20
-132.624634
 30
0.0
 40
3.2
  1
PF樹脂
 41
0.8
  7
高3.2
100
AcDbText
  0
TEXT
  5
990
330
36
100
AcDbEntity
  8
0
 62
     3
100
AcDbText
 10
-167.9868172857142
 20
-132.624634
 30
0.0
 40
3.2
  1
コードフック
 41
0.8
  7
高3.2
100
AcDbText
  0
TEXT
  5
991
330
36
100
AcDbEntity
  8
0
 62
     3
100
AcDbText
 10
-78.80328128614195
 20
-132.624634
 30
0.0
 40
3.2
  1
2
 41
0.8
  7
高3.2
100
AcDbText
  0
CIRCLE
  5
9CA
330
36
100
AcDbEntity
  8
0
100
AcDbCircle
 10
148.2786083536077
 20
103.8189416036702
 30
0.0
 40
5.0
  0
TEXT
  5
9CB
330
36
100
AcDbEntity
  8
0
 62
     4
100
AcDbText
 10
146.0318319029818
 20
100.5789334524763
 30
0.0
 40
6.299999999999998
  1
2
  7
高6.3
100
AcDbText
  0
CIRCLE
  5
9D5
330
36
100
AcDbEntity
  8
0
100
AcDbCircle
 10
-31.69761886971105
 20
103.6241316040103
 30
0.0
 40
5.0
  0
TEXT
  5
9D6
330
36
100
AcDbEntity
  8
0
 62
     4
100
AcDbText
 10
-34.37845238777527
 20
101.3945258843271
 30
0.0
 40
4.5
  1
10
  7
高4.5
100
AcDbText
  0
TEXT
  5
9DE
330
36
100
AcDbEntity
  8
0
 62
     3
100
AcDbText
 10
-167.9868172857142
 20
-92.62463399999987
 30
0.0
 40
3.2
  1
Wコンセント(黒)
 41
0.8
  7
高3.2
100
AcDbText
  0
TEXT
  5
9DF
330
36
100
AcDbEntity
  8
0
 62
     3
100
AcDbText
 10
-113.4390346574674
 20
-92.62463399999987
 30
0.0
 40
3.2
  1
2PE 15A 125V
 41
0.8
  7
高3.2
100
AcDbText
  0
TEXT
  5
9E0
330
36
100
AcDbEntity
  8
0
 62
     3
100
AcDbText
 10
-136.4152537850535
 20
-92.62463399999987
 30
0.0
 40
3.2
  1
耐熱ABS樹脂
 41
0.8
  7
高3.2
100
AcDbText
  0
TEXT
  5
9E1
330
36
100
AcDbEntity
  8
0
 62
     3
100
AcDbText
 10
-78.80328128614195
 20
-92.62463399999987
 30
0.0
 40
3.2
  1
1
 41
0.8
  7
高3.2
100
AcDbText
  0
LINE
  5
9E2
330
36
100
AcDbEntity
  8
0
 62
     7
100
AcDbLine
 10
1.783629469657165
 20
-68.12463399999986
 30
0.0
 11
-176.611198
 21
-68.12463399999987
 31
0.0
  0
LINE
  5
9E3
330
36
100
AcDbEntity
  8
0
 62
     7
100
AcDbLine
 10
1.783629469657165
 20
-63.12463399999986
 30
0.0
 11
-176.611198
 21
-63.12463399999987
 31
0.0
  0
TEXT
  5
9E4
330
36
100
AcDbEntity
  8
0
 62
     3
100
AcDbText
 10
-175.1111979999999
 20
-77.62463399999998
 30
0.0
 40
3.2
  1
13
 41
0.8
  7
高3.2
100
AcDbText
  0
TEXT
  5
9E5
330
36
100
AcDbEntity
  8
0
 62
     3
100
AcDbText
 10
-175.1111979999999
 20
-72.62463399999998
 30
0.0
 40
3.2
  1
14
 41
0.8
  7
高3.2
100
AcDbText
  0
TEXT
  5
A2A
330
36
100
AcDbEntity
  8
0
 62
     3
100
AcDbText
 10
-69.93021615187297
 20
-142.624634
 30
0.0
 40
3.2
  1
コード
 41
0.8
  7
高3.2
100
AcDbText
  0
LINE
  5
A2B
330
36
100
AcDbEntity
  8
0
 62
     7
100
AcDbLine
 10
-71.43021615187297
 20
-143.124634
 30
0.0
 11
-71.43021615187295
 21
-58.12463399999987
 31
0.0
  0
TEXT
  5
A2C
330
36
100
AcDbEntity
  8
0
 62
     3
100
AcDbText
 10
-69.93021615187297
 20
-137.624634
 30
0.0
 40
3.2
  1
50101
 41
0.8
  7
高3.2
100
AcDbText
  0
TEXT
  5
A2D
330
36
100
AcDbEntity
  8
0
 62
     3
100
AcDbText
 10
-69.93021615187297
 20
-122.6246339999999
 30
0.0
 40
3.2
  1
54271
 41
0.8
  7
高3.2
100
AcDbText
  0
TEXT
  5
A2E
330
36
100
AcDbEntity
  8
0
 62
     3
100
AcDbText
 10
-69.93021615187297
 20
-117.6246339999999
 30
0.0
 40
3.2
  1
55316
 41
0.8
  7
高3.2
100
AcDbText
  0
TEXT
  5
A2F
330
36
100
AcDbEntity
  8
0
 62
     3
100
AcDbText
 10
-69.93021615187297
 20
-107.6246339999999
 30
0.0
 40
3.2
  1
50105
 41
0.8
  7
高3.2
100
AcDbText
  0
TEXT
  5
A30
330
36
100
AcDbEntity
  8
0
 62
     3
100
AcDbText
 10
-69.93021615187297
 20
-102.6246339999999
 30
0.0
 40
3.2
  1
53819
 41
0.8
  7
高3.2
100
AcDbText
  0
TEXT
  5
A31
330
36
100
AcDbEntity
  8
0
 62
     3
100
AcDbText
 10
-69.93021615187297
 20
-97.62463399999987
 30
0.0
 40
3.2
  1
51356
 41
0.8
  7
高3.2
100
AcDbText
  0
TEXT
  5
A32
330
36
100
AcDbEntity
  8
0
 62
     3
100
AcDbText
 10
-69.93021615187297
 20
-87.62463399999989
 30
0.0
 40
3.2
  1
50091
 41
0.8
  7
高3.2
100
AcDbText
  0
TEXT
  5
A33
330
36
100
AcDbEntity
  8
0
 62
     3
100
AcDbText
 10
-69.93021615187297
 20
-82.62463399999987
 30
0.0
 40
3.2
  1
50080
 41
0.8
  7
高3.2
100
AcDbText
  0
TEXT
  5
A34
330
36
100
AcDbEntity
  8
0
 62
     3
100
AcDbText
 10
-69.93021615187297
 20
-77.62463399999987
 30
0.0
 40
3.2
  1
51786
 41
0.8
  7
高3.2
100
AcDbText
  0
TEXT
  5
A35
330
36
100
AcDbEntity
  8
0
 62
     3
100
AcDbText
 10
-69.93021615187297
 20
-72.62463399999987
 30
0.0
 40
3.2
  1
53584
 41
0.8
  7
高3.2
100
AcDbText
  0
TEXT
  5
A36
330
36
100
AcDbEntity
  8
0
 62
     3
100
AcDbText
 10
-69.93021615187297
 20
-67.62463399999987
 30
0.0
 40
3.2
  1
51761
 41
0.8
  7
高3.2
100
AcDbText
  0
TEXT
  5
A37
330
36
100
AcDbEntity
  8
0
 62
     3
100
AcDbText
 10
-69.93021615187297
 20
-112.6246339999999
 30
0.0
 40
3.2
  1
51322
 41
0.8
  7
高3.2
100
AcDbText
  0
TEXT
  5
A38
330
36
100
AcDbEntity
  8
0
 62
     3
100
AcDbText
 10
-69.93021615187297
 20
-132.624634
 30
0.0
 40
3.2
  1
50519
 41
0.8
  7
高3.2
100
AcDbText
  0
TEXT
  5
A39
330
36
100
AcDbEntity
  8
0
 62
     3
100
AcDbText
 10
-69.93021615187297
 20
-92.62463399999987
 30
0.0
 40
3.2
  1
51355
 41
0.8
  7
高3.2
100
AcDbText
  0
TEXT
  5
A40
330
36
100
AcDbEntity
  8
0
 62
     3
100
AcDbText
 10
-55.75294470576761
 20
-142.624634
 30
0.0
 40
3.2
  1
コード番号名称
 41
0.6
  7
高3.2
100
AcDbText
  0
LINE
  5
A41
330
36
100
AcDbEntity
  8
0
 62
     7
100
AcDbLine
 10
-57.25294470576761
 20
-143.124634
 30
0.0
 11
-57.25294470576761
 21
-58.12463399999987
 31
0.0
  0
TEXT
  5
A42
330
36
100
AcDbEntity
  8
0
 62
     3
100
AcDbText
 10
-55.75294470576761
 20
-137.624634
 30
0.0
 40
3.2
  1
トラパック取手
 41
0.6
  7
高3.2
100
AcDbText
  0
TEXT
  5
A43
330
36
100
AcDbEntity
  8
0
 62
     3
100
AcDbText
 10
-55.75294470576761
 20
-122.6246339999999
 30
0.0
 40
3.2
  1
NTB-200D/EK200D兼用　上カバー
 41
0.6
  7
高3.2
100
AcDbText
  0
TEXT
  5
A44
330
36
100
AcDbEntity
  8
0
 62
     3
100
AcDbText
 10
-55.75294470576761
 20
-117.6246339999999
 30
0.0
 40
3.2
  1
NTB-200D用　フロントパネル
 41
0.6
  7
高3.2
100
AcDbText
  0
TEXT
  5
A45
330
36
100
AcDbEntity
  8
0
 62
     3
100
AcDbText
 10
-55.75294470576761
 20
-107.6246339999999
 30
0.0
 40
3.2
  1
トラパックプロテクター
 41
0.6
  7
高3.2
100
AcDbText
  0
TEXT
  5
A46
330
36
100
AcDbEntity
  8
0
 62
     3
100
AcDbText
 10
-55.75294470576761
 20
-102.6246339999999
 30
0.0
 40
3.2
  1
NTB/TBO/NTBO兼用　脚ゴム(ビス付)(1/5個)
 41
0.6
  7
高3.2
100
AcDbText
  0
TEXT
  5
A47
330
36
100
AcDbEntity
  8
0
 62
     3
100
AcDbText
 10
-55.75294470576761
 20
-97.62463399999987
 30
0.0
 40
3.2
  1
2PE-W(アース付コンセント白)
 41
0.6
  7
高3.2
100
AcDbText
  0
TEXT
  5
A48
330
36
100
AcDbEntity
  8
0
 62
     3
100
AcDbText
 10
-55.75294470576761
 20
-87.62463399999989
 30
0.0
 40
3.2
  1
アース金具黒メッキ
 41
0.6
  7
高3.2
100
AcDbText
  0
TEXT
  5
A49
330
36
100
AcDbEntity
  8
0
 62
     3
100
AcDbText
 10
-55.75294470576761
 20
-82.62463399999987
 30
0.0
 40
3.2
  1
押しボタンスイッチリード線付
 41
0.6
  7
高3.2
100
AcDbText
  0
TEXT
  5
A4A
330
36
100
AcDbEntity
  8
0
 62
     3
100
AcDbText
 10
-55.75294470576761
 20
-77.62463399999987
 30
0.0
 40
3.2
  1
二重ランプ100V　びっく用
 41
0.6
  7
高3.2
100
AcDbText
  0
TEXT
  5
A4B
330
36
100
AcDbEntity
  8
0
 62
     3
100
AcDbText
 10
-55.75294470576761
 20
-72.62463399999987
 30
0.0
 40
3.2
  1
新150V電圧メーター
 41
0.6
  7
高3.2
100
AcDbText
  0
TEXT
  5
A4C
330
36
100
AcDbEntity
  8
0
 62
     3
100
AcDbText
 10
-55.75294470576761
 20
-67.62463399999987
 30
0.0
 40
3.2
  1
B-2EA-10A(安全ブレーカー)
 41
0.6
  7
高3.2
100
AcDbText
  0
TEXT
  5
A4D
330
36
100
AcDbEntity
  8
0
 62
     3
100
AcDbText
 10
-55.75294470576761
 20
-112.6246339999999
 30
0.0
 40
3.2
  1
VCT2x3x2.5M防雨型4Pプラグ付
 41
0.6
  7
高3.2
100
AcDbText
  0
TEXT
  5
A4E
330
36
100
AcDbEntity
  8
0
 62
     3
100
AcDbText
 10
-55.75294470576761
 20
-132.624634
 30
0.0
 40
3.2
  1
トラパック用コードフック
 41
0.6
  7
高3.2
100
AcDbText
  0
TEXT
  5
A4F
330
36
100
AcDbEntity
  8
0
 62
     3
100
AcDbText
 10
-55.75294470576761
 20
-92.62463399999987
 30
0.0
 40
3.2
  1
2PE-B
 41
0.6
  7
高3.2
100
AcDbText
  0
TEXT
  5
B7F
330
36
100
AcDbEntity
  8
0
 62
     3
100
AcDbText
 10
-167.9868172857141
 20
-62.62463399999987
 30
0.0
 40
3.2
  1
バックパネル
 41
0.8
  7
高3.2
100
AcDbText
  0
TEXT
  5
B80
330
36
100
AcDbEntity
  8
0
 62
     3
100
AcDbText
 10
-78.80328128614189
 20
-62.62463399999986
 30
0.0
 40
3.2
  1
1
 41
0.8
  7
高3.2
100
AcDbText
  0
TEXT
  5
B81
330
36
100
AcDbEntity
  8
0
 62
     3
100
AcDbText
 10
-136.4152537850534
 20
-62.62463399999987
 30
0.0
 40
3.2
  1
SPCC
 41
0.8
  7
高3.2
100
AcDbText
  0
LINE
  5
B82
330
36
100
AcDbEntity
  8
0
 62
     3
100
AcDbLine
 10
1.78362946965722
 20
-58.12463399999986
 30
0.0
 11
-176.6111979999999
 21
-58.12463399999987
 31
0.0
  0
TEXT
  5
B83
330
36
100
AcDbEntity
  8
0
 62
     3
100
AcDbText
 10
-175.1111979999998
 20
-67.62463399999998
 30
0.0
 40
3.2
  1
15
 41
0.8
  7
高3.2
100
AcDbText
  0
TEXT
  5
B84
330
36
100
AcDbEntity
  8
0
 62
     3
100
AcDbText
 10
-69.9302161518729
 20
-62.62463399999987
 30
0.0
 40
3.2
  1
55318
 41
0.8
  7
高3.2
100
AcDbText
  0
TEXT
  5
B85
330
36
100
AcDbEntity
  8
0
 62
     3
100
AcDbText
 10
-55.75294470576753
 20
-62.62463399999987
 30
0.0
 40
3.2
  1
NTB-200D/EK200D用　バックパネル
 41
0.6
  7
高3.2
100
AcDbText
  0
CIRCLE
  5
C18
330
36
100
AcDbEntity
  8
0
100
AcDbCircle
 10
150.1639752356925
 20
61.54650600169737
 30
0.0
 40
5.0
  0
TEXT
  5
C19
330
36
100
AcDbEntity
  8
0
 62
     4
100
AcDbText
 10
147.1865581489787
 20
59.38654416675873
 30
0.0
 40
4.5
  1
16
  7
高4.5
100
AcDbText
  0
TEXT
  5
CFC
330
36
100
AcDbEntity
  8
0
 62
     3
100
AcDbText
 10
-113.4390346574674
 20
-127.624634
 30
0.0
 40
3.2
  1
オレンジ塗装
 41
0.8
  7
高3.2
100
AcDbText
  0
TEXT
  5
CFD
330
36
100
AcDbEntity
  8
0
 62
     3
100
AcDbText
 10
-167.9868172857142
 20
-127.624634
 30
0.0
 40
3.2
  1
シャーシ
 41
0.8
  7
高3.2
100
AcDbText
  0
TEXT
  5
CFE
330
36
100
AcDbEntity
  8
0
 62
     3
100
AcDbText
 10
-78.80328128614195
 20
-127.624634
 30
0.0
 40
3.2
  1
1
 41
0.8
  7
高3.2
100
AcDbText
  0
TEXT
  5
CFF
330
36
100
AcDbEntity
  8
0
 62
     3
100
AcDbText
 10
-136.4152537850535
 20
-127.624634
 30
0.0
 40
3.2
  1
SPCC
 41
0.8
  7
高3.2
100
AcDbText
  0
LINE
  5
D00
330
36
100
AcDbEntity
  8
0
 62
     7
100
AcDbLine
 10
1.783629469657165
 20
-128.124634
 30
0.0
 11
-176.611198
 21
-128.124634
 31
0.0
  0
TEXT
  5
D01
330
36
100
AcDbEntity
  8
0
 62
     3
100
AcDbText
 10
-69.93021615187297
 20
-127.624634
 30
0.0
 40
3.2
  1
56187
 41
0.8
  7
高3.2
100
AcDbText
  0
TEXT
  5
D02
330
36
100
AcDbEntity
  8
0
 62
     3
100
AcDbText
 10
-55.75294470576761
 20
-127.624634
 30
0.0
 40
3.2
  1
NTB-200D/EK200D兼用　シャーシ
 41
0.6
  7
高3.2
100
AcDbText
  0
TEXT
  5
D05
330
36
100
AcDbEntity
  8
0
 62
     3
100
AcDbText
 10
-175.1111979999998
 20
-62.62463399999997
 30
0.0
 40
3.2
  1
16
 41
0.8
  7
高3.2
100
AcDbText
  0
CIRCLE
  5
D07
330
36
100
AcDbEntity
  8
0
100
AcDbCircle
 10
97.88442640772744
 20
-12.81017818498901
 30
0.0
 40
5.0
  0
TEXT
  5
D08
330
36
100
AcDbEntity
  8
0
 62
     4
100
AcDbText
 10
95.63764995710148
 20
-16.05018633618289
 30
0.0
 40
6.299999999999998
  1
3
  7
高6.3
100
AcDbText
  0
CIRCLE
  5
F7A
330
36
100
AcDbEntity
  8
0
100
AcDbCircle
 10
201.2930959669702
 20
12.6485156204258
 30
0.0
 40
5.0
  0
TEXT
  5
F7B
330
36
100
AcDbEntity
  8
0
 62
     4
100
AcDbText
 10
199.0986342764706
 20
9.752820830319819
 30
0.0
 40
6.299999999999998
  1
6
  7
高6.3
100
AcDbText
  0
ARC
  5
F7D
330
36
100
AcDbEntity
  8
0
 62
     3
100
AcDbCircle
 10
169.2480386084029
 20
53.77243359164777
 30
0.0
 40
2.0
100
AcDbArc
 50
90.0
 51
270.0
  0
ARC
  5
F7E
330
36
100
AcDbEntity
  8
0
 62
     3
100
AcDbCircle
 10
195.7480386084029
 20
53.77243359164777
 30
0.0
 40
2.0
100
AcDbArc
 50
270.0
 51
90.0
  0
LINE
  5
F7F
330
36
100
AcDbEntity
  8
0
 62
     3
100
AcDbLine
 10
169.2480386084029
 20
51.77243359164777
 30
0.0
 11
169.2480386084029
 21
49.27243359164777
 31
0.0
  0
LINE
  5
F80
330
36
100
AcDbEntity
  8
0
 62
     3
100
AcDbLine
 10
195.7480386084029
 20
49.27243359164777
 30
0.0
 11
195.7480386084029
 21
51.77243359164777
 31
0.0
  0
LINE
  5
F81
330
36
100
AcDbEntity
  8
0
 62
     3
100
AcDbLine
 10
169.2480386084029
 20
49.27243359164777
 30
0.0
 11
169.9980386084029
 21
47.77243359164788
 31
0.0
  0
LINE
  5
F82
330
36
100
AcDbEntity
  8
0
 62
     3
100
AcDbLine
 10
194.9980386084029
 20
47.77243359164788
 30
0.0
 11
195.7480386084029
 21
49.27243359164777
 31
0.0
  0
LINE
  5
F83
330
36
100
AcDbEntity
  8
0
 62
     3
100
AcDbLine
 10
169.2480386084029
 20
57.27243359164777
 30
0.0
 11
169.2480386084029
 21
55.77243359164778
 31
0.0
  0
LINE
  5
F84
330
36
100
AcDbEntity
  8
0
 62
     3
100
AcDbLine
 10
195.7480386084029
 20
55.77243359164778
 30
0.0
 11
195.7480386084029
 21
57.27243359164777
 31
0.0
  0
ARC
  5
F85
330
36
100
AcDbEntity
  8
0
 62
     3
100
AcDbCircle
 10
182.4980386084029
 20
43.77243359164789
 30
0.0
 40
12.50000000000002
100
AcDbArc
 50
306.6531750701011
 51
334.1582287284891
  0
ARC
  5
F86
330
36
100
AcDbEntity
  8
0
 62
     3
100
AcDbCircle
 10
182.4980386084029
 20
43.77243359164789
 30
0.0
 40
12.50000000000001
100
AcDbArc
 50
205.8417712364031
 51
233.3468249299153
  0
ARC
  5
F87
330
36
100
AcDbEntity
  8
0
 62
     3
100
AcDbCircle
 10
172.648038608403
 20
30.53508113732381
 30
0.0
 40
4.0
100
AcDbArc
 50
0.0
 51
53.34682492991523
  0
ARC
  5
F88
330
36
100
AcDbEntity
  8
0
 62
     3
100
AcDbCircle
 10
192.3480386084028
 20
30.53508113732381
 30
0.0
 40
4.0
100
AcDbArc
 50
126.6531750700847
 51
180.0
  0
ARC
  5
F89
330
36
100
AcDbEntity
  8
0
 62
     3
100
AcDbCircle
 10
177.4224781088263
 20
22.24057961038194
 30
0.0
 40
2.174439500423603
100
AcDbArc
 50
110.8643046745889
 51
244.8405244688164
  0
ARC
  5
F8A
330
36
100
AcDbEntity
  8
0
 62
     3
100
AcDbCircle
 10
187.5735991079792
 20
22.24057961038194
 30
0.0
 40
2.174439500423597
100
AcDbArc
 50
295.1594755311836
 51
69.13569532541105
  0
LINE
  5
F8B
330
36
100
AcDbEntity
  8
0
 62
     3
100
AcDbLine
 10
176.4980386084029
 20
20.27243359164778
 30
0.0
 11
176.4980386084029
 21
18.77243359164789
 31
0.0
  0
LINE
  5
F8C
330
36
100
AcDbEntity
  8
0
 62
     3
100
AcDbLine
 10
188.4980386084029
 20
18.77243359164789
 30
0.0
 11
188.4980386084029
 21
20.27243359164778
 31
0.0
  0
LINE
  5
F8D
330
36
100
AcDbEntity
  8
0
 62
     3
100
AcDbLine
 10
176.648038608403
 20
30.53508113732381
 30
0.0
 11
176.648038608403
 21
24.27243359164778
 31
0.0
  0
LINE
  5
F8E
330
36
100
AcDbEntity
  8
0
 62
     3
100
AcDbLine
 10
188.3480386084028
 20
24.27243359164778
 30
0.0
 11
188.3480386084028
 21
30.53508113732381
 31
0.0
  0
LINE
  5
F8F
330
36
100
AcDbEntity
  8
0
 62
     3
100
AcDbLine
 10
177.6230386084029
 20
18.77243359164789
 30
0.0
 11
177.9850043598816
 21
5.259045536437845
 31
0.0
  0
LINE
  5
F90
330
36
100
AcDbEntity
  8
0
 62
     3
100
AcDbLine
 10
187.011072856924
 20
5.259045536437845
 30
0.0
 11
187.3730386084029
 21
18.77243359164789
 31
0.0
  0
ARC
  5
F91
330
36
100
AcDbEntity
  8
0
 62
     3
100
AcDbCircle
 10
186.5112521290847
 20
5.272433591647775
 30
0.0
 40
0.5
100
AcDbArc
 50
270.0
 51
358.4656585003048
  0
ARC
  5
F92
330
36
100
AcDbEntity
  8
0
 62
     3
100
AcDbCircle
 10
178.4848250877208
 20
5.272433591647775
 30
0.0
 40
0.5
100
AcDbArc
 50
181.5343414996952
 51
270.0
  0
LINE
  5
F93
330
36
100
AcDbEntity
  8
0
 62
     3
100
AcDbLine
 10
195.7480386084029
 20
55.77243359164778
 30
0.0
 11
169.2480386084029
 21
55.77243359164778
 31
0.0
  0
LINE
  5
F94
330
36
100
AcDbEntity
  8
0
 62
     3
100
AcDbLine
 10
169.2480386084029
 20
51.77243359164777
 30
0.0
 11
195.7480386084029
 21
51.77243359164777
 31
0.0
  0
LINE
  5
F95
330
36
100
AcDbEntity
  8
0
 62
     3
100
AcDbLine
 10
169.2480386084029
 20
49.27243359164777
 30
0.0
 11
195.7480386084029
 21
49.27243359164777
 31
0.0
  0
LINE
  5
F96
330
36
100
AcDbEntity
  8
0
 62
     3
100
AcDbLine
 10
169.9980386084029
 20
47.77243359164788
 30
0.0
 11
194.9980386084029
 21
47.77243359164788
 31
0.0
  0
LINE
  5
F97
330
36
100
AcDbEntity
  8
0
 62
     3
100
AcDbLine
 10
195.7480386084029
 20
57.27243359164777
 30
0.0
 11
169.2480386084029
 21
57.27243359164777
 31
0.0
  0
LINE
  5
F98
330
36
100
AcDbEntity
  8
0
 62
     3
100
AcDbLine
 10
176.648038608403
 20
24.27243359164778
 30
0.0
 11
188.3480386084026
 21
24.27243359164778
 31
0.0
  0
LINE
  5
F99
330
36
100
AcDbEntity
  8
0
 62
     3
100
AcDbLine
 10
176.4980386084029
 20
20.27243359164778
 30
0.0
 11
188.4980386084027
 21
20.27243359164772
 31
0.0
  0
LINE
  5
F9A
330
36
100
AcDbEntity
  8
0
 62
     3
100
AcDbLine
 10
182.9980386084029
 20
67.77243359164777
 30
0.0
 11
182.8480386084028
 21
68.77243359164777
 31
0.0
  0
LINE
  5
F9B
330
36
100
AcDbEntity
  8
0
 62
     3
100
AcDbLine
 10
182.148038608403
 20
68.77243359164777
 30
0.0
 11
181.9980386084029
 21
67.77243359164777
 31
0.0
  0
LINE
  5
F9C
330
36
100
AcDbEntity
  8
0
 62
     3
100
AcDbLine
 10
182.148038608403
 20
68.77243359164777
 30
0.0
 11
182.8480386084028
 21
68.77243359164777
 31
0.0
  0
LINE
  5
F9D
330
36
100
AcDbEntity
  8
0
 62
     3
100
AcDbLine
 10
181.9980386084029
 20
57.27243359164777
 30
0.0
 11
181.9980386084029
 21
67.77243359164777
 31
0.0
  0
LINE
  5
F9E
330
36
100
AcDbEntity
  8
0
 62
     3
100
AcDbLine
 10
182.9980386084029
 20
67.77243359164777
 30
0.0
 11
182.9980386084029
 21
57.27243359164777
 31
0.0
  0
LINE
  5
F9F
330
36
100
AcDbEntity
  8
0
 62
     3
100
AcDbLine
 10
176.4980386084029
 20
18.77243359164789
 30
0.0
 11
188.4980386084029
 21
18.77243359164789
 31
0.0
  0
LINE
  5
FA0
330
36
100
AcDbEntity
  8
0
 62
     3
100
AcDbLine
 10
181.7480386084029
 20
9.472433591647821
 30
0.0
 11
177.9333497114718
 21
9.472433591647821
 31
0.0
  0
LINE
  5
FA1
330
36
100
AcDbEntity
  8
0
 62
     3
100
AcDbLine
 10
177.9767869721389
 20
7.872433591647798
 30
0.0
 11
177.9333497114718
 21
9.472433591647821
 31
0.0
  0
LINE
  5
FA2
330
36
100
AcDbEntity
  8
0
 62
     3
100
AcDbLine
 10
177.9767869721389
 20
7.872433591647798
 30
0.0
 11
181.7480386084029
 21
7.872433591647912
 31
0.0
  0
LINE
  5
FA3
330
36
100
AcDbEntity
  8
0
 62
     3
100
AcDbLine
 10
181.7480386084029
 20
7.872433591647912
 30
0.0
 11
181.7480386084029
 21
9.472433591647821
 31
0.0
  0
LINE
  5
FA4
330
36
100
AcDbEntity
  8
0
 62
     3
100
AcDbLine
 10
183.2480386084029
 20
10.97243359164782
 30
0.0
 11
187.1034400650113
 21
10.97243359164782
 31
0.0
  0
LINE
  5
FA5
330
36
100
AcDbEntity
  8
0
 62
     3
100
AcDbLine
 10
187.1468565539475
 20
12.57243359164784
 30
0.0
 11
187.1034400650113
 21
10.97243359164782
 31
0.0
  0
LINE
  5
FA6
330
36
100
AcDbEntity
  8
0
 62
     3
100
AcDbLine
 10
187.1468565539475
 20
12.57243359164784
 30
0.0
 11
183.2480386084029
 21
12.57243359164784
 31
0.0
  0
LINE
  5
FA7
330
36
100
AcDbEntity
  8
0
 62
     3
100
AcDbLine
 10
183.2480386084029
 20
12.57243359164784
 30
0.0
 11
183.2480386084029
 21
10.97243359164782
 31
0.0
  0
LINE
  5
FA8
330
36
100
AcDbEntity
  8
0
 62
     3
100
AcDbLine
 10
183.2480386084029
 20
7.872433591647912
 30
0.0
 11
187.0192902446666
 21
7.872433591647798
 31
0.0
  0
LINE
  5
FA9
330
36
100
AcDbEntity
  8
0
 62
     3
100
AcDbLine
 10
187.0627275053338
 20
9.472433591647821
 30
0.0
 11
187.0192902446666
 21
7.872433591647798
 31
0.0
  0
LINE
  5
FAA
330
36
100
AcDbEntity
  8
0
 62
     3
100
AcDbLine
 10
187.0627275053338
 20
9.472433591647821
 30
0.0
 11
183.2480386084029
 21
9.472433591647821
 31
0.0
  0
LINE
  5
FAB
330
36
100
AcDbEntity
  8
0
 62
     3
100
AcDbLine
 10
183.2480386084029
 20
9.472433591647821
 30
0.0
 11
183.2480386084029
 21
7.872433591647912
 31
0.0
  0
LINE
  5
FAC
330
36
100
AcDbEntity
  8
0
 62
     3
100
AcDbLine
 10
183.2480386084029
 20
18.77243359164789
 30
0.0
 11
183.2480386084029
 21
17.17243359164786
 31
0.0
  0
LINE
  5
FAD
330
36
100
AcDbEntity
  8
0
 62
     3
100
AcDbLine
 10
183.2480386084029
 20
17.17243359164786
 30
0.0
 11
187.2716226489155
 21
17.17243359164786
 31
0.0
  0
LINE
  5
FAE
330
36
100
AcDbEntity
  8
0
 62
     3
100
AcDbLine
 10
187.2716226489155
 20
17.17243359164786
 30
0.0
 11
187.3150008254023
 21
18.77243359164789
 31
0.0
  0
LINE
  5
FAF
330
36
100
AcDbEntity
  8
0
 62
     3
100
AcDbLine
 10
177.7244545678903
 20
17.17243359164786
 30
0.0
 11
177.6810763914035
 21
18.77243359164789
 31
0.0
  0
LINE
  5
FB0
330
36
100
AcDbEntity
  8
0
 62
     3
100
AcDbLine
 10
177.7244545678903
 20
17.17243359164786
 30
0.0
 11
181.7480386084029
 21
17.17243359164786
 31
0.0
  0
LINE
  5
FB1
330
36
100
AcDbEntity
  8
0
 62
     3
100
AcDbLine
 10
181.7480386084029
 20
17.17243359164786
 30
0.0
 11
181.7480386084029
 21
18.77243359164789
 31
0.0
  0
LINE
  5
FB2
330
36
100
AcDbEntity
  8
0
 62
     3
100
AcDbLine
 10
181.7480386084029
 20
14.07243359164784
 30
0.0
 11
181.7480386084029
 21
15.67243359164787
 31
0.0
  0
LINE
  5
FB3
330
36
100
AcDbEntity
  8
0
 62
     3
100
AcDbLine
 10
181.7480386084029
 20
15.67243359164787
 30
0.0
 11
177.7651302302951
 21
15.67243359164787
 31
0.0
  0
LINE
  5
FB4
330
36
100
AcDbEntity
  8
0
 62
     3
100
AcDbLine
 10
177.8085270502193
 20
14.07243359164784
 30
0.0
 11
177.7651302302951
 21
15.67243359164787
 31
0.0
  0
LINE
  5
FB5
330
36
100
AcDbEntity
  8
0
 62
     3
100
AcDbLine
 10
177.8085270502193
 20
14.07243359164784
 30
0.0
 11
181.7480386084029
 21
14.07243359164784
 31
0.0
  0
LINE
  5
FB6
330
36
100
AcDbEntity
  8
0
 62
     3
100
AcDbLine
 10
183.2480386084029
 20
14.07243359164784
 30
0.0
 11
187.1875501665862
 21
14.07243359164784
 31
0.0
  0
LINE
  5
FB7
330
36
100
AcDbEntity
  8
0
 62
     3
100
AcDbLine
 10
187.2309469865105
 20
15.67243359164787
 30
0.0
 11
187.1875501665862
 21
14.07243359164784
 31
0.0
  0
LINE
  5
FB8
330
36
100
AcDbEntity
  8
0
 62
     3
100
AcDbLine
 10
187.2309469865105
 20
15.67243359164787
 30
0.0
 11
183.2480386084029
 21
15.67243359164787
 31
0.0
  0
LINE
  5
FB9
330
36
100
AcDbEntity
  8
0
 62
     3
100
AcDbLine
 10
183.2480386084029
 20
15.67243359164787
 30
0.0
 11
183.2480386084029
 21
14.07243359164784
 31
0.0
  0
LINE
  5
FBA
330
36
100
AcDbEntity
  8
0
 62
     3
100
AcDbLine
 10
181.7480386084029
 20
12.57243359164784
 30
0.0
 11
177.8492206628583
 21
12.57243359164784
 31
0.0
  0
LINE
  5
FBB
330
36
100
AcDbEntity
  8
0
 62
     3
100
AcDbLine
 10
177.8926371517945
 20
10.97243359164782
 30
0.0
 11
177.8492206628583
 21
12.57243359164784
 31
0.0
  0
LINE
  5
FBC
330
36
100
AcDbEntity
  8
0
 62
     3
100
AcDbLine
 10
177.8926371517945
 20
10.97243359164782
 30
0.0
 11
181.7480386084029
 21
10.97243359164782
 31
0.0
  0
LINE
  5
FBD
330
36
100
AcDbEntity
  8
0
 62
     3
100
AcDbLine
 10
181.7480386084029
 20
10.97243359164782
 30
0.0
 11
181.7480386084029
 21
12.57243359164784
 31
0.0
  0
LINE
  5
FBE
330
36
100
AcDbEntity
  8
0
 62
     3
100
AcDbLine
 10
186.5112521290847
 20
4.772433591647775
 30
0.0
 11
178.4848250877208
 21
4.772433591647775
 31
0.0
  0
LINE
  5
FBF
330
36
100
AcDbEntity
  8
0
 62
     3
100
AcDbLine
 10
179.6449700848655
 20
9.472433591647821
 30
0.0
 11
179.6449700848655
 21
7.872433591647798
 31
0.0
  0
LINE
  5
FC0
330
36
100
AcDbEntity
  8
0
 62
     3
100
AcDbLine
 10
185.3511071319402
 20
10.97243359164782
 30
0.0
 11
185.3511071319402
 21
12.57243359164784
 31
0.0
  0
LINE
  5
FC1
330
36
100
AcDbEntity
  8
0
 62
     3
100
AcDbLine
 10
185.3511071319402
 20
7.872433591647798
 30
0.0
 11
185.3511071319402
 21
9.472433591647821
 31
0.0
  0
LINE
  5
FC2
330
36
100
AcDbEntity
  8
0
 62
     3
100
AcDbLine
 10
179.6449700848655
 20
18.77243359164789
 30
0.0
 11
179.6449700848655
 21
17.17243359164786
 31
0.0
  0
LINE
  5
FC3
330
36
100
AcDbEntity
  8
0
 62
     3
100
AcDbLine
 10
179.6449700848655
 20
15.67243359164787
 30
0.0
 11
179.6449700848655
 21
14.07243359164784
 31
0.0
  0
LINE
  5
FC4
330
36
100
AcDbEntity
  8
0
 62
     3
100
AcDbLine
 10
185.3511071319402
 20
14.07243359164784
 30
0.0
 11
185.3511071319402
 21
15.67243359164787
 31
0.0
  0
LINE
  5
FC5
330
36
100
AcDbEntity
  8
0
 62
     3
100
AcDbLine
 10
179.6449700848655
 20
12.57243359164784
 30
0.0
 11
179.6449700848655
 21
10.97243359164782
 31
0.0
  0
LINE
  5
FC6
330
36
100
AcDbEntity
  8
0
 62
     3
100
AcDbLine
 10
185.3511071319402
 20
18.77243359164789
 30
0.0
 11
185.3511071319402
 21
17.17243359164786
 31
0.0
  0
LINE
  5
FC7
330
36
100
AcDbEntity
  8
0
 62
     3
100
AcDbLine
 10
187.148038608403
 20
65.77243359164777
 30
0.0
 11
187.148038608403
 21
57.32243359164773
 31
0.0
  0
LINE
  5
FC8
330
36
100
AcDbEntity
  8
0
 62
     3
100
AcDbLine
 10
188.148038608403
 20
65.77243359164777
 30
0.0
 11
187.148038608403
 21
65.77243359164777
 31
0.0
  0
LINE
  5
FC9
330
36
100
AcDbEntity
  8
0
 62
     3
100
AcDbLine
 10
188.148038608403
 20
65.77243359164777
 30
0.0
 11
188.148038608403
 21
57.27243359164789
 31
0.0
  0
LINE
  5
FCA
330
36
100
AcDbEntity
  8
0
 62
     3
100
AcDbLine
 10
188.148038608403
 20
66.27243359164777
 30
0.0
 11
187.9980386084029
 21
67.27243359164777
 31
0.0
  0
LINE
  5
FCB
330
36
100
AcDbEntity
  8
0
 62
     3
100
AcDbLine
 10
187.2980386084028
 20
67.27243359164777
 30
0.0
 11
187.148038608403
 21
66.27243359164777
 31
0.0
  0
LINE
  5
FCC
330
36
100
AcDbEntity
  8
0
 62
     3
100
AcDbLine
 10
187.2980386084028
 20
67.27243359164777
 30
0.0
 11
187.9980386084029
 21
67.27243359164777
 31
0.0
  0
LINE
  5
FCD
330
36
100
AcDbEntity
  8
0
 62
     3
100
AcDbLine
 10
187.148038608403
 20
65.77243359164777
 30
0.0
 11
187.148038608403
 21
66.27243359164777
 31
0.0
  0
LINE
  5
FCE
330
36
100
AcDbEntity
  8
0
 62
     3
100
AcDbLine
 10
188.148038608403
 20
66.27243359164777
 30
0.0
 11
188.148038608403
 21
65.77243359164777
 31
0.0
  0
LINE
  5
FCF
330
36
100
AcDbEntity
  8
0
 62
     3
100
AcDbLine
 10
176.8480386084028
 20
65.77243359164777
 30
0.0
 11
176.8480386084028
 21
57.27243359164789
 31
0.0
  0
LINE
  5
FD0
330
36
100
AcDbEntity
  8
0
 62
     3
100
AcDbLine
 10
177.8480386084028
 20
65.77243359164777
 30
0.0
 11
176.8480386084028
 21
65.77243359164777
 31
0.0
  0
LINE
  5
FD1
330
36
100
AcDbEntity
  8
0
 62
     3
100
AcDbLine
 10
177.8480386084028
 20
65.77243359164777
 30
0.0
 11
177.8480386084028
 21
57.32243359164773
 31
0.0
  0
LINE
  5
FD2
330
36
100
AcDbEntity
  8
0
 62
     3
100
AcDbLine
 10
177.8480386084028
 20
66.27243359164777
 30
0.0
 11
177.6980386084027
 21
67.27243359164777
 31
0.0
  0
LINE
  5
FD3
330
36
100
AcDbEntity
  8
0
 62
     3
100
AcDbLine
 10
176.9980386084029
 20
67.27243359164777
 30
0.0
 11
176.8480386084028
 21
66.27243359164777
 31
0.0
  0
LINE
  5
FD4
330
36
100
AcDbEntity
  8
0
 62
     3
100
AcDbLine
 10
176.9980386084029
 20
67.27243359164777
 30
0.0
 11
177.6980386084027
 21
67.27243359164777
 31
0.0
  0
LINE
  5
FD5
330
36
100
AcDbEntity
  8
0
 62
     3
100
AcDbLine
 10
176.8480386084028
 20
65.77243359164777
 30
0.0
 11
176.8480386084028
 21
66.27243359164777
 31
0.0
  0
LINE
  5
FD6
330
36
100
AcDbEntity
  8
0
 62
     3
100
AcDbLine
 10
177.8480386084028
 20
66.27243359164777
 30
0.0
 11
177.8480386084028
 21
65.77243359164777
 31
0.0
  0
LINE
  5
FD7
330
36
100
AcDbEntity
  8
0
 62
     3
100
AcDbLine
 10
184.4980386084029
 20
65.77243359164777
 30
0.0
 11
184.4980386084029
 21
57.32243359164796
 31
0.0
  0
LINE
  5
FD8
330
36
100
AcDbEntity
  8
0
 62
     3
100
AcDbLine
 10
180.4980386084029
 20
65.77243359164777
 30
0.0
 11
180.4980386084029
 21
57.32243359164796
 31
0.0
  0
LINE
  5
FD9
330
36
100
AcDbEntity
  8
0
 62
     3
100
AcDbLine
 10
180.7480386084029
 20
66.27243359164777
 30
0.0
 11
180.4980386084029
 21
65.77243359164777
 31
0.0
  0
LINE
  5
FDA
330
36
100
AcDbEntity
  8
0
 62
     3
100
AcDbLine
 10
184.2480386084029
 20
66.27243359164777
 30
0.0
 11
182.9980386084029
 21
66.27243359164777
 31
0.0
  0
LINE
  5
FDB
330
36
100
AcDbEntity
  8
0
 62
     3
100
AcDbLine
 10
181.9980386084029
 20
66.27243359164777
 30
0.0
 11
180.7480386084029
 21
66.27243359164777
 31
0.0
  0
LINE
  5
FDC
330
36
100
AcDbEntity
  8
0
 62
     3
100
AcDbLine
 10
184.4980386084029
 20
65.77243359164777
 30
0.0
 11
184.2480386084029
 21
66.27243359164777
 31
0.0
  0
LINE
  5
FDD
330
36
100
AcDbEntity
  8
0
 62
     3
100
AcDbLine
 10
181.2480386084029
 20
67.27243359164777
 30
0.0
 11
181.9980386084029
 21
67.27243359164777
 31
0.0
  0
LINE
  5
FDE
330
36
100
AcDbEntity
  8
0
 62
     3
100
AcDbLine
 10
182.9980386084029
 20
67.27243359164777
 30
0.0
 11
183.7480386084029
 21
67.27243359164777
 31
0.0
  0
LINE
  5
FDF
330
36
100
AcDbEntity
  8
0
 62
     3
100
AcDbLine
 10
180.7480386084029
 20
66.27243359164777
 30
0.0
 11
181.2480386084029
 21
67.27243359164777
 31
0.0
  0
LINE
  5
FE0
330
36
100
AcDbEntity
  8
0
 62
     3
100
AcDbLine
 10
183.7480386084029
 20
67.27243359164777
 30
0.0
 11
184.2480386084029
 21
66.27243359164777
 31
0.0
  0
LINE
  5
FE1
330
36
100
AcDbEntity
  8
0
 62
     3
100
AcDbLine
 10
171.2480232478307
 20
38.32384162794907
 30
0.0
 11
171.2480232478307
 21
47.77243359164788
 31
0.0
  0
LINE
  5
FE2
330
36
100
AcDbEntity
  8
0
 62
     3
100
AcDbLine
 10
193.7480539656363
 20
38.32384162105629
 30
0.0
 11
193.7480539656368
 21
47.77243359164788
 31
0.0
  0
LINE
  5
FE3
330
36
100
AcDbEntity
  8
0
 62
     7
100
AcDbLine
 10
188.1480386084027
 20
84.01716206217532
 30
0.0
 11
187.1480386084027
 21
84.01716206217532
 31
0.0
  0
LINE
  5
FE4
330
36
100
AcDbEntity
  8
0
 62
     7
100
AcDbLine
 10
187.9980386084038
 20
84.16716206217532
 30
0.0
 11
187.2980386084037
 21
84.16716206217532
 31
0.0
  0
LINE
  5
FE5
330
36
100
AcDbEntity
  8
0
 62
     7
100
AcDbLine
 10
177.8480386084028
 20
84.01716206217532
 30
0.0
 11
176.8480386084028
 21
84.01716206217532
 31
0.0
  0
LINE
  5
FE6
330
36
100
AcDbEntity
  8
0
 62
     7
100
AcDbLine
 10
177.6980386084027
 20
84.16716206217532
 30
0.0
 11
176.9980386084029
 21
84.16716206217532
 31
0.0
  0
LINE
  5
FE7
330
36
100
AcDbEntity
  8
0
 62
     7
100
AcDbLine
 10
188.1480386084027
 20
88.01716206217532
 30
0.0
 11
187.1480386084027
 21
88.01716206217532
 31
0.0
  0
LINE
  5
FE8
330
36
100
AcDbEntity
  8
0
 62
     7
100
AcDbLine
 10
187.9980386084038
 20
87.86716206217533
 30
0.0
 11
187.2980386084037
 21
87.86716206217533
 31
0.0
  0
LINE
  5
FE9
330
36
100
AcDbEntity
  8
0
 62
     7
100
AcDbLine
 10
177.8480386084028
 20
88.01716206217532
 30
0.0
 11
176.8480386084028
 21
88.01716206217532
 31
0.0
  0
LINE
  5
FEA
330
36
100
AcDbEntity
  8
0
 62
     7
100
AcDbLine
 10
177.6980386084027
 20
87.86716206217533
 30
0.0
 11
176.9980386084029
 21
87.86716206217533
 31
0.0
  0
LINE
  5
FEB
330
36
100
AcDbEntity
  8
0
 62
     7
100
AcDbLine
 10
184.4980386084029
 20
90.66716206217533
 30
0.0
 11
180.4980386084029
 21
90.66716206217533
 31
0.0
  0
LINE
  5
FEC
330
36
100
AcDbEntity
  8
0
 62
     7
100
AcDbLine
 10
184.3480386084028
 20
90.81716206217524
 30
0.0
 11
180.6480386084027
 21
90.81716206217524
 31
0.0
  0
LINE
  5
FED
330
36
100
AcDbEntity
  8
0
 62
     7
100
AcDbLine
 10
184.4980386084029
 20
91.66716206217527
 30
0.0
 11
180.4980386084029
 21
91.66716206217527
 31
0.0
  0
LINE
  5
FEE
330
36
100
AcDbEntity
  8
0
 62
     7
100
AcDbLine
 10
184.3480386084028
 20
91.51716206217527
 30
0.0
 11
180.6480386084027
 21
91.51716206217527
 31
0.0
  0
LINE
  5
FEF
330
36
100
AcDbEntity
  8
0
 62
     7
100
AcDbLine
 10
182.9980386084029
 20
79.26716206217526
 30
0.0
 11
181.9980386084029
 21
79.26716206217526
 31
0.0
  0
LINE
  5
FF0
330
36
100
AcDbEntity
  8
0
 62
     7
100
AcDbLine
 10
182.8480386084028
 20
79.41716206217527
 30
0.0
 11
182.1480386084028
 21
79.41716206217527
 31
0.0
  0
LINE
  5
FF1
330
36
100
AcDbEntity
  8
0
 62
     7
100
AcDbLine
 10
182.9980386084029
 20
83.26716206217525
 30
0.0
 11
181.9980386084029
 21
83.26716206217525
 31
0.0
  0
LINE
  5
FF2
330
36
100
AcDbEntity
  8
0
 62
     7
100
AcDbLine
 10
182.8480386084028
 20
83.11716206217525
 30
0.0
 11
182.1480386084028
 21
83.11716206217525
 31
0.0
  0
LINE
  5
FF3
330
36
100
AcDbEntity
  8
0
 62
     7
100
AcDbLine
 10
180.4980386084029
 20
90.66716206217533
 30
0.0
 11
180.4980386084029
 21
91.66716206217527
 31
0.0
  0
LINE
  5
FF4
330
36
100
AcDbEntity
  8
0
 62
     7
100
AcDbLine
 10
180.6480386084027
 20
90.81716206217524
 30
0.0
 11
180.6480386084027
 21
91.51716206217527
 31
0.0
  0
LINE
  5
FF5
330
36
100
AcDbEntity
  8
0
 62
     7
100
AcDbLine
 10
184.4980386084029
 20
90.66716206217533
 30
0.0
 11
184.4980386084029
 21
91.66716206217527
 31
0.0
  0
LINE
  5
FF6
330
36
100
AcDbEntity
  8
0
 62
     7
100
AcDbLine
 10
184.3480386084028
 20
90.81716206217524
 30
0.0
 11
184.3480386084028
 21
91.51716206217527
 31
0.0
  0
LINE
  5
FF7
330
36
100
AcDbEntity
  8
0
 62
     7
100
AcDbLine
 10
181.9980386084029
 20
79.26716206217526
 30
0.0
 11
181.9980386084029
 21
83.26716206217525
 31
0.0
  0
LINE
  5
FF8
330
36
100
AcDbEntity
  8
0
 62
     7
100
AcDbLine
 10
182.1480386084028
 20
79.41716206217527
 30
0.0
 11
182.1480386084028
 21
83.11716206217525
 31
0.0
  0
LINE
  5
FF9
330
36
100
AcDbEntity
  8
0
 62
     7
100
AcDbLine
 10
182.9980386084029
 20
79.26716206217526
 30
0.0
 11
182.9980386084029
 21
83.26716206217525
 31
0.0
  0
LINE
  5
FFA
330
36
100
AcDbEntity
  8
0
 62
     7
100
AcDbLine
 10
182.8480386084028
 20
79.41716206217527
 30
0.0
 11
182.8480386084028
 21
83.11716206217525
 31
0.0
  0
LINE
  5
FFB
330
36
100
AcDbEntity
  8
0
 62
     7
100
AcDbLine
 10
176.8480386084028
 20
84.01716206217532
 30
0.0
 11
176.8480386084028
 21
88.01716206217532
 31
0.0
  0
LINE
  5
FFC
330
36
100
AcDbEntity
  8
0
 62
     7
100
AcDbLine
 10
176.9980386084029
 20
84.16716206217532
 30
0.0
 11
176.9980386084029
 21
87.86716206217533
 31
0.0
  0
LINE
  5
FFD
330
36
100
AcDbEntity
  8
0
 62
     7
100
AcDbLine
 10
177.8480386084028
 20
84.01716206217532
 30
0.0
 11
177.8480386084028
 21
88.01716206217532
 31
0.0
  0
LINE
  5
FFE
330
36
100
AcDbEntity
  8
0
 62
     7
100
AcDbLine
 10
177.6980386084027
 20
84.16716206217532
 30
0.0
 11
177.6980386084027
 21
87.86716206217533
 31
0.0
  0
LINE
  5
FFF
330
36
100
AcDbEntity
  8
0
 62
     7
100
AcDbLine
 10
187.1480386084027
 20
84.01716206217532
 30
0.0
 11
187.1480386084027
 21
88.01716206217532
 31
0.0
  0
LINE
  5
1000
330
36
100
AcDbEntity
  8
0
 62
     7
100
AcDbLine
 10
187.2980386084037
 20
84.16716206217532
 30
0.0
 11
187.2980386084037
 21
87.86716206217533
 31
0.0
  0
LINE
  5
1001
330
36
100
AcDbEntity
  8
0
 62
     7
100
AcDbLine
 10
188.1480386084027
 20
84.01716206217532
 30
0.0
 11
188.1480386084027
 21
88.01716206217532
 31
0.0
  0
LINE
  5
1002
330
36
100
AcDbEntity
  8
0
 62
     7
100
AcDbLine
 10
187.9980386084038
 20
84.16716206217532
 30
0.0
 11
187.9980386084029
 21
87.86716206217533
 31
0.0
  0
LINE
  5
1003
330
36
100
AcDbEntity
  8
0
 62
     7
100
AcDbLine
 10
177.6980386084027
 20
87.86716206217533
 30
0.0
 11
177.8480386084028
 21
88.01716206217532
 31
0.0
  0
LINE
  5
1004
330
36
100
AcDbEntity
  8
0
 62
     7
100
AcDbLine
 10
176.9980386084029
 20
87.86716206217533
 30
0.0
 11
176.8480386084028
 21
88.01716206217532
 31
0.0
  0
LINE
  5
1005
330
36
100
AcDbEntity
  8
0
 62
     7
100
AcDbLine
 10
176.9980386084029
 20
84.16716206217532
 30
0.0
 11
176.8480386084028
 21
84.01716206217532
 31
0.0
  0
LINE
  5
1006
330
36
100
AcDbEntity
  8
0
 62
     7
100
AcDbLine
 10
177.6980386084027
 20
84.16716206217532
 30
0.0
 11
177.8480386084028
 21
84.01716206217532
 31
0.0
  0
LINE
  5
1007
330
36
100
AcDbEntity
  8
0
 62
     7
100
AcDbLine
 10
182.1480386084028
 20
83.11716206217525
 30
0.0
 11
181.9980386084029
 21
83.26716206217525
 31
0.0
  0
LINE
  5
1008
330
36
100
AcDbEntity
  8
0
 62
     7
100
AcDbLine
 10
182.8480386084028
 20
83.11716206217525
 30
0.0
 11
182.9980386084029
 21
83.26716206217525
 31
0.0
  0
LINE
  5
1009
330
36
100
AcDbEntity
  8
0
 62
     7
100
AcDbLine
 10
182.1480386084028
 20
79.41716206217527
 30
0.0
 11
181.9980386084029
 21
79.26716206217526
 31
0.0
  0
LINE
  5
100A
330
36
100
AcDbEntity
  8
0
 62
     7
100
AcDbLine
 10
182.8480386084028
 20
79.41716206217527
 30
0.0
 11
182.9980386084029
 21
79.26716206217526
 31
0.0
  0
LINE
  5
100B
330
36
100
AcDbEntity
  8
0
 62
     7
100
AcDbLine
 10
187.2980386084037
 20
84.16716206217532
 30
0.0
 11
187.1480386084027
 21
84.01716206217532
 31
0.0
  0
LINE
  5
100C
330
36
100
AcDbEntity
  8
0
 62
     7
100
AcDbLine
 10
187.9980386084038
 20
84.16716206217532
 30
0.0
 11
188.1480386084027
 21
84.01716206217532
 31
0.0
  0
LINE
  5
100D
330
36
100
AcDbEntity
  8
0
 62
     7
100
AcDbLine
 10
187.9980386084038
 20
87.86716206217533
 30
0.0
 11
188.1480386084027
 21
88.01716206217532
 31
0.0
  0
LINE
  5
100E
330
36
100
AcDbEntity
  8
0
 62
     7
100
AcDbLine
 10
187.2980386084037
 20
87.86716206217533
 30
0.0
 11
187.1480386084027
 21
88.01716206217532
 31
0.0
  0
LINE
  5
100F
330
36
100
AcDbEntity
  8
0
 62
     7
100
AcDbLine
 10
184.3480386084028
 20
91.51716206217527
 30
0.0
 11
184.4980386084029
 21
91.66716206217527
 31
0.0
  0
LINE
  5
1010
330
36
100
AcDbEntity
  8
0
 62
     7
100
AcDbLine
 10
184.3480386084028
 20
90.81716206217524
 30
0.0
 11
184.4980386084029
 21
90.66716206217533
 31
0.0
  0
LINE
  5
1011
330
36
100
AcDbEntity
  8
0
 62
     7
100
AcDbLine
 10
180.6480386084027
 20
91.51716206217527
 30
0.0
 11
180.4980386084029
 21
91.66716206217527
 31
0.0
  0
LINE
  5
1012
330
36
100
AcDbEntity
  8
0
 62
     7
100
AcDbLine
 10
180.6480386084027
 20
90.81716206217524
 30
0.0
 11
180.4980386084029
 21
90.66716206217533
 31
0.0
  0
CIRCLE
  5
1013
330
36
100
AcDbEntity
  8
0
 62
     3
100
AcDbCircle
 10
182.4980386084029
 20
86.01716206217531
 30
0.0
 40
13.25
  0
CIRCLE
  5
1014
330
36
100
AcDbEntity
  8
0
 62
     3
100
AcDbCircle
 10
182.4980386084029
 20
86.01716206217531
 30
0.0
 40
15.25
  0
TEXT
  5
1015
330
36
100
AcDbEntity
  8
0
 62
     4
100
AcDbText
 10
189.7513374021708
 20
84.30766647967274
 30
0.0
 40
3.2
  1
X
  7
高3.2
100
AcDbText
  0
TEXT
  5
1016
330
36
100
AcDbEntity
  8
0
 62
     4
100
AcDbText
 10
173.1972196638666
 20
84.2591097228751
 30
0.0
 40
3.2
  1
Z
  7
高3.2
100
AcDbText
  0
TEXT
  5
1017
330
36
100
AcDbEntity
  8
0
 62
     4
100
AcDbText
 10
181.5290461503776
 20
92.70671659702111
 30
0.0
 40
3.2
  1
Y
  7
高3.2
100
AcDbText
  0
LINE
  5
1018
330
36
100
AcDbEntity
  8
0
 62
     3
100
AcDbLine
 10
179.7730386084027
 20
-1.648785709304611
 30
0.0
 11
179.7730386084027
 21
4.772433591647775
 31
0.0
  0
LINE
  5
1019
330
36
100
AcDbEntity
  8
0
 62
     3
100
AcDbLine
 10
185.2230386084028
 20
-1.648785709304611
 30
0.0
 11
185.2230386084028
 21
4.772433591647775
 31
0.0
  0
ARC
  5
101A
330
36
100
AcDbEntity
  8
0
100
AcDbCircle
 10
183.8605386084027
 20
-0.2181607093046374
 30
0.0
 40
1.975625000000008
100
AcDbArc
 50
226.3971810272972
 51
313.6028189727053
  0
ARC
  5
101B
330
36
100
AcDbEntity
  8
0
100
AcDbCircle
 10
183.8605386084027
 20
-3.07941070930461
 30
0.0
 40
1.975625000000008
100
AcDbArc
 50
46.39718102729712
 51
133.6028189727064
  0
ARC
  5
101C
330
36
100
AcDbEntity
  8
0
100
AcDbCircle
 10
181.1355386084027
 20
-0.2181607093046622
 30
0.0
 40
1.975625000000008
100
AcDbArc
 50
226.3971810272972
 51
313.6028189727027
  0
LINE
  5
101D
330
36
100
AcDbEntity
  8
0
 62
     3
100
AcDbLine
 10
137.997835
 20
13.951068
 30
0.0
 11
145.9597566335389
 21
13.951068
 31
0.0
  0
LINE
  5
101E
330
36
100
AcDbEntity
  8
0
 62
     3
100
AcDbLine
 10
137.997835
 20
8.501067999999996
 30
0.0
 11
145.9597566335389
 21
8.501067999999996
 31
0.0
  0
LINE
  5
101F
330
36
100
AcDbEntity
  8
0
 62
     3
100
AcDbLine
 10
158.684756633539
 20
1.226067999999997
 30
0.0
 11
158.684756633539
 21
-8.55333768232705
 31
0.0
  0
LINE
  5
1020
330
36
100
AcDbEntity
  8
0
 62
     3
100
AcDbLine
 10
153.2347566335389
 20
1.226067999999997
 30
0.0
 11
153.2347566335389
 21
-8.55333768232705
 31
0.0
  0
ARC
  5
1021
330
36
100
AcDbEntity
  8
0
 62
     3
100
AcDbCircle
 10
145.9597566335389
 20
1.226067999999997
 30
0.0
 40
7.275
100
AcDbArc
 50
0.0
 51
90.0
  0
ARC
  5
1022
330
36
100
AcDbEntity
  8
0
 62
     3
100
AcDbCircle
 10
145.9597566335389
 20
1.226067999999997
 30
0.0
 40
12.725
100
AcDbArc
 50
0.0
 51
90.0
  0
LINE
  5
1023
330
36
100
AcDbEntity
  8
0
 62
     3
100
AcDbLine
 10
165.9597566335389
 20
-21.27833768232705
 30
0.0
 11
172.4980386084028
 21
-21.27833768232705
 31
0.0
  0
LINE
  5
1024
330
36
100
AcDbEntity
  8
0
 62
     3
100
AcDbLine
 10
165.9597566335389
 20
-15.82833768232704
 30
0.0
 11
172.4980386084028
 21
-15.82833768232704
 31
0.0
  0
ARC
  5
1025
330
36
100
AcDbEntity
  8
0
 62
     3
100
AcDbCircle
 10
172.4980386084028
 20
-8.553337682327047
 30
0.0
 40
7.275
100
AcDbArc
 50
270.0
 51
0.0
  0
ARC
  5
1026
330
36
100
AcDbEntity
  8
0
 62
     3
100
AcDbCircle
 10
172.4980386084028
 20
-8.553337682327047
 30
0.0
 40
12.725
100
AcDbArc
 50
270.0
 51
0.0
  0
ARC
  5
1027
330
36
100
AcDbEntity
  8
0
 62
     3
100
AcDbCircle
 10
165.9597566335389
 20
-8.553337682327047
 30
0.0
 40
7.275
100
AcDbArc
 50
180.0
 51
270.0
  0
ARC
  5
1028
330
36
100
AcDbEntity
  8
0
 62
     3
100
AcDbCircle
 10
165.9597566335389
 20
-8.553337682327047
 30
0.0
 40
12.725
100
AcDbArc
 50
180.0
 51
270.0
  0
LINE
  5
1029
330
36
100
AcDbEntity
  8
0
 62
     3
100
AcDbLine
 10
185.2230386084028
 20
-4.887266794036996
 30
0.0
 11
185.2230386084028
 21
-8.55333768232705
 31
0.0
  0
LINE
  5
102A
330
36
100
AcDbEntity
  8
0
 62
     3
100
AcDbLine
 10
179.7730386084027
 20
-4.887266794036996
 30
0.0
 11
179.7730386084027
 21
-8.55333768232705
 31
0.0
  0
ARC
  5
102B
330
36
100
AcDbEntity
  8
0
100
AcDbCircle
 10
181.1355386084028
 20
-6.317891794037013
 30
0.0
 40
1.97562500000002
100
AcDbArc
 50
46.39718102729727
 51
133.6028189727028
  0
ARC
  5
102C
330
36
100
AcDbEntity
  8
0
100
AcDbCircle
 10
181.1355386084028
 20
-3.456641794036979
 30
0.0
 40
1.97562500000002
100
AcDbArc
 50
226.3971810272972
 51
313.6028189727027
  0
ARC
  5
102D
330
36
100
AcDbEntity
  8
0
100
AcDbCircle
 10
183.8605386084028
 20
-6.317891794037013
 30
0.0
 40
1.97562500000002
100
AcDbArc
 50
46.3971810272974
 51
133.6028189727026
  0
LINE
  5
1119
330
36
100
AcDbEntity
  8
0
100
AcDbLine
 10
44.66335899999999
 20
86.92755299999998
 30
0.0
 11
46.479508
 21
85.93317500000003
 31
0.0
  0
LINE
  5
111A
330
36
100
AcDbEntity
  8
0
100
AcDbLine
 10
46.479508
 20
85.93317500000003
 30
0.0
 11
45.403865
 21
87.70240600000002
 31
0.0
  0
LINE
  5
111B
330
36
100
AcDbEntity
  8
0
100
AcDbLine
 10
19.247835
 20
-3.623931999999998
 30
0.0
 11
19.247835
 21
-24.85855499999999
 31
0.0
  0
LINE
  5
111C
330
36
100
AcDbEntity
  8
0
100
AcDbLine
 10
136.747835
 20
-4.023931999999998
 30
0.0
 11
136.747835
 21
-24.858555
 31
0.0
  0
LINE
  5
111D
330
36
100
AcDbEntity
  8
0
100
AcDbLine
 10
21.747835
 20
-23.608555
 30
0.0
 11
134.247835
 21
-23.608555
 31
0.0
  0
LINE
  5
1121
330
36
100
AcDbEntity
  8
0
100
AcDbLine
 10
-146.802185
 20
3.526008
 30
0.0
 11
-146.802185
 21
-24.858555
 31
0.0
  0
LINE
  5
1122
330
36
100
AcDbEntity
  8
0
100
AcDbLine
 10
-16.302185
 20
3.526008
 30
0.0
 11
-16.302185
 21
-24.858555
 31
0.0
  0
LINE
  5
1123
330
36
100
AcDbEntity
  8
0
100
AcDbLine
 10
-144.302185
 20
-23.608555
 30
0.0
 11
-18.802185
 21
-23.608555
 31
0.0
  0
LINE
  5
1127
330
36
100
AcDbEntity
  8
0
100
AcDbLine
 10
26.497835
 20
-5.873931999999999
 30
0.0
 11
8.769105999999981
 21
-5.873931999999993
 31
0.0
  0
LINE
  5
1128
330
36
100
AcDbEntity
  8
0
100
AcDbLine
 10
26.497835
 20
78.426068
 30
0.0
 11
8.769105999999997
 21
78.426068
 31
0.0
  0
LINE
  5
1129
330
36
100
AcDbEntity
  8
0
100
AcDbLine
 10
10.01910599999998
 20
-3.373931999999994
 30
0.0
 11
10.01910599999999
 21
75.926068
 31
0.0
  0
LINE
  5
112D
330
36
100
AcDbEntity
  8
0
100
AcDbLine
 10
47.24783499999998
 20
-11.273932
 30
0.0
 11
0.8101429999999727
 21
-11.27393199999998
 31
0.0
  0
LINE
  5
112E
330
36
100
AcDbEntity
  8
0
100
AcDbLine
 10
74.23827
 20
103.375468
 30
0.0
 11
0.8101430000000052
 21
103.375468
 31
0.0
  0
LINE
  5
112F
330
36
100
AcDbEntity
  8
0
100
AcDbLine
 10
2.060142999999975
 20
-8.773931999999986
 30
0.0
 11
2.060142999999999
 21
100.875468
 31
0.0
  0
LINE
  5
1133
330
36
100
AcDbEntity
  8
0
100
AcDbLine
 10
187.209894628569
 20
1.893137643542996
 30
0.0
 11
197.3193839266378
 21
9.613781262937948
 31
0.0
1001
ACAD
1000
DSTYLE
1002
{
1070
   147
1040
0.625
1070
    77
1070
     0
1002
}
  0
LINE
  5
1134
330
36
100
AcDbEntity
  8
0
  6
ByBlock
 62
     0
370
    -2
100
AcDbLine
 10
187.6164716467463
 20
1.360761559795483
 30
0.0
 11
185.2230386084028
 21
0.3757704647990607
 31
0.0
  0
LINE
  5
1135
330
36
100
AcDbEntity
  8
0
  6
ByBlock
 62
     0
370
    -2
100
AcDbLine
 10
185.2230386084028
 20
0.3757704647990607
 30
0.0
 11
186.8033176103917
 21
2.425513727290509
 31
0.0
  0
LINE
  5
1136
330
36
100
AcDbEntity
  8
0
  6
ByBlock
 62
     0
370
    -2
100
AcDbLine
 10
185.2230386084028
 20
0.3757704647990607
 30
0.0
 11
187.209894628569
 21
1.893137643542996
 31
0.0
  0
LINE
  5
1137
330
36
100
AcDbEntity
  8
0
100
AcDbLine
 10
86.56993536779411
 20
-5.172645718309603
 30
0.0
 11
93.74022567213923
 21
-10.01275074836979
 31
0.0
1001
ACAD
1000
DSTYLE
1002
{
1070
   147
1040
0.625
1070
    77
1070
     0
1002
}
  0
LINE
  5
1138
330
36
100
AcDbEntity
  8
0
  6
ByBlock
 62
     0
370
    -2
100
AcDbLine
 10
86.19515142568678
 20
-5.727862939759669
 30
0.0
 11
84.497835
 21
-3.773931999999998
 31
0.0
  0
LINE
  5
1139
330
36
100
AcDbEntity
  8
0
  6
ByBlock
 62
     0
370
    -2
100
AcDbLine
 10
84.497835
 20
-3.773931999999998
 30
0.0
 11
86.94471930990145
 21
-4.617428496859536
 31
0.0
  0
LINE
  5
113A
330
36
100
AcDbEntity
  8
0
  6
ByBlock
 62
     0
370
    -2
100
AcDbLine
 10
84.497835
 20
-3.773931999999998
 30
0.0
 11
86.56993536779411
 21
-5.172645718309603
 31
0.0
  0
LINE
  5
113B
330
36
100
AcDbEntity
  8
0
100
AcDbLine
 10
139.9545992310769
 20
47.3077761421934
 30
0.0
 11
147.2504467735388
 21
57.48308971731054
 31
0.0
1001
ACAD
1000
DSTYLE
1002
{
1070
   147
1040
0.625
1070
    77
1070
     0
1002
}
  0
LINE
  5
113C
330
36
100
AcDbEntity
  8
0
  6
ByBlock
 62
     0
370
    -2
100
AcDbLine
 10
140.4989933960694
 20
46.91743762324058
 30
0.0
 11
138.497835
 21
45.276068
 31
0.0
  0
LINE
  5
113D
330
36
100
AcDbEntity
  8
0
  6
ByBlock
 62
     0
370
    -2
100
AcDbLine
 10
138.497835
 20
45.276068
 30
0.0
 11
139.4102050660843
 21
47.69811466114623
 31
0.0
  0
LINE
  5
113E
330
36
100
AcDbEntity
  8
0
  6
ByBlock
 62
     0
370
    -2
100
AcDbLine
 10
138.497835
 20
45.276068
 30
0.0
 11
139.9545992310769
 21
47.3077761421934
 31
0.0
  0
LINE
  5
113F
330
36
100
AcDbEntity
  8
0
100
AcDbLine
 10
-145.8186587678679
 20
77.22953661167956
 30
0.0
 11
-155.5842453068085
 21
86.65342761918525
 31
0.0
1001
ACAD
1000
DSTYLE
1002
{
1070
   147
1040
0.625
1070
    77
1070
     0
1002
}
  0
LINE
  5
1140
330
36
100
AcDbEntity
  8
0
  6
ByBlock
 62
     0
370
    -2
100
AcDbLine
 10
-145.3534955015624
 20
77.71156596964054
 30
0.0
 11
-144.0196994212722
 21
75.49352242127219
 31
0.0
  0
LINE
  5
1141
330
36
100
AcDbEntity
  8
0
  6
ByBlock
 62
     0
370
    -2
100
AcDbLine
 10
-144.0196994212722
 20
75.49352242127219
 30
0.0
 11
-146.2838220341734
 21
76.74750725371858
 31
0.0
  0
LINE
  5
1142
330
36
100
AcDbEntity
  8
0
  6
ByBlock
 62
     0
370
    -2
100
AcDbLine
 10
-144.0196994212722
 20
75.49352242127219
 30
0.0
 11
-145.8186587678679
 21
77.22953661167956
 31
0.0
  0
LINE
  5
1143
330
36
100
AcDbEntity
  8
0
100
AcDbLine
 10
-140.3970244052292
 20
55.12632433848182
 30
0.0
 11
-154.6924851895415
 21
62.13329732303638
 31
0.0
1001
ACAD
1000
DSTYLE
1002
{
1070
   147
1040
0.625
1070
    77
1070
     0
1002
}
  0
LINE
  5
1144
330
36
100
AcDbEntity
  8
0
  6
ByBlock
 62
     0
370
    -2
100
AcDbLine
 10
-140.1021957426493
 20
55.72782681227359
 30
0.0
 11
-138.152185
 21
54.026008
 31
0.0
  0
LINE
  5
1145
330
36
100
AcDbEntity
  8
0
  6
ByBlock
 62
     0
370
    -2
100
AcDbLine
 10
-138.152185
 20
54.026008
 30
0.0
 11
-140.6918530678091
 21
54.52482186469005
 31
0.0
  0
LINE
  5
1146
330
36
100
AcDbEntity
  8
0
  6
ByBlock
 62
     0
370
    -2
100
AcDbLine
 10
-138.152185
 20
54.026008
 30
0.0
 11
-140.3970244052292
 21
55.12632433848182
 31
0.0
  0
LINE
  5
1147
330
36
100
AcDbEntity
  8
0
100
AcDbLine
 10
-110.6412013740296
 20
32.8803813536204
 30
0.0
 11
-154.5041312519408
 21
49.4317447454139
 31
0.0
1001
ACAD
1000
DSTYLE
1002
{
1070
   147
1040
0.625
1070
    77
1070
     0
1002
}
  0
LINE
  5
1148
330
36
100
AcDbEntity
  8
0
  6
ByBlock
 62
     0
370
    -2
100
AcDbLine
 10
-110.4047066050825
 20
33.50711845202525
 30
0.0
 11
-108.302185
 21
31.99777022632736
 31
0.0
  0
LINE
  5
1149
330
36
100
AcDbEntity
  8
0
  6
ByBlock
 62
     0
370
    -2
100
AcDbLine
 10
-108.302185
 20
31.99777022632736
 30
0.0
 11
-110.8776961429766
 21
32.25364425521555
 31
0.0
  0
LINE
  5
114A
330
36
100
AcDbEntity
  8
0
  6
ByBlock
 62
     0
370
    -2
100
AcDbLine
 10
-108.302185
 20
31.99777022632736
 30
0.0
 11
-110.6412013740296
 21
32.8803813536204
 31
0.0
  0
LINE
  5
114B
330
36
100
AcDbEntity
  8
0
100
AcDbLine
 10
-130.5498574804154
 20
25.13386058724464
 30
0.0
 11
-154.1868190391691
 21
26.15453382551072
 31
0.0
1001
ACAD
1000
DSTYLE
1002
{
1070
   147
1040
0.625
1070
    77
1070
     0
1002
}
  0
LINE
  5
114C
330
36
100
AcDbEntity
  8
0
  6
ByBlock
 62
     0
370
    -2
100
AcDbLine
 10
-130.5209584875158
 20
25.80310943069948
 30
0.0
 11
-128.052185
 21
25.026008
 31
0.0
  0
LINE
  5
114D
330
36
100
AcDbEntity
  8
0
  6
ByBlock
 62
     0
370
    -2
100
AcDbLine
 10
-128.052185
 20
25.026008
 30
0.0
 11
-130.578756473315
 21
24.4646117437898
 31
0.0
  0
LINE
  5
114E
330
36
100
AcDbEntity
  8
0
  6
ByBlock
 62
     0
370
    -2
100
AcDbLine
 10
-128.052185
 20
25.026008
 30
0.0
 11
-130.5498574804154
 21
25.13386058724464
 31
0.0
  0
LINE
  5
114F
330
36
100
AcDbEntity
  8
0
100
AcDbLine
 10
-107.5318465886677
 20
20.47611543006417
 30
0.0
 11
-154.4728408226645
 21
37.22143613987166
 31
0.0
1001
ACAD
1000
DSTYLE
1002
{
1070
   147
1040
0.625
1070
    77
1070
     0
1002
}
  0
LINE
  5
1150
330
36
100
AcDbEntity
  8
0
  6
ByBlock
 62
     0
370
    -2
100
AcDbLine
 10
-107.3067744044635
 20
21.1070446480861
 30
0.0
 11
-105.177185
 21
19.636134
 31
0.0
  0
LINE
  5
1151
330
36
100
AcDbEntity
  8
0
  6
ByBlock
 62
     0
370
    -2
100
AcDbLine
 10
-105.177185
 20
19.636134
 30
0.0
 11
-107.756918772872
 21
19.84518621204223
 31
0.0
  0
LINE
  5
1152
330
36
100
AcDbEntity
  8
0
  6
ByBlock
 62
     0
370
    -2
100
AcDbLine
 10
-105.177185
 20
19.636134
 30
0.0
 11
-107.5318465886677
 21
20.47611543006417
 31
0.0
  0
LINE
  5
1153
330
36
100
AcDbEntity
  8
0
100
AcDbLine
 10
-71.76502192977874
 20
10.65871393673016
 30
0.0
 11
-91.27261670518342
 21
-9.780307873460319
 31
0.0
1001
ACAD
1000
DSTYLE
1002
{
1070
   147
1040
0.625
1070
    77
1070
     0
1002
}
  0
LINE
  5
1154
330
36
100
AcDbEntity
  8
0
  6
ByBlock
 62
     0
370
    -2
100
AcDbLine
 10
-72.24960610553782
 20
11.12121511819906
 30
0.0
 11
-70.03894278237044
 21
12.467208
 31
0.0
  0
LINE
  5
1155
330
36
100
AcDbEntity
  8
0
  6
ByBlock
 62
     0
370
    -2
100
AcDbLine
 10
-70.03894278237044
 20
12.467208
 30
0.0
 11
-71.28043775401964
 21
10.19621275526125
 31
0.0
  0
LINE
  5
1156
330
36
100
AcDbEntity
  8
0
  6
ByBlock
 62
     0
370
    -2
100
AcDbLine
 10
-70.03894278237044
 20
12.467208
 30
0.0
 11
-71.76502192977874
 21
10.65871393673016
 31
0.0
  0
LINE
  5
1157
330
36
100
AcDbEntity
  8
0
100
AcDbLine
 10
-137.1786496844458
 20
-8.01118109646681
 30
0.0
 11
-154.218781480375
 21
-5.937495870579402
 31
0.0
1001
ACAD
1000
DSTYLE
1002
{
1070
   147
1040
0.625
1070
    77
1070
     0
1002
}
  0
LINE
  5
1158
330
36
100
AcDbEntity
  8
0
  6
ByBlock
 62
     0
370
    -2
100
AcDbLine
 10
-137.0977270941673
 20
-7.346214405091311
 30
0.0
 11
-134.6969584246333
 21
-8.313188531756512
 31
0.0
  0
LINE
  5
1159
330
36
100
AcDbEntity
  8
0
  6
ByBlock
 62
     0
370
    -2
100
AcDbLine
 10
-134.6969584246333
 20
-8.313188531756512
 30
0.0
 11
-137.2595722747242
 21
-8.676147787842309
 31
0.0
  0
LINE
  5
115A
330
36
100
AcDbEntity
  8
0
  6
ByBlock
 62
     0
370
    -2
100
AcDbLine
 10
-134.6969584246333
 20
-8.313188531756512
 30
0.0
 11
-137.1786496844458
 21
-8.01118109646681
 31
0.0
  0
LINE
  5
115B
330
36
100
AcDbEntity
  8
0
100
AcDbLine
 10
-26.42926841250278
 20
64.87349945523305
 30
0.0
 11
-17.86101740173478
 21
98.86283899553893
 31
0.0
1001
ACAD
1000
DSTYLE
1002
{
1070
   341
1005
9DA
1070
   147
1040
0.625
1070
    77
1070
     0
1002
}
  0
LINE
  5
115D
330
36
100
AcDbEntity
  8
0
100
AcDbLine
 10
-61.51949104865196
 20
56.21641323548054
 30
0.0
 11
-49.01192490269608
 21
99.14634252903892
 31
0.0
1001
ACAD
1000
DSTYLE
1002
{
1070
   147
1040
0.625
1070
    77
1070
     0
1002
}
  0
LINE
  5
115E
330
36
100
AcDbEntity
  8
0
  6
ByBlock
 62
     0
370
    -2
100
AcDbLine
 10
-60.87635845601019
 20
56.02903758461279
 30
0.0
 11
-62.218787
 21
53.816208
 31
0.0
  0
LINE
  5
115F
330
36
100
AcDbEntity
  8
0
  6
ByBlock
 62
     0
370
    -2
100
AcDbLine
 10
-62.218787
 20
53.816208
 30
0.0
 11
-62.16262364129374
 21
56.4037888863483
 31
0.0
  0
LINE
  5
1160
330
36
100
AcDbEntity
  8
0
  6
ByBlock
 62
     0
370
    -2
100
AcDbLine
 10
-62.218787
 20
53.816208
 30
0.0
 11
-61.51949104865196
 21
56.21641323548054
 31
0.0
  0
LINE
  5
1161
330
36
100
AcDbEntity
  8
0
100
AcDbLine
 10
-34.09240427213199
 20
56.31301143761711
 30
0.0
 11
-31.95038432544706
 21
98.63052472877615
 31
0.0
1001
ACAD
1000
DSTYLE
1002
{
1070
   147
1040
0.625
1070
    77
1070
     0
1002
}
  0
LINE
  5
1162
330
36
100
AcDbEntity
  8
0
  6
ByBlock
 62
     0
370
    -2
100
AcDbLine
 10
-33.42338828782593
 20
56.27914731206761
 30
0.0
 11
-34.218787
 21
53.816208
 31
0.0
  0
LINE
  5
1163
330
36
100
AcDbEntity
  8
0
  6
ByBlock
 62
     0
370
    -2
100
AcDbLine
 10
-34.218787
 20
53.816208
 30
0.0
 11
-34.76142025643806
 21
56.34687556316661
 31
0.0
  0
LINE
  5
1164
330
36
100
AcDbEntity
  8
0
  6
ByBlock
 62
     0
370
    -2
100
AcDbLine
 10
-34.218787
 20
53.816208
 30
0.0
 11
-34.09240427213199
 21
56.31301143761711
 31
0.0
  0
LINE
  5
1165
330
36
100
AcDbEntity
  8
0
100
AcDbLine
 10
133.3625521533313
 20
77.90832334600725
 30
0.0
 11
144.0089789900746
 21
86.61133230798558
 31
0.0
1001
ACAD
1000
DSTYLE
1002
{
1070
   147
1040
0.625
1070
    77
1070
     0
1002
}
  0
LINE
  5
1166
330
36
100
AcDbEntity
  8
0
  6
ByBlock
 62
     0
370
    -2
100
AcDbLine
 10
133.7865158910386
 20
77.38968675323199
 30
0.0
 11
131.4269726483687
 21
76.32606800000002
 31
0.0
  0
LINE
  5
1167
330
36
100
AcDbEntity
  8
0
  6
ByBlock
 62
     0
370
    -2
100
AcDbLine
 10
131.4269726483687
 20
76.32606800000002
 30
0.0
 11
132.9385884156241
 21
78.42695993878249
 31
0.0
  0
LINE
  5
1168
330
36
100
AcDbEntity
  8
0
  6
ByBlock
 62
     0
370
    -2
100
AcDbLine
 10
131.4269726483687
 20
76.32606800000002
 30
0.0
 11
133.3625521533313
 21
77.90832334600723
 31
0.0
  0
LINE
  5
1169
330
36
100
AcDbEntity
  8
0
100
AcDbLine
 10
123.6022733251576
 20
95.40051756025979
 30
0.0
 11
143.5464111162746
 21
102.2045348064292
 31
0.0
1001
ACAD
1000
DSTYLE
1002
{
1070
   147
1040
0.625
1070
    77
1070
     0
1002
}
  0
LINE
  5
116A
330
36
100
AcDbEntity
  8
0
  6
ByBlock
 62
     0
370
    -2
100
AcDbLine
 10
123.8185626686145
 20
94.76652380148673
 30
0.0
 11
121.2361747064911
 21
94.59331416163934
 31
0.0
  0
LINE
  5
116B
330
36
100
AcDbEntity
  8
0
  6
ByBlock
 62
     0
370
    -2
100
AcDbLine
 10
121.2361747064911
 20
94.59331416163934
 30
0.0
 11
123.3859839817006
 21
96.03451131903288
 31
0.0
  0
LINE
  5
116C
330
36
100
AcDbEntity
  8
0
  6
ByBlock
 62
     0
370
    -2
100
AcDbLine
 10
121.2361747064911
 20
94.59331416163934
 30
0.0
 11
123.6022733251576
 21
95.40051756025979
 31
0.0
  0
LINE
  5
116D
330
36
100
AcDbEntity
  8
0
100
AcDbLine
 10
85.35970725119963
 20
105.9529157349335
 30
0.0
 11
82.21208262242781
 21
113.9739449752966
 31
0.0
1001
ACAD
1000
DSTYLE
1002
{
1070
   147
1040
0.625
1070
    77
1070
     0
1002
}
  0
LINE
  5
116E
330
36
100
AcDbEntity
  8
0
  6
ByBlock
 62
     0
370
    -2
100
AcDbLine
 10
85.98328448199389
 20
106.1976208707423
 30
0.0
 11
86.27295990677511
 21
103.625692155841
 31
0.0
  0
LINE
  5
116F
330
36
100
AcDbEntity
  8
0
  6
ByBlock
 62
     0
370
    -2
100
AcDbLine
 10
86.27295990677511
 20
103.625692155841
 30
0.0
 11
84.73613002040535
 21
105.7082105991247
 31
0.0
  0
LINE
  5
1170
330
36
100
AcDbEntity
  8
0
  6
ByBlock
 62
     0
370
    -2
100
AcDbLine
 10
86.27295990677511
 20
103.625692155841
 30
0.0
 11
85.35970725119963
 21
105.9529157349335
 31
0.0
  0
TEXT
  5
1171
330
36
100
AcDbEntity
  8
0
 62
     4
100
AcDbText
 10
73.99783500000001
 20
-22.983555
 30
0.0
 40
3.0
  1
235
100
AcDbText
  0
LINE
  5
1172
330
36
100
AcDbEntity
  8
0
  6
ByBlock
 62
     0
370
    -2
100
AcDbLine
 10
134.247835
 20
-22.9386825
 30
0.0
 11
136.747835
 21
-23.608555
 31
0.0
  0
LINE
  5
1173
330
36
100
AcDbEntity
  8
0
  6
ByBlock
 62
     0
370
    -2
100
AcDbLine
 10
136.747835
 20
-23.608555
 30
0.0
 11
134.247835
 21
-24.2784275
 31
0.0
  0
LINE
  5
1174
330
36
100
AcDbEntity
  8
0
  6
ByBlock
 62
     0
370
    -2
100
AcDbLine
 10
136.747835
 20
-23.608555
 30
0.0
 11
134.247835
 21
-23.608555
 31
0.0
  0
LINE
  5
1175
330
36
100
AcDbEntity
  8
0
  6
ByBlock
 62
     0
370
    -2
100
AcDbLine
 10
21.747835
 20
-24.2784275
 30
0.0
 11
19.247835
 21
-23.608555
 31
0.0
  0
LINE
  5
1176
330
36
100
AcDbEntity
  8
0
  6
ByBlock
 62
     0
370
    -2
100
AcDbLine
 10
19.247835
 20
-23.608555
 30
0.0
 11
21.747835
 21
-22.9386825
 31
0.0
  0
LINE
  5
1177
330
36
100
AcDbEntity
  8
0
  6
ByBlock
 62
     0
370
    -2
100
AcDbLine
 10
19.247835
 20
-23.608555
 30
0.0
 11
21.747835
 21
-23.608555
 31
0.0
  0
TEXT
  5
1178
330
36
100
AcDbEntity
  8
0
 62
     4
100
AcDbText
 10
-85.30218500000001
 20
-22.983555
 30
0.0
 40
3.0
  1
260
100
AcDbText
  0
LINE
  5
1179
330
36
100
AcDbEntity
  8
0
  6
ByBlock
 62
     0
370
    -2
100
AcDbLine
 10
-18.802185
 20
-22.9386825
 30
0.0
 11
-16.302185
 21
-23.608555
 31
0.0
  0
LINE
  5
117A
330
36
100
AcDbEntity
  8
0
  6
ByBlock
 62
     0
370
    -2
100
AcDbLine
 10
-16.302185
 20
-23.608555
 30
0.0
 11
-18.802185
 21
-24.2784275
 31
0.0
  0
LINE
  5
117B
330
36
100
AcDbEntity
  8
0
  6
ByBlock
 62
     0
370
    -2
100
AcDbLine
 10
-16.302185
 20
-23.608555
 30
0.0
 11
-18.802185
 21
-23.608555
 31
0.0
  0
LINE
  5
117C
330
36
100
AcDbEntity
  8
0
  6
ByBlock
 62
     0
370
    -2
100
AcDbLine
 10
-144.302185
 20
-24.2784275
 30
0.0
 11
-146.802185
 21
-23.608555
 31
0.0
  0
LINE
  5
117D
330
36
100
AcDbEntity
  8
0
  6
ByBlock
 62
     0
370
    -2
100
AcDbLine
 10
-146.802185
 20
-23.608555
 30
0.0
 11
-144.302185
 21
-22.9386825
 31
0.0
  0
LINE
  5
117E
330
36
100
AcDbEntity
  8
0
  6
ByBlock
 62
     0
370
    -2
100
AcDbLine
 10
-146.802185
 20
-23.608555
 30
0.0
 11
-144.302185
 21
-23.608555
 31
0.0
  0
TEXT
  5
117F
330
36
100
AcDbEntity
  8
0
 62
     4
100
AcDbText
 10
9.394105999999982
 20
33.026068
 30
0.0
 40
3.0
  1
170
 50
90.0
100
AcDbText
  0
LINE
  5
1180
330
36
100
AcDbEntity
  8
0
  6
ByBlock
 62
     0
370
    -2
100
AcDbLine
 10
9.349233499999998
 20
75.926068
 30
0.0
 11
10.019106
 21
78.426068
 31
0.0
  0
LINE
  5
1181
330
36
100
AcDbEntity
  8
0
  6
ByBlock
 62
     0
370
    -2
100
AcDbLine
 10
10.019106
 20
78.426068
 30
0.0
 11
10.6889785
 21
75.926068
 31
0.0
  0
LINE
  5
1182
330
36
100
AcDbEntity
  8
0
  6
ByBlock
 62
     0
370
    -2
100
AcDbLine
 10
10.019106
 20
78.426068
 30
0.0
 11
10.019106
 21
75.926068
 31
0.0
  0
LINE
  5
1183
330
36
100
AcDbEntity
  8
0
  6
ByBlock
 62
     0
370
    -2
100
AcDbLine
 10
10.68897849999998
 20
-3.373931999999994
 30
0.0
 11
10.01910599999998
 21
-5.873931999999994
 31
0.0
  0
LINE
  5
1184
330
36
100
AcDbEntity
  8
0
  6
ByBlock
 62
     0
370
    -2
100
AcDbLine
 10
10.01910599999998
 20
-5.873931999999994
 30
0.0
 11
9.349233499999979
 21
-3.373931999999994
 31
0.0
  0
LINE
  5
1185
330
36
100
AcDbEntity
  8
0
  6
ByBlock
 62
     0
370
    -2
100
AcDbLine
 10
10.01910599999998
 20
-5.873931999999994
 30
0.0
 11
10.01910599999998
 21
-3.373931999999994
 31
0.0
  0
TEXT
  5
1186
330
36
100
AcDbEntity
  8
0
 62
     4
100
AcDbText
 10
1.435142999999979
 20
42.30076800000001
 30
0.0
 40
3.0
  1
230
 50
90.0
100
AcDbText
  0
LINE
  5
1187
330
36
100
AcDbEntity
  8
0
  6
ByBlock
 62
     0
370
    -2
100
AcDbLine
 10
1.390270499999999
 20
100.875468
 30
0.0
 11
2.060143
 21
103.375468
 31
0.0
  0
LINE
  5
1188
330
36
100
AcDbEntity
  8
0
  6
ByBlock
 62
     0
370
    -2
100
AcDbLine
 10
2.060143
 20
103.375468
 30
0.0
 11
2.730015499999999
 21
100.875468
 31
0.0
  0
LINE
  5
1189
330
36
100
AcDbEntity
  8
0
  6
ByBlock
 62
     0
370
    -2
100
AcDbLine
 10
2.060143
 20
103.375468
 30
0.0
 11
2.060143
 21
100.875468
 31
0.0
  0
LINE
  5
118A
330
36
100
AcDbEntity
  8
0
  6
ByBlock
 62
     0
370
    -2
100
AcDbLine
 10
2.730015499999974
 20
-8.773931999999986
 30
0.0
 11
2.060142999999974
 21
-11.27393199999998
 31
0.0
  0
LINE
  5
118B
330
36
100
AcDbEntity
  8
0
  6
ByBlock
 62
     0
370
    -2
100
AcDbLine
 10
2.060142999999974
 20
-11.27393199999998
 30
0.0
 11
1.390270499999974
 21
-8.773931999999986
 31
0.0
  0
LINE
  5
118C
330
36
100
AcDbEntity
  8
0
  6
ByBlock
 62
     0
370
    -2
100
AcDbLine
 10
2.060142999999974
 20
-11.27393199999998
 30
0.0
 11
2.060142999999974
 21
-8.773931999999986
 31
0.0
  0
ARC
  5
118D
330
36
100
AcDbEntity
  8
0
  6
ByBlock
 62
     0
100
AcDbCircle
 10
-26.42926841250278
 20
64.87349945523305
 30
0.0
 40
0.1562500000000046
100
AcDbArc
 50
75.85130062872828
 51
255.8513006287283
  0
ARC
  5
118E
330
36
100
AcDbEntity
  8
0
  6
ByBlock
 62
     0
100
AcDbCircle
 10
-26.42926841250278
 20
64.87349945523305
 30
0.0
 40
0.1562500000000046
100
AcDbArc
 50
255.8513006287283
 51
75.85130062872828
  0
ENDSEC
  0
SECTION
  2
OBJECTS
  0
DICTIONARY
  5
C
330
0
100
AcDbDictionary
281
     1
  3
ACAD_2007HEADERVARS_RT
350
1192
  3
ACAD_COLOR
350
2F
  3
ACAD_GROUP
350
D
  3
ACAD_LAYOUT
350
2E
  3
ACAD_MATERIAL
350
10
  3
ACAD_MLEADERSTYLE
350
6EC
  3
ACAD_MLINESTYLE
350
2B
  3
ACAD_PLOTSETTINGS
350
2D
  3
ACAD_PLOTSTYLENAME
350
E
  3
ACAD_SCALELIST
350
6DA
  3
ACAD_TABLESTYLE
350
30
  3
ACAD_VISUALSTYLE
350
14
  3
ACDB_RECOMPOSE_DATA
350
1190
  3
AcDbVariableDictionary
350
5BF
  3
AEC_PROPERTY_SET_DEFS
350
E1C
  3
DWGPROPS
350
1191
  0
DICTIONARY
  5
793
330
2
100
AcDbDictionary
280
     1
281
     1
  3
ACAD_LAYERSTATES
360
794
  0
DICTIONARY
  5
A74
330
25
100
AcDbDictionary
280
     1
281
     1
  3
ADSK_XREC_LAYER_RECONCILED
360
A75
  0
DICTIONARY
  5
9C6
330
36
100
AcDbDictionary
280
     1
281
     1
  3
ACAD_SORTENTS
360
9C7
  0
DICTIONARY
  5
1192
102
{ACAD_REACTORS
330
C
102
}
330
C
100
AcDbDictionary
281
     1
  3
DIMARCSYM
350
1194
  3
DIMFXL
350
1193
  3
DIMJOGANG
350
1195
  3
INTERFEREVPVS
350
1196
  0
DICTIONARY
  5
2F
102
{ACAD_REACTORS
330
C
102
}
330
C
100
AcDbDictionary
281
     1
  0
DICTIONARY
  5
D
102
{ACAD_REACTORS
330
C
102
}
330
C
100
AcDbDictionary
281
     1
  0
DICTIONARY
  5
2E
102
{ACAD_REACTORS
330
C
102
}
330
C
100
AcDbDictionary
281
     1
  3
Model
350
39
  3
レイアウト1
350
35
  0
DICTIONARY
  5
10
102
{ACAD_REACTORS
330
C
102
}
330
C
100
AcDbDictionary
281
     1
  3
ByBlock
350
12
  3
ByLayer
350
11
  3
Global
350
13
  0
DICTIONARY
  5
6EC
102
{ACAD_REACTORS
330
C
102
}
330
C
100
AcDbDictionary
281
     1
  3
Standard
350
6ED
  0
DICTIONARY
  5
2B
102
{ACAD_REACTORS
330
C
102
}
330
C
100
AcDbDictionary
281
     1
  3
Standard
350
2C
  0
DICTIONARY
  5
2D
102
{ACAD_REACTORS
330
C
102
}
330
C
100
AcDbDictionary
281
     1
  0
ACDBDICTIONARYWDFLT
  5
E
102
{ACAD_REACTORS
330
C
102
}
330
C
100
AcDbDictionary
281
     1
  3
Normal
350
F
100
AcDbDictionaryWithDefault
340
F
  0
DICTIONARY
  5
6DA
102
{ACAD_REACTORS
330
C
102
}
330
C
100
AcDbDictionary
281
     1
  3
A0
350
6DB
  3
A1
350
6DC
  3
A2
350
6DD
  3
A3
350
6DE
  3
A4
350
6DF
  3
A5
350
6E0
  3
A6
350
6E1
  3
A7
350
6E2
  3
A8
350
6E3
  3
A9
350
6E4
  3
B0
350
6E5
  3
B1
350
6E6
  3
B2
350
6E7
  3
B3
350
6E8
  3
B4
350
6E9
  3
B5
350
6EA
  3
B6
350
6EB
  0
DICTIONARY
  5
30
102
{ACAD_REACTORS
330
C
102
}
330
C
100
AcDbDictionary
281
     1
  3
Standard
350
31
  0
DICTIONARY
  5
14
102
{ACAD_REACTORS
330
C
102
}
330
C
100
AcDbDictionary
281
     1
  3
2dWireframe
350
1A
  3
3D Hidden
350
1C
  3
3dWireframe
350
1B
  3
Basic
350
19
  3
Brighten
350
20
  3
ColorChange
350
24
  3
Conceptual
350
1D
  3
Dim
350
1F
  3
EdgeColorOff
350
6D9
  3
Facepattern
350
23
  3
Flat
350
15
  3
FlatWithEdges
350
16
  3
Gouraud
350
17
  3
GouraudWithEdges
350
18
  3
Hidden
350
6D1
  3
JitterOff
350
6D7
  3
Linepattern
350
22
  3
OverhangOff
350
6D8
  3
Realistic
350
1E
  3
Shaded
350
6D6
  3
Shaded with edges
350
6D5
  3
Shades of Gray
350
6D2
  3
Sketchy
350
6D3
  3
Thicken
350
21
  3
Wireframe
350
6D0
  3
X-Ray
350
6D4
  0
XRECORD
  5
1190
102
{ACAD_REACTORS
330
C
102
}
330
C
100
AcDbXrecord
280
     1
 90
        1
330
31
  0
DICTIONARY
  5
5BF
102
{ACAD_REACTORS
330
C
102
}
330
C
100
AcDbDictionary
281
     1
  3
CANNOSCALE
350
A77
  3
CMLEADERSTYLE
350
A76
  3
CTABLESTYLE
350
5C0
  3
DIMASSOC
350
5C3
  3
INDEXCTL
350
5C2
  3
LOFTANG1
350
1033
  3
LOFTANG2
350
1034
  3
SORTENTS
350
5C1
  3
XCLIPFRAME
350
1035
  0
DICTIONARY
  5
E1C
102
{ACAD_REACTORS
330
C
102
}
330
C
100
AcDbDictionary
281
     1
  0
XRECORD
  5
1191
102
{ACAD_REACTORS
330
C
102
}
330
C
100
AcDbXrecord
280
     1
  1
DWGPROPS COOKIE
  2

  3

  4

  6

  7

  8
imamura
  9

300
=
301
=
302
=
303
=
304
=
305
=
306
=
307
=
308
=
309
=
 40
0.1936173958333333
 41
2455615.656509329
 42
2460251.679194653
  1

 90
        0
  0
DICTIONARY
  5
794
102
{ACAD_REACTORS
330
793
102
}
330
793
100
AcDbDictionary
281
     1
  0
XRECORD
  5
A75
102
{ACAD_REACTORS
330
A74
102
}
330
A74
100
AcDbXrecord
280
     1
290
     1
  0
SORTENTSTABLE
  5
9C7
102
{ACAD_REACTORS
330
9C6
102
}
330
9C6
100
AcDbSortentsTable
330
36
331
B83
  5
FF6
331
582
  5
5B9
331
563
  5
59B
331
534
  5
58F
331
4DF
  5
570
331
19E
  5
1E0
331
16F
  5
1CB
331
481
  5
4DA
331
462
  5
499
331
443
  5
47A
331
424
  5
45B
331
40D
  5
444
331
3EE
  5
425
331
395
  5
3CC
331
3CF
  5
406
331
376
  5
3AD
331
3B0
  5
3E7
331
357
  5
38E
331
338
  5
36F
331
302
  5
339
331
2E3
  5
31A
331
2C4
  5
2FB
331
1025
  5
1186
331
1006
  5
1167
331
FE7
  5
1148
331
FC8
  5
1129
331
A4B
  5
FED
331
591
  5
7CE
331
572
  5
5AA
331
17E
  5
1DA
331
471
  5
4A8
331
452
  5
489
331
433
  5
46A
331
414
  5
44B
331
3FD
  5
434
331
3DE
  5
415
331
385
  5
3BC
331
3BF
  5
3F6
331
366
  5
39D
331
3A0
  5
3D7
331
347
  5
37E
331
328
  5
35F
331
311
  5
348
331
2F2
  5
329
331
2D3
  5
30A
331
2B4
  5
2EB
331
1015
  5
1176
331
FF6
  5
1157
331
FD7
  5
1138
331
B82
  5
FF5
331
581
  5
5B8
331
562
  5
59A
331
533
  5
58E
331
4DE
  5
56F
331
4A7
  5
557
331
16E
  5
1CA
331
14F
  5
1B7
331
480
  5
4D7
331
461
  5
498
331
442
  5
479
331
423
  5
45A
331
40C
  5
443
331
3ED
  5
424
331
394
  5
3CB
331
3CE
  5
405
331
375
  5
3AC
331
3AF
  5
3E6
331
356
  5
38D
331
337
  5
36E
331
301
  5
338
331
2E2
  5
319
331
2C3
  5
2FA
331
1024
  5
1185
331
1005
  5
1166
331
FE6
  5
1147
331
FC7
  5
1128
331
A4A
  5
FEC
331
590
  5
7CD
331
571
  5
5A9
331
4B6
  5
569
331
17D
  5
1D9
331
497
  5
503
331
13F
  5
19F
331
470
  5
4A7
331
451
  5
488
331
432
  5
469
331
413
  5
44A
331
3FC
  5
433
331
3DD
  5
414
331
384
  5
3BB
331
3BE
  5
3F5
331
365
  5
39C
331
39F
  5
3D6
331
346
  5
37D
331
327
  5
35E
331
310
  5
347
331
2F1
  5
328
331
2D2
  5
309
331
2B3
  5
2EA
331
1014
  5
1175
331
FF5
  5
1156
331
FD6
  5
1137
331
D08
  5
1008
331
B81
  5
FF4
331
59F
  5
7DC
331
580
  5
5B7
331
561
  5
599
331
532
  5
58D
331
4DD
  5
56E
331
4A6
  5
536
331
16D
  5
1C9
331
14E
  5
1B6
331
460
  5
497
331
441
  5
478
331
422
  5
459
331
40B
  5
442
331
3EC
  5
423
331
393
  5
3CA
331
3CD
  5
404
331
374
  5
3AB
331
3AE
  5
3E5
331
355
  5
38C
331
336
  5
36D
331
31F
  5
356
331
300
  5
337
331
2E1
  5
318
331
2C2
  5
2F9
331
1023
  5
1184
331
1004
  5
1165
331
FE5
  5
1146
331
FC6
  5
1127
331
A49
  5
FEB
331
58F
  5
7CC
331
570
  5
5A8
331
522
  5
589
331
4B5
  5
568
331
17C
  5
1D8
331
496
  5
502
331
15D
  5
1C3
331
13E
  5
19E
331
127
  5
172
331
450
  5
487
331
431
  5
468
331
412
  5
449
331
3FB
  5
432
331
3DC
  5
413
331
383
  5
3BA
331
3BD
  5
3F4
331
364
  5
39B
331
39E
  5
3D5
331
345
  5
37C
331
326
  5
35D
331
30F
  5
346
331
2F0
  5
327
331
2D1
  5
308
331
2B2
  5
2E9
331
1013
  5
1174
331
FF4
  5
1155
331
FD5
  5
1136
331
B80
  5
FF3
331
1187
  5
A4
331
59E
  5
7DB
331
57F
  5
5B6
331
531
  5
58C
331
4DC
  5
56D
331
4A5
  5
535
331
16C
  5
1C8
331
14D
  5
1B5
331
440
  5
477
331
421
  5
458
331
40A
  5
441
331
3EB
  5
422
331
392
  5
3C9
331
3CC
  5
403
331
373
  5
3AA
331
3AD
  5
3E4
331
354
  5
38B
331
335
  5
36C
331
31E
  5
355
331
2FF
  5
336
331
2E0
  5
317
331
2C1
  5
2F8
331
1022
  5
1183
331
1003
  5
1164
331
FE4
  5
1145
331
FC5
  5
1126
331
A48
  5
FEA
331
1177
  5
E6
331
58E
  5
7CB
331
56F
  5
5A7
331
521
  5
588
331
50A
  5
583
331
4B4
  5
567
331
17B
  5
1D7
331
495
  5
4FB
331
13D
  5
183
331
126
  5
171
331
430
  5
467
331
411
  5
448
331
3FA
  5
431
331
3DB
  5
412
331
382
  5
3B9
331
3BC
  5
3F3
331
363
  5
39A
331
39D
  5
3D4
331
344
  5
37B
331
325
  5
35C
331
30E
  5
345
331
2EF
  5
326
331
2D0
  5
307
331
2B1
  5
2E8
331
1012
  5
1173
331
FF3
  5
1154
331
FD4
  5
1135
331
1167
  5
F97
331
1186
  5
AA
331
59D
  5
7DA
331
57E
  5
5B5
331
4FA
  5
57F
331
4DB
  5
56C
331
4A4
  5
534
331
16B
  5
1C7
331
E7
  5
153
331
420
  5
457
331
409
  5
440
331
3EA
  5
421
331
391
  5
3C8
331
3CB
  5
402
331
372
  5
3A9
331
3AC
  5
3E3
331
353
  5
38A
331
334
  5
36B
331
31D
  5
354
331
2FE
  5
335
331
2DF
  5
316
331
2C0
  5
2F7
331
1021
  5
1182
331
1002
  5
1163
331
FE3
  5
1144
331
FC4
  5
1125
331
1157
  5
FB9
331
1176
  5
E5
331
58D
  5
7CA
331
56E
  5
5A6
331
509
  5
582
331
1A9
  5
1E5
331
4B3
  5
566
331
17A
  5
1D6
331
494
  5
4FA
331
15B
  5
1C2
331
125
  5
170
331
D7
  5
13F
331
410
  5
447
331
3F9
  5
430
331
3DA
  5
411
331
381
  5
3B8
331
3BB
  5
3F2
331
362
  5
399
331
39C
  5
3D3
331
343
  5
37A
331
324
  5
35B
331
30D
  5
344
331
2EE
  5
325
331
2CF
  5
306
331
2B0
  5
2E7
331
1011
  5
1172
331
FF2
  5
1153
331
FD3
  5
1134
331
1147
  5
FC9
331
1166
  5
F96
331
1185
  5
B3
331
59C
  5
7D9
331
57D
  5
5B4
331
4F9
  5
57E
331
4DA
  5
56B
331
4A3
  5
533
331
16A
  5
1C6
331
E6
  5
152
331
AF
  5
131
331
408
  5
43F
331
3E9
  5
420
331
390
  5
3C7
331
3CA
  5
401
331
371
  5
3A8
331
3AB
  5
3E2
331
352
  5
389
331
333
  5
36A
331
31C
  5
353
331
2FD
  5
334
331
2DE
  5
315
331
2BF
  5
2F6
331
1020
  5
1181
331
1001
  5
1162
331
FE2
  5
1143
331
FC3
  5
1124
331
1137
  5
100C
331
1156
  5
FBC
331
1175
  5
E4
331
58C
  5
7C9
331
56D
  5
5A5
331
53E
  5
591
331
4E9
  5
57B
331
1A8
  5
1E4
331
4B2
  5
565
331
179
  5
1D5
331
493
  5
4F3
331
13B
  5
182
331
124
  5
16F
331
A7
  5
129
331
3F8
  5
42F
331
3D9
  5
410
331
380
  5
3B7
331
3BA
  5
3F1
331
361
  5
398
331
39B
  5
3D2
331
342
  5
379
331
323
  5
35A
331
30C
  5
343
331
2ED
  5
324
331
2CE
  5
305
331
2AF
  5
2E6
331
1010
  5
1171
331
FF1
  5
1152
331
FD2
  5
1133
331
1146
  5
FCC
331
1165
  5
F99
331
1184
  5
B2
331
59B
  5
7D8
331
57C
  5
5B3
331
55D
  5
598
331
1B7
  5
1ED
331
4A2
  5
532
331
169
  5
1C5
331
E5
  5
151
331
AE
  5
130
331
3E8
  5
41F
331
3C9
  5
400
331
370
  5
3A7
331
3AA
  5
3E1
331
351
  5
388
331
332
  5
369
331
31B
  5
352
331
2FC
  5
333
331
2DD
  5
314
331
2BE
  5
2F5
331
1000
  5
1161
331
FE1
  5
1142
331
FC2
  5
1123
331
FB7
  5
1118
331
1136
  5
1011
331
1155
  5
FBB
331
A37
  5
FDF
331
1174
  5
F0
331
58B
  5
6C1
331
56C
  5
5A4
331
4E8
  5
579
331
1A7
  5
1E3
331
4B1
  5
564
331
178
  5
1D4
331
492
  5
4F2
331
159
  5
1C1
331
123
  5
16E
331
29F
  5
2D6
331
A6
  5
128
331
3D8
  5
40F
331
3B9
  5
3F0
331
360
  5
397
331
39A
  5
3D1
331
341
  5
378
331
322
  5
359
331
30B
  5
342
331
2EC
  5
323
331
2CD
  5
304
331
2AE
  5
2E5
331
FF0
  5
1151
331
FD1
  5
1132
331
FA7
  5
1108
331
1145
  5
FCB
331
1164
  5
F9E
331
1183
  5
B1
331
59A
  5
7D7
331
57B
  5
5B2
331
55C
  5
597
331
4A1
  5
52B
331
1B6
  5
1EC
331
E4
  5
150
331
28F
  5
2C6
331
AD
  5
12F
331
3C8
  5
3FF
331
3A9
  5
3E0
331
350
  5
387
331
331
  5
368
331
31A
  5
351
331
2FB
  5
332
331
2DC
  5
313
331
2BD
  5
2F4
331
FE0
  5
1141
331
FC1
  5
1122
331
FB6
  5
1117
331
F97
  5
102D
331
1135
  5
1010
331
1154
  5
FBA
331
A36
  5
FDE
331
1173
  5
EF
331
58A
  5
6C0
331
56B
  5
5A3
331
4E7
  5
578
331
4B0
  5
563
331
177
  5
1D3
331
491
  5
4EB
331
158
  5
1C0
331
139
  5
181
331
122
  5
16D
331
29E
  5
2D5
331
A5
  5
127
331
27F
  5
2B7
331
3B8
  5
3EF
331
399
  5
3D0
331
340
  5
377
331
321
  5
358
331
30A
  5
341
331
2EB
  5
322
331
2CC
  5
303
331
2AD
  5
2E4
331
FD0
  5
1131
331
FA6
  5
1107
331
F87
  5
101D
331
1144
  5
FCA
331
1163
  5
F9D
331
1182
  5
B6
331
599
  5
7D6
331
57A
  5
5B1
331
55B
  5
596
331
4D7
  5
56A
331
1B5
  5
1EB
331
4A0
  5
52A
331
148
  5
1B4
331
E3
  5
14F
331
28E
  5
2C5
331
AC
  5
12E
331
26F
  5
2A7
331
3A8
  5
3DF
331
330
  5
367
331
319
  5
350
331
2FA
  5
331
331
2DB
  5
312
331
2BC
  5
2F3
331
FC0
  5
1121
331
FB5
  5
1116
331
F96
  5
102C
331
1134
  5
100F
331
1153
  5
FBD
331
1172
  5
E7
331
A35
  5
FDD
331
111D
  5
E3
331
589
  5
6BF
331
56A
  5
5A2
331
4E6
  5
577
331
4AF
  5
562
331
176
  5
1D2
331
490
  5
4E9
331
157
  5
1BF
331
121
  5
16C
331
29D
  5
2D4
331
A4
  5
126
331
27E
  5
2B6
331
398
  5
3CF
331
320
  5
357
331
309
  5
340
331
2EA
  5
321
331
2CB
  5
302
331
2AC
  5
2E3
331
FA5
  5
1106
331
F86
  5
101C
331
1143
  5
FCD
331
9E5
  5
FB3
331
1162
  5
F9C
331
1181
  5
B5
331
7CF
  5
B82
331
598
  5
7D5
331
55A
  5
595
331
49F
  5
523
331
1B4
  5
1EA
331
147
  5
1B3
331
E2
  5
14E
331
28D
  5
2C4
331
AB
  5
12D
331
26E
  5
2A6
331
24F
  5
289
331
318
  5
34F
331
2F9
  5
330
331
2DA
  5
311
331
2BB
  5
2F2
331
FB4
  5
1115
331
F95
  5
102B
331
1133
  5
1012
331
1152
  5
FC0
331
1171
  5
F1
331
A34
  5
FDC
331
111C
  5
E2
331
6BF
  5
A38
331
588
  5
6BE
331
569
  5
5A1
331
4E5
  5
576
331
4AE
  5
561
331
175
  5
1D1
331
48F
  5
4E8
331
156
  5
1BE
331
F1
  5
158
331
29C
  5
2D3
331
A3
  5
125
331
27D
  5
2B5
331
23F
  5
277
331
308
  5
33F
331
2E9
  5
320
331
2CA
  5
301
331
2AB
  5
2E2
331
FA4
  5
1105
331
F85
  5
101B
331
1142
  5
FD0
331
9E4
  5
FB0
331
1161
  5
F9F
331
1180
  5
B4
331
7CE
  5
B81
331
578
  5
5B0
331
559
  5
594
331
52A
  5
58B
331
49E
  5
522
331
1B3
  5
1E9
331
146
  5
1B2
331
12F
  5
17A
331
E1
  5
14D
331
28C
  5
2C3
331
AA
  5
12C
331
26D
  5
2A5
331
24E
  5
286
331
2F8
  5
32F
331
2D9
  5
310
331
2BA
  5
2F1
331
FB3
  5
1114
331
F94
  5
102A
331
1151
  5
FBF
331
1170
  5
F90
331
A33
  5
FDB
331
111B
  5
E1
331
6BE
  5
A37
331
568
  5
5A0
331
51A
  5
587
331
4E4
  5
575
331
4AD
  5
55D
331
174
  5
1D0
331
48E
  5
4E7
331
155
  5
1BD
331
136
  5
180
331
F0
  5
157
331
29B
  5
2D2
331
A2
  5
124
331
27C
  5
2B4
331
25D
  5
297
331
23E
  5
276
331
227
  5
25D
331
2E8
  5
31F
331
2C9
  5
300
331
2AA
  5
2E1
331
FA3
  5
1104
331
F84
  5
101A
331
1141
  5
FCF
331
9E3
  5
FAF
331
1160
  5
FA2
331
117F
  5
B7
331
7CD
  5
B80
331
558
  5
593
331
529
  5
58A
331
512
  5
585
331
1B2
  5
1E8
331
49D
  5
51B
331
183
  5
1DF
331
145
  5
1B1
331
12E
  5
179
331
E0
  5
148
331
28B
  5
2C2
331
A9
  5
12B
331
26C
  5
2A4
331
24D
  5
285
331
217
  5
24D
331
2D8
  5
30F
331
2B9
  5
2F0
331
FB2
  5
1113
331
F93
  5
1029
331
118E
  5
FA8
331
1150
  5
FBE
331
116F
  5
F8F
331
A32
  5
FDA
331
111A
  5
155
331
6BD
  5
A36
331
7DC
  5
F86
331
519
  5
586
331
502
  5
581
331
4E3
  5
574
331
4AC
  5
55C
331
173
  5
1CF
331
48D
  5
4E6
331
154
  5
1BC
331
29A
  5
2D1
331
EF
  5
156
331
27B
  5
2B3
331
25C
  5
296
331
23D
  5
275
331
226
  5
25C
331
207
  5
23D
331
2C8
  5
2FF
331
2A9
  5
2E0
331
FA2
  5
1103
331
F83
  5
1019
331
1140
  5
FCE
331
9E2
  5
FAE
331
115F
  5
FA1
331
117E
  5
DC
331
7CC
  5
B7F
331
511
  5
584
331
4F2
  5
57D
331
1B1
  5
1E7
331
182
  5
1DE
331
49C
  5
51A
331
163
  5
1C4
331
144
  5
1B0
331
12D
  5
178
331
FE
  5
16B
331
DF
  5
147
331
28A
  5
2C1
331
A8
  5
12A
331
26B
  5
2A3
331
24C
  5
284
331
216
  5
24C
331
1F7
  5
22D
331
2B8
  5
2EF
331
FB1
  5
1112
331
F92
  5
1028
331
118D
  5
FA7
331
114F
  5
FC1
331
116E
  5
F8E
331
A31
  5
FD9
331
7DB
  5
F85
331
6BC
  5
A35
331
1119
  5
154
331
501
  5
580
331
4E2
  5
573
331
4AB
  5
55B
331
172
  5
1CE
331
48C
  5
4E5
331
153
  5
1BB
331
134
  5
17F
331
299
  5
2D0
331
B7
  5
13E
331
27A
  5
2B2
331
25B
  5
295
331
23C
  5
274
331
225
  5
25B
331
206
  5
23C
331
1E7
  5
21D
331
2A8
  5
2DF
331
FA1
  5
1102
331
F82
  5
1018
331
113F
  5
FD1
331
9E1
  5
FAD
331
115E
  5
FA0
331
117D
  5
DB
331
7CB
  5
A4F
331
4F1
  5
57C
331
1B0
  5
1E6
331
49B
  5
513
331
181
  5
1DD
331
143
  5
1A9
331
12C
  5
177
331
FD
  5
16A
331
289
  5
2C0
331
DE
  5
146
331
26A
  5
2A2
331
24B
  5
283
331
215
  5
24B
331
1F6
  5
22C
331
1D7
  5
20D
331
FB0
  5
1111
331
F91
  5
1027
331
114E
  5
FC4
331
116D
  5
F91
331
118C
  5
9B
331
A30
  5
FD8
331
991
  5
F8B
331
7DA
  5
F84
331
5AF
  5
9E3
331
112F
  5
95
331
4E1
  5
572
331
1A0
  5
1E2
331
4AA
  5
55A
331
171
  5
1CD
331
48B
  5
4E4
331
152
  5
1BA
331
133
  5
17E
331
298
  5
2CF
331
B6
  5
13D
331
279
  5
2B1
331
25A
  5
294
331
23B
  5
273
331
224
  5
25A
331
205
  5
23B
331
1E6
  5
21C
331
1C7
  5
1FD
331
FBF
  5
1120
331
FA0
  5
1101
331
F81
  5
1017
331
113E
  5
FFD
331
115D
  5
FA3
331
117C
  5
DA
331
9E0
  5
FAC
331
1127
  5
AB
331
7CA
  5
A4E
331
49A
  5
512
331
180
  5
1DC
331
142
  5
1A8
331
12B
  5
176
331
FC
  5
169
331
2A7
  5
2DE
331
DD
  5
145
331
288
  5
2BF
331
269
  5
2A1
331
24A
  5
282
331
214
  5
24A
331
1F5
  5
22B
331
1D6
  5
20C
331
FAF
  5
1110
331
F90
  5
1026
331
114D
  5
FC3
331
116C
  5
F94
331
118B
  5
9A
331
A2F
  5
FD7
331
990
  5
F8A
331
7D9
  5
F83
331
5AE
  5
9E2
331
112E
  5
94
331
4E0
  5
571
331
4A9
  5
559
331
170
  5
1CC
331
48A
  5
4E3
331
151
  5
1B9
331
132
  5
17D
331
297
  5
2CE
331
B5
  5
13B
331
278
  5
2B0
331
259
  5
293
331
23A
  5
272
331
223
  5
259
331
204
  5
23A
331
1E5
  5
21B
331
1C6
  5
1FC
331
FBE
  5
111F
331
F9F
  5
1100
331
F80
  5
1016
331
113D
  5
FFC
331
117B
  5
DF
331
978
  5
F88
331
9DF
  5
FAB
331
7C9
  5
A47
331
499
  5
50B
331
141
  5
1A7
331
12A
  5
175
331
FB
  5
163
331
2A6
  5
2DD
331
DC
  5
144
331
268
  5
2A0
331
249
  5
281
331
213
  5
249
331
1F4
  5
22A
331
1D5
  5
20B
331
FAE
  5
110F
331
F8F
  5
1025
331
114C
  5
FC2
331
116B
  5
F93
331
118A
  5
99
331
A2E
  5
FD6
331
7D8
  5
F82
331
5AD
  5
9E1
331
112D
  5
93
331
4A8
  5
558
331
489
  5
4E2
331
150
  5
1B8
331
131
  5
17C
331
296
  5
2CD
331
B4
  5
139
331
277
  5
2AF
331
258
  5
292
331
239
  5
271
331
222
  5
258
331
203
  5
239
331
1E4
  5
21A
331
1C5
  5
1FB
331
FBD
  5
111E
331
F9E
  5
10FF
331
F7F
  5
1015
331
113C
  5
FFB
331
115B
  5
FA9
331
117A
  5
DE
331
9D6
  5
F9B
331
977
  5
F87
331
9DE
  5
FAA
331
7C8
  5
A46
331
498
  5
50A
331
140
  5
1A0
331
129
  5
174
331
FA
  5
15D
331
2A5
  5
2DC
331
DB
  5
143
331
286
  5
2BE
331
267
  5
29F
331
248
  5
280
331
212
  5
248
331
1F3
  5
229
331
1D4
  5
20A
331
FAD
  5
110E
331
F8E
  5
1024
331
A2D
  5
FD5
331
114B
  5
FC5
331
116A
  5
F92
331
1189
  5
A6
331
7D7
  5
F81
331
5AC
  5
9E0
331
488
  5
4E1
331
130
  5
17B
331
B3
  5
136
331
295
  5
2CC
331
9C
  5
123
331
276
  5
2AE
331
257
  5
291
331
238
  5
270
331
221
  5
257
331
202
  5
238
331
1E3
  5
219
331
1C4
  5
1FA
331
FBC
  5
111D
331
F9D
  5
10FE
331
F7E
  5
1014
331
113B
  5
FFE
331
115A
  5
FB8
331
1179
  5
DD
331
9D5
  5
F9A
331
128
  5
173
331
F9
  5
15B
331
2A4
  5
2DB
331
DA
  5
142
331
285
  5
2BD
331
266
  5
29E
331
247
  5
27F
331
211
  5
247
331
1F2
  5
228
331
1D3
  5
209
331
FAC
  5
110D
331
F8D
  5
1023
331
A2C
  5
FD4
331
114A
  5
FC8
331
1169
  5
F95
331
1188
  5
A5
331
7D6
  5
F80
331
5AB
  5
9DF
331
97
  5
FC
331
B2
  5
134
331
294
  5
2CB
331
9B
  5
122
331
275
  5
2AD
331
256
  5
290
331
237
  5
26F
331
220
  5
256
331
201
  5
237
331
1E2
  5
218
331
1C3
  5
1F9
331
FBB
  5
111C
331
F9C
  5
10FD
331
F7D
  5
1013
331
113A
  5
100B
331
1159
  5
FB7
331
1178
  5
E0
331
1123
  5
D9
331
F8
  5
159
331
2A3
  5
2DA
331
D9
  5
141
331
284
  5
2BC
331
265
  5
29D
331
246
  5
27E
331
22F
  5
267
331
210
  5
246
331
1F1
  5
227
331
1D2
  5
208
331
FAB
  5
110C
331
F8C
  5
1022
331
A2B
  5
FD3
331
1149
  5
FC7
331
1168
  5
F98
331
7D5
  5
F7F
331
5AA
  5
9DE
331
96
  5
FB
331
B1
  5
133
331
293
  5
2CA
331
9A
  5
121
331
274
  5
2AC
331
255
  5
28F
331
236
  5
26E
331
21F
  5
255
331
200
  5
236
331
1E1
  5
217
331
47F
  5
4B6
331
1C2
  5
1F8
331
FBA
  5
111B
331
F9B
  5
10FC
331
1139
  5
100A
331
1158
  5
FB4
331
1122
  5
D8
331
2A2
  5
2D9
331
D8
  5
140
331
283
  5
2BB
331
264
  5
29C
331
245
  5
27D
331
22E
  5
266
331
20F
  5
245
331
1F0
  5
226
331
46F
  5
4A6
331
1D1
  5
207
331
FAA
  5
110B
331
F8B
  5
1021
331
D07
  5
1007
331
1148
  5
FC6
331
A2A
  5
FD2
331
1129
  5
B0
331
7D4
  5
F7E
331
5A9
  5
9D6
331
95
  5
FA
331
B0
  5
132
331
292
  5
2C9
331
99
  5
FE
331
273
  5
2AB
331
254
  5
28E
331
235
  5
26D
331
21E
  5
254
331
1FF
  5
235
331
1E0
  5
216
331
47E
  5
4B5
331
1C1
  5
1F7
331
45F
  5
496
331
FB9
  5
111A
331
F9A
  5
10FB
331
F7B
  5
100E
331
1138
  5
1009
331
A39
  5
FE1
331
1121
  5
D7
331
2A1
  5
2D8
331
282
  5
2BA
331
263
  5
29B
331
244
  5
27C
331
22D
  5
265
331
20E
  5
244
331
1EF
  5
225
331
46E
  5
4A5
331
1D0
  5
206
331
44F
  5
486
331
FA9
  5
110A
331
F8A
  5
1020
331
B7F
  5
FF2
331
98A
  5
F89
331
1128
  5
AC
331
7D3
  5
F7D
331
5A8
  5
9D5
331
94
  5
F9
331
291
  5
2C8
331
98
  5
FD
331
272
  5
2AA
331
253
  5
28D
331
234
  5
26C
331
21D
  5
253
331
1FE
  5
234
331
1DF
  5
215
331
47D
  5
4B4
331
1C0
  5
1F6
331
45E
  5
495
331
43F
  5
476
331
FB8
  5
1119
331
F99
  5
10FA
331
F7A
  5
100D
331
A47
  5
FE9
331
A38
  5
FE0
331
5BC
  5
A34
331
5B7
  5
A2F
331
2A0
  5
2D7
331
281
  5
2B9
331
262
  5
29A
331
243
  5
27B
331
22C
  5
264
331
20D
  5
243
331
1EE
  5
224
331
46D
  5
4A4
331
1CF
  5
205
331
44E
  5
485
331
42F
  5
466
331
FA8
  5
1109
331
F89
  5
101F
331
D05
  5
1006
331
7D2
  5
F7B
331
5A7
  5
9CB
331
93
  5
F8
331
290
  5
2C7
331
271
  5
2A9
331
252
  5
28C
331
233
  5
26B
331
21C
  5
252
331
1FD
  5
233
331
1DE
  5
214
331
47C
  5
4B3
331
1BF
  5
1F5
331
45D
  5
494
331
43E
  5
475
331
41F
  5
456
331
F98
  5
10F9
331
A46
  5
FE8
331
5BB
  5
A33
331
5B6
  5
A2E
331
280
  5
2B8
331
261
  5
299
331
242
  5
27A
331
22B
  5
263
331
20C
  5
242
331
1ED
  5
223
331
46C
  5
4A3
331
1CE
  5
204
331
44D
  5
484
331
42E
  5
465
331
F88
  5
101E
331
7D1
  5
B84
331
5A6
  5
9CA
331
270
  5
2A8
331
251
  5
28B
331
232
  5
26A
331
21B
  5
251
331
1FC
  5
232
331
1DD
  5
213
331
47B
  5
4B2
331
1BE
  5
1F4
331
45C
  5
493
331
43D
  5
474
331
41E
  5
455
331
407
  5
43E
331
38F
  5
3C6
331
101F
  5
1180
331
A45
  5
FE7
331
5BA
  5
A32
331
5B5
  5
A2D
331
260
  5
298
331
241
  5
279
331
22A
  5
262
331
20B
  5
241
331
1EC
  5
222
331
46B
  5
4A2
331
1CD
  5
203
331
44C
  5
483
331
42D
  5
464
331
3F7
  5
42E
331
37F
  5
3B6
331
100F
  5
1170
331
7D0
  5
B83
331
5A5
  5
992
331
250
  5
28A
331
231
  5
269
331
21A
  5
250
331
1FB
  5
231
331
1DC
  5
212
331
47A
  5
4B1
331
1BD
  5
1F3
331
45B
  5
492
331
43C
  5
473
331
41D
  5
454
331
406
  5
43D
331
3E7
  5
41E
331
38E
  5
3C5
331
36F
  5
3A6
331
101E
  5
117F
331
FFF
  5
1160
331
A44
  5
FE6
331
6C0
  5
A39
331
9CB
  5
F8D
331
5B9
  5
A31
331
5B4
  5
A2C
331
240
  5
278
331
229
  5
261
331
20A
  5
240
331
1EB
  5
221
331
46A
  5
4A1
331
1CC
  5
202
331
44B
  5
482
331
42C
  5
463
331
3F6
  5
42D
331
3D7
  5
40E
331
37E
  5
3B5
331
35F
  5
396
331
102D
  5
118E
331
100E
  5
116F
331
FEF
  5
1150
331
D02
  5
1005
331
5A4
  5
991
331
230
  5
268
331
219
  5
24F
331
1FA
  5
230
331
1DB
  5
211
331
479
  5
4B0
331
1BC
  5
1F2
331
45A
  5
491
331
43B
  5
472
331
41C
  5
453
331
405
  5
43C
331
3E6
  5
41D
331
38D
  5
3C4
331
3C7
  5
3FE
331
36E
  5
3A5
331
34F
  5
386
331
101D
  5
117E
331
FFE
  5
115F
331
FDF
  5
1140
331
A43
  5
FE5
331
9CA
  5
F8C
331
5B8
  5
A30
331
5B3
  5
A2B
331
228
  5
260
331
209
  5
23F
331
1EA
  5
220
331
469
  5
4A0
331
1CB
  5
201
331
44A
  5
481
331
42B
  5
462
331
3F5
  5
42C
331
3D6
  5
40D
331
37D
  5
3B4
331
3B7
  5
3EE
331
35E
  5
395
331
33F
  5
376
331
102C
  5
118D
331
100D
  5
116E
331
FEE
  5
114F
331
FCF
  5
1130
331
D01
  5
1004
331
5A3
  5
98B
331
218
  5
24E
331
1F9
  5
22F
331
1DA
  5
210
331
478
  5
4AF
331
1BB
  5
1F1
331
459
  5
490
331
43A
  5
471
331
41B
  5
452
331
404
  5
43B
331
3E5
  5
41C
331
38C
  5
3C3
331
3C6
  5
3FD
331
36D
  5
3A4
331
3A7
  5
3DE
331
34E
  5
385
331
32F
  5
366
331
101C
  5
117D
331
FFD
  5
115E
331
FDE
  5
113F
331
C19
  5
FFA
331
A42
  5
FE4
331
5B2
  5
A2A
331
208
  5
23E
331
1E9
  5
21F
331
487
  5
4E0
331
1CA
  5
200
331
468
  5
49F
331
449
  5
480
331
42A
  5
461
331
3F4
  5
42B
331
3D5
  5
40C
331
37C
  5
3B3
331
3B6
  5
3ED
331
35D
  5
394
331
33E
  5
375
331
102B
  5
118C
331
100C
  5
116D
331
FED
  5
114E
331
FCE
  5
112F
331
D00
  5
1003
331
5A2
  5
979
331
597
  5
7D4
331
1F8
  5
22E
331
1D9
  5
20F
331
477
  5
4AE
331
1BA
  5
1F0
331
458
  5
48F
331
439
  5
470
331
41A
  5
451
331
403
  5
43A
331
3E4
  5
41B
331
38B
  5
3C2
331
3C5
  5
3FC
331
36C
  5
3A3
331
3A6
  5
3DD
331
34D
  5
384
331
32E
  5
365
331
317
  5
34E
331
101B
  5
117C
331
FFC
  5
115D
331
FDD
  5
113E
331
C18
  5
FF9
331
A41
  5
FE3
331
5B1
  5
9E5
331
587
  5
6BD
331
1E8
  5
21E
331
486
  5
4DF
331
1C9
  5
1FF
331
467
  5
49E
331
448
  5
47F
331
429
  5
460
331
3F3
  5
42A
331
3D4
  5
40B
331
37B
  5
3B2
331
3B5
  5
3EC
331
35C
  5
393
331
33D
  5
374
331
307
  5
33E
331
102A
  5
118B
331
100B
  5
116C
331
FEC
  5
114D
331
FCD
  5
112E
331
CFF
  5
1002
331
5A1
  5
978
331
596
  5
7D3
331
577
  5
5AF
331
1D8
  5
20E
331
476
  5
4AD
331
1B9
  5
1EF
331
457
  5
48E
331
438
  5
46F
331
419
  5
450
331
402
  5
439
331
3E3
  5
41A
331
38A
  5
3C1
331
3C4
  5
3FB
331
36B
  5
3A2
331
3A5
  5
3DC
331
34C
  5
383
331
32D
  5
364
331
316
  5
34D
331
2F7
  5
32E
331
101A
  5
117B
331
FFB
  5
115C
331
FDC
  5
113D
331
A40
  5
FE2
331
5B0
  5
9E4
331
586
  5
650
331
567
  5
59F
331
485
  5
4DE
331
1C8
  5
1FE
331
466
  5
49D
331
447
  5
47E
331
428
  5
45F
331
3F2
  5
429
331
3D3
  5
40A
331
37A
  5
3B1
331
3B4
  5
3EB
331
35B
  5
392
331
33C
  5
373
331
306
  5
33D
331
2E7
  5
31E
331
1029
  5
118A
331
100A
  5
116B
331
FEB
  5
114C
331
FCC
  5
112D
331
CFE
  5
1001
331
A4F
  5
FF1
331
5A0
  5
94F
331
595
  5
7D2
331
576
  5
5AE
331
557
  5
592
331
475
  5
4AC
331
1B8
  5
1EE
331
456
  5
48D
331
437
  5
46E
331
418
  5
44F
331
401
  5
438
331
3E2
  5
419
331
389
  5
3C0
331
3C3
  5
3FA
331
36A
  5
3A1
331
3A4
  5
3DB
331
34B
  5
382
331
32C
  5
363
331
315
  5
34C
331
2F6
  5
32D
331
2D7
  5
30E
331
1019
  5
117A
331
FFA
  5
115B
331
FDB
  5
113C
331
585
  5
5BC
331
566
  5
59E
331
484
  5
4DD
331
465
  5
49C
331
446
  5
47D
331
427
  5
45E
331
3F1
  5
428
331
3D2
  5
409
331
379
  5
3B0
331
3B3
  5
3EA
331
35A
  5
391
331
33B
  5
372
331
305
  5
33C
331
2E6
  5
31D
331
2C7
  5
2FE
331
1028
  5
1189
331
1009
  5
116A
331
FEA
  5
114B
331
FCB
  5
112C
331
CFD
  5
1000
331
A4E
  5
FF0
331
594
  5
7D1
331
575
  5
5AD
331
474
  5
4AB
331
455
  5
48C
331
436
  5
46D
331
417
  5
44E
331
400
  5
437
331
3E1
  5
418
331
388
  5
3BF
331
3C2
  5
3F9
331
369
  5
3A0
331
3A3
  5
3DA
331
34A
  5
381
331
32B
  5
362
331
314
  5
34B
331
2F5
  5
32C
331
2D6
  5
30D
331
2B7
  5
2EE
331
1018
  5
1179
331
FF9
  5
115A
331
FDA
  5
113B
331
B85
  5
FF8
331
584
  5
5BB
331
565
  5
59D
331
483
  5
4DC
331
464
  5
49B
331
445
  5
47C
331
426
  5
45D
331
40F
  5
446
331
3F0
  5
427
331
397
  5
3CE
331
3D1
  5
408
331
378
  5
3AF
331
3B2
  5
3E9
331
359
  5
390
331
33A
  5
371
331
304
  5
33B
331
2E5
  5
31C
331
2C6
  5
2FD
331
1027
  5
1188
331
1008
  5
1169
331
FE9
  5
114A
331
FCA
  5
112B
331
CFC
  5
FFF
331
A4D
  5
FEF
331
593
  5
7D0
331
574
  5
5AC
331
473
  5
4AA
331
454
  5
48B
331
435
  5
46C
331
416
  5
44D
331
3FF
  5
436
331
3E0
  5
417
331
387
  5
3BE
331
3C1
  5
3F8
331
368
  5
39F
331
3A2
  5
3D9
331
349
  5
380
331
32A
  5
361
331
313
  5
34A
331
2F4
  5
32B
331
2D5
  5
30C
331
2B6
  5
2ED
331
1017
  5
1178
331
FF8
  5
1159
331
FD9
  5
113A
331
B84
  5
FF7
331
583
  5
5BA
331
564
  5
59C
331
535
  5
590
331
19F
  5
1E1
331
482
  5
4DB
331
463
  5
49A
331
444
  5
47B
331
425
  5
45C
331
40E
  5
445
331
3EF
  5
426
331
396
  5
3CD
331
3D0
  5
407
331
377
  5
3AE
331
3B1
  5
3E8
331
358
  5
38F
331
339
  5
370
331
303
  5
33A
331
2E4
  5
31B
331
2C5
  5
2FC
331
1026
  5
1187
331
1007
  5
1168
331
FE8
  5
1149
331
FC9
  5
112A
331
A4C
  5
FEE
331
592
  5
7CF
331
573
  5
5AB
331
17F
  5
1DB
331
472
  5
4A9
331
453
  5
48A
331
434
  5
46B
331
415
  5
44C
331
3FE
  5
435
331
3DF
  5
416
331
386
  5
3BD
331
3C0
  5
3F7
331
367
  5
39E
331
3A1
  5
3D8
331
348
  5
37F
331
329
  5
360
331
312
  5
349
331
2F3
  5
32A
331
2D4
  5
30B
331
2B5
  5
2EC
331
1016
  5
1177
331
FF7
  5
1158
331
FD8
  5
1139
  0
XRECORD
  5
1194
102
{ACAD_REACTORS
330
1192
102
}
330
1192
100
AcDbXrecord
280
     1
 70
     2
  0
XRECORD
  5
1193
102
{ACAD_REACTORS
330
1192
102
}
330
1192
100
AcDbXrecord
280
     1
 40
1.25
  0
XRECORD
  5
1195
102
{ACAD_REACTORS
330
1192
102
}
330
1192
100
AcDbXrecord
280
     1
 40
1.570796326794896
  0
XRECORD
  5
1196
102
{ACAD_REACTORS
330
1192
102
}
330
1192
100
AcDbXrecord
280
     1
340
1B
  0
LAYOUT
  5
39
102
{ACAD_XDICTIONARY
360
11BA
102
}
102
{ACAD_REACTORS
330
2E
102
}
330
2E
100
AcDbPlotSettings
  1

  2
none_device
  4
Letter_(8.50_x_11.00_Inches)
  6

 40
6.349999904632567
 41
6.349999904632567
 42
6.350006103515625
 43
6.350006103515625
 44
215.8999938964844
 45
279.3999938964844
 46
0.0
 47
0.0
 48
0.0
 49
0.0
140
0.0
141
0.0
142
1.0
143
114.3397071949696
 70
 11952
 72
     0
 73
     1
 74
     0
  7

 75
     0
147
0.0087458681199421
148
17178.02014672049
149
7876.195643067672
100
AcDbLayout
  1
Model
 70
     1
 71
     0
 10
0.0
 20
0.0
 11
12.0
 21
9.0
 12
0.0
 22
0.0
 32
0.0
 14
0.0
 24
0.0
 34
0.0
 15
0.0
 25
0.0
 35
0.0
146
0.0
 13
0.0
 23
0.0
 33
0.0
 16
1.0
 26
0.0
 36
0.0
 17
0.0
 27
1.0
 37
0.0
 76
     0
330
36
331
56
1001
ACAD_PSEXT
1000
なし
1000
なし
1000
適切ではありません
1000
新しいプロッタ環境設定名を選択しない限り、レイアウトは印刷されません。
1070
     0
  0
LAYOUT
  5
35
102
{ACAD_XDICTIONARY
360
11B8
102
}
102
{ACAD_REACTORS
330
2E
102
}
330
2E
100
AcDbPlotSettings
  1

  2
PDF Complete
  4

  6

 40
0.0
 41
0.0
 42
0.0
 43
0.0
 44
0.0
 45
0.0
 46
0.0
 47
0.0
 48
0.0
 49
0.0
140
0.0
141
0.0
142
1.0
143
1.0
 70
   688
 72
     0
 73
     0
 74
     5
  7

 75
    16
147
1.0
148
0.0
149
0.0
100
AcDbLayout
  1
レイアウト1
 70
     1
 71
     1
 10
0.0
 20
0.0
 11
12.0
 21
9.0
 12
0.0
 22
0.0
 32
0.0
 14
1.000000000000000E+20
 24
1.000000000000000E+20
 34
1.000000000000000E+20
 15
-1.000000000000000E+20
 25
-1.000000000000000E+20
 35
-1.000000000000000E+20
146
0.0
 13
0.0
 23
0.0
 33
0.0
 16
1.0
 26
0.0
 36
0.0
 17
0.0
 27
1.0
 37
0.0
 76
     0
330
32
  0
MATERIAL
  5
12
102
{ACAD_XDICTIONARY
360
5C7
102
}
102
{ACAD_REACTORS
330
10
102
}
330
10
100
AcDbMaterial
  1
ByBlock
  0
MATERIAL
  5
11
102
{ACAD_XDICTIONARY
360
5C5
102
}
102
{ACAD_REACTORS
330
10
102
}
330
10
100
AcDbMaterial
  1
ByLayer
  0
MATERIAL
  5
13
102
{ACAD_XDICTIONARY
360
5C9
102
}
102
{ACAD_REACTORS
330
10
102
}
330
10
100
AcDbMaterial
  1
Global
  0
MLEADERSTYLE
  5
6ED
102
{ACAD_REACTORS
330
6EC
102
}
330
6EC
100
AcDbMLeaderStyle
170
     2
171
     1
172
     0
 90
        2
 40
0.0
 41
0.0
173
     1
 91
-1056964608
340
28
 92
       -2
290
     1
 42
0.09
291
     1
 43
0.36
  3
Standard
 44
0.18
300

342
26
174
     1
178
     6
175
     1
176
     0
 93
-1056964608
 45
0.18
292
     0
297
     0
 46
0.18
 94
-1056964608
 47
1.0
 49
1.0
140
1.0
293
     1
141
0.0
294
     1
177
     0
142
1.0
295
     0
296
     0
143
0.125
1001
ACAD_MLEADERVER
1070
     2
  0
MLINESTYLE
  5
2C
102
{ACAD_REACTORS
330
2B
102
}
330
2B
100
AcDbMlineStyle
  2
STANDARD
 70
     0
  3

 62
   256
 51
90.0
 52
90.0
 71
     2
 49
0.5
 62
   256
  6
BYLAYER
 49
-0.5
 62
   256
  6
BYLAYER
  0
ACDBPLACEHOLDER
  5
F
102
{ACAD_REACTORS
330
E
102
}
330
E
  0
SCALE
  5
6DB
102
{ACAD_REACTORS
330
6DA
102
}
330
6DA
100
AcDbScale
 70
     0
300
1:1
140
1.0
141
1.0
290
     1
  0
SCALE
  5
6DC
102
{ACAD_REACTORS
330
6DA
102
}
330
6DA
100
AcDbScale
 70
     0
300
1/128" = 1'-0"
140
0.0078125
141
12.0
290
     0
  0
SCALE
  5
6DD
102
{ACAD_REACTORS
330
6DA
102
}
330
6DA
100
AcDbScale
 70
     0
300
1/64" = 1'-0"
140
0.015625
141
12.0
290
     0
  0
SCALE
  5
6DE
102
{ACAD_REACTORS
330
6DA
102
}
330
6DA
100
AcDbScale
 70
     0
300
1/32" = 1'-0"
140
0.03125
141
12.0
290
     0
  0
SCALE
  5
6DF
102
{ACAD_REACTORS
330
6DA
102
}
330
6DA
100
AcDbScale
 70
     0
300
1/16" = 1'-0"
140
0.0625
141
12.0
290
     0
  0
SCALE
  5
6E0
102
{ACAD_REACTORS
330
6DA
102
}
330
6DA
100
AcDbScale
 70
     0
300
3/32" = 1'-0"
140
0.09375
141
12.0
290
     0
  0
SCALE
  5
6E1
102
{ACAD_REACTORS
330
6DA
102
}
330
6DA
100
AcDbScale
 70
     0
300
1/8" = 1'-0"
140
0.125
141
12.0
290
     0
  0
SCALE
  5
6E2
102
{ACAD_REACTORS
330
6DA
102
}
330
6DA
100
AcDbScale
 70
     0
300
3/16" = 1'-0"
140
0.1875
141
12.0
290
     0
  0
SCALE
  5
6E3
102
{ACAD_REACTORS
330
6DA
102
}
330
6DA
100
AcDbScale
 70
     0
300
1/4" = 1'-0"
140
0.25
141
12.0
290
     0
  0
SCALE
  5
6E4
102
{ACAD_REACTORS
330
6DA
102
}
330
6DA
100
AcDbScale
 70
     0
300
3/8" = 1'-0"
140
0.375
141
12.0
290
     0
  0
SCALE
  5
6E5
102
{ACAD_REACTORS
330
6DA
102
}
330
6DA
100
AcDbScale
 70
     0
300
1/2" = 1'-0"
140
0.5
141
12.0
290
     0
  0
SCALE
  5
6E6
102
{ACAD_REACTORS
330
6DA
102
}
330
6DA
100
AcDbScale
 70
     0
300
3/4" = 1'-0"
140
0.75
141
12.0
290
     0
  0
SCALE
  5
6E7
102
{ACAD_REACTORS
330
6DA
102
}
330
6DA
100
AcDbScale
 70
     0
300
1" = 1'-0"
140
1.0
141
12.0
290
     0
  0
SCALE
  5
6E8
102
{ACAD_REACTORS
330
6DA
102
}
330
6DA
100
AcDbScale
 70
     0
300
1-1/2" = 1'-0"
140
1.5
141
12.0
290
     0
  0
SCALE
  5
6E9
102
{ACAD_REACTORS
330
6DA
102
}
330
6DA
100
AcDbScale
 70
     0
300
3" = 1'-0"
140
3.0
141
12.0
290
     0
  0
SCALE
  5
6EA
102
{ACAD_REACTORS
330
6DA
102
}
330
6DA
100
AcDbScale
 70
     0
300
6" = 1'-0"
140
6.0
141
12.0
290
     0
  0
SCALE
  5
6EB
102
{ACAD_REACTORS
330
6DA
102
}
330
6DA
100
AcDbScale
 70
     0
300
1'-0" = 1'-0"
140
12.0
141
12.0
290
     0
  0
TABLESTYLE
  5
31
102
{ACAD_XDICTIONARY
360
B11
102
}
102
{ACAD_REACTORS
330
30
102
}
330
30
100
AcDbTableStyle
  3
Standard
 70
     0
 71
     0
 40
0.06
 41
0.06
280
     0
281
     0
  7
STANDARD
140
0.18
170
     2
 62
     0
 63
     7
283
     0
274
    -2
284
     1
 64
     0
275
    -2
285
     1
 65
     0
276
    -2
286
     1
 66
     0
277
    -2
287
     1
 67
     0
278
    -2
288
     1
 68
     0
279
    -2
289
     1
 69
     0
  7
STANDARD
140
0.25
170
     5
 62
     0
 63
     7
283
     0
274
    -2
284
     1
 64
     0
275
    -2
285
     1
 65
     0
276
    -2
286
     1
 66
     0
277
    -2
287
     1
 67
     0
278
    -2
288
     1
 68
     0
279
    -2
289
     1
 69
     0
  7
STANDARD
140
0.18
170
     5
 62
     0
 63
     7
283
     0
274
    -2
284
     1
 64
     0
275
    -2
285
     1
 65
     0
276
    -2
286
     1
 66
     0
277
    -2
287
     1
 67
     0
278
    -2
288
     1
 68
     0
279
    -2
289
     1
 69
     0
  0
VISUALSTYLE
  5
1A
102
{ACAD_XDICTIONARY
360
11A1
102
}
102
{ACAD_REACTORS
330
14
102
}
330
14
100
AcDbVisualStyle
  2

 70
     4
 71
     0
 72
     2
 73
     0
 90
        0
 40
-0.6
 41
-30.0
 62
     5
 63
     7
 74
     1
 91
        4
 64
     7
 65
   257
 75
     1
175
     1
 42
1.0
 92
        0
 66
   257
 43
1.0
 76
     1
 77
     6
 78
     2
 67
     7
 79
     5
170
     0
171
     0
290
     0
174
     0
 93
        1
 44
0.0
173
     0
291
     0
 45
0.0
1001
ACAD
1000
AcDbSavedByObjectVersion
1070
     0
  0
VISUALSTYLE
  5
1C
102
{ACAD_XDICTIONARY
360
11A5
102
}
102
{ACAD_REACTORS
330
14
102
}
330
14
100
AcDbVisualStyle
  2

 70
     6
 71
     1
 72
     2
 73
     2
 90
        0
 40
-0.6
 41
-30.0
 62
     5
 63
     7
 74
     2
 91
        2
 64
     7
 65
   257
 75
     2
175
     1
 42
40.0
 92
        0
 66
   257
 43
1.0
 76
     1
 77
     6
 78
     2
 67
     7
 79
     3
170
     0
171
     0
290
     0
174
     0
 93
        1
 44
0.0
173
     0
291
     0
 45
0.0
1001
ACAD
1000
AcDbSavedByObjectVersion
1070
     0
  0
VISUALSTYLE
  5
1B
102
{ACAD_XDICTIONARY
360
11A3
102
}
102
{ACAD_REACTORS
330
14
102
}
330
14
100
AcDbVisualStyle
  2

 70
     5
 71
     0
 72
     2
 73
     0
 90
        0
 40
-0.6
 41
-30.0
 62
     5
 63
     7
 74
     1
 91
        4
 64
     7
 65
   257
 75
     1
175
     1
 42
1.0
 92
        0
 66
   257
 43
1.0
 76
     1
 77
     6
 78
     2
 67
     7
 79
     5
170
     0
171
     0
290
     0
174
     0
 93
        1
 44
0.0
173
     0
291
     0
 45
0.0
1001
ACAD
1000
AcDbSavedByObjectVersion
1070
     0
  0
VISUALSTYLE
  5
19
102
{ACAD_XDICTIONARY
360
119F
102
}
102
{ACAD_REACTORS
330
14
102
}
330
14
100
AcDbVisualStyle
  2

 70
     7
 71
     1
 72
     0
 73
     1
 90
        0
 40
-0.6
 41
-30.0
 62
     5
 63
     7
 74
     0
 91
        4
 64
     7
 65
   257
 75
     1
175
     1
 42
1.0
 92
        8
 66
     7
 43
1.0
 76
     1
 77
     6
 78
     2
 67
     7
 79
     5
170
     0
171
     0
290
     0
174
     0
 93
        1
 44
0.0
173
     0
291
     1
 45
0.0
1001
ACAD
1000
AcDbSavedByObjectVersion
1070
     0
  0
VISUALSTYLE
  5
20
102
{ACAD_XDICTIONARY
360
11AD
102
}
102
{ACAD_REACTORS
330
14
102
}
330
14
100
AcDbVisualStyle
  2

 70
    12
 71
     2
 72
     2
 73
     0
 90
        0
 40
-0.6
 41
-30.0
 62
     5
 63
     7
 74
     1
 91
        4
 64
     7
 65
   257
 75
     1
175
     1
 42
1.0
 92
        8
 66
     7
 43
1.0
 76
     1
 77
     6
 78
     2
 67
     7
 79
     5
170
     0
171
     0
290
     0
174
     0
 93
        1
 44
50.0
173
     0
291
     1
 45
0.0
1001
ACAD
1000
AcDbSavedByObjectVersion
1070
     0
  0
VISUALSTYLE
  5
24
102
{ACAD_XDICTIONARY
360
11B5
102
}
102
{ACAD_REACTORS
330
14
102
}
330
14
100
AcDbVisualStyle
  2

 70
    16
 71
     2
 72
     2
 73
     3
 90
        0
 40
-0.6
 41
-30.0
 62
     5
 63
     8
 74
     1
 91
        4
 64
     7
 65
   257
 75
     1
175
     1
 42
1.0
 92
        8
 66
     8
 43
1.0
 76
     1
 77
     6
 78
     2
 67
     7
 79
     5
170
     0
171
     0
290
     0
174
     0
 93
        1
 44
0.0
173
     0
291
     1
 45
0.0
1001
ACAD
1000
AcDbSavedByObjectVersion
1070
     0
  0
VISUALSTYLE
  5
1D
102
{ACAD_XDICTIONARY
360
11A7
102
}
102
{ACAD_REACTORS
330
14
102
}
330
14
100
AcDbVisualStyle
  2

 70
     9
 71
     3
 72
     2
 73
     0
 90
        0
 40
-0.6
 41
-30.0
 62
     5
 63
     7
 74
     2
 91
        2
 64
     7
 65
   257
 75
     1
175
     1
 42
40.0
 92
        8
 66
     7
 43
1.0
 76
     1
 77
     6
 78
     2
 67
     7
 79
     3
170
     0
171
     0
290
     0
174
     0
 93
        1
 44
0.0
173
     0
291
     0
 45
0.0
1001
ACAD
1000
AcDbSavedByObjectVersion
1070
     0
  0
VISUALSTYLE
  5
1F
102
{ACAD_XDICTIONARY
360
11AB
102
}
102
{ACAD_REACTORS
330
14
102
}
330
14
100
AcDbVisualStyle
  2

 70
    11
 71
     2
 72
     2
 73
     0
 90
        0
 40
-0.6
 41
-30.0
 62
     5
 63
     7
 74
     1
 91
        4
 64
     7
 65
   257
 75
     1
175
     1
 42
1.0
 92
        8
 66
     7
 43
1.0
 76
     1
 77
     6
 78
     2
 67
     7
 79
     5
170
     0
171
     0
290
     0
174
     0
 93
        1
 44
-50.0
173
     0
291
     1
 45
0.0
1001
ACAD
1000
AcDbSavedByObjectVersion
1070
     0
  0
VISUALSTYLE
  5
6D9
102
{ACAD_XDICTIONARY
360
11CE
102
}
102
{ACAD_REACTORS
330
14
102
}
330
14
100
AcDbVisualStyle
  2

 70
    22
 71
     2
 72
     2
 73
     0
 90
        0
 40
-0.6
 41
-30.0
 62
     5
 63
     7
 74
     1
 91
        4
 64
     7
 65
   257
 75
     1
175
     1
 42
1.0
 92
        8
 66
     7
 43
1.0
 76
     1
 77
     6
 78
     2
 67
     7
 79
     5
170
     0
171
     0
290
     0
174
     0
 93
        1
 44
0.0
173
     0
291
     1
 45
0.0
1001
ACAD
1000
AcDbSavedByObjectVersion
1070
     0
  0
VISUALSTYLE
  5
23
102
{ACAD_XDICTIONARY
360
11B3
102
}
102
{ACAD_REACTORS
330
14
102
}
330
14
100
AcDbVisualStyle
  2

 70
    15
 71
     2
 72
     2
 73
     0
 90
        0
 40
-0.6
 41
-30.0
 62
     5
 63
     7
 74
     1
 91
        4
 64
     7
 65
   257
 75
     1
175
     1
 42
1.0
 92
        8
 66
     7
 43
1.0
 76
     1
 77
     6
 78
     2
 67
     7
 79
     5
170
     0
171
     0
290
     0
174
     0
 93
        1
 44
0.0
173
     0
291
     1
 45
0.0
1001
ACAD
1000
AcDbSavedByObjectVersion
1070
     0
  0
VISUALSTYLE
  5
15
102
{ACAD_XDICTIONARY
360
1197
102
}
102
{ACAD_REACTORS
330
14
102
}
330
14
100
AcDbVisualStyle
  2

 70
     0
 71
     2
 72
     1
 73
     1
 90
        2
 40
-0.6
 41
30.0
 62
     5
 63
     7
 74
     0
 91
        4
 64
     7
 65
   257
 75
     1
175
     1
 42
1.0
 92
        8
 66
     7
 43
1.0
 76
     1
 77
     6
 78
     2
 67
     7
 79
     5
170
     0
171
     0
290
     0
174
     0
 93
       13
 44
0.0
173
     0
291
     1
 45
0.0
1001
ACAD
1000
AcDbSavedByObjectVersion
1070
     0
  0
VISUALSTYLE
  5
16
102
{ACAD_XDICTIONARY
360
1199
102
}
102
{ACAD_REACTORS
330
14
102
}
330
14
100
AcDbVisualStyle
  2

 70
     1
 71
     2
 72
     1
 73
     1
 90
        2
 40
-0.6
 41
30.0
 62
     5
 63
     7
 74
     1
 91
        4
 64
     7
 65
   257
 75
     1
175
     1
 42
1.0
 92
        0
 66
   257
 43
1.0
 76
     1
 77
     6
 78
     2
 67
     7
 79
     5
170
     0
171
     0
290
     0
174
     0
 93
       13
 44
0.0
173
     0
291
     1
 45
0.0
1001
ACAD
1000
AcDbSavedByObjectVersion
1070
     0
  0
VISUALSTYLE
  5
17
102
{ACAD_XDICTIONARY
360
119B
102
}
102
{ACAD_REACTORS
330
14
102
}
330
14
100
AcDbVisualStyle
  2

 70
     2
 71
     2
 72
     2
 73
     1
 90
        2
 40
-0.6
 41
30.0
 62
     5
 63
     7
 74
     0
 91
        4
 64
     7
 65
   257
 75
     1
175
     1
 42
1.0
 92
        0
 66
     7
 43
1.0
 76
     1
 77
     6
 78
     2
 67
     7
 79
     5
170
     0
171
     0
290
     0
174
     0
 93
       13
 44
0.0
173
     0
291
     1
 45
0.0
1001
ACAD
1000
AcDbSavedByObjectVersion
1070
     0
  0
VISUALSTYLE
  5
18
102
{ACAD_XDICTIONARY
360
119D
102
}
102
{ACAD_REACTORS
330
14
102
}
330
14
100
AcDbVisualStyle
  2

 70
     3
 71
     2
 72
     2
 73
     1
 90
        2
 40
-0.6
 41
30.0
 62
     5
 63
     7
 74
     1
 91
        4
 64
     7
 65
   257
 75
     1
175
     1
 42
1.0
 92
        0
 66
   257
 43
1.0
 76
     1
 77
     6
 78
     2
 67
     7
 79
     5
170
     0
171
     0
290
     0
174
     0
 93
       13
 44
0.0
173
     0
291
     1
 45
0.0
1001
ACAD
1000
AcDbSavedByObjectVersion
1070
     0
  0
VISUALSTYLE
  5
6D1
102
{ACAD_XDICTIONARY
360
11BE
102
}
102
{ACAD_REACTORS
330
14
102
}
330
14
100
AcDbVisualStyle
  2

 70
     6
 71
     1
 72
     2
 73
     2
 90
        0
 40
-0.6
 41
-30.0
 62
     5
 63
     7
 74
     2
 91
        2
 64
     7
 65
   257
 75
     2
175
     1
 42
40.0
 92
        0
 66
   257
 43
1.0
 76
     1
 77
     6
 78
     2
 67
     7
 79
     3
170
     0
171
     0
290
     0
174
     0
 93
        1
 44
0.0
173
     0
291
     0
 45
0.0
1001
ACAD
1000
AcDbSavedByObjectVersion
1070
     0
  0
VISUALSTYLE
  5
6D7
102
{ACAD_XDICTIONARY
360
11CA
102
}
102
{ACAD_REACTORS
330
14
102
}
330
14
100
AcDbVisualStyle
  2

 70
    20
 71
     2
 72
     2
 73
     0
 90
        0
 40
-0.6
 41
-30.0
 62
     5
 63
     7
 74
     1
 91
        4
 64
     7
 65
   257
 75
     1
175
     1
 42
1.0
 92
       10
 66
     7
 43
1.0
 76
     1
 77
     6
 78
     2
 67
     7
 79
     5
170
     0
171
     0
290
     0
174
     0
 93
        1
 44
0.0
173
     0
291
     1
 45
0.0
1001
ACAD
1000
AcDbSavedByObjectVersion
1070
     0
  0
VISUALSTYLE
  5
22
102
{ACAD_XDICTIONARY
360
11B1
102
}
102
{ACAD_REACTORS
330
14
102
}
330
14
100
AcDbVisualStyle
  2

 70
    14
 71
     2
 72
     2
 73
     0
 90
        0
 40
-0.6
 41
-30.0
 62
     5
 63
     7
 74
     1
 91
        4
 64
     7
 65
   257
 75
     7
175
     7
 42
1.0
 92
        8
 66
     7
 43
1.0
 76
     1
 77
     6
 78
     2
 67
     7
 79
     5
170
     0
171
     0
290
     0
174
     0
 93
        1
 44
0.0
173
     0
291
     1
 45
0.0
1001
ACAD
1000
AcDbSavedByObjectVersion
1070
     0
  0
VISUALSTYLE
  5
6D8
102
{ACAD_XDICTIONARY
360
11CC
102
}
102
{ACAD_REACTORS
330
14
102
}
330
14
100
AcDbVisualStyle
  2

 70
    21
 71
     2
 72
     2
 73
     0
 90
        0
 40
-0.6
 41
-30.0
 62
     5
 63
     7
 74
     1
 91
        4
 64
     7
 65
   257
 75
     1
175
     1
 42
1.0
 92
        9
 66
     7
 43
1.0
 76
     1
 77
     6
 78
     2
 67
     7
 79
     5
170
     0
171
     0
290
     0
174
     0
 93
        1
 44
0.0
173
     0
291
     1
 45
0.0
1001
ACAD
1000
AcDbSavedByObjectVersion
1070
     0
  0
VISUALSTYLE
  5
1E
102
{ACAD_XDICTIONARY
360
11A9
102
}
102
{ACAD_REACTORS
330
14
102
}
330
14
100
AcDbVisualStyle
  2

 70
     8
 71
     2
 72
     2
 73
     0
 90
        0
 40
-0.6
 41
-30.0
 62
     5
 63
     7
 74
     1
 91
        0
 64
     7
 65
   257
 75
     1
175
     1
 42
1.0
 92
        8
 66
     8
 43
1.0
 76
     1
 77
     6
 78
     2
 67
     7
 79
     5
170
     0
171
     0
290
     0
174
     0
 93
       13
 44
0.0
173
     0
291
     0
 45
0.0
1001
ACAD
1000
AcDbSavedByObjectVersion
1070
     0
  0
VISUALSTYLE
  5
6D6
102
{ACAD_XDICTIONARY
360
11C8
102
}
102
{ACAD_REACTORS
330
14
102
}
330
14
100
AcDbVisualStyle
  2

 70
    27
 71
     2
 72
     2
 73
     1
 90
        2
 40
-0.6
 41
30.0
 62
     5
 63
     7
 74
     0
 91
        4
 64
     7
 65
   257
 75
     1
175
     1
 42
1.0
 92
        8
 66
   257
 43
1.0
 76
     1
 77
     6
 78
     2
 67
     8
 79
     3
170
     0
171
     0
290
     0
174
     0
 93
        5
 44
0.0
173
     0
291
     0
 45
0.0
1001
ACAD
1000
AcDbSavedByObjectVersion
1070
     0
  0
VISUALSTYLE
  5
6D5
102
{ACAD_XDICTIONARY
360
11C6
102
}
102
{ACAD_REACTORS
330
14
102
}
330
14
100
AcDbVisualStyle
  2

 70
    26
 71
     2
 72
     2
 73
     1
 90
        2
 40
-0.6
 41
30.0
 62
     5
 63
     7
 74
     1
 91
       10
 64
     7
 65
   257
 75
     2
175
     1
 42
1.0
 92
        8
 66
   257
 43
1.0
 76
     1
 77
     6
 78
     2
 67
     7
 79
     3
170
     0
171
     0
290
     0
174
     0
 93
        5
 44
0.0
173
     0
291
     0
 45
0.0
1001
ACAD
1000
AcDbSavedByObjectVersion
1070
     0
  0
VISUALSTYLE
  5
6D2
102
{ACAD_XDICTIONARY
360
11C0
102
}
102
{ACAD_REACTORS
330
14
102
}
330
14
100
AcDbVisualStyle
  2

 70
    23
 71
     2
 72
     2
 73
     3
 90
        0
 40
-0.6
 41
-30.0
 62
     5
 63
     7
 74
     2
 91
        2
 64
     7
 65
     7
 75
     1
175
     1
 42
40.0
 92
        8
 66
     7
 43
1.0
 76
     1
 77
     6
 78
     2
 67
     7
 79
     3
170
     0
171
     0
290
     0
174
     0
 93
        1
 44
0.0
173
     0
291
     0
 45
0.0
1001
ACAD
1000
AcDbSavedByObjectVersion
1070
     0
  0
VISUALSTYLE
  5
6D3
102
{ACAD_XDICTIONARY
360
11C2
102
}
102
{ACAD_REACTORS
330
14
102
}
330
14
100
AcDbVisualStyle
  2

 70
    24
 71
     1
 72
     2
 73
     2
 90
        0
 40
-0.6
 41
-30.0
 62
     5
 63
     7
 74
     2
 91
        2
 64
     7
 65
     7
 75
     1
175
     1
 42
40.0
 92
       11
 66
     7
 43
1.0
 76
     1
 77
     6
 78
     2
 67
     7
 79
     6
170
     0
171
     0
290
     0
174
     0
 93
        1
 44
0.0
173
     0
291
     0
 45
0.0
1001
ACAD
1000
AcDbSavedByObjectVersion
1070
     0
  0
VISUALSTYLE
  5
21
102
{ACAD_XDICTIONARY
360
11AF
102
}
102
{ACAD_REACTORS
330
14
102
}
330
14
100
AcDbVisualStyle
  2

 70
    13
 71
     2
 72
     2
 73
     0
 90
        0
 40
-0.6
 41
-30.0
 62
     5
 63
     7
 74
     1
 91
        4
 64
     7
 65
   257
 75
     1
175
     1
 42
1.0
 92
       12
 66
     7
 43
1.0
 76
     1
 77
     6
 78
     2
 67
     7
 79
     5
170
     0
171
     0
290
     0
174
     0
 93
        1
 44
0.0
173
     0
291
     1
 45
0.0
1001
ACAD
1000
AcDbSavedByObjectVersion
1070
     0
  0
VISUALSTYLE
  5
6D0
102
{ACAD_XDICTIONARY
360
11BC
102
}
102
{ACAD_REACTORS
330
14
102
}
330
14
100
AcDbVisualStyle
  2

 70
     5
 71
     0
 72
     2
 73
     0
 90
        0
 40
-0.6
 41
-30.0
 62
     5
 63
     7
 74
     1
 91
        4
 64
     7
 65
   257
 75
     1
175
     1
 42
1.0
 92
        0
 66
   257
 43
1.0
 76
     1
 77
     6
 78
     2
 67
     7
 79
     3
170
     0
171
     0
290
     0
174
     0
 93
        1
 44
0.0
173
     0
291
     0
 45
0.0
1001
ACAD
1000
AcDbSavedByObjectVersion
1070
     0
  0
VISUALSTYLE
  5
6D4
102
{ACAD_XDICTIONARY
360
11C4
102
}
102
{ACAD_REACTORS
330
14
102
}
330
14
100
AcDbVisualStyle
  2

 70
    25
 71
     2
 72
     2
 73
     1
 90
        1
 40
0.5
 41
-30.0
 62
     5
 63
     7
 74
     1
 91
        0
 64
     7
 65
   257
 75
     1
175
     1
 42
1.0
 92
        8
 66
     7
 43
1.0
 76
     1
 77
     6
 78
     2
 67
     7
 79
     3
170
     0
171
     0
290
     0
174
     0
 93
       13
 44
0.0
173
     0
291
     0
 45
0.0
1001
ACAD
1000
AcDbSavedByObjectVersion
1070
     0
  0
DICTIONARYVAR
  5
A77
102
{ACAD_REACTORS
330
5BF
102
}
330
5BF
100
DictionaryVariables
280
     0
  1
1:1
  0
DICTIONARYVAR
  5
A76
102
{ACAD_REACTORS
330
5BF
102
}
330
5BF
100
DictionaryVariables
280
     0
  1
STANDARD
  0
DICTIONARYVAR
  5
5C0
102
{ACAD_REACTORS
330
5BF
102
}
330
5BF
100
DictionaryVariables
280
     0
  1
STANDARD
  0
DICTIONARYVAR
  5
5C3
102
{ACAD_REACTORS
330
5BF
102
}
330
5BF
100
DictionaryVariables
280
     0
  1
1
  0
DICTIONARYVAR
  5
5C2
102
{ACAD_REACTORS
330
5BF
102
}
330
5BF
100
DictionaryVariables
280
     0
  1
0
  0
DICTIONARYVAR
  5
1033
102
{ACAD_REACTORS
330
5BF
102
}
330
5BF
100
DictionaryVariables
280
     0
  1
1.570796
  0
DICTIONARYVAR
  5
1034
102
{ACAD_REACTORS
330
5BF
102
}
330
5BF
100
DictionaryVariables
280
     0
  1
1.570796
  0
DICTIONARYVAR
  5
5C1
102
{ACAD_REACTORS
330
5BF
102
}
330
5BF
100
DictionaryVariables
280
     0
  1
127
  0
DICTIONARYVAR
  5
1035
102
{ACAD_REACTORS
330
5BF
102
}
330
5BF
100
DictionaryVariables
280
     0
  1
2
  0
DICTIONARY
  5
11BA
330
39
100
AcDbDictionary
280
     1
281
     1
  3
ACAD_XREC_ROUNDTRIP
360
11BB
  0
DICTIONARY
  5
11B8
330
35
100
AcDbDictionary
280
     1
281
     1
  3
ACAD_XREC_ROUNDTRIP
360
11B9
  0
DICTIONARY
  5
5C7
330
12
100
AcDbDictionary
280
     1
281
     1
  3
ACAD_XREC_ROUNDTRIP
360
5C8
  0
DICTIONARY
  5
5C5
330
11
100
AcDbDictionary
280
     1
281
     1
  3
ACAD_XREC_ROUNDTRIP
360
5C6
  0
DICTIONARY
  5
5C9
330
13
100
AcDbDictionary
280
     1
281
     1
  3
ACAD_XREC_ROUNDTRIP
360
5CA
  0
DICTIONARY
  5
B11
330
31
100
AcDbDictionary
280
     1
281
     1
  3
ACAD_ROUNDTRIP_2008_TABLESTYLE_CELLSTYLEMAP
360
118F
  3
ACAD_XREC_ROUNDTRIP
360
11B7
  0
DICTIONARY
  5
11A1
330
1A
100
AcDbDictionary
280
     1
281
     1
  3
ACAD_XREC_ROUNDTRIP
360
11A2
  0
DICTIONARY
  5
11A5
330
1C
100
AcDbDictionary
280
     1
281
     1
  3
ACAD_XREC_ROUNDTRIP
360
11A6
  0
DICTIONARY
  5
11A3
330
1B
100
AcDbDictionary
280
     1
281
     1
  3
ACAD_XREC_ROUNDTRIP
360
11A4
  0
DICTIONARY
  5
119F
330
19
100
AcDbDictionary
280
     1
281
     1
  3
ACAD_XREC_ROUNDTRIP
360
11A0
  0
DICTIONARY
  5
11AD
330
20
100
AcDbDictionary
280
     1
281
     1
  3
ACAD_XREC_ROUNDTRIP
360
11AE
  0
DICTIONARY
  5
11B5
330
24
100
AcDbDictionary
280
     1
281
     1
  3
ACAD_XREC_ROUNDTRIP
360
11B6
  0
DICTIONARY
  5
11A7
330
1D
100
AcDbDictionary
280
     1
281
     1
  3
ACAD_XREC_ROUNDTRIP
360
11A8
  0
DICTIONARY
  5
11AB
330
1F
100
AcDbDictionary
280
     1
281
     1
  3
ACAD_XREC_ROUNDTRIP
360
11AC
  0
DICTIONARY
  5
11CE
330
6D9
100
AcDbDictionary
280
     1
281
     1
  3
ACAD_XREC_ROUNDTRIP
360
11CF
  0
DICTIONARY
  5
11B3
330
23
100
AcDbDictionary
280
     1
281
     1
  3
ACAD_XREC_ROUNDTRIP
360
11B4
  0
DICTIONARY
  5
1197
330
15
100
AcDbDictionary
280
     1
281
     1
  3
ACAD_XREC_ROUNDTRIP
360
1198
  0
DICTIONARY
  5
1199
330
16
100
AcDbDictionary
280
     1
281
     1
  3
ACAD_XREC_ROUNDTRIP
360
119A
  0
DICTIONARY
  5
119B
330
17
100
AcDbDictionary
280
     1
281
     1
  3
ACAD_XREC_ROUNDTRIP
360
119C
  0
DICTIONARY
  5
119D
330
18
100
AcDbDictionary
280
     1
281
     1
  3
ACAD_XREC_ROUNDTRIP
360
119E
  0
DICTIONARY
  5
11BE
330
6D1
100
AcDbDictionary
280
     1
281
     1
  3
ACAD_XREC_ROUNDTRIP
360
11BF
  0
DICTIONARY
  5
11CA
330
6D7
100
AcDbDictionary
280
     1
281
     1
  3
ACAD_XREC_ROUNDTRIP
360
11CB
  0
DICTIONARY
  5
11B1
330
22
100
AcDbDictionary
280
     1
281
     1
  3
ACAD_XREC_ROUNDTRIP
360
11B2
  0
DICTIONARY
  5
11CC
330
6D8
100
AcDbDictionary
280
     1
281
     1
  3
ACAD_XREC_ROUNDTRIP
360
11CD
  0
DICTIONARY
  5
11A9
330
1E
100
AcDbDictionary
280
     1
281
     1
  3
ACAD_XREC_ROUNDTRIP
360
11AA
  0
DICTIONARY
  5
11C8
330
6D6
100
AcDbDictionary
280
     1
281
     1
  3
ACAD_XREC_ROUNDTRIP
360
11C9
  0
DICTIONARY
  5
11C6
330
6D5
100
AcDbDictionary
280
     1
281
     1
  3
ACAD_XREC_ROUNDTRIP
360
11C7
  0
DICTIONARY
  5
11C0
330
6D2
100
AcDbDictionary
280
     1
281
     1
  3
ACAD_XREC_ROUNDTRIP
360
11C1
  0
DICTIONARY
  5
11C2
330
6D3
100
AcDbDictionary
280
     1
281
     1
  3
ACAD_XREC_ROUNDTRIP
360
11C3
  0
DICTIONARY
  5
11AF
330
21
100
AcDbDictionary
280
     1
281
     1
  3
ACAD_XREC_ROUNDTRIP
360
11B0
  0
DICTIONARY
  5
11BC
330
6D0
100
AcDbDictionary
280
     1
281
     1
  3
ACAD_XREC_ROUNDTRIP
360
11BD
  0
DICTIONARY
  5
11C4
330
6D4
100
AcDbDictionary
280
     1
281
     1
  3
ACAD_XREC_ROUNDTRIP
360
11C5
  0
XRECORD
  5
11BB
102
{ACAD_REACTORS
330
11BA
102
}
330
11BA
100
AcDbXrecord
280
     1
102
SHADEPLOT
 70
     0
102
SHADEPLOTRESLEVEL
 70
     2
102
SHADEPLOTCUSTOMDPI
 70
   300
  0
XRECORD
  5
11B9
102
{ACAD_REACTORS
330
11B8
102
}
330
11B8
100
AcDbXrecord
280
     1
102
SHADEPLOT
 70
     0
102
SHADEPLOTRESLEVEL
 70
     2
102
SHADEPLOTCUSTOMDPI
 70
   300
  0
XRECORD
  5
5C8
102
{ACAD_REACTORS
330
5C7
102
}
330
5C7
100
AcDbXrecord
280
     1
102
MATERIAL
148
0.0
149
0.0
149
0.0
 93
        0
 94
      127
282
     0
 72
     1
 77
     1
171
     1
175
     1
179
     1
273
     0
  0
XRECORD
  5
5C6
102
{ACAD_REACTORS
330
5C5
102
}
330
5C5
100
AcDbXrecord
280
     1
102
MATERIAL
148
0.0
149
0.0
149
0.0
 93
        0
 94
      127
282
     0
 72
     1
 77
     1
171
     1
175
     1
179
     1
273
     0
  0
XRECORD
  5
5CA
102
{ACAD_REACTORS
330
5C9
102
}
330
5C9
100
AcDbXrecord
280
     1
102
MATERIAL
148
0.0
149
0.0
149
0.0
 93
        0
 94
      127
282
     0
 72
     1
 77
     1
171
     1
175
     1
179
     1
273
     0
  0
CELLSTYLEMAP
  5
118F
102
{ACAD_REACTORS
330
B11
102
}
330
B11
100
AcDbCellStyleMap
 90
        3
300
CELLSTYLE
  1
TABLEFORMAT_BEGIN
 90
        5
170
     1
 91
        0
 92
    32768
 62
   257
 93
        1
300
CONTENTFORMAT
  1
CONTENTFORMAT_BEGIN
 90
        0
 91
        0
 92
      512
 93
        0
300

 40
0.0
140
1.0
 94
        5
 62
     0
340
26
144
0.25
309
CONTENTFORMAT_END
171
     1
301
MARGIN
  1
CELLMARGIN_BEGIN
 40
0.06
 40
0.06
 40
0.06
 40
0.06
 40
0.18
 40
0.18
309
CELLMARGIN_END
 94
        6
 95
        1
302
GRIDFORMAT
  1
GRIDFORMAT_BEGIN
 90
        0
 91
        1
 62
     0
 92
       -2
340
0
 93
        0
 40
0.045
309
GRIDFORMAT_END
 95
        2
302
GRIDFORMAT
  1
GRIDFORMAT_BEGIN
 90
        0
 91
        1
 62
     0
 92
       -2
340
0
 93
        0
 40
0.045
309
GRIDFORMAT_END
 95
        4
302
GRIDFORMAT
  1
GRIDFORMAT_BEGIN
 90
        0
 91
        1
 62
     0
 92
       -2
340
0
 93
        0
 40
0.045
309
GRIDFORMAT_END
 95
        8
302
GRIDFORMAT
  1
GRIDFORMAT_BEGIN
 90
        0
 91
        1
 62
     0
 92
       -2
340
0
 93
        0
 40
0.045
309
GRIDFORMAT_END
 95
       16
302
GRIDFORMAT
  1
GRIDFORMAT_BEGIN
 90
        0
 91
        1
 62
     0
 92
       -2
340
0
 93
        0
 40
0.045
309
GRIDFORMAT_END
 95
       32
302
GRIDFORMAT
  1
GRIDFORMAT_BEGIN
 90
        0
 91
        1
 62
     0
 92
       -2
340
0
 93
        0
 40
0.045
309
GRIDFORMAT_END
309
TABLEFORMAT_END
  1
CELLSTYLE_BEGIN
 90
        1
 91
        1
300
_TITLE
309
CELLSTYLE_END
300
CELLSTYLE
  1
TABLEFORMAT_BEGIN
 90
        5
170
     1
 91
        0
 92
        0
 62
   257
 93
        1
300
CONTENTFORMAT
  1
CONTENTFORMAT_BEGIN
 90
        0
 91
        0
 92
      512
 93
        0
300

 40
0.0
140
1.0
 94
        5
 62
     0
340
26
144
0.18
309
CONTENTFORMAT_END
171
     1
301
MARGIN
  1
CELLMARGIN_BEGIN
 40
0.06
 40
0.06
 40
0.06
 40
0.06
 40
0.18
 40
0.18
309
CELLMARGIN_END
 94
        6
 95
        1
302
GRIDFORMAT
  1
GRIDFORMAT_BEGIN
 90
        0
 91
        1
 62
     0
 92
       -2
340
0
 93
        0
 40
0.045
309
GRIDFORMAT_END
 95
        2
302
GRIDFORMAT
  1
GRIDFORMAT_BEGIN
 90
        0
 91
        1
 62
     0
 92
       -2
340
0
 93
        0
 40
0.045
309
GRIDFORMAT_END
 95
        4
302
GRIDFORMAT
  1
GRIDFORMAT_BEGIN
 90
        0
 91
        1
 62
     0
 92
       -2
340
0
 93
        0
 40
0.045
309
GRIDFORMAT_END
 95
        8
302
GRIDFORMAT
  1
GRIDFORMAT_BEGIN
 90
        0
 91
        1
 62
     0
 92
       -2
340
0
 93
        0
 40
0.045
309
GRIDFORMAT_END
 95
       16
302
GRIDFORMAT
  1
GRIDFORMAT_BEGIN
 90
        0
 91
        1
 62
     0
 92
       -2
340
0
 93
        0
 40
0.045
309
GRIDFORMAT_END
 95
       32
302
GRIDFORMAT
  1
GRIDFORMAT_BEGIN
 90
        0
 91
        1
 62
     0
 92
       -2
340
0
 93
        0
 40
0.045
309
GRIDFORMAT_END
309
TABLEFORMAT_END
  1
CELLSTYLE_BEGIN
 90
        2
 91
        1
300
_HEADER
309
CELLSTYLE_END
300
CELLSTYLE
  1
TABLEFORMAT_BEGIN
 90
        5
170
     1
 91
        0
 92
        0
 62
   257
 93
        1
300
CONTENTFORMAT
  1
CONTENTFORMAT_BEGIN
 90
        0
 91
        0
 92
      512
 93
        0
300

 40
0.0
140
1.0
 94
        2
 62
     0
340
26
144
0.18
309
CONTENTFORMAT_END
171
     1
301
MARGIN
  1
CELLMARGIN_BEGIN
 40
0.06
 40
0.06
 40
0.06
 40
0.06
 40
0.18
 40
0.18
309
CELLMARGIN_END
 94
        6
 95
        1
302
GRIDFORMAT
  1
GRIDFORMAT_BEGIN
 90
        0
 91
        1
 62
     0
 92
       -2
340
0
 93
        0
 40
0.045
309
GRIDFORMAT_END
 95
        2
302
GRIDFORMAT
  1
GRIDFORMAT_BEGIN
 90
        0
 91
        1
 62
     0
 92
       -2
340
0
 93
        0
 40
0.045
309
GRIDFORMAT_END
 95
        4
302
GRIDFORMAT
  1
GRIDFORMAT_BEGIN
 90
        0
 91
        1
 62
     0
 92
       -2
340
0
 93
        0
 40
0.045
309
GRIDFORMAT_END
 95
        8
302
GRIDFORMAT
  1
GRIDFORMAT_BEGIN
 90
        0
 91
        1
 62
     0
 92
       -2
340
0
 93
        0
 40
0.045
309
GRIDFORMAT_END
 95
       16
302
GRIDFORMAT
  1
GRIDFORMAT_BEGIN
 90
        0
 91
        1
 62
     0
 92
       -2
340
0
 93
        0
 40
0.045
309
GRIDFORMAT_END
 95
       32
302
GRIDFORMAT
  1
GRIDFORMAT_BEGIN
 90
        0
 91
        1
 62
     0
 92
       -2
340
0
 93
        0
 40
0.045
309
GRIDFORMAT_END
309
TABLEFORMAT_END
  1
CELLSTYLE_BEGIN
 90
        3
 91
        2
300
_DATA
309
CELLSTYLE_END
  0
XRECORD
  5
11B7
102
{ACAD_REACTORS
330
B11
102
}
330
B11
100
AcDbXrecord
280
     1
102
ACAD_ROUNDTRIP_PRE2007_TABLESTYLE
 90
      512
 91
        0
  1

 92
      512
 93
        0
  2

 94
      512
 95
        0
  3

  0
XRECORD
  5
11A2
102
{ACAD_REACTORS
330
11A1
102
}
330
11A1
100
AcDbXrecord
280
     1
102
RTVSPropertyOp0
 70
     1
102
RTVSPropertyOp1
 70
     1
102
RTVSPropertyOp2
 70
     1
102
RTVSPropertyOp3
 70
     1
102
RTVSPropertyOp4
 70
     1
102
RTVSPropertyOp5
 70
     1
102
RTVSPropertyOp6
 70
     1
102
RTVSPropertyOp7
 70
     1
102
RTVSPropertyOp8
 70
     1
102
RTVSPropertyOp9
 70
     1
102
RTVSPropertyOp10
 70
     1
102
RTVSPropertyOp11
 70
     1
102
RTVSPropertyOp12
 70
     1
102
RTVSPropertyOp13
 70
     1
102
RTVSPropertyOp14
 70
     1
102
RTVSPropertyOp15
 70
     1
102
RTVSPropertyOp16
 70
     1
102
RTVSPropertyOp17
 70
     1
102
RTVSPropertyOp18
 70
     1
102
RTVSPropertyOp19
 70
     1
102
RTVSPropertyOp20
 70
     1
102
RTVSPropertyOp21
 70
     1
102
RTVSPropertyOp22
 70
     1
102
RTVSPropertyOp23
 70
     1
102
RTVSPropertyOp24
 70
     1
102
RTVSPropertyOp25
 70
     1
102
RTVSPropertyOp26
 70
     1
102
RTVSPropertyOp27
 70
     1
102
RTVSPropertyOp28
 70
     1
102
RTVSPropertyOp29
 70
     1
102
RTVSPropertyOp30
 70
     1
102
RTVSPropertyOp31
 70
     1
102
RTVSPropertyOp32
 70
     1
  0
XRECORD
  5
11A6
102
{ACAD_REACTORS
330
11A5
102
}
330
11A5
100
AcDbXrecord
280
     1
102
RTVSPropertyOp0
 70
     1
102
RTVSPropertyOp1
 70
     1
102
RTVSPropertyOp2
 70
     1
102
RTVSPropertyOp3
 70
     1
102
RTVSPropertyOp4
 70
     1
102
RTVSPropertyOp5
 70
     1
102
RTVSPropertyOp6
 70
     1
102
RTVSPropertyOp7
 70
     1
102
RTVSPropertyOp8
 70
     1
102
RTVSPropertyOp9
 70
     1
102
RTVSPropertyOp10
 70
     1
102
RTVSPropertyOp11
 70
     1
102
RTVSPropertyOp12
 70
     1
102
RTVSPropertyOp13
 70
     1
102
RTVSPropertyOp14
 70
     1
102
RTVSPropertyOp15
 70
     1
102
RTVSPropertyOp16
 70
     1
102
RTVSPropertyOp17
 70
     1
102
RTVSPropertyOp18
 70
     1
102
RTVSPropertyOp19
 70
     1
102
RTVSPropertyOp20
 70
     1
102
RTVSPropertyOp21
 70
     1
102
RTVSPropertyOp22
 70
     1
102
RTVSPropertyOp23
 70
     1
102
RTVSPropertyOp24
 70
     1
102
RTVSPropertyOp25
 70
     1
102
RTVSPropertyOp26
 70
     1
102
RTVSPropertyOp27
 70
     1
102
RTVSPropertyOp28
 70
     1
102
RTVSPropertyOp29
 70
     1
102
RTVSPropertyOp30
 70
     1
102
RTVSPropertyOp31
 70
     1
102
RTVSPropertyOp32
 70
     1
  0
XRECORD
  5
11A4
102
{ACAD_REACTORS
330
11A3
102
}
330
11A3
100
AcDbXrecord
280
     1
102
RTVSPropertyOp0
 70
     1
102
RTVSPropertyOp1
 70
     1
102
RTVSPropertyOp2
 70
     1
102
RTVSPropertyOp3
 70
     1
102
RTVSPropertyOp4
 70
     1
102
RTVSPropertyOp5
 70
     1
102
RTVSPropertyOp6
 70
     1
102
RTVSPropertyOp7
 70
     1
102
RTVSPropertyOp8
 70
     1
102
RTVSPropertyOp9
 70
     1
102
RTVSPropertyOp10
 70
     1
102
RTVSPropertyOp11
 70
     1
102
RTVSPropertyOp12
 70
     1
102
RTVSPropertyOp13
 70
     1
102
RTVSPropertyOp14
 70
     1
102
RTVSPropertyOp15
 70
     1
102
RTVSPropertyOp16
 70
     1
102
RTVSPropertyOp17
 70
     1
102
RTVSPropertyOp18
 70
     1
102
RTVSPropertyOp19
 70
     1
102
RTVSPropertyOp20
 70
     1
102
RTVSPropertyOp21
 70
     1
102
RTVSPropertyOp22
 70
     1
102
RTVSPropertyOp23
 70
     1
102
RTVSPropertyOp24
 70
     1
102
RTVSPropertyOp25
 70
     1
102
RTVSPropertyOp26
 70
     1
102
RTVSPropertyOp27
 70
     1
102
RTVSPropertyOp28
 70
     1
102
RTVSPropertyOp29
 70
     1
102
RTVSPropertyOp30
 70
     1
102
RTVSPropertyOp31
 70
     1
102
RTVSPropertyOp32
 70
     1
  0
XRECORD
  5
11A0
102
{ACAD_REACTORS
330
119F
102
}
330
119F
100
AcDbXrecord
280
     1
102
RTVSPropertyOp0
 70
     1
102
RTVSPropertyOp1
 70
     1
102
RTVSPropertyOp2
 70
     1
102
RTVSPropertyOp3
 70
     1
102
RTVSPropertyOp4
 70
     1
102
RTVSPropertyOp5
 70
     1
102
RTVSPropertyOp6
 70
     1
102
RTVSPropertyOp7
 70
     1
102
RTVSPropertyOp8
 70
     1
102
RTVSPropertyOp9
 70
     1
102
RTVSPropertyOp10
 70
     1
102
RTVSPropertyOp11
 70
     1
102
RTVSPropertyOp12
 70
     1
102
RTVSPropertyOp13
 70
     1
102
RTVSPropertyOp14
 70
     1
102
RTVSPropertyOp15
 70
     1
102
RTVSPropertyOp16
 70
     1
102
RTVSPropertyOp17
 70
     1
102
RTVSPropertyOp18
 70
     1
102
RTVSPropertyOp19
 70
     1
102
RTVSPropertyOp20
 70
     1
102
RTVSPropertyOp21
 70
     1
102
RTVSPropertyOp22
 70
     1
102
RTVSPropertyOp23
 70
     1
102
RTVSPropertyOp24
 70
     1
102
RTVSPropertyOp25
 70
     1
102
RTVSPropertyOp26
 70
     1
102
RTVSPropertyOp27
 70
     1
102
RTVSPropertyOp28
 70
     1
102
RTVSPropertyOp29
 70
     1
102
RTVSPropertyOp30
 70
     1
102
RTVSPropertyOp31
 70
     1
102
RTVSPropertyOp32
 70
     1
  0
XRECORD
  5
11AE
102
{ACAD_REACTORS
330
11AD
102
}
330
11AD
100
AcDbXrecord
280
     1
102
RTVSPropertyOp0
 70
     1
102
RTVSPropertyOp1
 70
     1
102
RTVSPropertyOp2
 70
     1
102
RTVSPropertyOp3
 70
     1
102
RTVSPropertyOp4
 70
     1
102
RTVSPropertyOp5
 70
     1
102
RTVSPropertyOp6
 70
     1
102
RTVSPropertyOp7
 70
     1
102
RTVSPropertyOp8
 70
     1
102
RTVSPropertyOp9
 70
     1
102
RTVSPropertyOp10
 70
     1
102
RTVSPropertyOp11
 70
     1
102
RTVSPropertyOp12
 70
     1
102
RTVSPropertyOp13
 70
     1
102
RTVSPropertyOp14
 70
     1
102
RTVSPropertyOp15
 70
     1
102
RTVSPropertyOp16
 70
     1
102
RTVSPropertyOp17
 70
     1
102
RTVSPropertyOp18
 70
     1
102
RTVSPropertyOp19
 70
     1
102
RTVSPropertyOp20
 70
     1
102
RTVSPropertyOp21
 70
     1
102
RTVSPropertyOp22
 70
     1
102
RTVSPropertyOp23
 70
     1
102
RTVSPropertyOp24
 70
     1
102
RTVSPropertyOp25
 70
     1
102
RTVSPropertyOp26
 70
     1
102
RTVSPropertyOp27
 70
     1
102
RTVSPropertyOp28
 70
     1
102
RTVSPropertyOp29
 70
     1
102
RTVSPropertyOp30
 70
     1
102
RTVSPropertyOp31
 70
     1
102
RTVSPropertyOp32
 70
     1
  0
XRECORD
  5
11B6
102
{ACAD_REACTORS
330
11B5
102
}
330
11B5
100
AcDbXrecord
280
     1
102
RTVSPropertyOp0
 70
     1
102
RTVSPropertyOp1
 70
     1
102
RTVSPropertyOp2
 70
     1
102
RTVSPropertyOp3
 70
     1
102
RTVSPropertyOp4
 70
     1
102
RTVSPropertyOp5
 70
     1
102
RTVSPropertyOp6
 70
     1
102
RTVSPropertyOp7
 70
     1
102
RTVSPropertyOp8
 70
     1
102
RTVSPropertyOp9
 70
     1
102
RTVSPropertyOp10
 70
     1
102
RTVSPropertyOp11
 70
     1
102
RTVSPropertyOp12
 70
     1
102
RTVSPropertyOp13
 70
     1
102
RTVSPropertyOp14
 70
     1
102
RTVSPropertyOp15
 70
     1
102
RTVSPropertyOp16
 70
     1
102
RTVSPropertyOp17
 70
     1
102
RTVSPropertyOp18
 70
     1
102
RTVSPropertyOp19
 70
     1
102
RTVSPropertyOp20
 70
     1
102
RTVSPropertyOp21
 70
     1
102
RTVSPropertyOp22
 70
     1
102
RTVSPropertyOp23
 70
     1
102
RTVSPropertyOp24
 70
     1
102
RTVSPropertyOp25
 70
     1
102
RTVSPropertyOp26
 70
     1
102
RTVSPropertyOp27
 70
     1
102
RTVSPropertyOp28
 70
     1
102
RTVSPropertyOp29
 70
     1
102
RTVSPropertyOp30
 70
     1
102
RTVSPropertyOp31
 70
     1
102
RTVSPropertyOp32
 70
     1
  0
XRECORD
  5
11A8
102
{ACAD_REACTORS
330
11A7
102
}
330
11A7
100
AcDbXrecord
280
     1
102
RTVSPropertyOp0
 70
     1
102
RTVSPropertyOp1
 70
     1
102
RTVSPropertyOp2
 70
     1
102
RTVSPropertyOp3
 70
     1
102
RTVSPropertyOp4
 70
     1
102
RTVSPropertyOp5
 70
     1
102
RTVSPropertyOp6
 70
     1
102
RTVSPropertyOp7
 70
     1
102
RTVSPropertyOp8
 70
     1
102
RTVSPropertyOp9
 70
     1
102
RTVSPropertyOp10
 70
     1
102
RTVSPropertyOp11
 70
     1
102
RTVSPropertyOp12
 70
     1
102
RTVSPropertyOp13
 70
     1
102
RTVSPropertyOp14
 70
     1
102
RTVSPropertyOp15
 70
     1
102
RTVSPropertyOp16
 70
     1
102
RTVSPropertyOp17
 70
     1
102
RTVSPropertyOp18
 70
     1
102
RTVSPropertyOp19
 70
     1
102
RTVSPropertyOp20
 70
     1
102
RTVSPropertyOp21
 70
     1
102
RTVSPropertyOp22
 70
     1
102
RTVSPropertyOp23
 70
     1
102
RTVSPropertyOp24
 70
     1
102
RTVSPropertyOp25
 70
     1
102
RTVSPropertyOp26
 70
     1
102
RTVSPropertyOp27
 70
     1
102
RTVSPropertyOp28
 70
     1
102
RTVSPropertyOp29
 70
     1
102
RTVSPropertyOp30
 70
     1
102
RTVSPropertyOp31
 70
     1
102
RTVSPropertyOp32
 70
     1
  0
XRECORD
  5
11AC
102
{ACAD_REACTORS
330
11AB
102
}
330
11AB
100
AcDbXrecord
280
     1
102
RTVSPropertyOp0
 70
     1
102
RTVSPropertyOp1
 70
     1
102
RTVSPropertyOp2
 70
     1
102
RTVSPropertyOp3
 70
     1
102
RTVSPropertyOp4
 70
     1
102
RTVSPropertyOp5
 70
     1
102
RTVSPropertyOp6
 70
     1
102
RTVSPropertyOp7
 70
     1
102
RTVSPropertyOp8
 70
     1
102
RTVSPropertyOp9
 70
     1
102
RTVSPropertyOp10
 70
     1
102
RTVSPropertyOp11
 70
     1
102
RTVSPropertyOp12
 70
     1
102
RTVSPropertyOp13
 70
     1
102
RTVSPropertyOp14
 70
     1
102
RTVSPropertyOp15
 70
     1
102
RTVSPropertyOp16
 70
     1
102
RTVSPropertyOp17
 70
     1
102
RTVSPropertyOp18
 70
     1
102
RTVSPropertyOp19
 70
     1
102
RTVSPropertyOp20
 70
     1
102
RTVSPropertyOp21
 70
     1
102
RTVSPropertyOp22
 70
     1
102
RTVSPropertyOp23
 70
     1
102
RTVSPropertyOp24
 70
     1
102
RTVSPropertyOp25
 70
     1
102
RTVSPropertyOp26
 70
     1
102
RTVSPropertyOp27
 70
     1
102
RTVSPropertyOp28
 70
     1
102
RTVSPropertyOp29
 70
     1
102
RTVSPropertyOp30
 70
     1
102
RTVSPropertyOp31
 70
     1
102
RTVSPropertyOp32
 70
     1
  0
XRECORD
  5
11CF
102
{ACAD_REACTORS
330
11CE
102
}
330
11CE
100
AcDbXrecord
280
     1
102
RTVSPropertyOp0
 70
     0
102
RTVSPropertyOp1
 70
     0
102
RTVSPropertyOp2
 70
     0
102
RTVSPropertyOp3
 70
     0
102
RTVSPropertyOp4
 70
     0
102
RTVSPropertyOp5
 70
     0
102
RTVSPropertyOp6
 70
     0
102
RTVSPropertyOp7
 70
     0
102
RTVSPropertyOp8
 70
     0
102
RTVSPropertyOp9
 70
     0
102
RTVSPropertyOp10
 70
     0
102
RTVSPropertyOp11
 70
     0
102
RTVSPropertyOp12
 70
     0
102
RTVSPropertyOp13
 70
     0
102
RTVSPropertyOp14
 70
     2
102
RTVSPropertyOp15
 70
     0
102
RTVSPropertyOp16
 70
     0
102
RTVSPropertyOp17
 70
     0
102
RTVSPropertyOp18
 70
     0
102
RTVSPropertyOp19
 70
     0
102
RTVSPropertyOp20
 70
     0
102
RTVSPropertyOp21
 70
     0
102
RTVSPropertyOp22
 70
     0
102
RTVSPropertyOp23
 70
     0
102
RTVSPropertyOp24
 70
     0
102
RTVSPropertyOp25
 70
     0
102
RTVSPropertyOp26
 70
     0
102
RTVSPropertyOp27
 70
     0
102
RTVSPropertyOp28
 70
     0
102
RTVSPropertyOp29
 70
     0
102
RTVSPropertyOp30
 70
     0
102
RTVSPropertyOp31
 70
     0
102
RTVSPropertyOp32
 70
     0
  0
XRECORD
  5
11B4
102
{ACAD_REACTORS
330
11B3
102
}
330
11B3
100
AcDbXrecord
280
     1
102
RTVSPropertyOp0
 70
     1
102
RTVSPropertyOp1
 70
     1
102
RTVSPropertyOp2
 70
     1
102
RTVSPropertyOp3
 70
     1
102
RTVSPropertyOp4
 70
     1
102
RTVSPropertyOp5
 70
     1
102
RTVSPropertyOp6
 70
     1
102
RTVSPropertyOp7
 70
     1
102
RTVSPropertyOp8
 70
     1
102
RTVSPropertyOp9
 70
     1
102
RTVSPropertyOp10
 70
     1
102
RTVSPropertyOp11
 70
     1
102
RTVSPropertyOp12
 70
     1
102
RTVSPropertyOp13
 70
     1
102
RTVSPropertyOp14
 70
     1
102
RTVSPropertyOp15
 70
     1
102
RTVSPropertyOp16
 70
     1
102
RTVSPropertyOp17
 70
     1
102
RTVSPropertyOp18
 70
     1
102
RTVSPropertyOp19
 70
     1
102
RTVSPropertyOp20
 70
     1
102
RTVSPropertyOp21
 70
     1
102
RTVSPropertyOp22
 70
     1
102
RTVSPropertyOp23
 70
     1
102
RTVSPropertyOp24
 70
     1
102
RTVSPropertyOp25
 70
     1
102
RTVSPropertyOp26
 70
     1
102
RTVSPropertyOp27
 70
     1
102
RTVSPropertyOp28
 70
     1
102
RTVSPropertyOp29
 70
     1
102
RTVSPropertyOp30
 70
     1
102
RTVSPropertyOp31
 70
     1
102
RTVSPropertyOp32
 70
     1
  0
XRECORD
  5
1198
102
{ACAD_REACTORS
330
1197
102
}
330
1197
100
AcDbXrecord
280
     1
102
RTVSPropertyOp0
 70
     1
102
RTVSPropertyOp1
 70
     1
102
RTVSPropertyOp2
 70
     1
102
RTVSPropertyOp3
 70
     1
102
RTVSPropertyOp4
 70
     1
102
RTVSPropertyOp5
 70
     1
102
RTVSPropertyOp6
 70
     1
102
RTVSPropertyOp7
 70
     1
102
RTVSPropertyOp8
 70
     1
102
RTVSPropertyOp9
 70
     1
102
RTVSPropertyOp10
 70
     1
102
RTVSPropertyOp11
 70
     1
102
RTVSPropertyOp12
 70
     1
102
RTVSPropertyOp13
 70
     1
102
RTVSPropertyOp14
 70
     1
102
RTVSPropertyOp15
 70
     1
102
RTVSPropertyOp16
 70
     1
102
RTVSPropertyOp17
 70
     1
102
RTVSPropertyOp18
 70
     1
102
RTVSPropertyOp19
 70
     1
102
RTVSPropertyOp20
 70
     1
102
RTVSPropertyOp21
 70
     1
102
RTVSPropertyOp22
 70
     1
102
RTVSPropertyOp23
 70
     1
102
RTVSPropertyOp24
 70
     1
102
RTVSPropertyOp25
 70
     1
102
RTVSPropertyOp26
 70
     1
102
RTVSPropertyOp27
 70
     1
102
RTVSPropertyOp28
 70
     1
102
RTVSPropertyOp29
 70
     1
102
RTVSPropertyOp30
 70
     1
102
RTVSPropertyOp31
 70
     1
102
RTVSPropertyOp32
 70
     1
  0
XRECORD
  5
119A
102
{ACAD_REACTORS
330
1199
102
}
330
1199
100
AcDbXrecord
280
     1
102
RTVSPropertyOp0
 70
     1
102
RTVSPropertyOp1
 70
     1
102
RTVSPropertyOp2
 70
     1
102
RTVSPropertyOp3
 70
     1
102
RTVSPropertyOp4
 70
     1
102
RTVSPropertyOp5
 70
     1
102
RTVSPropertyOp6
 70
     1
102
RTVSPropertyOp7
 70
     1
102
RTVSPropertyOp8
 70
     1
102
RTVSPropertyOp9
 70
     1
102
RTVSPropertyOp10
 70
     1
102
RTVSPropertyOp11
 70
     1
102
RTVSPropertyOp12
 70
     1
102
RTVSPropertyOp13
 70
     1
102
RTVSPropertyOp14
 70
     1
102
RTVSPropertyOp15
 70
     1
102
RTVSPropertyOp16
 70
     1
102
RTVSPropertyOp17
 70
     1
102
RTVSPropertyOp18
 70
     1
102
RTVSPropertyOp19
 70
     1
102
RTVSPropertyOp20
 70
     1
102
RTVSPropertyOp21
 70
     1
102
RTVSPropertyOp22
 70
     1
102
RTVSPropertyOp23
 70
     1
102
RTVSPropertyOp24
 70
     1
102
RTVSPropertyOp25
 70
     1
102
RTVSPropertyOp26
 70
     1
102
RTVSPropertyOp27
 70
     1
102
RTVSPropertyOp28
 70
     1
102
RTVSPropertyOp29
 70
     1
102
RTVSPropertyOp30
 70
     1
102
RTVSPropertyOp31
 70
     1
102
RTVSPropertyOp32
 70
     1
  0
XRECORD
  5
119C
102
{ACAD_REACTORS
330
119B
102
}
330
119B
100
AcDbXrecord
280
     1
102
RTVSPropertyOp0
 70
     1
102
RTVSPropertyOp1
 70
     1
102
RTVSPropertyOp2
 70
     1
102
RTVSPropertyOp3
 70
     1
102
RTVSPropertyOp4
 70
     1
102
RTVSPropertyOp5
 70
     1
102
RTVSPropertyOp6
 70
     1
102
RTVSPropertyOp7
 70
     1
102
RTVSPropertyOp8
 70
     1
102
RTVSPropertyOp9
 70
     1
102
RTVSPropertyOp10
 70
     1
102
RTVSPropertyOp11
 70
     1
102
RTVSPropertyOp12
 70
     1
102
RTVSPropertyOp13
 70
     1
102
RTVSPropertyOp14
 70
     1
102
RTVSPropertyOp15
 70
     1
102
RTVSPropertyOp16
 70
     1
102
RTVSPropertyOp17
 70
     1
102
RTVSPropertyOp18
 70
     1
102
RTVSPropertyOp19
 70
     1
102
RTVSPropertyOp20
 70
     1
102
RTVSPropertyOp21
 70
     1
102
RTVSPropertyOp22
 70
     1
102
RTVSPropertyOp23
 70
     1
102
RTVSPropertyOp24
 70
     1
102
RTVSPropertyOp25
 70
     1
102
RTVSPropertyOp26
 70
     1
102
RTVSPropertyOp27
 70
     1
102
RTVSPropertyOp28
 70
     1
102
RTVSPropertyOp29
 70
     1
102
RTVSPropertyOp30
 70
     1
102
RTVSPropertyOp31
 70
     1
102
RTVSPropertyOp32
 70
     1
  0
XRECORD
  5
119E
102
{ACAD_REACTORS
330
119D
102
}
330
119D
100
AcDbXrecord
280
     1
102
RTVSPropertyOp0
 70
     1
102
RTVSPropertyOp1
 70
     1
102
RTVSPropertyOp2
 70
     1
102
RTVSPropertyOp3
 70
     1
102
RTVSPropertyOp4
 70
     1
102
RTVSPropertyOp5
 70
     1
102
RTVSPropertyOp6
 70
     1
102
RTVSPropertyOp7
 70
     1
102
RTVSPropertyOp8
 70
     1
102
RTVSPropertyOp9
 70
     1
102
RTVSPropertyOp10
 70
     1
102
RTVSPropertyOp11
 70
     1
102
RTVSPropertyOp12
 70
     1
102
RTVSPropertyOp13
 70
     1
102
RTVSPropertyOp14
 70
     1
102
RTVSPropertyOp15
 70
     1
102
RTVSPropertyOp16
 70
     1
102
RTVSPropertyOp17
 70
     1
102
RTVSPropertyOp18
 70
     1
102
RTVSPropertyOp19
 70
     1
102
RTVSPropertyOp20
 70
     1
102
RTVSPropertyOp21
 70
     1
102
RTVSPropertyOp22
 70
     1
102
RTVSPropertyOp23
 70
     1
102
RTVSPropertyOp24
 70
     1
102
RTVSPropertyOp25
 70
     1
102
RTVSPropertyOp26
 70
     1
102
RTVSPropertyOp27
 70
     1
102
RTVSPropertyOp28
 70
     1
102
RTVSPropertyOp29
 70
     1
102
RTVSPropertyOp30
 70
     1
102
RTVSPropertyOp31
 70
     1
102
RTVSPropertyOp32
 70
     1
  0
XRECORD
  5
11BF
102
{ACAD_REACTORS
330
11BE
102
}
330
11BE
100
AcDbXrecord
280
     1
102
RTVSPropertyOp0
 70
     1
102
RTVSPropertyOp1
 70
     1
102
RTVSPropertyOp2
 70
     1
102
RTVSPropertyOp3
 70
     1
102
RTVSPropertyOp4
 70
     1
102
RTVSPropertyOp5
 70
     1
102
RTVSPropertyOp6
 70
     1
102
RTVSPropertyOp7
 70
     1
102
RTVSPropertyOp8
 70
     1
102
RTVSPropertyOp9
 70
     1
102
RTVSPropertyOp10
 70
     1
102
RTVSPropertyOp11
 70
     1
102
RTVSPropertyOp12
 70
     1
102
RTVSPropertyOp13
 70
     1
102
RTVSPropertyOp14
 70
     1
102
RTVSPropertyOp15
 70
     1
102
RTVSPropertyOp16
 70
     1
102
RTVSPropertyOp17
 70
     1
102
RTVSPropertyOp18
 70
     1
102
RTVSPropertyOp19
 70
     1
102
RTVSPropertyOp20
 70
     1
102
RTVSPropertyOp21
 70
     1
102
RTVSPropertyOp22
 70
     1
102
RTVSPropertyOp23
 70
     1
102
RTVSPropertyOp24
 70
     1
102
RTVSPropertyOp25
 70
     1
102
RTVSPropertyOp26
 70
     1
102
RTVSPropertyOp27
 70
     1
102
RTVSPropertyOp28
 70
     1
102
RTVSPropertyOp29
 70
     1
102
RTVSPropertyOp30
 70
     1
102
RTVSPropertyOp31
 70
     1
102
RTVSPropertyOp32
 70
     1
  0
XRECORD
  5
11CB
102
{ACAD_REACTORS
330
11CA
102
}
330
11CA
100
AcDbXrecord
280
     1
102
RTVSPropertyOp0
 70
     0
102
RTVSPropertyOp1
 70
     0
102
RTVSPropertyOp2
 70
     0
102
RTVSPropertyOp3
 70
     0
102
RTVSPropertyOp4
 70
     0
102
RTVSPropertyOp5
 70
     0
102
RTVSPropertyOp6
 70
     0
102
RTVSPropertyOp7
 70
     0
102
RTVSPropertyOp8
 70
     0
102
RTVSPropertyOp9
 70
     0
102
RTVSPropertyOp10
 70
     0
102
RTVSPropertyOp11
 70
     0
102
RTVSPropertyOp12
 70
     0
102
RTVSPropertyOp13
 70
     0
102
RTVSPropertyOp14
 70
     2
102
RTVSPropertyOp15
 70
     0
102
RTVSPropertyOp16
 70
     0
102
RTVSPropertyOp17
 70
     0
102
RTVSPropertyOp18
 70
     0
102
RTVSPropertyOp19
 70
     0
102
RTVSPropertyOp20
 70
     0
102
RTVSPropertyOp21
 70
     0
102
RTVSPropertyOp22
 70
     0
102
RTVSPropertyOp23
 70
     0
102
RTVSPropertyOp24
 70
     0
102
RTVSPropertyOp25
 70
     0
102
RTVSPropertyOp26
 70
     0
102
RTVSPropertyOp27
 70
     0
102
RTVSPropertyOp28
 70
     0
102
RTVSPropertyOp29
 70
     0
102
RTVSPropertyOp30
 70
     0
102
RTVSPropertyOp31
 70
     0
102
RTVSPropertyOp32
 70
     0
  0
XRECORD
  5
11B2
102
{ACAD_REACTORS
330
11B1
102
}
330
11B1
100
AcDbXrecord
280
     1
102
RTVSPropertyOp0
 70
     1
102
RTVSPropertyOp1
 70
     1
102
RTVSPropertyOp2
 70
     1
102
RTVSPropertyOp3
 70
     1
102
RTVSPropertyOp4
 70
     1
102
RTVSPropertyOp5
 70
     1
102
RTVSPropertyOp6
 70
     1
102
RTVSPropertyOp7
 70
     1
102
RTVSPropertyOp8
 70
     1
102
RTVSPropertyOp9
 70
     1
102
RTVSPropertyOp10
 70
     1
102
RTVSPropertyOp11
 70
     1
102
RTVSPropertyOp12
 70
     1
102
RTVSPropertyOp13
 70
     1
102
RTVSPropertyOp14
 70
     1
102
RTVSPropertyOp15
 70
     1
102
RTVSPropertyOp16
 70
     1
102
RTVSPropertyOp17
 70
     1
102
RTVSPropertyOp18
 70
     1
102
RTVSPropertyOp19
 70
     1
102
RTVSPropertyOp20
 70
     1
102
RTVSPropertyOp21
 70
     1
102
RTVSPropertyOp22
 70
     1
102
RTVSPropertyOp23
 70
     1
102
RTVSPropertyOp24
 70
     1
102
RTVSPropertyOp25
 70
     1
102
RTVSPropertyOp26
 70
     1
102
RTVSPropertyOp27
 70
     1
102
RTVSPropertyOp28
 70
     1
102
RTVSPropertyOp29
 70
     1
102
RTVSPropertyOp30
 70
     1
102
RTVSPropertyOp31
 70
     1
102
RTVSPropertyOp32
 70
     1
  0
XRECORD
  5
11CD
102
{ACAD_REACTORS
330
11CC
102
}
330
11CC
100
AcDbXrecord
280
     1
102
RTVSPropertyOp0
 70
     0
102
RTVSPropertyOp1
 70
     0
102
RTVSPropertyOp2
 70
     0
102
RTVSPropertyOp3
 70
     0
102
RTVSPropertyOp4
 70
     0
102
RTVSPropertyOp5
 70
     0
102
RTVSPropertyOp6
 70
     0
102
RTVSPropertyOp7
 70
     0
102
RTVSPropertyOp8
 70
     0
102
RTVSPropertyOp9
 70
     0
102
RTVSPropertyOp10
 70
     0
102
RTVSPropertyOp11
 70
     0
102
RTVSPropertyOp12
 70
     0
102
RTVSPropertyOp13
 70
     0
102
RTVSPropertyOp14
 70
     2
102
RTVSPropertyOp15
 70
     0
102
RTVSPropertyOp16
 70
     0
102
RTVSPropertyOp17
 70
     0
102
RTVSPropertyOp18
 70
     0
102
RTVSPropertyOp19
 70
     0
102
RTVSPropertyOp20
 70
     0
102
RTVSPropertyOp21
 70
     0
102
RTVSPropertyOp22
 70
     0
102
RTVSPropertyOp23
 70
     0
102
RTVSPropertyOp24
 70
     0
102
RTVSPropertyOp25
 70
     0
102
RTVSPropertyOp26
 70
     0
102
RTVSPropertyOp27
 70
     0
102
RTVSPropertyOp28
 70
     0
102
RTVSPropertyOp29
 70
     0
102
RTVSPropertyOp30
 70
     0
102
RTVSPropertyOp31
 70
     0
102
RTVSPropertyOp32
 70
     0
  0
XRECORD
  5
11AA
102
{ACAD_REACTORS
330
11A9
102
}
330
11A9
100
AcDbXrecord
280
     1
102
RTVSPropertyOp0
 70
     1
102
RTVSPropertyOp1
 70
     1
102
RTVSPropertyOp2
 70
     1
102
RTVSPropertyOp3
 70
     1
102
RTVSPropertyOp4
 70
     1
102
RTVSPropertyOp5
 70
     1
102
RTVSPropertyOp6
 70
     1
102
RTVSPropertyOp7
 70
     1
102
RTVSPropertyOp8
 70
     1
102
RTVSPropertyOp9
 70
     1
102
RTVSPropertyOp10
 70
     1
102
RTVSPropertyOp11
 70
     1
102
RTVSPropertyOp12
 70
     1
102
RTVSPropertyOp13
 70
     1
102
RTVSPropertyOp14
 70
     1
102
RTVSPropertyOp15
 70
     1
102
RTVSPropertyOp16
 70
     1
102
RTVSPropertyOp17
 70
     1
102
RTVSPropertyOp18
 70
     1
102
RTVSPropertyOp19
 70
     1
102
RTVSPropertyOp20
 70
     1
102
RTVSPropertyOp21
 70
     1
102
RTVSPropertyOp22
 70
     1
102
RTVSPropertyOp23
 70
     1
102
RTVSPropertyOp24
 70
     1
102
RTVSPropertyOp25
 70
     1
102
RTVSPropertyOp26
 70
     1
102
RTVSPropertyOp27
 70
     1
102
RTVSPropertyOp28
 70
     1
102
RTVSPropertyOp29
 70
     1
102
RTVSPropertyOp30
 70
     1
102
RTVSPropertyOp31
 70
     1
102
RTVSPropertyOp32
 70
     1
  0
XRECORD
  5
11C9
102
{ACAD_REACTORS
330
11C8
102
}
330
11C8
100
AcDbXrecord
280
     1
102
RTVSPropertyOp0
 70
     1
102
RTVSPropertyOp1
 70
     1
102
RTVSPropertyOp2
 70
     1
102
RTVSPropertyOp3
 70
     1
102
RTVSPropertyOp4
 70
     1
102
RTVSPropertyOp5
 70
     1
102
RTVSPropertyOp6
 70
     1
102
RTVSPropertyOp7
 70
     1
102
RTVSPropertyOp8
 70
     1
102
RTVSPropertyOp9
 70
     1
102
RTVSPropertyOp10
 70
     1
102
RTVSPropertyOp11
 70
     1
102
RTVSPropertyOp12
 70
     1
102
RTVSPropertyOp13
 70
     1
102
RTVSPropertyOp14
 70
     1
102
RTVSPropertyOp15
 70
     1
102
RTVSPropertyOp16
 70
     1
102
RTVSPropertyOp17
 70
     1
102
RTVSPropertyOp18
 70
     1
102
RTVSPropertyOp19
 70
     1
102
RTVSPropertyOp20
 70
     1
102
RTVSPropertyOp21
 70
     1
102
RTVSPropertyOp22
 70
     1
102
RTVSPropertyOp23
 70
     1
102
RTVSPropertyOp24
 70
     1
102
RTVSPropertyOp25
 70
     1
102
RTVSPropertyOp26
 70
     1
102
RTVSPropertyOp27
 70
     1
102
RTVSPropertyOp28
 70
     1
102
RTVSPropertyOp29
 70
     1
102
RTVSPropertyOp30
 70
     1
102
RTVSPropertyOp31
 70
     1
102
RTVSPropertyOp32
 70
     1
  0
XRECORD
  5
11C7
102
{ACAD_REACTORS
330
11C6
102
}
330
11C6
100
AcDbXrecord
280
     1
102
RTVSPropertyOp0
 70
     1
102
RTVSPropertyOp1
 70
     1
102
RTVSPropertyOp2
 70
     1
102
RTVSPropertyOp3
 70
     1
102
RTVSPropertyOp4
 70
     1
102
RTVSPropertyOp5
 70
     1
102
RTVSPropertyOp6
 70
     1
102
RTVSPropertyOp7
 70
     1
102
RTVSPropertyOp8
 70
     1
102
RTVSPropertyOp9
 70
     1
102
RTVSPropertyOp10
 70
     1
102
RTVSPropertyOp11
 70
     1
102
RTVSPropertyOp12
 70
     1
102
RTVSPropertyOp13
 70
     1
102
RTVSPropertyOp14
 70
     1
102
RTVSPropertyOp15
 70
     1
102
RTVSPropertyOp16
 70
     1
102
RTVSPropertyOp17
 70
     1
102
RTVSPropertyOp18
 70
     1
102
RTVSPropertyOp19
 70
     1
102
RTVSPropertyOp20
 70
     1
102
RTVSPropertyOp21
 70
     1
102
RTVSPropertyOp22
 70
     1
102
RTVSPropertyOp23
 70
     1
102
RTVSPropertyOp24
 70
     1
102
RTVSPropertyOp25
 70
     1
102
RTVSPropertyOp26
 70
     1
102
RTVSPropertyOp27
 70
     1
102
RTVSPropertyOp28
 70
     1
102
RTVSPropertyOp29
 70
     1
102
RTVSPropertyOp30
 70
     1
102
RTVSPropertyOp31
 70
     1
102
RTVSPropertyOp32
 70
     1
  0
XRECORD
  5
11C1
102
{ACAD_REACTORS
330
11C0
102
}
330
11C0
100
AcDbXrecord
280
     1
102
RTVSPropertyOp0
 70
     1
102
RTVSPropertyOp1
 70
     1
102
RTVSPropertyOp2
 70
     1
102
RTVSPropertyOp3
 70
     1
102
RTVSPropertyOp4
 70
     1
102
RTVSPropertyOp5
 70
     1
102
RTVSPropertyOp6
 70
     1
102
RTVSPropertyOp7
 70
     1
102
RTVSPropertyOp8
 70
     1
102
RTVSPropertyOp9
 70
     1
102
RTVSPropertyOp10
 70
     1
102
RTVSPropertyOp11
 70
     1
102
RTVSPropertyOp12
 70
     1
102
RTVSPropertyOp13
 70
     1
102
RTVSPropertyOp14
 70
     1
102
RTVSPropertyOp15
 70
     1
102
RTVSPropertyOp16
 70
     1
102
RTVSPropertyOp17
 70
     1
102
RTVSPropertyOp18
 70
     1
102
RTVSPropertyOp19
 70
     1
102
RTVSPropertyOp20
 70
     1
102
RTVSPropertyOp21
 70
     1
102
RTVSPropertyOp22
 70
     1
102
RTVSPropertyOp23
 70
     1
102
RTVSPropertyOp24
 70
     1
102
RTVSPropertyOp25
 70
     1
102
RTVSPropertyOp26
 70
     1
102
RTVSPropertyOp27
 70
     1
102
RTVSPropertyOp28
 70
     1
102
RTVSPropertyOp29
 70
     1
102
RTVSPropertyOp30
 70
     1
102
RTVSPropertyOp31
 70
     1
102
RTVSPropertyOp32
 70
     1
  0
XRECORD
  5
11C3
102
{ACAD_REACTORS
330
11C2
102
}
330
11C2
100
AcDbXrecord
280
     1
102
RTVSPropertyOp0
 70
     1
102
RTVSPropertyOp1
 70
     1
102
RTVSPropertyOp2
 70
     1
102
RTVSPropertyOp3
 70
     1
102
RTVSPropertyOp4
 70
     1
102
RTVSPropertyOp5
 70
     1
102
RTVSPropertyOp6
 70
     1
102
RTVSPropertyOp7
 70
     1
102
RTVSPropertyOp8
 70
     1
102
RTVSPropertyOp9
 70
     1
102
RTVSPropertyOp10
 70
     1
102
RTVSPropertyOp11
 70
     1
102
RTVSPropertyOp12
 70
     1
102
RTVSPropertyOp13
 70
     1
102
RTVSPropertyOp14
 70
     1
102
RTVSPropertyOp15
 70
     1
102
RTVSPropertyOp16
 70
     1
102
RTVSPropertyOp17
 70
     1
102
RTVSPropertyOp18
 70
     1
102
RTVSPropertyOp19
 70
     1
102
RTVSPropertyOp20
 70
     1
102
RTVSPropertyOp21
 70
     1
102
RTVSPropertyOp22
 70
     1
102
RTVSPropertyOp23
 70
     1
102
RTVSPropertyOp24
 70
     1
102
RTVSPropertyOp25
 70
     1
102
RTVSPropertyOp26
 70
     1
102
RTVSPropertyOp27
 70
     1
102
RTVSPropertyOp28
 70
     1
102
RTVSPropertyOp29
 70
     1
102
RTVSPropertyOp30
 70
     1
102
RTVSPropertyOp31
 70
     1
102
RTVSPropertyOp32
 70
     1
  0
XRECORD
  5
11B0
102
{ACAD_REACTORS
330
11AF
102
}
330
11AF
100
AcDbXrecord
280
     1
102
RTVSPropertyOp0
 70
     1
102
RTVSPropertyOp1
 70
     1
102
RTVSPropertyOp2
 70
     1
102
RTVSPropertyOp3
 70
     1
102
RTVSPropertyOp4
 70
     1
102
RTVSPropertyOp5
 70
     1
102
RTVSPropertyOp6
 70
     1
102
RTVSPropertyOp7
 70
     1
102
RTVSPropertyOp8
 70
     1
102
RTVSPropertyOp9
 70
     1
102
RTVSPropertyOp10
 70
     1
102
RTVSPropertyOp11
 70
     1
102
RTVSPropertyOp12
 70
     1
102
RTVSPropertyOp13
 70
     1
102
RTVSPropertyOp14
 70
     1
102
RTVSPropertyOp15
 70
     1
102
RTVSPropertyOp16
 70
     1
102
RTVSPropertyOp17
 70
     1
102
RTVSPropertyOp18
 70
     1
102
RTVSPropertyOp19
 70
     1
102
RTVSPropertyOp20
 70
     1
102
RTVSPropertyOp21
 70
     1
102
RTVSPropertyOp22
 70
     1
102
RTVSPropertyOp23
 70
     1
102
RTVSPropertyOp24
 70
     1
102
RTVSPropertyOp25
 70
     1
102
RTVSPropertyOp26
 70
     1
102
RTVSPropertyOp27
 70
     1
102
RTVSPropertyOp28
 70
     1
102
RTVSPropertyOp29
 70
     1
102
RTVSPropertyOp30
 70
     1
102
RTVSPropertyOp31
 70
     1
102
RTVSPropertyOp32
 70
     1
  0
XRECORD
  5
11BD
102
{ACAD_REACTORS
330
11BC
102
}
330
11BC
100
AcDbXrecord
280
     1
102
RTVSPropertyOp0
 70
     1
102
RTVSPropertyOp1
 70
     1
102
RTVSPropertyOp2
 70
     1
102
RTVSPropertyOp3
 70
     1
102
RTVSPropertyOp4
 70
     1
102
RTVSPropertyOp5
 70
     1
102
RTVSPropertyOp6
 70
     1
102
RTVSPropertyOp7
 70
     1
102
RTVSPropertyOp8
 70
     1
102
RTVSPropertyOp9
 70
     1
102
RTVSPropertyOp10
 70
     1
102
RTVSPropertyOp11
 70
     1
102
RTVSPropertyOp12
 70
     1
102
RTVSPropertyOp13
 70
     1
102
RTVSPropertyOp14
 70
     1
102
RTVSPropertyOp15
 70
     1
102
RTVSPropertyOp16
 70
     1
102
RTVSPropertyOp17
 70
     1
102
RTVSPropertyOp18
 70
     1
102
RTVSPropertyOp19
 70
     1
102
RTVSPropertyOp20
 70
     1
102
RTVSPropertyOp21
 70
     1
102
RTVSPropertyOp22
 70
     1
102
RTVSPropertyOp23
 70
     1
102
RTVSPropertyOp24
 70
     1
102
RTVSPropertyOp25
 70
     1
102
RTVSPropertyOp26
 70
     1
102
RTVSPropertyOp27
 70
     1
102
RTVSPropertyOp28
 70
     1
102
RTVSPropertyOp29
 70
     1
102
RTVSPropertyOp30
 70
     1
102
RTVSPropertyOp31
 70
     1
102
RTVSPropertyOp32
 70
     1
  0
XRECORD
  5
11C5
102
{ACAD_REACTORS
330
11C4
102
}
330
11C4
100
AcDbXrecord
280
     1
102
RTVSPropertyOp0
 70
     1
102
RTVSPropertyOp1
 70
     1
102
RTVSPropertyOp2
 70
     1
102
RTVSPropertyOp3
 70
     1
102
RTVSPropertyOp4
 70
     1
102
RTVSPropertyOp5
 70
     1
102
RTVSPropertyOp6
 70
     1
102
RTVSPropertyOp7
 70
     1
102
RTVSPropertyOp8
 70
     1
102
RTVSPropertyOp9
 70
     1
102
RTVSPropertyOp10
 70
     1
102
RTVSPropertyOp11
 70
     1
102
RTVSPropertyOp12
 70
     1
102
RTVSPropertyOp13
 70
     1
102
RTVSPropertyOp14
 70
     1
102
RTVSPropertyOp15
 70
     1
102
RTVSPropertyOp16
 70
     1
102
RTVSPropertyOp17
 70
     1
102
RTVSPropertyOp18
 70
     1
102
RTVSPropertyOp19
 70
     1
102
RTVSPropertyOp20
 70
     1
102
RTVSPropertyOp21
 70
     1
102
RTVSPropertyOp22
 70
     1
102
RTVSPropertyOp23
 70
     1
102
RTVSPropertyOp24
 70
     1
102
RTVSPropertyOp25
 70
     1
102
RTVSPropertyOp26
 70
     1
102
RTVSPropertyOp27
 70
     1
102
RTVSPropertyOp28
 70
     1
102
RTVSPropertyOp29
 70
     1
102
RTVSPropertyOp30
 70
     1
102
RTVSPropertyOp31
 70
     1
102
RTVSPropertyOp32
 70
     1
  0
ENDSEC
  0
EOF
