  0
SECTION
  2
HEADER
  9
$ACADVER
  1
AC1015
  9
$ACADMAINTVER
 70
    20
  9
$DWGCODEPAGE
  3
ANSI_932
  9
$INSBASE
 10
0.0
 20
0.0
 30
0.0
  9
$EXTMIN
 10
1120.39283
 20
530.5028764398094
 30
0.0
  9
$EXTMAX
 10
1407.311393295853
 20
817.1081557299997
 30
0.0
  9
$LIMMIN
 10
1120.391822
 20
535.9850230000001
  9
$LIMMAX
 10
1312.393822
 20
817.109154
  9
$ORTHOMODE
 70
     1
  9
$REGENMODE
 70
     1
  9
$FILLMODE
 70
     1
  9
$QTEXTMODE
 70
     0
  9
$MIRRTEXT
 70
     0
  9
$LTSCALE
 40
4.685369
  9
$ATTMODE
 70
     1
  9
$TEXTSIZE
 40
3.2
  9
$TRACEWID
 40
0.05
  9
$TEXTSTYLE
  7
高3.2
  9
$CLAYER
  8
0
  9
$CELTYPE
  6
CONTINUOUS
  9
$CECOLOR
 62
   256
  9
$CELTSCALE
 40
1.0
  9
$DISPSILH
 70
     0
  9
$DIMSCALE
 40
1.0
  9
$DIMASZ
 40
2.5
  9
$DIMEXO
 40
0.25
  9
$DIMDLI
 40
0.2
  9
$DIMRND
 40
0.0
  9
$DIMDLE
 40
0.0
  9
$DIMEXE
 40
1.25
  9
$DIMTP
 40
0.0
  9
$DIMTM
 40
0.0
  9
$DIMTXT
 40
3.0
  9
$DIMCEN
 40
0.0
  9
$DIMTSZ
 40
0.0
  9
$DIMTOL
 70
     0
  9
$DIMLIM
 70
     0
  9
$DIMTIH
 70
     0
  9
$DIMTOH
 70
     0
  9
$DIMSE1
 70
     0
  9
$DIMSE2
 70
     0
  9
$DIMTAD
 70
     3
  9
$DIMZIN
 70
     8
  9
$DIMBLK
  1
Open30
  9
$DIMASO
 70
     1
  9
$DIMSHO
 70
     1
  9
$DIMPOST
  1

  9
$DIMAPOST
  1

  9
$DIMALT
 70
     0
  9
$DIMALTD
 70
     3
  9
$DIMALTF
 40
0.03937007874016
  9
$DIMLFAC
 40
2.0
  9
$DIMTOFL
 70
     1
  9
$DIMTVP
 40
0.0
  9
$DIMTIX
 70
     0
  9
$DIMSOXD
 70
     0
  9
$DIMSAH
 70
     0
  9
$DIMBLK1
  1

  9
$DIMBLK2
  1

  9
$DIMSTYLE
  2
1／2
  9
$DIMCLRD
 70
     0
  9
$DIMCLRE
 70
     0
  9
$DIMCLRT
 70
     4
  9
$DIMTFAC
 40
1.0
  9
$DIMGAP
 40
0.625
  9
$DIMJUST
 70
     0
  9
$DIMSD1
 70
     0
  9
$DIMSD2
 70
     0
  9
$DIMTOLJ
 70
     0
  9
$DIMTZIN
 70
     8
  9
$DIMALTZ
 70
     0
  9
$DIMALTTZ
 70
     0
  9
$DIMUPT
 70
     1
  9
$DIMDEC
 70
     2
  9
$DIMTDEC
 70
     2
  9
$DIMALTU
 70
     2
  9
$DIMALTTD
 70
     3
  9
$DIMTXSTY
  7
STANDARD
  9
$DIMAUNIT
 70
     0
  9
$DIMADEC
 70
     1
  9
$DIMALTRND
 40
0.0
  9
$DIMAZIN
 70
     2
  9
$DIMDSEP
 70
    46
  9
$DIMATFIT
 70
     0
  9
$DIMFRAC
 70
     0
  9
$DIMLDRBLK
  1
Open30
  9
$DIMLUNIT
 70
     2
  9
$DIMLWD
 70
    -2
  9
$DIMLWE
 70
    -2
  9
$DIMTMOVE
 70
     0
  9
$LUNITS
 70
     2
  9
$LUPREC
 70
     4
  9
$SKETCHINC
 40
0.1
  9
$FILLETRAD
 40
0.0
  9
$AUNITS
 70
     0
  9
$AUPREC
 70
     0
  9
$MENU
  1
.
  9
$ELEVATION
 40
0.0
  9
$PELEVATION
 40
0.0
  9
$THICKNESS
 40
0.0
  9
$LIMCHECK
 70
     0
  9
$CHAMFERA
 40
0.0
  9
$CHAMFERB
 40
0.0
  9
$CHAMFERC
 40
0.0
  9
$CHAMFERD
 40
0.0
  9
$SKPOLY
 70
     0
  9
$TDCREATE
 40
2456071.799600799
  9
$TDUCREATE
 40
2456071.424600799
  9
$TDUPDATE
 40
2457351.761433982
  9
$TDUUPDATE
 40
2457351.386433982
  9
$TDINDWG
 40
0.0320855787
  9
$TDUSRTIMER
 40
0.0320853472
  9
$USRTIMER
 70
     1
  9
$ANGBASE
 50
0.0
  9
$ANGDIR
 70
     0
  9
$PDMODE
 70
     0
  9
$PDSIZE
 40
0.0
  9
$PLINEWID
 40
0.0
  9
$SPLFRAME
 70
     0
  9
$SPLINETYPE
 70
     6
  9
$SPLINESEGS
 70
     8
  9
$HANDSEED
  5
A18
  9
$SURFTAB1
 70
     6
  9
$SURFTAB2
 70
     6
  9
$SURFTYPE
 70
     6
  9
$SURFU
 70
     6
  9
$SURFV
 70
     6
  9
$UCSBASE
  2

  9
$UCSNAME
  2

  9
$UCSORG
 10
0.0
 20
0.0
 30
0.0
  9
$UCSXDIR
 10
1.0
 20
0.0
 30
0.0
  9
$UCSYDIR
 10
0.0
 20
1.0
 30
0.0
  9
$UCSORTHOREF
  2

  9
$UCSORTHOVIEW
 70
     0
  9
$UCSORGTOP
 10
0.0
 20
0.0
 30
0.0
  9
$UCSORGBOTTOM
 10
0.0
 20
0.0
 30
0.0
  9
$UCSORGLEFT
 10
0.0
 20
0.0
 30
0.0
  9
$UCSORGRIGHT
 10
0.0
 20
0.0
 30
0.0
  9
$UCSORGFRONT
 10
0.0
 20
0.0
 30
0.0
  9
$UCSORGBACK
 10
0.0
 20
0.0
 30
0.0
  9
$PUCSBASE
  2

  9
$PUCSNAME
  2

  9
$PUCSORG
 10
0.0
 20
0.0
 30
0.0
  9
$PUCSXDIR
 10
1.0
 20
0.0
 30
0.0
  9
$PUCSYDIR
 10
0.0
 20
1.0
 30
0.0
  9
$PUCSORTHOREF
  2

  9
$PUCSORTHOVIEW
 70
     0
  9
$PUCSORGTOP
 10
0.0
 20
0.0
 30
0.0
  9
$PUCSORGBOTTOM
 10
0.0
 20
0.0
 30
0.0
  9
$PUCSORGLEFT
 10
0.0
 20
0.0
 30
0.0
  9
$PUCSORGRIGHT
 10
0.0
 20
0.0
 30
0.0
  9
$PUCSORGFRONT
 10
0.0
 20
0.0
 30
0.0
  9
$PUCSORGBACK
 10
0.0
 20
0.0
 30
0.0
  9
$USERI1
 70
     0
  9
$USERI2
 70
     0
  9
$USERI3
 70
     0
  9
$USERI4
 70
     0
  9
$USERI5
 70
     0
  9
$USERR1
 40
0.0
  9
$USERR2
 40
0.0
  9
$USERR3
 40
0.0
  9
$USERR4
 40
0.0
  9
$USERR5
 40
0.0
  9
$WORLDVIEW
 70
     1
  9
$SHADEDGE
 70
     3
  9
$SHADEDIF
 70
    70
  9
$TILEMODE
 70
     1
  9
$MAXACTVP
 70
    64
  9
$PINSBASE
 10
0.0
 20
0.0
 30
0.0
  9
$PLIMCHECK
 70
     0
  9
$PEXTMIN
 10
1.000000000000000E+20
 20
1.000000000000000E+20
 30
1.000000000000000E+20
  9
$PEXTMAX
 10
-1.000000000000000E+20
 20
-1.000000000000000E+20
 30
-1.000000000000000E+20
  9
$PLIMMIN
 10
0.0
 20
0.0
  9
$PLIMMAX
 10
12.0
 20
9.0
  9
$UNITMODE
 70
     0
  9
$VISRETAIN
 70
     1
  9
$PLINEGEN
 70
     0
  9
$PSLTSCALE
 70
     1
  9
$TREEDEPTH
 70
  3020
  9
$CMLSTYLE
  2
Standard
  9
$CMLJUST
 70
     0
  9
$CMLSCALE
 40
1.0
  9
$PROXYGRAPHICS
 70
     1
  9
$MEASUREMENT
 70
     0
  9
$CELWEIGHT
370
    -1
  9
$ENDCAPS
280
     0
  9
$JOINSTYLE
280
     0
  9
$LWDISPLAY
290
     0
  9
$INSUNITS
 70
     0
  9
$HYPERLINKBASE
  1

  9
$STYLESHEET
  1

  9
$XEDIT
290
     1
  9
$CEPSNTYPE
380
     0
  9
$PSTYLEMODE
290
     1
  9
$FINGERPRINTGUID
  2
{10F22E38-A49B-4F77-BF4A-E0A80E84BE9A}
  9
$VERSIONGUID
  2
{6FFE07F7-6DF7-4837-B44A-F6E6DCC38EDC}
  9
$EXTNAMES
290
     1
  9
$PSVPSCALE
 40
0.0
  9
$OLESTARTUP
290
     0
  0
ENDSEC
  0
SECTION
  2
CLASSES
  0
CLASS
  1
ACDBDICTIONARYWDFLT
  2
AcDbDictionaryWithDefault
  3
ObjectDBX Classes
 90
        0
280
     0
281
     0
  0
CLASS
  1
MATERIAL
  2
AcDbMaterial
  3
ObjectDBX Classes
 90
     1153
280
     0
281
     0
  0
CLASS
  1
VISUALSTYLE
  2
AcDbVisualStyle
  3
ObjectDBX Classes
 90
     4095
280
     0
281
     0
  0
CLASS
  1
SCALE
  2
AcDbScale
  3
ObjectDBX Classes
 90
     1153
280
     0
281
     0
  0
CLASS
  1
TABLESTYLE
  2
AcDbTableStyle
  3
ObjectDBX Classes
 90
     4095
280
     0
281
     0
  0
CLASS
  1
MLEADERSTYLE
  2
AcDbMLeaderStyle
  3
ACDB_MLEADERSTYLE_CLASS
 90
     4095
280
     0
281
     0
  0
CLASS
  1
SORTENTSTABLE
  2
AcDbSortentsTable
  3
ObjectDBX Classes
 90
        0
280
     0
281
     0
  0
CLASS
  1
DICTIONARYVAR
  2
AcDbDictionaryVar
  3
ObjectDBX Classes
 90
        0
280
     0
281
     0
  0
CLASS
  1
CELLSTYLEMAP
  2
AcDbCellStyleMap
  3
ObjectDBX Classes
 90
     1152
280
     0
281
     0
  0
CLASS
  1
ACDBPLACEHOLDER
  2
AcDbPlaceHolder
  3
ObjectDBX Classes
 90
        0
280
     0
281
     0
  0
CLASS
  1
LAYOUT
  2
AcDbLayout
  3
ObjectDBX Classes
 90
        0
280
     0
281
     0
  0
CLASS
  1
AEC_REFEDIT_STATUS_TRACKER
  2
AecDbRefEditStatusTracker
  3
AecArchBase60|Product Desc: Autodesk Architectural Desktop 2007 |Company: Autodesk,Inc. |WEB Address: www.autodesk.com
 90
      129
280
     0
281
     0
  0
CLASS
  1
NPOCOLLECTION
  2
AcDbImpNonPersistentObjectsCollection
  3
ObjectDBX Classes
 90
     1153
280
     0
281
     0
  0
ENDSEC
  0
SECTION
  2
TABLES
  0
TABLE
  2
VPORT
  5
8
330
0
100
AcDbSymbolTable
 70
     1
  0
VPORT
  5
8B
330
8
100
AcDbSymbolTableRecord
100
AcDbViewportTableRecord
  2
*Active
 70
     0
 10
0.0
 20
0.0
 11
1.0
 21
1.0
 12
1282.970034606058
 22
627.421005472042
 13
0.0
 23
0.0
 14
1.0
 24
1.0
 15
0.0
 25
0.0
 16
0.0
 26
0.0
 36
1.0
 17
0.0
 27
0.0
 37
0.0
 40
565.6673724481102
 41
1.932998324958123
 42
50.0
 43
0.0
 44
0.0
 50
0.0
 51
0.0
 71
     0
 72
   100
 73
     1
 74
     1
 75
     0
 76
     0
 77
     0
 78
     0
281
     0
 65
     1
110
0.0
120
0.0
130
0.0
111
1.0
121
0.0
131
0.0
112
0.0
122
1.0
132
0.0
 79
     0
146
0.0
  0
ENDTAB
  0
TABLE
  2
LTYPE
  5
5
330
0
100
AcDbSymbolTable
 70
     2
  0
LTYPE
  5
5A
330
5
100
AcDbSymbolTableRecord
100
AcDbLinetypeTableRecord
  2
ByBlock
 70
     0
  3

 72
    65
 73
     0
 40
0.0
  0
LTYPE
  5
5B
330
5
100
AcDbSymbolTableRecord
100
AcDbLinetypeTableRecord
  2
ByLayer
 70
     0
  3

 72
    65
 73
     0
 40
0.0
  0
LTYPE
  5
5C
330
5
100
AcDbSymbolTableRecord
100
AcDbLinetypeTableRecord
  2
CONTINUOUS
 70
     0
  3
Solid-line
 72
    65
 73
     0
 40
0.0
  0
ENDTAB
  0
TABLE
  2
LAYER
  5
2
102
{ACAD_XDICTIONARY
360
2E4
102
}
330
0
100
AcDbSymbolTable
 70
     2
  0
LAYER
  5
54
102
{ACAD_XDICTIONARY
360
45A
102
}
330
2
100
AcDbSymbolTableRecord
100
AcDbLayerTableRecord
  2
0
 70
     0
 62
     7
  6
CONTINUOUS
370
    -3
390
F
  0
LAYER
  5
2CF
330
2
100
AcDbSymbolTableRecord
100
AcDbLayerTableRecord
  2
Defpoints
 70
     0
 62
     7
  6
CONTINUOUS
290
     0
370
    -3
390
F
  0
ENDTAB
  0
TABLE
  2
STYLE
  5
3
330
0
100
AcDbSymbolTable
 70
     6
  0
STYLE
  5
55
330
3
100
AcDbSymbolTableRecord
100
AcDbTextStyleTableRecord
  2
STANDARD
 70
     0
 40
0.0
 41
1.0
 50
0.0
 71
     0
 42
0.2
  3
TXT
  4
BIGFONT
  0
STYLE
  5
2D0
330
3
100
AcDbSymbolTableRecord
100
AcDbTextStyleTableRecord
  2
高3.2
 70
     0
 40
3.2
 41
1.0
 50
0.0
 71
     0
 42
3.2
  3
txt.shx
  4
bigfont.shx
  0
STYLE
  5
2D1
330
3
100
AcDbSymbolTableRecord
100
AcDbTextStyleTableRecord
  2
高6.3
 70
     0
 40
6.299999999999998
 41
1.0
 50
0.0
 71
     0
 42
6.299999999999998
  3
txt.shx
  4
bigfont.shx
  0
STYLE
  5
2D2
330
3
100
AcDbSymbolTableRecord
100
AcDbTextStyleTableRecord
  2
高2.5
 70
     0
 40
2.5
 41
1.0
 50
0.0
 71
     0
 42
0.2
  3
txt.shx
  4
bigfont.shx
  0
STYLE
  5
2D3
330
3
100
AcDbSymbolTableRecord
100
AcDbTextStyleTableRecord
  2
高4.5
 70
     0
 40
4.5
 41
1.0
 50
0.0
 71
     0
 42
6.299999999999998
  3
txt.shx
  4
bigfont.shx
  0
STYLE
  5
2D4
330
3
100
AcDbSymbolTableRecord
100
AcDbTextStyleTableRecord
  2
高2
 70
     0
 40
2.0
 41
1.0
 50
0.0
 71
     0
 42
2.0
  3
txt.shx
  4
bigfont.shx
  0
ENDTAB
  0
TABLE
  2
VIEW
  5
6
330
0
100
AcDbSymbolTable
 70
     0
  0
ENDTAB
  0
TABLE
  2
UCS
  5
7
330
0
100
AcDbSymbolTable
 70
     0
  0
ENDTAB
  0
TABLE
  2
APPID
  5
9
330
0
100
AcDbSymbolTable
 70
    10
  0
APPID
  5
56
330
9
100
AcDbSymbolTableRecord
100
AcDbRegAppTableRecord
  2
ACAD
 70
     0
  0
APPID
  5
5D
330
9
100
AcDbSymbolTableRecord
100
AcDbRegAppTableRecord
  2
AcadAnnotative
 70
     0
  0
APPID
  5
2DF
330
9
100
AcDbSymbolTableRecord
100
AcDbRegAppTableRecord
  2
ACAD_DSTYLE_DIMJOGGED_JOGANGLE_SYMBOL
 70
     0
  0
APPID
  5
2E0
330
9
100
AcDbSymbolTableRecord
100
AcDbRegAppTableRecord
  2
ACAD_DSTYLE_DIMJAG
 70
     0
  0
APPID
  5
2E1
330
9
100
AcDbSymbolTableRecord
100
AcDbRegAppTableRecord
  2
ACAD_DSTYLE_DIMBREAK
 70
     0
  0
APPID
  5
2E2
330
9
100
AcDbSymbolTableRecord
100
AcDbRegAppTableRecord
  2
ACAD_DSTYLE_DIMTALN
 70
     0
  0
APPID
  5
449
330
9
100
AcDbSymbolTableRecord
100
AcDbRegAppTableRecord
  2
ACAD_EXEMPT_FROM_CAD_STANDARDS
 70
     0
  0
APPID
  5
4A2
330
9
100
AcDbSymbolTableRecord
100
AcDbRegAppTableRecord
  2
ACAD_MLEADERVER
 70
     0
  0
APPID
  5
4A7
330
9
100
AcDbSymbolTableRecord
100
AcDbRegAppTableRecord
  2
ACAD_DSTYLE_DIMARC_LENGTH_SYMBOL
 70
     0
  0
APPID
  5
4A8
330
9
100
AcDbSymbolTableRecord
100
AcDbRegAppTableRecord
  2
ACAD_DSTYLE_DIMEXT_LENGTH
 70
     0
  0
ENDTAB
  0
TABLE
  2
DIMSTYLE
  5
A
330
0
100
AcDbSymbolTable
 70
    11
100
AcDbDimStyleTable
 71
     2
340
2D9
340
57
  0
DIMSTYLE
105
57
330
A
100
AcDbSymbolTableRecord
100
AcDbDimStyleTableRecord
  2
Standard
 70
     0
340
55
  0
DIMSTYLE
105
2D9
330
A
100
AcDbSymbolTableRecord
100
AcDbDimStyleTableRecord
  2
1／2
 70
     0
 41
2.5
 42
0.25
 43
0.2
 44
1.25
 73
     0
 74
     0
 77
     3
 78
     8
 79
     2
140
3.0
141
0.0
143
0.03937007874016
144
2.0
147
0.625
171
     3
172
     1
178
     4
179
     1
271
     2
272
     2
274
     3
283
     0
284
     8
288
     1
289
     0
340
55
341
23F
342
23F
1001
ACAD_DSTYLE_DIMARC_LENGTH_SYMBOL
1070
   379
1070
     2
1001
ACAD_DSTYLE_DIMEXT_LENGTH
1070
   378
1040
1.25
1001
ACAD_DSTYLE_DIMJOGGED_JOGANGLE_SYMBOL
1070
   384
1040
1.570796326794896
  0
DIMSTYLE
105
55E
330
A
100
AcDbSymbolTableRecord
100
AcDbDimStyleTableRecord
  2
1：1
 70
     0
 41
2.5
 42
0.25
 43
0.2
 44
1.25
 73
     0
 74
     0
 77
     3
 78
     8
 79
     2
140
3.0
141
0.0
143
0.03937007874016
147
0.625
171
     3
172
     1
178
     4
179
     1
271
     2
272
     2
274
     3
283
     0
284
     8
288
     1
289
     0
340
55
341
23F
342
23F
1001
ACAD_DSTYLE_DIMARC_LENGTH_SYMBOL
1070
   379
1070
     2
1001
ACAD_DSTYLE_DIMEXT_LENGTH
1070
   378
1040
1.25
1001
ACAD_DSTYLE_DIMJOGGED_JOGANGLE_SYMBOL
1070
   384
1040
1.570796326794896
  0
DIMSTYLE
105
55F
330
A
100
AcDbSymbolTableRecord
100
AcDbDimStyleTableRecord
  2
2：1
 70
     0
 41
2.5
 42
0.25
 43
0.2
 44
1.25
 73
     0
 74
     0
 77
     3
 78
     8
 79
     2
140
3.0
141
0.0
143
0.03937007874016
144
0.5
147
0.625
171
     3
172
     1
178
     4
179
     1
271
     2
272
     2
274
     3
283
     0
284
     8
288
     1
289
     0
340
55
341
23F
342
23F
1001
ACAD_DSTYLE_DIMARC_LENGTH_SYMBOL
1070
   379
1070
     2
1001
ACAD_DSTYLE_DIMEXT_LENGTH
1070
   378
1040
1.25
1001
ACAD_DSTYLE_DIMJOGGED_JOGANGLE_SYMBOL
1070
   384
1040
1.570796326794896
  0
DIMSTYLE
105
560
330
A
100
AcDbSymbolTableRecord
100
AcDbDimStyleTableRecord
  2
5：1
 70
     0
 41
2.5
 42
0.25
 43
0.2
 44
1.25
 73
     0
 74
     0
 77
     3
 78
     8
 79
     2
140
3.0
141
0.0
143
0.03937007874016
144
0.2
147
0.625
171
     3
172
     1
178
     4
179
     1
271
     2
272
     2
274
     3
283
     0
284
     8
288
     1
289
     0
340
55
341
23F
342
23F
1001
ACAD_DSTYLE_DIMARC_LENGTH_SYMBOL
1070
   379
1070
     2
1001
ACAD_DSTYLE_DIMEXT_LENGTH
1070
   378
1040
1.25
1001
ACAD_DSTYLE_DIMJOGGED_JOGANGLE_SYMBOL
1070
   384
1040
1.570796326794896
  0
DIMSTYLE
105
561
330
A
100
AcDbSymbolTableRecord
100
AcDbDimStyleTableRecord
  2
10：1
 70
     0
 41
2.5
 42
0.25
 43
0.2
 44
1.25
 73
     0
 74
     0
 77
     3
 78
     8
 79
     2
140
3.0
141
0.0
143
0.03937007874016
144
0.1
147
0.625
171
     3
172
     1
178
     4
179
     1
271
     2
272
     2
274
     3
283
     0
284
     8
288
     1
289
     0
340
55
341
23F
342
23F
1001
ACAD_DSTYLE_DIMARC_LENGTH_SYMBOL
1070
   379
1070
     2
1001
ACAD_DSTYLE_DIMEXT_LENGTH
1070
   378
1040
1.25
1001
ACAD_DSTYLE_DIMJOGGED_JOGANGLE_SYMBOL
1070
   384
1040
1.570796326794896
  0
DIMSTYLE
105
562
330
A
100
AcDbSymbolTableRecord
100
AcDbDimStyleTableRecord
  2
1／5
 70
     0
 41
2.5
 42
0.25
 43
0.2
 44
1.25
 73
     0
 74
     0
 77
     3
 78
     8
 79
     2
140
3.0
141
0.0
143
0.03937007874016
144
5.0
147
0.625
171
     3
172
     1
178
     4
179
     1
271
     2
272
     2
274
     3
283
     0
284
     8
288
     1
289
     0
340
55
341
23F
342
23F
1001
ACAD_DSTYLE_DIMARC_LENGTH_SYMBOL
1070
   379
1070
     2
1001
ACAD_DSTYLE_DIMEXT_LENGTH
1070
   378
1040
1.25
1001
ACAD_DSTYLE_DIMJOGGED_JOGANGLE_SYMBOL
1070
   384
1040
1.570796326794896
  0
DIMSTYLE
105
563
330
A
100
AcDbSymbolTableRecord
100
AcDbDimStyleTableRecord
  2
1／10
 70
     0
 41
2.5
 42
0.25
 43
0.2
 44
1.25
 73
     0
 74
     0
 77
     3
 78
     8
 79
     2
140
3.0
141
0.0
143
0.03937007874016
144
10.0
147
0.625
171
     3
172
     1
178
     4
179
     1
271
     2
272
     2
274
     3
283
     0
284
     8
288
     1
289
     0
340
55
341
23F
342
23F
1001
ACAD_DSTYLE_DIMARC_LENGTH_SYMBOL
1070
   379
1070
     2
1001
ACAD_DSTYLE_DIMEXT_LENGTH
1070
   378
1040
1.25
1001
ACAD_DSTYLE_DIMJOGGED_JOGANGLE_SYMBOL
1070
   384
1040
1.570796326794896
  0
DIMSTYLE
105
564
330
A
100
AcDbSymbolTableRecord
100
AcDbDimStyleTableRecord
  2
1／4
 70
     0
 41
2.5
 42
0.25
 43
0.2
 44
1.25
 73
     0
 74
     0
 77
     3
 78
     8
 79
     2
140
3.0
141
0.0
143
0.03937007874016
144
4.0
147
0.625
171
     3
172
     1
178
     4
179
     1
271
     2
272
     2
274
     3
283
     0
284
     8
288
     1
289
     0
340
55
341
23F
342
23F
1001
ACAD_DSTYLE_DIMARC_LENGTH_SYMBOL
1070
   379
1070
     2
1001
ACAD_DSTYLE_DIMEXT_LENGTH
1070
   378
1040
1.25
1001
ACAD_DSTYLE_DIMJOGGED_JOGANGLE_SYMBOL
1070
   384
1040
1.570796326794896
  0
DIMSTYLE
105
565
330
A
100
AcDbSymbolTableRecord
100
AcDbDimStyleTableRecord
  2
1／3
 70
     0
 41
2.5
 42
0.25
 43
0.2
 44
1.25
 73
     0
 74
     0
 77
     3
 78
     8
 79
     2
140
3.0
141
0.0
143
0.03937007874016
144
3.0
147
0.625
171
     3
172
     1
178
     4
179
     1
271
     2
272
     2
274
     3
283
     0
284
     8
288
     1
289
     0
340
55
341
23F
342
23F
1001
ACAD_DSTYLE_DIMARC_LENGTH_SYMBOL
1070
   379
1070
     2
1001
ACAD_DSTYLE_DIMEXT_LENGTH
1070
   378
1040
1.25
1001
ACAD_DSTYLE_DIMJOGGED_JOGANGLE_SYMBOL
1070
   384
1040
1.570796326794896
  0
DIMSTYLE
105
566
330
A
100
AcDbSymbolTableRecord
100
AcDbDimStyleTableRecord
  2
FREE
 70
     0
 41
2.5
 42
0.25
 43
0.2
 44
1.25
 73
     0
 74
     0
 77
     3
 78
     8
 79
     2
140
3.0
141
0.0
143
0.03937007874016
147
0.625
171
     3
172
     1
178
     4
179
     1
271
     2
272
     2
274
     3
283
     0
284
     8
288
     1
289
     0
340
55
341
23F
342
23F
1001
ACAD_DSTYLE_DIMBREAK
1070
   391
1040
3.75
1001
ACAD_DSTYLE_DIMJAG
1070
   388
1040
1.5
1001
ACAD_DSTYLE_DIMTALN
1070
   392
1070
     0
1001
ACAD_DSTYLE_DIMARC_LENGTH_SYMBOL
1070
   379
1070
     2
1001
ACAD_DSTYLE_DIMEXT_LENGTH
1070
   378
1040
1.25
1001
ACAD_DSTYLE_DIMJOGGED_JOGANGLE_SYMBOL
1070
   384
1040
1.570796326794896
  0
ENDTAB
  0
TABLE
  2
BLOCK_RECORD
  5
1
330
0
100
AcDbSymbolTable
 70
    15
  0
BLOCK_RECORD
  5
6B
102
{ACAD_XDICTIONARY
360
9B1
102
}
330
1
100
AcDbSymbolTableRecord
100
AcDbBlockTableRecord
  2
*Model_Space
340
6E
  0
BLOCK_RECORD
  5
67
330
1
100
AcDbSymbolTableRecord
100
AcDbBlockTableRecord
  2
*Paper_Space
340
6A
  0
BLOCK_RECORD
  5
23F
330
1
100
AcDbSymbolTableRecord
100
AcDbBlockTableRecord
  2
_Open30
340
0
102
{BLKREFS
331
76C
331
76D
331
777
331
778
331
782
331
783
331
78D
331
78E
331
798
331
799
331
7A3
331
7A4
331
7AE
331
7AF
331
7B9
331
7BA
331
7C4
331
7C5
331
7CD
331
7CE
331
893
331
894
331
89C
331
89D
331
8AE
331
8AF
102
}
  0
BLOCK_RECORD
  5
3F6
330
1
100
AcDbSymbolTableRecord
100
AcDbBlockTableRecord
  2
*D1
340
0
  0
BLOCK_RECORD
  5
402
330
1
100
AcDbSymbolTableRecord
100
AcDbBlockTableRecord
  2
*D2
340
0
  0
BLOCK_RECORD
  5
42A
330
1
100
AcDbSymbolTableRecord
100
AcDbBlockTableRecord
  2
*D3
340
0
  0
BLOCK_RECORD
  5
6DD
330
1
100
AcDbSymbolTableRecord
100
AcDbBlockTableRecord
  2
*D4
340
0
  0
BLOCK_RECORD
  5
6EB
330
1
100
AcDbSymbolTableRecord
100
AcDbBlockTableRecord
  2
*D5
340
0
  0
BLOCK_RECORD
  5
6F9
330
1
100
AcDbSymbolTableRecord
100
AcDbBlockTableRecord
  2
*D6
340
0
  0
BLOCK_RECORD
  5
707
330
1
100
AcDbSymbolTableRecord
100
AcDbBlockTableRecord
  2
*D7
340
0
  0
BLOCK_RECORD
  5
715
330
1
100
AcDbSymbolTableRecord
100
AcDbBlockTableRecord
  2
*D8
340
0
  0
BLOCK_RECORD
  5
723
330
1
100
AcDbSymbolTableRecord
100
AcDbBlockTableRecord
  2
*D9
340
0
  0
BLOCK_RECORD
  5
731
330
1
100
AcDbSymbolTableRecord
100
AcDbBlockTableRecord
  2
*D10
340
0
  0
BLOCK_RECORD
  5
73F
330
1
100
AcDbSymbolTableRecord
100
AcDbBlockTableRecord
  2
*D11
340
0
  0
BLOCK_RECORD
  5
74D
330
1
100
AcDbSymbolTableRecord
100
AcDbBlockTableRecord
  2
*D12
340
0
  0
BLOCK_RECORD
  5
75B
330
1
100
AcDbSymbolTableRecord
100
AcDbBlockTableRecord
  2
*D13
340
0
  0
ENDTAB
  0
ENDSEC
  0
SECTION
  2
BLOCKS
  0
BLOCK
  5
6C
330
6B
100
AcDbEntity
  8
0
100
AcDbBlockBegin
  2
*Model_Space
 70
     0
 10
0.0
 20
0.0
 30
0.0
  3
*Model_Space
  1

  0
ENDBLK
  5
6D
330
6B
100
AcDbEntity
  8
0
100
AcDbBlockEnd
  0
BLOCK
  5
68
330
67
100
AcDbEntity
 67
     1
  8
0
100
AcDbBlockBegin
  2
*Paper_Space
 70
     0
 10
0.0
 20
0.0
 30
0.0
  3
*Paper_Space
  1

  0
ENDBLK
  5
69
330
67
100
AcDbEntity
 67
     1
  8
0
100
AcDbBlockEnd
  0
BLOCK
  5
240
330
23F
100
AcDbEntity
  8
0
100
AcDbBlockBegin
  2
_Open30
 70
     0
 10
0.0
 20
0.0
 30
0.0
  3
_Open30
  1

  0
LINE
  5
241
330
23F
100
AcDbEntity
  8
0
  6
ByBlock
 62
     0
370
    -2
100
AcDbLine
 10
-1.0
 20
0.267949
 30
0.0
 11
0.0
 21
0.0
 31
0.0
  0
LINE
  5
242
330
23F
100
AcDbEntity
  8
0
  6
ByBlock
 62
     0
370
    -2
100
AcDbLine
 10
0.0
 20
0.0
 30
0.0
 11
-1.0
 21
-0.267949
 31
0.0
  0
LINE
  5
243
330
23F
100
AcDbEntity
  8
0
  6
ByBlock
 62
     0
370
    -2
100
AcDbLine
 10
0.0
 20
0.0
 30
0.0
 11
-1.0
 21
0.0
 31
0.0
  0
ENDBLK
  5
244
330
23F
100
AcDbEntity
  8
0
100
AcDbBlockEnd
  0
BLOCK
  5
3F7
330
3F6
100
AcDbEntity
  8
0
100
AcDbBlockBegin
  2
*D1
 70
     1
 10
0.0
 20
0.0
 30
0.0
  3
*D1
  1

  0
LINE
  5
890
330
3F6
100
AcDbEntity
  8
0
 62
     0
370
    -2
100
AcDbLine
 10
1181.088427
 20
703.0718
 30
0.0
 11
1181.088427
 21
740.534447
 31
0.0
  0
LINE
  5
891
330
3F6
100
AcDbEntity
  8
0
 62
     0
370
    -2
100
AcDbLine
 10
1246.088427
 20
703.0718
 30
0.0
 11
1246.088427
 21
740.534447
 31
0.0
  0
LINE
  5
892
330
3F6
100
AcDbEntity
  8
0
 62
     0
370
    -2
100
AcDbLine
 10
1183.588427
 20
739.284447
 30
0.0
 11
1243.588427
 21
739.284447
 31
0.0
  0
INSERT
  5
893
330
3F6
100
AcDbEntity
  8
0
 62
     0
370
    -2
100
AcDbBlockReference
  2
_Open30
 10
1181.088427
 20
739.284447
 30
0.0
 41
2.5
 42
2.5
 43
2.5
 50
180.0
  0
INSERT
  5
894
330
3F6
100
AcDbEntity
  8
0
 62
     0
370
    -2
100
AcDbBlockReference
  2
_Open30
 10
1246.088427
 20
739.284447
 30
0.0
 41
2.5
 42
2.5
 43
2.5
  0
MTEXT
  5
895
330
3F6
100
AcDbEntity
  8
0
 62
     4
100
AcDbMText
 10
1213.588427
 20
741.409447
 30
0.0
 40
3.0
 41
0.0
 71
     5
 72
     1
  1
%%C130
 73
     1
 44
1.0
1001
ACAD
1000
MTEXTBEGIN
1070
    73
1070
     1
1070
    44
1040
1.0
1070
    74
1070
     0
1000
MTEXTEND
  0
POINT
  5
896
330
3F6
100
AcDbEntity
  8
Defpoints
 62
     0
100
AcDbPoint
 10
1181.088427
 20
702.8218
 30
0.0
  0
POINT
  5
897
330
3F6
100
AcDbEntity
  8
Defpoints
 62
     0
100
AcDbPoint
 10
1246.088427
 20
702.8218
 30
0.0
  0
POINT
  5
898
330
3F6
100
AcDbEntity
  8
Defpoints
 62
     0
100
AcDbPoint
 10
1246.088427
 20
739.284447
 30
0.0
  0
ENDBLK
  5
3F8
330
3F6
100
AcDbEntity
  8
0
100
AcDbBlockEnd
  0
BLOCK
  5
403
330
402
100
AcDbEntity
  8
0
100
AcDbBlockBegin
  2
*D2
 70
     1
 10
0.0
 20
0.0
 30
0.0
  3
*D2
  1

  0
LINE
  5
899
330
402
100
AcDbEntity
  8
0
 62
     0
370
    -2
100
AcDbLine
 10
1213.338427
 20
623.3218
 30
0.0
 11
1168.999436
 21
623.3218
 31
0.0
  0
LINE
  5
89A
330
402
100
AcDbEntity
  8
0
 62
     0
370
    -2
100
AcDbLine
 10
1213.338427
 20
728.8218
 30
0.0
 11
1168.999436
 21
728.8218
 31
0.0
  0
LINE
  5
89B
330
402
100
AcDbEntity
  8
0
 62
     0
370
    -2
100
AcDbLine
 10
1170.249436
 20
625.8218
 30
0.0
 11
1170.249436
 21
726.3218000000001
 31
0.0
  0
INSERT
  5
89C
330
402
100
AcDbEntity
  8
0
 62
     0
370
    -2
100
AcDbBlockReference
  2
_Open30
 10
1170.249436
 20
623.3218
 30
0.0
 41
2.5
 42
2.5
 43
2.5
 50
270.0
  0
INSERT
  5
89D
330
402
100
AcDbEntity
  8
0
 62
     0
370
    -2
100
AcDbBlockReference
  2
_Open30
 10
1170.249436
 20
728.8218
 30
0.0
 41
2.5
 42
2.5
 43
2.5
 50
90.0
  0
MTEXT
  5
89E
330
402
100
AcDbEntity
  8
0
 62
     4
100
AcDbMText
 10
1168.124435999999
 20
676.0718000000001
 30
0.0
 40
3.0
 41
0.0
 71
     5
 72
     1
  1
211
 11
0.0000000000000001
 21
1.0
 31
0.0
 73
     1
 44
1.0
1001
ACAD
1000
MTEXTBEGIN
1070
    73
1070
     1
1070
    44
1040
1.0
1070
    74
1070
     0
1000
MTEXTEND
  0
POINT
  5
89F
330
402
100
AcDbEntity
  8
Defpoints
 62
     0
100
AcDbPoint
 10
1213.588427
 20
623.3218
 30
0.0
  0
POINT
  5
8A0
330
402
100
AcDbEntity
  8
Defpoints
 62
     0
100
AcDbPoint
 10
1213.588427
 20
728.8218
 30
0.0
  0
POINT
  5
8A1
330
402
100
AcDbEntity
  8
Defpoints
 62
     0
100
AcDbPoint
 10
1170.249436
 20
728.8218
 30
0.0
  0
ENDBLK
  5
404
330
402
100
AcDbEntity
  8
0
100
AcDbBlockEnd
  0
BLOCK
  5
42B
330
42A
100
AcDbEntity
  8
0
100
AcDbBlockBegin
  2
*D3
 70
     1
 10
0.0
 20
0.0
 30
0.0
  3
*D3
  1

  0
LINE
  5
8AB
330
42A
100
AcDbEntity
  8
0
  6
Continuous
 62
     0
370
    -2
100
AcDbLine
 10
1203.846595728065
 20
628.8966571302778
 30
0.0
 11
1203.846595728065
 21
611.8211382346244
 31
0.0
  0
LINE
  5
8AC
330
42A
100
AcDbEntity
  8
0
  6
Continuous
 62
     0
370
    -2
100
AcDbLine
 10
1223.333561271935
 20
630.5675148697218
 30
0.0
 11
1223.333561271935
 21
611.8211382346244
 31
0.0
  0
LINE
  5
8AD
330
42A
100
AcDbEntity
  8
0
  6
Continuous
 62
     0
370
    -2
100
AcDbLine
 10
1206.346595728065
 20
613.0711382346244
 30
0.0
 11
1220.833561271935
 21
613.0711382346244
 31
0.0
  0
INSERT
  5
8AE
330
42A
100
AcDbEntity
  8
0
  6
Continuous
 62
     0
370
    -2
100
AcDbBlockReference
  2
_Open30
 10
1203.846595728065
 20
613.0711382346244
 30
0.0
 41
2.5
 42
2.5
 43
2.5
 50
180.0
  0
INSERT
  5
8AF
330
42A
100
AcDbEntity
  8
0
  6
Continuous
 62
     0
370
    -2
100
AcDbBlockReference
  2
_Open30
 10
1223.333561271935
 20
613.0711382346244
 30
0.0
 41
2.5
 42
2.5
 43
2.5
  0
MTEXT
  5
8B0
330
42A
100
AcDbEntity
  8
0
  6
Continuous
 62
     4
100
AcDbMText
 10
1213.5900785
 20
615.1961382346244
 30
0.0
 40
3.0
 41
0.0
 71
     5
 72
     1
  1
E39
 73
     1
 44
1.0
1001
ACAD
1000
MTEXTBEGIN
1070
    73
1070
     1
1070
    44
1040
1.0
1070
    74
1070
     0
1000
MTEXTEND
  0
POINT
  5
8B1
330
42A
100
AcDbEntity
  8
Defpoints
  6
Continuous
 62
     0
100
AcDbPoint
 10
1203.846595728065
 20
629.1466571302778
 30
0.0
  0
POINT
  5
8B2
330
42A
100
AcDbEntity
  8
Defpoints
  6
Continuous
 62
     0
100
AcDbPoint
 10
1223.333561271935
 20
630.8175148697217
 30
0.0
  0
POINT
  5
8B3
330
42A
100
AcDbEntity
  8
Defpoints
  6
Continuous
 62
     0
100
AcDbPoint
 10
1223.333561271935
 20
613.0711382346244
 30
0.0
  0
ENDBLK
  5
42C
330
42A
100
AcDbEntity
  8
0
100
AcDbBlockEnd
  0
BLOCK
  5
6DE
330
6DD
100
AcDbEntity
  8
0
100
AcDbBlockBegin
  2
*D4
 70
     1
 10
0.0
 20
0.0
 30
0.0
  3
*D4
  1

  0
LINE
  5
767
330
6DD
100
AcDbEntity
  8
0
 62
     0
370
    -2
100
AcDbLine
 10
1634.745277599848
 20
788.541167157009
 30
0.0
 11
1634.745277599848
 21
785.6315357350001
 31
0.0
  0
LINE
  5
768
330
6DD
100
AcDbEntity
  8
0
 62
     0
370
    -2
100
AcDbLine
 10
1632.288090545728
 20
788.541167157009
 30
0.0
 11
1632.288090545728
 21
785.6315357350001
 31
0.0
  0
LINE
  5
769
330
6DD
100
AcDbEntity
  8
0
 62
     0
370
    -2
100
AcDbLine
 10
1637.245277599848
 20
786.8815357350001
 30
0.0
 11
1639.745277599848
 21
786.8815357350001
 31
0.0
  0
LINE
  5
76A
330
6DD
100
AcDbEntity
  8
0
 62
     0
370
    -2
100
AcDbLine
 10
1629.788090545727
 20
786.8815357350001
 30
0.0
 11
1617.038090545728
 21
786.8815357350001
 31
0.0
  0
LINE
  5
76B
330
6DD
100
AcDbEntity
  8
0
 62
     0
370
    -2
100
AcDbLine
 10
1634.745277599848
 20
786.8815357350001
 30
0.0
 11
1632.288090545728
 21
786.8815357350001
 31
0.0
  0
INSERT
  5
76C
330
6DD
100
AcDbEntity
  8
0
 62
     0
370
    -2
100
AcDbBlockReference
  2
_Open30
 10
1634.745277599848
 20
786.8815357350001
 30
0.0
 41
2.5
 42
2.5
 43
2.5
 50
180.0
  0
INSERT
  5
76D
330
6DD
100
AcDbEntity
  8
0
 62
     0
370
    -2
100
AcDbBlockReference
  2
_Open30
 10
1632.288090545728
 20
786.8815357350001
 30
0.0
 41
2.5
 42
2.5
 43
2.5
  0
MTEXT
  5
76E
330
6DD
100
AcDbEntity
  8
0
 62
     4
100
AcDbMText
 10
1622.163090545728
 20
789.0065357350001
 30
0.0
 40
3.0
 41
0.0
 71
     5
 72
     1
  1
2.46
 73
     1
 44
1.0
1001
ACAD
1000
MTEXTBEGIN
1070
    73
1070
     1
1070
    44
1040
1.0
1070
    74
1070
     0
1000
MTEXTEND
  0
POINT
  5
76F
330
6DD
100
AcDbEntity
  8
Defpoints
 62
     0
100
AcDbPoint
 10
1634.745277599848
 20
788.791167157009
 30
0.0
  0
POINT
  5
770
330
6DD
100
AcDbEntity
  8
Defpoints
 62
     0
100
AcDbPoint
 10
1632.288090545728
 20
788.791167157009
 30
0.0
  0
POINT
  5
771
330
6DD
100
AcDbEntity
  8
Defpoints
 62
     0
100
AcDbPoint
 10
1632.288090545728
 20
786.8815357350001
 30
0.0
  0
ENDBLK
  5
6DF
330
6DD
100
AcDbEntity
  8
0
100
AcDbBlockEnd
  0
BLOCK
  5
6EC
330
6EB
100
AcDbEntity
  8
0
100
AcDbBlockBegin
  2
*D5
 70
     1
 10
0.0
 20
0.0
 30
0.0
  3
*D5
  1

  0
LINE
  5
772
330
6EB
100
AcDbEntity
  8
0
 62
     0
370
    -2
100
AcDbLine
 10
1636.383402505921
 20
783.0850775842466
 30
0.0
 11
1636.383402505921
 21
780.5391855147832
 31
0.0
  0
LINE
  5
773
330
6EB
100
AcDbEntity
  8
0
 62
     0
370
    -2
100
AcDbLine
 10
1633.289166707778
 20
783.0850775842466
 30
0.0
 11
1633.289166707778
 21
780.5391855147832
 31
0.0
  0
LINE
  5
774
330
6EB
100
AcDbEntity
  8
0
 62
     0
370
    -2
100
AcDbLine
 10
1638.883402505921
 20
781.7891855147832
 30
0.0
 11
1641.383402505921
 21
781.7891855147832
 31
0.0
  0
LINE
  5
775
330
6EB
100
AcDbEntity
  8
0
 62
     0
370
    -2
100
AcDbLine
 10
1630.789166707778
 20
781.7891855147832
 30
0.0
 11
1616.955833374445
 21
781.7891855147832
 31
0.0
  0
LINE
  5
776
330
6EB
100
AcDbEntity
  8
0
 62
     0
370
    -2
100
AcDbLine
 10
1636.383402505921
 20
781.7891855147832
 30
0.0
 11
1633.289166707778
 21
781.7891855147832
 31
0.0
  0
INSERT
  5
777
330
6EB
100
AcDbEntity
  8
0
 62
     0
370
    -2
100
AcDbBlockReference
  2
_Open30
 10
1636.383402505921
 20
781.7891855147832
 30
0.0
 41
2.5
 42
2.5
 43
2.5
 50
180.0
  0
INSERT
  5
778
330
6EB
100
AcDbEntity
  8
0
 62
     0
370
    -2
100
AcDbBlockReference
  2
_Open30
 10
1633.289166707778
 20
781.7891855147832
 30
0.0
 41
2.5
 42
2.5
 43
2.5
  0
MTEXT
  5
779
330
6EB
100
AcDbEntity
  8
0
 62
     4
100
AcDbMText
 10
1622.164166707778
 20
783.6641855147832
 30
0.0
 40
2.5
 41
0.0
 71
     5
 72
     1
  1
15.47
  7
高2.5
 73
     1
 44
1.0
1001
ACAD
1000
MTEXTBEGIN
1070
    73
1070
     1
1070
    44
1040
1.0
1070
    74
1070
     0
1000
MTEXTEND
  0
POINT
  5
77A
330
6EB
100
AcDbEntity
  8
Defpoints
 62
     0
100
AcDbPoint
 10
1636.383402505921
 20
783.3350775842466
 30
0.0
  0
POINT
  5
77B
330
6EB
100
AcDbEntity
  8
Defpoints
 62
     0
100
AcDbPoint
 10
1633.289166707778
 20
783.3350775842466
 30
0.0
  0
POINT
  5
77C
330
6EB
100
AcDbEntity
  8
Defpoints
 62
     0
100
AcDbPoint
 10
1633.289166707778
 20
781.7891855147832
 30
0.0
  0
ENDBLK
  5
6ED
330
6EB
100
AcDbEntity
  8
0
100
AcDbBlockEnd
  0
BLOCK
  5
6FA
330
6F9
100
AcDbEntity
  8
0
100
AcDbBlockBegin
  2
*D6
 70
     1
 10
0.0
 20
0.0
 30
0.0
  3
*D6
  1

  0
LINE
  5
77D
330
6F9
100
AcDbEntity
  8
0
 62
     0
370
    -2
100
AcDbLine
 10
1638.112534114007
 20
777.6289878684001
 30
0.0
 11
1638.112534114007
 21
775.3559002060327
 31
0.0
  0
LINE
  5
77E
330
6F9
100
AcDbEntity
  8
0
 62
     0
370
    -2
100
AcDbLine
 10
1634.108229160815
 20
777.6289878684001
 30
0.0
 11
1634.108229160815
 21
775.3559002060327
 31
0.0
  0
LINE
  5
77F
330
6F9
100
AcDbEntity
  8
0
 62
     0
370
    -2
100
AcDbLine
 10
1640.612534114007
 20
776.6059002060329
 30
0.0
 11
1643.112534114006
 21
776.6059002060329
 31
0.0
  0
LINE
  5
780
330
6F9
100
AcDbEntity
  8
0
 62
     0
370
    -2
100
AcDbLine
 10
1631.608229160815
 20
776.6059002060329
 30
0.0
 11
1619.858229160815
 21
776.6059002060329
 31
0.0
  0
LINE
  5
781
330
6F9
100
AcDbEntity
  8
0
 62
     0
370
    -2
100
AcDbLine
 10
1638.112534114007
 20
776.6059002060329
 30
0.0
 11
1634.108229160815
 21
776.6059002060329
 31
0.0
  0
INSERT
  5
782
330
6F9
100
AcDbEntity
  8
0
 62
     0
370
    -2
100
AcDbBlockReference
  2
_Open30
 10
1638.112534114007
 20
776.6059002060329
 30
0.0
 41
2.5
 42
2.5
 43
2.5
 50
180.0
  0
INSERT
  5
783
330
6F9
100
AcDbEntity
  8
0
 62
     0
370
    -2
100
AcDbBlockReference
  2
_Open30
 10
1634.108229160815
 20
776.6059002060329
 30
0.0
 41
2.5
 42
2.5
 43
2.5
  0
MTEXT
  5
784
330
6F9
100
AcDbEntity
  8
0
 62
     4
100
AcDbMText
 10
1624.483229160815
 20
778.8309002060327
 30
0.0
 40
3.2
 41
0.0
 71
     5
 72
     1
  1
8.01
  7
高3.2
 73
     1
 44
1.0
1001
ACAD
1000
MTEXTBEGIN
1070
    73
1070
     1
1070
    44
1040
1.0
1070
    74
1070
     0
1000
MTEXTEND
  0
POINT
  5
785
330
6F9
100
AcDbEntity
  8
Defpoints
 62
     0
100
AcDbPoint
 10
1638.112534114007
 20
777.8789878684001
 30
0.0
  0
POINT
  5
786
330
6F9
100
AcDbEntity
  8
Defpoints
 62
     0
100
AcDbPoint
 10
1634.108229160815
 20
777.8789878684001
 30
0.0
  0
POINT
  5
787
330
6F9
100
AcDbEntity
  8
Defpoints
 62
     0
100
AcDbPoint
 10
1634.108229160815
 20
776.6059002060329
 30
0.0
  0
ENDBLK
  5
6FB
330
6F9
100
AcDbEntity
  8
0
100
AcDbBlockEnd
  0
BLOCK
  5
708
330
707
100
AcDbEntity
  8
0
100
AcDbBlockBegin
  2
*D7
 70
     1
 10
0.0
 20
0.0
 30
0.0
  3
*D7
  1

  0
LINE
  5
788
330
707
100
AcDbEntity
  8
0
 62
     0
370
    -2
100
AcDbLine
 10
1638.021527411995
 20
772.3547679003685
 30
0.0
 11
1638.021527411995
 21
770.5363543929121
 31
0.0
  0
LINE
  5
789
330
707
100
AcDbEntity
  8
0
 62
     0
370
    -2
100
AcDbLine
 10
1633.289166707778
 20
772.3547679003685
 30
0.0
 11
1633.289166707778
 21
770.5363543929121
 31
0.0
  0
LINE
  5
78A
330
707
100
AcDbEntity
  8
0
 62
     0
370
    -2
100
AcDbLine
 10
1640.521527411994
 20
771.7863543929121
 30
0.0
 11
1643.021527411994
 21
771.7863543929121
 31
0.0
  0
LINE
  5
78B
330
707
100
AcDbEntity
  8
0
 62
     0
370
    -2
100
AcDbLine
 10
1630.789166707778
 20
771.7863543929121
 30
0.0
 11
1609.039166707778
 21
771.7863543929121
 31
0.0
  0
LINE
  5
78C
330
707
100
AcDbEntity
  8
0
 62
     0
370
    -2
100
AcDbLine
 10
1638.021527411995
 20
771.7863543929121
 30
0.0
 11
1633.289166707778
 21
771.7863543929121
 31
0.0
  0
INSERT
  5
78D
330
707
100
AcDbEntity
  8
0
 62
     0
370
    -2
100
AcDbBlockReference
  2
_Open30
 10
1638.021527411995
 20
771.7863543929121
 30
0.0
 41
2.5
 42
2.5
 43
2.5
 50
180.0
  0
INSERT
  5
78E
330
707
100
AcDbEntity
  8
0
 62
     0
370
    -2
100
AcDbBlockReference
  2
_Open30
 10
1633.289166707778
 20
771.7863543929121
 30
0.0
 41
2.5
 42
2.5
 43
2.5
  0
MTEXT
  5
78F
330
707
100
AcDbEntity
  8
0
 62
     4
100
AcDbMText
 10
1618.664166707778
 20
774.6613543929121
 30
0.0
 40
4.5
 41
0.0
 71
     5
 72
     1
  1
47.32
  7
高4.5
 73
     1
 44
1.0
1001
ACAD
1000
MTEXTBEGIN
1070
    73
1070
     1
1070
    44
1040
1.0
1070
    74
1070
     0
1000
MTEXTEND
  0
POINT
  5
790
330
707
100
AcDbEntity
  8
Defpoints
 62
     0
100
AcDbPoint
 10
1638.021527411995
 20
772.6047679003685
 30
0.0
  0
POINT
  5
791
330
707
100
AcDbEntity
  8
Defpoints
 62
     0
100
AcDbPoint
 10
1633.289166707778
 20
772.6047679003685
 30
0.0
  0
POINT
  5
792
330
707
100
AcDbEntity
  8
Defpoints
 62
     0
100
AcDbPoint
 10
1633.289166707778
 20
771.7863543929121
 30
0.0
  0
ENDBLK
  5
709
330
707
100
AcDbEntity
  8
0
100
AcDbBlockEnd
  0
BLOCK
  5
716
330
715
100
AcDbEntity
  8
0
100
AcDbBlockBegin
  2
*D8
 70
     1
 10
0.0
 20
0.0
 30
0.0
  3
*D8
  1

  0
LINE
  5
793
330
715
100
AcDbEntity
  8
0
 62
     0
370
    -2
100
AcDbLine
 10
1659.499163680002
 20
788.541167157009
 30
0.0
 11
1659.499163680002
 21
785.6315357350001
 31
0.0
  0
LINE
  5
794
330
715
100
AcDbEntity
  8
0
 62
     0
370
    -2
100
AcDbLine
 10
1657.041976625881
 20
788.541167157009
 30
0.0
 11
1657.041976625881
 21
785.6315357350001
 31
0.0
  0
LINE
  5
795
330
715
100
AcDbEntity
  8
0
 62
     0
370
    -2
100
AcDbLine
 10
1661.999163680002
 20
786.8815357350001
 30
0.0
 11
1664.499163680002
 21
786.8815357350001
 31
0.0
  0
LINE
  5
796
330
715
100
AcDbEntity
  8
0
 62
     0
370
    -2
100
AcDbLine
 10
1654.541976625881
 20
786.8815357350001
 30
0.0
 11
1632.941976625882
 21
786.8815357350001
 31
0.0
  0
LINE
  5
797
330
715
100
AcDbEntity
  8
0
 62
     0
370
    -2
100
AcDbLine
 10
1659.499163680002
 20
786.8815357350001
 30
0.0
 11
1657.041976625881
 21
786.8815357350001
 31
0.0
  0
INSERT
  5
798
330
715
100
AcDbEntity
  8
0
 62
     0
370
    -2
100
AcDbBlockReference
  2
_Open30
 10
1659.499163680002
 20
786.8815357350001
 30
0.0
 41
2.5
 42
2.5
 43
2.5
 50
180.0
  0
INSERT
  5
799
330
715
100
AcDbEntity
  8
0
 62
     0
370
    -2
100
AcDbBlockReference
  2
_Open30
 10
1657.041976625881
 20
786.8815357350001
 30
0.0
 41
2.5
 42
2.5
 43
2.5
  0
MTEXT
  5
79A
330
715
100
AcDbEntity
  8
0
 62
     4
100
AcDbMText
 10
1642.491976625882
 20
790.6565357350001
 30
0.0
 40
6.299999999999998
 41
0.0
 71
     5
 72
     1
  1
0.25
  7
高6.3
 73
     1
 44
1.0
1001
ACAD
1000
MTEXTBEGIN
1070
    73
1070
     1
1070
    44
1040
1.0
1070
    74
1070
     0
1000
MTEXTEND
  0
POINT
  5
79B
330
715
100
AcDbEntity
  8
Defpoints
 62
     0
100
AcDbPoint
 10
1659.499163680002
 20
788.791167157009
 30
0.0
  0
POINT
  5
79C
330
715
100
AcDbEntity
  8
Defpoints
 62
     0
100
AcDbPoint
 10
1657.041976625881
 20
788.791167157009
 30
0.0
  0
POINT
  5
79D
330
715
100
AcDbEntity
  8
Defpoints
 62
     0
100
AcDbPoint
 10
1657.041976625881
 20
786.8815357350001
 30
0.0
  0
ENDBLK
  5
717
330
715
100
AcDbEntity
  8
0
100
AcDbBlockEnd
  0
BLOCK
  5
724
330
723
100
AcDbEntity
  8
0
100
AcDbBlockBegin
  2
*D9
 70
     1
 10
0.0
 20
0.0
 30
0.0
  3
*D9
  1

  0
LINE
  5
79E
330
723
100
AcDbEntity
  8
0
 62
     0
370
    -2
100
AcDbLine
 10
1661.137288586075
 20
783.0850775842466
 30
0.0
 11
1661.137288586075
 21
780.5391855147832
 31
0.0
  0
LINE
  5
79F
330
723
100
AcDbEntity
  8
0
 62
     0
370
    -2
100
AcDbLine
 10
1658.043052787932
 20
783.0850775842466
 30
0.0
 11
1658.043052787932
 21
780.5391855147832
 31
0.0
  0
LINE
  5
7A0
330
723
100
AcDbEntity
  8
0
 62
     0
370
    -2
100
AcDbLine
 10
1663.637288586075
 20
781.7891855147832
 30
0.0
 11
1666.137288586075
 21
781.7891855147832
 31
0.0
  0
LINE
  5
7A1
330
723
100
AcDbEntity
  8
0
 62
     0
370
    -2
100
AcDbLine
 10
1655.543052787932
 20
781.7891855147832
 30
0.0
 11
1643.543052787932
 21
781.7891855147832
 31
0.0
  0
LINE
  5
7A2
330
723
100
AcDbEntity
  8
0
 62
     0
370
    -2
100
AcDbLine
 10
1661.137288586075
 20
781.7891855147832
 30
0.0
 11
1658.043052787932
 21
781.7891855147832
 31
0.0
  0
INSERT
  5
7A3
330
723
100
AcDbEntity
  8
0
 62
     0
370
    -2
100
AcDbBlockReference
  2
_Open30
 10
1661.137288586075
 20
781.7891855147832
 30
0.0
 41
2.5
 42
2.5
 43
2.5
 50
180.0
  0
INSERT
  5
7A4
330
723
100
AcDbEntity
  8
0
 62
     0
370
    -2
100
AcDbBlockReference
  2
_Open30
 10
1658.043052787932
 20
781.7891855147832
 30
0.0
 41
2.5
 42
2.5
 43
2.5
  0
MTEXT
  5
7A5
330
723
100
AcDbEntity
  8
0
 62
     4
100
AcDbMText
 10
1648.168052787932
 20
783.9141855147833
 30
0.0
 40
3.0
 41
0.0
 71
     5
 72
     1
  1
1.55
 73
     1
 44
1.0
1001
ACAD
1000
MTEXTBEGIN
1070
    73
1070
     1
1070
    44
1040
1.0
1070
    74
1070
     0
1000
MTEXTEND
  0
POINT
  5
7A6
330
723
100
AcDbEntity
  8
Defpoints
 62
     0
100
AcDbPoint
 10
1661.137288586075
 20
783.3350775842466
 30
0.0
  0
POINT
  5
7A7
330
723
100
AcDbEntity
  8
Defpoints
 62
     0
100
AcDbPoint
 10
1658.043052787932
 20
783.3350775842466
 30
0.0
  0
POINT
  5
7A8
330
723
100
AcDbEntity
  8
Defpoints
 62
     0
100
AcDbPoint
 10
1658.043052787932
 20
781.7891855147832
 30
0.0
  0
ENDBLK
  5
725
330
723
100
AcDbEntity
  8
0
100
AcDbBlockEnd
  0
BLOCK
  5
732
330
731
100
AcDbEntity
  8
0
100
AcDbBlockBegin
  2
*D10
 70
     1
 10
0.0
 20
0.0
 30
0.0
  3
*D10
  1

  0
LINE
  5
7A9
330
731
100
AcDbEntity
  8
0
 62
     0
370
    -2
100
AcDbLine
 10
1662.86642019416
 20
777.6289878684001
 30
0.0
 11
1662.86642019416
 21
775.3559002060327
 31
0.0
  0
LINE
  5
7AA
330
731
100
AcDbEntity
  8
0
 62
     0
370
    -2
100
AcDbLine
 10
1658.862115240969
 20
777.6289878684001
 30
0.0
 11
1658.862115240969
 21
775.3559002060327
 31
0.0
  0
LINE
  5
7AB
330
731
100
AcDbEntity
  8
0
 62
     0
370
    -2
100
AcDbLine
 10
1665.36642019416
 20
776.6059002060329
 30
0.0
 11
1667.866420194161
 21
776.6059002060329
 31
0.0
  0
LINE
  5
7AC
330
731
100
AcDbEntity
  8
0
 62
     0
370
    -2
100
AcDbLine
 10
1656.362115240969
 20
776.6059002060329
 30
0.0
 11
1648.028781907635
 21
776.6059002060329
 31
0.0
  0
LINE
  5
7AD
330
731
100
AcDbEntity
  8
0
 62
     0
370
    -2
100
AcDbLine
 10
1662.86642019416
 20
776.6059002060329
 30
0.0
 11
1658.862115240969
 21
776.6059002060329
 31
0.0
  0
INSERT
  5
7AE
330
731
100
AcDbEntity
  8
0
 62
     0
370
    -2
100
AcDbBlockReference
  2
_Open30
 10
1662.86642019416
 20
776.6059002060329
 30
0.0
 41
2.5
 42
2.5
 43
2.5
 50
180.0
  0
INSERT
  5
7AF
330
731
100
AcDbEntity
  8
0
 62
     0
370
    -2
100
AcDbBlockReference
  2
_Open30
 10
1658.862115240969
 20
776.6059002060329
 30
0.0
 41
2.5
 42
2.5
 43
2.5
  0
MTEXT
  5
7B0
330
731
100
AcDbEntity
  8
0
 62
     4
100
AcDbMText
 10
1650.487115240968
 20
778.2309002060327
 30
0.0
 40
2.0
 41
0.0
 71
     5
 72
     1
  1
0.8
  7
高2
 73
     1
 44
1.0
1001
ACAD
1000
MTEXTBEGIN
1070
    73
1070
     1
1070
    44
1040
1.0
1070
    74
1070
     0
1000
MTEXTEND
  0
POINT
  5
7B1
330
731
100
AcDbEntity
  8
Defpoints
 62
     0
100
AcDbPoint
 10
1662.86642019416
 20
777.8789878684001
 30
0.0
  0
POINT
  5
7B2
330
731
100
AcDbEntity
  8
Defpoints
 62
     0
100
AcDbPoint
 10
1658.862115240969
 20
777.8789878684001
 30
0.0
  0
POINT
  5
7B3
330
731
100
AcDbEntity
  8
Defpoints
 62
     0
100
AcDbPoint
 10
1658.862115240969
 20
776.6059002060329
 30
0.0
  0
ENDBLK
  5
733
330
731
100
AcDbEntity
  8
0
100
AcDbBlockEnd
  0
BLOCK
  5
740
330
73F
100
AcDbEntity
  8
0
100
AcDbBlockBegin
  2
*D11
 70
     1
 10
0.0
 20
0.0
 30
0.0
  3
*D11
  1

  0
LINE
  5
7B4
330
73F
100
AcDbEntity
  8
0
 62
     0
370
    -2
100
AcDbLine
 10
1662.775413492148
 20
772.3547679003685
 30
0.0
 11
1662.775413492148
 21
770.5363543929121
 31
0.0
  0
LINE
  5
7B5
330
73F
100
AcDbEntity
  8
0
 62
     0
370
    -2
100
AcDbLine
 10
1658.043052787932
 20
772.3547679003685
 30
0.0
 11
1658.043052787932
 21
770.5363543929121
 31
0.0
  0
LINE
  5
7B6
330
73F
100
AcDbEntity
  8
0
 62
     0
370
    -2
100
AcDbLine
 10
1665.275413492148
 20
771.7863543929121
 30
0.0
 11
1667.775413492148
 21
771.7863543929121
 31
0.0
  0
LINE
  5
7B7
330
73F
100
AcDbEntity
  8
0
 62
     0
370
    -2
100
AcDbLine
 10
1655.543052787932
 20
771.7863543929121
 30
0.0
 11
1640.793052787932
 21
771.7863543929121
 31
0.0
  0
LINE
  5
7B8
330
73F
100
AcDbEntity
  8
0
 62
     0
370
    -2
100
AcDbLine
 10
1662.775413492148
 20
771.7863543929121
 30
0.0
 11
1658.043052787932
 21
771.7863543929121
 31
0.0
  0
INSERT
  5
7B9
330
73F
100
AcDbEntity
  8
0
 62
     0
370
    -2
100
AcDbBlockReference
  2
_Open30
 10
1662.775413492148
 20
771.7863543929121
 30
0.0
 41
2.5
 42
2.5
 43
2.5
 50
180.0
  0
INSERT
  5
7BA
330
73F
100
AcDbEntity
  8
0
 62
     0
370
    -2
100
AcDbBlockReference
  2
_Open30
 10
1658.043052787932
 20
771.7863543929121
 30
0.0
 41
2.5
 42
2.5
 43
2.5
  0
MTEXT
  5
7BB
330
73F
100
AcDbEntity
  8
0
 62
     4
100
AcDbMText
 10
1646.918052787932
 20
773.9113543929121
 30
0.0
 40
3.0
 41
0.0
 71
     5
 72
     1
  1
18.93
 73
     1
 44
1.0
1001
ACAD
1000
MTEXTBEGIN
1070
    73
1070
     1
1070
    44
1040
1.0
1070
    74
1070
     0
1000
MTEXTEND
  0
POINT
  5
7BC
330
73F
100
AcDbEntity
  8
Defpoints
 62
     0
100
AcDbPoint
 10
1662.775413492148
 20
772.6047679003685
 30
0.0
  0
POINT
  5
7BD
330
73F
100
AcDbEntity
  8
Defpoints
 62
     0
100
AcDbPoint
 10
1658.043052787932
 20
772.6047679003685
 30
0.0
  0
POINT
  5
7BE
330
73F
100
AcDbEntity
  8
Defpoints
 62
     0
100
AcDbPoint
 10
1658.043052787932
 20
771.7863543929121
 30
0.0
  0
ENDBLK
  5
741
330
73F
100
AcDbEntity
  8
0
100
AcDbBlockEnd
  0
BLOCK
  5
74E
330
74D
100
AcDbEntity
  8
0
100
AcDbBlockBegin
  2
*D12
 70
     1
 10
0.0
 20
0.0
 30
0.0
  3
*D12
  1

  0
LINE
  5
7BF
330
74D
100
AcDbEntity
  8
0
 62
     0
370
    -2
100
AcDbLine
 10
1659.97098664101
 20
767.2989276937786
 30
0.0
 11
1659.97098664101
 21
764.9890066169032
 31
0.0
  0
LINE
  5
7C0
330
74D
100
AcDbEntity
  8
0
 62
     0
370
    -2
100
AcDbLine
 10
1655.382311438862
 20
767.2989276937786
 30
0.0
 11
1655.382311438862
 21
764.9890066169032
 31
0.0
  0
LINE
  5
7C1
330
74D
100
AcDbEntity
  8
0
 62
     0
370
    -2
100
AcDbLine
 10
1662.47098664101
 20
766.2390066169032
 30
0.0
 11
1664.97098664101
 21
766.2390066169032
 31
0.0
  0
LINE
  5
7C2
330
74D
100
AcDbEntity
  8
0
 62
     0
370
    -2
100
AcDbLine
 10
1652.882311438862
 20
766.2390066169032
 30
0.0
 11
1638.132311438862
 21
766.2390066169032
 31
0.0
  0
LINE
  5
7C3
330
74D
100
AcDbEntity
  8
0
 62
     0
370
    -2
100
AcDbLine
 10
1659.97098664101
 20
766.2390066169032
 30
0.0
 11
1655.382311438862
 21
766.2390066169032
 31
0.0
  0
INSERT
  5
7C4
330
74D
100
AcDbEntity
  8
0
 62
     0
370
    -2
100
AcDbBlockReference
  2
_Open30
 10
1659.97098664101
 20
766.2390066169032
 30
0.0
 41
2.5
 42
2.5
 43
2.5
 50
180.0
  0
INSERT
  5
7C5
330
74D
100
AcDbEntity
  8
0
 62
     0
370
    -2
100
AcDbBlockReference
  2
_Open30
 10
1655.382311438862
 20
766.2390066169032
 30
0.0
 41
2.5
 42
2.5
 43
2.5
  0
MTEXT
  5
7C6
330
74D
100
AcDbEntity
  8
0
 62
     4
100
AcDbMText
 10
1644.257311438862
 20
768.3640066169032
 30
0.0
 40
3.0
 41
0.0
 71
     5
 72
     1
  1
13.77
 73
     1
 44
1.0
1001
ACAD
1000
MTEXTBEGIN
1070
    73
1070
     1
1070
    44
1040
1.0
1070
    74
1070
     0
1000
MTEXTEND
  0
POINT
  5
7C7
330
74D
100
AcDbEntity
  8
Defpoints
 62
     0
100
AcDbPoint
 10
1659.97098664101
 20
767.5489276937786
 30
0.0
  0
POINT
  5
7C8
330
74D
100
AcDbEntity
  8
Defpoints
 62
     0
100
AcDbPoint
 10
1655.382311438862
 20
767.5489276937786
 30
0.0
  0
POINT
  5
7C9
330
74D
100
AcDbEntity
  8
Defpoints
 62
     0
100
AcDbPoint
 10
1655.382311438862
 20
766.2390066169032
 30
0.0
  0
ENDBLK
  5
74F
330
74D
100
AcDbEntity
  8
0
100
AcDbBlockEnd
  0
BLOCK
  5
75C
330
75B
100
AcDbEntity
  8
0
100
AcDbBlockBegin
  2
*D13
 70
     1
 10
0.0
 20
0.0
 30
0.0
  3
*D13
  1

  0
LINE
  5
7CA
330
75B
100
AcDbEntity
  8
0
 62
     0
370
    -2
100
AcDbLine
 10
1652.87470380786
 20
798.2284190120531
 30
0.0
 11
1652.87470380786
 21
805.6249524899907
 31
0.0
  0
LINE
  5
7CB
330
75B
100
AcDbEntity
  8
0
 62
     0
370
    -2
100
AcDbLine
 10
1642.93622943837
 20
798.2284190120531
 30
0.0
 11
1642.93622943837
 21
805.6249524899907
 31
0.0
  0
LINE
  5
7CC
330
75B
100
AcDbEntity
  8
0
 62
     0
370
    -2
100
AcDbLine
 10
1650.37470380786
 20
804.3749524899906
 30
0.0
 11
1645.43622943837
 21
804.3749524899906
 31
0.0
  0
INSERT
  5
7CD
330
75B
100
AcDbEntity
  8
0
 62
     0
370
    -2
100
AcDbBlockReference
  2
_Open30
 10
1652.87470380786
 20
804.3749524899906
 30
0.0
 41
2.5
 42
2.5
 43
2.5
  0
INSERT
  5
7CE
330
75B
100
AcDbEntity
  8
0
 62
     0
370
    -2
100
AcDbBlockReference
  2
_Open30
 10
1642.93622943837
 20
804.3749524899906
 30
0.0
 41
2.5
 42
2.5
 43
2.5
 50
180.0
  0
MTEXT
  5
7CF
330
75B
100
AcDbEntity
  8
0
 62
     4
100
AcDbMText
 10
1647.905466623114
 20
807.4499524899909
 30
0.0
 40
3.0
 41
0.0
 71
     5
 72
     1
  1
9.94\H0.7X;\S+0^ -0.02;
 73
     1
 44
1.0
1001
ACAD
1000
MTEXTBEGIN
1070
    73
1070
     1
1070
    44
1040
1.0
1070
    74
1070
     0
1000
MTEXTEND
  0
POINT
  5
7D0
330
75B
100
AcDbEntity
  8
Defpoints
 62
     0
100
AcDbPoint
 10
1652.87470380786
 20
797.9784190120531
 30
0.0
  0
POINT
  5
7D1
330
75B
100
AcDbEntity
  8
Defpoints
 62
     0
100
AcDbPoint
 10
1642.93622943837
 20
797.9784190120531
 30
0.0
  0
POINT
  5
7D2
330
75B
100
AcDbEntity
  8
Defpoints
 62
     0
100
AcDbPoint
 10
1642.93622943837
 20
804.3749524899906
 30
0.0
  0
ENDBLK
  5
75D
330
75B
100
AcDbEntity
  8
0
100
AcDbBlockEnd
  0
ENDSEC
  0
SECTION
  2
ENTITIES
  0
LINE
  5
AE
330
6B
100
AcDbEntity
  8
0
 62
     3
100
AcDbLine
 10
1224.739798
 20
651.7320859999998
 30
0.0
 11
1224.739798
 21
664.538479
 31
0.0
  0
ARC
  5
AF
330
6B
100
AcDbEntity
  8
0
 62
     3
100
AcDbCircle
 10
1211.989798
 20
651.7320859999998
 30
0.0
 40
12.75
100
AcDbArc
 50
322.377437
 51
0.0
  0
LINE
  5
B0
330
6B
100
AcDbEntity
  8
0
 62
     3
100
AcDbLine
 10
1205.088427
 20
643.9487579999997
 30
0.0
 11
1222.088427
 21
643.9487579999997
 31
0.0
  0
LINE
  5
B1
330
6B
100
AcDbEntity
  8
0
 62
     3
100
AcDbLine
 10
1202.437055
 20
651.7320859999998
 30
0.0
 11
1202.437055
 21
664.538479
 31
0.0
  0
ARC
  5
B2
330
6B
100
AcDbEntity
  8
0
 62
     3
100
AcDbCircle
 10
1215.187055
 20
651.7320859999998
 30
0.0
 40
12.75
100
AcDbArc
 50
180.0
 51
217.622563
  0
ARC
  5
B3
330
6B
100
AcDbEntity
  8
0
 62
     3
100
AcDbCircle
 10
1213.588427
 20
702.8218
 30
0.0
 40
32.5
100
AcDbArc
 50
157.631392
 51
238.292297
  0
ARC
  5
B4
330
6B
100
AcDbEntity
  8
0
 62
     3
100
AcDbCircle
 10
1213.588427
 20
702.8218
 30
0.0
 40
32.5
100
AcDbArc
 50
301.707703
 51
22.368608
  0
ARC
  5
B5
330
6B
100
AcDbEntity
  8
0
 62
     3
100
AcDbCircle
 10
1237.239798
 20
664.538479
 30
0.0
 40
12.5
100
AcDbArc
 50
121.707703
 51
180.0
  0
ARC
  5
B6
330
6B
100
AcDbEntity
  8
0
 62
     3
100
AcDbCircle
 10
1189.937055
 20
664.538479
 30
0.0
 40
12.5
100
AcDbArc
 50
0.0
 51
58.29229699999999
  0
ARC
  5
B7
330
6B
100
AcDbEntity
  8
0
 62
     3
100
AcDbCircle
 10
1213.588427
 20
684.333077
 30
0.0
 40
44.488723
100
AcDbArc
 50
54.677686
 51
125.322314
  0
ARC
  5
B8
330
6B
100
AcDbEntity
  8
0
 62
     3
100
AcDbCircle
 10
1232.08352
 20
710.433075
 30
0.0
 40
12.5
100
AcDbArc
 50
22.368608
 51
54.677686
  0
ARC
  5
B9
330
6B
100
AcDbEntity
  8
0
 62
     3
100
AcDbCircle
 10
1195.093333
 20
710.433075
 30
0.0
 40
12.5
100
AcDbArc
 50
125.322314
 51
157.631392
  0
LINE
  5
BA
330
6B
100
AcDbEntity
  8
0
 62
     3
100
AcDbLine
 10
1245.99213
 20
705.3218000000001
 30
0.0
 11
1181.184723
 21
705.3218000000001
 31
0.0
  0
LINE
  5
BB
330
6B
100
AcDbEntity
  8
0
 62
     7
100
AcDbLine
 10
1222.088427
 20
642.5718
 30
0.0
 11
1205.088427
 21
642.5718
 31
0.0
  0
LINE
  5
BC
330
6B
100
AcDbEntity
  8
0
 62
     7
100
AcDbLine
 10
1210.838427
 20
623.8218
 30
0.0
 11
1216.338427
 21
623.8218
 31
0.0
  0
LINE
  5
BD
330
6B
100
AcDbEntity
  8
0
 62
     7
100
AcDbLine
 10
1210.838427
 20
624.8218
 30
0.0
 11
1216.338427
 21
624.8218
 31
0.0
  0
LINE
  5
BE
330
6B
100
AcDbEntity
  8
0
 62
     7
100
AcDbLine
 10
1219.802528
 20
626.8218
 30
0.0
 11
1207.374325
 21
626.8218
 31
0.0
  0
LINE
  5
BF
330
6B
100
AcDbEntity
  8
0
 62
     7
100
AcDbLine
 10
1210.838427
 20
624.8218
 30
0.0
 11
1210.838427
 21
623.8218
 31
0.0
  0
LINE
  5
C0
330
6B
100
AcDbEntity
  8
0
 62
     7
100
AcDbLine
 10
1216.338427
 20
624.8218
 30
0.0
 11
1216.338427
 21
623.8218
 31
0.0
  0
LINE
  5
C1
330
6B
100
AcDbEntity
  8
0
 62
     7
100
AcDbLine
 10
1205.088427
 20
643.9487579999997
 30
0.0
 11
1205.088427
 21
642.2578490000002
 31
0.0
  0
LINE
  5
C2
330
6B
100
AcDbEntity
  8
0
 62
     7
100
AcDbLine
 10
1205.088427
 20
640.249964
 30
0.0
 11
1205.088427
 21
639.257849
 31
0.0
  0
LINE
  5
C3
330
6B
100
AcDbEntity
  8
0
 62
     7
100
AcDbLine
 10
1205.088427
 20
637.249964
 30
0.0
 11
1205.088427
 21
636.256804
 31
0.0
  0
LINE
  5
C4
330
6B
100
AcDbEntity
  8
0
 62
     7
100
AcDbLine
 10
1205.088427
 20
634.2494659999998
 30
0.0
 11
1205.088427
 21
633.2568039999999
 31
0.0
  0
LINE
  5
C5
330
6B
100
AcDbEntity
  8
0
 62
     7
100
AcDbLine
 10
1205.088427
 20
631.2494659999997
 30
0.0
 11
1205.088427
 21
630.2568039999997
 31
0.0
  0
ARC
  5
C6
330
6B
100
AcDbEntity
  8
0
 62
     7
100
AcDbCircle
 10
1206.088427
 20
628.7189139999997
 30
0.0
 40
1.0
100
AcDbArc
 50
207.3771129999999
 51
240.0
  0
LINE
  5
C7
330
6B
100
AcDbEntity
  8
0
 62
     7
100
AcDbLine
 10
1222.088427
 20
643.9487579999997
 30
0.0
 11
1222.088427
 21
640.7689019999998
 31
0.0
  0
LINE
  5
C8
330
6B
100
AcDbEntity
  8
0
 62
     7
100
AcDbLine
 10
1222.088427
 20
638.761017
 30
0.0
 11
1222.088427
 21
637.7144229999998
 31
0.0
  0
LINE
  5
C9
330
6B
100
AcDbEntity
  8
0
 62
     7
100
AcDbLine
 10
1222.088427
 20
635.707085
 30
0.0
 11
1222.088427
 21
634.714423
 31
0.0
  0
LINE
  5
CA
330
6B
100
AcDbEntity
  8
0
 62
     7
100
AcDbLine
 10
1222.088427
 20
632.707085
 30
0.0
 11
1222.088427
 21
631.714423
 31
0.0
  0
LINE
  5
CB
330
6B
100
AcDbEntity
  8
0
 62
     7
100
AcDbLine
 10
1222.088427
 20
629.7070849999998
 30
0.0
 11
1222.088427
 21
628.713915
 31
0.0
  0
ARC
  5
CC
330
6B
100
AcDbEntity
  8
0
 62
     7
100
AcDbCircle
 10
1221.088427
 20
628.7189139999997
 30
0.0
 40
1.0
100
AcDbArc
 50
300.0
 51
0.0
  0
ARC
  5
CD
330
6B
100
AcDbEntity
  8
0
 62
     7
100
AcDbCircle
 10
1213.588427
 20
631.1343
 30
0.0
 40
7.8125
100
AcDbArc
 50
249.390307
 51
290.609693
  0
LINE
  5
CE
330
6B
100
AcDbEntity
  8
0
 62
     7
100
AcDbLine
 10
1216.338427
 20
624.8218
 30
0.0
 11
1221.588427
 21
627.852889
 31
0.0
  0
LINE
  5
CF
330
6B
100
AcDbEntity
  8
0
 62
     7
100
AcDbLine
 10
1210.838427
 20
624.8218
 30
0.0
 11
1205.588427
 21
627.852889
 31
0.0
  0
ARC
  5
D0
330
6B
100
AcDbEntity
  8
0
 62
     7
100
AcDbCircle
 10
1204.84294
 20
629.232086
 30
0.0
 40
1.0
100
AcDbArc
 50
94.900687
 51
274.900687
  0
ARC
  5
D1
330
6B
100
AcDbEntity
  8
0
 62
     7
100
AcDbCircle
 10
1204.84294
 20
632.2320859999997
 30
0.0
 40
1.0
100
AcDbArc
 50
94.900687
 51
274.900687
  0
ARC
  5
D2
330
6B
100
AcDbEntity
  8
0
 62
     7
100
AcDbCircle
 10
1222.337217
 20
630.7320859999999
 30
0.0
 40
1.0
100
AcDbArc
 50
274.900687
 51
94.900687
  0
ARC
  5
D3
330
6B
100
AcDbEntity
  8
0
 62
     7
100
AcDbCircle
 10
1222.337217
 20
633.732086
 30
0.0
 40
1.0
100
AcDbArc
 50
274.900687
 51
94.900687
  0
ARC
  5
D4
330
6B
100
AcDbEntity
  8
0
 62
     7
100
AcDbCircle
 10
1222.337217
 20
636.7320859999997
 30
0.0
 40
1.0
100
AcDbArc
 50
274.900687
 51
94.900687
  0
ARC
  5
D5
330
6B
100
AcDbEntity
  8
0
 62
     7
100
AcDbCircle
 10
1222.337217
 20
639.7870730000001
 30
0.0
 40
1.0
100
AcDbArc
 50
275.079413
 51
95.079413
  0
ARC
  5
D6
330
6B
100
AcDbEntity
  8
0
 62
     7
100
AcDbCircle
 10
1204.84294
 20
638.232086
 30
0.0
 40
1.0
100
AcDbArc
 50
95.079413
 51
275.079413
  0
ARC
  5
D7
330
6B
100
AcDbEntity
  8
0
 62
     7
100
AcDbCircle
 10
1204.84294
 20
635.2320859999998
 30
0.0
 40
1.0
100
AcDbArc
 50
94.900687
 51
274.900687
  0
ARC
  5
D8
330
6B
100
AcDbEntity
  8
0
 62
     7
100
AcDbCircle
 10
1204.84294
 20
641.232086
 30
0.0
 40
1.0
100
AcDbArc
 50
95.079413
 51
275.079413
  0
LINE
  5
D9
330
6B
100
AcDbEntity
  8
0
 62
     7
100
AcDbLine
 10
1208.620509
 20
642.5718
 30
0.0
 11
1204.754404
 21
642.2281589999998
 31
0.0
  0
LINE
  5
DA
330
6B
100
AcDbEntity
  8
0
 62
     7
100
AcDbLine
 10
1222.088427
 20
641.761017
 30
0.0
 11
1204.931477
 21
640.2360129999997
 31
0.0
  0
LINE
  5
DB
330
6B
100
AcDbEntity
  8
0
 62
     7
100
AcDbLine
 10
1222.088427
 20
628.713915
 30
0.0
 11
1206.49739
 21
627.328098
 31
0.0
  0
LINE
  5
DC
330
6B
100
AcDbEntity
  8
0
 62
     7
100
AcDbLine
 10
1222.24868
 20
640.7831459999997
 30
0.0
 11
1204.754404
 21
639.228159
 31
0.0
  0
LINE
  5
DD
330
6B
100
AcDbEntity
  8
0
 62
     7
100
AcDbLine
 10
1222.425753
 20
638.7909999999997
 30
0.0
 11
1204.931477
 21
637.2360129999997
 31
0.0
  0
LINE
  5
DE
330
6B
100
AcDbEntity
  8
0
 62
     7
100
AcDbLine
 10
1222.251788
 20
637.72843
 30
0.0
 11
1204.757511
 21
636.2284299999998
 31
0.0
  0
LINE
  5
DF
330
6B
100
AcDbEntity
  8
0
 62
     7
100
AcDbLine
 10
1222.422646
 20
635.7357419999997
 30
0.0
 11
1204.928369
 21
634.2357419999999
 31
0.0
  0
LINE
  5
E0
330
6B
100
AcDbEntity
  8
0
 62
     7
100
AcDbLine
 10
1222.251788
 20
634.72843
 30
0.0
 11
1204.757511
 21
633.22843
 31
0.0
  0
LINE
  5
E1
330
6B
100
AcDbEntity
  8
0
 62
     7
100
AcDbLine
 10
1222.422646
 20
632.7357419999997
 30
0.0
 11
1204.928369
 21
631.2357419999997
 31
0.0
  0
LINE
  5
E2
330
6B
100
AcDbEntity
  8
0
 62
     7
100
AcDbLine
 10
1222.251788
 20
631.7284299999998
 30
0.0
 11
1204.757511
 21
630.22843
 31
0.0
  0
LINE
  5
E3
330
6B
100
AcDbEntity
  8
0
 62
     7
100
AcDbLine
 10
1222.422646
 20
629.7357419999997
 30
0.0
 11
1204.928369
 21
628.2357419999997
 31
0.0
  0
LINE
  5
E4
330
6B
100
AcDbEntity
  8
0
 62
     3
100
AcDbLine
 10
1120.880756
 20
674.4860269999998
 30
0.0
 11
1120.39283
 21
674.4860269999998
 31
0.0
  0
LINE
  5
1B7
330
6B
100
AcDbEntity
  8
0
 62
     3
100
AcDbLine
 10
1286.693467
 20
552.6517499999998
 30
0.0
 11
1286.693467
 21
575.65175
 31
0.0
  0
LINE
  5
1B9
330
6B
100
AcDbEntity
  8
0
 62
     3
100
AcDbLine
 10
1233.639858
 20
545.65175
 30
0.0
 11
1233.639858
 21
559.65175
 31
0.0
  0
TEXT
  5
1BB
330
6B
100
AcDbEntity
  8
0
 62
     3
100
AcDbText
 10
1262.703785
 20
571.8568659999997
 30
0.0
 40
2.0
  1
A
 41
0.7
100
AcDbText
  0
TEXT
  5
1BC
330
6B
100
AcDbEntity
  8
0
 62
     3
100
AcDbText
 10
1265.239071
 20
571.8568659999997
 30
0.0
 40
2.0
  1
P
 41
0.7
100
AcDbText
  0
TEXT
  5
1BD
330
6B
100
AcDbEntity
  8
0
 62
     3
100
AcDbText
 10
1267.774357
 20
571.8568659999997
 30
0.0
 40
2.0
  1
P
 41
0.7
100
AcDbText
  0
TEXT
  5
1BE
330
6B
100
AcDbEntity
  8
0
 62
     3
100
AcDbText
 10
1270.309644
 20
571.8568659999997
 30
0.0
 40
2.0
  1
D
 41
0.7
100
AcDbText
  0
TEXT
  5
1BF
330
6B
100
AcDbEntity
  8
0
 62
     3
100
AcDbText
 10
1275.678327
 20
571.8568659999997
 30
0.0
 40
2.0
  1
C
 41
0.7
100
AcDbText
  0
TEXT
  5
1C0
330
6B
100
AcDbEntity
  8
0
 62
     3
100
AcDbText
 10
1278.213613
 20
571.8568659999997
 30
0.0
 40
2.0
  1
H
 41
0.7
100
AcDbText
  0
TEXT
  5
1C1
330
6B
100
AcDbEntity
  8
0
 62
     3
100
AcDbText
 10
1280.748899
 20
571.8568659999997
 30
0.0
 40
2.0
  1
C
 41
0.7
100
AcDbText
  0
TEXT
  5
1C2
330
6B
100
AcDbEntity
  8
0
 62
     3
100
AcDbText
 10
1283.284185
 20
571.8568659999997
 30
0.0
 40
2.0
  1
K
 41
0.7
100
AcDbText
  0
TEXT
  5
1C3
330
6B
100
AcDbEntity
  8
0
 62
     3
100
AcDbText
 10
1288.958152
 20
571.8568659999997
 30
0.0
 40
2.0
  1
DESN
 41
1.216762999999998
100
AcDbText
  0
TEXT
  5
1C4
330
6B
100
AcDbEntity
  8
0
 62
     3
100
AcDbText
 10
1203.951793
 20
542.5103679999998
 30
0.0
 40
2.0
  1
NICHIDO IND.CO.LTD
 41
1.274876
100
AcDbText
  0
LINE
  5
1C5
330
6B
100
AcDbEntity
  8
0
 62
     3
100
AcDbLine
 10
1214.334823
 20
575.65175
 30
0.0
 11
1214.334823
 21
552.6517499999998
 31
0.0
  0
LINE
  5
1C6
330
6B
100
AcDbEntity
  8
0
 62
     3
100
AcDbLine
 10
1260.693467
 20
575.65175
 30
0.0
 11
1260.693467
 21
535.9860269999995
 31
0.0
  0
LINE
  5
1CB
330
6B
100
AcDbEntity
  8
0
 62
     3
100
AcDbLine
 10
1273.693467
 20
575.65175
 30
0.0
 11
1273.693467
 21
545.65175
 31
0.0
  0
TEXT
  5
1CC
330
6B
100
AcDbEntity
  8
0
 62
     3
100
AcDbText
 10
1261.805912
 20
546.516437
 30
0.0
 40
3.2
  1
作成日
 41
1.017225999999997
100
AcDbText
  0
LINE
  5
1CD
330
6B
100
AcDbEntity
  8
0
 62
     3
100
AcDbLine
 10
1312.39283
 20
575.65175
 30
0.0
 11
1201.089388
 21
575.65175
 31
0.0
  0
LINE
  5
1CE
330
6B
100
AcDbEntity
  8
0
 62
     3
100
AcDbLine
 10
1299.693467
 20
552.6517499999998
 30
0.0
 11
1299.693467
 21
575.65175
 31
0.0
  0
TEXT
  5
1CF
330
6B
100
AcDbEntity
  8
0
 62
     3
100
AcDbText
 10
1303.01727
 20
571.9426839999997
 30
0.0
 40
1.8
  1
D
 41
0.666667
100
AcDbText
  0
TEXT
  5
1D0
330
6B
100
AcDbEntity
  8
0
 62
     3
100
AcDbText
 10
1305.833899
 20
571.9426839999997
 30
0.0
 40
1.8
  1
E
 41
0.666667
100
AcDbText
  0
TEXT
  5
1D1
330
6B
100
AcDbEntity
  8
0
 62
     3
100
AcDbText
 10
1308.650527
 20
571.9426839999997
 30
0.0
 40
1.8
  1
F
 41
0.666667
100
AcDbText
  0
TEXT
  5
1D2
330
6B
100
AcDbEntity
  8
0
 62
     3
100
AcDbText
 10
1303.01727
 20
567.9501309999997
 30
0.0
 40
3.2
  1
製図
 41
1.076369
100
AcDbText
  0
LINE
  5
1D3
330
6B
100
AcDbEntity
  8
0
 62
     3
100
AcDbLine
 10
1201.089388
 20
575.65175
 30
0.0
 11
1201.089388
 21
535.9860269999995
 31
0.0
  0
TEXT
  5
1D4
330
6B
100
AcDbEntity
  8
0
 62
     3
100
AcDbText
 10
1202.466041
 20
536.318493
 30
0.0
 40
5.0
  1
日動工業株式会社
 41
0.833333
100
AcDbText
  0
LINE
  5
1D5
330
6B
100
AcDbEntity
  8
0
 62
     3
100
AcDbLine
 10
1243.971792
 20
559.65175
 30
0.0
 11
1243.971792
 21
535.9860269999995
 31
0.0
  0
LINE
  5
1D6
330
6B
100
AcDbEntity
  8
0
 62
     3
100
AcDbLine
 10
1243.971792
 20
540.8188889999999
 30
0.0
 11
1260.693467
 21
540.8188889999999
 31
0.0
  0
TEXT
  5
1D7
330
6B
100
AcDbEntity
  8
0
 62
     3
100
AcDbText
 10
1244.558394
 20
541.6353190000002
 30
0.0
 40
3.2
  1
出図コード
 41
0.8356860000000001
100
AcDbText
  0
LINE
  5
1D9
330
6B
100
AcDbEntity
  8
0
 62
     3
100
AcDbLine
 10
1201.089388
 20
545.65175
 30
0.0
 11
1312.39283
 21
545.65175
 31
0.0
  0
LINE
  5
1DB
330
6B
100
AcDbEntity
  8
0
 62
     3
100
AcDbLine
 10
1201.089388
 20
566.65175
 30
0.0
 11
1312.39283
 21
566.65175
 31
0.0
  0
LINE
  5
1E1
330
6B
100
AcDbEntity
  8
0
 62
     3
100
AcDbLine
 10
1201.089388
 20
559.65175
 30
0.0
 11
1260.693467
 21
559.65175
 31
0.0
  0
LINE
  5
1E7
330
6B
100
AcDbEntity
  8
0
 62
     3
100
AcDbLine
 10
1201.089388
 20
552.6517499999998
 30
0.0
 11
1312.39283
 21
552.6517499999998
 31
0.0
  0
TEXT
  5
1E8
330
6B
100
AcDbEntity
  8
0
 62
     3
100
AcDbText
 10
1244.425846
 20
536.5882219999998
 30
0.0
 40
3.2
  1
ZK-A4Y
 41
0.8112849999999999
100
AcDbText
  0
LINE
  5
1E9
330
6B
100
AcDbEntity
  8
0
 62
     3
100
AcDbLine
 10
1132.39283
 20
812.9860269999996
 30
0.0
 11
1132.39283
 21
535.9860269999995
 31
0.0
  0
LINE
  5
1EA
330
6B
100
AcDbEntity
  8
0
 62
     3
100
AcDbLine
 10
1312.39283
 20
535.9860269999995
 30
0.0
 11
1312.39283
 21
812.9860269999996
 31
0.0
  0
LINE
  5
1EB
330
6B
100
AcDbEntity
  8
0
 62
     3
100
AcDbLine
 10
1312.39283
 20
535.9860269999995
 30
0.0
 11
1132.39283
 21
535.9860269999995
 31
0.0
  0
TEXT
  5
1F0
330
6B
100
AcDbEntity
  8
0
 62
     3
100
AcDbText
 10
1202.906785
 20
571.821276
 30
0.0
 40
2.0
  1
CONPONENTS
 41
0.5331600000000001
100
AcDbText
  0
TEXT
  5
1F1
330
6B
100
AcDbEntity
  8
0
 62
     3
100
AcDbText
 10
1202.557058
 20
552.8890989999998
 30
0.0
 40
3.0
  1
材
 41
0.833333
100
AcDbText
  0
TEXT
  5
1F2
330
6B
100
AcDbEntity
  8
0
 62
     3
100
AcDbText
 10
1210.092701
 20
552.8890989999998
 30
0.0
 40
3.0
  1
質
 41
0.833333
100
AcDbText
  0
TEXT
  5
1F3
330
6B
100
AcDbEntity
  8
0
 62
     3
100
AcDbText
 10
1202.645129
 20
563.513624
 30
0.0
 40
2.0
  1
MODEL
 41
1.031072999999999
100
AcDbText
  0
TEXT
  5
1F4
330
6B
100
AcDbEntity
  8
0
 62
     3
100
AcDbText
 10
1202.557058
 20
556.571407
 30
0.0
 40
2.0
  1
MATERIAL
 41
0.659278
100
AcDbText
  0
TEXT
  5
1F5
330
6B
100
AcDbEntity
  8
0
 62
     3
100
AcDbText
 10
1233.864339
 20
552.8890989999998
 30
0.0
 40
3.0
  1
備
 41
0.833333
100
AcDbText
  0
TEXT
  5
1F6
330
6B
100
AcDbEntity
  8
0
 62
     3
100
AcDbText
 10
1240.59734
 20
552.8890989999998
 30
0.0
 40
3.0
  1
考
 41
0.833333
100
AcDbText
  0
TEXT
  5
1F7
330
6B
100
AcDbEntity
  8
0
 62
     3
100
AcDbText
 10
1234.246029074387
 20
556.571407
 30
0.0
 40
2.0
  1
REMARKS
 41
0.675794
100
AcDbText
  0
TEXT
  5
1F8
330
6B
100
AcDbEntity
  8
0
 62
     3
100
AcDbText
 10
1204.146787
 20
549.651286
 30
0.0
 40
2.0
  1
3AD
 41
1.42614
100
AcDbText
  0
TEXT
  5
1F9
330
6B
100
AcDbEntity
  8
0
 62
     3
100
AcDbText
 10
1213.457767
 20
549.81702
 30
0.0
 40
2.0
  1
ANGLE
 41
1.669883999999996
100
AcDbText
  0
TEXT
  5
1FA
330
6B
100
AcDbEntity
  8
0
 62
     3
100
AcDbText
 10
1234.391654
 20
549.440179
 30
0.0
 40
2.0
  1
SCALE
 41
0.7719630000000001
100
AcDbText
  0
TEXT
  5
1FB
330
6B
100
AcDbEntity
  8
0
 62
     3
100
AcDbText
 10
1203.832917
 20
545.65175
 30
0.0
 40
3.0
  1
第
 41
0.833333
100
AcDbText
  0
TEXT
  5
1FC
330
6B
100
AcDbEntity
  8
0
 62
     3
100
AcDbText
 10
1211.619767
 20
545.65175
 30
0.0
 40
3.0
  1
三
 41
0.833333
100
AcDbText
  0
TEXT
  5
1FD
330
6B
100
AcDbEntity
  8
0
 62
     3
100
AcDbText
 10
1219.406617
 20
545.65175
 30
0.0
 40
3.0
  1
角
 41
0.833333
100
AcDbText
  0
TEXT
  5
1FE
330
6B
100
AcDbEntity
  8
0
 62
     3
100
AcDbText
 10
1227.193467
 20
545.65175
 30
0.0
 40
3.0
  1
法
 41
0.833333
100
AcDbText
  0
TEXT
  5
1FF
330
6B
100
AcDbEntity
  8
0
 62
     3
100
AcDbText
 10
1234.254859
 20
545.940179
 30
0.0
 40
3.0
  1
尺
 41
0.833333
100
AcDbText
  0
TEXT
  5
200
330
6B
100
AcDbEntity
  8
0
 62
     3
100
AcDbText
 10
1240.987861
 20
545.940179
 30
0.0
 40
3.0
  1
度
 41
0.833333
100
AcDbText
  0
TEXT
  5
201
330
6B
100
AcDbEntity
  8
0
 62
     3
100
AcDbText
 10
1263.571131
 20
568.1094789999997
 30
0.0
 40
3.0
  1
承認
 41
1.089472999999999
100
AcDbText
  0
TEXT
  5
202
330
6B
100
AcDbEntity
  8
0
 62
     3
100
AcDbText
 10
1276.814011
 20
568.0517499999997
 30
0.0
 40
3.0
  1
検図
 41
0.931761
100
AcDbText
  0
TEXT
  5
203
330
6B
100
AcDbEntity
  8
0
 62
     3
100
AcDbText
 10
1289.814408
 20
568.0517499999997
 30
0.0
 40
3.0
  1
設
 41
0.833333
100
AcDbText
  0
TEXT
  5
204
330
6B
100
AcDbEntity
  8
0
 62
     3
100
AcDbText
 10
1294.304276
 20
568.0517499999997
 30
0.0
 40
3.0
  1
計
 41
0.833333
100
AcDbText
  0
TEXT
  5
205
330
6B
100
AcDbEntity
  8
0
 62
     3
100
AcDbText
 10
1202.838257
 20
567.340506
 30
0.0
 40
3.0
  1
品
 41
0.833333
100
AcDbText
  0
TEXT
  5
206
330
6B
100
AcDbEntity
  8
0
 62
     3
100
AcDbText
 10
1210.373899
 20
567.340506
 30
0.0
 40
3.0
  1
名
 41
0.833333
100
AcDbText
  0
TEXT
  5
207
330
6B
100
AcDbEntity
  8
0
 62
     3
100
AcDbText
 10
1202.645129
 20
559.8813639999998
 30
0.0
 40
3.0
  1
型
 41
0.833333
100
AcDbText
  0
TEXT
  5
208
330
6B
100
AcDbEntity
  8
0
 62
     3
100
AcDbText
 10
1210.193219
 20
559.8813639999998
 30
0.0
 40
3.0
  1
式
 41
0.833333
100
AcDbText
  0
TEXT
  5
212
330
6B
100
AcDbEntity
  8
0
 62
     3
100
AcDbText
 10
1246.840151
 20
553.2047999999998
 30
0.0
 40
3.2
  1
交換球
  7
高3.2
100
AcDbText
  0
LINE
  5
227
330
6B
100
AcDbEntity
  8
0
 62
     3
100
AcDbLine
 10
1286.693467
 20
575.65175
 30
0.0
 11
1286.693467
 21
581.6517499999998
 31
0.0
  0
LINE
  5
228
330
6B
100
AcDbEntity
  8
0
 62
     3
100
AcDbLine
 10
1260.693467
 20
575.65175
 30
0.0
 11
1260.693467
 21
581.6517499999998
 31
0.0
  0
LINE
  5
229
330
6B
100
AcDbEntity
  8
0
 62
     3
100
AcDbLine
 10
1312.392831
 20
581.6517499999998
 30
0.0
 11
1260.693467
 21
581.6517499999998
 31
0.0
  0
TEXT
  5
22A
330
6B
100
AcDbEntity
  8
0
 62
     3
100
AcDbText
 10
1266.689065
 20
576.448099
 30
0.0
 40
4.5
  1
コード
  7
高4.5
100
AcDbText
  0
TEXT
  5
22D
330
6B
100
AcDbEntity
  8
0
 62
     3
100
AcDbText
 10
1227.729096263994
 20
567.2041669999997
 30
0.0
 40
4.5
  1
レフ球
  7
高4.5
100
AcDbText
  0
TEXT
  5
22E
330
6B
100
AcDbEntity
  8
0
 62
     3
100
AcDbText
 10
1248.316261073614
 20
546.5397469999998
 30
0.0
 40
3.2
  1
1/2
  7
高3.2
100
AcDbText
  0
TEXT
  5
22F
330
6B
100
AcDbEntity
  8
0
 62
     3
100
AcDbText
 10
1277.277016
 20
546.426166
 30
0.0
 40
3.2
  1
2008.09.04
  7
高3.2
100
AcDbText
  0
TEXT
  5
23A
330
6B
100
AcDbEntity
  8
0
 62
     3
100
AcDbText
 10
1216.415882
 20
560.0346929999998
 30
0.0
 40
4.5
  1
NRF-300-220V
 41
0.8
  7
高4.5
100
AcDbText
  0
TEXT
  5
23B
330
6B
100
AcDbEntity
  8
0
 62
     3
100
AcDbText
 10
1264.426388574888
 20
537.0853969883096
 30
0.0
 40
6.299999999999998
  1
NRF-300-220V
 41
0.6
  7
高6.3
100
AcDbText
  0
TEXT
  5
23D
330
6B
100
AcDbEntity
  8
0
 62
     3
100
AcDbText
 10
1291.916934691518
 20
576.295887
 30
0.0
 40
4.5
  1
8218
  7
高4.5
100
AcDbText
  0
LINE
  5
648
330
6B
100
AcDbEntity
  8
0
 62
     3
100
AcDbLine
 10
1169.47718202
 20
814.7734710999996
 30
0.0
 11
1169.91292993
 21
814.5460029599997
 31
0.0
  0
LINE
  5
649
330
6B
100
AcDbEntity
  8
0
 62
     3
100
AcDbLine
 10
1169.47718202
 20
811.0428406199996
 30
0.0
 11
1169.91292993
 21
811.2703087599996
 31
0.0
  0
LINE
  5
64A
330
6B
100
AcDbEntity
  8
0
 62
     3
100
AcDbLine
 10
1169.91292993
 20
814.5460029599997
 30
0.0
 11
1169.91292993
 21
811.2703087599996
 31
0.0
  0
LINE
  5
64B
330
6B
100
AcDbEntity
  8
0
 62
     3
100
AcDbLine
 10
1171.01644735
 20
811.0428406199996
 30
0.0
 11
1170.58069944
 21
811.2703087599996
 31
0.0
  0
LINE
  5
64C
330
6B
100
AcDbEntity
  8
0
 62
     3
100
AcDbLine
 10
1170.58069944
 20
813.2671675699997
 30
0.0
 11
1170.58069944
 21
811.2703087599996
 31
0.0
  0
LINE
  5
64D
330
6B
100
AcDbEntity
  8
0
 62
     3
100
AcDbLine
 10
1173.55831013
 20
814.7734710999996
 30
0.0
 11
1173.12256222
 21
814.5460029599997
 31
0.0
  0
LINE
  5
64E
330
6B
100
AcDbEntity
  8
0
 62
     3
100
AcDbLine
 10
1172.0190448
 20
814.7734710999996
 30
0.0
 11
1172.45479271
 21
814.5460029599997
 31
0.0
  0
LINE
  5
64F
330
6B
100
AcDbEntity
  8
0
 62
     3
100
AcDbLine
 10
1172.45479271
 20
814.5460029599997
 30
0.0
 11
1172.45479271
 21
813.1036658999997
 31
0.0
  0
LINE
  5
650
330
6B
100
AcDbEntity
  8
0
 62
     3
100
AcDbLine
 10
1173.12256222
 20
814.5460029599997
 30
0.0
 11
1173.12256222
 21
810.8312794799996
 31
0.0
  0
LINE
  5
651
330
6B
100
AcDbEntity
  8
0
 62
     3
100
AcDbLine
 10
1173.77360733
 20
814.7734684699996
 30
0.0
 11
1174.20935367
 21
814.5459973299997
 31
0.0
  0
LINE
  5
652
330
6B
100
AcDbEntity
  8
0
 62
     3
100
AcDbLine
 10
1173.77352936
 20
811.0428905999999
 30
0.0
 11
1174.20928521
 21
811.2703435199996
 31
0.0
  0
LINE
  5
653
330
6B
100
AcDbEntity
  8
0
 62
     3
100
AcDbLine
 10
1174.20935367
 20
814.5459973299997
 30
0.0
 11
1174.20935367
 21
811.2703435199996
 31
0.0
  0
LINE
  5
654
330
6B
100
AcDbEntity
  8
0
 62
     3
100
AcDbLine
 10
1175.70314373
 20
814.7734447999996
 30
0.0
 11
1175.26739264
 21
814.5459827699996
 31
0.0
  0
LINE
  5
655
330
6B
100
AcDbEntity
  8
0
 62
     3
100
AcDbLine
 10
1175.26739264
 20
814.5459827699996
 30
0.0
 11
1175.26739264
 21
811.2703289499997
 31
0.0
  0
LINE
  5
656
330
6B
100
AcDbEntity
  8
0
 62
     3
100
AcDbLine
 10
1175.70314373
 20
811.0428669199999
 30
0.0
 11
1175.26739264
 21
811.2703289499997
 31
0.0
  0
LINE
  5
657
330
6B
100
AcDbEntity
  8
0
 62
     3
100
AcDbLine
 10
1179.39339717
 20
814.7734037999995
 30
0.0
 11
1179.82914429
 21
814.5459341599996
 31
0.0
  0
LINE
  5
658
330
6B
100
AcDbEntity
  8
0
 62
     3
100
AcDbLine
 10
1179.82914429
 20
814.5459341599996
 30
0.0
 11
1179.82908712
 21
811.2702803499995
 31
0.0
  0
LINE
  5
659
330
6B
100
AcDbEntity
  8
0
 62
     3
100
AcDbLine
 10
1179.39333206
 20
811.0428259199997
 30
0.0
 11
1179.82908712
 21
811.2702803499995
 31
0.0
  0
LINE
  5
65A
330
6B
100
AcDbEntity
  8
0
 62
     3
100
AcDbLine
 10
1181.34565813
 20
814.7734037999995
 30
0.0
 11
1180.90991101
 21
814.5459341599996
 31
0.0
  0
LINE
  5
65B
330
6B
100
AcDbEntity
  8
0
 62
     3
100
AcDbLine
 10
1181.34572324
 20
811.0428259199997
 30
0.0
 11
1180.90996818
 21
811.2702803499995
 31
0.0
  0
LINE
  5
65C
330
6B
100
AcDbEntity
  8
0
 62
     3
100
AcDbLine
 10
1181.54938599
 20
814.7734037999995
 30
0.0
 11
1181.98513312
 21
814.5459341599996
 31
0.0
  0
LINE
  5
65D
330
6B
100
AcDbEntity
  8
0
 62
     3
100
AcDbLine
 10
1181.54932088
 20
811.0428259199997
 30
0.0
 11
1181.98507594
 21
811.2702803499995
 31
0.0
  0
LINE
  5
65E
330
6B
100
AcDbEntity
  8
0
 62
     3
100
AcDbLine
 10
1183.501646959999
 20
814.7734037999995
 30
0.0
 11
1183.06589984
 21
814.5459341599996
 31
0.0
  0
LINE
  5
65F
330
6B
100
AcDbEntity
  8
0
 62
     3
100
AcDbLine
 10
1183.06589984
 20
814.5459341599996
 30
0.0
 11
1183.06595701
 21
811.2702803499995
 31
0.0
  0
LINE
  5
660
330
6B
100
AcDbEntity
  8
0
 62
     3
100
AcDbLine
 10
1183.50171207
 20
811.0428259199997
 30
0.0
 11
1183.06595701
 21
811.2702803499995
 31
0.0
  0
LINE
  5
661
330
6B
100
AcDbEntity
  8
0
 62
     3
100
AcDbLine
 10
1181.98510821
 20
813.1188010399997
 30
0.0
 11
1180.90993592
 21
813.1188010399997
 31
0.0
  0
LINE
  5
662
330
6B
100
AcDbEntity
  8
0
 62
     3
100
AcDbLine
 10
1181.985100849999
 20
812.6975106799998
 30
0.0
 11
1180.90994327
 21
812.6975106799998
 31
0.0
  0
LINE
  5
663
330
6B
100
AcDbEntity
  8
0
 62
     3
100
AcDbLine
 10
1181.98513312
 20
814.5459341599996
 30
0.0
 11
1181.98510821
 21
813.1188010399997
 31
0.0
  0
LINE
  5
664
330
6B
100
AcDbEntity
  8
0
 62
     3
100
AcDbLine
 10
1181.985100849999
 20
812.6975106799998
 30
0.0
 11
1181.98507594
 21
811.2702803499995
 31
0.0
  0
LINE
  5
665
330
6B
100
AcDbEntity
  8
0
 62
     3
100
AcDbLine
 10
1180.90991101
 20
814.5459341599996
 30
0.0
 11
1180.90993592
 21
813.1188010399997
 31
0.0
  0
LINE
  5
666
330
6B
100
AcDbEntity
  8
0
 62
     3
100
AcDbLine
 10
1180.90994327
 20
812.6975106799998
 30
0.0
 11
1180.90996818
 21
811.2702803499995
 31
0.0
  0
LINE
  5
667
330
6B
100
AcDbEntity
  8
0
 62
     3
100
AcDbLine
 10
1183.70860608
 20
814.7734037999995
 30
0.0
 11
1184.144353199999
 21
814.5459341599996
 31
0.0
  0
LINE
  5
668
330
6B
100
AcDbEntity
  8
0
 62
     3
100
AcDbLine
 10
1184.144353199999
 20
814.5459341599996
 30
0.0
 11
1184.14429603
 21
811.2702803499995
 31
0.0
  0
LINE
  5
669
330
6B
100
AcDbEntity
  8
0
 62
     3
100
AcDbLine
 10
1183.70854097
 20
811.0428259199997
 30
0.0
 11
1184.14429603
 21
811.2702803499995
 31
0.0
  0
LINE
  5
66A
330
6B
100
AcDbEntity
  8
0
 62
     3
100
AcDbLine
 10
1185.63811635
 20
814.7734037999995
 30
0.0
 11
1185.20236923
 21
814.5459341599996
 31
0.0
  0
LINE
  5
66B
330
6B
100
AcDbEntity
  8
0
 62
     3
100
AcDbLine
 10
1185.20236923
 20
814.5459341599996
 30
0.0
 11
1185.2024264
 21
811.2702803499995
 31
0.0
  0
LINE
  5
66C
330
6B
100
AcDbEntity
  8
0
 62
     3
100
AcDbLine
 10
1185.63818146
 20
811.0428259199997
 30
0.0
 11
1185.2024264
 21
811.2702803499995
 31
0.0
  0
LINE
  5
66D
330
6B
100
AcDbEntity
  8
0
 62
     3
100
AcDbLine
 10
1185.85247592
 20
814.7734037999995
 30
0.0
 11
1186.28822304
 21
814.5459341599996
 31
0.0
  0
LINE
  5
66E
330
6B
100
AcDbEntity
  8
0
 62
     3
100
AcDbLine
 10
1186.28822304
 20
814.5459341599996
 30
0.0
 11
1186.28816587
 21
811.2702803499995
 31
0.0
  0
LINE
  5
66F
330
6B
100
AcDbEntity
  8
0
 62
     3
100
AcDbLine
 10
1185.852410809999
 20
811.0428259199997
 30
0.0
 11
1186.28816587
 21
811.2702803499995
 31
0.0
  0
ARC
  5
670
330
6B
100
AcDbEntity
  8
0
 62
     3
100
AcDbCircle
 10
1178.0014859
 20
812.9175456199996
 30
0.0
 40
2.086285909999999
100
AcDbArc
 50
97.70152350999723
 51
270.0
  0
ARC
  5
671
330
6B
100
AcDbEntity
  8
0
 62
     3
100
AcDbCircle
 10
1190.88208674
 20
812.8965889899998
 30
0.0
 40
2.108943379999999
100
AcDbArc
 50
0.3142502700074235
 51
69.00558244998835
  0
ARC
  5
672
330
6B
100
AcDbEntity
  8
0
 62
     3
100
AcDbCircle
 10
1191.34276206
 20
812.8965889899998
 30
0.0
 40
2.108943379999999
100
AcDbArc
 50
110.9944175499969
 51
148.1166110200025
  0
ARC
  5
673
330
6B
100
AcDbEntity
  8
0
 62
     3
100
AcDbCircle
 10
1190.88208674
 20
812.9197227299997
 30
0.0
 40
2.108943379999999
100
AcDbArc
 50
290.9944175499969
 51
359.6857497299926
  0
ARC
  5
674
330
6B
100
AcDbEntity
  8
0
 62
     3
100
AcDbCircle
 10
1191.34276206
 20
812.9197227299997
 30
0.0
 40
2.108943379999999
100
AcDbArc
 50
211.8833889799973
 51
249.0055824499884
  0
ARC
  5
675
330
6B
100
AcDbEntity
  8
0
 62
     3
100
AcDbCircle
 10
1191.1124244
 20
813.7709612499996
 30
0.0
 40
1.214070989999997
100
AcDbArc
 50
64.36517190000066
 51
115.6348280999993
  0
ARC
  5
676
330
6B
100
AcDbEntity
  8
0
 62
     3
100
AcDbCircle
 10
1191.1124244
 20
812.0453504699996
 30
0.0
 40
1.214070989999997
100
AcDbArc
 50
244.3651719000007
 51
295.6348280999993
  0
ARC
  5
677
330
6B
100
AcDbEntity
  8
0
 62
     3
100
AcDbCircle
 10
1191.1124244
 20
813.7940229299996
 30
0.0
 40
0.59585563
100
AcDbArc
 50
19.48660554000642
 51
160.5133944599935
  0
ARC
  5
678
330
6B
100
AcDbEntity
  8
0
 62
     3
100
AcDbCircle
 10
1191.1124244
 20
812.0453504699996
 30
0.0
 40
1.214070989999997
100
AcDbArc
 50
244.3651719000007
 51
295.6348280999993
  0
ARC
  5
679
330
6B
100
AcDbEntity
  8
0
 62
     3
100
AcDbCircle
 10
1191.1124244
 20
812.0222887899997
 30
0.0
 40
0.59585563
100
AcDbArc
 50
199.4866055400056
 51
340.5133944599935
  0
ARC
  5
67A
330
6B
100
AcDbEntity
  8
0
 62
     3
100
AcDbCircle
 10
1186.3699519
 20
790.6800960199997
 30
0.0
 40
26.04
100
AcDbArc
 50
69.50571480000848
 51
81.68998806999741
  0
ARC
  5
67B
330
6B
100
AcDbEntity
  8
0
 62
     3
100
AcDbCircle
 10
1186.3699519
 20
835.1362156999996
 30
0.0
 40
26.04
100
AcDbArc
 50
278.3100119300026
 51
290.4942851999915
  0
ARC
  5
67C
330
6B
100
AcDbEntity
  8
0
 62
     3
100
AcDbCircle
 10
1194.67815603
 20
812.9081558599997
 30
0.0
 40
2.31
100
AcDbArc
 50
290.4942851999915
 51
69.50571480000848
  0
ARC
  5
67D
330
6B
100
AcDbEntity
  8
0
 62
     3
100
AcDbCircle
 10
1167.37815603
 20
812.9081558599997
 30
0.0
 40
2.31
100
AcDbArc
 50
110.4942851999915
 51
249.5057147999946
  0
ARC
  5
67E
330
6B
100
AcDbEntity
  8
0
 62
     3
100
AcDbCircle
 10
1175.68636015
 20
790.6800960199997
 30
0.0
 40
26.04
100
AcDbArc
 50
98.31001192998948
 51
110.4942851999915
  0
ARC
  5
67F
330
6B
100
AcDbEntity
  8
0
 62
     3
100
AcDbCircle
 10
1175.68636015
 20
835.1362156999996
 30
0.0
 40
26.04
100
AcDbArc
 50
249.5057147999946
 51
261.6899880699974
  0
ARC
  5
680
330
6B
100
AcDbEntity
  8
0
 62
     3
100
AcDbCircle
 10
1181.028156029999
 20
754.1081558599996
 30
0.0
 40
62.99999987
100
AcDbArc
 50
81.68998806999741
 51
98.31001192998948
  0
ARC
  5
681
330
6B
100
AcDbEntity
  8
0
 62
     3
100
AcDbCircle
 10
1181.028156029999
 20
871.7081558599996
 30
0.0
 40
62.99999987
100
AcDbArc
 50
261.6899880699974
 51
278.3100119300026
  0
ARC
  5
682
330
6B
100
AcDbEntity
  8
0
 62
     3
100
AcDbCircle
 10
1181.028156029999
 20
754.1081558599996
 30
0.0
 40
62.36999987
100
AcDbArc
 50
81.68998806999741
 51
98.31001192998948
  0
ARC
  5
683
330
6B
100
AcDbEntity
  8
0
 62
     3
100
AcDbCircle
 10
1181.028156029999
 20
871.7081558599996
 30
0.0
 40
62.36999987
100
AcDbArc
 50
261.6899880699974
 51
278.3100119300026
  0
ARC
  5
684
330
6B
100
AcDbEntity
  8
0
 62
     3
100
AcDbCircle
 10
1186.3699519
 20
835.1362156999996
 30
0.0
 40
25.41
100
AcDbArc
 50
278.3100119300026
 51
290.4942851999915
  0
ARC
  5
685
330
6B
100
AcDbEntity
  8
0
 62
     3
100
AcDbCircle
 10
1186.3699519
 20
790.6800960199997
 30
0.0
 40
25.41
100
AcDbArc
 50
69.50571480000848
 51
81.68998806999741
  0
ARC
  5
686
330
6B
100
AcDbEntity
  8
0
 62
     3
100
AcDbCircle
 10
1194.67815603
 20
812.9081558599997
 30
0.0
 40
1.679999999999999
100
AcDbArc
 50
290.4942851999915
 51
69.50571480000848
  0
ARC
  5
687
330
6B
100
AcDbEntity
  8
0
 62
     3
100
AcDbCircle
 10
1167.37815603
 20
812.9081558599997
 30
0.0
 40
1.679999999999999
100
AcDbArc
 50
110.4942851999915
 51
249.5057147999946
  0
ARC
  5
688
330
6B
100
AcDbEntity
  8
0
 62
     3
100
AcDbCircle
 10
1175.68636015
 20
790.6800960199997
 30
0.0
 40
25.41
100
AcDbArc
 50
98.31001192998948
 51
110.4942851999915
  0
ARC
  5
689
330
6B
100
AcDbEntity
  8
0
 62
     3
100
AcDbCircle
 10
1175.68636015
 20
835.1362156999996
 30
0.0
 40
25.41
100
AcDbArc
 50
249.5057147999946
 51
261.6899880699974
  0
LINE
  5
68A
330
6B
100
AcDbEntity
  8
0
 62
     3
100
AcDbLine
 10
1185.63811713
 20
810.8312794799996
 30
0.0
 11
1183.7086053
 21
810.8312794799996
 31
0.0
  0
LINE
  5
68B
330
6B
100
AcDbEntity
  8
0
 62
     3
100
AcDbLine
 10
1185.63811713
 20
811.0428406199996
 30
0.0
 11
1185.63811713
 21
810.8312794799996
 31
0.0
  0
LINE
  5
68C
330
6B
100
AcDbEntity
  8
0
 62
     3
100
AcDbLine
 10
1183.50164774
 20
814.9849335199997
 30
0.0
 11
1181.54938521
 21
814.9849335199997
 31
0.0
  0
LINE
  5
68D
330
6B
100
AcDbEntity
  8
0
 62
     3
100
AcDbLine
 10
1183.50164774
 20
814.9849335199997
 30
0.0
 11
1183.50164774
 21
814.7734710999996
 31
0.0
  0
LINE
  5
68E
330
6B
100
AcDbEntity
  8
0
 62
     3
100
AcDbLine
 10
1183.50164774
 20
811.0428406199996
 30
0.0
 11
1183.50164774
 21
810.8311807699998
 31
0.0
  0
LINE
  5
68F
330
6B
100
AcDbEntity
  8
0
 62
     3
100
AcDbLine
 10
1183.50164774
 20
810.8311807699998
 30
0.0
 11
1181.54938521
 21
810.8311807699998
 31
0.0
  0
LINE
  5
690
330
6B
100
AcDbEntity
  8
0
 62
     3
100
AcDbLine
 10
1185.63811713
 20
814.9850322399997
 30
0.0
 11
1185.63811713
 21
814.7734710999996
 31
0.0
  0
LINE
  5
691
330
6B
100
AcDbEntity
  8
0
 62
     3
100
AcDbLine
 10
1185.63811713
 20
814.9850322399997
 30
0.0
 11
1183.7086053
 21
814.9850322399997
 31
0.0
  0
LINE
  5
692
330
6B
100
AcDbEntity
  8
0
 62
     3
100
AcDbLine
 10
1183.7086053
 20
814.9850322399997
 30
0.0
 11
1183.7086053
 21
814.7734710999996
 31
0.0
  0
LINE
  5
693
330
6B
100
AcDbEntity
  8
0
 62
     3
100
AcDbLine
 10
1185.85247513
 20
811.0428406199996
 30
0.0
 11
1185.85247513
 21
810.8312794799996
 31
0.0
  0
LINE
  5
694
330
6B
100
AcDbEntity
  8
0
 62
     3
100
AcDbLine
 10
1187.83677569
 20
810.8312794799996
 30
0.0
 11
1185.85247513
 21
810.8312794799996
 31
0.0
  0
LINE
  5
695
330
6B
100
AcDbEntity
  8
0
 62
     3
100
AcDbLine
 10
1187.34623906
 20
814.3172627199996
 30
0.0
 11
1187.34623906
 21
811.4990489999996
 31
0.0
  0
LINE
  5
696
330
6B
100
AcDbEntity
  8
0
 62
     3
100
AcDbLine
 10
1187.34623906
 20
811.4990489999996
 30
0.0
 11
1187.53628803
 21
811.4990489999996
 31
0.0
  0
ARC
  5
697
330
6B
100
AcDbEntity
  8
0
 62
     3
100
AcDbCircle
 10
1186.56450229
 20
812.9081558599997
 30
0.0
 40
1.71170957
100
AcDbArc
 50
304.5919552700034
 51
55.40804472999656
  0
LINE
  5
698
330
6B
100
AcDbEntity
  8
0
 62
     3
100
AcDbLine
 10
1187.83677569
 20
814.9850322399997
 30
0.0
 11
1185.85247513
 21
814.9850322399997
 31
0.0
  0
LINE
  5
699
330
6B
100
AcDbEntity
  8
0
 62
     3
100
AcDbLine
 10
1185.85247513
 20
814.9850322399997
 30
0.0
 11
1185.85247513
 21
814.7734710999996
 31
0.0
  0
LINE
  5
69A
330
6B
100
AcDbEntity
  8
0
 62
     3
100
AcDbLine
 10
1183.7086053
 20
811.0428406199996
 30
0.0
 11
1183.7086053
 21
810.8312794799996
 31
0.0
  0
LINE
  5
69B
330
6B
100
AcDbEntity
  8
0
 62
     3
100
AcDbLine
 10
1187.34623906
 20
814.3172627199996
 30
0.0
 11
1187.53628803
 21
814.3172627199996
 31
0.0
  0
LINE
  5
69C
330
6B
100
AcDbEntity
  8
0
 62
     3
100
AcDbLine
 10
1175.7030794
 20
811.0428406199996
 30
0.0
 11
1175.70307571
 21
810.8312597099997
 31
0.0
  0
LINE
  5
69D
330
6B
100
AcDbEntity
  8
0
 62
     3
100
AcDbLine
 10
1173.77356387
 20
810.8312992499996
 30
0.0
 11
1175.70307571
 21
810.8312655799997
 31
0.0
  0
LINE
  5
69E
330
6B
100
AcDbEntity
  8
0
 62
     3
100
AcDbLine
 10
1169.47718202
 20
810.8312794799996
 30
0.0
 11
1171.01644735
 21
810.8312794799996
 31
0.0
  0
ARC
  5
69F
330
6B
100
AcDbEntity
  8
0
 62
     3
100
AcDbCircle
 10
1164.49523934
 20
812.9570624799995
 30
0.0
 40
14.71356563
100
AcDbArc
 50
353.8660061899952
 51
357.6940342600066
  0
LINE
  5
6A0
330
6B
100
AcDbEntity
  8
0
 62
     3
100
AcDbLine
 10
1178.2118192
 20
812.3686948299996
 30
0.0
 11
1179.19689009
 21
812.3650499499998
 31
0.0
  0
LINE
  5
6A2
330
6B
100
AcDbEntity
  8
0
 62
     3
100
AcDbLine
 10
1178.21579762
 20
813.4439095699999
 30
0.0
 11
1179.2008685
 21
813.4402646999998
 31
0.0
  0
ARC
  5
6A3
330
6B
100
AcDbEntity
  8
0
 62
     3
100
AcDbCircle
 10
1164.49523934
 20
812.9570624799995
 30
0.0
 40
14.71356563
100
AcDbArc
 50
1.881965739991514
 51
5.709993809993822
  0
LINE
  5
6A4
330
6B
100
AcDbEntity
  8
0
 62
     3
100
AcDbLine
 10
1175.7031482
 20
814.9850124699996
 30
0.0
 11
1175.70314451
 21
814.7734710999996
 31
0.0
  0
LINE
  5
6A5
330
6B
100
AcDbEntity
  8
0
 62
     3
100
AcDbLine
 10
1173.773636369999
 20
814.9850520099997
 30
0.0
 11
1175.7031482
 21
814.9850183299996
 31
0.0
  0
LINE
  5
6A6
330
6B
100
AcDbEntity
  8
0
 62
     3
100
AcDbLine
 10
1173.77356756
 20
811.0428406199996
 30
0.0
 11
1173.77356387
 21
810.8312992499996
 31
0.0
  0
LINE
  5
6A7
330
6B
100
AcDbEntity
  8
0
 62
     3
100
AcDbLine
 10
1173.773636369999
 20
814.9850520099997
 30
0.0
 11
1173.77363268
 21
814.7734710999996
 31
0.0
  0
LINE
  5
6A8
330
6B
100
AcDbEntity
  8
0
 62
     3
100
AcDbLine
 10
1171.01644735
 20
811.0428406199996
 30
0.0
 11
1171.01644735
 21
810.8312794799996
 31
0.0
  0
LINE
  5
6A9
330
6B
100
AcDbEntity
  8
0
 62
     3
100
AcDbLine
 10
1170.58069944
 20
813.2671675699997
 30
0.0
 11
1172.1031295
 21
810.8312794799996
 31
0.0
  0
LINE
  5
6AA
330
6B
100
AcDbEntity
  8
0
 62
     3
100
AcDbLine
 10
1172.1031295
 20
810.8312794799996
 30
0.0
 11
1173.12256222
 21
810.8312794799996
 31
0.0
  0
LINE
  5
6AB
330
6B
100
AcDbEntity
  8
0
 62
     3
100
AcDbLine
 10
1173.55831013
 20
814.9850322399997
 30
0.0
 11
1173.55831013
 21
814.7734710999996
 31
0.0
  0
LINE
  5
6AC
330
6B
100
AcDbEntity
  8
0
 62
     3
100
AcDbLine
 10
1172.0190448
 20
814.9850322399997
 30
0.0
 11
1173.55831013
 21
814.9850322399997
 31
0.0
  0
LINE
  5
6AD
330
6B
100
AcDbEntity
  8
0
 62
     3
100
AcDbLine
 10
1172.0190448
 20
814.9850322399997
 30
0.0
 11
1172.0190448
 21
814.7734710999996
 31
0.0
  0
LINE
  5
6AE
330
6B
100
AcDbEntity
  8
0
 62
     3
100
AcDbLine
 10
1172.45479271
 20
813.1036658999997
 30
0.0
 11
1171.22014604
 21
814.9850322399997
 31
0.0
  0
LINE
  5
6AF
330
6B
100
AcDbEntity
  8
0
 62
     3
100
AcDbLine
 10
1169.47718202
 20
814.9850322399997
 30
0.0
 11
1171.22014604
 21
814.9850322399997
 31
0.0
  0
LINE
  5
6B0
330
6B
100
AcDbEntity
  8
0
 62
     3
100
AcDbLine
 10
1179.39339638
 20
814.9849335199997
 30
0.0
 11
1181.345658919999
 21
814.9849335199997
 31
0.0
  0
LINE
  5
6B1
330
6B
100
AcDbEntity
  8
0
 62
     3
100
AcDbLine
 10
1179.39339638
 20
814.7734710999996
 30
0.0
 11
1179.39339638
 21
814.9849335199997
 31
0.0
  0
LINE
  5
6B2
330
6B
100
AcDbEntity
  8
0
 62
     3
100
AcDbLine
 10
1179.39339638
 20
810.8311807699998
 30
0.0
 11
1179.39339638
 21
811.0428406199996
 31
0.0
  0
LINE
  5
6B3
330
6B
100
AcDbEntity
  8
0
 62
     3
100
AcDbLine
 10
1179.39339638
 20
810.8311807699998
 30
0.0
 11
1181.345658919999
 21
810.8311807699998
 31
0.0
  0
LINE
  5
6B4
330
6B
100
AcDbEntity
  8
0
 62
     3
100
AcDbLine
 10
1181.54938521
 20
811.0428406199996
 30
0.0
 11
1181.54938521
 21
810.8311807699998
 31
0.0
  0
LINE
  5
6B5
330
6B
100
AcDbEntity
  8
0
 62
     3
100
AcDbLine
 10
1181.345658919999
 20
811.0428406199996
 30
0.0
 11
1181.345658919999
 21
810.8311807699998
 31
0.0
  0
LINE
  5
6B6
330
6B
100
AcDbEntity
  8
0
 62
     3
100
AcDbLine
 10
1181.345658919999
 20
814.7734710999996
 30
0.0
 11
1181.345658919999
 21
814.9849335199997
 31
0.0
  0
LINE
  5
6B7
330
6B
100
AcDbEntity
  8
0
 62
     3
100
AcDbLine
 10
1181.54938521
 20
814.7734710999996
 30
0.0
 11
1181.54938521
 21
814.9849335199997
 31
0.0
  0
LINE
  5
6B8
330
6B
100
AcDbEntity
  8
0
 62
     3
100
AcDbLine
 10
1169.47718202
 20
811.0428406199996
 30
0.0
 11
1169.47718202
 21
810.8312794799996
 31
0.0
  0
LINE
  5
6B9
330
6B
100
AcDbEntity
  8
0
 62
     3
100
AcDbLine
 10
1169.47718202
 20
814.9850322399997
 30
0.0
 11
1169.47718202
 21
814.7734710999996
 31
0.0
  0
ARC
  5
6BA
330
6B
100
AcDbEntity
  8
0
 62
     3
100
AcDbCircle
 10
1188.04677569
 20
813.3439037699996
 30
0.0
 40
1.641128469999999
100
AcDbArc
 50
17.30874897999595
 51
23.76507095999297
  0
ARC
  5
6BB
330
6B
100
AcDbEntity
  8
0
 62
     3
100
AcDbCircle
 10
1186.64850229
 20
812.9081558599997
 30
0.0
 40
3.105725599999998
100
AcDbArc
 50
342.6912510200041
 51
17.30856643999277
  0
ARC
  5
6BC
330
6B
100
AcDbEntity
  8
0
 62
     3
100
AcDbCircle
 10
1188.04677569
 20
812.4724079599996
 30
0.0
 40
1.641128469999999
100
AcDbArc
 50
336.2349290400072
 51
342.6912510200041
  0
ARC
  5
6BD
330
6B
100
AcDbEntity
  8
0
 62
     3
100
AcDbCircle
 10
1187.83677569
 20
813.3439037699996
 30
0.0
 40
1.641128469999999
100
AcDbArc
 50
17.30874897999595
 51
90.0
  0
ARC
  5
6BE
330
6B
100
AcDbEntity
  8
0
 62
     3
100
AcDbCircle
 10
1186.43850229
 20
812.9081558599997
 30
0.0
 40
3.105725599999998
100
AcDbArc
 50
342.6912510200041
 51
17.30856643999277
  0
ARC
  5
6BF
330
6B
100
AcDbEntity
  8
0
 62
     3
100
AcDbCircle
 10
1187.83677569
 20
812.4724079599996
 30
0.0
 40
1.641128469999999
100
AcDbArc
 50
270.0
 51
342.6912510200041
  0
ARC
  5
6C0
330
6B
100
AcDbEntity
  8
0
 62
     3
100
AcDbCircle
 10
1177.71283532
 20
812.9081558599997
 30
0.0
 40
2.076876379999998
100
AcDbArc
 50
46.75287960999258
 51
89.74999828999569
  0
ARC
  5
6C1
330
6B
100
AcDbEntity
  8
0
 62
     3
100
AcDbCircle
 10
1177.71283532
 20
812.9081558599997
 30
0.0
 40
2.076876379999998
100
AcDbArc
 50
273.976333149997
 51
312.8231203899968
  0
ARC
  5
6C2
330
6B
100
AcDbEntity
  8
0
 62
     3
100
AcDbCircle
 10
1189.15464326
 20
812.8760943299996
 30
0.0
 40
2.755888999999998
100
AcDbArc
 50
0.6665840599916529
 51
23.90392827000101
  0
ARC
  5
6C3
330
6B
100
AcDbEntity
  8
0
 62
     3
100
AcDbCircle
 10
1193.07020554
 20
812.8760943299996
 30
0.0
 40
2.755888999999998
100
AcDbArc
 50
156.096071729999
 51
179.3334159400083
  0
ARC
  5
6C4
330
6B
100
AcDbEntity
  8
0
 62
     3
100
AcDbCircle
 10
1189.15464326
 20
812.9402173899999
 30
0.0
 40
2.755888999999998
100
AcDbArc
 50
336.096071729999
 51
359.3334159400084
  0
ARC
  5
6C5
330
6B
100
AcDbEntity
  8
0
 62
     3
100
AcDbCircle
 10
1193.07020554
 20
812.9402173899999
 30
0.0
 40
2.755888999999998
100
AcDbArc
 50
180.6665840599917
 51
203.903928270001
  0
LINE
  5
6C6
330
6B
100
AcDbEntity
  8
0
 62
     3
100
AcDbLine
 10
1197.72049263
 20
812.9860269999996
 30
0.0
 11
1312.39283
 21
812.9860269999996
 31
0.0
  0
LINE
  5
6C7
330
6B
100
AcDbEntity
  8
0
 62
     3
100
AcDbLine
 10
1164.30774611
 20
812.9860269999996
 30
0.0
 11
1132.39283
 21
812.9860269999996
 31
0.0
  0
TEXT
  5
6C8
330
6B
100
AcDbEntity
  8
0
 62
     3
100
AcDbText
 10
1299.89283
 20
803.4860269999997
 30
0.0
 40
3.2
  1
担　当
  7
高3.2
100
AcDbText
  0
TEXT
  5
6C9
330
6B
100
AcDbEntity
  8
0
 62
     3
100
AcDbText
 10
1255.89283
 20
803.4860269999997
 30
0.0
 40
3.2
  1
変更・追記内容
  7
高3.2
100
AcDbText
  0
TEXT
  5
6CA
330
6B
100
AcDbEntity
  8
0
 62
     3
100
AcDbText
 10
1231.006345000339
 20
798.8154884900915
 30
0.0
 40
2.0
  1
1
  7
高2
100
AcDbText
  0
TEXT
  5
6CB
330
6B
100
AcDbEntity
  8
0
 62
     3
100
AcDbText
 10
1230.697833523582
 20
793.6456717778185
 30
0.0
 40
2.0
  1
2
  7
高2
100
AcDbText
  0
TEXT
  5
6CC
330
6B
100
AcDbEntity
  8
0
 62
     3
100
AcDbText
 10
1237.89283
 20
803.4860269999997
 30
0.0
 40
3.2
  1
日　付
  7
高3.2
100
AcDbText
  0
TEXT
  5
6CD
330
6B
100
AcDbEntity
  8
0
 62
     3
100
AcDbText
 10
1237.89283
 20
808.4860269999996
 30
0.0
 40
3.2
  1
図　　　　面　　　　略　　　　歴
  7
高3.2
100
AcDbText
  0
TEXT
  5
6CE
330
6B
100
AcDbEntity
  8
0
 62
     3
100
AcDbText
 10
1227.89283
 20
803.4860269999997
 30
0.0
 40
3.2
  1
記号
  7
高3.2
100
AcDbText
  0
LINE
  5
6CF
330
6B
100
AcDbEntity
  8
0
 62
     7
100
AcDbLine
 10
1231.39283
 20
796.7769229999999
 30
0.0
 11
1229.49283
 21
793.4860269999997
 31
0.0
  0
LINE
  5
6D0
330
6B
100
AcDbEntity
  8
0
 62
     7
100
AcDbLine
 10
1231.39283
 20
796.7769229999999
 30
0.0
 11
1233.29283
 21
793.4860269999997
 31
0.0
  0
LINE
  5
6D1
330
6B
100
AcDbEntity
  8
0
 62
     7
100
AcDbLine
 10
1229.49283
 20
793.4860269999997
 30
0.0
 11
1233.29283
 21
793.4860269999997
 31
0.0
  0
LINE
  5
6D2
330
6B
100
AcDbEntity
  8
0
 62
     7
100
AcDbLine
 10
1231.39283
 20
801.7769239999999
 30
0.0
 11
1229.49283
 21
798.4860269999996
 31
0.0
  0
LINE
  5
6D3
330
6B
100
AcDbEntity
  8
0
 62
     7
100
AcDbLine
 10
1231.39283
 20
801.7769239999999
 30
0.0
 11
1233.29283
 21
798.4860269999996
 31
0.0
  0
LINE
  5
6D4
330
6B
100
AcDbEntity
  8
0
 62
     7
100
AcDbLine
 10
1229.49283
 20
798.4860269999996
 30
0.0
 11
1233.29283
 21
798.4860269999996
 31
0.0
  0
LINE
  5
6D5
330
6B
100
AcDbEntity
  8
0
 62
     3
100
AcDbLine
 10
1226.39283
 20
807.9860269999997
 30
0.0
 11
1312.39283
 21
807.9860269999997
 31
0.0
  0
LINE
  5
6D6
330
6B
100
AcDbEntity
  8
0
 62
     3
100
AcDbLine
 10
1226.39283
 20
802.9860269999996
 30
0.0
 11
1312.39283
 21
802.9860269999996
 31
0.0
  0
LINE
  5
6D7
330
6B
100
AcDbEntity
  8
0
 62
     7
100
AcDbLine
 10
1226.39283
 20
797.9860269999996
 30
0.0
 11
1312.39283
 21
797.9860269999996
 31
0.0
  0
LINE
  5
6D8
330
6B
100
AcDbEntity
  8
0
 62
     3
100
AcDbLine
 10
1226.39283
 20
792.9860269999997
 30
0.0
 11
1312.39283
 21
792.9860269999997
 31
0.0
  0
LINE
  5
6D9
330
6B
100
AcDbEntity
  8
0
 62
     7
100
AcDbLine
 10
1298.39283
 20
792.9860269999997
 30
0.0
 11
1298.39283
 21
807.9860269999997
 31
0.0
  0
LINE
  5
6DA
330
6B
100
AcDbEntity
  8
0
 62
     7
100
AcDbLine
 10
1254.39283
 20
792.9860269999997
 30
0.0
 11
1254.39283
 21
807.9860269999997
 31
0.0
  0
LINE
  5
6DB
330
6B
100
AcDbEntity
  8
0
 62
     7
100
AcDbLine
 10
1236.39283
 20
792.9860269999997
 30
0.0
 11
1236.39283
 21
807.9860269999997
 31
0.0
  0
LINE
  5
6DC
330
6B
100
AcDbEntity
  8
0
 62
     3
100
AcDbLine
 10
1226.39283
 20
792.9860269999997
 30
0.0
 11
1226.39283
 21
812.9860269999996
 31
0.0
  0
LINE
  5
8D9
330
6B
100
AcDbEntity
  8
0
 62
     3
100
AcDbLine
 10
1243.029795
 20
644.0995239999998
 30
0.0
 11
1243.029795
 21
595.0995239999998
 31
0.0
  0
LINE
  5
8DA
330
6B
100
AcDbEntity
  8
0
 62
     3
100
AcDbLine
 10
1243.029795
 20
644.0995239999998
 30
0.0
 11
1305.524107
 21
644.0995239999998
 31
0.0
  0
LINE
  5
8DB
330
6B
100
AcDbEntity
  8
0
 62
     3
100
AcDbLine
 10
1243.029795
 20
595.0995239999998
 30
0.0
 11
1305.524107
 21
595.0995239999998
 31
0.0
  0
TEXT
  5
8DC
330
6B
100
AcDbEntity
  8
0
 62
     3
100
AcDbText
 10
1250.88976073868
 20
646.5535059999998
 30
0.0
 40
4.5
  1
主　　　仕　　　様
  7
高4.5
100
AcDbText
  0
TEXT
  5
8DD
330
6B
100
AcDbEntity
  8
0
 62
     3
100
AcDbText
 10
1245.029795
 20
638.0995239999995
 30
0.0
 40
4.5
  1
型　　式
 41
0.8
  7
高4.5
100
AcDbText
  0
TEXT
  5
8DE
330
6B
100
AcDbEntity
  8
0
 62
     3
100
AcDbText
 10
1245.029795
 20
631.0995239999998
 30
0.0
 40
4.5
  1
定格電圧
 41
0.8
  7
高4.5
100
AcDbText
  0
TEXT
  5
8DF
330
6B
100
AcDbEntity
  8
0
 62
     3
100
AcDbText
 10
1245.029795
 20
624.0995239999998
 30
0.0
 40
4.5
  1
定格消費電力
 41
0.8
  7
高4.5
100
AcDbText
  0
TEXT
  5
8E0
330
6B
100
AcDbEntity
  8
0
 62
     3
100
AcDbText
 10
1245.029795
 20
617.0995239999995
 30
0.0
 40
4.5
  1
定格光束
 41
0.8
  7
高4.5
100
AcDbText
  0
TEXT
  5
8E1
330
6B
100
AcDbEntity
  8
0
 62
     3
100
AcDbText
 10
1245.029795
 20
610.0995239999998
 30
0.0
 40
4.5
  1
寿　　命
 41
0.8
  7
高4.5
100
AcDbText
  0
TEXT
  5
8E2
330
6B
100
AcDbEntity
  8
0
 62
     3
100
AcDbText
 10
1245.029795
 20
603.0995239999998
 30
0.0
 40
4.5
  1
口　　金
 41
0.8
  7
高4.5
100
AcDbText
  0
TEXT
  5
8E3
330
6B
100
AcDbEntity
  8
0
 62
     3
100
AcDbText
 10
1245.029795
 20
596.0995239999995
 30
0.0
 40
4.5
  1
質　　量
 41
0.8
  7
高4.5
100
AcDbText
  0
LINE
  5
8E4
330
6B
100
AcDbEntity
  8
0
 62
     3
100
AcDbLine
 10
1305.524107
 20
595.0995239999998
 30
0.0
 11
1305.524107
 21
644.0995239999998
 31
0.0
  0
LINE
  5
8E5
330
6B
100
AcDbEntity
  8
0
 62
     7
100
AcDbLine
 10
1243.029795
 20
637.0995239999999
 30
0.0
 11
1305.524107
 21
637.0995239999999
 31
0.0
  0
LINE
  5
8E6
330
6B
100
AcDbEntity
  8
0
 62
     7
100
AcDbLine
 10
1243.029795
 20
630.0995239999998
 30
0.0
 11
1305.524107
 21
630.0995239999998
 31
0.0
  0
LINE
  5
8E7
330
6B
100
AcDbEntity
  8
0
 62
     7
100
AcDbLine
 10
1243.029795
 20
623.0995239999998
 30
0.0
 11
1305.524107
 21
623.0995239999998
 31
0.0
  0
LINE
  5
8E8
330
6B
100
AcDbEntity
  8
0
 62
     7
100
AcDbLine
 10
1243.029795
 20
616.0995239999998
 30
0.0
 11
1305.524107
 21
616.0995239999998
 31
0.0
  0
LINE
  5
8E9
330
6B
100
AcDbEntity
  8
0
 62
     7
100
AcDbLine
 10
1243.029795
 20
609.0995239999998
 30
0.0
 11
1305.524107
 21
609.0995239999998
 31
0.0
  0
LINE
  5
8EA
330
6B
100
AcDbEntity
  8
0
 62
     7
100
AcDbLine
 10
1243.029795
 20
602.0995239999998
 30
0.0
 11
1305.524107
 21
602.0995239999998
 31
0.0
  0
LINE
  5
8EB
330
6B
100
AcDbEntity
  8
0
 62
     7
100
AcDbLine
 10
1272.630138113844
 20
644.0995239999998
 30
0.0
 11
1272.630138113844
 21
595.0995239999998
 31
0.0
  0
LINE
  5
8EC
330
6B
100
AcDbEntity
  8
0
 62
     7
100
AcDbLine
 10
1250.88976073868
 20
645.5535059999997
 30
0.0
 11
1298.284566644761
 21
645.5535059999997
 31
0.0
  0
TEXT
  5
8ED
330
6B
100
AcDbEntity
  8
0
 62
     3
100
AcDbText
 10
1274.630138113844
 20
631.0995239999998
 30
0.0
 40
4.5
  1
200V
 41
0.8
  7
高4.5
100
AcDbText
  0
TEXT
  5
8EE
330
6B
100
AcDbEntity
  8
0
 62
     3
100
AcDbText
 10
1274.630138113844
 20
610.0995239999998
 30
0.0
 40
4.5
  1
約2000時間
 41
0.8
  7
高4.5
100
AcDbText
  0
TEXT
  5
8EF
330
6B
100
AcDbEntity
  8
0
 62
     3
100
AcDbText
 10
1274.630138113844
 20
638.0995239999998
 30
0.0
 40
4.5
  1
NRF-300-220V
 41
0.55
  7
高4.5
100
AcDbText
  0
TEXT
  5
8F0
330
6B
100
AcDbEntity
  8
0
 62
     3
100
AcDbText
 10
1274.630138113844
 20
624.0995239999998
 30
0.0
 40
4.5
  1
260W
 41
0.8
  7
高4.5
100
AcDbText
  0
TEXT
  5
8F1
330
6B
100
AcDbEntity
  8
0
 62
     3
100
AcDbText
 10
1274.630138113844
 20
617.0995239999998
 30
0.0
 40
4.5
  1
3650Lm
 41
0.8
  7
高4.5
100
AcDbText
  0
TEXT
  5
8F2
330
6B
100
AcDbEntity
  8
0
 62
     3
100
AcDbText
 10
1274.630138113844
 20
603.0995239999998
 30
0.0
 40
4.5
  1
E39
 41
0.8
  7
高4.5
100
AcDbText
  0
TEXT
  5
8F3
330
6B
100
AcDbEntity
  8
0
 62
     3
100
AcDbText
 10
1274.630138113844
 20
596.0995239999999
 30
0.0
 40
4.5
  1
150g
 41
0.8
  7
高4.5
100
AcDbText
  0
LINE
  5
972
330
6B
100
AcDbEntity
  8
0
 62
     3
100
AcDbLine
 10
1178.21579762
 20
813.4439095699999
 30
0.0
 11
1178.19717009
 21
813.5631773399996
 31
0.0
  0
LINE
  5
973
330
6B
100
AcDbEntity
  8
0
 62
     3
100
AcDbLine
 10
1178.19717009
 20
813.5631773399996
 30
0.0
 11
1178.17479891
 21
813.6773821199996
 31
0.0
  0
LINE
  5
974
330
6B
100
AcDbEntity
  8
0
 62
     3
100
AcDbLine
 10
1178.17479891
 20
813.6773821199996
 30
0.0
 11
1178.14885698
 21
813.7856411799997
 31
0.0
  0
LINE
  5
975
330
6B
100
AcDbEntity
  8
0
 62
     3
100
AcDbLine
 10
1178.14885698
 20
813.7856411799997
 30
0.0
 11
1178.11954484
 21
813.8871177299996
 31
0.0
  0
LINE
  5
976
330
6B
100
AcDbEntity
  8
0
 62
     3
100
AcDbLine
 10
1178.11954484
 20
813.8871177299996
 30
0.0
 11
1178.08708903
 21
813.9810274099996
 31
0.0
  0
LINE
  5
977
330
6B
100
AcDbEntity
  8
0
 62
     3
100
AcDbLine
 10
1178.08708903
 20
813.9810274099996
 30
0.0
 11
1178.05174044
 21
814.0666443499997
 31
0.0
  0
LINE
  5
978
330
6B
100
AcDbEntity
  8
0
 62
     3
100
AcDbLine
 10
1178.05174044
 20
814.0666443499997
 30
0.0
 11
1178.01377229
 21
814.1433067599997
 31
0.0
  0
LINE
  5
979
330
6B
100
AcDbEntity
  8
0
 62
     3
100
AcDbLine
 10
1178.01377229
 20
814.1433067599997
 30
0.0
 11
1177.97347804
 21
814.2104220999996
 31
0.0
  0
LINE
  5
97A
330
6B
100
AcDbEntity
  8
0
 62
     3
100
AcDbLine
 10
1177.97347804
 20
814.2104220999996
 30
0.0
 11
1177.93116917
 21
814.2674715899996
 31
0.0
  0
LINE
  5
97B
330
6B
100
AcDbEntity
  8
0
 62
     3
100
AcDbLine
 10
1177.93116917
 20
814.2674715899996
 30
0.0
 11
1177.88717268
 21
814.3140142599996
 31
0.0
  0
LINE
  5
97C
330
6B
100
AcDbEntity
  8
0
 62
     3
100
AcDbLine
 10
1177.88717268
 20
814.3140142599996
 30
0.0
 11
1177.84182866
 21
814.3496903799997
 31
0.0
  0
LINE
  5
97D
330
6B
100
AcDbEntity
  8
0
 62
     3
100
AcDbLine
 10
1177.84182866
 20
814.3496903799997
 30
0.0
 11
1177.79548759
 21
814.3742241699996
 31
0.0
  0
LINE
  5
97E
330
6B
100
AcDbEntity
  8
0
 62
     3
100
AcDbLine
 10
1177.79548759
 20
814.3742241699996
 30
0.0
 11
1177.74850765
 21
814.3874260199996
 31
0.0
  0
LINE
  5
97F
330
6B
100
AcDbEntity
  8
0
 62
     3
100
AcDbLine
 10
1177.74850765
 20
814.3874260199996
 30
0.0
 11
1177.70125199
 21
814.3891938599999
 31
0.0
  0
LINE
  5
980
330
6B
100
AcDbEntity
  8
0
 62
     3
100
AcDbLine
 10
1177.70125199
 20
814.3891938599999
 30
0.0
 11
1177.65408586
 21
814.3795140499996
 31
0.0
  0
LINE
  5
981
330
6B
100
AcDbEntity
  8
0
 62
     3
100
AcDbLine
 10
1177.65408586
 20
814.3795140499996
 30
0.0
 11
1177.60737383
 21
814.3584613899996
 31
0.0
  0
LINE
  5
982
330
6B
100
AcDbEntity
  8
0
 62
     3
100
AcDbLine
 10
1177.60737383
 20
814.3584613899996
 30
0.0
 11
1177.56147697
 21
814.3261986199997
 31
0.0
  0
LINE
  5
983
330
6B
100
AcDbEntity
  8
0
 62
     3
100
AcDbLine
 10
1177.56147697
 20
814.3261986199997
 30
0.0
 11
1177.51675003
 21
814.2829751099997
 31
0.0
  0
LINE
  5
984
330
6B
100
AcDbEntity
  8
0
 62
     3
100
AcDbLine
 10
1177.51675003
 20
814.2829751099997
 30
0.0
 11
1177.47353872
 21
814.2291249499997
 31
0.0
  0
LINE
  5
985
330
6B
100
AcDbEntity
  8
0
 62
     3
100
AcDbLine
 10
1177.47353872
 20
814.2291249499997
 30
0.0
 11
1177.43217706
 21
814.1650643799996
 31
0.0
  0
LINE
  5
986
330
6B
100
AcDbEntity
  8
0
 62
     3
100
AcDbLine
 10
1177.43217706
 20
814.1650643799996
 30
0.0
 11
1177.392984739999
 21
814.0912885599997
 31
0.0
  0
LINE
  5
987
330
6B
100
AcDbEntity
  8
0
 62
     3
100
AcDbLine
 10
1177.392984739999
 20
814.0912885599997
 30
0.0
 11
1177.3562647
 21
814.0083677299996
 31
0.0
  0
LINE
  5
988
330
6B
100
AcDbEntity
  8
0
 62
     3
100
AcDbLine
 10
1177.3562647
 20
814.0083677299996
 30
0.0
 11
1177.32230077
 21
813.9169428199997
 31
0.0
  0
LINE
  5
989
330
6B
100
AcDbEntity
  8
0
 62
     3
100
AcDbLine
 10
1177.32230077
 20
813.9169428199997
 30
0.0
 11
1177.29135547
 21
813.8177205199998
 31
0.0
  0
LINE
  5
98A
330
6B
100
AcDbEntity
  8
0
 62
     3
100
AcDbLine
 10
1177.29135547
 20
813.8177205199998
 30
0.0
 11
1177.26366799
 21
813.7114677499996
 31
0.0
  0
LINE
  5
98B
330
6B
100
AcDbEntity
  8
0
 62
     3
100
AcDbLine
 10
1177.26366799
 20
813.7114677499996
 30
0.0
 11
1177.23945234
 21
813.5990057899997
 31
0.0
  0
LINE
  5
98C
330
6B
100
AcDbEntity
  8
0
 62
     3
100
AcDbLine
 10
1177.23945234
 20
813.5990057899997
 30
0.0
 11
1177.2188957
 21
813.4812039099998
 31
0.0
  0
LINE
  5
98D
330
6B
100
AcDbEntity
  8
0
 62
     3
100
AcDbLine
 10
1177.2188957
 20
813.4812039099998
 30
0.0
 11
1177.20215696
 21
813.3589726699996
 31
0.0
  0
LINE
  5
98E
330
6B
100
AcDbEntity
  8
0
 62
     3
100
AcDbLine
 10
1177.20215696
 20
813.3589726699996
 30
0.0
 11
1177.1893655
 21
813.2332568499997
 31
0.0
  0
LINE
  5
98F
330
6B
100
AcDbEntity
  8
0
 62
     3
100
AcDbLine
 10
1177.1893655
 20
813.2332568499997
 30
0.0
 11
1177.18062019
 21
813.1050281699996
 31
0.0
  0
LINE
  5
990
330
6B
100
AcDbEntity
  8
0
 62
     3
100
AcDbLine
 10
1177.18062019
 20
813.1050281699996
 30
0.0
 11
1177.17598863
 21
812.9752777599996
 31
0.0
  0
LINE
  5
991
330
6B
100
AcDbEntity
  8
0
 62
     3
100
AcDbLine
 10
1177.17598863
 20
812.9752777599996
 30
0.0
 11
1177.17550662
 21
812.8450085299997
 31
0.0
  0
LINE
  5
992
330
6B
100
AcDbEntity
  8
0
 62
     3
100
AcDbLine
 10
1177.17550662
 20
812.8450085299997
 30
0.0
 11
1177.17917788
 21
812.7152274099996
 31
0.0
  0
LINE
  5
993
330
6B
100
AcDbEntity
  8
0
 62
     3
100
AcDbLine
 10
1177.17917788
 20
812.7152274099996
 30
0.0
 11
1177.18697404
 21
812.5869375199997
 31
0.0
  0
LINE
  5
994
330
6B
100
AcDbEntity
  8
0
 62
     3
100
AcDbLine
 10
1177.18697404
 20
812.5869375199997
 30
0.0
 11
1177.19883484
 21
812.4611304799996
 31
0.0
  0
LINE
  5
995
330
6B
100
AcDbEntity
  8
0
 62
     3
100
AcDbLine
 10
1177.19883484
 20
812.4611304799996
 30
0.0
 11
1177.2146686
 21
812.3387787099996
 31
0.0
  0
LINE
  5
996
330
6B
100
AcDbEntity
  8
0
 62
     3
100
AcDbLine
 10
1177.2146686
 20
812.3387787099996
 30
0.0
 11
1177.23435292
 21
812.2208279399997
 31
0.0
  0
LINE
  5
997
330
6B
100
AcDbEntity
  8
0
 62
     3
100
AcDbLine
 10
1177.23435292
 20
812.2208279399997
 30
0.0
 11
1177.25773568
 21
812.1081898699996
 31
0.0
  0
LINE
  5
998
330
6B
100
AcDbEntity
  8
0
 62
     3
100
AcDbLine
 10
1177.25773568
 20
812.1081898699996
 30
0.0
 11
1177.28463611
 21
812.0017351099997
 31
0.0
  0
LINE
  5
999
330
6B
100
AcDbEntity
  8
0
 62
     3
100
AcDbLine
 10
1177.28463611
 20
812.0017351099997
 30
0.0
 11
1177.31484631
 21
811.9022865199998
 31
0.0
  0
LINE
  5
99A
330
6B
100
AcDbEntity
  8
0
 62
     3
100
AcDbLine
 10
1177.31484631
 20
811.9022865199998
 30
0.0
 11
1177.34813276
 21
811.8106127899999
 31
0.0
  0
LINE
  5
99B
330
6B
100
AcDbEntity
  8
0
 62
     3
100
AcDbLine
 10
1177.34813276
 20
811.8106127899999
 30
0.0
 11
1177.38423816
 21
811.7274224899999
 31
0.0
  0
LINE
  5
99C
330
6B
100
AcDbEntity
  8
0
 62
     3
100
AcDbLine
 10
1177.38423816
 20
811.7274224899999
 30
0.0
 11
1177.42288346
 21
811.6533586599995
 31
0.0
  0
LINE
  5
99D
330
6B
100
AcDbEntity
  8
0
 62
     3
100
AcDbLine
 10
1177.42288346
 20
811.6533586599995
 30
0.0
 11
1177.46376994
 21
811.5889937699996
 31
0.0
  0
LINE
  5
99E
330
6B
100
AcDbEntity
  8
0
 62
     3
100
AcDbLine
 10
1177.46376994
 20
811.5889937699996
 30
0.0
 11
1177.50658156
 21
811.5348253199996
 31
0.0
  0
LINE
  5
99F
330
6B
100
AcDbEntity
  8
0
 62
     3
100
AcDbLine
 10
1177.50658156
 20
811.5348253199996
 30
0.0
 11
1177.55098742
 21
811.4912719999999
 31
0.0
  0
LINE
  5
9A0
330
6B
100
AcDbEntity
  8
0
 62
     3
100
AcDbLine
 10
1177.55098742
 20
811.4912719999999
 30
0.0
 11
1177.59664427
 21
811.4586704699997
 31
0.0
  0
LINE
  5
9A1
330
6B
100
AcDbEntity
  8
0
 62
     3
100
AcDbLine
 10
1177.59664427
 20
811.4586704699997
 30
0.0
 11
1177.64319923
 21
811.4372727099997
 31
0.0
  0
LINE
  5
9A2
330
6B
100
AcDbEntity
  8
0
 62
     3
100
AcDbLine
 10
1177.64319923
 20
811.4372727099997
 30
0.0
 11
1177.69029244
 21
811.4272441299997
 31
0.0
  0
LINE
  5
9A3
330
6B
100
AcDbEntity
  8
0
 62
     3
100
AcDbLine
 10
1177.69029244
 20
811.4272441299997
 30
0.0
 11
1177.73755989
 21
811.4286622299996
 31
0.0
  0
LINE
  5
9A4
330
6B
100
AcDbEntity
  8
0
 62
     3
100
AcDbLine
 10
1177.73755989
 20
811.4286622299996
 30
0.0
 11
1177.78463623
 21
811.4415160499996
 31
0.0
  0
LINE
  5
9A5
330
6B
100
AcDbEntity
  8
0
 62
     3
100
AcDbLine
 10
1177.78463623
 20
811.4415160499996
 30
0.0
 11
1177.83115759
 21
811.4657062499997
 31
0.0
  0
LINE
  5
9A6
330
6B
100
AcDbEntity
  8
0
 62
     3
100
AcDbLine
 10
1177.83115759
 20
811.4657062499997
 30
0.0
 11
1177.87676438
 21
811.5010458299996
 31
0.0
  0
LINE
  5
9A7
330
6B
100
AcDbEntity
  8
0
 62
     3
100
AcDbLine
 10
1177.87676438
 20
811.5010458299996
 30
0.0
 11
1177.92110408
 21
811.5472616499996
 31
0.0
  0
LINE
  5
9A8
330
6B
100
AcDbEntity
  8
0
 62
     3
100
AcDbLine
 10
1177.92110408
 20
811.5472616499996
 30
0.0
 11
1177.96383397
 21
811.6039964899997
 31
0.0
  0
LINE
  5
9A9
330
6B
100
AcDbEntity
  8
0
 62
     3
100
AcDbLine
 10
1177.96383397
 20
811.6039964899997
 30
0.0
 11
1178.00462377
 21
811.6708117999996
 31
0.0
  0
LINE
  5
9AA
330
6B
100
AcDbEntity
  8
0
 62
     3
100
AcDbLine
 10
1178.00462377
 20
811.6708117999996
 30
0.0
 11
1178.0431582
 21
811.7471911499999
 31
0.0
  0
LINE
  5
9AB
330
6B
100
AcDbEntity
  8
0
 62
     3
100
AcDbLine
 10
1178.0431582
 20
811.7471911499999
 30
0.0
 11
1178.0791394
 21
811.8325441599996
 31
0.0
  0
LINE
  5
9AC
330
6B
100
AcDbEntity
  8
0
 62
     3
100
AcDbLine
 10
1178.0791394
 20
811.8325441599996
 30
0.0
 11
1178.11228926
 21
811.9262110899997
 31
0.0
  0
LINE
  5
9AD
330
6B
100
AcDbEntity
  8
0
 62
     3
100
AcDbLine
 10
1178.11228926
 20
811.9262110899997
 30
0.0
 11
1178.14235154
 21
812.0274679499997
 31
0.0
  0
LINE
  5
9AE
330
6B
100
AcDbEntity
  8
0
 62
     3
100
AcDbLine
 10
1178.14235154
 20
812.0274679499997
 30
0.0
 11
1178.16909389
 21
812.1355320699999
 31
0.0
  0
LINE
  5
9AF
330
6B
100
AcDbEntity
  8
0
 62
     3
100
AcDbLine
 10
1178.16909389
 20
812.1355320699999
 30
0.0
 11
1178.19230959
 21
812.2495681799996
 31
0.0
  0
LINE
  5
9B0
330
6B
100
AcDbEntity
  8
0
 62
     3
100
AcDbLine
 10
1178.19230959
 20
812.2495681799996
 30
0.0
 11
1178.2118192
 21
812.3686948299996
 31
0.0
  0
LINE
  5
9B3
330
6B
100
AcDbEntity
  8
0
  6
Continuous
100
AcDbLine
 10
1203.846595728065
 20
628.8966571302778
 30
0.0
 11
1203.846595728065
 21
611.8211382346244
 31
0.0
  0
LINE
  5
9B4
330
6B
100
AcDbEntity
  8
0
  6
Continuous
100
AcDbLine
 10
1223.333561271935
 20
630.5675148697218
 30
0.0
 11
1223.333561271935
 21
611.8211382346244
 31
0.0
  0
LINE
  5
9B5
330
6B
100
AcDbEntity
  8
0
  6
Continuous
100
AcDbLine
 10
1206.346595728065
 20
613.0711382346244
 30
0.0
 11
1220.833561271935
 21
613.0711382346244
 31
0.0
  0
LINE
  5
9B9
330
6B
100
AcDbEntity
  8
0
100
AcDbLine
 10
1213.338427
 20
623.3218
 30
0.0
 11
1168.999436
 21
623.3218
 31
0.0
  0
LINE
  5
9BA
330
6B
100
AcDbEntity
  8
0
100
AcDbLine
 10
1213.338427
 20
728.8218
 30
0.0
 11
1168.999436
 21
728.8218
 31
0.0
  0
LINE
  5
9BB
330
6B
100
AcDbEntity
  8
0
100
AcDbLine
 10
1170.249436
 20
625.8218
 30
0.0
 11
1170.249436
 21
726.3218000000001
 31
0.0
  0
LINE
  5
9BF
330
6B
100
AcDbEntity
  8
0
100
AcDbLine
 10
1181.088427
 20
703.0718
 30
0.0
 11
1181.088427
 21
740.534447
 31
0.0
  0
LINE
  5
9C0
330
6B
100
AcDbEntity
  8
0
100
AcDbLine
 10
1246.088427
 20
703.0718
 30
0.0
 11
1246.088427
 21
740.534447
 31
0.0
  0
LINE
  5
9C1
330
6B
100
AcDbEntity
  8
0
100
AcDbLine
 10
1183.588427
 20
739.284447
 30
0.0
 11
1243.588427
 21
739.284447
 31
0.0
  0
TEXT
  5
9C5
330
6B
100
AcDbEntity
  8
0
  6
Continuous
 62
     4
100
AcDbText
 10
1209.5900785
 20
613.6961382346243
 30
0.0
 40
3.0
  1
E39
100
AcDbText
  0
LINE
  5
9C6
330
6B
100
AcDbEntity
  8
0
  6
ByBlock
 62
     0
370
    -2
100
AcDbLine
 10
1220.833561271935
 20
613.7410107346243
 30
0.0
 11
1223.333561271935
 21
613.0711382346244
 31
0.0
  0
LINE
  5
9C7
330
6B
100
AcDbEntity
  8
0
  6
ByBlock
 62
     0
370
    -2
100
AcDbLine
 10
1223.333561271935
 20
613.0711382346244
 30
0.0
 11
1220.833561271935
 21
612.4012657346244
 31
0.0
  0
LINE
  5
9C8
330
6B
100
AcDbEntity
  8
0
  6
ByBlock
 62
     0
370
    -2
100
AcDbLine
 10
1223.333561271935
 20
613.0711382346244
 30
0.0
 11
1220.833561271935
 21
613.0711382346244
 31
0.0
  0
LINE
  5
9C9
330
6B
100
AcDbEntity
  8
0
  6
ByBlock
 62
     0
370
    -2
100
AcDbLine
 10
1206.346595728065
 20
612.4012657346244
 30
0.0
 11
1203.846595728065
 21
613.0711382346244
 31
0.0
  0
LINE
  5
9CA
330
6B
100
AcDbEntity
  8
0
  6
ByBlock
 62
     0
370
    -2
100
AcDbLine
 10
1203.846595728065
 20
613.0711382346244
 30
0.0
 11
1206.346595728065
 21
613.7410107346243
 31
0.0
  0
LINE
  5
9CB
330
6B
100
AcDbEntity
  8
0
  6
ByBlock
 62
     0
370
    -2
100
AcDbLine
 10
1203.846595728065
 20
613.0711382346244
 30
0.0
 11
1206.346595728065
 21
613.0711382346244
 31
0.0
  0
TEXT
  5
9CC
330
6B
100
AcDbEntity
  8
0
  6
Continuous
 62
     4
100
AcDbText
 10
1169.624435999999
 20
673.0718000000002
 30
0.0
 40
3.0
  1
211
 50
90.0
100
AcDbText
  0
LINE
  5
9CD
330
6B
100
AcDbEntity
  8
0
  6
ByBlock
 62
     0
370
    -2
100
AcDbLine
 10
1169.5795635
 20
726.3218000000001
 30
0.0
 11
1170.249436
 21
728.8218
 31
0.0
  0
LINE
  5
9CE
330
6B
100
AcDbEntity
  8
0
  6
ByBlock
 62
     0
370
    -2
100
AcDbLine
 10
1170.249436
 20
728.8218
 30
0.0
 11
1170.9193085
 21
726.3218000000001
 31
0.0
  0
LINE
  5
9CF
330
6B
100
AcDbEntity
  8
0
  6
ByBlock
 62
     0
370
    -2
100
AcDbLine
 10
1170.249436
 20
728.8218
 30
0.0
 11
1170.249436
 21
726.3218000000001
 31
0.0
  0
LINE
  5
9D0
330
6B
100
AcDbEntity
  8
0
  6
ByBlock
 62
     0
370
    -2
100
AcDbLine
 10
1170.9193085
 20
625.8218
 30
0.0
 11
1170.249436
 21
623.3218
 31
0.0
  0
LINE
  5
9D1
330
6B
100
AcDbEntity
  8
0
  6
ByBlock
 62
     0
370
    -2
100
AcDbLine
 10
1170.249436
 20
623.3218
 30
0.0
 11
1169.5795635
 21
625.8218
 31
0.0
  0
LINE
  5
9D2
330
6B
100
AcDbEntity
  8
0
  6
ByBlock
 62
     0
370
    -2
100
AcDbLine
 10
1170.249436
 20
623.3218
 30
0.0
 11
1170.249436
 21
625.8218
 31
0.0
  0
TEXT
  5
9D3
330
6B
100
AcDbEntity
  8
0
  6
Continuous
 62
     4
100
AcDbText
 10
1208.838427
 20
739.909447
 30
0.0
 40
3.0
  1
\U+2205130
100
AcDbText
  0
LINE
  5
9D4
330
6B
100
AcDbEntity
  8
0
  6
ByBlock
 62
     0
370
    -2
100
AcDbLine
 10
1243.588427
 20
739.9543194999999
 30
0.0
 11
1246.088427
 21
739.284447
 31
0.0
  0
LINE
  5
9D5
330
6B
100
AcDbEntity
  8
0
  6
ByBlock
 62
     0
370
    -2
100
AcDbLine
 10
1246.088427
 20
739.284447
 30
0.0
 11
1243.588427
 21
738.6145745
 31
0.0
  0
LINE
  5
9D6
330
6B
100
AcDbEntity
  8
0
  6
ByBlock
 62
     0
370
    -2
100
AcDbLine
 10
1246.088427
 20
739.284447
 30
0.0
 11
1243.588427
 21
739.284447
 31
0.0
  0
LINE
  5
9D7
330
6B
100
AcDbEntity
  8
0
  6
ByBlock
 62
     0
370
    -2
100
AcDbLine
 10
1183.588427
 20
738.6145745
 30
0.0
 11
1181.088427
 21
739.284447
 31
0.0
  0
LINE
  5
9D8
330
6B
100
AcDbEntity
  8
0
  6
ByBlock
 62
     0
370
    -2
100
AcDbLine
 10
1181.088427
 20
739.284447
 30
0.0
 11
1183.588427
 21
739.9543194999999
 31
0.0
  0
LINE
  5
9D9
330
6B
100
AcDbEntity
  8
0
  6
ByBlock
 62
     0
370
    -2
100
AcDbLine
 10
1181.088427
 20
739.284447
 30
0.0
 11
1183.588427
 21
739.284447
 31
0.0
  0
ENDSEC
  0
SECTION
  2
OBJECTS
  0
DICTIONARY
  5
C
330
0
100
AcDbDictionary
281
     1
  3
ACAD_2007HEADERVARS_RT
350
9DD
  3
ACAD_COLOR
350
62
  3
ACAD_GROUP
350
D
  3
ACAD_LAYOUT
350
61
  3
ACAD_MATERIAL
350
10
  3
ACAD_MLEADERSTYLE
350
65
  3
ACAD_MLINESTYLE
350
5E
  3
ACAD_PLOTSETTINGS
350
60
  3
ACAD_PLOTSTYLENAME
350
E
  3
ACAD_SCALELIST
350
42
  3
ACAD_TABLESTYLE
350
63
  3
ACAD_VISUALSTYLE
350
29
  3
ACDB_RECOMPOSE_DATA
350
9DB
  3
AcDbVariableDictionary
350
45E
  3
AEC_PROPERTY_SET_DEFS
350
8D4
  3
DWGPROPS
350
9DC
  0
DICTIONARY
  5
2E4
330
2
100
AcDbDictionary
280
     1
281
     1
  3
ACAD_LAYERSTATES
360
2E5
  0
DICTIONARY
  5
45A
330
54
100
AcDbDictionary
280
     1
281
     1
  3
ADSK_XREC_LAYER_RECONCILED
360
45B
  0
DICTIONARY
  5
9B1
330
6B
100
AcDbDictionary
280
     1
281
     1
  3
ACAD_SORTENTS
360
9B2
  0
DICTIONARY
  5
9DD
102
{ACAD_REACTORS
330
C
102
}
330
C
100
AcDbDictionary
281
     1
  3
DIMARCSYM
350
9DF
  3
DIMFXL
350
9DE
  3
DIMJOGANG
350
9E0
  0
DICTIONARY
  5
62
102
{ACAD_REACTORS
330
C
102
}
330
C
100
AcDbDictionary
281
     1
  0
DICTIONARY
  5
D
102
{ACAD_REACTORS
330
C
102
}
330
C
100
AcDbDictionary
281
     1
  0
DICTIONARY
  5
61
102
{ACAD_REACTORS
330
C
102
}
330
C
100
AcDbDictionary
281
     1
  3
Model
350
6E
  3
レイアウト1
350
6A
  0
DICTIONARY
  5
10
102
{ACAD_REACTORS
330
C
102
}
330
C
100
AcDbDictionary
281
     1
  3
ByBlock
350
19
  3
ByLayer
350
11
  3
Global
350
21
  0
DICTIONARY
  5
65
102
{ACAD_REACTORS
330
C
102
}
330
C
100
AcDbDictionary
281
     1
  3
Standard
350
66
  0
DICTIONARY
  5
5E
102
{ACAD_REACTORS
330
C
102
}
330
C
100
AcDbDictionary
281
     1
  3
Standard
350
5F
  0
DICTIONARY
  5
60
102
{ACAD_REACTORS
330
C
102
}
330
C
100
AcDbDictionary
281
     1
  0
ACDBDICTIONARYWDFLT
  5
E
102
{ACAD_REACTORS
330
C
102
}
330
C
100
AcDbDictionary
281
     1
  3
Normal
350
F
100
AcDbDictionaryWithDefault
340
F
  0
DICTIONARY
  5
42
102
{ACAD_REACTORS
330
C
102
}
330
C
100
AcDbDictionary
281
     1
  3
A0
350
43
  3
A1
350
44
  3
A2
350
45
  3
A3
350
46
  3
A4
350
47
  3
A5
350
48
  3
A6
350
49
  3
A7
350
4A
  3
A8
350
4B
  3
A9
350
4C
  3
B0
350
4D
  3
B1
350
4E
  3
B2
350
4F
  3
B3
350
50
  3
B4
350
51
  3
B5
350
52
  3
B6
350
53
  0
DICTIONARY
  5
63
102
{ACAD_REACTORS
330
C
102
}
330
C
100
AcDbDictionary
281
     1
  3
Standard
350
64
  0
DICTIONARY
  5
29
102
{ACAD_REACTORS
330
C
102
}
330
C
100
AcDbDictionary
281
     1
  3
2dWireframe
350
2F
  3
3dWireframe
350
2E3
  3
Basic
350
2E
  3
Brighten
350
35
  3
ColorChange
350
39
  3
Conceptual
350
32
  3
Dim
350
34
  3
EdgeColorOff
350
41
  3
Facepattern
350
38
  3
Flat
350
2A
  3
FlatWithEdges
350
2B
  3
Gouraud
350
2C
  3
GouraudWithEdges
350
2D
  3
Hidden
350
31
  3
JitterOff
350
3F
  3
Linepattern
350
37
  3
OverhangOff
350
40
  3
Realistic
350
33
  3
Shaded
350
3E
  3
Shaded with edges
350
3D
  3
Shades of Gray
350
3A
  3
Sketchy
350
3B
  3
Thicken
350
36
  3
Wireframe
350
30
  3
X-Ray
350
3C
  0
XRECORD
  5
9DB
102
{ACAD_REACTORS
330
C
102
}
330
C
100
AcDbXrecord
280
     1
 90
        1
330
64
  0
DICTIONARY
  5
45E
102
{ACAD_REACTORS
330
C
102
}
330
C
100
AcDbDictionary
281
     1
  3
CANNOSCALE
350
461
  3
CMLEADERSTYLE
350
460
  3
CTABLESTYLE
350
45F
  3
DIMASSOC
350
464
  3
INDEXCTL
350
463
  3
SORTENTS
350
462
  3
XCLIPFRAME
350
8F5
  0
DICTIONARY
  5
8D4
102
{ACAD_REACTORS
330
C
102
}
330
C
100
AcDbDictionary
281
     1
  0
XRECORD
  5
9DC
102
{ACAD_REACTORS
330
C
102
}
330
C
100
AcDbXrecord
280
     1
  1
DWGPROPS COOKIE
  2

  3

  4

  6

  7

  8
imamura
  9

300
=
301
=
302
=
303
=
304
=
305
=
306
=
307
=
308
=
309
=
 40
0.0320853935185185
 41
2456071.799600799
 42
2457351.761433982
  1

 90
        0
  0
DICTIONARY
  5
2E5
102
{ACAD_REACTORS
330
2E4
102
}
330
2E4
100
AcDbDictionary
281
     1
  0
XRECORD
  5
45B
102
{ACAD_REACTORS
330
45A
102
}
330
45A
100
AcDbXrecord
280
     1
290
     1
  0
SORTENTSTABLE
  5
9B2
102
{ACAD_REACTORS
330
9B1
102
}
330
9B1
100
AcDbSortentsTable
330
6B
331
6B2
  5
992
331
672
  5
699
331
661
  5
688
331
650
  5
677
331
6CD
  5
9AD
331
6BC
  5
99C
331
1EB
  5
212
331
9A1
  5
972
331
980
  5
6D7
331
991
  5
8E4
331
8DB
  5
9C1
331
692
  5
6BA
331
681
  5
6A9
331
8EC
  5
9D2
331
1FC
  5
64A
331
22F
  5
661
331
CE
  5
1BC
331
BD
  5
D7
331
DF
  5
1D1
331
9D4
  5
BA
331
651
  5
678
331
E0
  5
1D2
331
662
  5
689
331
1B9
  5
1D9
331
6A2
  5
982
331
23A
  5
662
331
6B3
  5
993
331
673
  5
69A
331
6CE
  5
9AE
331
6BD
  5
99D
331
1DB
  5
203
331
9A2
  5
973
331
981
  5
6D8
331
992
  5
8E5
331
682
  5
6AA
331
8DC
  5
9C2
331
693
  5
6BB
331
8ED
  5
9D3
331
1FD
  5
64B
331
9B3
  5
665
331
CF
  5
1BD
331
BE
  5
D8
331
9D5
  5
BB
331
663
  5
68A
331
652
  5
679
331
E1
  5
1D3
331
D0
  5
1BE
331
6A3
  5
983
331
23B
  5
663
331
6CF
  5
9AF
331
6BE
  5
99E
331
6B4
  5
994
331
674
  5
69B
331
1CB
  5
1F5
331
9A3
  5
974
331
982
  5
6D9
331
993
  5
8E6
331
683
  5
6AB
331
8DD
  5
9C3
331
694
  5
6BC
331
9B4
  5
666
331
9C5
  5
66E
331
8EE
  5
9D4
331
BF
  5
D9
331
9D6
  5
BC
331
1FE
  5
64C
331
653
  5
67A
331
E2
  5
1D4
331
D1
  5
1BF
331
C0
  5
DA
331
6A4
  5
984
331
664
  5
68B
331
1BB
  5
1DB
331
6D0
  5
9B0
331
6BF
  5
99F
331
6B5
  5
995
331
675
  5
69C
331
1CC
  5
1F6
331
9A4
  5
975
331
983
  5
6DA
331
972
  5
6C9
331
994
  5
8E7
331
684
  5
6AC
331
8DE
  5
9C4
331
695
  5
6BD
331
9B5
  5
667
331
9C6
  5
66B
331
8EF
  5
9D5
331
9D7
  5
B4
331
1FF
  5
64D
331
8F0
  5
9D6
331
200
  5
64E
331
6D8
  5
9BA
331
9D8
  5
B5
331
654
  5
67B
331
E3
  5
1D5
331
D2
  5
1C0
331
C1
  5
DB
331
B0
  5
CA
331
665
  5
68C
331
1BC
  5
1E1
331
6A5
  5
985
331
23D
  5
664
331
6D1
  5
9B3
331
6C0
  5
9A0
331
6B6
  5
996
331
676
  5
69D
331
1CD
  5
1F7
331
9A5
  5
976
331
984
  5
6DB
331
973
  5
6CA
331
995
  5
8E8
331
8DF
  5
9C5
331
696
  5
6BE
331
685
  5
6AD
331
9C7
  5
66C
331
8E0
  5
9C6
331
1F0
  5
227
331
9C8
  5
66D
331
8F1
  5
9D7
331
201
  5
64F
331
6D9
  5
9BB
331
9D9
  5
B6
331
212
  5
65A
331
B1
  5
CB
331
655
  5
67C
331
E4
  5
1D6
331
D3
  5
1C1
331
C2
  5
DC
331
6A6
  5
986
331
666
  5
68D
331
1BD
  5
1E7
331
6D2
  5
9B4
331
6C1
  5
9A1
331
6B7
  5
997
331
677
  5
69E
331
1CE
  5
1F8
331
9A6
  5
977
331
985
  5
6DC
331
996
  5
8E9
331
974
  5
6CB
331
697
  5
6BF
331
686
  5
6AE
331
698
  5
6C0
331
8E1
  5
9C7
331
1F1
  5
228
331
9C9
  5
668
331
8F2
  5
9D8
331
202
  5
650
331
6DA
  5
9BC
331
656
  5
67D
331
D4
  5
1C2
331
C3
  5
DD
331
B2
  5
CC
331
6A7
  5
987
331
667
  5
68E
331
1BE
  5
1E8
331
AE
  5
C8
331
6D3
  5
9B5
331
6C2
  5
9A2
331
9A7
  5
978
331
986
  5
8D9
331
975
  5
6CC
331
1CF
  5
1F9
331
687
  5
6AF
331
997
  5
8EA
331
9A8
  5
979
331
998
  5
8EB
331
688
  5
6B0
331
699
  5
6C1
331
9B9
  5
BE
331
8E2
  5
9C8
331
1F2
  5
229
331
9CA
  5
669
331
8F3
  5
9D9
331
6DB
  5
9BD
331
657
  5
67E
331
D5
  5
1C3
331
C4
  5
DE
331
B3
  5
CD
331
6A8
  5
988
331
668
  5
68F
331
1BF
  5
1E9
331
AF
  5
C9
331
203
  5
651
331
6D4
  5
9B6
331
6C3
  5
9A3
331
1E1
  5
204
331
987
  5
8DA
331
976
  5
6CD
331
1D0
  5
1FA
331
988
  5
8DB
331
9A9
  5
97A
331
678
  5
69F
331
999
  5
8EC
331
689
  5
6B1
331
69A
  5
6C2
331
9BA
  5
BF
331
8E3
  5
9C9
331
1F3
  5
22A
331
9CB
  5
66A
331
6DC
  5
9BE
331
658
  5
67F
331
D6
  5
1C4
331
C5
  5
DF
331
B4
  5
CE
331
6A9
  5
989
331
669
  5
690
331
1C0
  5
1EA
331
6D5
  5
9B7
331
6C4
  5
9A4
331
1D1
  5
1FB
331
977
  5
6CE
331
204
  5
652
331
989
  5
8DC
331
978
  5
6CF
331
9AA
  5
97B
331
679
  5
6A0
331
99A
  5
8ED
331
68A
  5
6B2
331
69B
  5
6C3
331
9BB
  5
C0
331
8E4
  5
9CA
331
1F4
  5
22D
331
205
  5
653
331
9CC
  5
C7
331
227
  5
65B
331
C6
  5
E0
331
659
  5
680
331
648
  5
66F
331
D7
  5
1C5
331
6AA
  5
98A
331
66A
  5
691
331
1C1
  5
1EB
331
6D6
  5
9B8
331
6C5
  5
9A5
331
1D2
  5
1FC
331
B5
  5
CF
331
98A
  5
8DD
331
979
  5
6D0
331
9AB
  5
97C
331
67A
  5
6A2
331
99B
  5
8EE
331
69C
  5
6C4
331
68B
  5
6B3
331
8E5
  5
9CB
331
1F5
  5
22E
331
206
  5
654
331
9CD
  5
C4
331
228
  5
65C
331
C7
  5
E1
331
65A
  5
681
331
649
  5
670
331
D8
  5
1C6
331
6AB
  5
98B
331
66B
  5
692
331
1C2
  5
1F0
331
6D7
  5
9B9
331
6C6
  5
9A6
331
1D3
  5
1FD
331
B6
  5
D0
331
98B
  5
8DE
331
97A
  5
6D1
331
9AC
  5
97D
331
67B
  5
6A3
331
99C
  5
8EF
331
69D
  5
6C5
331
68C
  5
6B4
331
8E6
  5
9CC
331
1F6
  5
22F
331
207
  5
655
331
9CE
  5
C5
331
229
  5
65D
331
C8
  5
E2
331
B7
  5
D1
331
65B
  5
682
331
64A
  5
671
331
6AC
  5
98C
331
66C
  5
693
331
1C3
  5
1F1
331
6C7
  5
9A7
331
1D4
  5
1FE
331
D9
  5
1CB
331
6C8
  5
9A8
331
98C
  5
8DF
331
97B
  5
6D2
331
9AD
  5
97E
331
67C
  5
6A4
331
99D
  5
8F0
331
69E
  5
6C6
331
68D
  5
6B5
331
8E7
  5
9CD
331
1F7
  5
23A
331
208
  5
656
331
9CF
  5
C6
331
22A
  5
65E
331
C9
  5
E3
331
B8
  5
D2
331
65C
  5
683
331
64B
  5
672
331
DA
  5
1CC
331
6AD
  5
98D
331
66D
  5
694
331
1D5
  5
1FF
331
1C4
  5
1F2
331
6C9
  5
9A9
331
6B8
  5
998
331
98D
  5
8E0
331
97C
  5
6D3
331
9AE
  5
97F
331
67D
  5
6A5
331
99E
  5
8F1
331
68E
  5
6B6
331
69F
  5
6C7
331
8E8
  5
9CE
331
1F8
  5
23B
331
65D
  5
684
331
64C
  5
673
331
DB
  5
1CD
331
CA
  5
E4
331
B9
  5
D3
331
9D0
  5
C1
331
6AE
  5
98E
331
66E
  5
695
331
1C5
  5
1F3
331
1E7
  5
205
331
1D6
  5
200
331
9BF
  5
AE
331
6CA
  5
9AA
331
6B9
  5
999
331
1E8
  5
206
331
98E
  5
8E1
331
97D
  5
6D4
331
9AF
  5
980
331
67E
  5
6A6
331
99F
  5
8F2
331
68F
  5
6B7
331
8E9
  5
9CF
331
1F9
  5
23D
331
65E
  5
685
331
64D
  5
674
331
DC
  5
1CE
331
CB
  5
1B7
331
BA
  5
D4
331
9D1
  5
C2
331
6AF
  5
98F
331
66F
  5
696
331
1C6
  5
1F4
331
1D7
  5
201
331
9C0
  5
AF
331
6B0
  5
990
331
670
  5
697
331
6CB
  5
9AB
331
6BA
  5
99A
331
1E9
  5
207
331
98F
  5
8E2
331
97E
  5
6D5
331
9B0
  5
981
331
67F
  5
6A7
331
8D9
  5
9BF
331
690
  5
6B8
331
8EA
  5
9D0
331
1FA
  5
648
331
22D
  5
65F
331
CC
  5
1B9
331
BB
  5
D5
331
9D2
  5
C3
331
65F
  5
686
331
64E
  5
675
331
DD
  5
1CF
331
9C1
  5
B0
331
6A0
  5
6C8
331
660
  5
687
331
6B1
  5
991
331
671
  5
698
331
6CC
  5
9AC
331
6BB
  5
99B
331
1EA
  5
208
331
1D9
  5
202
331
9A0
  5
8F3
331
97F
  5
6D6
331
990
  5
8E3
331
8DA
  5
9C0
331
691
  5
6B9
331
680
  5
6A8
331
8EB
  5
9D1
331
1FB
  5
649
331
22E
  5
660
331
CD
  5
1BB
331
BC
  5
D6
331
9D3
  5
BD
331
64F
  5
676
331
DE
  5
1D0
331
1B7
  5
1D7
  0
XRECORD
  5
9DF
102
{ACAD_REACTORS
330
9DD
102
}
330
9DD
100
AcDbXrecord
280
     1
 70
     2
  0
XRECORD
  5
9DE
102
{ACAD_REACTORS
330
9DD
102
}
330
9DD
100
AcDbXrecord
280
     1
 40
1.25
  0
XRECORD
  5
9E0
102
{ACAD_REACTORS
330
9DD
102
}
330
9DD
100
AcDbXrecord
280
     1
 40
1.570796326794896
  0
LAYOUT
  5
6E
102
{ACAD_XDICTIONARY
360
A14
102
}
102
{ACAD_REACTORS
330
61
102
}
330
61
100
AcDbPlotSettings
  1

  2
FX DP 205
  4

  6

 40
0.0
 41
0.0
 42
0.0
 43
0.0
 44
0.0
 45
0.0
 46
0.0
 47
0.0
 48
0.0
 49
0.0
140
0.0
141
0.0
142
1.0
143
1.0
 70
  1712
 72
     0
 73
     0
 74
     0
  7

 75
     0
147
1.0
148
0.0
149
0.0
100
AcDbLayout
  1
Model
 70
     1
 71
     0
 10
0.0
 20
0.0
 11
12.0
 21
9.0
 12
0.0
 22
0.0
 32
0.0
 14
0.0
 24
0.0
 34
0.0
 15
0.0
 25
0.0
 35
0.0
146
0.0
 13
0.0
 23
0.0
 33
0.0
 16
1.0
 26
0.0
 36
0.0
 17
0.0
 27
1.0
 37
0.0
 76
     0
330
6B
331
8B
  0
LAYOUT
  5
6A
102
{ACAD_XDICTIONARY
360
A12
102
}
102
{ACAD_REACTORS
330
61
102
}
330
61
100
AcDbPlotSettings
  1

  2
FX DP 205
  4

  6

 40
0.0
 41
0.0
 42
0.0
 43
0.0
 44
0.0
 45
0.0
 46
0.0
 47
0.0
 48
0.0
 49
0.0
140
0.0
141
0.0
142
1.0
143
1.0
 70
   688
 72
     0
 73
     0
 74
     5
  7

 75
    16
147
1.0
148
0.0
149
0.0
100
AcDbLayout
  1
レイアウト1
 70
     1
 71
     1
 10
0.0
 20
0.0
 11
12.0
 21
9.0
 12
0.0
 22
0.0
 32
0.0
 14
1.000000000000000E+20
 24
1.000000000000000E+20
 34
1.000000000000000E+20
 15
-1.000000000000000E+20
 25
-1.000000000000000E+20
 35
-1.000000000000000E+20
146
0.0
 13
0.0
 23
0.0
 33
0.0
 16
1.0
 26
0.0
 36
0.0
 17
0.0
 27
1.0
 37
0.0
 76
     0
330
67
  0
MATERIAL
  5
19
102
{ACAD_XDICTIONARY
360
1A
102
}
102
{ACAD_REACTORS
330
10
102
}
330
10
100
AcDbMaterial
  1
ByBlock
 72
     0
 43
0.0208333333333333
 43
0.0
 43
0.0
 43
0.0
 43
0.0
 43
0.0208333333333333
 43
0.0
 43
0.0
 43
0.0
 43
0.0
 43
1.0
 43
0.0
 43
0.0
 43
0.0
 43
0.0
 43
1.0
 77
     0
 47
0.0208333333333333
 47
0.0
 47
0.0
 47
0.0
 47
0.0
 47
0.0208333333333333
 47
0.0
 47
0.0
 47
0.0
 47
0.0
 47
1.0
 47
0.0
 47
0.0
 47
0.0
 47
0.0
 47
1.0
171
     0
 49
0.0208333333333333
 49
0.0
 49
0.0
 49
0.0
 49
0.0
 49
0.0208333333333333
 49
0.0
 49
0.0
 49
0.0
 49
0.0
 49
1.0
 49
0.0
 49
0.0
 49
0.0
 49
0.0
 49
1.0
175
     0
142
0.0208333333333333
142
0.0
142
0.0
142
0.0
142
0.0
142
0.0208333333333333
142
0.0
142
0.0
142
0.0
142
0.0
142
1.0
142
0.0
142
0.0
142
0.0
142
0.0
142
1.0
179
     0
144
0.0208333333333333
144
0.0
144
0.0
144
0.0
144
0.0
144
0.0208333333333333
144
0.0
144
0.0
144
0.0
144
0.0
144
1.0
144
0.0
144
0.0
144
0.0
144
0.0
144
1.0
147
0.0208333333333333
147
0.0
147
0.0
147
0.0
147
0.0
147
0.0208333333333333
147
0.0
147
0.0
147
0.0
147
0.0
147
1.0
147
0.0
147
0.0
147
0.0
147
0.0
147
1.0
  0
MATERIAL
  5
11
102
{ACAD_XDICTIONARY
360
12
102
}
102
{ACAD_REACTORS
330
10
102
}
330
10
100
AcDbMaterial
  1
ByLayer
 72
     0
 43
0.0208333333333333
 43
0.0
 43
0.0
 43
0.0
 43
0.0
 43
0.0208333333333333
 43
0.0
 43
0.0
 43
0.0
 43
0.0
 43
1.0
 43
0.0
 43
0.0
 43
0.0
 43
0.0
 43
1.0
 77
     0
 47
0.0208333333333333
 47
0.0
 47
0.0
 47
0.0
 47
0.0
 47
0.0208333333333333
 47
0.0
 47
0.0
 47
0.0
 47
0.0
 47
1.0
 47
0.0
 47
0.0
 47
0.0
 47
0.0
 47
1.0
171
     0
 49
0.0208333333333333
 49
0.0
 49
0.0
 49
0.0
 49
0.0
 49
0.0208333333333333
 49
0.0
 49
0.0
 49
0.0
 49
0.0
 49
1.0
 49
0.0
 49
0.0
 49
0.0
 49
0.0
 49
1.0
175
     0
142
0.0208333333333333
142
0.0
142
0.0
142
0.0
142
0.0
142
0.0208333333333333
142
0.0
142
0.0
142
0.0
142
0.0
142
1.0
142
0.0
142
0.0
142
0.0
142
0.0
142
1.0
179
     0
144
0.0208333333333333
144
0.0
144
0.0
144
0.0
144
0.0
144
0.0208333333333333
144
0.0
144
0.0
144
0.0
144
0.0
144
1.0
144
0.0
144
0.0
144
0.0
144
0.0
144
1.0
147
0.0208333333333333
147
0.0
147
0.0
147
0.0
147
0.0
147
0.0208333333333333
147
0.0
147
0.0
147
0.0
147
0.0
147
1.0
147
0.0
147
0.0
147
0.0
147
0.0
147
1.0
  0
MATERIAL
  5
21
102
{ACAD_XDICTIONARY
360
22
102
}
102
{ACAD_REACTORS
330
10
102
}
330
10
100
AcDbMaterial
  1
Global
 72
     0
 43
0.0208333333333333
 43
0.0
 43
0.0
 43
0.0
 43
0.0
 43
0.0208333333333333
 43
0.0
 43
0.0
 43
0.0
 43
0.0
 43
1.0
 43
0.0
 43
0.0
 43
0.0
 43
0.0
 43
1.0
 77
     0
 47
0.0208333333333333
 47
0.0
 47
0.0
 47
0.0
 47
0.0
 47
0.0208333333333333
 47
0.0
 47
0.0
 47
0.0
 47
0.0
 47
1.0
 47
0.0
 47
0.0
 47
0.0
 47
0.0
 47
1.0
171
     0
 49
0.0208333333333333
 49
0.0
 49
0.0
 49
0.0
 49
0.0
 49
0.0208333333333333
 49
0.0
 49
0.0
 49
0.0
 49
0.0
 49
1.0
 49
0.0
 49
0.0
 49
0.0
 49
0.0
 49
1.0
175
     0
142
0.0208333333333333
142
0.0
142
0.0
142
0.0
142
0.0
142
0.0208333333333333
142
0.0
142
0.0
142
0.0
142
0.0
142
1.0
142
0.0
142
0.0
142
0.0
142
0.0
142
1.0
179
     0
144
0.0208333333333333
144
0.0
144
0.0
144
0.0
144
0.0
144
0.0208333333333333
144
0.0
144
0.0
144
0.0
144
0.0
144
1.0
144
0.0
144
0.0
144
0.0
144
0.0
144
1.0
147
0.0208333333333333
147
0.0
147
0.0
147
0.0
147
0.0
147
0.0208333333333333
147
0.0
147
0.0
147
0.0
147
0.0
147
1.0
147
0.0
147
0.0
147
0.0
147
0.0
147
1.0
  0
MLEADERSTYLE
  5
66
102
{ACAD_REACTORS
330
65
102
}
330
65
100
AcDbMLeaderStyle
170
     2
171
     1
172
     0
 90
        2
 40
0.0
 41
0.0
173
     1
 91
-1056964608
340
5A
 92
       -2
290
     1
 42
0.09
291
     1
 43
0.36
  3
Standard
 44
0.18
300

342
55
174
     1
178
     6
175
     1
176
     0
 93
-1056964608
 45
0.18
292
     0
297
     0
 46
0.18
 94
-1056964608
 47
1.0
 49
1.0
140
1.0
293
     1
141
0.0
294
     1
177
     0
142
1.0
295
     0
296
     0
143
0.125
1001
ACAD_MLEADERVER
1070
     2
  0
MLINESTYLE
  5
5F
102
{ACAD_REACTORS
330
5E
102
}
330
5E
100
AcDbMlineStyle
  2
STANDARD
 70
     0
  3

 62
   256
 51
90.0
 52
90.0
 71
     2
 49
0.5
 62
   256
  6
BYLAYER
 49
-0.5
 62
   256
  6
BYLAYER
  0
ACDBPLACEHOLDER
  5
F
102
{ACAD_REACTORS
330
E
102
}
330
E
  0
SCALE
  5
43
102
{ACAD_REACTORS
330
42
102
}
330
42
100
AcDbScale
 70
     0
300
1:1
140
1.0
141
1.0
290
     1
  0
SCALE
  5
44
102
{ACAD_REACTORS
330
42
102
}
330
42
100
AcDbScale
 70
     0
300
1/128" = 1'-0"
140
0.0078125
141
12.0
290
     0
  0
SCALE
  5
45
102
{ACAD_REACTORS
330
42
102
}
330
42
100
AcDbScale
 70
     0
300
1/64" = 1'-0"
140
0.015625
141
12.0
290
     0
  0
SCALE
  5
46
102
{ACAD_REACTORS
330
42
102
}
330
42
100
AcDbScale
 70
     0
300
1/32" = 1'-0"
140
0.03125
141
12.0
290
     0
  0
SCALE
  5
47
102
{ACAD_REACTORS
330
42
102
}
330
42
100
AcDbScale
 70
     0
300
1/16" = 1'-0"
140
0.0625
141
12.0
290
     0
  0
SCALE
  5
48
102
{ACAD_REACTORS
330
42
102
}
330
42
100
AcDbScale
 70
     0
300
3/32" = 1'-0"
140
0.09375
141
12.0
290
     0
  0
SCALE
  5
49
102
{ACAD_REACTORS
330
42
102
}
330
42
100
AcDbScale
 70
     0
300
1/8" = 1'-0"
140
0.125
141
12.0
290
     0
  0
SCALE
  5
4A
102
{ACAD_REACTORS
330
42
102
}
330
42
100
AcDbScale
 70
     0
300
3/16" = 1'-0"
140
0.1875
141
12.0
290
     0
  0
SCALE
  5
4B
102
{ACAD_REACTORS
330
42
102
}
330
42
100
AcDbScale
 70
     0
300
1/4" = 1'-0"
140
0.25
141
12.0
290
     0
  0
SCALE
  5
4C
102
{ACAD_REACTORS
330
42
102
}
330
42
100
AcDbScale
 70
     0
300
3/8" = 1'-0"
140
0.375
141
12.0
290
     0
  0
SCALE
  5
4D
102
{ACAD_REACTORS
330
42
102
}
330
42
100
AcDbScale
 70
     0
300
1/2" = 1'-0"
140
0.5
141
12.0
290
     0
  0
SCALE
  5
4E
102
{ACAD_REACTORS
330
42
102
}
330
42
100
AcDbScale
 70
     0
300
3/4" = 1'-0"
140
0.75
141
12.0
290
     0
  0
SCALE
  5
4F
102
{ACAD_REACTORS
330
42
102
}
330
42
100
AcDbScale
 70
     0
300
1" = 1'-0"
140
1.0
141
12.0
290
     0
  0
SCALE
  5
50
102
{ACAD_REACTORS
330
42
102
}
330
42
100
AcDbScale
 70
     0
300
1-1/2" = 1'-0"
140
1.5
141
12.0
290
     0
  0
SCALE
  5
51
102
{ACAD_REACTORS
330
42
102
}
330
42
100
AcDbScale
 70
     0
300
3" = 1'-0"
140
3.0
141
12.0
290
     0
  0
SCALE
  5
52
102
{ACAD_REACTORS
330
42
102
}
330
42
100
AcDbScale
 70
     0
300
6" = 1'-0"
140
6.0
141
12.0
290
     0
  0
SCALE
  5
53
102
{ACAD_REACTORS
330
42
102
}
330
42
100
AcDbScale
 70
     0
300
1'-0" = 1'-0"
140
12.0
141
12.0
290
     0
  0
TABLESTYLE
  5
64
102
{ACAD_XDICTIONARY
360
466
102
}
102
{ACAD_REACTORS
330
63
102
}
330
63
100
AcDbTableStyle
  3
Standard
 70
     0
 71
     0
 40
0.06
 41
0.06
280
     0
281
     0
  7
STANDARD
140
0.18
170
     2
 62
     0
 63
     7
283
     0
274
    -2
284
     1
 64
     0
275
    -2
285
     1
 65
     0
276
    -2
286
     1
 66
     0
277
    -2
287
     1
 67
     0
278
    -2
288
     1
 68
     0
279
    -2
289
     1
 69
     0
  7
STANDARD
140
0.25
170
     5
 62
     0
 63
     7
283
     0
274
    -2
284
     1
 64
     0
275
    -2
285
     1
 65
     0
276
    -2
286
     1
 66
     0
277
    -2
287
     1
 67
     0
278
    -2
288
     1
 68
     0
279
    -2
289
     1
 69
     0
  7
STANDARD
140
0.18
170
     5
 62
     0
 63
     7
283
     0
274
    -2
284
     1
 64
     0
275
    -2
285
     1
 65
     0
276
    -2
286
     1
 66
     0
277
    -2
287
     1
 67
     0
278
    -2
288
     1
 68
     0
279
    -2
289
     1
 69
     0
  0
VISUALSTYLE
  5
2F
102
{ACAD_XDICTIONARY
360
9EB
102
}
102
{ACAD_REACTORS
330
29
102
}
330
29
100
AcDbVisualStyle
  2

 70
     4
 71
     0
 72
     2
 73
     0
 90
        0
 40
-0.6
 41
-30.0
 62
     5
 63
     7
 74
     1
 91
        4
 64
     7
 65
   257
 75
     1
175
     1
 42
1.0
 92
        0
 66
   257
 43
1.0
 76
     1
 77
     6
 78
     2
 67
     7
 79
     5
170
     0
171
     0
290
     0
174
     0
 93
        1
 44
0.0
173
     0
291
     0
 45
0.0
1001
ACAD
1000
AcDbSavedByObjectVersion
1070
     0
  0
VISUALSTYLE
  5
2E3
102
{ACAD_XDICTIONARY
360
A16
102
}
102
{ACAD_REACTORS
330
29
102
}
330
29
100
AcDbVisualStyle
  2

 70
     5
 71
     0
 72
     2
 73
     1
 90
        0
 40
-0.6
 41
-30.0
 62
     5
 63
     7
 74
     1
 91
        4
 64
     7
 65
   257
 75
     1
175
     1
 42
1.0
 92
        0
 66
   257
 43
1.0
 76
     1
 77
     6
 78
     2
 67
     7
 79
     5
170
     0
171
     0
290
     0
174
     0
 93
        1
 44
0.0
173
     0
291
     0
 45
0.0
1001
ACAD
1000
AcDbSavedByObjectVersion
1070
     0
  0
VISUALSTYLE
  5
2E
102
{ACAD_XDICTIONARY
360
9E9
102
}
102
{ACAD_REACTORS
330
29
102
}
330
29
100
AcDbVisualStyle
  2

 70
     7
 71
     1
 72
     0
 73
     1
 90
        0
 40
-0.6
 41
-30.0
 62
     5
 63
     7
 74
     0
 91
        4
 64
     7
 65
   257
 75
     1
175
     1
 42
1.0
 92
        8
 66
     7
 43
1.0
 76
     1
 77
     6
 78
     2
 67
     7
 79
     5
170
     0
171
     0
290
     0
174
     0
 93
        1
 44
0.0
173
     0
291
     1
 45
0.0
1001
ACAD
1000
AcDbSavedByObjectVersion
1070
     0
  0
VISUALSTYLE
  5
35
102
{ACAD_XDICTIONARY
360
9F7
102
}
102
{ACAD_REACTORS
330
29
102
}
330
29
100
AcDbVisualStyle
  2

 70
    12
 71
     2
 72
     2
 73
     0
 90
        0
 40
-0.6
 41
-30.0
 62
     5
 63
     7
 74
     1
 91
        4
 64
     7
 65
   257
 75
     1
175
     1
 42
1.0
 92
        8
 66
     7
 43
1.0
 76
     1
 77
     6
 78
     2
 67
     7
 79
     5
170
     0
171
     0
290
     0
174
     0
 93
        1
 44
50.0
173
     0
291
     1
 45
0.0
1001
ACAD
1000
AcDbSavedByObjectVersion
1070
     0
  0
VISUALSTYLE
  5
39
102
{ACAD_XDICTIONARY
360
9FF
102
}
102
{ACAD_REACTORS
330
29
102
}
330
29
100
AcDbVisualStyle
  2

 70
    16
 71
     2
 72
     2
 73
     3
 90
        0
 40
-0.6
 41
-30.0
 62
     5
 63
     8
 74
     1
 91
        4
 64
     7
 65
   257
 75
     1
175
     1
 42
1.0
 92
        8
 66
     8
 43
1.0
 76
     1
 77
     6
 78
     2
 67
     7
 79
     5
170
     0
171
     0
290
     0
174
     0
 93
        1
 44
0.0
173
     0
291
     1
 45
0.0
1001
ACAD
1000
AcDbSavedByObjectVersion
1070
     0
  0
VISUALSTYLE
  5
32
102
{ACAD_XDICTIONARY
360
9F1
102
}
102
{ACAD_REACTORS
330
29
102
}
330
29
100
AcDbVisualStyle
  2

 70
     9
 71
     3
 72
     2
 73
     0
 90
        0
 40
-0.6
 41
-30.0
 62
     5
 63
     7
 74
     2
 91
        2
 64
     7
 65
   257
 75
     1
175
     1
 42
179.0
 92
        8
 66
     7
 43
1.0
 76
     1
 77
     6
 78
     2
 67
     7
 79
     3
170
     0
171
     0
290
     0
174
     0
 93
        1
 44
0.0
173
     0
291
     0
 45
0.0
1001
ACAD
1000
AcDbSavedByObjectVersion
1070
     0
  0
VISUALSTYLE
  5
34
102
{ACAD_XDICTIONARY
360
9F5
102
}
102
{ACAD_REACTORS
330
29
102
}
330
29
100
AcDbVisualStyle
  2

 70
    11
 71
     2
 72
     2
 73
     0
 90
        0
 40
-0.6
 41
-30.0
 62
     5
 63
     7
 74
     1
 91
        4
 64
     7
 65
   257
 75
     1
175
     1
 42
1.0
 92
        8
 66
     7
 43
1.0
 76
     1
 77
     6
 78
     2
 67
     7
 79
     5
170
     0
171
     0
290
     0
174
     0
 93
        1
 44
-50.0
173
     0
291
     1
 45
0.0
1001
ACAD
1000
AcDbSavedByObjectVersion
1070
     0
  0
VISUALSTYLE
  5
41
102
{ACAD_XDICTIONARY
360
A0F
102
}
102
{ACAD_REACTORS
330
29
102
}
330
29
100
AcDbVisualStyle
  2

 70
    22
 71
     2
 72
     2
 73
     0
 90
        0
 40
-0.6
 41
-30.0
 62
     5
 63
     7
 74
     1
 91
        4
 64
     7
 65
   257
 75
     1
175
     1
 42
1.0
 92
        8
 66
     7
 43
1.0
 76
     1
 77
     6
 78
     2
 67
     7
 79
     5
170
     0
171
     0
290
     0
174
     0
 93
        1
 44
0.0
173
     0
291
     1
 45
0.0
1001
ACAD
1000
AcDbSavedByObjectVersion
1070
     0
  0
VISUALSTYLE
  5
38
102
{ACAD_XDICTIONARY
360
9FD
102
}
102
{ACAD_REACTORS
330
29
102
}
330
29
100
AcDbVisualStyle
  2

 70
    15
 71
     2
 72
     2
 73
     0
 90
        0
 40
-0.6
 41
-30.0
 62
     5
 63
     7
 74
     1
 91
        4
 64
     7
 65
   257
 75
     1
175
     1
 42
1.0
 92
        8
 66
     7
 43
1.0
 76
     1
 77
     6
 78
     2
 67
     7
 79
     5
170
     0
171
     0
290
     0
174
     0
 93
        1
 44
0.0
173
     0
291
     1
 45
0.0
1001
ACAD
1000
AcDbSavedByObjectVersion
1070
     0
  0
VISUALSTYLE
  5
2A
102
{ACAD_XDICTIONARY
360
9E1
102
}
102
{ACAD_REACTORS
330
29
102
}
330
29
100
AcDbVisualStyle
  2

 70
     0
 71
     2
 72
     1
 73
     1
 90
        2
 40
-0.6
 41
30.0
 62
     5
 63
     7
 74
     0
 91
        0
 64
     7
 65
   257
 75
     1
175
     1
 42
1.0
 92
        8
 66
     7
 43
1.0
 76
     1
 77
     6
 78
     2
 67
     7
 79
     5
170
     0
171
     0
290
     0
174
     0
 93
       13
 44
0.0
173
     0
291
     1
 45
0.0
1001
ACAD
1000
AcDbSavedByObjectVersion
1070
     0
  0
VISUALSTYLE
  5
2B
102
{ACAD_XDICTIONARY
360
9E3
102
}
102
{ACAD_REACTORS
330
29
102
}
330
29
100
AcDbVisualStyle
  2

 70
     1
 71
     2
 72
     1
 73
     1
 90
        2
 40
-0.6
 41
30.0
 62
     5
 63
     7
 74
     1
 91
        0
 64
     7
 65
   257
 75
     1
175
     1
 42
1.0
 92
        0
 66
   257
 43
1.0
 76
     1
 77
     6
 78
     2
 67
     7
 79
     5
170
     0
171
     0
290
     0
174
     0
 93
       13
 44
0.0
173
     0
291
     1
 45
0.0
1001
ACAD
1000
AcDbSavedByObjectVersion
1070
     0
  0
VISUALSTYLE
  5
2C
102
{ACAD_XDICTIONARY
360
9E5
102
}
102
{ACAD_REACTORS
330
29
102
}
330
29
100
AcDbVisualStyle
  2

 70
     2
 71
     2
 72
     2
 73
     1
 90
        2
 40
-0.6
 41
30.0
 62
     5
 63
     7
 74
     0
 91
        0
 64
     7
 65
   257
 75
     1
175
     1
 42
1.0
 92
        0
 66
     7
 43
1.0
 76
     1
 77
     6
 78
     2
 67
     7
 79
     5
170
     0
171
     0
290
     0
174
     0
 93
       13
 44
0.0
173
     0
291
     1
 45
0.0
1001
ACAD
1000
AcDbSavedByObjectVersion
1070
     0
  0
VISUALSTYLE
  5
2D
102
{ACAD_XDICTIONARY
360
9E7
102
}
102
{ACAD_REACTORS
330
29
102
}
330
29
100
AcDbVisualStyle
  2

 70
     3
 71
     2
 72
     2
 73
     1
 90
        2
 40
-0.6
 41
30.0
 62
     5
 63
     7
 74
     1
 91
        0
 64
     7
 65
   257
 75
     1
175
     1
 42
1.0
 92
        0
 66
   257
 43
1.0
 76
     1
 77
     6
 78
     2
 67
     7
 79
     5
170
     0
171
     0
290
     0
174
     0
 93
       13
 44
0.0
173
     0
291
     1
 45
0.0
1001
ACAD
1000
AcDbSavedByObjectVersion
1070
     0
  0
VISUALSTYLE
  5
31
102
{ACAD_XDICTIONARY
360
9EF
102
}
102
{ACAD_REACTORS
330
29
102
}
330
29
100
AcDbVisualStyle
  2

 70
     6
 71
     1
 72
     2
 73
     2
 90
        0
 40
-0.6
 41
-30.0
 62
     5
 63
     7
 74
     2
 91
        2
 64
     7
 65
   257
 75
     2
175
     1
 42
40.0
 92
        0
 66
   257
 43
1.0
 76
     1
 77
     6
 78
     2
 67
     7
 79
     3
170
     0
171
     0
290
     0
174
     0
 93
        1
 44
0.0
173
     0
291
     0
 45
0.0
1001
ACAD
1000
AcDbSavedByObjectVersion
1070
     0
  0
VISUALSTYLE
  5
3F
102
{ACAD_XDICTIONARY
360
A0B
102
}
102
{ACAD_REACTORS
330
29
102
}
330
29
100
AcDbVisualStyle
  2

 70
    20
 71
     2
 72
     2
 73
     0
 90
        0
 40
-0.6
 41
-30.0
 62
     5
 63
     7
 74
     1
 91
        4
 64
     7
 65
   257
 75
     1
175
     1
 42
1.0
 92
       10
 66
     7
 43
1.0
 76
     1
 77
     6
 78
     2
 67
     7
 79
     5
170
     0
171
     0
290
     0
174
     0
 93
        1
 44
0.0
173
     0
291
     1
 45
0.0
1001
ACAD
1000
AcDbSavedByObjectVersion
1070
     0
  0
VISUALSTYLE
  5
37
102
{ACAD_XDICTIONARY
360
9FB
102
}
102
{ACAD_REACTORS
330
29
102
}
330
29
100
AcDbVisualStyle
  2

 70
    14
 71
     2
 72
     2
 73
     0
 90
        0
 40
-0.6
 41
-30.0
 62
     5
 63
     7
 74
     1
 91
        4
 64
     7
 65
   257
 75
     7
175
     7
 42
1.0
 92
        8
 66
     7
 43
1.0
 76
     1
 77
     6
 78
     2
 67
     7
 79
     5
170
     0
171
     0
290
     0
174
     0
 93
        1
 44
0.0
173
     0
291
     1
 45
0.0
1001
ACAD
1000
AcDbSavedByObjectVersion
1070
     0
  0
VISUALSTYLE
  5
40
102
{ACAD_XDICTIONARY
360
A0D
102
}
102
{ACAD_REACTORS
330
29
102
}
330
29
100
AcDbVisualStyle
  2

 70
    21
 71
     2
 72
     2
 73
     0
 90
        0
 40
-0.6
 41
-30.0
 62
     5
 63
     7
 74
     1
 91
        4
 64
     7
 65
   257
 75
     1
175
     1
 42
1.0
 92
        9
 66
     7
 43
1.0
 76
     1
 77
     6
 78
     2
 67
     7
 79
     5
170
     0
171
     0
290
     0
174
     0
 93
        1
 44
0.0
173
     0
291
     1
 45
0.0
1001
ACAD
1000
AcDbSavedByObjectVersion
1070
     0
  0
VISUALSTYLE
  5
33
102
{ACAD_XDICTIONARY
360
9F3
102
}
102
{ACAD_REACTORS
330
29
102
}
330
29
100
AcDbVisualStyle
  2

 70
     8
 71
     2
 72
     3
 73
     0
 90
        2
 40
-0.6
 41
30.0
 62
     5
 63
     7
 74
     0
 91
        0
 64
     7
 65
   257
 75
     1
175
     1
 42
1.0
 92
        8
 66
   257
 43
1.0
 76
     1
 77
     6
 78
     2
 67
     7
 79
     3
170
     0
171
     0
290
     0
174
     0
 93
       13
 44
0.0
173
     0
291
     0
 45
0.0
1001
ACAD
1000
AcDbSavedByObjectVersion
1070
     0
  0
VISUALSTYLE
  5
3E
102
{ACAD_XDICTIONARY
360
A09
102
}
102
{ACAD_REACTORS
330
29
102
}
330
29
100
AcDbVisualStyle
  2

 70
    27
 71
     2
 72
     2
 73
     1
 90
        2
 40
-0.6
 41
30.0
 62
     5
 63
     7
 74
     0
 91
        4
 64
     7
 65
   257
 75
     1
175
     1
 42
1.0
 92
        8
 66
   257
 43
1.0
 76
     1
 77
     6
 78
     2
 67
     8
 79
     3
170
     0
171
     0
290
     0
174
     0
 93
        5
 44
0.0
173
     0
291
     0
 45
0.0
1001
ACAD
1000
AcDbSavedByObjectVersion
1070
     0
  0
VISUALSTYLE
  5
3D
102
{ACAD_XDICTIONARY
360
A07
102
}
102
{ACAD_REACTORS
330
29
102
}
330
29
100
AcDbVisualStyle
  2

 70
    26
 71
     2
 72
     2
 73
     1
 90
        2
 40
-0.6
 41
30.0
 62
     5
 63
     7
 74
     1
 91
       10
 64
     7
 65
   257
 75
     2
175
     1
 42
1.0
 92
        8
 66
   257
 43
1.0
 76
     1
 77
     6
 78
     2
 67
     7
 79
     3
170
     0
171
     0
290
     0
174
     0
 93
        5
 44
0.0
173
     0
291
     0
 45
0.0
1001
ACAD
1000
AcDbSavedByObjectVersion
1070
     0
  0
VISUALSTYLE
  5
3A
102
{ACAD_XDICTIONARY
360
A01
102
}
102
{ACAD_REACTORS
330
29
102
}
330
29
100
AcDbVisualStyle
  2

 70
    23
 71
     2
 72
     2
 73
     3
 90
        0
 40
-0.6
 41
-30.0
 62
     5
 63
     7
 74
     2
 91
        2
 64
     7
 65
     7
 75
     1
175
     1
 42
40.0
 92
        8
 66
     7
 43
1.0
 76
     1
 77
     6
 78
     2
 67
     7
 79
     3
170
     0
171
     0
290
     0
174
     0
 93
        1
 44
0.0
173
     0
291
     0
 45
0.0
1001
ACAD
1000
AcDbSavedByObjectVersion
1070
     0
  0
VISUALSTYLE
  5
3B
102
{ACAD_XDICTIONARY
360
A03
102
}
102
{ACAD_REACTORS
330
29
102
}
330
29
100
AcDbVisualStyle
  2

 70
    24
 71
     1
 72
     2
 73
     2
 90
        0
 40
-0.6
 41
-30.0
 62
     5
 63
     7
 74
     2
 91
        2
 64
     7
 65
     7
 75
     1
175
     1
 42
40.0
 92
       11
 66
     7
 43
1.0
 76
     1
 77
     6
 78
     2
 67
     7
 79
     6
170
     0
171
     0
290
     0
174
     0
 93
        1
 44
0.0
173
     0
291
     0
 45
0.0
1001
ACAD
1000
AcDbSavedByObjectVersion
1070
     0
  0
VISUALSTYLE
  5
36
102
{ACAD_XDICTIONARY
360
9F9
102
}
102
{ACAD_REACTORS
330
29
102
}
330
29
100
AcDbVisualStyle
  2

 70
    13
 71
     2
 72
     2
 73
     0
 90
        0
 40
-0.6
 41
-30.0
 62
     5
 63
     7
 74
     1
 91
        4
 64
     7
 65
   257
 75
     1
175
     1
 42
1.0
 92
       12
 66
     7
 43
1.0
 76
     1
 77
     6
 78
     2
 67
     7
 79
     5
170
     0
171
     0
290
     0
174
     0
 93
        1
 44
0.0
173
     0
291
     1
 45
0.0
1001
ACAD
1000
AcDbSavedByObjectVersion
1070
     0
  0
VISUALSTYLE
  5
30
102
{ACAD_XDICTIONARY
360
9ED
102
}
102
{ACAD_REACTORS
330
29
102
}
330
29
100
AcDbVisualStyle
  2

 70
     5
 71
     0
 72
     2
 73
     0
 90
        0
 40
-0.6
 41
-30.0
 62
     5
 63
     7
 74
     1
 91
        4
 64
     7
 65
   257
 75
     1
175
     1
 42
1.0
 92
        0
 66
   257
 43
1.0
 76
     1
 77
     6
 78
     2
 67
     7
 79
     3
170
     0
171
     0
290
     0
174
     0
 93
        1
 44
0.0
173
     0
291
     0
 45
0.0
1001
ACAD
1000
AcDbSavedByObjectVersion
1070
     0
  0
VISUALSTYLE
  5
3C
102
{ACAD_XDICTIONARY
360
A05
102
}
102
{ACAD_REACTORS
330
29
102
}
330
29
100
AcDbVisualStyle
  2

 70
    25
 71
     2
 72
     2
 73
     1
 90
        1
 40
0.5
 41
-30.0
 62
     5
 63
     7
 74
     1
 91
        0
 64
     7
 65
   257
 75
     1
175
     1
 42
1.0
 92
        8
 66
     7
 43
1.0
 76
     1
 77
     6
 78
     2
 67
     7
 79
     3
170
     0
171
     0
290
     0
174
     0
 93
       13
 44
0.0
173
     0
291
     0
 45
0.0
1001
ACAD
1000
AcDbSavedByObjectVersion
1070
     0
  0
DICTIONARYVAR
  5
461
102
{ACAD_REACTORS
330
45E
102
}
330
45E
100
DictionaryVariables
280
     0
  1
1:1
  0
DICTIONARYVAR
  5
460
102
{ACAD_REACTORS
330
45E
102
}
330
45E
100
DictionaryVariables
280
     0
  1
STANDARD
  0
DICTIONARYVAR
  5
45F
102
{ACAD_REACTORS
330
45E
102
}
330
45E
100
DictionaryVariables
280
     0
  1
STANDARD
  0
DICTIONARYVAR
  5
464
102
{ACAD_REACTORS
330
45E
102
}
330
45E
100
DictionaryVariables
280
     0
  1
1
  0
DICTIONARYVAR
  5
463
102
{ACAD_REACTORS
330
45E
102
}
330
45E
100
DictionaryVariables
280
     0
  1
0
  0
DICTIONARYVAR
  5
462
102
{ACAD_REACTORS
330
45E
102
}
330
45E
100
DictionaryVariables
280
     0
  1
127
  0
DICTIONARYVAR
  5
8F5
102
{ACAD_REACTORS
330
45E
102
}
330
45E
100
DictionaryVariables
280
     0
  1
2
  0
DICTIONARY
  5
A14
330
6E
100
AcDbDictionary
280
     1
281
     1
  3
ACAD_XREC_ROUNDTRIP
360
A15
  0
DICTIONARY
  5
A12
330
6A
100
AcDbDictionary
280
     1
281
     1
  3
ACAD_XREC_ROUNDTRIP
360
A13
  0
DICTIONARY
  5
1A
330
19
100
AcDbDictionary
280
     1
281
     1
  3
ACAD_XREC_ROUNDTRIP
360
46F
  3
BUMPTILE
360
1C
  3
DIFFUSETILE
360
1B
  3
OPACITYTILE
360
1F
  3
REFLECTIONTILE
360
1E
  3
REFRACTIONTILE
360
20
  3
SPECULARTILE
360
1D
  0
DICTIONARY
  5
12
330
11
100
AcDbDictionary
280
     1
281
     1
  3
ACAD_XREC_ROUNDTRIP
360
46E
  3
BUMPTILE
360
14
  3
DIFFUSETILE
360
13
  3
OPACITYTILE
360
17
  3
REFLECTIONTILE
360
16
  3
REFRACTIONTILE
360
18
  3
SPECULARTILE
360
15
  0
DICTIONARY
  5
22
330
21
100
AcDbDictionary
280
     1
281
     1
  3
ACAD_XREC_ROUNDTRIP
360
470
  3
BUMPTILE
360
24
  3
DIFFUSETILE
360
23
  3
OPACITYTILE
360
27
  3
REFLECTIONTILE
360
26
  3
REFRACTIONTILE
360
28
  3
SPECULARTILE
360
25
  0
DICTIONARY
  5
466
330
64
100
AcDbDictionary
280
     1
281
     1
  3
ACAD_ROUNDTRIP_2008_TABLESTYLE_CELLSTYLEMAP
360
9DA
  3
ACAD_XREC_ROUNDTRIP
360
A11
  0
DICTIONARY
  5
9EB
330
2F
100
AcDbDictionary
280
     1
281
     1
  3
ACAD_XREC_ROUNDTRIP
360
9EC
  0
DICTIONARY
  5
A16
330
2E3
100
AcDbDictionary
280
     1
281
     1
  3
ACAD_XREC_ROUNDTRIP
360
A17
  0
DICTIONARY
  5
9E9
330
2E
100
AcDbDictionary
280
     1
281
     1
  3
ACAD_XREC_ROUNDTRIP
360
9EA
  0
DICTIONARY
  5
9F7
330
35
100
AcDbDictionary
280
     1
281
     1
  3
ACAD_XREC_ROUNDTRIP
360
9F8
  0
DICTIONARY
  5
9FF
330
39
100
AcDbDictionary
280
     1
281
     1
  3
ACAD_XREC_ROUNDTRIP
360
A00
  0
DICTIONARY
  5
9F1
330
32
100
AcDbDictionary
280
     1
281
     1
  3
ACAD_XREC_ROUNDTRIP
360
9F2
  0
DICTIONARY
  5
9F5
330
34
100
AcDbDictionary
280
     1
281
     1
  3
ACAD_XREC_ROUNDTRIP
360
9F6
  0
DICTIONARY
  5
A0F
330
41
100
AcDbDictionary
280
     1
281
     1
  3
ACAD_XREC_ROUNDTRIP
360
A10
  0
DICTIONARY
  5
9FD
330
38
100
AcDbDictionary
280
     1
281
     1
  3
ACAD_XREC_ROUNDTRIP
360
9FE
  0
DICTIONARY
  5
9E1
330
2A
100
AcDbDictionary
280
     1
281
     1
  3
ACAD_XREC_ROUNDTRIP
360
9E2
  0
DICTIONARY
  5
9E3
330
2B
100
AcDbDictionary
280
     1
281
     1
  3
ACAD_XREC_ROUNDTRIP
360
9E4
  0
DICTIONARY
  5
9E5
330
2C
100
AcDbDictionary
280
     1
281
     1
  3
ACAD_XREC_ROUNDTRIP
360
9E6
  0
DICTIONARY
  5
9E7
330
2D
100
AcDbDictionary
280
     1
281
     1
  3
ACAD_XREC_ROUNDTRIP
360
9E8
  0
DICTIONARY
  5
9EF
330
31
100
AcDbDictionary
280
     1
281
     1
  3
ACAD_XREC_ROUNDTRIP
360
9F0
  0
DICTIONARY
  5
A0B
330
3F
100
AcDbDictionary
280
     1
281
     1
  3
ACAD_XREC_ROUNDTRIP
360
A0C
  0
DICTIONARY
  5
9FB
330
37
100
AcDbDictionary
280
     1
281
     1
  3
ACAD_XREC_ROUNDTRIP
360
9FC
  0
DICTIONARY
  5
A0D
330
40
100
AcDbDictionary
280
     1
281
     1
  3
ACAD_XREC_ROUNDTRIP
360
A0E
  0
DICTIONARY
  5
9F3
330
33
100
AcDbDictionary
280
     1
281
     1
  3
ACAD_XREC_ROUNDTRIP
360
9F4
  0
DICTIONARY
  5
A09
330
3E
100
AcDbDictionary
280
     1
281
     1
  3
ACAD_XREC_ROUNDTRIP
360
A0A
  0
DICTIONARY
  5
A07
330
3D
100
AcDbDictionary
280
     1
281
     1
  3
ACAD_XREC_ROUNDTRIP
360
A08
  0
DICTIONARY
  5
A01
330
3A
100
AcDbDictionary
280
     1
281
     1
  3
ACAD_XREC_ROUNDTRIP
360
A02
  0
DICTIONARY
  5
A03
330
3B
100
AcDbDictionary
280
     1
281
     1
  3
ACAD_XREC_ROUNDTRIP
360
A04
  0
DICTIONARY
  5
9F9
330
36
100
AcDbDictionary
280
     1
281
     1
  3
ACAD_XREC_ROUNDTRIP
360
9FA
  0
DICTIONARY
  5
9ED
330
30
100
AcDbDictionary
280
     1
281
     1
  3
ACAD_XREC_ROUNDTRIP
360
9EE
  0
DICTIONARY
  5
A05
330
3C
100
AcDbDictionary
280
     1
281
     1
  3
ACAD_XREC_ROUNDTRIP
360
A06
  0
XRECORD
  5
A15
102
{ACAD_REACTORS
330
A14
102
}
330
A14
100
AcDbXrecord
280
     1
102
SHADEPLOT
 70
     0
102
SHADEPLOTRESLEVEL
 70
     2
102
SHADEPLOTCUSTOMDPI
 70
   300
  0
XRECORD
  5
A13
102
{ACAD_REACTORS
330
A12
102
}
330
A12
100
AcDbXrecord
280
     1
102
SHADEPLOT
 70
     0
102
SHADEPLOTRESLEVEL
 70
     2
102
SHADEPLOTCUSTOMDPI
 70
   300
  0
XRECORD
  5
46F
102
{ACAD_REACTORS
330
1A
102
}
330
1A
100
AcDbXrecord
280
     1
102
MATERIAL
148
0.0
149
0.0
149
0.0
 93
        0
 94
      127
282
     0
 72
     0
 77
     0
171
     0
175
     0
179
     0
273
     0
  0
XRECORD
  5
1C
102
{ACAD_REACTORS
330
1A
102
}
330
1A
100
AcDbXrecord
280
     1
270
     1
271
     1
  0
XRECORD
  5
1B
102
{ACAD_REACTORS
330
1A
102
}
330
1A
100
AcDbXrecord
280
     1
270
     1
271
     1
  0
XRECORD
  5
1F
102
{ACAD_REACTORS
330
1A
102
}
330
1A
100
AcDbXrecord
280
     1
270
     1
271
     1
  0
XRECORD
  5
1E
102
{ACAD_REACTORS
330
1A
102
}
330
1A
100
AcDbXrecord
280
     1
270
     1
271
     1
  0
XRECORD
  5
20
102
{ACAD_REACTORS
330
1A
102
}
330
1A
100
AcDbXrecord
280
     1
270
     1
271
     1
  0
XRECORD
  5
1D
102
{ACAD_REACTORS
330
1A
102
}
330
1A
100
AcDbXrecord
280
     1
270
     1
271
     1
  0
XRECORD
  5
46E
102
{ACAD_REACTORS
330
12
102
}
330
12
100
AcDbXrecord
280
     1
102
MATERIAL
148
0.0
149
0.0
149
0.0
 93
        0
 94
      127
282
     0
 72
     0
 77
     0
171
     0
175
     0
179
     0
273
     0
  0
XRECORD
  5
14
102
{ACAD_REACTORS
330
12
102
}
330
12
100
AcDbXrecord
280
     1
270
     1
271
     1
  0
XRECORD
  5
13
102
{ACAD_REACTORS
330
12
102
}
330
12
100
AcDbXrecord
280
     1
270
     1
271
     1
  0
XRECORD
  5
17
102
{ACAD_REACTORS
330
12
102
}
330
12
100
AcDbXrecord
280
     1
270
     1
271
     1
  0
XRECORD
  5
16
102
{ACAD_REACTORS
330
12
102
}
330
12
100
AcDbXrecord
280
     1
270
     1
271
     1
  0
XRECORD
  5
18
102
{ACAD_REACTORS
330
12
102
}
330
12
100
AcDbXrecord
280
     1
270
     1
271
     1
  0
XRECORD
  5
15
102
{ACAD_REACTORS
330
12
102
}
330
12
100
AcDbXrecord
280
     1
270
     1
271
     1
  0
XRECORD
  5
470
102
{ACAD_REACTORS
330
22
102
}
330
22
100
AcDbXrecord
280
     1
102
MATERIAL
148
0.0
149
0.0
149
0.0
 93
        0
 94
      127
282
     0
 72
     0
 77
     0
171
     0
175
     0
179
     0
273
     0
  0
XRECORD
  5
24
102
{ACAD_REACTORS
330
22
102
}
330
22
100
AcDbXrecord
280
     1
270
     1
271
     1
  0
XRECORD
  5
23
102
{ACAD_REACTORS
330
22
102
}
330
22
100
AcDbXrecord
280
     1
270
     1
271
     1
  0
XRECORD
  5
27
102
{ACAD_REACTORS
330
22
102
}
330
22
100
AcDbXrecord
280
     1
270
     1
271
     1
  0
XRECORD
  5
26
102
{ACAD_REACTORS
330
22
102
}
330
22
100
AcDbXrecord
280
     1
270
     1
271
     1
  0
XRECORD
  5
28
102
{ACAD_REACTORS
330
22
102
}
330
22
100
AcDbXrecord
280
     1
270
     1
271
     1
  0
XRECORD
  5
25
102
{ACAD_REACTORS
330
22
102
}
330
22
100
AcDbXrecord
280
     1
270
     1
271
     1
  0
CELLSTYLEMAP
  5
9DA
102
{ACAD_REACTORS
330
466
102
}
330
466
100
AcDbCellStyleMap
 90
        3
300
CELLSTYLE
  1
TABLEFORMAT_BEGIN
 90
        5
170
     1
 91
        0
 92
    32768
 62
   257
 93
        1
300
CONTENTFORMAT
  1
CONTENTFORMAT_BEGIN
 90
        0
 91
        0
 92
      512
 93
        0
300

 40
0.0
140
1.0
 94
        5
 62
     0
340
55
144
0.25
309
CONTENTFORMAT_END
171
     1
301
MARGIN
  1
CELLMARGIN_BEGIN
 40
0.06
 40
0.06
 40
0.06
 40
0.06
 40
0.18
 40
0.18
309
CELLMARGIN_END
 94
        6
 95
        1
302
GRIDFORMAT
  1
GRIDFORMAT_BEGIN
 90
        0
 91
        1
 62
     0
 92
       -2
340
0
 93
        0
 40
0.045
309
GRIDFORMAT_END
 95
        2
302
GRIDFORMAT
  1
GRIDFORMAT_BEGIN
 90
        0
 91
        1
 62
     0
 92
       -2
340
0
 93
        0
 40
0.045
309
GRIDFORMAT_END
 95
        4
302
GRIDFORMAT
  1
GRIDFORMAT_BEGIN
 90
        0
 91
        1
 62
     0
 92
       -2
340
0
 93
        0
 40
0.045
309
GRIDFORMAT_END
 95
        8
302
GRIDFORMAT
  1
GRIDFORMAT_BEGIN
 90
        0
 91
        1
 62
     0
 92
       -2
340
0
 93
        0
 40
0.045
309
GRIDFORMAT_END
 95
       16
302
GRIDFORMAT
  1
GRIDFORMAT_BEGIN
 90
        0
 91
        1
 62
     0
 92
       -2
340
0
 93
        0
 40
0.045
309
GRIDFORMAT_END
 95
       32
302
GRIDFORMAT
  1
GRIDFORMAT_BEGIN
 90
        0
 91
        1
 62
     0
 92
       -2
340
0
 93
        0
 40
0.045
309
GRIDFORMAT_END
309
TABLEFORMAT_END
  1
CELLSTYLE_BEGIN
 90
        1
 91
        1
300
_TITLE
309
CELLSTYLE_END
300
CELLSTYLE
  1
TABLEFORMAT_BEGIN
 90
        5
170
     1
 91
        0
 92
        0
 62
   257
 93
        1
300
CONTENTFORMAT
  1
CONTENTFORMAT_BEGIN
 90
        0
 91
        0
 92
      512
 93
        0
300

 40
0.0
140
1.0
 94
        5
 62
     0
340
55
144
0.18
309
CONTENTFORMAT_END
171
     1
301
MARGIN
  1
CELLMARGIN_BEGIN
 40
0.06
 40
0.06
 40
0.06
 40
0.06
 40
0.18
 40
0.18
309
CELLMARGIN_END
 94
        6
 95
        1
302
GRIDFORMAT
  1
GRIDFORMAT_BEGIN
 90
        0
 91
        1
 62
     0
 92
       -2
340
0
 93
        0
 40
0.045
309
GRIDFORMAT_END
 95
        2
302
GRIDFORMAT
  1
GRIDFORMAT_BEGIN
 90
        0
 91
        1
 62
     0
 92
       -2
340
0
 93
        0
 40
0.045
309
GRIDFORMAT_END
 95
        4
302
GRIDFORMAT
  1
GRIDFORMAT_BEGIN
 90
        0
 91
        1
 62
     0
 92
       -2
340
0
 93
        0
 40
0.045
309
GRIDFORMAT_END
 95
        8
302
GRIDFORMAT
  1
GRIDFORMAT_BEGIN
 90
        0
 91
        1
 62
     0
 92
       -2
340
0
 93
        0
 40
0.045
309
GRIDFORMAT_END
 95
       16
302
GRIDFORMAT
  1
GRIDFORMAT_BEGIN
 90
        0
 91
        1
 62
     0
 92
       -2
340
0
 93
        0
 40
0.045
309
GRIDFORMAT_END
 95
       32
302
GRIDFORMAT
  1
GRIDFORMAT_BEGIN
 90
        0
 91
        1
 62
     0
 92
       -2
340
0
 93
        0
 40
0.045
309
GRIDFORMAT_END
309
TABLEFORMAT_END
  1
CELLSTYLE_BEGIN
 90
        2
 91
        1
300
_HEADER
309
CELLSTYLE_END
300
CELLSTYLE
  1
TABLEFORMAT_BEGIN
 90
        5
170
     1
 91
        0
 92
        0
 62
   257
 93
        1
300
CONTENTFORMAT
  1
CONTENTFORMAT_BEGIN
 90
        0
 91
        0
 92
      512
 93
        0
300

 40
0.0
140
1.0
 94
        2
 62
     0
340
55
144
0.18
309
CONTENTFORMAT_END
171
     1
301
MARGIN
  1
CELLMARGIN_BEGIN
 40
0.06
 40
0.06
 40
0.06
 40
0.06
 40
0.18
 40
0.18
309
CELLMARGIN_END
 94
        6
 95
        1
302
GRIDFORMAT
  1
GRIDFORMAT_BEGIN
 90
        0
 91
        1
 62
     0
 92
       -2
340
0
 93
        0
 40
0.045
309
GRIDFORMAT_END
 95
        2
302
GRIDFORMAT
  1
GRIDFORMAT_BEGIN
 90
        0
 91
        1
 62
     0
 92
       -2
340
0
 93
        0
 40
0.045
309
GRIDFORMAT_END
 95
        4
302
GRIDFORMAT
  1
GRIDFORMAT_BEGIN
 90
        0
 91
        1
 62
     0
 92
       -2
340
0
 93
        0
 40
0.045
309
GRIDFORMAT_END
 95
        8
302
GRIDFORMAT
  1
GRIDFORMAT_BEGIN
 90
        0
 91
        1
 62
     0
 92
       -2
340
0
 93
        0
 40
0.045
309
GRIDFORMAT_END
 95
       16
302
GRIDFORMAT
  1
GRIDFORMAT_BEGIN
 90
        0
 91
        1
 62
     0
 92
       -2
340
0
 93
        0
 40
0.045
309
GRIDFORMAT_END
 95
       32
302
GRIDFORMAT
  1
GRIDFORMAT_BEGIN
 90
        0
 91
        1
 62
     0
 92
       -2
340
0
 93
        0
 40
0.045
309
GRIDFORMAT_END
309
TABLEFORMAT_END
  1
CELLSTYLE_BEGIN
 90
        3
 91
        2
300
_DATA
309
CELLSTYLE_END
  0
XRECORD
  5
A11
102
{ACAD_REACTORS
330
466
102
}
330
466
100
AcDbXrecord
280
     1
102
ACAD_ROUNDTRIP_PRE2007_TABLESTYLE
 90
      512
 91
        0
  1

 92
      512
 93
        0
  2

 94
      512
 95
        0
  3

  0
XRECORD
  5
9EC
102
{ACAD_REACTORS
330
9EB
102
}
330
9EB
100
AcDbXrecord
280
     1
102
RTVSPropertyOp0
 70
     1
102
RTVSPropertyOp1
 70
     1
102
RTVSPropertyOp2
 70
     1
102
RTVSPropertyOp3
 70
     1
102
RTVSPropertyOp4
 70
     1
102
RTVSPropertyOp5
 70
     1
102
RTVSPropertyOp6
 70
     1
102
RTVSPropertyOp7
 70
     1
102
RTVSPropertyOp8
 70
     1
102
RTVSPropertyOp9
 70
     1
102
RTVSPropertyOp10
 70
     1
102
RTVSPropertyOp11
 70
     1
102
RTVSPropertyOp12
 70
     1
102
RTVSPropertyOp13
 70
     1
102
RTVSPropertyOp14
 70
     1
102
RTVSPropertyOp15
 70
     1
102
RTVSPropertyOp16
 70
     1
102
RTVSPropertyOp17
 70
     1
102
RTVSPropertyOp18
 70
     1
102
RTVSPropertyOp19
 70
     1
102
RTVSPropertyOp20
 70
     1
102
RTVSPropertyOp21
 70
     1
102
RTVSPropertyOp22
 70
     1
102
RTVSPropertyOp23
 70
     1
102
RTVSPropertyOp24
 70
     1
102
RTVSPropertyOp25
 70
     1
102
RTVSPropertyOp26
 70
     1
102
RTVSPropertyOp27
 70
     1
102
RTVSPropertyOp28
 70
     1
102
RTVSPropertyOp29
 70
     1
102
RTVSPropertyOp30
 70
     1
102
RTVSPropertyOp31
 70
     1
102
RTVSPropertyOp32
 70
     1
  0
XRECORD
  5
A17
102
{ACAD_REACTORS
330
A16
102
}
330
A16
100
AcDbXrecord
280
     1
102
RTVSPropertyOp0
 70
     1
102
RTVSPropertyOp1
 70
     1
102
RTVSPropertyOp2
 70
     1
102
RTVSPropertyOp3
 70
     1
102
RTVSPropertyOp4
 70
     1
102
RTVSPropertyOp5
 70
     1
102
RTVSPropertyOp6
 70
     1
102
RTVSPropertyOp7
 70
     1
102
RTVSPropertyOp8
 70
     1
102
RTVSPropertyOp9
 70
     1
102
RTVSPropertyOp10
 70
     1
102
RTVSPropertyOp11
 70
     1
102
RTVSPropertyOp12
 70
     1
102
RTVSPropertyOp13
 70
     1
102
RTVSPropertyOp14
 70
     1
102
RTVSPropertyOp15
 70
     1
102
RTVSPropertyOp16
 70
     1
102
RTVSPropertyOp17
 70
     1
102
RTVSPropertyOp18
 70
     1
102
RTVSPropertyOp19
 70
     1
102
RTVSPropertyOp20
 70
     1
102
RTVSPropertyOp21
 70
     1
102
RTVSPropertyOp22
 70
     1
102
RTVSPropertyOp23
 70
     1
102
RTVSPropertyOp24
 70
     1
102
RTVSPropertyOp25
 70
     1
102
RTVSPropertyOp26
 70
     1
102
RTVSPropertyOp27
 70
     1
102
RTVSPropertyOp28
 70
     1
102
RTVSPropertyOp29
 70
     1
102
RTVSPropertyOp30
 70
     1
102
RTVSPropertyOp31
 70
     1
102
RTVSPropertyOp32
 70
     1
  0
XRECORD
  5
9EA
102
{ACAD_REACTORS
330
9E9
102
}
330
9E9
100
AcDbXrecord
280
     1
102
RTVSPropertyOp0
 70
     1
102
RTVSPropertyOp1
 70
     1
102
RTVSPropertyOp2
 70
     1
102
RTVSPropertyOp3
 70
     1
102
RTVSPropertyOp4
 70
     1
102
RTVSPropertyOp5
 70
     1
102
RTVSPropertyOp6
 70
     1
102
RTVSPropertyOp7
 70
     1
102
RTVSPropertyOp8
 70
     1
102
RTVSPropertyOp9
 70
     1
102
RTVSPropertyOp10
 70
     1
102
RTVSPropertyOp11
 70
     1
102
RTVSPropertyOp12
 70
     1
102
RTVSPropertyOp13
 70
     1
102
RTVSPropertyOp14
 70
     1
102
RTVSPropertyOp15
 70
     1
102
RTVSPropertyOp16
 70
     1
102
RTVSPropertyOp17
 70
     1
102
RTVSPropertyOp18
 70
     1
102
RTVSPropertyOp19
 70
     1
102
RTVSPropertyOp20
 70
     1
102
RTVSPropertyOp21
 70
     1
102
RTVSPropertyOp22
 70
     1
102
RTVSPropertyOp23
 70
     1
102
RTVSPropertyOp24
 70
     1
102
RTVSPropertyOp25
 70
     1
102
RTVSPropertyOp26
 70
     1
102
RTVSPropertyOp27
 70
     1
102
RTVSPropertyOp28
 70
     1
102
RTVSPropertyOp29
 70
     1
102
RTVSPropertyOp30
 70
     1
102
RTVSPropertyOp31
 70
     1
102
RTVSPropertyOp32
 70
     1
  0
XRECORD
  5
9F8
102
{ACAD_REACTORS
330
9F7
102
}
330
9F7
100
AcDbXrecord
280
     1
102
RTVSPropertyOp0
 70
     1
102
RTVSPropertyOp1
 70
     1
102
RTVSPropertyOp2
 70
     1
102
RTVSPropertyOp3
 70
     1
102
RTVSPropertyOp4
 70
     1
102
RTVSPropertyOp5
 70
     1
102
RTVSPropertyOp6
 70
     1
102
RTVSPropertyOp7
 70
     1
102
RTVSPropertyOp8
 70
     1
102
RTVSPropertyOp9
 70
     1
102
RTVSPropertyOp10
 70
     1
102
RTVSPropertyOp11
 70
     1
102
RTVSPropertyOp12
 70
     1
102
RTVSPropertyOp13
 70
     1
102
RTVSPropertyOp14
 70
     1
102
RTVSPropertyOp15
 70
     1
102
RTVSPropertyOp16
 70
     1
102
RTVSPropertyOp17
 70
     1
102
RTVSPropertyOp18
 70
     1
102
RTVSPropertyOp19
 70
     1
102
RTVSPropertyOp20
 70
     1
102
RTVSPropertyOp21
 70
     1
102
RTVSPropertyOp22
 70
     1
102
RTVSPropertyOp23
 70
     1
102
RTVSPropertyOp24
 70
     1
102
RTVSPropertyOp25
 70
     1
102
RTVSPropertyOp26
 70
     1
102
RTVSPropertyOp27
 70
     1
102
RTVSPropertyOp28
 70
     1
102
RTVSPropertyOp29
 70
     1
102
RTVSPropertyOp30
 70
     1
102
RTVSPropertyOp31
 70
     1
102
RTVSPropertyOp32
 70
     1
  0
XRECORD
  5
A00
102
{ACAD_REACTORS
330
9FF
102
}
330
9FF
100
AcDbXrecord
280
     1
102
RTVSPropertyOp0
 70
     1
102
RTVSPropertyOp1
 70
     1
102
RTVSPropertyOp2
 70
     1
102
RTVSPropertyOp3
 70
     1
102
RTVSPropertyOp4
 70
     1
102
RTVSPropertyOp5
 70
     1
102
RTVSPropertyOp6
 70
     1
102
RTVSPropertyOp7
 70
     1
102
RTVSPropertyOp8
 70
     1
102
RTVSPropertyOp9
 70
     1
102
RTVSPropertyOp10
 70
     1
102
RTVSPropertyOp11
 70
     1
102
RTVSPropertyOp12
 70
     1
102
RTVSPropertyOp13
 70
     1
102
RTVSPropertyOp14
 70
     1
102
RTVSPropertyOp15
 70
     1
102
RTVSPropertyOp16
 70
     1
102
RTVSPropertyOp17
 70
     1
102
RTVSPropertyOp18
 70
     1
102
RTVSPropertyOp19
 70
     1
102
RTVSPropertyOp20
 70
     1
102
RTVSPropertyOp21
 70
     1
102
RTVSPropertyOp22
 70
     1
102
RTVSPropertyOp23
 70
     1
102
RTVSPropertyOp24
 70
     1
102
RTVSPropertyOp25
 70
     1
102
RTVSPropertyOp26
 70
     1
102
RTVSPropertyOp27
 70
     1
102
RTVSPropertyOp28
 70
     1
102
RTVSPropertyOp29
 70
     1
102
RTVSPropertyOp30
 70
     1
102
RTVSPropertyOp31
 70
     1
102
RTVSPropertyOp32
 70
     1
  0
XRECORD
  5
9F2
102
{ACAD_REACTORS
330
9F1
102
}
330
9F1
100
AcDbXrecord
280
     1
102
RTVSPropertyOp0
 70
     1
102
RTVSPropertyOp1
 70
     1
102
RTVSPropertyOp2
 70
     1
102
RTVSPropertyOp3
 70
     1
102
RTVSPropertyOp4
 70
     1
102
RTVSPropertyOp5
 70
     1
102
RTVSPropertyOp6
 70
     1
102
RTVSPropertyOp7
 70
     1
102
RTVSPropertyOp8
 70
     1
102
RTVSPropertyOp9
 70
     1
102
RTVSPropertyOp10
 70
     1
102
RTVSPropertyOp11
 70
     1
102
RTVSPropertyOp12
 70
     1
102
RTVSPropertyOp13
 70
     1
102
RTVSPropertyOp14
 70
     1
102
RTVSPropertyOp15
 70
     1
102
RTVSPropertyOp16
 70
     1
102
RTVSPropertyOp17
 70
     1
102
RTVSPropertyOp18
 70
     1
102
RTVSPropertyOp19
 70
     1
102
RTVSPropertyOp20
 70
     1
102
RTVSPropertyOp21
 70
     1
102
RTVSPropertyOp22
 70
     1
102
RTVSPropertyOp23
 70
     1
102
RTVSPropertyOp24
 70
     1
102
RTVSPropertyOp25
 70
     1
102
RTVSPropertyOp26
 70
     1
102
RTVSPropertyOp27
 70
     1
102
RTVSPropertyOp28
 70
     1
102
RTVSPropertyOp29
 70
     1
102
RTVSPropertyOp30
 70
     1
102
RTVSPropertyOp31
 70
     1
102
RTVSPropertyOp32
 70
     1
  0
XRECORD
  5
9F6
102
{ACAD_REACTORS
330
9F5
102
}
330
9F5
100
AcDbXrecord
280
     1
102
RTVSPropertyOp0
 70
     1
102
RTVSPropertyOp1
 70
     1
102
RTVSPropertyOp2
 70
     1
102
RTVSPropertyOp3
 70
     1
102
RTVSPropertyOp4
 70
     1
102
RTVSPropertyOp5
 70
     1
102
RTVSPropertyOp6
 70
     1
102
RTVSPropertyOp7
 70
     1
102
RTVSPropertyOp8
 70
     1
102
RTVSPropertyOp9
 70
     1
102
RTVSPropertyOp10
 70
     1
102
RTVSPropertyOp11
 70
     1
102
RTVSPropertyOp12
 70
     1
102
RTVSPropertyOp13
 70
     1
102
RTVSPropertyOp14
 70
     1
102
RTVSPropertyOp15
 70
     1
102
RTVSPropertyOp16
 70
     1
102
RTVSPropertyOp17
 70
     1
102
RTVSPropertyOp18
 70
     1
102
RTVSPropertyOp19
 70
     1
102
RTVSPropertyOp20
 70
     1
102
RTVSPropertyOp21
 70
     1
102
RTVSPropertyOp22
 70
     1
102
RTVSPropertyOp23
 70
     1
102
RTVSPropertyOp24
 70
     1
102
RTVSPropertyOp25
 70
     1
102
RTVSPropertyOp26
 70
     1
102
RTVSPropertyOp27
 70
     1
102
RTVSPropertyOp28
 70
     1
102
RTVSPropertyOp29
 70
     1
102
RTVSPropertyOp30
 70
     1
102
RTVSPropertyOp31
 70
     1
102
RTVSPropertyOp32
 70
     1
  0
XRECORD
  5
A10
102
{ACAD_REACTORS
330
A0F
102
}
330
A0F
100
AcDbXrecord
280
     1
102
RTVSPropertyOp0
 70
     0
102
RTVSPropertyOp1
 70
     0
102
RTVSPropertyOp2
 70
     0
102
RTVSPropertyOp3
 70
     0
102
RTVSPropertyOp4
 70
     0
102
RTVSPropertyOp5
 70
     0
102
RTVSPropertyOp6
 70
     0
102
RTVSPropertyOp7
 70
     0
102
RTVSPropertyOp8
 70
     0
102
RTVSPropertyOp9
 70
     0
102
RTVSPropertyOp10
 70
     0
102
RTVSPropertyOp11
 70
     0
102
RTVSPropertyOp12
 70
     0
102
RTVSPropertyOp13
 70
     0
102
RTVSPropertyOp14
 70
     2
102
RTVSPropertyOp15
 70
     0
102
RTVSPropertyOp16
 70
     0
102
RTVSPropertyOp17
 70
     0
102
RTVSPropertyOp18
 70
     0
102
RTVSPropertyOp19
 70
     0
102
RTVSPropertyOp20
 70
     0
102
RTVSPropertyOp21
 70
     0
102
RTVSPropertyOp22
 70
     0
102
RTVSPropertyOp23
 70
     0
102
RTVSPropertyOp24
 70
     0
102
RTVSPropertyOp25
 70
     0
102
RTVSPropertyOp26
 70
     0
102
RTVSPropertyOp27
 70
     0
102
RTVSPropertyOp28
 70
     0
102
RTVSPropertyOp29
 70
     0
102
RTVSPropertyOp30
 70
     0
102
RTVSPropertyOp31
 70
     0
102
RTVSPropertyOp32
 70
     0
  0
XRECORD
  5
9FE
102
{ACAD_REACTORS
330
9FD
102
}
330
9FD
100
AcDbXrecord
280
     1
102
RTVSPropertyOp0
 70
     1
102
RTVSPropertyOp1
 70
     1
102
RTVSPropertyOp2
 70
     1
102
RTVSPropertyOp3
 70
     1
102
RTVSPropertyOp4
 70
     1
102
RTVSPropertyOp5
 70
     1
102
RTVSPropertyOp6
 70
     1
102
RTVSPropertyOp7
 70
     1
102
RTVSPropertyOp8
 70
     1
102
RTVSPropertyOp9
 70
     1
102
RTVSPropertyOp10
 70
     1
102
RTVSPropertyOp11
 70
     1
102
RTVSPropertyOp12
 70
     1
102
RTVSPropertyOp13
 70
     1
102
RTVSPropertyOp14
 70
     1
102
RTVSPropertyOp15
 70
     1
102
RTVSPropertyOp16
 70
     1
102
RTVSPropertyOp17
 70
     1
102
RTVSPropertyOp18
 70
     1
102
RTVSPropertyOp19
 70
     1
102
RTVSPropertyOp20
 70
     1
102
RTVSPropertyOp21
 70
     1
102
RTVSPropertyOp22
 70
     1
102
RTVSPropertyOp23
 70
     1
102
RTVSPropertyOp24
 70
     1
102
RTVSPropertyOp25
 70
     1
102
RTVSPropertyOp26
 70
     1
102
RTVSPropertyOp27
 70
     1
102
RTVSPropertyOp28
 70
     1
102
RTVSPropertyOp29
 70
     1
102
RTVSPropertyOp30
 70
     1
102
RTVSPropertyOp31
 70
     1
102
RTVSPropertyOp32
 70
     1
  0
XRECORD
  5
9E2
102
{ACAD_REACTORS
330
9E1
102
}
330
9E1
100
AcDbXrecord
280
     1
102
RTVSPropertyOp0
 70
     1
102
RTVSPropertyOp1
 70
     1
102
RTVSPropertyOp2
 70
     1
102
RTVSPropertyOp3
 70
     1
102
RTVSPropertyOp4
 70
     1
102
RTVSPropertyOp5
 70
     1
102
RTVSPropertyOp6
 70
     1
102
RTVSPropertyOp7
 70
     1
102
RTVSPropertyOp8
 70
     1
102
RTVSPropertyOp9
 70
     1
102
RTVSPropertyOp10
 70
     1
102
RTVSPropertyOp11
 70
     1
102
RTVSPropertyOp12
 70
     1
102
RTVSPropertyOp13
 70
     1
102
RTVSPropertyOp14
 70
     1
102
RTVSPropertyOp15
 70
     1
102
RTVSPropertyOp16
 70
     1
102
RTVSPropertyOp17
 70
     1
102
RTVSPropertyOp18
 70
     1
102
RTVSPropertyOp19
 70
     1
102
RTVSPropertyOp20
 70
     1
102
RTVSPropertyOp21
 70
     1
102
RTVSPropertyOp22
 70
     1
102
RTVSPropertyOp23
 70
     1
102
RTVSPropertyOp24
 70
     1
102
RTVSPropertyOp25
 70
     1
102
RTVSPropertyOp26
 70
     1
102
RTVSPropertyOp27
 70
     1
102
RTVSPropertyOp28
 70
     1
102
RTVSPropertyOp29
 70
     1
102
RTVSPropertyOp30
 70
     1
102
RTVSPropertyOp31
 70
     1
102
RTVSPropertyOp32
 70
     1
  0
XRECORD
  5
9E4
102
{ACAD_REACTORS
330
9E3
102
}
330
9E3
100
AcDbXrecord
280
     1
102
RTVSPropertyOp0
 70
     1
102
RTVSPropertyOp1
 70
     1
102
RTVSPropertyOp2
 70
     1
102
RTVSPropertyOp3
 70
     1
102
RTVSPropertyOp4
 70
     1
102
RTVSPropertyOp5
 70
     1
102
RTVSPropertyOp6
 70
     1
102
RTVSPropertyOp7
 70
     1
102
RTVSPropertyOp8
 70
     1
102
RTVSPropertyOp9
 70
     1
102
RTVSPropertyOp10
 70
     1
102
RTVSPropertyOp11
 70
     1
102
RTVSPropertyOp12
 70
     1
102
RTVSPropertyOp13
 70
     1
102
RTVSPropertyOp14
 70
     1
102
RTVSPropertyOp15
 70
     1
102
RTVSPropertyOp16
 70
     1
102
RTVSPropertyOp17
 70
     1
102
RTVSPropertyOp18
 70
     1
102
RTVSPropertyOp19
 70
     1
102
RTVSPropertyOp20
 70
     1
102
RTVSPropertyOp21
 70
     1
102
RTVSPropertyOp22
 70
     1
102
RTVSPropertyOp23
 70
     1
102
RTVSPropertyOp24
 70
     1
102
RTVSPropertyOp25
 70
     1
102
RTVSPropertyOp26
 70
     1
102
RTVSPropertyOp27
 70
     1
102
RTVSPropertyOp28
 70
     1
102
RTVSPropertyOp29
 70
     1
102
RTVSPropertyOp30
 70
     1
102
RTVSPropertyOp31
 70
     1
102
RTVSPropertyOp32
 70
     1
  0
XRECORD
  5
9E6
102
{ACAD_REACTORS
330
9E5
102
}
330
9E5
100
AcDbXrecord
280
     1
102
RTVSPropertyOp0
 70
     1
102
RTVSPropertyOp1
 70
     1
102
RTVSPropertyOp2
 70
     1
102
RTVSPropertyOp3
 70
     1
102
RTVSPropertyOp4
 70
     1
102
RTVSPropertyOp5
 70
     1
102
RTVSPropertyOp6
 70
     1
102
RTVSPropertyOp7
 70
     1
102
RTVSPropertyOp8
 70
     1
102
RTVSPropertyOp9
 70
     1
102
RTVSPropertyOp10
 70
     1
102
RTVSPropertyOp11
 70
     1
102
RTVSPropertyOp12
 70
     1
102
RTVSPropertyOp13
 70
     1
102
RTVSPropertyOp14
 70
     1
102
RTVSPropertyOp15
 70
     1
102
RTVSPropertyOp16
 70
     1
102
RTVSPropertyOp17
 70
     1
102
RTVSPropertyOp18
 70
     1
102
RTVSPropertyOp19
 70
     1
102
RTVSPropertyOp20
 70
     1
102
RTVSPropertyOp21
 70
     1
102
RTVSPropertyOp22
 70
     1
102
RTVSPropertyOp23
 70
     1
102
RTVSPropertyOp24
 70
     1
102
RTVSPropertyOp25
 70
     1
102
RTVSPropertyOp26
 70
     1
102
RTVSPropertyOp27
 70
     1
102
RTVSPropertyOp28
 70
     1
102
RTVSPropertyOp29
 70
     1
102
RTVSPropertyOp30
 70
     1
102
RTVSPropertyOp31
 70
     1
102
RTVSPropertyOp32
 70
     1
  0
XRECORD
  5
9E8
102
{ACAD_REACTORS
330
9E7
102
}
330
9E7
100
AcDbXrecord
280
     1
102
RTVSPropertyOp0
 70
     1
102
RTVSPropertyOp1
 70
     1
102
RTVSPropertyOp2
 70
     1
102
RTVSPropertyOp3
 70
     1
102
RTVSPropertyOp4
 70
     1
102
RTVSPropertyOp5
 70
     1
102
RTVSPropertyOp6
 70
     1
102
RTVSPropertyOp7
 70
     1
102
RTVSPropertyOp8
 70
     1
102
RTVSPropertyOp9
 70
     1
102
RTVSPropertyOp10
 70
     1
102
RTVSPropertyOp11
 70
     1
102
RTVSPropertyOp12
 70
     1
102
RTVSPropertyOp13
 70
     1
102
RTVSPropertyOp14
 70
     1
102
RTVSPropertyOp15
 70
     1
102
RTVSPropertyOp16
 70
     1
102
RTVSPropertyOp17
 70
     1
102
RTVSPropertyOp18
 70
     1
102
RTVSPropertyOp19
 70
     1
102
RTVSPropertyOp20
 70
     1
102
RTVSPropertyOp21
 70
     1
102
RTVSPropertyOp22
 70
     1
102
RTVSPropertyOp23
 70
     1
102
RTVSPropertyOp24
 70
     1
102
RTVSPropertyOp25
 70
     1
102
RTVSPropertyOp26
 70
     1
102
RTVSPropertyOp27
 70
     1
102
RTVSPropertyOp28
 70
     1
102
RTVSPropertyOp29
 70
     1
102
RTVSPropertyOp30
 70
     1
102
RTVSPropertyOp31
 70
     1
102
RTVSPropertyOp32
 70
     1
  0
XRECORD
  5
9F0
102
{ACAD_REACTORS
330
9EF
102
}
330
9EF
100
AcDbXrecord
280
     1
102
RTVSPropertyOp0
 70
     1
102
RTVSPropertyOp1
 70
     1
102
RTVSPropertyOp2
 70
     1
102
RTVSPropertyOp3
 70
     1
102
RTVSPropertyOp4
 70
     1
102
RTVSPropertyOp5
 70
     1
102
RTVSPropertyOp6
 70
     1
102
RTVSPropertyOp7
 70
     1
102
RTVSPropertyOp8
 70
     1
102
RTVSPropertyOp9
 70
     1
102
RTVSPropertyOp10
 70
     1
102
RTVSPropertyOp11
 70
     1
102
RTVSPropertyOp12
 70
     1
102
RTVSPropertyOp13
 70
     1
102
RTVSPropertyOp14
 70
     1
102
RTVSPropertyOp15
 70
     1
102
RTVSPropertyOp16
 70
     1
102
RTVSPropertyOp17
 70
     1
102
RTVSPropertyOp18
 70
     1
102
RTVSPropertyOp19
 70
     1
102
RTVSPropertyOp20
 70
     1
102
RTVSPropertyOp21
 70
     1
102
RTVSPropertyOp22
 70
     1
102
RTVSPropertyOp23
 70
     1
102
RTVSPropertyOp24
 70
     1
102
RTVSPropertyOp25
 70
     1
102
RTVSPropertyOp26
 70
     1
102
RTVSPropertyOp27
 70
     1
102
RTVSPropertyOp28
 70
     1
102
RTVSPropertyOp29
 70
     1
102
RTVSPropertyOp30
 70
     1
102
RTVSPropertyOp31
 70
     1
102
RTVSPropertyOp32
 70
     1
  0
XRECORD
  5
A0C
102
{ACAD_REACTORS
330
A0B
102
}
330
A0B
100
AcDbXrecord
280
     1
102
RTVSPropertyOp0
 70
     0
102
RTVSPropertyOp1
 70
     0
102
RTVSPropertyOp2
 70
     0
102
RTVSPropertyOp3
 70
     0
102
RTVSPropertyOp4
 70
     0
102
RTVSPropertyOp5
 70
     0
102
RTVSPropertyOp6
 70
     0
102
RTVSPropertyOp7
 70
     0
102
RTVSPropertyOp8
 70
     0
102
RTVSPropertyOp9
 70
     0
102
RTVSPropertyOp10
 70
     0
102
RTVSPropertyOp11
 70
     0
102
RTVSPropertyOp12
 70
     0
102
RTVSPropertyOp13
 70
     0
102
RTVSPropertyOp14
 70
     2
102
RTVSPropertyOp15
 70
     0
102
RTVSPropertyOp16
 70
     0
102
RTVSPropertyOp17
 70
     0
102
RTVSPropertyOp18
 70
     0
102
RTVSPropertyOp19
 70
     0
102
RTVSPropertyOp20
 70
     0
102
RTVSPropertyOp21
 70
     0
102
RTVSPropertyOp22
 70
     0
102
RTVSPropertyOp23
 70
     0
102
RTVSPropertyOp24
 70
     0
102
RTVSPropertyOp25
 70
     0
102
RTVSPropertyOp26
 70
     0
102
RTVSPropertyOp27
 70
     0
102
RTVSPropertyOp28
 70
     0
102
RTVSPropertyOp29
 70
     0
102
RTVSPropertyOp30
 70
     0
102
RTVSPropertyOp31
 70
     0
102
RTVSPropertyOp32
 70
     0
  0
XRECORD
  5
9FC
102
{ACAD_REACTORS
330
9FB
102
}
330
9FB
100
AcDbXrecord
280
     1
102
RTVSPropertyOp0
 70
     1
102
RTVSPropertyOp1
 70
     1
102
RTVSPropertyOp2
 70
     1
102
RTVSPropertyOp3
 70
     1
102
RTVSPropertyOp4
 70
     1
102
RTVSPropertyOp5
 70
     1
102
RTVSPropertyOp6
 70
     1
102
RTVSPropertyOp7
 70
     1
102
RTVSPropertyOp8
 70
     1
102
RTVSPropertyOp9
 70
     1
102
RTVSPropertyOp10
 70
     1
102
RTVSPropertyOp11
 70
     1
102
RTVSPropertyOp12
 70
     1
102
RTVSPropertyOp13
 70
     1
102
RTVSPropertyOp14
 70
     1
102
RTVSPropertyOp15
 70
     1
102
RTVSPropertyOp16
 70
     1
102
RTVSPropertyOp17
 70
     1
102
RTVSPropertyOp18
 70
     1
102
RTVSPropertyOp19
 70
     1
102
RTVSPropertyOp20
 70
     1
102
RTVSPropertyOp21
 70
     1
102
RTVSPropertyOp22
 70
     1
102
RTVSPropertyOp23
 70
     1
102
RTVSPropertyOp24
 70
     1
102
RTVSPropertyOp25
 70
     1
102
RTVSPropertyOp26
 70
     1
102
RTVSPropertyOp27
 70
     1
102
RTVSPropertyOp28
 70
     1
102
RTVSPropertyOp29
 70
     1
102
RTVSPropertyOp30
 70
     1
102
RTVSPropertyOp31
 70
     1
102
RTVSPropertyOp32
 70
     1
  0
XRECORD
  5
A0E
102
{ACAD_REACTORS
330
A0D
102
}
330
A0D
100
AcDbXrecord
280
     1
102
RTVSPropertyOp0
 70
     0
102
RTVSPropertyOp1
 70
     0
102
RTVSPropertyOp2
 70
     0
102
RTVSPropertyOp3
 70
     0
102
RTVSPropertyOp4
 70
     0
102
RTVSPropertyOp5
 70
     0
102
RTVSPropertyOp6
 70
     0
102
RTVSPropertyOp7
 70
     0
102
RTVSPropertyOp8
 70
     0
102
RTVSPropertyOp9
 70
     0
102
RTVSPropertyOp10
 70
     0
102
RTVSPropertyOp11
 70
     0
102
RTVSPropertyOp12
 70
     0
102
RTVSPropertyOp13
 70
     0
102
RTVSPropertyOp14
 70
     2
102
RTVSPropertyOp15
 70
     0
102
RTVSPropertyOp16
 70
     0
102
RTVSPropertyOp17
 70
     0
102
RTVSPropertyOp18
 70
     0
102
RTVSPropertyOp19
 70
     0
102
RTVSPropertyOp20
 70
     0
102
RTVSPropertyOp21
 70
     0
102
RTVSPropertyOp22
 70
     0
102
RTVSPropertyOp23
 70
     0
102
RTVSPropertyOp24
 70
     0
102
RTVSPropertyOp25
 70
     0
102
RTVSPropertyOp26
 70
     0
102
RTVSPropertyOp27
 70
     0
102
RTVSPropertyOp28
 70
     0
102
RTVSPropertyOp29
 70
     0
102
RTVSPropertyOp30
 70
     0
102
RTVSPropertyOp31
 70
     0
102
RTVSPropertyOp32
 70
     0
  0
XRECORD
  5
9F4
102
{ACAD_REACTORS
330
9F3
102
}
330
9F3
100
AcDbXrecord
280
     1
102
RTVSPropertyOp0
 70
     1
102
RTVSPropertyOp1
 70
     1
102
RTVSPropertyOp2
 70
     1
102
RTVSPropertyOp3
 70
     1
102
RTVSPropertyOp4
 70
     1
102
RTVSPropertyOp5
 70
     1
102
RTVSPropertyOp6
 70
     1
102
RTVSPropertyOp7
 70
     1
102
RTVSPropertyOp8
 70
     1
102
RTVSPropertyOp9
 70
     1
102
RTVSPropertyOp10
 70
     1
102
RTVSPropertyOp11
 70
     1
102
RTVSPropertyOp12
 70
     1
102
RTVSPropertyOp13
 70
     1
102
RTVSPropertyOp14
 70
     1
102
RTVSPropertyOp15
 70
     1
102
RTVSPropertyOp16
 70
     1
102
RTVSPropertyOp17
 70
     1
102
RTVSPropertyOp18
 70
     1
102
RTVSPropertyOp19
 70
     1
102
RTVSPropertyOp20
 70
     1
102
RTVSPropertyOp21
 70
     1
102
RTVSPropertyOp22
 70
     1
102
RTVSPropertyOp23
 70
     1
102
RTVSPropertyOp24
 70
     1
102
RTVSPropertyOp25
 70
     1
102
RTVSPropertyOp26
 70
     1
102
RTVSPropertyOp27
 70
     1
102
RTVSPropertyOp28
 70
     1
102
RTVSPropertyOp29
 70
     1
102
RTVSPropertyOp30
 70
     1
102
RTVSPropertyOp31
 70
     1
102
RTVSPropertyOp32
 70
     1
  0
XRECORD
  5
A0A
102
{ACAD_REACTORS
330
A09
102
}
330
A09
100
AcDbXrecord
280
     1
102
RTVSPropertyOp0
 70
     1
102
RTVSPropertyOp1
 70
     1
102
RTVSPropertyOp2
 70
     1
102
RTVSPropertyOp3
 70
     1
102
RTVSPropertyOp4
 70
     1
102
RTVSPropertyOp5
 70
     1
102
RTVSPropertyOp6
 70
     1
102
RTVSPropertyOp7
 70
     1
102
RTVSPropertyOp8
 70
     1
102
RTVSPropertyOp9
 70
     1
102
RTVSPropertyOp10
 70
     1
102
RTVSPropertyOp11
 70
     1
102
RTVSPropertyOp12
 70
     1
102
RTVSPropertyOp13
 70
     1
102
RTVSPropertyOp14
 70
     1
102
RTVSPropertyOp15
 70
     1
102
RTVSPropertyOp16
 70
     1
102
RTVSPropertyOp17
 70
     1
102
RTVSPropertyOp18
 70
     1
102
RTVSPropertyOp19
 70
     1
102
RTVSPropertyOp20
 70
     1
102
RTVSPropertyOp21
 70
     1
102
RTVSPropertyOp22
 70
     1
102
RTVSPropertyOp23
 70
     1
102
RTVSPropertyOp24
 70
     1
102
RTVSPropertyOp25
 70
     1
102
RTVSPropertyOp26
 70
     1
102
RTVSPropertyOp27
 70
     1
102
RTVSPropertyOp28
 70
     1
102
RTVSPropertyOp29
 70
     1
102
RTVSPropertyOp30
 70
     1
102
RTVSPropertyOp31
 70
     1
102
RTVSPropertyOp32
 70
     1
  0
XRECORD
  5
A08
102
{ACAD_REACTORS
330
A07
102
}
330
A07
100
AcDbXrecord
280
     1
102
RTVSPropertyOp0
 70
     1
102
RTVSPropertyOp1
 70
     1
102
RTVSPropertyOp2
 70
     1
102
RTVSPropertyOp3
 70
     1
102
RTVSPropertyOp4
 70
     1
102
RTVSPropertyOp5
 70
     1
102
RTVSPropertyOp6
 70
     1
102
RTVSPropertyOp7
 70
     1
102
RTVSPropertyOp8
 70
     1
102
RTVSPropertyOp9
 70
     1
102
RTVSPropertyOp10
 70
     1
102
RTVSPropertyOp11
 70
     1
102
RTVSPropertyOp12
 70
     1
102
RTVSPropertyOp13
 70
     1
102
RTVSPropertyOp14
 70
     1
102
RTVSPropertyOp15
 70
     1
102
RTVSPropertyOp16
 70
     1
102
RTVSPropertyOp17
 70
     1
102
RTVSPropertyOp18
 70
     1
102
RTVSPropertyOp19
 70
     1
102
RTVSPropertyOp20
 70
     1
102
RTVSPropertyOp21
 70
     1
102
RTVSPropertyOp22
 70
     1
102
RTVSPropertyOp23
 70
     1
102
RTVSPropertyOp24
 70
     1
102
RTVSPropertyOp25
 70
     1
102
RTVSPropertyOp26
 70
     1
102
RTVSPropertyOp27
 70
     1
102
RTVSPropertyOp28
 70
     1
102
RTVSPropertyOp29
 70
     1
102
RTVSPropertyOp30
 70
     1
102
RTVSPropertyOp31
 70
     1
102
RTVSPropertyOp32
 70
     1
  0
XRECORD
  5
A02
102
{ACAD_REACTORS
330
A01
102
}
330
A01
100
AcDbXrecord
280
     1
102
RTVSPropertyOp0
 70
     1
102
RTVSPropertyOp1
 70
     1
102
RTVSPropertyOp2
 70
     1
102
RTVSPropertyOp3
 70
     1
102
RTVSPropertyOp4
 70
     1
102
RTVSPropertyOp5
 70
     1
102
RTVSPropertyOp6
 70
     1
102
RTVSPropertyOp7
 70
     1
102
RTVSPropertyOp8
 70
     1
102
RTVSPropertyOp9
 70
     1
102
RTVSPropertyOp10
 70
     1
102
RTVSPropertyOp11
 70
     1
102
RTVSPropertyOp12
 70
     1
102
RTVSPropertyOp13
 70
     1
102
RTVSPropertyOp14
 70
     1
102
RTVSPropertyOp15
 70
     1
102
RTVSPropertyOp16
 70
     1
102
RTVSPropertyOp17
 70
     1
102
RTVSPropertyOp18
 70
     1
102
RTVSPropertyOp19
 70
     1
102
RTVSPropertyOp20
 70
     1
102
RTVSPropertyOp21
 70
     1
102
RTVSPropertyOp22
 70
     1
102
RTVSPropertyOp23
 70
     1
102
RTVSPropertyOp24
 70
     1
102
RTVSPropertyOp25
 70
     1
102
RTVSPropertyOp26
 70
     1
102
RTVSPropertyOp27
 70
     1
102
RTVSPropertyOp28
 70
     1
102
RTVSPropertyOp29
 70
     1
102
RTVSPropertyOp30
 70
     1
102
RTVSPropertyOp31
 70
     1
102
RTVSPropertyOp32
 70
     1
  0
XRECORD
  5
A04
102
{ACAD_REACTORS
330
A03
102
}
330
A03
100
AcDbXrecord
280
     1
102
RTVSPropertyOp0
 70
     1
102
RTVSPropertyOp1
 70
     1
102
RTVSPropertyOp2
 70
     1
102
RTVSPropertyOp3
 70
     1
102
RTVSPropertyOp4
 70
     1
102
RTVSPropertyOp5
 70
     1
102
RTVSPropertyOp6
 70
     1
102
RTVSPropertyOp7
 70
     1
102
RTVSPropertyOp8
 70
     1
102
RTVSPropertyOp9
 70
     1
102
RTVSPropertyOp10
 70
     1
102
RTVSPropertyOp11
 70
     1
102
RTVSPropertyOp12
 70
     1
102
RTVSPropertyOp13
 70
     1
102
RTVSPropertyOp14
 70
     1
102
RTVSPropertyOp15
 70
     1
102
RTVSPropertyOp16
 70
     1
102
RTVSPropertyOp17
 70
     1
102
RTVSPropertyOp18
 70
     1
102
RTVSPropertyOp19
 70
     1
102
RTVSPropertyOp20
 70
     1
102
RTVSPropertyOp21
 70
     1
102
RTVSPropertyOp22
 70
     1
102
RTVSPropertyOp23
 70
     1
102
RTVSPropertyOp24
 70
     1
102
RTVSPropertyOp25
 70
     1
102
RTVSPropertyOp26
 70
     1
102
RTVSPropertyOp27
 70
     1
102
RTVSPropertyOp28
 70
     1
102
RTVSPropertyOp29
 70
     1
102
RTVSPropertyOp30
 70
     1
102
RTVSPropertyOp31
 70
     1
102
RTVSPropertyOp32
 70
     1
  0
XRECORD
  5
9FA
102
{ACAD_REACTORS
330
9F9
102
}
330
9F9
100
AcDbXrecord
280
     1
102
RTVSPropertyOp0
 70
     1
102
RTVSPropertyOp1
 70
     1
102
RTVSPropertyOp2
 70
     1
102
RTVSPropertyOp3
 70
     1
102
RTVSPropertyOp4
 70
     1
102
RTVSPropertyOp5
 70
     1
102
RTVSPropertyOp6
 70
     1
102
RTVSPropertyOp7
 70
     1
102
RTVSPropertyOp8
 70
     1
102
RTVSPropertyOp9
 70
     1
102
RTVSPropertyOp10
 70
     1
102
RTVSPropertyOp11
 70
     1
102
RTVSPropertyOp12
 70
     1
102
RTVSPropertyOp13
 70
     1
102
RTVSPropertyOp14
 70
     1
102
RTVSPropertyOp15
 70
     1
102
RTVSPropertyOp16
 70
     1
102
RTVSPropertyOp17
 70
     1
102
RTVSPropertyOp18
 70
     1
102
RTVSPropertyOp19
 70
     1
102
RTVSPropertyOp20
 70
     1
102
RTVSPropertyOp21
 70
     1
102
RTVSPropertyOp22
 70
     1
102
RTVSPropertyOp23
 70
     1
102
RTVSPropertyOp24
 70
     1
102
RTVSPropertyOp25
 70
     1
102
RTVSPropertyOp26
 70
     1
102
RTVSPropertyOp27
 70
     1
102
RTVSPropertyOp28
 70
     1
102
RTVSPropertyOp29
 70
     1
102
RTVSPropertyOp30
 70
     1
102
RTVSPropertyOp31
 70
     1
102
RTVSPropertyOp32
 70
     1
  0
XRECORD
  5
9EE
102
{ACAD_REACTORS
330
9ED
102
}
330
9ED
100
AcDbXrecord
280
     1
102
RTVSPropertyOp0
 70
     1
102
RTVSPropertyOp1
 70
     1
102
RTVSPropertyOp2
 70
     1
102
RTVSPropertyOp3
 70
     1
102
RTVSPropertyOp4
 70
     1
102
RTVSPropertyOp5
 70
     1
102
RTVSPropertyOp6
 70
     1
102
RTVSPropertyOp7
 70
     1
102
RTVSPropertyOp8
 70
     1
102
RTVSPropertyOp9
 70
     1
102
RTVSPropertyOp10
 70
     1
102
RTVSPropertyOp11
 70
     1
102
RTVSPropertyOp12
 70
     1
102
RTVSPropertyOp13
 70
     1
102
RTVSPropertyOp14
 70
     1
102
RTVSPropertyOp15
 70
     1
102
RTVSPropertyOp16
 70
     1
102
RTVSPropertyOp17
 70
     1
102
RTVSPropertyOp18
 70
     1
102
RTVSPropertyOp19
 70
     1
102
RTVSPropertyOp20
 70
     1
102
RTVSPropertyOp21
 70
     1
102
RTVSPropertyOp22
 70
     1
102
RTVSPropertyOp23
 70
     1
102
RTVSPropertyOp24
 70
     1
102
RTVSPropertyOp25
 70
     1
102
RTVSPropertyOp26
 70
     1
102
RTVSPropertyOp27
 70
     1
102
RTVSPropertyOp28
 70
     1
102
RTVSPropertyOp29
 70
     1
102
RTVSPropertyOp30
 70
     1
102
RTVSPropertyOp31
 70
     1
102
RTVSPropertyOp32
 70
     1
  0
XRECORD
  5
A06
102
{ACAD_REACTORS
330
A05
102
}
330
A05
100
AcDbXrecord
280
     1
102
RTVSPropertyOp0
 70
     1
102
RTVSPropertyOp1
 70
     1
102
RTVSPropertyOp2
 70
     1
102
RTVSPropertyOp3
 70
     1
102
RTVSPropertyOp4
 70
     1
102
RTVSPropertyOp5
 70
     1
102
RTVSPropertyOp6
 70
     1
102
RTVSPropertyOp7
 70
     1
102
RTVSPropertyOp8
 70
     1
102
RTVSPropertyOp9
 70
     1
102
RTVSPropertyOp10
 70
     1
102
RTVSPropertyOp11
 70
     1
102
RTVSPropertyOp12
 70
     1
102
RTVSPropertyOp13
 70
     1
102
RTVSPropertyOp14
 70
     1
102
RTVSPropertyOp15
 70
     1
102
RTVSPropertyOp16
 70
     1
102
RTVSPropertyOp17
 70
     1
102
RTVSPropertyOp18
 70
     1
102
RTVSPropertyOp19
 70
     1
102
RTVSPropertyOp20
 70
     1
102
RTVSPropertyOp21
 70
     1
102
RTVSPropertyOp22
 70
     1
102
RTVSPropertyOp23
 70
     1
102
RTVSPropertyOp24
 70
     1
102
RTVSPropertyOp25
 70
     1
102
RTVSPropertyOp26
 70
     1
102
RTVSPropertyOp27
 70
     1
102
RTVSPropertyOp28
 70
     1
102
RTVSPropertyOp29
 70
     1
102
RTVSPropertyOp30
 70
     1
102
RTVSPropertyOp31
 70
     1
102
RTVSPropertyOp32
 70
     1
  0
ENDSEC
  0
EOF
