  0
SECTION
  2
HEADER
  9
$ACADVER
  1
AC1015
  9
$ACADMAINTVER
 70
    20
  9
$DWGCODEPAGE
  3
ANSI_932
  9
$INSBASE
 10
0.0
 20
0.0
 30
0.0
  9
$EXTMIN
 10
690.302767
 20
647.9589909999997
 30
0.0
  9
$EXTMAX
 10
983.3240707593843
 20
929.0811197299998
 30
0.0
  9
$LIMMIN
 10
690.3017949999997
 20
647.957984
  9
$LIMMAX
 10
882.3037949999998
 20
929.082116
  9
$ORTHOMODE
 70
     1
  9
$REGENMODE
 70
     1
  9
$FILLMODE
 70
     1
  9
$QTEXTMODE
 70
     0
  9
$MIRRTEXT
 70
     0
  9
$LTSCALE
 40
4.685369
  9
$ATTMODE
 70
     1
  9
$TEXTSIZE
 40
3.2
  9
$TRACEWID
 40
0.05
  9
$TEXTSTYLE
  7
高3.2
  9
$CLAYER
  8
0
  9
$CELTYPE
  6
CONTINUOUS
  9
$CECOLOR
 62
   256
  9
$CELTSCALE
 40
1.0
  9
$DISPSILH
 70
     0
  9
$DIMSCALE
 40
1.0
  9
$DIMASZ
 40
2.5
  9
$DIMEXO
 40
0.25
  9
$DIMDLI
 40
0.2
  9
$DIMRND
 40
0.0
  9
$DIMDLE
 40
0.0
  9
$DIMEXE
 40
1.25
  9
$DIMTP
 40
0.0
  9
$DIMTM
 40
0.0
  9
$DIMTXT
 40
3.0
  9
$DIMCEN
 40
0.0
  9
$DIMTSZ
 40
0.0
  9
$DIMTOL
 70
     0
  9
$DIMLIM
 70
     0
  9
$DIMTIH
 70
     0
  9
$DIMTOH
 70
     0
  9
$DIMSE1
 70
     0
  9
$DIMSE2
 70
     0
  9
$DIMTAD
 70
     3
  9
$DIMZIN
 70
     8
  9
$DIMBLK
  1
Open30
  9
$DIMASO
 70
     1
  9
$DIMSHO
 70
     1
  9
$DIMPOST
  1

  9
$DIMAPOST
  1

  9
$DIMALT
 70
     0
  9
$DIMALTD
 70
     3
  9
$DIMALTF
 40
0.03937007874016
  9
$DIMLFAC
 40
1.0
  9
$DIMTOFL
 70
     1
  9
$DIMTVP
 40
0.0
  9
$DIMTIX
 70
     0
  9
$DIMSOXD
 70
     0
  9
$DIMSAH
 70
     0
  9
$DIMBLK1
  1

  9
$DIMBLK2
  1

  9
$DIMSTYLE
  2
1：1
  9
$DIMCLRD
 70
     0
  9
$DIMCLRE
 70
     0
  9
$DIMCLRT
 70
     4
  9
$DIMTFAC
 40
1.0
  9
$DIMGAP
 40
0.625
  9
$DIMJUST
 70
     0
  9
$DIMSD1
 70
     0
  9
$DIMSD2
 70
     0
  9
$DIMTOLJ
 70
     0
  9
$DIMTZIN
 70
     8
  9
$DIMALTZ
 70
     0
  9
$DIMALTTZ
 70
     0
  9
$DIMUPT
 70
     1
  9
$DIMDEC
 70
     2
  9
$DIMTDEC
 70
     2
  9
$DIMALTU
 70
     2
  9
$DIMALTTD
 70
     3
  9
$DIMTXSTY
  7
STANDARD
  9
$DIMAUNIT
 70
     0
  9
$DIMADEC
 70
     1
  9
$DIMALTRND
 40
0.0
  9
$DIMAZIN
 70
     2
  9
$DIMDSEP
 70
    46
  9
$DIMATFIT
 70
     0
  9
$DIMFRAC
 70
     0
  9
$DIMLDRBLK
  1
Open30
  9
$DIMLUNIT
 70
     2
  9
$DIMLWD
 70
    -2
  9
$DIMLWE
 70
    -2
  9
$DIMTMOVE
 70
     0
  9
$LUNITS
 70
     2
  9
$LUPREC
 70
     4
  9
$SKETCHINC
 40
0.1
  9
$FILLETRAD
 40
0.0
  9
$AUNITS
 70
     0
  9
$AUPREC
 70
     0
  9
$MENU
  1
.
  9
$ELEVATION
 40
0.0
  9
$PELEVATION
 40
0.0
  9
$THICKNESS
 40
0.0
  9
$LIMCHECK
 70
     0
  9
$CHAMFERA
 40
0.0
  9
$CHAMFERB
 40
0.0
  9
$CHAMFERC
 40
0.0
  9
$CHAMFERD
 40
0.0
  9
$SKPOLY
 70
     0
  9
$TDCREATE
 40
2456071.792198229
  9
$TDUCREATE
 40
2456071.417198229
  9
$TDUPDATE
 40
2457351.762475440
  9
$TDUUPDATE
 40
2457351.387475440
  9
$TDINDWG
 40
0.0299439120
  9
$TDUSRTIMER
 40
0.0299438542
  9
$USRTIMER
 70
     1
  9
$ANGBASE
 50
0.0
  9
$ANGDIR
 70
     0
  9
$PDMODE
 70
     0
  9
$PDSIZE
 40
0.0
  9
$PLINEWID
 40
0.0
  9
$SPLFRAME
 70
     0
  9
$SPLINETYPE
 70
     6
  9
$SPLINESEGS
 70
     8
  9
$HANDSEED
  5
A8E
  9
$SURFTAB1
 70
     6
  9
$SURFTAB2
 70
     6
  9
$SURFTYPE
 70
     6
  9
$SURFU
 70
     6
  9
$SURFV
 70
     6
  9
$UCSBASE
  2

  9
$UCSNAME
  2

  9
$UCSORG
 10
0.0
 20
0.0
 30
0.0
  9
$UCSXDIR
 10
1.0
 20
0.0
 30
0.0
  9
$UCSYDIR
 10
0.0
 20
1.0
 30
0.0
  9
$UCSORTHOREF
  2

  9
$UCSORTHOVIEW
 70
     0
  9
$UCSORGTOP
 10
0.0
 20
0.0
 30
0.0
  9
$UCSORGBOTTOM
 10
0.0
 20
0.0
 30
0.0
  9
$UCSORGLEFT
 10
0.0
 20
0.0
 30
0.0
  9
$UCSORGRIGHT
 10
0.0
 20
0.0
 30
0.0
  9
$UCSORGFRONT
 10
0.0
 20
0.0
 30
0.0
  9
$UCSORGBACK
 10
0.0
 20
0.0
 30
0.0
  9
$PUCSBASE
  2

  9
$PUCSNAME
  2

  9
$PUCSORG
 10
0.0
 20
0.0
 30
0.0
  9
$PUCSXDIR
 10
1.0
 20
0.0
 30
0.0
  9
$PUCSYDIR
 10
0.0
 20
1.0
 30
0.0
  9
$PUCSORTHOREF
  2

  9
$PUCSORTHOVIEW
 70
     0
  9
$PUCSORGTOP
 10
0.0
 20
0.0
 30
0.0
  9
$PUCSORGBOTTOM
 10
0.0
 20
0.0
 30
0.0
  9
$PUCSORGLEFT
 10
0.0
 20
0.0
 30
0.0
  9
$PUCSORGRIGHT
 10
0.0
 20
0.0
 30
0.0
  9
$PUCSORGFRONT
 10
0.0
 20
0.0
 30
0.0
  9
$PUCSORGBACK
 10
0.0
 20
0.0
 30
0.0
  9
$USERI1
 70
     0
  9
$USERI2
 70
     0
  9
$USERI3
 70
     0
  9
$USERI4
 70
     0
  9
$USERI5
 70
     0
  9
$USERR1
 40
0.0
  9
$USERR2
 40
0.0
  9
$USERR3
 40
0.0
  9
$USERR4
 40
0.0
  9
$USERR5
 40
0.0
  9
$WORLDVIEW
 70
     1
  9
$SHADEDGE
 70
     3
  9
$SHADEDIF
 70
    70
  9
$TILEMODE
 70
     1
  9
$MAXACTVP
 70
    64
  9
$PINSBASE
 10
0.0
 20
0.0
 30
0.0
  9
$PLIMCHECK
 70
     0
  9
$PEXTMIN
 10
1.000000000000000E+20
 20
1.000000000000000E+20
 30
1.000000000000000E+20
  9
$PEXTMAX
 10
-1.000000000000000E+20
 20
-1.000000000000000E+20
 30
-1.000000000000000E+20
  9
$PLIMMIN
 10
0.0
 20
0.0
  9
$PLIMMAX
 10
12.0
 20
9.0
  9
$UNITMODE
 70
     0
  9
$VISRETAIN
 70
     1
  9
$PLINEGEN
 70
     0
  9
$PSLTSCALE
 70
     1
  9
$TREEDEPTH
 70
  3020
  9
$CMLSTYLE
  2
Standard
  9
$CMLJUST
 70
     0
  9
$CMLSCALE
 40
1.0
  9
$PROXYGRAPHICS
 70
     1
  9
$MEASUREMENT
 70
     0
  9
$CELWEIGHT
370
    -1
  9
$ENDCAPS
280
     0
  9
$JOINSTYLE
280
     0
  9
$LWDISPLAY
290
     0
  9
$INSUNITS
 70
     0
  9
$HYPERLINKBASE
  1

  9
$STYLESHEET
  1

  9
$XEDIT
290
     1
  9
$CEPSNTYPE
380
     0
  9
$PSTYLEMODE
290
     1
  9
$FINGERPRINTGUID
  2
{AFF6307A-265B-4E7D-9F5B-8B8DE8C5D608}
  9
$VERSIONGUID
  2
{0C527039-509D-442B-AABB-30CA0364837A}
  9
$EXTNAMES
290
     1
  9
$PSVPSCALE
 40
0.0
  9
$OLESTARTUP
290
     0
  0
ENDSEC
  0
SECTION
  2
CLASSES
  0
CLASS
  1
ACDBDICTIONARYWDFLT
  2
AcDbDictionaryWithDefault
  3
ObjectDBX Classes
 90
        0
280
     0
281
     0
  0
CLASS
  1
MATERIAL
  2
AcDbMaterial
  3
ObjectDBX Classes
 90
     1153
280
     0
281
     0
  0
CLASS
  1
VISUALSTYLE
  2
AcDbVisualStyle
  3
ObjectDBX Classes
 90
     4095
280
     0
281
     0
  0
CLASS
  1
SCALE
  2
AcDbScale
  3
ObjectDBX Classes
 90
     1153
280
     0
281
     0
  0
CLASS
  1
TABLESTYLE
  2
AcDbTableStyle
  3
ObjectDBX Classes
 90
     4095
280
     0
281
     0
  0
CLASS
  1
MLEADERSTYLE
  2
AcDbMLeaderStyle
  3
ACDB_MLEADERSTYLE_CLASS
 90
     4095
280
     0
281
     0
  0
CLASS
  1
SORTENTSTABLE
  2
AcDbSortentsTable
  3
ObjectDBX Classes
 90
        0
280
     0
281
     0
  0
CLASS
  1
DICTIONARYVAR
  2
AcDbDictionaryVar
  3
ObjectDBX Classes
 90
        0
280
     0
281
     0
  0
CLASS
  1
CELLSTYLEMAP
  2
AcDbCellStyleMap
  3
ObjectDBX Classes
 90
     1152
280
     0
281
     0
  0
CLASS
  1
ACDBPLACEHOLDER
  2
AcDbPlaceHolder
  3
ObjectDBX Classes
 90
        0
280
     0
281
     0
  0
CLASS
  1
LAYOUT
  2
AcDbLayout
  3
ObjectDBX Classes
 90
        0
280
     0
281
     0
  0
CLASS
  1
AEC_REFEDIT_STATUS_TRACKER
  2
AecDbRefEditStatusTracker
  3
AecArchBase60|Product Desc: Autodesk Architectural Desktop 2007 |Company: Autodesk,Inc. |WEB Address: www.autodesk.com
 90
      129
280
     0
281
     0
  0
CLASS
  1
NPOCOLLECTION
  2
AcDbImpNonPersistentObjectsCollection
  3
ObjectDBX Classes
 90
     1153
280
     0
281
     0
  0
ENDSEC
  0
SECTION
  2
TABLES
  0
TABLE
  2
VPORT
  5
8
330
0
100
AcDbSymbolTable
 70
     1
  0
VPORT
  5
8B
330
8
100
AcDbSymbolTableRecord
100
AcDbViewportTableRecord
  2
*Active
 70
     0
 10
0.0
 20
0.0
 11
1.0
 21
1.0
 12
783.9684914593878
 22
728.5905411066281
 13
0.0
 23
0.0
 14
1.0
 24
1.0
 15
0.0
 25
0.0
 16
0.0
 26
0.0
 36
1.0
 17
0.0
 27
0.0
 37
0.0
 40
797.6884057047559
 41
1.860896445131375
 42
50.0
 43
0.0
 44
0.0
 50
0.0
 51
0.0
 71
     0
 72
   100
 73
     1
 74
     1
 75
     0
 76
     0
 77
     0
 78
     0
281
     0
 65
     1
110
0.0
120
0.0
130
0.0
111
1.0
121
0.0
131
0.0
112
0.0
122
1.0
132
0.0
 79
     0
146
0.0
  0
ENDTAB
  0
TABLE
  2
LTYPE
  5
5
330
0
100
AcDbSymbolTable
 70
     2
  0
LTYPE
  5
5A
330
5
100
AcDbSymbolTableRecord
100
AcDbLinetypeTableRecord
  2
ByBlock
 70
     0
  3

 72
    65
 73
     0
 40
0.0
  0
LTYPE
  5
5B
330
5
100
AcDbSymbolTableRecord
100
AcDbLinetypeTableRecord
  2
ByLayer
 70
     0
  3

 72
    65
 73
     0
 40
0.0
  0
LTYPE
  5
5C
330
5
100
AcDbSymbolTableRecord
100
AcDbLinetypeTableRecord
  2
CONTINUOUS
 70
     0
  3
Solid-line
 72
    65
 73
     0
 40
0.0
  0
ENDTAB
  0
TABLE
  2
LAYER
  5
2
102
{ACAD_XDICTIONARY
360
2E3
102
}
330
0
100
AcDbSymbolTable
 70
     2
  0
LAYER
  5
54
102
{ACAD_XDICTIONARY
360
450
102
}
330
2
100
AcDbSymbolTableRecord
100
AcDbLayerTableRecord
  2
0
 70
     0
 62
     7
  6
CONTINUOUS
370
    -3
390
F
  0
LAYER
  5
2CE
330
2
100
AcDbSymbolTableRecord
100
AcDbLayerTableRecord
  2
Defpoints
 70
     0
 62
     7
  6
CONTINUOUS
290
     0
370
    -3
390
F
  0
ENDTAB
  0
TABLE
  2
STYLE
  5
3
330
0
100
AcDbSymbolTable
 70
     6
  0
STYLE
  5
55
330
3
100
AcDbSymbolTableRecord
100
AcDbTextStyleTableRecord
  2
STANDARD
 70
     0
 40
0.0
 41
1.0
 50
0.0
 71
     0
 42
0.2
  3
TXT
  4
BIGFONT
  0
STYLE
  5
2CF
330
3
100
AcDbSymbolTableRecord
100
AcDbTextStyleTableRecord
  2
高3.2
 70
     0
 40
3.2
 41
1.0
 50
0.0
 71
     0
 42
3.2
  3
txt.shx
  4
bigfont.shx
  0
STYLE
  5
2D0
330
3
100
AcDbSymbolTableRecord
100
AcDbTextStyleTableRecord
  2
高6.3
 70
     0
 40
6.299999999999998
 41
1.0
 50
0.0
 71
     0
 42
6.299999999999998
  3
txt.shx
  4
bigfont.shx
  0
STYLE
  5
2D1
330
3
100
AcDbSymbolTableRecord
100
AcDbTextStyleTableRecord
  2
高2.5
 70
     0
 40
2.5
 41
1.0
 50
0.0
 71
     0
 42
0.2
  3
txt.shx
  4
bigfont.shx
  0
STYLE
  5
2D2
330
3
100
AcDbSymbolTableRecord
100
AcDbTextStyleTableRecord
  2
高4.5
 70
     0
 40
4.5
 41
1.0
 50
0.0
 71
     0
 42
6.299999999999998
  3
txt.shx
  4
bigfont.shx
  0
STYLE
  5
2D3
330
3
100
AcDbSymbolTableRecord
100
AcDbTextStyleTableRecord
  2
高2
 70
     0
 40
2.0
 41
1.0
 50
0.0
 71
     0
 42
2.0
  3
txt.shx
  4
bigfont.shx
  0
ENDTAB
  0
TABLE
  2
VIEW
  5
6
330
0
100
AcDbSymbolTable
 70
     0
  0
ENDTAB
  0
TABLE
  2
UCS
  5
7
330
0
100
AcDbSymbolTable
 70
     0
  0
ENDTAB
  0
TABLE
  2
APPID
  5
9
330
0
100
AcDbSymbolTable
 70
    10
  0
APPID
  5
56
330
9
100
AcDbSymbolTableRecord
100
AcDbRegAppTableRecord
  2
ACAD
 70
     0
  0
APPID
  5
5D
330
9
100
AcDbSymbolTableRecord
100
AcDbRegAppTableRecord
  2
AcadAnnotative
 70
     0
  0
APPID
  5
2DE
330
9
100
AcDbSymbolTableRecord
100
AcDbRegAppTableRecord
  2
ACAD_DSTYLE_DIMJOGGED_JOGANGLE_SYMBOL
 70
     0
  0
APPID
  5
2DF
330
9
100
AcDbSymbolTableRecord
100
AcDbRegAppTableRecord
  2
ACAD_DSTYLE_DIMJAG
 70
     0
  0
APPID
  5
2E0
330
9
100
AcDbSymbolTableRecord
100
AcDbRegAppTableRecord
  2
ACAD_DSTYLE_DIMBREAK
 70
     0
  0
APPID
  5
2E1
330
9
100
AcDbSymbolTableRecord
100
AcDbRegAppTableRecord
  2
ACAD_DSTYLE_DIMTALN
 70
     0
  0
APPID
  5
436
330
9
100
AcDbSymbolTableRecord
100
AcDbRegAppTableRecord
  2
ACAD_EXEMPT_FROM_CAD_STANDARDS
 70
     0
  0
APPID
  5
498
330
9
100
AcDbSymbolTableRecord
100
AcDbRegAppTableRecord
  2
ACAD_MLEADERVER
 70
     0
  0
APPID
  5
49D
330
9
100
AcDbSymbolTableRecord
100
AcDbRegAppTableRecord
  2
ACAD_DSTYLE_DIMARC_LENGTH_SYMBOL
 70
     0
  0
APPID
  5
49E
330
9
100
AcDbSymbolTableRecord
100
AcDbRegAppTableRecord
  2
ACAD_DSTYLE_DIMEXT_LENGTH
 70
     0
  0
ENDTAB
  0
TABLE
  2
DIMSTYLE
  5
A
330
0
100
AcDbSymbolTable
 70
    11
100
AcDbDimStyleTable
 71
     2
340
2D4
340
57
  0
DIMSTYLE
105
57
330
A
100
AcDbSymbolTableRecord
100
AcDbDimStyleTableRecord
  2
Standard
 70
     0
340
55
  0
DIMSTYLE
105
2D4
330
A
100
AcDbSymbolTableRecord
100
AcDbDimStyleTableRecord
  2
1：1
 70
     0
 41
2.5
 42
0.25
 43
0.2
 44
1.25
 73
     0
 74
     0
 77
     3
 78
     8
 79
     2
140
3.0
141
0.0
143
0.03937007874016
147
0.625
171
     3
172
     1
178
     4
179
     1
271
     2
272
     2
274
     3
283
     0
284
     8
288
     1
289
     0
340
55
341
23E
342
23E
1001
ACAD_DSTYLE_DIMARC_LENGTH_SYMBOL
1070
   379
1070
     2
1001
ACAD_DSTYLE_DIMEXT_LENGTH
1070
   378
1040
1.25
1001
ACAD_DSTYLE_DIMJOGGED_JOGANGLE_SYMBOL
1070
   384
1040
1.570796326794896
  0
DIMSTYLE
105
554
330
A
100
AcDbSymbolTableRecord
100
AcDbDimStyleTableRecord
  2
2：1
 70
     0
 41
2.5
 42
0.25
 43
0.2
 44
1.25
 73
     0
 74
     0
 77
     3
 78
     8
 79
     2
140
3.0
141
0.0
143
0.03937007874016
144
0.5
147
0.625
171
     3
172
     1
178
     4
179
     1
271
     2
272
     2
274
     3
283
     0
284
     8
288
     1
289
     0
340
55
341
23E
342
23E
1001
ACAD_DSTYLE_DIMARC_LENGTH_SYMBOL
1070
   379
1070
     2
1001
ACAD_DSTYLE_DIMEXT_LENGTH
1070
   378
1040
1.25
1001
ACAD_DSTYLE_DIMJOGGED_JOGANGLE_SYMBOL
1070
   384
1040
1.570796326794896
  0
DIMSTYLE
105
555
330
A
100
AcDbSymbolTableRecord
100
AcDbDimStyleTableRecord
  2
5：1
 70
     0
 41
2.5
 42
0.25
 43
0.2
 44
1.25
 73
     0
 74
     0
 77
     3
 78
     8
 79
     2
140
3.0
141
0.0
143
0.03937007874016
144
0.2
147
0.625
171
     3
172
     1
178
     4
179
     1
271
     2
272
     2
274
     3
283
     0
284
     8
288
     1
289
     0
340
55
341
23E
342
23E
1001
ACAD_DSTYLE_DIMARC_LENGTH_SYMBOL
1070
   379
1070
     2
1001
ACAD_DSTYLE_DIMEXT_LENGTH
1070
   378
1040
1.25
1001
ACAD_DSTYLE_DIMJOGGED_JOGANGLE_SYMBOL
1070
   384
1040
1.570796326794896
  0
DIMSTYLE
105
556
330
A
100
AcDbSymbolTableRecord
100
AcDbDimStyleTableRecord
  2
10：1
 70
     0
 41
2.5
 42
0.25
 43
0.2
 44
1.25
 73
     0
 74
     0
 77
     3
 78
     8
 79
     2
140
3.0
141
0.0
143
0.03937007874016
144
0.1
147
0.625
171
     3
172
     1
178
     4
179
     1
271
     2
272
     2
274
     3
283
     0
284
     8
288
     1
289
     0
340
55
341
23E
342
23E
1001
ACAD_DSTYLE_DIMARC_LENGTH_SYMBOL
1070
   379
1070
     2
1001
ACAD_DSTYLE_DIMEXT_LENGTH
1070
   378
1040
1.25
1001
ACAD_DSTYLE_DIMJOGGED_JOGANGLE_SYMBOL
1070
   384
1040
1.570796326794896
  0
DIMSTYLE
105
557
330
A
100
AcDbSymbolTableRecord
100
AcDbDimStyleTableRecord
  2
1／2
 70
     0
 41
2.5
 42
0.25
 43
0.2
 44
1.25
 73
     0
 74
     0
 77
     3
 78
     8
 79
     2
140
3.0
141
0.0
143
0.03937007874016
144
2.0
147
0.625
171
     3
172
     1
178
     4
179
     1
271
     2
272
     2
274
     3
283
     0
284
     8
288
     1
289
     0
340
55
341
23E
342
23E
1001
ACAD_DSTYLE_DIMARC_LENGTH_SYMBOL
1070
   379
1070
     2
1001
ACAD_DSTYLE_DIMEXT_LENGTH
1070
   378
1040
1.25
1001
ACAD_DSTYLE_DIMJOGGED_JOGANGLE_SYMBOL
1070
   384
1040
1.570796326794896
  0
DIMSTYLE
105
558
330
A
100
AcDbSymbolTableRecord
100
AcDbDimStyleTableRecord
  2
1／5
 70
     0
 41
2.5
 42
0.25
 43
0.2
 44
1.25
 73
     0
 74
     0
 77
     3
 78
     8
 79
     2
140
3.0
141
0.0
143
0.03937007874016
144
5.0
147
0.625
171
     3
172
     1
178
     4
179
     1
271
     2
272
     2
274
     3
283
     0
284
     8
288
     1
289
     0
340
55
341
23E
342
23E
1001
ACAD_DSTYLE_DIMARC_LENGTH_SYMBOL
1070
   379
1070
     2
1001
ACAD_DSTYLE_DIMEXT_LENGTH
1070
   378
1040
1.25
1001
ACAD_DSTYLE_DIMJOGGED_JOGANGLE_SYMBOL
1070
   384
1040
1.570796326794896
  0
DIMSTYLE
105
559
330
A
100
AcDbSymbolTableRecord
100
AcDbDimStyleTableRecord
  2
1／10
 70
     0
 41
2.5
 42
0.25
 43
0.2
 44
1.25
 73
     0
 74
     0
 77
     3
 78
     8
 79
     2
140
3.0
141
0.0
143
0.03937007874016
144
10.0
147
0.625
171
     3
172
     1
178
     4
179
     1
271
     2
272
     2
274
     3
283
     0
284
     8
288
     1
289
     0
340
55
341
23E
342
23E
1001
ACAD_DSTYLE_DIMARC_LENGTH_SYMBOL
1070
   379
1070
     2
1001
ACAD_DSTYLE_DIMEXT_LENGTH
1070
   378
1040
1.25
1001
ACAD_DSTYLE_DIMJOGGED_JOGANGLE_SYMBOL
1070
   384
1040
1.570796326794896
  0
DIMSTYLE
105
55A
330
A
100
AcDbSymbolTableRecord
100
AcDbDimStyleTableRecord
  2
1／4
 70
     0
 41
2.5
 42
0.25
 43
0.2
 44
1.25
 73
     0
 74
     0
 77
     3
 78
     8
 79
     2
140
3.0
141
0.0
143
0.03937007874016
144
4.0
147
0.625
171
     3
172
     1
178
     4
179
     1
271
     2
272
     2
274
     3
283
     0
284
     8
288
     1
289
     0
340
55
341
23E
342
23E
1001
ACAD_DSTYLE_DIMARC_LENGTH_SYMBOL
1070
   379
1070
     2
1001
ACAD_DSTYLE_DIMEXT_LENGTH
1070
   378
1040
1.25
1001
ACAD_DSTYLE_DIMJOGGED_JOGANGLE_SYMBOL
1070
   384
1040
1.570796326794896
  0
DIMSTYLE
105
55B
330
A
100
AcDbSymbolTableRecord
100
AcDbDimStyleTableRecord
  2
1／3
 70
     0
 41
2.5
 42
0.25
 43
0.2
 44
1.25
 73
     0
 74
     0
 77
     3
 78
     8
 79
     2
140
3.0
141
0.0
143
0.03937007874016
144
3.0
147
0.625
171
     3
172
     1
178
     4
179
     1
271
     2
272
     2
274
     3
283
     0
284
     8
288
     1
289
     0
340
55
341
23E
342
23E
1001
ACAD_DSTYLE_DIMARC_LENGTH_SYMBOL
1070
   379
1070
     2
1001
ACAD_DSTYLE_DIMEXT_LENGTH
1070
   378
1040
1.25
1001
ACAD_DSTYLE_DIMJOGGED_JOGANGLE_SYMBOL
1070
   384
1040
1.570796326794896
  0
DIMSTYLE
105
55C
330
A
100
AcDbSymbolTableRecord
100
AcDbDimStyleTableRecord
  2
FREE
 70
     0
 41
2.5
 42
0.25
 43
0.2
 44
1.25
 73
     0
 74
     0
 77
     3
 78
     8
 79
     2
140
3.0
141
0.0
143
0.03937007874016
147
0.625
171
     3
172
     1
178
     4
179
     1
271
     2
272
     2
274
     3
283
     0
284
     8
288
     1
289
     0
340
55
341
23E
342
23E
1001
ACAD_DSTYLE_DIMBREAK
1070
   391
1040
3.75
1001
ACAD_DSTYLE_DIMJAG
1070
   388
1040
1.5
1001
ACAD_DSTYLE_DIMTALN
1070
   392
1070
     0
1001
ACAD_DSTYLE_DIMARC_LENGTH_SYMBOL
1070
   379
1070
     2
1001
ACAD_DSTYLE_DIMEXT_LENGTH
1070
   378
1040
1.25
1001
ACAD_DSTYLE_DIMJOGGED_JOGANGLE_SYMBOL
1070
   384
1040
1.570796326794896
  0
ENDTAB
  0
TABLE
  2
BLOCK_RECORD
  5
1
330
0
100
AcDbSymbolTable
 70
    15
  0
BLOCK_RECORD
  5
6B
102
{ACAD_XDICTIONARY
360
A27
102
}
330
1
100
AcDbSymbolTableRecord
100
AcDbBlockTableRecord
  2
*Model_Space
340
6E
  0
BLOCK_RECORD
  5
67
330
1
100
AcDbSymbolTableRecord
100
AcDbBlockTableRecord
  2
*Paper_Space
340
6A
  0
BLOCK_RECORD
  5
23E
330
1
100
AcDbSymbolTableRecord
100
AcDbBlockTableRecord
  2
_Open30
340
0
102
{BLKREFS
331
762
331
763
331
76D
331
76E
331
778
331
779
331
783
331
784
331
78E
331
78F
331
799
331
79A
331
7A4
331
7A5
331
7AF
331
7B0
331
7BA
331
7BB
331
7C3
331
7C4
331
889
331
88A
331
892
331
893
331
8A4
331
8A5
102
}
  0
BLOCK_RECORD
  5
3F5
330
1
100
AcDbSymbolTableRecord
100
AcDbBlockTableRecord
  2
*D1
340
0
  0
BLOCK_RECORD
  5
401
330
1
100
AcDbSymbolTableRecord
100
AcDbBlockTableRecord
  2
*D2
340
0
  0
BLOCK_RECORD
  5
417
330
1
100
AcDbSymbolTableRecord
100
AcDbBlockTableRecord
  2
*D3
340
0
  0
BLOCK_RECORD
  5
6D3
330
1
100
AcDbSymbolTableRecord
100
AcDbBlockTableRecord
  2
*D4
340
0
  0
BLOCK_RECORD
  5
6E1
330
1
100
AcDbSymbolTableRecord
100
AcDbBlockTableRecord
  2
*D5
340
0
  0
BLOCK_RECORD
  5
6EF
330
1
100
AcDbSymbolTableRecord
100
AcDbBlockTableRecord
  2
*D6
340
0
  0
BLOCK_RECORD
  5
6FD
330
1
100
AcDbSymbolTableRecord
100
AcDbBlockTableRecord
  2
*D7
340
0
  0
BLOCK_RECORD
  5
70B
330
1
100
AcDbSymbolTableRecord
100
AcDbBlockTableRecord
  2
*D8
340
0
  0
BLOCK_RECORD
  5
719
330
1
100
AcDbSymbolTableRecord
100
AcDbBlockTableRecord
  2
*D9
340
0
  0
BLOCK_RECORD
  5
727
330
1
100
AcDbSymbolTableRecord
100
AcDbBlockTableRecord
  2
*D10
340
0
  0
BLOCK_RECORD
  5
735
330
1
100
AcDbSymbolTableRecord
100
AcDbBlockTableRecord
  2
*D11
340
0
  0
BLOCK_RECORD
  5
743
330
1
100
AcDbSymbolTableRecord
100
AcDbBlockTableRecord
  2
*D12
340
0
  0
BLOCK_RECORD
  5
751
330
1
100
AcDbSymbolTableRecord
100
AcDbBlockTableRecord
  2
*D13
340
0
  0
ENDTAB
  0
ENDSEC
  0
SECTION
  2
BLOCKS
  0
BLOCK
  5
6C
330
6B
100
AcDbEntity
  8
0
100
AcDbBlockBegin
  2
*Model_Space
 70
     0
 10
0.0
 20
0.0
 30
0.0
  3
*Model_Space
  1

  0
ENDBLK
  5
6D
330
6B
100
AcDbEntity
  8
0
100
AcDbBlockEnd
  0
BLOCK
  5
68
330
67
100
AcDbEntity
 67
     1
  8
0
100
AcDbBlockBegin
  2
*Paper_Space
 70
     0
 10
0.0
 20
0.0
 30
0.0
  3
*Paper_Space
  1

  0
ENDBLK
  5
69
330
67
100
AcDbEntity
 67
     1
  8
0
100
AcDbBlockEnd
  0
BLOCK
  5
23F
330
23E
100
AcDbEntity
  8
0
100
AcDbBlockBegin
  2
_Open30
 70
     0
 10
0.0
 20
0.0
 30
0.0
  3
_Open30
  1

  0
LINE
  5
240
330
23E
100
AcDbEntity
  8
0
  6
ByBlock
 62
     0
370
    -2
100
AcDbLine
 10
-1.0
 20
0.267949
 30
0.0
 11
0.0
 21
0.0
 31
0.0
  0
LINE
  5
241
330
23E
100
AcDbEntity
  8
0
  6
ByBlock
 62
     0
370
    -2
100
AcDbLine
 10
0.0
 20
0.0
 30
0.0
 11
-1.0
 21
-0.267949
 31
0.0
  0
LINE
  5
242
330
23E
100
AcDbEntity
  8
0
  6
ByBlock
 62
     0
370
    -2
100
AcDbLine
 10
0.0
 20
0.0
 30
0.0
 11
-1.0
 21
0.0
 31
0.0
  0
ENDBLK
  5
243
330
23E
100
AcDbEntity
  8
0
100
AcDbBlockEnd
  0
BLOCK
  5
3F6
330
3F5
100
AcDbEntity
  8
0
100
AcDbBlockBegin
  2
*D1
 70
     1
 10
0.0
 20
0.0
 30
0.0
  3
*D1
  1

  0
LINE
  5
886
330
3F5
100
AcDbEntity
  8
0
 62
     0
370
    -2
100
AcDbLine
 10
725.808884
 20
831.036068
 30
0.0
 11
725.808884
 21
883.9186719999998
 31
0.0
  0
LINE
  5
887
330
3F5
100
AcDbEntity
  8
0
 62
     0
370
    -2
100
AcDbLine
 10
850.808884
 20
831.036068
 30
0.0
 11
850.808884
 21
883.9186719999998
 31
0.0
  0
LINE
  5
888
330
3F5
100
AcDbEntity
  8
0
 62
     0
370
    -2
100
AcDbLine
 10
728.308884
 20
882.6686719999999
 30
0.0
 11
848.308884
 21
882.6686719999999
 31
0.0
  0
INSERT
  5
889
330
3F5
100
AcDbEntity
  8
0
 62
     0
370
    -2
100
AcDbBlockReference
  2
_Open30
 10
725.808884
 20
882.6686719999999
 30
0.0
 41
2.5
 42
2.5
 43
2.5
 50
180.0
  0
INSERT
  5
88A
330
3F5
100
AcDbEntity
  8
0
 62
     0
370
    -2
100
AcDbBlockReference
  2
_Open30
 10
850.808884
 20
882.6686719999999
 30
0.0
 41
2.5
 42
2.5
 43
2.5
  0
MTEXT
  5
88B
330
3F5
100
AcDbEntity
  8
0
 62
     4
100
AcDbMText
 10
788.308884
 20
884.7936719999999
 30
0.0
 40
3.0
 41
0.0
 71
     5
 72
     1
  1
%%C125
 73
     1
 44
1.0
1001
ACAD
1000
MTEXTBEGIN
1070
    73
1070
     1
1070
    44
1040
1.0
1070
    74
1070
     0
1000
MTEXTEND
  0
POINT
  5
88C
330
3F5
100
AcDbEntity
  8
Defpoints
 62
     0
100
AcDbPoint
 10
725.808884
 20
830.786068
 30
0.0
  0
POINT
  5
88D
330
3F5
100
AcDbEntity
  8
Defpoints
 62
     0
100
AcDbPoint
 10
850.808884
 20
830.786068
 30
0.0
  0
POINT
  5
88E
330
3F5
100
AcDbEntity
  8
Defpoints
 62
     0
100
AcDbPoint
 10
850.808884
 20
882.6686719999999
 30
0.0
  0
ENDBLK
  5
3F7
330
3F5
100
AcDbEntity
  8
0
100
AcDbBlockEnd
  0
BLOCK
  5
402
330
401
100
AcDbEntity
  8
0
100
AcDbBlockBegin
  2
*D2
 70
     1
 10
0.0
 20
0.0
 30
0.0
  3
*D2
  1

  0
LINE
  5
88F
330
401
100
AcDbEntity
  8
0
 62
     0
370
    -2
100
AcDbLine
 10
788.058884
 20
710.811315
 30
0.0
 11
717.6321629999995
 21
710.8113150000001
 31
0.0
  0
LINE
  5
890
330
401
100
AcDbEntity
  8
0
 62
     0
370
    -2
100
AcDbLine
 10
788.058884
 20
867.8113149999997
 30
0.0
 11
717.6321629999996
 21
867.8113149999997
 31
0.0
  0
LINE
  5
891
330
401
100
AcDbEntity
  8
0
 62
     0
370
    -2
100
AcDbLine
 10
718.8821629999995
 20
713.3113150000001
 30
0.0
 11
718.8821629999996
 21
865.3113149999997
 31
0.0
  0
INSERT
  5
892
330
401
100
AcDbEntity
  8
0
 62
     0
370
    -2
100
AcDbBlockReference
  2
_Open30
 10
718.8821629999995
 20
710.8113150000001
 30
0.0
 41
2.5
 42
2.5
 43
2.5
 50
270.0
  0
INSERT
  5
893
330
401
100
AcDbEntity
  8
0
 62
     0
370
    -2
100
AcDbBlockReference
  2
_Open30
 10
718.8821629999996
 20
867.8113149999997
 30
0.0
 41
2.5
 42
2.5
 43
2.5
 50
90.0
  0
MTEXT
  5
894
330
401
100
AcDbEntity
  8
0
 62
     4
100
AcDbMText
 10
716.7571629999994
 20
789.3113150000001
 30
0.0
 40
3.0
 41
0.0
 71
     5
 72
     1
  1
157
 11
0.0000000000000001
 21
1.0
 31
0.0
 73
     1
 44
1.0
1001
ACAD
1000
MTEXTBEGIN
1070
    73
1070
     1
1070
    44
1040
1.0
1070
    74
1070
     0
1000
MTEXTEND
  0
POINT
  5
895
330
401
100
AcDbEntity
  8
Defpoints
 62
     0
100
AcDbPoint
 10
788.308884
 20
710.811315
 30
0.0
  0
POINT
  5
896
330
401
100
AcDbEntity
  8
Defpoints
 62
     0
100
AcDbPoint
 10
788.308884
 20
867.8113149999997
 30
0.0
  0
POINT
  5
897
330
401
100
AcDbEntity
  8
Defpoints
 62
     0
100
AcDbPoint
 10
718.8821629999996
 20
867.8113149999997
 30
0.0
  0
ENDBLK
  5
403
330
401
100
AcDbEntity
  8
0
100
AcDbBlockEnd
  0
BLOCK
  5
418
330
417
100
AcDbEntity
  8
0
100
AcDbBlockBegin
  2
*D3
 70
     1
 10
0.0
 20
0.0
 30
0.0
  3
*D3
  1

  0
LINE
  5
8A1
330
417
100
AcDbEntity
  8
0
  6
Continuous
 62
     0
370
    -2
100
AcDbLine
 10
775.3197763028675
 20
718.3277918688471
 30
0.0
 11
775.3197763028675
 21
698.9737731408175
 31
0.0
  0
LINE
  5
8A2
330
417
100
AcDbEntity
  8
0
  6
Continuous
 62
     0
370
    -2
100
AcDbLine
 10
801.3023956962735
 20
720.5556021411675
 30
0.0
 11
801.3023956962735
 21
698.9737731408175
 31
0.0
  0
LINE
  5
8A3
330
417
100
AcDbEntity
  8
0
  6
Continuous
 62
     0
370
    -2
100
AcDbLine
 10
777.8197763028674
 20
700.2237731408175
 30
0.0
 11
798.8023956962734
 21
700.2237731408175
 31
0.0
  0
INSERT
  5
8A4
330
417
100
AcDbEntity
  8
0
  6
Continuous
 62
     0
370
    -2
100
AcDbBlockReference
  2
_Open30
 10
775.3197763028675
 20
700.2237731408175
 30
0.0
 41
2.5
 42
2.5
 43
2.5
 50
180.0
  0
INSERT
  5
8A5
330
417
100
AcDbEntity
  8
0
  6
Continuous
 62
     0
370
    -2
100
AcDbBlockReference
  2
_Open30
 10
801.3023956962735
 20
700.2237731408175
 30
0.0
 41
2.5
 42
2.5
 43
2.5
  0
MTEXT
  5
8A6
330
417
100
AcDbEntity
  8
0
  6
Continuous
 62
     4
100
AcDbMText
 10
788.2876196409442
 20
702.3487731408176
 30
0.0
 40
3.0
 41
0.0
 71
     5
 72
     1
  1
E26
 73
     1
 44
1.0
1001
ACAD
1000
MTEXTBEGIN
1070
    73
1070
     1
1070
    44
1040
1.0
1070
    74
1070
     0
1000
MTEXTEND
  0
POINT
  5
8A7
330
417
100
AcDbEntity
  8
Defpoints
  6
Continuous
 62
     0
100
AcDbPoint
 10
775.3197763028675
 20
718.5777918688471
 30
0.0
  0
POINT
  5
8A8
330
417
100
AcDbEntity
  8
Defpoints
  6
Continuous
 62
     0
100
AcDbPoint
 10
801.3023956962735
 20
720.8056021411676
 30
0.0
  0
POINT
  5
8A9
330
417
100
AcDbEntity
  8
Defpoints
  6
Continuous
 62
     0
100
AcDbPoint
 10
801.3023956962735
 20
700.2237731408175
 30
0.0
  0
ENDBLK
  5
419
330
417
100
AcDbEntity
  8
0
100
AcDbBlockEnd
  0
BLOCK
  5
6D4
330
6D3
100
AcDbEntity
  8
0
100
AcDbBlockBegin
  2
*D4
 70
     1
 10
0.0
 20
0.0
 30
0.0
  3
*D4
  1

  0
LINE
  5
75D
330
6D3
100
AcDbEntity
  8
0
 62
     0
370
    -2
100
AcDbLine
 10
1204.655213599848
 20
900.5141311570088
 30
0.0
 11
1204.655213599848
 21
897.6044997349999
 31
0.0
  0
LINE
  5
75E
330
6D3
100
AcDbEntity
  8
0
 62
     0
370
    -2
100
AcDbLine
 10
1202.198026545727
 20
900.5141311570088
 30
0.0
 11
1202.198026545727
 21
897.6044997349999
 31
0.0
  0
LINE
  5
75F
330
6D3
100
AcDbEntity
  8
0
 62
     0
370
    -2
100
AcDbLine
 10
1207.155213599848
 20
898.8544997349999
 30
0.0
 11
1209.655213599847
 21
898.8544997349999
 31
0.0
  0
LINE
  5
760
330
6D3
100
AcDbEntity
  8
0
 62
     0
370
    -2
100
AcDbLine
 10
1199.698026545727
 20
898.8544997349999
 30
0.0
 11
1186.948026545727
 21
898.8544997349999
 31
0.0
  0
LINE
  5
761
330
6D3
100
AcDbEntity
  8
0
 62
     0
370
    -2
100
AcDbLine
 10
1204.655213599848
 20
898.8544997349999
 30
0.0
 11
1202.198026545727
 21
898.8544997349999
 31
0.0
  0
INSERT
  5
762
330
6D3
100
AcDbEntity
  8
0
 62
     0
370
    -2
100
AcDbBlockReference
  2
_Open30
 10
1204.655213599848
 20
898.8544997349999
 30
0.0
 41
2.5
 42
2.5
 43
2.5
 50
180.0
  0
INSERT
  5
763
330
6D3
100
AcDbEntity
  8
0
 62
     0
370
    -2
100
AcDbBlockReference
  2
_Open30
 10
1202.198026545727
 20
898.8544997349999
 30
0.0
 41
2.5
 42
2.5
 43
2.5
  0
MTEXT
  5
764
330
6D3
100
AcDbEntity
  8
0
 62
     4
100
AcDbMText
 10
1192.073026545727
 20
900.9794997349999
 30
0.0
 40
3.0
 41
0.0
 71
     5
 72
     1
  1
2.46
 73
     1
 44
1.0
1001
ACAD
1000
MTEXTBEGIN
1070
    73
1070
     1
1070
    44
1040
1.0
1070
    74
1070
     0
1000
MTEXTEND
  0
POINT
  5
765
330
6D3
100
AcDbEntity
  8
Defpoints
 62
     0
100
AcDbPoint
 10
1204.655213599848
 20
900.7641311570086
 30
0.0
  0
POINT
  5
766
330
6D3
100
AcDbEntity
  8
Defpoints
 62
     0
100
AcDbPoint
 10
1202.198026545727
 20
900.7641311570086
 30
0.0
  0
POINT
  5
767
330
6D3
100
AcDbEntity
  8
Defpoints
 62
     0
100
AcDbPoint
 10
1202.198026545727
 20
898.8544997349999
 30
0.0
  0
ENDBLK
  5
6D5
330
6D3
100
AcDbEntity
  8
0
100
AcDbBlockEnd
  0
BLOCK
  5
6E2
330
6E1
100
AcDbEntity
  8
0
100
AcDbBlockBegin
  2
*D5
 70
     1
 10
0.0
 20
0.0
 30
0.0
  3
*D5
  1

  0
LINE
  5
768
330
6E1
100
AcDbEntity
  8
0
 62
     0
370
    -2
100
AcDbLine
 10
1206.293338505921
 20
895.0580415842463
 30
0.0
 11
1206.293338505921
 21
892.5121495147831
 31
0.0
  0
LINE
  5
769
330
6E1
100
AcDbEntity
  8
0
 62
     0
370
    -2
100
AcDbLine
 10
1203.199102707778
 20
895.0580415842463
 30
0.0
 11
1203.199102707778
 21
892.5121495147831
 31
0.0
  0
LINE
  5
76A
330
6E1
100
AcDbEntity
  8
0
 62
     0
370
    -2
100
AcDbLine
 10
1208.793338505921
 20
893.762149514783
 30
0.0
 11
1211.293338505921
 21
893.762149514783
 31
0.0
  0
LINE
  5
76B
330
6E1
100
AcDbEntity
  8
0
 62
     0
370
    -2
100
AcDbLine
 10
1200.699102707778
 20
893.762149514783
 30
0.0
 11
1186.865769374444
 21
893.762149514783
 31
0.0
  0
LINE
  5
76C
330
6E1
100
AcDbEntity
  8
0
 62
     0
370
    -2
100
AcDbLine
 10
1206.293338505921
 20
893.762149514783
 30
0.0
 11
1203.199102707778
 21
893.762149514783
 31
0.0
  0
INSERT
  5
76D
330
6E1
100
AcDbEntity
  8
0
 62
     0
370
    -2
100
AcDbBlockReference
  2
_Open30
 10
1206.293338505921
 20
893.762149514783
 30
0.0
 41
2.5
 42
2.5
 43
2.5
 50
180.0
  0
INSERT
  5
76E
330
6E1
100
AcDbEntity
  8
0
 62
     0
370
    -2
100
AcDbBlockReference
  2
_Open30
 10
1203.199102707778
 20
893.762149514783
 30
0.0
 41
2.5
 42
2.5
 43
2.5
  0
MTEXT
  5
76F
330
6E1
100
AcDbEntity
  8
0
 62
     4
100
AcDbMText
 10
1192.074102707778
 20
895.6371495147831
 30
0.0
 40
2.5
 41
0.0
 71
     5
 72
     1
  1
15.47
  7
高2.5
 73
     1
 44
1.0
1001
ACAD
1000
MTEXTBEGIN
1070
    73
1070
     1
1070
    44
1040
1.0
1070
    74
1070
     0
1000
MTEXTEND
  0
POINT
  5
770
330
6E1
100
AcDbEntity
  8
Defpoints
 62
     0
100
AcDbPoint
 10
1206.293338505921
 20
895.3080415842462
 30
0.0
  0
POINT
  5
771
330
6E1
100
AcDbEntity
  8
Defpoints
 62
     0
100
AcDbPoint
 10
1203.199102707778
 20
895.3080415842462
 30
0.0
  0
POINT
  5
772
330
6E1
100
AcDbEntity
  8
Defpoints
 62
     0
100
AcDbPoint
 10
1203.199102707778
 20
893.762149514783
 30
0.0
  0
ENDBLK
  5
6E3
330
6E1
100
AcDbEntity
  8
0
100
AcDbBlockEnd
  0
BLOCK
  5
6F0
330
6EF
100
AcDbEntity
  8
0
100
AcDbBlockBegin
  2
*D6
 70
     1
 10
0.0
 20
0.0
 30
0.0
  3
*D6
  1

  0
LINE
  5
773
330
6EF
100
AcDbEntity
  8
0
 62
     0
370
    -2
100
AcDbLine
 10
1208.022470114006
 20
889.6019518683997
 30
0.0
 11
1208.022470114006
 21
887.3288642060325
 31
0.0
  0
LINE
  5
774
330
6EF
100
AcDbEntity
  8
0
 62
     0
370
    -2
100
AcDbLine
 10
1204.018165160814
 20
889.6019518683997
 30
0.0
 11
1204.018165160814
 21
887.3288642060325
 31
0.0
  0
LINE
  5
775
330
6EF
100
AcDbEntity
  8
0
 62
     0
370
    -2
100
AcDbLine
 10
1210.522470114006
 20
888.5788642060326
 30
0.0
 11
1213.022470114006
 21
888.5788642060326
 31
0.0
  0
LINE
  5
776
330
6EF
100
AcDbEntity
  8
0
 62
     0
370
    -2
100
AcDbLine
 10
1201.518165160814
 20
888.5788642060326
 30
0.0
 11
1189.768165160814
 21
888.5788642060326
 31
0.0
  0
LINE
  5
777
330
6EF
100
AcDbEntity
  8
0
 62
     0
370
    -2
100
AcDbLine
 10
1208.022470114006
 20
888.5788642060326
 30
0.0
 11
1204.018165160814
 21
888.5788642060326
 31
0.0
  0
INSERT
  5
778
330
6EF
100
AcDbEntity
  8
0
 62
     0
370
    -2
100
AcDbBlockReference
  2
_Open30
 10
1208.022470114006
 20
888.5788642060326
 30
0.0
 41
2.5
 42
2.5
 43
2.5
 50
180.0
  0
INSERT
  5
779
330
6EF
100
AcDbEntity
  8
0
 62
     0
370
    -2
100
AcDbBlockReference
  2
_Open30
 10
1204.018165160814
 20
888.5788642060326
 30
0.0
 41
2.5
 42
2.5
 43
2.5
  0
MTEXT
  5
77A
330
6EF
100
AcDbEntity
  8
0
 62
     4
100
AcDbMText
 10
1194.393165160814
 20
890.8038642060326
 30
0.0
 40
3.2
 41
0.0
 71
     5
 72
     1
  1
8.01
  7
高3.2
 73
     1
 44
1.0
1001
ACAD
1000
MTEXTBEGIN
1070
    73
1070
     1
1070
    44
1040
1.0
1070
    74
1070
     0
1000
MTEXTEND
  0
POINT
  5
77B
330
6EF
100
AcDbEntity
  8
Defpoints
 62
     0
100
AcDbPoint
 10
1208.022470114006
 20
889.8519518683999
 30
0.0
  0
POINT
  5
77C
330
6EF
100
AcDbEntity
  8
Defpoints
 62
     0
100
AcDbPoint
 10
1204.018165160814
 20
889.8519518683999
 30
0.0
  0
POINT
  5
77D
330
6EF
100
AcDbEntity
  8
Defpoints
 62
     0
100
AcDbPoint
 10
1204.018165160814
 20
888.5788642060326
 30
0.0
  0
ENDBLK
  5
6F1
330
6EF
100
AcDbEntity
  8
0
100
AcDbBlockEnd
  0
BLOCK
  5
6FE
330
6FD
100
AcDbEntity
  8
0
100
AcDbBlockBegin
  2
*D7
 70
     1
 10
0.0
 20
0.0
 30
0.0
  3
*D7
  1

  0
LINE
  5
77E
330
6FD
100
AcDbEntity
  8
0
 62
     0
370
    -2
100
AcDbLine
 10
1207.931463411994
 20
884.3277319003682
 30
0.0
 11
1207.931463411994
 21
882.5093183929118
 31
0.0
  0
LINE
  5
77F
330
6FD
100
AcDbEntity
  8
0
 62
     0
370
    -2
100
AcDbLine
 10
1203.199102707778
 20
884.3277319003682
 30
0.0
 11
1203.199102707778
 21
882.5093183929118
 31
0.0
  0
LINE
  5
780
330
6FD
100
AcDbEntity
  8
0
 62
     0
370
    -2
100
AcDbLine
 10
1210.431463411994
 20
883.7593183929119
 30
0.0
 11
1212.931463411994
 21
883.7593183929119
 31
0.0
  0
LINE
  5
781
330
6FD
100
AcDbEntity
  8
0
 62
     0
370
    -2
100
AcDbLine
 10
1200.699102707778
 20
883.7593183929119
 30
0.0
 11
1178.949102707778
 21
883.7593183929119
 31
0.0
  0
LINE
  5
782
330
6FD
100
AcDbEntity
  8
0
 62
     0
370
    -2
100
AcDbLine
 10
1207.931463411994
 20
883.7593183929119
 30
0.0
 11
1203.199102707778
 21
883.7593183929119
 31
0.0
  0
INSERT
  5
783
330
6FD
100
AcDbEntity
  8
0
 62
     0
370
    -2
100
AcDbBlockReference
  2
_Open30
 10
1207.931463411994
 20
883.7593183929119
 30
0.0
 41
2.5
 42
2.5
 43
2.5
 50
180.0
  0
INSERT
  5
784
330
6FD
100
AcDbEntity
  8
0
 62
     0
370
    -2
100
AcDbBlockReference
  2
_Open30
 10
1203.199102707778
 20
883.7593183929119
 30
0.0
 41
2.5
 42
2.5
 43
2.5
  0
MTEXT
  5
785
330
6FD
100
AcDbEntity
  8
0
 62
     4
100
AcDbMText
 10
1188.574102707778
 20
886.6343183929117
 30
0.0
 40
4.5
 41
0.0
 71
     5
 72
     1
  1
47.32
  7
高4.5
 73
     1
 44
1.0
1001
ACAD
1000
MTEXTBEGIN
1070
    73
1070
     1
1070
    44
1040
1.0
1070
    74
1070
     0
1000
MTEXTEND
  0
POINT
  5
786
330
6FD
100
AcDbEntity
  8
Defpoints
 62
     0
100
AcDbPoint
 10
1207.931463411994
 20
884.5777319003682
 30
0.0
  0
POINT
  5
787
330
6FD
100
AcDbEntity
  8
Defpoints
 62
     0
100
AcDbPoint
 10
1203.199102707778
 20
884.5777319003682
 30
0.0
  0
POINT
  5
788
330
6FD
100
AcDbEntity
  8
Defpoints
 62
     0
100
AcDbPoint
 10
1203.199102707778
 20
883.7593183929119
 30
0.0
  0
ENDBLK
  5
6FF
330
6FD
100
AcDbEntity
  8
0
100
AcDbBlockEnd
  0
BLOCK
  5
70C
330
70B
100
AcDbEntity
  8
0
100
AcDbBlockBegin
  2
*D8
 70
     1
 10
0.0
 20
0.0
 30
0.0
  3
*D8
  1

  0
LINE
  5
789
330
70B
100
AcDbEntity
  8
0
 62
     0
370
    -2
100
AcDbLine
 10
1229.409099680002
 20
900.5141311570088
 30
0.0
 11
1229.409099680002
 21
897.6044997349999
 31
0.0
  0
LINE
  5
78A
330
70B
100
AcDbEntity
  8
0
 62
     0
370
    -2
100
AcDbLine
 10
1226.951912625881
 20
900.5141311570088
 30
0.0
 11
1226.951912625881
 21
897.6044997349999
 31
0.0
  0
LINE
  5
78B
330
70B
100
AcDbEntity
  8
0
 62
     0
370
    -2
100
AcDbLine
 10
1231.909099680001
 20
898.8544997349999
 30
0.0
 11
1234.409099680001
 21
898.8544997349999
 31
0.0
  0
LINE
  5
78C
330
70B
100
AcDbEntity
  8
0
 62
     0
370
    -2
100
AcDbLine
 10
1224.451912625881
 20
898.8544997349999
 30
0.0
 11
1202.851912625881
 21
898.8544997349999
 31
0.0
  0
LINE
  5
78D
330
70B
100
AcDbEntity
  8
0
 62
     0
370
    -2
100
AcDbLine
 10
1229.409099680002
 20
898.8544997349999
 30
0.0
 11
1226.951912625881
 21
898.8544997349999
 31
0.0
  0
INSERT
  5
78E
330
70B
100
AcDbEntity
  8
0
 62
     0
370
    -2
100
AcDbBlockReference
  2
_Open30
 10
1229.409099680002
 20
898.8544997349999
 30
0.0
 41
2.5
 42
2.5
 43
2.5
 50
180.0
  0
INSERT
  5
78F
330
70B
100
AcDbEntity
  8
0
 62
     0
370
    -2
100
AcDbBlockReference
  2
_Open30
 10
1226.951912625881
 20
898.8544997349999
 30
0.0
 41
2.5
 42
2.5
 43
2.5
  0
MTEXT
  5
790
330
70B
100
AcDbEntity
  8
0
 62
     4
100
AcDbMText
 10
1212.401912625881
 20
902.6294997349998
 30
0.0
 40
6.299999999999998
 41
0.0
 71
     5
 72
     1
  1
0.25
  7
高6.3
 73
     1
 44
1.0
1001
ACAD
1000
MTEXTBEGIN
1070
    73
1070
     1
1070
    44
1040
1.0
1070
    74
1070
     0
1000
MTEXTEND
  0
POINT
  5
791
330
70B
100
AcDbEntity
  8
Defpoints
 62
     0
100
AcDbPoint
 10
1229.409099680002
 20
900.7641311570086
 30
0.0
  0
POINT
  5
792
330
70B
100
AcDbEntity
  8
Defpoints
 62
     0
100
AcDbPoint
 10
1226.951912625881
 20
900.7641311570086
 30
0.0
  0
POINT
  5
793
330
70B
100
AcDbEntity
  8
Defpoints
 62
     0
100
AcDbPoint
 10
1226.951912625881
 20
898.8544997349999
 30
0.0
  0
ENDBLK
  5
70D
330
70B
100
AcDbEntity
  8
0
100
AcDbBlockEnd
  0
BLOCK
  5
71A
330
719
100
AcDbEntity
  8
0
100
AcDbBlockBegin
  2
*D9
 70
     1
 10
0.0
 20
0.0
 30
0.0
  3
*D9
  1

  0
LINE
  5
794
330
719
100
AcDbEntity
  8
0
 62
     0
370
    -2
100
AcDbLine
 10
1231.047224586075
 20
895.0580415842463
 30
0.0
 11
1231.047224586075
 21
892.5121495147831
 31
0.0
  0
LINE
  5
795
330
719
100
AcDbEntity
  8
0
 62
     0
370
    -2
100
AcDbLine
 10
1227.952988787932
 20
895.0580415842463
 30
0.0
 11
1227.952988787932
 21
892.5121495147831
 31
0.0
  0
LINE
  5
796
330
719
100
AcDbEntity
  8
0
 62
     0
370
    -2
100
AcDbLine
 10
1233.547224586075
 20
893.762149514783
 30
0.0
 11
1236.047224586074
 21
893.762149514783
 31
0.0
  0
LINE
  5
797
330
719
100
AcDbEntity
  8
0
 62
     0
370
    -2
100
AcDbLine
 10
1225.452988787932
 20
893.762149514783
 30
0.0
 11
1213.452988787932
 21
893.762149514783
 31
0.0
  0
LINE
  5
798
330
719
100
AcDbEntity
  8
0
 62
     0
370
    -2
100
AcDbLine
 10
1231.047224586075
 20
893.762149514783
 30
0.0
 11
1227.952988787932
 21
893.762149514783
 31
0.0
  0
INSERT
  5
799
330
719
100
AcDbEntity
  8
0
 62
     0
370
    -2
100
AcDbBlockReference
  2
_Open30
 10
1231.047224586075
 20
893.762149514783
 30
0.0
 41
2.5
 42
2.5
 43
2.5
 50
180.0
  0
INSERT
  5
79A
330
719
100
AcDbEntity
  8
0
 62
     0
370
    -2
100
AcDbBlockReference
  2
_Open30
 10
1227.952988787932
 20
893.762149514783
 30
0.0
 41
2.5
 42
2.5
 43
2.5
  0
MTEXT
  5
79B
330
719
100
AcDbEntity
  8
0
 62
     4
100
AcDbMText
 10
1218.077988787932
 20
895.887149514783
 30
0.0
 40
3.0
 41
0.0
 71
     5
 72
     1
  1
1.55
 73
     1
 44
1.0
1001
ACAD
1000
MTEXTBEGIN
1070
    73
1070
     1
1070
    44
1040
1.0
1070
    74
1070
     0
1000
MTEXTEND
  0
POINT
  5
79C
330
719
100
AcDbEntity
  8
Defpoints
 62
     0
100
AcDbPoint
 10
1231.047224586075
 20
895.3080415842462
 30
0.0
  0
POINT
  5
79D
330
719
100
AcDbEntity
  8
Defpoints
 62
     0
100
AcDbPoint
 10
1227.952988787932
 20
895.3080415842462
 30
0.0
  0
POINT
  5
79E
330
719
100
AcDbEntity
  8
Defpoints
 62
     0
100
AcDbPoint
 10
1227.952988787932
 20
893.762149514783
 30
0.0
  0
ENDBLK
  5
71B
330
719
100
AcDbEntity
  8
0
100
AcDbBlockEnd
  0
BLOCK
  5
728
330
727
100
AcDbEntity
  8
0
100
AcDbBlockBegin
  2
*D10
 70
     1
 10
0.0
 20
0.0
 30
0.0
  3
*D10
  1

  0
LINE
  5
79F
330
727
100
AcDbEntity
  8
0
 62
     0
370
    -2
100
AcDbLine
 10
1232.77635619416
 20
889.6019518683997
 30
0.0
 11
1232.77635619416
 21
887.3288642060325
 31
0.0
  0
LINE
  5
7A0
330
727
100
AcDbEntity
  8
0
 62
     0
370
    -2
100
AcDbLine
 10
1228.772051240968
 20
889.6019518683997
 30
0.0
 11
1228.772051240968
 21
887.3288642060325
 31
0.0
  0
LINE
  5
7A1
330
727
100
AcDbEntity
  8
0
 62
     0
370
    -2
100
AcDbLine
 10
1235.27635619416
 20
888.5788642060326
 30
0.0
 11
1237.77635619416
 21
888.5788642060326
 31
0.0
  0
LINE
  5
7A2
330
727
100
AcDbEntity
  8
0
 62
     0
370
    -2
100
AcDbLine
 10
1226.272051240968
 20
888.5788642060326
 30
0.0
 11
1217.938717907635
 21
888.5788642060326
 31
0.0
  0
LINE
  5
7A3
330
727
100
AcDbEntity
  8
0
 62
     0
370
    -2
100
AcDbLine
 10
1232.77635619416
 20
888.5788642060326
 30
0.0
 11
1228.772051240968
 21
888.5788642060326
 31
0.0
  0
INSERT
  5
7A4
330
727
100
AcDbEntity
  8
0
 62
     0
370
    -2
100
AcDbBlockReference
  2
_Open30
 10
1232.77635619416
 20
888.5788642060326
 30
0.0
 41
2.5
 42
2.5
 43
2.5
 50
180.0
  0
INSERT
  5
7A5
330
727
100
AcDbEntity
  8
0
 62
     0
370
    -2
100
AcDbBlockReference
  2
_Open30
 10
1228.772051240968
 20
888.5788642060326
 30
0.0
 41
2.5
 42
2.5
 43
2.5
  0
MTEXT
  5
7A6
330
727
100
AcDbEntity
  8
0
 62
     4
100
AcDbMText
 10
1220.397051240968
 20
890.2038642060325
 30
0.0
 40
2.0
 41
0.0
 71
     5
 72
     1
  1
0.8
  7
高2
 73
     1
 44
1.0
1001
ACAD
1000
MTEXTBEGIN
1070
    73
1070
     1
1070
    44
1040
1.0
1070
    74
1070
     0
1000
MTEXTEND
  0
POINT
  5
7A7
330
727
100
AcDbEntity
  8
Defpoints
 62
     0
100
AcDbPoint
 10
1232.77635619416
 20
889.8519518683999
 30
0.0
  0
POINT
  5
7A8
330
727
100
AcDbEntity
  8
Defpoints
 62
     0
100
AcDbPoint
 10
1228.772051240968
 20
889.8519518683999
 30
0.0
  0
POINT
  5
7A9
330
727
100
AcDbEntity
  8
Defpoints
 62
     0
100
AcDbPoint
 10
1228.772051240968
 20
888.5788642060326
 30
0.0
  0
ENDBLK
  5
729
330
727
100
AcDbEntity
  8
0
100
AcDbBlockEnd
  0
BLOCK
  5
736
330
735
100
AcDbEntity
  8
0
100
AcDbBlockBegin
  2
*D11
 70
     1
 10
0.0
 20
0.0
 30
0.0
  3
*D11
  1

  0
LINE
  5
7AA
330
735
100
AcDbEntity
  8
0
 62
     0
370
    -2
100
AcDbLine
 10
1232.685349492148
 20
884.3277319003682
 30
0.0
 11
1232.685349492148
 21
882.5093183929118
 31
0.0
  0
LINE
  5
7AB
330
735
100
AcDbEntity
  8
0
 62
     0
370
    -2
100
AcDbLine
 10
1227.952988787932
 20
884.3277319003682
 30
0.0
 11
1227.952988787932
 21
882.5093183929118
 31
0.0
  0
LINE
  5
7AC
330
735
100
AcDbEntity
  8
0
 62
     0
370
    -2
100
AcDbLine
 10
1235.185349492148
 20
883.7593183929119
 30
0.0
 11
1237.685349492148
 21
883.7593183929119
 31
0.0
  0
LINE
  5
7AD
330
735
100
AcDbEntity
  8
0
 62
     0
370
    -2
100
AcDbLine
 10
1225.452988787932
 20
883.7593183929119
 30
0.0
 11
1210.702988787932
 21
883.7593183929119
 31
0.0
  0
LINE
  5
7AE
330
735
100
AcDbEntity
  8
0
 62
     0
370
    -2
100
AcDbLine
 10
1232.685349492148
 20
883.7593183929119
 30
0.0
 11
1227.952988787932
 21
883.7593183929119
 31
0.0
  0
INSERT
  5
7AF
330
735
100
AcDbEntity
  8
0
 62
     0
370
    -2
100
AcDbBlockReference
  2
_Open30
 10
1232.685349492148
 20
883.7593183929119
 30
0.0
 41
2.5
 42
2.5
 43
2.5
 50
180.0
  0
INSERT
  5
7B0
330
735
100
AcDbEntity
  8
0
 62
     0
370
    -2
100
AcDbBlockReference
  2
_Open30
 10
1227.952988787932
 20
883.7593183929119
 30
0.0
 41
2.5
 42
2.5
 43
2.5
  0
MTEXT
  5
7B1
330
735
100
AcDbEntity
  8
0
 62
     4
100
AcDbMText
 10
1216.827988787932
 20
885.8843183929119
 30
0.0
 40
3.0
 41
0.0
 71
     5
 72
     1
  1
18.93
 73
     1
 44
1.0
1001
ACAD
1000
MTEXTBEGIN
1070
    73
1070
     1
1070
    44
1040
1.0
1070
    74
1070
     0
1000
MTEXTEND
  0
POINT
  5
7B2
330
735
100
AcDbEntity
  8
Defpoints
 62
     0
100
AcDbPoint
 10
1232.685349492148
 20
884.5777319003682
 30
0.0
  0
POINT
  5
7B3
330
735
100
AcDbEntity
  8
Defpoints
 62
     0
100
AcDbPoint
 10
1227.952988787932
 20
884.5777319003682
 30
0.0
  0
POINT
  5
7B4
330
735
100
AcDbEntity
  8
Defpoints
 62
     0
100
AcDbPoint
 10
1227.952988787932
 20
883.7593183929119
 30
0.0
  0
ENDBLK
  5
737
330
735
100
AcDbEntity
  8
0
100
AcDbBlockEnd
  0
BLOCK
  5
744
330
743
100
AcDbEntity
  8
0
100
AcDbBlockBegin
  2
*D12
 70
     1
 10
0.0
 20
0.0
 30
0.0
  3
*D12
  1

  0
LINE
  5
7B5
330
743
100
AcDbEntity
  8
0
 62
     0
370
    -2
100
AcDbLine
 10
1229.880922641009
 20
879.2718916937785
 30
0.0
 11
1229.880922641009
 21
876.9619706169029
 31
0.0
  0
LINE
  5
7B6
330
743
100
AcDbEntity
  8
0
 62
     0
370
    -2
100
AcDbLine
 10
1225.292247438862
 20
879.2718916937785
 30
0.0
 11
1225.292247438862
 21
876.9619706169029
 31
0.0
  0
LINE
  5
7B7
330
743
100
AcDbEntity
  8
0
 62
     0
370
    -2
100
AcDbLine
 10
1232.38092264101
 20
878.2119706169028
 30
0.0
 11
1234.88092264101
 21
878.2119706169028
 31
0.0
  0
LINE
  5
7B8
330
743
100
AcDbEntity
  8
0
 62
     0
370
    -2
100
AcDbLine
 10
1222.792247438862
 20
878.2119706169028
 30
0.0
 11
1208.042247438862
 21
878.2119706169028
 31
0.0
  0
LINE
  5
7B9
330
743
100
AcDbEntity
  8
0
 62
     0
370
    -2
100
AcDbLine
 10
1229.880922641009
 20
878.2119706169028
 30
0.0
 11
1225.292247438862
 21
878.2119706169028
 31
0.0
  0
INSERT
  5
7BA
330
743
100
AcDbEntity
  8
0
 62
     0
370
    -2
100
AcDbBlockReference
  2
_Open30
 10
1229.880922641009
 20
878.2119706169028
 30
0.0
 41
2.5
 42
2.5
 43
2.5
 50
180.0
  0
INSERT
  5
7BB
330
743
100
AcDbEntity
  8
0
 62
     0
370
    -2
100
AcDbBlockReference
  2
_Open30
 10
1225.292247438862
 20
878.2119706169028
 30
0.0
 41
2.5
 42
2.5
 43
2.5
  0
MTEXT
  5
7BC
330
743
100
AcDbEntity
  8
0
 62
     4
100
AcDbMText
 10
1214.167247438862
 20
880.3369706169029
 30
0.0
 40
3.0
 41
0.0
 71
     5
 72
     1
  1
13.77
 73
     1
 44
1.0
1001
ACAD
1000
MTEXTBEGIN
1070
    73
1070
     1
1070
    44
1040
1.0
1070
    74
1070
     0
1000
MTEXTEND
  0
POINT
  5
7BD
330
743
100
AcDbEntity
  8
Defpoints
 62
     0
100
AcDbPoint
 10
1229.880922641009
 20
879.5218916937782
 30
0.0
  0
POINT
  5
7BE
330
743
100
AcDbEntity
  8
Defpoints
 62
     0
100
AcDbPoint
 10
1225.292247438862
 20
879.5218916937782
 30
0.0
  0
POINT
  5
7BF
330
743
100
AcDbEntity
  8
Defpoints
 62
     0
100
AcDbPoint
 10
1225.292247438862
 20
878.2119706169028
 30
0.0
  0
ENDBLK
  5
745
330
743
100
AcDbEntity
  8
0
100
AcDbBlockEnd
  0
BLOCK
  5
752
330
751
100
AcDbEntity
  8
0
100
AcDbBlockBegin
  2
*D13
 70
     1
 10
0.0
 20
0.0
 30
0.0
  3
*D13
  1

  0
LINE
  5
7C0
330
751
100
AcDbEntity
  8
0
 62
     0
370
    -2
100
AcDbLine
 10
1222.784639807859
 20
910.2013830120528
 30
0.0
 11
1222.784639807859
 21
917.5979164899905
 31
0.0
  0
LINE
  5
7C1
330
751
100
AcDbEntity
  8
0
 62
     0
370
    -2
100
AcDbLine
 10
1212.846165438369
 20
910.2013830120528
 30
0.0
 11
1212.846165438369
 21
917.5979164899905
 31
0.0
  0
LINE
  5
7C2
330
751
100
AcDbEntity
  8
0
 62
     0
370
    -2
100
AcDbLine
 10
1220.284639807859
 20
916.3479164899904
 30
0.0
 11
1215.346165438369
 21
916.3479164899904
 31
0.0
  0
INSERT
  5
7C3
330
751
100
AcDbEntity
  8
0
 62
     0
370
    -2
100
AcDbBlockReference
  2
_Open30
 10
1222.784639807859
 20
916.3479164899904
 30
0.0
 41
2.5
 42
2.5
 43
2.5
  0
INSERT
  5
7C4
330
751
100
AcDbEntity
  8
0
 62
     0
370
    -2
100
AcDbBlockReference
  2
_Open30
 10
1212.846165438369
 20
916.3479164899904
 30
0.0
 41
2.5
 42
2.5
 43
2.5
 50
180.0
  0
MTEXT
  5
7C5
330
751
100
AcDbEntity
  8
0
 62
     4
100
AcDbMText
 10
1217.815402623114
 20
919.4229164899907
 30
0.0
 40
3.0
 41
0.0
 71
     5
 72
     1
  1
9.94\H0.7X;\S+0^ -0.02;
 73
     1
 44
1.0
1001
ACAD
1000
MTEXTBEGIN
1070
    73
1070
     1
1070
    44
1040
1.0
1070
    74
1070
     0
1000
MTEXTEND
  0
POINT
  5
7C6
330
751
100
AcDbEntity
  8
Defpoints
 62
     0
100
AcDbPoint
 10
1222.784639807859
 20
909.9513830120528
 30
0.0
  0
POINT
  5
7C7
330
751
100
AcDbEntity
  8
Defpoints
 62
     0
100
AcDbPoint
 10
1212.846165438369
 20
909.9513830120528
 30
0.0
  0
POINT
  5
7C8
330
751
100
AcDbEntity
  8
Defpoints
 62
     0
100
AcDbPoint
 10
1212.846165438369
 20
916.3479164899904
 30
0.0
  0
ENDBLK
  5
753
330
751
100
AcDbEntity
  8
0
100
AcDbBlockEnd
  0
ENDSEC
  0
SECTION
  2
ENTITIES
  0
LINE
  5
AE
330
6B
100
AcDbEntity
  8
0
 62
     3
100
AcDbLine
 10
799.6422169999997
 20
736.4779819999996
 30
0.0
 11
776.975551
 21
736.4779819999996
 31
0.0
  0
LINE
  5
AF
330
6B
100
AcDbEntity
  8
0
 62
     3
100
AcDbLine
 10
776.975551
 20
736.5615429999997
 30
0.0
 11
776.975551
 21
736.0593809999997
 31
0.0
  0
LINE
  5
B0
330
6B
100
AcDbEntity
  8
0
 62
     3
100
AcDbLine
 10
807.308884
 20
758.4256830000001
 30
0.0
 11
807.308884
 21
751.811315
 31
0.0
  0
LINE
  5
B1
330
6B
100
AcDbEntity
  8
0
 62
     3
100
AcDbLine
 10
769.308884
 20
758.4256830000001
 30
0.0
 11
769.308884
 21
751.811315
 31
0.0
  0
ARC
  5
B2
330
6B
100
AcDbEntity
  8
0
 62
     3
100
AcDbCircle
 10
788.308884
 20
751.811315
 30
0.0
 40
19.0
100
AcDbArc
 50
180.0
 51
233.380988
  0
LINE
  5
B3
330
6B
100
AcDbEntity
  8
0
 62
     3
100
AcDbLine
 10
850.808873
 20
830.811315
 30
0.0
 11
725.808895
 21
830.811315
 31
0.0
  0
ARC
  5
B4
330
6B
100
AcDbEntity
  8
0
 62
     3
100
AcDbCircle
 10
788.308884
 20
758.811315
 30
0.0
 40
109.0
100
AcDbArc
 50
65.72976099999999
 51
114.270239
  0
ARC
  5
B5
330
6B
100
AcDbEntity
  8
0
 62
     3
100
AcDbCircle
 10
736.8432339999997
 20
878.5781019999998
 30
0.0
 40
126.620402
100
AcDbArc
 50
309.900739
 51
330.338257
  0
ARC
  5
B6
330
6B
100
AcDbEntity
  8
0
 62
     3
100
AcDbCircle
 10
820.7617349999997
 20
830.786068
 30
0.0
 40
30.047149
100
AcDbArc
 50
330.338257
 51
65.72976099999999
  0
ARC
  5
B7
330
6B
100
AcDbEntity
  8
0
 62
     3
100
AcDbCircle
 10
837.3088840000001
 20
758.4256830000001
 30
0.0
 40
30.0
100
AcDbArc
 50
129.900739
 51
180.0
  0
ARC
  5
B8
330
6B
100
AcDbEntity
  8
0
 62
     3
100
AcDbCircle
 10
839.774534
 20
878.5781019999998
 30
0.0
 40
126.620402
100
AcDbArc
 50
209.661743
 51
230.099261
  0
ARC
  5
B9
330
6B
100
AcDbEntity
  8
0
 62
     3
100
AcDbCircle
 10
755.856033
 20
830.786068
 30
0.0
 40
30.047149
100
AcDbArc
 50
114.270239
 51
209.661743
  0
ARC
  5
BA
330
6B
100
AcDbEntity
  8
0
 62
     3
100
AcDbCircle
 10
739.308884
 20
758.4256830000001
 30
0.0
 40
30.0
100
AcDbArc
 50
0.0
 51
50.09926099999999
  0
ARC
  5
BB
330
6B
100
AcDbEntity
  8
0
 62
     3
100
AcDbCircle
 10
788.308884
 20
751.811315
 30
0.0
 40
19.0
100
AcDbArc
 50
306.619012
 51
0.0
  0
LINE
  5
BC
330
6B
100
AcDbEntity
  8
0
 62
     7
100
AcDbLine
 10
784.6422169999997
 20
711.4779819999996
 30
0.0
 11
791.9755509999996
 21
711.4779819999996
 31
0.0
  0
LINE
  5
BD
330
6B
100
AcDbEntity
  8
0
 62
     7
100
AcDbLine
 10
784.6422169999997
 20
712.811315
 30
0.0
 11
791.9755509999996
 21
712.811315
 31
0.0
  0
LINE
  5
BE
330
6B
100
AcDbEntity
  8
0
 62
     7
100
AcDbLine
 10
796.594353
 20
715.4779819999999
 30
0.0
 11
780.023415
 21
715.4779819999999
 31
0.0
  0
LINE
  5
BF
330
6B
100
AcDbEntity
  8
0
 62
     7
100
AcDbLine
 10
784.6422169999997
 20
712.811315
 30
0.0
 11
784.6422169999997
 21
711.4779819999996
 31
0.0
  0
LINE
  5
C0
330
6B
100
AcDbEntity
  8
0
 62
     7
100
AcDbLine
 10
791.9755509999996
 20
712.811315
 30
0.0
 11
791.9755509999996
 21
711.4779819999996
 31
0.0
  0
LINE
  5
C1
330
6B
100
AcDbEntity
  8
0
 62
     7
100
AcDbLine
 10
776.975551
 20
733.382201
 30
0.0
 11
776.975551
 21
732.0593809999997
 31
0.0
  0
LINE
  5
C2
330
6B
100
AcDbEntity
  8
0
 62
     7
100
AcDbLine
 10
776.975551
 20
729.382201
 30
0.0
 11
776.975551
 21
728.057987
 31
0.0
  0
LINE
  5
C3
330
6B
100
AcDbEntity
  8
0
 62
     7
100
AcDbLine
 10
776.975551
 20
725.3815359999999
 30
0.0
 11
776.975551
 21
724.057987
 31
0.0
  0
LINE
  5
C4
330
6B
100
AcDbEntity
  8
0
 62
     7
100
AcDbLine
 10
776.975551
 20
721.3815359999999
 30
0.0
 11
776.975551
 21
720.057987
 31
0.0
  0
ARC
  5
C5
330
6B
100
AcDbEntity
  8
0
 62
     7
100
AcDbCircle
 10
778.308884
 20
718.007467
 30
0.0
 40
1.333333
100
AcDbArc
 50
207.3771129999999
 51
240.0
  0
LINE
  5
C6
330
6B
100
AcDbEntity
  8
0
 62
     7
100
AcDbLine
 10
799.6422169999997
 20
736.5615429999997
 30
0.0
 11
799.6422169999997
 21
734.074118
 31
0.0
  0
LINE
  5
C7
330
6B
100
AcDbEntity
  8
0
 62
     7
100
AcDbLine
 10
799.6422169999997
 20
731.3969379999997
 30
0.0
 11
799.6422169999997
 21
730.00148
 31
0.0
  0
LINE
  5
C8
330
6B
100
AcDbEntity
  8
0
 62
     7
100
AcDbLine
 10
799.6422169999997
 20
727.325029
 30
0.0
 11
799.6422169999997
 21
726.00148
 31
0.0
  0
LINE
  5
C9
330
6B
100
AcDbEntity
  8
0
 62
     7
100
AcDbLine
 10
799.6422169999997
 20
723.3250289999999
 30
0.0
 11
799.6422169999997
 21
722.00148
 31
0.0
  0
LINE
  5
CA
330
6B
100
AcDbEntity
  8
0
 62
     7
100
AcDbLine
 10
799.6422169999997
 20
719.3250289999999
 30
0.0
 11
799.6422169999997
 21
718.0008019999997
 31
0.0
  0
ARC
  5
CB
330
6B
100
AcDbEntity
  8
0
 62
     7
100
AcDbCircle
 10
798.308884
 20
718.007467
 30
0.0
 40
1.333333
100
AcDbArc
 50
300.0
 51
0.0
  0
ARC
  5
CC
330
6B
100
AcDbEntity
  8
0
 62
     7
100
AcDbCircle
 10
788.308884
 20
721.227982
 30
0.0
 40
10.416667
100
AcDbArc
 50
249.390307
 51
290.609693
  0
LINE
  5
CD
330
6B
100
AcDbEntity
  8
0
 62
     7
100
AcDbLine
 10
791.9755509999996
 20
712.811315
 30
0.0
 11
798.975551
 21
716.8527669999997
 31
0.0
  0
LINE
  5
CE
330
6B
100
AcDbEntity
  8
0
 62
     7
100
AcDbLine
 10
784.6422169999997
 20
712.811315
 30
0.0
 11
777.642217
 21
716.8527669999997
 31
0.0
  0
ARC
  5
CF
330
6B
100
AcDbEntity
  8
0
 62
     7
100
AcDbCircle
 10
776.648235
 20
718.6916969999997
 30
0.0
 40
1.333333
100
AcDbArc
 50
94.900687
 51
274.900687
  0
ARC
  5
D0
330
6B
100
AcDbEntity
  8
0
 62
     7
100
AcDbCircle
 10
776.648235
 20
722.6916969999997
 30
0.0
 40
1.333333
100
AcDbArc
 50
94.900687
 51
274.900687
  0
ARC
  5
D1
330
6B
100
AcDbEntity
  8
0
 62
     7
100
AcDbCircle
 10
799.973937
 20
720.6916969999999
 30
0.0
 40
1.333333
100
AcDbArc
 50
274.900687
 51
94.900687
  0
ARC
  5
D2
330
6B
100
AcDbEntity
  8
0
 62
     7
100
AcDbCircle
 10
799.973937
 20
724.691697
 30
0.0
 40
1.333333
100
AcDbArc
 50
274.900687
 51
94.900687
  0
ARC
  5
D3
330
6B
100
AcDbEntity
  8
0
 62
     7
100
AcDbCircle
 10
799.973937
 20
728.691697
 30
0.0
 40
1.333333
100
AcDbArc
 50
274.900687
 51
94.900687
  0
ARC
  5
D4
330
6B
100
AcDbEntity
  8
0
 62
     7
100
AcDbCircle
 10
799.973937
 20
732.7650129999997
 30
0.0
 40
1.333333
100
AcDbArc
 50
275.079413
 51
95.079413
  0
ARC
  5
D5
330
6B
100
AcDbEntity
  8
0
 62
     7
100
AcDbCircle
 10
776.648235
 20
730.6916969999997
 30
0.0
 40
1.333333
100
AcDbArc
 50
95.079413
 51
275.079413
  0
ARC
  5
D6
330
6B
100
AcDbEntity
  8
0
 62
     7
100
AcDbCircle
 10
776.648235
 20
726.6916969999997
 30
0.0
 40
1.333333
100
AcDbArc
 50
94.900687
 51
274.900687
  0
ARC
  5
D7
330
6B
100
AcDbEntity
  8
0
 62
     7
100
AcDbCircle
 10
776.648235
 20
734.6916969999997
 30
0.0
 40
1.333333
100
AcDbArc
 50
95.079413
 51
275.079413
  0
LINE
  5
D8
330
6B
100
AcDbEntity
  8
0
 62
     7
100
AcDbLine
 10
799.6422169999997
 20
735.3969379999997
 30
0.0
 11
776.766284
 21
733.3636
 31
0.0
  0
LINE
  5
D9
330
6B
100
AcDbEntity
  8
0
 62
     7
100
AcDbLine
 10
799.6422169999997
 20
718.0008019999997
 30
0.0
 11
778.8541679999997
 21
716.153047
 31
0.0
  0
LINE
  5
DA
330
6B
100
AcDbEntity
  8
0
 62
     7
100
AcDbLine
 10
799.8558889999997
 20
734.0931099999997
 30
0.0
 11
776.530187
 21
732.019794
 31
0.0
  0
LINE
  5
DB
330
6B
100
AcDbEntity
  8
0
 62
     7
100
AcDbLine
 10
800.0919859999996
 20
731.436916
 30
0.0
 11
776.766284
 21
729.3636
 31
0.0
  0
LINE
  5
DC
330
6B
100
AcDbEntity
  8
0
 62
     7
100
AcDbLine
 10
799.860032
 20
730.0201559999996
 30
0.0
 11
776.5343299999997
 21
728.0201559999997
 31
0.0
  0
LINE
  5
DD
330
6B
100
AcDbEntity
  8
0
 62
     7
100
AcDbLine
 10
800.0878420000001
 20
727.363238
 30
0.0
 11
776.76214
 21
725.3632379999997
 31
0.0
  0
LINE
  5
DE
330
6B
100
AcDbEntity
  8
0
 62
     7
100
AcDbLine
 10
799.860032
 20
726.0201559999996
 30
0.0
 11
776.5343299999997
 21
724.0201559999997
 31
0.0
  0
LINE
  5
DF
330
6B
100
AcDbEntity
  8
0
 62
     7
100
AcDbLine
 10
800.0878420000001
 20
723.363238
 30
0.0
 11
776.76214
 21
721.3632379999997
 31
0.0
  0
LINE
  5
E0
330
6B
100
AcDbEntity
  8
0
 62
     7
100
AcDbLine
 10
799.860032
 20
722.0201559999996
 30
0.0
 11
776.5343299999997
 21
720.0201559999997
 31
0.0
  0
LINE
  5
E1
330
6B
100
AcDbEntity
  8
0
 62
     7
100
AcDbLine
 10
800.0878420000001
 20
719.363238
 30
0.0
 11
776.76214
 21
717.363238
 31
0.0
  0
LINE
  5
E2
330
6B
100
AcDbEntity
  8
0
 62
     7
100
AcDbLine
 10
781.684993
 20
736.4779819999996
 30
0.0
 11
776.530187
 21
736.019794
 31
0.0
  0
LINE
  5
E3
330
6B
100
AcDbEntity
  8
0
 62
     3
100
AcDbLine
 10
690.790694
 20
786.458991
 30
0.0
 11
690.302767
 21
786.458991
 31
0.0
  0
LINE
  5
1B6
330
6B
100
AcDbEntity
  8
0
 62
     3
100
AcDbLine
 10
856.6034029999999
 20
664.6247139999998
 30
0.0
 11
856.6034029999999
 21
687.6247139999996
 31
0.0
  0
LINE
  5
1B8
330
6B
100
AcDbEntity
  8
0
 62
     3
100
AcDbLine
 10
803.5497939999997
 20
657.6247139999998
 30
0.0
 11
803.5497939999997
 21
671.6247139999998
 31
0.0
  0
TEXT
  5
1BA
330
6B
100
AcDbEntity
  8
0
 62
     3
100
AcDbText
 10
832.6137219999997
 20
683.8298299999999
 30
0.0
 40
2.0
  1
A
 41
0.7
100
AcDbText
  0
TEXT
  5
1BB
330
6B
100
AcDbEntity
  8
0
 62
     3
100
AcDbText
 10
835.1490079999999
 20
683.8298299999999
 30
0.0
 40
2.0
  1
P
 41
0.7
100
AcDbText
  0
TEXT
  5
1BC
330
6B
100
AcDbEntity
  8
0
 62
     3
100
AcDbText
 10
837.6842939999997
 20
683.8298299999999
 30
0.0
 40
2.0
  1
P
 41
0.7
100
AcDbText
  0
TEXT
  5
1BD
330
6B
100
AcDbEntity
  8
0
 62
     3
100
AcDbText
 10
840.2195799999997
 20
683.8298299999999
 30
0.0
 40
2.0
  1
D
 41
0.7
100
AcDbText
  0
TEXT
  5
1BE
330
6B
100
AcDbEntity
  8
0
 62
     3
100
AcDbText
 10
845.5882629999996
 20
683.8298299999999
 30
0.0
 40
2.0
  1
C
 41
0.7
100
AcDbText
  0
TEXT
  5
1BF
330
6B
100
AcDbEntity
  8
0
 62
     3
100
AcDbText
 10
848.1235499999996
 20
683.8298299999999
 30
0.0
 40
2.0
  1
H
 41
0.7
100
AcDbText
  0
TEXT
  5
1C0
330
6B
100
AcDbEntity
  8
0
 62
     3
100
AcDbText
 10
850.6588359999996
 20
683.8298299999999
 30
0.0
 40
2.0
  1
C
 41
0.7
100
AcDbText
  0
TEXT
  5
1C1
330
6B
100
AcDbEntity
  8
0
 62
     3
100
AcDbText
 10
853.1941219999996
 20
683.8298299999999
 30
0.0
 40
2.0
  1
K
 41
0.7
100
AcDbText
  0
TEXT
  5
1C2
330
6B
100
AcDbEntity
  8
0
 62
     3
100
AcDbText
 10
858.8680889999997
 20
683.8298299999999
 30
0.0
 40
2.0
  1
DESN
 41
1.216762999999998
100
AcDbText
  0
TEXT
  5
1C3
330
6B
100
AcDbEntity
  8
0
 62
     3
100
AcDbText
 10
773.8617299999997
 20
654.4833319999997
 30
0.0
 40
2.0
  1
NICHIDO IND.CO.LTD
 41
1.274876
100
AcDbText
  0
LINE
  5
1C4
330
6B
100
AcDbEntity
  8
0
 62
     3
100
AcDbLine
 10
784.2447589999997
 20
687.6247139999996
 30
0.0
 11
784.2447589999997
 21
664.6247139999998
 31
0.0
  0
LINE
  5
1C5
330
6B
100
AcDbEntity
  8
0
 62
     3
100
AcDbLine
 10
830.6034030000002
 20
687.6247139999996
 30
0.0
 11
830.6034029999999
 21
647.9589909999997
 31
0.0
  0
LINE
  5
1CA
330
6B
100
AcDbEntity
  8
0
 62
     3
100
AcDbLine
 10
843.6034029999998
 20
687.6247139999996
 30
0.0
 11
843.6034029999998
 21
657.6247139999998
 31
0.0
  0
TEXT
  5
1CB
330
6B
100
AcDbEntity
  8
0
 62
     3
100
AcDbText
 10
831.7158479999998
 20
658.4894009999998
 30
0.0
 40
3.2
  1
作成日
 41
1.017225999999997
100
AcDbText
  0
LINE
  5
1CC
330
6B
100
AcDbEntity
  8
0
 62
     3
100
AcDbLine
 10
882.302767
 20
687.6247139999996
 30
0.0
 11
770.9993239999996
 21
687.6247139999996
 31
0.0
  0
LINE
  5
1CD
330
6B
100
AcDbEntity
  8
0
 62
     3
100
AcDbLine
 10
869.6034029999998
 20
664.6247139999998
 30
0.0
 11
869.6034029999998
 21
687.6247139999996
 31
0.0
  0
TEXT
  5
1CE
330
6B
100
AcDbEntity
  8
0
 62
     3
100
AcDbText
 10
872.927207
 20
683.9156479999997
 30
0.0
 40
1.8
  1
D
 41
0.666667
100
AcDbText
  0
TEXT
  5
1CF
330
6B
100
AcDbEntity
  8
0
 62
     3
100
AcDbText
 10
875.7438349999999
 20
683.9156479999997
 30
0.0
 40
1.8
  1
E
 41
0.666667
100
AcDbText
  0
TEXT
  5
1D0
330
6B
100
AcDbEntity
  8
0
 62
     3
100
AcDbText
 10
878.5604629999996
 20
683.9156479999997
 30
0.0
 40
1.8
  1
F
 41
0.666667
100
AcDbText
  0
TEXT
  5
1D1
330
6B
100
AcDbEntity
  8
0
 62
     3
100
AcDbText
 10
872.927207
 20
679.9230949999999
 30
0.0
 40
3.2
  1
製図
 41
1.076369
100
AcDbText
  0
LINE
  5
1D2
330
6B
100
AcDbEntity
  8
0
 62
     3
100
AcDbLine
 10
770.9993239999996
 20
687.6247139999996
 30
0.0
 11
770.9993239999996
 21
647.9589909999997
 31
0.0
  0
TEXT
  5
1D3
330
6B
100
AcDbEntity
  8
0
 62
     3
100
AcDbText
 10
772.3759769999997
 20
648.2914569999998
 30
0.0
 40
5.0
  1
日動工業株式会社
 41
0.833333
100
AcDbText
  0
LINE
  5
1D4
330
6B
100
AcDbEntity
  8
0
 62
     3
100
AcDbLine
 10
813.8817279999997
 20
671.6247139999998
 30
0.0
 11
813.8817279999997
 21
647.9589909999997
 31
0.0
  0
LINE
  5
1D5
330
6B
100
AcDbEntity
  8
0
 62
     3
100
AcDbLine
 10
813.8817279999997
 20
652.7918519999997
 30
0.0
 11
830.6034029999999
 21
652.7918519999997
 31
0.0
  0
TEXT
  5
1D6
330
6B
100
AcDbEntity
  8
0
 62
     3
100
AcDbText
 10
814.4683299999996
 20
653.6082829999998
 30
0.0
 40
3.2
  1
出図コード
 41
0.8356860000000001
100
AcDbText
  0
LINE
  5
1D8
330
6B
100
AcDbEntity
  8
0
 62
     3
100
AcDbLine
 10
770.9993239999996
 20
657.6247139999995
 30
0.0
 11
882.302767
 21
657.6247139999998
 31
0.0
  0
LINE
  5
1DA
330
6B
100
AcDbEntity
  8
0
 62
     3
100
AcDbLine
 10
770.9993239999996
 20
678.6247139999998
 30
0.0
 11
882.302767
 21
678.6247139999998
 31
0.0
  0
LINE
  5
1E0
330
6B
100
AcDbEntity
  8
0
 62
     3
100
AcDbLine
 10
770.9993239999996
 20
671.6247139999998
 30
0.0
 11
830.6034029999999
 21
671.6247139999998
 31
0.0
  0
LINE
  5
1E6
330
6B
100
AcDbEntity
  8
0
 62
     3
100
AcDbLine
 10
770.9993239999996
 20
664.6247139999998
 30
0.0
 11
882.302767
 21
664.6247139999998
 31
0.0
  0
TEXT
  5
1E7
330
6B
100
AcDbEntity
  8
0
 62
     3
100
AcDbText
 10
814.3357819999996
 20
648.5611859999997
 30
0.0
 40
3.2
  1
ZK-A4Y
 41
0.8112849999999999
100
AcDbText
  0
LINE
  5
1E8
330
6B
100
AcDbEntity
  8
0
 62
     3
100
AcDbLine
 10
702.302767
 20
924.9589909999999
 30
0.0
 11
702.302767
 21
647.9589909999997
 31
0.0
  0
LINE
  5
1E9
330
6B
100
AcDbEntity
  8
0
 62
     3
100
AcDbLine
 10
882.302767
 20
647.9589909999997
 30
0.0
 11
882.302767
 21
924.9589909999999
 31
0.0
  0
LINE
  5
1EA
330
6B
100
AcDbEntity
  8
0
 62
     3
100
AcDbLine
 10
882.302767
 20
647.9589909999997
 30
0.0
 11
702.302767
 21
647.9589909999997
 31
0.0
  0
TEXT
  5
1EF
330
6B
100
AcDbEntity
  8
0
 62
     3
100
AcDbText
 10
772.8167209999996
 20
683.7942399999997
 30
0.0
 40
2.0
  1
CONPONENTS
 41
0.5331600000000001
100
AcDbText
  0
TEXT
  5
1F0
330
6B
100
AcDbEntity
  8
0
 62
     3
100
AcDbText
 10
772.4669949999996
 20
664.8620629999998
 30
0.0
 40
3.0
  1
材
 41
0.833333
100
AcDbText
  0
TEXT
  5
1F1
330
6B
100
AcDbEntity
  8
0
 62
     3
100
AcDbText
 10
780.0026369999997
 20
664.8620629999998
 30
0.0
 40
3.0
  1
質
 41
0.833333
100
AcDbText
  0
TEXT
  5
1F2
330
6B
100
AcDbEntity
  8
0
 62
     3
100
AcDbText
 10
772.5550649999997
 20
675.4865869999997
 30
0.0
 40
2.0
  1
MODEL
 41
1.031072999999999
100
AcDbText
  0
TEXT
  5
1F3
330
6B
100
AcDbEntity
  8
0
 62
     3
100
AcDbText
 10
772.4669949999996
 20
668.5443709999997
 30
0.0
 40
2.0
  1
MATERIAL
 41
0.659278
100
AcDbText
  0
TEXT
  5
1F4
330
6B
100
AcDbEntity
  8
0
 62
     3
100
AcDbText
 10
803.7742749999999
 20
664.8620629999998
 30
0.0
 40
3.0
  1
備
 41
0.833333
100
AcDbText
  0
TEXT
  5
1F5
330
6B
100
AcDbEntity
  8
0
 62
     3
100
AcDbText
 10
810.5072769999997
 20
664.8620629999998
 30
0.0
 40
3.0
  1
考
 41
0.833333
100
AcDbText
  0
TEXT
  5
1F6
330
6B
100
AcDbEntity
  8
0
 62
     3
100
AcDbText
 10
804.1623462080579
 20
668.5443709999997
 30
0.0
 40
2.0
  1
REMARKS
 41
0.675794
100
AcDbText
  0
TEXT
  5
1F7
330
6B
100
AcDbEntity
  8
0
 62
     3
100
AcDbText
 10
774.0567239999997
 20
661.6242499999997
 30
0.0
 40
2.0
  1
3AD
 41
1.42614
100
AcDbText
  0
TEXT
  5
1F8
330
6B
100
AcDbEntity
  8
0
 62
     3
100
AcDbText
 10
783.3677029999996
 20
661.7899839999997
 30
0.0
 40
2.0
  1
ANGLE
 41
1.669883999999996
100
AcDbText
  0
TEXT
  5
1F9
330
6B
100
AcDbEntity
  8
0
 62
     3
100
AcDbText
 10
804.3015909999997
 20
661.4131429999997
 30
0.0
 40
2.0
  1
SCALE
 41
0.7719630000000001
100
AcDbText
  0
TEXT
  5
1FA
330
6B
100
AcDbEntity
  8
0
 62
     3
100
AcDbText
 10
773.7428539999997
 20
657.6247139999998
 30
0.0
 40
3.0
  1
第
 41
0.833333
100
AcDbText
  0
TEXT
  5
1FB
330
6B
100
AcDbEntity
  8
0
 62
     3
100
AcDbText
 10
781.5297039999997
 20
657.6247139999998
 30
0.0
 40
3.0
  1
三
 41
0.833333
100
AcDbText
  0
TEXT
  5
1FC
330
6B
100
AcDbEntity
  8
0
 62
     3
100
AcDbText
 10
789.3165529999996
 20
657.6247139999998
 30
0.0
 40
3.0
  1
角
 41
0.833333
100
AcDbText
  0
TEXT
  5
1FD
330
6B
100
AcDbEntity
  8
0
 62
     3
100
AcDbText
 10
797.1034029999997
 20
657.6247139999998
 30
0.0
 40
3.0
  1
法
 41
0.833333
100
AcDbText
  0
TEXT
  5
1FE
330
6B
100
AcDbEntity
  8
0
 62
     3
100
AcDbText
 10
804.1647959999997
 20
657.9131429999997
 30
0.0
 40
3.0
  1
尺
 41
0.833333
100
AcDbText
  0
TEXT
  5
1FF
330
6B
100
AcDbEntity
  8
0
 62
     3
100
AcDbText
 10
810.8977969999997
 20
657.9131429999997
 30
0.0
 40
3.0
  1
度
 41
0.833333
100
AcDbText
  0
TEXT
  5
200
330
6B
100
AcDbEntity
  8
0
 62
     3
100
AcDbText
 10
833.4810679999996
 20
680.0824429999997
 30
0.0
 40
3.0
  1
承認
 41
1.089472999999999
100
AcDbText
  0
TEXT
  5
201
330
6B
100
AcDbEntity
  8
0
 62
     3
100
AcDbText
 10
846.7239479999998
 20
680.0247139999997
 30
0.0
 40
3.0
  1
検図
 41
0.931761
100
AcDbText
  0
TEXT
  5
202
330
6B
100
AcDbEntity
  8
0
 62
     3
100
AcDbText
 10
859.7243449999997
 20
680.0247139999997
 30
0.0
 40
3.0
  1
設
 41
0.833333
100
AcDbText
  0
TEXT
  5
203
330
6B
100
AcDbEntity
  8
0
 62
     3
100
AcDbText
 10
864.2142129999998
 20
680.0247139999997
 30
0.0
 40
3.0
  1
計
 41
0.833333
100
AcDbText
  0
TEXT
  5
204
330
6B
100
AcDbEntity
  8
0
 62
     3
100
AcDbText
 10
772.7481929999997
 20
679.3134699999998
 30
0.0
 40
3.0
  1
品
 41
0.833333
100
AcDbText
  0
TEXT
  5
205
330
6B
100
AcDbEntity
  8
0
 62
     3
100
AcDbText
 10
780.2838349999997
 20
679.3134699999998
 30
0.0
 40
3.0
  1
名
 41
0.833333
100
AcDbText
  0
TEXT
  5
206
330
6B
100
AcDbEntity
  8
0
 62
     3
100
AcDbText
 10
772.5550649999997
 20
671.8543269999997
 30
0.0
 40
3.0
  1
型
 41
0.833333
100
AcDbText
  0
TEXT
  5
207
330
6B
100
AcDbEntity
  8
0
 62
     3
100
AcDbText
 10
780.1031559999996
 20
671.8543269999997
 30
0.0
 40
3.0
  1
式
 41
0.833333
100
AcDbText
  0
TEXT
  5
211
330
6B
100
AcDbEntity
  8
0
 62
     3
100
AcDbText
 10
816.7500879999996
 20
665.1777629999997
 30
0.0
 40
3.2
  1
交換球
  7
高3.2
100
AcDbText
  0
LINE
  5
226
330
6B
100
AcDbEntity
  8
0
 62
     3
100
AcDbLine
 10
856.6034029999999
 20
687.6247139999996
 30
0.0
 11
856.6034029999999
 21
693.6247139999997
 31
0.0
  0
LINE
  5
227
330
6B
100
AcDbEntity
  8
0
 62
     3
100
AcDbLine
 10
830.6034029999999
 20
687.6247139999996
 30
0.0
 11
830.6034029999999
 21
693.6247139999997
 31
0.0
  0
LINE
  5
228
330
6B
100
AcDbEntity
  8
0
 62
     3
100
AcDbLine
 10
882.3027659999997
 20
693.6247139999997
 30
0.0
 11
830.6034029999999
 21
693.6247139999997
 31
0.0
  0
TEXT
  5
229
330
6B
100
AcDbEntity
  8
0
 62
     3
100
AcDbText
 10
836.5990009999999
 20
688.4210629999999
 30
0.0
 40
4.5
  1
コード
  7
高4.5
100
AcDbText
  0
TEXT
  5
22B
330
6B
100
AcDbEntity
  8
0
 62
     3
100
AcDbText
 10
799.1841642424922
 20
679.1771309999997
 30
0.0
 40
4.5
  1
レフ球
  7
高4.5
100
AcDbText
  0
TEXT
  5
22C
330
6B
100
AcDbEntity
  8
0
 62
     3
100
AcDbText
 10
847.1869519999996
 20
658.3991299999999
 30
0.0
 40
3.2
  1
2008.09.04
  7
高3.2
100
AcDbText
  0
TEXT
  5
233
330
6B
100
AcDbEntity
  8
0
 62
     3
100
AcDbText
 10
817.6665197080993
 20
658.5127110000001
 30
0.0
 40
3.2
  1
1/1
  7
高3.2
100
AcDbText
  0
TEXT
  5
23A
330
6B
100
AcDbEntity
  8
0
 62
     3
100
AcDbText
 10
786.5573729999996
 20
672.2390839999998
 30
0.0
 40
4.5
  1
NRF-200-220V
 41
0.8
  7
高4.5
100
AcDbText
  0
TEXT
  5
23B
330
6B
100
AcDbEntity
  8
0
 62
     3
100
AcDbText
 10
834.2657635212944
 20
649.3748218552772
 30
0.0
 40
6.299999999999998
  1
NRF-200-220V
 41
0.6
  7
高6.3
100
AcDbText
  0
TEXT
  5
23C
330
6B
100
AcDbEntity
  8
0
 62
     3
100
AcDbText
 10
862.2713704193074
 20
688.2688509999996
 30
0.0
 40
4.5
  1
8197
  7
高4.5
100
AcDbText
  0
LINE
  5
63E
330
6B
100
AcDbEntity
  8
0
 62
     3
100
AcDbLine
 10
739.3871190199996
 20
926.7464350999999
 30
0.0
 11
739.82286693
 21
926.5189669599999
 31
0.0
  0
LINE
  5
63F
330
6B
100
AcDbEntity
  8
0
 62
     3
100
AcDbLine
 10
739.3871190199996
 20
923.0158046200001
 30
0.0
 11
739.82286693
 21
923.2432727599999
 31
0.0
  0
LINE
  5
640
330
6B
100
AcDbEntity
  8
0
 62
     3
100
AcDbLine
 10
739.82286693
 20
926.5189669599999
 30
0.0
 11
739.82286693
 21
923.2432727599999
 31
0.0
  0
LINE
  5
641
330
6B
100
AcDbEntity
  8
0
 62
     3
100
AcDbLine
 10
740.9263843499997
 20
923.0158046200001
 30
0.0
 11
740.4906364399996
 21
923.2432727599999
 31
0.0
  0
LINE
  5
642
330
6B
100
AcDbEntity
  8
0
 62
     3
100
AcDbLine
 10
740.4906364399996
 20
925.2401315699996
 30
0.0
 11
740.4906364399996
 21
923.2432727599999
 31
0.0
  0
LINE
  5
643
330
6B
100
AcDbEntity
  8
0
 62
     3
100
AcDbLine
 10
743.4682471299999
 20
926.7464350999999
 30
0.0
 11
743.03249922
 21
926.5189669599999
 31
0.0
  0
LINE
  5
644
330
6B
100
AcDbEntity
  8
0
 62
     3
100
AcDbLine
 10
741.9289817999997
 20
926.7464350999999
 30
0.0
 11
742.36472971
 21
926.5189669599999
 31
0.0
  0
LINE
  5
645
330
6B
100
AcDbEntity
  8
0
 62
     3
100
AcDbLine
 10
742.36472971
 20
926.5189669599999
 30
0.0
 11
742.36472971
 21
925.0766298999996
 31
0.0
  0
LINE
  5
646
330
6B
100
AcDbEntity
  8
0
 62
     3
100
AcDbLine
 10
743.03249922
 20
926.5189669599999
 30
0.0
 11
743.03249922
 21
922.8042434799997
 31
0.0
  0
LINE
  5
647
330
6B
100
AcDbEntity
  8
0
 62
     3
100
AcDbLine
 10
743.68354433
 20
926.7464324699997
 30
0.0
 11
744.1192906699996
 21
926.5189613299996
 31
0.0
  0
LINE
  5
648
330
6B
100
AcDbEntity
  8
0
 62
     3
100
AcDbLine
 10
743.6834663599999
 20
923.0158545999996
 30
0.0
 11
744.1192222099997
 21
923.2433075199997
 31
0.0
  0
LINE
  5
649
330
6B
100
AcDbEntity
  8
0
 62
     3
100
AcDbLine
 10
744.1192906699996
 20
926.5189613299996
 30
0.0
 11
744.1192906699996
 21
923.2433075199997
 31
0.0
  0
LINE
  5
64A
330
6B
100
AcDbEntity
  8
0
 62
     3
100
AcDbLine
 10
745.61308073
 20
926.7464087999996
 30
0.0
 11
745.17732964
 21
926.5189467699997
 31
0.0
  0
LINE
  5
64B
330
6B
100
AcDbEntity
  8
0
 62
     3
100
AcDbLine
 10
745.17732964
 20
926.5189467699997
 30
0.0
 11
745.17732964
 21
923.2432929499998
 31
0.0
  0
LINE
  5
64C
330
6B
100
AcDbEntity
  8
0
 62
     3
100
AcDbLine
 10
745.61308073
 20
923.0158309199996
 30
0.0
 11
745.17732964
 21
923.2432929499998
 31
0.0
  0
LINE
  5
64D
330
6B
100
AcDbEntity
  8
0
 62
     3
100
AcDbLine
 10
749.3033341699997
 20
926.7463677999996
 30
0.0
 11
749.7390812899997
 21
926.5188981600001
 31
0.0
  0
LINE
  5
64E
330
6B
100
AcDbEntity
  8
0
 62
     3
100
AcDbLine
 10
749.7390812899997
 20
926.5188981600001
 30
0.0
 11
749.7390241199997
 21
923.2432443499996
 31
0.0
  0
LINE
  5
64F
330
6B
100
AcDbEntity
  8
0
 62
     3
100
AcDbLine
 10
749.3032690599997
 20
923.0157899199998
 30
0.0
 11
749.7390241199997
 21
923.2432443499996
 31
0.0
  0
LINE
  5
650
330
6B
100
AcDbEntity
  8
0
 62
     3
100
AcDbLine
 10
751.2555951299997
 20
926.7463677999996
 30
0.0
 11
750.8198480099999
 21
926.5188981600001
 31
0.0
  0
LINE
  5
651
330
6B
100
AcDbEntity
  8
0
 62
     3
100
AcDbLine
 10
751.2556602399999
 20
923.0157899199998
 30
0.0
 11
750.8199051799997
 21
923.2432443499996
 31
0.0
  0
LINE
  5
652
330
6B
100
AcDbEntity
  8
0
 62
     3
100
AcDbLine
 10
751.45932299
 20
926.7463677999996
 30
0.0
 11
751.89507012
 21
926.5188981600001
 31
0.0
  0
LINE
  5
653
330
6B
100
AcDbEntity
  8
0
 62
     3
100
AcDbLine
 10
751.4592578799996
 20
923.0157899199998
 30
0.0
 11
751.8950129399999
 21
923.2432443499996
 31
0.0
  0
LINE
  5
654
330
6B
100
AcDbEntity
  8
0
 62
     3
100
AcDbLine
 10
753.4115839599997
 20
926.7463677999996
 30
0.0
 11
752.9758368399996
 21
926.5188981600001
 31
0.0
  0
LINE
  5
655
330
6B
100
AcDbEntity
  8
0
 62
     3
100
AcDbLine
 10
752.9758368399996
 20
926.5188981600001
 30
0.0
 11
752.9758940099997
 21
923.2432443499996
 31
0.0
  0
LINE
  5
656
330
6B
100
AcDbEntity
  8
0
 62
     3
100
AcDbLine
 10
753.4116490699997
 20
923.0157899199998
 30
0.0
 11
752.9758940099997
 21
923.2432443499996
 31
0.0
  0
LINE
  5
657
330
6B
100
AcDbEntity
  8
0
 62
     3
100
AcDbLine
 10
751.8950452099996
 20
925.0917650399996
 30
0.0
 11
750.81987292
 21
925.0917650399996
 31
0.0
  0
LINE
  5
658
330
6B
100
AcDbEntity
  8
0
 62
     3
100
AcDbLine
 10
751.8950378499996
 20
924.6704746799997
 30
0.0
 11
750.8198802699996
 21
924.6704746799997
 31
0.0
  0
LINE
  5
659
330
6B
100
AcDbEntity
  8
0
 62
     3
100
AcDbLine
 10
751.89507012
 20
926.5188981600001
 30
0.0
 11
751.8950452099996
 21
925.0917650399996
 31
0.0
  0
LINE
  5
65A
330
6B
100
AcDbEntity
  8
0
 62
     3
100
AcDbLine
 10
751.8950378499996
 20
924.6704746799997
 30
0.0
 11
751.8950129399999
 21
923.2432443499996
 31
0.0
  0
LINE
  5
65B
330
6B
100
AcDbEntity
  8
0
 62
     3
100
AcDbLine
 10
750.8198480099999
 20
926.5188981600001
 30
0.0
 11
750.81987292
 21
925.0917650399996
 31
0.0
  0
LINE
  5
65C
330
6B
100
AcDbEntity
  8
0
 62
     3
100
AcDbLine
 10
750.8198802699996
 20
924.6704746799997
 30
0.0
 11
750.8199051799997
 21
923.2432443499996
 31
0.0
  0
LINE
  5
65D
330
6B
100
AcDbEntity
  8
0
 62
     3
100
AcDbLine
 10
753.6185430799996
 20
926.7463677999996
 30
0.0
 11
754.0542901999997
 21
926.5188981600001
 31
0.0
  0
LINE
  5
65E
330
6B
100
AcDbEntity
  8
0
 62
     3
100
AcDbLine
 10
754.0542901999997
 20
926.5188981600001
 30
0.0
 11
754.0542330299999
 21
923.2432443499996
 31
0.0
  0
LINE
  5
65F
330
6B
100
AcDbEntity
  8
0
 62
     3
100
AcDbLine
 10
753.6184779699997
 20
923.0157899199998
 30
0.0
 11
754.0542330299999
 21
923.2432443499996
 31
0.0
  0
LINE
  5
660
330
6B
100
AcDbEntity
  8
0
 62
     3
100
AcDbLine
 10
755.5480533499997
 20
926.7463677999996
 30
0.0
 11
755.1123062299997
 21
926.5188981600001
 31
0.0
  0
LINE
  5
661
330
6B
100
AcDbEntity
  8
0
 62
     3
100
AcDbLine
 10
755.1123062299997
 20
926.5188981600001
 30
0.0
 11
755.1123633999996
 21
923.2432443499996
 31
0.0
  0
LINE
  5
662
330
6B
100
AcDbEntity
  8
0
 62
     3
100
AcDbLine
 10
755.5481184599997
 20
923.0157899199998
 30
0.0
 11
755.1123633999996
 21
923.2432443499996
 31
0.0
  0
LINE
  5
663
330
6B
100
AcDbEntity
  8
0
 62
     3
100
AcDbLine
 10
755.7624129199997
 20
926.7463677999996
 30
0.0
 11
756.1981600399997
 21
926.5188981600001
 31
0.0
  0
LINE
  5
664
330
6B
100
AcDbEntity
  8
0
 62
     3
100
AcDbLine
 10
756.1981600399997
 20
926.5188981600001
 30
0.0
 11
756.1981028699997
 21
923.2432443499996
 31
0.0
  0
LINE
  5
665
330
6B
100
AcDbEntity
  8
0
 62
     3
100
AcDbLine
 10
755.7623478099997
 20
923.0157899199998
 30
0.0
 11
756.1981028699997
 21
923.2432443499996
 31
0.0
  0
ARC
  5
666
330
6B
100
AcDbEntity
  8
0
 62
     3
100
AcDbCircle
 10
747.9114228999998
 20
924.8905096199999
 30
0.0
 40
2.086285909999999
100
AcDbArc
 50
97.70152350999723
 51
270.0
  0
ARC
  5
667
330
6B
100
AcDbEntity
  8
0
 62
     3
100
AcDbCircle
 10
760.7920237399996
 20
924.86955299
 30
0.0
 40
2.108943379999999
100
AcDbArc
 50
0.3142502700074235
 51
69.00558244998835
  0
ARC
  5
668
330
6B
100
AcDbEntity
  8
0
 62
     3
100
AcDbCircle
 10
761.2526990599997
 20
924.86955299
 30
0.0
 40
2.108943379999999
100
AcDbArc
 50
110.9944175499969
 51
148.1166110200025
  0
ARC
  5
669
330
6B
100
AcDbEntity
  8
0
 62
     3
100
AcDbCircle
 10
760.7920237399996
 20
924.8926867299998
 30
0.0
 40
2.108943379999999
100
AcDbArc
 50
290.9944175499969
 51
359.6857497299926
  0
ARC
  5
66A
330
6B
100
AcDbEntity
  8
0
 62
     3
100
AcDbCircle
 10
761.2526990599997
 20
924.8926867299998
 30
0.0
 40
2.108943379999999
100
AcDbArc
 50
211.8833889799973
 51
249.0055824499884
  0
ARC
  5
66B
330
6B
100
AcDbEntity
  8
0
 62
     3
100
AcDbCircle
 10
761.0223614
 20
925.7439252499999
 30
0.0
 40
1.214070989999997
100
AcDbArc
 50
64.36517190000066
 51
115.6348280999993
  0
ARC
  5
66C
330
6B
100
AcDbEntity
  8
0
 62
     3
100
AcDbCircle
 10
761.0223614
 20
924.0183144699999
 30
0.0
 40
1.214070989999997
100
AcDbArc
 50
244.3651719000007
 51
295.6348280999993
  0
ARC
  5
66D
330
6B
100
AcDbEntity
  8
0
 62
     3
100
AcDbCircle
 10
761.0223614
 20
925.76698693
 30
0.0
 40
0.59585563
100
AcDbArc
 50
19.48660554000642
 51
160.5133944599935
  0
ARC
  5
66E
330
6B
100
AcDbEntity
  8
0
 62
     3
100
AcDbCircle
 10
761.0223614
 20
924.0183144699999
 30
0.0
 40
1.214070989999997
100
AcDbArc
 50
244.3651719000007
 51
295.6348280999993
  0
ARC
  5
66F
330
6B
100
AcDbEntity
  8
0
 62
     3
100
AcDbCircle
 10
761.0223614
 20
923.9952527899999
 30
0.0
 40
0.59585563
100
AcDbArc
 50
199.4866055400056
 51
340.5133944599935
  0
ARC
  5
670
330
6B
100
AcDbEntity
  8
0
 62
     3
100
AcDbCircle
 10
756.2798888999997
 20
902.65306002
 30
0.0
 40
26.04
100
AcDbArc
 50
69.50571480000848
 51
81.68998806999741
  0
ARC
  5
671
330
6B
100
AcDbEntity
  8
0
 62
     3
100
AcDbCircle
 10
756.2798888999997
 20
947.1091796999999
 30
0.0
 40
26.04
100
AcDbArc
 50
278.3100119300026
 51
290.4942851999915
  0
ARC
  5
672
330
6B
100
AcDbEntity
  8
0
 62
     3
100
AcDbCircle
 10
764.5880930299996
 20
924.8811198599996
 30
0.0
 40
2.31
100
AcDbArc
 50
290.4942851999915
 51
69.50571480000848
  0
ARC
  5
673
330
6B
100
AcDbEntity
  8
0
 62
     3
100
AcDbCircle
 10
737.2880930299997
 20
924.8811198599996
 30
0.0
 40
2.31
100
AcDbArc
 50
110.4942851999915
 51
249.5057147999946
  0
ARC
  5
674
330
6B
100
AcDbEntity
  8
0
 62
     3
100
AcDbCircle
 10
745.5962971499997
 20
902.65306002
 30
0.0
 40
26.04
100
AcDbArc
 50
98.31001192998948
 51
110.4942851999915
  0
ARC
  5
675
330
6B
100
AcDbEntity
  8
0
 62
     3
100
AcDbCircle
 10
745.5962971499997
 20
947.1091796999999
 30
0.0
 40
26.04
100
AcDbArc
 50
249.5057147999946
 51
261.6899880699974
  0
ARC
  5
676
330
6B
100
AcDbEntity
  8
0
 62
     3
100
AcDbCircle
 10
750.9380930299997
 20
866.0811198599999
 30
0.0
 40
62.99999987
100
AcDbArc
 50
81.68998806999741
 51
98.31001192998948
  0
ARC
  5
677
330
6B
100
AcDbEntity
  8
0
 62
     3
100
AcDbCircle
 10
750.9380930299997
 20
983.6811198599999
 30
0.0
 40
62.99999987
100
AcDbArc
 50
261.6899880699974
 51
278.3100119300026
  0
ARC
  5
678
330
6B
100
AcDbEntity
  8
0
 62
     3
100
AcDbCircle
 10
750.9380930299997
 20
866.0811198599999
 30
0.0
 40
62.36999987
100
AcDbArc
 50
81.68998806999741
 51
98.31001192998948
  0
ARC
  5
679
330
6B
100
AcDbEntity
  8
0
 62
     3
100
AcDbCircle
 10
750.9380930299997
 20
983.6811198599999
 30
0.0
 40
62.36999987
100
AcDbArc
 50
261.6899880699974
 51
278.3100119300026
  0
ARC
  5
67A
330
6B
100
AcDbEntity
  8
0
 62
     3
100
AcDbCircle
 10
756.2798888999997
 20
947.1091796999999
 30
0.0
 40
25.41
100
AcDbArc
 50
278.3100119300026
 51
290.4942851999915
  0
ARC
  5
67B
330
6B
100
AcDbEntity
  8
0
 62
     3
100
AcDbCircle
 10
756.2798888999997
 20
902.65306002
 30
0.0
 40
25.41
100
AcDbArc
 50
69.50571480000848
 51
81.68998806999741
  0
ARC
  5
67C
330
6B
100
AcDbEntity
  8
0
 62
     3
100
AcDbCircle
 10
764.5880930299996
 20
924.8811198599996
 30
0.0
 40
1.679999999999999
100
AcDbArc
 50
290.4942851999915
 51
69.50571480000848
  0
ARC
  5
67D
330
6B
100
AcDbEntity
  8
0
 62
     3
100
AcDbCircle
 10
737.2880930299997
 20
924.8811198599996
 30
0.0
 40
1.679999999999999
100
AcDbArc
 50
110.4942851999915
 51
249.5057147999946
  0
ARC
  5
67E
330
6B
100
AcDbEntity
  8
0
 62
     3
100
AcDbCircle
 10
745.5962971499997
 20
902.65306002
 30
0.0
 40
25.41
100
AcDbArc
 50
98.31001192998948
 51
110.4942851999915
  0
ARC
  5
67F
330
6B
100
AcDbEntity
  8
0
 62
     3
100
AcDbCircle
 10
745.5962971499997
 20
947.1091796999999
 30
0.0
 40
25.41
100
AcDbArc
 50
249.5057147999946
 51
261.6899880699974
  0
LINE
  5
680
330
6B
100
AcDbEntity
  8
0
 62
     3
100
AcDbLine
 10
755.5480541299997
 20
922.8042434799997
 30
0.0
 11
753.6185422999997
 21
922.8042434799997
 31
0.0
  0
LINE
  5
681
330
6B
100
AcDbEntity
  8
0
 62
     3
100
AcDbLine
 10
755.5480541299997
 20
923.0158046200001
 30
0.0
 11
755.5480541299997
 21
922.8042434799997
 31
0.0
  0
LINE
  5
682
330
6B
100
AcDbEntity
  8
0
 62
     3
100
AcDbLine
 10
753.4115847399997
 20
926.9578975199998
 30
0.0
 11
751.4593222099996
 21
926.9578975199998
 31
0.0
  0
LINE
  5
683
330
6B
100
AcDbEntity
  8
0
 62
     3
100
AcDbLine
 10
753.4115847399997
 20
926.9578975199998
 30
0.0
 11
753.4115847399997
 21
926.7464350999999
 31
0.0
  0
LINE
  5
684
330
6B
100
AcDbEntity
  8
0
 62
     3
100
AcDbLine
 10
753.4115847399997
 20
923.0158046200001
 30
0.0
 11
753.4115847399997
 21
922.80414477
 31
0.0
  0
LINE
  5
685
330
6B
100
AcDbEntity
  8
0
 62
     3
100
AcDbLine
 10
753.4115847399997
 20
922.80414477
 30
0.0
 11
751.4593222099996
 21
922.80414477
 31
0.0
  0
LINE
  5
686
330
6B
100
AcDbEntity
  8
0
 62
     3
100
AcDbLine
 10
755.5480541299997
 20
926.9579962399998
 30
0.0
 11
755.5480541299997
 21
926.7464350999999
 31
0.0
  0
LINE
  5
687
330
6B
100
AcDbEntity
  8
0
 62
     3
100
AcDbLine
 10
755.5480541299997
 20
926.9579962399998
 30
0.0
 11
753.6185422999997
 21
926.9579962399998
 31
0.0
  0
LINE
  5
688
330
6B
100
AcDbEntity
  8
0
 62
     3
100
AcDbLine
 10
753.6185422999997
 20
926.9579962399998
 30
0.0
 11
753.6185422999997
 21
926.7464350999999
 31
0.0
  0
LINE
  5
689
330
6B
100
AcDbEntity
  8
0
 62
     3
100
AcDbLine
 10
755.7624121299997
 20
923.0158046200001
 30
0.0
 11
755.7624121299997
 21
922.8042434799997
 31
0.0
  0
LINE
  5
68A
330
6B
100
AcDbEntity
  8
0
 62
     3
100
AcDbLine
 10
757.74671269
 20
922.8042434799997
 30
0.0
 11
755.7624121299997
 21
922.8042434799997
 31
0.0
  0
LINE
  5
68B
330
6B
100
AcDbEntity
  8
0
 62
     3
100
AcDbLine
 10
757.25617606
 20
926.2902267199997
 30
0.0
 11
757.25617606
 21
923.4720129999997
 31
0.0
  0
LINE
  5
68C
330
6B
100
AcDbEntity
  8
0
 62
     3
100
AcDbLine
 10
757.25617606
 20
923.4720129999997
 30
0.0
 11
757.4462250299997
 21
923.4720129999997
 31
0.0
  0
ARC
  5
68D
330
6B
100
AcDbEntity
  8
0
 62
     3
100
AcDbCircle
 10
756.4744392899997
 20
924.8811198599996
 30
0.0
 40
1.71170957
100
AcDbArc
 50
304.5919552700034
 51
55.40804472999656
  0
LINE
  5
68E
330
6B
100
AcDbEntity
  8
0
 62
     3
100
AcDbLine
 10
757.74671269
 20
926.9579962399998
 30
0.0
 11
755.7624121299997
 21
926.9579962399998
 31
0.0
  0
LINE
  5
68F
330
6B
100
AcDbEntity
  8
0
 62
     3
100
AcDbLine
 10
755.7624121299997
 20
926.9579962399998
 30
0.0
 11
755.7624121299997
 21
926.7464350999999
 31
0.0
  0
LINE
  5
690
330
6B
100
AcDbEntity
  8
0
 62
     3
100
AcDbLine
 10
753.6185422999997
 20
923.0158046200001
 30
0.0
 11
753.6185422999997
 21
922.8042434799997
 31
0.0
  0
LINE
  5
691
330
6B
100
AcDbEntity
  8
0
 62
     3
100
AcDbLine
 10
757.25617606
 20
926.2902267199997
 30
0.0
 11
757.4462250299997
 21
926.2902267199997
 31
0.0
  0
LINE
  5
692
330
6B
100
AcDbEntity
  8
0
 62
     3
100
AcDbLine
 10
745.6130164
 20
923.0158046200001
 30
0.0
 11
745.6130127099997
 21
922.8042237099996
 31
0.0
  0
LINE
  5
693
330
6B
100
AcDbEntity
  8
0
 62
     3
100
AcDbLine
 10
743.6835008699999
 20
922.8042632499999
 30
0.0
 11
745.6130127099997
 21
922.8042295799998
 31
0.0
  0
LINE
  5
694
330
6B
100
AcDbEntity
  8
0
 62
     3
100
AcDbLine
 10
739.3871190199996
 20
922.8042434799997
 30
0.0
 11
740.9263843499997
 21
922.8042434799997
 31
0.0
  0
ARC
  5
695
330
6B
100
AcDbEntity
  8
0
 62
     3
100
AcDbCircle
 10
734.4051763399996
 20
924.9300264799996
 30
0.0
 40
14.71356563
100
AcDbArc
 50
353.8660061899952
 51
357.6940342600066
  0
LINE
  5
696
330
6B
100
AcDbEntity
  8
0
 62
     3
100
AcDbLine
 10
748.1217562
 20
924.3416588299997
 30
0.0
 11
749.1068270899996
 21
924.3380139500001
 31
0.0
  0
LINE
  5
698
330
6B
100
AcDbEntity
  8
0
 62
     3
100
AcDbLine
 10
748.1257346199996
 20
925.41687357
 30
0.0
 11
749.1108054999997
 21
925.4132286999997
 31
0.0
  0
ARC
  5
699
330
6B
100
AcDbEntity
  8
0
 62
     3
100
AcDbCircle
 10
734.4051763399996
 20
924.9300264799996
 30
0.0
 40
14.71356563
100
AcDbArc
 50
1.881965739991514
 51
5.709993809994633
  0
LINE
  5
69A
330
6B
100
AcDbEntity
  8
0
 62
     3
100
AcDbLine
 10
745.6130852000001
 20
926.9579764699997
 30
0.0
 11
745.6130815099997
 21
926.7464350999999
 31
0.0
  0
LINE
  5
69B
330
6B
100
AcDbEntity
  8
0
 62
     3
100
AcDbLine
 10
743.6835733699997
 20
926.95801601
 30
0.0
 11
745.6130852000001
 21
926.95798233
 31
0.0
  0
LINE
  5
69C
330
6B
100
AcDbEntity
  8
0
 62
     3
100
AcDbLine
 10
743.6835045599997
 20
923.0158046200001
 30
0.0
 11
743.6835008699999
 21
922.8042632499999
 31
0.0
  0
LINE
  5
69D
330
6B
100
AcDbEntity
  8
0
 62
     3
100
AcDbLine
 10
743.6835733699997
 20
926.95801601
 30
0.0
 11
743.6835696799996
 21
926.7464350999999
 31
0.0
  0
LINE
  5
69E
330
6B
100
AcDbEntity
  8
0
 62
     3
100
AcDbLine
 10
740.9263843499997
 20
923.0158046200001
 30
0.0
 11
740.9263843499997
 21
922.8042434799997
 31
0.0
  0
LINE
  5
69F
330
6B
100
AcDbEntity
  8
0
 62
     3
100
AcDbLine
 10
740.4906364399996
 20
925.2401315699996
 30
0.0
 11
742.0130665
 21
922.8042434799997
 31
0.0
  0
LINE
  5
6A0
330
6B
100
AcDbEntity
  8
0
 62
     3
100
AcDbLine
 10
742.0130665
 20
922.8042434799997
 30
0.0
 11
743.03249922
 21
922.8042434799997
 31
0.0
  0
LINE
  5
6A1
330
6B
100
AcDbEntity
  8
0
 62
     3
100
AcDbLine
 10
743.4682471299999
 20
926.9579962399998
 30
0.0
 11
743.4682471299999
 21
926.7464350999999
 31
0.0
  0
LINE
  5
6A2
330
6B
100
AcDbEntity
  8
0
 62
     3
100
AcDbLine
 10
741.9289817999997
 20
926.9579962399998
 30
0.0
 11
743.4682471299999
 21
926.9579962399998
 31
0.0
  0
LINE
  5
6A3
330
6B
100
AcDbEntity
  8
0
 62
     3
100
AcDbLine
 10
741.9289817999997
 20
926.9579962399998
 30
0.0
 11
741.9289817999997
 21
926.7464350999999
 31
0.0
  0
LINE
  5
6A4
330
6B
100
AcDbEntity
  8
0
 62
     3
100
AcDbLine
 10
742.36472971
 20
925.0766298999996
 30
0.0
 11
741.1300830399997
 21
926.9579962399998
 31
0.0
  0
LINE
  5
6A5
330
6B
100
AcDbEntity
  8
0
 62
     3
100
AcDbLine
 10
739.3871190199996
 20
926.9579962399998
 30
0.0
 11
741.1300830399997
 21
926.9579962399998
 31
0.0
  0
LINE
  5
6A6
330
6B
100
AcDbEntity
  8
0
 62
     3
100
AcDbLine
 10
749.3033333799997
 20
926.9578975199998
 30
0.0
 11
751.2555959199996
 21
926.9578975199998
 31
0.0
  0
LINE
  5
6A7
330
6B
100
AcDbEntity
  8
0
 62
     3
100
AcDbLine
 10
749.3033333799997
 20
926.7464350999999
 30
0.0
 11
749.3033333799997
 21
926.9578975199998
 31
0.0
  0
LINE
  5
6A8
330
6B
100
AcDbEntity
  8
0
 62
     3
100
AcDbLine
 10
749.3033333799997
 20
922.80414477
 30
0.0
 11
749.3033333799997
 21
923.0158046200001
 31
0.0
  0
LINE
  5
6A9
330
6B
100
AcDbEntity
  8
0
 62
     3
100
AcDbLine
 10
749.3033333799997
 20
922.80414477
 30
0.0
 11
751.2555959199996
 21
922.80414477
 31
0.0
  0
LINE
  5
6AA
330
6B
100
AcDbEntity
  8
0
 62
     3
100
AcDbLine
 10
751.4593222099996
 20
923.0158046200001
 30
0.0
 11
751.4593222099996
 21
922.80414477
 31
0.0
  0
LINE
  5
6AB
330
6B
100
AcDbEntity
  8
0
 62
     3
100
AcDbLine
 10
751.2555959199996
 20
923.0158046200001
 30
0.0
 11
751.2555959199996
 21
922.80414477
 31
0.0
  0
LINE
  5
6AC
330
6B
100
AcDbEntity
  8
0
 62
     3
100
AcDbLine
 10
751.2555959199996
 20
926.7464350999999
 30
0.0
 11
751.2555959199996
 21
926.9578975199998
 31
0.0
  0
LINE
  5
6AD
330
6B
100
AcDbEntity
  8
0
 62
     3
100
AcDbLine
 10
751.4593222099996
 20
926.7464350999999
 30
0.0
 11
751.4593222099996
 21
926.9578975199998
 31
0.0
  0
LINE
  5
6AE
330
6B
100
AcDbEntity
  8
0
 62
     3
100
AcDbLine
 10
739.3871190199996
 20
923.0158046200001
 30
0.0
 11
739.3871190199996
 21
922.8042434799997
 31
0.0
  0
LINE
  5
6AF
330
6B
100
AcDbEntity
  8
0
 62
     3
100
AcDbLine
 10
739.3871190199996
 20
926.9579962399998
 30
0.0
 11
739.3871190199996
 21
926.7464350999999
 31
0.0
  0
ARC
  5
6B0
330
6B
100
AcDbEntity
  8
0
 62
     3
100
AcDbCircle
 10
757.95671269
 20
925.3168677699997
 30
0.0
 40
1.641128469999999
100
AcDbArc
 50
17.30874897999775
 51
23.76507095999297
  0
ARC
  5
6B1
330
6B
100
AcDbEntity
  8
0
 62
     3
100
AcDbCircle
 10
756.5584392899997
 20
924.8811198599996
 30
0.0
 40
3.105725599999998
100
AcDbArc
 50
342.6912510200022
 51
17.30856643999277
  0
ARC
  5
6B2
330
6B
100
AcDbEntity
  8
0
 62
     3
100
AcDbCircle
 10
757.95671269
 20
924.44537196
 30
0.0
 40
1.641128469999999
100
AcDbArc
 50
336.2349290400072
 51
342.6912510200022
  0
ARC
  5
6B3
330
6B
100
AcDbEntity
  8
0
 62
     3
100
AcDbCircle
 10
757.74671269
 20
925.3168677699997
 30
0.0
 40
1.641128469999999
100
AcDbArc
 50
17.30874897999775
 51
90.0
  0
ARC
  5
6B4
330
6B
100
AcDbEntity
  8
0
 62
     3
100
AcDbCircle
 10
756.3484392899996
 20
924.8811198599996
 30
0.0
 40
3.105725599999998
100
AcDbArc
 50
342.6912510200022
 51
17.30856643999277
  0
ARC
  5
6B5
330
6B
100
AcDbEntity
  8
0
 62
     3
100
AcDbCircle
 10
757.74671269
 20
924.44537196
 30
0.0
 40
1.641128469999999
100
AcDbArc
 50
270.0
 51
342.6912510200022
  0
ARC
  5
6B6
330
6B
100
AcDbEntity
  8
0
 62
     3
100
AcDbCircle
 10
747.6227723199997
 20
924.8811198599996
 30
0.0
 40
2.076876379999998
100
AcDbArc
 50
46.75287960999258
 51
89.74999828999569
  0
ARC
  5
6B7
330
6B
100
AcDbEntity
  8
0
 62
     3
100
AcDbCircle
 10
747.6227723199997
 20
924.8811198599996
 30
0.0
 40
2.076876379999998
100
AcDbArc
 50
273.976333149997
 51
312.8231203899968
  0
ARC
  5
6B8
330
6B
100
AcDbEntity
  8
0
 62
     3
100
AcDbCircle
 10
759.0645802599997
 20
924.8490583299997
 30
0.0
 40
2.755888999999998
100
AcDbArc
 50
0.6665840599916529
 51
23.90392827000101
  0
ARC
  5
6B9
330
6B
100
AcDbEntity
  8
0
 62
     3
100
AcDbCircle
 10
762.98014254
 20
924.8490583299997
 30
0.0
 40
2.755888999999998
100
AcDbArc
 50
156.096071729999
 51
179.3334159400083
  0
ARC
  5
6BA
330
6B
100
AcDbEntity
  8
0
 62
     3
100
AcDbCircle
 10
759.0645802599997
 20
924.9131813899998
 30
0.0
 40
2.755888999999998
100
AcDbArc
 50
336.096071729999
 51
359.3334159400084
  0
ARC
  5
6BB
330
6B
100
AcDbEntity
  8
0
 62
     3
100
AcDbCircle
 10
762.98014254
 20
924.9131813899998
 30
0.0
 40
2.755888999999998
100
AcDbArc
 50
180.6665840599917
 51
203.903928270001
  0
LINE
  5
6BC
330
6B
100
AcDbEntity
  8
0
 62
     3
100
AcDbLine
 10
767.6304296299996
 20
924.9589909999999
 30
0.0
 11
882.302767
 21
924.9589909999999
 31
0.0
  0
LINE
  5
6BD
330
6B
100
AcDbEntity
  8
0
 62
     3
100
AcDbLine
 10
734.2176831099997
 20
924.9589909999999
 30
0.0
 11
702.302767
 21
924.9589909999999
 31
0.0
  0
TEXT
  5
6BE
330
6B
100
AcDbEntity
  8
0
 62
     3
100
AcDbText
 10
869.802767
 20
915.4589909999996
 30
0.0
 40
3.2
  1
担　当
  7
高3.2
100
AcDbText
  0
TEXT
  5
6BF
330
6B
100
AcDbEntity
  8
0
 62
     3
100
AcDbText
 10
825.802767
 20
915.4589909999996
 30
0.0
 40
3.2
  1
変更・追記内容
  7
高3.2
100
AcDbText
  0
TEXT
  5
6C0
330
6B
100
AcDbEntity
  8
0
 62
     3
100
AcDbText
 10
800.9162820003391
 20
910.7884524900915
 30
0.0
 40
2.0
  1
1
  7
高2
100
AcDbText
  0
TEXT
  5
6C1
330
6B
100
AcDbEntity
  8
0
 62
     3
100
AcDbText
 10
800.6077705235819
 20
905.6186357778186
 30
0.0
 40
2.0
  1
2
  7
高2
100
AcDbText
  0
TEXT
  5
6C2
330
6B
100
AcDbEntity
  8
0
 62
     3
100
AcDbText
 10
807.802767
 20
915.4589909999996
 30
0.0
 40
3.2
  1
日　付
  7
高3.2
100
AcDbText
  0
TEXT
  5
6C3
330
6B
100
AcDbEntity
  8
0
 62
     3
100
AcDbText
 10
807.802767
 20
920.4589909999999
 30
0.0
 40
3.2
  1
図　　　　面　　　　略　　　　歴
  7
高3.2
100
AcDbText
  0
TEXT
  5
6C4
330
6B
100
AcDbEntity
  8
0
 62
     3
100
AcDbText
 10
797.802767
 20
915.4589909999996
 30
0.0
 40
3.2
  1
記号
  7
高3.2
100
AcDbText
  0
LINE
  5
6C5
330
6B
100
AcDbEntity
  8
0
 62
     7
100
AcDbLine
 10
801.3027669999999
 20
908.7498869999999
 30
0.0
 11
799.4027669999996
 21
905.4589909999997
 31
0.0
  0
LINE
  5
6C6
330
6B
100
AcDbEntity
  8
0
 62
     7
100
AcDbLine
 10
801.3027669999999
 20
908.7498869999999
 30
0.0
 11
803.2027669999999
 21
905.4589909999997
 31
0.0
  0
LINE
  5
6C7
330
6B
100
AcDbEntity
  8
0
 62
     7
100
AcDbLine
 10
799.4027669999996
 20
905.4589909999997
 30
0.0
 11
803.2027669999999
 21
905.4589909999997
 31
0.0
  0
LINE
  5
6C8
330
6B
100
AcDbEntity
  8
0
 62
     7
100
AcDbLine
 10
801.3027669999999
 20
913.7498879999997
 30
0.0
 11
799.4027669999996
 21
910.4589909999999
 31
0.0
  0
LINE
  5
6C9
330
6B
100
AcDbEntity
  8
0
 62
     7
100
AcDbLine
 10
801.3027669999999
 20
913.7498879999997
 30
0.0
 11
803.2027669999999
 21
910.4589909999999
 31
0.0
  0
LINE
  5
6CA
330
6B
100
AcDbEntity
  8
0
 62
     7
100
AcDbLine
 10
799.4027669999996
 20
910.4589909999999
 30
0.0
 11
803.2027669999999
 21
910.4589909999999
 31
0.0
  0
LINE
  5
6CB
330
6B
100
AcDbEntity
  8
0
 62
     3
100
AcDbLine
 10
796.302767
 20
919.9589909999998
 30
0.0
 11
882.302767
 21
919.9589909999998
 31
0.0
  0
LINE
  5
6CC
330
6B
100
AcDbEntity
  8
0
 62
     3
100
AcDbLine
 10
796.302767
 20
914.9589909999999
 30
0.0
 11
882.302767
 21
914.9589909999999
 31
0.0
  0
LINE
  5
6CD
330
6B
100
AcDbEntity
  8
0
 62
     7
100
AcDbLine
 10
796.302767
 20
909.9589909999997
 30
0.0
 11
882.302767
 21
909.9589909999997
 31
0.0
  0
LINE
  5
6CE
330
6B
100
AcDbEntity
  8
0
 62
     3
100
AcDbLine
 10
796.302767
 20
904.9589909999998
 30
0.0
 11
882.302767
 21
904.9589909999998
 31
0.0
  0
LINE
  5
6CF
330
6B
100
AcDbEntity
  8
0
 62
     7
100
AcDbLine
 10
868.3027669999999
 20
904.9589909999998
 30
0.0
 11
868.3027669999999
 21
919.9589909999998
 31
0.0
  0
LINE
  5
6D0
330
6B
100
AcDbEntity
  8
0
 62
     7
100
AcDbLine
 10
824.302767
 20
904.9589909999998
 30
0.0
 11
824.302767
 21
919.9589909999998
 31
0.0
  0
LINE
  5
6D1
330
6B
100
AcDbEntity
  8
0
 62
     7
100
AcDbLine
 10
806.302767
 20
904.9589909999998
 30
0.0
 11
806.302767
 21
919.9589909999998
 31
0.0
  0
LINE
  5
6D2
330
6B
100
AcDbEntity
  8
0
 62
     3
100
AcDbLine
 10
796.302767
 20
904.9589909999998
 30
0.0
 11
796.302767
 21
924.9589909999999
 31
0.0
  0
LINE
  5
8CF
330
6B
100
AcDbEntity
  8
0
 62
     3
100
AcDbLine
 10
812.939732
 20
756.072488
 30
0.0
 11
812.939732
 21
707.072488
 31
0.0
  0
LINE
  5
8D0
330
6B
100
AcDbEntity
  8
0
 62
     3
100
AcDbLine
 10
812.939732
 20
756.072488
 30
0.0
 11
875.434044
 21
756.072488
 31
0.0
  0
LINE
  5
8D1
330
6B
100
AcDbEntity
  8
0
 62
     3
100
AcDbLine
 10
812.939732
 20
707.072488
 30
0.0
 11
875.434044
 21
707.072488
 31
0.0
  0
TEXT
  5
8D2
330
6B
100
AcDbEntity
  8
0
 62
     3
100
AcDbText
 10
820.7996977386798
 20
758.52647
 30
0.0
 40
4.5
  1
主　　　仕　　　様
  7
高4.5
100
AcDbText
  0
TEXT
  5
8D3
330
6B
100
AcDbEntity
  8
0
 62
     3
100
AcDbText
 10
814.939732
 20
750.0724879999997
 30
0.0
 40
4.5
  1
型　　式
 41
0.8
  7
高4.5
100
AcDbText
  0
TEXT
  5
8D4
330
6B
100
AcDbEntity
  8
0
 62
     3
100
AcDbText
 10
814.939732
 20
743.072488
 30
0.0
 40
4.5
  1
定格電圧
 41
0.8
  7
高4.5
100
AcDbText
  0
TEXT
  5
8D5
330
6B
100
AcDbEntity
  8
0
 62
     3
100
AcDbText
 10
814.939732
 20
736.072488
 30
0.0
 40
4.5
  1
定格消費電力
 41
0.8
  7
高4.5
100
AcDbText
  0
TEXT
  5
8D6
330
6B
100
AcDbEntity
  8
0
 62
     3
100
AcDbText
 10
814.939732
 20
729.0724879999997
 30
0.0
 40
4.5
  1
定格光束
 41
0.8
  7
高4.5
100
AcDbText
  0
TEXT
  5
8D7
330
6B
100
AcDbEntity
  8
0
 62
     3
100
AcDbText
 10
814.939732
 20
722.072488
 30
0.0
 40
4.5
  1
寿　　命
 41
0.8
  7
高4.5
100
AcDbText
  0
TEXT
  5
8D8
330
6B
100
AcDbEntity
  8
0
 62
     3
100
AcDbText
 10
814.939732
 20
715.072488
 30
0.0
 40
4.5
  1
口　　金
 41
0.8
  7
高4.5
100
AcDbText
  0
TEXT
  5
8D9
330
6B
100
AcDbEntity
  8
0
 62
     3
100
AcDbText
 10
814.939732
 20
708.0724879999997
 30
0.0
 40
4.5
  1
質　　量
 41
0.8
  7
高4.5
100
AcDbText
  0
LINE
  5
8DA
330
6B
100
AcDbEntity
  8
0
 62
     3
100
AcDbLine
 10
875.434044
 20
707.072488
 30
0.0
 11
875.434044
 21
756.072488
 31
0.0
  0
LINE
  5
8DB
330
6B
100
AcDbEntity
  8
0
 62
     7
100
AcDbLine
 10
812.939732
 20
749.072488
 30
0.0
 11
875.434044
 21
749.072488
 31
0.0
  0
LINE
  5
8DC
330
6B
100
AcDbEntity
  8
0
 62
     7
100
AcDbLine
 10
812.939732
 20
742.072488
 30
0.0
 11
875.434044
 21
742.072488
 31
0.0
  0
LINE
  5
8DD
330
6B
100
AcDbEntity
  8
0
 62
     7
100
AcDbLine
 10
812.939732
 20
735.072488
 30
0.0
 11
875.434044
 21
735.072488
 31
0.0
  0
LINE
  5
8DE
330
6B
100
AcDbEntity
  8
0
 62
     7
100
AcDbLine
 10
812.939732
 20
728.072488
 30
0.0
 11
875.434044
 21
728.072488
 31
0.0
  0
LINE
  5
8DF
330
6B
100
AcDbEntity
  8
0
 62
     7
100
AcDbLine
 10
812.939732
 20
721.072488
 30
0.0
 11
875.434044
 21
721.072488
 31
0.0
  0
LINE
  5
8E0
330
6B
100
AcDbEntity
  8
0
 62
     7
100
AcDbLine
 10
812.939732
 20
714.072488
 30
0.0
 11
875.434044
 21
714.072488
 31
0.0
  0
LINE
  5
8E1
330
6B
100
AcDbEntity
  8
0
 62
     7
100
AcDbLine
 10
842.540075113844
 20
756.072488
 30
0.0
 11
842.540075113844
 21
707.072488
 31
0.0
  0
LINE
  5
8E2
330
6B
100
AcDbEntity
  8
0
 62
     7
100
AcDbLine
 10
820.7996977386798
 20
757.5264699999999
 30
0.0
 11
868.1945036447611
 21
757.5264699999999
 31
0.0
  0
TEXT
  5
8E3
330
6B
100
AcDbEntity
  8
0
 62
     3
100
AcDbText
 10
844.5400751138439
 20
743.072488
 30
0.0
 40
4.5
  1
200V
 41
0.8
  7
高4.5
100
AcDbText
  0
TEXT
  5
8E4
330
6B
100
AcDbEntity
  8
0
 62
     3
100
AcDbText
 10
844.5400751138439
 20
722.072488
 30
0.0
 40
4.5
  1
約2000時間
 41
0.8
  7
高4.5
100
AcDbText
  0
TEXT
  5
8E5
330
6B
100
AcDbEntity
  8
0
 62
     3
100
AcDbText
 10
844.5400751138439
 20
750.0724879999999
 30
0.0
 40
4.5
  1
NRF-200-220V
 41
0.55
  7
高4.5
100
AcDbText
  0
TEXT
  5
8E6
330
6B
100
AcDbEntity
  8
0
 62
     3
100
AcDbText
 10
844.5400751138439
 20
736.072488
 30
0.0
 40
4.5
  1
190W
 41
0.8
  7
高4.5
100
AcDbText
  0
TEXT
  5
8E7
330
6B
100
AcDbEntity
  8
0
 62
     3
100
AcDbText
 10
844.5400751138439
 20
729.0724879999999
 30
0.0
 40
4.5
  1
2300Lm
 41
0.8
  7
高4.5
100
AcDbText
  0
TEXT
  5
8E8
330
6B
100
AcDbEntity
  8
0
 62
     3
100
AcDbText
 10
844.5400751138439
 20
715.072488
 30
0.0
 40
4.5
  1
E26
 41
0.8
  7
高4.5
100
AcDbText
  0
TEXT
  5
8E9
330
6B
100
AcDbEntity
  8
0
 62
     3
100
AcDbText
 10
844.5400751138439
 20
708.0724879999999
 30
0.0
 40
4.5
  1
100g
 41
0.8
  7
高4.5
100
AcDbText
  0
LINE
  5
9E8
330
6B
100
AcDbEntity
  8
0
 62
     3
100
AcDbLine
 10
748.1257346199996
 20
925.41687357
 30
0.0
 11
748.1071070899997
 21
925.5361413399999
 31
0.0
  0
LINE
  5
9E9
330
6B
100
AcDbEntity
  8
0
 62
     3
100
AcDbLine
 10
748.1071070899997
 20
925.5361413399999
 30
0.0
 11
748.0847359099997
 21
925.6503461199999
 31
0.0
  0
LINE
  5
9EA
330
6B
100
AcDbEntity
  8
0
 62
     3
100
AcDbLine
 10
748.0847359099997
 20
925.6503461199999
 30
0.0
 11
748.0587939799996
 21
925.7586051799997
 31
0.0
  0
LINE
  5
9EB
330
6B
100
AcDbEntity
  8
0
 62
     3
100
AcDbLine
 10
748.0587939799996
 20
925.7586051799997
 30
0.0
 11
748.0294818399999
 21
925.8600817299997
 31
0.0
  0
LINE
  5
9EC
330
6B
100
AcDbEntity
  8
0
 62
     3
100
AcDbLine
 10
748.0294818399999
 20
925.8600817299997
 30
0.0
 11
747.99702603
 21
925.9539914099999
 31
0.0
  0
LINE
  5
9ED
330
6B
100
AcDbEntity
  8
0
 62
     3
100
AcDbLine
 10
747.99702603
 20
925.9539914099999
 30
0.0
 11
747.96167744
 21
926.0396083499999
 31
0.0
  0
LINE
  5
9EE
330
6B
100
AcDbEntity
  8
0
 62
     3
100
AcDbLine
 10
747.96167744
 20
926.0396083499999
 30
0.0
 11
747.9237092899997
 21
926.1162707599996
 31
0.0
  0
LINE
  5
9EF
330
6B
100
AcDbEntity
  8
0
 62
     3
100
AcDbLine
 10
747.9237092899997
 20
926.1162707599996
 30
0.0
 11
747.8834150399997
 21
926.1833860999999
 31
0.0
  0
LINE
  5
9F0
330
6B
100
AcDbEntity
  8
0
 62
     3
100
AcDbLine
 10
747.8834150399997
 20
926.1833860999999
 30
0.0
 11
747.8411061699996
 21
926.2404355899999
 31
0.0
  0
LINE
  5
9F1
330
6B
100
AcDbEntity
  8
0
 62
     3
100
AcDbLine
 10
747.8411061699996
 20
926.2404355899999
 30
0.0
 11
747.7971096799997
 21
926.2869782599999
 31
0.0
  0
LINE
  5
9F2
330
6B
100
AcDbEntity
  8
0
 62
     3
100
AcDbLine
 10
747.7971096799997
 20
926.2869782599999
 30
0.0
 11
747.7517656599997
 21
926.3226543799996
 31
0.0
  0
LINE
  5
9F3
330
6B
100
AcDbEntity
  8
0
 62
     3
100
AcDbLine
 10
747.7517656599997
 20
926.3226543799996
 30
0.0
 11
747.7054245899997
 21
926.3471881699997
 31
0.0
  0
LINE
  5
9F4
330
6B
100
AcDbEntity
  8
0
 62
     3
100
AcDbLine
 10
747.7054245899997
 20
926.3471881699997
 30
0.0
 11
747.6584446499997
 21
926.3603900199997
 31
0.0
  0
LINE
  5
9F5
330
6B
100
AcDbEntity
  8
0
 62
     3
100
AcDbLine
 10
747.6584446499997
 20
926.3603900199997
 30
0.0
 11
747.6111889899997
 21
926.36215786
 31
0.0
  0
LINE
  5
9F6
330
6B
100
AcDbEntity
  8
0
 62
     3
100
AcDbLine
 10
747.6111889899997
 20
926.36215786
 30
0.0
 11
747.5640228599996
 21
926.3524780499997
 31
0.0
  0
LINE
  5
9F7
330
6B
100
AcDbEntity
  8
0
 62
     3
100
AcDbLine
 10
747.5640228599996
 20
926.3524780499997
 30
0.0
 11
747.5173108299997
 21
926.33142539
 31
0.0
  0
LINE
  5
9F8
330
6B
100
AcDbEntity
  8
0
 62
     3
100
AcDbLine
 10
747.5173108299997
 20
926.33142539
 30
0.0
 11
747.4714139699997
 21
926.2991626199998
 31
0.0
  0
LINE
  5
9F9
330
6B
100
AcDbEntity
  8
0
 62
     3
100
AcDbLine
 10
747.4714139699997
 20
926.2991626199998
 30
0.0
 11
747.4266870299997
 21
926.2559391099996
 31
0.0
  0
LINE
  5
9FA
330
6B
100
AcDbEntity
  8
0
 62
     3
100
AcDbLine
 10
747.4266870299997
 20
926.2559391099996
 30
0.0
 11
747.3834757199997
 21
926.20208895
 31
0.0
  0
LINE
  5
9FB
330
6B
100
AcDbEntity
  8
0
 62
     3
100
AcDbLine
 10
747.3834757199997
 20
926.20208895
 30
0.0
 11
747.34211406
 21
926.1380283800001
 31
0.0
  0
LINE
  5
9FC
330
6B
100
AcDbEntity
  8
0
 62
     3
100
AcDbLine
 10
747.34211406
 20
926.1380283800001
 30
0.0
 11
747.3029217399997
 21
926.0642525599999
 31
0.0
  0
LINE
  5
9FD
330
6B
100
AcDbEntity
  8
0
 62
     3
100
AcDbLine
 10
747.3029217399997
 20
926.0642525599999
 30
0.0
 11
747.2662016999999
 21
925.9813317299999
 31
0.0
  0
LINE
  5
9FE
330
6B
100
AcDbEntity
  8
0
 62
     3
100
AcDbLine
 10
747.2662016999999
 20
925.9813317299999
 30
0.0
 11
747.2322377699996
 21
925.8899068199998
 31
0.0
  0
LINE
  5
9FF
330
6B
100
AcDbEntity
  8
0
 62
     3
100
AcDbLine
 10
747.2322377699996
 20
925.8899068199998
 30
0.0
 11
747.2012924699996
 21
925.79068452
 31
0.0
  0
LINE
  5
A00
330
6B
100
AcDbEntity
  8
0
 62
     3
100
AcDbLine
 10
747.2012924699996
 20
925.79068452
 30
0.0
 11
747.1736049899996
 21
925.6844317499997
 31
0.0
  0
LINE
  5
A01
330
6B
100
AcDbEntity
  8
0
 62
     3
100
AcDbLine
 10
747.1736049899996
 20
925.6844317499997
 30
0.0
 11
747.1493893399999
 21
925.57196979
 31
0.0
  0
LINE
  5
A02
330
6B
100
AcDbEntity
  8
0
 62
     3
100
AcDbLine
 10
747.1493893399999
 20
925.57196979
 30
0.0
 11
747.1288326999999
 21
925.45416791
 31
0.0
  0
LINE
  5
A03
330
6B
100
AcDbEntity
  8
0
 62
     3
100
AcDbLine
 10
747.1288326999999
 20
925.45416791
 30
0.0
 11
747.1120939599996
 21
925.3319366699995
 31
0.0
  0
LINE
  5
A04
330
6B
100
AcDbEntity
  8
0
 62
     3
100
AcDbLine
 10
747.1120939599996
 20
925.3319366699995
 30
0.0
 11
747.0993024999996
 21
925.2062208499996
 31
0.0
  0
LINE
  5
A05
330
6B
100
AcDbEntity
  8
0
 62
     3
100
AcDbLine
 10
747.0993024999996
 20
925.2062208499996
 30
0.0
 11
747.0905571899996
 21
925.0779921699999
 31
0.0
  0
LINE
  5
A06
330
6B
100
AcDbEntity
  8
0
 62
     3
100
AcDbLine
 10
747.0905571899996
 20
925.0779921699999
 30
0.0
 11
747.0859256299997
 21
924.9482417599997
 31
0.0
  0
LINE
  5
A07
330
6B
100
AcDbEntity
  8
0
 62
     3
100
AcDbLine
 10
747.0859256299997
 20
924.9482417599997
 30
0.0
 11
747.0854436199998
 21
924.8179725299996
 31
0.0
  0
LINE
  5
A08
330
6B
100
AcDbEntity
  8
0
 62
     3
100
AcDbLine
 10
747.0854436199998
 20
924.8179725299996
 30
0.0
 11
747.0891148799997
 21
924.6881914099999
 31
0.0
  0
LINE
  5
A09
330
6B
100
AcDbEntity
  8
0
 62
     3
100
AcDbLine
 10
747.0891148799997
 20
924.6881914099999
 30
0.0
 11
747.09691104
 21
924.5599015199999
 31
0.0
  0
LINE
  5
A0A
330
6B
100
AcDbEntity
  8
0
 62
     3
100
AcDbLine
 10
747.09691104
 20
924.5599015199999
 30
0.0
 11
747.1087718399997
 21
924.4340944799999
 31
0.0
  0
LINE
  5
A0B
330
6B
100
AcDbEntity
  8
0
 62
     3
100
AcDbLine
 10
747.1087718399997
 20
924.4340944799999
 30
0.0
 11
747.1246055999999
 21
924.3117427099999
 31
0.0
  0
LINE
  5
A0C
330
6B
100
AcDbEntity
  8
0
 62
     3
100
AcDbLine
 10
747.1246055999999
 20
924.3117427099999
 30
0.0
 11
747.14428992
 21
924.1937919399996
 31
0.0
  0
LINE
  5
A0D
330
6B
100
AcDbEntity
  8
0
 62
     3
100
AcDbLine
 10
747.14428992
 20
924.1937919399996
 30
0.0
 11
747.16767268
 21
924.0811538699999
 31
0.0
  0
LINE
  5
A0E
330
6B
100
AcDbEntity
  8
0
 62
     3
100
AcDbLine
 10
747.16767268
 20
924.0811538699999
 30
0.0
 11
747.1945731099999
 21
923.9746991099996
 31
0.0
  0
LINE
  5
A0F
330
6B
100
AcDbEntity
  8
0
 62
     3
100
AcDbLine
 10
747.1945731099999
 20
923.9746991099996
 30
0.0
 11
747.2247833099997
 21
923.87525052
 31
0.0
  0
LINE
  5
A10
330
6B
100
AcDbEntity
  8
0
 62
     3
100
AcDbLine
 10
747.2247833099997
 20
923.87525052
 30
0.0
 11
747.25806976
 21
923.7835767899996
 31
0.0
  0
LINE
  5
A11
330
6B
100
AcDbEntity
  8
0
 62
     3
100
AcDbLine
 10
747.25806976
 20
923.7835767899996
 30
0.0
 11
747.29417516
 21
923.7003864899996
 31
0.0
  0
LINE
  5
A12
330
6B
100
AcDbEntity
  8
0
 62
     3
100
AcDbLine
 10
747.29417516
 20
923.7003864899996
 30
0.0
 11
747.3328204599996
 21
923.62632266
 31
0.0
  0
LINE
  5
A13
330
6B
100
AcDbEntity
  8
0
 62
     3
100
AcDbLine
 10
747.3328204599996
 20
923.62632266
 30
0.0
 11
747.3737069399996
 21
923.5619577700001
 31
0.0
  0
LINE
  5
A14
330
6B
100
AcDbEntity
  8
0
 62
     3
100
AcDbLine
 10
747.3737069399996
 20
923.5619577700001
 30
0.0
 11
747.4165185599996
 21
923.5077893199999
 31
0.0
  0
LINE
  5
A15
330
6B
100
AcDbEntity
  8
0
 62
     3
100
AcDbLine
 10
747.4165185599996
 20
923.5077893199999
 30
0.0
 11
747.4609244199997
 21
923.4642359999996
 31
0.0
  0
LINE
  5
A16
330
6B
100
AcDbEntity
  8
0
 62
     3
100
AcDbLine
 10
747.4609244199997
 20
923.4642359999996
 30
0.0
 11
747.5065812699997
 21
923.4316344699998
 31
0.0
  0
LINE
  5
A17
330
6B
100
AcDbEntity
  8
0
 62
     3
100
AcDbLine
 10
747.5065812699997
 20
923.4316344699998
 30
0.0
 11
747.5531362299997
 21
923.41023671
 31
0.0
  0
LINE
  5
A18
330
6B
100
AcDbEntity
  8
0
 62
     3
100
AcDbLine
 10
747.5531362299997
 20
923.41023671
 30
0.0
 11
747.6002294399997
 21
923.4002081299999
 31
0.0
  0
LINE
  5
A19
330
6B
100
AcDbEntity
  8
0
 62
     3
100
AcDbLine
 10
747.6002294399997
 20
923.4002081299999
 30
0.0
 11
747.6474968899997
 21
923.4016262299997
 31
0.0
  0
LINE
  5
A1A
330
6B
100
AcDbEntity
  8
0
 62
     3
100
AcDbLine
 10
747.6474968899997
 20
923.4016262299997
 30
0.0
 11
747.6945732299997
 21
923.4144800499999
 31
0.0
  0
LINE
  5
A1B
330
6B
100
AcDbEntity
  8
0
 62
     3
100
AcDbLine
 10
747.6945732299997
 20
923.4144800499999
 30
0.0
 11
747.7410945899999
 21
923.4386702499998
 31
0.0
  0
LINE
  5
A1C
330
6B
100
AcDbEntity
  8
0
 62
     3
100
AcDbLine
 10
747.7410945899999
 20
923.4386702499998
 30
0.0
 11
747.78670138
 21
923.4740098299999
 31
0.0
  0
LINE
  5
A1D
330
6B
100
AcDbEntity
  8
0
 62
     3
100
AcDbLine
 10
747.78670138
 20
923.4740098299999
 30
0.0
 11
747.8310410799998
 21
923.5202256499997
 31
0.0
  0
LINE
  5
A1E
330
6B
100
AcDbEntity
  8
0
 62
     3
100
AcDbLine
 10
747.8310410799998
 20
923.5202256499997
 30
0.0
 11
747.8737709699997
 21
923.5769604899997
 31
0.0
  0
LINE
  5
A1F
330
6B
100
AcDbEntity
  8
0
 62
     3
100
AcDbLine
 10
747.8737709699997
 20
923.5769604899997
 30
0.0
 11
747.9145607699996
 21
923.6437757999997
 31
0.0
  0
LINE
  5
A20
330
6B
100
AcDbEntity
  8
0
 62
     3
100
AcDbLine
 10
747.9145607699996
 20
923.6437757999997
 30
0.0
 11
747.9530951999999
 21
923.7201551499996
 31
0.0
  0
LINE
  5
A21
330
6B
100
AcDbEntity
  8
0
 62
     3
100
AcDbLine
 10
747.9530951999999
 20
923.7201551499996
 30
0.0
 11
747.9890763999998
 21
923.8055081599997
 31
0.0
  0
LINE
  5
A22
330
6B
100
AcDbEntity
  8
0
 62
     3
100
AcDbLine
 10
747.9890763999998
 20
923.8055081599997
 30
0.0
 11
748.0222262599997
 21
923.89917509
 31
0.0
  0
LINE
  5
A23
330
6B
100
AcDbEntity
  8
0
 62
     3
100
AcDbLine
 10
748.0222262599997
 20
923.89917509
 30
0.0
 11
748.0522885399997
 21
924.0004319499997
 31
0.0
  0
LINE
  5
A24
330
6B
100
AcDbEntity
  8
0
 62
     3
100
AcDbLine
 10
748.0522885399997
 20
924.0004319499997
 30
0.0
 11
748.0790308899996
 21
924.10849607
 31
0.0
  0
LINE
  5
A25
330
6B
100
AcDbEntity
  8
0
 62
     3
100
AcDbLine
 10
748.0790308899996
 20
924.10849607
 30
0.0
 11
748.1022465899997
 21
924.2225321799997
 31
0.0
  0
LINE
  5
A26
330
6B
100
AcDbEntity
  8
0
 62
     3
100
AcDbLine
 10
748.1022465899997
 20
924.2225321799997
 30
0.0
 11
748.1217562
 21
924.3416588299997
 31
0.0
  0
LINE
  5
A29
330
6B
100
AcDbEntity
  8
0
  6
Continuous
100
AcDbLine
 10
775.3197763028675
 20
718.3277918688471
 30
0.0
 11
775.3197763028675
 21
698.9737731408175
 31
0.0
  0
LINE
  5
A2A
330
6B
100
AcDbEntity
  8
0
  6
Continuous
100
AcDbLine
 10
801.3023956962735
 20
720.5556021411675
 30
0.0
 11
801.3023956962735
 21
698.9737731408175
 31
0.0
  0
LINE
  5
A2B
330
6B
100
AcDbEntity
  8
0
  6
Continuous
100
AcDbLine
 10
777.8197763028674
 20
700.2237731408175
 30
0.0
 11
798.8023956962734
 21
700.2237731408175
 31
0.0
  0
LINE
  5
A2F
330
6B
100
AcDbEntity
  8
0
100
AcDbLine
 10
788.058884
 20
710.811315
 30
0.0
 11
717.6321629999995
 21
710.8113150000001
 31
0.0
  0
LINE
  5
A30
330
6B
100
AcDbEntity
  8
0
100
AcDbLine
 10
788.058884
 20
867.8113149999997
 30
0.0
 11
717.6321629999996
 21
867.8113149999997
 31
0.0
  0
LINE
  5
A31
330
6B
100
AcDbEntity
  8
0
100
AcDbLine
 10
718.8821629999995
 20
713.3113150000001
 30
0.0
 11
718.8821629999996
 21
865.3113149999997
 31
0.0
  0
LINE
  5
A35
330
6B
100
AcDbEntity
  8
0
100
AcDbLine
 10
725.808884
 20
831.036068
 30
0.0
 11
725.808884
 21
883.9186719999998
 31
0.0
  0
LINE
  5
A36
330
6B
100
AcDbEntity
  8
0
100
AcDbLine
 10
850.808884
 20
831.036068
 30
0.0
 11
850.808884
 21
883.9186719999998
 31
0.0
  0
LINE
  5
A37
330
6B
100
AcDbEntity
  8
0
100
AcDbLine
 10
728.308884
 20
882.6686719999999
 30
0.0
 11
848.308884
 21
882.6686719999999
 31
0.0
  0
TEXT
  5
A3B
330
6B
100
AcDbEntity
  8
0
  6
Continuous
 62
     4
100
AcDbText
 10
784.2876196409442
 20
700.8487731408175
 30
0.0
 40
3.0
  1
E26
100
AcDbText
  0
LINE
  5
A3C
330
6B
100
AcDbEntity
  8
0
  6
ByBlock
 62
     0
370
    -2
100
AcDbLine
 10
798.8023956962734
 20
700.8936456408175
 30
0.0
 11
801.3023956962735
 21
700.2237731408175
 31
0.0
  0
LINE
  5
A3D
330
6B
100
AcDbEntity
  8
0
  6
ByBlock
 62
     0
370
    -2
100
AcDbLine
 10
801.3023956962735
 20
700.2237731408175
 30
0.0
 11
798.8023956962734
 21
699.5539006408176
 31
0.0
  0
LINE
  5
A3E
330
6B
100
AcDbEntity
  8
0
  6
ByBlock
 62
     0
370
    -2
100
AcDbLine
 10
801.3023956962735
 20
700.2237731408175
 30
0.0
 11
798.8023956962734
 21
700.2237731408175
 31
0.0
  0
LINE
  5
A3F
330
6B
100
AcDbEntity
  8
0
  6
ByBlock
 62
     0
370
    -2
100
AcDbLine
 10
777.8197763028674
 20
699.5539006408176
 30
0.0
 11
775.3197763028675
 21
700.2237731408175
 31
0.0
  0
LINE
  5
A40
330
6B
100
AcDbEntity
  8
0
  6
ByBlock
 62
     0
370
    -2
100
AcDbLine
 10
775.3197763028675
 20
700.2237731408175
 30
0.0
 11
777.8197763028674
 21
700.8936456408175
 31
0.0
  0
LINE
  5
A41
330
6B
100
AcDbEntity
  8
0
  6
ByBlock
 62
     0
370
    -2
100
AcDbLine
 10
775.3197763028675
 20
700.2237731408175
 30
0.0
 11
777.8197763028674
 21
700.2237731408175
 31
0.0
  0
TEXT
  5
A42
330
6B
100
AcDbEntity
  8
0
  6
Continuous
 62
     4
100
AcDbText
 10
718.2571629999994
 20
785.8113150000002
 30
0.0
 40
3.0
  1
157
 50
90.0
100
AcDbText
  0
LINE
  5
A43
330
6B
100
AcDbEntity
  8
0
  6
ByBlock
 62
     0
370
    -2
100
AcDbLine
 10
718.2122904999996
 20
865.3113149999997
 30
0.0
 11
718.8821629999996
 21
867.8113149999997
 31
0.0
  0
LINE
  5
A44
330
6B
100
AcDbEntity
  8
0
  6
ByBlock
 62
     0
370
    -2
100
AcDbLine
 10
718.8821629999996
 20
867.8113149999997
 30
0.0
 11
719.5520354999996
 21
865.3113149999997
 31
0.0
  0
LINE
  5
A45
330
6B
100
AcDbEntity
  8
0
  6
ByBlock
 62
     0
370
    -2
100
AcDbLine
 10
718.8821629999996
 20
867.8113149999997
 30
0.0
 11
718.8821629999996
 21
865.3113149999997
 31
0.0
  0
LINE
  5
A46
330
6B
100
AcDbEntity
  8
0
  6
ByBlock
 62
     0
370
    -2
100
AcDbLine
 10
719.5520354999995
 20
713.3113150000001
 30
0.0
 11
718.8821629999995
 21
710.8113150000001
 31
0.0
  0
LINE
  5
A47
330
6B
100
AcDbEntity
  8
0
  6
ByBlock
 62
     0
370
    -2
100
AcDbLine
 10
718.8821629999995
 20
710.8113150000001
 30
0.0
 11
718.2122904999995
 21
713.3113150000001
 31
0.0
  0
LINE
  5
A48
330
6B
100
AcDbEntity
  8
0
  6
ByBlock
 62
     0
370
    -2
100
AcDbLine
 10
718.8821629999995
 20
710.8113150000001
 30
0.0
 11
718.8821629999995
 21
713.3113150000001
 31
0.0
  0
TEXT
  5
A49
330
6B
100
AcDbEntity
  8
0
  6
Continuous
 62
     4
100
AcDbText
 10
783.308884
 20
883.2936719999999
 30
0.0
 40
3.0
  1
\U+2205125
100
AcDbText
  0
LINE
  5
A4A
330
6B
100
AcDbEntity
  8
0
  6
ByBlock
 62
     0
370
    -2
100
AcDbLine
 10
848.308884
 20
883.3385444999999
 30
0.0
 11
850.808884
 21
882.6686719999999
 31
0.0
  0
LINE
  5
A4B
330
6B
100
AcDbEntity
  8
0
  6
ByBlock
 62
     0
370
    -2
100
AcDbLine
 10
850.808884
 20
882.6686719999999
 30
0.0
 11
848.308884
 21
881.9987994999999
 31
0.0
  0
LINE
  5
A4C
330
6B
100
AcDbEntity
  8
0
  6
ByBlock
 62
     0
370
    -2
100
AcDbLine
 10
850.808884
 20
882.6686719999999
 30
0.0
 11
848.308884
 21
882.6686719999999
 31
0.0
  0
LINE
  5
A4D
330
6B
100
AcDbEntity
  8
0
  6
ByBlock
 62
     0
370
    -2
100
AcDbLine
 10
728.308884
 20
881.9987994999999
 30
0.0
 11
725.808884
 21
882.6686719999999
 31
0.0
  0
LINE
  5
A4E
330
6B
100
AcDbEntity
  8
0
  6
ByBlock
 62
     0
370
    -2
100
AcDbLine
 10
725.808884
 20
882.6686719999999
 30
0.0
 11
728.308884
 21
883.3385444999999
 31
0.0
  0
LINE
  5
A4F
330
6B
100
AcDbEntity
  8
0
  6
ByBlock
 62
     0
370
    -2
100
AcDbLine
 10
725.808884
 20
882.6686719999999
 30
0.0
 11
728.308884
 21
882.6686719999999
 31
0.0
  0
ENDSEC
  0
SECTION
  2
OBJECTS
  0
DICTIONARY
  5
C
330
0
100
AcDbDictionary
281
     1
  3
ACAD_2007HEADERVARS_RT
350
A53
  3
ACAD_COLOR
350
62
  3
ACAD_GROUP
350
D
  3
ACAD_LAYOUT
350
61
  3
ACAD_MATERIAL
350
10
  3
ACAD_MLEADERSTYLE
350
65
  3
ACAD_MLINESTYLE
350
5E
  3
ACAD_PLOTSETTINGS
350
60
  3
ACAD_PLOTSTYLENAME
350
E
  3
ACAD_SCALELIST
350
42
  3
ACAD_TABLESTYLE
350
63
  3
ACAD_VISUALSTYLE
350
29
  3
ACDB_RECOMPOSE_DATA
350
A51
  3
AcDbVariableDictionary
350
454
  3
AEC_PROPERTY_SET_DEFS
350
8CA
  3
DWGPROPS
350
A52
  0
DICTIONARY
  5
2E3
330
2
100
AcDbDictionary
280
     1
281
     1
  3
ACAD_LAYERSTATES
360
2E4
  0
DICTIONARY
  5
450
330
54
100
AcDbDictionary
280
     1
281
     1
  3
ADSK_XREC_LAYER_RECONCILED
360
451
  0
DICTIONARY
  5
A27
330
6B
100
AcDbDictionary
280
     1
281
     1
  3
ACAD_SORTENTS
360
A28
  0
DICTIONARY
  5
A53
102
{ACAD_REACTORS
330
C
102
}
330
C
100
AcDbDictionary
281
     1
  3
DIMARCSYM
350
A55
  3
DIMFXL
350
A54
  3
DIMJOGANG
350
A56
  0
DICTIONARY
  5
62
102
{ACAD_REACTORS
330
C
102
}
330
C
100
AcDbDictionary
281
     1
  0
DICTIONARY
  5
D
102
{ACAD_REACTORS
330
C
102
}
330
C
100
AcDbDictionary
281
     1
  0
DICTIONARY
  5
61
102
{ACAD_REACTORS
330
C
102
}
330
C
100
AcDbDictionary
281
     1
  3
Model
350
6E
  3
レイアウト1
350
6A
  0
DICTIONARY
  5
10
102
{ACAD_REACTORS
330
C
102
}
330
C
100
AcDbDictionary
281
     1
  3
ByBlock
350
19
  3
ByLayer
350
11
  3
Global
350
21
  0
DICTIONARY
  5
65
102
{ACAD_REACTORS
330
C
102
}
330
C
100
AcDbDictionary
281
     1
  3
Standard
350
66
  0
DICTIONARY
  5
5E
102
{ACAD_REACTORS
330
C
102
}
330
C
100
AcDbDictionary
281
     1
  3
Standard
350
5F
  0
DICTIONARY
  5
60
102
{ACAD_REACTORS
330
C
102
}
330
C
100
AcDbDictionary
281
     1
  0
ACDBDICTIONARYWDFLT
  5
E
102
{ACAD_REACTORS
330
C
102
}
330
C
100
AcDbDictionary
281
     1
  3
Normal
350
F
100
AcDbDictionaryWithDefault
340
F
  0
DICTIONARY
  5
42
102
{ACAD_REACTORS
330
C
102
}
330
C
100
AcDbDictionary
281
     1
  3
A0
350
43
  3
A1
350
44
  3
A2
350
45
  3
A3
350
46
  3
A4
350
47
  3
A5
350
48
  3
A6
350
49
  3
A7
350
4A
  3
A8
350
4B
  3
A9
350
4C
  3
B0
350
4D
  3
B1
350
4E
  3
B2
350
4F
  3
B3
350
50
  3
B4
350
51
  3
B5
350
52
  3
B6
350
53
  0
DICTIONARY
  5
63
102
{ACAD_REACTORS
330
C
102
}
330
C
100
AcDbDictionary
281
     1
  3
Standard
350
64
  0
DICTIONARY
  5
29
102
{ACAD_REACTORS
330
C
102
}
330
C
100
AcDbDictionary
281
     1
  3
2dWireframe
350
2F
  3
3dWireframe
350
2E2
  3
Basic
350
2E
  3
Brighten
350
35
  3
ColorChange
350
39
  3
Conceptual
350
32
  3
Dim
350
34
  3
EdgeColorOff
350
41
  3
Facepattern
350
38
  3
Flat
350
2A
  3
FlatWithEdges
350
2B
  3
Gouraud
350
2C
  3
GouraudWithEdges
350
2D
  3
Hidden
350
31
  3
JitterOff
350
3F
  3
Linepattern
350
37
  3
OverhangOff
350
40
  3
Realistic
350
33
  3
Shaded
350
3E
  3
Shaded with edges
350
3D
  3
Shades of Gray
350
3A
  3
Sketchy
350
3B
  3
Thicken
350
36
  3
Wireframe
350
30
  3
X-Ray
350
3C
  0
XRECORD
  5
A51
102
{ACAD_REACTORS
330
C
102
}
330
C
100
AcDbXrecord
280
     1
 90
        1
330
64
  0
DICTIONARY
  5
454
102
{ACAD_REACTORS
330
C
102
}
330
C
100
AcDbDictionary
281
     1
  3
CANNOSCALE
350
457
  3
CMLEADERSTYLE
350
456
  3
CTABLESTYLE
350
455
  3
DIMASSOC
350
45A
  3
INDEXCTL
350
459
  3
SORTENTS
350
458
  3
XCLIPFRAME
350
8EB
  0
DICTIONARY
  5
8CA
102
{ACAD_REACTORS
330
C
102
}
330
C
100
AcDbDictionary
281
     1
  0
XRECORD
  5
A52
102
{ACAD_REACTORS
330
C
102
}
330
C
100
AcDbXrecord
280
     1
  1
DWGPROPS COOKIE
  2

  3

  4

  6

  7

  8
imamura
  9

300
=
301
=
302
=
303
=
304
=
305
=
306
=
307
=
308
=
309
=
 40
0.02994375
 41
2456071.792198229
 42
2457351.76247544
  1

 90
        0
  0
DICTIONARY
  5
2E4
102
{ACAD_REACTORS
330
2E3
102
}
330
2E3
100
AcDbDictionary
281
     1
  0
XRECORD
  5
451
102
{ACAD_REACTORS
330
450
102
}
330
450
100
AcDbXrecord
280
     1
290
     1
  0
SORTENTSTABLE
  5
A28
102
{ACAD_REACTORS
330
A27
102
}
330
A27
100
AcDbSortentsTable
330
6B
331
A00
  5
8D3
331
228
  5
653
331
A11
  5
8E4
331
D0
  5
1BE
331
64A
  5
671
331
E1
  5
1D3
331
69B
  5
9FB
331
65B
  5
682
331
1BA
  5
1DA
331
6C7
  5
A29
331
6B6
  5
A16
331
6AC
  5
A0C
331
66C
  5
693
331
1CB
  5
1F5
331
8DD
  5
A43
331
A24
  5
9F5
331
68C
  5
6B4
331
67B
  5
6A3
331
1FE
  5
643
331
9EF
  5
6C6
331
A46
  5
C1
331
BF
  5
D9
331
A35
  5
AE
331
9F0
  5
6C7
331
A01
  5
8D4
331
229
  5
654
331
C0
  5
DA
331
A12
  5
8E5
331
D1
  5
1BF
331
64B
  5
672
331
E2
  5
1D4
331
69C
  5
9FC
331
65C
  5
683
331
1BB
  5
1E0
331
6C8
  5
A2A
331
6B7
  5
A17
331
6AD
  5
A0D
331
66D
  5
694
331
1CC
  5
1F6
331
8DE
  5
A44
331
A25
  5
9F6
331
68D
  5
6B5
331
67C
  5
6A4
331
1FF
  5
644
331
A47
  5
C2
331
A36
  5
AF
331
6D0
  5
A32
331
200
  5
645
331
B0
  5
CA
331
9F1
  5
6C8
331
A48
  5
C3
331
A02
  5
8D5
331
C1
  5
DB
331
A13
  5
8E6
331
D2
  5
1C0
331
64C
  5
673
331
69D
  5
9FD
331
65D
  5
684
331
1BC
  5
1E6
331
E3
  5
1D5
331
6AE
  5
A0E
331
66E
  5
695
331
1CD
  5
1F7
331
6C9
  5
A2B
331
6B8
  5
A18
331
1EF
  5
226
331
8DF
  5
A45
331
A26
  5
9F7
331
68E
  5
6B6
331
67D
  5
6A5
331
A37
  5
B0
331
8E0
  5
A46
331
1F0
  5
227
331
6D1
  5
A33
331
201
  5
646
331
B1
  5
CB
331
9F2
  5
6C9
331
A49
  5
BD
331
A03
  5
8D6
331
22B
  5
655
331
C2
  5
DC
331
A14
  5
8E7
331
64D
  5
674
331
D3
  5
1C1
331
69E
  5
9FE
331
65E
  5
685
331
1BD
  5
1E7
331
6CA
  5
A2C
331
6B9
  5
A19
331
6AF
  5
A0F
331
66F
  5
696
331
1CE
  5
1F8
331
8CF
  5
A35
331
67E
  5
6A6
331
68F
  5
6B7
331
8D0
  5
A36
331
690
  5
6B8
331
8E1
  5
A47
331
1F1
  5
228
331
6D2
  5
A34
331
202
  5
647
331
9F3
  5
6CA
331
A4A
  5
BA
331
A04
  5
8D7
331
22C
  5
656
331
A15
  5
8E8
331
D4
  5
1C2
331
C3
  5
DD
331
64E
  5
675
331
69F
  5
9FF
331
65F
  5
686
331
1BE
  5
1E8
331
6CB
  5
A2D
331
6BA
  5
A1A
331
1E0
  5
203
331
1CF
  5
1F9
331
B2
  5
CC
331
67F
  5
6A7
331
8D1
  5
A37
331
A18
  5
9E9
331
680
  5
6A8
331
691
  5
6B9
331
A29
  5
65B
331
8E2
  5
A48
331
1F2
  5
229
331
203
  5
648
331
B3
  5
CD
331
9F4
  5
6CB
331
A05
  5
8D8
331
C4
  5
DE
331
A16
  5
8E9
331
63E
  5
665
331
D5
  5
1C3
331
64F
  5
676
331
6A0
  5
A00
331
660
  5
687
331
1BF
  5
1E9
331
6CC
  5
A2E
331
6BB
  5
A1B
331
1D0
  5
1FA
331
A4B
  5
BB
331
8D2
  5
A38
331
A19
  5
9EA
331
681
  5
6A9
331
670
  5
698
331
692
  5
6BA
331
A2A
  5
65C
331
8E3
  5
A49
331
1F3
  5
22B
331
A3B
  5
664
331
204
  5
649
331
B4
  5
CE
331
9F5
  5
6CC
331
A4C
  5
BC
331
A06
  5
8D9
331
A17
  5
9E8
331
63F
  5
666
331
D6
  5
1C4
331
C5
  5
DF
331
6A1
  5
A01
331
661
  5
688
331
1C0
  5
1EA
331
6CD
  5
A2F
331
6BC
  5
A1C
331
1D1
  5
1FB
331
650
  5
677
331
8D3
  5
A39
331
A1A
  5
9EB
331
682
  5
6AA
331
671
  5
699
331
693
  5
6BB
331
A2B
  5
65D
331
8E4
  5
A4A
331
1F4
  5
22C
331
A3C
  5
661
331
205
  5
64A
331
B5
  5
CF
331
9F6
  5
6CD
331
A07
  5
8DA
331
C6
  5
E0
331
A4D
  5
B4
331
651
  5
678
331
640
  5
667
331
D7
  5
1C5
331
6A2
  5
A02
331
662
  5
689
331
6CE
  5
A30
331
6BD
  5
A1D
331
1D2
  5
1FC
331
1C1
  5
1EF
331
8D4
  5
A3A
331
A1B
  5
9EC
331
683
  5
6AB
331
672
  5
69A
331
694
  5
6BC
331
8E5
  5
A4B
331
1F5
  5
233
331
A3D
  5
662
331
206
  5
64B
331
B6
  5
D0
331
9F7
  5
6CE
331
A08
  5
8DB
331
C7
  5
E1
331
A4E
  5
B5
331
652
  5
679
331
641
  5
668
331
D8
  5
1CA
331
6A3
  5
A03
331
663
  5
68A
331
1C2
  5
1F0
331
6CF
  5
A31
331
6BE
  5
A1E
331
1D3
  5
1FD
331
23A
  5
658
331
8D5
  5
A3B
331
A1C
  5
9ED
331
684
  5
6AC
331
673
  5
69B
331
695
  5
6BD
331
8E6
  5
A4C
331
1F6
  5
23A
331
A3E
  5
663
331
207
  5
64C
331
B7
  5
D1
331
9F8
  5
6CF
331
A09
  5
8DC
331
C8
  5
E2
331
A4F
  5
B6
331
653
  5
67A
331
642
  5
669
331
D9
  5
1CB
331
6A4
  5
A04
331
664
  5
68B
331
1C3
  5
1F1
331
6BF
  5
A1F
331
1D4
  5
1FE
331
23B
  5
659
331
6C0
  5
A20
331
8D6
  5
A3C
331
A1D
  5
9EE
331
685
  5
6AD
331
674
  5
69C
331
696
  5
6BE
331
8E7
  5
A4D
331
1F7
  5
23B
331
9E8
  5
6BF
331
A3F
  5
65E
331
9F9
  5
6D0
331
B8
  5
D2
331
A0A
  5
8DD
331
C9
  5
E3
331
654
  5
67B
331
643
  5
66A
331
DA
  5
1CC
331
23C
  5
65A
331
6A5
  5
A05
331
665
  5
68C
331
1E6
  5
204
331
1D5
  5
1FF
331
1C4
  5
1F2
331
6C1
  5
A21
331
6B0
  5
A10
331
8D7
  5
A3D
331
A1E
  5
9EF
331
686
  5
6AE
331
675
  5
69D
331
8E8
  5
A4E
331
1F8
  5
23C
331
A2F
  5
BE
331
A40
  5
65F
331
9E9
  5
6C0
331
211
  5
650
331
9FA
  5
6D1
331
A0B
  5
8DE
331
233
  5
657
331
CA
  5
1B6
331
655
  5
67C
331
644
  5
66B
331
DB
  5
1CD
331
6A6
  5
A06
331
666
  5
68D
331
1C5
  5
1F3
331
1E7
  5
205
331
1D6
  5
200
331
B9
  5
D3
331
6C2
  5
A22
331
6B1
  5
A11
331
1E8
  5
206
331
8D8
  5
A3E
331
A1F
  5
9F0
331
687
  5
6AF
331
676
  5
69E
331
8E9
  5
A4F
331
1F9
  5
63E
331
A30
  5
BF
331
9EA
  5
6C1
331
A41
  5
660
331
9FB
  5
6D2
331
BA
  5
D4
331
A0C
  5
8DF
331
6A7
  5
A07
331
667
  5
68E
331
656
  5
67D
331
645
  5
66C
331
DC
  5
1CE
331
CB
  5
1B8
331
6A8
  5
A08
331
668
  5
68F
331
6C3
  5
A23
331
6B2
  5
A12
331
1E9
  5
207
331
1D8
  5
201
331
8D9
  5
A3F
331
A20
  5
9F1
331
688
  5
6B0
331
677
  5
69F
331
1FA
  5
63F
331
A31
  5
C0
331
9EB
  5
6C2
331
A42
  5
C7
331
9FC
  5
8CF
331
BB
  5
D5
331
A0D
  5
8E0
331
646
  5
66D
331
DD
  5
1CF
331
657
  5
67E
331
1B6
  5
1D6
331
AE
  5
C8
331
CC
  5
1BA
331
698
  5
9F8
331
658
  5
67F
331
6A9
  5
A09
331
669
  5
690
331
6C4
  5
A24
331
6B3
  5
A13
331
1EA
  5
211
331
8DA
  5
A40
331
A21
  5
9F2
331
689
  5
6B1
331
678
  5
6A0
331
1FB
  5
640
331
9EC
  5
6C3
331
A43
  5
C4
331
9FD
  5
8D0
331
BC
  5
D6
331
A0E
  5
8E1
331
647
  5
66E
331
DE
  5
1D0
331
AF
  5
C9
331
CD
  5
1BB
331
648
  5
66F
331
699
  5
9F9
331
659
  5
680
331
1B8
  5
1D8
331
6AA
  5
A0A
331
66A
  5
691
331
6C5
  5
A25
331
6B4
  5
A14
331
1DA
  5
202
331
8DB
  5
A41
331
A22
  5
9F3
331
68A
  5
6B2
331
679
  5
6A1
331
1FC
  5
641
331
9ED
  5
6C4
331
A44
  5
C5
331
9FE
  5
8D1
331
226
  5
651
331
A0F
  5
8E2
331
CE
  5
1BC
331
BD
  5
D7
331
DF
  5
1D1
331
A10
  5
8E3
331
69A
  5
9FA
331
65A
  5
681
331
649
  5
670
331
E0
  5
1D2
331
6C6
  5
A26
331
6B5
  5
A15
331
6AB
  5
A0B
331
66B
  5
692
331
1CA
  5
1F4
331
8DC
  5
A42
331
A23
  5
9F4
331
68B
  5
6B3
331
67A
  5
6A2
331
1FD
  5
642
331
9EE
  5
6C5
331
A45
  5
C6
331
9FF
  5
8D2
331
227
  5
652
331
BE
  5
D8
331
CF
  5
1BD
  0
XRECORD
  5
A55
102
{ACAD_REACTORS
330
A53
102
}
330
A53
100
AcDbXrecord
280
     1
 70
     2
  0
XRECORD
  5
A54
102
{ACAD_REACTORS
330
A53
102
}
330
A53
100
AcDbXrecord
280
     1
 40
1.25
  0
XRECORD
  5
A56
102
{ACAD_REACTORS
330
A53
102
}
330
A53
100
AcDbXrecord
280
     1
 40
1.570796326794896
  0
LAYOUT
  5
6E
102
{ACAD_XDICTIONARY
360
A8A
102
}
102
{ACAD_REACTORS
330
61
102
}
330
61
100
AcDbPlotSettings
  1

  2
FX DP 205
  4

  6

 40
0.0
 41
0.0
 42
0.0
 43
0.0
 44
0.0
 45
0.0
 46
0.0
 47
0.0
 48
0.0
 49
0.0
140
0.0
141
0.0
142
1.0
143
1.0
 70
  1712
 72
     0
 73
     0
 74
     0
  7

 75
     0
147
1.0
148
0.0
149
0.0
100
AcDbLayout
  1
Model
 70
     1
 71
     0
 10
0.0
 20
0.0
 11
12.0
 21
9.0
 12
0.0
 22
0.0
 32
0.0
 14
0.0
 24
0.0
 34
0.0
 15
0.0
 25
0.0
 35
0.0
146
0.0
 13
0.0
 23
0.0
 33
0.0
 16
1.0
 26
0.0
 36
0.0
 17
0.0
 27
1.0
 37
0.0
 76
     0
330
6B
331
8B
  0
LAYOUT
  5
6A
102
{ACAD_XDICTIONARY
360
A88
102
}
102
{ACAD_REACTORS
330
61
102
}
330
61
100
AcDbPlotSettings
  1

  2
FX DP 205
  4

  6

 40
0.0
 41
0.0
 42
0.0
 43
0.0
 44
0.0
 45
0.0
 46
0.0
 47
0.0
 48
0.0
 49
0.0
140
0.0
141
0.0
142
1.0
143
1.0
 70
   688
 72
     0
 73
     0
 74
     5
  7

 75
    16
147
1.0
148
0.0
149
0.0
100
AcDbLayout
  1
レイアウト1
 70
     1
 71
     1
 10
0.0
 20
0.0
 11
12.0
 21
9.0
 12
0.0
 22
0.0
 32
0.0
 14
1.000000000000000E+20
 24
1.000000000000000E+20
 34
1.000000000000000E+20
 15
-1.000000000000000E+20
 25
-1.000000000000000E+20
 35
-1.000000000000000E+20
146
0.0
 13
0.0
 23
0.0
 33
0.0
 16
1.0
 26
0.0
 36
0.0
 17
0.0
 27
1.0
 37
0.0
 76
     0
330
67
  0
MATERIAL
  5
19
102
{ACAD_XDICTIONARY
360
1A
102
}
102
{ACAD_REACTORS
330
10
102
}
330
10
100
AcDbMaterial
  1
ByBlock
 72
     0
 43
0.0208333333333333
 43
0.0
 43
0.0
 43
0.0
 43
0.0
 43
0.0208333333333333
 43
0.0
 43
0.0
 43
0.0
 43
0.0
 43
1.0
 43
0.0
 43
0.0
 43
0.0
 43
0.0
 43
1.0
 77
     0
 47
0.0208333333333333
 47
0.0
 47
0.0
 47
0.0
 47
0.0
 47
0.0208333333333333
 47
0.0
 47
0.0
 47
0.0
 47
0.0
 47
1.0
 47
0.0
 47
0.0
 47
0.0
 47
0.0
 47
1.0
171
     0
 49
0.0208333333333333
 49
0.0
 49
0.0
 49
0.0
 49
0.0
 49
0.0208333333333333
 49
0.0
 49
0.0
 49
0.0
 49
0.0
 49
1.0
 49
0.0
 49
0.0
 49
0.0
 49
0.0
 49
1.0
175
     0
142
0.0208333333333333
142
0.0
142
0.0
142
0.0
142
0.0
142
0.0208333333333333
142
0.0
142
0.0
142
0.0
142
0.0
142
1.0
142
0.0
142
0.0
142
0.0
142
0.0
142
1.0
179
     0
144
0.0208333333333333
144
0.0
144
0.0
144
0.0
144
0.0
144
0.0208333333333333
144
0.0
144
0.0
144
0.0
144
0.0
144
1.0
144
0.0
144
0.0
144
0.0
144
0.0
144
1.0
147
0.0208333333333333
147
0.0
147
0.0
147
0.0
147
0.0
147
0.0208333333333333
147
0.0
147
0.0
147
0.0
147
0.0
147
1.0
147
0.0
147
0.0
147
0.0
147
0.0
147
1.0
  0
MATERIAL
  5
11
102
{ACAD_XDICTIONARY
360
12
102
}
102
{ACAD_REACTORS
330
10
102
}
330
10
100
AcDbMaterial
  1
ByLayer
 72
     0
 43
0.0208333333333333
 43
0.0
 43
0.0
 43
0.0
 43
0.0
 43
0.0208333333333333
 43
0.0
 43
0.0
 43
0.0
 43
0.0
 43
1.0
 43
0.0
 43
0.0
 43
0.0
 43
0.0
 43
1.0
 77
     0
 47
0.0208333333333333
 47
0.0
 47
0.0
 47
0.0
 47
0.0
 47
0.0208333333333333
 47
0.0
 47
0.0
 47
0.0
 47
0.0
 47
1.0
 47
0.0
 47
0.0
 47
0.0
 47
0.0
 47
1.0
171
     0
 49
0.0208333333333333
 49
0.0
 49
0.0
 49
0.0
 49
0.0
 49
0.0208333333333333
 49
0.0
 49
0.0
 49
0.0
 49
0.0
 49
1.0
 49
0.0
 49
0.0
 49
0.0
 49
0.0
 49
1.0
175
     0
142
0.0208333333333333
142
0.0
142
0.0
142
0.0
142
0.0
142
0.0208333333333333
142
0.0
142
0.0
142
0.0
142
0.0
142
1.0
142
0.0
142
0.0
142
0.0
142
0.0
142
1.0
179
     0
144
0.0208333333333333
144
0.0
144
0.0
144
0.0
144
0.0
144
0.0208333333333333
144
0.0
144
0.0
144
0.0
144
0.0
144
1.0
144
0.0
144
0.0
144
0.0
144
0.0
144
1.0
147
0.0208333333333333
147
0.0
147
0.0
147
0.0
147
0.0
147
0.0208333333333333
147
0.0
147
0.0
147
0.0
147
0.0
147
1.0
147
0.0
147
0.0
147
0.0
147
0.0
147
1.0
  0
MATERIAL
  5
21
102
{ACAD_XDICTIONARY
360
22
102
}
102
{ACAD_REACTORS
330
10
102
}
330
10
100
AcDbMaterial
  1
Global
 72
     0
 43
0.0208333333333333
 43
0.0
 43
0.0
 43
0.0
 43
0.0
 43
0.0208333333333333
 43
0.0
 43
0.0
 43
0.0
 43
0.0
 43
1.0
 43
0.0
 43
0.0
 43
0.0
 43
0.0
 43
1.0
 77
     0
 47
0.0208333333333333
 47
0.0
 47
0.0
 47
0.0
 47
0.0
 47
0.0208333333333333
 47
0.0
 47
0.0
 47
0.0
 47
0.0
 47
1.0
 47
0.0
 47
0.0
 47
0.0
 47
0.0
 47
1.0
171
     0
 49
0.0208333333333333
 49
0.0
 49
0.0
 49
0.0
 49
0.0
 49
0.0208333333333333
 49
0.0
 49
0.0
 49
0.0
 49
0.0
 49
1.0
 49
0.0
 49
0.0
 49
0.0
 49
0.0
 49
1.0
175
     0
142
0.0208333333333333
142
0.0
142
0.0
142
0.0
142
0.0
142
0.0208333333333333
142
0.0
142
0.0
142
0.0
142
0.0
142
1.0
142
0.0
142
0.0
142
0.0
142
0.0
142
1.0
179
     0
144
0.0208333333333333
144
0.0
144
0.0
144
0.0
144
0.0
144
0.0208333333333333
144
0.0
144
0.0
144
0.0
144
0.0
144
1.0
144
0.0
144
0.0
144
0.0
144
0.0
144
1.0
147
0.0208333333333333
147
0.0
147
0.0
147
0.0
147
0.0
147
0.0208333333333333
147
0.0
147
0.0
147
0.0
147
0.0
147
1.0
147
0.0
147
0.0
147
0.0
147
0.0
147
1.0
  0
MLEADERSTYLE
  5
66
102
{ACAD_REACTORS
330
65
102
}
330
65
100
AcDbMLeaderStyle
170
     2
171
     1
172
     0
 90
        2
 40
0.0
 41
0.0
173
     1
 91
-1056964608
340
5A
 92
       -2
290
     1
 42
0.09
291
     1
 43
0.36
  3
Standard
 44
0.18
300

342
55
174
     1
178
     6
175
     1
176
     0
 93
-1056964608
 45
0.18
292
     0
297
     0
 46
0.18
 94
-1056964608
 47
1.0
 49
1.0
140
1.0
293
     1
141
0.0
294
     1
177
     0
142
1.0
295
     0
296
     0
143
0.125
1001
ACAD_MLEADERVER
1070
     2
  0
MLINESTYLE
  5
5F
102
{ACAD_REACTORS
330
5E
102
}
330
5E
100
AcDbMlineStyle
  2
STANDARD
 70
     0
  3

 62
   256
 51
90.0
 52
90.0
 71
     2
 49
0.5
 62
   256
  6
BYLAYER
 49
-0.5
 62
   256
  6
BYLAYER
  0
ACDBPLACEHOLDER
  5
F
102
{ACAD_REACTORS
330
E
102
}
330
E
  0
SCALE
  5
43
102
{ACAD_REACTORS
330
42
102
}
330
42
100
AcDbScale
 70
     0
300
1:1
140
1.0
141
1.0
290
     1
  0
SCALE
  5
44
102
{ACAD_REACTORS
330
42
102
}
330
42
100
AcDbScale
 70
     0
300
1/128" = 1'-0"
140
0.0078125
141
12.0
290
     0
  0
SCALE
  5
45
102
{ACAD_REACTORS
330
42
102
}
330
42
100
AcDbScale
 70
     0
300
1/64" = 1'-0"
140
0.015625
141
12.0
290
     0
  0
SCALE
  5
46
102
{ACAD_REACTORS
330
42
102
}
330
42
100
AcDbScale
 70
     0
300
1/32" = 1'-0"
140
0.03125
141
12.0
290
     0
  0
SCALE
  5
47
102
{ACAD_REACTORS
330
42
102
}
330
42
100
AcDbScale
 70
     0
300
1/16" = 1'-0"
140
0.0625
141
12.0
290
     0
  0
SCALE
  5
48
102
{ACAD_REACTORS
330
42
102
}
330
42
100
AcDbScale
 70
     0
300
3/32" = 1'-0"
140
0.09375
141
12.0
290
     0
  0
SCALE
  5
49
102
{ACAD_REACTORS
330
42
102
}
330
42
100
AcDbScale
 70
     0
300
1/8" = 1'-0"
140
0.125
141
12.0
290
     0
  0
SCALE
  5
4A
102
{ACAD_REACTORS
330
42
102
}
330
42
100
AcDbScale
 70
     0
300
3/16" = 1'-0"
140
0.1875
141
12.0
290
     0
  0
SCALE
  5
4B
102
{ACAD_REACTORS
330
42
102
}
330
42
100
AcDbScale
 70
     0
300
1/4" = 1'-0"
140
0.25
141
12.0
290
     0
  0
SCALE
  5
4C
102
{ACAD_REACTORS
330
42
102
}
330
42
100
AcDbScale
 70
     0
300
3/8" = 1'-0"
140
0.375
141
12.0
290
     0
  0
SCALE
  5
4D
102
{ACAD_REACTORS
330
42
102
}
330
42
100
AcDbScale
 70
     0
300
1/2" = 1'-0"
140
0.5
141
12.0
290
     0
  0
SCALE
  5
4E
102
{ACAD_REACTORS
330
42
102
}
330
42
100
AcDbScale
 70
     0
300
3/4" = 1'-0"
140
0.75
141
12.0
290
     0
  0
SCALE
  5
4F
102
{ACAD_REACTORS
330
42
102
}
330
42
100
AcDbScale
 70
     0
300
1" = 1'-0"
140
1.0
141
12.0
290
     0
  0
SCALE
  5
50
102
{ACAD_REACTORS
330
42
102
}
330
42
100
AcDbScale
 70
     0
300
1-1/2" = 1'-0"
140
1.5
141
12.0
290
     0
  0
SCALE
  5
51
102
{ACAD_REACTORS
330
42
102
}
330
42
100
AcDbScale
 70
     0
300
3" = 1'-0"
140
3.0
141
12.0
290
     0
  0
SCALE
  5
52
102
{ACAD_REACTORS
330
42
102
}
330
42
100
AcDbScale
 70
     0
300
6" = 1'-0"
140
6.0
141
12.0
290
     0
  0
SCALE
  5
53
102
{ACAD_REACTORS
330
42
102
}
330
42
100
AcDbScale
 70
     0
300
1'-0" = 1'-0"
140
12.0
141
12.0
290
     0
  0
TABLESTYLE
  5
64
102
{ACAD_XDICTIONARY
360
45C
102
}
102
{ACAD_REACTORS
330
63
102
}
330
63
100
AcDbTableStyle
  3
Standard
 70
     0
 71
     0
 40
0.06
 41
0.06
280
     0
281
     0
  7
STANDARD
140
0.18
170
     2
 62
     0
 63
     7
283
     0
274
    -2
284
     1
 64
     0
275
    -2
285
     1
 65
     0
276
    -2
286
     1
 66
     0
277
    -2
287
     1
 67
     0
278
    -2
288
     1
 68
     0
279
    -2
289
     1
 69
     0
  7
STANDARD
140
0.25
170
     5
 62
     0
 63
     7
283
     0
274
    -2
284
     1
 64
     0
275
    -2
285
     1
 65
     0
276
    -2
286
     1
 66
     0
277
    -2
287
     1
 67
     0
278
    -2
288
     1
 68
     0
279
    -2
289
     1
 69
     0
  7
STANDARD
140
0.18
170
     5
 62
     0
 63
     7
283
     0
274
    -2
284
     1
 64
     0
275
    -2
285
     1
 65
     0
276
    -2
286
     1
 66
     0
277
    -2
287
     1
 67
     0
278
    -2
288
     1
 68
     0
279
    -2
289
     1
 69
     0
  0
VISUALSTYLE
  5
2F
102
{ACAD_XDICTIONARY
360
A61
102
}
102
{ACAD_REACTORS
330
29
102
}
330
29
100
AcDbVisualStyle
  2

 70
     4
 71
     0
 72
     2
 73
     0
 90
        0
 40
-0.6
 41
-30.0
 62
     5
 63
     7
 74
     1
 91
        4
 64
     7
 65
   257
 75
     1
175
     1
 42
1.0
 92
        0
 66
   257
 43
1.0
 76
     1
 77
     6
 78
     2
 67
     7
 79
     5
170
     0
171
     0
290
     0
174
     0
 93
        1
 44
0.0
173
     0
291
     0
 45
0.0
1001
ACAD
1000
AcDbSavedByObjectVersion
1070
     0
  0
VISUALSTYLE
  5
2E2
102
{ACAD_XDICTIONARY
360
A8C
102
}
102
{ACAD_REACTORS
330
29
102
}
330
29
100
AcDbVisualStyle
  2

 70
     5
 71
     0
 72
     2
 73
     1
 90
        0
 40
-0.6
 41
-30.0
 62
     5
 63
     7
 74
     1
 91
        4
 64
     7
 65
   257
 75
     1
175
     1
 42
1.0
 92
        0
 66
   257
 43
1.0
 76
     1
 77
     6
 78
     2
 67
     7
 79
     5
170
     0
171
     0
290
     0
174
     0
 93
        1
 44
0.0
173
     0
291
     0
 45
0.0
1001
ACAD
1000
AcDbSavedByObjectVersion
1070
     0
  0
VISUALSTYLE
  5
2E
102
{ACAD_XDICTIONARY
360
A5F
102
}
102
{ACAD_REACTORS
330
29
102
}
330
29
100
AcDbVisualStyle
  2

 70
     7
 71
     1
 72
     0
 73
     1
 90
        0
 40
-0.6
 41
-30.0
 62
     5
 63
     7
 74
     0
 91
        4
 64
     7
 65
   257
 75
     1
175
     1
 42
1.0
 92
        8
 66
     7
 43
1.0
 76
     1
 77
     6
 78
     2
 67
     7
 79
     5
170
     0
171
     0
290
     0
174
     0
 93
        1
 44
0.0
173
     0
291
     1
 45
0.0
1001
ACAD
1000
AcDbSavedByObjectVersion
1070
     0
  0
VISUALSTYLE
  5
35
102
{ACAD_XDICTIONARY
360
A6D
102
}
102
{ACAD_REACTORS
330
29
102
}
330
29
100
AcDbVisualStyle
  2

 70
    12
 71
     2
 72
     2
 73
     0
 90
        0
 40
-0.6
 41
-30.0
 62
     5
 63
     7
 74
     1
 91
        4
 64
     7
 65
   257
 75
     1
175
     1
 42
1.0
 92
        8
 66
     7
 43
1.0
 76
     1
 77
     6
 78
     2
 67
     7
 79
     5
170
     0
171
     0
290
     0
174
     0
 93
        1
 44
50.0
173
     0
291
     1
 45
0.0
1001
ACAD
1000
AcDbSavedByObjectVersion
1070
     0
  0
VISUALSTYLE
  5
39
102
{ACAD_XDICTIONARY
360
A75
102
}
102
{ACAD_REACTORS
330
29
102
}
330
29
100
AcDbVisualStyle
  2

 70
    16
 71
     2
 72
     2
 73
     3
 90
        0
 40
-0.6
 41
-30.0
 62
     5
 63
     8
 74
     1
 91
        4
 64
     7
 65
   257
 75
     1
175
     1
 42
1.0
 92
        8
 66
     8
 43
1.0
 76
     1
 77
     6
 78
     2
 67
     7
 79
     5
170
     0
171
     0
290
     0
174
     0
 93
        1
 44
0.0
173
     0
291
     1
 45
0.0
1001
ACAD
1000
AcDbSavedByObjectVersion
1070
     0
  0
VISUALSTYLE
  5
32
102
{ACAD_XDICTIONARY
360
A67
102
}
102
{ACAD_REACTORS
330
29
102
}
330
29
100
AcDbVisualStyle
  2

 70
     9
 71
     3
 72
     2
 73
     0
 90
        0
 40
-0.6
 41
-30.0
 62
     5
 63
     7
 74
     2
 91
        2
 64
     7
 65
   257
 75
     1
175
     1
 42
179.0
 92
        8
 66
     7
 43
1.0
 76
     1
 77
     6
 78
     2
 67
     7
 79
     3
170
     0
171
     0
290
     0
174
     0
 93
        1
 44
0.0
173
     0
291
     0
 45
0.0
1001
ACAD
1000
AcDbSavedByObjectVersion
1070
     0
  0
VISUALSTYLE
  5
34
102
{ACAD_XDICTIONARY
360
A6B
102
}
102
{ACAD_REACTORS
330
29
102
}
330
29
100
AcDbVisualStyle
  2

 70
    11
 71
     2
 72
     2
 73
     0
 90
        0
 40
-0.6
 41
-30.0
 62
     5
 63
     7
 74
     1
 91
        4
 64
     7
 65
   257
 75
     1
175
     1
 42
1.0
 92
        8
 66
     7
 43
1.0
 76
     1
 77
     6
 78
     2
 67
     7
 79
     5
170
     0
171
     0
290
     0
174
     0
 93
        1
 44
-50.0
173
     0
291
     1
 45
0.0
1001
ACAD
1000
AcDbSavedByObjectVersion
1070
     0
  0
VISUALSTYLE
  5
41
102
{ACAD_XDICTIONARY
360
A85
102
}
102
{ACAD_REACTORS
330
29
102
}
330
29
100
AcDbVisualStyle
  2

 70
    22
 71
     2
 72
     2
 73
     0
 90
        0
 40
-0.6
 41
-30.0
 62
     5
 63
     7
 74
     1
 91
        4
 64
     7
 65
   257
 75
     1
175
     1
 42
1.0
 92
        8
 66
     7
 43
1.0
 76
     1
 77
     6
 78
     2
 67
     7
 79
     5
170
     0
171
     0
290
     0
174
     0
 93
        1
 44
0.0
173
     0
291
     1
 45
0.0
1001
ACAD
1000
AcDbSavedByObjectVersion
1070
     0
  0
VISUALSTYLE
  5
38
102
{ACAD_XDICTIONARY
360
A73
102
}
102
{ACAD_REACTORS
330
29
102
}
330
29
100
AcDbVisualStyle
  2

 70
    15
 71
     2
 72
     2
 73
     0
 90
        0
 40
-0.6
 41
-30.0
 62
     5
 63
     7
 74
     1
 91
        4
 64
     7
 65
   257
 75
     1
175
     1
 42
1.0
 92
        8
 66
     7
 43
1.0
 76
     1
 77
     6
 78
     2
 67
     7
 79
     5
170
     0
171
     0
290
     0
174
     0
 93
        1
 44
0.0
173
     0
291
     1
 45
0.0
1001
ACAD
1000
AcDbSavedByObjectVersion
1070
     0
  0
VISUALSTYLE
  5
2A
102
{ACAD_XDICTIONARY
360
A57
102
}
102
{ACAD_REACTORS
330
29
102
}
330
29
100
AcDbVisualStyle
  2

 70
     0
 71
     2
 72
     1
 73
     1
 90
        2
 40
-0.6
 41
30.0
 62
     5
 63
     7
 74
     0
 91
        0
 64
     7
 65
   257
 75
     1
175
     1
 42
1.0
 92
        8
 66
     7
 43
1.0
 76
     1
 77
     6
 78
     2
 67
     7
 79
     5
170
     0
171
     0
290
     0
174
     0
 93
       13
 44
0.0
173
     0
291
     1
 45
0.0
1001
ACAD
1000
AcDbSavedByObjectVersion
1070
     0
  0
VISUALSTYLE
  5
2B
102
{ACAD_XDICTIONARY
360
A59
102
}
102
{ACAD_REACTORS
330
29
102
}
330
29
100
AcDbVisualStyle
  2

 70
     1
 71
     2
 72
     1
 73
     1
 90
        2
 40
-0.6
 41
30.0
 62
     5
 63
     7
 74
     1
 91
        0
 64
     7
 65
   257
 75
     1
175
     1
 42
1.0
 92
        0
 66
   257
 43
1.0
 76
     1
 77
     6
 78
     2
 67
     7
 79
     5
170
     0
171
     0
290
     0
174
     0
 93
       13
 44
0.0
173
     0
291
     1
 45
0.0
1001
ACAD
1000
AcDbSavedByObjectVersion
1070
     0
  0
VISUALSTYLE
  5
2C
102
{ACAD_XDICTIONARY
360
A5B
102
}
102
{ACAD_REACTORS
330
29
102
}
330
29
100
AcDbVisualStyle
  2

 70
     2
 71
     2
 72
     2
 73
     1
 90
        2
 40
-0.6
 41
30.0
 62
     5
 63
     7
 74
     0
 91
        0
 64
     7
 65
   257
 75
     1
175
     1
 42
1.0
 92
        0
 66
     7
 43
1.0
 76
     1
 77
     6
 78
     2
 67
     7
 79
     5
170
     0
171
     0
290
     0
174
     0
 93
       13
 44
0.0
173
     0
291
     1
 45
0.0
1001
ACAD
1000
AcDbSavedByObjectVersion
1070
     0
  0
VISUALSTYLE
  5
2D
102
{ACAD_XDICTIONARY
360
A5D
102
}
102
{ACAD_REACTORS
330
29
102
}
330
29
100
AcDbVisualStyle
  2

 70
     3
 71
     2
 72
     2
 73
     1
 90
        2
 40
-0.6
 41
30.0
 62
     5
 63
     7
 74
     1
 91
        0
 64
     7
 65
   257
 75
     1
175
     1
 42
1.0
 92
        0
 66
   257
 43
1.0
 76
     1
 77
     6
 78
     2
 67
     7
 79
     5
170
     0
171
     0
290
     0
174
     0
 93
       13
 44
0.0
173
     0
291
     1
 45
0.0
1001
ACAD
1000
AcDbSavedByObjectVersion
1070
     0
  0
VISUALSTYLE
  5
31
102
{ACAD_XDICTIONARY
360
A65
102
}
102
{ACAD_REACTORS
330
29
102
}
330
29
100
AcDbVisualStyle
  2

 70
     6
 71
     1
 72
     2
 73
     2
 90
        0
 40
-0.6
 41
-30.0
 62
     5
 63
     7
 74
     2
 91
        2
 64
     7
 65
   257
 75
     2
175
     1
 42
40.0
 92
        0
 66
   257
 43
1.0
 76
     1
 77
     6
 78
     2
 67
     7
 79
     3
170
     0
171
     0
290
     0
174
     0
 93
        1
 44
0.0
173
     0
291
     0
 45
0.0
1001
ACAD
1000
AcDbSavedByObjectVersion
1070
     0
  0
VISUALSTYLE
  5
3F
102
{ACAD_XDICTIONARY
360
A81
102
}
102
{ACAD_REACTORS
330
29
102
}
330
29
100
AcDbVisualStyle
  2

 70
    20
 71
     2
 72
     2
 73
     0
 90
        0
 40
-0.6
 41
-30.0
 62
     5
 63
     7
 74
     1
 91
        4
 64
     7
 65
   257
 75
     1
175
     1
 42
1.0
 92
       10
 66
     7
 43
1.0
 76
     1
 77
     6
 78
     2
 67
     7
 79
     5
170
     0
171
     0
290
     0
174
     0
 93
        1
 44
0.0
173
     0
291
     1
 45
0.0
1001
ACAD
1000
AcDbSavedByObjectVersion
1070
     0
  0
VISUALSTYLE
  5
37
102
{ACAD_XDICTIONARY
360
A71
102
}
102
{ACAD_REACTORS
330
29
102
}
330
29
100
AcDbVisualStyle
  2

 70
    14
 71
     2
 72
     2
 73
     0
 90
        0
 40
-0.6
 41
-30.0
 62
     5
 63
     7
 74
     1
 91
        4
 64
     7
 65
   257
 75
     7
175
     7
 42
1.0
 92
        8
 66
     7
 43
1.0
 76
     1
 77
     6
 78
     2
 67
     7
 79
     5
170
     0
171
     0
290
     0
174
     0
 93
        1
 44
0.0
173
     0
291
     1
 45
0.0
1001
ACAD
1000
AcDbSavedByObjectVersion
1070
     0
  0
VISUALSTYLE
  5
40
102
{ACAD_XDICTIONARY
360
A83
102
}
102
{ACAD_REACTORS
330
29
102
}
330
29
100
AcDbVisualStyle
  2

 70
    21
 71
     2
 72
     2
 73
     0
 90
        0
 40
-0.6
 41
-30.0
 62
     5
 63
     7
 74
     1
 91
        4
 64
     7
 65
   257
 75
     1
175
     1
 42
1.0
 92
        9
 66
     7
 43
1.0
 76
     1
 77
     6
 78
     2
 67
     7
 79
     5
170
     0
171
     0
290
     0
174
     0
 93
        1
 44
0.0
173
     0
291
     1
 45
0.0
1001
ACAD
1000
AcDbSavedByObjectVersion
1070
     0
  0
VISUALSTYLE
  5
33
102
{ACAD_XDICTIONARY
360
A69
102
}
102
{ACAD_REACTORS
330
29
102
}
330
29
100
AcDbVisualStyle
  2

 70
     8
 71
     2
 72
     3
 73
     0
 90
        2
 40
-0.6
 41
30.0
 62
     5
 63
     7
 74
     0
 91
        0
 64
     7
 65
   257
 75
     1
175
     1
 42
1.0
 92
        8
 66
   257
 43
1.0
 76
     1
 77
     6
 78
     2
 67
     7
 79
     3
170
     0
171
     0
290
     0
174
     0
 93
       13
 44
0.0
173
     0
291
     0
 45
0.0
1001
ACAD
1000
AcDbSavedByObjectVersion
1070
     0
  0
VISUALSTYLE
  5
3E
102
{ACAD_XDICTIONARY
360
A7F
102
}
102
{ACAD_REACTORS
330
29
102
}
330
29
100
AcDbVisualStyle
  2

 70
    27
 71
     2
 72
     2
 73
     1
 90
        2
 40
-0.6
 41
30.0
 62
     5
 63
     7
 74
     0
 91
        4
 64
     7
 65
   257
 75
     1
175
     1
 42
1.0
 92
        8
 66
   257
 43
1.0
 76
     1
 77
     6
 78
     2
 67
     8
 79
     3
170
     0
171
     0
290
     0
174
     0
 93
        5
 44
0.0
173
     0
291
     0
 45
0.0
1001
ACAD
1000
AcDbSavedByObjectVersion
1070
     0
  0
VISUALSTYLE
  5
3D
102
{ACAD_XDICTIONARY
360
A7D
102
}
102
{ACAD_REACTORS
330
29
102
}
330
29
100
AcDbVisualStyle
  2

 70
    26
 71
     2
 72
     2
 73
     1
 90
        2
 40
-0.6
 41
30.0
 62
     5
 63
     7
 74
     1
 91
       10
 64
     7
 65
   257
 75
     2
175
     1
 42
1.0
 92
        8
 66
   257
 43
1.0
 76
     1
 77
     6
 78
     2
 67
     7
 79
     3
170
     0
171
     0
290
     0
174
     0
 93
        5
 44
0.0
173
     0
291
     0
 45
0.0
1001
ACAD
1000
AcDbSavedByObjectVersion
1070
     0
  0
VISUALSTYLE
  5
3A
102
{ACAD_XDICTIONARY
360
A77
102
}
102
{ACAD_REACTORS
330
29
102
}
330
29
100
AcDbVisualStyle
  2

 70
    23
 71
     2
 72
     2
 73
     3
 90
        0
 40
-0.6
 41
-30.0
 62
     5
 63
     7
 74
     2
 91
        2
 64
     7
 65
     7
 75
     1
175
     1
 42
40.0
 92
        8
 66
     7
 43
1.0
 76
     1
 77
     6
 78
     2
 67
     7
 79
     3
170
     0
171
     0
290
     0
174
     0
 93
        1
 44
0.0
173
     0
291
     0
 45
0.0
1001
ACAD
1000
AcDbSavedByObjectVersion
1070
     0
  0
VISUALSTYLE
  5
3B
102
{ACAD_XDICTIONARY
360
A79
102
}
102
{ACAD_REACTORS
330
29
102
}
330
29
100
AcDbVisualStyle
  2

 70
    24
 71
     1
 72
     2
 73
     2
 90
        0
 40
-0.6
 41
-30.0
 62
     5
 63
     7
 74
     2
 91
        2
 64
     7
 65
     7
 75
     1
175
     1
 42
40.0
 92
       11
 66
     7
 43
1.0
 76
     1
 77
     6
 78
     2
 67
     7
 79
     6
170
     0
171
     0
290
     0
174
     0
 93
        1
 44
0.0
173
     0
291
     0
 45
0.0
1001
ACAD
1000
AcDbSavedByObjectVersion
1070
     0
  0
VISUALSTYLE
  5
36
102
{ACAD_XDICTIONARY
360
A6F
102
}
102
{ACAD_REACTORS
330
29
102
}
330
29
100
AcDbVisualStyle
  2

 70
    13
 71
     2
 72
     2
 73
     0
 90
        0
 40
-0.6
 41
-30.0
 62
     5
 63
     7
 74
     1
 91
        4
 64
     7
 65
   257
 75
     1
175
     1
 42
1.0
 92
       12
 66
     7
 43
1.0
 76
     1
 77
     6
 78
     2
 67
     7
 79
     5
170
     0
171
     0
290
     0
174
     0
 93
        1
 44
0.0
173
     0
291
     1
 45
0.0
1001
ACAD
1000
AcDbSavedByObjectVersion
1070
     0
  0
VISUALSTYLE
  5
30
102
{ACAD_XDICTIONARY
360
A63
102
}
102
{ACAD_REACTORS
330
29
102
}
330
29
100
AcDbVisualStyle
  2

 70
     5
 71
     0
 72
     2
 73
     0
 90
        0
 40
-0.6
 41
-30.0
 62
     5
 63
     7
 74
     1
 91
        4
 64
     7
 65
   257
 75
     1
175
     1
 42
1.0
 92
        0
 66
   257
 43
1.0
 76
     1
 77
     6
 78
     2
 67
     7
 79
     3
170
     0
171
     0
290
     0
174
     0
 93
        1
 44
0.0
173
     0
291
     0
 45
0.0
1001
ACAD
1000
AcDbSavedByObjectVersion
1070
     0
  0
VISUALSTYLE
  5
3C
102
{ACAD_XDICTIONARY
360
A7B
102
}
102
{ACAD_REACTORS
330
29
102
}
330
29
100
AcDbVisualStyle
  2

 70
    25
 71
     2
 72
     2
 73
     1
 90
        1
 40
0.5
 41
-30.0
 62
     5
 63
     7
 74
     1
 91
        0
 64
     7
 65
   257
 75
     1
175
     1
 42
1.0
 92
        8
 66
     7
 43
1.0
 76
     1
 77
     6
 78
     2
 67
     7
 79
     3
170
     0
171
     0
290
     0
174
     0
 93
       13
 44
0.0
173
     0
291
     0
 45
0.0
1001
ACAD
1000
AcDbSavedByObjectVersion
1070
     0
  0
DICTIONARYVAR
  5
457
102
{ACAD_REACTORS
330
454
102
}
330
454
100
DictionaryVariables
280
     0
  1
1:1
  0
DICTIONARYVAR
  5
456
102
{ACAD_REACTORS
330
454
102
}
330
454
100
DictionaryVariables
280
     0
  1
STANDARD
  0
DICTIONARYVAR
  5
455
102
{ACAD_REACTORS
330
454
102
}
330
454
100
DictionaryVariables
280
     0
  1
STANDARD
  0
DICTIONARYVAR
  5
45A
102
{ACAD_REACTORS
330
454
102
}
330
454
100
DictionaryVariables
280
     0
  1
1
  0
DICTIONARYVAR
  5
459
102
{ACAD_REACTORS
330
454
102
}
330
454
100
DictionaryVariables
280
     0
  1
0
  0
DICTIONARYVAR
  5
458
102
{ACAD_REACTORS
330
454
102
}
330
454
100
DictionaryVariables
280
     0
  1
127
  0
DICTIONARYVAR
  5
8EB
102
{ACAD_REACTORS
330
454
102
}
330
454
100
DictionaryVariables
280
     0
  1
2
  0
DICTIONARY
  5
A8A
330
6E
100
AcDbDictionary
280
     1
281
     1
  3
ACAD_XREC_ROUNDTRIP
360
A8B
  0
DICTIONARY
  5
A88
330
6A
100
AcDbDictionary
280
     1
281
     1
  3
ACAD_XREC_ROUNDTRIP
360
A89
  0
DICTIONARY
  5
1A
330
19
100
AcDbDictionary
280
     1
281
     1
  3
ACAD_XREC_ROUNDTRIP
360
465
  3
BUMPTILE
360
1C
  3
DIFFUSETILE
360
1B
  3
OPACITYTILE
360
1F
  3
REFLECTIONTILE
360
1E
  3
REFRACTIONTILE
360
20
  3
SPECULARTILE
360
1D
  0
DICTIONARY
  5
12
330
11
100
AcDbDictionary
280
     1
281
     1
  3
ACAD_XREC_ROUNDTRIP
360
464
  3
BUMPTILE
360
14
  3
DIFFUSETILE
360
13
  3
OPACITYTILE
360
17
  3
REFLECTIONTILE
360
16
  3
REFRACTIONTILE
360
18
  3
SPECULARTILE
360
15
  0
DICTIONARY
  5
22
330
21
100
AcDbDictionary
280
     1
281
     1
  3
ACAD_XREC_ROUNDTRIP
360
466
  3
BUMPTILE
360
24
  3
DIFFUSETILE
360
23
  3
OPACITYTILE
360
27
  3
REFLECTIONTILE
360
26
  3
REFRACTIONTILE
360
28
  3
SPECULARTILE
360
25
  0
DICTIONARY
  5
45C
330
64
100
AcDbDictionary
280
     1
281
     1
  3
ACAD_ROUNDTRIP_2008_TABLESTYLE_CELLSTYLEMAP
360
A50
  3
ACAD_XREC_ROUNDTRIP
360
A87
  0
DICTIONARY
  5
A61
330
2F
100
AcDbDictionary
280
     1
281
     1
  3
ACAD_XREC_ROUNDTRIP
360
A62
  0
DICTIONARY
  5
A8C
330
2E2
100
AcDbDictionary
280
     1
281
     1
  3
ACAD_XREC_ROUNDTRIP
360
A8D
  0
DICTIONARY
  5
A5F
330
2E
100
AcDbDictionary
280
     1
281
     1
  3
ACAD_XREC_ROUNDTRIP
360
A60
  0
DICTIONARY
  5
A6D
330
35
100
AcDbDictionary
280
     1
281
     1
  3
ACAD_XREC_ROUNDTRIP
360
A6E
  0
DICTIONARY
  5
A75
330
39
100
AcDbDictionary
280
     1
281
     1
  3
ACAD_XREC_ROUNDTRIP
360
A76
  0
DICTIONARY
  5
A67
330
32
100
AcDbDictionary
280
     1
281
     1
  3
ACAD_XREC_ROUNDTRIP
360
A68
  0
DICTIONARY
  5
A6B
330
34
100
AcDbDictionary
280
     1
281
     1
  3
ACAD_XREC_ROUNDTRIP
360
A6C
  0
DICTIONARY
  5
A85
330
41
100
AcDbDictionary
280
     1
281
     1
  3
ACAD_XREC_ROUNDTRIP
360
A86
  0
DICTIONARY
  5
A73
330
38
100
AcDbDictionary
280
     1
281
     1
  3
ACAD_XREC_ROUNDTRIP
360
A74
  0
DICTIONARY
  5
A57
330
2A
100
AcDbDictionary
280
     1
281
     1
  3
ACAD_XREC_ROUNDTRIP
360
A58
  0
DICTIONARY
  5
A59
330
2B
100
AcDbDictionary
280
     1
281
     1
  3
ACAD_XREC_ROUNDTRIP
360
A5A
  0
DICTIONARY
  5
A5B
330
2C
100
AcDbDictionary
280
     1
281
     1
  3
ACAD_XREC_ROUNDTRIP
360
A5C
  0
DICTIONARY
  5
A5D
330
2D
100
AcDbDictionary
280
     1
281
     1
  3
ACAD_XREC_ROUNDTRIP
360
A5E
  0
DICTIONARY
  5
A65
330
31
100
AcDbDictionary
280
     1
281
     1
  3
ACAD_XREC_ROUNDTRIP
360
A66
  0
DICTIONARY
  5
A81
330
3F
100
AcDbDictionary
280
     1
281
     1
  3
ACAD_XREC_ROUNDTRIP
360
A82
  0
DICTIONARY
  5
A71
330
37
100
AcDbDictionary
280
     1
281
     1
  3
ACAD_XREC_ROUNDTRIP
360
A72
  0
DICTIONARY
  5
A83
330
40
100
AcDbDictionary
280
     1
281
     1
  3
ACAD_XREC_ROUNDTRIP
360
A84
  0
DICTIONARY
  5
A69
330
33
100
AcDbDictionary
280
     1
281
     1
  3
ACAD_XREC_ROUNDTRIP
360
A6A
  0
DICTIONARY
  5
A7F
330
3E
100
AcDbDictionary
280
     1
281
     1
  3
ACAD_XREC_ROUNDTRIP
360
A80
  0
DICTIONARY
  5
A7D
330
3D
100
AcDbDictionary
280
     1
281
     1
  3
ACAD_XREC_ROUNDTRIP
360
A7E
  0
DICTIONARY
  5
A77
330
3A
100
AcDbDictionary
280
     1
281
     1
  3
ACAD_XREC_ROUNDTRIP
360
A78
  0
DICTIONARY
  5
A79
330
3B
100
AcDbDictionary
280
     1
281
     1
  3
ACAD_XREC_ROUNDTRIP
360
A7A
  0
DICTIONARY
  5
A6F
330
36
100
AcDbDictionary
280
     1
281
     1
  3
ACAD_XREC_ROUNDTRIP
360
A70
  0
DICTIONARY
  5
A63
330
30
100
AcDbDictionary
280
     1
281
     1
  3
ACAD_XREC_ROUNDTRIP
360
A64
  0
DICTIONARY
  5
A7B
330
3C
100
AcDbDictionary
280
     1
281
     1
  3
ACAD_XREC_ROUNDTRIP
360
A7C
  0
XRECORD
  5
A8B
102
{ACAD_REACTORS
330
A8A
102
}
330
A8A
100
AcDbXrecord
280
     1
102
SHADEPLOT
 70
     0
102
SHADEPLOTRESLEVEL
 70
     2
102
SHADEPLOTCUSTOMDPI
 70
   300
  0
XRECORD
  5
A89
102
{ACAD_REACTORS
330
A88
102
}
330
A88
100
AcDbXrecord
280
     1
102
SHADEPLOT
 70
     0
102
SHADEPLOTRESLEVEL
 70
     2
102
SHADEPLOTCUSTOMDPI
 70
   300
  0
XRECORD
  5
465
102
{ACAD_REACTORS
330
1A
102
}
330
1A
100
AcDbXrecord
280
     1
102
MATERIAL
148
0.0
149
0.0
149
0.0
 93
        0
 94
      127
282
     0
 72
     0
 77
     0
171
     0
175
     0
179
     0
273
     0
  0
XRECORD
  5
1C
102
{ACAD_REACTORS
330
1A
102
}
330
1A
100
AcDbXrecord
280
     1
270
     1
271
     1
  0
XRECORD
  5
1B
102
{ACAD_REACTORS
330
1A
102
}
330
1A
100
AcDbXrecord
280
     1
270
     1
271
     1
  0
XRECORD
  5
1F
102
{ACAD_REACTORS
330
1A
102
}
330
1A
100
AcDbXrecord
280
     1
270
     1
271
     1
  0
XRECORD
  5
1E
102
{ACAD_REACTORS
330
1A
102
}
330
1A
100
AcDbXrecord
280
     1
270
     1
271
     1
  0
XRECORD
  5
20
102
{ACAD_REACTORS
330
1A
102
}
330
1A
100
AcDbXrecord
280
     1
270
     1
271
     1
  0
XRECORD
  5
1D
102
{ACAD_REACTORS
330
1A
102
}
330
1A
100
AcDbXrecord
280
     1
270
     1
271
     1
  0
XRECORD
  5
464
102
{ACAD_REACTORS
330
12
102
}
330
12
100
AcDbXrecord
280
     1
102
MATERIAL
148
0.0
149
0.0
149
0.0
 93
        0
 94
      127
282
     0
 72
     0
 77
     0
171
     0
175
     0
179
     0
273
     0
  0
XRECORD
  5
14
102
{ACAD_REACTORS
330
12
102
}
330
12
100
AcDbXrecord
280
     1
270
     1
271
     1
  0
XRECORD
  5
13
102
{ACAD_REACTORS
330
12
102
}
330
12
100
AcDbXrecord
280
     1
270
     1
271
     1
  0
XRECORD
  5
17
102
{ACAD_REACTORS
330
12
102
}
330
12
100
AcDbXrecord
280
     1
270
     1
271
     1
  0
XRECORD
  5
16
102
{ACAD_REACTORS
330
12
102
}
330
12
100
AcDbXrecord
280
     1
270
     1
271
     1
  0
XRECORD
  5
18
102
{ACAD_REACTORS
330
12
102
}
330
12
100
AcDbXrecord
280
     1
270
     1
271
     1
  0
XRECORD
  5
15
102
{ACAD_REACTORS
330
12
102
}
330
12
100
AcDbXrecord
280
     1
270
     1
271
     1
  0
XRECORD
  5
466
102
{ACAD_REACTORS
330
22
102
}
330
22
100
AcDbXrecord
280
     1
102
MATERIAL
148
0.0
149
0.0
149
0.0
 93
        0
 94
      127
282
     0
 72
     0
 77
     0
171
     0
175
     0
179
     0
273
     0
  0
XRECORD
  5
24
102
{ACAD_REACTORS
330
22
102
}
330
22
100
AcDbXrecord
280
     1
270
     1
271
     1
  0
XRECORD
  5
23
102
{ACAD_REACTORS
330
22
102
}
330
22
100
AcDbXrecord
280
     1
270
     1
271
     1
  0
XRECORD
  5
27
102
{ACAD_REACTORS
330
22
102
}
330
22
100
AcDbXrecord
280
     1
270
     1
271
     1
  0
XRECORD
  5
26
102
{ACAD_REACTORS
330
22
102
}
330
22
100
AcDbXrecord
280
     1
270
     1
271
     1
  0
XRECORD
  5
28
102
{ACAD_REACTORS
330
22
102
}
330
22
100
AcDbXrecord
280
     1
270
     1
271
     1
  0
XRECORD
  5
25
102
{ACAD_REACTORS
330
22
102
}
330
22
100
AcDbXrecord
280
     1
270
     1
271
     1
  0
CELLSTYLEMAP
  5
A50
102
{ACAD_REACTORS
330
45C
102
}
330
45C
100
AcDbCellStyleMap
 90
        3
300
CELLSTYLE
  1
TABLEFORMAT_BEGIN
 90
        5
170
     1
 91
        0
 92
    32768
 62
   257
 93
        1
300
CONTENTFORMAT
  1
CONTENTFORMAT_BEGIN
 90
        0
 91
        0
 92
      512
 93
        0
300

 40
0.0
140
1.0
 94
        5
 62
     0
340
55
144
0.25
309
CONTENTFORMAT_END
171
     1
301
MARGIN
  1
CELLMARGIN_BEGIN
 40
0.06
 40
0.06
 40
0.06
 40
0.06
 40
0.18
 40
0.18
309
CELLMARGIN_END
 94
        6
 95
        1
302
GRIDFORMAT
  1
GRIDFORMAT_BEGIN
 90
        0
 91
        1
 62
     0
 92
       -2
340
0
 93
        0
 40
0.045
309
GRIDFORMAT_END
 95
        2
302
GRIDFORMAT
  1
GRIDFORMAT_BEGIN
 90
        0
 91
        1
 62
     0
 92
       -2
340
0
 93
        0
 40
0.045
309
GRIDFORMAT_END
 95
        4
302
GRIDFORMAT
  1
GRIDFORMAT_BEGIN
 90
        0
 91
        1
 62
     0
 92
       -2
340
0
 93
        0
 40
0.045
309
GRIDFORMAT_END
 95
        8
302
GRIDFORMAT
  1
GRIDFORMAT_BEGIN
 90
        0
 91
        1
 62
     0
 92
       -2
340
0
 93
        0
 40
0.045
309
GRIDFORMAT_END
 95
       16
302
GRIDFORMAT
  1
GRIDFORMAT_BEGIN
 90
        0
 91
        1
 62
     0
 92
       -2
340
0
 93
        0
 40
0.045
309
GRIDFORMAT_END
 95
       32
302
GRIDFORMAT
  1
GRIDFORMAT_BEGIN
 90
        0
 91
        1
 62
     0
 92
       -2
340
0
 93
        0
 40
0.045
309
GRIDFORMAT_END
309
TABLEFORMAT_END
  1
CELLSTYLE_BEGIN
 90
        1
 91
        1
300
_TITLE
309
CELLSTYLE_END
300
CELLSTYLE
  1
TABLEFORMAT_BEGIN
 90
        5
170
     1
 91
        0
 92
        0
 62
   257
 93
        1
300
CONTENTFORMAT
  1
CONTENTFORMAT_BEGIN
 90
        0
 91
        0
 92
      512
 93
        0
300

 40
0.0
140
1.0
 94
        5
 62
     0
340
55
144
0.18
309
CONTENTFORMAT_END
171
     1
301
MARGIN
  1
CELLMARGIN_BEGIN
 40
0.06
 40
0.06
 40
0.06
 40
0.06
 40
0.18
 40
0.18
309
CELLMARGIN_END
 94
        6
 95
        1
302
GRIDFORMAT
  1
GRIDFORMAT_BEGIN
 90
        0
 91
        1
 62
     0
 92
       -2
340
0
 93
        0
 40
0.045
309
GRIDFORMAT_END
 95
        2
302
GRIDFORMAT
  1
GRIDFORMAT_BEGIN
 90
        0
 91
        1
 62
     0
 92
       -2
340
0
 93
        0
 40
0.045
309
GRIDFORMAT_END
 95
        4
302
GRIDFORMAT
  1
GRIDFORMAT_BEGIN
 90
        0
 91
        1
 62
     0
 92
       -2
340
0
 93
        0
 40
0.045
309
GRIDFORMAT_END
 95
        8
302
GRIDFORMAT
  1
GRIDFORMAT_BEGIN
 90
        0
 91
        1
 62
     0
 92
       -2
340
0
 93
        0
 40
0.045
309
GRIDFORMAT_END
 95
       16
302
GRIDFORMAT
  1
GRIDFORMAT_BEGIN
 90
        0
 91
        1
 62
     0
 92
       -2
340
0
 93
        0
 40
0.045
309
GRIDFORMAT_END
 95
       32
302
GRIDFORMAT
  1
GRIDFORMAT_BEGIN
 90
        0
 91
        1
 62
     0
 92
       -2
340
0
 93
        0
 40
0.045
309
GRIDFORMAT_END
309
TABLEFORMAT_END
  1
CELLSTYLE_BEGIN
 90
        2
 91
        1
300
_HEADER
309
CELLSTYLE_END
300
CELLSTYLE
  1
TABLEFORMAT_BEGIN
 90
        5
170
     1
 91
        0
 92
        0
 62
   257
 93
        1
300
CONTENTFORMAT
  1
CONTENTFORMAT_BEGIN
 90
        0
 91
        0
 92
      512
 93
        0
300

 40
0.0
140
1.0
 94
        2
 62
     0
340
55
144
0.18
309
CONTENTFORMAT_END
171
     1
301
MARGIN
  1
CELLMARGIN_BEGIN
 40
0.06
 40
0.06
 40
0.06
 40
0.06
 40
0.18
 40
0.18
309
CELLMARGIN_END
 94
        6
 95
        1
302
GRIDFORMAT
  1
GRIDFORMAT_BEGIN
 90
        0
 91
        1
 62
     0
 92
       -2
340
0
 93
        0
 40
0.045
309
GRIDFORMAT_END
 95
        2
302
GRIDFORMAT
  1
GRIDFORMAT_BEGIN
 90
        0
 91
        1
 62
     0
 92
       -2
340
0
 93
        0
 40
0.045
309
GRIDFORMAT_END
 95
        4
302
GRIDFORMAT
  1
GRIDFORMAT_BEGIN
 90
        0
 91
        1
 62
     0
 92
       -2
340
0
 93
        0
 40
0.045
309
GRIDFORMAT_END
 95
        8
302
GRIDFORMAT
  1
GRIDFORMAT_BEGIN
 90
        0
 91
        1
 62
     0
 92
       -2
340
0
 93
        0
 40
0.045
309
GRIDFORMAT_END
 95
       16
302
GRIDFORMAT
  1
GRIDFORMAT_BEGIN
 90
        0
 91
        1
 62
     0
 92
       -2
340
0
 93
        0
 40
0.045
309
GRIDFORMAT_END
 95
       32
302
GRIDFORMAT
  1
GRIDFORMAT_BEGIN
 90
        0
 91
        1
 62
     0
 92
       -2
340
0
 93
        0
 40
0.045
309
GRIDFORMAT_END
309
TABLEFORMAT_END
  1
CELLSTYLE_BEGIN
 90
        3
 91
        2
300
_DATA
309
CELLSTYLE_END
  0
XRECORD
  5
A87
102
{ACAD_REACTORS
330
45C
102
}
330
45C
100
AcDbXrecord
280
     1
102
ACAD_ROUNDTRIP_PRE2007_TABLESTYLE
 90
      512
 91
        0
  1

 92
      512
 93
        0
  2

 94
      512
 95
        0
  3

  0
XRECORD
  5
A62
102
{ACAD_REACTORS
330
A61
102
}
330
A61
100
AcDbXrecord
280
     1
102
RTVSPropertyOp0
 70
     1
102
RTVSPropertyOp1
 70
     1
102
RTVSPropertyOp2
 70
     1
102
RTVSPropertyOp3
 70
     1
102
RTVSPropertyOp4
 70
     1
102
RTVSPropertyOp5
 70
     1
102
RTVSPropertyOp6
 70
     1
102
RTVSPropertyOp7
 70
     1
102
RTVSPropertyOp8
 70
     1
102
RTVSPropertyOp9
 70
     1
102
RTVSPropertyOp10
 70
     1
102
RTVSPropertyOp11
 70
     1
102
RTVSPropertyOp12
 70
     1
102
RTVSPropertyOp13
 70
     1
102
RTVSPropertyOp14
 70
     1
102
RTVSPropertyOp15
 70
     1
102
RTVSPropertyOp16
 70
     1
102
RTVSPropertyOp17
 70
     1
102
RTVSPropertyOp18
 70
     1
102
RTVSPropertyOp19
 70
     1
102
RTVSPropertyOp20
 70
     1
102
RTVSPropertyOp21
 70
     1
102
RTVSPropertyOp22
 70
     1
102
RTVSPropertyOp23
 70
     1
102
RTVSPropertyOp24
 70
     1
102
RTVSPropertyOp25
 70
     1
102
RTVSPropertyOp26
 70
     1
102
RTVSPropertyOp27
 70
     1
102
RTVSPropertyOp28
 70
     1
102
RTVSPropertyOp29
 70
     1
102
RTVSPropertyOp30
 70
     1
102
RTVSPropertyOp31
 70
     1
102
RTVSPropertyOp32
 70
     1
  0
XRECORD
  5
A8D
102
{ACAD_REACTORS
330
A8C
102
}
330
A8C
100
AcDbXrecord
280
     1
102
RTVSPropertyOp0
 70
     1
102
RTVSPropertyOp1
 70
     1
102
RTVSPropertyOp2
 70
     1
102
RTVSPropertyOp3
 70
     1
102
RTVSPropertyOp4
 70
     1
102
RTVSPropertyOp5
 70
     1
102
RTVSPropertyOp6
 70
     1
102
RTVSPropertyOp7
 70
     1
102
RTVSPropertyOp8
 70
     1
102
RTVSPropertyOp9
 70
     1
102
RTVSPropertyOp10
 70
     1
102
RTVSPropertyOp11
 70
     1
102
RTVSPropertyOp12
 70
     1
102
RTVSPropertyOp13
 70
     1
102
RTVSPropertyOp14
 70
     1
102
RTVSPropertyOp15
 70
     1
102
RTVSPropertyOp16
 70
     1
102
RTVSPropertyOp17
 70
     1
102
RTVSPropertyOp18
 70
     1
102
RTVSPropertyOp19
 70
     1
102
RTVSPropertyOp20
 70
     1
102
RTVSPropertyOp21
 70
     1
102
RTVSPropertyOp22
 70
     1
102
RTVSPropertyOp23
 70
     1
102
RTVSPropertyOp24
 70
     1
102
RTVSPropertyOp25
 70
     1
102
RTVSPropertyOp26
 70
     1
102
RTVSPropertyOp27
 70
     1
102
RTVSPropertyOp28
 70
     1
102
RTVSPropertyOp29
 70
     1
102
RTVSPropertyOp30
 70
     1
102
RTVSPropertyOp31
 70
     1
102
RTVSPropertyOp32
 70
     1
  0
XRECORD
  5
A60
102
{ACAD_REACTORS
330
A5F
102
}
330
A5F
100
AcDbXrecord
280
     1
102
RTVSPropertyOp0
 70
     1
102
RTVSPropertyOp1
 70
     1
102
RTVSPropertyOp2
 70
     1
102
RTVSPropertyOp3
 70
     1
102
RTVSPropertyOp4
 70
     1
102
RTVSPropertyOp5
 70
     1
102
RTVSPropertyOp6
 70
     1
102
RTVSPropertyOp7
 70
     1
102
RTVSPropertyOp8
 70
     1
102
RTVSPropertyOp9
 70
     1
102
RTVSPropertyOp10
 70
     1
102
RTVSPropertyOp11
 70
     1
102
RTVSPropertyOp12
 70
     1
102
RTVSPropertyOp13
 70
     1
102
RTVSPropertyOp14
 70
     1
102
RTVSPropertyOp15
 70
     1
102
RTVSPropertyOp16
 70
     1
102
RTVSPropertyOp17
 70
     1
102
RTVSPropertyOp18
 70
     1
102
RTVSPropertyOp19
 70
     1
102
RTVSPropertyOp20
 70
     1
102
RTVSPropertyOp21
 70
     1
102
RTVSPropertyOp22
 70
     1
102
RTVSPropertyOp23
 70
     1
102
RTVSPropertyOp24
 70
     1
102
RTVSPropertyOp25
 70
     1
102
RTVSPropertyOp26
 70
     1
102
RTVSPropertyOp27
 70
     1
102
RTVSPropertyOp28
 70
     1
102
RTVSPropertyOp29
 70
     1
102
RTVSPropertyOp30
 70
     1
102
RTVSPropertyOp31
 70
     1
102
RTVSPropertyOp32
 70
     1
  0
XRECORD
  5
A6E
102
{ACAD_REACTORS
330
A6D
102
}
330
A6D
100
AcDbXrecord
280
     1
102
RTVSPropertyOp0
 70
     1
102
RTVSPropertyOp1
 70
     1
102
RTVSPropertyOp2
 70
     1
102
RTVSPropertyOp3
 70
     1
102
RTVSPropertyOp4
 70
     1
102
RTVSPropertyOp5
 70
     1
102
RTVSPropertyOp6
 70
     1
102
RTVSPropertyOp7
 70
     1
102
RTVSPropertyOp8
 70
     1
102
RTVSPropertyOp9
 70
     1
102
RTVSPropertyOp10
 70
     1
102
RTVSPropertyOp11
 70
     1
102
RTVSPropertyOp12
 70
     1
102
RTVSPropertyOp13
 70
     1
102
RTVSPropertyOp14
 70
     1
102
RTVSPropertyOp15
 70
     1
102
RTVSPropertyOp16
 70
     1
102
RTVSPropertyOp17
 70
     1
102
RTVSPropertyOp18
 70
     1
102
RTVSPropertyOp19
 70
     1
102
RTVSPropertyOp20
 70
     1
102
RTVSPropertyOp21
 70
     1
102
RTVSPropertyOp22
 70
     1
102
RTVSPropertyOp23
 70
     1
102
RTVSPropertyOp24
 70
     1
102
RTVSPropertyOp25
 70
     1
102
RTVSPropertyOp26
 70
     1
102
RTVSPropertyOp27
 70
     1
102
RTVSPropertyOp28
 70
     1
102
RTVSPropertyOp29
 70
     1
102
RTVSPropertyOp30
 70
     1
102
RTVSPropertyOp31
 70
     1
102
RTVSPropertyOp32
 70
     1
  0
XRECORD
  5
A76
102
{ACAD_REACTORS
330
A75
102
}
330
A75
100
AcDbXrecord
280
     1
102
RTVSPropertyOp0
 70
     1
102
RTVSPropertyOp1
 70
     1
102
RTVSPropertyOp2
 70
     1
102
RTVSPropertyOp3
 70
     1
102
RTVSPropertyOp4
 70
     1
102
RTVSPropertyOp5
 70
     1
102
RTVSPropertyOp6
 70
     1
102
RTVSPropertyOp7
 70
     1
102
RTVSPropertyOp8
 70
     1
102
RTVSPropertyOp9
 70
     1
102
RTVSPropertyOp10
 70
     1
102
RTVSPropertyOp11
 70
     1
102
RTVSPropertyOp12
 70
     1
102
RTVSPropertyOp13
 70
     1
102
RTVSPropertyOp14
 70
     1
102
RTVSPropertyOp15
 70
     1
102
RTVSPropertyOp16
 70
     1
102
RTVSPropertyOp17
 70
     1
102
RTVSPropertyOp18
 70
     1
102
RTVSPropertyOp19
 70
     1
102
RTVSPropertyOp20
 70
     1
102
RTVSPropertyOp21
 70
     1
102
RTVSPropertyOp22
 70
     1
102
RTVSPropertyOp23
 70
     1
102
RTVSPropertyOp24
 70
     1
102
RTVSPropertyOp25
 70
     1
102
RTVSPropertyOp26
 70
     1
102
RTVSPropertyOp27
 70
     1
102
RTVSPropertyOp28
 70
     1
102
RTVSPropertyOp29
 70
     1
102
RTVSPropertyOp30
 70
     1
102
RTVSPropertyOp31
 70
     1
102
RTVSPropertyOp32
 70
     1
  0
XRECORD
  5
A68
102
{ACAD_REACTORS
330
A67
102
}
330
A67
100
AcDbXrecord
280
     1
102
RTVSPropertyOp0
 70
     1
102
RTVSPropertyOp1
 70
     1
102
RTVSPropertyOp2
 70
     1
102
RTVSPropertyOp3
 70
     1
102
RTVSPropertyOp4
 70
     1
102
RTVSPropertyOp5
 70
     1
102
RTVSPropertyOp6
 70
     1
102
RTVSPropertyOp7
 70
     1
102
RTVSPropertyOp8
 70
     1
102
RTVSPropertyOp9
 70
     1
102
RTVSPropertyOp10
 70
     1
102
RTVSPropertyOp11
 70
     1
102
RTVSPropertyOp12
 70
     1
102
RTVSPropertyOp13
 70
     1
102
RTVSPropertyOp14
 70
     1
102
RTVSPropertyOp15
 70
     1
102
RTVSPropertyOp16
 70
     1
102
RTVSPropertyOp17
 70
     1
102
RTVSPropertyOp18
 70
     1
102
RTVSPropertyOp19
 70
     1
102
RTVSPropertyOp20
 70
     1
102
RTVSPropertyOp21
 70
     1
102
RTVSPropertyOp22
 70
     1
102
RTVSPropertyOp23
 70
     1
102
RTVSPropertyOp24
 70
     1
102
RTVSPropertyOp25
 70
     1
102
RTVSPropertyOp26
 70
     1
102
RTVSPropertyOp27
 70
     1
102
RTVSPropertyOp28
 70
     1
102
RTVSPropertyOp29
 70
     1
102
RTVSPropertyOp30
 70
     1
102
RTVSPropertyOp31
 70
     1
102
RTVSPropertyOp32
 70
     1
  0
XRECORD
  5
A6C
102
{ACAD_REACTORS
330
A6B
102
}
330
A6B
100
AcDbXrecord
280
     1
102
RTVSPropertyOp0
 70
     1
102
RTVSPropertyOp1
 70
     1
102
RTVSPropertyOp2
 70
     1
102
RTVSPropertyOp3
 70
     1
102
RTVSPropertyOp4
 70
     1
102
RTVSPropertyOp5
 70
     1
102
RTVSPropertyOp6
 70
     1
102
RTVSPropertyOp7
 70
     1
102
RTVSPropertyOp8
 70
     1
102
RTVSPropertyOp9
 70
     1
102
RTVSPropertyOp10
 70
     1
102
RTVSPropertyOp11
 70
     1
102
RTVSPropertyOp12
 70
     1
102
RTVSPropertyOp13
 70
     1
102
RTVSPropertyOp14
 70
     1
102
RTVSPropertyOp15
 70
     1
102
RTVSPropertyOp16
 70
     1
102
RTVSPropertyOp17
 70
     1
102
RTVSPropertyOp18
 70
     1
102
RTVSPropertyOp19
 70
     1
102
RTVSPropertyOp20
 70
     1
102
RTVSPropertyOp21
 70
     1
102
RTVSPropertyOp22
 70
     1
102
RTVSPropertyOp23
 70
     1
102
RTVSPropertyOp24
 70
     1
102
RTVSPropertyOp25
 70
     1
102
RTVSPropertyOp26
 70
     1
102
RTVSPropertyOp27
 70
     1
102
RTVSPropertyOp28
 70
     1
102
RTVSPropertyOp29
 70
     1
102
RTVSPropertyOp30
 70
     1
102
RTVSPropertyOp31
 70
     1
102
RTVSPropertyOp32
 70
     1
  0
XRECORD
  5
A86
102
{ACAD_REACTORS
330
A85
102
}
330
A85
100
AcDbXrecord
280
     1
102
RTVSPropertyOp0
 70
     0
102
RTVSPropertyOp1
 70
     0
102
RTVSPropertyOp2
 70
     0
102
RTVSPropertyOp3
 70
     0
102
RTVSPropertyOp4
 70
     0
102
RTVSPropertyOp5
 70
     0
102
RTVSPropertyOp6
 70
     0
102
RTVSPropertyOp7
 70
     0
102
RTVSPropertyOp8
 70
     0
102
RTVSPropertyOp9
 70
     0
102
RTVSPropertyOp10
 70
     0
102
RTVSPropertyOp11
 70
     0
102
RTVSPropertyOp12
 70
     0
102
RTVSPropertyOp13
 70
     0
102
RTVSPropertyOp14
 70
     2
102
RTVSPropertyOp15
 70
     0
102
RTVSPropertyOp16
 70
     0
102
RTVSPropertyOp17
 70
     0
102
RTVSPropertyOp18
 70
     0
102
RTVSPropertyOp19
 70
     0
102
RTVSPropertyOp20
 70
     0
102
RTVSPropertyOp21
 70
     0
102
RTVSPropertyOp22
 70
     0
102
RTVSPropertyOp23
 70
     0
102
RTVSPropertyOp24
 70
     0
102
RTVSPropertyOp25
 70
     0
102
RTVSPropertyOp26
 70
     0
102
RTVSPropertyOp27
 70
     0
102
RTVSPropertyOp28
 70
     0
102
RTVSPropertyOp29
 70
     0
102
RTVSPropertyOp30
 70
     0
102
RTVSPropertyOp31
 70
     0
102
RTVSPropertyOp32
 70
     0
  0
XRECORD
  5
A74
102
{ACAD_REACTORS
330
A73
102
}
330
A73
100
AcDbXrecord
280
     1
102
RTVSPropertyOp0
 70
     1
102
RTVSPropertyOp1
 70
     1
102
RTVSPropertyOp2
 70
     1
102
RTVSPropertyOp3
 70
     1
102
RTVSPropertyOp4
 70
     1
102
RTVSPropertyOp5
 70
     1
102
RTVSPropertyOp6
 70
     1
102
RTVSPropertyOp7
 70
     1
102
RTVSPropertyOp8
 70
     1
102
RTVSPropertyOp9
 70
     1
102
RTVSPropertyOp10
 70
     1
102
RTVSPropertyOp11
 70
     1
102
RTVSPropertyOp12
 70
     1
102
RTVSPropertyOp13
 70
     1
102
RTVSPropertyOp14
 70
     1
102
RTVSPropertyOp15
 70
     1
102
RTVSPropertyOp16
 70
     1
102
RTVSPropertyOp17
 70
     1
102
RTVSPropertyOp18
 70
     1
102
RTVSPropertyOp19
 70
     1
102
RTVSPropertyOp20
 70
     1
102
RTVSPropertyOp21
 70
     1
102
RTVSPropertyOp22
 70
     1
102
RTVSPropertyOp23
 70
     1
102
RTVSPropertyOp24
 70
     1
102
RTVSPropertyOp25
 70
     1
102
RTVSPropertyOp26
 70
     1
102
RTVSPropertyOp27
 70
     1
102
RTVSPropertyOp28
 70
     1
102
RTVSPropertyOp29
 70
     1
102
RTVSPropertyOp30
 70
     1
102
RTVSPropertyOp31
 70
     1
102
RTVSPropertyOp32
 70
     1
  0
XRECORD
  5
A58
102
{ACAD_REACTORS
330
A57
102
}
330
A57
100
AcDbXrecord
280
     1
102
RTVSPropertyOp0
 70
     1
102
RTVSPropertyOp1
 70
     1
102
RTVSPropertyOp2
 70
     1
102
RTVSPropertyOp3
 70
     1
102
RTVSPropertyOp4
 70
     1
102
RTVSPropertyOp5
 70
     1
102
RTVSPropertyOp6
 70
     1
102
RTVSPropertyOp7
 70
     1
102
RTVSPropertyOp8
 70
     1
102
RTVSPropertyOp9
 70
     1
102
RTVSPropertyOp10
 70
     1
102
RTVSPropertyOp11
 70
     1
102
RTVSPropertyOp12
 70
     1
102
RTVSPropertyOp13
 70
     1
102
RTVSPropertyOp14
 70
     1
102
RTVSPropertyOp15
 70
     1
102
RTVSPropertyOp16
 70
     1
102
RTVSPropertyOp17
 70
     1
102
RTVSPropertyOp18
 70
     1
102
RTVSPropertyOp19
 70
     1
102
RTVSPropertyOp20
 70
     1
102
RTVSPropertyOp21
 70
     1
102
RTVSPropertyOp22
 70
     1
102
RTVSPropertyOp23
 70
     1
102
RTVSPropertyOp24
 70
     1
102
RTVSPropertyOp25
 70
     1
102
RTVSPropertyOp26
 70
     1
102
RTVSPropertyOp27
 70
     1
102
RTVSPropertyOp28
 70
     1
102
RTVSPropertyOp29
 70
     1
102
RTVSPropertyOp30
 70
     1
102
RTVSPropertyOp31
 70
     1
102
RTVSPropertyOp32
 70
     1
  0
XRECORD
  5
A5A
102
{ACAD_REACTORS
330
A59
102
}
330
A59
100
AcDbXrecord
280
     1
102
RTVSPropertyOp0
 70
     1
102
RTVSPropertyOp1
 70
     1
102
RTVSPropertyOp2
 70
     1
102
RTVSPropertyOp3
 70
     1
102
RTVSPropertyOp4
 70
     1
102
RTVSPropertyOp5
 70
     1
102
RTVSPropertyOp6
 70
     1
102
RTVSPropertyOp7
 70
     1
102
RTVSPropertyOp8
 70
     1
102
RTVSPropertyOp9
 70
     1
102
RTVSPropertyOp10
 70
     1
102
RTVSPropertyOp11
 70
     1
102
RTVSPropertyOp12
 70
     1
102
RTVSPropertyOp13
 70
     1
102
RTVSPropertyOp14
 70
     1
102
RTVSPropertyOp15
 70
     1
102
RTVSPropertyOp16
 70
     1
102
RTVSPropertyOp17
 70
     1
102
RTVSPropertyOp18
 70
     1
102
RTVSPropertyOp19
 70
     1
102
RTVSPropertyOp20
 70
     1
102
RTVSPropertyOp21
 70
     1
102
RTVSPropertyOp22
 70
     1
102
RTVSPropertyOp23
 70
     1
102
RTVSPropertyOp24
 70
     1
102
RTVSPropertyOp25
 70
     1
102
RTVSPropertyOp26
 70
     1
102
RTVSPropertyOp27
 70
     1
102
RTVSPropertyOp28
 70
     1
102
RTVSPropertyOp29
 70
     1
102
RTVSPropertyOp30
 70
     1
102
RTVSPropertyOp31
 70
     1
102
RTVSPropertyOp32
 70
     1
  0
XRECORD
  5
A5C
102
{ACAD_REACTORS
330
A5B
102
}
330
A5B
100
AcDbXrecord
280
     1
102
RTVSPropertyOp0
 70
     1
102
RTVSPropertyOp1
 70
     1
102
RTVSPropertyOp2
 70
     1
102
RTVSPropertyOp3
 70
     1
102
RTVSPropertyOp4
 70
     1
102
RTVSPropertyOp5
 70
     1
102
RTVSPropertyOp6
 70
     1
102
RTVSPropertyOp7
 70
     1
102
RTVSPropertyOp8
 70
     1
102
RTVSPropertyOp9
 70
     1
102
RTVSPropertyOp10
 70
     1
102
RTVSPropertyOp11
 70
     1
102
RTVSPropertyOp12
 70
     1
102
RTVSPropertyOp13
 70
     1
102
RTVSPropertyOp14
 70
     1
102
RTVSPropertyOp15
 70
     1
102
RTVSPropertyOp16
 70
     1
102
RTVSPropertyOp17
 70
     1
102
RTVSPropertyOp18
 70
     1
102
RTVSPropertyOp19
 70
     1
102
RTVSPropertyOp20
 70
     1
102
RTVSPropertyOp21
 70
     1
102
RTVSPropertyOp22
 70
     1
102
RTVSPropertyOp23
 70
     1
102
RTVSPropertyOp24
 70
     1
102
RTVSPropertyOp25
 70
     1
102
RTVSPropertyOp26
 70
     1
102
RTVSPropertyOp27
 70
     1
102
RTVSPropertyOp28
 70
     1
102
RTVSPropertyOp29
 70
     1
102
RTVSPropertyOp30
 70
     1
102
RTVSPropertyOp31
 70
     1
102
RTVSPropertyOp32
 70
     1
  0
XRECORD
  5
A5E
102
{ACAD_REACTORS
330
A5D
102
}
330
A5D
100
AcDbXrecord
280
     1
102
RTVSPropertyOp0
 70
     1
102
RTVSPropertyOp1
 70
     1
102
RTVSPropertyOp2
 70
     1
102
RTVSPropertyOp3
 70
     1
102
RTVSPropertyOp4
 70
     1
102
RTVSPropertyOp5
 70
     1
102
RTVSPropertyOp6
 70
     1
102
RTVSPropertyOp7
 70
     1
102
RTVSPropertyOp8
 70
     1
102
RTVSPropertyOp9
 70
     1
102
RTVSPropertyOp10
 70
     1
102
RTVSPropertyOp11
 70
     1
102
RTVSPropertyOp12
 70
     1
102
RTVSPropertyOp13
 70
     1
102
RTVSPropertyOp14
 70
     1
102
RTVSPropertyOp15
 70
     1
102
RTVSPropertyOp16
 70
     1
102
RTVSPropertyOp17
 70
     1
102
RTVSPropertyOp18
 70
     1
102
RTVSPropertyOp19
 70
     1
102
RTVSPropertyOp20
 70
     1
102
RTVSPropertyOp21
 70
     1
102
RTVSPropertyOp22
 70
     1
102
RTVSPropertyOp23
 70
     1
102
RTVSPropertyOp24
 70
     1
102
RTVSPropertyOp25
 70
     1
102
RTVSPropertyOp26
 70
     1
102
RTVSPropertyOp27
 70
     1
102
RTVSPropertyOp28
 70
     1
102
RTVSPropertyOp29
 70
     1
102
RTVSPropertyOp30
 70
     1
102
RTVSPropertyOp31
 70
     1
102
RTVSPropertyOp32
 70
     1
  0
XRECORD
  5
A66
102
{ACAD_REACTORS
330
A65
102
}
330
A65
100
AcDbXrecord
280
     1
102
RTVSPropertyOp0
 70
     1
102
RTVSPropertyOp1
 70
     1
102
RTVSPropertyOp2
 70
     1
102
RTVSPropertyOp3
 70
     1
102
RTVSPropertyOp4
 70
     1
102
RTVSPropertyOp5
 70
     1
102
RTVSPropertyOp6
 70
     1
102
RTVSPropertyOp7
 70
     1
102
RTVSPropertyOp8
 70
     1
102
RTVSPropertyOp9
 70
     1
102
RTVSPropertyOp10
 70
     1
102
RTVSPropertyOp11
 70
     1
102
RTVSPropertyOp12
 70
     1
102
RTVSPropertyOp13
 70
     1
102
RTVSPropertyOp14
 70
     1
102
RTVSPropertyOp15
 70
     1
102
RTVSPropertyOp16
 70
     1
102
RTVSPropertyOp17
 70
     1
102
RTVSPropertyOp18
 70
     1
102
RTVSPropertyOp19
 70
     1
102
RTVSPropertyOp20
 70
     1
102
RTVSPropertyOp21
 70
     1
102
RTVSPropertyOp22
 70
     1
102
RTVSPropertyOp23
 70
     1
102
RTVSPropertyOp24
 70
     1
102
RTVSPropertyOp25
 70
     1
102
RTVSPropertyOp26
 70
     1
102
RTVSPropertyOp27
 70
     1
102
RTVSPropertyOp28
 70
     1
102
RTVSPropertyOp29
 70
     1
102
RTVSPropertyOp30
 70
     1
102
RTVSPropertyOp31
 70
     1
102
RTVSPropertyOp32
 70
     1
  0
XRECORD
  5
A82
102
{ACAD_REACTORS
330
A81
102
}
330
A81
100
AcDbXrecord
280
     1
102
RTVSPropertyOp0
 70
     0
102
RTVSPropertyOp1
 70
     0
102
RTVSPropertyOp2
 70
     0
102
RTVSPropertyOp3
 70
     0
102
RTVSPropertyOp4
 70
     0
102
RTVSPropertyOp5
 70
     0
102
RTVSPropertyOp6
 70
     0
102
RTVSPropertyOp7
 70
     0
102
RTVSPropertyOp8
 70
     0
102
RTVSPropertyOp9
 70
     0
102
RTVSPropertyOp10
 70
     0
102
RTVSPropertyOp11
 70
     0
102
RTVSPropertyOp12
 70
     0
102
RTVSPropertyOp13
 70
     0
102
RTVSPropertyOp14
 70
     2
102
RTVSPropertyOp15
 70
     0
102
RTVSPropertyOp16
 70
     0
102
RTVSPropertyOp17
 70
     0
102
RTVSPropertyOp18
 70
     0
102
RTVSPropertyOp19
 70
     0
102
RTVSPropertyOp20
 70
     0
102
RTVSPropertyOp21
 70
     0
102
RTVSPropertyOp22
 70
     0
102
RTVSPropertyOp23
 70
     0
102
RTVSPropertyOp24
 70
     0
102
RTVSPropertyOp25
 70
     0
102
RTVSPropertyOp26
 70
     0
102
RTVSPropertyOp27
 70
     0
102
RTVSPropertyOp28
 70
     0
102
RTVSPropertyOp29
 70
     0
102
RTVSPropertyOp30
 70
     0
102
RTVSPropertyOp31
 70
     0
102
RTVSPropertyOp32
 70
     0
  0
XRECORD
  5
A72
102
{ACAD_REACTORS
330
A71
102
}
330
A71
100
AcDbXrecord
280
     1
102
RTVSPropertyOp0
 70
     1
102
RTVSPropertyOp1
 70
     1
102
RTVSPropertyOp2
 70
     1
102
RTVSPropertyOp3
 70
     1
102
RTVSPropertyOp4
 70
     1
102
RTVSPropertyOp5
 70
     1
102
RTVSPropertyOp6
 70
     1
102
RTVSPropertyOp7
 70
     1
102
RTVSPropertyOp8
 70
     1
102
RTVSPropertyOp9
 70
     1
102
RTVSPropertyOp10
 70
     1
102
RTVSPropertyOp11
 70
     1
102
RTVSPropertyOp12
 70
     1
102
RTVSPropertyOp13
 70
     1
102
RTVSPropertyOp14
 70
     1
102
RTVSPropertyOp15
 70
     1
102
RTVSPropertyOp16
 70
     1
102
RTVSPropertyOp17
 70
     1
102
RTVSPropertyOp18
 70
     1
102
RTVSPropertyOp19
 70
     1
102
RTVSPropertyOp20
 70
     1
102
RTVSPropertyOp21
 70
     1
102
RTVSPropertyOp22
 70
     1
102
RTVSPropertyOp23
 70
     1
102
RTVSPropertyOp24
 70
     1
102
RTVSPropertyOp25
 70
     1
102
RTVSPropertyOp26
 70
     1
102
RTVSPropertyOp27
 70
     1
102
RTVSPropertyOp28
 70
     1
102
RTVSPropertyOp29
 70
     1
102
RTVSPropertyOp30
 70
     1
102
RTVSPropertyOp31
 70
     1
102
RTVSPropertyOp32
 70
     1
  0
XRECORD
  5
A84
102
{ACAD_REACTORS
330
A83
102
}
330
A83
100
AcDbXrecord
280
     1
102
RTVSPropertyOp0
 70
     0
102
RTVSPropertyOp1
 70
     0
102
RTVSPropertyOp2
 70
     0
102
RTVSPropertyOp3
 70
     0
102
RTVSPropertyOp4
 70
     0
102
RTVSPropertyOp5
 70
     0
102
RTVSPropertyOp6
 70
     0
102
RTVSPropertyOp7
 70
     0
102
RTVSPropertyOp8
 70
     0
102
RTVSPropertyOp9
 70
     0
102
RTVSPropertyOp10
 70
     0
102
RTVSPropertyOp11
 70
     0
102
RTVSPropertyOp12
 70
     0
102
RTVSPropertyOp13
 70
     0
102
RTVSPropertyOp14
 70
     2
102
RTVSPropertyOp15
 70
     0
102
RTVSPropertyOp16
 70
     0
102
RTVSPropertyOp17
 70
     0
102
RTVSPropertyOp18
 70
     0
102
RTVSPropertyOp19
 70
     0
102
RTVSPropertyOp20
 70
     0
102
RTVSPropertyOp21
 70
     0
102
RTVSPropertyOp22
 70
     0
102
RTVSPropertyOp23
 70
     0
102
RTVSPropertyOp24
 70
     0
102
RTVSPropertyOp25
 70
     0
102
RTVSPropertyOp26
 70
     0
102
RTVSPropertyOp27
 70
     0
102
RTVSPropertyOp28
 70
     0
102
RTVSPropertyOp29
 70
     0
102
RTVSPropertyOp30
 70
     0
102
RTVSPropertyOp31
 70
     0
102
RTVSPropertyOp32
 70
     0
  0
XRECORD
  5
A6A
102
{ACAD_REACTORS
330
A69
102
}
330
A69
100
AcDbXrecord
280
     1
102
RTVSPropertyOp0
 70
     1
102
RTVSPropertyOp1
 70
     1
102
RTVSPropertyOp2
 70
     1
102
RTVSPropertyOp3
 70
     1
102
RTVSPropertyOp4
 70
     1
102
RTVSPropertyOp5
 70
     1
102
RTVSPropertyOp6
 70
     1
102
RTVSPropertyOp7
 70
     1
102
RTVSPropertyOp8
 70
     1
102
RTVSPropertyOp9
 70
     1
102
RTVSPropertyOp10
 70
     1
102
RTVSPropertyOp11
 70
     1
102
RTVSPropertyOp12
 70
     1
102
RTVSPropertyOp13
 70
     1
102
RTVSPropertyOp14
 70
     1
102
RTVSPropertyOp15
 70
     1
102
RTVSPropertyOp16
 70
     1
102
RTVSPropertyOp17
 70
     1
102
RTVSPropertyOp18
 70
     1
102
RTVSPropertyOp19
 70
     1
102
RTVSPropertyOp20
 70
     1
102
RTVSPropertyOp21
 70
     1
102
RTVSPropertyOp22
 70
     1
102
RTVSPropertyOp23
 70
     1
102
RTVSPropertyOp24
 70
     1
102
RTVSPropertyOp25
 70
     1
102
RTVSPropertyOp26
 70
     1
102
RTVSPropertyOp27
 70
     1
102
RTVSPropertyOp28
 70
     1
102
RTVSPropertyOp29
 70
     1
102
RTVSPropertyOp30
 70
     1
102
RTVSPropertyOp31
 70
     1
102
RTVSPropertyOp32
 70
     1
  0
XRECORD
  5
A80
102
{ACAD_REACTORS
330
A7F
102
}
330
A7F
100
AcDbXrecord
280
     1
102
RTVSPropertyOp0
 70
     1
102
RTVSPropertyOp1
 70
     1
102
RTVSPropertyOp2
 70
     1
102
RTVSPropertyOp3
 70
     1
102
RTVSPropertyOp4
 70
     1
102
RTVSPropertyOp5
 70
     1
102
RTVSPropertyOp6
 70
     1
102
RTVSPropertyOp7
 70
     1
102
RTVSPropertyOp8
 70
     1
102
RTVSPropertyOp9
 70
     1
102
RTVSPropertyOp10
 70
     1
102
RTVSPropertyOp11
 70
     1
102
RTVSPropertyOp12
 70
     1
102
RTVSPropertyOp13
 70
     1
102
RTVSPropertyOp14
 70
     1
102
RTVSPropertyOp15
 70
     1
102
RTVSPropertyOp16
 70
     1
102
RTVSPropertyOp17
 70
     1
102
RTVSPropertyOp18
 70
     1
102
RTVSPropertyOp19
 70
     1
102
RTVSPropertyOp20
 70
     1
102
RTVSPropertyOp21
 70
     1
102
RTVSPropertyOp22
 70
     1
102
RTVSPropertyOp23
 70
     1
102
RTVSPropertyOp24
 70
     1
102
RTVSPropertyOp25
 70
     1
102
RTVSPropertyOp26
 70
     1
102
RTVSPropertyOp27
 70
     1
102
RTVSPropertyOp28
 70
     1
102
RTVSPropertyOp29
 70
     1
102
RTVSPropertyOp30
 70
     1
102
RTVSPropertyOp31
 70
     1
102
RTVSPropertyOp32
 70
     1
  0
XRECORD
  5
A7E
102
{ACAD_REACTORS
330
A7D
102
}
330
A7D
100
AcDbXrecord
280
     1
102
RTVSPropertyOp0
 70
     1
102
RTVSPropertyOp1
 70
     1
102
RTVSPropertyOp2
 70
     1
102
RTVSPropertyOp3
 70
     1
102
RTVSPropertyOp4
 70
     1
102
RTVSPropertyOp5
 70
     1
102
RTVSPropertyOp6
 70
     1
102
RTVSPropertyOp7
 70
     1
102
RTVSPropertyOp8
 70
     1
102
RTVSPropertyOp9
 70
     1
102
RTVSPropertyOp10
 70
     1
102
RTVSPropertyOp11
 70
     1
102
RTVSPropertyOp12
 70
     1
102
RTVSPropertyOp13
 70
     1
102
RTVSPropertyOp14
 70
     1
102
RTVSPropertyOp15
 70
     1
102
RTVSPropertyOp16
 70
     1
102
RTVSPropertyOp17
 70
     1
102
RTVSPropertyOp18
 70
     1
102
RTVSPropertyOp19
 70
     1
102
RTVSPropertyOp20
 70
     1
102
RTVSPropertyOp21
 70
     1
102
RTVSPropertyOp22
 70
     1
102
RTVSPropertyOp23
 70
     1
102
RTVSPropertyOp24
 70
     1
102
RTVSPropertyOp25
 70
     1
102
RTVSPropertyOp26
 70
     1
102
RTVSPropertyOp27
 70
     1
102
RTVSPropertyOp28
 70
     1
102
RTVSPropertyOp29
 70
     1
102
RTVSPropertyOp30
 70
     1
102
RTVSPropertyOp31
 70
     1
102
RTVSPropertyOp32
 70
     1
  0
XRECORD
  5
A78
102
{ACAD_REACTORS
330
A77
102
}
330
A77
100
AcDbXrecord
280
     1
102
RTVSPropertyOp0
 70
     1
102
RTVSPropertyOp1
 70
     1
102
RTVSPropertyOp2
 70
     1
102
RTVSPropertyOp3
 70
     1
102
RTVSPropertyOp4
 70
     1
102
RTVSPropertyOp5
 70
     1
102
RTVSPropertyOp6
 70
     1
102
RTVSPropertyOp7
 70
     1
102
RTVSPropertyOp8
 70
     1
102
RTVSPropertyOp9
 70
     1
102
RTVSPropertyOp10
 70
     1
102
RTVSPropertyOp11
 70
     1
102
RTVSPropertyOp12
 70
     1
102
RTVSPropertyOp13
 70
     1
102
RTVSPropertyOp14
 70
     1
102
RTVSPropertyOp15
 70
     1
102
RTVSPropertyOp16
 70
     1
102
RTVSPropertyOp17
 70
     1
102
RTVSPropertyOp18
 70
     1
102
RTVSPropertyOp19
 70
     1
102
RTVSPropertyOp20
 70
     1
102
RTVSPropertyOp21
 70
     1
102
RTVSPropertyOp22
 70
     1
102
RTVSPropertyOp23
 70
     1
102
RTVSPropertyOp24
 70
     1
102
RTVSPropertyOp25
 70
     1
102
RTVSPropertyOp26
 70
     1
102
RTVSPropertyOp27
 70
     1
102
RTVSPropertyOp28
 70
     1
102
RTVSPropertyOp29
 70
     1
102
RTVSPropertyOp30
 70
     1
102
RTVSPropertyOp31
 70
     1
102
RTVSPropertyOp32
 70
     1
  0
XRECORD
  5
A7A
102
{ACAD_REACTORS
330
A79
102
}
330
A79
100
AcDbXrecord
280
     1
102
RTVSPropertyOp0
 70
     1
102
RTVSPropertyOp1
 70
     1
102
RTVSPropertyOp2
 70
     1
102
RTVSPropertyOp3
 70
     1
102
RTVSPropertyOp4
 70
     1
102
RTVSPropertyOp5
 70
     1
102
RTVSPropertyOp6
 70
     1
102
RTVSPropertyOp7
 70
     1
102
RTVSPropertyOp8
 70
     1
102
RTVSPropertyOp9
 70
     1
102
RTVSPropertyOp10
 70
     1
102
RTVSPropertyOp11
 70
     1
102
RTVSPropertyOp12
 70
     1
102
RTVSPropertyOp13
 70
     1
102
RTVSPropertyOp14
 70
     1
102
RTVSPropertyOp15
 70
     1
102
RTVSPropertyOp16
 70
     1
102
RTVSPropertyOp17
 70
     1
102
RTVSPropertyOp18
 70
     1
102
RTVSPropertyOp19
 70
     1
102
RTVSPropertyOp20
 70
     1
102
RTVSPropertyOp21
 70
     1
102
RTVSPropertyOp22
 70
     1
102
RTVSPropertyOp23
 70
     1
102
RTVSPropertyOp24
 70
     1
102
RTVSPropertyOp25
 70
     1
102
RTVSPropertyOp26
 70
     1
102
RTVSPropertyOp27
 70
     1
102
RTVSPropertyOp28
 70
     1
102
RTVSPropertyOp29
 70
     1
102
RTVSPropertyOp30
 70
     1
102
RTVSPropertyOp31
 70
     1
102
RTVSPropertyOp32
 70
     1
  0
XRECORD
  5
A70
102
{ACAD_REACTORS
330
A6F
102
}
330
A6F
100
AcDbXrecord
280
     1
102
RTVSPropertyOp0
 70
     1
102
RTVSPropertyOp1
 70
     1
102
RTVSPropertyOp2
 70
     1
102
RTVSPropertyOp3
 70
     1
102
RTVSPropertyOp4
 70
     1
102
RTVSPropertyOp5
 70
     1
102
RTVSPropertyOp6
 70
     1
102
RTVSPropertyOp7
 70
     1
102
RTVSPropertyOp8
 70
     1
102
RTVSPropertyOp9
 70
     1
102
RTVSPropertyOp10
 70
     1
102
RTVSPropertyOp11
 70
     1
102
RTVSPropertyOp12
 70
     1
102
RTVSPropertyOp13
 70
     1
102
RTVSPropertyOp14
 70
     1
102
RTVSPropertyOp15
 70
     1
102
RTVSPropertyOp16
 70
     1
102
RTVSPropertyOp17
 70
     1
102
RTVSPropertyOp18
 70
     1
102
RTVSPropertyOp19
 70
     1
102
RTVSPropertyOp20
 70
     1
102
RTVSPropertyOp21
 70
     1
102
RTVSPropertyOp22
 70
     1
102
RTVSPropertyOp23
 70
     1
102
RTVSPropertyOp24
 70
     1
102
RTVSPropertyOp25
 70
     1
102
RTVSPropertyOp26
 70
     1
102
RTVSPropertyOp27
 70
     1
102
RTVSPropertyOp28
 70
     1
102
RTVSPropertyOp29
 70
     1
102
RTVSPropertyOp30
 70
     1
102
RTVSPropertyOp31
 70
     1
102
RTVSPropertyOp32
 70
     1
  0
XRECORD
  5
A64
102
{ACAD_REACTORS
330
A63
102
}
330
A63
100
AcDbXrecord
280
     1
102
RTVSPropertyOp0
 70
     1
102
RTVSPropertyOp1
 70
     1
102
RTVSPropertyOp2
 70
     1
102
RTVSPropertyOp3
 70
     1
102
RTVSPropertyOp4
 70
     1
102
RTVSPropertyOp5
 70
     1
102
RTVSPropertyOp6
 70
     1
102
RTVSPropertyOp7
 70
     1
102
RTVSPropertyOp8
 70
     1
102
RTVSPropertyOp9
 70
     1
102
RTVSPropertyOp10
 70
     1
102
RTVSPropertyOp11
 70
     1
102
RTVSPropertyOp12
 70
     1
102
RTVSPropertyOp13
 70
     1
102
RTVSPropertyOp14
 70
     1
102
RTVSPropertyOp15
 70
     1
102
RTVSPropertyOp16
 70
     1
102
RTVSPropertyOp17
 70
     1
102
RTVSPropertyOp18
 70
     1
102
RTVSPropertyOp19
 70
     1
102
RTVSPropertyOp20
 70
     1
102
RTVSPropertyOp21
 70
     1
102
RTVSPropertyOp22
 70
     1
102
RTVSPropertyOp23
 70
     1
102
RTVSPropertyOp24
 70
     1
102
RTVSPropertyOp25
 70
     1
102
RTVSPropertyOp26
 70
     1
102
RTVSPropertyOp27
 70
     1
102
RTVSPropertyOp28
 70
     1
102
RTVSPropertyOp29
 70
     1
102
RTVSPropertyOp30
 70
     1
102
RTVSPropertyOp31
 70
     1
102
RTVSPropertyOp32
 70
     1
  0
XRECORD
  5
A7C
102
{ACAD_REACTORS
330
A7B
102
}
330
A7B
100
AcDbXrecord
280
     1
102
RTVSPropertyOp0
 70
     1
102
RTVSPropertyOp1
 70
     1
102
RTVSPropertyOp2
 70
     1
102
RTVSPropertyOp3
 70
     1
102
RTVSPropertyOp4
 70
     1
102
RTVSPropertyOp5
 70
     1
102
RTVSPropertyOp6
 70
     1
102
RTVSPropertyOp7
 70
     1
102
RTVSPropertyOp8
 70
     1
102
RTVSPropertyOp9
 70
     1
102
RTVSPropertyOp10
 70
     1
102
RTVSPropertyOp11
 70
     1
102
RTVSPropertyOp12
 70
     1
102
RTVSPropertyOp13
 70
     1
102
RTVSPropertyOp14
 70
     1
102
RTVSPropertyOp15
 70
     1
102
RTVSPropertyOp16
 70
     1
102
RTVSPropertyOp17
 70
     1
102
RTVSPropertyOp18
 70
     1
102
RTVSPropertyOp19
 70
     1
102
RTVSPropertyOp20
 70
     1
102
RTVSPropertyOp21
 70
     1
102
RTVSPropertyOp22
 70
     1
102
RTVSPropertyOp23
 70
     1
102
RTVSPropertyOp24
 70
     1
102
RTVSPropertyOp25
 70
     1
102
RTVSPropertyOp26
 70
     1
102
RTVSPropertyOp27
 70
     1
102
RTVSPropertyOp28
 70
     1
102
RTVSPropertyOp29
 70
     1
102
RTVSPropertyOp30
 70
     1
102
RTVSPropertyOp31
 70
     1
102
RTVSPropertyOp32
 70
     1
  0
ENDSEC
  0
EOF
