  0
SECTION
  2
HEADER
  9
$ACADVER
  1
AC1015
  9
$ACADMAINTVER
 70
    20
  9
$DWGCODEPAGE
  3
ANSI_932
  9
$INSBASE
 10
0.0
 20
0.0
 30
0.0
  9
$EXTMIN
 10
598.9750285234653
 20
-58.75493106348244
 30
0.0
  9
$EXTMAX
 10
790.9750285234653
 20
222.3671976665175
 30
0.0
  9
$LIMMIN
 10
0.0
 20
0.0
  9
$LIMMAX
 10
12.0
 20
9.0
  9
$ORTHOMODE
 70
     1
  9
$REGENMODE
 70
     1
  9
$FILLMODE
 70
     1
  9
$QTEXTMODE
 70
     0
  9
$MIRRTEXT
 70
     0
  9
$LTSCALE
 40
0.2
  9
$ATTMODE
 70
     1
  9
$TEXTSIZE
 40
3.2
  9
$TRACEWID
 40
0.05
  9
$TEXTSTYLE
  7
高3.2
  9
$CLAYER
  8
0
  9
$CELTYPE
  6
ByLayer
  9
$CECOLOR
 62
   256
  9
$CELTSCALE
 40
1.0
  9
$DISPSILH
 70
     0
  9
$DIMSCALE
 40
1.0
  9
$DIMASZ
 40
2.5
  9
$DIMEXO
 40
0.25
  9
$DIMDLI
 40
0.2
  9
$DIMRND
 40
0.0
  9
$DIMDLE
 40
0.0
  9
$DIMEXE
 40
1.25
  9
$DIMTP
 40
0.0
  9
$DIMTM
 40
0.0
  9
$DIMTXT
 40
3.0
  9
$DIMCEN
 40
0.0
  9
$DIMTSZ
 40
0.0
  9
$DIMTOL
 70
     0
  9
$DIMLIM
 70
     0
  9
$DIMTIH
 70
     0
  9
$DIMTOH
 70
     0
  9
$DIMSE1
 70
     0
  9
$DIMSE2
 70
     0
  9
$DIMTAD
 70
     3
  9
$DIMZIN
 70
     8
  9
$DIMBLK
  1
Open30
  9
$DIMASO
 70
     1
  9
$DIMSHO
 70
     1
  9
$DIMPOST
  1

  9
$DIMAPOST
  1

  9
$DIMALT
 70
     0
  9
$DIMALTD
 70
     3
  9
$DIMALTF
 40
0.03937007874016
  9
$DIMLFAC
 40
2.0
  9
$DIMTOFL
 70
     1
  9
$DIMTVP
 40
0.0
  9
$DIMTIX
 70
     0
  9
$DIMSOXD
 70
     0
  9
$DIMSAH
 70
     0
  9
$DIMBLK1
  1

  9
$DIMBLK2
  1

  9
$DIMSTYLE
  2
1／2
  9
$DIMCLRD
 70
     0
  9
$DIMCLRE
 70
     0
  9
$DIMCLRT
 70
     4
  9
$DIMTFAC
 40
1.0
  9
$DIMGAP
 40
0.625
  9
$DIMJUST
 70
     0
  9
$DIMSD1
 70
     0
  9
$DIMSD2
 70
     0
  9
$DIMTOLJ
 70
     0
  9
$DIMTZIN
 70
     8
  9
$DIMALTZ
 70
     0
  9
$DIMALTTZ
 70
     0
  9
$DIMUPT
 70
     1
  9
$DIMDEC
 70
     2
  9
$DIMTDEC
 70
     2
  9
$DIMALTU
 70
     2
  9
$DIMALTTD
 70
     3
  9
$DIMTXSTY
  7
Standard
  9
$DIMAUNIT
 70
     0
  9
$DIMADEC
 70
     1
  9
$DIMALTRND
 40
0.0
  9
$DIMAZIN
 70
     2
  9
$DIMDSEP
 70
    46
  9
$DIMATFIT
 70
     0
  9
$DIMFRAC
 70
     0
  9
$DIMLDRBLK
  1
Open30
  9
$DIMLUNIT
 70
     2
  9
$DIMLWD
 70
    -2
  9
$DIMLWE
 70
    -2
  9
$DIMTMOVE
 70
     0
  9
$LUNITS
 70
     2
  9
$LUPREC
 70
     4
  9
$SKETCHINC
 40
0.1
  9
$FILLETRAD
 40
0.0
  9
$AUNITS
 70
     0
  9
$AUPREC
 70
     0
  9
$MENU
  1
.
  9
$ELEVATION
 40
0.0
  9
$PELEVATION
 40
0.0
  9
$THICKNESS
 40
0.0
  9
$LIMCHECK
 70
     0
  9
$CHAMFERA
 40
0.0
  9
$CHAMFERB
 40
0.0
  9
$CHAMFERC
 40
0.0
  9
$CHAMFERD
 40
0.0
  9
$SKPOLY
 70
     0
  9
$TDCREATE
 40
2456237.859514468
  9
$TDUCREATE
 40
2456237.484514467
  9
$TDUPDATE
 40
2459744.391798750
  9
$TDUUPDATE
 40
2459744.016798750
  9
$TDINDWG
 40
0.2834410648
  9
$TDUSRTIMER
 40
0.2834408796
  9
$USRTIMER
 70
     1
  9
$ANGBASE
 50
0.0
  9
$ANGDIR
 70
     0
  9
$PDMODE
 70
     0
  9
$PDSIZE
 40
0.0
  9
$PLINEWID
 40
0.0
  9
$SPLFRAME
 70
     0
  9
$SPLINETYPE
 70
     6
  9
$SPLINESEGS
 70
     8
  9
$HANDSEED
  5
1741
  9
$SURFTAB1
 70
     6
  9
$SURFTAB2
 70
     6
  9
$SURFTYPE
 70
     6
  9
$SURFU
 70
     6
  9
$SURFV
 70
     6
  9
$UCSBASE
  2

  9
$UCSNAME
  2

  9
$UCSORG
 10
0.0
 20
0.0
 30
0.0
  9
$UCSXDIR
 10
1.0
 20
0.0
 30
0.0
  9
$UCSYDIR
 10
0.0
 20
1.0
 30
0.0
  9
$UCSORTHOREF
  2

  9
$UCSORTHOVIEW
 70
     0
  9
$UCSORGTOP
 10
0.0
 20
0.0
 30
0.0
  9
$UCSORGBOTTOM
 10
0.0
 20
0.0
 30
0.0
  9
$UCSORGLEFT
 10
0.0
 20
0.0
 30
0.0
  9
$UCSORGRIGHT
 10
0.0
 20
0.0
 30
0.0
  9
$UCSORGFRONT
 10
0.0
 20
0.0
 30
0.0
  9
$UCSORGBACK
 10
0.0
 20
0.0
 30
0.0
  9
$PUCSBASE
  2

  9
$PUCSNAME
  2

  9
$PUCSORG
 10
0.0
 20
0.0
 30
0.0
  9
$PUCSXDIR
 10
1.0
 20
0.0
 30
0.0
  9
$PUCSYDIR
 10
0.0
 20
1.0
 30
0.0
  9
$PUCSORTHOREF
  2

  9
$PUCSORTHOVIEW
 70
     0
  9
$PUCSORGTOP
 10
0.0
 20
0.0
 30
0.0
  9
$PUCSORGBOTTOM
 10
0.0
 20
0.0
 30
0.0
  9
$PUCSORGLEFT
 10
0.0
 20
0.0
 30
0.0
  9
$PUCSORGRIGHT
 10
0.0
 20
0.0
 30
0.0
  9
$PUCSORGFRONT
 10
0.0
 20
0.0
 30
0.0
  9
$PUCSORGBACK
 10
0.0
 20
0.0
 30
0.0
  9
$USERI1
 70
     0
  9
$USERI2
 70
     0
  9
$USERI3
 70
     0
  9
$USERI4
 70
     0
  9
$USERI5
 70
     0
  9
$USERR1
 40
0.0
  9
$USERR2
 40
0.0
  9
$USERR3
 40
0.0
  9
$USERR4
 40
0.0
  9
$USERR5
 40
0.0
  9
$WORLDVIEW
 70
     1
  9
$SHADEDGE
 70
     3
  9
$SHADEDIF
 70
    70
  9
$TILEMODE
 70
     1
  9
$MAXACTVP
 70
    64
  9
$PINSBASE
 10
0.0
 20
0.0
 30
0.0
  9
$PLIMCHECK
 70
     0
  9
$PEXTMIN
 10
0.0
 20
0.0
 30
0.0
  9
$PEXTMAX
 10
0.0
 20
0.0
 30
0.0
  9
$PLIMMIN
 10
0.0
 20
0.0
  9
$PLIMMAX
 10
12.0
 20
9.0
  9
$UNITMODE
 70
     0
  9
$VISRETAIN
 70
     1
  9
$PLINEGEN
 70
     0
  9
$PSLTSCALE
 70
     1
  9
$TREEDEPTH
 70
  3020
  9
$CMLSTYLE
  2
Standard
  9
$CMLJUST
 70
     0
  9
$CMLSCALE
 40
1.0
  9
$PROXYGRAPHICS
 70
     1
  9
$MEASUREMENT
 70
     1
  9
$CELWEIGHT
370
    -1
  9
$ENDCAPS
280
     0
  9
$JOINSTYLE
280
     0
  9
$LWDISPLAY
290
     0
  9
$INSUNITS
 70
     1
  9
$HYPERLINKBASE
  1

  9
$STYLESHEET
  1

  9
$XEDIT
290
     1
  9
$CEPSNTYPE
380
     0
  9
$PSTYLEMODE
290
     1
  9
$FINGERPRINTGUID
  2
{56757981-08C7-46F1-92FD-96438F5B3FB6}
  9
$VERSIONGUID
  2
{896B97D2-347F-4743-861F-C9AF2D9382C4}
  9
$EXTNAMES
290
     1
  9
$PSVPSCALE
 40
0.0
  9
$OLESTARTUP
290
     0
  0
ENDSEC
  0
SECTION
  2
CLASSES
  0
CLASS
  1
ACDBDICTIONARYWDFLT
  2
AcDbDictionaryWithDefault
  3
ObjectDBX Classes
 90
        0
280
     0
281
     0
  0
CLASS
  1
ACDBPLACEHOLDER
  2
AcDbPlaceHolder
  3
ObjectDBX Classes
 90
        0
280
     0
281
     0
  0
CLASS
  1
LAYOUT
  2
AcDbLayout
  3
ObjectDBX Classes
 90
        0
280
     0
281
     0
  0
CLASS
  1
DICTIONARYVAR
  2
AcDbDictionaryVar
  3
ObjectDBX Classes
 90
        0
280
     0
281
     0
  0
CLASS
  1
TABLESTYLE
  2
AcDbTableStyle
  3
ObjectDBX Classes
 90
     4095
280
     0
281
     0
  0
CLASS
  1
MATERIAL
  2
AcDbMaterial
  3
ObjectDBX Classes
 90
     1153
280
     0
281
     0
  0
CLASS
  1
VISUALSTYLE
  2
AcDbVisualStyle
  3
ObjectDBX Classes
 90
     4095
280
     0
281
     0
  0
CLASS
  1
SORTENTSTABLE
  2
AcDbSortentsTable
  3
ObjectDBX Classes
 90
        0
280
     0
281
     0
  0
CLASS
  1
DIMASSOC
  2
AcDbDimAssoc
  3
"AcDbDimAssoc|Product Desc:     AcDim ARX App For Dimension|Company:          Autodesk, Inc.|WEB Address:      www.autodesk.com"
 90
        0
280
     0
281
     0
  0
CLASS
  1
SCALE
  2
AcDbScale
  3
ObjectDBX Classes
 90
     1153
280
     0
281
     0
  0
CLASS
  1
MLEADERSTYLE
  2
AcDbMLeaderStyle
  3
ACDB_MLEADERSTYLE_CLASS
 90
     4095
280
     0
281
     0
  0
CLASS
  1
CELLSTYLEMAP
  2
AcDbCellStyleMap
  3
ObjectDBX Classes
 90
     1152
280
     0
281
     0
  0
CLASS
  1
AEC_REFEDIT_STATUS_TRACKER
  2
AecDbRefEditStatusTracker
  3
AecArchBase60|Product Desc: Autodesk Architectural Desktop 2007 |Company: Autodesk,Inc. |WEB Address: www.autodesk.com
 90
      129
280
     0
281
     0
  0
CLASS
  1
NPOCOLLECTION
  2
AcDbImpNonPersistentObjectsCollection
  3
ObjectDBX Classes
 90
     1153
280
     0
281
     0
  0
ENDSEC
  0
SECTION
  2
TABLES
  0
TABLE
  2
VPORT
  5
8
102
{ACAD_XDICTIONARY
360
88F
102
}
330
0
100
AcDbSymbolTable
 70
     1
  0
VPORT
  5
94
330
8
100
AcDbSymbolTableRecord
100
AcDbViewportTableRecord
  2
*Active
 70
     0
 10
0.0
 20
0.0
 11
1.0
 21
1.0
 12
799.5867221714624
 22
78.97920380196047
 13
0.0
 23
0.0
 14
0.5
 24
0.5
 15
0.5
 25
0.5
 16
0.0
 26
0.0
 36
1.0
 17
0.0
 27
0.0
 37
0.0
 40
537.633978908334
 41
1.585284280936454
 42
50.0
 43
0.0
 44
0.0
 50
0.0
 51
0.0
 71
     0
 72
  1000
 73
     1
 74
     2
 75
     0
 76
     0
 77
     0
 78
     0
281
     0
 65
     1
110
0.0
120
0.0
130
0.0
111
1.0
121
0.0
131
0.0
112
0.0
122
1.0
132
0.0
 79
     0
146
0.0
  0
ENDTAB
  0
TABLE
  2
LTYPE
  5
5
330
0
100
AcDbSymbolTable
 70
     3
  0
LTYPE
  5
14
330
5
100
AcDbSymbolTableRecord
100
AcDbLinetypeTableRecord
  2
ByBlock
 70
     0
  3

 72
    65
 73
     0
 40
0.0
  0
LTYPE
  5
15
330
5
100
AcDbSymbolTableRecord
100
AcDbLinetypeTableRecord
  2
ByLayer
 70
     0
  3

 72
    65
 73
     0
 40
0.0
  0
LTYPE
  5
16
330
5
100
AcDbSymbolTableRecord
100
AcDbLinetypeTableRecord
  2
Continuous
 70
     0
  3
Solid line
 72
    65
 73
     0
 40
0.0
  0
LTYPE
  5
148
330
5
100
AcDbSymbolTableRecord
100
AcDbLinetypeTableRecord
  2
CENTER
 70
     0
  3
Center ____ _ ____ _ ____ _ ____ _ ____ _ ____
 72
    65
 73
     4
 40
50.8
 49
31.75
 74
     0
 49
-6.349999999999997
 74
     0
 49
6.349999999999997
 74
     0
 49
-6.349999999999997
 74
     0
  0
ENDTAB
  0
TABLE
  2
LAYER
  5
2
102
{ACAD_XDICTIONARY
360
DD
102
}
330
0
100
AcDbSymbolTable
 70
     2
  0
LAYER
  5
10
102
{ACAD_XDICTIONARY
360
7BE
102
}
330
2
100
AcDbSymbolTableRecord
100
AcDbLayerTableRecord
  2
0
 70
     0
 62
     7
  6
Continuous
370
    -3
390
F
  0
LAYER
  5
D8
330
2
100
AcDbSymbolTableRecord
100
AcDbLayerTableRecord
  2
Defpoints
 70
     0
 62
     7
  6
Continuous
290
     0
370
    -3
390
F
  0
ENDTAB
  0
TABLE
  2
STYLE
  5
3
330
0
100
AcDbSymbolTable
 70
     6
  0
STYLE
  5
11
330
3
100
AcDbSymbolTableRecord
100
AcDbTextStyleTableRecord
  2
Standard
 70
     0
 40
0.0
 41
1.0
 50
0.0
 71
     0
 42
0.2
  3
txt.shx
  4
bigfont.shx
  0
STYLE
  5
11D
330
3
100
AcDbSymbolTableRecord
100
AcDbTextStyleTableRecord
  2
高3.2
 70
     0
 40
3.2
 41
1.0
 50
0.0
 71
     0
 42
3.2
  3
txt.shx
  4
bigfont.shx
  0
STYLE
  5
11E
330
3
100
AcDbSymbolTableRecord
100
AcDbTextStyleTableRecord
  2
高6.3
 70
     0
 40
6.299999999999998
 41
1.0
 50
0.0
 71
     0
 42
6.299999999999998
  3
txt.shx
  4
bigfont.shx
  0
STYLE
  5
11F
330
3
100
AcDbSymbolTableRecord
100
AcDbTextStyleTableRecord
  2
高2.5
 70
     0
 40
2.5
 41
1.0
 50
0.0
 71
     0
 42
0.2
  3
txt.shx
  4
bigfont.shx
  0
STYLE
  5
146
330
3
100
AcDbSymbolTableRecord
100
AcDbTextStyleTableRecord
  2
高4.5
 70
     0
 40
4.5
 41
1.0
 50
0.0
 71
     0
 42
6.299999999999998
  3
txt.shx
  4
bigfont.shx
  0
STYLE
  5
171
330
3
100
AcDbSymbolTableRecord
100
AcDbTextStyleTableRecord
  2
高2
 70
     0
 40
2.0
 41
1.0
 50
0.0
 71
     0
 42
6.299999999999998
  3
txt.shx
  4
bigfont.shx
  0
ENDTAB
  0
TABLE
  2
VIEW
  5
6
330
0
100
AcDbSymbolTable
 70
     0
  0
ENDTAB
  0
TABLE
  2
UCS
  5
7
330
0
100
AcDbSymbolTable
 70
     0
  0
ENDTAB
  0
TABLE
  2
APPID
  5
9
330
0
100
AcDbSymbolTable
 70
    10
  0
APPID
  5
12
330
9
100
AcDbSymbolTableRecord
100
AcDbRegAppTableRecord
  2
ACAD
 70
     0
  0
APPID
  5
DC
330
9
100
AcDbSymbolTableRecord
100
AcDbRegAppTableRecord
  2
ACAD_DSTYLE_DIMJOGGED_JOGANGLE_SYMBOL
 70
     0
  0
APPID
  5
3A5
330
9
100
AcDbSymbolTableRecord
100
AcDbRegAppTableRecord
  2
ACAD_EXEMPT_FROM_CAD_STANDARDS
 70
     0
  0
APPID
  5
8BE
330
9
100
AcDbSymbolTableRecord
100
AcDbRegAppTableRecord
  2
ACAD_DSTYLE_DIMARC_LENGTH_SYMBOL
 70
     0
  0
APPID
  5
8BF
330
9
100
AcDbSymbolTableRecord
100
AcDbRegAppTableRecord
  2
ACAD_DSTYLE_DIMEXT_LENGTH
 70
     0
  0
APPID
  5
8D4
330
9
100
AcDbSymbolTableRecord
100
AcDbRegAppTableRecord
  2
ACAD_MLEADERVER
 70
     0
  0
APPID
  5
BF5
330
9
100
AcDbSymbolTableRecord
100
AcDbRegAppTableRecord
  2
ACAD_DSTYLE_DIMRADIAL_EXTENSION
 70
     0
  0
APPID
  5
D80
330
9
100
AcDbSymbolTableRecord
100
AcDbRegAppTableRecord
  2
ACAD_DSTYLE_DIMJAG
 70
     0
  0
APPID
  5
D81
330
9
100
AcDbSymbolTableRecord
100
AcDbRegAppTableRecord
  2
ACAD_DSTYLE_DIMBREAK
 70
     0
  0
APPID
  5
D82
330
9
100
AcDbSymbolTableRecord
100
AcDbRegAppTableRecord
  2
ACAD_DSTYLE_DIMTALN
 70
     0
  0
ENDTAB
  0
TABLE
  2
DIMSTYLE
  5
A
330
0
100
AcDbSymbolTable
 70
    10
100
AcDbDimStyleTable
 71
     5
340
128
340
D9
340
DB
340
DA
340
127
  0
DIMSTYLE
105
D9
330
A
100
AcDbSymbolTableRecord
100
AcDbDimStyleTableRecord
  2
1：1
 70
     0
 41
2.5
 42
0.25
 43
0.2
 44
1.25
 73
     0
 74
     0
 77
     3
 78
     8
 79
     2
140
3.0
141
0.0
143
0.03937007874016
147
0.625
171
     3
172
     1
178
     4
179
     1
271
     2
272
     2
274
     3
283
     0
284
     8
288
     1
289
     0
340
11
341
C6
342
C6
1001
ACAD_DSTYLE_DIMARC_LENGTH_SYMBOL
1070
   379
1070
     2
1001
ACAD_DSTYLE_DIMEXT_LENGTH
1070
   378
1040
1.25
1001
ACAD_DSTYLE_DIMJOGGED_JOGANGLE_SYMBOL
1070
   384
1040
1.570796326794896
  0
DIMSTYLE
105
DA
330
A
100
AcDbSymbolTableRecord
100
AcDbDimStyleTableRecord
  2
2：1
 70
     0
 41
2.5
 42
0.25
 43
0.2
 44
1.25
 73
     0
 74
     0
 77
     3
 78
     8
 79
     2
140
3.0
141
0.0
143
0.03937007874016
144
0.5
147
0.625
171
     3
172
     1
178
     4
179
     1
271
     2
272
     2
274
     3
283
     0
284
     8
288
     1
289
     0
340
11
341
C6
342
C6
1001
ACAD_DSTYLE_DIMARC_LENGTH_SYMBOL
1070
   379
1070
     2
1001
ACAD_DSTYLE_DIMEXT_LENGTH
1070
   378
1040
1.25
1001
ACAD_DSTYLE_DIMJOGGED_JOGANGLE_SYMBOL
1070
   384
1040
1.570796326794896
  0
DIMSTYLE
105
DB
330
A
100
AcDbSymbolTableRecord
100
AcDbDimStyleTableRecord
  2
5：1
 70
     0
 41
2.5
 42
0.25
 43
0.2
 44
1.25
 73
     0
 74
     0
 77
     3
 78
     8
 79
     2
140
3.0
141
0.0
143
0.03937007874016
144
0.2
147
0.625
171
     3
172
     1
178
     4
179
     1
271
     2
272
     2
274
     3
283
     0
284
     8
288
     1
289
     0
340
11
341
C6
342
C6
1001
ACAD_DSTYLE_DIMARC_LENGTH_SYMBOL
1070
   379
1070
     2
1001
ACAD_DSTYLE_DIMEXT_LENGTH
1070
   378
1040
1.25
1001
ACAD_DSTYLE_DIMJOGGED_JOGANGLE_SYMBOL
1070
   384
1040
1.570796326794896
  0
DIMSTYLE
105
127
330
A
100
AcDbSymbolTableRecord
100
AcDbDimStyleTableRecord
  2
10：1
 70
     0
 41
2.5
 42
0.25
 43
0.2
 44
1.25
 73
     0
 74
     0
 77
     3
 78
     8
 79
     2
140
3.0
141
0.0
143
0.03937007874016
144
0.1
147
0.625
171
     3
172
     1
178
     4
179
     1
271
     2
272
     2
274
     3
283
     0
284
     8
288
     1
289
     0
340
11
341
C6
342
C6
1001
ACAD_DSTYLE_DIMARC_LENGTH_SYMBOL
1070
   379
1070
     2
1001
ACAD_DSTYLE_DIMEXT_LENGTH
1070
   378
1040
1.25
1001
ACAD_DSTYLE_DIMJOGGED_JOGANGLE_SYMBOL
1070
   384
1040
1.570796326794896
  0
DIMSTYLE
105
128
330
A
100
AcDbSymbolTableRecord
100
AcDbDimStyleTableRecord
  2
1／2
 70
     0
 41
2.5
 42
0.25
 43
0.2
 44
1.25
 73
     0
 74
     0
 77
     3
 78
     8
 79
     2
140
3.0
141
0.0
143
0.03937007874016
144
2.0
147
0.625
171
     3
172
     1
178
     4
179
     1
271
     2
272
     2
274
     3
283
     0
284
     8
288
     1
289
     0
340
11
341
C6
342
C6
1001
ACAD_DSTYLE_DIMARC_LENGTH_SYMBOL
1070
   379
1070
     2
1001
ACAD_DSTYLE_DIMEXT_LENGTH
1070
   378
1040
1.25
1001
ACAD_DSTYLE_DIMJOGGED_JOGANGLE_SYMBOL
1070
   384
1040
1.570796326794896
  0
DIMSTYLE
105
129
330
A
100
AcDbSymbolTableRecord
100
AcDbDimStyleTableRecord
  2
1／5
 70
     0
 41
2.5
 42
0.25
 43
0.2
 44
1.25
 73
     0
 74
     0
 77
     3
 78
     8
 79
     2
140
3.0
141
0.0
143
0.03937007874016
144
5.0
147
0.625
171
     3
172
     1
178
     4
179
     1
271
     2
272
     2
274
     3
283
     0
284
     8
288
     1
289
     0
340
11
341
C6
342
C6
1001
ACAD_DSTYLE_DIMARC_LENGTH_SYMBOL
1070
   379
1070
     2
1001
ACAD_DSTYLE_DIMEXT_LENGTH
1070
   378
1040
1.25
1001
ACAD_DSTYLE_DIMJOGGED_JOGANGLE_SYMBOL
1070
   384
1040
1.570796326794896
  0
DIMSTYLE
105
12A
330
A
100
AcDbSymbolTableRecord
100
AcDbDimStyleTableRecord
  2
1／10
 70
     0
 41
2.5
 42
0.25
 43
0.2
 44
1.25
 73
     0
 74
     0
 77
     3
 78
     8
 79
     2
140
3.0
141
0.0
143
0.03937007874016
144
10.0
147
0.625
171
     3
172
     1
178
     4
179
     1
271
     2
272
     2
274
     3
283
     0
284
     8
288
     1
289
     0
340
11
341
C6
342
C6
1001
ACAD_DSTYLE_DIMARC_LENGTH_SYMBOL
1070
   379
1070
     2
1001
ACAD_DSTYLE_DIMEXT_LENGTH
1070
   378
1040
1.25
1001
ACAD_DSTYLE_DIMJOGGED_JOGANGLE_SYMBOL
1070
   384
1040
1.570796326794896
  0
DIMSTYLE
105
D7D
330
A
100
AcDbSymbolTableRecord
100
AcDbDimStyleTableRecord
  2
1／4
 70
     0
 41
2.5
 42
0.25
 43
0.2
 44
1.25
 73
     0
 74
     0
 77
     3
 78
     8
 79
     2
140
3.0
141
0.0
143
0.03937007874016
144
4.0
147
0.625
171
     3
172
     1
178
     4
179
     1
271
     2
272
     2
274
     3
283
     0
284
     8
288
     1
289
     0
340
11
341
C6
342
C6
1001
ACAD_DSTYLE_DIMARC_LENGTH_SYMBOL
1070
   379
1070
     2
1001
ACAD_DSTYLE_DIMEXT_LENGTH
1070
   378
1040
1.25
1001
ACAD_DSTYLE_DIMJOGGED_JOGANGLE_SYMBOL
1070
   384
1040
1.570796326794896
  0
DIMSTYLE
105
D7E
330
A
100
AcDbSymbolTableRecord
100
AcDbDimStyleTableRecord
  2
1／3
 70
     0
 41
2.5
 42
0.25
 43
0.2
 44
1.25
 73
     0
 74
     0
 77
     3
 78
     8
 79
     2
140
3.0
141
0.0
143
0.03937007874016
144
3.0
147
0.625
171
     3
172
     1
178
     4
179
     1
271
     2
272
     2
274
     3
283
     0
284
     8
288
     1
289
     0
340
11
341
C6
342
C6
1001
ACAD_DSTYLE_DIMARC_LENGTH_SYMBOL
1070
   379
1070
     2
1001
ACAD_DSTYLE_DIMEXT_LENGTH
1070
   378
1040
1.25
1001
ACAD_DSTYLE_DIMJOGGED_JOGANGLE_SYMBOL
1070
   384
1040
1.570796326794896
  0
DIMSTYLE
105
D7F
330
A
100
AcDbSymbolTableRecord
100
AcDbDimStyleTableRecord
  2
FREE
 70
     0
 41
2.5
 42
0.25
 43
0.2
 44
1.25
 73
     0
 74
     0
 77
     3
 78
     8
 79
     2
140
3.0
141
0.0
143
0.03937007874016
147
0.625
171
     3
172
     1
178
     4
179
     1
271
     2
272
     2
274
     3
283
     0
284
     8
288
     1
289
     0
340
11
341
C6
342
C6
1001
ACAD_DSTYLE_DIMBREAK
1070
   391
1040
3.75
1001
ACAD_DSTYLE_DIMJAG
1070
   388
1040
1.5
1001
ACAD_DSTYLE_DIMTALN
1070
   392
1070
     0
1001
ACAD_DSTYLE_DIMARC_LENGTH_SYMBOL
1070
   379
1070
     2
1001
ACAD_DSTYLE_DIMEXT_LENGTH
1070
   378
1040
1.25
1001
ACAD_DSTYLE_DIMJOGGED_JOGANGLE_SYMBOL
1070
   384
1040
1.570796326794896
  0
ENDTAB
  0
TABLE
  2
BLOCK_RECORD
  5
1
330
0
100
AcDbSymbolTable
 70
    20
  0
BLOCK_RECORD
  5
1F
102
{ACAD_XDICTIONARY
360
324
102
}
330
1
100
AcDbSymbolTableRecord
100
AcDbBlockTableRecord
  2
*Model_Space
340
22
  0
BLOCK_RECORD
  5
58
330
1
100
AcDbSymbolTableRecord
100
AcDbBlockTableRecord
  2
*Paper_Space
340
59
  0
BLOCK_RECORD
  5
5D
330
1
100
AcDbSymbolTableRecord
100
AcDbBlockTableRecord
  2
*Paper_Space0
340
5E
  0
BLOCK_RECORD
  5
C6
330
1
100
AcDbSymbolTableRecord
100
AcDbBlockTableRecord
  2
_Open30
340
0
102
{BLKREFS
331
12A7
331
12A8
331
12B2
331
12B3
331
12BD
331
12BE
331
12C8
331
12C9
331
12D3
331
12D4
331
12DE
331
12DF
331
12E9
331
12EA
331
12F4
331
12F5
331
12FF
331
1300
331
1308
331
1309
331
15AB
331
15AC
331
15B4
331
15B5
331
15BD
331
15BE
331
15C5
331
15CC
331
15CD
331
15D7
331
15D8
331
15E4
331
15E5
331
15ED
331
15EE
102
}
  0
BLOCK_RECORD
  5
BA5
330
1
100
AcDbSymbolTableRecord
100
AcDbBlockTableRecord
  2
*D2
340
0
  0
BLOCK_RECORD
  5
BBD
330
1
100
AcDbSymbolTableRecord
100
AcDbBlockTableRecord
  2
*D3
340
0
  0
BLOCK_RECORD
  5
BDE
330
1
100
AcDbSymbolTableRecord
100
AcDbBlockTableRecord
  2
*D4
340
0
  0
BLOCK_RECORD
  5
BF7
330
1
100
AcDbSymbolTableRecord
100
AcDbBlockTableRecord
  2
*D5
340
0
  0
BLOCK_RECORD
  5
C09
330
1
100
AcDbSymbolTableRecord
100
AcDbBlockTableRecord
  2
*D6
340
0
  0
BLOCK_RECORD
  5
C25
330
1
100
AcDbSymbolTableRecord
100
AcDbBlockTableRecord
  2
*D7
340
0
  0
BLOCK_RECORD
  5
C4C
330
1
100
AcDbSymbolTableRecord
100
AcDbBlockTableRecord
  2
*D8
340
0
  0
BLOCK_RECORD
  5
D62
330
1
100
AcDbSymbolTableRecord
100
AcDbBlockTableRecord
  2
*D9
340
0
  0
BLOCK_RECORD
  5
1218
330
1
100
AcDbSymbolTableRecord
100
AcDbBlockTableRecord
  2
*D10
340
0
  0
BLOCK_RECORD
  5
1226
330
1
100
AcDbSymbolTableRecord
100
AcDbBlockTableRecord
  2
*D11
340
0
  0
BLOCK_RECORD
  5
1234
330
1
100
AcDbSymbolTableRecord
100
AcDbBlockTableRecord
  2
*D12
340
0
  0
BLOCK_RECORD
  5
1242
330
1
100
AcDbSymbolTableRecord
100
AcDbBlockTableRecord
  2
*D13
340
0
  0
BLOCK_RECORD
  5
1250
330
1
100
AcDbSymbolTableRecord
100
AcDbBlockTableRecord
  2
*D14
340
0
  0
BLOCK_RECORD
  5
125E
330
1
100
AcDbSymbolTableRecord
100
AcDbBlockTableRecord
  2
*D15
340
0
  0
BLOCK_RECORD
  5
126C
330
1
100
AcDbSymbolTableRecord
100
AcDbBlockTableRecord
  2
*D16
340
0
  0
BLOCK_RECORD
  5
127A
330
1
100
AcDbSymbolTableRecord
100
AcDbBlockTableRecord
  2
*D17
340
0
  0
BLOCK_RECORD
  5
1288
330
1
100
AcDbSymbolTableRecord
100
AcDbBlockTableRecord
  2
*D18
340
0
  0
BLOCK_RECORD
  5
1296
330
1
100
AcDbSymbolTableRecord
100
AcDbBlockTableRecord
  2
*D19
340
0
  0
ENDTAB
  0
ENDSEC
  0
SECTION
  2
BLOCKS
  0
BLOCK
  5
20
330
1F
100
AcDbEntity
  8
0
100
AcDbBlockBegin
  2
*Model_Space
 70
     0
 10
0.0
 20
0.0
 30
0.0
  3
*Model_Space
  1

  0
ENDBLK
  5
21
330
1F
100
AcDbEntity
  8
0
100
AcDbBlockEnd
  0
BLOCK
  5
5A
330
58
100
AcDbEntity
 67
     1
  8
0
100
AcDbBlockBegin
  2
*Paper_Space
 70
     0
 10
0.0
 20
0.0
 30
0.0
  3
*Paper_Space
  1

  0
ENDBLK
  5
5B
330
58
100
AcDbEntity
 67
     1
  8
0
100
AcDbBlockEnd
  0
BLOCK
  5
5F
330
5D
100
AcDbEntity
 67
     1
  8
0
100
AcDbBlockBegin
  2
*Paper_Space0
 70
     0
 10
0.0
 20
0.0
 30
0.0
  3
*Paper_Space0
  1

  0
ENDBLK
  5
60
330
5D
100
AcDbEntity
 67
     1
  8
0
100
AcDbBlockEnd
  0
BLOCK
  5
C7
330
C6
100
AcDbEntity
  8
0
100
AcDbBlockBegin
  2
_Open30
 70
     0
 10
0.0
 20
0.0
 30
0.0
  3
_Open30
  1

  0
LINE
  5
C8
330
C6
100
AcDbEntity
  8
0
  6
ByBlock
 62
     0
370
    -2
100
AcDbLine
 10
-1.0
 20
0.267949
 30
0.0
 11
0.0
 21
0.0
 31
0.0
  0
LINE
  5
C9
330
C6
100
AcDbEntity
  8
0
  6
ByBlock
 62
     0
370
    -2
100
AcDbLine
 10
0.0
 20
0.0
 30
0.0
 11
-1.0
 21
-0.267949
 31
0.0
  0
LINE
  5
CA
330
C6
100
AcDbEntity
  8
0
  6
ByBlock
 62
     0
370
    -2
100
AcDbLine
 10
0.0
 20
0.0
 30
0.0
 11
-1.0
 21
0.0
 31
0.0
  0
ENDBLK
  5
CB
330
C6
100
AcDbEntity
  8
0
100
AcDbBlockEnd
  0
BLOCK
  5
BA6
330
BA5
100
AcDbEntity
  8
0
100
AcDbBlockBegin
  2
*D2
 70
     1
 10
0.0
 20
0.0
 30
0.0
  3
*D2
  1

  0
LINE
  5
15A8
330
BA5
100
AcDbEntity
  8
0
 62
     0
370
    -2
100
AcDbLine
 10
682.2882648816722
 20
128.5616936615702
 30
0.0
 11
682.2882648816722
 21
170.9267320476483
 31
0.0
  0
LINE
  5
15A9
330
BA5
100
AcDbEntity
  8
0
 62
     0
370
    -2
100
AcDbLine
 10
637.2882648816721
 20
128.5616936615702
 30
0.0
 11
637.2882648816721
 21
170.9267320476483
 31
0.0
  0
LINE
  5
15AA
330
BA5
100
AcDbEntity
  8
0
 62
     0
370
    -2
100
AcDbLine
 10
679.7882648816722
 20
169.6767320476483
 30
0.0
 11
639.7882648816721
 21
169.6767320476483
 31
0.0
  0
INSERT
  5
15AB
330
BA5
100
AcDbEntity
  8
0
 62
     0
370
    -2
100
AcDbBlockReference
  2
_Open30
 10
682.2882648816722
 20
169.6767320476483
 30
0.0
 41
2.5
 42
2.5
 43
2.5
  0
INSERT
  5
15AC
330
BA5
100
AcDbEntity
  8
0
 62
     0
370
    -2
100
AcDbBlockReference
  2
_Open30
 10
637.2882648816721
 20
169.6767320476483
 30
0.0
 41
2.5
 42
2.5
 43
2.5
 50
180.0
  0
MTEXT
  5
15AD
330
BA5
100
AcDbEntity
  8
0
 62
     4
100
AcDbMText
 10
659.9539443545727
 20
171.8017320476483
 30
0.0
 40
3.0
 41
0.0
 71
     5
 72
     1
  1
%%C90
 73
     1
 44
1.0
1001
ACAD
1000
MTEXTBEGIN
1070
    73
1070
     1
1070
    44
1040
1.0
1070
    74
1070
     0
1000
MTEXTEND
  0
POINT
  5
15AE
330
BA5
100
AcDbEntity
  8
Defpoints
 62
     0
100
AcDbPoint
 10
682.2882648816722
 20
128.3116936615702
 30
0.0
  0
POINT
  5
15AF
330
BA5
100
AcDbEntity
  8
Defpoints
 62
     0
100
AcDbPoint
 10
637.2882648816721
 20
128.3116936615702
 30
0.0
  0
POINT
  5
15B0
330
BA5
100
AcDbEntity
  8
Defpoints
 62
     0
100
AcDbPoint
 10
637.2882648816721
 20
169.6767320476483
 30
0.0
  0
ENDBLK
  5
BA7
330
BA5
100
AcDbEntity
  8
0
100
AcDbBlockEnd
  0
BLOCK
  5
BBE
330
BBD
100
AcDbEntity
  8
0
100
AcDbBlockBegin
  2
*D3
 70
     1
 10
0.0
 20
0.0
 30
0.0
  3
*D3
  1

  0
LINE
  5
15B1
330
BBD
100
AcDbEntity
  8
0
 62
     0
370
    -2
100
AcDbLine
 10
659.6895702604
 20
154.6614731066886
 30
0.0
 11
628.0614646737579
 21
154.6614731066886
 31
0.0
  0
LINE
  5
15B2
330
BBD
100
AcDbEntity
  8
0
 62
     0
370
    -2
100
AcDbLine
 10
645.5879473343665
 20
92.6616936615702
 30
0.0
 11
628.0614646737579
 21
92.6616936615702
 31
0.0
  0
LINE
  5
15B3
330
BBD
100
AcDbEntity
  8
0
 62
     0
370
    -2
100
AcDbLine
 10
629.311464673758
 20
152.1614731066886
 30
0.0
 11
629.311464673758
 21
95.1616936615702
 31
0.0
  0
INSERT
  5
15B4
330
BBD
100
AcDbEntity
  8
0
 62
     0
370
    -2
100
AcDbBlockReference
  2
_Open30
 10
629.311464673758
 20
154.6614731066886
 30
0.0
 41
2.5
 42
2.5
 43
2.5
 50
90.0
  0
INSERT
  5
15B5
330
BBD
100
AcDbEntity
  8
0
 62
     0
370
    -2
100
AcDbBlockReference
  2
_Open30
 10
629.311464673758
 20
92.6616936615702
 30
0.0
 41
2.5
 42
2.5
 43
2.5
 50
270.0
  0
MTEXT
  5
15B6
330
BBD
100
AcDbEntity
  8
0
 62
     4
100
AcDbMText
 10
627.1864646737579
 20
125.0373704559117
 30
0.0
 40
3.0
 41
0.0
 71
     5
 72
     1
  1
124
 11
0.0000000000000001
 21
1.0
 31
0.0
 73
     1
 44
1.0
1001
ACAD
1000
MTEXTBEGIN
1070
    73
1070
     1
1070
    44
1040
1.0
1070
    74
1070
     0
1000
MTEXTEND
  0
POINT
  5
15B7
330
BBD
100
AcDbEntity
  8
Defpoints
 62
     0
100
AcDbPoint
 10
659.9395702604
 20
154.6614731066886
 30
0.0
  0
POINT
  5
15B8
330
BBD
100
AcDbEntity
  8
Defpoints
 62
     0
100
AcDbPoint
 10
645.8379473343666
 20
92.6616936615702
 30
0.0
  0
POINT
  5
15B9
330
BBD
100
AcDbEntity
  8
Defpoints
 62
     0
100
AcDbPoint
 10
629.311464673758
 20
92.6616936615702
 30
0.0
  0
ENDBLK
  5
BBF
330
BBD
100
AcDbEntity
  8
0
100
AcDbBlockEnd
  0
BLOCK
  5
BDF
330
BDE
100
AcDbEntity
  8
0
100
AcDbBlockBegin
  2
*D4
 70
     1
 10
0.0
 20
0.0
 30
0.0
  3
*D4
  1

  0
LINE
  5
15BA
330
BDE
100
AcDbEntity
  8
0
 62
     0
370
    -2
100
AcDbLine
 10
659.5382648816721
 20
154.6615455289249
 30
0.0
 11
621.7224605857262
 21
154.6615455289249
 31
0.0
  0
LINE
  5
15BB
330
BDE
100
AcDbEntity
  8
0
 62
     0
370
    -2
100
AcDbLine
 10
647.8879473343665
 20
85.41169366157012
 30
0.0
 11
621.7224605857262
 21
85.41169366157012
 31
0.0
  0
LINE
  5
15BC
330
BDE
100
AcDbEntity
  8
0
 62
     0
370
    -2
100
AcDbLine
 10
622.9724605857263
 20
152.1615455289249
 30
0.0
 11
622.9724605857263
 21
87.91169366157012
 31
0.0
  0
INSERT
  5
15BD
330
BDE
100
AcDbEntity
  8
0
 62
     0
370
    -2
100
AcDbBlockReference
  2
_Open30
 10
622.9724605857263
 20
154.6615455289249
 30
0.0
 41
2.5
 42
2.5
 43
2.5
 50
90.0
  0
INSERT
  5
15BE
330
BDE
100
AcDbEntity
  8
0
 62
     0
370
    -2
100
AcDbBlockReference
  2
_Open30
 10
622.9724605857263
 20
85.41169366157012
 30
0.0
 41
2.5
 42
2.5
 43
2.5
 50
270.0
  0
MTEXT
  5
15BF
330
BDE
100
AcDbEntity
  8
0
 62
     4
100
AcDbMText
 10
620.8474605857262
 20
124.0698833202497
 30
0.0
 40
3.0
 41
0.0
 71
     5
 72
     1
  1
138.5
 11
0.0000000000000001
 21
1.0
 31
0.0
 73
     1
 44
1.0
1001
ACAD
1000
MTEXTBEGIN
1070
    73
1070
     1
1070
    44
1040
1.0
1070
    74
1070
     0
1000
MTEXTEND
  0
POINT
  5
15C0
330
BDE
100
AcDbEntity
  8
Defpoints
 62
     0
100
AcDbPoint
 10
659.7882648816721
 20
154.6615455289249
 30
0.0
  0
POINT
  5
15C1
330
BDE
100
AcDbEntity
  8
Defpoints
 62
     0
100
AcDbPoint
 10
648.1379473343666
 20
85.41169366157012
 30
0.0
  0
POINT
  5
15C2
330
BDE
100
AcDbEntity
  8
Defpoints
 62
     0
100
AcDbPoint
 10
622.9724605857263
 20
85.41169366157012
 30
0.0
  0
ENDBLK
  5
BE0
330
BDE
100
AcDbEntity
  8
0
100
AcDbBlockEnd
  0
BLOCK
  5
BF8
330
BF7
100
AcDbEntity
  8
0
100
AcDbBlockBegin
  2
*D5
 70
     1
 10
0.0
 20
0.0
 30
0.0
  3
*D5
  1

  0
LINE
  5
15C3
330
BF7
100
AcDbEntity
  8
0
 62
     0
370
    -2
100
AcDbLine
 10
644.9492398769252
 20
29.27140406594029
 30
0.0
 11
624.7547865884223
 21
32.25402635025659
 31
0.0
  0
LINE
  5
15C4
330
BF7
100
AcDbEntity
  8
0
 62
     0
370
    -2
100
AcDbLine
 10
659.7882648816727
 20
27.07975242653274
 30
0.0
 11
647.4224107110496
 21
28.90612879270573
 31
0.0
  0
INSERT
  5
15C5
330
BF7
100
AcDbEntity
  8
0
 62
     0
370
    -2
100
AcDbBlockReference
  2
_Open30
 10
647.4224107110496
 20
28.90612879270573
 30
0.0
 41
2.5
 42
2.5
 43
2.5
 50
351.5984315595407
  0
MTEXT
  5
15C6
330
BF7
100
AcDbEntity
  8
0
 62
     4
100
AcDbMText
 10
629.6406366138017
 20
33.68046230377837
 30
0.0
 40
3.0
 41
0.0
 71
     5
 72
     1
  1
R25
 11
0.9892683336497468
 21
-0.1461101092938247
 31
0.0
 73
     1
 44
1.0
1001
ACAD
1000
MTEXTBEGIN
1070
    73
1070
     1
1070
    44
1040
1.0
1070
    74
1070
     0
1000
MTEXTEND
  0
POINT
  5
15C7
330
BF7
100
AcDbEntity
  8
Defpoints
 62
     0
100
AcDbPoint
 10
647.4224107110496
 20
28.90612879270573
 30
0.0
  0
POINT
  5
15C8
330
BF7
100
AcDbEntity
  8
Defpoints
 62
     0
100
AcDbPoint
 10
659.7882648816727
 20
27.07975242653274
 30
0.0
  0
ENDBLK
  5
BF9
330
BF7
100
AcDbEntity
  8
0
100
AcDbBlockEnd
  0
BLOCK
  5
C0A
330
C09
100
AcDbEntity
  8
0
100
AcDbBlockBegin
  2
*D6
 70
     1
 10
0.0
 20
0.0
 30
0.0
  3
*D6
  1

  0
LINE
  5
15C9
330
C09
100
AcDbEntity
  8
0
 62
     0
370
    -2
100
AcDbLine
 10
635.5550458731511
 20
13.08869690863185
 30
0.0
 11
625.9254968067997
 21
7.529074162999149
 31
0.0
  0
LINE
  5
15CA
330
C09
100
AcDbEntity
  8
0
 62
     0
370
    -2
100
AcDbLine
 10
684.021483890193
 20
13.08869690863183
 30
0.0
 11
693.6510329565447
 21
7.529074162999021
 31
0.0
  0
ARC
  5
15CB
330
C09
100
AcDbEntity
  8
0
 62
     0
370
    -2
100
AcDbCircle
 10
659.7882648816721
 20
27.07975242653254
 30
0.0
 40
37.85135652706693
100
AcDbArc
 50
213.7849501409951
 51
326.2150498590047
  0
INSERT
  5
15CC
330
C09
100
AcDbEntity
  8
0
 62
     0
370
    -2
100
AcDbBlockReference
  2
_Open30
 10
627.0080285615302
 20
8.154074162999144
 30
0.0
 41
2.5
 42
2.5
 43
2.5
 50
121.8924750704974
  0
INSERT
  5
15CD
330
C09
100
AcDbEntity
  8
0
 62
     0
370
    -2
100
AcDbBlockReference
  2
_Open30
 10
692.5685012018139
 20
8.154074162999028
 30
0.0
 41
2.5
 42
2.5
 43
2.5
 50
58.10752492950236
  0
MTEXT
  5
15CE
330
C09
100
AcDbEntity
  8
0
 62
     4
100
AcDbMText
 10
660.6899985718849
 20
-8.635222402676468
 30
0.0
 40
3.0
 41
0.0
 71
     5
 72
     1
  1
120\U+00B0
 11
0.9996814201344797
 21
0.02524001263688
 31
0.0
 73
     1
 44
1.0
1001
ACAD
1000
MTEXTBEGIN
1070
    73
1070
     1
1070
    44
1040
1.0
1070
    74
1070
     0
1000
MTEXTEND
  0
POINT
  5
15CF
330
C09
100
AcDbEntity
  8
Defpoints
 62
     0
100
AcDbPoint
 10
646.8423384972136
 20
-8.488887988688766
 30
0.0
  0
POINT
  5
15D0
330
C09
100
AcDbEntity
  8
Defpoints
 62
     0
100
AcDbPoint
 10
659.7882648816721
 20
27.07975242653254
 30
0.0
  0
POINT
  5
15D1
330
C09
100
AcDbEntity
  8
Defpoints
 62
     0
100
AcDbPoint
 10
659.7882648816721
 20
27.07975242653254
 30
0.0
  0
POINT
  5
15D2
330
C09
100
AcDbEntity
  8
Defpoints
 62
     0
100
AcDbPoint
 10
635.7715522240972
 20
13.21369690863185
 30
0.0
  0
POINT
  5
15D3
330
C09
100
AcDbEntity
  8
Defpoints
 62
     0
100
AcDbPoint
 10
683.8049775392469
 20
13.21369690863183
 30
0.0
  0
ENDBLK
  5
C0B
330
C09
100
AcDbEntity
  8
0
100
AcDbBlockEnd
  0
BLOCK
  5
C26
330
C25
100
AcDbEntity
  8
0
100
AcDbBlockBegin
  2
*D7
 70
     1
 10
0.0
 20
0.0
 30
0.0
  3
*D7
  1

  0
LINE
  5
15D4
330
C25
100
AcDbEntity
  8
0
 62
     0
370
    -2
100
AcDbLine
 10
659.788264881672
 20
55.06186346233395
 30
0.0
 11
659.788264881672
 21
66.4091186679922
 31
0.0
  0
LINE
  5
15D5
330
C25
100
AcDbEntity
  8
0
 62
     0
370
    -2
100
AcDbLine
 10
635.555045873151
 20
13.08869690863179
 30
0.0
 11
625.7280346018258
 21
7.415069305802688
 31
0.0
  0
ARC
  5
15D6
330
C25
100
AcDbEntity
  8
0
 62
     0
370
    -2
100
AcDbCircle
 10
659.788264881672
 20
27.07975242653259
 30
0.0
 40
38.07936624145965
100
AcDbArc
 50
93.76227863550663
 51
206.2377213644935
  0
INSERT
  5
15D7
330
C25
100
AcDbEntity
  8
0
 62
     0
370
    -2
100
AcDbBlockReference
  2
_Open30
 10
659.7882648816719
 20
65.1591186679922
 30
0.0
 41
2.5
 42
2.5
 43
2.5
 50
1.8811393177533
  0
INSERT
  5
15D8
330
C25
100
AcDbEntity
  8
0
 62
     0
370
    -2
100
AcDbBlockReference
  2
_Open30
 10
626.8105663565564
 20
8.040069305802717
 30
0.0
 41
2.5
 42
2.5
 43
2.5
 50
298.1188606822468
  0
MTEXT
  5
15D9
330
C25
100
AcDbEntity
  8
0
 62
     4
100
AcDbMText
 10
621.7334660498863
 20
40.04984690381909
 30
0.0
 40
3.0
 41
0.0
 71
     5
 72
     1
  1
120\U+00B0
 11
0.3226041271087479
 21
0.946533980991915
 31
0.0
 73
     1
 44
1.0
1001
ACAD
1000
MTEXTBEGIN
1070
    73
1070
     1
1070
    44
1040
1.0
1070
    74
1070
     0
1000
MTEXTEND
  0
POINT
  5
15DA
330
C25
100
AcDbEntity
  8
Defpoints
 62
     0
100
AcDbPoint
 10
635.3113200769457
 20
56.25023933329512
 30
0.0
  0
POINT
  5
15DB
330
C25
100
AcDbEntity
  8
Defpoints
 62
     0
100
AcDbPoint
 10
659.7882648816719
 20
-0.6523586092687879
 30
0.0
  0
POINT
  5
15DC
330
C25
100
AcDbEntity
  8
Defpoints
 62
     0
100
AcDbPoint
 10
659.788264881672
 20
27.07975242653259
 30
0.0
  0
POINT
  5
15DD
330
C25
100
AcDbEntity
  8
Defpoints
 62
     0
100
AcDbPoint
 10
635.7715522240972
 20
13.21369690863182
 30
0.0
  0
POINT
  5
15DE
330
C25
100
AcDbEntity
  8
Defpoints
 62
     0
100
AcDbPoint
 10
659.788264881672
 20
54.81186346233394
 30
0.0
  0
ENDBLK
  5
C27
330
C25
100
AcDbEntity
  8
0
100
AcDbBlockEnd
  0
BLOCK
  5
C4D
330
C4C
100
AcDbEntity
  8
0
100
AcDbBlockBegin
  2
*D8
 70
     1
 10
0.0
 20
0.0
 30
0.0
  3
*D8
  1

  0
LINE
  5
15DF
330
C4C
100
AcDbEntity
  8
0
 62
     0
370
    -2
100
AcDbLine
 10
645.5879473343665
 20
92.6616936615702
 30
0.0
 11
628.0614646737579
 21
92.6616936615702
 31
0.0
  0
LINE
  5
15E0
330
C4C
100
AcDbEntity
  8
0
 62
     0
370
    -2
100
AcDbLine
 10
647.8879473343665
 20
85.41169366157021
 30
0.0
 11
628.0614646737579
 21
85.41169366157021
 31
0.0
  0
LINE
  5
15E1
330
C4C
100
AcDbEntity
  8
0
 62
     0
370
    -2
100
AcDbLine
 10
629.311464673758
 20
95.1616936615702
 30
0.0
 11
629.311464673758
 21
97.66169366157022
 31
0.0
  0
LINE
  5
15E2
330
C4C
100
AcDbEntity
  8
0
 62
     0
370
    -2
100
AcDbLine
 10
629.311464673758
 20
82.91169366157021
 30
0.0
 11
629.311464673758
 21
70.16169366157021
 31
0.0
  0
LINE
  5
15E3
330
C4C
100
AcDbEntity
  8
0
 62
     0
370
    -2
100
AcDbLine
 10
629.311464673758
 20
92.6616936615702
 30
0.0
 11
629.311464673758
 21
85.41169366157021
 31
0.0
  0
INSERT
  5
15E4
330
C4C
100
AcDbEntity
  8
0
 62
     0
370
    -2
100
AcDbBlockReference
  2
_Open30
 10
629.311464673758
 20
92.6616936615702
 30
0.0
 41
2.5
 42
2.5
 43
2.5
 50
270.0
  0
INSERT
  5
15E5
330
C4C
100
AcDbEntity
  8
0
 62
     0
370
    -2
100
AcDbBlockReference
  2
_Open30
 10
629.311464673758
 20
85.41169366157021
 30
0.0
 41
2.5
 42
2.5
 43
2.5
 50
90.0
  0
MTEXT
  5
15E6
330
C4C
100
AcDbEntity
  8
0
 62
     4
100
AcDbMText
 10
624.686464673758
 20
75.28669366157031
 30
0.0
 40
3.0
 41
0.0
 71
     5
 72
     1
  1
14.5\P(M4)
 11
0.0000000000000001
 21
1.0
 31
0.0
 73
     1
 44
1.0
1001
ACAD
1000
MTEXTBEGIN
1070
    73
1070
     1
1070
    44
1040
1.0
1070
    74
1070
     0
1000
MTEXTEND
  0
POINT
  5
15E7
330
C4C
100
AcDbEntity
  8
Defpoints
 62
     0
100
AcDbPoint
 10
645.8379473343666
 20
92.6616936615702
 30
0.0
  0
POINT
  5
15E8
330
C4C
100
AcDbEntity
  8
Defpoints
 62
     0
100
AcDbPoint
 10
648.1379473343666
 20
85.41169366157021
 30
0.0
  0
POINT
  5
15E9
330
C4C
100
AcDbEntity
  8
Defpoints
 62
     0
100
AcDbPoint
 10
629.311464673758
 20
85.41169366157021
 30
0.0
  0
ENDBLK
  5
C4E
330
C4C
100
AcDbEntity
  8
0
100
AcDbBlockEnd
  0
BLOCK
  5
D63
330
D62
100
AcDbEntity
  8
0
100
AcDbBlockBegin
  2
*D9
 70
     1
 10
0.0
 20
0.0
 30
0.0
  3
*D9
  1

  0
LINE
  5
15EA
330
D62
100
AcDbEntity
  8
0
 62
     0
370
    -2
100
AcDbLine
 10
668.3052007100188
 20
37.22984129785903
 30
0.0
 11
679.459509908591
 21
50.52302935816403
 31
0.0
  0
LINE
  5
15EB
330
D62
100
AcDbEntity
  8
0
 62
     0
370
    -2
100
AcDbLine
 10
659.7882648816721
 20
55.06186346233395
 30
0.0
 11
659.788264881672
 21
57.68277701891955
 31
0.0
  0
ARC
  5
15EC
330
D62
100
AcDbEntity
  8
0
 62
     0
370
    -2
100
AcDbCircle
 10
659.788264881672
 20
27.07975242653265
 30
0.0
 40
29.35302459238699
100
AcDbArc
 50
54.88136333276186
 51
85.11863666723789
  0
INSERT
  5
15ED
330
D62
100
AcDbEntity
  8
0
 62
     0
370
    -2
100
AcDbBlockReference
  2
_Open30
 10
678.6560253964828
 20
49.56547380426531
 30
0.0
 41
2.5
 42
2.5
 43
2.5
 50
322.4406816663807
  0
INSERT
  5
15EE
330
D62
100
AcDbEntity
  8
0
 62
     0
370
    -2
100
AcDbBlockReference
  2
_Open30
 10
659.7882648816721
 20
56.43277701891958
 30
0.0
 41
2.5
 42
2.5
 43
2.5
 50
177.559318333619
  0
MTEXT
  5
15EF
330
D62
100
AcDbEntity
  8
0
 62
     4
100
AcDbMText
 10
670.8459910842058
 20
56.55164960789367
 30
0.0
 40
3.0
 41
0.0
 71
     5
 72
     1
  1
40\U+00B0
 11
0.9362689547071813
 21
-0.3512839940155573
 31
0.0
 73
     1
 44
1.0
1001
ACAD
1000
MTEXTBEGIN
1070
    73
1070
     1
1070
    44
1040
1.0
1070
    74
1070
     0
1000
MTEXTEND
  0
POINT
  5
15F0
330
D62
100
AcDbEntity
  8
Defpoints
 62
     0
100
AcDbPoint
 10
666.5575382069697
 20
55.64156244215817
 30
0.0
  0
POINT
  5
15F1
330
D62
100
AcDbEntity
  8
Defpoints
 62
     0
100
AcDbPoint
 10
668.1445038075971
 20
37.03833018707928
 30
0.0
  0
POINT
  5
15F2
330
D62
100
AcDbEntity
  8
Defpoints
 62
     0
100
AcDbPoint
 10
659.7882648816721
 20
-0.6523586092688732
 30
0.0
  0
POINT
  5
15F3
330
D62
100
AcDbEntity
  8
Defpoints
 62
     0
100
AcDbPoint
 10
659.7882648816721
 20
54.81186346233397
 30
0.0
  0
POINT
  5
15F4
330
D62
100
AcDbEntity
  8
Defpoints
 62
     0
100
AcDbPoint
 10
659.788264881672
 20
27.07975242653259
 30
0.0
  0
ENDBLK
  5
D64
330
D62
100
AcDbEntity
  8
0
100
AcDbBlockEnd
  0
BLOCK
  5
1219
330
1218
100
AcDbEntity
  8
0
100
AcDbBlockBegin
  2
*D10
 70
     1
 10
0.0
 20
0.0
 30
0.0
  3
*D10
  1

  0
LINE
  5
12A2
330
1218
100
AcDbEntity
  8
0
 62
     0
370
    -2
100
AcDbLine
 10
1091.873214771129
 20
193.7660332790609
 30
0.0
 11
1091.873214771129
 21
190.8564018570521
 31
0.0
  0
LINE
  5
12A3
330
1218
100
AcDbEntity
  8
0
 62
     0
370
    -2
100
AcDbLine
 10
1089.416027717008
 20
193.7660332790609
 30
0.0
 11
1089.416027717008
 21
190.8564018570521
 31
0.0
  0
LINE
  5
12A4
330
1218
100
AcDbEntity
  8
0
 62
     0
370
    -2
100
AcDbLine
 10
1094.373214771129
 20
192.106401857052
 30
0.0
 11
1096.873214771129
 21
192.106401857052
 31
0.0
  0
LINE
  5
12A5
330
1218
100
AcDbEntity
  8
0
 62
     0
370
    -2
100
AcDbLine
 10
1086.916027717008
 20
192.106401857052
 30
0.0
 11
1074.166027717008
 21
192.106401857052
 31
0.0
  0
LINE
  5
12A6
330
1218
100
AcDbEntity
  8
0
 62
     0
370
    -2
100
AcDbLine
 10
1091.873214771129
 20
192.106401857052
 30
0.0
 11
1089.416027717008
 21
192.106401857052
 31
0.0
  0
INSERT
  5
12A7
330
1218
100
AcDbEntity
  8
0
 62
     0
370
    -2
100
AcDbBlockReference
  2
_Open30
 10
1091.873214771129
 20
192.106401857052
 30
0.0
 41
2.5
 42
2.5
 43
2.5
 50
180.0
  0
INSERT
  5
12A8
330
1218
100
AcDbEntity
  8
0
 62
     0
370
    -2
100
AcDbBlockReference
  2
_Open30
 10
1089.416027717008
 20
192.106401857052
 30
0.0
 41
2.5
 42
2.5
 43
2.5
  0
MTEXT
  5
12A9
330
1218
100
AcDbEntity
  8
0
 62
     4
100
AcDbMText
 10
1079.291027717008
 20
194.231401857052
 30
0.0
 40
3.0
 41
0.0
 71
     5
 72
     1
  1
2.46
 73
     1
 44
1.0
1001
ACAD
1000
MTEXTBEGIN
1070
    73
1070
     1
1070
    44
1040
1.0
1070
    74
1070
     0
1000
MTEXTEND
  0
POINT
  5
12AA
330
1218
100
AcDbEntity
  8
Defpoints
 62
     0
100
AcDbPoint
 10
1091.873214771129
 20
194.0160332790609
 30
0.0
  0
POINT
  5
12AB
330
1218
100
AcDbEntity
  8
Defpoints
 62
     0
100
AcDbPoint
 10
1089.416027717008
 20
194.0160332790609
 30
0.0
  0
POINT
  5
12AC
330
1218
100
AcDbEntity
  8
Defpoints
 62
     0
100
AcDbPoint
 10
1089.416027717008
 20
192.106401857052
 30
0.0
  0
ENDBLK
  5
121A
330
1218
100
AcDbEntity
  8
0
100
AcDbBlockEnd
  0
BLOCK
  5
1227
330
1226
100
AcDbEntity
  8
0
100
AcDbBlockBegin
  2
*D11
 70
     1
 10
0.0
 20
0.0
 30
0.0
  3
*D11
  1

  0
LINE
  5
12AD
330
1226
100
AcDbEntity
  8
0
 62
     0
370
    -2
100
AcDbLine
 10
1093.511339677202
 20
188.3099437062985
 30
0.0
 11
1093.511339677202
 21
185.7640516368352
 31
0.0
  0
LINE
  5
12AE
330
1226
100
AcDbEntity
  8
0
 62
     0
370
    -2
100
AcDbLine
 10
1090.417103879059
 20
188.3099437062985
 30
0.0
 11
1090.417103879059
 21
185.7640516368352
 31
0.0
  0
LINE
  5
12AF
330
1226
100
AcDbEntity
  8
0
 62
     0
370
    -2
100
AcDbLine
 10
1096.011339677202
 20
187.0140516368351
 30
0.0
 11
1098.511339677202
 21
187.0140516368351
 31
0.0
  0
LINE
  5
12B0
330
1226
100
AcDbEntity
  8
0
 62
     0
370
    -2
100
AcDbLine
 10
1087.917103879059
 20
187.0140516368351
 30
0.0
 11
1074.083770545725
 21
187.0140516368351
 31
0.0
  0
LINE
  5
12B1
330
1226
100
AcDbEntity
  8
0
 62
     0
370
    -2
100
AcDbLine
 10
1093.511339677202
 20
187.0140516368351
 30
0.0
 11
1090.417103879059
 21
187.0140516368351
 31
0.0
  0
INSERT
  5
12B2
330
1226
100
AcDbEntity
  8
0
 62
     0
370
    -2
100
AcDbBlockReference
  2
_Open30
 10
1093.511339677202
 20
187.0140516368351
 30
0.0
 41
2.5
 42
2.5
 43
2.5
 50
180.0
  0
INSERT
  5
12B3
330
1226
100
AcDbEntity
  8
0
 62
     0
370
    -2
100
AcDbBlockReference
  2
_Open30
 10
1090.417103879059
 20
187.0140516368351
 30
0.0
 41
2.5
 42
2.5
 43
2.5
  0
MTEXT
  5
12B4
330
1226
100
AcDbEntity
  8
0
 62
     4
100
AcDbMText
 10
1079.292103879059
 20
188.8890516368352
 30
0.0
 40
2.5
 41
0.0
 71
     5
 72
     1
  1
15.47
  7
高2.5
 73
     1
 44
1.0
1001
ACAD
1000
MTEXTBEGIN
1070
    73
1070
     1
1070
    44
1040
1.0
1070
    74
1070
     0
1000
MTEXTEND
  0
POINT
  5
12B5
330
1226
100
AcDbEntity
  8
Defpoints
 62
     0
100
AcDbPoint
 10
1093.511339677202
 20
188.5599437062985
 30
0.0
  0
POINT
  5
12B6
330
1226
100
AcDbEntity
  8
Defpoints
 62
     0
100
AcDbPoint
 10
1090.417103879059
 20
188.5599437062985
 30
0.0
  0
POINT
  5
12B7
330
1226
100
AcDbEntity
  8
Defpoints
 62
     0
100
AcDbPoint
 10
1090.417103879059
 20
187.0140516368351
 30
0.0
  0
ENDBLK
  5
1228
330
1226
100
AcDbEntity
  8
0
100
AcDbBlockEnd
  0
BLOCK
  5
1235
330
1234
100
AcDbEntity
  8
0
100
AcDbBlockBegin
  2
*D12
 70
     1
 10
0.0
 20
0.0
 30
0.0
  3
*D12
  1

  0
LINE
  5
12B8
330
1234
100
AcDbEntity
  8
0
 62
     0
370
    -2
100
AcDbLine
 10
1095.240471285287
 20
182.8538539904521
 30
0.0
 11
1095.240471285287
 21
180.5807663280848
 31
0.0
  0
LINE
  5
12B9
330
1234
100
AcDbEntity
  8
0
 62
     0
370
    -2
100
AcDbLine
 10
1091.236166332095
 20
182.8538539904521
 30
0.0
 11
1091.236166332095
 21
180.5807663280848
 31
0.0
  0
LINE
  5
12BA
330
1234
100
AcDbEntity
  8
0
 62
     0
370
    -2
100
AcDbLine
 10
1097.740471285288
 20
181.8307663280848
 30
0.0
 11
1100.240471285288
 21
181.8307663280848
 31
0.0
  0
LINE
  5
12BB
330
1234
100
AcDbEntity
  8
0
 62
     0
370
    -2
100
AcDbLine
 10
1088.736166332096
 20
181.8307663280848
 30
0.0
 11
1076.986166332096
 21
181.8307663280848
 31
0.0
  0
LINE
  5
12BC
330
1234
100
AcDbEntity
  8
0
 62
     0
370
    -2
100
AcDbLine
 10
1095.240471285287
 20
181.8307663280848
 30
0.0
 11
1091.236166332095
 21
181.8307663280848
 31
0.0
  0
INSERT
  5
12BD
330
1234
100
AcDbEntity
  8
0
 62
     0
370
    -2
100
AcDbBlockReference
  2
_Open30
 10
1095.240471285287
 20
181.8307663280848
 30
0.0
 41
2.5
 42
2.5
 43
2.5
 50
180.0
  0
INSERT
  5
12BE
330
1234
100
AcDbEntity
  8
0
 62
     0
370
    -2
100
AcDbBlockReference
  2
_Open30
 10
1091.236166332095
 20
181.8307663280848
 30
0.0
 41
2.5
 42
2.5
 43
2.5
  0
MTEXT
  5
12BF
330
1234
100
AcDbEntity
  8
0
 62
     4
100
AcDbMText
 10
1081.611166332096
 20
184.0557663280846
 30
0.0
 40
3.2
 41
0.0
 71
     5
 72
     1
  1
8.01
  7
高3.2
 73
     1
 44
1.0
1001
ACAD
1000
MTEXTBEGIN
1070
    73
1070
     1
1070
    44
1040
1.0
1070
    74
1070
     0
1000
MTEXTEND
  0
POINT
  5
12C0
330
1234
100
AcDbEntity
  8
Defpoints
 62
     0
100
AcDbPoint
 10
1095.240471285287
 20
183.103853990452
 30
0.0
  0
POINT
  5
12C1
330
1234
100
AcDbEntity
  8
Defpoints
 62
     0
100
AcDbPoint
 10
1091.236166332095
 20
183.103853990452
 30
0.0
  0
POINT
  5
12C2
330
1234
100
AcDbEntity
  8
Defpoints
 62
     0
100
AcDbPoint
 10
1091.236166332095
 20
181.8307663280848
 30
0.0
  0
ENDBLK
  5
1236
330
1234
100
AcDbEntity
  8
0
100
AcDbBlockEnd
  0
BLOCK
  5
1243
330
1242
100
AcDbEntity
  8
0
100
AcDbBlockBegin
  2
*D13
 70
     1
 10
0.0
 20
0.0
 30
0.0
  3
*D13
  1

  0
LINE
  5
12C3
330
1242
100
AcDbEntity
  8
0
 62
     0
370
    -2
100
AcDbLine
 10
1095.149464583275
 20
177.5796340224204
 30
0.0
 11
1095.149464583275
 21
175.7612205149641
 31
0.0
  0
LINE
  5
12C4
330
1242
100
AcDbEntity
  8
0
 62
     0
370
    -2
100
AcDbLine
 10
1090.417103879059
 20
177.5796340224204
 30
0.0
 11
1090.417103879059
 21
175.7612205149641
 31
0.0
  0
LINE
  5
12C5
330
1242
100
AcDbEntity
  8
0
 62
     0
370
    -2
100
AcDbLine
 10
1097.649464583275
 20
177.011220514964
 30
0.0
 11
1100.149464583275
 21
177.011220514964
 31
0.0
  0
LINE
  5
12C6
330
1242
100
AcDbEntity
  8
0
 62
     0
370
    -2
100
AcDbLine
 10
1087.917103879059
 20
177.011220514964
 30
0.0
 11
1066.167103879059
 21
177.011220514964
 31
0.0
  0
LINE
  5
12C7
330
1242
100
AcDbEntity
  8
0
 62
     0
370
    -2
100
AcDbLine
 10
1095.149464583275
 20
177.011220514964
 30
0.0
 11
1090.417103879059
 21
177.011220514964
 31
0.0
  0
INSERT
  5
12C8
330
1242
100
AcDbEntity
  8
0
 62
     0
370
    -2
100
AcDbBlockReference
  2
_Open30
 10
1095.149464583275
 20
177.011220514964
 30
0.0
 41
2.5
 42
2.5
 43
2.5
 50
180.0
  0
INSERT
  5
12C9
330
1242
100
AcDbEntity
  8
0
 62
     0
370
    -2
100
AcDbBlockReference
  2
_Open30
 10
1090.417103879059
 20
177.011220514964
 30
0.0
 41
2.5
 42
2.5
 43
2.5
  0
MTEXT
  5
12CA
330
1242
100
AcDbEntity
  8
0
 62
     4
100
AcDbMText
 10
1075.792103879059
 20
179.8862205149641
 30
0.0
 40
4.5
 41
0.0
 71
     5
 72
     1
  1
47.32
  7
高4.5
 73
     1
 44
1.0
1001
ACAD
1000
MTEXTBEGIN
1070
    73
1070
     1
1070
    44
1040
1.0
1070
    74
1070
     0
1000
MTEXTEND
  0
POINT
  5
12CB
330
1242
100
AcDbEntity
  8
Defpoints
 62
     0
100
AcDbPoint
 10
1095.149464583275
 20
177.8296340224204
 30
0.0
  0
POINT
  5
12CC
330
1242
100
AcDbEntity
  8
Defpoints
 62
     0
100
AcDbPoint
 10
1090.417103879059
 20
177.8296340224204
 30
0.0
  0
POINT
  5
12CD
330
1242
100
AcDbEntity
  8
Defpoints
 62
     0
100
AcDbPoint
 10
1090.417103879059
 20
177.011220514964
 30
0.0
  0
ENDBLK
  5
1244
330
1242
100
AcDbEntity
  8
0
100
AcDbBlockEnd
  0
BLOCK
  5
1251
330
1250
100
AcDbEntity
  8
0
100
AcDbBlockBegin
  2
*D14
 70
     1
 10
0.0
 20
0.0
 30
0.0
  3
*D14
  1

  0
LINE
  5
12CE
330
1250
100
AcDbEntity
  8
0
 62
     0
370
    -2
100
AcDbLine
 10
1116.627100851283
 20
193.7660332790609
 30
0.0
 11
1116.627100851283
 21
190.8564018570521
 31
0.0
  0
LINE
  5
12CF
330
1250
100
AcDbEntity
  8
0
 62
     0
370
    -2
100
AcDbLine
 10
1114.169913797162
 20
193.7660332790609
 30
0.0
 11
1114.169913797162
 21
190.8564018570521
 31
0.0
  0
LINE
  5
12D0
330
1250
100
AcDbEntity
  8
0
 62
     0
370
    -2
100
AcDbLine
 10
1119.127100851283
 20
192.106401857052
 30
0.0
 11
1121.627100851283
 21
192.106401857052
 31
0.0
  0
LINE
  5
12D1
330
1250
100
AcDbEntity
  8
0
 62
     0
370
    -2
100
AcDbLine
 10
1111.669913797162
 20
192.106401857052
 30
0.0
 11
1090.069913797163
 21
192.106401857052
 31
0.0
  0
LINE
  5
12D2
330
1250
100
AcDbEntity
  8
0
 62
     0
370
    -2
100
AcDbLine
 10
1116.627100851283
 20
192.106401857052
 30
0.0
 11
1114.169913797162
 21
192.106401857052
 31
0.0
  0
INSERT
  5
12D3
330
1250
100
AcDbEntity
  8
0
 62
     0
370
    -2
100
AcDbBlockReference
  2
_Open30
 10
1116.627100851283
 20
192.106401857052
 30
0.0
 41
2.5
 42
2.5
 43
2.5
 50
180.0
  0
INSERT
  5
12D4
330
1250
100
AcDbEntity
  8
0
 62
     0
370
    -2
100
AcDbBlockReference
  2
_Open30
 10
1114.169913797162
 20
192.106401857052
 30
0.0
 41
2.5
 42
2.5
 43
2.5
  0
MTEXT
  5
12D5
330
1250
100
AcDbEntity
  8
0
 62
     4
100
AcDbMText
 10
1099.619913797162
 20
195.8814018570521
 30
0.0
 40
6.299999999999998
 41
0.0
 71
     5
 72
     1
  1
0.25
  7
高6.3
 73
     1
 44
1.0
1001
ACAD
1000
MTEXTBEGIN
1070
    73
1070
     1
1070
    44
1040
1.0
1070
    74
1070
     0
1000
MTEXTEND
  0
POINT
  5
12D6
330
1250
100
AcDbEntity
  8
Defpoints
 62
     0
100
AcDbPoint
 10
1116.627100851283
 20
194.0160332790609
 30
0.0
  0
POINT
  5
12D7
330
1250
100
AcDbEntity
  8
Defpoints
 62
     0
100
AcDbPoint
 10
1114.169913797162
 20
194.0160332790609
 30
0.0
  0
POINT
  5
12D8
330
1250
100
AcDbEntity
  8
Defpoints
 62
     0
100
AcDbPoint
 10
1114.169913797162
 20
192.106401857052
 30
0.0
  0
ENDBLK
  5
1252
330
1250
100
AcDbEntity
  8
0
100
AcDbBlockEnd
  0
BLOCK
  5
125F
330
125E
100
AcDbEntity
  8
0
100
AcDbBlockBegin
  2
*D15
 70
     1
 10
0.0
 20
0.0
 30
0.0
  3
*D15
  1

  0
LINE
  5
12D9
330
125E
100
AcDbEntity
  8
0
 62
     0
370
    -2
100
AcDbLine
 10
1118.265225757356
 20
188.3099437062985
 30
0.0
 11
1118.265225757356
 21
185.7640516368352
 31
0.0
  0
LINE
  5
12DA
330
125E
100
AcDbEntity
  8
0
 62
     0
370
    -2
100
AcDbLine
 10
1115.170989959213
 20
188.3099437062985
 30
0.0
 11
1115.170989959213
 21
185.7640516368352
 31
0.0
  0
LINE
  5
12DB
330
125E
100
AcDbEntity
  8
0
 62
     0
370
    -2
100
AcDbLine
 10
1120.765225757356
 20
187.0140516368351
 30
0.0
 11
1123.265225757356
 21
187.0140516368351
 31
0.0
  0
LINE
  5
12DC
330
125E
100
AcDbEntity
  8
0
 62
     0
370
    -2
100
AcDbLine
 10
1112.670989959213
 20
187.0140516368351
 30
0.0
 11
1100.670989959213
 21
187.0140516368351
 31
0.0
  0
LINE
  5
12DD
330
125E
100
AcDbEntity
  8
0
 62
     0
370
    -2
100
AcDbLine
 10
1118.265225757356
 20
187.0140516368351
 30
0.0
 11
1115.170989959213
 21
187.0140516368351
 31
0.0
  0
INSERT
  5
12DE
330
125E
100
AcDbEntity
  8
0
 62
     0
370
    -2
100
AcDbBlockReference
  2
_Open30
 10
1118.265225757356
 20
187.0140516368351
 30
0.0
 41
2.5
 42
2.5
 43
2.5
 50
180.0
  0
INSERT
  5
12DF
330
125E
100
AcDbEntity
  8
0
 62
     0
370
    -2
100
AcDbBlockReference
  2
_Open30
 10
1115.170989959213
 20
187.0140516368351
 30
0.0
 41
2.5
 42
2.5
 43
2.5
  0
MTEXT
  5
12E0
330
125E
100
AcDbEntity
  8
0
 62
     4
100
AcDbMText
 10
1105.295989959213
 20
189.1390516368351
 30
0.0
 40
3.0
 41
0.0
 71
     5
 72
     1
  1
1.55
 73
     1
 44
1.0
1001
ACAD
1000
MTEXTBEGIN
1070
    73
1070
     1
1070
    44
1040
1.0
1070
    74
1070
     0
1000
MTEXTEND
  0
POINT
  5
12E1
330
125E
100
AcDbEntity
  8
Defpoints
 62
     0
100
AcDbPoint
 10
1118.265225757356
 20
188.5599437062985
 30
0.0
  0
POINT
  5
12E2
330
125E
100
AcDbEntity
  8
Defpoints
 62
     0
100
AcDbPoint
 10
1115.170989959213
 20
188.5599437062985
 30
0.0
  0
POINT
  5
12E3
330
125E
100
AcDbEntity
  8
Defpoints
 62
     0
100
AcDbPoint
 10
1115.170989959213
 20
187.0140516368351
 30
0.0
  0
ENDBLK
  5
1260
330
125E
100
AcDbEntity
  8
0
100
AcDbBlockEnd
  0
BLOCK
  5
126D
330
126C
100
AcDbEntity
  8
0
100
AcDbBlockBegin
  2
*D16
 70
     1
 10
0.0
 20
0.0
 30
0.0
  3
*D16
  1

  0
LINE
  5
12E4
330
126C
100
AcDbEntity
  8
0
 62
     0
370
    -2
100
AcDbLine
 10
1119.994357365441
 20
182.8538539904521
 30
0.0
 11
1119.994357365441
 21
180.5807663280848
 31
0.0
  0
LINE
  5
12E5
330
126C
100
AcDbEntity
  8
0
 62
     0
370
    -2
100
AcDbLine
 10
1115.990052412249
 20
182.8538539904521
 30
0.0
 11
1115.990052412249
 21
180.5807663280848
 31
0.0
  0
LINE
  5
12E6
330
126C
100
AcDbEntity
  8
0
 62
     0
370
    -2
100
AcDbLine
 10
1122.494357365441
 20
181.8307663280848
 30
0.0
 11
1124.994357365441
 21
181.8307663280848
 31
0.0
  0
LINE
  5
12E7
330
126C
100
AcDbEntity
  8
0
 62
     0
370
    -2
100
AcDbLine
 10
1113.49005241225
 20
181.8307663280848
 30
0.0
 11
1105.156719078916
 21
181.8307663280848
 31
0.0
  0
LINE
  5
12E8
330
126C
100
AcDbEntity
  8
0
 62
     0
370
    -2
100
AcDbLine
 10
1119.994357365441
 20
181.8307663280848
 30
0.0
 11
1115.990052412249
 21
181.8307663280848
 31
0.0
  0
INSERT
  5
12E9
330
126C
100
AcDbEntity
  8
0
 62
     0
370
    -2
100
AcDbBlockReference
  2
_Open30
 10
1119.994357365441
 20
181.8307663280848
 30
0.0
 41
2.5
 42
2.5
 43
2.5
 50
180.0
  0
INSERT
  5
12EA
330
126C
100
AcDbEntity
  8
0
 62
     0
370
    -2
100
AcDbBlockReference
  2
_Open30
 10
1115.990052412249
 20
181.8307663280848
 30
0.0
 41
2.5
 42
2.5
 43
2.5
  0
MTEXT
  5
12EB
330
126C
100
AcDbEntity
  8
0
 62
     4
100
AcDbMText
 10
1107.615052412249
 20
183.4557663280848
 30
0.0
 40
2.0
 41
0.0
 71
     5
 72
     1
  1
0.8
  7
高2
 73
     1
 44
1.0
1001
ACAD
1000
MTEXTBEGIN
1070
    73
1070
     1
1070
    44
1040
1.0
1070
    74
1070
     0
1000
MTEXTEND
  0
POINT
  5
12EC
330
126C
100
AcDbEntity
  8
Defpoints
 62
     0
100
AcDbPoint
 10
1119.994357365441
 20
183.103853990452
 30
0.0
  0
POINT
  5
12ED
330
126C
100
AcDbEntity
  8
Defpoints
 62
     0
100
AcDbPoint
 10
1115.990052412249
 20
183.103853990452
 30
0.0
  0
POINT
  5
12EE
330
126C
100
AcDbEntity
  8
Defpoints
 62
     0
100
AcDbPoint
 10
1115.990052412249
 20
181.8307663280848
 30
0.0
  0
ENDBLK
  5
126E
330
126C
100
AcDbEntity
  8
0
100
AcDbBlockEnd
  0
BLOCK
  5
127B
330
127A
100
AcDbEntity
  8
0
100
AcDbBlockBegin
  2
*D17
 70
     1
 10
0.0
 20
0.0
 30
0.0
  3
*D17
  1

  0
LINE
  5
12EF
330
127A
100
AcDbEntity
  8
0
 62
     0
370
    -2
100
AcDbLine
 10
1119.903350663429
 20
177.5796340224204
 30
0.0
 11
1119.903350663429
 21
175.7612205149641
 31
0.0
  0
LINE
  5
12F0
330
127A
100
AcDbEntity
  8
0
 62
     0
370
    -2
100
AcDbLine
 10
1115.170989959213
 20
177.5796340224204
 30
0.0
 11
1115.170989959213
 21
175.7612205149641
 31
0.0
  0
LINE
  5
12F1
330
127A
100
AcDbEntity
  8
0
 62
     0
370
    -2
100
AcDbLine
 10
1122.403350663429
 20
177.011220514964
 30
0.0
 11
1124.903350663429
 21
177.011220514964
 31
0.0
  0
LINE
  5
12F2
330
127A
100
AcDbEntity
  8
0
 62
     0
370
    -2
100
AcDbLine
 10
1112.670989959213
 20
177.011220514964
 30
0.0
 11
1097.920989959213
 21
177.011220514964
 31
0.0
  0
LINE
  5
12F3
330
127A
100
AcDbEntity
  8
0
 62
     0
370
    -2
100
AcDbLine
 10
1119.903350663429
 20
177.011220514964
 30
0.0
 11
1115.170989959213
 21
177.011220514964
 31
0.0
  0
INSERT
  5
12F4
330
127A
100
AcDbEntity
  8
0
 62
     0
370
    -2
100
AcDbBlockReference
  2
_Open30
 10
1119.903350663429
 20
177.011220514964
 30
0.0
 41
2.5
 42
2.5
 43
2.5
 50
180.0
  0
INSERT
  5
12F5
330
127A
100
AcDbEntity
  8
0
 62
     0
370
    -2
100
AcDbBlockReference
  2
_Open30
 10
1115.170989959213
 20
177.011220514964
 30
0.0
 41
2.5
 42
2.5
 43
2.5
  0
MTEXT
  5
12F6
330
127A
100
AcDbEntity
  8
0
 62
     4
100
AcDbMText
 10
1104.045989959213
 20
179.136220514964
 30
0.0
 40
3.0
 41
0.0
 71
     5
 72
     1
  1
18.93
 73
     1
 44
1.0
1001
ACAD
1000
MTEXTBEGIN
1070
    73
1070
     1
1070
    44
1040
1.0
1070
    74
1070
     0
1000
MTEXTEND
  0
POINT
  5
12F7
330
127A
100
AcDbEntity
  8
Defpoints
 62
     0
100
AcDbPoint
 10
1119.903350663429
 20
177.8296340224204
 30
0.0
  0
POINT
  5
12F8
330
127A
100
AcDbEntity
  8
Defpoints
 62
     0
100
AcDbPoint
 10
1115.170989959213
 20
177.8296340224204
 30
0.0
  0
POINT
  5
12F9
330
127A
100
AcDbEntity
  8
Defpoints
 62
     0
100
AcDbPoint
 10
1115.170989959213
 20
177.011220514964
 30
0.0
  0
ENDBLK
  5
127C
330
127A
100
AcDbEntity
  8
0
100
AcDbBlockEnd
  0
BLOCK
  5
1289
330
1288
100
AcDbEntity
  8
0
100
AcDbBlockBegin
  2
*D18
 70
     1
 10
0.0
 20
0.0
 30
0.0
  3
*D18
  1

  0
LINE
  5
12FA
330
1288
100
AcDbEntity
  8
0
 62
     0
370
    -2
100
AcDbLine
 10
1117.098923812291
 20
172.5237938158307
 30
0.0
 11
1117.098923812291
 21
170.2138727389551
 31
0.0
  0
LINE
  5
12FB
330
1288
100
AcDbEntity
  8
0
 62
     0
370
    -2
100
AcDbLine
 10
1112.510248610143
 20
172.5237938158307
 30
0.0
 11
1112.510248610143
 21
170.2138727389551
 31
0.0
  0
LINE
  5
12FC
330
1288
100
AcDbEntity
  8
0
 62
     0
370
    -2
100
AcDbLine
 10
1119.598923812291
 20
171.4638727389551
 30
0.0
 11
1122.098923812291
 21
171.4638727389551
 31
0.0
  0
LINE
  5
12FD
330
1288
100
AcDbEntity
  8
0
 62
     0
370
    -2
100
AcDbLine
 10
1110.010248610143
 20
171.4638727389551
 30
0.0
 11
1095.260248610143
 21
171.4638727389551
 31
0.0
  0
LINE
  5
12FE
330
1288
100
AcDbEntity
  8
0
 62
     0
370
    -2
100
AcDbLine
 10
1117.098923812291
 20
171.4638727389551
 30
0.0
 11
1112.510248610143
 21
171.4638727389551
 31
0.0
  0
INSERT
  5
12FF
330
1288
100
AcDbEntity
  8
0
 62
     0
370
    -2
100
AcDbBlockReference
  2
_Open30
 10
1117.098923812291
 20
171.4638727389551
 30
0.0
 41
2.5
 42
2.5
 43
2.5
 50
180.0
  0
INSERT
  5
1300
330
1288
100
AcDbEntity
  8
0
 62
     0
370
    -2
100
AcDbBlockReference
  2
_Open30
 10
1112.510248610143
 20
171.4638727389551
 30
0.0
 41
2.5
 42
2.5
 43
2.5
  0
MTEXT
  5
1301
330
1288
100
AcDbEntity
  8
0
 62
     4
100
AcDbMText
 10
1101.385248610143
 20
173.588872738955
 30
0.0
 40
3.0
 41
0.0
 71
     5
 72
     1
  1
13.77
 73
     1
 44
1.0
1001
ACAD
1000
MTEXTBEGIN
1070
    73
1070
     1
1070
    44
1040
1.0
1070
    74
1070
     0
1000
MTEXTEND
  0
POINT
  5
1302
330
1288
100
AcDbEntity
  8
Defpoints
 62
     0
100
AcDbPoint
 10
1117.098923812291
 20
172.7737938158307
 30
0.0
  0
POINT
  5
1303
330
1288
100
AcDbEntity
  8
Defpoints
 62
     0
100
AcDbPoint
 10
1112.510248610143
 20
172.7737938158307
 30
0.0
  0
POINT
  5
1304
330
1288
100
AcDbEntity
  8
Defpoints
 62
     0
100
AcDbPoint
 10
1112.510248610143
 20
171.4638727389551
 30
0.0
  0
ENDBLK
  5
128A
330
1288
100
AcDbEntity
  8
0
100
AcDbBlockEnd
  0
BLOCK
  5
1297
330
1296
100
AcDbEntity
  8
0
100
AcDbBlockBegin
  2
*D19
 70
     1
 10
0.0
 20
0.0
 30
0.0
  3
*D19
  1

  0
LINE
  5
1305
330
1296
100
AcDbEntity
  8
0
 62
     0
370
    -2
100
AcDbLine
 10
1110.00264097914
 20
203.453285134105
 30
0.0
 11
1110.00264097914
 21
210.8498186120428
 31
0.0
  0
LINE
  5
1306
330
1296
100
AcDbEntity
  8
0
 62
     0
370
    -2
100
AcDbLine
 10
1100.06416660965
 20
203.453285134105
 30
0.0
 11
1100.06416660965
 21
210.8498186120428
 31
0.0
  0
LINE
  5
1307
330
1296
100
AcDbEntity
  8
0
 62
     0
370
    -2
100
AcDbLine
 10
1107.50264097914
 20
209.5998186120428
 30
0.0
 11
1102.56416660965
 21
209.5998186120428
 31
0.0
  0
INSERT
  5
1308
330
1296
100
AcDbEntity
  8
0
 62
     0
370
    -2
100
AcDbBlockReference
  2
_Open30
 10
1110.00264097914
 20
209.5998186120428
 30
0.0
 41
2.5
 42
2.5
 43
2.5
  0
INSERT
  5
1309
330
1296
100
AcDbEntity
  8
0
 62
     0
370
    -2
100
AcDbBlockReference
  2
_Open30
 10
1100.06416660965
 20
209.5998186120428
 30
0.0
 41
2.5
 42
2.5
 43
2.5
 50
180.0
  0
MTEXT
  5
130A
330
1296
100
AcDbEntity
  8
0
 62
     4
100
AcDbMText
 10
1105.033403794395
 20
212.6748186120428
 30
0.0
 40
3.0
 41
0.0
 71
     5
 72
     1
  1
9.94\H0.7X;\S+0^ -0.02;
 73
     1
 44
1.0
1001
ACAD
1000
MTEXTBEGIN
1070
    73
1070
     1
1070
    44
1040
1.0
1070
    74
1070
     0
1000
MTEXTEND
  0
POINT
  5
130B
330
1296
100
AcDbEntity
  8
Defpoints
 62
     0
100
AcDbPoint
 10
1110.00264097914
 20
203.2032851341051
 30
0.0
  0
POINT
  5
130C
330
1296
100
AcDbEntity
  8
Defpoints
 62
     0
100
AcDbPoint
 10
1100.06416660965
 20
203.2032851341051
 30
0.0
  0
POINT
  5
130D
330
1296
100
AcDbEntity
  8
Defpoints
 62
     0
100
AcDbPoint
 10
1100.06416660965
 20
209.5998186120428
 30
0.0
  0
ENDBLK
  5
1298
330
1296
100
AcDbEntity
  8
0
100
AcDbBlockEnd
  0
ENDSEC
  0
SECTION
  2
ENTITIES
  0
LINE
  5
708
330
1F
100
AcDbEntity
  8
0
 62
     7
100
AcDbLine
 10
660.613264881672
 20
85.41169366157021
 30
0.0
 11
658.9632648816721
 21
85.41169366157021
 31
0.0
  0
LINE
  5
70A
330
1F
100
AcDbEntity
  8
0
  6
CENTER
 62
     7
100
AcDbLine
 10
659.7882648816721
 20
-0.6523586092688447
 30
0.0
 11
659.7882648816721
 21
54.81186346233392
 31
0.0
  0
LINE
  5
710
330
1F
100
AcDbEntity
  8
0
 62
     3
100
AcDbLine
 10
637.2882648816721
 20
119.6616936615702
 30
0.0
 11
682.2882648816722
 21
119.6616936615702
 31
0.0
  0
ARC
  5
712
330
1F
100
AcDbEntity
  8
0
 62
     7
100
AcDbCircle
 10
659.7882648816721
 20
27.07975242653254
 30
0.0
 40
20.036231884058
100
AcDbArc
 50
358.5700472959079
 51
1.429952704092233
  0
CIRCLE
  5
71A
330
1F
100
AcDbEntity
  8
0
  6
CENTER
 62
     7
100
AcDbCircle
 10
659.7882648816721
 20
27.07975242653254
 30
0.0
 40
12.5
  0
CIRCLE
  5
73D
330
1F
100
AcDbEntity
  8
0
 62
     7
100
AcDbCircle
 10
659.7882648816721
 20
39.57975242653255
 30
0.0
 40
1.0
  0
LINE
  5
73E
330
1F
100
AcDbEntity
  8
0
 62
     7
100
AcDbLine
 10
661.5382648816721
 20
40.59011539761367
 30
0.0
 11
661.5382648816721
 21
38.56938945545072
 31
0.0
  0
LINE
  5
73F
330
1F
100
AcDbEntity
  8
0
 62
     7
100
AcDbLine
 10
661.5382648816724
 20
40.59011539761417
 30
0.0
 11
659.7882648816712
 21
41.60047836869654
 31
0.0
  0
LINE
  5
740
330
1F
100
AcDbEntity
  8
0
 62
     7
100
AcDbLine
 10
659.7882648816719
 20
41.60047836869604
 30
0.0
 11
658.0382648816721
 21
40.59011539761434
 31
0.0
  0
LINE
  5
741
330
1F
100
AcDbEntity
  8
0
 62
     7
100
AcDbLine
 10
658.0382648816721
 20
40.59011539761434
 30
0.0
 11
658.0382648816721
 21
38.56938945545141
 31
0.0
  0
LINE
  5
742
330
1F
100
AcDbEntity
  8
0
 62
     7
100
AcDbLine
 10
658.0382648816719
 20
38.56938945545091
 30
0.0
 11
659.7882648816727
 21
37.5590264843685
 31
0.0
  0
LINE
  5
743
330
1F
100
AcDbEntity
  8
0
 62
     7
100
AcDbLine
 10
659.7882648816725
 20
37.55902648436905
 30
0.0
 11
661.5382648816721
 21
38.56938945545071
 31
0.0
  0
CIRCLE
  5
744
330
1F
100
AcDbEntity
  8
0
 62
     7
100
AcDbCircle
 10
659.7882648816721
 20
39.57975242653255
 30
0.0
 40
2.375
  0
CIRCLE
  5
745
330
1F
100
AcDbEntity
  8
0
 62
     3
100
AcDbCircle
 10
659.7882648816721
 20
39.57975242653255
 30
0.0
 40
3.125
  0
CIRCLE
  5
746
330
1F
100
AcDbEntity
  8
0
 62
     7
100
AcDbCircle
 10
659.7882648816721
 20
39.57975242653255
 30
0.0
 40
3.375
  0
LINE
  5
747
330
1F
100
AcDbEntity
  8
0
  6
CENTER
 62
     7
100
AcDbLine
 10
659.7882648816721
 20
27.07975242653254
 30
0.0
 11
635.7715522240972
 21
13.21369690863185
 31
0.0
  0
LINE
  5
748
330
1F
100
AcDbEntity
  8
0
  6
CENTER
 62
     7
100
AcDbLine
 10
659.7882648816721
 20
27.07975242653254
 30
0.0
 11
683.8049775392469
 21
13.21369690863183
 31
0.0
  0
LINE
  5
749
330
1F
100
AcDbEntity
  8
0
 62
     7
100
AcDbLine
 10
650.7129473343666
 20
21.84011539761367
 30
0.0
 11
650.7129473343666
 21
19.81938945545072
 31
0.0
  0
CIRCLE
  5
74A
330
1F
100
AcDbEntity
  8
0
 62
     7
100
AcDbCircle
 10
648.9629473343666
 20
20.82975242653254
 30
0.0
 40
1.0
  0
LINE
  5
74B
330
1F
100
AcDbEntity
  8
0
 62
     7
100
AcDbLine
 10
650.7129473343669
 20
21.84011539761419
 30
0.0
 11
648.9629473343661
 21
22.85047836869656
 31
0.0
  0
LINE
  5
74C
330
1F
100
AcDbEntity
  8
0
 62
     7
100
AcDbLine
 10
648.9629473343662
 20
22.85047836869604
 30
0.0
 11
647.2129473343666
 21
21.84011539761435
 31
0.0
  0
LINE
  5
74D
330
1F
100
AcDbEntity
  8
0
 62
     7
100
AcDbLine
 10
647.2129473343666
 20
21.84011539761435
 30
0.0
 11
647.2129473343666
 21
19.81938945545141
 31
0.0
  0
LINE
  5
74E
330
1F
100
AcDbEntity
  8
0
 62
     7
100
AcDbLine
 10
647.2129473343662
 20
19.81938945545091
 30
0.0
 11
648.9629473343671
 21
18.8090264843685
 31
0.0
  0
LINE
  5
74F
330
1F
100
AcDbEntity
  8
0
 62
     7
100
AcDbLine
 10
648.9629473343669
 20
18.80902648436905
 30
0.0
 11
650.7129473343666
 21
19.8193894554507
 31
0.0
  0
CIRCLE
  5
750
330
1F
100
AcDbEntity
  8
0
 62
     7
100
AcDbCircle
 10
648.9629473343666
 20
20.82975242653254
 30
0.0
 40
2.375
  0
CIRCLE
  5
751
330
1F
100
AcDbEntity
  8
0
 62
     3
100
AcDbCircle
 10
648.9629473343666
 20
20.82975242653254
 30
0.0
 40
3.125
  0
CIRCLE
  5
752
330
1F
100
AcDbEntity
  8
0
 62
     7
100
AcDbCircle
 10
648.9629473343666
 20
20.82975242653254
 30
0.0
 40
3.375
  0
LINE
  5
753
330
1F
100
AcDbEntity
  8
0
 62
     7
100
AcDbLine
 10
672.3635824289776
 20
21.84011539761366
 30
0.0
 11
672.3635824289776
 21
19.81938945545071
 31
0.0
  0
CIRCLE
  5
754
330
1F
100
AcDbEntity
  8
0
 62
     7
100
AcDbCircle
 10
670.6135824289776
 20
20.82975242653253
 30
0.0
 40
1.0
  0
LINE
  5
755
330
1F
100
AcDbEntity
  8
0
 62
     7
100
AcDbLine
 10
672.3635824289779
 20
21.84011539761418
 30
0.0
 11
670.613582428977
 21
22.85047836869656
 31
0.0
  0
LINE
  5
756
330
1F
100
AcDbEntity
  8
0
 62
     7
100
AcDbLine
 10
670.6135824289772
 20
22.85047836869603
 30
0.0
 11
668.8635824289776
 21
21.84011539761435
 31
0.0
  0
LINE
  5
757
330
1F
100
AcDbEntity
  8
0
 62
     7
100
AcDbLine
 10
668.8635824289776
 20
21.84011539761434
 30
0.0
 11
668.8635824289776
 21
19.8193894554514
 31
0.0
  0
LINE
  5
758
330
1F
100
AcDbEntity
  8
0
 62
     7
100
AcDbLine
 10
668.8635824289772
 20
19.8193894554509
 30
0.0
 11
670.6135824289782
 21
18.80902648436849
 31
0.0
  0
LINE
  5
759
330
1F
100
AcDbEntity
  8
0
 62
     7
100
AcDbLine
 10
670.6135824289779
 20
18.80902648436904
 30
0.0
 11
672.3635824289776
 21
19.8193894554507
 31
0.0
  0
CIRCLE
  5
75A
330
1F
100
AcDbEntity
  8
0
 62
     7
100
AcDbCircle
 10
670.6135824289776
 20
20.82975242653253
 30
0.0
 40
2.375
  0
CIRCLE
  5
75B
330
1F
100
AcDbEntity
  8
0
 62
     3
100
AcDbCircle
 10
670.6135824289776
 20
20.82975242653253
 30
0.0
 40
3.125
  0
CIRCLE
  5
75C
330
1F
100
AcDbEntity
  8
0
 62
     7
100
AcDbCircle
 10
670.6135824289776
 20
20.82975242653253
 30
0.0
 40
3.375
  0
LINE
  5
766
330
1F
100
AcDbEntity
  8
0
 62
     3
100
AcDbLine
 10
663.1064466998537
 20
96.91169366157021
 30
0.0
 11
662.9132648816721
 21
92.6616936615702
 31
0.0
  0
LINE
  5
767
330
1F
100
AcDbEntity
  8
0
 62
     3
100
AcDbLine
 10
662.9132648816721
 20
92.6616936615702
 30
0.0
 11
656.6632648816721
 21
92.6616936615702
 31
0.0
  0
LINE
  5
768
330
1F
100
AcDbEntity
  8
0
 62
     3
100
AcDbLine
 10
656.6632648816721
 20
92.6616936615702
 30
0.0
 11
656.4700830634904
 21
96.91169366157021
 31
0.0
  0
LINE
  5
769
330
1F
100
AcDbEntity
  8
0
 62
     7
100
AcDbLine
 10
662.1632648816721
 20
92.36169366157019
 30
0.0
 11
657.4132648816721
 21
92.36169366157019
 31
0.0
  0
LINE
  5
76A
330
1F
100
AcDbEntity
  8
0
 62
     7
100
AcDbLine
 10
661.3882648816721
 20
91.86169366157022
 30
0.0
 11
661.3882648816721
 21
92.36169366157019
 31
0.0
  0
LINE
  5
76B
330
1F
100
AcDbEntity
  8
0
 62
     7
100
AcDbLine
 10
658.1882648816721
 20
92.36169366157019
 30
0.0
 11
658.1882648816721
 21
91.86169366157022
 31
0.0
  0
LINE
  5
76C
330
1F
100
AcDbEntity
  8
0
 62
     7
100
AcDbLine
 10
661.5382648816721
 20
91.86169366157022
 30
0.0
 11
658.0382648816721
 21
91.86169366157022
 31
0.0
  0
LINE
  5
76D
330
1F
100
AcDbEntity
  8
0
 62
     7
100
AcDbLine
 10
662.1632648816721
 20
92.36169366157019
 30
0.0
 11
662.1632648816721
 21
92.6616936615702
 31
0.0
  0
LINE
  5
76E
330
1F
100
AcDbEntity
  8
0
 62
     7
100
AcDbLine
 10
657.4132648816721
 20
92.6616936615702
 30
0.0
 11
657.4132648816721
 21
92.36169366157019
 31
0.0
  0
LINE
  5
76F
330
1F
100
AcDbEntity
  8
0
 62
     7
100
AcDbLine
 10
661.5382648816721
 20
90.36169366157023
 30
0.0
 11
658.0382648816721
 21
90.36169366157023
 31
0.0
  0
LINE
  5
770
330
1F
100
AcDbEntity
  8
0
 62
     7
100
AcDbLine
 10
661.5382648816721
 20
90.36169366157023
 30
0.0
 11
661.5382648816721
 21
91.86169366157022
 31
0.0
  0
LINE
  5
771
330
1F
100
AcDbEntity
  8
0
 62
     7
100
AcDbLine
 10
658.0382648816721
 20
91.86169366157022
 30
0.0
 11
658.0382648816721
 21
90.36169366157023
 31
0.0
  0
ARC
  5
775
330
1F
100
AcDbEntity
  8
0
 62
     7
100
AcDbCircle
 10
660.6632648816721
 20
92.01794366157013
 30
0.0
 40
1.656249999999909
100
AcDbArc
 50
238.1092081981504
 51
301.8907918018495
  0
ARC
  5
776
330
1F
100
AcDbEntity
  8
0
 62
     7
100
AcDbCircle
 10
658.9132648816721
 20
92.01794366157013
 30
0.0
 40
1.656249999999909
100
AcDbArc
 50
238.1092081981504
 51
301.8907918018495
  0
ARC
  5
777
330
1F
100
AcDbEntity
  8
0
 62
     7
100
AcDbCircle
 10
660.6632648816721
 20
90.20544366157013
 30
0.0
 40
1.656250000000078
100
AcDbArc
 50
58.10920819815716
 51
121.8907918018428
  0
ARC
  5
778
330
1F
100
AcDbEntity
  8
0
 62
     7
100
AcDbCircle
 10
658.9132648816721
 20
90.20544366157013
 30
0.0
 40
1.656250000000078
100
AcDbArc
 50
58.10920819815716
 51
121.8907918018428
  0
LINE
  5
779
330
1F
100
AcDbEntity
  8
0
 62
     7
100
AcDbLine
 10
660.7882648816721
 20
85.51272995867838
 30
0.0
 11
660.7882648816721
 21
90.36169366157023
 31
0.0
  0
LINE
  5
77A
330
1F
100
AcDbEntity
  8
0
 62
     7
100
AcDbLine
 10
658.7882648816721
 20
85.5127299586784
 30
0.0
 11
658.7882648816721
 21
90.36169366157023
 31
0.0
  0
LINE
  5
77B
330
1F
100
AcDbEntity
  8
0
 62
     7
100
AcDbLine
 10
660.613264881672
 20
85.41169366157021
 30
0.0
 11
660.613264881672
 21
90.36169366157023
 31
0.0
  0
LINE
  5
77C
330
1F
100
AcDbEntity
  8
0
 62
     7
100
AcDbLine
 10
658.9632648816721
 20
85.41169366157021
 30
0.0
 11
658.9632648816721
 21
90.36169366157023
 31
0.0
  0
LINE
  5
77D
330
1F
100
AcDbEntity
  8
0
 62
     7
100
AcDbLine
 10
660.7882648816721
 20
85.51272995867838
 30
0.0
 11
660.613264881672
 21
85.41169366157021
 31
0.0
  0
LINE
  5
77E
330
1F
100
AcDbEntity
  8
0
 62
     7
100
AcDbLine
 10
658.7882648816721
 20
85.5127299586784
 30
0.0
 11
658.9632648816721
 21
85.41169366157021
 31
0.0
  0
LINE
  5
77F
330
1F
100
AcDbEntity
  8
0
 62
     7
100
AcDbLine
 10
658.7882648816721
 20
85.5127299586784
 30
0.0
 11
660.7882648816721
 21
85.51272995867838
 31
0.0
  0
LINE
  5
780
330
1F
100
AcDbEntity
  8
0
 62
     7
100
AcDbLine
 10
671.4385824289776
 20
85.41169366157021
 30
0.0
 11
669.7885824289776
 21
85.41169366157021
 31
0.0
  0
LINE
  5
782
330
1F
100
AcDbEntity
  8
0
 62
     7
100
AcDbLine
 10
672.2135824289772
 20
91.8616936615702
 30
0.0
 11
672.2135824289772
 21
92.36169366157019
 31
0.0
  0
LINE
  5
783
330
1F
100
AcDbEntity
  8
0
 62
     3
100
AcDbLine
 10
673.9317642471593
 20
96.91169366157021
 30
0.0
 11
673.7385824289776
 21
92.6616936615702
 31
0.0
  0
LINE
  5
784
330
1F
100
AcDbEntity
  8
0
 62
     3
100
AcDbLine
 10
673.7385824289776
 20
92.6616936615702
 30
0.0
 11
669.2482815845465
 21
92.6616936615702
 31
0.0
  0
LINE
  5
785
330
1F
100
AcDbEntity
  8
0
 62
     7
100
AcDbLine
 10
672.9885824289778
 20
92.36169366157019
 30
0.0
 11
669.2482815845465
 21
92.36169366157019
 31
0.0
  0
LINE
  5
786
330
1F
100
AcDbEntity
  8
0
 62
     7
100
AcDbLine
 10
672.3635824289776
 20
91.8616936615702
 30
0.0
 11
669.2482815845465
 21
91.8616936615702
 31
0.0
  0
LINE
  5
787
330
1F
100
AcDbEntity
  8
0
 62
     7
100
AcDbLine
 10
672.3635824289776
 20
90.3616936615702
 30
0.0
 11
669.2482815845465
 21
90.3616936615702
 31
0.0
  0
LINE
  5
789
330
1F
100
AcDbEntity
  8
0
 62
     7
100
AcDbLine
 10
672.9885824289778
 20
92.36169366157019
 30
0.0
 11
672.9885824289778
 21
92.6616936615702
 31
0.0
  0
LINE
  5
78B
330
1F
100
AcDbEntity
  8
0
 62
     7
100
AcDbLine
 10
672.3635824289776
 20
90.3616936615702
 30
0.0
 11
672.3635824289776
 21
91.8616936615702
 31
0.0
  0
ARC
  5
78D
330
1F
100
AcDbEntity
  8
0
 62
     7
100
AcDbCircle
 10
671.4885824289776
 20
92.01794366157008
 30
0.0
 40
1.656249999999909
100
AcDbArc
 50
238.1092081981504
 51
301.8907918018495
  0
ARC
  5
78E
330
1F
100
AcDbEntity
  8
0
 62
     7
100
AcDbCircle
 10
669.7385824289776
 20
92.01794366157008
 30
0.0
 40
1.656249999999909
100
AcDbArc
 50
252.7806471456138
 51
301.8907918018495
  0
ARC
  5
78F
330
1F
100
AcDbEntity
  8
0
 62
     7
100
AcDbCircle
 10
671.4885824289776
 20
90.20544366157013
 30
0.0
 40
1.656250000000078
100
AcDbArc
 50
58.10920819815716
 51
121.8907918018428
  0
ARC
  5
790
330
1F
100
AcDbEntity
  8
0
 62
     7
100
AcDbCircle
 10
669.7385824289776
 20
90.20544366157013
 30
0.0
 40
1.656250000000078
100
AcDbArc
 50
58.10920819815716
 51
107.2193528543861
  0
LINE
  5
791
330
1F
100
AcDbEntity
  8
0
 62
     7
100
AcDbLine
 10
671.6135824289778
 20
85.51272995867838
 30
0.0
 11
671.6135824289778
 21
90.3616936615702
 31
0.0
  0
LINE
  5
792
330
1F
100
AcDbEntity
  8
0
 62
     7
100
AcDbLine
 10
671.4385824289776
 20
85.41169366157021
 30
0.0
 11
671.4385824289776
 21
90.3616936615702
 31
0.0
  0
LINE
  5
793
330
1F
100
AcDbEntity
  8
0
 62
     7
100
AcDbLine
 10
669.6135824289776
 20
85.51272995867838
 30
0.0
 11
669.6135824289776
 21
90.3616936615702
 31
0.0
  0
LINE
  5
794
330
1F
100
AcDbEntity
  8
0
 62
     7
100
AcDbLine
 10
669.7885824289776
 20
85.41169366157021
 30
0.0
 11
669.7885824289776
 21
90.3616936615702
 31
0.0
  0
LINE
  5
795
330
1F
100
AcDbEntity
  8
0
 62
     7
100
AcDbLine
 10
671.6135824289778
 20
85.51272995867838
 30
0.0
 11
671.4385824289776
 21
85.41169366157021
 31
0.0
  0
LINE
  5
796
330
1F
100
AcDbEntity
  8
0
 62
     7
100
AcDbLine
 10
669.6135824289776
 20
85.51272995867838
 30
0.0
 11
669.7885824289776
 21
85.41169366157021
 31
0.0
  0
LINE
  5
797
330
1F
100
AcDbEntity
  8
0
 62
     7
100
AcDbLine
 10
669.6135824289776
 20
85.51272995867838
 30
0.0
 11
671.6135824289778
 21
85.51272995867838
 31
0.0
  0
LINE
  5
798
330
1F
100
AcDbEntity
  8
0
 62
     7
100
AcDbLine
 10
649.7879473343666
 20
85.41169366157021
 30
0.0
 11
648.1379473343666
 21
85.41169366157021
 31
0.0
  0
LINE
  5
799
330
1F
100
AcDbEntity
  8
0
 62
     7
100
AcDbLine
 10
647.3629473343667
 20
92.36169366157019
 30
0.0
 11
647.3629473343667
 21
91.86169366157022
 31
0.0
  0
LINE
  5
79A
330
1F
100
AcDbEntity
  8
0
 62
     7
100
AcDbLine
 10
650.5629473343667
 20
91.86169366157022
 30
0.0
 11
650.5629473343667
 21
92.36169366157019
 31
0.0
  0
LINE
  5
79B
330
1F
100
AcDbEntity
  8
0
 62
     3
100
AcDbLine
 10
652.2811291525485
 20
96.91169366157021
 30
0.0
 11
652.0879473343666
 21
92.6616936615702
 31
0.0
  0
LINE
  5
79C
330
1F
100
AcDbEntity
  8
0
 62
     3
100
AcDbLine
 10
652.0879473343666
 20
92.6616936615702
 30
0.0
 11
645.8379473343666
 21
92.6616936615702
 31
0.0
  0
LINE
  5
79D
330
1F
100
AcDbEntity
  8
0
 62
     7
100
AcDbLine
 10
651.3379473343666
 20
92.36169366157019
 30
0.0
 11
646.5879473343666
 21
92.36169366157019
 31
0.0
  0
LINE
  5
79E
330
1F
100
AcDbEntity
  8
0
 62
     7
100
AcDbLine
 10
650.7129473343666
 20
91.86169366157022
 30
0.0
 11
647.2129473343666
 21
91.86169366157022
 31
0.0
  0
LINE
  5
79F
330
1F
100
AcDbEntity
  8
0
 62
     7
100
AcDbLine
 10
650.7129473343666
 20
90.36169366157023
 30
0.0
 11
647.2129473343666
 21
90.36169366157023
 31
0.0
  0
LINE
  5
7A0
330
1F
100
AcDbEntity
  8
0
 62
     3
100
AcDbLine
 10
645.8379473343666
 20
92.6616936615702
 30
0.0
 11
645.6447655161849
 21
96.91169366157021
 31
0.0
  0
LINE
  5
7A1
330
1F
100
AcDbEntity
  8
0
 62
     7
100
AcDbLine
 10
651.3379473343666
 20
92.36169366157019
 30
0.0
 11
651.3379473343666
 21
92.6616936615702
 31
0.0
  0
LINE
  5
7A2
330
1F
100
AcDbEntity
  8
0
 62
     7
100
AcDbLine
 10
646.5879473343666
 20
92.6616936615702
 30
0.0
 11
646.5879473343666
 21
92.36169366157019
 31
0.0
  0
LINE
  5
7A3
330
1F
100
AcDbEntity
  8
0
 62
     7
100
AcDbLine
 10
650.7129473343666
 20
90.36169366157023
 30
0.0
 11
650.7129473343666
 21
91.86169366157022
 31
0.0
  0
LINE
  5
7A4
330
1F
100
AcDbEntity
  8
0
 62
     7
100
AcDbLine
 10
647.2129473343666
 20
91.86169366157022
 30
0.0
 11
647.2129473343666
 21
90.36169366157023
 31
0.0
  0
ARC
  5
7A5
330
1F
100
AcDbEntity
  8
0
 62
     7
100
AcDbCircle
 10
649.8379473343666
 20
92.01794366157013
 30
0.0
 40
1.656249999999909
100
AcDbArc
 50
238.1092081981504
 51
301.8907918018495
  0
ARC
  5
7A6
330
1F
100
AcDbEntity
  8
0
 62
     7
100
AcDbCircle
 10
648.0879473343666
 20
92.01794366157013
 30
0.0
 40
1.656249999999909
100
AcDbArc
 50
238.1092081981504
 51
301.8907918018495
  0
ARC
  5
7A7
330
1F
100
AcDbEntity
  8
0
 62
     7
100
AcDbCircle
 10
649.8379473343666
 20
90.20544366157013
 30
0.0
 40
1.656250000000078
100
AcDbArc
 50
58.10920819815716
 51
121.8907918018428
  0
ARC
  5
7A8
330
1F
100
AcDbEntity
  8
0
 62
     7
100
AcDbCircle
 10
648.0879473343666
 20
90.20544366157013
 30
0.0
 40
1.656250000000078
100
AcDbArc
 50
58.10920819815716
 51
121.8907918018428
  0
LINE
  5
7A9
330
1F
100
AcDbEntity
  8
0
 62
     7
100
AcDbLine
 10
649.9629473343666
 20
85.51272995867838
 30
0.0
 11
649.9629473343666
 21
90.36169366157023
 31
0.0
  0
LINE
  5
7AA
330
1F
100
AcDbEntity
  8
0
 62
     7
100
AcDbLine
 10
649.7879473343666
 20
85.41169366157021
 30
0.0
 11
649.7879473343666
 21
90.36169366157023
 31
0.0
  0
LINE
  5
7AB
330
1F
100
AcDbEntity
  8
0
 62
     7
100
AcDbLine
 10
647.9629473343666
 20
85.5127299586784
 30
0.0
 11
647.9629473343666
 21
90.36169366157023
 31
0.0
  0
LINE
  5
7AC
330
1F
100
AcDbEntity
  8
0
 62
     7
100
AcDbLine
 10
648.1379473343666
 20
85.41169366157021
 30
0.0
 11
648.1379473343666
 21
90.36169366157023
 31
0.0
  0
LINE
  5
7AD
330
1F
100
AcDbEntity
  8
0
 62
     7
100
AcDbLine
 10
649.9629473343666
 20
85.51272995867838
 30
0.0
 11
649.7879473343666
 21
85.41169366157021
 31
0.0
  0
LINE
  5
7AE
330
1F
100
AcDbEntity
  8
0
 62
     7
100
AcDbLine
 10
647.9629473343666
 20
85.5127299586784
 30
0.0
 11
648.1379473343666
 21
85.41169366157021
 31
0.0
  0
LINE
  5
7AF
330
1F
100
AcDbEntity
  8
0
 62
     7
100
AcDbLine
 10
647.9629473343666
 20
85.5127299586784
 30
0.0
 11
649.9629473343666
 21
85.51272995867838
 31
0.0
  0
ARC
  5
7B0
330
1F
100
AcDbEntity
  8
0
 62
     3
100
AcDbCircle
 10
659.7882648816721
 20
27.07975242653254
 30
0.0
 40
18.375
100
AcDbArc
 50
53.90068456378254
 51
46.09931543621946
  0
LINE
  5
7B3
330
1F
100
AcDbEntity
  8
0
 62
     7
100
AcDbLine
 10
638.5441480490052
 20
114.1616936615702
 30
0.0
 11
638.6555206688052
 21
114.1616936615702
 31
0.0
  0
LINE
  5
7B4
330
1F
100
AcDbEntity
  8
0
 62
     7
100
AcDbLine
 10
637.2882648816721
 20
116.1616936615702
 30
0.0
 11
682.2882648816722
 21
116.1616936615702
 31
0.0
  0
LINE
  5
7B5
330
1F
100
AcDbEntity
  8
0
 62
     3
100
AcDbLine
 10
682.2882648816722
 20
116.1616936615702
 30
0.0
 11
682.2882648816722
 21
119.6616936615702
 31
0.0
  0
LINE
  5
7B6
330
1F
100
AcDbEntity
  8
0
 62
     3
100
AcDbLine
 10
637.2882648816721
 20
116.1616936615702
 30
0.0
 11
637.2882648816721
 21
119.6616936615702
 31
0.0
  0
LINE
  5
7B7
330
1F
100
AcDbEntity
  8
0
 62
     3
100
AcDbLine
 10
682.2882648816722
 20
116.1616936615702
 30
0.0
 11
681.5325169957367
 21
114.9524970440712
 31
0.0
  0
LINE
  5
7B9
330
1F
100
AcDbEntity
  8
0
 62
     3
100
AcDbLine
 10
679.7882648816718
 20
96.91169366157021
 30
0.0
 11
640.2533440282352
 21
96.91169366157021
 31
0.0
  0
LINE
  5
7BB
330
1F
100
AcDbEntity
  8
0
 62
     3
100
AcDbLine
 10
638.0440127676104
 20
114.9524970440741
 30
0.0
 11
637.2882648816721
 21
116.1616936615702
 31
0.0
  0
LINE
  5
812
330
1F
100
AcDbEntity
  8
0
 62
     3
100
AcDbLine
 10
637.2882648816721
 20
120.5616936615702
 30
0.0
 11
682.2882648816722
 21
120.5616936615702
 31
0.0
  0
LINE
  5
813
330
1F
100
AcDbEntity
  8
0
 62
     3
100
AcDbLine
 10
682.2882648816722
 20
120.5616936615702
 30
0.0
 11
682.2882648816722
 21
128.3116936615702
 31
0.0
  0
LINE
  5
814
330
1F
100
AcDbEntity
  8
0
 62
     3
100
AcDbLine
 10
637.2882648816721
 20
120.5616936615702
 30
0.0
 11
637.2882648816721
 21
128.3116936615702
 31
0.0
  0
ARC
  5
817
330
1F
100
AcDbEntity
  8
0
 62
     3
100
AcDbCircle
 10
681.4382648816721
 20
120.1116936615702
 30
0.0
 40
0.4499999999999899
100
AcDbArc
 50
270.0
 51
90.0
  0
ARC
  5
818
330
1F
100
AcDbEntity
  8
0
 62
     3
100
AcDbCircle
 10
638.1382648816719
 20
120.1116936615702
 30
0.0
 40
0.45
100
AcDbArc
 50
90.0
 51
270.0
  0
LINE
  5
819
330
1F
100
AcDbEntity
  8
0
 62
     7
100
AcDbLine
 10
637.2882648816721
 20
128.3116936615702
 30
0.0
 11
682.2882648816722
 21
128.3116936615702
 31
0.0
  0
LINE
  5
81A
330
1F
100
AcDbEntity
  8
0
 62
     7
100
AcDbLine
 10
637.5382648816721
 20
129.2116936615702
 30
0.0
 11
682.0382648816721
 21
129.2116936615702
 31
0.0
  0
LINE
  5
81F
330
1F
100
AcDbEntity
  8
0
 62
     3
100
AcDbLine
 10
682.0382648816721
 20
129.2116936615702
 30
0.0
 11
681.7882648816721
 21
128.3116936615702
 31
0.0
  0
LINE
  5
820
330
1F
100
AcDbEntity
  8
0
 62
     3
100
AcDbLine
 10
637.5382648816721
 20
129.2116936615702
 30
0.0
 11
637.7882648816721
 21
128.3116936615702
 31
0.0
  0
LINE
  5
821
330
1F
100
AcDbEntity
  8
0
 62
     7
100
AcDbLine
 10
637.5382648816721
 20
130.7116936615702
 30
0.0
 11
682.0382648816721
 21
130.7116936615702
 31
0.0
  0
LINE
  5
824
330
1F
100
AcDbEntity
  8
0
 62
     3
100
AcDbLine
 10
681.5382648816721
 20
129.2116936615702
 30
0.0
 11
682.0382648816721
 21
130.7116936615702
 31
0.0
  0
LINE
  5
825
330
1F
100
AcDbEntity
  8
0
 62
     3
100
AcDbLine
 10
638.0382648816721
 20
129.2116936615702
 30
0.0
 11
637.5382648816721
 21
130.7116936615702
 31
0.0
  0
LINE
  5
826
330
1F
100
AcDbEntity
  8
0
 62
     7
100
AcDbLine
 10
637.5382648816721
 20
132.4616936615702
 30
0.0
 11
682.0382648816721
 21
132.4616936615702
 31
0.0
  0
LINE
  5
829
330
1F
100
AcDbEntity
  8
0
 62
     3
100
AcDbLine
 10
681.4132648816721
 20
130.7116936615702
 30
0.0
 11
682.0382648816721
 21
132.4616936615702
 31
0.0
  0
LINE
  5
82A
330
1F
100
AcDbEntity
  8
0
 62
     3
100
AcDbLine
 10
638.1632648816721
 20
130.7116936615702
 30
0.0
 11
637.5382648816721
 21
132.4616936615702
 31
0.0
  0
LINE
  5
82F
330
1F
100
AcDbEntity
  8
0
 62
     7
100
AcDbLine
 10
638.7882648816721
 20
139.2616936615702
 30
0.0
 11
680.7882648816721
 21
139.2616936615702
 31
0.0
  0
LINE
  5
830
330
1F
100
AcDbEntity
  8
0
 62
     7
100
AcDbLine
 10
638.0382648816721
 20
146.2616936615702
 30
0.0
 11
681.5382648816721
 21
146.2616936615702
 31
0.0
  0
ARC
  5
831
330
1F
100
AcDbEntity
  8
0
 62
     3
100
AcDbCircle
 10
645.9115982150052
 20
135.3195367988251
 30
0.0
 40
8.141405192487622
100
AcDbArc
 50
151.0392165402239
 51
200.5500694563596
  0
ARC
  5
832
330
1F
100
AcDbEntity
  8
0
 62
     3
100
AcDbCircle
 10
673.6649315483388
 20
135.3195367988251
 30
0.0
 40
8.14140519248772
100
AcDbArc
 50
339.4499305436405
 51
28.96078345977608
  0
LINE
  5
833
330
1F
100
AcDbEntity
  8
0
 62
     3
100
AcDbLine
 10
681.2882648816721
 20
149.5116936615701
 30
0.0
 11
680.9132648816721
 21
150.4116936615702
 31
0.0
  0
LINE
  5
834
330
1F
100
AcDbEntity
  8
0
 62
     3
100
AcDbLine
 10
638.2882648816721
 20
149.5116936615701
 30
0.0
 11
638.6632648816721
 21
150.4116936615702
 31
0.0
  0
LINE
  5
835
330
1F
100
AcDbEntity
  8
0
 62
     3
100
AcDbLine
 10
680.9132648816721
 20
149.5116936615701
 30
0.0
 11
681.2882648816721
 21
148.0116936615702
 31
0.0
  0
LINE
  5
836
330
1F
100
AcDbEntity
  8
0
 62
     3
100
AcDbLine
 10
638.6632648816721
 20
149.5116936615701
 30
0.0
 11
638.2882648816721
 21
148.0116936615702
 31
0.0
  0
LINE
  5
837
330
1F
100
AcDbEntity
  8
0
 62
     3
100
AcDbLine
 10
680.9132648816721
 20
148.0116936615702
 30
0.0
 11
681.5382648816721
 21
146.2616936615702
 31
0.0
  0
LINE
  5
838
330
1F
100
AcDbEntity
  8
0
 62
     3
100
AcDbLine
 10
638.6632648816721
 20
148.0116936615702
 30
0.0
 11
638.0382648816721
 21
146.2616936615702
 31
0.0
  0
ARC
  5
839
330
1F
100
AcDbEntity
  8
0
 62
     3
100
AcDbCircle
 10
644.4268101845572
 20
142.7616936615702
 30
0.0
 40
6.636504586956276
100
AcDbArc
 50
148.170989093812
 51
211.829010906188
  0
ARC
  5
83A
330
1F
100
AcDbEntity
  8
0
 62
     3
100
AcDbCircle
 10
675.1497195787869
 20
142.7616936615702
 30
0.0
 40
6.636504586956132
100
AcDbArc
 50
328.1709890938119
 51
31.82901090618873
  0
LINE
  5
83B
330
1F
100
AcDbEntity
  8
0
 62
     7
100
AcDbLine
 10
638.2882648816721
 20
148.0116936615702
 30
0.0
 11
681.2882648816721
 21
148.0116936615702
 31
0.0
  0
LINE
  5
83C
330
1F
100
AcDbEntity
  8
0
 62
     7
100
AcDbLine
 10
638.2882648816721
 20
149.5116936615701
 30
0.0
 11
681.2882648816721
 21
149.5116936615701
 31
0.0
  0
LINE
  5
877
330
1F
100
AcDbEntity
  8
0
 62
     7
100
AcDbLine
 10
681.5382648816721
 20
150.4116936615702
 30
0.0
 11
638.0382648816721
 21
150.4116936615702
 31
0.0
  0
LINE
  5
879
330
1F
100
AcDbEntity
  8
0
 62
     3
100
AcDbLine
 10
681.5382648816721
 20
150.4116936615702
 30
0.0
 11
681.5382648816721
 21
150.77609586462
 31
0.0
  0
LINE
  5
87A
330
1F
100
AcDbEntity
  8
0
 62
     3
100
AcDbLine
 10
638.0382648816721
 20
150.4116936615702
 30
0.0
 11
638.0382648816721
 21
150.77609586462
 31
0.0
  0
ARC
  5
880
330
1F
100
AcDbEntity
  8
0
 62
     3
100
AcDbCircle
 10
659.788264881672
 20
-3.392969382785658
 30
0.0
 40
158.0545149117106
100
AcDbArc
 50
83.69285591967139
 51
96.30714408032856
  0
LINE
  5
918
330
1F
100
AcDbEntity
  8
0
 62
     7
100
AcDbLine
 10
660.2882648816721
 20
114.1616936615702
 30
0.0
 11
660.2882648816721
 21
97.91169366157021
 31
0.0
  0
LINE
  5
919
330
1F
100
AcDbEntity
  8
0
 62
     7
100
AcDbLine
 10
659.2882648816721
 20
114.1616936615702
 30
0.0
 11
659.2882648816721
 21
97.91169366157021
 31
0.0
  0
ARC
  5
91A
330
1F
100
AcDbEntity
  8
0
 62
     7
100
AcDbCircle
 10
659.7882648816721
 20
97.91169366157021
 30
0.0
 40
0.5
100
AcDbArc
 50
180.0
 51
0.0
  0
ELLIPSE
  5
91C
330
1F
100
AcDbEntity
  8
0
 62
     7
100
AcDbEllipse
 10
659.7882648816721
 20
114.1616936615702
 30
0.0
 11
0.0
 21
0.75
 31
0.0
210
0.0
220
0.0
230
1.0
 40
0.6666666666666666
 41
4.712388980384688
 42
7.853981633974482
  0
ARC
  5
922
330
1F
100
AcDbEntity
  8
0
 62
     7
100
AcDbCircle
 10
659.7882648816721
 20
27.07975242653254
 30
0.0
 40
20.536231884058
100
AcDbArc
 50
358.6048696264327
 51
1.395130373567375
  0
ARC
  5
923
330
1F
100
AcDbEntity
  8
0
 62
     7
100
AcDbCircle
 10
659.7882648816721
 20
27.07975242653254
 30
0.0
 40
21.75
100
AcDbArc
 50
358.6827396035936
 51
1.317260396406447
  0
LINE
  5
924
330
1F
100
AcDbEntity
  8
0
 62
     7
100
AcDbLine
 10
681.5325169957366
 20
27.57975242653254
 30
0.0
 11
679.8182570961422
 21
27.57975242653254
 31
0.0
  0
LINE
  5
925
330
1F
100
AcDbEntity
  8
0
 62
     7
100
AcDbLine
 10
681.5325169957366
 20
26.57975242653254
 30
0.0
 11
679.8182570961422
 21
26.57975242653254
 31
0.0
  0
LINE
  5
928
330
1F
100
AcDbEntity
  8
0
 62
     7
100
AcDbLine
 10
680.9210090945389
 20
32.22461608201864
 30
0.0
 11
679.2651611845492
 21
31.78093297174813
 31
0.0
  0
LINE
  5
929
330
1F
100
AcDbEntity
  8
0
 62
     7
100
AcDbLine
 10
680.6621900494365
 20
33.19054190830771
 30
0.0
 11
679.0063421394465
 21
32.74685879803719
 31
0.0
  0
LINE
  5
92A
330
1F
100
AcDbEntity
  8
0
 62
     7
100
AcDbLine
 10
678.8693395987452
 20
37.51886578167257
 30
0.0
 11
677.384746977008
 21
36.66173583187546
 31
0.0
  0
LINE
  5
92B
330
1F
100
AcDbEntity
  8
0
 62
     7
100
AcDbLine
 10
678.3693395987452
 20
38.38489118545701
 30
0.0
 11
676.884746977008
 21
37.5277612356599
 31
0.0
  0
LINE
  5
92C
330
1F
100
AcDbEntity
  8
0
 62
     7
100
AcDbLine
 10
675.5173263939504
 20
42.10170715762417
 30
0.0
 11
674.3051615942309
 21
40.88954235790493
 31
0.0
  0
LINE
  5
92D
330
1F
100
AcDbEntity
  8
0
 62
     7
100
AcDbLine
 10
674.8102196127637
 20
42.80881393881074
 30
0.0
 11
673.5980548130446
 21
41.5966491390915
 31
0.0
  0
LINE
  5
92E
330
1F
100
AcDbEntity
  8
0
 62
     7
100
AcDbLine
 10
671.0934036405966
 20
45.66082714360589
 30
0.0
 11
670.2362736907995
 21
44.1762345218683
 31
0.0
  0
LINE
  5
92F
330
1F
100
AcDbEntity
  8
0
 62
     7
100
AcDbLine
 10
670.2273782368123
 20
46.16082714360589
 30
0.0
 11
669.3702482870151
 21
44.67623452186827
 31
0.0
  0
LINE
  5
930
330
1F
100
AcDbEntity
  8
0
 62
     7
100
AcDbLine
 10
665.8990543634472
 20
47.95367759429689
 30
0.0
 11
665.4553712531767
 21
46.29782968430713
 31
0.0
  0
LINE
  5
931
330
1F
100
AcDbEntity
  8
0
 62
     7
100
AcDbLine
 10
664.9331285371582
 20
48.21249663939943
 30
0.0
 11
664.4894454268877
 21
46.55664872940969
 31
0.0
  0
LINE
  5
932
330
1F
100
AcDbEntity
  8
0
 62
     7
100
AcDbLine
 10
660.2882648816721
 20
48.82400454059705
 30
0.0
 11
660.2882648816721
 21
47.10974464100285
 31
0.0
  0
LINE
  5
933
330
1F
100
AcDbEntity
  8
0
 62
     7
100
AcDbLine
 10
659.2882648816721
 20
48.82400454059705
 30
0.0
 11
659.2882648816721
 21
47.10974464100285
 31
0.0
  0
LINE
  5
934
330
1F
100
AcDbEntity
  8
0
 62
     7
100
AcDbLine
 10
654.6434012261861
 20
48.21249663939937
 30
0.0
 11
655.0870843364566
 21
46.55664872940961
 31
0.0
  0
LINE
  5
935
330
1F
100
AcDbEntity
  8
0
 62
     7
100
AcDbLine
 10
653.677475399897
 20
47.95367759429683
 30
0.0
 11
654.1211585101676
 21
46.29782968430709
 31
0.0
  0
LINE
  5
936
330
1F
100
AcDbEntity
  8
0
 62
     7
100
AcDbLine
 10
649.3491515265319
 20
46.16082714360589
 30
0.0
 11
650.2062814763291
 21
44.67623452186836
 31
0.0
  0
LINE
  5
937
330
1F
100
AcDbEntity
  8
0
 62
     7
100
AcDbLine
 10
648.4831261227476
 20
45.66082714360589
 30
0.0
 11
649.3402560725447
 21
44.17623452186836
 31
0.0
  0
LINE
  5
938
330
1F
100
AcDbEntity
  8
0
 62
     7
100
AcDbLine
 10
644.7663101505805
 20
42.80881393881077
 30
0.0
 11
645.9784749502997
 21
41.59664913909153
 31
0.0
  0
LINE
  5
939
330
1F
100
AcDbEntity
  8
0
 62
     7
100
AcDbLine
 10
644.0592033693937
 20
42.10170715762422
 30
0.0
 11
645.2713681691132
 21
40.88954235790498
 31
0.0
  0
LINE
  5
93A
330
1F
100
AcDbEntity
  8
0
 62
     7
100
AcDbLine
 10
641.2071901645987
 20
38.38489118545704
 30
0.0
 11
642.6917827863363
 21
37.52776123565994
 31
0.0
  0
LINE
  5
93B
330
1F
100
AcDbEntity
  8
0
 62
     7
100
AcDbLine
 10
640.7071901645987
 20
37.51886578167261
 30
0.0
 11
642.1917827863362
 21
36.66173583187549
 31
0.0
  0
LINE
  5
93C
330
1F
100
AcDbEntity
  8
0
 62
     7
100
AcDbLine
 10
638.9143397139077
 20
33.19054190830771
 30
0.0
 11
640.5701876238976
 21
32.74685879803719
 31
0.0
  0
LINE
  5
93D
330
1F
100
AcDbEntity
  8
0
 62
     7
100
AcDbLine
 10
638.6555206688052
 20
32.22461608201864
 30
0.0
 11
640.311368578795
 21
31.78093297174813
 31
0.0
  0
LINE
  5
93E
330
1F
100
AcDbEntity
  8
0
 62
     7
100
AcDbLine
 10
638.0440127676076
 20
27.57975242653253
 30
0.0
 11
639.7582726672018
 21
27.57975242653254
 31
0.0
  0
LINE
  5
93F
330
1F
100
AcDbEntity
  8
0
 62
     7
100
AcDbLine
 10
638.0440127676076
 20
26.57975242653253
 30
0.0
 11
639.7582726672018
 21
26.57975242653254
 31
0.0
  0
LINE
  5
940
330
1F
100
AcDbEntity
  8
0
 62
     7
100
AcDbLine
 10
638.6555206688052
 20
21.93488877104643
 30
0.0
 11
640.311368578795
 21
22.37857188131693
 31
0.0
  0
LINE
  5
941
330
1F
100
AcDbEntity
  8
0
 62
     7
100
AcDbLine
 10
638.9143397139077
 20
20.96896294475735
 30
0.0
 11
640.5701876238976
 21
21.41264605502787
 31
0.0
  0
LINE
  5
942
330
1F
100
AcDbEntity
  8
0
 62
     7
100
AcDbLine
 10
640.7071901645987
 20
16.64063907139248
 30
0.0
 11
642.1917827863362
 21
17.49776902118958
 31
0.0
  0
LINE
  5
943
330
1F
100
AcDbEntity
  8
0
 62
     7
100
AcDbLine
 10
641.2071901645987
 20
15.77461366760803
 30
0.0
 11
642.6917827863363
 21
16.63174361740513
 31
0.0
  0
LINE
  5
944
330
1F
100
AcDbEntity
  8
0
 62
     7
100
AcDbLine
 10
644.0592033693937
 20
12.05779769544085
 30
0.0
 11
645.2713681691132
 21
13.26996249516009
 31
0.0
  0
LINE
  5
945
330
1F
100
AcDbEntity
  8
0
 62
     7
100
AcDbLine
 10
644.7663101505805
 20
11.3506909142543
 30
0.0
 11
645.9784749502996
 21
12.56285571397353
 31
0.0
  0
LINE
  5
946
330
1F
100
AcDbEntity
  8
0
 62
     7
100
AcDbLine
 10
648.4831261227476
 20
8.498677709459173
 30
0.0
 11
649.3402560725447
 21
9.983270331196708
 31
0.0
  0
LINE
  5
947
330
1F
100
AcDbEntity
  8
0
 62
     7
100
AcDbLine
 10
649.3491515265319
 20
7.998677709459172
 30
0.0
 11
650.2062814763291
 21
9.483270331196708
 31
0.0
  0
LINE
  5
948
330
1F
100
AcDbEntity
  8
0
 62
     7
100
AcDbLine
 10
653.6774753998968
 20
6.205827258768238
 30
0.0
 11
654.1211585101672
 21
7.861675168757982
 31
0.0
  0
LINE
  5
949
330
1F
100
AcDbEntity
  8
0
 62
     7
100
AcDbLine
 10
654.643401226186
 20
5.947008213665696
 30
0.0
 11
655.0870843364565
 21
7.602856123655442
 31
0.0
  0
LINE
  5
94A
330
1F
100
AcDbEntity
  8
0
 62
     7
100
AcDbLine
 10
659.2882648816721
 20
5.335500312468012
 30
0.0
 11
659.2882648816721
 21
7.049760212062207
 31
0.0
  0
LINE
  5
94B
330
1F
100
AcDbEntity
  8
0
 62
     7
100
AcDbLine
 10
660.2882648816721
 20
5.335500312468012
 30
0.0
 11
660.2882648816721
 21
7.049760212062207
 31
0.0
  0
LINE
  5
94C
330
1F
100
AcDbEntity
  8
0
 62
     7
100
AcDbLine
 10
664.9331285371582
 20
5.947008213665696
 30
0.0
 11
664.4894454268877
 21
7.602856123655499
 31
0.0
  0
LINE
  5
94D
330
1F
100
AcDbEntity
  8
0
 62
     7
100
AcDbLine
 10
665.8990543634472
 20
6.205827258768238
 30
0.0
 11
665.4553712531767
 21
7.861675168757982
 31
0.0
  0
LINE
  5
94E
330
1F
100
AcDbEntity
  8
0
 62
     7
100
AcDbLine
 10
670.2273782368121
 20
7.998677709459172
 30
0.0
 11
669.3702482870151
 21
9.483270331196708
 31
0.0
  0
LINE
  5
94F
330
1F
100
AcDbEntity
  8
0
 62
     7
100
AcDbLine
 10
671.0934036405964
 20
8.498677709459173
 30
0.0
 11
670.2362736907995
 21
9.983270331196708
 31
0.0
  0
LINE
  5
950
330
1F
100
AcDbEntity
  8
0
 62
     7
100
AcDbLine
 10
674.8102196127637
 20
11.3506909142543
 30
0.0
 11
673.5980548130445
 21
12.56285571397353
 31
0.0
  0
LINE
  5
951
330
1F
100
AcDbEntity
  8
0
 62
     7
100
AcDbLine
 10
675.5173263939503
 20
12.05779769544085
 30
0.0
 11
674.3051615942309
 21
13.26996249516009
 31
0.0
  0
LINE
  5
952
330
1F
100
AcDbEntity
  8
0
 62
     7
100
AcDbLine
 10
678.3693395987452
 20
15.77461366760803
 30
0.0
 11
676.8847469770079
 21
16.63174361740513
 31
0.0
  0
LINE
  5
953
330
1F
100
AcDbEntity
  8
0
 62
     7
100
AcDbLine
 10
678.8693395987452
 20
16.64063907139246
 30
0.0
 11
677.3847469770079
 21
17.49776902118955
 31
0.0
  0
LINE
  5
954
330
1F
100
AcDbEntity
  8
0
 62
     7
100
AcDbLine
 10
680.6621900494365
 20
20.96896294475732
 30
0.0
 11
679.0063421394465
 21
21.41264605502783
 31
0.0
  0
LINE
  5
955
330
1F
100
AcDbEntity
  8
0
 62
     7
100
AcDbLine
 10
680.921009094539
 20
21.93488877104639
 30
0.0
 11
679.2651611845492
 21
22.3785718813169
 31
0.0
  0
LINE
  5
956
330
1F
100
AcDbEntity
  8
0
 62
     7
100
AcDbLine
 10
664.8036840012049
 20
114.1616936615702
 30
0.0
 11
664.4991151661944
 21
97.90404514719606
 31
0.0
  0
LINE
  5
958
330
1F
100
AcDbEntity
  8
0
 62
     7
100
AcDbLine
 10
664.9331285371582
 20
114.1616936615702
 30
0.0
 11
664.6286835351125
 21
97.9101373162398
 31
0.0
  0
LINE
  5
959
330
1F
100
AcDbEntity
  8
0
 62
     7
100
AcDbLine
 10
665.6061849815799
 20
97.89096029887859
 30
0.0
 11
665.9103473556307
 21
114.1616936615702
 31
0.0
  0
ELLIPSE
  5
95B
330
1F
100
AcDbEntity
  8
0
 62
     7
100
AcDbEllipse
 10
665.4217379463946
 20
114.1616936615702
 30
0.0
 11
0.0
 21
0.75
 31
0.0
210
0.0
220
0.0
230
1.0
 40
0.6514792123151291
 41
4.712388980384688
 42
7.853981633974482
  0
ARC
  5
95E
330
1F
100
AcDbEntity
  8
0
 62
     7
100
AcDbCircle
 10
665.1174340547838
 20
97.90053843147969
 30
0.0
 40
0.4888447699095157
100
AcDbArc
 50
178.8748761021321
 51
358.8773088578739
  0
ARC
  5
960
330
1F
100
AcDbEntity
  8
0
 62
     7
100
AcDbCircle
 10
664.9818918597677
 20
97.89456345595221
 30
0.0
 40
0.4828697943819791
100
AcDbArc
 50
178.8748606460417
 51
270.0
  0
LINE
  5
961
330
1F
100
AcDbEntity
  8
0
 62
     7
100
AcDbLine
 10
669.9773105961132
 20
114.1616936615702
 30
0.0
 11
669.3872880273127
 21
97.86080051712641
 31
0.0
  0
LINE
  5
963
330
1F
100
AcDbEntity
  8
0
 62
     7
100
AcDbLine
 10
670.2273782368123
 20
114.1616936615702
 30
0.0
 11
669.6375678285884
 21
97.8661787098246
 31
0.0
  0
LINE
  5
964
330
1F
100
AcDbEntity
  8
0
 62
     7
100
AcDbLine
 10
670.5127157467434
 20
97.83326614972866
 30
0.0
 11
671.0934036405966
 21
114.1616936615702
 31
0.0
  0
ELLIPSE
  5
966
330
1F
100
AcDbEntity
  8
0
 62
     7
100
AcDbEllipse
 10
670.6603909387044
 20
114.1616936615702
 30
0.0
 11
0.0
 21
0.75
 31
0.0
210
0.0
220
0.0
230
1.0
 40
0.5773502691896889
 41
4.712388980384688
 42
7.853981633974482
  0
LINE
  5
968
330
1F
100
AcDbEntity
  8
0
 62
     7
100
AcDbLine
 10
664.8036840012049
 20
114.1616936615702
 30
0.0
 11
665.0354623524076
 21
114.6209810353685
 31
0.0
  0
LINE
  5
969
330
1F
100
AcDbEntity
  8
0
 62
     7
100
AcDbLine
 10
669.9773105961132
 20
114.1616936615702
 30
0.0
 11
670.3858990695797
 21
114.7417476602234
 31
0.0
  0
ARC
  5
96A
330
1F
100
AcDbEntity
  8
0
 62
     7
100
AcDbCircle
 10
670.0751363175672
 20
97.84957697936331
 30
0.0
 40
0.4378833177931007
100
AcDbArc
 50
177.8271903008216
 51
357.8652807508154
  0
ARC
  5
96B
330
1F
100
AcDbEntity
  8
0
 62
     7
100
AcDbCircle
 10
669.8196782820721
 20
97.84439502797102
 30
0.0
 40
0.4327013664007576
100
AcDbArc
 50
177.8271604733688
 51
270.0
  0
LINE
  5
96C
330
1F
100
AcDbEntity
  8
0
 62
     7
100
AcDbLine
 10
673.6180132526564
 20
97.78365542641381
 30
0.0
 11
674.4565705637767
 21
114.1616936615702
 31
0.0
  0
LINE
  5
96E
330
1F
100
AcDbEntity
  8
0
 62
     7
100
AcDbLine
 10
674.8102196127637
 20
114.1616936615702
 30
0.0
 11
673.971911561885
 21
97.7880861662625
 31
0.0
  0
LINE
  5
96F
330
1F
100
AcDbEntity
  8
0
 62
     7
100
AcDbLine
 10
674.6853978413875
 20
97.74999486194879
 30
0.0
 11
675.5173263939504
 21
114.1616936615702
 31
0.0
  0
ELLIPSE
  5
971
330
1F
100
AcDbEntity
  8
0
 62
     7
100
AcDbEllipse
 10
675.1637730033571
 20
114.1616936615702
 30
0.0
 11
0.0
 21
0.75
 31
0.0
210
0.0
220
0.0
230
1.0
 40
0.4714045207910356
 41
4.712388980384688
 42
7.853981633974482
  0
LINE
  5
972
330
1F
100
AcDbEntity
  8
0
 62
     7
100
AcDbLine
 10
674.4565705637767
 20
114.1616936615702
 30
0.0
 11
674.9870202194241
 21
114.8112419970878
 31
0.0
  0
ARC
  5
973
330
1F
100
AcDbEntity
  8
0
 62
     7
100
AcDbCircle
 10
674.3286495945234
 20
97.76894485303472
 30
0.0
 40
0.3572511914645422
100
AcDbArc
 50
176.9286543991118
 51
356.9593822527741
  0
ARC
  5
974
330
1F
100
AcDbEntity
  8
0
 62
     7
100
AcDbCircle
 10
673.9705516503699
 20
97.76473919096538
 30
0.0
 40
0.3530455293951691
100
AcDbArc
 50
176.928612277271
 51
270.0
  0
LINE
  5
975
330
1F
100
AcDbEntity
  8
0
 62
     7
100
AcDbLine
 10
676.9022157408262
 20
97.67751403201723
 30
0.0
 11
677.9362097397262
 21
114.1616936615702
 31
0.0
  0
LINE
  5
977
330
1F
100
AcDbEntity
  8
0
 62
     7
100
AcDbLine
 10
678.3693395987452
 20
114.1616936615702
 30
0.0
 11
677.3353597938449
 21
97.67751382391509
 31
0.0
  0
LINE
  5
978
330
1F
100
AcDbEntity
  8
0
 62
     7
100
AcDbLine
 10
677.833209813833
 20
97.64479735112473
 30
0.0
 11
678.8693395987452
 21
114.1616936615702
 31
0.0
  0
ELLIPSE
  5
97A
330
1F
100
AcDbEntity
  8
0
 62
     7
100
AcDbEllipse
 10
678.6193395987452
 20
114.1616936615702
 30
0.0
 11
0.0
 21
0.75
 31
0.0
210
0.0
220
0.0
230
1.0
 40
0.3333333333333333
 41
4.712388980384688
 42
7.853981633974482
  0
LINE
  5
97B
330
1F
100
AcDbEntity
  8
0
 62
     7
100
AcDbLine
 10
677.9362097397262
 20
114.1616936615702
 30
0.0
 11
678.5278489411862
 21
114.859665821627
 31
0.0
  0
ARC
  5
97C
330
1F
100
AcDbEntity
  8
0
 62
     7
100
AcDbCircle
 10
677.5842848038386
 20
97.66115558751987
 30
0.0
 40
0.249461925949743
100
AcDbArc
 50
176.2401841465009
 51
356.2401841465018
  0
ARC
  5
97D
330
1F
100
AcDbEntity
  8
0
 62
     7
100
AcDbCircle
 10
677.1511407214051
 20
97.66115557278041
 30
0.0
 40
0.2494619112101919
100
AcDbArc
 50
176.2401326319364
 51
270.0
  0
LINE
  5
97E
330
1F
100
AcDbEntity
  8
0
 62
     7
100
AcDbLine
 10
680.1790964644957
 20
114.1616936615702
 30
0.0
 11
679.0164936440817
 21
97.55019161522676
 31
0.0
  0
LINE
  5
980
330
1F
100
AcDbEntity
  8
0
 62
     7
100
AcDbLine
 10
680.6621900494365
 20
114.1616936615702
 30
0.0
 11
679.4996031951503
 21
97.55019149645114
 31
0.0
  0
LINE
  5
981
330
1F
100
AcDbEntity
  8
0
 62
     7
100
AcDbLine
 10
680.921009094539
 20
114.1616936615702
 30
0.0
 11
679.7570392106019
 21
97.53132243069252
 31
0.0
  0
ELLIPSE
  5
983
330
1F
100
AcDbEntity
  8
0
 62
     7
100
AcDbEllipse
 10
680.7915995719877
 20
114.1616936615702
 30
0.0
 11
0.0
 21
0.75
 31
0.0
210
0.0
220
0.0
230
1.0
 40
0.1725460300684366
 41
4.712388980384688
 42
7.853981633974482
  0
LINE
  5
984
330
1F
100
AcDbEntity
  8
0
 62
     7
100
AcDbLine
 10
680.1790964644957
 20
114.1616936615702
 30
0.0
 11
680.7642579563743
 21
114.8947628809487
 31
0.0
  0
ARC
  5
985
330
1F
100
AcDbEntity
  8
0
 62
     7
100
AcDbCircle
 10
679.6283212028762
 20
97.5407569635718
 30
0.0
 40
0.1290633020014936
100
AcDbArc
 50
175.807936943791
 51
355.8079369437893
  0
ARC
  5
986
330
1F
100
AcDbEntity
  8
0
 62
     7
100
AcDbCircle
 10
679.1452116329049
 20
97.54075695409522
 30
0.0
 40
0.129063292524964
100
AcDbArc
 50
175.807879546986
 51
270.0
  0
LINE
  5
987
330
1F
100
AcDbEntity
  8
0
 62
     7
100
AcDbLine
 10
681.5325169957366
 20
114.9524970440734
 30
0.0
 11
680.335182333529
 21
97.64366375617772
 31
0.0
  0
LINE
  5
988
330
1F
100
AcDbEntity
  8
0
 62
     3
100
AcDbLine
 10
681.5325169957366
 20
114.9524970440734
 30
0.0
 11
681.0323817143389
 21
114.1616936615702
 31
0.0
  0
LINE
  5
989
330
1F
100
AcDbEntity
  8
0
 62
     3
100
AcDbLine
 10
681.0323817143389
 20
114.1616936615702
 30
0.0
 11
679.8182570961422
 21
97.41169366157024
 31
0.0
  0
LINE
  5
98A
330
1F
100
AcDbEntity
  8
0
 62
     7
100
AcDbLine
 10
679.8182570961422
 20
97.41169366157024
 30
0.0
 11
680.0858333361146
 21
97.41169366157024
 31
0.0
  0
LINE
  5
9B7
330
1F
100
AcDbEntity
  8
0
 62
     7
100
AcDbLine
 10
664.9818918597677
 20
97.41169366157024
 30
0.0
 11
665.1174340547838
 21
97.41169366157024
 31
0.0
  0
LINE
  5
9B8
330
1F
100
AcDbEntity
  8
0
 62
     7
100
AcDbLine
 10
669.8196782820721
 20
97.41169366157024
 30
0.0
 11
670.0751363175672
 21
97.41169366157024
 31
0.0
  0
LINE
  5
9B9
330
1F
100
AcDbEntity
  8
0
 62
     7
100
AcDbLine
 10
673.9705516503699
 20
97.41169366157024
 30
0.0
 11
674.3286495945234
 21
97.41169366157024
 31
0.0
  0
LINE
  5
9BA
330
1F
100
AcDbEntity
  8
0
 62
     7
100
AcDbLine
 10
677.1511407214051
 20
97.41169366157024
 30
0.0
 11
677.5842848038386
 21
97.41169366157024
 31
0.0
  0
LINE
  5
9BB
330
1F
100
AcDbEntity
  8
0
 62
     7
100
AcDbLine
 10
679.1452116329049
 20
97.41169366157024
 30
0.0
 11
679.6283212028762
 21
97.41169366157024
 31
0.0
  0
ARC
  5
9BC
330
1F
100
AcDbEntity
  8
0
 62
     7
100
AcDbCircle
 10
680.0858333361146
 20
97.66169366157022
 30
0.0
 40
0.25
100
AcDbArc
 50
270.0
 51
355.8642596034512
  0
ARC
  5
9BE
330
1F
100
AcDbEntity
  8
0
 62
     3
100
AcDbCircle
 10
679.3231857351091
 20
97.41169366157024
 30
0.0
 40
0.5
100
AcDbArc
 50
270.0
 51
355.8553762588949
  0
LINE
  5
9C0
330
1F
100
AcDbEntity
  8
0
 62
     3
100
AcDbLine
 10
679.7882648816718
 20
96.91169366157021
 30
0.0
 11
679.8244967657301
 21
97.41169366157024
 31
0.0
  0
LINE
  5
9C1
330
1F
100
AcDbEntity
  8
0
 62
     7
100
AcDbLine
 10
654.5946379035765
 20
97.41169366157024
 30
0.0
 11
654.4590957085603
 21
97.41169366157024
 31
0.0
  0
LINE
  5
9C2
330
1F
100
AcDbEntity
  8
0
 62
     7
100
AcDbLine
 10
649.7568514812721
 20
97.41169366157024
 30
0.0
 11
649.5013934457769
 21
97.41169366157024
 31
0.0
  0
LINE
  5
9C3
330
1F
100
AcDbEntity
  8
0
 62
     7
100
AcDbLine
 10
645.6059781129744
 20
97.41169366157024
 30
0.0
 11
645.2478801688207
 21
97.41169366157024
 31
0.0
  0
LINE
  5
9C4
330
1F
100
AcDbEntity
  8
0
 62
     7
100
AcDbLine
 10
642.4253890419387
 20
97.41169366157024
 30
0.0
 11
641.9922449595052
 21
97.41169366157024
 31
0.0
  0
LINE
  5
9C5
330
1F
100
AcDbEntity
  8
0
 62
     7
100
AcDbLine
 10
640.4313181304392
 20
97.41169366157024
 30
0.0
 11
639.9482085604679
 21
97.41169366157024
 31
0.0
  0
ARC
  5
9C6
330
1F
100
AcDbEntity
  8
0
 62
     3
100
AcDbCircle
 10
640.2533440282352
 20
97.41169366157024
 30
0.0
 40
0.5
100
AcDbArc
 50
184.1446237411043
 51
270.0
  0
LINE
  5
9C7
330
1F
100
AcDbEntity
  8
0
 62
     7
100
AcDbLine
 10
654.7728457621392
 20
114.1616936615702
 30
0.0
 11
655.0774145971497
 21
97.90404514719606
 31
0.0
  0
LINE
  5
9C8
330
1F
100
AcDbEntity
  8
0
 62
     7
100
AcDbLine
 10
654.643401226186
 20
114.1616936615702
 30
0.0
 11
654.9478462282317
 21
97.9101373162398
 31
0.0
  0
LINE
  5
9C9
330
1F
100
AcDbEntity
  8
0
 62
     7
100
AcDbLine
 10
653.9703447817644
 20
97.89096029887859
 30
0.0
 11
653.6661824077132
 21
114.1616936615702
 31
0.0
  0
ELLIPSE
  5
9CA
330
1F
100
AcDbEntity
  8
0
 62
     7
100
AcDbEllipse
 10
654.1547918169498
 20
114.1616936615702
 30
0.0
 11
0.0
 21
0.75
 31
0.0
210
0.0
220
0.0
230
-1.0
 40
0.6514792123151291
 41
4.712388980384688
 42
7.853981633974482
  0
ARC
  5
9CB
330
1F
100
AcDbEntity
  8
0
 62
     7
100
AcDbCircle
 10
654.4590957085603
 20
97.90053843147969
 30
0.0
 40
0.4888447699095157
100
AcDbArc
 50
181.1226911421261
 51
1.125123897867855
  0
ARC
  5
9CC
330
1F
100
AcDbEntity
  8
0
 62
     7
100
AcDbCircle
 10
654.5946379035765
 20
97.89456345595221
 30
0.0
 40
0.4828697943819791
100
AcDbArc
 50
270.0
 51
1.125139353958317
  0
LINE
  5
9CD
330
1F
100
AcDbEntity
  8
0
 62
     7
100
AcDbLine
 10
649.599219167231
 20
114.1616936615702
 30
0.0
 11
650.1892417360314
 21
97.86080051712641
 31
0.0
  0
LINE
  5
9CE
330
1F
100
AcDbEntity
  8
0
 62
     7
100
AcDbLine
 10
649.3491515265319
 20
114.1616936615702
 30
0.0
 11
649.9389619347557
 21
97.8661787098246
 31
0.0
  0
LINE
  5
9CF
330
1F
100
AcDbEntity
  8
0
 62
     7
100
AcDbLine
 10
649.0638140166007
 20
97.83326614972866
 30
0.0
 11
648.4831261227476
 21
114.1616936615702
 31
0.0
  0
ELLIPSE
  5
9D0
330
1F
100
AcDbEntity
  8
0
 62
     7
100
AcDbEllipse
 10
648.9161388246399
 20
114.1616936615702
 30
0.0
 11
0.0
 21
0.75
 31
0.0
210
0.0
220
0.0
230
-1.0
 40
0.5773502691896889
 41
4.712388980384688
 42
7.853981633974482
  0
LINE
  5
9D1
330
1F
100
AcDbEntity
  8
0
 62
     7
100
AcDbLine
 10
654.7728457621392
 20
114.1616936615702
 30
0.0
 11
654.5410674109366
 21
114.6209810353685
 31
0.0
  0
LINE
  5
9D2
330
1F
100
AcDbEntity
  8
0
 62
     7
100
AcDbLine
 10
649.599219167231
 20
114.1616936615702
 30
0.0
 11
649.1906306937643
 21
114.7417476602234
 31
0.0
  0
ARC
  5
9D3
330
1F
100
AcDbEntity
  8
0
 62
     7
100
AcDbCircle
 10
649.5013934457769
 20
97.84957697936331
 30
0.0
 40
0.4378833177931007
100
AcDbArc
 50
182.1347192491846
 51
2.172809699178392
  0
ARC
  5
9D4
330
1F
100
AcDbEntity
  8
0
 62
     7
100
AcDbCircle
 10
649.7568514812721
 20
97.84439502797102
 30
0.0
 40
0.4327013664007576
100
AcDbArc
 50
270.0
 51
2.172839526631189
  0
LINE
  5
9D5
330
1F
100
AcDbEntity
  8
0
 62
     7
100
AcDbLine
 10
645.9585165106877
 20
97.78365542641381
 30
0.0
 11
645.1199591995672
 21
114.1616936615702
 31
0.0
  0
LINE
  5
9D6
330
1F
100
AcDbEntity
  8
0
 62
     7
100
AcDbLine
 10
644.7663101505805
 20
114.1616936615702
 30
0.0
 11
645.6046182014593
 21
97.7880861662625
 31
0.0
  0
LINE
  5
9D7
330
1F
100
AcDbEntity
  8
0
 62
     7
100
AcDbLine
 10
644.8911319219567
 20
97.74999486194879
 30
0.0
 11
644.0592033693937
 21
114.1616936615702
 31
0.0
  0
ELLIPSE
  5
9D8
330
1F
100
AcDbEntity
  8
0
 62
     7
100
AcDbEllipse
 10
644.4127567599871
 20
114.1616936615702
 30
0.0
 11
0.0
 21
0.75
 31
0.0
210
0.0
220
0.0
230
-1.0
 40
0.4714045207910356
 41
4.712388980384688
 42
7.853981633974482
  0
LINE
  5
9D9
330
1F
100
AcDbEntity
  8
0
 62
     7
100
AcDbLine
 10
645.1199591995672
 20
114.1616936615702
 30
0.0
 11
644.5895095439201
 21
114.8112419970878
 31
0.0
  0
ARC
  5
9DA
330
1F
100
AcDbEntity
  8
0
 62
     7
100
AcDbCircle
 10
645.2478801688207
 20
97.76894485303472
 30
0.0
 40
0.3572511914645422
100
AcDbArc
 50
183.0406177472259
 51
3.071345600888171
  0
ARC
  5
9DB
330
1F
100
AcDbEntity
  8
0
 62
     7
100
AcDbCircle
 10
645.6059781129744
 20
97.76473919096538
 30
0.0
 40
0.3530455293951691
100
AcDbArc
 50
270.0
 51
3.071387722728956
  0
LINE
  5
9DC
330
1F
100
AcDbEntity
  8
0
 62
     7
100
AcDbLine
 10
642.6743140225178
 20
97.67751403201723
 30
0.0
 11
641.6403200236177
 21
114.1616936615702
 31
0.0
  0
LINE
  5
9DD
330
1F
100
AcDbEntity
  8
0
 62
     7
100
AcDbLine
 10
641.2071901645987
 20
114.1616936615702
 30
0.0
 11
642.2411699694992
 21
97.67751382391509
 31
0.0
  0
LINE
  5
9DE
330
1F
100
AcDbEntity
  8
0
 62
     7
100
AcDbLine
 10
641.7433199495112
 20
97.64479735112473
 30
0.0
 11
640.7071901645987
 21
114.1616936615702
 31
0.0
  0
ELLIPSE
  5
9DF
330
1F
100
AcDbEntity
  8
0
 62
     7
100
AcDbEllipse
 10
640.9571901645987
 20
114.1616936615702
 30
0.0
 11
0.0
 21
0.75
 31
0.0
210
0.0
220
0.0
230
-1.0
 40
0.3333333333333333
 41
4.712388980384688
 42
7.853981633974482
  0
LINE
  5
9E0
330
1F
100
AcDbEntity
  8
0
 62
     7
100
AcDbLine
 10
641.6403200236177
 20
114.1616936615702
 30
0.0
 11
641.048680822158
 21
114.859665821627
 31
0.0
  0
ARC
  5
9E1
330
1F
100
AcDbEntity
  8
0
 62
     7
100
AcDbCircle
 10
641.9922449595052
 20
97.66115558751987
 30
0.0
 40
0.249461925949743
100
AcDbArc
 50
183.7598158534991
 51
3.759815853499075
  0
ARC
  5
9E2
330
1F
100
AcDbEntity
  8
0
 62
     7
100
AcDbCircle
 10
642.4253890419387
 20
97.66115557278041
 30
0.0
 40
0.2494619112101919
100
AcDbArc
 50
270.0
 51
3.759867368063533
  0
LINE
  5
9E3
330
1F
100
AcDbEntity
  8
0
 62
     7
100
AcDbLine
 10
639.3974332988482
 20
114.1616936615702
 30
0.0
 11
640.5600361192622
 21
97.55019161522676
 31
0.0
  0
LINE
  5
9E4
330
1F
100
AcDbEntity
  8
0
 62
     7
100
AcDbLine
 10
638.9143397139077
 20
114.1616936615702
 30
0.0
 11
640.0769265681937
 21
97.55019149645114
 31
0.0
  0
LINE
  5
9E5
330
1F
100
AcDbEntity
  8
0
 62
     7
100
AcDbLine
 10
638.6555206688052
 20
114.1616936615702
 30
0.0
 11
639.8194905527422
 21
97.53132243069252
 31
0.0
  0
ELLIPSE
  5
9E7
330
1F
100
AcDbEntity
  8
0
 62
     7
100
AcDbEllipse
 10
638.7849301913567
 20
114.1616936615702
 30
0.0
 11
0.0
 21
0.75
 31
0.0
210
0.0
220
0.0
230
-1.0
 40
0.1725460300684366
 41
4.712388980384688
 42
7.853981633974482
  0
LINE
  5
9E8
330
1F
100
AcDbEntity
  8
0
 62
     7
100
AcDbLine
 10
639.3974332988482
 20
114.1616936615702
 30
0.0
 11
638.8122718069698
 21
114.8947628809487
 31
0.0
  0
ARC
  5
9E9
330
1F
100
AcDbEntity
  8
0
 62
     7
100
AcDbCircle
 10
639.9482085604679
 20
97.5407569635718
 30
0.0
 40
0.1290633020014936
100
AcDbArc
 50
184.1920630562106
 51
4.192063056209009
  0
ARC
  5
9EA
330
1F
100
AcDbEntity
  8
0
 62
     7
100
AcDbCircle
 10
640.4313181304392
 20
97.54075695409522
 30
0.0
 40
0.129063292524964
100
AcDbArc
 50
270.0
 51
4.192120453014728
  0
LINE
  5
9EB
330
1F
100
AcDbEntity
  8
0
 62
     7
100
AcDbLine
 10
638.0440127676076
 20
114.9524970440734
 30
0.0
 11
639.2413474298152
 21
97.64366375617772
 31
0.0
  0
ARC
  5
9EC
330
1F
100
AcDbEntity
  8
0
 62
     7
100
AcDbCircle
 10
639.4906964272296
 20
97.66169366157022
 30
0.0
 40
0.25
100
AcDbArc
 50
184.1357403965488
 51
270.0
  0
LINE
  5
9ED
330
1F
100
AcDbEntity
  8
0
 62
     3
100
AcDbLine
 10
638.0440127676076
 20
114.9524970440734
 30
0.0
 11
638.5441480490052
 21
114.1616936615702
 31
0.0
  0
LINE
  5
9EE
330
1F
100
AcDbEntity
  8
0
 62
     3
100
AcDbLine
 10
638.5441480490052
 20
114.1616936615702
 30
0.0
 11
639.7582726672018
 21
97.41169366157024
 31
0.0
  0
LINE
  5
9EF
330
1F
100
AcDbEntity
  8
0
 62
     7
100
AcDbLine
 10
639.7582726672018
 20
97.41169366157024
 30
0.0
 11
639.4906964272296
 21
97.41169366157024
 31
0.0
  0
LINE
  5
9F0
330
1F
100
AcDbEntity
  8
0
 62
     3
100
AcDbLine
 10
639.7546516302439
 20
97.37555653128099
 30
0.0
 11
639.7520329976141
 21
97.41169366157024
 31
0.0
  0
LINE
  5
9F1
330
1F
100
AcDbEntity
  8
0
 62
     7
100
AcDbLine
 10
680.921009094539
 20
114.1616936615702
 30
0.0
 11
681.0323817143389
 21
114.1616936615702
 31
0.0
  0
LINE
  5
9F2
330
1F
100
AcDbEntity
  8
0
 62
     7
100
AcDbLine
 10
678.8693395987452
 20
114.1616936615702
 30
0.0
 11
680.1790964644957
 21
114.1616936615702
 31
0.0
  0
LINE
  5
9F3
330
1F
100
AcDbEntity
  8
0
 62
     7
100
AcDbLine
 10
675.5173263939504
 20
114.1616936615702
 30
0.0
 11
677.9362097397262
 21
114.1616936615702
 31
0.0
  0
LINE
  5
9F4
330
1F
100
AcDbEntity
  8
0
 62
     7
100
AcDbLine
 10
671.0934036405966
 20
114.1616936615702
 30
0.0
 11
674.4565705637767
 21
114.1616936615702
 31
0.0
  0
LINE
  5
9F5
330
1F
100
AcDbEntity
  8
0
 62
     7
100
AcDbLine
 10
665.9103473556307
 20
114.1616936615702
 30
0.0
 11
669.9773105961132
 21
114.1616936615702
 31
0.0
  0
LINE
  5
9F6
330
1F
100
AcDbEntity
  8
0
 62
     7
100
AcDbLine
 10
660.2882648816721
 20
114.1616936615702
 30
0.0
 11
664.8036840012049
 21
114.1616936615702
 31
0.0
  0
LINE
  5
9F7
330
1F
100
AcDbEntity
  8
0
 62
     7
100
AcDbLine
 10
645.1199591995672
 20
114.1616936615702
 30
0.0
 11
648.4831261227477
 21
114.1616936615702
 31
0.0
  0
LINE
  5
9F8
330
1F
100
AcDbEntity
  8
0
 62
     7
100
AcDbLine
 10
649.599219167231
 20
114.1616936615702
 30
0.0
 11
653.6661824077135
 21
114.1616936615702
 31
0.0
  0
LINE
  5
9F9
330
1F
100
AcDbEntity
  8
0
 62
     7
100
AcDbLine
 10
654.7728457621395
 20
114.1616936615702
 30
0.0
 11
659.2882648816721
 21
114.1616936615702
 31
0.0
  0
LINE
  5
9FA
330
1F
100
AcDbEntity
  8
0
 62
     7
100
AcDbLine
 10
639.3974332988482
 20
114.1616936615702
 30
0.0
 11
640.7071901645987
 21
114.1616936615702
 31
0.0
  0
LINE
  5
9FB
330
1F
100
AcDbEntity
  8
0
 62
     7
100
AcDbLine
 10
641.6403200236177
 20
114.1616936615702
 30
0.0
 11
644.0592033693937
 21
114.1616936615702
 31
0.0
  0
ARC
  5
9FD
330
1F
100
AcDbEntity
  8
0
 62
     3
100
AcDbCircle
 10
659.7882648816721
 20
27.07975242653254
 30
0.0
 40
19.99999999999983
100
AcDbArc
 50
53.58332169847092
 51
46.41667830152925
  0
ARC
  5
9FF
330
1F
100
AcDbEntity
  8
0
 62
     3
100
AcDbCircle
 10
659.7882648816721
 20
27.07975242653254
 30
0.0
 40
22.5
100
AcDbArc
 50
53.18473853671799
 51
46.81526146328135
  0
ARC
  5
A01
330
1F
100
AcDbEntity
  8
0
 62
     7
100
AcDbCircle
 10
659.7882648816721
 20
27.07975242653254
 30
0.0
 40
21.25
100
AcDbArc
 50
1.34826041502257
 51
13.65173958497681
  0
ARC
  5
A02
330
1F
100
AcDbEntity
  8
0
 62
     7
100
AcDbCircle
 10
659.7882648816721
 20
27.07975242653254
 30
0.0
 40
20.036231884058
100
AcDbArc
 50
13.57004729590847
 51
16.42995270409225
  0
ARC
  5
A03
330
1F
100
AcDbEntity
  8
0
 62
     7
100
AcDbCircle
 10
659.7882648816721
 20
27.07975242653254
 30
0.0
 40
20.536231884058
100
AcDbArc
 50
13.60486962643294
 51
16.39513037356836
  0
ARC
  5
A04
330
1F
100
AcDbEntity
  8
0
 62
     7
100
AcDbCircle
 10
659.7882648816721
 20
27.07975242653254
 30
0.0
 40
21.75
100
AcDbArc
 50
13.6827396035926
 51
16.31726039640724
  0
ARC
  5
A05
330
1F
100
AcDbEntity
  8
0
 62
     7
100
AcDbCircle
 10
659.7882648816721
 20
27.07975242653254
 30
0.0
 40
20.036231884058
100
AcDbArc
 50
28.57004729590567
 51
31.42995270409278
  0
ARC
  5
A06
330
1F
100
AcDbEntity
  8
0
 62
     7
100
AcDbCircle
 10
659.7882648816721
 20
27.07975242653254
 30
0.0
 40
20.536231884058
100
AcDbArc
 50
28.60486962643163
 51
31.39513037356666
  0
ARC
  5
A07
330
1F
100
AcDbEntity
  8
0
 62
     7
100
AcDbCircle
 10
659.7882648816721
 20
27.07975242653254
 30
0.0
 40
21.75
100
AcDbArc
 50
28.68273960359509
 51
31.31726039640624
  0
ARC
  5
A08
330
1F
100
AcDbEntity
  8
0
 62
     7
100
AcDbCircle
 10
659.7882648816721
 20
27.07975242653254
 30
0.0
 40
20.036231884058
100
AcDbArc
 50
43.57004729590792
 51
46.42995270409207
  0
ARC
  5
A09
330
1F
100
AcDbEntity
  8
0
 62
     7
100
AcDbCircle
 10
659.7882648816721
 20
27.07975242653254
 30
0.0
 40
20.536231884058
100
AcDbArc
 50
43.60486962643271
 51
46.39513037356786
  0
ARC
  5
A0A
330
1F
100
AcDbEntity
  8
0
 62
     7
100
AcDbCircle
 10
659.7882648816721
 20
27.07975242653254
 30
0.0
 40
21.75
100
AcDbArc
 50
43.68273960359231
 51
46.31726039640541
  0
ARC
  5
A0B
330
1F
100
AcDbEntity
  8
0
 62
     7
100
AcDbCircle
 10
659.7882648816721
 20
27.07975242653254
 30
0.0
 40
20.036231884058
100
AcDbArc
 50
58.57004729590655
 51
61.42995270409681
  0
ARC
  5
A0C
330
1F
100
AcDbEntity
  8
0
 62
     7
100
AcDbCircle
 10
659.7882648816721
 20
27.07975242653254
 30
0.0
 40
20.536231884058
100
AcDbArc
 50
58.60486962643528
 51
61.39513037357084
  0
ARC
  5
A0D
330
1F
100
AcDbEntity
  8
0
 62
     7
100
AcDbCircle
 10
659.7882648816721
 20
27.07975242653254
 30
0.0
 40
21.75
100
AcDbArc
 50
58.6827396035914
 51
61.31726039640498
  0
ARC
  5
A0E
330
1F
100
AcDbEntity
  8
0
 62
     7
100
AcDbCircle
 10
659.7882648816721
 20
27.07975242653254
 30
0.0
 40
20.036231884058
100
AcDbArc
 50
73.57004729590619
 51
76.42995270409134
  0
ARC
  5
A0F
330
1F
100
AcDbEntity
  8
0
 62
     7
100
AcDbCircle
 10
659.7882648816721
 20
27.07975242653254
 30
0.0
 40
20.536231884058
100
AcDbArc
 50
73.60486962643388
 51
76.3951303735627
  0
ARC
  5
A10
330
1F
100
AcDbEntity
  8
0
 62
     7
100
AcDbCircle
 10
659.7882648816721
 20
27.07975242653254
 30
0.0
 40
21.75
100
AcDbArc
 50
73.68273960359187
 51
76.31726039640504
  0
ARC
  5
A11
330
1F
100
AcDbEntity
  8
0
 62
     7
100
AcDbCircle
 10
659.7882648816721
 20
27.07975242653254
 30
0.0
 40
20.036231884058
100
AcDbArc
 50
88.57004729590526
 51
91.42995270409477
  0
ARC
  5
A12
330
1F
100
AcDbEntity
  8
0
 62
     7
100
AcDbCircle
 10
659.7882648816721
 20
27.07975242653254
 30
0.0
 40
20.536231884058
100
AcDbArc
 50
88.60486962643342
 51
91.39513037356657
  0
ARC
  5
A13
330
1F
100
AcDbEntity
  8
0
 62
     7
100
AcDbCircle
 10
659.7882648816721
 20
27.07975242653254
 30
0.0
 40
21.75
100
AcDbArc
 50
88.68273960359525
 51
91.31726039640474
  0
ARC
  5
A14
330
1F
100
AcDbEntity
  8
0
 62
     7
100
AcDbCircle
 10
659.7882648816721
 20
27.07975242653254
 30
0.0
 40
20.036231884058
100
AcDbArc
 50
103.5700472959085
 51
106.4299527040938
  0
ARC
  5
A15
330
1F
100
AcDbEntity
  8
0
 62
     7
100
AcDbCircle
 10
659.7882648816721
 20
27.07975242653254
 30
0.0
 40
20.536231884058
100
AcDbArc
 50
103.6048696264307
 51
106.3951303735661
  0
ARC
  5
A16
330
1F
100
AcDbEntity
  8
0
 62
     7
100
AcDbCircle
 10
659.7882648816721
 20
27.07975242653254
 30
0.0
 40
21.75
100
AcDbArc
 50
103.6827396035949
 51
106.3172603964081
  0
ARC
  5
A17
330
1F
100
AcDbEntity
  8
0
 62
     7
100
AcDbCircle
 10
659.7882648816721
 20
27.07975242653254
 30
0.0
 40
20.036231884058
100
AcDbArc
 50
118.5700472959097
 51
121.4299527040934
  0
ARC
  5
A18
330
1F
100
AcDbEntity
  8
0
 62
     7
100
AcDbCircle
 10
659.7882648816721
 20
27.07975242653254
 30
0.0
 40
20.53623188405799
100
AcDbArc
 50
118.6048696264355
 51
121.3951303735643
  0
ARC
  5
A19
330
1F
100
AcDbEntity
  8
0
 62
     7
100
AcDbCircle
 10
659.7882648816721
 20
27.07975242653254
 30
0.0
 40
21.75
100
AcDbArc
 50
118.682739603595
 51
121.317260396409
  0
ARC
  5
A1A
330
1F
100
AcDbEntity
  8
0
 62
     7
100
AcDbCircle
 10
659.7882648816721
 20
27.07975242653254
 30
0.0
 40
20.036231884058
100
AcDbArc
 50
133.5700472959073
 51
136.4299527040915
  0
ARC
  5
A1B
330
1F
100
AcDbEntity
  8
0
 62
     7
100
AcDbCircle
 10
659.7882648816721
 20
27.07975242653254
 30
0.0
 40
20.536231884058
100
AcDbArc
 50
133.6048696264315
 51
136.3951303735673
  0
ARC
  5
A1C
330
1F
100
AcDbEntity
  8
0
 62
     7
100
AcDbCircle
 10
659.7882648816721
 20
27.07975242653254
 30
0.0
 40
21.75
100
AcDbArc
 50
133.6827396035951
 51
136.3172603964083
  0
ARC
  5
A1D
330
1F
100
AcDbEntity
  8
0
 62
     7
100
AcDbCircle
 10
659.7882648816721
 20
27.07975242653254
 30
0.0
 40
20.036231884058
100
AcDbArc
 50
148.5700472959093
 51
151.4299527040922
  0
ARC
  5
A1E
330
1F
100
AcDbEntity
  8
0
 62
     7
100
AcDbCircle
 10
659.7882648816721
 20
27.07975242653254
 30
0.0
 40
20.536231884058
100
AcDbArc
 50
148.6048696264286
 51
151.3951303735691
  0
ARC
  5
A1F
330
1F
100
AcDbEntity
  8
0
 62
     7
100
AcDbCircle
 10
659.7882648816721
 20
27.07975242653254
 30
0.0
 40
21.75
100
AcDbArc
 50
148.6827396035958
 51
151.3172603964035
  0
ARC
  5
A20
330
1F
100
AcDbEntity
  8
0
 62
     7
100
AcDbCircle
 10
659.7882648816721
 20
27.07975242653254
 30
0.0
 40
20.036231884058
100
AcDbArc
 50
163.5700472959093
 51
166.4299527040899
  0
ARC
  5
A21
330
1F
100
AcDbEntity
  8
0
 62
     7
100
AcDbCircle
 10
659.7882648816721
 20
27.07975242653254
 30
0.0
 40
20.536231884058
100
AcDbArc
 50
163.6048696264308
 51
166.3951303735662
  0
ARC
  5
A22
330
1F
100
AcDbEntity
  8
0
 62
     7
100
AcDbCircle
 10
659.7882648816721
 20
27.07975242653254
 30
0.0
 40
21.75
100
AcDbArc
 50
163.6827396035935
 51
166.3172603964082
  0
ARC
  5
A23
330
1F
100
AcDbEntity
  8
0
 62
     7
100
AcDbCircle
 10
659.7882648816721
 20
27.07975242653254
 30
0.0
 40
20.036231884058
100
AcDbArc
 50
178.5700472959076
 51
181.4299527040922
  0
ARC
  5
A24
330
1F
100
AcDbEntity
  8
0
 62
     7
100
AcDbCircle
 10
659.7882648816721
 20
27.07975242653254
 30
0.0
 40
20.536231884058
100
AcDbArc
 50
178.6048696264326
 51
181.3951303735674
  0
ARC
  5
A25
330
1F
100
AcDbEntity
  8
0
 62
     7
100
AcDbCircle
 10
659.7882648816721
 20
27.07975242653254
 30
0.0
 40
21.75
100
AcDbArc
 50
178.6827396035935
 51
181.3172603964064
  0
ARC
  5
A26
330
1F
100
AcDbEntity
  8
0
 62
     7
100
AcDbCircle
 10
659.7882648816721
 20
27.07975242653254
 30
0.0
 40
20.036231884058
100
AcDbArc
 50
193.57004729591
 51
196.4299527040907
  0
ARC
  5
A27
330
1F
100
AcDbEntity
  8
0
 62
     7
100
AcDbCircle
 10
659.7882648816721
 20
27.07975242653254
 30
0.0
 40
20.536231884058
100
AcDbArc
 50
193.6048696264336
 51
196.3951303735691
  0
ARC
  5
A28
330
1F
100
AcDbEntity
  8
0
 62
     7
100
AcDbCircle
 10
659.7882648816721
 20
27.07975242653254
 30
0.0
 40
21.75
100
AcDbArc
 50
193.6827396035918
 51
196.3172603964064
  0
ARC
  5
A29
330
1F
100
AcDbEntity
  8
0
 62
     7
100
AcDbCircle
 10
659.7882648816721
 20
27.07975242653254
 30
0.0
 40
20.036231884058
100
AcDbArc
 50
208.5700472959078
 51
211.4299527040907
  0
ARC
  5
A2A
330
1F
100
AcDbEntity
  8
0
 62
     7
100
AcDbCircle
 10
659.7882648816721
 20
27.07975242653254
 30
0.0
 40
20.536231884058
100
AcDbArc
 50
208.6048696264309
 51
211.3951303735714
  0
ARC
  5
A2B
330
1F
100
AcDbEntity
  8
0
 62
     7
100
AcDbCircle
 10
659.7882648816721
 20
27.07975242653254
 30
0.0
 40
21.75
100
AcDbArc
 50
208.6827396035965
 51
211.3172603964041
  0
ARC
  5
A2C
330
1F
100
AcDbEntity
  8
0
 62
     7
100
AcDbCircle
 10
659.7882648816721
 20
27.07975242653254
 30
0.0
 40
20.036231884058
100
AcDbArc
 50
223.5700472959085
 51
226.4299527040926
  0
ARC
  5
A2D
330
1F
100
AcDbEntity
  8
0
 62
     7
100
AcDbCircle
 10
659.7882648816721
 20
27.07975242653254
 30
0.0
 40
20.536231884058
100
AcDbArc
 50
223.6048696264327
 51
226.3951303735684
  0
ARC
  5
A2E
330
1F
100
AcDbEntity
  8
0
 62
     7
100
AcDbCircle
 10
659.7882648816721
 20
27.07975242653254
 30
0.0
 40
21.75
100
AcDbArc
 50
223.6827396035917
 51
226.3172603964048
  0
ARC
  5
A2F
330
1F
100
AcDbEntity
  8
0
 62
     7
100
AcDbCircle
 10
659.7882648816721
 20
27.07975242653254
 30
0.0
 40
20.036231884058
100
AcDbArc
 50
238.5700472959066
 51
241.4299527040904
  0
ARC
  5
A30
330
1F
100
AcDbEntity
  8
0
 62
     7
100
AcDbCircle
 10
659.7882648816721
 20
27.07975242653254
 30
0.0
 40
20.536231884058
100
AcDbArc
 50
238.6048696264357
 51
241.3951303735643
  0
ARC
  5
A31
330
1F
100
AcDbEntity
  8
0
 62
     7
100
AcDbCircle
 10
659.7882648816721
 20
27.07975242653254
 30
0.0
 40
21.75
100
AcDbArc
 50
238.682739603591
 51
241.3172603964049
  0
ARC
  5
A32
330
1F
100
AcDbEntity
  8
0
 62
     7
100
AcDbCircle
 10
659.7882648816721
 20
27.07975242653254
 30
0.0
 40
20.036231884058
100
AcDbArc
 50
253.5700472959062
 51
256.4299527040914
  0
ARC
  5
A33
330
1F
100
AcDbEntity
  8
0
 62
     7
100
AcDbCircle
 10
659.7882648816721
 20
27.07975242653254
 30
0.0
 40
20.536231884058
100
AcDbArc
 50
253.6048696264339
 51
256.3951303735692
  0
ARC
  5
A34
330
1F
100
AcDbEntity
  8
0
 62
     7
100
AcDbCircle
 10
659.7882648816721
 20
27.07975242653254
 30
0.0
 40
21.75
100
AcDbArc
 50
253.6827396035919
 51
256.317260396405
  0
ARC
  5
A35
330
1F
100
AcDbEntity
  8
0
 62
     7
100
AcDbCircle
 10
659.7882648816721
 20
27.07975242653254
 30
0.0
 40
20.036231884058
100
AcDbArc
 50
268.5700472959053
 51
271.4299527040947
  0
ARC
  5
A36
330
1F
100
AcDbEntity
  8
0
 62
     7
100
AcDbCircle
 10
659.7882648816721
 20
27.07975242653254
 30
0.0
 40
20.536231884058
100
AcDbArc
 50
268.6048696264334
 51
271.3951303735666
  0
ARC
  5
A37
330
1F
100
AcDbEntity
  8
0
 62
     7
100
AcDbCircle
 10
659.7882648816721
 20
27.07975242653254
 30
0.0
 40
21.75
100
AcDbArc
 50
268.6827396035953
 51
271.3172603964048
  0
ARC
  5
A38
330
1F
100
AcDbEntity
  8
0
 62
     7
100
AcDbCircle
 10
659.7882648816721
 20
27.07975242653254
 30
0.0
 40
20.036231884058
100
AcDbArc
 50
283.5700472959086
 51
286.4299527040935
  0
ARC
  5
A39
330
1F
100
AcDbEntity
  8
0
 62
     7
100
AcDbCircle
 10
659.7882648816721
 20
27.07975242653254
 30
0.0
 40
20.536231884058
100
AcDbArc
 50
283.6048696264374
 51
286.3951303735661
  0
ARC
  5
A3A
330
1F
100
AcDbEntity
  8
0
 62
     7
100
AcDbCircle
 10
659.7882648816721
 20
27.07975242653254
 30
0.0
 40
21.75
100
AcDbArc
 50
283.6827396035949
 51
286.3172603964081
  0
ARC
  5
A3B
330
1F
100
AcDbEntity
  8
0
 62
     7
100
AcDbCircle
 10
659.7882648816721
 20
27.07975242653254
 30
0.0
 40
20.036231884058
100
AcDbArc
 50
298.5700472959032
 51
301.4299527040933
  0
ARC
  5
A3C
330
1F
100
AcDbEntity
  8
0
 62
     7
100
AcDbCircle
 10
659.7882648816721
 20
27.07975242653254
 30
0.0
 40
20.536231884058
100
AcDbArc
 50
298.6048696264291
 51
301.3951303735646
  0
ARC
  5
A3D
330
1F
100
AcDbEntity
  8
0
 62
     7
100
AcDbCircle
 10
659.7882648816721
 20
27.07975242653254
 30
0.0
 40
21.75
100
AcDbArc
 50
298.682739603595
 51
301.3172603964087
  0
ARC
  5
A3E
330
1F
100
AcDbEntity
  8
0
 62
     7
100
AcDbCircle
 10
659.7882648816721
 20
27.07975242653254
 30
0.0
 40
20.036231884058
100
AcDbArc
 50
313.5700472959078
 51
316.4299527040922
  0
ARC
  5
A3F
330
1F
100
AcDbEntity
  8
0
 62
     7
100
AcDbCircle
 10
659.7882648816721
 20
27.07975242653254
 30
0.0
 40
20.536231884058
100
AcDbArc
 50
313.6048696264321
 51
316.3951303735673
  0
ARC
  5
A40
330
1F
100
AcDbEntity
  8
0
 62
     7
100
AcDbCircle
 10
659.7882648816721
 20
27.07975242653254
 30
0.0
 40
21.75
100
AcDbArc
 50
313.6827396035946
 51
316.3172603964077
  0
ARC
  5
A41
330
1F
100
AcDbEntity
  8
0
 62
     7
100
AcDbCircle
 10
659.7882648816721
 20
27.07975242653254
 30
0.0
 40
20.036231884058
100
AcDbArc
 50
328.5700472959065
 51
331.4299527040943
  0
ARC
  5
A42
330
1F
100
AcDbEntity
  8
0
 62
     7
100
AcDbCircle
 10
659.7882648816721
 20
27.07975242653254
 30
0.0
 40
20.536231884058
100
AcDbArc
 50
328.6048696264334
 51
331.3951303735684
  0
ARC
  5
A43
330
1F
100
AcDbEntity
  8
0
 62
     7
100
AcDbCircle
 10
659.7882648816721
 20
27.07975242653254
 30
0.0
 40
21.75
100
AcDbArc
 50
328.6827396035937
 51
331.3172603964042
  0
ARC
  5
A44
330
1F
100
AcDbEntity
  8
0
 62
     7
100
AcDbCircle
 10
659.7882648816721
 20
27.07975242653254
 30
0.0
 40
20.036231884058
100
AcDbArc
 50
343.5700472959077
 51
346.4299527040915
  0
ARC
  5
A45
330
1F
100
AcDbEntity
  8
0
 62
     7
100
AcDbCircle
 10
659.7882648816721
 20
27.07975242653254
 30
0.0
 40
20.536231884058
100
AcDbArc
 50
343.6048696264316
 51
346.3951303735671
  0
ARC
  5
A46
330
1F
100
AcDbEntity
  8
0
 62
     7
100
AcDbCircle
 10
659.7882648816721
 20
27.07975242653254
 30
0.0
 40
21.75
100
AcDbArc
 50
343.6827396035929
 51
346.3172603964074
  0
ARC
  5
A47
330
1F
100
AcDbEntity
  8
0
 62
     7
100
AcDbCircle
 10
659.7882648816721
 20
27.07975242653254
 30
0.0
 40
21.25
100
AcDbArc
 50
346.3482604150232
 51
358.6517395849775
  0
ARC
  5
A48
330
1F
100
AcDbEntity
  8
0
 62
     7
100
AcDbCircle
 10
659.7882648816721
 20
27.07975242653254
 30
0.0
 40
21.25
100
AcDbArc
 50
286.3482604150221
 51
298.6517395849798
  0
ARC
  5
A49
330
1F
100
AcDbEntity
  8
0
 62
     7
100
AcDbCircle
 10
659.7882648816721
 20
27.07975242653254
 30
0.0
 40
21.25
100
AcDbArc
 50
301.3482604150212
 51
313.6517395849756
  0
ARC
  5
A4A
330
1F
100
AcDbEntity
  8
0
 62
     7
100
AcDbCircle
 10
659.7882648816721
 20
27.07975242653254
 30
0.0
 40
21.25
100
AcDbArc
 50
316.3482604150226
 51
328.6517395849787
  0
ARC
  5
A4B
330
1F
100
AcDbEntity
  8
0
 62
     7
100
AcDbCircle
 10
659.7882648816721
 20
27.07975242653254
 30
0.0
 40
21.25
100
AcDbArc
 50
331.3482604150227
 51
343.6517395849774
  0
ARC
  5
A4C
330
1F
100
AcDbEntity
  8
0
 62
     7
100
AcDbCircle
 10
659.7882648816721
 20
27.07975242653254
 30
0.0
 40
21.25
100
AcDbArc
 50
16.34826041502258
 51
28.65173958497729
  0
ARC
  5
A4D
330
1F
100
AcDbEntity
  8
0
 62
     7
100
AcDbCircle
 10
659.7882648816721
 20
27.07975242653254
 30
0.0
 40
21.25
100
AcDbArc
 50
31.34826041502137
 51
43.65173958497734
  0
ARC
  5
A4E
330
1F
100
AcDbEntity
  8
0
 62
     7
100
AcDbCircle
 10
659.7882648816721
 20
27.07975242653254
 30
0.0
 40
21.25
100
AcDbArc
 50
46.34826041502445
 51
46.62771331656389
  0
ARC
  5
A4F
330
1F
100
AcDbEntity
  8
0
 62
     7
100
AcDbCircle
 10
659.7882648816721
 20
27.07975242653254
 30
0.0
 40
21.25
100
AcDbArc
 50
61.34826041502018
 51
73.65173958497788
  0
ARC
  5
A50
330
1F
100
AcDbEntity
  8
0
 62
     7
100
AcDbCircle
 10
659.7882648816721
 20
27.07975242653254
 30
0.0
 40
21.25
100
AcDbArc
 50
76.3482604150248
 51
88.65173958497903
  0
ARC
  5
A51
330
1F
100
AcDbEntity
  8
0
 62
     7
100
AcDbCircle
 10
659.7882648816721
 20
27.07975242653254
 30
0.0
 40
21.25
100
AcDbArc
 50
91.34826041502098
 51
103.6517395849752
  0
ARC
  5
A52
330
1F
100
AcDbEntity
  8
0
 62
     7
100
AcDbCircle
 10
659.7882648816721
 20
27.07975242653254
 30
0.0
 40
21.25
100
AcDbArc
 50
106.3482604150221
 51
118.6517395849798
  0
ARC
  5
A53
330
1F
100
AcDbEntity
  8
0
 62
     7
100
AcDbCircle
 10
659.7882648816721
 20
27.07975242653254
 30
0.0
 40
21.25
100
AcDbArc
 50
121.3482604150212
 51
133.6517395849755
  0
ARC
  5
A54
330
1F
100
AcDbEntity
  8
0
 62
     7
100
AcDbCircle
 10
659.7882648816721
 20
27.07975242653254
 30
0.0
 40
21.25
100
AcDbArc
 50
136.3482604150226
 51
148.6517395849793
  0
ARC
  5
A55
330
1F
100
AcDbEntity
  8
0
 62
     7
100
AcDbCircle
 10
659.7882648816721
 20
27.07975242653254
 30
0.0
 40
21.25
100
AcDbArc
 50
151.3482604150226
 51
163.6517395849774
  0
ARC
  5
A56
330
1F
100
AcDbEntity
  8
0
 62
     7
100
AcDbCircle
 10
659.7882648816721
 20
27.07975242653254
 30
0.0
 40
21.25
100
AcDbArc
 50
166.3482604150232
 51
178.6517395849774
  0
ARC
  5
A57
330
1F
100
AcDbEntity
  8
0
 62
     7
100
AcDbCircle
 10
659.7882648816721
 20
27.07975242653254
 30
0.0
 40
21.25
100
AcDbArc
 50
181.3482604150225
 51
193.6517395849768
  0
ARC
  5
A58
330
1F
100
AcDbEntity
  8
0
 62
     7
100
AcDbCircle
 10
659.7882648816721
 20
27.07975242653254
 30
0.0
 40
21.25
100
AcDbArc
 50
196.3482604150226
 51
208.6517395849773
  0
ARC
  5
A59
330
1F
100
AcDbEntity
  8
0
 62
     7
100
AcDbCircle
 10
659.7882648816721
 20
27.07975242653254
 30
0.0
 40
21.25
100
AcDbArc
 50
211.3482604150214
 51
223.6517395849773
  0
ARC
  5
A5A
330
1F
100
AcDbEntity
  8
0
 62
     7
100
AcDbCircle
 10
659.7882648816721
 20
27.07975242653254
 30
0.0
 40
21.25
100
AcDbArc
 50
226.3482604150244
 51
238.6517395849788
  0
ARC
  5
A5B
330
1F
100
AcDbEntity
  8
0
 62
     7
100
AcDbCircle
 10
659.7882648816721
 20
27.07975242653254
 30
0.0
 40
21.25
100
AcDbArc
 50
241.3482604150202
 51
253.6517395849779
  0
ARC
  5
A5C
330
1F
100
AcDbEntity
  8
0
 62
     7
100
AcDbCircle
 10
659.7882648816721
 20
27.07975242653254
 30
0.0
 40
21.25
100
AcDbArc
 50
256.3482604150248
 51
268.651739584979
  0
ARC
  5
A5D
330
1F
100
AcDbEntity
  8
0
 62
     7
100
AcDbCircle
 10
659.7882648816721
 20
27.07975242653254
 30
0.0
 40
21.25
100
AcDbArc
 50
271.3482604150209
 51
283.6517395849752
  0
LINE
  5
A5E
330
1F
100
AcDbEntity
  8
0
 62
     7
100
AcDbLine
 10
668.1445038075971
 20
37.03833018707928
 30
0.0
 11
676.5836517152286
 21
47.09571502443292
 31
0.0
  0
ARC
  5
A60
330
1F
100
AcDbEntity
  8
0
 62
     3
100
AcDbCircle
 10
668.1445038075971
 20
37.03833018707928
 30
0.0
 40
3.75
100
AcDbArc
 50
69.47122063449208
 51
30.52877936550962
  0
CIRCLE
  5
A64
330
1F
100
AcDbEntity
  8
0
 62
     3
100
AcDbCircle
 10
661.2345370034669
 20
28.80335242355027
 30
0.0
 40
3.75
  0
ARC
  5
A68
330
1F
100
AcDbEntity
  8
0
 62
     7
100
AcDbCircle
 10
668.6232815845462
 20
36.6365879310252
 30
0.0
 40
0.6249999999999877
100
AcDbArc
 50
139.9999999999999
 51
319.9999999999999
  0
ARC
  5
A69
330
1F
100
AcDbEntity
  8
0
 62
     7
100
AcDbCircle
 10
667.6657260306479
 20
37.44007244313337
 30
0.0
 40
0.6249999999999946
100
AcDbArc
 50
139.9999999999999
 51
319.9999999999999
  0
LINE
  5
A6A
330
1F
100
AcDbEntity
  8
0
 62
     7
100
AcDbLine
 10
669.1020593614958
 20
36.23484567497111
 30
0.0
 11
677.5412072691273
 21
46.29223051232476
 31
0.0
  0
LINE
  5
A6B
330
1F
100
AcDbEntity
  8
0
 62
     7
100
AcDbLine
 10
667.1869482536982
 20
37.84181469918745
 30
0.0
 11
675.6260961613299
 21
47.89919953654108
 31
0.0
  0
ARC
  5
A6D
330
1F
100
AcDbEntity
  8
0
 62
     7
100
AcDbCircle
 10
659.7882648816721
 20
27.07975242653254
 30
0.0
 40
21.25
100
AcDbArc
 50
53.37228668343417
 51
58.65173958497874
  0
LINE
  5
A70
330
1F
100
AcDbEntity
  8
0
 62
     7
100
AcDbLine
 10
669.2482815845465
 20
84.37588258970867
 30
0.0
 11
669.2482815845465
 21
96.91169366157021
 31
0.0
  0
LINE
  5
A72
330
1F
100
AcDbEntity
  8
0
 62
     7
100
AcDbLine
 10
668.2907260306477
 20
84.12588258970869
 30
0.0
 11
668.2907260306477
 21
96.91169366157021
 31
0.0
  0
LINE
  5
A73
330
1F
100
AcDbEntity
  8
0
 62
     7
100
AcDbLine
 10
667.0407260306477
 20
84.12588258970865
 30
0.0
 11
667.0407260306477
 21
96.91169366157021
 31
0.0
  0
LINE
  5
A74
330
1F
100
AcDbEntity
  8
0
 62
     7
100
AcDbLine
 10
671.7482815845462
 20
81.87588258970867
 30
0.0
 11
692.6471558831585
 21
81.87588258970867
 31
0.0
  0
LINE
  5
A75
330
1F
100
AcDbEntity
  8
0
 62
     7
100
AcDbLine
 10
671.7907260306478
 20
80.62588258970867
 30
0.0
 11
692.6471558831585
 21
80.62588258970867
 31
0.0
  0
LINE
  5
A76
330
1F
100
AcDbEntity
  8
0
 62
     7
100
AcDbLine
 10
671.7907260306478
 20
79.37588258970869
 30
0.0
 11
692.6471558831585
 21
79.37588258970869
 31
0.0
  0
ARC
  5
A77
330
1F
100
AcDbEntity
  8
0
 62
     7
100
AcDbCircle
 10
671.7482815845462
 20
84.37588258970867
 30
0.0
 40
2.5
100
AcDbArc
 50
180.0
 51
270.0
  0
ARC
  5
A7B
330
1F
100
AcDbEntity
  8
0
 62
     7
100
AcDbCircle
 10
671.7907260306478
 20
84.12588258970865
 30
0.0
 40
3.5
100
AcDbArc
 50
180.0
 51
270.0
  0
ARC
  5
A7C
330
1F
100
AcDbEntity
  8
0
 62
     7
100
AcDbCircle
 10
671.7907260306478
 20
84.12588258970865
 30
0.0
 40
4.75
100
AcDbArc
 50
180.0
 51
270.0
  0
LINE
  5
A7D
330
1F
100
AcDbEntity
  8
0
  6
CENTER
 62
     7
100
AcDbLine
 10
668.1445038075971
 20
37.03833018707928
 30
0.0
 11
659.7882648816721
 21
27.07975242653254
 31
0.0
  0
LINE
  5
A82
330
1F
100
AcDbEntity
  8
0
  6
CENTER
 62
     7
100
AcDbLine
 10
659.7882648816721
 20
82.71279886877938
 30
0.0
 11
659.7882648816721
 21
159.5607312826741
 31
0.0
  0
LINE
  5
A88
330
1F
100
AcDbEntity
  8
0
 62
     3
100
AcDbLine
 10
701.6471558831587
 20
84.22129322823549
 30
0.0
 11
701.6471558831587
 21
77.03047195118188
 31
0.0
  0
LINE
  5
A8B
330
1F
100
AcDbEntity
  8
0
 62
     3
100
AcDbLine
 10
701.6471558831587
 20
83.6258825897087
 30
0.0
 11
692.6471558831585
 21
83.37588258970869
 31
0.0
  0
LINE
  5
A8C
330
1F
100
AcDbEntity
  8
0
 62
     3
100
AcDbLine
 10
692.6471558831585
 20
83.37588258970869
 30
0.0
 11
692.6471558831585
 21
77.8758825897087
 31
0.0
  0
LINE
  5
A8D
330
1F
100
AcDbEntity
  8
0
 62
     3
100
AcDbLine
 10
692.6471558831585
 20
77.8758825897087
 30
0.0
 11
701.6471558831587
 21
77.62588258970869
 31
0.0
  0
LINE
  5
A94
330
1F
100
AcDbEntity
  8
0
 62
     3
100
AcDbLine
 10
716.6471558831585
 20
86.62588258970895
 30
0.0
 11
716.6471558831585
 21
74.62588258970841
 31
0.0
  0
ARC
  5
A97
330
1F
100
AcDbEntity
  8
0
 62
     3
100
AcDbCircle
 10
705.1471558831585
 20
86.62588258970869
 30
0.0
 40
2.375
100
AcDbArc
 50
224.5177666677292
 51
293.3375480007399
  0
ARC
  5
A99
330
1F
100
AcDbEntity
  8
0
 62
     3
100
AcDbCircle
 10
716.6471558831585
 20
59.97127732655079
 30
0.0
 40
26.6546052631579
100
AcDbArc
 50
90.0
 51
113.3375480007398
  0
ARC
  5
A9A
330
1F
100
AcDbEntity
  8
0
 62
     3
100
AcDbCircle
 10
702.701745244632
 20
84.22129322823549
 30
0.0
 40
1.054589361473199
100
AcDbArc
 50
44.51776666772921
 51
180.0
  0
ARC
  5
A9B
330
1F
100
AcDbEntity
  8
0
 62
     3
100
AcDbCircle
 10
705.1471558831585
 20
74.62588258970869
 30
0.0
 40
2.375
100
AcDbArc
 50
66.66245199926017
 51
135.4822333322702
  0
ARC
  5
A9C
330
1F
100
AcDbEntity
  8
0
 62
     3
100
AcDbCircle
 10
716.6471558831585
 20
101.2804878528665
 30
0.0
 40
26.6546052631579
100
AcDbArc
 50
246.6624519992602
 51
270.0
  0
ARC
  5
A9D
330
1F
100
AcDbEntity
  8
0
 62
     3
100
AcDbCircle
 10
702.701745244632
 20
77.03047195118188
 30
0.0
 40
1.054589361473199
100
AcDbArc
 50
180.0
 51
315.4822333322702
  0
LINE
  5
A9E
330
1F
100
AcDbEntity
  8
0
 62
     7
100
AcDbLine
 10
725.1471558831585
 20
84.17588258970869
 30
0.0
 11
725.1471558831585
 21
83.42588258970868
 31
0.0
  0
LINE
  5
AA1
330
1F
100
AcDbEntity
  8
0
 62
     7
100
AcDbLine
 10
716.6471558831585
 20
84.17588258970869
 30
0.0
 11
725.1471558831585
 21
84.17588258970869
 31
0.0
  0
LINE
  5
AA2
330
1F
100
AcDbEntity
  8
0
 62
     7
100
AcDbLine
 10
716.6471558831585
 20
83.42588258970868
 30
0.0
 11
725.1471558831585
 21
83.42588258970868
 31
0.0
  0
LINE
  5
AA3
330
1F
100
AcDbEntity
  8
0
 62
     7
100
AcDbLine
 10
716.6471558831585
 20
77.82588258970868
 30
0.0
 11
725.1471558831585
 21
77.82588258970868
 31
0.0
  0
LINE
  5
AA4
330
1F
100
AcDbEntity
  8
0
 62
     7
100
AcDbLine
 10
716.6471558831585
 20
77.07588258970867
 30
0.0
 11
725.1471558831585
 21
77.07588258970869
 31
0.0
  0
LINE
  5
AA5
330
1F
100
AcDbEntity
  8
0
 62
     7
100
AcDbLine
 10
725.1471558831589
 20
77.82588258970867
 30
0.0
 11
725.1471558831585
 21
77.07588258970867
 31
0.0
  0
LINE
  5
AA6
330
1F
100
AcDbEntity
  8
0
 62
     7
100
AcDbLine
 10
694.1471558831587
 20
81.42588258970873
 30
0.0
 11
694.1471558831587
 21
77.834215923042
 31
0.0
  0
LINE
  5
AAE
330
1F
100
AcDbEntity
  8
0
 62
     7
100
AcDbLine
 10
695.0471558831585
 20
81.42588258970873
 30
0.0
 11
695.0471558831589
 21
77.80921592304202
 31
0.0
  0
LINE
  5
AAF
330
1F
100
AcDbEntity
  8
0
 62
     7
100
AcDbLine
 10
695.9471558831587
 20
83.46754925637533
 30
0.0
 11
695.9471558831587
 21
79.82588258970864
 31
0.0
  0
LINE
  5
AB0
330
1F
100
AcDbEntity
  8
0
 62
     7
100
AcDbLine
 10
696.8471558831587
 20
83.49254925637534
 30
0.0
 11
696.8471558831587
 21
79.82588258970864
 31
0.0
  0
LINE
  5
AB1
330
1F
100
AcDbEntity
  8
0
 62
     7
100
AcDbLine
 10
697.7471558831587
 20
81.42588258970866
 30
0.0
 11
697.7471558831587
 21
77.73421592304202
 31
0.0
  0
LINE
  5
AB2
330
1F
100
AcDbEntity
  8
0
 62
     7
100
AcDbLine
 10
698.6471558831587
 20
81.42588258970866
 30
0.0
 11
698.6471558831587
 21
77.70921592304201
 31
0.0
  0
LINE
  5
AB3
330
1F
100
AcDbEntity
  8
0
 62
     7
100
AcDbLine
 10
699.5471558831585
 20
83.56754925637535
 30
0.0
 11
699.5471558831585
 21
79.8258825897087
 31
0.0
  0
LINE
  5
AB4
330
1F
100
AcDbEntity
  8
0
 62
     7
100
AcDbLine
 10
700.4471558831587
 20
83.59254925637534
 30
0.0
 11
700.4471558831585
 21
79.8258825897087
 31
0.0
  0
ARC
  5
AB8
330
1F
100
AcDbEntity
  8
0
 62
     7
100
AcDbCircle
 10
694.5971558831587
 20
81.42588258970873
 30
0.0
 40
0.4499999999999421
100
AcDbArc
 50
0.0
 51
180.0
  0
ARC
  5
AB9
330
1F
100
AcDbEntity
  8
0
 62
     7
100
AcDbCircle
 10
696.3971558831587
 20
79.82588258970864
 30
0.0
 40
0.4500000000000249
100
AcDbArc
 50
180.0
 51
0.0
  0
ARC
  5
ABA
330
1F
100
AcDbEntity
  8
0
 62
     7
100
AcDbCircle
 10
698.1971558831587
 20
81.42588258970866
 30
0.0
 40
0.4500000000000249
100
AcDbArc
 50
0.0
 51
180.0
  0
ARC
  5
ABB
330
1F
100
AcDbEntity
  8
0
 62
     7
100
AcDbCircle
 10
699.9971558831587
 20
79.8258825897087
 30
0.0
 40
0.4500000000000661
100
AcDbArc
 50
180.0
 51
0.0
  0
ARC
  5
AC3
330
1F
100
AcDbEntity
  8
0
 62
     3
100
AcDbCircle
 10
659.7882648816721
 20
113.1616936615689
 30
0.0
 40
44.21891563573331
100
AcDbArc
 50
61.70386027541315
 51
65.81896805448565
  0
ARC
  5
AC4
330
1F
100
AcDbEntity
  8
0
 62
     3
100
AcDbCircle
 10
659.7882648816721
 20
113.1616936615689
 30
0.0
 40
44.21891563573331
100
AcDbArc
 50
114.1810319455143
 51
118.2961397245868
  0
ARC
  5
AC5
330
1F
100
AcDbEntity
  8
0
 62
     3
100
AcDbCircle
 10
680.0382648816722
 20
150.77609586462
 30
0.0
 40
1.5
100
AcDbArc
 50
0.0
 51
61.70386027541275
  0
ARC
  5
AC6
330
1F
100
AcDbEntity
  8
0
 62
     3
100
AcDbCircle
 10
639.5382648816721
 20
150.77609586462
 30
0.0
 40
1.5
100
AcDbArc
 50
118.2961397245864
 51
180.0
  0
ARC
  5
AC7
330
1F
100
AcDbEntity
  8
0
 62
     3
100
AcDbCircle
 10
642.6993188768127
 20
151.2200153043376
 30
0.0
 40
2.5
100
AcDbArc
 50
96.30714408032856
 51
114.1810319455143
  0
ARC
  5
AC8
330
1F
100
AcDbEntity
  8
0
 62
     3
100
AcDbCircle
 10
676.8772108865316
 20
151.2200153043375
 30
0.0
 40
2.5
100
AcDbArc
 50
65.81896805448565
 51
83.69285591967139
  0
LINE
  5
C7F
330
1F
100
AcDbEntity
  8
0
 62
     3
100
AcDbLine
 10
599.4629553534653
 20
79.74506893651756
 30
0.0
 11
598.9750285234653
 21
79.74506893651756
 31
0.0
  0
LINE
  5
C80
330
1F
100
AcDbEntity
  8
0
 62
     3
100
AcDbLine
 10
610.9750285234653
 20
218.2450689365175
 30
0.0
 11
610.9750285234653
 21
-58.75493106348244
 31
0.0
  0
LINE
  5
C82
330
1F
100
AcDbEntity
  8
0
 62
     3
100
AcDbLine
 10
790.9750285234653
 20
-58.75493106348244
 30
0.0
 11
790.9750285234653
 21
218.2450689365175
 31
0.0
  0
LINE
  5
C83
330
1F
100
AcDbEntity
  8
0
 62
     3
100
AcDbLine
 10
610.9750285234653
 20
-58.75493106348244
 30
0.0
 11
790.9750285234653
 21
-58.75493106348244
 31
0.0
  0
LINE
  5
C84
330
1F
100
AcDbEntity
  8
0
 62
     3
100
AcDbLine
 10
678.0593805434652
 20
220.0325130365176
 30
0.0
 11
678.4951284534653
 21
219.8050448965175
 31
0.0
  0
LINE
  5
C85
330
1F
100
AcDbEntity
  8
0
 62
     3
100
AcDbLine
 10
678.0593805434652
 20
216.3018825565176
 30
0.0
 11
678.4951284534653
 21
216.5293506965176
 31
0.0
  0
LINE
  5
C86
330
1F
100
AcDbEntity
  8
0
 62
     3
100
AcDbLine
 10
678.4951284534653
 20
219.8050448965175
 30
0.0
 11
678.4951284534653
 21
216.5293506965176
 31
0.0
  0
LINE
  5
C87
330
1F
100
AcDbEntity
  8
0
 62
     3
100
AcDbLine
 10
679.5986458734652
 20
216.3018825565176
 30
0.0
 11
679.1628979634652
 21
216.5293506965176
 31
0.0
  0
LINE
  5
C88
330
1F
100
AcDbEntity
  8
0
 62
     3
100
AcDbLine
 10
679.1628979634652
 20
218.5262095065175
 30
0.0
 11
679.1628979634652
 21
216.5293506965176
 31
0.0
  0
LINE
  5
C89
330
1F
100
AcDbEntity
  8
0
 62
     3
100
AcDbLine
 10
682.1405086534653
 20
220.0325130365176
 30
0.0
 11
681.7047607434654
 21
219.8050448965175
 31
0.0
  0
LINE
  5
C8A
330
1F
100
AcDbEntity
  8
0
 62
     3
100
AcDbLine
 10
680.6012433234652
 20
220.0325130365176
 30
0.0
 11
681.0369912334652
 21
219.8050448965175
 31
0.0
  0
LINE
  5
C8B
330
1F
100
AcDbEntity
  8
0
 62
     3
100
AcDbLine
 10
681.0369912334652
 20
219.8050448965175
 30
0.0
 11
681.0369912334652
 21
218.3627078365175
 31
0.0
  0
LINE
  5
C8C
330
1F
100
AcDbEntity
  8
0
 62
     3
100
AcDbLine
 10
681.7047607434654
 20
219.8050448965175
 30
0.0
 11
681.7047607434654
 21
216.0903214165176
 31
0.0
  0
LINE
  5
C8D
330
1F
100
AcDbEntity
  8
0
 62
     3
100
AcDbLine
 10
682.3558058534652
 20
220.0325104065175
 30
0.0
 11
682.7915521934652
 21
219.8050392665176
 31
0.0
  0
LINE
  5
C8E
330
1F
100
AcDbEntity
  8
0
 62
     3
100
AcDbLine
 10
682.3557278834653
 20
216.3019325365176
 30
0.0
 11
682.7914837334652
 21
216.5293854565176
 31
0.0
  0
LINE
  5
C8F
330
1F
100
AcDbEntity
  8
0
 62
     3
100
AcDbLine
 10
682.7915521934652
 20
219.8050392665176
 30
0.0
 11
682.7915521934652
 21
216.5293854565176
 31
0.0
  0
LINE
  5
C90
330
1F
100
AcDbEntity
  8
0
 62
     3
100
AcDbLine
 10
684.2853422534654
 20
220.0324867365175
 30
0.0
 11
683.8495911634652
 21
219.8050247065175
 31
0.0
  0
LINE
  5
C91
330
1F
100
AcDbEntity
  8
0
 62
     3
100
AcDbLine
 10
683.8495911634652
 20
219.8050247065175
 30
0.0
 11
683.8495911634652
 21
216.5293708865176
 31
0.0
  0
LINE
  5
C92
330
1F
100
AcDbEntity
  8
0
 62
     3
100
AcDbLine
 10
684.2853422534654
 20
216.3019088565176
 30
0.0
 11
683.8495911634652
 21
216.5293708865176
 31
0.0
  0
LINE
  5
C93
330
1F
100
AcDbEntity
  8
0
 62
     3
100
AcDbLine
 10
687.9755956934652
 20
220.0324457365176
 30
0.0
 11
688.4113428134654
 21
219.8049760965175
 31
0.0
  0
LINE
  5
C94
330
1F
100
AcDbEntity
  8
0
 62
     3
100
AcDbLine
 10
688.4113428134654
 20
219.8049760965175
 30
0.0
 11
688.4112856434652
 21
216.5293222865175
 31
0.0
  0
LINE
  5
C95
330
1F
100
AcDbEntity
  8
0
 62
     3
100
AcDbLine
 10
687.9755305834652
 20
216.3018678565176
 30
0.0
 11
688.4112856434652
 21
216.5293222865175
 31
0.0
  0
LINE
  5
C96
330
1F
100
AcDbEntity
  8
0
 62
     3
100
AcDbLine
 10
689.9278566534652
 20
220.0324457365176
 30
0.0
 11
689.4921095334653
 21
219.8049760965175
 31
0.0
  0
LINE
  5
C97
330
1F
100
AcDbEntity
  8
0
 62
     3
100
AcDbLine
 10
689.9279217634653
 20
216.3018678565176
 30
0.0
 11
689.4921667034652
 21
216.5293222865175
 31
0.0
  0
LINE
  5
C98
330
1F
100
AcDbEntity
  8
0
 62
     3
100
AcDbLine
 10
690.1315845134653
 20
220.0324457365176
 30
0.0
 11
690.5673316434652
 21
219.8049760965175
 31
0.0
  0
LINE
  5
C99
330
1F
100
AcDbEntity
  8
0
 62
     3
100
AcDbLine
 10
690.1315194034652
 20
216.3018678565176
 30
0.0
 11
690.5672744634653
 21
216.5293222865175
 31
0.0
  0
LINE
  5
C9A
330
1F
100
AcDbEntity
  8
0
 62
     3
100
AcDbLine
 10
692.0838454834653
 20
220.0324457365176
 30
0.0
 11
691.6480983634652
 21
219.8049760965175
 31
0.0
  0
LINE
  5
C9B
330
1F
100
AcDbEntity
  8
0
 62
     3
100
AcDbLine
 10
691.6480983634652
 20
219.8049760965175
 30
0.0
 11
691.6481555334652
 21
216.5293222865175
 31
0.0
  0
LINE
  5
C9C
330
1F
100
AcDbEntity
  8
0
 62
     3
100
AcDbLine
 10
692.0839105934653
 20
216.3018678565176
 30
0.0
 11
691.6481555334652
 21
216.5293222865175
 31
0.0
  0
LINE
  5
C9D
330
1F
100
AcDbEntity
  8
0
 62
     3
100
AcDbLine
 10
690.5673067334652
 20
218.3778429765175
 30
0.0
 11
689.4921344434654
 21
218.3778429765175
 31
0.0
  0
LINE
  5
C9E
330
1F
100
AcDbEntity
  8
0
 62
     3
100
AcDbLine
 10
690.5672993734652
 20
217.9565526165176
 30
0.0
 11
689.4921417934653
 21
217.9565526165176
 31
0.0
  0
LINE
  5
C9F
330
1F
100
AcDbEntity
  8
0
 62
     3
100
AcDbLine
 10
690.5673316434652
 20
219.8049760965175
 30
0.0
 11
690.5673067334652
 21
218.3778429765175
 31
0.0
  0
LINE
  5
CA0
330
1F
100
AcDbEntity
  8
0
 62
     3
100
AcDbLine
 10
690.5672993734652
 20
217.9565526165176
 30
0.0
 11
690.5672744634653
 21
216.5293222865175
 31
0.0
  0
LINE
  5
CA1
330
1F
100
AcDbEntity
  8
0
 62
     3
100
AcDbLine
 10
689.4921095334653
 20
219.8049760965175
 30
0.0
 11
689.4921344434654
 21
218.3778429765175
 31
0.0
  0
LINE
  5
CA2
330
1F
100
AcDbEntity
  8
0
 62
     3
100
AcDbLine
 10
689.4921417934653
 20
217.9565526165176
 30
0.0
 11
689.4921667034652
 21
216.5293222865175
 31
0.0
  0
LINE
  5
CA3
330
1F
100
AcDbEntity
  8
0
 62
     3
100
AcDbLine
 10
692.2908046034653
 20
220.0324457365176
 30
0.0
 11
692.7265517234652
 21
219.8049760965175
 31
0.0
  0
LINE
  5
CA4
330
1F
100
AcDbEntity
  8
0
 62
     3
100
AcDbLine
 10
692.7265517234652
 20
219.8049760965175
 30
0.0
 11
692.7264945534652
 21
216.5293222865175
 31
0.0
  0
LINE
  5
CA5
330
1F
100
AcDbEntity
  8
0
 62
     3
100
AcDbLine
 10
692.2907394934652
 20
216.3018678565176
 30
0.0
 11
692.7264945534652
 21
216.5293222865175
 31
0.0
  0
LINE
  5
CA6
330
1F
100
AcDbEntity
  8
0
 62
     3
100
AcDbLine
 10
694.2203148734653
 20
220.0324457365176
 30
0.0
 11
693.7845677534652
 21
219.8049760965175
 31
0.0
  0
LINE
  5
CA7
330
1F
100
AcDbEntity
  8
0
 62
     3
100
AcDbLine
 10
693.7845677534652
 20
219.8049760965175
 30
0.0
 11
693.7846249234652
 21
216.5293222865175
 31
0.0
  0
LINE
  5
CA8
330
1F
100
AcDbEntity
  8
0
 62
     3
100
AcDbLine
 10
694.2203799834652
 20
216.3018678565176
 30
0.0
 11
693.7846249234652
 21
216.5293222865175
 31
0.0
  0
LINE
  5
CA9
330
1F
100
AcDbEntity
  8
0
 62
     3
100
AcDbLine
 10
694.4346744434652
 20
220.0324457365176
 30
0.0
 11
694.8704215634652
 21
219.8049760965175
 31
0.0
  0
LINE
  5
CAA
330
1F
100
AcDbEntity
  8
0
 62
     3
100
AcDbLine
 10
694.8704215634652
 20
219.8049760965175
 30
0.0
 11
694.8703643934652
 21
216.5293222865175
 31
0.0
  0
LINE
  5
CAB
330
1F
100
AcDbEntity
  8
0
 62
     3
100
AcDbLine
 10
694.4346093334652
 20
216.3018678565176
 30
0.0
 11
694.8703643934652
 21
216.5293222865175
 31
0.0
  0
ARC
  5
CAC
330
1F
100
AcDbEntity
  8
0
 62
     3
100
AcDbCircle
 10
686.5836844234652
 20
218.1765875565176
 30
0.0
 40
2.086285909999999
100
AcDbArc
 50
97.70152350999723
 51
270.0
  0
ARC
  5
CAD
330
1F
100
AcDbEntity
  8
0
 62
     3
100
AcDbCircle
 10
699.4642852634653
 20
218.1556309265176
 30
0.0
 40
2.108943379999999
100
AcDbArc
 50
0.3142502699992948
 51
69.0055824499965
  0
ARC
  5
CAE
330
1F
100
AcDbEntity
  8
0
 62
     3
100
AcDbCircle
 10
699.9249605834652
 20
218.1556309265176
 30
0.0
 40
2.108943379999999
100
AcDbArc
 50
110.9944175499974
 51
148.1166110200014
  0
ARC
  5
CAF
330
1F
100
AcDbEntity
  8
0
 62
     3
100
AcDbCircle
 10
699.4642852634653
 20
218.1787646665175
 30
0.0
 40
2.108943379999999
100
AcDbArc
 50
290.9944175500035
 51
359.6857497300007
  0
ARC
  5
CB0
330
1F
100
AcDbEntity
  8
0
 62
     3
100
AcDbCircle
 10
699.9249605834652
 20
218.1787646665175
 30
0.0
 40
2.108943379999999
100
AcDbArc
 50
211.8833889799985
 51
249.0055824499965
  0
ARC
  5
CB1
330
1F
100
AcDbEntity
  8
0
 62
     3
100
AcDbCircle
 10
699.6946229234652
 20
219.0300031865175
 30
0.0
 40
1.214070989999997
100
AcDbArc
 50
64.3651718999996
 51
115.6348281000004
  0
ARC
  5
CB2
330
1F
100
AcDbEntity
  8
0
 62
     3
100
AcDbCircle
 10
699.6946229234652
 20
217.3043924065175
 30
0.0
 40
1.214070989999997
100
AcDbArc
 50
244.3651718999996
 51
295.6348281000004
  0
ARC
  5
CB3
330
1F
100
AcDbEntity
  8
0
 62
     3
100
AcDbCircle
 10
699.6946229234652
 20
219.0530648665176
 30
0.0
 40
0.59585563
100
AcDbArc
 50
19.48660554000094
 51
160.513394459999
  0
ARC
  5
CB4
330
1F
100
AcDbEntity
  8
0
 62
     3
100
AcDbCircle
 10
699.6946229234652
 20
217.3043924065175
 30
0.0
 40
1.214070989999997
100
AcDbArc
 50
244.3651718999996
 51
295.6348281000004
  0
ARC
  5
CB5
330
1F
100
AcDbEntity
  8
0
 62
     3
100
AcDbCircle
 10
699.6946229234652
 20
217.2813307265176
 30
0.0
 40
0.59585563
100
AcDbArc
 50
199.4866055400009
 51
340.5133944599987
  0
ARC
  5
CB6
330
1F
100
AcDbEntity
  8
0
 62
     3
100
AcDbCircle
 10
694.9521504234652
 20
195.9391379565176
 30
0.0
 40
26.04
100
AcDbArc
 50
69.5057148000011
 51
81.68998806999734
  0
ARC
  5
CB7
330
1F
100
AcDbEntity
  8
0
 62
     3
100
AcDbCircle
 10
694.9521504234652
 20
240.3952576365175
 30
0.0
 40
26.04
100
AcDbArc
 50
278.3100119300026
 51
290.4942851999985
  0
ARC
  5
CB8
330
1F
100
AcDbEntity
  8
0
 62
     3
100
AcDbCircle
 10
703.2603545534652
 20
218.1671977965176
 30
0.0
 40
2.31
100
AcDbArc
 50
290.4942851999985
 51
69.5057148000011
  0
ARC
  5
CB9
330
1F
100
AcDbEntity
  8
0
 62
     3
100
AcDbCircle
 10
675.9603545534653
 20
218.1671977965176
 30
0.0
 40
2.31
100
AcDbArc
 50
110.4942851999985
 51
249.505714799995
  0
ARC
  5
CBA
330
1F
100
AcDbEntity
  8
0
 62
     3
100
AcDbCircle
 10
684.2685586734652
 20
195.9391379565176
 30
0.0
 40
26.04
100
AcDbArc
 50
98.31001192999607
 51
110.4942851999985
  0
ARC
  5
CBB
330
1F
100
AcDbEntity
  8
0
 62
     3
100
AcDbCircle
 10
684.2685586734652
 20
240.3952576365175
 30
0.0
 40
26.04
100
AcDbArc
 50
249.505714799995
 51
261.6899880699975
  0
ARC
  5
CBC
330
1F
100
AcDbEntity
  8
0
 62
     3
100
AcDbCircle
 10
689.6103545534653
 20
159.3671977965175
 30
0.0
 40
62.99999987
100
AcDbArc
 50
81.68998806999734
 51
98.31001192999607
  0
ARC
  5
CBD
330
1F
100
AcDbEntity
  8
0
 62
     3
100
AcDbCircle
 10
689.6103545534653
 20
276.9671977965176
 30
0.0
 40
62.99999987
100
AcDbArc
 50
261.6899880699975
 51
278.3100119300026
  0
ARC
  5
CBE
330
1F
100
AcDbEntity
  8
0
 62
     3
100
AcDbCircle
 10
689.6103545534653
 20
159.3671977965175
 30
0.0
 40
62.36999987
100
AcDbArc
 50
81.68998806999734
 51
98.31001192999607
  0
ARC
  5
CBF
330
1F
100
AcDbEntity
  8
0
 62
     3
100
AcDbCircle
 10
689.6103545534653
 20
276.9671977965176
 30
0.0
 40
62.36999987
100
AcDbArc
 50
261.6899880699975
 51
278.3100119300026
  0
ARC
  5
CC0
330
1F
100
AcDbEntity
  8
0
 62
     3
100
AcDbCircle
 10
694.9521504234652
 20
240.3952576365175
 30
0.0
 40
25.41
100
AcDbArc
 50
278.3100119300026
 51
290.4942851999985
  0
ARC
  5
CC1
330
1F
100
AcDbEntity
  8
0
 62
     3
100
AcDbCircle
 10
694.9521504234652
 20
195.9391379565176
 30
0.0
 40
25.41
100
AcDbArc
 50
69.5057148000011
 51
81.68998806999734
  0
ARC
  5
CC2
330
1F
100
AcDbEntity
  8
0
 62
     3
100
AcDbCircle
 10
703.2603545534652
 20
218.1671977965176
 30
0.0
 40
1.679999999999999
100
AcDbArc
 50
290.4942851999985
 51
69.5057148000011
  0
ARC
  5
CC3
330
1F
100
AcDbEntity
  8
0
 62
     3
100
AcDbCircle
 10
675.9603545534653
 20
218.1671977965176
 30
0.0
 40
1.679999999999999
100
AcDbArc
 50
110.4942851999985
 51
249.505714799995
  0
ARC
  5
CC4
330
1F
100
AcDbEntity
  8
0
 62
     3
100
AcDbCircle
 10
684.2685586734652
 20
195.9391379565176
 30
0.0
 40
25.41
100
AcDbArc
 50
98.31001192999607
 51
110.4942851999985
  0
ARC
  5
CC5
330
1F
100
AcDbEntity
  8
0
 62
     3
100
AcDbCircle
 10
684.2685586734652
 20
240.3952576365175
 30
0.0
 40
25.41
100
AcDbArc
 50
249.505714799995
 51
261.6899880699975
  0
LINE
  5
CC6
330
1F
100
AcDbEntity
  8
0
 62
     3
100
AcDbLine
 10
694.2203156534652
 20
216.0903214165176
 30
0.0
 11
692.2908038234652
 21
216.0903214165176
 31
0.0
  0
LINE
  5
CC7
330
1F
100
AcDbEntity
  8
0
 62
     3
100
AcDbLine
 10
694.2203156534652
 20
216.3018825565176
 30
0.0
 11
694.2203156534652
 21
216.0903214165176
 31
0.0
  0
LINE
  5
CC8
330
1F
100
AcDbEntity
  8
0
 62
     3
100
AcDbLine
 10
692.0838462634653
 20
220.2439754565176
 30
0.0
 11
690.1315837334652
 21
220.2439754565176
 31
0.0
  0
LINE
  5
CC9
330
1F
100
AcDbEntity
  8
0
 62
     3
100
AcDbLine
 10
692.0838462634653
 20
220.2439754565176
 30
0.0
 11
692.0838462634653
 21
220.0325130365176
 31
0.0
  0
LINE
  5
CCA
330
1F
100
AcDbEntity
  8
0
 62
     3
100
AcDbLine
 10
692.0838462634653
 20
216.3018825565176
 30
0.0
 11
692.0838462634653
 21
216.0902227065176
 31
0.0
  0
LINE
  5
CCB
330
1F
100
AcDbEntity
  8
0
 62
     3
100
AcDbLine
 10
692.0838462634653
 20
216.0902227065176
 30
0.0
 11
690.1315837334652
 21
216.0902227065176
 31
0.0
  0
LINE
  5
CCC
330
1F
100
AcDbEntity
  8
0
 62
     3
100
AcDbLine
 10
694.2203156534652
 20
220.2440741765175
 30
0.0
 11
694.2203156534652
 21
220.0325130365176
 31
0.0
  0
LINE
  5
CCD
330
1F
100
AcDbEntity
  8
0
 62
     3
100
AcDbLine
 10
694.2203156534652
 20
220.2440741765175
 30
0.0
 11
692.2908038234652
 21
220.2440741765175
 31
0.0
  0
LINE
  5
CCE
330
1F
100
AcDbEntity
  8
0
 62
     3
100
AcDbLine
 10
692.2908038234652
 20
220.2440741765175
 30
0.0
 11
692.2908038234652
 21
220.0325130365176
 31
0.0
  0
LINE
  5
CCF
330
1F
100
AcDbEntity
  8
0
 62
     3
100
AcDbLine
 10
694.4346736534653
 20
216.3018825565176
 30
0.0
 11
694.4346736534653
 21
216.0903214165176
 31
0.0
  0
LINE
  5
CD0
330
1F
100
AcDbEntity
  8
0
 62
     3
100
AcDbLine
 10
696.4189742134652
 20
216.0903214165176
 30
0.0
 11
694.4346736534653
 21
216.0903214165176
 31
0.0
  0
LINE
  5
CD1
330
1F
100
AcDbEntity
  8
0
 62
     3
100
AcDbLine
 10
695.9284375834653
 20
219.5763046565176
 30
0.0
 11
695.9284375834653
 21
216.7580909365175
 31
0.0
  0
LINE
  5
CD2
330
1F
100
AcDbEntity
  8
0
 62
     3
100
AcDbLine
 10
695.9284375834653
 20
216.7580909365175
 30
0.0
 11
696.1184865534652
 21
216.7580909365175
 31
0.0
  0
ARC
  5
CD3
330
1F
100
AcDbEntity
  8
0
 62
     3
100
AcDbCircle
 10
695.1467008134653
 20
218.1671977965176
 30
0.0
 40
1.71170957
100
AcDbArc
 50
304.5919552700012
 51
55.40804472999885
  0
LINE
  5
CD4
330
1F
100
AcDbEntity
  8
0
 62
     3
100
AcDbLine
 10
696.4189742134652
 20
220.2440741765175
 30
0.0
 11
694.4346736534653
 21
220.2440741765175
 31
0.0
  0
LINE
  5
CD5
330
1F
100
AcDbEntity
  8
0
 62
     3
100
AcDbLine
 10
694.4346736534653
 20
220.2440741765175
 30
0.0
 11
694.4346736534653
 21
220.0325130365176
 31
0.0
  0
LINE
  5
CD6
330
1F
100
AcDbEntity
  8
0
 62
     3
100
AcDbLine
 10
692.2908038234652
 20
216.3018825565176
 30
0.0
 11
692.2908038234652
 21
216.0903214165176
 31
0.0
  0
LINE
  5
CD7
330
1F
100
AcDbEntity
  8
0
 62
     3
100
AcDbLine
 10
695.9284375834653
 20
219.5763046565176
 30
0.0
 11
696.1184865534652
 21
219.5763046565176
 31
0.0
  0
LINE
  5
CD8
330
1F
100
AcDbEntity
  8
0
 62
     3
100
AcDbLine
 10
684.2852779234653
 20
216.3018825565176
 30
0.0
 11
684.2852742334653
 21
216.0903016465176
 31
0.0
  0
LINE
  5
CD9
330
1F
100
AcDbEntity
  8
0
 62
     3
100
AcDbLine
 10
682.3557623934653
 20
216.0903411865175
 30
0.0
 11
684.2852742334653
 21
216.0903075165176
 31
0.0
  0
LINE
  5
CDA
330
1F
100
AcDbEntity
  8
0
 62
     3
100
AcDbLine
 10
678.0593805434652
 20
216.0903214165176
 30
0.0
 11
679.5986458734652
 21
216.0903214165176
 31
0.0
  0
ARC
  5
CDB
330
1F
100
AcDbEntity
  8
0
 62
     3
100
AcDbCircle
 10
673.0774378634653
 20
218.2161044165176
 30
0.0
 40
14.71356563
100
AcDbArc
 50
353.8660061899999
 51
357.6940342600001
  0
LINE
  5
CDC
330
1F
100
AcDbEntity
  8
0
 62
     3
100
AcDbLine
 10
686.7940177234652
 20
217.6277367665175
 30
0.0
 11
687.7790886134653
 21
217.6240918865176
 31
0.0
  0
LINE
  5
CDE
330
1F
100
AcDbEntity
  8
0
 62
     3
100
AcDbLine
 10
686.7979961434652
 20
218.7029515065176
 30
0.0
 11
687.7830670234652
 21
218.6993066365176
 31
0.0
  0
ARC
  5
CDF
330
1F
100
AcDbEntity
  8
0
 62
     3
100
AcDbCircle
 10
673.0774378634653
 20
218.2161044165176
 30
0.0
 40
14.71356563
100
AcDbArc
 50
1.881965739999571
 51
5.70999380999998
  0
LINE
  5
CE0
330
1F
100
AcDbEntity
  8
0
 62
     3
100
AcDbLine
 10
684.2853467234653
 20
220.2440544065175
 30
0.0
 11
684.2853430334653
 21
220.0325130365176
 31
0.0
  0
LINE
  5
CE1
330
1F
100
AcDbEntity
  8
0
 62
     3
100
AcDbLine
 10
682.3558348934652
 20
220.2440939465175
 30
0.0
 11
684.2853467234653
 21
220.2440602665175
 31
0.0
  0
LINE
  5
CE2
330
1F
100
AcDbEntity
  8
0
 62
     3
100
AcDbLine
 10
682.3557660834652
 20
216.3018825565176
 30
0.0
 11
682.3557623934653
 21
216.0903411865175
 31
0.0
  0
LINE
  5
CE3
330
1F
100
AcDbEntity
  8
0
 62
     3
100
AcDbLine
 10
682.3558348934652
 20
220.2440939465175
 30
0.0
 11
682.3558312034653
 21
220.0325130365176
 31
0.0
  0
LINE
  5
CE4
330
1F
100
AcDbEntity
  8
0
 62
     3
100
AcDbLine
 10
679.5986458734652
 20
216.3018825565176
 30
0.0
 11
679.5986458734652
 21
216.0903214165176
 31
0.0
  0
LINE
  5
CE5
330
1F
100
AcDbEntity
  8
0
 62
     3
100
AcDbLine
 10
679.1628979634652
 20
218.5262095065175
 30
0.0
 11
680.6853280234652
 21
216.0903214165176
 31
0.0
  0
LINE
  5
CE6
330
1F
100
AcDbEntity
  8
0
 62
     3
100
AcDbLine
 10
680.6853280234652
 20
216.0903214165176
 30
0.0
 11
681.7047607434654
 21
216.0903214165176
 31
0.0
  0
LINE
  5
CE7
330
1F
100
AcDbEntity
  8
0
 62
     3
100
AcDbLine
 10
682.1405086534653
 20
220.2440741765175
 30
0.0
 11
682.1405086534653
 21
220.0325130365176
 31
0.0
  0
LINE
  5
CE8
330
1F
100
AcDbEntity
  8
0
 62
     3
100
AcDbLine
 10
680.6012433234652
 20
220.2440741765175
 30
0.0
 11
682.1405086534653
 21
220.2440741765175
 31
0.0
  0
LINE
  5
CE9
330
1F
100
AcDbEntity
  8
0
 62
     3
100
AcDbLine
 10
680.6012433234652
 20
220.2440741765175
 30
0.0
 11
680.6012433234652
 21
220.0325130365176
 31
0.0
  0
LINE
  5
CEA
330
1F
100
AcDbEntity
  8
0
 62
     3
100
AcDbLine
 10
681.0369912334652
 20
218.3627078365175
 30
0.0
 11
679.8023445634652
 21
220.2440741765175
 31
0.0
  0
LINE
  5
CEB
330
1F
100
AcDbEntity
  8
0
 62
     3
100
AcDbLine
 10
678.0593805434652
 20
220.2440741765175
 30
0.0
 11
679.8023445634652
 21
220.2440741765175
 31
0.0
  0
LINE
  5
CEC
330
1F
100
AcDbEntity
  8
0
 62
     3
100
AcDbLine
 10
687.9755949034652
 20
220.2439754565176
 30
0.0
 11
689.9278574434653
 21
220.2439754565176
 31
0.0
  0
LINE
  5
CED
330
1F
100
AcDbEntity
  8
0
 62
     3
100
AcDbLine
 10
687.9755949034652
 20
220.0325130365176
 30
0.0
 11
687.9755949034652
 21
220.2439754565176
 31
0.0
  0
LINE
  5
CEE
330
1F
100
AcDbEntity
  8
0
 62
     3
100
AcDbLine
 10
687.9755949034652
 20
216.0902227065176
 30
0.0
 11
687.9755949034652
 21
216.3018825565176
 31
0.0
  0
LINE
  5
CEF
330
1F
100
AcDbEntity
  8
0
 62
     3
100
AcDbLine
 10
687.9755949034652
 20
216.0902227065176
 30
0.0
 11
689.9278574434653
 21
216.0902227065176
 31
0.0
  0
LINE
  5
CF0
330
1F
100
AcDbEntity
  8
0
 62
     3
100
AcDbLine
 10
690.1315837334652
 20
216.3018825565176
 30
0.0
 11
690.1315837334652
 21
216.0902227065176
 31
0.0
  0
LINE
  5
CF1
330
1F
100
AcDbEntity
  8
0
 62
     3
100
AcDbLine
 10
689.9278574434653
 20
216.3018825565176
 30
0.0
 11
689.9278574434653
 21
216.0902227065176
 31
0.0
  0
LINE
  5
CF2
330
1F
100
AcDbEntity
  8
0
 62
     3
100
AcDbLine
 10
689.9278574434653
 20
220.0325130365176
 30
0.0
 11
689.9278574434653
 21
220.2439754565176
 31
0.0
  0
LINE
  5
CF3
330
1F
100
AcDbEntity
  8
0
 62
     3
100
AcDbLine
 10
690.1315837334652
 20
220.0325130365176
 30
0.0
 11
690.1315837334652
 21
220.2439754565176
 31
0.0
  0
LINE
  5
CF4
330
1F
100
AcDbEntity
  8
0
 62
     3
100
AcDbLine
 10
678.0593805434652
 20
216.3018825565176
 30
0.0
 11
678.0593805434652
 21
216.0903214165176
 31
0.0
  0
LINE
  5
CF5
330
1F
100
AcDbEntity
  8
0
 62
     3
100
AcDbLine
 10
678.0593805434652
 20
220.2440741765175
 30
0.0
 11
678.0593805434652
 21
220.0325130365176
 31
0.0
  0
ARC
  5
CF6
330
1F
100
AcDbEntity
  8
0
 62
     3
100
AcDbCircle
 10
696.6289742134653
 20
218.6029457065175
 30
0.0
 40
1.641128469999999
100
AcDbArc
 50
17.30874898000033
 51
23.76507095999893
  0
ARC
  5
CF7
330
1F
100
AcDbEntity
  8
0
 62
     3
100
AcDbCircle
 10
695.2307008134653
 20
218.1671977965176
 30
0.0
 40
3.105725599999998
100
AcDbArc
 50
342.6912510199997
 51
17.30856644000045
  0
ARC
  5
CF8
330
1F
100
AcDbEntity
  8
0
 62
     3
100
AcDbCircle
 10
696.6289742134653
 20
217.7314498965176
 30
0.0
 40
1.641128469999999
100
AcDbArc
 50
336.234929039998
 51
342.6912510199997
  0
ARC
  5
CF9
330
1F
100
AcDbEntity
  8
0
 62
     3
100
AcDbCircle
 10
696.4189742134652
 20
218.6029457065175
 30
0.0
 40
1.641128469999999
100
AcDbArc
 50
17.30874898000033
 51
90.0
  0
ARC
  5
CFA
330
1F
100
AcDbEntity
  8
0
 62
     3
100
AcDbCircle
 10
695.0207008134652
 20
218.1671977965176
 30
0.0
 40
3.105725599999998
100
AcDbArc
 50
342.6912510199997
 51
17.30856644000045
  0
ARC
  5
CFB
330
1F
100
AcDbEntity
  8
0
 62
     3
100
AcDbCircle
 10
696.4189742134652
 20
217.7314498965176
 30
0.0
 40
1.641128469999999
100
AcDbArc
 50
270.0
 51
342.6912510199997
  0
ARC
  5
CFC
330
1F
100
AcDbEntity
  8
0
 62
     3
100
AcDbCircle
 10
686.2950338434652
 20
218.1671977965176
 30
0.0
 40
2.076876379999998
100
AcDbArc
 50
46.75287961000123
 51
89.74999828999569
  0
ARC
  5
CFD
330
1F
100
AcDbEntity
  8
0
 62
     3
100
AcDbCircle
 10
686.2950338434652
 20
218.1671977965176
 30
0.0
 40
2.076876379999998
100
AcDbArc
 50
273.9763331499971
 51
312.8231203899985
  0
ARC
  5
CFE
330
1F
100
AcDbEntity
  8
0
 62
     3
100
AcDbCircle
 10
697.7368417834652
 20
218.1351362665175
 30
0.0
 40
2.755888999999998
100
AcDbArc
 50
0.6665840599997753
 51
23.90392827000137
  0
ARC
  5
CFF
330
1F
100
AcDbEntity
  8
0
 62
     3
100
AcDbCircle
 10
701.6524040634654
 20
218.1351362665175
 30
0.0
 40
2.755888999999998
100
AcDbArc
 50
156.0960717299986
 51
179.3334159400002
  0
ARC
  5
D00
330
1F
100
AcDbEntity
  8
0
 62
     3
100
AcDbCircle
 10
697.7368417834652
 20
218.1992593265176
 30
0.0
 40
2.755888999999998
100
AcDbArc
 50
336.0960717299986
 51
359.3334159400003
  0
ARC
  5
D01
330
1F
100
AcDbEntity
  8
0
 62
     3
100
AcDbCircle
 10
701.6524040634654
 20
218.1992593265176
 30
0.0
 40
2.755888999999998
100
AcDbArc
 50
180.6665840599997
 51
203.9039282700014
  0
LINE
  5
D02
330
1F
100
AcDbEntity
  8
0
 62
     3
100
AcDbLine
 10
706.3026911534652
 20
218.2450689365175
 30
0.0
 11
790.9750285234653
 21
218.2450689365175
 31
0.0
  0
LINE
  5
D04
330
1F
100
AcDbEntity
  8
0
 62
     3
100
AcDbLine
 10
672.8899446334652
 20
218.2450689365175
 30
0.0
 11
610.9750285234653
 21
218.2450689365175
 31
0.0
  0
LINE
  5
D05
330
1F
100
AcDbEntity
  8
0
 62
     3
100
AcDbLine
 10
738.9750285234653
 20
-58.75493106348244
 30
0.0
 11
738.9750285234653
 21
-0.7549310634824346
 31
0.0
  0
LINE
  5
D06
330
1F
100
AcDbEntity
  8
0
 62
     3
100
AcDbLine
 10
751.9750285234652
 20
-48.75493106348244
 30
0.0
 11
751.9750285234652
 21
-20.75493106348245
 31
0.0
  0
LINE
  5
D07
330
1F
100
AcDbEntity
  8
0
 62
     3
100
AcDbLine
 10
711.9750285234653
 20
-48.75493106348244
 30
0.0
 11
711.9750285234653
 21
-34.75493106348245
 31
0.0
  0
LINE
  5
D08
330
1F
100
AcDbEntity
  8
0
 62
     3
100
AcDbLine
 10
721.9750285234653
 20
-34.75493106348245
 30
0.0
 11
721.9750285234653
 21
-58.75493106348244
 31
0.0
  0
LINE
  5
D09
330
1F
100
AcDbEntity
  8
0
 62
     3
100
AcDbLine
 10
692.9750285234653
 20
-18.75493106348245
 30
0.0
 11
692.9750285234653
 21
-41.75493106348244
 31
0.0
  0
LINE
  5
D0A
330
1F
100
AcDbEntity
  8
0
 62
     3
100
AcDbLine
 10
751.9750285234652
 20
-20.75493106348245
 30
0.0
 11
751.9750285234652
 21
-18.75493106348244
 31
0.0
  0
LINE
  5
D0B
330
1F
100
AcDbEntity
  8
0
 62
     3
100
AcDbLine
 10
764.9750285234652
 20
-41.75493106348244
 30
0.0
 11
764.9750285234652
 21
-0.754931063482438
 31
0.0
  0
LINE
  5
D0C
330
1F
100
AcDbEntity
  8
0
 62
     3
100
AcDbLine
 10
790.9750285234653
 20
-18.75493106348244
 30
0.0
 11
679.7295938834653
 21
-18.75493106348243
 31
0.0
  0
LINE
  5
D0D
330
1F
100
AcDbEntity
  8
0
 62
     3
100
AcDbLine
 10
790.9750285234653
 20
-27.75493106348245
 30
0.0
 11
679.7295938834653
 21
-27.75493106348244
 31
0.0
  0
LINE
  5
D0E
330
1F
100
AcDbEntity
  8
0
 62
     3
100
AcDbLine
 10
790.9750285234653
 20
-41.75493106348244
 30
0.0
 11
679.7295938834653
 21
-41.75493106348244
 31
0.0
  0
LINE
  5
D0F
330
1F
100
AcDbEntity
  8
0
 62
     3
100
AcDbLine
 10
790.9750285234653
 20
-48.75493106348244
 30
0.0
 11
679.6715860234652
 21
-48.75493106348244
 31
0.0
  0
LINE
  5
D10
330
1F
100
AcDbEntity
  8
0
 62
     3
100
AcDbLine
 10
777.9750285234653
 20
-41.75493106348244
 30
0.0
 11
777.9750285234653
 21
-18.75493106348244
 31
0.0
  0
LINE
  5
D11
330
1F
100
AcDbEntity
  8
0
 62
     3
100
AcDbLine
 10
679.7295938834653
 20
-18.75493106348243
 30
0.0
 11
679.7295938834653
 21
-58.75493106348244
 31
0.0
  0
LINE
  5
D12
330
1F
100
AcDbEntity
  8
0
 62
     3
100
AcDbLine
 10
738.9750285234653
 20
-34.75493106348245
 30
0.0
 11
679.7295938834653
 21
-34.75493106348246
 31
0.0
  0
LINE
  5
D13
330
1F
100
AcDbEntity
  8
0
 62
     3
100
AcDbLine
 10
722.2533534534652
 20
-53.92206980348245
 30
0.0
 11
738.9750285234653
 21
-53.92206980348245
 31
0.0
  0
TEXT
  5
D20
330
1F
100
AcDbEntity
  8
0
 62
     3
100
AcDbText
 10
723.139353936781
 20
-39.6818342101171
 30
0.0
 40
2.5
  1
-
  7
高2.5
100
AcDbText
  0
TEXT
  5
D21
330
1F
100
AcDbEntity
  8
0
 62
     3
100
AcDbText
 10
694.1713972187175
 20
-41.47598478502755
 30
0.0
 40
2.5
  1
ABS
  7
高2.5
100
AcDbText
  0
TEXT
  5
D22
330
1F
100
AcDbEntity
  8
0
 62
     3
100
AcDbText
 10
694.4363049734151
 20
-26.44268153972455
 30
0.0
 40
4.5
  1
LED小型回転灯フラッシャーランタン
 41
0.45
  7
高4.5
100
AcDbText
1001
ACAD
1000
ACAD_MTEXT_DEFINED_HEIGHT_BEGIN
1070
    46
1040
0.0
1000
ACAD_MTEXT_DEFINED_HEIGHT_END
  0
TEXT
  5
D23
330
1F
100
AcDbEntity
  8
0
 62
     3
100
AcDbText
 10
781.0406176169394
 20
-22.24123896477885
 30
0.0
 40
2.0
  1
DEF
  7
高2
100
AcDbText
  0
TEXT
  5
D24
330
1F
100
AcDbEntity
  8
0
 62
     3
100
AcDbText
 10
767.1015192632312
 20
-22.24123896477895
 30
0.0
 40
2.0
  1
DESN
  7
高2
100
AcDbText
  0
TEXT
  5
D25
330
1F
100
AcDbEntity
  8
0
 62
     3
100
AcDbText
 10
740.8471523232309
 20
-22.24123896477885
 30
0.0
 40
2.0
  1
APPD
  7
高2
100
AcDbText
  0
TEXT
  5
D26
330
1F
100
AcDbEntity
  8
0
 62
     3
100
AcDbText
 10
753.9598884234652
 20
-22.24123896477884
 30
0.0
 40
2.0
  1
CHCK
  7
高2
100
AcDbText
  0
TEXT
  5
D27
330
1F
100
AcDbEntity
  8
0
 62
     3
100
AcDbText
 10
712.902194162618
 20
-44.58653224025172
 30
0.0
 40
2.0
  1
SCALE
 41
0.8
  7
高2
100
AcDbText
  0
TEXT
  5
D28
330
1F
100
AcDbEntity
  8
0
 62
     3
100
AcDbText
 10
681.4141725865114
 20
-44.58653224025171
 30
0.0
 40
2.0
  1
3AD　ANGLE
 41
1.5
  7
高2
100
AcDbText
  0
TEXT
  5
D29
330
1F
100
AcDbEntity
  8
0
 62
     3
100
AcDbText
 10
712.1715998534668
 20
-37.83499417129462
 30
0.0
 40
2.0
  1
REMARKS
 41
0.7
  7
高2
100
AcDbText
  0
TEXT
  5
D2A
330
1F
100
AcDbEntity
  8
0
 62
     3
100
AcDbText
 10
681.1972642334652
 20
-37.75493106348244
 30
0.0
 40
2.0
  1
MATERIAL
 41
0.7
  7
高2
100
AcDbText
  0
TEXT
  5
D2B
330
1F
100
AcDbEntity
  8
0
 62
     3
100
AcDbText
 10
681.7737514362192
 20
-30.75493106348246
 30
0.0
 40
2.0
  1
MODEL
  7
高2
100
AcDbText
  0
TEXT
  5
D2C
330
1F
100
AcDbEntity
  8
0
 62
     3
100
AcDbText
 10
681.4106723175505
 20
-22.04790971288343
 30
0.0
 40
2.0
  1
CONPONENTS
 41
0.5
  7
高2
100
AcDbText
  0
TEXT
  5
D2D
330
1F
100
AcDbEntity
  8
0
 62
     3
100
AcDbText
 10
694.1177877887175
 20
-34.1409217723708
 30
0.0
 40
2.5
  1
NLA-90Y-100
  7
高2.5
100
AcDbText
  0
TEXT
  5
D2E
330
1F
100
AcDbEntity
  8
0
 62
     3
100
AcDbText
 10
741.8662810954905
 20
-57.45202763339172
 30
0.0
 40
6.299999999999998
  1
NLA-90
  7
高6.3
100
AcDbText
1001
ACAD
1000
ACAD_MTEXT_DEFINED_HEIGHT_BEGIN
1070
    46
1040
0.0
1000
ACAD_MTEXT_DEFINED_HEIGHT_END
  0
TEXT
  5
D2F
330
1F
100
AcDbEntity
  8
0
 62
     3
100
AcDbText
 10
755.5385382737949
 20
-47.65404190524943
 30
0.0
 40
3.2
  1
2012.11.06
  7
高3.2
100
AcDbText
1001
ACAD
1000
ACAD_MTEXT_DEFINED_HEIGHT_BEGIN
1070
    46
1040
0.0
1000
ACAD_MTEXT_DEFINED_HEIGHT_END
  0
TEXT
  5
D30
330
1F
100
AcDbEntity
  8
0
 62
     3
100
AcDbText
 10
725.7626264181116
 20
-47.65401406091458
 30
0.0
 40
3.2
  1
1/2
  7
高3.2
100
AcDbText
  0
TEXT
  5
D31
330
1F
100
AcDbEntity
  8
0
 62
     3
100
AcDbText
 10
722.8399553934653
 20
-57.93805289034647
 30
0.0
 40
3.2
  1
ZK-A4Y
 41
0.8
  7
高3.2
100
AcDbText
  0
TEXT
  5
D32
330
1F
100
AcDbEntity
  8
0
 62
     3
100
AcDbText
 10
680.5602949234652
 20
-52.23031064129461
 30
0.0
 40
2.0
  1
NICHIDO IND.CO.LTD
 41
1.3
  7
高2
100
AcDbText
  0
TEXT
  5
D33
330
1F
100
AcDbEntity
  8
0
 62
     3
100
AcDbText
 10
681.7418181884224
 20
-26.61440285559751
 30
0.0
 40
3.2
  1
品 名
  7
高3.2
100
AcDbText
1001
ACAD
1000
ACAD_MTEXT_DEFINED_HEIGHT_BEGIN
1070
    46
1040
0.0
1000
ACAD_MTEXT_DEFINED_HEIGHT_END
  0
TEXT
  5
D34
330
1F
100
AcDbEntity
  8
0
 62
     3
100
AcDbText
 10
681.7418181884224
 20
-34.25493106348246
 30
0.0
 40
3.2
  1
型 式
  7
高3.2
100
AcDbText
1001
ACAD
1000
ACAD_MTEXT_DEFINED_HEIGHT_BEGIN
1070
    46
1040
3.064735913775952
1000
ACAD_MTEXT_DEFINED_HEIGHT_END
  0
TEXT
  5
D35
330
1F
100
AcDbEntity
  8
0
 62
     3
100
AcDbText
 10
681.7418181884224
 20
-41.25493106348243
 30
0.0
 40
3.2
  1
材 質
  7
高3.2
100
AcDbText
1001
ACAD
1000
ACAD_MTEXT_DEFINED_HEIGHT_BEGIN
1070
    46
1040
0.0
1000
ACAD_MTEXT_DEFINED_HEIGHT_END
  0
TEXT
  5
D36
330
1F
100
AcDbEntity
  8
0
 62
     3
100
AcDbText
 10
681.4367832384224
 20
-48.2874910712362
 30
0.0
 40
3.2
  1
第 三 角 法
  7
高3.2
100
AcDbText
1001
ACAD
1000
ACAD_MTEXT_DEFINED_HEIGHT_BEGIN
1070
    46
1040
0.0
1000
ACAD_MTEXT_DEFINED_HEIGHT_END
  0
TEXT
  5
D37
330
1F
100
AcDbEntity
  8
0
 62
     3
100
AcDbText
 10
679.8433158459512
 20
-57.6144028555975
 30
0.0
 40
3.2
  1
日動工業株式会社
 41
1.199999999999999
  7
高3.2
100
AcDbText
1001
ACAD
1000
ACAD_MTEXT_DEFINED_HEIGHT_BEGIN
1070
    46
1040
0.0
1000
ACAD_MTEXT_DEFINED_HEIGHT_END
  0
TEXT
  5
D38
330
1F
100
AcDbEntity
  8
0
 62
     3
100
AcDbText
 10
713.4789400454296
 20
-41.37035253031489
 30
0.0
 40
3.2
  1
備考
  7
高3.2
100
AcDbText
1001
ACAD
1000
ACAD_MTEXT_DEFINED_HEIGHT_BEGIN
1070
    46
1040
0.0
1000
ACAD_MTEXT_DEFINED_HEIGHT_END
  0
TEXT
  5
D39
330
1F
100
AcDbEntity
  8
0
 62
     3
100
AcDbText
 10
723.1279974924651
 20
-52.60870103791216
 30
0.0
 40
2.5
  1
出図コード
  7
高2.5
100
AcDbText
1001
ACAD
1000
ACAD_MTEXT_DEFINED_HEIGHT_BEGIN
1070
    46
1040
0.0
1000
ACAD_MTEXT_DEFINED_HEIGHT_END
  0
TEXT
  5
D3A
330
1F
100
AcDbEntity
  8
0
 62
     3
100
AcDbText
 10
713.3201739273422
 20
-48.30169615306953
 30
0.0
 40
3.2
  1
尺度
  7
高3.2
100
AcDbText
1001
ACAD
1000
ACAD_MTEXT_DEFINED_HEIGHT_BEGIN
1070
    46
1040
0.0
1000
ACAD_MTEXT_DEFINED_HEIGHT_END
  0
TEXT
  5
D3B
330
1F
100
AcDbEntity
  8
0
 62
     3
100
AcDbText
 10
740.4664354091209
 20
-47.17021770495203
 30
0.0
 40
3.2
  1
作成日
  7
高3.2
100
AcDbText
1001
ACAD
1000
ACAD_MTEXT_DEFINED_HEIGHT_BEGIN
1070
    46
1040
0.0
1000
ACAD_MTEXT_DEFINED_HEIGHT_END
  0
TEXT
  5
D44
330
1F
100
AcDbEntity
  8
0
 62
     3
100
AcDbText
 10
740.3609094159851
 20
-26.61440285559751
 30
0.0
 40
3.2
  1
承 認
  7
高3.2
100
AcDbText
1001
ACAD
1000
ACAD_MTEXT_DEFINED_HEIGHT_BEGIN
1070
    46
1040
0.0
1000
ACAD_MTEXT_DEFINED_HEIGHT_END
  0
TEXT
  5
D45
330
1F
100
AcDbEntity
  8
0
 62
     3
100
AcDbText
 10
753.3609094159848
 20
-26.61440285559751
 30
0.0
 40
3.2
  1
検 図
  7
高3.2
100
AcDbText
1001
ACAD
1000
ACAD_MTEXT_DEFINED_HEIGHT_BEGIN
1070
    46
1040
0.0
1000
ACAD_MTEXT_DEFINED_HEIGHT_END
  0
TEXT
  5
D46
330
1F
100
AcDbEntity
  8
0
 62
     3
100
AcDbText
 10
766.3609094159848
 20
-26.61440285559751
 30
0.0
 40
3.2
  1
設 計
  7
高3.2
100
AcDbText
1001
ACAD
1000
ACAD_MTEXT_DEFINED_HEIGHT_BEGIN
1070
    46
1040
0.0
1000
ACAD_MTEXT_DEFINED_HEIGHT_END
  0
TEXT
  5
D47
330
1F
100
AcDbEntity
  8
0
 62
     3
100
AcDbText
 10
779.6615459359848
 20
-26.61440285559751
 30
0.0
 40
3.2
  1
製 図
  7
高3.2
100
AcDbText
1001
ACAD
1000
ACAD_MTEXT_DEFINED_HEIGHT_BEGIN
1070
    46
1040
0.0
1000
ACAD_MTEXT_DEFINED_HEIGHT_END
  0
TEXT
  5
D4D
330
1F
100
AcDbEntity
  8
0
 62
     3
100
AcDbText
 10
694.1177877887175
 20
-30.70050416314739
 30
0.0
 40
2.5
  1
NLA-90R-100
  7
高2.5
100
AcDbText
  0
TEXT
  5
D4E
330
1F
100
AcDbEntity
  8
0
 62
     3
100
AcDbText
 10
694.1713972187175
 20
-37.9429647365396
 30
0.0
 40
2.5
  1
PMMA
  7
高2.5
100
AcDbText
  0
TEXT
  5
D4F
330
1F
100
AcDbEntity
  8
0
 62
     7
100
AcDbText
 10
782.5912655577922
 20
-38.37770536902076
 30
0.0
 40
4.5
  1
I
  7
高4.5
100
AcDbText
1001
ACAD
1000
ACAD_MTEXT_DEFINED_HEIGHT_BEGIN
1070
    46
1040
0.0
1000
ACAD_MTEXT_DEFINED_HEIGHT_END
  0
LINE
  5
D50
330
1F
100
AcDbEntity
  8
0
 62
     3
100
AcDbLine
 10
790.9750285234653
 20
-12.75493106348244
 30
0.0
 11
738.9750285234654
 21
-12.75493106348243
 31
0.0
  0
LINE
  5
D51
330
1F
100
AcDbEntity
  8
0
 62
     3
100
AcDbLine
 10
790.9750285234653
 20
-6.754931063482437
 30
0.0
 11
738.9750285234654
 21
-6.754931063482432
 31
0.0
  0
LINE
  5
D52
330
1F
100
AcDbEntity
  8
0
 62
     3
100
AcDbLine
 10
790.9750285234653
 20
-0.754931063482438
 30
0.0
 11
738.9750285234654
 21
-0.7549310634824348
 31
0.0
  0
TEXT
  5
D53
330
1F
100
AcDbEntity
  8
0
 62
     3
100
AcDbText
 10
740.4363049734151
 20
-6.194878937992302
 30
0.0
 40
4.5
  1
型　　式
  7
高4.5
100
AcDbText
1001
ACAD
1000
ACAD_MTEXT_DEFINED_HEIGHT_BEGIN
1070
    46
1040
0.0
1000
ACAD_MTEXT_DEFINED_HEIGHT_END
  0
TEXT
  5
D54
330
1F
100
AcDbEntity
  8
0
 62
     3
100
AcDbText
 10
766.4363049734149
 20
-6.194878937992307
 30
0.0
 40
4.5
  1
コード
  7
高4.5
100
AcDbText
1001
ACAD
1000
ACAD_MTEXT_DEFINED_HEIGHT_BEGIN
1070
    46
1040
0.0
1000
ACAD_MTEXT_DEFINED_HEIGHT_END
  0
TEXT
  5
D5D
330
1F
100
AcDbEntity
  8
0
 62
     3
100
AcDbText
 10
740.4363049734151
 20
-12.1948789379923
 30
0.0
 40
3.2
  1
NLA-90R-100
 41
0.7
  7
高3.2
100
AcDbText
1001
ACAD
1000
ACAD_MTEXT_DEFINED_HEIGHT_BEGIN
1070
    46
1040
0.0
1000
ACAD_MTEXT_DEFINED_HEIGHT_END
  0
TEXT
  5
D5E
330
1F
100
AcDbEntity
  8
0
 62
     3
100
AcDbText
 10
766.4363049734149
 20
-12.19487893799231
 30
0.0
 40
4.5
  1
14003
  7
高4.5
100
AcDbText
1001
ACAD
1000
ACAD_MTEXT_DEFINED_HEIGHT_BEGIN
1070
    46
1040
0.0
1000
ACAD_MTEXT_DEFINED_HEIGHT_END
  0
TEXT
  5
D5F
330
1F
100
AcDbEntity
  8
0
 62
     3
100
AcDbText
 10
740.4363049734151
 20
-18.1948789379923
 30
0.0
 40
3.2
  1
NLA-90Y-100
 41
0.7
  7
高3.2
100
AcDbText
1001
ACAD
1000
ACAD_MTEXT_DEFINED_HEIGHT_BEGIN
1070
    46
1040
0.0
1000
ACAD_MTEXT_DEFINED_HEIGHT_END
  0
TEXT
  5
D60
330
1F
100
AcDbEntity
  8
0
 62
     3
100
AcDbText
 10
766.4363049734149
 20
-18.1948789379923
 30
0.0
 40
4.5
  1
14004
  7
高4.5
100
AcDbText
1001
ACAD
1000
ACAD_MTEXT_DEFINED_HEIGHT_BEGIN
1070
    46
1040
0.0
1000
ACAD_MTEXT_DEFINED_HEIGHT_END
  0
LINE
  5
DC0
330
1F
100
AcDbEntity
  8
0
 62
     7
100
AcDbLine
 10
710.3309526460826
 20
110.3955204920554
 30
0.0
 11
787.6682283451335
 21
110.3955204920551
 31
0.0
  0
LINE
  5
DC1
330
1F
100
AcDbEntity
  8
0
 62
     7
100
AcDbLine
 10
710.3309526460826
 20
115.3955204920554
 30
0.0
 11
787.6682283451335
 21
115.3955204920551
 31
0.0
  0
LINE
  5
DC2
330
1F
100
AcDbEntity
  8
0
 62
     7
100
AcDbLine
 10
710.3309526460826
 20
120.3955204920554
 30
0.0
 11
787.6682283451335
 21
120.3955204920551
 31
0.0
  0
LINE
  5
DC9
330
1F
100
AcDbEntity
  8
0
 62
     7
100
AcDbLine
 10
710.3309526460826
 20
125.3955204920551
 30
0.0
 11
787.6682283451335
 21
125.395520492055
 31
0.0
  0
LINE
  5
DCA
330
1F
100
AcDbEntity
  8
0
 62
     7
100
AcDbLine
 10
710.3309526460826
 20
130.3955204920551
 30
0.0
 11
787.6682283451335
 21
130.3955204920551
 31
0.0
  0
LINE
  5
DCB
330
1F
100
AcDbEntity
  8
0
 62
     7
100
AcDbLine
 10
710.3309526460826
 20
135.395520492055
 30
0.0
 11
787.6682283451335
 21
135.395520492055
 31
0.0
  0
LINE
  5
DCC
330
1F
100
AcDbEntity
  8
0
 62
     7
100
AcDbLine
 10
710.3309526460826
 20
140.3955204920551
 30
0.0
 11
787.6682283451335
 21
140.3955204920549
 31
0.0
  0
LINE
  5
DCD
330
1F
100
AcDbEntity
  8
0
 62
     7
100
AcDbLine
 10
710.3309526460826
 20
145.3955204920551
 30
0.0
 11
787.6682283451335
 21
145.395520492055
 31
0.0
  0
LINE
  5
DCE
330
1F
100
AcDbEntity
  8
0
 62
     7
100
AcDbLine
 10
710.3309526460826
 20
150.3955204920551
 30
0.0
 11
787.6682283451335
 21
150.395520492055
 31
0.0
  0
LINE
  5
DCF
330
1F
100
AcDbEntity
  8
0
 62
     7
100
AcDbLine
 10
710.3309526460826
 20
155.3955204920551
 30
0.0
 11
787.6682283451335
 21
155.3955204920551
 31
0.0
  0
TEXT
  5
DD6
330
1F
100
AcDbEntity
  8
0
 62
     3
100
AcDbText
 10
737.27014897365
 20
140.895520492055
 30
0.0
 40
3.2
  1
100V(50/60Hz)
  7
高3.2
100
AcDbText
  0
TEXT
  5
DD7
330
1F
100
AcDbEntity
  8
0
 62
     3
100
AcDbText
 10
711.9808916460828
 20
150.8955204920551
 30
0.0
 40
3.2
  1
グローブ色
  7
高3.2
100
AcDbText
  0
TEXT
  5
DD8
330
1F
100
AcDbEntity
  8
0
 62
     3
100
AcDbText
 10
711.9808916460828
 20
145.8955204920551
 30
0.0
 40
3.2
  1
光　　　源
  7
高3.2
100
AcDbText
  0
TEXT
  5
DD9
330
1F
100
AcDbEntity
  8
0
 62
     3
100
AcDbText
 10
711.9808916460828
 20
140.8955204920551
 30
0.0
 40
3.2
  1
定格　電圧
  7
高3.2
100
AcDbText
  0
TEXT
  5
DDA
330
1F
100
AcDbEntity
  8
0
 62
     3
100
AcDbText
 10
711.9808916460828
 20
135.8955204920551
 30
0.0
 40
3.2
  1
定格　電流
  7
高3.2
100
AcDbText
  0
TEXT
  5
DDB
330
1F
100
AcDbEntity
  8
0
 62
     3
100
AcDbText
 10
711.9808916460828
 20
130.8955204920551
 30
0.0
 40
3.2
  1
消費　電力
  7
高3.2
100
AcDbText
  0
TEXT
  5
DDC
330
1F
100
AcDbEntity
  8
0
 62
     3
100
AcDbText
 10
711.9808916460828
 20
125.8955204920552
 30
0.0
 40
3.2
  1
光　　　度
  7
高3.2
100
AcDbText
  0
TEXT
  5
DDD
330
1F
100
AcDbEntity
  8
0
 62
     3
100
AcDbText
 10
711.9808916460828
 20
120.8955204920552
 30
0.0
 40
3.2
  1
照　射　角
  7
高3.2
100
AcDbText
  0
TEXT
  5
DDF
330
1F
100
AcDbEntity
  8
0
 62
     3
100
AcDbText
 10
711.9808916460828
 20
101.067333179346
 30
0.0
 40
3.2
  1
質　　　量
  7
高3.2
100
AcDbText
  0
LINE
  5
DE0
330
1F
100
AcDbEntity
  8
0
 62
     7
100
AcDbLine
 10
735.62020997365
 20
160.395520492055
 30
0.0
 11
735.62020997365
 21
100.3955204920553
 31
0.0
  0
LINE
  5
DE1
330
1F
100
AcDbEntity
  8
0
 62
     3
100
AcDbLine
 10
710.3309526460829
 20
160.395520492055
 30
0.0
 11
710.3309526460831
 21
100.3955204920554
 31
0.0
  0
TEXT
  5
DE2
330
1F
100
AcDbEntity
  8
0
 62
     3
100
AcDbText
 10
737.27014897365
 20
145.895520492055
 30
0.0
 40
3.2
  1
LED 18球
  7
高3.2
100
AcDbText
  0
TEXT
  5
DE3
330
1F
100
AcDbEntity
  8
0
 62
     3
100
AcDbText
 10
737.27014897365
 20
135.895520492055
 30
0.0
 40
3.2
  1
0.01A
  7
高3.2
100
AcDbText
  0
TEXT
  5
DE4
330
1F
100
AcDbEntity
  8
0
 62
     3
100
AcDbText
 10
737.27014897365
 20
130.895520492055
 30
0.0
 40
3.2
  1
0.85W
  7
高3.2
100
AcDbText
  0
TEXT
  5
DE5
330
1F
100
AcDbEntity
  8
0
 62
     3
100
AcDbText
 10
737.27014897365
 20
125.8955204920552
 30
0.0
 40
3.2
  1
4000mcd
  7
高3.2
100
AcDbText
  0
TEXT
  5
DE8
330
1F
100
AcDbEntity
  8
0
 62
     3
100
AcDbText
 10
737.27014897365
 20
120.895520492055
 30
0.0
 40
3.2
  1
360\U+00B0
  7
高3.2
100
AcDbText
  0
TEXT
  5
DEA
330
1F
100
AcDbEntity
  8
0
 62
     3
100
AcDbText
 10
737.27014897365
 20
101.067333179346
 30
0.0
 40
3.2
  1
0.3kg
  7
高3.2
100
AcDbText
  0
TEXT
  5
DEB
330
1F
100
AcDbEntity
  8
0
 62
     3
100
AcDbText
 10
711.9808916460828
 20
111.067333179346
 30
0.0
 40
3.2
  1
使用環境温度
  7
高3.2
100
AcDbText
  0
TEXT
  5
DEC
330
1F
100
AcDbEntity
  8
0
 62
     3
100
AcDbText
 10
737.27014897365
 20
111.0673331793458
 30
0.0
 40
3.2
  1
-10～50℃
  7
高3.2
100
AcDbText
  0
TEXT
  5
DF0
330
1F
100
AcDbEntity
  8
0
 62
     3
100
AcDbText
 10
737.2661247120316
 20
150.9137343594046
 30
0.0
 40
3.2
  1
赤
  7
高3.2
100
AcDbText
  0
LINE
  5
DF1
330
1F
100
AcDbEntity
  8
0
 62
     7
100
AcDbLine
 10
761.8843383309738
 20
160.395520492055
 30
0.0
 11
761.8843383309738
 21
150.395520492055
 31
0.0
  0
LINE
  5
DF2
330
1F
100
AcDbEntity
  8
0
 62
     3
100
AcDbLine
 10
710.3309526460826
 20
100.3955204920554
 30
0.0
 11
787.6682283451335
 21
100.3955204920551
 31
0.0
  0
TEXT
  5
DF3
330
1F
100
AcDbEntity
  8
0
 62
     3
100
AcDbText
 10
711.9808916460823
 20
116.232995782486
 30
0.0
 40
3.2
  1
LED寿命
  7
高3.2
100
AcDbText
  0
TEXT
  5
DF4
330
1F
100
AcDbEntity
  8
0
 62
     3
100
AcDbText
 10
737.27014897365
 20
116.232995782486
 30
0.0
 40
3.2
  1
約40000時間
  7
高3.2
100
AcDbText
  0
TEXT
  5
DF8
330
1F
100
AcDbEntity
  8
0
 62
     3
100
AcDbText
 10
763.5342773309738
 20
130.8955204920549
 30
0.0
 40
3.2
  1
0.83W
  7
高3.2
100
AcDbText
  0
TEXT
  5
E03
330
1F
100
AcDbEntity
  8
0
 62
     3
100
AcDbText
 10
763.5302530693553
 20
150.9137343594045
 30
0.0
 40
3.2
  1
黄
  7
高3.2
100
AcDbText
  0
LINE
  5
E04
330
1F
100
AcDbEntity
  8
0
 62
     3
100
AcDbLine
 10
787.6682283451335
 20
160.395520492055
 30
0.0
 11
787.6682283451335
 21
100.3955204920551
 31
0.0
  0
LINE
  5
E06
330
1F
100
AcDbEntity
  8
0
 62
     7
100
AcDbLine
 10
761.8843383309738
 20
135.395520492055
 30
0.0
 11
761.8843383309738
 21
130.3955204920551
 31
0.0
  0
LINE
  5
E07
330
1F
100
AcDbEntity
  8
0
 62
     3
100
AcDbLine
 10
710.3309526460826
 20
160.395520492055
 30
0.0
 11
787.6682283451335
 21
160.395520492055
 31
0.0
  0
TEXT
  5
E08
330
1F
100
AcDbEntity
  8
0
 62
     3
100
AcDbText
 10
711.9808916460828
 20
155.8955204920551
 30
0.0
 40
3.2
  1
型　　　式
  7
高3.2
100
AcDbText
  0
TEXT
  5
E09
330
1F
100
AcDbEntity
  8
0
 62
     3
100
AcDbText
 10
737.2661247120316
 20
155.9137343594045
 30
0.0
 40
3.2
  1
NLA-90R-100
 41
0.7
  7
高3.2
100
AcDbText
  0
TEXT
  5
E0A
330
1F
100
AcDbEntity
  8
0
 62
     3
100
AcDbText
 10
763.5302530693553
 20
155.9137343594045
 30
0.0
 40
3.2
  1
NLA-90Y-100
 41
0.7
  7
高3.2
100
AcDbText
  0
LINE
  5
E14
330
1F
100
AcDbEntity
  8
0
 62
     7
100
AcDbLine
 10
710.3309526460826
 20
105.3955204920554
 30
0.0
 11
787.6682283451335
 21
105.3955204920551
 31
0.0
  0
TEXT
  5
E15
330
1F
100
AcDbEntity
  8
0
 62
     3
100
AcDbText
 10
711.9808916460828
 20
106.0673331793461
 30
0.0
 40
3.2
  1
防水　規格
  7
高3.2
100
AcDbText
  0
TEXT
  5
E16
330
1F
100
AcDbEntity
  8
0
 62
     3
100
AcDbText
 10
737.27014897365
 20
106.0673331793458
 30
0.0
 40
3.2
  1
IP23
  7
高3.2
100
AcDbText
  0
TEXT
  5
E17
330
1F
100
AcDbEntity
  8
0
 62
     3
100
AcDbText
 10
727.6655134527359
 20
164.3466376251419
 30
0.0
 40
4.5
  1
主　　仕　　様
  7
高4.5
100
AcDbText
  0
LINE
  5
E18
330
1F
100
AcDbEntity
  8
0
 62
     7
100
AcDbLine
 10
727.1365202030446
 20
163.6794677083157
 30
0.0
 11
764.3926254435109
 21
163.6794677083157
 31
0.0
  0
LINE
  5
1415
330
1F
100
AcDbEntity
  8
0
 62
     3
100
AcDbLine
 10
710.9750285234653
 20
213.7450689365177
 30
0.0
 11
790.9750285234653
 21
213.7450689365177
 31
0.0
  0
LINE
  5
1416
330
1F
100
AcDbEntity
  8
0
 62
     3
100
AcDbLine
 10
710.9750285234653
 20
208.7450689365176
 30
0.0
 11
790.9750285234653
 21
208.7450689365176
 31
0.0
  0
LINE
  5
1417
330
1F
100
AcDbEntity
  8
0
 62
     7
100
AcDbLine
 10
710.9750285234653
 20
202.7450689365177
 30
0.0
 11
790.9750285234653
 21
202.7450689365177
 31
0.0
  0
LINE
  5
1418
330
1F
100
AcDbEntity
  8
0
 62
     3
100
AcDbLine
 10
710.9750285234653
 20
196.7450689365176
 30
0.0
 11
790.9750285234653
 21
196.7450689365176
 31
0.0
  0
LINE
  5
1419
330
1F
100
AcDbEntity
  8
0
 62
     7
100
AcDbLine
 10
778.9750285234653
 20
196.7450689365176
 30
0.0
 11
778.9750285234653
 21
208.7450689365176
 31
0.0
  0
LINE
  5
141A
330
1F
100
AcDbEntity
  8
0
 62
     3
100
AcDbLine
 10
778.9750285234653
 20
208.7450689365176
 30
0.0
 11
778.9750285234653
 21
213.7450689365177
 31
0.0
  0
LINE
  5
141B
330
1F
100
AcDbEntity
  8
0
 62
     7
100
AcDbLine
 10
736.9750285234653
 20
196.7450689365176
 30
0.0
 11
736.9750285234653
 21
208.7450689365176
 31
0.0
  0
LINE
  5
141C
330
1F
100
AcDbEntity
  8
0
 62
     3
100
AcDbLine
 10
736.9750285234653
 20
208.7450689365176
 30
0.0
 11
736.9750285234653
 21
213.7450689365177
 31
0.0
  0
LINE
  5
141D
330
1F
100
AcDbEntity
  8
0
 62
     7
100
AcDbLine
 10
718.9750285234652
 20
196.7450689365176
 30
0.0
 11
718.9750285234652
 21
208.7450689365176
 31
0.0
  0
LINE
  5
141E
330
1F
100
AcDbEntity
  8
0
 62
     3
100
AcDbLine
 10
718.9750285234652
 20
208.7450689365176
 30
0.0
 11
718.9750285234652
 21
213.7450689365177
 31
0.0
  0
LINE
  5
141F
330
1F
100
AcDbEntity
  8
0
 62
     3
100
AcDbLine
 10
710.9750285234653
 20
196.7450689365178
 30
0.0
 11
710.9750285234653
 21
218.2450689365175
 31
0.0
  0
LINE
  5
1420
330
1F
100
AcDbEntity
  8
0
 62
     7
100
AcDbLine
 10
714.7801624549956
 20
207.6421832496568
 30
0.0
 11
712.5301624527492
 21
203.7450689365177
 31
0.0
  0
LINE
  5
1421
330
1F
100
AcDbEntity
  8
0
 62
     7
100
AcDbLine
 10
714.7801624549956
 20
207.6421832496568
 30
0.0
 11
717.0301624527492
 21
203.7450689365177
 31
0.0
  0
LINE
  5
1422
330
1F
100
AcDbEntity
  8
0
 62
     7
100
AcDbLine
 10
712.5301624527492
 20
203.7450689365177
 30
0.0
 11
717.0301624527492
 21
203.7450689365177
 31
0.0
  0
LINE
  5
1423
330
1F
100
AcDbEntity
  8
0
 62
     7
100
AcDbLine
 10
714.7801624498677
 20
201.6421832585383
 30
0.0
 11
712.5301624527492
 21
197.7450689365176
 31
0.0
  0
LINE
  5
1424
330
1F
100
AcDbEntity
  8
0
 62
     7
100
AcDbLine
 10
714.7801624498677
 20
201.6421832585383
 30
0.0
 11
717.0301624527492
 21
197.7450689365176
 31
0.0
  0
LINE
  5
1425
330
1F
100
AcDbEntity
  8
0
 62
     7
100
AcDbLine
 10
712.5301624527492
 20
197.7450689365176
 30
0.0
 11
717.0301624527492
 21
197.7450689365176
 31
0.0
  0
TEXT
  5
1428
330
1F
100
AcDbEntity
  8
0
 62
     3
100
AcDbText
 10
779.560563985921
 20
209.2450689365177
 30
0.0
 40
3.2
  1
担　当
  7
高3.2
100
AcDbText
  0
TEXT
  5
1429
330
1F
100
AcDbEntity
  8
0
 62
     3
100
AcDbText
 10
744.5735020740045
 20
209.2450689365177
 30
0.0
 40
3.2
  1
変更・追記内容
  7
高3.2
100
AcDbText
  0
TEXT
  5
142A
330
1F
100
AcDbEntity
  8
0
 62
     3
100
AcDbText
 10
722.3371618956895
 20
209.2450689365177
 30
0.0
 40
3.2
  1
日　付
  7
高3.2
100
AcDbText
  0
TEXT
  5
142B
330
1F
100
AcDbEntity
  8
0
 62
     3
100
AcDbText
 10
719.7494148931252
 20
214.3343187565176
 30
0.0
 40
3.2
  1
図　　　　面　　　　略　　　　歴
  7
高3.2
100
AcDbText
  0
TEXT
  5
142C
330
1F
100
AcDbEntity
  8
0
 62
     3
100
AcDbText
 10
711.6098231791487
 20
209.2450689365177
 30
0.0
 40
3.2
  1
記号
  7
高3.2
100
AcDbText
  0
TEXT
  5
142D
330
1F
100
AcDbEntity
  8
0
100
AcDbText
 10
720.4750285234653
 20
203.2450689365177
 30
0.0
 40
2.5
  1
'15.06.18
  7
高2.5
100
AcDbText
  0
TEXT
  5
142E
330
1F
100
AcDbEntity
  8
0
100
AcDbText
 10
738.4750285234653
 20
203.2450689365177
 30
0.0
 40
2.5
  1
品名変更 No.5066
  7
高2.5
100
AcDbText
  0
TEXT
  5
142F
330
1F
100
AcDbEntity
  8
0
100
AcDbText
 10
780.4750285234653
 20
203.2450689365177
 30
0.0
 40
2.5
  1
今村
  7
高2.5
100
AcDbText
  0
TEXT
  5
163A
330
1F
100
AcDbEntity
  8
0
 62
     3
100
AcDbText
 10
714.3466731455569
 20
204.0521969007125
 30
0.0
 40
2.0
  1
1
  7
高2
100
AcDbText
1001
ACAD
1000
MTEXTBEGIN
1070
    73
1070
     1
1070
    44
1040
1.0
1070
    74
1070
     0
1000
MTEXTEND
  0
TEXT
  5
163B
330
1F
100
AcDbEntity
  8
0
 62
     3
100
AcDbText
 10
714.1157262082337
 20
198.0470467325406
 30
0.0
 40
2.0
  1
2
  7
高2
100
AcDbText
1001
ACAD
1000
MTEXTBEGIN
1070
    73
1070
     1
1070
    44
1040
1.0
1070
    74
1070
     0
1000
MTEXTEND
  0
TEXT
  5
163C
330
1F
100
AcDbEntity
  8
0
 62
     4
100
AcDbText
 10
688.6077474067972
 20
68.25442521747049
 30
0.0
 40
3.0
  1
VFF0.75sq
100
AcDbText
1001
ACAD
1000
MTEXTBEGIN
1070
    73
1070
     1
1070
    44
1040
1.0
1070
    74
1070
     0
1000
MTEXTEND
  0
TEXT
  5
163D
330
1F
100
AcDbEntity
  8
0
 62
     4
100
AcDbText
 10
688.6077474067972
 20
63.25442521747049
 30
0.0
 40
3.0
  1
(350mm)
100
AcDbText
1001
ACAD
1000
MTEXTBEGIN
1070
    73
1070
     1
1070
    44
1040
1.0
1070
    74
1070
     0
1000
MTEXTEND
  0
LINE
  5
1642
330
1F
100
AcDbEntity
  8
0
100
AcDbLine
 10
668.3052007100188
 20
37.22984129785903
 30
0.0
 11
679.459509908591
 21
50.52302935816403
 31
0.0
  0
LINE
  5
1643
330
1F
100
AcDbEntity
  8
0
100
AcDbLine
 10
659.7882648816721
 20
55.06186346233395
 30
0.0
 11
659.788264881672
 21
57.68277701891955
 31
0.0
  0
ARC
  5
1644
330
1F
100
AcDbEntity
  8
0
100
AcDbCircle
 10
659.788264881672
 20
27.07975242653265
 30
0.0
 40
29.35302459238699
100
AcDbArc
 50
54.88136333276185
 51
85.11863666723789
  0
TEXT
  5
1648
330
1F
100
AcDbEntity
  8
0
 62
     4
100
AcDbText
 10
689.0908484006131
 20
113.5242585431675
 30
0.0
 40
3.0
  1
Oリング
100
AcDbText
1001
ACAD
1000
MTEXTBEGIN
1070
    73
1070
     1
1070
    44
1040
1.0
1070
    74
1070
     0
1000
MTEXTEND
  0
TEXT
  5
164B
330
1F
100
AcDbEntity
  8
0
 62
     4
100
AcDbText
 10
686.6150189246777
 20
139.1306408332682
 30
0.0
 40
3.0
  1
グローブ
100
AcDbText
1001
ACAD
1000
MTEXTBEGIN
1070
    73
1070
     1
1070
    44
1040
1.0
1070
    74
1070
     0
1000
MTEXTEND
  0
TEXT
  5
164C
330
1F
100
AcDbEntity
  8
0
 62
     4
100
AcDbText
 10
687.0150189246778
 20
134.1306408332682
 30
0.0
 40
3.0
  1
(PMMA)
100
AcDbText
1001
ACAD
1000
MTEXTBEGIN
1070
    73
1070
     1
1070
    44
1040
1.0
1070
    74
1070
     0
1000
MTEXTEND
  0
TEXT
  5
164D
330
1F
100
AcDbEntity
  8
0
 62
     4
100
AcDbText
 10
687.0150189246778
 20
129.1306408332682
 30
0.0
 40
3.0
  1
R:赤:55413
100
AcDbText
1001
ACAD
1000
MTEXTBEGIN
1070
    73
1070
     1
1070
    44
1040
1.0
1070
    74
1070
     0
1000
MTEXTEND
  0
TEXT
  5
164E
330
1F
100
AcDbEntity
  8
0
 62
     4
100
AcDbText
 10
687.0150189246778
 20
124.1306408332682
 30
0.0
 40
3.0
  1
Y:黄:55414
100
AcDbText
1001
ACAD
1000
MTEXTBEGIN
1070
    73
1070
     1
1070
    44
1040
1.0
1070
    74
1070
     0
1000
MTEXTEND
  0
LINE
  5
1651
330
1F
100
AcDbEntity
  8
0
100
AcDbLine
 10
645.5879473343665
 20
92.6616936615702
 30
0.0
 11
628.0614646737579
 21
92.6616936615702
 31
0.0
  0
LINE
  5
1652
330
1F
100
AcDbEntity
  8
0
100
AcDbLine
 10
647.8879473343665
 20
85.41169366157021
 30
0.0
 11
628.0614646737579
 21
85.41169366157021
 31
0.0
  0
LINE
  5
1653
330
1F
100
AcDbEntity
  8
0
100
AcDbLine
 10
629.311464673758
 20
95.1616936615702
 30
0.0
 11
629.311464673758
 21
97.66169366157022
 31
0.0
  0
LINE
  5
1654
330
1F
100
AcDbEntity
  8
0
100
AcDbLine
 10
629.311464673758
 20
82.91169366157021
 30
0.0
 11
629.311464673758
 21
70.16169366157021
 31
0.0
  0
LINE
  5
1655
330
1F
100
AcDbEntity
  8
0
100
AcDbLine
 10
629.311464673758
 20
92.6616936615702
 30
0.0
 11
629.311464673758
 21
85.41169366157021
 31
0.0
  0
LINE
  5
1659
330
1F
100
AcDbEntity
  8
0
100
AcDbLine
 10
659.788264881672
 20
55.06186346233395
 30
0.0
 11
659.788264881672
 21
66.4091186679922
 31
0.0
  0
LINE
  5
165A
330
1F
100
AcDbEntity
  8
0
100
AcDbLine
 10
635.555045873151
 20
13.08869690863179
 30
0.0
 11
625.7280346018258
 21
7.415069305802688
 31
0.0
  0
ARC
  5
165B
330
1F
100
AcDbEntity
  8
0
100
AcDbCircle
 10
659.788264881672
 20
27.07975242653259
 30
0.0
 40
38.07936624145965
100
AcDbArc
 50
93.76227863550663
 51
206.2377213644935
  0
LINE
  5
165F
330
1F
100
AcDbEntity
  8
0
100
AcDbLine
 10
635.5550458731511
 20
13.08869690863185
 30
0.0
 11
625.9254968067997
 21
7.529074162999149
 31
0.0
  0
LINE
  5
1660
330
1F
100
AcDbEntity
  8
0
100
AcDbLine
 10
684.021483890193
 20
13.08869690863183
 30
0.0
 11
693.6510329565447
 21
7.529074162999021
 31
0.0
  0
ARC
  5
1661
330
1F
100
AcDbEntity
  8
0
100
AcDbCircle
 10
659.7882648816721
 20
27.07975242653254
 30
0.0
 40
37.85135652706693
100
AcDbArc
 50
213.7849501409951
 51
326.2150498590047
  0
LINE
  5
1665
330
1F
100
AcDbEntity
  8
0
100
AcDbLine
 10
644.9492398769252
 20
29.27140406594029
 30
0.0
 11
624.7547865884223
 21
32.25402635025659
 31
0.0
  0
LINE
  5
1666
330
1F
100
AcDbEntity
  8
0
100
AcDbLine
 10
659.7882648816727
 20
27.07975242653274
 30
0.0
 11
647.4224107110496
 21
28.90612879270573
 31
0.0
  0
LINE
  5
1669
330
1F
100
AcDbEntity
  8
0
100
AcDbLine
 10
659.5382648816721
 20
154.6615455289249
 30
0.0
 11
621.7224605857262
 21
154.6615455289249
 31
0.0
  0
LINE
  5
166A
330
1F
100
AcDbEntity
  8
0
100
AcDbLine
 10
647.8879473343665
 20
85.41169366157012
 30
0.0
 11
621.7224605857262
 21
85.41169366157012
 31
0.0
  0
LINE
  5
166B
330
1F
100
AcDbEntity
  8
0
100
AcDbLine
 10
622.9724605857263
 20
152.1615455289249
 30
0.0
 11
622.9724605857263
 21
87.91169366157012
 31
0.0
  0
LINE
  5
166F
330
1F
100
AcDbEntity
  8
0
100
AcDbLine
 10
659.6895702604
 20
154.6614731066886
 30
0.0
 11
628.0614646737579
 21
154.6614731066886
 31
0.0
  0
LINE
  5
1670
330
1F
100
AcDbEntity
  8
0
100
AcDbLine
 10
645.5879473343665
 20
92.6616936615702
 30
0.0
 11
628.0614646737579
 21
92.6616936615702
 31
0.0
  0
LINE
  5
1671
330
1F
100
AcDbEntity
  8
0
100
AcDbLine
 10
629.311464673758
 20
152.1614731066886
 30
0.0
 11
629.311464673758
 21
95.1616936615702
 31
0.0
  0
LINE
  5
1675
330
1F
100
AcDbEntity
  8
0
100
AcDbLine
 10
682.2882648816722
 20
128.5616936615702
 30
0.0
 11
682.2882648816722
 21
170.9267320476483
 31
0.0
  0
LINE
  5
1676
330
1F
100
AcDbEntity
  8
0
100
AcDbLine
 10
637.2882648816721
 20
128.5616936615702
 30
0.0
 11
637.2882648816721
 21
170.9267320476483
 31
0.0
  0
LINE
  5
1677
330
1F
100
AcDbEntity
  8
0
100
AcDbLine
 10
679.7882648816722
 20
169.6767320476483
 30
0.0
 11
639.7882648816721
 21
169.6767320476483
 31
0.0
  0
LINE
  5
167B
330
1F
100
AcDbEntity
  8
0
 62
     3
100
AcDbLine
 10
686.7979961434652
 20
218.7029515065176
 30
0.0
 11
686.7793686134652
 21
218.8222192765175
 31
0.0
  0
LINE
  5
167C
330
1F
100
AcDbEntity
  8
0
 62
     3
100
AcDbLine
 10
686.7793686134652
 20
218.8222192765175
 30
0.0
 11
686.7569974334652
 21
218.9364240565176
 31
0.0
  0
LINE
  5
167D
330
1F
100
AcDbEntity
  8
0
 62
     3
100
AcDbLine
 10
686.7569974334652
 20
218.9364240565176
 30
0.0
 11
686.7310555034653
 21
219.0446831165175
 31
0.0
  0
LINE
  5
167E
330
1F
100
AcDbEntity
  8
0
 62
     3
100
AcDbLine
 10
686.7310555034653
 20
219.0446831165175
 30
0.0
 11
686.7017433634653
 21
219.1461596665175
 31
0.0
  0
LINE
  5
167F
330
1F
100
AcDbEntity
  8
0
 62
     3
100
AcDbLine
 10
686.7017433634653
 20
219.1461596665175
 30
0.0
 11
686.6692875534653
 21
219.2400693465176
 31
0.0
  0
LINE
  5
1680
330
1F
100
AcDbEntity
  8
0
 62
     3
100
AcDbLine
 10
686.6692875534653
 20
219.2400693465176
 30
0.0
 11
686.6339389634653
 21
219.3256862865176
 31
0.0
  0
LINE
  5
1681
330
1F
100
AcDbEntity
  8
0
 62
     3
100
AcDbLine
 10
686.6339389634653
 20
219.3256862865176
 30
0.0
 11
686.5959708134652
 21
219.4023486965175
 31
0.0
  0
LINE
  5
1682
330
1F
100
AcDbEntity
  8
0
 62
     3
100
AcDbLine
 10
686.5959708134652
 20
219.4023486965175
 30
0.0
 11
686.5556765634652
 21
219.4694640365176
 31
0.0
  0
LINE
  5
1683
330
1F
100
AcDbEntity
  8
0
 62
     3
100
AcDbLine
 10
686.5556765634652
 20
219.4694640365176
 30
0.0
 11
686.5133676934653
 21
219.5265135265175
 31
0.0
  0
LINE
  5
1684
330
1F
100
AcDbEntity
  8
0
 62
     3
100
AcDbLine
 10
686.5133676934653
 20
219.5265135265175
 30
0.0
 11
686.4693712034652
 21
219.5730561965175
 31
0.0
  0
LINE
  5
1685
330
1F
100
AcDbEntity
  8
0
 62
     3
100
AcDbLine
 10
686.4693712034652
 20
219.5730561965175
 30
0.0
 11
686.4240271834652
 21
219.6087323165175
 31
0.0
  0
LINE
  5
1686
330
1F
100
AcDbEntity
  8
0
 62
     3
100
AcDbLine
 10
686.4240271834652
 20
219.6087323165175
 30
0.0
 11
686.3776861134653
 21
219.6332661065176
 31
0.0
  0
LINE
  5
1687
330
1F
100
AcDbEntity
  8
0
 62
     3
100
AcDbLine
 10
686.3776861134653
 20
219.6332661065176
 30
0.0
 11
686.3307061734652
 21
219.6464679565175
 31
0.0
  0
LINE
  5
1688
330
1F
100
AcDbEntity
  8
0
 62
     3
100
AcDbLine
 10
686.3307061734652
 20
219.6464679565175
 30
0.0
 11
686.2834505134652
 21
219.6482357965176
 31
0.0
  0
LINE
  5
1689
330
1F
100
AcDbEntity
  8
0
 62
     3
100
AcDbLine
 10
686.2834505134652
 20
219.6482357965176
 30
0.0
 11
686.2362843834652
 21
219.6385559865175
 31
0.0
  0
LINE
  5
168A
330
1F
100
AcDbEntity
  8
0
 62
     3
100
AcDbLine
 10
686.2362843834652
 20
219.6385559865175
 30
0.0
 11
686.1895723534652
 21
219.6175033265175
 31
0.0
  0
LINE
  5
168B
330
1F
100
AcDbEntity
  8
0
 62
     3
100
AcDbLine
 10
686.1895723534652
 20
219.6175033265175
 30
0.0
 11
686.1436754934652
 21
219.5852405565176
 31
0.0
  0
LINE
  5
168C
330
1F
100
AcDbEntity
  8
0
 62
     3
100
AcDbLine
 10
686.1436754934652
 20
219.5852405565176
 30
0.0
 11
686.0989485534652
 21
219.5420170465176
 31
0.0
  0
LINE
  5
168D
330
1F
100
AcDbEntity
  8
0
 62
     3
100
AcDbLine
 10
686.0989485534652
 20
219.5420170465176
 30
0.0
 11
686.0557372434652
 21
219.4881668865175
 31
0.0
  0
LINE
  5
168E
330
1F
100
AcDbEntity
  8
0
 62
     3
100
AcDbLine
 10
686.0557372434652
 20
219.4881668865175
 30
0.0
 11
686.0143755834654
 21
219.4241063165176
 31
0.0
  0
LINE
  5
168F
330
1F
100
AcDbEntity
  8
0
 62
     3
100
AcDbLine
 10
686.0143755834654
 20
219.4241063165176
 30
0.0
 11
685.9751832634652
 21
219.3503304965176
 31
0.0
  0
LINE
  5
1690
330
1F
100
AcDbEntity
  8
0
 62
     3
100
AcDbLine
 10
685.9751832634652
 20
219.3503304965176
 30
0.0
 11
685.9384632234653
 21
219.2674096665176
 31
0.0
  0
LINE
  5
1691
330
1F
100
AcDbEntity
  8
0
 62
     3
100
AcDbLine
 10
685.9384632234653
 20
219.2674096665176
 30
0.0
 11
685.9044992934652
 21
219.1759847565176
 31
0.0
  0
LINE
  5
1692
330
1F
100
AcDbEntity
  8
0
 62
     3
100
AcDbLine
 10
685.9044992934652
 20
219.1759847565176
 30
0.0
 11
685.8735539934652
 21
219.0767624565175
 31
0.0
  0
LINE
  5
1693
330
1F
100
AcDbEntity
  8
0
 62
     3
100
AcDbLine
 10
685.8735539934652
 20
219.0767624565175
 30
0.0
 11
685.8458665134652
 21
218.9705096865175
 31
0.0
  0
LINE
  5
1694
330
1F
100
AcDbEntity
  8
0
 62
     3
100
AcDbLine
 10
685.8458665134652
 20
218.9705096865175
 30
0.0
 11
685.8216508634653
 21
218.8580477265176
 31
0.0
  0
LINE
  5
1695
330
1F
100
AcDbEntity
  8
0
 62
     3
100
AcDbLine
 10
685.8216508634653
 20
218.8580477265176
 30
0.0
 11
685.8010942234653
 21
218.7402458465176
 31
0.0
  0
LINE
  5
1696
330
1F
100
AcDbEntity
  8
0
 62
     3
100
AcDbLine
 10
685.8010942234653
 20
218.7402458465176
 30
0.0
 11
685.7843554834651
 21
218.6180146065176
 31
0.0
  0
LINE
  5
1697
330
1F
100
AcDbEntity
  8
0
 62
     3
100
AcDbLine
 10
685.7843554834651
 20
218.6180146065176
 30
0.0
 11
685.7715640234653
 21
218.4922987865176
 31
0.0
  0
LINE
  5
1698
330
1F
100
AcDbEntity
  8
0
 62
     3
100
AcDbLine
 10
685.7715640234653
 20
218.4922987865176
 30
0.0
 11
685.7628187134653
 21
218.3640701065176
 31
0.0
  0
LINE
  5
1699
330
1F
100
AcDbEntity
  8
0
 62
     3
100
AcDbLine
 10
685.7628187134653
 20
218.3640701065176
 30
0.0
 11
685.7581871534653
 21
218.2343196965176
 31
0.0
  0
LINE
  5
169A
330
1F
100
AcDbEntity
  8
0
 62
     3
100
AcDbLine
 10
685.7581871534653
 20
218.2343196965176
 30
0.0
 11
685.7577051434653
 21
218.1040504665176
 31
0.0
  0
LINE
  5
169B
330
1F
100
AcDbEntity
  8
0
 62
     3
100
AcDbLine
 10
685.7577051434653
 20
218.1040504665176
 30
0.0
 11
685.7613764034653
 21
217.9742693465176
 31
0.0
  0
LINE
  5
169C
330
1F
100
AcDbEntity
  8
0
 62
     3
100
AcDbLine
 10
685.7613764034653
 20
217.9742693465176
 30
0.0
 11
685.7691725634652
 21
217.8459794565176
 31
0.0
  0
LINE
  5
169D
330
1F
100
AcDbEntity
  8
0
 62
     3
100
AcDbLine
 10
685.7691725634652
 20
217.8459794565176
 30
0.0
 11
685.7810333634652
 21
217.7201724165176
 31
0.0
  0
LINE
  5
169E
330
1F
100
AcDbEntity
  8
0
 62
     3
100
AcDbLine
 10
685.7810333634652
 20
217.7201724165176
 30
0.0
 11
685.7968671234653
 21
217.5978206465176
 31
0.0
  0
LINE
  5
169F
330
1F
100
AcDbEntity
  8
0
 62
     3
100
AcDbLine
 10
685.7968671234653
 20
217.5978206465176
 30
0.0
 11
685.8165514434652
 21
217.4798698765176
 31
0.0
  0
LINE
  5
16A0
330
1F
100
AcDbEntity
  8
0
 62
     3
100
AcDbLine
 10
685.8165514434652
 20
217.4798698765176
 30
0.0
 11
685.8399342034653
 21
217.3672318065176
 31
0.0
  0
LINE
  5
16A1
330
1F
100
AcDbEntity
  8
0
 62
     3
100
AcDbLine
 10
685.8399342034653
 20
217.3672318065176
 30
0.0
 11
685.8668346334653
 21
217.2607770465175
 31
0.0
  0
LINE
  5
16A2
330
1F
100
AcDbEntity
  8
0
 62
     3
100
AcDbLine
 10
685.8668346334653
 20
217.2607770465175
 30
0.0
 11
685.8970448334653
 21
217.1613284565176
 31
0.0
  0
LINE
  5
16A3
330
1F
100
AcDbEntity
  8
0
 62
     3
100
AcDbLine
 10
685.8970448334653
 20
217.1613284565176
 30
0.0
 11
685.9303312834652
 21
217.0696547265176
 31
0.0
  0
LINE
  5
16A4
330
1F
100
AcDbEntity
  8
0
 62
     3
100
AcDbLine
 10
685.9303312834652
 20
217.0696547265176
 30
0.0
 11
685.9664366834652
 21
216.9864644265175
 31
0.0
  0
LINE
  5
16A5
330
1F
100
AcDbEntity
  8
0
 62
     3
100
AcDbLine
 10
685.9664366834652
 20
216.9864644265175
 30
0.0
 11
686.0050819834652
 21
216.9124005965175
 31
0.0
  0
LINE
  5
16A6
330
1F
100
AcDbEntity
  8
0
 62
     3
100
AcDbLine
 10
686.0050819834652
 20
216.9124005965175
 30
0.0
 11
686.0459684634652
 21
216.8480357065175
 31
0.0
  0
LINE
  5
16A7
330
1F
100
AcDbEntity
  8
0
 62
     3
100
AcDbLine
 10
686.0459684634652
 20
216.8480357065175
 30
0.0
 11
686.0887800834652
 21
216.7938672565175
 31
0.0
  0
LINE
  5
16A8
330
1F
100
AcDbEntity
  8
0
 62
     3
100
AcDbLine
 10
686.0887800834652
 20
216.7938672565175
 30
0.0
 11
686.1331859434653
 21
216.7503139365176
 31
0.0
  0
LINE
  5
16A9
330
1F
100
AcDbEntity
  8
0
 62
     3
100
AcDbLine
 10
686.1331859434653
 20
216.7503139365176
 30
0.0
 11
686.1788427934652
 21
216.7177124065176
 31
0.0
  0
LINE
  5
16AA
330
1F
100
AcDbEntity
  8
0
 62
     3
100
AcDbLine
 10
686.1788427934652
 20
216.7177124065176
 30
0.0
 11
686.2253977534654
 21
216.6963146465175
 31
0.0
  0
LINE
  5
16AB
330
1F
100
AcDbEntity
  8
0
 62
     3
100
AcDbLine
 10
686.2253977534654
 20
216.6963146465175
 30
0.0
 11
686.2724909634652
 21
216.6862860665176
 31
0.0
  0
LINE
  5
16AC
330
1F
100
AcDbEntity
  8
0
 62
     3
100
AcDbLine
 10
686.2724909634652
 20
216.6862860665176
 30
0.0
 11
686.3197584134653
 21
216.6877041665176
 31
0.0
  0
LINE
  5
16AD
330
1F
100
AcDbEntity
  8
0
 62
     3
100
AcDbLine
 10
686.3197584134653
 20
216.6877041665176
 30
0.0
 11
686.3668347534654
 21
216.7005579865175
 31
0.0
  0
LINE
  5
16AE
330
1F
100
AcDbEntity
  8
0
 62
     3
100
AcDbLine
 10
686.3668347534654
 20
216.7005579865175
 30
0.0
 11
686.4133561134653
 21
216.7247481865175
 31
0.0
  0
LINE
  5
16AF
330
1F
100
AcDbEntity
  8
0
 62
     3
100
AcDbLine
 10
686.4133561134653
 20
216.7247481865175
 30
0.0
 11
686.4589629034654
 21
216.7600877665176
 31
0.0
  0
LINE
  5
16B0
330
1F
100
AcDbEntity
  8
0
 62
     3
100
AcDbLine
 10
686.4589629034654
 20
216.7600877665176
 30
0.0
 11
686.5033026034653
 21
216.8063035865175
 31
0.0
  0
LINE
  5
16B1
330
1F
100
AcDbEntity
  8
0
 62
     3
100
AcDbLine
 10
686.5033026034653
 20
216.8063035865175
 30
0.0
 11
686.5460324934653
 21
216.8630384265175
 31
0.0
  0
LINE
  5
16B2
330
1F
100
AcDbEntity
  8
0
 62
     3
100
AcDbLine
 10
686.5460324934653
 20
216.8630384265175
 30
0.0
 11
686.5868222934652
 21
216.9298537365175
 31
0.0
  0
LINE
  5
16B3
330
1F
100
AcDbEntity
  8
0
 62
     3
100
AcDbLine
 10
686.5868222934652
 20
216.9298537365175
 30
0.0
 11
686.6253567234653
 21
217.0062330865176
 31
0.0
  0
LINE
  5
16B4
330
1F
100
AcDbEntity
  8
0
 62
     3
100
AcDbLine
 10
686.6253567234653
 20
217.0062330865176
 30
0.0
 11
686.6613379234652
 21
217.0915860965175
 31
0.0
  0
LINE
  5
16B5
330
1F
100
AcDbEntity
  8
0
 62
     3
100
AcDbLine
 10
686.6613379234652
 20
217.0915860965175
 30
0.0
 11
686.6944877834653
 21
217.1852530265176
 31
0.0
  0
LINE
  5
16B6
330
1F
100
AcDbEntity
  8
0
 62
     3
100
AcDbLine
 10
686.6944877834653
 20
217.1852530265176
 30
0.0
 11
686.7245500634652
 21
217.2865098865176
 31
0.0
  0
LINE
  5
16B7
330
1F
100
AcDbEntity
  8
0
 62
     3
100
AcDbLine
 10
686.7245500634652
 20
217.2865098865176
 30
0.0
 11
686.7512924134652
 21
217.3945740065176
 31
0.0
  0
LINE
  5
16B8
330
1F
100
AcDbEntity
  8
0
 62
     3
100
AcDbLine
 10
686.7512924134652
 20
217.3945740065176
 30
0.0
 11
686.7745081134652
 21
217.5086101165176
 31
0.0
  0
LINE
  5
16B9
330
1F
100
AcDbEntity
  8
0
 62
     3
100
AcDbLine
 10
686.7745081134652
 20
217.5086101165176
 30
0.0
 11
686.7940177234652
 21
217.6277367665175
 31
0.0
  0
LINE
  5
16BA
330
1F
100
AcDbEntity
  8
0
100
AcDbLine
 10
683.0220457598862
 20
77.00838968044253
 30
0.0
 11
685.4827474067972
 21
69.7544252174705
 31
0.0
1001
ACAD
1000
DSTYLE
1002
{
1070
   147
1040
0.625
1070
    77
1070
     0
1002
}
  0
LINE
  5
16BB
330
1F
100
AcDbEntity
  8
0
100
AcDbLine
 10
685.4827474067972
 20
69.7544252174705
 30
0.0
 11
687.9827474067972
 21
69.7544252174705
 31
0.0
1001
ACAD
1000
DSTYLE
1002
{
1070
   147
1040
0.625
1070
    77
1070
     0
1002
}
  0
LINE
  5
16BC
330
1F
100
AcDbEntity
  8
0
  6
ByBlock
 62
     0
370
    -2
100
AcDbLine
 10
682.3876784023412
 20
76.79319855158803
 30
0.0
 11
682.2189409569032
 21
79.37588258970869
 31
0.0
  0
LINE
  5
16BD
330
1F
100
AcDbEntity
  8
0
  6
ByBlock
 62
     0
370
    -2
100
AcDbLine
 10
682.2189409569032
 20
79.37588258970869
 30
0.0
 11
683.6564131174313
 21
77.22358080929703
 31
0.0
  0
LINE
  5
16BE
330
1F
100
AcDbEntity
  8
0
  6
ByBlock
 62
     0
370
    -2
100
AcDbLine
 10
682.2189409569032
 20
79.37588258970869
 30
0.0
 11
683.0220457598862
 21
77.00838968044253
 31
0.0
  0
TEXT
  5
16BF
330
1F
100
AcDbEntity
  8
0
 62
     4
100
AcDbText
 10
667.276190990384
 20
56.28891915638345
 30
0.0
 40
3.0
  1
40\U+00B0
 50
339.4341299533102
100
AcDbText
  0
LINE
  5
16C0
330
1F
100
AcDbEntity
  8
0
  6
ByBlock
 62
     0
370
    -2
100
AcDbLine
 10
662.2574704415264
 20
55.65704957358782
 30
0.0
 11
659.7882648816721
 21
56.43277701891958
 31
0.0
  0
LINE
  5
16C1
330
1F
100
AcDbEntity
  8
0
  6
ByBlock
 62
     0
370
    -2
100
AcDbLine
 10
659.7882648816721
 20
56.43277701891958
 30
0.0
 11
662.3145235484295
 21
56.99557921764419
 31
0.0
  0
LINE
  5
16C2
330
1F
100
AcDbEntity
  8
0
  6
ByBlock
 62
     0
370
    -2
100
AcDbLine
 10
659.7882648816721
 20
56.43277701891958
 30
0.0
 11
662.2859969949779
 21
56.32631439561601
 31
0.0
  0
LINE
  5
16C3
330
1F
100
AcDbEntity
  8
0
  6
ByBlock
 62
     0
370
    -2
100
AcDbLine
 10
677.0825612629766
 20
51.62045307102836
 30
0.0
 11
678.6560253964828
 21
49.56547380426531
 31
0.0
  0
LINE
  5
16C4
330
1F
100
AcDbEntity
  8
0
  6
ByBlock
 62
     0
370
    -2
100
AcDbLine
 10
678.6560253964828
 20
49.56547380426531
 30
0.0
 11
676.2658762080849
 21
50.55840684503749
 31
0.0
  0
LINE
  5
16C5
330
1F
100
AcDbEntity
  8
0
  6
ByBlock
 62
     0
370
    -2
100
AcDbLine
 10
678.6560253964828
 20
49.56547380426531
 30
0.0
 11
676.6742187355308
 21
51.08942995803293
 31
0.0
  0
LINE
  5
16C6
330
1F
100
AcDbEntity
  8
0
100
AcDbLine
 10
683.4517870624502
 20
118.1609506261565
 30
0.0
 11
685.9658484006131
 21
115.0242585431675
 31
0.0
1001
ACAD
1000
DSTYLE
1002
{
1070
   147
1040
0.625
1070
    77
1070
     0
1002
}
  0
LINE
  5
16C7
330
1F
100
AcDbEntity
  8
0
100
AcDbLine
 10
685.9658484006131
 20
115.0242585431675
 30
0.0
 11
688.4658484006131
 21
115.0242585431675
 31
0.0
1001
ACAD
1000
DSTYLE
1002
{
1070
   147
1040
0.625
1070
    77
1070
     0
1002
}
  0
LINE
  5
16C8
330
1F
100
AcDbEntity
  8
0
  6
ByBlock
 62
     0
370
    -2
100
AcDbLine
 10
682.9290874168541
 20
117.7420064213392
 30
0.0
 11
681.8882648816721
 21
120.1116936615702
 31
0.0
  0
LINE
  5
16C9
330
1F
100
AcDbEntity
  8
0
  6
ByBlock
 62
     0
370
    -2
100
AcDbLine
 10
681.8882648816721
 20
120.1116936615702
 30
0.0
 11
683.9744867080462
 21
118.5798948309738
 31
0.0
  0
LINE
  5
16CA
330
1F
100
AcDbEntity
  8
0
  6
ByBlock
 62
     0
370
    -2
100
AcDbLine
 10
681.8882648816721
 20
120.1116936615702
 30
0.0
 11
683.4517870624502
 21
118.1609506261565
 31
0.0
  0
LINE
  5
16CB
330
1F
100
AcDbEntity
  8
0
100
AcDbLine
 10
682.8039884531122
 20
138.1992040848796
 30
0.0
 11
683.8900189246778
 21
140.6306408332682
 31
0.0
1001
ACAD
1000
DSTYLE
1002
{
1070
   147
1040
0.625
1070
    77
1070
     0
1002
}
  0
LINE
  5
16CC
330
1F
100
AcDbEntity
  8
0
100
AcDbLine
 10
683.8900189246778
 20
140.6306408332682
 30
0.0
 11
686.3900189246777
 21
140.6306408332682
 31
0.0
1001
ACAD
1000
DSTYLE
1002
{
1070
   147
1040
0.625
1070
    77
1070
     0
1002
}
  0
LINE
  5
16CD
330
1F
100
AcDbEntity
  8
0
  6
ByBlock
 62
     0
370
    -2
100
AcDbLine
 10
683.4156212451972
 20
137.9260109409274
 30
0.0
 11
681.7844170273851
 21
135.9165577899314
 31
0.0
  0
LINE
  5
16CE
330
1F
100
AcDbEntity
  8
0
  6
ByBlock
 62
     0
370
    -2
100
AcDbLine
 10
681.7844170273851
 20
135.9165577899314
 30
0.0
 11
682.1923556610271
 21
138.4723972288318
 31
0.0
  0
LINE
  5
16CF
330
1F
100
AcDbEntity
  8
0
  6
ByBlock
 62
     0
370
    -2
100
AcDbLine
 10
681.7844170273851
 20
135.9165577899314
 30
0.0
 11
682.8039884531122
 21
138.1992040848796
 31
0.0
  0
TEXT
  5
16D0
330
1F
100
AcDbEntity
  8
0
 62
     4
100
AcDbText
 10
623.6864646737579
 20
71.28669366157031
 30
0.0
 40
3.0
  1
14.5
 50
90.0
100
AcDbText
  0
TEXT
  5
16D1
330
1F
100
AcDbEntity
  8
0
 62
     4
100
AcDbText
 10
628.686464673758
 20
70.78669366157031
 30
0.0
 40
3.0
  1
(M4)
 50
90.0
100
AcDbText
  0
LINE
  5
16D2
330
1F
100
AcDbEntity
  8
0
  6
ByBlock
 62
     0
370
    -2
100
AcDbLine
 10
628.641592173758
 20
82.91169366157021
 30
0.0
 11
629.311464673758
 21
85.41169366157021
 31
0.0
  0
LINE
  5
16D3
330
1F
100
AcDbEntity
  8
0
  6
ByBlock
 62
     0
370
    -2
100
AcDbLine
 10
629.311464673758
 20
85.41169366157021
 30
0.0
 11
629.9813371737579
 21
82.91169366157021
 31
0.0
  0
LINE
  5
16D4
330
1F
100
AcDbEntity
  8
0
  6
ByBlock
 62
     0
370
    -2
100
AcDbLine
 10
629.311464673758
 20
85.41169366157021
 30
0.0
 11
629.311464673758
 21
82.91169366157021
 31
0.0
  0
LINE
  5
16D5
330
1F
100
AcDbEntity
  8
0
  6
ByBlock
 62
     0
370
    -2
100
AcDbLine
 10
629.9813371737579
 20
95.1616936615702
 30
0.0
 11
629.311464673758
 21
92.6616936615702
 31
0.0
  0
LINE
  5
16D6
330
1F
100
AcDbEntity
  8
0
  6
ByBlock
 62
     0
370
    -2
100
AcDbLine
 10
629.311464673758
 20
92.6616936615702
 30
0.0
 11
628.641592173758
 21
95.1616936615702
 31
0.0
  0
LINE
  5
16D7
330
1F
100
AcDbEntity
  8
0
  6
ByBlock
 62
     0
370
    -2
100
AcDbLine
 10
629.311464673758
 20
92.6616936615702
 30
0.0
 11
629.311464673758
 21
95.1616936615702
 31
0.0
  0
TEXT
  5
16D8
330
1F
100
AcDbEntity
  8
0
 62
     4
100
AcDbText
 10
621.782199481162
 20
35.54317129394033
 30
0.0
 40
3.0
  1
120\U+00B0
 50
71.17951522319862
100
AcDbText
  0
LINE
  5
16D9
330
1F
100
AcDbEntity
  8
0
  6
ByBlock
 62
     0
370
    -2
100
AcDbLine
 10
626.2231194033415
 20
10.56071113744299
 30
0.0
 11
626.8105663565564
 21
8.040069305802717
 31
0.0
  0
LINE
  5
16DA
330
1F
100
AcDbEntity
  8
0
  6
ByBlock
 62
     0
370
    -2
100
AcDbLine
 10
626.8105663565564
 20
8.040069305802717
 30
0.0
 11
625.0415021342591
 21
9.929286324475651
 31
0.0
  0
LINE
  5
16DB
330
1F
100
AcDbEntity
  8
0
  6
ByBlock
 62
     0
370
    -2
100
AcDbLine
 10
626.8105663565564
 20
8.040069305802717
 30
0.0
 11
625.6323107688004
 21
10.24499873095932
 31
0.0
  0
LINE
  5
16DC
330
1F
100
AcDbEntity
  8
0
  6
ByBlock
 62
     0
370
    -2
100
AcDbLine
 10
657.2676228390905
 20
65.74656471609147
 30
0.0
 11
659.7882648816719
 21
65.1591186679922
 31
0.0
  0
LINE
  5
16DD
330
1F
100
AcDbEntity
  8
0
  6
ByBlock
 62
     0
370
    -2
100
AcDbLine
 10
659.7882648816719
 20
65.1591186679922
 30
0.0
 11
657.3116015450223
 21
64.40754173703189
 31
0.0
  0
LINE
  5
16DE
330
1F
100
AcDbEntity
  8
0
  6
ByBlock
 62
     0
370
    -2
100
AcDbLine
 10
659.7882648816719
 20
65.1591186679922
 30
0.0
 11
657.2896121920564
 21
65.07705322656168
 31
0.0
  0
TEXT
  5
16DF
330
1F
100
AcDbEntity
  8
0
 62
     4
100
AcDbText
 10
656.4792125552686
 20
-10.24201458658493
 30
0.0
 40
3.0
  1
120\U+00B0
 50
1.446299789543141
100
AcDbText
  0
LINE
  5
16E0
330
1F
100
AcDbEntity
  8
0
  6
ByBlock
 62
     0
370
    -2
100
AcDbLine
 10
690.678934852573
 20
6.385383071238637
 30
0.0
 11
692.5685012018139
 21
8.154074162999028
 31
0.0
  0
LINE
  5
16E1
330
1F
100
AcDbEntity
  8
0
  6
ByBlock
 62
     0
370
    -2
100
AcDbLine
 10
692.5685012018139
 20
8.154074162999028
 30
0.0
 11
691.8164333978451
 21
5.677559841520219
 31
0.0
  0
LINE
  5
16E2
330
1F
100
AcDbEntity
  8
0
  6
ByBlock
 62
     0
370
    -2
100
AcDbLine
 10
692.5685012018139
 20
8.154074162999028
 30
0.0
 11
691.247684125209
 21
6.031471456379428
 31
0.0
  0
LINE
  5
16E3
330
1F
100
AcDbEntity
  8
0
  6
ByBlock
 62
     0
370
    -2
100
AcDbLine
 10
627.760096365499
 20
5.677559841520332
 30
0.0
 11
627.0080285615302
 21
8.154074162999144
 31
0.0
  0
LINE
  5
16E4
330
1F
100
AcDbEntity
  8
0
  6
ByBlock
 62
     0
370
    -2
100
AcDbLine
 10
627.0080285615302
 20
8.154074162999144
 30
0.0
 11
628.8975949107711
 21
6.385383071238747
 31
0.0
  0
LINE
  5
16E5
330
1F
100
AcDbEntity
  8
0
  6
ByBlock
 62
     0
370
    -2
100
AcDbLine
 10
627.0080285615302
 20
8.154074162999144
 30
0.0
 11
628.3288456381351
 21
6.03147145637954
 31
0.0
  0
TEXT
  5
16E6
330
1F
100
AcDbEntity
  8
0
 62
     4
100
AcDbText
 10
625.4643981152621
 20
32.78100024047905
 30
0.0
 40
3.0
  1
R25
 50
351.5984315595407
100
AcDbText
  0
LINE
  5
16E7
330
1F
100
AcDbEntity
  8
0
  6
ByBlock
 62
     0
370
    -2
100
AcDbLine
 10
645.047115021113
 20
29.93408771777308
 30
0.0
 11
647.4224107110496
 21
28.90612879270573
 31
0.0
  0
LINE
  5
16E8
330
1F
100
AcDbEntity
  8
0
  6
ByBlock
 62
     0
370
    -2
100
AcDbLine
 10
647.4224107110496
 20
28.90612879270573
 30
0.0
 11
644.8513647327372
 21
28.6087204141075
 31
0.0
  0
LINE
  5
16E9
330
1F
100
AcDbEntity
  8
0
  6
ByBlock
 62
     0
370
    -2
100
AcDbLine
 10
647.4224107110496
 20
28.90612879270573
 30
0.0
 11
644.9492398769251
 21
29.27140406594029
 31
0.0
  0
TEXT
  5
16EA
330
1F
100
AcDbEntity
  8
0
 62
     4
100
AcDbText
 10
622.3474605857262
 20
118.5698833202497
 30
0.0
 40
3.0
  1
138.5
 50
90.0
100
AcDbText
  0
LINE
  5
16EB
330
1F
100
AcDbEntity
  8
0
  6
ByBlock
 62
     0
370
    -2
100
AcDbLine
 10
623.6423330857262
 20
87.91169366157012
 30
0.0
 11
622.9724605857263
 21
85.41169366157012
 31
0.0
  0
LINE
  5
16EC
330
1F
100
AcDbEntity
  8
0
  6
ByBlock
 62
     0
370
    -2
100
AcDbLine
 10
622.9724605857263
 20
85.41169366157012
 30
0.0
 11
622.3025880857262
 21
87.91169366157012
 31
0.0
  0
LINE
  5
16ED
330
1F
100
AcDbEntity
  8
0
  6
ByBlock
 62
     0
370
    -2
100
AcDbLine
 10
622.9724605857263
 20
85.41169366157012
 30
0.0
 11
622.9724605857263
 21
87.91169366157012
 31
0.0
  0
LINE
  5
16EE
330
1F
100
AcDbEntity
  8
0
  6
ByBlock
 62
     0
370
    -2
100
AcDbLine
 10
622.3025880857262
 20
152.1615455289249
 30
0.0
 11
622.9724605857263
 21
154.6615455289249
 31
0.0
  0
LINE
  5
16EF
330
1F
100
AcDbEntity
  8
0
  6
ByBlock
 62
     0
370
    -2
100
AcDbLine
 10
622.9724605857263
 20
154.6615455289249
 30
0.0
 11
623.6423330857262
 21
152.1615455289249
 31
0.0
  0
LINE
  5
16F0
330
1F
100
AcDbEntity
  8
0
  6
ByBlock
 62
     0
370
    -2
100
AcDbLine
 10
622.9724605857263
 20
154.6615455289249
 30
0.0
 11
622.9724605857263
 21
152.1615455289249
 31
0.0
  0
TEXT
  5
16F1
330
1F
100
AcDbEntity
  8
0
 62
     4
100
AcDbText
 10
628.686464673758
 20
121.5373704559117
 30
0.0
 40
3.0
  1
124
 50
90.0
100
AcDbText
  0
LINE
  5
16F2
330
1F
100
AcDbEntity
  8
0
  6
ByBlock
 62
     0
370
    -2
100
AcDbLine
 10
629.9813371737579
 20
95.1616936615702
 30
0.0
 11
629.311464673758
 21
92.6616936615702
 31
0.0
  0
LINE
  5
16F3
330
1F
100
AcDbEntity
  8
0
  6
ByBlock
 62
     0
370
    -2
100
AcDbLine
 10
629.311464673758
 20
92.6616936615702
 30
0.0
 11
628.641592173758
 21
95.1616936615702
 31
0.0
  0
LINE
  5
16F4
330
1F
100
AcDbEntity
  8
0
  6
ByBlock
 62
     0
370
    -2
100
AcDbLine
 10
629.311464673758
 20
92.6616936615702
 30
0.0
 11
629.311464673758
 21
95.1616936615702
 31
0.0
  0
LINE
  5
16F5
330
1F
100
AcDbEntity
  8
0
  6
ByBlock
 62
     0
370
    -2
100
AcDbLine
 10
628.641592173758
 20
152.1614731066886
 30
0.0
 11
629.311464673758
 21
154.6614731066886
 31
0.0
  0
LINE
  5
16F6
330
1F
100
AcDbEntity
  8
0
  6
ByBlock
 62
     0
370
    -2
100
AcDbLine
 10
629.311464673758
 20
154.6614731066886
 30
0.0
 11
629.9813371737579
 21
152.1614731066886
 31
0.0
  0
LINE
  5
16F7
330
1F
100
AcDbEntity
  8
0
  6
ByBlock
 62
     0
370
    -2
100
AcDbLine
 10
629.311464673758
 20
154.6614731066886
 30
0.0
 11
629.311464673758
 21
152.1614731066886
 31
0.0
  0
TEXT
  5
16F8
330
1F
100
AcDbEntity
  8
0
 62
     4
100
AcDbText
 10
656.2039443545727
 20
170.3017320476483
 30
0.0
 40
3.0
  1
\U+220590
100
AcDbText
  0
LINE
  5
16F9
330
1F
100
AcDbEntity
  8
0
  6
ByBlock
 62
     0
370
    -2
100
AcDbLine
 10
639.7882648816721
 20
169.0068595476483
 30
0.0
 11
637.2882648816721
 21
169.6767320476483
 31
0.0
  0
LINE
  5
16FA
330
1F
100
AcDbEntity
  8
0
  6
ByBlock
 62
     0
370
    -2
100
AcDbLine
 10
637.2882648816721
 20
169.6767320476483
 30
0.0
 11
639.7882648816721
 21
170.3466045476483
 31
0.0
  0
LINE
  5
16FB
330
1F
100
AcDbEntity
  8
0
  6
ByBlock
 62
     0
370
    -2
100
AcDbLine
 10
637.2882648816721
 20
169.6767320476483
 30
0.0
 11
639.7882648816721
 21
169.6767320476483
 31
0.0
  0
LINE
  5
16FC
330
1F
100
AcDbEntity
  8
0
  6
ByBlock
 62
     0
370
    -2
100
AcDbLine
 10
679.7882648816722
 20
170.3466045476483
 30
0.0
 11
682.2882648816722
 21
169.6767320476483
 31
0.0
  0
LINE
  5
16FD
330
1F
100
AcDbEntity
  8
0
  6
ByBlock
 62
     0
370
    -2
100
AcDbLine
 10
682.2882648816722
 20
169.6767320476483
 30
0.0
 11
679.7882648816722
 21
169.0068595476483
 31
0.0
  0
LINE
  5
16FE
330
1F
100
AcDbEntity
  8
0
  6
ByBlock
 62
     0
370
    -2
100
AcDbLine
 10
682.2882648816722
 20
169.6767320476483
 30
0.0
 11
679.7882648816722
 21
169.6767320476483
 31
0.0
  0
ENDSEC
  0
SECTION
  2
OBJECTS
  0
DICTIONARY
  5
C
330
0
100
AcDbDictionary
281
     1
  3
ACAD_2007HEADERVARS_RT
350
1702
  3
ACAD_COLOR
350
73
  3
ACAD_GROUP
350
D
  3
ACAD_LAYOUT
350
1A
  3
ACAD_MATERIAL
350
72
  3
ACAD_MLEADERSTYLE
350
168
  3
ACAD_MLINESTYLE
350
17
  3
ACAD_PLOTSETTINGS
350
19
  3
ACAD_PLOTSTYLENAME
350
E
  3
ACAD_SCALELIST
350
156
  3
ACAD_TABLESTYLE
350
86
  3
ACAD_VISUALSTYLE
350
99
  3
ACDB_RECOMPOSE_DATA
350
1700
  3
AcDbVariableDictionary
350
66
  3
DWGPROPS
350
1701
  0
DICTIONARY
  5
88F
330
8
100
AcDbDictionary
280
     1
281
     1
  0
DICTIONARY
  5
DD
330
2
100
AcDbDictionary
280
     1
281
     1
  3
ACAD_LAYERSTATES
360
DE
  0
DICTIONARY
  5
7BE
330
10
100
AcDbDictionary
280
     1
281
     1
  3
ADSK_XREC_LAYER_RECONCILED
360
7BF
  0
DICTIONARY
  5
324
330
1F
100
AcDbDictionary
280
     1
281
     1
  3
ACAD_SORTENTS
360
325
  0
DICTIONARY
  5
1702
102
{ACAD_REACTORS
330
C
102
}
330
C
100
AcDbDictionary
281
     1
  3
DIMARCSYM
350
1704
  3
DIMFXL
350
1703
  3
DIMJOGANG
350
1705
  0
DICTIONARY
  5
73
102
{ACAD_REACTORS
330
C
102
}
330
C
100
AcDbDictionary
281
     1
  0
DICTIONARY
  5
D
102
{ACAD_REACTORS
330
C
102
}
330
C
100
AcDbDictionary
281
     1
  0
DICTIONARY
  5
1A
102
{ACAD_REACTORS
330
C
102
}
330
C
100
AcDbDictionary
281
     1
  3
Model
350
22
  3
レイアウト1
350
59
  3
レイアウト2
350
5E
  0
DICTIONARY
  5
72
102
{ACAD_REACTORS
330
C
102
}
330
C
100
AcDbDictionary
281
     1
  3
ByBlock
350
97
  3
ByLayer
350
96
  3
Global
350
98
  0
DICTIONARY
  5
168
102
{ACAD_REACTORS
330
C
102
}
330
C
100
AcDbDictionary
281
     1
  3
Standard
350
169
  0
DICTIONARY
  5
17
102
{ACAD_REACTORS
330
C
102
}
330
C
100
AcDbDictionary
281
     1
  3
Standard
350
18
  0
DICTIONARY
  5
19
102
{ACAD_REACTORS
330
C
102
}
330
C
100
AcDbDictionary
281
     1
  0
ACDBDICTIONARYWDFLT
  5
E
102
{ACAD_REACTORS
330
C
102
}
330
C
100
AcDbDictionary
281
     1
  3
Normal
350
F
100
AcDbDictionaryWithDefault
340
F
  0
DICTIONARY
  5
156
102
{ACAD_REACTORS
330
C
102
}
330
C
100
AcDbDictionary
281
     1
  3
A0
350
157
  3
A1
350
158
  3
A2
350
159
  3
A3
350
15A
  3
A4
350
15B
  3
A5
350
15C
  3
A6
350
15D
  3
A7
350
15E
  3
A8
350
15F
  3
A9
350
160
  3
B0
350
161
  3
B1
350
162
  3
B2
350
163
  3
B3
350
164
  3
B4
350
165
  3
B5
350
166
  3
B6
350
167
  0
DICTIONARY
  5
86
102
{ACAD_REACTORS
330
C
102
}
330
C
100
AcDbDictionary
281
     1
  3
Standard
350
87
  0
DICTIONARY
  5
99
102
{ACAD_REACTORS
330
C
102
}
330
C
100
AcDbDictionary
281
     1
  3
2dWireframe
350
9F
  3
3D Hidden
350
A1
  3
3dWireframe
350
A0
  3
Basic
350
9E
  3
Brighten
350
A5
  3
ColorChange
350
A9
  3
Conceptual
350
A2
  3
Dim
350
A4
  3
EdgeColorOff
350
155
  3
Facepattern
350
A8
  3
Flat
350
9A
  3
FlatWithEdges
350
9B
  3
Gouraud
350
9C
  3
GouraudWithEdges
350
9D
  3
Hidden
350
14D
  3
JitterOff
350
153
  3
Linepattern
350
A7
  3
OverhangOff
350
154
  3
Realistic
350
A3
  3
Shaded
350
152
  3
Shaded with edges
350
151
  3
Shades of Gray
350
14E
  3
Sketchy
350
14F
  3
Thicken
350
A6
  3
Wireframe
350
14C
  3
X-Ray
350
150
  0
XRECORD
  5
1700
102
{ACAD_REACTORS
330
C
102
}
330
C
100
AcDbXrecord
280
     1
 90
        1
330
87
  0
DICTIONARY
  5
66
102
{ACAD_REACTORS
330
C
102
}
330
C
100
AcDbDictionary
281
     1
  3
CANNOSCALE
350
24A
  3
CMLEADERSTYLE
350
248
  3
CTABLESTYLE
350
89
  3
DIMASSOC
350
67
  3
HIDETEXT
350
6B
  3
INDEXCTL
350
8D6
  3
LAYEREVAL
350
24C
  3
LAYERNOTIFY
350
24D
  3
LIGHTINGUNITS
350
24B
  3
MSLTSCALE
350
249
  3
SORTENTS
350
8D5
  3
XCLIPFRAME
350
15F7
  0
XRECORD
  5
1701
102
{ACAD_REACTORS
330
C
102
}
330
C
100
AcDbXrecord
280
     1
  1
DWGPROPS COOKIE
  2

  3

  4

  6

  7

  8
imamura
  9

300
=
301
=
302
=
303
=
304
=
305
=
306
=
307
=
308
=
309
=
 40
0.2834409259259259
 41
2456237.859514468
 42
2459744.39179875
  1

 90
        0
  0
DICTIONARY
  5
DE
102
{ACAD_REACTORS
330
DD
102
}
330
DD
100
AcDbDictionary
281
     1
  0
XRECORD
  5
7BF
102
{ACAD_REACTORS
330
7BE
102
}
330
7BE
100
AcDbXrecord
280
     1
290
     1
  0
SORTENTSTABLE
  5
325
102
{ACAD_REACTORS
330
324
102
}
330
324
100
AcDbSortentsTable
330
1F
331
16BE
  5
16DF
331
16FD
  5
1423
331
16BA
  5
16E0
331
16F9
  5
142A
331
16F5
  5
1642
331
16B6
  5
D1E
331
1684
  5
CDF
331
7BB
  5
8E7
331
16F1
  5
164E
331
142F
  5
16FE
331
16B2
  5
D0E
331
DF8
  5
16D1
331
1680
  5
CDB
331
AC6
  5
AC8
331
142B
  5
16FA
331
163D
  5
16E3
331
DF4
  5
16D0
331
167C
  5
CD7
331
A1F
  5
A38
331
A54
  5
A0C
331
A8B
  5
A9D
331
DF0
  5
16CB
331
9DC
  5
9E8
331
A1B
  5
A34
331
A50
  5
A08
331
946
  5
961
331
985
  5
9C5
331
ABA
  5
ABA
331
981
  5
9C2
331
9D8
  5
9E4
331
A17
  5
A30
331
CED
  5
D31
331
814
  5
785
331
942
  5
959
331
78F
  5
82E
331
CAE
  5
CA6
331
A4C
  5
A03
331
A48
  5
A16
331
93E
  5
954
331
97D
  5
995
331
9D4
  5
9E0
331
CE9
  5
D2D
331
877
  5
932
331
D26
  5
DEC
331
74C
  5
7A2
331
78B
  5
82B
331
CAA
  5
CA2
331
A13
  5
A2C
331
93A
  5
950
331
CE5
  5
D29
331
CA6
  5
C9E
331
7B4
  5
744
331
DC1
  5
16AF
331
D22
  5
DE5
331
748
  5
79E
331
787
  5
827
331
9D0
  5
9DC
331
CE1
  5
D25
331
783
  5
821
331
CA2
  5
C9A
331
744
  5
79A
331
7B0
  5
886
331
D12
  5
DE1
331
740
  5
796
331
16ED
  5
165C
331
16AE
  5
D0A
331
D60
  5
16A3
331
16E9
  5
1664
331
16AA
  5
D06
331
16E5
  5
166E
331
1423
  5
16F2
331
DEC
  5
16CA
331
16A6
  5
D02
331
16E1
  5
1670
331
141F
  5
16EE
331
DE8
  5
16C7
331
1670
  5
163E
331
16A2
  5
CFE
331
141B
  5
16EA
331
DE4
  5
16C5
331
A0F
  5
A28
331
A44
  5
A5D
331
A7B
  5
A93
331
AB2
  5
AAB
331
DE0
  5
16C1
331
AAE
  5
AA7
331
9CC
  5
9D8
331
A0B
  5
A24
331
A40
  5
A59
331
936
  5
94C
331
975
  5
98F
331
971
  5
98A
331
9C8
  5
9D4
331
A07
  5
A20
331
7AC
  5
882
331
83B
  5
930
331
932
  5
948
331
77F
  5
81D
331
C9E
  5
C96
331
A3C
  5
A55
331
A38
  5
A51
331
92E
  5
944
331
9C4
  5
9D0
331
CD9
  5
CD1
331
7A8
  5
87A
331
837
  5
92C
331
D0E
  5
DDC
331
77B
  5
818
331
C9A
  5
C92
331
A03
  5
A1C
331
92A
  5
940
331
969
  5
984
331
9C0
  5
9CC
331
CD5
  5
CCD
331
7A4
  5
86C
331
D51
  5
DD9
331
D0A
  5
DCF
331
777
  5
815
331
833
  5
928
331
D4D
  5
168A
331
CD1
  5
CC9
331
7A0
  5
83F
331
16DD
  5
1677
331
1417
  5
16E6
331
16D9
  5
1679
331
16D5
  5
1682
331
16D1
  5
1689
331
E17
  5
16DB
331
1660
  5
1667
331
169F
  5
CFA
331
A77
  5
A92
331
169B
  5
CF6
331
9FF
  5
A01
331
A73
  5
A73
331
AA6
  5
A9F
331
82F
  5
712
331
9FB
  5
76B
331
C94
  5
C8C
331
C90
  5
C88
331
A6B
  5
A67
331
AA2
  5
A8D
331
961
  5
97E
331
9F7
  5
76D
331
76F
  5
7B9
331
CCD
  5
CC5
331
A36
  5
A4F
331
A32
  5
A4B
331
CC9
  5
CC1
331
D45
  5
1419
331
76B
  5
789
331
9BC
  5
9C8
331
9F3
  5
775
331
D04
  5
DC9
331
922
  5
790
331
959
  5
97A
331
79E
  5
83D
331
CC5
  5
CBD
331
767
  5
7B6
331
9B8
  5
77B
331
D00
  5
DC0
331
DDC
  5
16BE
331
79A
  5
839
331
CC1
  5
CB9
331
DD8
  5
16BA
331
D39
  5
1415
331
16CD
  5
168F
331
16C9
  5
1699
331
1697
  5
CF2
331
16C5
  5
16A9
331
1654
  5
1680
331
1693
  5
CEE
331
16C1
  5
16AB
331
E07
  5
16D4
331
168F
  5
CEA
331
C8C
  5
C84
331
A9E
  5
A9B
331
E03
  5
16D2
331
164C
  5
1695
331
168B
  5
CE6
331
C88
  5
C80
331
9EF
  5
9FB
331
A2E
  5
A47
331
A9A
  5
AB1
331
1648
  5
169F
331
9EB
  5
9F7
331
A2A
  5
A43
331
81F
  5
8EB
331
955
  5
975
331
C84
  5
C24
331
A5B
  5
A13
331
9E7
  5
9F3
331
A26
  5
A3F
331
CFC
  5
D5D
331
91A
  5
93C
331
CBD
  5
CB5
331
951
  5
971
331
C80
  5
BBC
331
A22
  5
A3B
331
D5F
  5
16A2
331
CF8
  5
D51
331
94D
  5
96B
331
D35
  5
E15
331
75B
  5
7B1
331
CB9
  5
CB1
331
9E3
  5
9EF
331
CF4
  5
D40
331
949
  5
966
331
CB5
  5
CAD
331
988
  5
9C9
331
D31
  5
E08
331
757
  5
7AD
331
796
  5
835
331
CF0
  5
D34
331
792
  5
831
331
CB1
  5
CA9
331
DCC
  5
16B4
331
D2D
  5
E03
331
753
  5
7A9
331
D29
  5
DF2
331
16BD
  5
16DE
331
16FC
  5
1422
331
16F8
  5
163A
331
16B9
  5
D21
331
1687
  5
CE2
331
16F4
  5
164D
331
16B5
  5
D1D
331
1644
  5
16A6
331
1683
  5
CDE
331
16F0
  5
1657
331
142E
  5
16FD
331
16B1
  5
D0D
331
167F
  5
CDA
331
A57
  5
A0F
331
AC5
  5
AC5
331
142A
  5
16F9
331
163C
  5
16E2
331
DF3
  5
16CF
331
167B
  5
CD6
331
9DF
  5
9EB
331
A1E
  5
A37
331
A53
  5
A0B
331
9DB
  5
9E7
331
A1A
  5
A33
331
A4F
  5
A07
331
817
  5
8E9
331
945
  5
960
331
984
  5
9C4
331
A4B
  5
A19
331
A82
  5
782
331
AB9
  5
AB9
331
980
  5
9C1
331
9D7
  5
9E3
331
A16
  5
A2F
331
CEC
  5
D30
331
813
  5
786
331
87A
  5
783
331
74F
  5
7A5
331
78E
  5
82D
331
CAD
  5
CA5
331
941
  5
958
331
A12
  5
A2B
331
93D
  5
953
331
97C
  5
994
331
CE8
  5
D2C
331
7B7
  5
8DD
331
9D3
  5
9DF
331
D25
  5
DEB
331
74B
  5
7A1
331
CA9
  5
CA1
331
939
  5
94F
331
978
  5
991
331
CE4
  5
D28
331
CA5
  5
C9D
331
7B3
  5
745
331
DC0
  5
16AE
331
D21
  5
DE4
331
747
  5
79D
331
786
  5
825
331
CE0
  5
D24
331
782
  5
820
331
CA1
  5
C99
331
743
  5
799
331
D11
  5
DE0
331
16EC
  5
165B
331
16AD
  5
D09
331
16E8
  5
1663
331
1677
  5
141E
331
16A9
  5
D05
331
16E4
  5
166D
331
1422
  5
16F1
331
DEB
  5
16C9
331
16A5
  5
D01
331
16E0
  5
166F
331
141E
  5
16ED
331
166F
  5
163B
331
16A1
  5
CFD
331
A47
  5
A1A
331
141A
  5
16E9
331
DE3
  5
16C4
331
166B
  5
1654
331
A0E
  5
A27
331
A43
  5
A5C
331
AB1
  5
AAA
331
9CF
  5
9DB
331
9CB
  5
9D7
331
A0A
  5
A23
331
A3F
  5
A58
331
7AF
  5
885
331
935
  5
94B
331
974
  5
98E
331
9C7
  5
9D3
331
A06
  5
A1F
331
7AB
  5
880
331
83A
  5
92F
331
931
  5
947
331
73F
  5
795
331
77E
  5
81C
331
C9D
  5
C95
331
CDC
  5
CD4
331
A3B
  5
A54
331
92D
  5
943
331
96C
  5
987
331
9C3
  5
9CF
331
CD8
  5
CD0
331
7A7
  5
877
331
836
  5
92B
331
D54
  5
168E
331
D0D
  5
DDB
331
77A
  5
819
331
C99
  5
C91
331
A02
  5
A1B
331
832
  5
923
331
929
  5
93F
331
968
  5
983
331
CD4
  5
CCC
331
7A3
  5
86B
331
D50
  5
DD8
331
D09
  5
DCE
331
776
  5
814
331
CD0
  5
CC8
331
16DC
  5
1676
331
712
  5
78F
331
1416
  5
16E5
331
16D8
  5
167C
331
16D4
  5
1687
331
16D0
  5
1688
331
E16
  5
16DA
331
165F
  5
1666
331
169E
  5
CF9
331
A76
  5
A8F
331
165B
  5
1675
331
169A
  5
CF5
331
C97
  5
C8F
331
A72
  5
A74
331
AA5
  5
A9C
331
9FA
  5
76A
331
C93
  5
C8B
331
964
  5
981
331
A6A
  5
A68
331
AA1
  5
A8E
331
960
  5
97D
331
82A
  5
920
331
9F6
  5
771
331
76E
  5
7BC
331
CCC
  5
CC4
331
A35
  5
A4E
331
A31
  5
A4A
331
925
  5
78D
331
9BB
  5
77E
331
D07
  5
DCC
331
CC8
  5
CC0
331
D44
  5
1418
331
76A
  5
78A
331
826
  5
711
331
9F2
  5
776
331
79D
  5
83C
331
CC4
  5
CBC
331
958
  5
978
331
DDF
  5
16C0
331
766
  5
7B5
331
DDB
  5
16BD
331
799
  5
838
331
CC0
  5
CB8
331
D38
  5
E18
331
16CC
  5
1693
331
70A
  5
77F
331
16C8
  5
1698
331
1696
  5
CF1
331
16C4
  5
16A8
331
E0A
  5
16D7
331
1653
  5
167F
331
1692
  5
CED
331
C8F
  5
C87
331
16C0
  5
16AA
331
E06
  5
16CD
331
168E
  5
CE9
331
C8B
  5
C83
331
A9D
  5
AB4
331
164B
  5
1694
331
168A
  5
CE5
331
C87
  5
C7F
331
9EE
  5
9FA
331
A2D
  5
A46
331
9B7
  5
77A
331
A99
  5
AB0
331
C83
  5
C08
331
9EA
  5
9F6
331
A29
  5
A42
331
CFF
  5
D60
331
954
  5
974
331
A5E
  5
A66
331
A5A
  5
A12
331
AC8
  5
AC4
331
950
  5
96F
331
CFB
  5
D54
331
81A
  5
70E
331
919
  5
93B
331
DD7
  5
16B9
331
CBC
  5
CB4
331
A25
  5
A3E
331
A21
  5
A3A
331
D5E
  5
16A1
331
CF7
  5
D50
331
94C
  5
96A
331
D34
  5
E14
331
75A
  5
7B0
331
CB8
  5
CB0
331
9E2
  5
9EE
331
CF3
  5
D3F
331
948
  5
964
331
795
  5
834
331
DCF
  5
16B7
331
D30
  5
E07
331
756
  5
7AC
331
CB4
  5
CAC
331
791
  5
830
331
CB0
  5
CA8
331
DCB
  5
16B3
331
D2C
  5
DF8
331
752
  5
7A8
331
D28
  5
DF1
331
16BC
  5
16DD
331
16FB
  5
142C
331
16F7
  5
1647
331
16B8
  5
D20
331
1686
  5
CE1
331
16F3
  5
164C
331
16B4
  5
D1C
331
1643
  5
16A5
331
1682
  5
CDD
331
C7F
  5
BA4
331
7B9
  5
8DE
331
142D
  5
16FC
331
16B0
  5
D0C
331
167E
  5
CD9
331
A56
  5
A0E
331
A8D
  5
AAE
331
AC4
  5
AC6
331
1429
  5
16F8
331
163B
  5
16F5
331
DF2
  5
16CE
331
9DE
  5
9EA
331
A1D
  5
A36
331
987
  5
9C7
331
A52
  5
A0A
331
983
  5
9C3
331
9DA
  5
9E6
331
A19
  5
A32
331
CEF
  5
D33
331
944
  5
95E
331
A4E
  5
A05
331
A4A
  5
A18
331
AB8
  5
AB8
331
9D6
  5
9E2
331
A15
  5
A2E
331
CEB
  5
D2F
331
812
  5
70A
331
879
  5
784
331
74E
  5
7A4
331
78D
  5
82C
331
CAC
  5
CA4
331
940
  5
956
331
A11
  5
A2A
331
93C
  5
952
331
97B
  5
993
331
CE7
  5
D2B
331
CA8
  5
CA0
331
7B6
  5
787
331
D24
  5
DEA
331
74A
  5
7A0
331
789
  5
829
331
9D2
  5
9DE
331
CE3
  5
D27
331
938
  5
94E
331
CA4
  5
C9C
331
D20
  5
DE3
331
746
  5
79C
331
785
  5
824
331
CA0
  5
C98
331
742
  5
798
331
D10
  5
DDF
331
16EF
  5
1656
331
16EB
  5
1658
331
16AC
  5
D08
331
16E7
  5
1662
331
1425
  5
16F4
331
16A8
  5
D04
331
1676
  5
141D
331
16E3
  5
166C
331
1421
  5
16F0
331
DEA
  5
16C8
331
16A4
  5
D00
331
141D
  5
16EC
331
16A0
  5
CFC
331
A46
  5
A64
331
A7D
  5
A97
331
AB4
  5
AAD
331
1419
  5
16E8
331
DE2
  5
16C3
331
166A
  5
1650
331
9CE
  5
9DA
331
A0D
  5
A26
331
A42
  5
A5B
331
977
  5
990
331
AB0
  5
AA9
331
9CA
  5
9D6
331
A09
  5
A22
331
A3E
  5
A57
331
CDF
  5
D23
331
7AE
  5
884
331
934
  5
94A
331
973
  5
98D
331
A3A
  5
A53
331
96F
  5
989
331
9C6
  5
9D2
331
A05
  5
A1E
331
CDB
  5
CD3
331
7AA
  5
87F
331
839
  5
92E
331
73E
  5
78C
331
77D
  5
81B
331
C9C
  5
C94
331
930
  5
946
331
A01
  5
A02
331
92C
  5
942
331
96B
  5
986
331
9C2
  5
9CE
331
CD7
  5
CCF
331
7A6
  5
86F
331
835
  5
92A
331
D53
  5
168D
331
D0C
  5
DD7
331
779
  5
817
331
C98
  5
C90
331
831
  5
922
331
928
  5
93E
331
CD3
  5
CCB
331
7A2
  5
858
331
D4F
  5
168C
331
D08
  5
DCD
331
775
  5
813
331
771
  5
812
331
71A
  5
791
331
16DF
  5
1672
331
16DB
  5
167B
331
1415
  5
16E4
331
16D7
  5
1684
331
1666
  5
1661
331
16D3
  5
1686
331
E15
  5
16D9
331
169D
  5
CF8
331
A75
  5
A76
331
165A
  5
1674
331
1699
  5
CF4
331
9FD
  5
9FF
331
C96
  5
C8E
331
A6D
  5
A06
331
AA4
  5
A8A
331
9F9
  5
770
331
CCF
  5
CC7
331
963
  5
980
331
C92
  5
C8A
331
A34
  5
A4D
331
A69
  5
A70
331
9BE
  5
8E5
331
829
  5
91F
331
9F5
  5
773
331
D47
  5
141B
331
76D
  5
7BB
331
CCB
  5
CC3
331
A30
  5
A49
331
924
  5
78E
331
95B
  5
97B
331
9BA
  5
77D
331
D06
  5
DCB
331
CC7
  5
CBF
331
769
  5
7B7
331
825
  5
91C
331
9F1
  5
778
331
D02
  5
DC2
331
821
  5
70F
331
79C
  5
83B
331
CC3
  5
CBB
331
DDA
  5
16BC
331
D3B
  5
1417
331
798
  5
837
331
16CF
  5
1691
331
16CB
  5
1692
331
16C7
  5
169E
331
1695
  5
CF0
331
16C3
  5
16A7
331
E09
  5
16D6
331
1652
  5
167E
331
1691
  5
CEC
331
C8E
  5
C86
331
164E
  5
1697
331
168D
  5
CE8
331
C8A
  5
C82
331
A9C
  5
AB3
331
1689
  5
CE4
331
9ED
  5
9F9
331
A2C
  5
A45
331
C86
  5
C7E
331
A94
  5
A9A
331
C82
  5
BF6
331
9E9
  5
9F5
331
A28
  5
A41
331
CFE
  5
D5F
331
91C
  5
93D
331
953
  5
973
331
CBF
  5
CB7
331
A5D
  5
A15
331
A59
  5
A11
331
94F
  5
96E
331
9E5
  5
9F2
331
CFA
  5
D53
331
819
  5
70C
331
918
  5
93A
331
DD6
  5
16B8
331
D37
  5
E17
331
CBB
  5
CB3
331
A24
  5
A3D
331
A20
  5
A39
331
D5D
  5
16A0
331
CF6
  5
D42
331
94B
  5
969
331
98A
  5
9CB
331
D33
  5
E0A
331
759
  5
7AF
331
CB7
  5
CAF
331
9E1
  5
9ED
331
CF2
  5
D36
331
880
  5
936
331
794
  5
833
331
DCE
  5
16B6
331
D2F
  5
E06
331
755
  5
7AB
331
CB3
  5
CAB
331
DCA
  5
16B2
331
D2B
  5
DF4
331
751
  5
7A7
331
790
  5
82F
331
16BF
  5
16AD
331
16FE
  5
1424
331
16BB
  5
16E1
331
16FA
  5
142B
331
16F6
  5
1646
331
16B7
  5
D1F
331
1685
  5
CE0
331
16F2
  5
1648
331
16B3
  5
D1B
331
1642
  5
16A4
331
1681
  5
CDC
331
AC7
  5
AC7
331
142C
  5
16FB
331
167D
  5
CD8
331
AC3
  5
AC3
331
A55
  5
A0D
331
A8C
  5
A9E
331
1428
  5
16F7
331
163A
  5
16F6
331
DF1
  5
16CC
331
9DD
  5
9E9
331
A1C
  5
A35
331
A51
  5
A09
331
947
  5
963
331
986
  5
9C6
331
A88
  5
A99
331
ABB
  5
ABB
331
9D9
  5
9E5
331
A18
  5
A31
331
CEE
  5
D32
331
943
  5
95B
331
CAF
  5
CA7
331
A4D
  5
A04
331
A49
  5
A17
331
CEA
  5
D2E
331
93F
  5
955
331
97E
  5
9C0
331
9D5
  5
9E1
331
D27
  5
DF0
331
74D
  5
7A3
331
CAB
  5
CA3
331
A14
  5
A2D
331
A10
  5
A29
331
93B
  5
951
331
97A
  5
992
331
CE6
  5
D2A
331
CA7
  5
C9F
331
DC2
  5
16B0
331
D23
  5
DE8
331
749
  5
79F
331
7B5
  5
788
331
9D1
  5
9DD
331
CE2
  5
D26
331
784
  5
822
331
CA3
  5
C9B
331
745
  5
79B
331
780
  5
81F
331
D13
  5
DE2
331
741
  5
797
331
16EE
  5
1655
331
16AF
  5
D0B
331
16EA
  5
165D
331
16AB
  5
D07
331
16E6
  5
1665
331
1424
  5
16F3
331
16A7
  5
D03
331
1675
  5
141C
331
16E2
  5
1671
331
1420
  5
16EF
331
1671
  5
1641
331
16A3
  5
CFF
331
141C
  5
16EB
331
DE5
  5
16C6
331
A45
  5
A5E
331
A7C
  5
A94
331
AB3
  5
AAC
331
1418
  5
16E7
331
DE1
  5
16C2
331
1669
  5
164F
331
9CD
  5
9D9
331
A0C
  5
A25
331
937
  5
94D
331
A41
  5
A5A
331
AAF
  5
AA8
331
972
  5
98B
331
9C9
  5
9D5
331
A08
  5
A21
331
CDE
  5
D22
331
7AD
  5
883
331
83C
  5
931
331
933
  5
949
331
C9F
  5
C97
331
A3D
  5
A56
331
E18
  5
16DC
331
A39
  5
A52
331
96E
  5
988
331
9C5
  5
9D1
331
A04
  5
A1D
331
CDA
  5
CD2
331
7A9
  5
87C
331
838
  5
92D
331
D0F
  5
DDD
331
73D
  5
792
331
77C
  5
81A
331
C9B
  5
C93
331
92F
  5
945
331
92B
  5
941
331
96A
  5
985
331
9C1
  5
9CD
331
CD6
  5
CCE
331
7A5
  5
86D
331
D52
  5
DDA
331
D0B
  5
DD6
331
778
  5
816
331
834
  5
929
331
830
  5
740
331
D4E
  5
168B
331
CD2
  5
CCA
331
7A1
  5
857
331
770
  5
7BD
331
16DE
  5
1678
331
16DA
  5
167A
331
710
  5
709
331
16D6
  5
1683
331
1665
  5
165E
331
16D2
  5
1685
331
1661
  5
1668
331
E14
  5
16D8
331
169C
  5
CF7
331
A74
  5
A75
331
1659
  5
1673
331
1698
  5
CF3
331
C95
  5
C8D
331
966
  5
982
331
A70
  5
A72
331
AA3
  5
A8B
331
9F8
  5
76F
331
CCE
  5
CC6
331
A37
  5
A50
331
C91
  5
C89
331
A33
  5
A4C
331
A68
  5
A6D
331
CCA
  5
CC2
331
95E
  5
97C
331
D46
  5
141A
331
76C
  5
7B8
331
9F4
  5
774
331
9F0
  5
9FD
331
923
  5
8E8
331
9B9
  5
77C
331
D05
  5
DCA
331
CC6
  5
CBE
331
824
  5
91B
331
768
  5
7BA
331
79F
  5
83E
331
D01
  5
DC1
331
820
  5
8EC
331
DDD
  5
16BF
331
79B
  5
83A
331
CC2
  5
CBA
331
DD9
  5
16BB
331
D3A
  5
1416
331
16CE
  5
1690
331
16CA
  5
169A
331
708
  5
708
331
16C6
  5
169D
331
1655
  5
1681
331
1694
  5
CEF
331
16C2
  5
16AC
331
E08
  5
16D5
331
1651
  5
167D
331
1690
  5
CEB
331
C8D
  5
C85
331
E04
  5
16D3
331
164D
  5
1696
331
168C
  5
CE7
331
C89
  5
C81
331
A2F
  5
A48
331
A64
  5
A6B
331
A9B
  5
AB2
331
1688
  5
CE3
331
A97
  5
AAF
331
C85
  5
C4B
331
9EC
  5
9F8
331
A2B
  5
A44
331
956
  5
977
331
A60
  5
A6A
331
A5C
  5
A14
331
9E8
  5
9F4
331
A27
  5
A40
331
CFD
  5
D5E
331
CBE
  5
CB6
331
952
  5
972
331
A23
  5
A3C
331
A58
  5
A10
331
94E
  5
96C
331
CF9
  5
D52
331
818
  5
8EA
331
9E4
  5
9F0
331
D36
  5
E16
331
75C
  5
7B4
331
CBA
  5
CB2
331
CF5
  5
D41
331
94A
  5
968
331
CB6
  5
CAE
331
989
  5
9CA
331
D32
  5
E09
331
758
  5
7AE
331
797
  5
836
331
9E0
  5
9EC
331
CF1
  5
D35
331
793
  5
832
331
CB2
  5
CAA
331
DCD
  5
16B5
331
D2E
  5
E04
331
754
  5
7AA
331
DC9
  5
16B1
331
D2A
  5
DF3
331
750
  5
7A6
  0
XRECORD
  5
1704
102
{ACAD_REACTORS
330
1702
102
}
330
1702
100
AcDbXrecord
280
     1
 70
     2
  0
XRECORD
  5
1703
102
{ACAD_REACTORS
330
1702
102
}
330
1702
100
AcDbXrecord
280
     1
 40
1.25
  0
XRECORD
  5
1705
102
{ACAD_REACTORS
330
1702
102
}
330
1702
100
AcDbXrecord
280
     1
 40
1.570796326794896
  0
LAYOUT
  5
22
102
{ACAD_XDICTIONARY
360
1706
102
}
102
{ACAD_REACTORS
330
1A
102
}
330
1A
100
AcDbPlotSettings
  1

  2
none_device
  4
ANSI_A_(8.50_x_11.00_Inches)
  6

 40
6.349999904632567
 41
19.04999923706055
 42
6.350006103515625
 43
19.04998779296875
 44
215.8999938964844
 45
279.3999938964844
 46
0.0
 47
0.0
 48
0.0
 49
0.0
140
0.0
141
0.0
142
1.0
143
2.584895464708373
 70
 11952
 72
     0
 73
     1
 74
     0
  7

 75
     0
147
0.3868628397755418
148
0.0
149
0.0
100
AcDbLayout
  1
Model
 70
     1
 71
     0
 10
0.0
 20
0.0
 11
12.0
 21
9.0
 12
0.0
 22
0.0
 32
0.0
 14
0.0
 24
0.0
 34
0.0
 15
0.0
 25
0.0
 35
0.0
146
0.0
 13
0.0
 23
0.0
 33
0.0
 16
1.0
 26
0.0
 36
0.0
 17
0.0
 27
1.0
 37
0.0
 76
     0
330
1F
331
94
  0
LAYOUT
  5
59
102
{ACAD_XDICTIONARY
360
1708
102
}
102
{ACAD_REACTORS
330
1A
102
}
330
1A
100
AcDbPlotSettings
  1

  2
None
  4

  6

 40
0.0
 41
0.0
 42
0.0
 43
0.0
 44
0.0
 45
0.0
 46
0.0
 47
0.0
 48
0.0
 49
0.0
140
0.0
141
0.0
142
1.0
143
1.0
 70
   688
 72
     0
 73
     0
 74
     5
  7

 75
    16
147
1.0
148
0.0
149
0.0
100
AcDbLayout
  1
レイアウト1
 70
     1
 71
     1
 10
0.0
 20
0.0
 11
12.0
 21
9.0
 12
0.0
 22
0.0
 32
0.0
 14
0.0
 24
0.0
 34
0.0
 15
0.0
 25
0.0
 35
0.0
146
0.0
 13
0.0
 23
0.0
 33
0.0
 16
1.0
 26
0.0
 36
0.0
 17
0.0
 27
1.0
 37
0.0
 76
     0
330
58
  0
LAYOUT
  5
5E
102
{ACAD_XDICTIONARY
360
170A
102
}
102
{ACAD_REACTORS
330
1A
102
}
330
1A
100
AcDbPlotSettings
  1

  2
None
  4

  6

 40
0.0
 41
0.0
 42
0.0
 43
0.0
 44
0.0
 45
0.0
 46
0.0
 47
0.0
 48
0.0
 49
0.0
140
0.0
141
0.0
142
1.0
143
1.0
 70
   688
 72
     0
 73
     0
 74
     5
  7

 75
    16
147
1.0
148
0.0
149
0.0
100
AcDbLayout
  1
レイアウト2
 70
     1
 71
     2
 10
0.0
 20
0.0
 11
12.0
 21
9.0
 12
0.0
 22
0.0
 32
0.0
 14
0.0
 24
0.0
 34
0.0
 15
0.0
 25
0.0
 35
0.0
146
0.0
 13
0.0
 23
0.0
 33
0.0
 16
1.0
 26
0.0
 36
0.0
 17
0.0
 27
1.0
 37
0.0
 76
     0
330
5D
  0
MATERIAL
  5
97
102
{ACAD_XDICTIONARY
360
EA5
102
}
102
{ACAD_REACTORS
330
72
102
}
330
72
100
AcDbMaterial
  1
ByBlock
 73
     1
 78
     1
172
     1
176
     1
270
     1
274
     1
  0
MATERIAL
  5
96
102
{ACAD_XDICTIONARY
360
EA3
102
}
102
{ACAD_REACTORS
330
72
102
}
330
72
100
AcDbMaterial
  1
ByLayer
 73
     1
 78
     1
172
     1
176
     1
270
     1
274
     1
  0
MATERIAL
  5
98
102
{ACAD_XDICTIONARY
360
EA7
102
}
102
{ACAD_REACTORS
330
72
102
}
330
72
100
AcDbMaterial
  1
Global
 73
     1
 78
     1
172
     1
176
     1
270
     1
274
     1
  0
MLEADERSTYLE
  5
169
102
{ACAD_REACTORS
330
168
102
}
330
168
100
AcDbMLeaderStyle
170
     2
171
     1
172
     0
 90
        2
 40
0.0
 41
0.0
173
     1
 91
-1056964608
340
14
 92
       -2
290
     1
 42
2.0
291
     1
 43
0.36
  3
Standard
 44
4.0
300

342
11
174
     1
178
     6
175
     1
176
     0
 93
-1056964608
 45
4.0
292
     0
297
     0
 46
4.0
 94
-1056964608
 47
1.0
 49
1.0
140
1.0
293
     1
141
0.0
294
     1
177
     0
142
1.0
295
     0
296
     0
143
0.125
1001
ACAD_MLEADERVER
1070
     2
  0
MLINESTYLE
  5
18
102
{ACAD_REACTORS
330
17
102
}
330
17
100
AcDbMlineStyle
  2
STANDARD
 70
     0
  3

 62
   256
 51
90.0
 52
90.0
 71
     2
 49
0.5
 62
   256
  6
BYLAYER
 49
-0.5
 62
   256
  6
BYLAYER
  0
ACDBPLACEHOLDER
  5
F
102
{ACAD_REACTORS
330
E
102
}
330
E
  0
SCALE
  5
157
102
{ACAD_REACTORS
330
156
102
}
330
156
100
AcDbScale
 70
     0
300
1:1
140
1.0
141
1.0
290
     1
  0
SCALE
  5
158
102
{ACAD_REACTORS
330
156
102
}
330
156
100
AcDbScale
 70
     0
300
1:2
140
1.0
141
2.0
290
     0
  0
SCALE
  5
159
102
{ACAD_REACTORS
330
156
102
}
330
156
100
AcDbScale
 70
     0
300
1:4
140
1.0
141
4.0
290
     0
  0
SCALE
  5
15A
102
{ACAD_REACTORS
330
156
102
}
330
156
100
AcDbScale
 70
     0
300
1:5
140
1.0
141
5.0
290
     0
  0
SCALE
  5
15B
102
{ACAD_REACTORS
330
156
102
}
330
156
100
AcDbScale
 70
     0
300
1:8
140
1.0
141
8.0
290
     0
  0
SCALE
  5
15C
102
{ACAD_REACTORS
330
156
102
}
330
156
100
AcDbScale
 70
     0
300
1:10
140
1.0
141
10.0
290
     0
  0
SCALE
  5
15D
102
{ACAD_REACTORS
330
156
102
}
330
156
100
AcDbScale
 70
     0
300
1:16
140
1.0
141
16.0
290
     0
  0
SCALE
  5
15E
102
{ACAD_REACTORS
330
156
102
}
330
156
100
AcDbScale
 70
     0
300
1:20
140
1.0
141
20.0
290
     0
  0
SCALE
  5
15F
102
{ACAD_REACTORS
330
156
102
}
330
156
100
AcDbScale
 70
     0
300
1:30
140
1.0
141
30.0
290
     0
  0
SCALE
  5
160
102
{ACAD_REACTORS
330
156
102
}
330
156
100
AcDbScale
 70
     0
300
1:40
140
1.0
141
40.0
290
     0
  0
SCALE
  5
161
102
{ACAD_REACTORS
330
156
102
}
330
156
100
AcDbScale
 70
     0
300
1:50
140
1.0
141
50.0
290
     0
  0
SCALE
  5
162
102
{ACAD_REACTORS
330
156
102
}
330
156
100
AcDbScale
 70
     0
300
1:100
140
1.0
141
100.0
290
     0
  0
SCALE
  5
163
102
{ACAD_REACTORS
330
156
102
}
330
156
100
AcDbScale
 70
     0
300
2:1
140
2.0
141
1.0
290
     0
  0
SCALE
  5
164
102
{ACAD_REACTORS
330
156
102
}
330
156
100
AcDbScale
 70
     0
300
4:1
140
4.0
141
1.0
290
     0
  0
SCALE
  5
165
102
{ACAD_REACTORS
330
156
102
}
330
156
100
AcDbScale
 70
     0
300
8:1
140
8.0
141
1.0
290
     0
  0
SCALE
  5
166
102
{ACAD_REACTORS
330
156
102
}
330
156
100
AcDbScale
 70
     0
300
10:1
140
10.0
141
1.0
290
     0
  0
SCALE
  5
167
102
{ACAD_REACTORS
330
156
102
}
330
156
100
AcDbScale
 70
     0
300
100:1
140
100.0
141
1.0
290
     0
  0
TABLESTYLE
  5
87
102
{ACAD_XDICTIONARY
360
887
102
}
102
{ACAD_REACTORS
330
86
102
}
330
86
100
AcDbTableStyle
  3
Standard
 70
     0
 71
     0
 40
0.06
 41
0.06
280
     0
281
     0
  7
Standard
140
0.18
170
     2
 62
     0
 63
     7
283
     0
274
    -2
284
     1
 64
     0
275
    -2
285
     1
 65
     0
276
    -2
286
     1
 66
     0
277
    -2
287
     1
 67
     0
278
    -2
288
     1
 68
     0
279
    -2
289
     1
 69
     0
  7
Standard
140
0.25
170
     5
 62
     0
 63
     7
283
     0
274
    -2
284
     1
 64
     0
275
    -2
285
     1
 65
     0
276
    -2
286
     1
 66
     0
277
    -2
287
     1
 67
     0
278
    -2
288
     1
 68
     0
279
    -2
289
     1
 69
     0
  7
Standard
140
0.18
170
     5
 62
     0
 63
     7
283
     0
274
    -2
284
     1
 64
     0
275
    -2
285
     1
 65
     0
276
    -2
286
     1
 66
     0
277
    -2
287
     1
 67
     0
278
    -2
288
     1
 68
     0
279
    -2
289
     1
 69
     0
  0
VISUALSTYLE
  5
9F
102
{ACAD_XDICTIONARY
360
1717
102
}
102
{ACAD_REACTORS
330
99
102
}
330
99
100
AcDbVisualStyle
  2

 70
     4
 71
     0
 72
     2
 73
     1
 90
        0
 40
-0.6
 41
-30.0
 62
     5
 63
     7
 74
     1
 91
        4
 64
     7
 65
   257
 75
     1
175
     1
 42
1.0
 92
        0
 66
   257
 43
1.0
 76
     1
 77
     6
 78
     2
 67
     7
 79
     5
170
     0
171
     0
290
     0
174
     0
 93
        1
 44
0.0
173
     0
291
     0
 45
0.0
1001
ACAD
1000
AcDbSavedByObjectVersion
1070
     0
  0
VISUALSTYLE
  5
A1
102
{ACAD_XDICTIONARY
360
171B
102
}
102
{ACAD_REACTORS
330
99
102
}
330
99
100
AcDbVisualStyle
  2

 70
     6
 71
     1
 72
     2
 73
     2
 90
        0
 40
-0.6
 41
-30.0
 62
     5
 63
     7
 74
     2
 91
        2
 64
     7
 65
   257
 75
     2
175
     1
 42
40.0
 92
        0
 66
   257
 43
1.0
 76
     1
 77
     6
 78
     2
 67
     7
 79
     3
170
     0
171
     0
290
     0
174
     0
 93
        1
 44
0.0
173
     0
291
     0
 45
0.0
1001
ACAD
1000
AcDbSavedByObjectVersion
1070
     0
  0
VISUALSTYLE
  5
A0
102
{ACAD_XDICTIONARY
360
1719
102
}
102
{ACAD_REACTORS
330
99
102
}
330
99
100
AcDbVisualStyle
  2

 70
     5
 71
     0
 72
     2
 73
     1
 90
        0
 40
-0.6
 41
-30.0
 62
     5
 63
     7
 74
     1
 91
        4
 64
     7
 65
   257
 75
     1
175
     1
 42
1.0
 92
        0
 66
   257
 43
1.0
 76
     1
 77
     6
 78
     2
 67
     7
 79
     5
170
     0
171
     0
290
     0
174
     0
 93
        1
 44
0.0
173
     0
291
     0
 45
0.0
1001
ACAD
1000
AcDbSavedByObjectVersion
1070
     0
  0
VISUALSTYLE
  5
9E
102
{ACAD_XDICTIONARY
360
1715
102
}
102
{ACAD_REACTORS
330
99
102
}
330
99
100
AcDbVisualStyle
  2

 70
     7
 71
     1
 72
     0
 73
     1
 90
        0
 40
-0.6
 41
-30.0
 62
     5
 63
     7
 74
     0
 91
        4
 64
     7
 65
   257
 75
     1
175
     1
 42
1.0
 92
        8
 66
     7
 43
1.0
 76
     1
 77
     6
 78
     2
 67
     7
 79
     5
170
     0
171
     0
290
     0
174
     0
 93
        1
 44
0.0
173
     0
291
     1
 45
0.0
1001
ACAD
1000
AcDbSavedByObjectVersion
1070
     0
  0
VISUALSTYLE
  5
A5
102
{ACAD_XDICTIONARY
360
1723
102
}
102
{ACAD_REACTORS
330
99
102
}
330
99
100
AcDbVisualStyle
  2

 70
    12
 71
     2
 72
     2
 73
     1
 90
        0
 40
-0.6
 41
-30.0
 62
     5
 63
     7
 74
     1
 91
        4
 64
     7
 65
   257
 75
     1
175
     1
 42
1.0
 92
        8
 66
     7
 43
1.0
 76
     1
 77
     6
 78
     2
 67
     7
 79
     5
170
     0
171
     0
290
     0
174
     0
 93
        1
 44
50.0
173
     0
291
     1
 45
0.0
1001
ACAD
1000
AcDbSavedByObjectVersion
1070
     0
  0
VISUALSTYLE
  5
A9
102
{ACAD_XDICTIONARY
360
172B
102
}
102
{ACAD_REACTORS
330
99
102
}
330
99
100
AcDbVisualStyle
  2

 70
    16
 71
     2
 72
     2
 73
     3
 90
        0
 40
-0.6
 41
-30.0
 62
     5
 63
     8
 74
     1
 91
        4
 64
     7
 65
   257
 75
     1
175
     1
 42
1.0
 92
        8
 66
     8
 43
1.0
 76
     1
 77
     6
 78
     2
 67
     7
 79
     5
170
     0
171
     0
290
     0
174
     0
 93
        1
 44
0.0
173
     0
291
     1
 45
0.0
1001
ACAD
1000
AcDbSavedByObjectVersion
1070
     0
  0
VISUALSTYLE
  5
A2
102
{ACAD_XDICTIONARY
360
171D
102
}
102
{ACAD_REACTORS
330
99
102
}
330
99
100
AcDbVisualStyle
  2

 70
     9
 71
     3
 72
     2
 73
     1
 90
        0
 40
-0.6
 41
-30.0
 62
     5
 63
     7
 74
     2
 91
        2
 64
     7
 65
   257
 75
     1
175
     1
 42
40.0
 92
        8
 66
     7
 43
1.0
 76
     1
 77
     6
 78
     2
 67
     7
 79
     3
170
     0
171
     0
290
     0
174
     0
 93
        1
 44
0.0
173
     0
291
     0
 45
0.0
1001
ACAD
1000
AcDbSavedByObjectVersion
1070
     0
  0
VISUALSTYLE
  5
A4
102
{ACAD_XDICTIONARY
360
1721
102
}
102
{ACAD_REACTORS
330
99
102
}
330
99
100
AcDbVisualStyle
  2

 70
    11
 71
     2
 72
     2
 73
     1
 90
        0
 40
-0.6
 41
-30.0
 62
     5
 63
     7
 74
     1
 91
        4
 64
     7
 65
   257
 75
     1
175
     1
 42
1.0
 92
        8
 66
     7
 43
1.0
 76
     1
 77
     6
 78
     2
 67
     7
 79
     5
170
     0
171
     0
290
     0
174
     0
 93
        1
 44
-50.0
173
     0
291
     1
 45
0.0
1001
ACAD
1000
AcDbSavedByObjectVersion
1070
     0
  0
VISUALSTYLE
  5
155
102
{ACAD_XDICTIONARY
360
173F
102
}
102
{ACAD_REACTORS
330
99
102
}
330
99
100
AcDbVisualStyle
  2

 70
    22
 71
     2
 72
     2
 73
     0
 90
        0
 40
-0.6
 41
-30.0
 62
     5
 63
     7
 74
     1
 91
        4
 64
     7
 65
   257
 75
     1
175
     1
 42
1.0
 92
        8
 66
     7
 43
1.0
 76
     1
 77
     6
 78
     2
 67
     7
 79
     5
170
     0
171
     0
290
     0
174
     0
 93
        1
 44
0.0
173
     0
291
     1
 45
0.0
1001
ACAD
1000
AcDbSavedByObjectVersion
1070
     0
  0
VISUALSTYLE
  5
A8
102
{ACAD_XDICTIONARY
360
1729
102
}
102
{ACAD_REACTORS
330
99
102
}
330
99
100
AcDbVisualStyle
  2

 70
    15
 71
     2
 72
     2
 73
     1
 90
        0
 40
-0.6
 41
-30.0
 62
     5
 63
     7
 74
     1
 91
        4
 64
     7
 65
   257
 75
     1
175
     1
 42
1.0
 92
        8
 66
     7
 43
1.0
 76
     1
 77
     6
 78
     2
 67
     7
 79
     5
170
     0
171
     0
290
     0
174
     0
 93
        1
 44
0.0
173
     0
291
     1
 45
0.0
1001
ACAD
1000
AcDbSavedByObjectVersion
1070
     0
  0
VISUALSTYLE
  5
9A
102
{ACAD_XDICTIONARY
360
170D
102
}
102
{ACAD_REACTORS
330
99
102
}
330
99
100
AcDbVisualStyle
  2

 70
     0
 71
     2
 72
     1
 73
     1
 90
        2
 40
-0.6
 41
30.0
 62
     5
 63
     7
 74
     0
 91
        4
 64
     7
 65
   257
 75
     1
175
     1
 42
1.0
 92
        8
 66
     7
 43
1.0
 76
     1
 77
     6
 78
     2
 67
     7
 79
     5
170
     0
171
     0
290
     0
174
     0
 93
        1
 44
0.0
173
     0
291
     1
 45
0.0
1001
ACAD
1000
AcDbSavedByObjectVersion
1070
     0
  0
VISUALSTYLE
  5
9B
102
{ACAD_XDICTIONARY
360
170F
102
}
102
{ACAD_REACTORS
330
99
102
}
330
99
100
AcDbVisualStyle
  2

 70
     1
 71
     2
 72
     1
 73
     1
 90
        2
 40
-0.6
 41
30.0
 62
     5
 63
     7
 74
     1
 91
        4
 64
     7
 65
   257
 75
     1
175
     1
 42
1.0
 92
        0
 66
   257
 43
1.0
 76
     1
 77
     6
 78
     2
 67
     7
 79
     5
170
     0
171
     0
290
     0
174
     0
 93
        1
 44
0.0
173
     0
291
     1
 45
0.0
1001
ACAD
1000
AcDbSavedByObjectVersion
1070
     0
  0
VISUALSTYLE
  5
9C
102
{ACAD_XDICTIONARY
360
1711
102
}
102
{ACAD_REACTORS
330
99
102
}
330
99
100
AcDbVisualStyle
  2

 70
     2
 71
     2
 72
     2
 73
     1
 90
        2
 40
-0.6
 41
30.0
 62
     5
 63
     7
 74
     0
 91
        4
 64
     7
 65
   257
 75
     1
175
     1
 42
1.0
 92
        0
 66
     7
 43
1.0
 76
     1
 77
     6
 78
     2
 67
     7
 79
     5
170
     0
171
     0
290
     0
174
     0
 93
        1
 44
0.0
173
     0
291
     1
 45
0.0
1001
ACAD
1000
AcDbSavedByObjectVersion
1070
     0
  0
VISUALSTYLE
  5
9D
102
{ACAD_XDICTIONARY
360
1713
102
}
102
{ACAD_REACTORS
330
99
102
}
330
99
100
AcDbVisualStyle
  2

 70
     3
 71
     2
 72
     2
 73
     1
 90
        2
 40
-0.6
 41
30.0
 62
     5
 63
     7
 74
     1
 91
        4
 64
     7
 65
   257
 75
     1
175
     1
 42
1.0
 92
        0
 66
   257
 43
1.0
 76
     1
 77
     6
 78
     2
 67
     7
 79
     5
170
     0
171
     0
290
     0
174
     0
 93
        1
 44
0.0
173
     0
291
     1
 45
0.0
1001
ACAD
1000
AcDbSavedByObjectVersion
1070
     0
  0
VISUALSTYLE
  5
14D
102
{ACAD_XDICTIONARY
360
172F
102
}
102
{ACAD_REACTORS
330
99
102
}
330
99
100
AcDbVisualStyle
  2

 70
     6
 71
     1
 72
     2
 73
     2
 90
        0
 40
-0.6
 41
-30.0
 62
     5
 63
     7
 74
     2
 91
        2
 64
     7
 65
   257
 75
     2
175
     1
 42
40.0
 92
        0
 66
   257
 43
1.0
 76
     1
 77
     6
 78
     2
 67
     7
 79
     3
170
     0
171
     0
290
     0
174
     0
 93
        1
 44
0.0
173
     0
291
     0
 45
0.0
1001
ACAD
1000
AcDbSavedByObjectVersion
1070
     0
  0
VISUALSTYLE
  5
153
102
{ACAD_XDICTIONARY
360
173B
102
}
102
{ACAD_REACTORS
330
99
102
}
330
99
100
AcDbVisualStyle
  2

 70
    20
 71
     2
 72
     2
 73
     0
 90
        0
 40
-0.6
 41
-30.0
 62
     5
 63
     7
 74
     1
 91
        4
 64
     7
 65
   257
 75
     1
175
     1
 42
1.0
 92
       10
 66
     7
 43
1.0
 76
     1
 77
     6
 78
     2
 67
     7
 79
     5
170
     0
171
     0
290
     0
174
     0
 93
        1
 44
0.0
173
     0
291
     1
 45
0.0
1001
ACAD
1000
AcDbSavedByObjectVersion
1070
     0
  0
VISUALSTYLE
  5
A7
102
{ACAD_XDICTIONARY
360
1727
102
}
102
{ACAD_REACTORS
330
99
102
}
330
99
100
AcDbVisualStyle
  2

 70
    14
 71
     2
 72
     2
 73
     1
 90
        0
 40
-0.6
 41
-30.0
 62
     5
 63
     7
 74
     1
 91
        4
 64
     7
 65
   257
 75
     7
175
     7
 42
1.0
 92
        8
 66
     7
 43
1.0
 76
     1
 77
     6
 78
     2
 67
     7
 79
     5
170
     0
171
     0
290
     0
174
     0
 93
        1
 44
0.0
173
     0
291
     1
 45
0.0
1001
ACAD
1000
AcDbSavedByObjectVersion
1070
     0
  0
VISUALSTYLE
  5
154
102
{ACAD_XDICTIONARY
360
173D
102
}
102
{ACAD_REACTORS
330
99
102
}
330
99
100
AcDbVisualStyle
  2

 70
    21
 71
     2
 72
     2
 73
     0
 90
        0
 40
-0.6
 41
-30.0
 62
     5
 63
     7
 74
     1
 91
        4
 64
     7
 65
   257
 75
     1
175
     1
 42
1.0
 92
        9
 66
     7
 43
1.0
 76
     1
 77
     6
 78
     2
 67
     7
 79
     5
170
     0
171
     0
290
     0
174
     0
 93
        1
 44
0.0
173
     0
291
     1
 45
0.0
1001
ACAD
1000
AcDbSavedByObjectVersion
1070
     0
  0
VISUALSTYLE
  5
A3
102
{ACAD_XDICTIONARY
360
171F
102
}
102
{ACAD_REACTORS
330
99
102
}
330
99
100
AcDbVisualStyle
  2

 70
     8
 71
     2
 72
     2
 73
     1
 90
        0
 40
-0.6
 41
-30.0
 62
     5
 63
     7
 74
     1
 91
        0
 64
     7
 65
   257
 75
     1
175
     1
 42
1.0
 92
        8
 66
     8
 43
1.0
 76
     1
 77
     6
 78
     2
 67
     7
 79
     5
170
     0
171
     0
290
     0
174
     0
 93
       13
 44
0.0
173
     0
291
     0
 45
0.0
1001
ACAD
1000
AcDbSavedByObjectVersion
1070
     0
  0
VISUALSTYLE
  5
152
102
{ACAD_XDICTIONARY
360
1739
102
}
102
{ACAD_REACTORS
330
99
102
}
330
99
100
AcDbVisualStyle
  2

 70
    27
 71
     2
 72
     2
 73
     1
 90
        2
 40
-0.6
 41
30.0
 62
     5
 63
     7
 74
     0
 91
        4
 64
     7
 65
   257
 75
     1
175
     1
 42
1.0
 92
        8
 66
   257
 43
1.0
 76
     1
 77
     6
 78
     2
 67
     8
 79
     3
170
     0
171
     0
290
     0
174
     0
 93
        5
 44
0.0
173
     0
291
     0
 45
0.0
1001
ACAD
1000
AcDbSavedByObjectVersion
1070
     0
  0
VISUALSTYLE
  5
151
102
{ACAD_XDICTIONARY
360
1737
102
}
102
{ACAD_REACTORS
330
99
102
}
330
99
100
AcDbVisualStyle
  2

 70
    26
 71
     2
 72
     2
 73
     1
 90
        2
 40
-0.6
 41
30.0
 62
     5
 63
     7
 74
     1
 91
       10
 64
     7
 65
   257
 75
     2
175
     1
 42
1.0
 92
        8
 66
   257
 43
1.0
 76
     1
 77
     6
 78
     2
 67
     7
 79
     3
170
     0
171
     0
290
     0
174
     0
 93
        5
 44
0.0
173
     0
291
     0
 45
0.0
1001
ACAD
1000
AcDbSavedByObjectVersion
1070
     0
  0
VISUALSTYLE
  5
14E
102
{ACAD_XDICTIONARY
360
1731
102
}
102
{ACAD_REACTORS
330
99
102
}
330
99
100
AcDbVisualStyle
  2

 70
    23
 71
     2
 72
     2
 73
     3
 90
        0
 40
-0.6
 41
-30.0
 62
     5
 63
     7
 74
     2
 91
        2
 64
     7
 65
     7
 75
     1
175
     1
 42
40.0
 92
        8
 66
     7
 43
1.0
 76
     1
 77
     6
 78
     2
 67
     7
 79
     3
170
     0
171
     0
290
     0
174
     0
 93
        1
 44
0.0
173
     0
291
     0
 45
0.0
1001
ACAD
1000
AcDbSavedByObjectVersion
1070
     0
  0
VISUALSTYLE
  5
14F
102
{ACAD_XDICTIONARY
360
1733
102
}
102
{ACAD_REACTORS
330
99
102
}
330
99
100
AcDbVisualStyle
  2

 70
    24
 71
     1
 72
     2
 73
     2
 90
        0
 40
-0.6
 41
-30.0
 62
     5
 63
     7
 74
     2
 91
        2
 64
     7
 65
     7
 75
     1
175
     1
 42
40.0
 92
       11
 66
     7
 43
1.0
 76
     1
 77
     6
 78
     2
 67
     7
 79
     6
170
     0
171
     0
290
     0
174
     0
 93
        1
 44
0.0
173
     0
291
     0
 45
0.0
1001
ACAD
1000
AcDbSavedByObjectVersion
1070
     0
  0
VISUALSTYLE
  5
A6
102
{ACAD_XDICTIONARY
360
1725
102
}
102
{ACAD_REACTORS
330
99
102
}
330
99
100
AcDbVisualStyle
  2

 70
    13
 71
     2
 72
     2
 73
     1
 90
        0
 40
-0.6
 41
-30.0
 62
     5
 63
     7
 74
     1
 91
        4
 64
     7
 65
   257
 75
     1
175
     1
 42
1.0
 92
       12
 66
     7
 43
1.0
 76
     1
 77
     6
 78
     2
 67
     7
 79
     5
170
     0
171
     0
290
     0
174
     0
 93
        1
 44
0.0
173
     0
291
     1
 45
0.0
1001
ACAD
1000
AcDbSavedByObjectVersion
1070
     0
  0
VISUALSTYLE
  5
14C
102
{ACAD_XDICTIONARY
360
172D
102
}
102
{ACAD_REACTORS
330
99
102
}
330
99
100
AcDbVisualStyle
  2

 70
     5
 71
     0
 72
     2
 73
     0
 90
        0
 40
-0.6
 41
-30.0
 62
     5
 63
     7
 74
     1
 91
        4
 64
     7
 65
   257
 75
     1
175
     1
 42
1.0
 92
        0
 66
   257
 43
1.0
 76
     1
 77
     6
 78
     2
 67
     7
 79
     3
170
     0
171
     0
290
     0
174
     0
 93
        1
 44
0.0
173
     0
291
     0
 45
0.0
1001
ACAD
1000
AcDbSavedByObjectVersion
1070
     0
  0
VISUALSTYLE
  5
150
102
{ACAD_XDICTIONARY
360
1735
102
}
102
{ACAD_REACTORS
330
99
102
}
330
99
100
AcDbVisualStyle
  2

 70
    25
 71
     2
 72
     2
 73
     1
 90
        1
 40
0.5
 41
-30.0
 62
     5
 63
     7
 74
     1
 91
        0
 64
     7
 65
   257
 75
     1
175
     1
 42
1.0
 92
        8
 66
     7
 43
1.0
 76
     1
 77
     6
 78
     2
 67
     7
 79
     3
170
     0
171
     0
290
     0
174
     0
 93
       13
 44
0.0
173
     0
291
     0
 45
0.0
1001
ACAD
1000
AcDbSavedByObjectVersion
1070
     0
  0
DICTIONARYVAR
  5
24A
102
{ACAD_REACTORS
330
66
102
}
330
66
100
DictionaryVariables
280
     0
  1
1:1
  0
DICTIONARYVAR
  5
248
102
{ACAD_REACTORS
330
66
102
}
330
66
100
DictionaryVariables
280
     0
  1
STANDARD
  0
DICTIONARYVAR
  5
89
102
{ACAD_REACTORS
330
66
102
}
330
66
100
DictionaryVariables
280
     0
  1
STANDARD
  0
DICTIONARYVAR
  5
67
102
{ACAD_REACTORS
330
66
102
}
330
66
100
DictionaryVariables
280
     0
  1
2
  0
DICTIONARYVAR
  5
6B
102
{ACAD_REACTORS
330
66
102
}
330
66
100
DictionaryVariables
280
     0
  1
1
  0
DICTIONARYVAR
  5
8D6
102
{ACAD_REACTORS
330
66
102
}
330
66
100
DictionaryVariables
280
     0
  1
0
  0
DICTIONARYVAR
  5
24C
102
{ACAD_REACTORS
330
66
102
}
330
66
100
DictionaryVariables
280
     0
  1
1
  0
DICTIONARYVAR
  5
24D
102
{ACAD_REACTORS
330
66
102
}
330
66
100
DictionaryVariables
280
     0
  1
15
  0
DICTIONARYVAR
  5
24B
102
{ACAD_REACTORS
330
66
102
}
330
66
100
DictionaryVariables
280
     0
  1
0
  0
DICTIONARYVAR
  5
249
102
{ACAD_REACTORS
330
66
102
}
330
66
100
DictionaryVariables
280
     0
  1
0
  0
DICTIONARYVAR
  5
8D5
102
{ACAD_REACTORS
330
66
102
}
330
66
100
DictionaryVariables
280
     0
  1
127
  0
DICTIONARYVAR
  5
15F7
102
{ACAD_REACTORS
330
66
102
}
330
66
100
DictionaryVariables
280
     0
  1
2
  0
DICTIONARY
  5
1706
330
22
100
AcDbDictionary
280
     1
281
     1
  3
ACAD_XREC_ROUNDTRIP
360
1707
  0
DICTIONARY
  5
1708
330
59
100
AcDbDictionary
280
     1
281
     1
  3
ACAD_XREC_ROUNDTRIP
360
1709
  0
DICTIONARY
  5
170A
330
5E
100
AcDbDictionary
280
     1
281
     1
  3
ACAD_XREC_ROUNDTRIP
360
170B
  0
DICTIONARY
  5
EA5
330
97
100
AcDbDictionary
280
     1
281
     1
  3
ACAD_XREC_ROUNDTRIP
360
EA6
  0
DICTIONARY
  5
EA3
330
96
100
AcDbDictionary
280
     1
281
     1
  3
ACAD_XREC_ROUNDTRIP
360
EA4
  0
DICTIONARY
  5
EA7
330
98
100
AcDbDictionary
280
     1
281
     1
  3
ACAD_XREC_ROUNDTRIP
360
EA8
  0
DICTIONARY
  5
887
330
87
100
AcDbDictionary
280
     1
281
     1
  3
ACAD_ROUNDTRIP_2008_TABLESTYLE_CELLSTYLEMAP
360
16FF
  3
ACAD_XREC_ROUNDTRIP
360
170C
  0
DICTIONARY
  5
1717
330
9F
100
AcDbDictionary
280
     1
281
     1
  3
ACAD_XREC_ROUNDTRIP
360
1718
  0
DICTIONARY
  5
171B
330
A1
100
AcDbDictionary
280
     1
281
     1
  3
ACAD_XREC_ROUNDTRIP
360
171C
  0
DICTIONARY
  5
1719
330
A0
100
AcDbDictionary
280
     1
281
     1
  3
ACAD_XREC_ROUNDTRIP
360
171A
  0
DICTIONARY
  5
1715
330
9E
100
AcDbDictionary
280
     1
281
     1
  3
ACAD_XREC_ROUNDTRIP
360
1716
  0
DICTIONARY
  5
1723
330
A5
100
AcDbDictionary
280
     1
281
     1
  3
ACAD_XREC_ROUNDTRIP
360
1724
  0
DICTIONARY
  5
172B
330
A9
100
AcDbDictionary
280
     1
281
     1
  3
ACAD_XREC_ROUNDTRIP
360
172C
  0
DICTIONARY
  5
171D
330
A2
100
AcDbDictionary
280
     1
281
     1
  3
ACAD_XREC_ROUNDTRIP
360
171E
  0
DICTIONARY
  5
1721
330
A4
100
AcDbDictionary
280
     1
281
     1
  3
ACAD_XREC_ROUNDTRIP
360
1722
  0
DICTIONARY
  5
173F
330
155
100
AcDbDictionary
280
     1
281
     1
  3
ACAD_XREC_ROUNDTRIP
360
1740
  0
DICTIONARY
  5
1729
330
A8
100
AcDbDictionary
280
     1
281
     1
  3
ACAD_XREC_ROUNDTRIP
360
172A
  0
DICTIONARY
  5
170D
330
9A
100
AcDbDictionary
280
     1
281
     1
  3
ACAD_XREC_ROUNDTRIP
360
170E
  0
DICTIONARY
  5
170F
330
9B
100
AcDbDictionary
280
     1
281
     1
  3
ACAD_XREC_ROUNDTRIP
360
1710
  0
DICTIONARY
  5
1711
330
9C
100
AcDbDictionary
280
     1
281
     1
  3
ACAD_XREC_ROUNDTRIP
360
1712
  0
DICTIONARY
  5
1713
330
9D
100
AcDbDictionary
280
     1
281
     1
  3
ACAD_XREC_ROUNDTRIP
360
1714
  0
DICTIONARY
  5
172F
330
14D
100
AcDbDictionary
280
     1
281
     1
  3
ACAD_XREC_ROUNDTRIP
360
1730
  0
DICTIONARY
  5
173B
330
153
100
AcDbDictionary
280
     1
281
     1
  3
ACAD_XREC_ROUNDTRIP
360
173C
  0
DICTIONARY
  5
1727
330
A7
100
AcDbDictionary
280
     1
281
     1
  3
ACAD_XREC_ROUNDTRIP
360
1728
  0
DICTIONARY
  5
173D
330
154
100
AcDbDictionary
280
     1
281
     1
  3
ACAD_XREC_ROUNDTRIP
360
173E
  0
DICTIONARY
  5
171F
330
A3
100
AcDbDictionary
280
     1
281
     1
  3
ACAD_XREC_ROUNDTRIP
360
1720
  0
DICTIONARY
  5
1739
330
152
100
AcDbDictionary
280
     1
281
     1
  3
ACAD_XREC_ROUNDTRIP
360
173A
  0
DICTIONARY
  5
1737
330
151
100
AcDbDictionary
280
     1
281
     1
  3
ACAD_XREC_ROUNDTRIP
360
1738
  0
DICTIONARY
  5
1731
330
14E
100
AcDbDictionary
280
     1
281
     1
  3
ACAD_XREC_ROUNDTRIP
360
1732
  0
DICTIONARY
  5
1733
330
14F
100
AcDbDictionary
280
     1
281
     1
  3
ACAD_XREC_ROUNDTRIP
360
1734
  0
DICTIONARY
  5
1725
330
A6
100
AcDbDictionary
280
     1
281
     1
  3
ACAD_XREC_ROUNDTRIP
360
1726
  0
DICTIONARY
  5
172D
330
14C
100
AcDbDictionary
280
     1
281
     1
  3
ACAD_XREC_ROUNDTRIP
360
172E
  0
DICTIONARY
  5
1735
330
150
100
AcDbDictionary
280
     1
281
     1
  3
ACAD_XREC_ROUNDTRIP
360
1736
  0
XRECORD
  5
1707
102
{ACAD_REACTORS
330
1706
102
}
330
1706
100
AcDbXrecord
280
     1
102
SHADEPLOT
 70
     0
102
SHADEPLOTRESLEVEL
 70
     2
102
SHADEPLOTCUSTOMDPI
 70
   300
  0
XRECORD
  5
1709
102
{ACAD_REACTORS
330
1708
102
}
330
1708
100
AcDbXrecord
280
     1
102
SHADEPLOT
 70
     0
102
SHADEPLOTRESLEVEL
 70
     2
102
SHADEPLOTCUSTOMDPI
 70
   300
  0
XRECORD
  5
170B
102
{ACAD_REACTORS
330
170A
102
}
330
170A
100
AcDbXrecord
280
     1
102
SHADEPLOT
 70
     0
102
SHADEPLOTRESLEVEL
 70
     2
102
SHADEPLOTCUSTOMDPI
 70
   300
  0
XRECORD
  5
EA6
102
{ACAD_REACTORS
330
EA5
102
}
330
EA5
100
AcDbXrecord
280
     1
102
MATERIAL
148
0.0
149
0.0
149
0.0
 93
        0
 94
      127
282
     0
 72
     1
 77
     1
171
     1
175
     1
179
     1
273
     0
  0
XRECORD
  5
EA4
102
{ACAD_REACTORS
330
EA3
102
}
330
EA3
100
AcDbXrecord
280
     1
102
MATERIAL
148
0.0
149
0.0
149
0.0
 93
        0
 94
      127
282
     0
 72
     1
 77
     1
171
     1
175
     1
179
     1
273
     0
  0
XRECORD
  5
EA8
102
{ACAD_REACTORS
330
EA7
102
}
330
EA7
100
AcDbXrecord
280
     1
102
MATERIAL
148
0.0
149
0.0
149
0.0
 93
        0
 94
      127
282
     0
 72
     1
 77
     1
171
     1
175
     1
179
     1
273
     0
  0
CELLSTYLEMAP
  5
16FF
102
{ACAD_REACTORS
330
887
102
}
330
887
100
AcDbCellStyleMap
 90
        3
300
CELLSTYLE
  1
TABLEFORMAT_BEGIN
 90
        5
170
     1
 91
        0
 92
    32768
 62
   257
 93
        1
300
CONTENTFORMAT
  1
CONTENTFORMAT_BEGIN
 90
        0
 91
        0
 92
      512
 93
        0
300

 40
0.0
140
1.0
 94
        5
 62
     0
340
11
144
0.25
309
CONTENTFORMAT_END
171
     1
301
MARGIN
  1
CELLMARGIN_BEGIN
 40
0.06
 40
0.06
 40
0.06
 40
0.06
 40
0.18
 40
0.18
309
CELLMARGIN_END
 94
        6
 95
        1
302
GRIDFORMAT
  1
GRIDFORMAT_BEGIN
 90
        0
 91
        1
 62
     0
 92
       -2
340
0
 93
        0
 40
0.045
309
GRIDFORMAT_END
 95
        2
302
GRIDFORMAT
  1
GRIDFORMAT_BEGIN
 90
        0
 91
        1
 62
     0
 92
       -2
340
0
 93
        0
 40
0.045
309
GRIDFORMAT_END
 95
        4
302
GRIDFORMAT
  1
GRIDFORMAT_BEGIN
 90
        0
 91
        1
 62
     0
 92
       -2
340
0
 93
        0
 40
0.045
309
GRIDFORMAT_END
 95
        8
302
GRIDFORMAT
  1
GRIDFORMAT_BEGIN
 90
        0
 91
        1
 62
     0
 92
       -2
340
0
 93
        0
 40
0.045
309
GRIDFORMAT_END
 95
       16
302
GRIDFORMAT
  1
GRIDFORMAT_BEGIN
 90
        0
 91
        1
 62
     0
 92
       -2
340
0
 93
        0
 40
0.045
309
GRIDFORMAT_END
 95
       32
302
GRIDFORMAT
  1
GRIDFORMAT_BEGIN
 90
        0
 91
        1
 62
     0
 92
       -2
340
0
 93
        0
 40
0.045
309
GRIDFORMAT_END
309
TABLEFORMAT_END
  1
CELLSTYLE_BEGIN
 90
        1
 91
        1
300
_TITLE
309
CELLSTYLE_END
300
CELLSTYLE
  1
TABLEFORMAT_BEGIN
 90
        5
170
     1
 91
        0
 92
        0
 62
   257
 93
        1
300
CONTENTFORMAT
  1
CONTENTFORMAT_BEGIN
 90
        0
 91
        0
 92
      512
 93
        0
300

 40
0.0
140
1.0
 94
        5
 62
     0
340
11
144
0.18
309
CONTENTFORMAT_END
171
     1
301
MARGIN
  1
CELLMARGIN_BEGIN
 40
0.06
 40
0.06
 40
0.06
 40
0.06
 40
0.18
 40
0.18
309
CELLMARGIN_END
 94
        6
 95
        1
302
GRIDFORMAT
  1
GRIDFORMAT_BEGIN
 90
        0
 91
        1
 62
     0
 92
       -2
340
0
 93
        0
 40
0.045
309
GRIDFORMAT_END
 95
        2
302
GRIDFORMAT
  1
GRIDFORMAT_BEGIN
 90
        0
 91
        1
 62
     0
 92
       -2
340
0
 93
        0
 40
0.045
309
GRIDFORMAT_END
 95
        4
302
GRIDFORMAT
  1
GRIDFORMAT_BEGIN
 90
        0
 91
        1
 62
     0
 92
       -2
340
0
 93
        0
 40
0.045
309
GRIDFORMAT_END
 95
        8
302
GRIDFORMAT
  1
GRIDFORMAT_BEGIN
 90
        0
 91
        1
 62
     0
 92
       -2
340
0
 93
        0
 40
0.045
309
GRIDFORMAT_END
 95
       16
302
GRIDFORMAT
  1
GRIDFORMAT_BEGIN
 90
        0
 91
        1
 62
     0
 92
       -2
340
0
 93
        0
 40
0.045
309
GRIDFORMAT_END
 95
       32
302
GRIDFORMAT
  1
GRIDFORMAT_BEGIN
 90
        0
 91
        1
 62
     0
 92
       -2
340
0
 93
        0
 40
0.045
309
GRIDFORMAT_END
309
TABLEFORMAT_END
  1
CELLSTYLE_BEGIN
 90
        2
 91
        1
300
_HEADER
309
CELLSTYLE_END
300
CELLSTYLE
  1
TABLEFORMAT_BEGIN
 90
        5
170
     1
 91
        0
 92
        0
 62
   257
 93
        1
300
CONTENTFORMAT
  1
CONTENTFORMAT_BEGIN
 90
        0
 91
        0
 92
      512
 93
        0
300

 40
0.0
140
1.0
 94
        2
 62
     0
340
11
144
0.18
309
CONTENTFORMAT_END
171
     1
301
MARGIN
  1
CELLMARGIN_BEGIN
 40
0.06
 40
0.06
 40
0.06
 40
0.06
 40
0.18
 40
0.18
309
CELLMARGIN_END
 94
        6
 95
        1
302
GRIDFORMAT
  1
GRIDFORMAT_BEGIN
 90
        0
 91
        1
 62
     0
 92
       -2
340
0
 93
        0
 40
0.045
309
GRIDFORMAT_END
 95
        2
302
GRIDFORMAT
  1
GRIDFORMAT_BEGIN
 90
        0
 91
        1
 62
     0
 92
       -2
340
0
 93
        0
 40
0.045
309
GRIDFORMAT_END
 95
        4
302
GRIDFORMAT
  1
GRIDFORMAT_BEGIN
 90
        0
 91
        1
 62
     0
 92
       -2
340
0
 93
        0
 40
0.045
309
GRIDFORMAT_END
 95
        8
302
GRIDFORMAT
  1
GRIDFORMAT_BEGIN
 90
        0
 91
        1
 62
     0
 92
       -2
340
0
 93
        0
 40
0.045
309
GRIDFORMAT_END
 95
       16
302
GRIDFORMAT
  1
GRIDFORMAT_BEGIN
 90
        0
 91
        1
 62
     0
 92
       -2
340
0
 93
        0
 40
0.045
309
GRIDFORMAT_END
 95
       32
302
GRIDFORMAT
  1
GRIDFORMAT_BEGIN
 90
        0
 91
        1
 62
     0
 92
       -2
340
0
 93
        0
 40
0.045
309
GRIDFORMAT_END
309
TABLEFORMAT_END
  1
CELLSTYLE_BEGIN
 90
        3
 91
        2
300
_DATA
309
CELLSTYLE_END
  0
XRECORD
  5
170C
102
{ACAD_REACTORS
330
887
102
}
330
887
100
AcDbXrecord
280
     1
102
ACAD_ROUNDTRIP_PRE2007_TABLESTYLE
 90
      512
 91
        0
  1

 92
      512
 93
        0
  2

 94
      512
 95
        0
  3

  0
XRECORD
  5
1718
102
{ACAD_REACTORS
330
1717
102
}
330
1717
100
AcDbXrecord
280
     1
102
RTVSPropertyOp0
 70
     1
102
RTVSPropertyOp1
 70
     1
102
RTVSPropertyOp2
 70
     1
102
RTVSPropertyOp3
 70
     1
102
RTVSPropertyOp4
 70
     1
102
RTVSPropertyOp5
 70
     1
102
RTVSPropertyOp6
 70
     1
102
RTVSPropertyOp7
 70
     1
102
RTVSPropertyOp8
 70
     1
102
RTVSPropertyOp9
 70
     1
102
RTVSPropertyOp10
 70
     1
102
RTVSPropertyOp11
 70
     1
102
RTVSPropertyOp12
 70
     1
102
RTVSPropertyOp13
 70
     1
102
RTVSPropertyOp14
 70
     1
102
RTVSPropertyOp15
 70
     1
102
RTVSPropertyOp16
 70
     1
102
RTVSPropertyOp17
 70
     1
102
RTVSPropertyOp18
 70
     1
102
RTVSPropertyOp19
 70
     1
102
RTVSPropertyOp20
 70
     1
102
RTVSPropertyOp21
 70
     1
102
RTVSPropertyOp22
 70
     1
102
RTVSPropertyOp23
 70
     1
102
RTVSPropertyOp24
 70
     1
102
RTVSPropertyOp25
 70
     1
102
RTVSPropertyOp26
 70
     1
102
RTVSPropertyOp27
 70
     1
102
RTVSPropertyOp28
 70
     1
102
RTVSPropertyOp29
 70
     1
102
RTVSPropertyOp30
 70
     1
102
RTVSPropertyOp31
 70
     1
102
RTVSPropertyOp32
 70
     1
  0
XRECORD
  5
171C
102
{ACAD_REACTORS
330
171B
102
}
330
171B
100
AcDbXrecord
280
     1
102
RTVSPropertyOp0
 70
     1
102
RTVSPropertyOp1
 70
     1
102
RTVSPropertyOp2
 70
     1
102
RTVSPropertyOp3
 70
     1
102
RTVSPropertyOp4
 70
     1
102
RTVSPropertyOp5
 70
     1
102
RTVSPropertyOp6
 70
     1
102
RTVSPropertyOp7
 70
     1
102
RTVSPropertyOp8
 70
     1
102
RTVSPropertyOp9
 70
     1
102
RTVSPropertyOp10
 70
     1
102
RTVSPropertyOp11
 70
     1
102
RTVSPropertyOp12
 70
     1
102
RTVSPropertyOp13
 70
     1
102
RTVSPropertyOp14
 70
     1
102
RTVSPropertyOp15
 70
     1
102
RTVSPropertyOp16
 70
     1
102
RTVSPropertyOp17
 70
     1
102
RTVSPropertyOp18
 70
     1
102
RTVSPropertyOp19
 70
     1
102
RTVSPropertyOp20
 70
     1
102
RTVSPropertyOp21
 70
     1
102
RTVSPropertyOp22
 70
     1
102
RTVSPropertyOp23
 70
     1
102
RTVSPropertyOp24
 70
     1
102
RTVSPropertyOp25
 70
     1
102
RTVSPropertyOp26
 70
     1
102
RTVSPropertyOp27
 70
     1
102
RTVSPropertyOp28
 70
     1
102
RTVSPropertyOp29
 70
     1
102
RTVSPropertyOp30
 70
     1
102
RTVSPropertyOp31
 70
     1
102
RTVSPropertyOp32
 70
     1
  0
XRECORD
  5
171A
102
{ACAD_REACTORS
330
1719
102
}
330
1719
100
AcDbXrecord
280
     1
102
RTVSPropertyOp0
 70
     1
102
RTVSPropertyOp1
 70
     1
102
RTVSPropertyOp2
 70
     1
102
RTVSPropertyOp3
 70
     1
102
RTVSPropertyOp4
 70
     1
102
RTVSPropertyOp5
 70
     1
102
RTVSPropertyOp6
 70
     1
102
RTVSPropertyOp7
 70
     1
102
RTVSPropertyOp8
 70
     1
102
RTVSPropertyOp9
 70
     1
102
RTVSPropertyOp10
 70
     1
102
RTVSPropertyOp11
 70
     1
102
RTVSPropertyOp12
 70
     1
102
RTVSPropertyOp13
 70
     1
102
RTVSPropertyOp14
 70
     1
102
RTVSPropertyOp15
 70
     1
102
RTVSPropertyOp16
 70
     1
102
RTVSPropertyOp17
 70
     1
102
RTVSPropertyOp18
 70
     1
102
RTVSPropertyOp19
 70
     1
102
RTVSPropertyOp20
 70
     1
102
RTVSPropertyOp21
 70
     1
102
RTVSPropertyOp22
 70
     1
102
RTVSPropertyOp23
 70
     1
102
RTVSPropertyOp24
 70
     1
102
RTVSPropertyOp25
 70
     1
102
RTVSPropertyOp26
 70
     1
102
RTVSPropertyOp27
 70
     1
102
RTVSPropertyOp28
 70
     1
102
RTVSPropertyOp29
 70
     1
102
RTVSPropertyOp30
 70
     1
102
RTVSPropertyOp31
 70
     1
102
RTVSPropertyOp32
 70
     1
  0
XRECORD
  5
1716
102
{ACAD_REACTORS
330
1715
102
}
330
1715
100
AcDbXrecord
280
     1
102
RTVSPropertyOp0
 70
     1
102
RTVSPropertyOp1
 70
     1
102
RTVSPropertyOp2
 70
     1
102
RTVSPropertyOp3
 70
     1
102
RTVSPropertyOp4
 70
     1
102
RTVSPropertyOp5
 70
     1
102
RTVSPropertyOp6
 70
     1
102
RTVSPropertyOp7
 70
     1
102
RTVSPropertyOp8
 70
     1
102
RTVSPropertyOp9
 70
     1
102
RTVSPropertyOp10
 70
     1
102
RTVSPropertyOp11
 70
     1
102
RTVSPropertyOp12
 70
     1
102
RTVSPropertyOp13
 70
     1
102
RTVSPropertyOp14
 70
     1
102
RTVSPropertyOp15
 70
     1
102
RTVSPropertyOp16
 70
     1
102
RTVSPropertyOp17
 70
     1
102
RTVSPropertyOp18
 70
     1
102
RTVSPropertyOp19
 70
     1
102
RTVSPropertyOp20
 70
     1
102
RTVSPropertyOp21
 70
     1
102
RTVSPropertyOp22
 70
     1
102
RTVSPropertyOp23
 70
     1
102
RTVSPropertyOp24
 70
     1
102
RTVSPropertyOp25
 70
     1
102
RTVSPropertyOp26
 70
     1
102
RTVSPropertyOp27
 70
     1
102
RTVSPropertyOp28
 70
     1
102
RTVSPropertyOp29
 70
     1
102
RTVSPropertyOp30
 70
     1
102
RTVSPropertyOp31
 70
     1
102
RTVSPropertyOp32
 70
     1
  0
XRECORD
  5
1724
102
{ACAD_REACTORS
330
1723
102
}
330
1723
100
AcDbXrecord
280
     1
102
RTVSPropertyOp0
 70
     1
102
RTVSPropertyOp1
 70
     1
102
RTVSPropertyOp2
 70
     1
102
RTVSPropertyOp3
 70
     1
102
RTVSPropertyOp4
 70
     1
102
RTVSPropertyOp5
 70
     1
102
RTVSPropertyOp6
 70
     1
102
RTVSPropertyOp7
 70
     1
102
RTVSPropertyOp8
 70
     1
102
RTVSPropertyOp9
 70
     1
102
RTVSPropertyOp10
 70
     1
102
RTVSPropertyOp11
 70
     1
102
RTVSPropertyOp12
 70
     1
102
RTVSPropertyOp13
 70
     1
102
RTVSPropertyOp14
 70
     1
102
RTVSPropertyOp15
 70
     1
102
RTVSPropertyOp16
 70
     1
102
RTVSPropertyOp17
 70
     1
102
RTVSPropertyOp18
 70
     1
102
RTVSPropertyOp19
 70
     1
102
RTVSPropertyOp20
 70
     1
102
RTVSPropertyOp21
 70
     1
102
RTVSPropertyOp22
 70
     1
102
RTVSPropertyOp23
 70
     1
102
RTVSPropertyOp24
 70
     1
102
RTVSPropertyOp25
 70
     1
102
RTVSPropertyOp26
 70
     1
102
RTVSPropertyOp27
 70
     1
102
RTVSPropertyOp28
 70
     1
102
RTVSPropertyOp29
 70
     1
102
RTVSPropertyOp30
 70
     1
102
RTVSPropertyOp31
 70
     1
102
RTVSPropertyOp32
 70
     1
  0
XRECORD
  5
172C
102
{ACAD_REACTORS
330
172B
102
}
330
172B
100
AcDbXrecord
280
     1
102
RTVSPropertyOp0
 70
     1
102
RTVSPropertyOp1
 70
     1
102
RTVSPropertyOp2
 70
     1
102
RTVSPropertyOp3
 70
     1
102
RTVSPropertyOp4
 70
     1
102
RTVSPropertyOp5
 70
     1
102
RTVSPropertyOp6
 70
     1
102
RTVSPropertyOp7
 70
     1
102
RTVSPropertyOp8
 70
     1
102
RTVSPropertyOp9
 70
     1
102
RTVSPropertyOp10
 70
     1
102
RTVSPropertyOp11
 70
     1
102
RTVSPropertyOp12
 70
     1
102
RTVSPropertyOp13
 70
     1
102
RTVSPropertyOp14
 70
     1
102
RTVSPropertyOp15
 70
     1
102
RTVSPropertyOp16
 70
     1
102
RTVSPropertyOp17
 70
     1
102
RTVSPropertyOp18
 70
     1
102
RTVSPropertyOp19
 70
     1
102
RTVSPropertyOp20
 70
     1
102
RTVSPropertyOp21
 70
     1
102
RTVSPropertyOp22
 70
     1
102
RTVSPropertyOp23
 70
     1
102
RTVSPropertyOp24
 70
     1
102
RTVSPropertyOp25
 70
     1
102
RTVSPropertyOp26
 70
     1
102
RTVSPropertyOp27
 70
     1
102
RTVSPropertyOp28
 70
     1
102
RTVSPropertyOp29
 70
     1
102
RTVSPropertyOp30
 70
     1
102
RTVSPropertyOp31
 70
     1
102
RTVSPropertyOp32
 70
     1
  0
XRECORD
  5
171E
102
{ACAD_REACTORS
330
171D
102
}
330
171D
100
AcDbXrecord
280
     1
102
RTVSPropertyOp0
 70
     1
102
RTVSPropertyOp1
 70
     1
102
RTVSPropertyOp2
 70
     1
102
RTVSPropertyOp3
 70
     1
102
RTVSPropertyOp4
 70
     1
102
RTVSPropertyOp5
 70
     1
102
RTVSPropertyOp6
 70
     1
102
RTVSPropertyOp7
 70
     1
102
RTVSPropertyOp8
 70
     1
102
RTVSPropertyOp9
 70
     1
102
RTVSPropertyOp10
 70
     1
102
RTVSPropertyOp11
 70
     1
102
RTVSPropertyOp12
 70
     1
102
RTVSPropertyOp13
 70
     1
102
RTVSPropertyOp14
 70
     1
102
RTVSPropertyOp15
 70
     1
102
RTVSPropertyOp16
 70
     1
102
RTVSPropertyOp17
 70
     1
102
RTVSPropertyOp18
 70
     1
102
RTVSPropertyOp19
 70
     1
102
RTVSPropertyOp20
 70
     1
102
RTVSPropertyOp21
 70
     1
102
RTVSPropertyOp22
 70
     1
102
RTVSPropertyOp23
 70
     1
102
RTVSPropertyOp24
 70
     1
102
RTVSPropertyOp25
 70
     1
102
RTVSPropertyOp26
 70
     1
102
RTVSPropertyOp27
 70
     1
102
RTVSPropertyOp28
 70
     1
102
RTVSPropertyOp29
 70
     1
102
RTVSPropertyOp30
 70
     1
102
RTVSPropertyOp31
 70
     1
102
RTVSPropertyOp32
 70
     1
  0
XRECORD
  5
1722
102
{ACAD_REACTORS
330
1721
102
}
330
1721
100
AcDbXrecord
280
     1
102
RTVSPropertyOp0
 70
     1
102
RTVSPropertyOp1
 70
     1
102
RTVSPropertyOp2
 70
     1
102
RTVSPropertyOp3
 70
     1
102
RTVSPropertyOp4
 70
     1
102
RTVSPropertyOp5
 70
     1
102
RTVSPropertyOp6
 70
     1
102
RTVSPropertyOp7
 70
     1
102
RTVSPropertyOp8
 70
     1
102
RTVSPropertyOp9
 70
     1
102
RTVSPropertyOp10
 70
     1
102
RTVSPropertyOp11
 70
     1
102
RTVSPropertyOp12
 70
     1
102
RTVSPropertyOp13
 70
     1
102
RTVSPropertyOp14
 70
     1
102
RTVSPropertyOp15
 70
     1
102
RTVSPropertyOp16
 70
     1
102
RTVSPropertyOp17
 70
     1
102
RTVSPropertyOp18
 70
     1
102
RTVSPropertyOp19
 70
     1
102
RTVSPropertyOp20
 70
     1
102
RTVSPropertyOp21
 70
     1
102
RTVSPropertyOp22
 70
     1
102
RTVSPropertyOp23
 70
     1
102
RTVSPropertyOp24
 70
     1
102
RTVSPropertyOp25
 70
     1
102
RTVSPropertyOp26
 70
     1
102
RTVSPropertyOp27
 70
     1
102
RTVSPropertyOp28
 70
     1
102
RTVSPropertyOp29
 70
     1
102
RTVSPropertyOp30
 70
     1
102
RTVSPropertyOp31
 70
     1
102
RTVSPropertyOp32
 70
     1
  0
XRECORD
  5
1740
102
{ACAD_REACTORS
330
173F
102
}
330
173F
100
AcDbXrecord
280
     1
102
RTVSPropertyOp0
 70
     0
102
RTVSPropertyOp1
 70
     0
102
RTVSPropertyOp2
 70
     0
102
RTVSPropertyOp3
 70
     0
102
RTVSPropertyOp4
 70
     0
102
RTVSPropertyOp5
 70
     0
102
RTVSPropertyOp6
 70
     0
102
RTVSPropertyOp7
 70
     0
102
RTVSPropertyOp8
 70
     0
102
RTVSPropertyOp9
 70
     0
102
RTVSPropertyOp10
 70
     0
102
RTVSPropertyOp11
 70
     0
102
RTVSPropertyOp12
 70
     0
102
RTVSPropertyOp13
 70
     0
102
RTVSPropertyOp14
 70
     2
102
RTVSPropertyOp15
 70
     0
102
RTVSPropertyOp16
 70
     0
102
RTVSPropertyOp17
 70
     0
102
RTVSPropertyOp18
 70
     0
102
RTVSPropertyOp19
 70
     0
102
RTVSPropertyOp20
 70
     0
102
RTVSPropertyOp21
 70
     0
102
RTVSPropertyOp22
 70
     0
102
RTVSPropertyOp23
 70
     0
102
RTVSPropertyOp24
 70
     0
102
RTVSPropertyOp25
 70
     0
102
RTVSPropertyOp26
 70
     0
102
RTVSPropertyOp27
 70
     0
102
RTVSPropertyOp28
 70
     1
102
RTVSPropertyOp29
 70
     1
102
RTVSPropertyOp30
 70
     1
102
RTVSPropertyOp31
 70
     1
102
RTVSPropertyOp32
 70
     1
  0
XRECORD
  5
172A
102
{ACAD_REACTORS
330
1729
102
}
330
1729
100
AcDbXrecord
280
     1
102
RTVSPropertyOp0
 70
     1
102
RTVSPropertyOp1
 70
     1
102
RTVSPropertyOp2
 70
     1
102
RTVSPropertyOp3
 70
     1
102
RTVSPropertyOp4
 70
     1
102
RTVSPropertyOp5
 70
     1
102
RTVSPropertyOp6
 70
     1
102
RTVSPropertyOp7
 70
     1
102
RTVSPropertyOp8
 70
     1
102
RTVSPropertyOp9
 70
     1
102
RTVSPropertyOp10
 70
     1
102
RTVSPropertyOp11
 70
     1
102
RTVSPropertyOp12
 70
     1
102
RTVSPropertyOp13
 70
     1
102
RTVSPropertyOp14
 70
     1
102
RTVSPropertyOp15
 70
     1
102
RTVSPropertyOp16
 70
     1
102
RTVSPropertyOp17
 70
     1
102
RTVSPropertyOp18
 70
     1
102
RTVSPropertyOp19
 70
     1
102
RTVSPropertyOp20
 70
     1
102
RTVSPropertyOp21
 70
     1
102
RTVSPropertyOp22
 70
     1
102
RTVSPropertyOp23
 70
     1
102
RTVSPropertyOp24
 70
     1
102
RTVSPropertyOp25
 70
     1
102
RTVSPropertyOp26
 70
     1
102
RTVSPropertyOp27
 70
     1
102
RTVSPropertyOp28
 70
     1
102
RTVSPropertyOp29
 70
     1
102
RTVSPropertyOp30
 70
     1
102
RTVSPropertyOp31
 70
     1
102
RTVSPropertyOp32
 70
     1
  0
XRECORD
  5
170E
102
{ACAD_REACTORS
330
170D
102
}
330
170D
100
AcDbXrecord
280
     1
102
RTVSPropertyOp0
 70
     1
102
RTVSPropertyOp1
 70
     1
102
RTVSPropertyOp2
 70
     1
102
RTVSPropertyOp3
 70
     1
102
RTVSPropertyOp4
 70
     1
102
RTVSPropertyOp5
 70
     1
102
RTVSPropertyOp6
 70
     1
102
RTVSPropertyOp7
 70
     1
102
RTVSPropertyOp8
 70
     1
102
RTVSPropertyOp9
 70
     1
102
RTVSPropertyOp10
 70
     1
102
RTVSPropertyOp11
 70
     1
102
RTVSPropertyOp12
 70
     1
102
RTVSPropertyOp13
 70
     1
102
RTVSPropertyOp14
 70
     1
102
RTVSPropertyOp15
 70
     1
102
RTVSPropertyOp16
 70
     1
102
RTVSPropertyOp17
 70
     1
102
RTVSPropertyOp18
 70
     1
102
RTVSPropertyOp19
 70
     1
102
RTVSPropertyOp20
 70
     1
102
RTVSPropertyOp21
 70
     1
102
RTVSPropertyOp22
 70
     1
102
RTVSPropertyOp23
 70
     1
102
RTVSPropertyOp24
 70
     1
102
RTVSPropertyOp25
 70
     1
102
RTVSPropertyOp26
 70
     1
102
RTVSPropertyOp27
 70
     1
102
RTVSPropertyOp28
 70
     1
102
RTVSPropertyOp29
 70
     1
102
RTVSPropertyOp30
 70
     1
102
RTVSPropertyOp31
 70
     1
102
RTVSPropertyOp32
 70
     1
  0
XRECORD
  5
1710
102
{ACAD_REACTORS
330
170F
102
}
330
170F
100
AcDbXrecord
280
     1
102
RTVSPropertyOp0
 70
     1
102
RTVSPropertyOp1
 70
     1
102
RTVSPropertyOp2
 70
     1
102
RTVSPropertyOp3
 70
     1
102
RTVSPropertyOp4
 70
     1
102
RTVSPropertyOp5
 70
     1
102
RTVSPropertyOp6
 70
     1
102
RTVSPropertyOp7
 70
     1
102
RTVSPropertyOp8
 70
     1
102
RTVSPropertyOp9
 70
     1
102
RTVSPropertyOp10
 70
     1
102
RTVSPropertyOp11
 70
     1
102
RTVSPropertyOp12
 70
     1
102
RTVSPropertyOp13
 70
     1
102
RTVSPropertyOp14
 70
     1
102
RTVSPropertyOp15
 70
     1
102
RTVSPropertyOp16
 70
     1
102
RTVSPropertyOp17
 70
     1
102
RTVSPropertyOp18
 70
     1
102
RTVSPropertyOp19
 70
     1
102
RTVSPropertyOp20
 70
     1
102
RTVSPropertyOp21
 70
     1
102
RTVSPropertyOp22
 70
     1
102
RTVSPropertyOp23
 70
     1
102
RTVSPropertyOp24
 70
     1
102
RTVSPropertyOp25
 70
     1
102
RTVSPropertyOp26
 70
     1
102
RTVSPropertyOp27
 70
     1
102
RTVSPropertyOp28
 70
     1
102
RTVSPropertyOp29
 70
     1
102
RTVSPropertyOp30
 70
     1
102
RTVSPropertyOp31
 70
     1
102
RTVSPropertyOp32
 70
     1
  0
XRECORD
  5
1712
102
{ACAD_REACTORS
330
1711
102
}
330
1711
100
AcDbXrecord
280
     1
102
RTVSPropertyOp0
 70
     1
102
RTVSPropertyOp1
 70
     1
102
RTVSPropertyOp2
 70
     1
102
RTVSPropertyOp3
 70
     1
102
RTVSPropertyOp4
 70
     1
102
RTVSPropertyOp5
 70
     1
102
RTVSPropertyOp6
 70
     1
102
RTVSPropertyOp7
 70
     1
102
RTVSPropertyOp8
 70
     1
102
RTVSPropertyOp9
 70
     1
102
RTVSPropertyOp10
 70
     1
102
RTVSPropertyOp11
 70
     1
102
RTVSPropertyOp12
 70
     1
102
RTVSPropertyOp13
 70
     1
102
RTVSPropertyOp14
 70
     1
102
RTVSPropertyOp15
 70
     1
102
RTVSPropertyOp16
 70
     1
102
RTVSPropertyOp17
 70
     1
102
RTVSPropertyOp18
 70
     1
102
RTVSPropertyOp19
 70
     1
102
RTVSPropertyOp20
 70
     1
102
RTVSPropertyOp21
 70
     1
102
RTVSPropertyOp22
 70
     1
102
RTVSPropertyOp23
 70
     1
102
RTVSPropertyOp24
 70
     1
102
RTVSPropertyOp25
 70
     1
102
RTVSPropertyOp26
 70
     1
102
RTVSPropertyOp27
 70
     1
102
RTVSPropertyOp28
 70
     1
102
RTVSPropertyOp29
 70
     1
102
RTVSPropertyOp30
 70
     1
102
RTVSPropertyOp31
 70
     1
102
RTVSPropertyOp32
 70
     1
  0
XRECORD
  5
1714
102
{ACAD_REACTORS
330
1713
102
}
330
1713
100
AcDbXrecord
280
     1
102
RTVSPropertyOp0
 70
     1
102
RTVSPropertyOp1
 70
     1
102
RTVSPropertyOp2
 70
     1
102
RTVSPropertyOp3
 70
     1
102
RTVSPropertyOp4
 70
     1
102
RTVSPropertyOp5
 70
     1
102
RTVSPropertyOp6
 70
     1
102
RTVSPropertyOp7
 70
     1
102
RTVSPropertyOp8
 70
     1
102
RTVSPropertyOp9
 70
     1
102
RTVSPropertyOp10
 70
     1
102
RTVSPropertyOp11
 70
     1
102
RTVSPropertyOp12
 70
     1
102
RTVSPropertyOp13
 70
     1
102
RTVSPropertyOp14
 70
     1
102
RTVSPropertyOp15
 70
     1
102
RTVSPropertyOp16
 70
     1
102
RTVSPropertyOp17
 70
     1
102
RTVSPropertyOp18
 70
     1
102
RTVSPropertyOp19
 70
     1
102
RTVSPropertyOp20
 70
     1
102
RTVSPropertyOp21
 70
     1
102
RTVSPropertyOp22
 70
     1
102
RTVSPropertyOp23
 70
     1
102
RTVSPropertyOp24
 70
     1
102
RTVSPropertyOp25
 70
     1
102
RTVSPropertyOp26
 70
     1
102
RTVSPropertyOp27
 70
     1
102
RTVSPropertyOp28
 70
     1
102
RTVSPropertyOp29
 70
     1
102
RTVSPropertyOp30
 70
     1
102
RTVSPropertyOp31
 70
     1
102
RTVSPropertyOp32
 70
     1
  0
XRECORD
  5
1730
102
{ACAD_REACTORS
330
172F
102
}
330
172F
100
AcDbXrecord
280
     1
102
RTVSPropertyOp0
 70
     1
102
RTVSPropertyOp1
 70
     1
102
RTVSPropertyOp2
 70
     1
102
RTVSPropertyOp3
 70
     1
102
RTVSPropertyOp4
 70
     1
102
RTVSPropertyOp5
 70
     1
102
RTVSPropertyOp6
 70
     1
102
RTVSPropertyOp7
 70
     1
102
RTVSPropertyOp8
 70
     1
102
RTVSPropertyOp9
 70
     1
102
RTVSPropertyOp10
 70
     1
102
RTVSPropertyOp11
 70
     1
102
RTVSPropertyOp12
 70
     1
102
RTVSPropertyOp13
 70
     1
102
RTVSPropertyOp14
 70
     1
102
RTVSPropertyOp15
 70
     1
102
RTVSPropertyOp16
 70
     1
102
RTVSPropertyOp17
 70
     1
102
RTVSPropertyOp18
 70
     1
102
RTVSPropertyOp19
 70
     1
102
RTVSPropertyOp20
 70
     1
102
RTVSPropertyOp21
 70
     1
102
RTVSPropertyOp22
 70
     1
102
RTVSPropertyOp23
 70
     1
102
RTVSPropertyOp24
 70
     1
102
RTVSPropertyOp25
 70
     1
102
RTVSPropertyOp26
 70
     1
102
RTVSPropertyOp27
 70
     1
102
RTVSPropertyOp28
 70
     1
102
RTVSPropertyOp29
 70
     1
102
RTVSPropertyOp30
 70
     1
102
RTVSPropertyOp31
 70
     1
102
RTVSPropertyOp32
 70
     1
  0
XRECORD
  5
173C
102
{ACAD_REACTORS
330
173B
102
}
330
173B
100
AcDbXrecord
280
     1
102
RTVSPropertyOp0
 70
     0
102
RTVSPropertyOp1
 70
     0
102
RTVSPropertyOp2
 70
     0
102
RTVSPropertyOp3
 70
     0
102
RTVSPropertyOp4
 70
     0
102
RTVSPropertyOp5
 70
     0
102
RTVSPropertyOp6
 70
     0
102
RTVSPropertyOp7
 70
     0
102
RTVSPropertyOp8
 70
     0
102
RTVSPropertyOp9
 70
     0
102
RTVSPropertyOp10
 70
     0
102
RTVSPropertyOp11
 70
     0
102
RTVSPropertyOp12
 70
     0
102
RTVSPropertyOp13
 70
     0
102
RTVSPropertyOp14
 70
     2
102
RTVSPropertyOp15
 70
     0
102
RTVSPropertyOp16
 70
     0
102
RTVSPropertyOp17
 70
     0
102
RTVSPropertyOp18
 70
     0
102
RTVSPropertyOp19
 70
     0
102
RTVSPropertyOp20
 70
     0
102
RTVSPropertyOp21
 70
     0
102
RTVSPropertyOp22
 70
     0
102
RTVSPropertyOp23
 70
     0
102
RTVSPropertyOp24
 70
     0
102
RTVSPropertyOp25
 70
     0
102
RTVSPropertyOp26
 70
     0
102
RTVSPropertyOp27
 70
     0
102
RTVSPropertyOp28
 70
     1
102
RTVSPropertyOp29
 70
     1
102
RTVSPropertyOp30
 70
     1
102
RTVSPropertyOp31
 70
     1
102
RTVSPropertyOp32
 70
     1
  0
XRECORD
  5
1728
102
{ACAD_REACTORS
330
1727
102
}
330
1727
100
AcDbXrecord
280
     1
102
RTVSPropertyOp0
 70
     1
102
RTVSPropertyOp1
 70
     1
102
RTVSPropertyOp2
 70
     1
102
RTVSPropertyOp3
 70
     1
102
RTVSPropertyOp4
 70
     1
102
RTVSPropertyOp5
 70
     1
102
RTVSPropertyOp6
 70
     1
102
RTVSPropertyOp7
 70
     1
102
RTVSPropertyOp8
 70
     1
102
RTVSPropertyOp9
 70
     1
102
RTVSPropertyOp10
 70
     1
102
RTVSPropertyOp11
 70
     1
102
RTVSPropertyOp12
 70
     1
102
RTVSPropertyOp13
 70
     1
102
RTVSPropertyOp14
 70
     1
102
RTVSPropertyOp15
 70
     1
102
RTVSPropertyOp16
 70
     1
102
RTVSPropertyOp17
 70
     1
102
RTVSPropertyOp18
 70
     1
102
RTVSPropertyOp19
 70
     1
102
RTVSPropertyOp20
 70
     1
102
RTVSPropertyOp21
 70
     1
102
RTVSPropertyOp22
 70
     1
102
RTVSPropertyOp23
 70
     1
102
RTVSPropertyOp24
 70
     1
102
RTVSPropertyOp25
 70
     1
102
RTVSPropertyOp26
 70
     1
102
RTVSPropertyOp27
 70
     1
102
RTVSPropertyOp28
 70
     1
102
RTVSPropertyOp29
 70
     1
102
RTVSPropertyOp30
 70
     1
102
RTVSPropertyOp31
 70
     1
102
RTVSPropertyOp32
 70
     1
  0
XRECORD
  5
173E
102
{ACAD_REACTORS
330
173D
102
}
330
173D
100
AcDbXrecord
280
     1
102
RTVSPropertyOp0
 70
     0
102
RTVSPropertyOp1
 70
     0
102
RTVSPropertyOp2
 70
     0
102
RTVSPropertyOp3
 70
     0
102
RTVSPropertyOp4
 70
     0
102
RTVSPropertyOp5
 70
     0
102
RTVSPropertyOp6
 70
     0
102
RTVSPropertyOp7
 70
     0
102
RTVSPropertyOp8
 70
     0
102
RTVSPropertyOp9
 70
     0
102
RTVSPropertyOp10
 70
     0
102
RTVSPropertyOp11
 70
     0
102
RTVSPropertyOp12
 70
     0
102
RTVSPropertyOp13
 70
     0
102
RTVSPropertyOp14
 70
     2
102
RTVSPropertyOp15
 70
     0
102
RTVSPropertyOp16
 70
     0
102
RTVSPropertyOp17
 70
     0
102
RTVSPropertyOp18
 70
     0
102
RTVSPropertyOp19
 70
     0
102
RTVSPropertyOp20
 70
     0
102
RTVSPropertyOp21
 70
     0
102
RTVSPropertyOp22
 70
     0
102
RTVSPropertyOp23
 70
     0
102
RTVSPropertyOp24
 70
     0
102
RTVSPropertyOp25
 70
     0
102
RTVSPropertyOp26
 70
     0
102
RTVSPropertyOp27
 70
     0
102
RTVSPropertyOp28
 70
     1
102
RTVSPropertyOp29
 70
     1
102
RTVSPropertyOp30
 70
     1
102
RTVSPropertyOp31
 70
     1
102
RTVSPropertyOp32
 70
     1
  0
XRECORD
  5
1720
102
{ACAD_REACTORS
330
171F
102
}
330
171F
100
AcDbXrecord
280
     1
102
RTVSPropertyOp0
 70
     1
102
RTVSPropertyOp1
 70
     1
102
RTVSPropertyOp2
 70
     1
102
RTVSPropertyOp3
 70
     1
102
RTVSPropertyOp4
 70
     1
102
RTVSPropertyOp5
 70
     1
102
RTVSPropertyOp6
 70
     1
102
RTVSPropertyOp7
 70
     1
102
RTVSPropertyOp8
 70
     1
102
RTVSPropertyOp9
 70
     1
102
RTVSPropertyOp10
 70
     1
102
RTVSPropertyOp11
 70
     1
102
RTVSPropertyOp12
 70
     1
102
RTVSPropertyOp13
 70
     1
102
RTVSPropertyOp14
 70
     1
102
RTVSPropertyOp15
 70
     1
102
RTVSPropertyOp16
 70
     1
102
RTVSPropertyOp17
 70
     1
102
RTVSPropertyOp18
 70
     1
102
RTVSPropertyOp19
 70
     1
102
RTVSPropertyOp20
 70
     1
102
RTVSPropertyOp21
 70
     1
102
RTVSPropertyOp22
 70
     1
102
RTVSPropertyOp23
 70
     1
102
RTVSPropertyOp24
 70
     1
102
RTVSPropertyOp25
 70
     1
102
RTVSPropertyOp26
 70
     1
102
RTVSPropertyOp27
 70
     1
102
RTVSPropertyOp28
 70
     1
102
RTVSPropertyOp29
 70
     1
102
RTVSPropertyOp30
 70
     1
102
RTVSPropertyOp31
 70
     1
102
RTVSPropertyOp32
 70
     1
  0
XRECORD
  5
173A
102
{ACAD_REACTORS
330
1739
102
}
330
1739
100
AcDbXrecord
280
     1
102
RTVSPropertyOp0
 70
     1
102
RTVSPropertyOp1
 70
     1
102
RTVSPropertyOp2
 70
     1
102
RTVSPropertyOp3
 70
     1
102
RTVSPropertyOp4
 70
     1
102
RTVSPropertyOp5
 70
     1
102
RTVSPropertyOp6
 70
     1
102
RTVSPropertyOp7
 70
     1
102
RTVSPropertyOp8
 70
     1
102
RTVSPropertyOp9
 70
     1
102
RTVSPropertyOp10
 70
     1
102
RTVSPropertyOp11
 70
     1
102
RTVSPropertyOp12
 70
     1
102
RTVSPropertyOp13
 70
     1
102
RTVSPropertyOp14
 70
     1
102
RTVSPropertyOp15
 70
     1
102
RTVSPropertyOp16
 70
     1
102
RTVSPropertyOp17
 70
     1
102
RTVSPropertyOp18
 70
     1
102
RTVSPropertyOp19
 70
     1
102
RTVSPropertyOp20
 70
     1
102
RTVSPropertyOp21
 70
     1
102
RTVSPropertyOp22
 70
     1
102
RTVSPropertyOp23
 70
     1
102
RTVSPropertyOp24
 70
     1
102
RTVSPropertyOp25
 70
     1
102
RTVSPropertyOp26
 70
     1
102
RTVSPropertyOp27
 70
     1
102
RTVSPropertyOp28
 70
     1
102
RTVSPropertyOp29
 70
     1
102
RTVSPropertyOp30
 70
     1
102
RTVSPropertyOp31
 70
     1
102
RTVSPropertyOp32
 70
     1
  0
XRECORD
  5
1738
102
{ACAD_REACTORS
330
1737
102
}
330
1737
100
AcDbXrecord
280
     1
102
RTVSPropertyOp0
 70
     1
102
RTVSPropertyOp1
 70
     1
102
RTVSPropertyOp2
 70
     1
102
RTVSPropertyOp3
 70
     1
102
RTVSPropertyOp4
 70
     1
102
RTVSPropertyOp5
 70
     1
102
RTVSPropertyOp6
 70
     1
102
RTVSPropertyOp7
 70
     1
102
RTVSPropertyOp8
 70
     1
102
RTVSPropertyOp9
 70
     1
102
RTVSPropertyOp10
 70
     1
102
RTVSPropertyOp11
 70
     1
102
RTVSPropertyOp12
 70
     1
102
RTVSPropertyOp13
 70
     1
102
RTVSPropertyOp14
 70
     1
102
RTVSPropertyOp15
 70
     1
102
RTVSPropertyOp16
 70
     1
102
RTVSPropertyOp17
 70
     1
102
RTVSPropertyOp18
 70
     1
102
RTVSPropertyOp19
 70
     1
102
RTVSPropertyOp20
 70
     1
102
RTVSPropertyOp21
 70
     1
102
RTVSPropertyOp22
 70
     1
102
RTVSPropertyOp23
 70
     1
102
RTVSPropertyOp24
 70
     1
102
RTVSPropertyOp25
 70
     1
102
RTVSPropertyOp26
 70
     1
102
RTVSPropertyOp27
 70
     1
102
RTVSPropertyOp28
 70
     1
102
RTVSPropertyOp29
 70
     1
102
RTVSPropertyOp30
 70
     1
102
RTVSPropertyOp31
 70
     1
102
RTVSPropertyOp32
 70
     1
  0
XRECORD
  5
1732
102
{ACAD_REACTORS
330
1731
102
}
330
1731
100
AcDbXrecord
280
     1
102
RTVSPropertyOp0
 70
     1
102
RTVSPropertyOp1
 70
     1
102
RTVSPropertyOp2
 70
     1
102
RTVSPropertyOp3
 70
     1
102
RTVSPropertyOp4
 70
     1
102
RTVSPropertyOp5
 70
     1
102
RTVSPropertyOp6
 70
     1
102
RTVSPropertyOp7
 70
     1
102
RTVSPropertyOp8
 70
     1
102
RTVSPropertyOp9
 70
     1
102
RTVSPropertyOp10
 70
     1
102
RTVSPropertyOp11
 70
     1
102
RTVSPropertyOp12
 70
     1
102
RTVSPropertyOp13
 70
     1
102
RTVSPropertyOp14
 70
     1
102
RTVSPropertyOp15
 70
     1
102
RTVSPropertyOp16
 70
     1
102
RTVSPropertyOp17
 70
     1
102
RTVSPropertyOp18
 70
     1
102
RTVSPropertyOp19
 70
     1
102
RTVSPropertyOp20
 70
     1
102
RTVSPropertyOp21
 70
     1
102
RTVSPropertyOp22
 70
     1
102
RTVSPropertyOp23
 70
     1
102
RTVSPropertyOp24
 70
     1
102
RTVSPropertyOp25
 70
     1
102
RTVSPropertyOp26
 70
     1
102
RTVSPropertyOp27
 70
     1
102
RTVSPropertyOp28
 70
     1
102
RTVSPropertyOp29
 70
     1
102
RTVSPropertyOp30
 70
     1
102
RTVSPropertyOp31
 70
     1
102
RTVSPropertyOp32
 70
     1
  0
XRECORD
  5
1734
102
{ACAD_REACTORS
330
1733
102
}
330
1733
100
AcDbXrecord
280
     1
102
RTVSPropertyOp0
 70
     1
102
RTVSPropertyOp1
 70
     1
102
RTVSPropertyOp2
 70
     1
102
RTVSPropertyOp3
 70
     1
102
RTVSPropertyOp4
 70
     1
102
RTVSPropertyOp5
 70
     1
102
RTVSPropertyOp6
 70
     1
102
RTVSPropertyOp7
 70
     1
102
RTVSPropertyOp8
 70
     1
102
RTVSPropertyOp9
 70
     1
102
RTVSPropertyOp10
 70
     1
102
RTVSPropertyOp11
 70
     1
102
RTVSPropertyOp12
 70
     1
102
RTVSPropertyOp13
 70
     1
102
RTVSPropertyOp14
 70
     1
102
RTVSPropertyOp15
 70
     1
102
RTVSPropertyOp16
 70
     1
102
RTVSPropertyOp17
 70
     1
102
RTVSPropertyOp18
 70
     1
102
RTVSPropertyOp19
 70
     1
102
RTVSPropertyOp20
 70
     1
102
RTVSPropertyOp21
 70
     1
102
RTVSPropertyOp22
 70
     1
102
RTVSPropertyOp23
 70
     1
102
RTVSPropertyOp24
 70
     1
102
RTVSPropertyOp25
 70
     1
102
RTVSPropertyOp26
 70
     1
102
RTVSPropertyOp27
 70
     1
102
RTVSPropertyOp28
 70
     1
102
RTVSPropertyOp29
 70
     1
102
RTVSPropertyOp30
 70
     1
102
RTVSPropertyOp31
 70
     1
102
RTVSPropertyOp32
 70
     1
  0
XRECORD
  5
1726
102
{ACAD_REACTORS
330
1725
102
}
330
1725
100
AcDbXrecord
280
     1
102
RTVSPropertyOp0
 70
     1
102
RTVSPropertyOp1
 70
     1
102
RTVSPropertyOp2
 70
     1
102
RTVSPropertyOp3
 70
     1
102
RTVSPropertyOp4
 70
     1
102
RTVSPropertyOp5
 70
     1
102
RTVSPropertyOp6
 70
     1
102
RTVSPropertyOp7
 70
     1
102
RTVSPropertyOp8
 70
     1
102
RTVSPropertyOp9
 70
     1
102
RTVSPropertyOp10
 70
     1
102
RTVSPropertyOp11
 70
     1
102
RTVSPropertyOp12
 70
     1
102
RTVSPropertyOp13
 70
     1
102
RTVSPropertyOp14
 70
     1
102
RTVSPropertyOp15
 70
     1
102
RTVSPropertyOp16
 70
     1
102
RTVSPropertyOp17
 70
     1
102
RTVSPropertyOp18
 70
     1
102
RTVSPropertyOp19
 70
     1
102
RTVSPropertyOp20
 70
     1
102
RTVSPropertyOp21
 70
     1
102
RTVSPropertyOp22
 70
     1
102
RTVSPropertyOp23
 70
     1
102
RTVSPropertyOp24
 70
     1
102
RTVSPropertyOp25
 70
     1
102
RTVSPropertyOp26
 70
     1
102
RTVSPropertyOp27
 70
     1
102
RTVSPropertyOp28
 70
     1
102
RTVSPropertyOp29
 70
     1
102
RTVSPropertyOp30
 70
     1
102
RTVSPropertyOp31
 70
     1
102
RTVSPropertyOp32
 70
     1
  0
XRECORD
  5
172E
102
{ACAD_REACTORS
330
172D
102
}
330
172D
100
AcDbXrecord
280
     1
102
RTVSPropertyOp0
 70
     1
102
RTVSPropertyOp1
 70
     1
102
RTVSPropertyOp2
 70
     1
102
RTVSPropertyOp3
 70
     1
102
RTVSPropertyOp4
 70
     1
102
RTVSPropertyOp5
 70
     1
102
RTVSPropertyOp6
 70
     1
102
RTVSPropertyOp7
 70
     1
102
RTVSPropertyOp8
 70
     1
102
RTVSPropertyOp9
 70
     1
102
RTVSPropertyOp10
 70
     1
102
RTVSPropertyOp11
 70
     1
102
RTVSPropertyOp12
 70
     1
102
RTVSPropertyOp13
 70
     1
102
RTVSPropertyOp14
 70
     1
102
RTVSPropertyOp15
 70
     1
102
RTVSPropertyOp16
 70
     1
102
RTVSPropertyOp17
 70
     1
102
RTVSPropertyOp18
 70
     1
102
RTVSPropertyOp19
 70
     1
102
RTVSPropertyOp20
 70
     1
102
RTVSPropertyOp21
 70
     1
102
RTVSPropertyOp22
 70
     1
102
RTVSPropertyOp23
 70
     1
102
RTVSPropertyOp24
 70
     1
102
RTVSPropertyOp25
 70
     1
102
RTVSPropertyOp26
 70
     1
102
RTVSPropertyOp27
 70
     1
102
RTVSPropertyOp28
 70
     1
102
RTVSPropertyOp29
 70
     1
102
RTVSPropertyOp30
 70
     1
102
RTVSPropertyOp31
 70
     1
102
RTVSPropertyOp32
 70
     1
  0
XRECORD
  5
1736
102
{ACAD_REACTORS
330
1735
102
}
330
1735
100
AcDbXrecord
280
     1
102
RTVSPropertyOp0
 70
     1
102
RTVSPropertyOp1
 70
     1
102
RTVSPropertyOp2
 70
     1
102
RTVSPropertyOp3
 70
     1
102
RTVSPropertyOp4
 70
     1
102
RTVSPropertyOp5
 70
     1
102
RTVSPropertyOp6
 70
     1
102
RTVSPropertyOp7
 70
     1
102
RTVSPropertyOp8
 70
     1
102
RTVSPropertyOp9
 70
     1
102
RTVSPropertyOp10
 70
     1
102
RTVSPropertyOp11
 70
     1
102
RTVSPropertyOp12
 70
     1
102
RTVSPropertyOp13
 70
     1
102
RTVSPropertyOp14
 70
     1
102
RTVSPropertyOp15
 70
     1
102
RTVSPropertyOp16
 70
     1
102
RTVSPropertyOp17
 70
     1
102
RTVSPropertyOp18
 70
     1
102
RTVSPropertyOp19
 70
     1
102
RTVSPropertyOp20
 70
     1
102
RTVSPropertyOp21
 70
     1
102
RTVSPropertyOp22
 70
     1
102
RTVSPropertyOp23
 70
     1
102
RTVSPropertyOp24
 70
     1
102
RTVSPropertyOp25
 70
     1
102
RTVSPropertyOp26
 70
     1
102
RTVSPropertyOp27
 70
     1
102
RTVSPropertyOp28
 70
     1
102
RTVSPropertyOp29
 70
     1
102
RTVSPropertyOp30
 70
     1
102
RTVSPropertyOp31
 70
     1
102
RTVSPropertyOp32
 70
     1
  0
ENDSEC
  0
EOF
