  0
SECTION
  2
HEADER
  9
$ACADVER
  1
AC1015
  9
$ACADMAINTVER
 70
    20
  9
$DWGCODEPAGE
  3
ANSI_932
  9
$INSBASE
 10
0.0
 20
0.0
 30
0.0
  9
$EXTMIN
 10
-210.0
 20
-138.5
 30
0.0
  9
$EXTMAX
 10
195.0
 20
138.5
 30
0.0
  9
$LIMMIN
 10
-210.001
 20
-138.501
  9
$LIMMAX
 10
195.0009999999999
 20
138.501
  9
$ORTHOMODE
 70
     1
  9
$REGENMODE
 70
     1
  9
$FILLMODE
 70
     1
  9
$QTEXTMODE
 70
     0
  9
$MIRRTEXT
 70
     0
  9
$LTSCALE
 40
6.75
  9
$ATTMODE
 70
     1
  9
$TEXTSIZE
 40
3.2
  9
$TRACEWID
 40
0.05
  9
$TEXTSTYLE
  7
高3.2
  9
$CLAYER
  8
0
  9
$CELTYPE
  6
ByLayer
  9
$CECOLOR
 62
   256
  9
$CELTSCALE
 40
1.0
  9
$DISPSILH
 70
     0
  9
$DIMSCALE
 40
1.0
  9
$DIMASZ
 40
2.5
  9
$DIMEXO
 40
0.25
  9
$DIMDLI
 40
0.2
  9
$DIMRND
 40
0.0
  9
$DIMDLE
 40
0.0
  9
$DIMEXE
 40
1.25
  9
$DIMTP
 40
0.0
  9
$DIMTM
 40
0.0
  9
$DIMTXT
 40
3.0
  9
$DIMCEN
 40
0.0
  9
$DIMTSZ
 40
0.0
  9
$DIMTOL
 70
     0
  9
$DIMLIM
 70
     0
  9
$DIMTIH
 70
     0
  9
$DIMTOH
 70
     0
  9
$DIMSE1
 70
     0
  9
$DIMSE2
 70
     0
  9
$DIMTAD
 70
     3
  9
$DIMZIN
 70
     8
  9
$DIMBLK
  1
Open30
  9
$DIMASO
 70
     1
  9
$DIMSHO
 70
     1
  9
$DIMPOST
  1

  9
$DIMAPOST
  1

  9
$DIMALT
 70
     0
  9
$DIMALTD
 70
     3
  9
$DIMALTF
 40
0.03937007874016
  9
$DIMLFAC
 40
1.0
  9
$DIMTOFL
 70
     1
  9
$DIMTVP
 40
0.0
  9
$DIMTIX
 70
     0
  9
$DIMSOXD
 70
     0
  9
$DIMSAH
 70
     0
  9
$DIMBLK1
  1

  9
$DIMBLK2
  1

  9
$DIMSTYLE
  2
FREE
  9
$DIMCLRD
 70
     0
  9
$DIMCLRE
 70
     0
  9
$DIMCLRT
 70
     4
  9
$DIMTFAC
 40
1.0
  9
$DIMGAP
 40
0.625
  9
$DIMJUST
 70
     0
  9
$DIMSD1
 70
     0
  9
$DIMSD2
 70
     0
  9
$DIMTOLJ
 70
     0
  9
$DIMTZIN
 70
     8
  9
$DIMALTZ
 70
     0
  9
$DIMALTTZ
 70
     0
  9
$DIMUPT
 70
     1
  9
$DIMDEC
 70
     2
  9
$DIMTDEC
 70
     2
  9
$DIMALTU
 70
     2
  9
$DIMALTTD
 70
     3
  9
$DIMTXSTY
  7
STANDARD
  9
$DIMAUNIT
 70
     0
  9
$DIMADEC
 70
     1
  9
$DIMALTRND
 40
0.0
  9
$DIMAZIN
 70
     2
  9
$DIMDSEP
 70
    46
  9
$DIMATFIT
 70
     0
  9
$DIMFRAC
 70
     0
  9
$DIMLDRBLK
  1
Open30
  9
$DIMLUNIT
 70
     2
  9
$DIMLWD
 70
    -2
  9
$DIMLWE
 70
    -2
  9
$DIMTMOVE
 70
     0
  9
$LUNITS
 70
     2
  9
$LUPREC
 70
     4
  9
$SKETCHINC
 40
0.1
  9
$FILLETRAD
 40
0.0
  9
$AUNITS
 70
     0
  9
$AUPREC
 70
     0
  9
$MENU
  1
.
  9
$ELEVATION
 40
0.0
  9
$PELEVATION
 40
0.0
  9
$THICKNESS
 40
0.0
  9
$LIMCHECK
 70
     0
  9
$CHAMFERA
 40
0.0
  9
$CHAMFERB
 40
0.0
  9
$CHAMFERC
 40
0.0
  9
$CHAMFERD
 40
0.0
  9
$SKPOLY
 70
     0
  9
$TDCREATE
 40
2456346.566138657
  9
$TDUCREATE
 40
2456346.191138657
  9
$TDUPDATE
 40
2459893.542760035
  9
$TDUUPDATE
 40
2459893.167760035
  9
$TDINDWG
 40
0.1077198032
  9
$TDUSRTIMER
 40
0.1077121065
  9
$USRTIMER
 70
     1
  9
$ANGBASE
 50
0.0
  9
$ANGDIR
 70
     0
  9
$PDMODE
 70
     0
  9
$PDSIZE
 40
0.0
  9
$PLINEWID
 40
0.0
  9
$SPLFRAME
 70
     0
  9
$SPLINETYPE
 70
     6
  9
$SPLINESEGS
 70
     8
  9
$HANDSEED
  5
9B1
  9
$SURFTAB1
 70
     6
  9
$SURFTAB2
 70
     6
  9
$SURFTYPE
 70
     6
  9
$SURFU
 70
     6
  9
$SURFV
 70
     6
  9
$UCSBASE
  2

  9
$UCSNAME
  2

  9
$UCSORG
 10
0.0
 20
0.0
 30
0.0
  9
$UCSXDIR
 10
1.0
 20
0.0
 30
0.0
  9
$UCSYDIR
 10
0.0
 20
1.0
 30
0.0
  9
$UCSORTHOREF
  2

  9
$UCSORTHOVIEW
 70
     0
  9
$UCSORGTOP
 10
0.0
 20
0.0
 30
0.0
  9
$UCSORGBOTTOM
 10
0.0
 20
0.0
 30
0.0
  9
$UCSORGLEFT
 10
0.0
 20
0.0
 30
0.0
  9
$UCSORGRIGHT
 10
0.0
 20
0.0
 30
0.0
  9
$UCSORGFRONT
 10
0.0
 20
0.0
 30
0.0
  9
$UCSORGBACK
 10
0.0
 20
0.0
 30
0.0
  9
$PUCSBASE
  2

  9
$PUCSNAME
  2

  9
$PUCSORG
 10
0.0
 20
0.0
 30
0.0
  9
$PUCSXDIR
 10
1.0
 20
0.0
 30
0.0
  9
$PUCSYDIR
 10
0.0
 20
1.0
 30
0.0
  9
$PUCSORTHOREF
  2

  9
$PUCSORTHOVIEW
 70
     0
  9
$PUCSORGTOP
 10
0.0
 20
0.0
 30
0.0
  9
$PUCSORGBOTTOM
 10
0.0
 20
0.0
 30
0.0
  9
$PUCSORGLEFT
 10
0.0
 20
0.0
 30
0.0
  9
$PUCSORGRIGHT
 10
0.0
 20
0.0
 30
0.0
  9
$PUCSORGFRONT
 10
0.0
 20
0.0
 30
0.0
  9
$PUCSORGBACK
 10
0.0
 20
0.0
 30
0.0
  9
$USERI1
 70
     0
  9
$USERI2
 70
     0
  9
$USERI3
 70
     0
  9
$USERI4
 70
     0
  9
$USERI5
 70
     0
  9
$USERR1
 40
0.0
  9
$USERR2
 40
0.0
  9
$USERR3
 40
0.0
  9
$USERR4
 40
0.0
  9
$USERR5
 40
0.0
  9
$WORLDVIEW
 70
     1
  9
$SHADEDGE
 70
     3
  9
$SHADEDIF
 70
    70
  9
$TILEMODE
 70
     1
  9
$MAXACTVP
 70
    64
  9
$PINSBASE
 10
0.0
 20
0.0
 30
0.0
  9
$PLIMCHECK
 70
     0
  9
$PEXTMIN
 10
1.000000000000000E+20
 20
1.000000000000000E+20
 30
1.000000000000000E+20
  9
$PEXTMAX
 10
-1.000000000000000E+20
 20
-1.000000000000000E+20
 30
-1.000000000000000E+20
  9
$PLIMMIN
 10
0.0
 20
0.0
  9
$PLIMMAX
 10
12.0
 20
9.0
  9
$UNITMODE
 70
     0
  9
$VISRETAIN
 70
     1
  9
$PLINEGEN
 70
     0
  9
$PSLTSCALE
 70
     1
  9
$TREEDEPTH
 70
  3020
  9
$CMLSTYLE
  2
Standard
  9
$CMLJUST
 70
     0
  9
$CMLSCALE
 40
1.0
  9
$PROXYGRAPHICS
 70
     1
  9
$MEASUREMENT
 70
     0
  9
$CELWEIGHT
370
    -1
  9
$ENDCAPS
280
     0
  9
$JOINSTYLE
280
     0
  9
$LWDISPLAY
290
     0
  9
$INSUNITS
 70
     0
  9
$HYPERLINKBASE
  1

  9
$STYLESHEET
  1

  9
$XEDIT
290
     1
  9
$CEPSNTYPE
380
     0
  9
$PSTYLEMODE
290
     1
  9
$FINGERPRINTGUID
  2
{8A3D4448-9B3C-47A3-AF57-06A85E994D69}
  9
$VERSIONGUID
  2
{36B27382-7644-4B62-9E1F-EBC6A05B1AAF}
  9
$EXTNAMES
290
     1
  9
$PSVPSCALE
 40
0.0
  9
$OLESTARTUP
290
     0
  0
ENDSEC
  0
SECTION
  2
CLASSES
  0
CLASS
  1
ACDBDICTIONARYWDFLT
  2
AcDbDictionaryWithDefault
  3
ObjectDBX Classes
 90
        0
280
     0
281
     0
  0
CLASS
  1
MATERIAL
  2
AcDbMaterial
  3
ObjectDBX Classes
 90
     1153
280
     0
281
     0
  0
CLASS
  1
VISUALSTYLE
  2
AcDbVisualStyle
  3
ObjectDBX Classes
 90
     4095
280
     0
281
     0
  0
CLASS
  1
SCALE
  2
AcDbScale
  3
ObjectDBX Classes
 90
     1153
280
     0
281
     0
  0
CLASS
  1
TABLESTYLE
  2
AcDbTableStyle
  3
ObjectDBX Classes
 90
     4095
280
     0
281
     0
  0
CLASS
  1
MLEADERSTYLE
  2
AcDbMLeaderStyle
  3
ACDB_MLEADERSTYLE_CLASS
 90
     4095
280
     0
281
     0
  0
CLASS
  1
SORTENTSTABLE
  2
AcDbSortentsTable
  3
ObjectDBX Classes
 90
        0
280
     0
281
     0
  0
CLASS
  1
DICTIONARYVAR
  2
AcDbDictionaryVar
  3
ObjectDBX Classes
 90
        0
280
     0
281
     0
  0
CLASS
  1
CELLSTYLEMAP
  2
AcDbCellStyleMap
  3
ObjectDBX Classes
 90
     1152
280
     0
281
     0
  0
CLASS
  1
ACDBPLACEHOLDER
  2
AcDbPlaceHolder
  3
ObjectDBX Classes
 90
        0
280
     0
281
     0
  0
CLASS
  1
LAYOUT
  2
AcDbLayout
  3
ObjectDBX Classes
 90
        0
280
     0
281
     0
  0
ENDSEC
  0
SECTION
  2
TABLES
  0
TABLE
  2
VPORT
  5
8
330
0
100
AcDbSymbolTable
 70
     1
  0
VPORT
  5
8B
330
8
100
AcDbSymbolTableRecord
100
AcDbViewportTableRecord
  2
*Active
 70
     0
 10
0.0
 20
0.0
 11
1.0
 21
1.0
 12
7.485742133331427
 22
43.75615108669501
 13
0.0
 23
0.0
 14
1.0
 24
1.0
 15
0.0
 25
0.0
 16
0.0
 26
0.0
 36
1.0
 17
0.0
 27
0.0
 37
0.0
 40
648.2808175018301
 41
1.203856749311294
 42
50.0
 43
0.0
 44
0.0
 50
0.0
 51
0.0
 71
     0
 72
   100
 73
     1
 74
     1
 75
     0
 76
     0
 77
     0
 78
     0
281
     0
 65
     1
110
0.0
120
0.0
130
0.0
111
1.0
121
0.0
131
0.0
112
0.0
122
1.0
132
0.0
 79
     0
146
0.0
  0
ENDTAB
  0
TABLE
  2
LTYPE
  5
5
330
0
100
AcDbSymbolTable
 70
     2
  0
LTYPE
  5
5A
330
5
100
AcDbSymbolTableRecord
100
AcDbLinetypeTableRecord
  2
ByBlock
 70
     0
  3

 72
    65
 73
     0
 40
0.0
  0
LTYPE
  5
5B
330
5
100
AcDbSymbolTableRecord
100
AcDbLinetypeTableRecord
  2
ByLayer
 70
     0
  3

 72
    65
 73
     0
 40
0.0
  0
LTYPE
  5
5C
330
5
100
AcDbSymbolTableRecord
100
AcDbLinetypeTableRecord
  2
CONTINUOUS
 70
     0
  3
Solid-line
 72
    65
 73
     0
 40
0.0
  0
ENDTAB
  0
TABLE
  2
LAYER
  5
2
102
{ACAD_XDICTIONARY
360
465
102
}
330
0
100
AcDbSymbolTable
 70
     2
  0
LAYER
  5
54
102
{ACAD_XDICTIONARY
360
62B
102
}
330
2
100
AcDbSymbolTableRecord
100
AcDbLayerTableRecord
  2
0
 70
     0
 62
     7
  6
CONTINUOUS
370
    -3
390
F
  0
LAYER
  5
44E
330
2
100
AcDbSymbolTableRecord
100
AcDbLayerTableRecord
  2
Defpoints
 70
     0
 62
     7
  6
CONTINUOUS
290
     0
370
    -3
390
F
  0
ENDTAB
  0
TABLE
  2
STYLE
  5
3
330
0
100
AcDbSymbolTable
 70
     5
  0
STYLE
  5
55
330
3
100
AcDbSymbolTableRecord
100
AcDbTextStyleTableRecord
  2
STANDARD
 70
     0
 40
0.0
 41
1.0
 50
0.0
 71
     0
 42
0.2
  3
TXT
  4
BIGFONT
  0
STYLE
  5
44F
330
3
100
AcDbSymbolTableRecord
100
AcDbTextStyleTableRecord
  2
高3.2
 70
     0
 40
3.2
 41
1.0
 50
0.0
 71
     0
 42
3.2
  3
txt.shx
  4
bigfont.shx
  0
STYLE
  5
450
330
3
100
AcDbSymbolTableRecord
100
AcDbTextStyleTableRecord
  2
高6.3
 70
     0
 40
6.299999999999998
 41
1.0
 50
0.0
 71
     0
 42
6.299999999999998
  3
txt.shx
  4
bigfont.shx
  0
STYLE
  5
452
330
3
100
AcDbSymbolTableRecord
100
AcDbTextStyleTableRecord
  2
高4.5
 70
     0
 40
4.5
 41
1.0
 50
0.0
 71
     0
 42
6.299999999999998
  3
txt.shx
  4
bigfont.shx
  0
STYLE
  5
453
330
3
100
AcDbSymbolTableRecord
100
AcDbTextStyleTableRecord
  2
高2
 70
     0
 40
2.0
 41
1.0
 50
0.0
 71
     0
 42
2.0
  3
txt.shx
  4
bigfont.shx
  0
ENDTAB
  0
TABLE
  2
VIEW
  5
6
330
0
100
AcDbSymbolTable
 70
     0
  0
ENDTAB
  0
TABLE
  2
UCS
  5
7
330
0
100
AcDbSymbolTable
 70
     0
  0
ENDTAB
  0
TABLE
  2
APPID
  5
9
330
0
100
AcDbSymbolTable
 70
    10
  0
APPID
  5
56
330
9
100
AcDbSymbolTableRecord
100
AcDbRegAppTableRecord
  2
ACAD
 70
     0
  0
APPID
  5
5D
330
9
100
AcDbSymbolTableRecord
100
AcDbRegAppTableRecord
  2
AcadAnnotative
 70
     0
  0
APPID
  5
45E
330
9
100
AcDbSymbolTableRecord
100
AcDbRegAppTableRecord
  2
ACAD_DSTYLE_DIMJOGGED_JOGANGLE_SYMBOL
 70
     0
  0
APPID
  5
45F
330
9
100
AcDbSymbolTableRecord
100
AcDbRegAppTableRecord
  2
ACAD_DSTYLE_DIMJAG
 70
     0
  0
APPID
  5
460
330
9
100
AcDbSymbolTableRecord
100
AcDbRegAppTableRecord
  2
ACAD_DSTYLE_DIMBREAK
 70
     0
  0
APPID
  5
461
330
9
100
AcDbSymbolTableRecord
100
AcDbRegAppTableRecord
  2
ACAD_DSTYLE_DIMTALN
 70
     0
  0
APPID
  5
5AD
330
9
100
AcDbSymbolTableRecord
100
AcDbRegAppTableRecord
  2
ACAD_EXEMPT_FROM_CAD_STANDARDS
 70
     0
  0
APPID
  5
671
330
9
100
AcDbSymbolTableRecord
100
AcDbRegAppTableRecord
  2
ACAD_MLEADERVER
 70
     0
  0
APPID
  5
676
330
9
100
AcDbSymbolTableRecord
100
AcDbRegAppTableRecord
  2
ACAD_DSTYLE_DIMARC_LENGTH_SYMBOL
 70
     0
  0
APPID
  5
677
330
9
100
AcDbSymbolTableRecord
100
AcDbRegAppTableRecord
  2
ACAD_DSTYLE_DIMEXT_LENGTH
 70
     0
  0
ENDTAB
  0
TABLE
  2
DIMSTYLE
  5
A
330
0
100
AcDbSymbolTable
 70
     2
100
AcDbDimStyleTable
 71
     1
340
45D
  0
DIMSTYLE
105
57
330
A
100
AcDbSymbolTableRecord
100
AcDbDimStyleTableRecord
  2
Standard
 70
     0
340
55
  0
DIMSTYLE
105
45D
330
A
100
AcDbSymbolTableRecord
100
AcDbDimStyleTableRecord
  2
FREE
 70
     0
 41
2.5
 42
0.25
 43
0.2
 44
1.25
 73
     0
 74
     0
 77
     3
 78
     8
 79
     2
140
3.0
141
0.0
143
0.03937007874016
147
0.625
171
     3
172
     1
178
     4
179
     1
271
     2
272
     2
274
     3
283
     0
284
     8
288
     1
289
     0
340
55
341
3BE
342
3BE
1001
ACAD_DSTYLE_DIMBREAK
1070
   391
1040
3.75
1001
ACAD_DSTYLE_DIMJAG
1070
   388
1040
1.5
1001
ACAD_DSTYLE_DIMTALN
1070
   392
1070
     0
1001
ACAD_DSTYLE_DIMARC_LENGTH_SYMBOL
1070
   379
1070
     2
1001
ACAD_DSTYLE_DIMEXT_LENGTH
1070
   378
1040
1.25
1001
ACAD_DSTYLE_DIMJOGGED_JOGANGLE_SYMBOL
1070
   384
1040
1.570796326794896
  0
ENDTAB
  0
TABLE
  2
BLOCK_RECORD
  5
1
330
0
100
AcDbSymbolTable
 70
     5
  0
BLOCK_RECORD
  5
6B
102
{ACAD_XDICTIONARY
360
5F9
102
}
330
1
100
AcDbSymbolTableRecord
100
AcDbBlockTableRecord
  2
*Model_Space
340
6E
  0
BLOCK_RECORD
  5
67
330
1
100
AcDbSymbolTableRecord
100
AcDbBlockTableRecord
  2
*Paper_Space
340
6A
  0
BLOCK_RECORD
  5
3BE
330
1
100
AcDbSymbolTableRecord
100
AcDbBlockTableRecord
  2
_Open30
340
0
102
{BLKREFS
331
840
331
841
331
85C
331
85D
331
865
331
866
102
}
  0
BLOCK_RECORD
  5
5AF
330
1
100
AcDbSymbolTableRecord
100
AcDbBlockTableRecord
  2
*D1
340
0
  0
BLOCK_RECORD
  5
5BC
330
1
100
AcDbSymbolTableRecord
100
AcDbBlockTableRecord
  2
*D2
340
0
  0
BLOCK_RECORD
  5
5C9
330
1
100
AcDbSymbolTableRecord
100
AcDbBlockTableRecord
  2
*D3
340
0
  0
BLOCK_RECORD
  5
720
330
1
100
AcDbSymbolTableRecord
100
AcDbBlockTableRecord
  2
_DotSmall
340
0
  0
ENDTAB
  0
ENDSEC
  0
SECTION
  2
BLOCKS
  0
BLOCK
  5
6C
330
6B
100
AcDbEntity
  8
0
100
AcDbBlockBegin
  2
*Model_Space
 70
     0
 10
0.0
 20
0.0
 30
0.0
  3
*Model_Space
  1

  0
ENDBLK
  5
6D
330
6B
100
AcDbEntity
  8
0
100
AcDbBlockEnd
  0
BLOCK
  5
68
330
67
100
AcDbEntity
 67
     1
  8
0
100
AcDbBlockBegin
  2
*Paper_Space
 70
     0
 10
0.0
 20
0.0
 30
0.0
  3
*Paper_Space
  1

  0
ENDBLK
  5
69
330
67
100
AcDbEntity
 67
     1
  8
0
100
AcDbBlockEnd
  0
BLOCK
  5
3BF
330
3BE
100
AcDbEntity
  8
0
100
AcDbBlockBegin
  2
_Open30
 70
     0
 10
0.0
 20
0.0
 30
0.0
  3
_Open30
  1

  0
LINE
  5
3C0
330
3BE
100
AcDbEntity
  8
0
  6
ByBlock
 62
     0
370
    -2
100
AcDbLine
 10
-1.0
 20
0.267949
 30
0.0
 11
0.0
 21
0.0
 31
0.0
  0
LINE
  5
3C1
330
3BE
100
AcDbEntity
  8
0
  6
ByBlock
 62
     0
370
    -2
100
AcDbLine
 10
0.0
 20
0.0
 30
0.0
 11
-1.0
 21
-0.267949
 31
0.0
  0
LINE
  5
3C2
330
3BE
100
AcDbEntity
  8
0
  6
ByBlock
 62
     0
370
    -2
100
AcDbLine
 10
0.0
 20
0.0
 30
0.0
 11
-1.0
 21
0.0
 31
0.0
  0
ENDBLK
  5
3C3
330
3BE
100
AcDbEntity
  8
0
100
AcDbBlockEnd
  0
BLOCK
  5
5B0
330
5AF
100
AcDbEntity
  8
0
100
AcDbBlockBegin
  2
*D1
 70
     1
 10
0.0
 20
0.0
 30
0.0
  3
*D1
  1

  0
LINE
  5
859
330
5AF
100
AcDbEntity
  8
0
 62
     0
370
    -2
100
AcDbLine
 10
-8.362251999999998
 20
25.217111
 30
0.0
 11
-8.362251999999999
 21
3.257422000000001
 31
0.0
  0
LINE
  5
85A
330
5AF
100
AcDbEntity
  8
0
 62
     0
370
    -2
100
AcDbLine
 10
96.637748
 20
19.217111
 30
0.0
 11
96.637748
 21
3.257422000000001
 31
0.0
  0
LINE
  5
85B
330
5AF
100
AcDbEntity
  8
0
 62
     0
370
    -2
100
AcDbLine
 10
-5.862251999999999
 20
4.507422
 30
0.0
 11
94.137748
 21
4.507422
 31
0.0
  0
INSERT
  5
85C
330
5AF
100
AcDbEntity
  8
0
 62
     0
370
    -2
100
AcDbBlockReference
  2
_Open30
 10
-8.362251999999999
 20
4.507422
 30
0.0
 41
2.5
 42
2.5
 43
2.5
 50
180.0
  0
INSERT
  5
85D
330
5AF
100
AcDbEntity
  8
0
 62
     0
370
    -2
100
AcDbBlockReference
  2
_Open30
 10
96.637748
 20
4.507422
 30
0.0
 41
2.5
 42
2.5
 43
2.5
  0
MTEXT
  5
85E
330
5AF
100
AcDbEntity
  8
0
 62
     4
100
AcDbMText
 10
44.137748
 20
6.632422
 30
0.0
 40
3.0
 41
0.0
 71
     5
 72
     1
  1
175
 73
     1
 44
1.0
1001
ACAD
1000
MTEXTBEGIN
1070
    73
1070
     1
1070
    44
1040
1.0
1070
    74
1070
     0
1000
MTEXTEND
  0
POINT
  5
85F
330
5AF
100
AcDbEntity
  8
Defpoints
 62
     0
100
AcDbPoint
 10
-8.362251999999998
 20
25.467111
 30
0.0
  0
POINT
  5
860
330
5AF
100
AcDbEntity
  8
Defpoints
 62
     0
100
AcDbPoint
 10
96.637748
 20
19.467111
 30
0.0
  0
POINT
  5
861
330
5AF
100
AcDbEntity
  8
Defpoints
 62
     0
100
AcDbPoint
 10
96.637748
 20
4.507422
 30
0.0
  0
ENDBLK
  5
5B1
330
5AF
100
AcDbEntity
  8
0
100
AcDbBlockEnd
  0
BLOCK
  5
5BD
330
5BC
100
AcDbEntity
  8
0
100
AcDbBlockBegin
  2
*D2
 70
     1
 10
0.0
 20
0.0
 30
0.0
  3
*D2
  1

  0
LINE
  5
862
330
5BC
100
AcDbEntity
  8
0
 62
     0
370
    -2
100
AcDbLine
 10
-163.282252
 20
19.217111
 30
0.0
 11
-163.282252
 21
3.257422000000001
 31
0.0
  0
LINE
  5
863
330
5BC
100
AcDbEntity
  8
0
 62
     0
370
    -2
100
AcDbLine
 10
-41.36225200000001
 20
19.217111
 30
0.0
 11
-41.36225200000001
 21
3.257422000000001
 31
0.0
  0
LINE
  5
864
330
5BC
100
AcDbEntity
  8
0
 62
     0
370
    -2
100
AcDbLine
 10
-160.782252
 20
4.507422
 30
0.0
 11
-43.86225200000001
 21
4.507422
 31
0.0
  0
INSERT
  5
865
330
5BC
100
AcDbEntity
  8
0
 62
     0
370
    -2
100
AcDbBlockReference
  2
_Open30
 10
-163.282252
 20
4.507422
 30
0.0
 41
2.5
 42
2.5
 43
2.5
 50
180.0
  0
INSERT
  5
866
330
5BC
100
AcDbEntity
  8
0
 62
     0
370
    -2
100
AcDbBlockReference
  2
_Open30
 10
-41.36225200000001
 20
4.507422
 30
0.0
 41
2.5
 42
2.5
 43
2.5
  0
MTEXT
  5
867
330
5BC
100
AcDbEntity
  8
0
 62
     4
100
AcDbMText
 10
-102.322252
 20
6.632422
 30
0.0
 40
3.0
 41
0.0
 71
     5
 72
     1
  1
202
 73
     1
 44
1.0
1001
ACAD
1000
MTEXTBEGIN
1070
    73
1070
     1
1070
    44
1040
1.0
1070
    74
1070
     0
1000
MTEXTEND
  0
POINT
  5
868
330
5BC
100
AcDbEntity
  8
Defpoints
 62
     0
100
AcDbPoint
 10
-163.282252
 20
19.467111
 30
0.0
  0
POINT
  5
869
330
5BC
100
AcDbEntity
  8
Defpoints
 62
     0
100
AcDbPoint
 10
-41.36225200000001
 20
19.467111
 30
0.0
  0
POINT
  5
86A
330
5BC
100
AcDbEntity
  8
Defpoints
 62
     0
100
AcDbPoint
 10
-41.36225200000001
 20
4.507422
 30
0.0
  0
ENDBLK
  5
5BE
330
5BC
100
AcDbEntity
  8
0
100
AcDbBlockEnd
  0
BLOCK
  5
5CA
330
5C9
100
AcDbEntity
  8
0
100
AcDbBlockBegin
  2
*D3
 70
     1
 10
0.0
 20
0.0
 30
0.0
  3
*D3
  1

  0
LINE
  5
83D
330
5C9
100
AcDbEntity
  8
0
 62
     0
370
    -2
100
AcDbLine
 10
-155.142583
 20
12.267111
 30
0.0
 11
-173.842834
 21
12.26711100000001
 31
0.0
  0
LINE
  5
83E
330
5C9
100
AcDbEntity
  8
0
 62
     0
370
    -2
100
AcDbLine
 10
-105.951791
 20
104.397808
 30
0.0
 11
-173.842834
 21
104.397808
 31
0.0
  0
LINE
  5
83F
330
5C9
100
AcDbEntity
  8
0
 62
     0
370
    -2
100
AcDbLine
 10
-172.592834
 20
14.76711100000001
 30
0.0
 11
-172.592834
 21
101.897808
 31
0.0
  0
INSERT
  5
840
330
5C9
100
AcDbEntity
  8
0
 62
     0
370
    -2
100
AcDbBlockReference
  2
_Open30
 10
-172.592834
 20
12.26711100000001
 30
0.0
 41
2.5
 42
2.5
 43
2.5
 50
270.0
  0
INSERT
  5
841
330
5C9
100
AcDbEntity
  8
0
 62
     0
370
    -2
100
AcDbBlockReference
  2
_Open30
 10
-172.592834
 20
104.397808
 30
0.0
 41
2.5
 42
2.5
 43
2.5
 50
90.0
  0
MTEXT
  5
842
330
5C9
100
AcDbEntity
  8
0
 62
     4
100
AcDbMText
 10
-174.717834
 20
58.33245949999998
 30
0.0
 40
3.0
 41
0.0
 71
     5
 72
     1
  1
155
 11
0.0000000000000001
 21
1.0
 31
0.0
 73
     1
 44
1.0
1001
ACAD
1000
MTEXTBEGIN
1070
    73
1070
     1
1070
    44
1040
1.0
1070
    74
1070
     0
1000
MTEXTEND
  0
POINT
  5
843
330
5C9
100
AcDbEntity
  8
Defpoints
 62
     0
100
AcDbPoint
 10
-154.892583
 20
12.267111
 30
0.0
  0
POINT
  5
844
330
5C9
100
AcDbEntity
  8
Defpoints
 62
     0
100
AcDbPoint
 10
-105.701791
 20
104.397808
 30
0.0
  0
POINT
  5
845
330
5C9
100
AcDbEntity
  8
Defpoints
 62
     0
100
AcDbPoint
 10
-172.592834
 20
104.397808
 30
0.0
  0
ENDBLK
  5
5CB
330
5C9
100
AcDbEntity
  8
0
100
AcDbBlockEnd
  0
BLOCK
  5
722
330
720
100
AcDbEntity
  8
0
100
AcDbBlockBegin
  2
_DotSmall
 70
     0
 10
0.0
 20
0.0
 30
0.0
  3
_DotSmall
  1

  0
LWPOLYLINE
  5
721
330
720
100
AcDbEntity
  8
0
  6
ByBlock
 62
     0
100
AcDbPolyline
 90
        2
 70
     1
 43
0.5
 10
-0.0625
 20
0.0
 42
1.0
 10
0.0625
 20
0.0
 42
1.0
  0
ENDBLK
  5
723
330
720
100
AcDbEntity
  8
0
100
AcDbBlockEnd
  0
ENDSEC
  0
SECTION
  2
ENTITIES
  0
TEXT
  5
BB
330
6B
100
AcDbEntity
  8
0
 62
     3
100
AcDbText
 10
128.614454
 20
-127.506079
 30
0.0
 40
3.2
  1
FREE
  7
高3.2
100
AcDbText
  0
LINE
  5
BC
330
6B
100
AcDbEntity
  8
0
100
AcDbLine
 10
123.7755966722369
 20
-36.55600399999999
 30
0.0
 11
123.7755966722369
 21
-69.820004
 31
0.0
  0
TEXT
  5
BD
330
6B
100
AcDbEntity
  8
0
 62
     3
100
AcDbText
 10
-133.395855
 20
78.954553
 30
0.0
 40
5.4
  1
SuperBooster
 41
0.6594479999999999
100
AcDbText
  0
LINE
  5
BE
330
6B
100
AcDbEntity
  8
0
 62
     3
100
AcDbLine
 10
-75.06207100000001
 20
77.170046
 30
0.0
 11
-83.72191800000001
 21
77.170046
 31
0.0
  0
LINE
  5
BF
330
6B
100
AcDbEntity
  8
0
 62
     3
100
AcDbLine
 10
-83.72191800000001
 20
68.482539
 30
0.0
 11
-75.06207100000001
 21
68.482539
 31
0.0
  0
LINE
  5
C0
330
6B
100
AcDbEntity
  8
0
 62
     3
100
AcDbLine
 10
-85.257918
 20
70.018539
 30
0.0
 11
-85.257918
 21
75.634046
 31
0.0
  0
LINE
  5
C1
330
6B
100
AcDbEntity
  8
0
 62
     3
100
AcDbLine
 10
-73.526071
 20
70.018539
 30
0.0
 11
-73.526071
 21
75.634046
 31
0.0
  0
ARC
  5
C2
330
6B
100
AcDbEntity
  8
0
 62
     3
100
AcDbCircle
 10
-83.72191800000001
 20
75.634046
 30
0.0
 40
1.536
100
AcDbArc
 50
90.0
 51
180.0
  0
ARC
  5
C3
330
6B
100
AcDbEntity
  8
0
 62
     3
100
AcDbCircle
 10
-75.06207100000001
 20
75.634046
 30
0.0
 40
1.536
100
AcDbArc
 50
0.0
 51
90.0
  0
ARC
  5
C4
330
6B
100
AcDbEntity
  8
0
 62
     3
100
AcDbCircle
 10
-75.06207100000001
 20
70.018539
 30
0.0
 40
1.536
100
AcDbArc
 50
270.0
 51
0.0
  0
ARC
  5
C5
330
6B
100
AcDbEntity
  8
0
 62
     3
100
AcDbCircle
 10
-83.72191800000001
 20
70.018539
 30
0.0
 40
1.536
100
AcDbArc
 50
180.0
 51
270.0
  0
TEXT
  5
C6
330
6B
100
AcDbEntity
  8
0
 62
     3
100
AcDbText
 10
110.269414
 20
-106.078746
 30
0.0
 40
4.5
  1
急速充電器
  7
高4.5
100
AcDbText
  0
ARC
  5
C7
330
6B
100
AcDbEntity
  8
0
 62
     3
100
AcDbCircle
 10
110.476197
 20
-1.310932999999999
 30
0.0
 40
1.169999999999999
100
AcDbArc
 50
291.595
 51
68.405
  0
ARC
  5
C8
330
6B
100
AcDbEntity
  8
0
 62
     3
100
AcDbCircle
 10
117.660197
 20
-7.375932999999997
 30
0.0
 40
8.39
100
AcDbArc
 50
143.61
 51
181.907
  0
ARC
  5
C9
330
6B
100
AcDbEntity
  8
0
 62
     3
100
AcDbCircle
 10
116.412197
 20
-1.310932999999999
 30
0.0
 40
1.169999999999999
100
AcDbArc
 50
111.595
 51
248.405
  0
ARC
  5
CA
330
6B
100
AcDbEntity
  8
0
 62
     3
100
AcDbCircle
 10
109.228197
 20
-7.375932999999997
 30
0.0
 40
8.39
100
AcDbArc
 50
358.093
 51
36.39
  0
LINE
  5
CB
330
6B
100
AcDbEntity
  8
0
 62
     3
100
AcDbLine
 10
112.175197
 20
3.402066999999998
 30
0.0
 11
114.713197
 21
3.402066999999998
 31
0.0
  0
LINE
  5
CC
330
6B
100
AcDbEntity
  8
0
 62
     3
100
AcDbLine
 10
114.713197
 20
3.402066999999998
 30
0.0
 11
115.075197
 21
0.140067
 31
0.0
  0
LINE
  5
CD
330
6B
100
AcDbEntity
  8
0
 62
     3
100
AcDbLine
 10
115.075197
 20
0.140067
 30
0.0
 11
111.812197
 21
0.140067
 31
0.0
  0
LINE
  5
CE
330
6B
100
AcDbEntity
  8
0
 62
     3
100
AcDbLine
 10
111.812197
 20
0.140067
 30
0.0
 11
112.175197
 21
3.402066999999998
 31
0.0
  0
LINE
  5
CF
330
6B
100
AcDbEntity
  8
0
 62
     3
100
AcDbLine
 10
111.812197
 20
0.140067
 30
0.0
 11
110.906197
 21
0.140067
 31
0.0
  0
LINE
  5
D0
330
6B
100
AcDbEntity
  8
0
 62
     3
100
AcDbLine
 10
110.906197
 20
0.140067
 30
0.0
 11
110.906197
 21
-0.222933
 31
0.0
  0
LINE
  5
D1
330
6B
100
AcDbEntity
  8
0
 62
     3
100
AcDbLine
 10
115.982197
 20
-0.222933
 30
0.0
 11
115.982197
 21
0.140067
 31
0.0
  0
LINE
  5
D2
330
6B
100
AcDbEntity
  8
0
 62
     3
100
AcDbLine
 10
115.982197
 20
0.140067
 30
0.0
 11
115.075197
 21
0.140067
 31
0.0
  0
LINE
  5
D3
330
6B
100
AcDbEntity
  8
0
 62
     3
100
AcDbLine
 10
109.275197
 20
-7.654932999999997
 30
0.0
 11
117.613197
 21
-7.654932999999997
 31
0.0
  0
LINE
  5
D4
330
6B
100
AcDbEntity
  8
0
 62
     3
100
AcDbLine
 10
114.532197
 20
8.112066999999999
 30
0.0
 11
114.532197
 21
3.402066999999998
 31
0.0
  0
LINE
  5
D5
330
6B
100
AcDbEntity
  8
0
 62
     3
100
AcDbLine
 10
112.356197
 20
7.124067
 30
0.0
 11
112.356197
 21
3.402066999999998
 31
0.0
  0
LINE
  5
D6
330
6B
100
AcDbEntity
  8
0
 62
     3
100
AcDbLine
 10
163.810256
 20
16.904709
 30
0.0
 11
158.910256
 21
16.904709
 31
0.0
  0
LINE
  5
D7
330
6B
100
AcDbEntity
  8
0
 62
     3
100
AcDbLine
 10
158.910256
 20
16.904709
 30
0.0
 11
158.910256
 21
-0.5952910000000001
 31
0.0
  0
LINE
  5
D8
330
6B
100
AcDbEntity
  8
0
 62
     3
100
AcDbLine
 10
163.810256
 20
16.904709
 30
0.0
 11
163.810256
 21
-0.5952910000000001
 31
0.0
  0
LINE
  5
D9
330
6B
100
AcDbEntity
  8
0
 62
     3
100
AcDbLine
 10
163.810256
 20
-0.5952910000000001
 30
0.0
 11
158.910256
 21
-0.5952910000000001
 31
0.0
  0
LINE
  5
DA
330
6B
100
AcDbEntity
  8
0
 62
     3
100
AcDbLine
 10
162.653256
 20
-0.660291
 30
0.0
 11
162.653256
 21
-6.545291
 31
0.0
  0
LINE
  5
DB
330
6B
100
AcDbEntity
  8
0
 62
     3
100
AcDbLine
 10
162.653256
 20
-6.545291
 30
0.0
 11
164.262256
 21
-15.030291
 31
0.0
  0
LINE
  5
DC
330
6B
100
AcDbEntity
  8
0
 62
     3
100
AcDbLine
 10
164.217256
 20
-15.076291
 30
0.0
 11
161.801256
 21
-17.578291
 31
0.0
  0
LINE
  5
DD
330
6B
100
AcDbEntity
  8
0
 62
     3
100
AcDbLine
 10
158.475256
 20
-16.297291
 30
0.0
 11
161.699256
 21
-17.600291
 31
0.0
  0
LINE
  5
DE
330
6B
100
AcDbEntity
  8
0
 62
     3
100
AcDbLine
 10
156.433256
 20
-7.868291
 30
0.0
 11
158.415256
 21
-16.273291
 31
0.0
  0
LINE
  5
DF
330
6B
100
AcDbEntity
  8
0
 62
     3
100
AcDbLine
 10
154.039256
 20
-2.491290999999999
 30
0.0
 11
156.433256
 21
-7.868291
 31
0.0
  0
LINE
  5
E0
330
6B
100
AcDbEntity
  8
0
 62
     3
100
AcDbLine
 10
156.743256
 20
-1.217290999999999
 30
0.0
 11
158.928256
 21
-4.311291
 31
0.0
  0
LINE
  5
E1
330
6B
100
AcDbEntity
  8
0
 62
     3
100
AcDbLine
 10
152.957256
 20
-2.902290999999998
 30
0.0
 11
157.433256
 21
-0.9092909999999999
 31
0.0
  0
LINE
  5
E2
330
6B
100
AcDbEntity
  8
0
 62
     3
100
AcDbLine
 10
150.315256
 20
15.077709
 30
0.0
 11
157.433256
 21
-0.9092909999999999
 31
0.0
  0
LINE
  5
E3
330
6B
100
AcDbEntity
  8
0
 62
     3
100
AcDbLine
 10
145.839256
 20
13.084709
 30
0.0
 11
152.957256
 21
-2.902290999999998
 31
0.0
  0
LINE
  5
E4
330
6B
100
AcDbEntity
  8
0
 62
     3
100
AcDbLine
 10
145.839256
 20
13.084709
 30
0.0
 11
150.315256
 21
15.077709
 31
0.0
  0
LINE
  5
E5
330
6B
100
AcDbEntity
  8
0
 62
     3
100
AcDbLine
 10
159.665256
 20
-0.5952910000000001
 30
0.0
 11
158.512256
 21
-6.409291
 31
0.0
  0
LINE
  5
E6
330
6B
100
AcDbEntity
  8
0
 62
     3
100
AcDbLine
 10
162.160256
 20
-14.644291
 30
0.0
 11
158.512256
 21
-6.409291
 31
0.0
  0
LINE
  5
E7
330
6B
100
AcDbEntity
  8
0
 62
     3
100
AcDbLine
 10
162.160256
 20
-14.644291
 30
0.0
 11
161.801256
 21
-17.578291
 31
0.0
  0
LINE
  5
E8
330
6B
100
AcDbEntity
  8
0
 62
     3
100
AcDbLine
 10
160.178256
 20
-15.065291
 30
0.0
 11
161.699256
 21
-17.600291
 31
0.0
  0
LINE
  5
E9
330
6B
100
AcDbEntity
  8
0
 62
     3
100
AcDbLine
 10
160.178256
 20
-15.065291
 30
0.0
 11
160.169256
 21
-10.150291
 31
0.0
  0
LINE
  5
EA
330
6B
100
AcDbEntity
  8
0
 62
     3
100
AcDbLine
 10
144.303256
 20
12.435709
 30
0.0
 11
139.403256
 21
12.435709
 31
0.0
  0
LINE
  5
EB
330
6B
100
AcDbEntity
  8
0
 62
     3
100
AcDbLine
 10
139.403256
 20
12.435709
 30
0.0
 11
139.403256
 21
-5.064291
 31
0.0
  0
LINE
  5
EC
330
6B
100
AcDbEntity
  8
0
 62
     3
100
AcDbLine
 10
144.303256
 20
12.435709
 30
0.0
 11
144.303256
 21
-5.064291
 31
0.0
  0
LINE
  5
ED
330
6B
100
AcDbEntity
  8
0
 62
     3
100
AcDbLine
 10
144.303256
 20
-5.064291
 30
0.0
 11
139.403256
 21
-5.064291
 31
0.0
  0
LINE
  5
EE
330
6B
100
AcDbEntity
  8
0
 62
     3
100
AcDbLine
 10
143.147256
 20
-5.128290999999999
 30
0.0
 11
143.147256
 21
-11.014291
 31
0.0
  0
LINE
  5
EF
330
6B
100
AcDbEntity
  8
0
 62
     3
100
AcDbLine
 10
143.147256
 20
-11.014291
 30
0.0
 11
144.755256
 21
-19.499291
 31
0.0
  0
LINE
  5
F0
330
6B
100
AcDbEntity
  8
0
 62
     3
100
AcDbLine
 10
144.710256
 20
-19.545291
 30
0.0
 11
142.295256
 21
-22.047291
 31
0.0
  0
LINE
  5
F1
330
6B
100
AcDbEntity
  8
0
 62
     3
100
AcDbLine
 10
138.968256
 20
-20.766291
 30
0.0
 11
142.192256
 21
-22.068291
 31
0.0
  0
LINE
  5
F2
330
6B
100
AcDbEntity
  8
0
 62
     3
100
AcDbLine
 10
136.927256
 20
-12.336291
 30
0.0
 11
138.908256
 21
-20.741291
 31
0.0
  0
LINE
  5
F3
330
6B
100
AcDbEntity
  8
0
 62
     3
100
AcDbLine
 10
134.533256
 20
-6.959291
 30
0.0
 11
136.927256
 21
-12.336291
 31
0.0
  0
LINE
  5
F4
330
6B
100
AcDbEntity
  8
0
 62
     3
100
AcDbLine
 10
137.237256
 20
-5.685291
 30
0.0
 11
139.422256
 21
-8.780291
 31
0.0
  0
LINE
  5
F5
330
6B
100
AcDbEntity
  8
0
 62
     3
100
AcDbLine
 10
133.450256
 20
-7.371291
 30
0.0
 11
137.927256
 21
-5.378290999999999
 31
0.0
  0
LINE
  5
F6
330
6B
100
AcDbEntity
  8
0
 62
     3
100
AcDbLine
 10
130.809256
 20
10.608709
 30
0.0
 11
137.927256
 21
-5.378290999999999
 31
0.0
  0
LINE
  5
F7
330
6B
100
AcDbEntity
  8
0
 62
     3
100
AcDbLine
 10
126.332256
 20
8.615708999999997
 30
0.0
 11
133.450256
 21
-7.371291
 31
0.0
  0
LINE
  5
F8
330
6B
100
AcDbEntity
  8
0
 62
     3
100
AcDbLine
 10
126.332256
 20
8.615708999999997
 30
0.0
 11
130.809256
 21
10.608709
 31
0.0
  0
LINE
  5
F9
330
6B
100
AcDbEntity
  8
0
 62
     3
100
AcDbLine
 10
140.159256
 20
-5.064291
 30
0.0
 11
139.005256
 21
-10.878291
 31
0.0
  0
LINE
  5
FA
330
6B
100
AcDbEntity
  8
0
 62
     3
100
AcDbLine
 10
142.654256
 20
-19.113291
 30
0.0
 11
139.005256
 21
-10.878291
 31
0.0
  0
LINE
  5
FB
330
6B
100
AcDbEntity
  8
0
 62
     3
100
AcDbLine
 10
142.654256
 20
-19.113291
 30
0.0
 11
142.295256
 21
-22.047291
 31
0.0
  0
LINE
  5
FC
330
6B
100
AcDbEntity
  8
0
 62
     3
100
AcDbLine
 10
140.672256
 20
-19.534291
 30
0.0
 11
142.192256
 21
-22.068291
 31
0.0
  0
LINE
  5
FD
330
6B
100
AcDbEntity
  8
0
 62
     3
100
AcDbLine
 10
140.672256
 20
-19.534291
 30
0.0
 11
140.663256
 21
-14.619291
 31
0.0
  0
LINE
  5
FE
330
6B
100
AcDbEntity
  8
0
 62
     3
100
AcDbLine
 10
99.63774800000001
 20
33.290709
 30
0.0
 11
151.293256
 21
33.290709
 31
0.0
  0
LINE
  5
FF
330
6B
100
AcDbEntity
  8
0
 62
     3
100
AcDbLine
 10
120.154256
 20
30.423709
 30
0.0
 11
99.63774800000001
 21
30.423709
 31
0.0
  0
LINE
  5
100
330
6B
100
AcDbEntity
  8
0
 62
     3
100
AcDbLine
 10
131.920256
 20
30.423709
 30
0.0
 11
120.154256
 21
30.423709
 31
0.0
  0
ARC
  5
101
330
6B
100
AcDbEntity
  8
0
 62
     3
100
AcDbCircle
 10
131.920256
 20
21.923709
 30
0.0
 40
8.5
100
AcDbArc
 50
0.0
 51
90.0
  0
ARC
  5
102
330
6B
100
AcDbEntity
  8
0
 62
     3
100
AcDbCircle
 10
131.787256
 20
21.790709
 30
0.0
 40
11.5
100
AcDbArc
 50
2.494829
 51
90.0
  0
LINE
  5
103
330
6B
100
AcDbEntity
  8
0
 62
     3
100
AcDbLine
 10
143.287256
 20
20.589717
 30
0.0
 11
143.287256
 21
12.435709
 31
0.0
  0
LINE
  5
104
330
6B
100
AcDbEntity
  8
0
 62
     3
100
AcDbLine
 10
140.420256
 20
19.897051
 30
0.0
 11
140.420256
 21
12.435709
 31
0.0
  0
ARC
  5
105
330
6B
100
AcDbEntity
  8
0
 62
     3
100
AcDbCircle
 10
151.426256
 20
21.923709
 30
0.0
 40
8.5
100
AcDbArc
 50
0.0
 51
90.0
  0
ARC
  5
106
330
6B
100
AcDbEntity
  8
0
 62
     3
100
AcDbCircle
 10
151.293256
 20
21.790709
 30
0.0
 40
11.5
100
AcDbArc
 50
4.060119999999998
 51
90.0
  0
LINE
  5
107
330
6B
100
AcDbEntity
  8
0
 62
     3
100
AcDbLine
 10
159.926256
 20
20.199036
 30
0.0
 11
159.926256
 21
16.904709
 31
0.0
  0
LINE
  5
108
330
6B
100
AcDbEntity
  8
0
 62
     3
100
AcDbLine
 10
162.793256
 20
20.901614
 30
0.0
 11
162.793256
 21
16.904709
 31
0.0
  0
LINE
  5
109
330
6B
100
AcDbEntity
  8
0
 62
     3
100
AcDbLine
 10
151.426256
 20
30.423709
 30
0.0
 11
139.384711
 21
30.423709
 31
0.0
  0
LINE
  5
140
330
6B
100
AcDbEntity
  8
0
 62
     3
100
AcDbLine
 10
112.356197
 20
9.064994999999999
 30
0.0
 11
112.356197
 21
28.673027
 31
0.0
  0
LINE
  5
141
330
6B
100
AcDbEntity
  8
0
 62
     3
100
AcDbLine
 10
114.532198
 20
9.950305999999999
 30
0.0
 11
114.532198
 21
28.598705
 31
0.0
  0
ARC
  5
142
330
6B
100
AcDbEntity
  8
0
 62
     3
100
AcDbCircle
 10
98.63774800000001
 20
34.667111
 30
0.0
 40
1.0
100
AcDbArc
 50
0.0
 51
90.0
  0
ARC
  5
143
330
6B
100
AcDbEntity
  8
0
 62
     3
100
AcDbCircle
 10
98.63774800000001
 20
28.267111
 30
0.0
 40
1.0
100
AcDbArc
 50
270.0
 51
0.0
  0
TEXT
  5
144
330
6B
100
AcDbEntity
  8
0
 62
     3
100
AcDbText
 10
160.584048
 20
-128.027009
 30
0.0
 40
3.2
  1
1995.4.26
  7
高3.2
100
AcDbText
  0
TEXT
  5
145
330
6B
100
AcDbEntity
  8
0
 62
     3
100
AcDbText
 10
93.91828167223698
 20
-69.32000399999999
 30
0.0
 40
3.2
  1
セルスタート時電流
 41
0.8
  7
高3.2
100
AcDbText
  0
TEXT
  5
146
330
6B
100
AcDbEntity
  8
0
 62
     3
100
AcDbText
 10
93.91828167223698
 20
-75.97280400000002
 30
0.0
 40
3.2
  1
保護機能
  7
高3.2
100
AcDbText
  0
LINE
  5
163
330
6B
100
AcDbEntity
  8
0
 62
     3
100
AcDbLine
 10
-8.362251999999998
 20
25.467111
 30
0.0
 11
-2.362252
 21
19.467111
 31
0.0
  0
LINE
  5
164
330
6B
100
AcDbEntity
  8
0
 62
     3
100
AcDbLine
 10
-136.2237
 20
81.62254899999998
 30
0.0
 11
-136.2237
 21
68.422549
 31
0.0
  0
LINE
  5
165
330
6B
100
AcDbEntity
  8
0
 62
     3
100
AcDbLine
 10
-136.2237
 20
81.62254899999998
 30
0.0
 11
-158.4237
 21
81.62254899999998
 31
0.0
  0
LINE
  5
166
330
6B
100
AcDbEntity
  8
0
 62
     3
100
AcDbLine
 10
-158.4237
 20
68.422549
 30
0.0
 11
-158.4237
 21
81.62254899999998
 31
0.0
  0
LINE
  5
167
330
6B
100
AcDbEntity
  8
0
 62
     3
100
AcDbLine
 10
-136.2237
 20
68.422549
 30
0.0
 11
-158.4237
 21
68.422549
 31
0.0
  0
LINE
  5
168
330
6B
100
AcDbEntity
  8
0
 62
     3
100
AcDbLine
 10
-41.36225200000001
 20
19.467111
 30
0.0
 11
-163.282252
 21
19.467111
 31
0.0
  0
LINE
  5
169
330
6B
100
AcDbEntity
  8
0
100
AcDbLine
 10
-49.301543
 20
81.13861099999999
 30
0.0
 11
-56.02154300000001
 21
81.13861099999999
 31
0.0
  0
LINE
  5
16A
330
6B
100
AcDbEntity
  8
0
100
AcDbLine
 10
-56.02154300000001
 20
67.21861099999999
 30
0.0
 11
-56.02154300000001
 21
81.13861099999999
 31
0.0
  0
LINE
  5
16B
330
6B
100
AcDbEntity
  8
0
100
AcDbLine
 10
-49.301543
 20
81.13861099999999
 30
0.0
 11
-49.301543
 21
67.21861099999999
 31
0.0
  0
LINE
  5
16C
330
6B
100
AcDbEntity
  8
0
100
AcDbLine
 10
-49.301543
 20
67.21861099999999
 30
0.0
 11
-56.02154300000001
 21
67.21861099999999
 31
0.0
  0
LINE
  5
16D
330
6B
100
AcDbEntity
  8
0
100
AcDbLine
 10
163.810256
 20
13.054709
 30
0.0
 11
158.910256
 21
13.054709
 31
0.0
  0
LINE
  5
16E
330
6B
100
AcDbEntity
  8
0
100
AcDbLine
 10
163.810256
 20
11.654709
 30
0.0
 11
158.910256
 21
11.654709
 31
0.0
  0
LINE
  5
16F
330
6B
100
AcDbEntity
  8
0
100
AcDbLine
 10
163.810256
 20
10.254709
 30
0.0
 11
158.910256
 21
10.254709
 31
0.0
  0
LINE
  5
170
330
6B
100
AcDbEntity
  8
0
100
AcDbLine
 10
163.810256
 20
8.854708999999997
 30
0.0
 11
158.910256
 21
8.854708999999997
 31
0.0
  0
LINE
  5
171
330
6B
100
AcDbEntity
  8
0
100
AcDbLine
 10
163.810256
 20
7.454708999999997
 30
0.0
 11
158.910256
 21
7.454708999999997
 31
0.0
  0
LINE
  5
172
330
6B
100
AcDbEntity
  8
0
100
AcDbLine
 10
163.810256
 20
6.054708999999999
 30
0.0
 11
158.910256
 21
6.054708999999999
 31
0.0
  0
LINE
  5
173
330
6B
100
AcDbEntity
  8
0
100
AcDbLine
 10
163.810256
 20
4.654708999999998
 30
0.0
 11
158.910256
 21
4.654708999999998
 31
0.0
  0
LINE
  5
174
330
6B
100
AcDbEntity
  8
0
100
AcDbLine
 10
163.810256
 20
3.254709
 30
0.0
 11
158.910256
 21
3.254709
 31
0.0
  0
LINE
  5
175
330
6B
100
AcDbEntity
  8
0
100
AcDbLine
 10
163.810256
 20
1.854708999999999
 30
0.0
 11
158.910256
 21
1.854708999999999
 31
0.0
  0
LINE
  5
176
330
6B
100
AcDbEntity
  8
0
100
AcDbLine
 10
147.405256
 20
9.567708999999997
 30
0.0
 11
151.881256
 21
11.560709
 31
0.0
  0
LINE
  5
177
330
6B
100
AcDbEntity
  8
0
100
AcDbLine
 10
147.974256
 20
8.288708999999997
 30
0.0
 11
152.450256
 21
10.281709
 31
0.0
  0
LINE
  5
178
330
6B
100
AcDbEntity
  8
0
100
AcDbLine
 10
148.544256
 20
7.009708999999999
 30
0.0
 11
153.020256
 21
9.002708999999997
 31
0.0
  0
LINE
  5
179
330
6B
100
AcDbEntity
  8
0
100
AcDbLine
 10
149.113256
 20
5.730709
 30
0.0
 11
153.589256
 21
7.723708999999997
 31
0.0
  0
LINE
  5
17A
330
6B
100
AcDbEntity
  8
0
100
AcDbLine
 10
149.682256
 20
4.451708999999999
 30
0.0
 11
154.159256
 21
6.444708999999997
 31
0.0
  0
LINE
  5
17B
330
6B
100
AcDbEntity
  8
0
100
AcDbLine
 10
150.821256
 20
1.893709
 30
0.0
 11
155.298256
 21
3.886708999999998
 31
0.0
  0
LINE
  5
17C
330
6B
100
AcDbEntity
  8
0
100
AcDbLine
 10
151.391256
 20
0.6147090000000001
 30
0.0
 11
155.867256
 21
2.607708999999998
 31
0.0
  0
LINE
  5
17D
330
6B
100
AcDbEntity
  8
0
100
AcDbLine
 10
151.960216
 20
-0.6653090000000002
 30
0.0
 11
156.437216
 21
1.327690999999999
 31
0.0
  0
LINE
  5
17E
330
6B
100
AcDbEntity
  8
0
100
AcDbLine
 10
150.252256
 20
3.172709
 30
0.0
 11
154.728256
 21
5.165708999999996
 31
0.0
  0
LINE
  5
17F
330
6B
100
AcDbEntity
  8
0
100
AcDbLine
 10
144.303256
 20
8.585708999999999
 30
0.0
 11
139.403256
 21
8.585708999999999
 31
0.0
  0
LINE
  5
180
330
6B
100
AcDbEntity
  8
0
100
AcDbLine
 10
144.303256
 20
7.185708999999999
 30
0.0
 11
139.403256
 21
7.185708999999999
 31
0.0
  0
LINE
  5
181
330
6B
100
AcDbEntity
  8
0
100
AcDbLine
 10
144.303256
 20
5.785708999999997
 30
0.0
 11
139.403256
 21
5.785708999999997
 31
0.0
  0
LINE
  5
182
330
6B
100
AcDbEntity
  8
0
100
AcDbLine
 10
144.303256
 20
4.385708999999998
 30
0.0
 11
139.403256
 21
4.385708999999998
 31
0.0
  0
LINE
  5
183
330
6B
100
AcDbEntity
  8
0
100
AcDbLine
 10
144.303256
 20
2.985708999999998
 30
0.0
 11
139.403256
 21
2.985708999999998
 31
0.0
  0
LINE
  5
184
330
6B
100
AcDbEntity
  8
0
100
AcDbLine
 10
144.303256
 20
1.585709
 30
0.0
 11
139.403256
 21
1.585709
 31
0.0
  0
LINE
  5
185
330
6B
100
AcDbEntity
  8
0
100
AcDbLine
 10
144.303256
 20
0.185709
 30
0.0
 11
139.403256
 21
0.185709
 31
0.0
  0
LINE
  5
186
330
6B
100
AcDbEntity
  8
0
100
AcDbLine
 10
144.303256
 20
-1.214291
 30
0.0
 11
139.403256
 21
-1.214291
 31
0.0
  0
LINE
  5
187
330
6B
100
AcDbEntity
  8
0
100
AcDbLine
 10
144.303256
 20
-2.614291
 30
0.0
 11
139.403256
 21
-2.614291
 31
0.0
  0
LINE
  5
188
330
6B
100
AcDbEntity
  8
0
100
AcDbLine
 10
127.898256
 20
5.098708999999998
 30
0.0
 11
132.375256
 21
7.091708999999998
 31
0.0
  0
LINE
  5
189
330
6B
100
AcDbEntity
  8
0
100
AcDbLine
 10
128.468256
 20
3.819708999999998
 30
0.0
 11
132.944256
 21
5.812708999999999
 31
0.0
  0
LINE
  5
18A
330
6B
100
AcDbEntity
  8
0
100
AcDbLine
 10
129.037256
 20
2.540709
 30
0.0
 11
133.514256
 21
4.533708999999999
 31
0.0
  0
LINE
  5
18B
330
6B
100
AcDbEntity
  8
0
100
AcDbLine
 10
129.607256
 20
1.261708999999997
 30
0.0
 11
134.083256
 21
3.254709
 31
0.0
  0
LINE
  5
18C
330
6B
100
AcDbEntity
  8
0
100
AcDbLine
 10
130.176256
 20
-0.017291
 30
0.0
 11
134.652256
 21
1.975708999999999
 31
0.0
  0
LINE
  5
18D
330
6B
100
AcDbEntity
  8
0
100
AcDbLine
 10
130.746256
 20
-1.296291
 30
0.0
 11
135.222256
 21
0.6967090000000003
 31
0.0
  0
LINE
  5
18E
330
6B
100
AcDbEntity
  8
0
100
AcDbLine
 10
131.315256
 20
-2.575290999999999
 30
0.0
 11
135.791256
 21
-0.5822910000000002
 31
0.0
  0
LINE
  5
18F
330
6B
100
AcDbEntity
  8
0
100
AcDbLine
 10
131.884256
 20
-3.854291
 30
0.0
 11
136.361256
 21
-1.861290999999999
 31
0.0
  0
LINE
  5
190
330
6B
100
AcDbEntity
  8
0
100
AcDbLine
 10
132.453844
 20
-5.132474
 30
0.0
 11
136.930844
 21
-3.139474
 31
0.0
  0
LINE
  5
198
330
6B
100
AcDbEntity
  8
0
100
AcDbLine
 10
110.906197
 20
-0.222933
 30
0.0
 11
115.982197
 21
-0.222933
 31
0.0
  0
LINE
  5
199
330
6B
100
AcDbEntity
  8
0
100
AcDbLine
 10
111.812197
 20
-7.654932999999997
 30
0.0
 11
111.812197
 21
-12.367933
 31
0.0
  0
LINE
  5
19A
330
6B
100
AcDbEntity
  8
0
100
AcDbLine
 10
111.812197
 20
-12.367933
 30
0.0
 11
111.087197
 21
-12.367933
 31
0.0
  0
LINE
  5
19B
330
6B
100
AcDbEntity
  8
0
100
AcDbLine
 10
111.087197
 20
-12.367933
 30
0.0
 11
111.087197
 21
-7.654932999999997
 31
0.0
  0
LINE
  5
19C
330
6B
100
AcDbEntity
  8
0
100
AcDbLine
 10
115.801197
 20
-7.654932999999997
 30
0.0
 11
115.801197
 21
-12.367933
 31
0.0
  0
LINE
  5
19D
330
6B
100
AcDbEntity
  8
0
100
AcDbLine
 10
115.801197
 20
-12.367933
 30
0.0
 11
115.075197
 21
-12.367933
 31
0.0
  0
LINE
  5
19E
330
6B
100
AcDbEntity
  8
0
100
AcDbLine
 10
115.075197
 20
-12.367933
 30
0.0
 11
115.075197
 21
-7.654932999999997
 31
0.0
  0
LINE
  5
19F
330
6B
100
AcDbEntity
  8
0
100
AcDbLine
 10
-55.06154300000001
 20
74.178611
 30
0.0
 11
-50.26154299999999
 21
74.178611
 31
0.0
  0
TEXT
  5
1A0
330
6B
100
AcDbEntity
  8
0
100
AcDbText
 10
-161.663542
 20
20.339314
 30
0.0
 40
3.072
  1
MODEL
100
AcDbText
  0
TEXT
  5
1A1
330
6B
100
AcDbEntity
  8
0
100
AcDbText
 10
-87.007737
 20
20.783349
 30
0.0
 40
3.839999999999998
  1
NICHIDO IND.CO.LTD
 41
0.708249
100
AcDbText
  0
LINE
  5
1A2
330
6B
100
AcDbEntity
  8
0
100
AcDbLine
 10
113.272698
 20
-34.817339
 30
0.0
 11
151.072698
 21
-34.817339
 31
0.0
  0
LINE
  5
1A5
330
6B
100
AcDbEntity
  8
0
 62
     3
100
AcDbLine
 10
169.300637
 20
-121.834277
 30
0.0
 11
169.300637
 21
-98.834277
 31
0.0
  0
LINE
  5
1A7
330
6B
100
AcDbEntity
  8
0
 62
     3
100
AcDbLine
 10
116.247027
 20
-128.834277
 30
0.0
 11
116.247027
 21
-114.834277
 31
0.0
  0
TEXT
  5
1A9
330
6B
100
AcDbEntity
  8
0
 62
     3
100
AcDbText
 10
145.310955
 20
-102.629161
 30
0.0
 40
2.0
  1
A
 41
0.7
100
AcDbText
  0
TEXT
  5
1AA
330
6B
100
AcDbEntity
  8
0
 62
     3
100
AcDbText
 10
147.846241
 20
-102.629161
 30
0.0
 40
2.0
  1
P
 41
0.7
100
AcDbText
  0
TEXT
  5
1AB
330
6B
100
AcDbEntity
  8
0
 62
     3
100
AcDbText
 10
150.381527
 20
-102.629161
 30
0.0
 40
2.0
  1
P
 41
0.7
100
AcDbText
  0
TEXT
  5
1AC
330
6B
100
AcDbEntity
  8
0
 62
     3
100
AcDbText
 10
152.916813
 20
-102.629161
 30
0.0
 40
2.0
  1
D
 41
0.7
100
AcDbText
  0
TEXT
  5
1AD
330
6B
100
AcDbEntity
  8
0
 62
     3
100
AcDbText
 10
158.285496
 20
-102.629161
 30
0.0
 40
2.0
  1
C
 41
0.7
100
AcDbText
  0
TEXT
  5
1AE
330
6B
100
AcDbEntity
  8
0
 62
     3
100
AcDbText
 10
160.820783
 20
-102.629161
 30
0.0
 40
2.0
  1
H
 41
0.7
100
AcDbText
  0
TEXT
  5
1AF
330
6B
100
AcDbEntity
  8
0
 62
     3
100
AcDbText
 10
163.356069
 20
-102.629161
 30
0.0
 40
2.0
  1
C
 41
0.7
100
AcDbText
  0
TEXT
  5
1B0
330
6B
100
AcDbEntity
  8
0
 62
     3
100
AcDbText
 10
165.891355
 20
-102.629161
 30
0.0
 40
2.0
  1
K
 41
0.7
100
AcDbText
  0
TEXT
  5
1B1
330
6B
100
AcDbEntity
  8
0
 62
     3
100
AcDbText
 10
171.565322
 20
-102.629161
 30
0.0
 40
2.0
  1
DESN
 41
1.216762999999998
100
AcDbText
  0
TEXT
  5
1B2
330
6B
100
AcDbEntity
  8
0
 62
     3
100
AcDbText
 10
86.558963
 20
-131.975659
 30
0.0
 40
2.0
  1
NICHIDO IND.CO.LTD
 41
1.274876
100
AcDbText
  0
LINE
  5
1B3
330
6B
100
AcDbEntity
  8
0
 62
     3
100
AcDbLine
 10
96.94199199999999
 20
-98.834277
 30
0.0
 11
96.94199199999999
 21
-121.834277
 31
0.0
  0
LINE
  5
1B4
330
6B
100
AcDbEntity
  8
0
 62
     3
100
AcDbLine
 10
143.300637
 20
-98.834277
 30
0.0
 11
143.300637
 21
-138.5
 31
0.0
  0
LINE
  5
1B9
330
6B
100
AcDbEntity
  8
0
 62
     3
100
AcDbLine
 10
156.300637
 20
-98.834277
 30
0.0
 11
156.300637
 21
-128.834277
 31
0.0
  0
TEXT
  5
1BA
330
6B
100
AcDbEntity
  8
0
 62
     3
100
AcDbText
 10
144.413081
 20
-127.969591
 30
0.0
 40
3.2
  1
作成日
 41
1.017225999999997
100
AcDbText
  0
LINE
  5
1BB
330
6B
100
AcDbEntity
  8
0
 62
     3
100
AcDbLine
 10
195.0
 20
-98.834277
 30
0.0
 11
83.696558
 21
-98.834277
 31
0.0
  0
LINE
  5
1BC
330
6B
100
AcDbEntity
  8
0
 62
     3
100
AcDbLine
 10
182.300637
 20
-121.834277
 30
0.0
 11
182.300637
 21
-98.834277
 31
0.0
  0
TEXT
  5
1BD
330
6B
100
AcDbEntity
  8
0
 62
     3
100
AcDbText
 10
185.62444
 20
-102.543343
 30
0.0
 40
1.8
  1
D
 41
0.666667
100
AcDbText
  0
TEXT
  5
1BE
330
6B
100
AcDbEntity
  8
0
 62
     3
100
AcDbText
 10
188.441068
 20
-102.543343
 30
0.0
 40
1.8
  1
E
 41
0.666667
100
AcDbText
  0
TEXT
  5
1BF
330
6B
100
AcDbEntity
  8
0
 62
     3
100
AcDbText
 10
191.257696
 20
-102.543343
 30
0.0
 40
1.8
  1
F
 41
0.666667
100
AcDbText
  0
TEXT
  5
1C0
330
6B
100
AcDbEntity
  8
0
 62
     3
100
AcDbText
 10
185.62444
 20
-106.535896
 30
0.0
 40
3.2
  1
製図
 41
1.076369
100
AcDbText
  0
LINE
  5
1C1
330
6B
100
AcDbEntity
  8
0
 62
     3
100
AcDbLine
 10
83.696558
 20
-98.834277
 30
0.0
 11
83.696558
 21
-138.5
 31
0.0
  0
TEXT
  5
1C2
330
6B
100
AcDbEntity
  8
0
 62
     3
100
AcDbText
 10
85.07321000000002
 20
-138.167535
 30
0.0
 40
5.0
  1
日動工業株式会社
 41
0.833333
100
AcDbText
  0
LINE
  5
1C3
330
6B
100
AcDbEntity
  8
0
 62
     3
100
AcDbLine
 10
126.578961
 20
-114.834277
 30
0.0
 11
126.578961
 21
-138.5
 31
0.0
  0
LINE
  5
1C4
330
6B
100
AcDbEntity
  8
0
 62
     3
100
AcDbLine
 10
126.578961
 20
-133.667139
 30
0.0
 11
143.300637
 21
-133.667139
 31
0.0
  0
TEXT
  5
1C5
330
6B
100
AcDbEntity
  8
0
 62
     3
100
AcDbText
 10
127.165563
 20
-132.850708
 30
0.0
 40
3.2
  1
出図コード
 41
0.8356860000000001
100
AcDbText
  0
LINE
  5
1C7
330
6B
100
AcDbEntity
  8
0
 62
     3
100
AcDbLine
 10
83.696558
 20
-128.834277
 30
0.0
 11
195.0
 21
-128.834277
 31
0.0
  0
LINE
  5
1C9
330
6B
100
AcDbEntity
  8
0
 62
     3
100
AcDbLine
 10
83.696558
 20
-107.834277
 30
0.0
 11
195.0
 21
-107.834277
 31
0.0
  0
LINE
  5
1CF
330
6B
100
AcDbEntity
  8
0
 62
     3
100
AcDbLine
 10
83.696558
 20
-114.834277
 30
0.0
 11
143.300637
 21
-114.834277
 31
0.0
  0
LINE
  5
1D5
330
6B
100
AcDbEntity
  8
0
 62
     3
100
AcDbLine
 10
83.696558
 20
-121.834277
 30
0.0
 11
195.0
 21
-121.834277
 31
0.0
  0
TEXT
  5
1D6
330
6B
100
AcDbEntity
  8
0
 62
     3
100
AcDbText
 10
127.2662145924791
 20
-138.1484974798733
 30
0.0
 40
3.2
  1
ZK-A3X
 41
0.8112849999999999
100
AcDbText
  0
TEXT
  5
1D7
330
6B
100
AcDbEntity
  8
0
 62
     3
100
AcDbText
 10
85.513954
 20
-102.664752
 30
0.0
 40
2.0
  1
CONPONENTS
 41
0.5331600000000001
100
AcDbText
  0
TEXT
  5
1D8
330
6B
100
AcDbEntity
  8
0
 62
     3
100
AcDbText
 10
85.164228
 20
-121.596928
 30
0.0
 40
3.0
  1
材
 41
0.833333
100
AcDbText
  0
TEXT
  5
1D9
330
6B
100
AcDbEntity
  8
0
 62
     3
100
AcDbText
 10
92.69986999999998
 20
-121.596928
 30
0.0
 40
3.0
  1
質
 41
0.833333
100
AcDbText
  0
TEXT
  5
1DA
330
6B
100
AcDbEntity
  8
0
 62
     3
100
AcDbText
 10
85.25229799999998
 20
-110.972404
 30
0.0
 40
2.0
  1
MODEL
 41
1.031072999999999
100
AcDbText
  0
TEXT
  5
1DB
330
6B
100
AcDbEntity
  8
0
 62
     3
100
AcDbText
 10
85.164228
 20
-117.91462
 30
0.0
 40
2.0
  1
MATERIAL
 41
0.659278
100
AcDbText
  0
TEXT
  5
1DC
330
6B
100
AcDbEntity
  8
0
 62
     3
100
AcDbText
 10
116.471508
 20
-121.596928
 30
0.0
 40
3.0
  1
備
 41
0.833333
100
AcDbText
  0
TEXT
  5
1DD
330
6B
100
AcDbEntity
  8
0
 62
     3
100
AcDbText
 10
123.20451
 20
-121.596928
 30
0.0
 40
3.0
  1
考
 41
0.833333
100
AcDbText
  0
TEXT
  5
1DE
330
6B
100
AcDbEntity
  8
0
 62
     3
100
AcDbText
 10
116.8154087415464
 20
-117.91462
 30
0.0
 40
2.0
  1
REMARKS
 41
0.675794
100
AcDbText
  0
TEXT
  5
1DF
330
6B
100
AcDbEntity
  8
0
 62
     3
100
AcDbText
 10
86.75395700000001
 20
-124.834741
 30
0.0
 40
2.0
  1
3AD
 41
1.42614
100
AcDbText
  0
TEXT
  5
1E0
330
6B
100
AcDbEntity
  8
0
 62
     3
100
AcDbText
 10
96.06493700000001
 20
-124.669007
 30
0.0
 40
2.0
  1
ANGLE
 41
1.669883999999995
100
AcDbText
  0
TEXT
  5
1E1
330
6B
100
AcDbEntity
  8
0
 62
     3
100
AcDbText
 10
116.998824
 20
-125.045848
 30
0.0
 40
2.0
  1
SCALE
 41
0.7719630000000001
100
AcDbText
  0
TEXT
  5
1E2
330
6B
100
AcDbEntity
  8
0
 62
     3
100
AcDbText
 10
86.440087
 20
-128.834277
 30
0.0
 40
3.0
  1
第
 41
0.833333
100
AcDbText
  0
TEXT
  5
1E3
330
6B
100
AcDbEntity
  8
0
 62
     3
100
AcDbText
 10
94.22693700000001
 20
-128.834277
 30
0.0
 40
3.0
  1
三
 41
0.833333
100
AcDbText
  0
TEXT
  5
1E4
330
6B
100
AcDbEntity
  8
0
 62
     3
100
AcDbText
 10
102.013787
 20
-128.834277
 30
0.0
 40
3.0
  1
角
 41
0.833333
100
AcDbText
  0
TEXT
  5
1E5
330
6B
100
AcDbEntity
  8
0
 62
     3
100
AcDbText
 10
109.800637
 20
-128.834277
 30
0.0
 40
3.0
  1
法
 41
0.833333
100
AcDbText
  0
TEXT
  5
1E6
330
6B
100
AcDbEntity
  8
0
 62
     3
100
AcDbText
 10
116.862029
 20
-128.545848
 30
0.0
 40
3.0
  1
尺
 41
0.833333
100
AcDbText
  0
TEXT
  5
1E7
330
6B
100
AcDbEntity
  8
0
 62
     3
100
AcDbText
 10
123.59503
 20
-128.545848
 30
0.0
 40
3.0
  1
度
 41
0.833333
100
AcDbText
  0
TEXT
  5
1E8
330
6B
100
AcDbEntity
  8
0
 62
     3
100
AcDbText
 10
146.178301
 20
-106.376549
 30
0.0
 40
3.0
  1
承認
 41
1.089472999999999
100
AcDbText
  0
TEXT
  5
1E9
330
6B
100
AcDbEntity
  8
0
 62
     3
100
AcDbText
 10
159.421181
 20
-106.434277
 30
0.0
 40
3.0
  1
検図
 41
0.931761
100
AcDbText
  0
TEXT
  5
1EA
330
6B
100
AcDbEntity
  8
0
 62
     3
100
AcDbText
 10
172.421578
 20
-106.434277
 30
0.0
 40
3.0
  1
設
 41
0.833333
100
AcDbText
  0
TEXT
  5
1EB
330
6B
100
AcDbEntity
  8
0
 62
     3
100
AcDbText
 10
176.911446
 20
-106.434277
 30
0.0
 40
3.0
  1
計
 41
0.833333
100
AcDbText
  0
TEXT
  5
1EC
330
6B
100
AcDbEntity
  8
0
 62
     3
100
AcDbText
 10
85.584061
 20
-106.261725
 30
0.0
 40
3.0
  1
品
 41
0.833333
100
AcDbText
  0
TEXT
  5
1ED
330
6B
100
AcDbEntity
  8
0
 62
     3
100
AcDbText
 10
93.119703
 20
-106.261725
 30
0.0
 40
3.0
  1
名
 41
0.833333
100
AcDbText
  0
TEXT
  5
1EE
330
6B
100
AcDbEntity
  8
0
 62
     3
100
AcDbText
 10
85.25229799999998
 20
-114.5112338507345
 30
0.0
 40
3.0
  1
型
 41
0.833333
100
AcDbText
  0
TEXT
  5
1EF
330
6B
100
AcDbEntity
  8
0
 62
     3
100
AcDbText
 10
92.80038899999999
 20
-114.5112338507345
 30
0.0
 40
3.0
  1
式
 41
0.833333
100
AcDbText
  0
LINE
  5
1F0
330
6B
100
AcDbEntity
  8
0
 62
     3
100
AcDbLine
 10
-207.401924
 20
2.0
 30
0.0
 11
-210.0
 21
0.5
 31
0.0
  0
LINE
  5
1F1
330
6B
100
AcDbEntity
  8
0
 62
     3
100
AcDbLine
 10
-207.401924
 20
2.0
 30
0.0
 11
-210.0
 21
3.5
 31
0.0
  0
LINE
  5
1F2
330
6B
100
AcDbEntity
  8
0
 62
     3
100
AcDbLine
 10
-210.0
 20
0.5
 30
0.0
 11
-210.0
 21
3.5
 31
0.0
  0
LINE
  5
1F3
330
6B
100
AcDbEntity
  8
0
 62
     3
100
AcDbLine
 10
-41.36225200000001
 20
82.42711099999999
 30
0.0
 11
-41.36225200000001
 21
19.467111
 31
0.0
  0
LINE
  5
1F4
330
6B
100
AcDbEntity
  8
0
 62
     3
100
AcDbLine
 10
-45.362252
 20
86.42711099999997
 30
0.0
 11
-159.282252
 21
86.42711099999997
 31
0.0
  0
LINE
  5
1F5
330
6B
100
AcDbEntity
  8
0
 62
     3
100
AcDbLine
 10
-163.282252
 20
82.42711099999999
 30
0.0
 11
-163.282252
 21
19.467111
 31
0.0
  0
ARC
  5
1F6
330
6B
100
AcDbEntity
  8
0
100
AcDbCircle
 10
-147.3231
 20
62.438123
 30
0.0
 40
15.0
100
AcDbArc
 50
56.88572900000001
 51
118.861039
  0
LINE
  5
1F7
330
6B
100
AcDbEntity
  8
0
100
AcDbLine
 10
-148.466261
 20
78.296975
 30
0.0
 11
-148.54471
 21
79.19365
 31
0.0
  0
LINE
  5
1F8
330
6B
100
AcDbEntity
  8
0
100
AcDbLine
 10
-149.604866
 20
78.173546
 30
0.0
 11
-149.761218
 21
79.060264
 31
0.0
  0
LINE
  5
1F9
330
6B
100
AcDbEntity
  8
0
100
AcDbLine
 10
-150.735134
 20
77.967709
 30
0.0
 11
-150.9683
 21
78.83789499999998
 31
0.0
  0
LINE
  5
1FA
330
6B
100
AcDbEntity
  8
0
100
AcDbLine
 10
-151.852721
 20
77.67926899999998
 30
0.0
 11
-152.161068
 21
78.52644399999999
 31
0.0
  0
LINE
  5
1FB
330
6B
100
AcDbEntity
  8
0
100
AcDbLine
 10
-152.953073
 20
77.30800600000002
 30
0.0
 11
-153.334428
 21
78.125824
 31
0.0
  0
LINE
  5
1FC
330
6B
100
AcDbEntity
  8
0
100
AcDbLine
 10
-139.564373
 20
76.31660100000002
 30
0.0
 11
-139.045648
 21
77.057418
 31
0.0
  0
LINE
  5
1FD
330
6B
100
AcDbEntity
  8
0
100
AcDbLine
 10
-140.615501
 20
76.85402100000001
 30
0.0
 11
-140.163843
 21
77.63631499999998
 31
0.0
  0
LINE
  5
1FE
330
6B
100
AcDbEntity
  8
0
100
AcDbLine
 10
-142.075318
 20
76.490197
 30
0.0
 11
-141.312486
 21
78.126097
 31
0.0
  0
LINE
  5
1FF
330
6B
100
AcDbEntity
  8
0
100
AcDbLine
 10
-142.794237
 20
77.67949399999998
 30
0.0
 11
-142.48589
 21
78.52667199999998
 31
0.0
  0
LINE
  5
200
330
6B
100
AcDbEntity
  8
0
100
AcDbLine
 10
-143.911859
 20
77.967883
 30
0.0
 11
-143.678693
 21
78.838071
 31
0.0
  0
LINE
  5
201
330
6B
100
AcDbEntity
  8
0
100
AcDbLine
 10
-145.042153
 20
78.173665
 30
0.0
 11
-144.885801
 21
79.060385
 31
0.0
  0
LINE
  5
202
330
6B
100
AcDbEntity
  8
0
100
AcDbLine
 10
-146.180774
 20
78.29703499999998
 30
0.0
 11
-146.102326
 21
79.19371099999998
 31
0.0
  0
LINE
  5
203
330
6B
100
AcDbEntity
  8
0
100
AcDbLine
 10
-137.963927
 20
76.389678
 30
0.0
 11
-139.128441
 21
75.001863
 31
0.0
  0
ARC
  5
204
330
6B
100
AcDbEntity
  8
0
100
AcDbCircle
 10
-147.3231
 20
62.438123
 30
0.0
 40
15.9
100
AcDbArc
 50
56.49424200000001
 51
118.861039
  0
LINE
  5
205
330
6B
100
AcDbEntity
  8
0
 62
     3
100
AcDbLine
 10
-150.9237
 20
69.62254899999999
 30
0.0
 11
-150.9237
 21
68.422549
 31
0.0
  0
LINE
  5
206
330
6B
100
AcDbEntity
  8
0
 62
     3
100
AcDbLine
 10
-143.7237
 20
69.62254899999999
 30
0.0
 11
-143.7237
 21
68.422549
 31
0.0
  0
LINE
  5
207
330
6B
100
AcDbEntity
  8
0
 62
     3
100
AcDbLine
 10
98.63774800000001
 20
35.667111
 30
0.0
 11
96.637748
 21
35.667111
 31
0.0
  0
LINE
  5
208
330
6B
100
AcDbEntity
  8
0
 62
     3
100
AcDbLine
 10
99.63774800000001
 20
28.267111
 30
0.0
 11
99.63774800000001
 21
34.667111
 31
0.0
  0
LINE
  5
209
330
6B
100
AcDbEntity
  8
0
 62
     3
100
AcDbLine
 10
98.63774800000001
 20
27.267111
 30
0.0
 11
96.637748
 21
27.267111
 31
0.0
  0
LINE
  5
20A
330
6B
100
AcDbEntity
  8
0
 62
     3
100
AcDbLine
 10
-2.362252
 20
19.467111
 30
0.0
 11
96.637748
 21
19.467111
 31
0.0
  0
LINE
  5
20B
330
6B
100
AcDbEntity
  8
0
 62
     3
100
AcDbLine
 10
79.47205100000002
 20
12.79269
 30
0.0
 11
78.637748
 21
19.467111
 31
0.0
  0
ARC
  5
20C
330
6B
100
AcDbEntity
  8
0
 62
     3
100
AcDbCircle
 10
80.067417
 20
12.867111
 30
0.0
 40
0.6
100
AcDbArc
 50
187.1250159999999
 51
270.0
  0
LINE
  5
20D
330
6B
100
AcDbEntity
  8
0
 62
     3
100
AcDbLine
 10
89.20807899999998
 20
12.267111
 30
0.0
 11
80.067417
 21
12.267111
 31
0.0
  0
LINE
  5
20E
330
6B
100
AcDbEntity
  8
0
 62
     3
100
AcDbLine
 10
-59.487949
 20
12.79269
 30
0.0
 11
-60.322252
 21
19.467111
 31
0.0
  0
ARC
  5
20F
330
6B
100
AcDbEntity
  8
0
 62
     3
100
AcDbCircle
 10
-58.89258299999998
 20
12.867111
 30
0.0
 40
0.6
100
AcDbArc
 50
187.1250159999999
 51
270.0
  0
LINE
  5
210
330
6B
100
AcDbEntity
  8
0
 62
     3
100
AcDbLine
 10
-49.75192100000001
 20
12.267111
 30
0.0
 11
-58.89258299999998
 21
12.267111
 31
0.0
  0
ARC
  5
211
330
6B
100
AcDbEntity
  8
0
 62
     3
100
AcDbCircle
 10
-49.75192100000001
 20
12.867111
 30
0.0
 40
0.6
100
AcDbArc
 50
270.0
 51
352.874984
  0
LINE
  5
212
330
6B
100
AcDbEntity
  8
0
 62
     3
100
AcDbLine
 10
-49.15655499999999
 20
12.79269
 30
0.0
 11
-48.32225199999999
 21
19.467111
 31
0.0
  0
ARC
  5
213
330
6B
100
AcDbEntity
  8
0
 62
     3
100
AcDbCircle
 10
-145.751921
 20
12.867111
 30
0.0
 40
0.6
100
AcDbArc
 50
270.0
 51
352.874984
  0
LINE
  5
214
330
6B
100
AcDbEntity
  8
0
 62
     3
100
AcDbLine
 10
-145.751921
 20
12.267111
 30
0.0
 11
-154.892583
 21
12.267111
 31
0.0
  0
ARC
  5
215
330
6B
100
AcDbEntity
  8
0
 62
     3
100
AcDbCircle
 10
-154.892583
 20
12.867111
 30
0.0
 40
0.6
100
AcDbArc
 50
187.1250159999999
 51
270.0
  0
LINE
  5
216
330
6B
100
AcDbEntity
  8
0
 62
     3
100
AcDbLine
 10
-155.487949
 20
12.79269
 30
0.0
 11
-156.322252
 21
19.467111
 31
0.0
  0
LINE
  5
217
330
6B
100
AcDbEntity
  8
0
 62
     3
100
AcDbLine
 10
-145.156555
 20
12.79269
 30
0.0
 11
-144.322252
 21
19.467111
 31
0.0
  0
LINE
  5
218
330
6B
100
AcDbEntity
  8
0
 62
     3
100
AcDbLine
 10
-8.362251999999998
 20
86.42711099999997
 30
0.0
 11
96.637748
 21
86.42711099999997
 31
0.0
  0
LINE
  5
219
330
6B
100
AcDbEntity
  8
0
 62
     3
100
AcDbLine
 10
4.472051
 20
12.79269
 30
0.0
 11
3.637748
 21
19.467111
 31
0.0
  0
ARC
  5
21A
330
6B
100
AcDbEntity
  8
0
 62
     3
100
AcDbCircle
 10
5.067416999999998
 20
12.867111
 30
0.0
 40
0.6
100
AcDbArc
 50
187.1250159999999
 51
270.0
  0
LINE
  5
21B
330
6B
100
AcDbEntity
  8
0
 62
     3
100
AcDbLine
 10
14.208079
 20
12.267111
 30
0.0
 11
5.067416999999998
 21
12.267111
 31
0.0
  0
LINE
  5
21C
330
6B
100
AcDbEntity
  8
0
 62
     3
100
AcDbLine
 10
14.803445
 20
12.79269
 30
0.0
 11
15.637748
 21
19.467111
 31
0.0
  0
ARC
  5
21D
330
6B
100
AcDbEntity
  8
0
 62
     3
100
AcDbCircle
 10
14.208079
 20
12.867111
 30
0.0
 40
0.6
100
AcDbArc
 50
270.0
 51
352.874984
  0
LINE
  5
21E
330
6B
100
AcDbEntity
  8
0
 62
     3
100
AcDbLine
 10
89.80344499999999
 20
12.79269
 30
0.0
 11
90.637748
 21
19.467111
 31
0.0
  0
ARC
  5
21F
330
6B
100
AcDbEntity
  8
0
 62
     3
100
AcDbCircle
 10
89.20807899999998
 20
12.867111
 30
0.0
 40
0.6
100
AcDbArc
 50
270.0
 51
352.874984
  0
LINE
  5
220
330
6B
100
AcDbEntity
  8
0
 62
     3
100
AcDbLine
 10
96.637748
 20
19.467111
 30
0.0
 11
96.637748
 21
86.42711099999997
 31
0.0
  0
LINE
  5
221
330
6B
100
AcDbEntity
  8
0
100
AcDbLine
 10
-136.8237
 20
81.022549
 30
0.0
 11
-136.8237
 21
69.02254899999999
 31
0.0
  0
LINE
  5
222
330
6B
100
AcDbEntity
  8
0
100
AcDbLine
 10
-136.8237
 20
69.02254899999999
 30
0.0
 11
-143.7237
 21
69.02254899999999
 31
0.0
  0
LINE
  5
223
330
6B
100
AcDbEntity
  8
0
100
AcDbLine
 10
-143.7237
 20
69.62254899999999
 30
0.0
 11
-150.9237
 21
69.62254899999999
 31
0.0
  0
LINE
  5
224
330
6B
100
AcDbEntity
  8
0
100
AcDbLine
 10
-150.9237
 20
69.02254899999999
 30
0.0
 11
-157.8237
 21
69.02254899999999
 31
0.0
  0
LINE
  5
225
330
6B
100
AcDbEntity
  8
0
100
AcDbLine
 10
-157.8237
 20
69.02254899999999
 30
0.0
 11
-157.8237
 21
81.022549
 31
0.0
  0
LINE
  5
226
330
6B
100
AcDbEntity
  8
0
100
AcDbLine
 10
-136.8237
 20
81.022549
 30
0.0
 11
-157.8237
 21
81.022549
 31
0.0
  0
LINE
  5
227
330
6B
100
AcDbEntity
  8
0
100
AcDbLine
 10
-55.06154300000001
 20
69.37861099999999
 30
0.0
 11
-55.06154300000001
 21
78.978611
 31
0.0
  0
LINE
  5
228
330
6B
100
AcDbEntity
  8
0
100
AcDbLine
 10
-50.26154299999999
 20
78.978611
 30
0.0
 11
-50.26154299999999
 21
69.37861099999999
 31
0.0
  0
LINE
  5
229
330
6B
100
AcDbEntity
  8
0
100
AcDbLine
 10
-50.26154299999999
 20
78.978611
 30
0.0
 11
-55.06154300000001
 21
78.978611
 31
0.0
  0
LINE
  5
22A
330
6B
100
AcDbEntity
  8
0
100
AcDbLine
 10
-50.26154299999999
 20
69.37861099999999
 30
0.0
 11
-55.06154300000001
 21
69.37861099999999
 31
0.0
  0
CIRCLE
  5
22B
330
6B
100
AcDbEntity
  8
0
100
AcDbCircle
 10
0.6377480000000002
 20
73.827111
 30
0.0
 40
1.5
  0
CIRCLE
  5
22C
330
6B
100
AcDbEntity
  8
0
100
AcDbCircle
 10
3.637748
 20
22.467111
 30
0.0
 40
1.5
  0
CIRCLE
  5
22D
330
6B
100
AcDbEntity
  8
0
100
AcDbCircle
 10
78.637748
 20
22.467111
 30
0.0
 40
1.5
  0
CIRCLE
  5
22E
330
6B
100
AcDbEntity
  8
0
100
AcDbCircle
 10
93.63774799999999
 20
73.827111
 30
0.0
 40
1.5
  0
LINE
  5
22F
330
6B
100
AcDbEntity
  8
0
100
AcDbLine
 10
63.716816
 20
72.615288
 30
0.0
 11
47.516816
 21
72.615288
 31
0.0
  0
LINE
  5
230
330
6B
100
AcDbEntity
  8
0
100
AcDbLine
 10
63.716816
 20
70.815288
 30
0.0
 11
47.516816
 21
70.815288
 31
0.0
  0
LINE
  5
231
330
6B
100
AcDbEntity
  8
0
100
AcDbLine
 10
63.716816
 20
69.015288
 30
0.0
 11
47.516816
 21
69.015288
 31
0.0
  0
LINE
  5
232
330
6B
100
AcDbEntity
  8
0
100
AcDbLine
 10
63.716816
 20
67.215288
 30
0.0
 11
47.516816
 21
67.215288
 31
0.0
  0
LINE
  5
233
330
6B
100
AcDbEntity
  8
0
100
AcDbLine
 10
63.716816
 20
65.415288
 30
0.0
 11
47.516816
 21
65.415288
 31
0.0
  0
LINE
  5
234
330
6B
100
AcDbEntity
  8
0
100
AcDbLine
 10
63.716816
 20
63.615288
 30
0.0
 11
47.516816
 21
63.615288
 31
0.0
  0
LINE
  5
235
330
6B
100
AcDbEntity
  8
0
100
AcDbLine
 10
63.716816
 20
61.815288
 30
0.0
 11
47.516816
 21
61.815288
 31
0.0
  0
LINE
  5
236
330
6B
100
AcDbEntity
  8
0
100
AcDbLine
 10
63.716816
 20
60.01528799999999
 30
0.0
 11
47.516816
 21
60.01528799999999
 31
0.0
  0
LINE
  5
237
330
6B
100
AcDbEntity
  8
0
100
AcDbLine
 10
63.716816
 20
58.215288
 30
0.0
 11
47.516816
 21
58.215288
 31
0.0
  0
LINE
  5
238
330
6B
100
AcDbEntity
  8
0
100
AcDbLine
 10
63.716816
 20
56.415288
 30
0.0
 11
47.516816
 21
56.415288
 31
0.0
  0
LINE
  5
239
330
6B
100
AcDbEntity
  8
0
100
AcDbLine
 10
63.716816
 20
54.61528799999999
 30
0.0
 11
47.516816
 21
54.61528799999999
 31
0.0
  0
LINE
  5
23A
330
6B
100
AcDbEntity
  8
0
100
AcDbLine
 10
63.716816
 20
52.815288
 30
0.0
 11
47.516816
 21
52.815288
 31
0.0
  0
ARC
  5
23B
330
6B
100
AcDbEntity
  8
0
100
AcDbCircle
 10
47.516816
 20
71.715288
 30
0.0
 40
0.9
100
AcDbArc
 50
90.0
 51
270.0
  0
ARC
  5
23C
330
6B
100
AcDbEntity
  8
0
100
AcDbCircle
 10
63.716816
 20
71.715288
 30
0.0
 40
0.9
100
AcDbArc
 50
270.0
 51
90.0
  0
ARC
  5
23D
330
6B
100
AcDbEntity
  8
0
100
AcDbCircle
 10
47.516816
 20
68.11528800000001
 30
0.0
 40
0.9
100
AcDbArc
 50
90.0
 51
270.0
  0
ARC
  5
23E
330
6B
100
AcDbEntity
  8
0
100
AcDbCircle
 10
63.716816
 20
68.11528800000001
 30
0.0
 40
0.9
100
AcDbArc
 50
270.0
 51
90.0
  0
ARC
  5
23F
330
6B
100
AcDbEntity
  8
0
100
AcDbCircle
 10
47.516816
 20
64.515288
 30
0.0
 40
0.9
100
AcDbArc
 50
90.0
 51
270.0
  0
ARC
  5
240
330
6B
100
AcDbEntity
  8
0
100
AcDbCircle
 10
63.716816
 20
64.515288
 30
0.0
 40
0.9
100
AcDbArc
 50
270.0
 51
90.0
  0
ARC
  5
241
330
6B
100
AcDbEntity
  8
0
100
AcDbCircle
 10
47.516816
 20
60.915288
 30
0.0
 40
0.9
100
AcDbArc
 50
90.0
 51
270.0
  0
ARC
  5
242
330
6B
100
AcDbEntity
  8
0
100
AcDbCircle
 10
63.716816
 20
60.915288
 30
0.0
 40
0.9
100
AcDbArc
 50
270.0
 51
90.0
  0
ARC
  5
243
330
6B
100
AcDbEntity
  8
0
100
AcDbCircle
 10
47.516816
 20
57.315288
 30
0.0
 40
0.9
100
AcDbArc
 50
90.0
 51
270.0
  0
ARC
  5
244
330
6B
100
AcDbEntity
  8
0
100
AcDbCircle
 10
63.716816
 20
57.315288
 30
0.0
 40
0.9
100
AcDbArc
 50
270.0
 51
90.0
  0
ARC
  5
245
330
6B
100
AcDbEntity
  8
0
100
AcDbCircle
 10
47.516816
 20
53.715288
 30
0.0
 40
0.9
100
AcDbArc
 50
90.0
 51
270.0
  0
ARC
  5
246
330
6B
100
AcDbEntity
  8
0
100
AcDbCircle
 10
63.716816
 20
53.715288
 30
0.0
 40
0.9
100
AcDbArc
 50
270.0
 51
90.0
  0
LINE
  5
247
330
6B
100
AcDbEntity
  8
0
100
AcDbLine
 10
-149.555192
 20
68.422549
 30
0.0
 11
-155.601154
 21
77.05707700000002
 31
0.0
  0
LINE
  5
248
330
6B
100
AcDbEntity
  8
0
100
AcDbLine
 10
-154.031362
 20
76.85371299999999
 30
0.0
 11
-154.483017
 21
77.636004
 31
0.0
  0
TEXT
  5
249
330
6B
100
AcDbEntity
  8
0
100
AcDbText
 10
-155.601154
 20
77.05707700000002
 30
0.0
 40
1.919999999999999
  1
0
 50
35.0
 41
1.199999999999999
100
AcDbText
  0
LINE
  5
24A
330
6B
100
AcDbEntity
  8
0
 62
     3
100
AcDbLine
 10
-195.0
 20
138.5
 30
0.0
 11
-195.0
 21
-138.5
 31
0.0
  0
LINE
  5
24B
330
6B
100
AcDbEntity
  8
0
 62
     3
100
AcDbLine
 10
195.0
 20
-138.5
 30
0.0
 11
195.0
 21
138.5
 31
0.0
  0
LINE
  5
24C
330
6B
100
AcDbEntity
  8
0
 62
     3
100
AcDbLine
 10
-195.0
 20
138.5
 30
0.0
 11
195.0
 21
138.5
 31
0.0
  0
LINE
  5
24D
330
6B
100
AcDbEntity
  8
0
 62
     3
100
AcDbLine
 10
-195.0
 20
-138.5
 30
0.0
 11
195.0
 21
-138.5
 31
0.0
  0
LINE
  5
24E
330
6B
100
AcDbEntity
  8
0
 62
     3
100
AcDbLine
 10
-8.362251999999998
 20
25.467111
 30
0.0
 11
-8.362251999999998
 21
86.42711099999997
 31
0.0
  0
LINE
  5
24F
330
6B
100
AcDbEntity
  8
0
100
AcDbLine
 10
92.41828167223699
 20
-43.208804
 30
0.0
 11
168.0497589973631
 21
-43.208804
 31
0.0
  0
LINE
  5
250
330
6B
100
AcDbEntity
  8
0
100
AcDbLine
 10
92.41828167223699
 20
-49.861604
 30
0.0
 11
168.0497589973631
 21
-49.86160400000001
 31
0.0
  0
LINE
  5
251
330
6B
100
AcDbEntity
  8
0
100
AcDbLine
 10
92.41828167223699
 20
-56.51440400000001
 30
0.0
 11
168.0497589973631
 21
-56.51440400000002
 31
0.0
  0
LINE
  5
252
330
6B
100
AcDbEntity
  8
0
100
AcDbLine
 10
92.41828167223699
 20
-63.16720400000001
 30
0.0
 11
168.0497589973631
 21
-63.16720400000001
 31
0.0
  0
TEXT
  5
253
330
6B
100
AcDbEntity
  8
0
 62
     3
100
AcDbText
 10
93.91828167223698
 20
-42.708804
 30
0.0
 40
3.2
  1
型　　　　　式
  7
高3.2
100
AcDbText
  0
TEXT
  5
254
330
6B
100
AcDbEntity
  8
0
 62
     3
100
AcDbText
 10
93.91828167223698
 20
-49.361604
 30
0.0
 40
3.2
  1
入　力　電　圧
  7
高3.2
100
AcDbText
  0
LINE
  5
255
330
6B
100
AcDbEntity
  8
0
100
AcDbLine
 10
92.41828167223699
 20
-76.47280400000003
 30
0.0
 11
168.0497589973631
 21
-76.47280400000003
 31
0.0
  0
LINE
  5
256
330
6B
100
AcDbEntity
  8
0
100
AcDbLine
 10
92.41828167223699
 20
-69.820004
 30
0.0
 11
168.0497589973631
 21
-69.820004
 31
0.0
  0
TEXT
  5
257
330
6B
100
AcDbEntity
  8
0
 62
     3
100
AcDbText
 10
93.91828167223698
 20
-56.01440400000001
 30
0.0
 40
3.2
  1
適応バッテリー
  7
高3.2
100
AcDbText
  0
TEXT
  5
258
330
6B
100
AcDbEntity
  8
0
 62
     3
100
AcDbText
 10
93.91828167223698
 20
-62.69080399999999
 30
0.0
 40
3.2
  1
最大充電電流
  7
高3.2
100
AcDbText
  0
TEXT
  5
259
330
6B
100
AcDbEntity
  8
0
 62
     3
100
AcDbText
 10
125.2755966722369
 20
-49.361604
 30
0.0
 40
3.2
  1
AC100V 50/60Hz
  7
高3.2
100
AcDbText
  0
TEXT
  5
25A
330
6B
100
AcDbEntity
  8
0
 62
     3
100
AcDbText
 10
113.2946318664596
 20
-34.10238914923036
 30
0.0
 40
4.5
  1
主　　仕　　様
  7
高4.5
100
AcDbText
  0
LINE
  5
25B
330
6B
100
AcDbEntity
  8
0
 62
     3
100
AcDbLine
 10
92.41828167223699
 20
-36.55600399999999
 30
0.0
 11
168.0497589973631
 21
-36.55600399999999
 31
0.0
  0
TEXT
  5
25C
330
6B
100
AcDbEntity
  8
0
 62
     3
100
AcDbText
 10
101.024488
 20
-121.337527
 30
0.0
 40
3.2
  1
別　掲
 41
0.833333
100
AcDbText
  0
ARC
  5
25D
330
6B
100
AcDbEntity
  8
0
 62
     3
100
AcDbCircle
 10
-159.282252
 20
82.42711099999999
 30
0.0
 40
4.0
100
AcDbArc
 50
90.0
 51
180.0
  0
ARC
  5
25E
330
6B
100
AcDbEntity
  8
0
 62
     3
100
AcDbCircle
 10
-45.362252
 20
82.42711099999999
 30
0.0
 40
4.0
100
AcDbArc
 50
0.0
 51
90.0
  0
TEXT
  5
25F
330
6B
100
AcDbEntity
  8
0
100
AcDbText
 10
-61.73680799999999
 20
77.51751500000001
 30
0.0
 40
2.24
  1
ON
100
AcDbText
  0
TEXT
  5
260
330
6B
100
AcDbEntity
  8
0
100
AcDbText
 10
-63.27815300000001
 20
68.47863499999999
 30
0.0
 40
2.24
  1
OFF
100
AcDbText
  0
LINE
  5
261
330
6B
100
AcDbEntity
  8
0
 62
     3
100
AcDbLine
 10
-114.639014
 20
47.59511999999999
 30
0.0
 11
-111.058515
 21
47.59511999999999
 31
0.0
  0
LINE
  5
262
330
6B
100
AcDbEntity
  8
0
 62
     3
100
AcDbLine
 10
-100.633614
 20
61.60052
 30
0.0
 11
-100.633614
 21
58.02002099999999
 31
0.0
  0
LINE
  5
263
330
6B
100
AcDbEntity
  8
0
 62
     3
100
AcDbLine
 10
-110.536927
 20
57.498433
 30
0.0
 11
-108.005132
 21
54.966638
 31
0.0
  0
LINE
  5
264
330
6B
100
AcDbEntity
  8
0
100
AcDbLine
 10
-45.322252
 20
85.46711100000001
 30
0.0
 11
-159.322252
 21
85.46711100000001
 31
0.0
  0
ARC
  5
265
330
6B
100
AcDbEntity
  8
0
100
AcDbCircle
 10
-45.322252
 20
82.467111
 30
0.0
 40
3.0
100
AcDbArc
 50
0.0
 51
90.0
  0
LINE
  5
266
330
6B
100
AcDbEntity
  8
0
100
AcDbLine
 10
-42.322252
 20
82.467111
 30
0.0
 11
-42.322252
 21
19.467111
 31
0.0
  0
ARC
  5
267
330
6B
100
AcDbEntity
  8
0
100
AcDbCircle
 10
-159.322252
 20
82.467111
 30
0.0
 40
3.0
100
AcDbArc
 50
90.0
 51
180.0
  0
LINE
  5
268
330
6B
100
AcDbEntity
  8
0
100
AcDbLine
 10
-162.322252
 20
82.467111
 30
0.0
 11
-162.322252
 21
19.467111
 31
0.0
  0
LINE
  5
269
330
6B
100
AcDbEntity
  8
0
100
AcDbLine
 10
-162.322252
 20
25.599316
 30
0.0
 11
-42.322252
 21
25.599316
 31
0.0
  0
TEXT
  5
26A
330
6B
100
AcDbEntity
  8
0
 62
     3
100
AcDbText
 10
-134.659316
 20
67.41089200000001
 30
0.0
 40
5.4
  1
エンジンスタータ付き
 41
0.6052020000000004
100
AcDbText
  0
TEXT
  5
26B
330
6B
100
AcDbEntity
  8
0
 62
     3
100
AcDbText
 10
-133.700304
 20
73.31318900000002
 30
0.0
 40
4.5
  1
急速充電器
 41
0.833333
100
AcDbText
  0
CIRCLE
  5
26C
330
6B
100
AcDbEntity
  8
0
 62
     3
100
AcDbCircle
 10
-100.633614
 20
47.59511999999999
 30
0.0
 40
10.424901
  0
LINE
  5
26D
330
6B
100
AcDbEntity
  8
0
 62
     3
100
AcDbLine
 10
-105.292849
 20
43.268689
 30
0.0
 11
-95.13291200000001
 21
54.406991
 31
0.0
  0
CIRCLE
  5
26E
330
6B
100
AcDbEntity
  8
0
100
AcDbCircle
 10
-100.633614
 20
47.59511999999999
 30
0.0
 40
9.392077999999999
  0
CIRCLE
  5
26F
330
6B
100
AcDbEntity
  8
0
100
AcDbCircle
 10
-106.171945
 20
42.296145
 30
0.0
 40
1.310974
  0
LINE
  5
270
330
6B
100
AcDbEntity
  8
0
 62
     3
100
AcDbLine
 10
61.52581899999999
 20
100.691095
 30
0.0
 11
26.749677
 21
100.691095
 31
0.0
  0
LINE
  5
271
330
6B
100
AcDbEntity
  8
0
 62
     3
100
AcDbLine
 10
66.09325600000001
 20
104.397808
 30
0.0
 11
22.18224
 21
104.397808
 31
0.0
  0
ARC
  5
272
330
6B
100
AcDbEntity
  8
0
 62
     3
100
AcDbCircle
 10
26.749677
 20
99.691095
 30
0.0
 40
1.0
100
AcDbArc
 50
90.0
 51
171.193207
  0
ARC
  5
273
330
6B
100
AcDbEntity
  8
0
 62
     3
100
AcDbCircle
 10
61.52581899999999
 20
99.691095
 30
0.0
 40
1.0
100
AcDbArc
 50
8.806792999999997
 51
90.0
  0
ARC
  5
274
330
6B
100
AcDbEntity
  8
0
 62
     3
100
AcDbCircle
 10
22.18224
 20
102.397808
 30
0.0
 40
2.0
100
AcDbArc
 50
90.0
 51
156.691624
  0
ARC
  5
275
330
6B
100
AcDbEntity
  8
0
 62
     3
100
AcDbCircle
 10
66.09325600000001
 20
102.397808
 30
0.0
 40
2.0
100
AcDbArc
 50
23.308376
 51
90.0
  0
LINE
  5
276
330
6B
100
AcDbEntity
  8
0
 62
     3
100
AcDbLine
 10
-98.94271299999999
 20
104.397808
 30
0.0
 11
-105.701791
 21
104.397808
 31
0.0
  0
LINE
  5
277
330
6B
100
AcDbEntity
  8
0
 62
     3
100
AcDbLine
 10
-106.699772
 20
103.461316
 30
0.0
 11
-107.783767
 21
86.42711099999997
 31
0.0
  0
LINE
  5
278
330
6B
100
AcDbEntity
  8
0
 62
     3
100
AcDbLine
 10
-97.944732
 20
103.461316
 30
0.0
 11
-96.86073700000001
 21
86.42711099999997
 31
0.0
  0
ARC
  5
279
330
6B
100
AcDbEntity
  8
0
 62
     3
100
AcDbCircle
 10
-105.701791
 20
103.397808
 30
0.0
 40
1.0
100
AcDbArc
 50
90.0
 51
176.358815
  0
ARC
  5
27A
330
6B
100
AcDbEntity
  8
0
 62
     3
100
AcDbCircle
 10
-98.94271299999999
 20
103.397808
 30
0.0
 40
1.0
100
AcDbArc
 50
3.641185
 51
90.0
  0
LINE
  5
27B
330
6B
100
AcDbEntity
  8
0
 62
     3
100
AcDbLine
 10
67.93003299999999
 20
103.189167
 30
0.0
 11
73.73204900000001
 21
86.42711099999997
 31
0.0
  0
LINE
  5
27C
330
6B
100
AcDbEntity
  8
0
 62
     3
100
AcDbLine
 10
20.345463
 20
103.189167
 30
0.0
 11
14.543447
 21
86.42711099999997
 31
0.0
  0
CIRCLE
  5
27D
330
6B
100
AcDbEntity
  8
0
 62
     3
100
AcDbCircle
 10
-137.055714
 20
52.16490499999999
 30
0.0
 40
2.353775
  0
TEXT
  5
27E
330
6B
100
AcDbEntity
  8
0
100
AcDbText
 10
-158.500733
 20
48.700844
 30
0.0
 40
2.24
  1
ON
100
AcDbText
  0
TEXT
  5
27F
330
6B
100
AcDbEntity
  8
0
100
AcDbText
 10
-159.424659
 20
38.71192199999999
 30
0.0
 40
2.24
  1
OFF
100
AcDbText
  0
TEXT
  5
280
330
6B
100
AcDbEntity
  8
0
100
AcDbText
 10
-139.856087
 20
57.012071
 30
0.0
 40
2.303999999999998
  1
エラー
 41
0.833333
100
AcDbText
  0
TEXT
  5
281
330
6B
100
AcDbEntity
  8
0
100
AcDbText
 10
-140.327228
 20
43.51881999999998
 30
0.0
 40
2.24
  1
エンジンスタート
 41
0.833333
100
AcDbText
  0
TEXT
  5
282
330
6B
100
AcDbEntity
  8
0
100
AcDbText
 10
-140.360513
 20
36.628163
 30
0.0
 40
2.24
  1
充電電流
 41
0.833333
100
AcDbText
  0
LINE
  5
283
330
6B
100
AcDbEntity
  8
0
100
AcDbLine
 10
67.57297499999999
 20
72.615288
 30
0.0
 11
83.772975
 21
72.615288
 31
0.0
  0
LINE
  5
284
330
6B
100
AcDbEntity
  8
0
100
AcDbLine
 10
67.57297499999999
 20
70.815288
 30
0.0
 11
83.772975
 21
70.815288
 31
0.0
  0
LINE
  5
285
330
6B
100
AcDbEntity
  8
0
100
AcDbLine
 10
67.57297499999999
 20
69.015288
 30
0.0
 11
83.772975
 21
69.015288
 31
0.0
  0
LINE
  5
286
330
6B
100
AcDbEntity
  8
0
100
AcDbLine
 10
67.57297499999999
 20
67.215288
 30
0.0
 11
83.772975
 21
67.215288
 31
0.0
  0
LINE
  5
287
330
6B
100
AcDbEntity
  8
0
100
AcDbLine
 10
67.57297499999999
 20
65.415288
 30
0.0
 11
83.772975
 21
65.415288
 31
0.0
  0
LINE
  5
288
330
6B
100
AcDbEntity
  8
0
100
AcDbLine
 10
67.57297499999999
 20
63.615288
 30
0.0
 11
83.772975
 21
63.615288
 31
0.0
  0
LINE
  5
289
330
6B
100
AcDbEntity
  8
0
100
AcDbLine
 10
67.57297499999999
 20
61.815288
 30
0.0
 11
83.772975
 21
61.815288
 31
0.0
  0
LINE
  5
28A
330
6B
100
AcDbEntity
  8
0
100
AcDbLine
 10
67.57297499999999
 20
60.01528799999999
 30
0.0
 11
83.772975
 21
60.01528799999999
 31
0.0
  0
LINE
  5
28B
330
6B
100
AcDbEntity
  8
0
100
AcDbLine
 10
67.57297499999999
 20
58.215288
 30
0.0
 11
83.772975
 21
58.215288
 31
0.0
  0
LINE
  5
28C
330
6B
100
AcDbEntity
  8
0
100
AcDbLine
 10
67.57297499999999
 20
56.415288
 30
0.0
 11
83.772975
 21
56.415288
 31
0.0
  0
LINE
  5
28D
330
6B
100
AcDbEntity
  8
0
100
AcDbLine
 10
67.57297499999999
 20
54.61528799999999
 30
0.0
 11
83.772975
 21
54.61528799999999
 31
0.0
  0
LINE
  5
28E
330
6B
100
AcDbEntity
  8
0
100
AcDbLine
 10
67.57297499999999
 20
52.815288
 30
0.0
 11
83.772975
 21
52.815288
 31
0.0
  0
ARC
  5
28F
330
6B
100
AcDbEntity
  8
0
100
AcDbCircle
 10
83.772975
 20
71.715288
 30
0.0
 40
0.9
100
AcDbArc
 50
270.0
 51
90.0
  0
ARC
  5
290
330
6B
100
AcDbEntity
  8
0
100
AcDbCircle
 10
67.57297499999999
 20
71.715288
 30
0.0
 40
0.9
100
AcDbArc
 50
90.0
 51
270.0
  0
ARC
  5
291
330
6B
100
AcDbEntity
  8
0
100
AcDbCircle
 10
83.772975
 20
68.11528800000001
 30
0.0
 40
0.9
100
AcDbArc
 50
270.0
 51
90.0
  0
ARC
  5
292
330
6B
100
AcDbEntity
  8
0
100
AcDbCircle
 10
67.57297499999999
 20
68.11528800000001
 30
0.0
 40
0.9
100
AcDbArc
 50
90.0
 51
270.0
  0
ARC
  5
293
330
6B
100
AcDbEntity
  8
0
100
AcDbCircle
 10
83.772975
 20
64.515288
 30
0.0
 40
0.9
100
AcDbArc
 50
270.0
 51
90.0
  0
ARC
  5
294
330
6B
100
AcDbEntity
  8
0
100
AcDbCircle
 10
67.57297499999999
 20
64.515288
 30
0.0
 40
0.9
100
AcDbArc
 50
90.0
 51
270.0
  0
ARC
  5
295
330
6B
100
AcDbEntity
  8
0
100
AcDbCircle
 10
83.772975
 20
60.915288
 30
0.0
 40
0.9
100
AcDbArc
 50
270.0
 51
90.0
  0
ARC
  5
296
330
6B
100
AcDbEntity
  8
0
100
AcDbCircle
 10
67.57297499999999
 20
60.915288
 30
0.0
 40
0.9
100
AcDbArc
 50
90.0
 51
270.0
  0
ARC
  5
297
330
6B
100
AcDbEntity
  8
0
100
AcDbCircle
 10
83.772975
 20
57.315288
 30
0.0
 40
0.9
100
AcDbArc
 50
270.0
 51
90.0
  0
ARC
  5
298
330
6B
100
AcDbEntity
  8
0
100
AcDbCircle
 10
67.57297499999999
 20
57.315288
 30
0.0
 40
0.9
100
AcDbArc
 50
90.0
 51
270.0
  0
ARC
  5
299
330
6B
100
AcDbEntity
  8
0
100
AcDbCircle
 10
83.772975
 20
53.715288
 30
0.0
 40
0.9
100
AcDbArc
 50
270.0
 51
90.0
  0
ARC
  5
29A
330
6B
100
AcDbEntity
  8
0
100
AcDbCircle
 10
67.57297499999999
 20
53.715288
 30
0.0
 40
0.9
100
AcDbArc
 50
90.0
 51
270.0
  0
LINE
  5
29B
330
6B
100
AcDbEntity
  8
0
100
AcDbLine
 10
28.189783
 20
72.615288
 30
0.0
 11
44.389783
 21
72.615288
 31
0.0
  0
LINE
  5
29C
330
6B
100
AcDbEntity
  8
0
100
AcDbLine
 10
28.189783
 20
70.815288
 30
0.0
 11
44.389783
 21
70.815288
 31
0.0
  0
LINE
  5
29D
330
6B
100
AcDbEntity
  8
0
100
AcDbLine
 10
28.189783
 20
69.015288
 30
0.0
 11
44.389783
 21
69.015288
 31
0.0
  0
LINE
  5
29E
330
6B
100
AcDbEntity
  8
0
100
AcDbLine
 10
28.189783
 20
67.215288
 30
0.0
 11
44.389783
 21
67.215288
 31
0.0
  0
LINE
  5
29F
330
6B
100
AcDbEntity
  8
0
100
AcDbLine
 10
28.189783
 20
65.415288
 30
0.0
 11
44.389783
 21
65.415288
 31
0.0
  0
LINE
  5
2A0
330
6B
100
AcDbEntity
  8
0
100
AcDbLine
 10
28.189783
 20
63.615288
 30
0.0
 11
44.389783
 21
63.615288
 31
0.0
  0
LINE
  5
2A1
330
6B
100
AcDbEntity
  8
0
100
AcDbLine
 10
28.189783
 20
61.815288
 30
0.0
 11
44.389783
 21
61.815288
 31
0.0
  0
LINE
  5
2A2
330
6B
100
AcDbEntity
  8
0
100
AcDbLine
 10
28.189783
 20
60.01528799999999
 30
0.0
 11
44.389783
 21
60.01528799999999
 31
0.0
  0
LINE
  5
2A3
330
6B
100
AcDbEntity
  8
0
100
AcDbLine
 10
28.189783
 20
58.215288
 30
0.0
 11
44.389783
 21
58.215288
 31
0.0
  0
LINE
  5
2A4
330
6B
100
AcDbEntity
  8
0
100
AcDbLine
 10
28.189783
 20
56.415288
 30
0.0
 11
44.389783
 21
56.415288
 31
0.0
  0
LINE
  5
2A5
330
6B
100
AcDbEntity
  8
0
100
AcDbLine
 10
28.189783
 20
54.61528799999999
 30
0.0
 11
44.389783
 21
54.61528799999999
 31
0.0
  0
LINE
  5
2A6
330
6B
100
AcDbEntity
  8
0
100
AcDbLine
 10
28.189783
 20
52.815288
 30
0.0
 11
44.389783
 21
52.815288
 31
0.0
  0
ARC
  5
2A7
330
6B
100
AcDbEntity
  8
0
100
AcDbCircle
 10
44.389783
 20
71.715288
 30
0.0
 40
0.9
100
AcDbArc
 50
270.0
 51
90.0
  0
ARC
  5
2A8
330
6B
100
AcDbEntity
  8
0
100
AcDbCircle
 10
28.189783
 20
71.715288
 30
0.0
 40
0.9
100
AcDbArc
 50
90.0
 51
270.0
  0
ARC
  5
2A9
330
6B
100
AcDbEntity
  8
0
100
AcDbCircle
 10
44.389783
 20
68.11528800000001
 30
0.0
 40
0.9
100
AcDbArc
 50
270.0
 51
90.0
  0
ARC
  5
2AA
330
6B
100
AcDbEntity
  8
0
100
AcDbCircle
 10
28.189783
 20
68.11528800000001
 30
0.0
 40
0.9
100
AcDbArc
 50
90.0
 51
270.0
  0
ARC
  5
2AB
330
6B
100
AcDbEntity
  8
0
100
AcDbCircle
 10
44.389783
 20
64.515288
 30
0.0
 40
0.9
100
AcDbArc
 50
270.0
 51
90.0
  0
ARC
  5
2AC
330
6B
100
AcDbEntity
  8
0
100
AcDbCircle
 10
28.189783
 20
64.515288
 30
0.0
 40
0.9
100
AcDbArc
 50
90.0
 51
270.0
  0
ARC
  5
2AD
330
6B
100
AcDbEntity
  8
0
100
AcDbCircle
 10
44.389783
 20
60.915288
 30
0.0
 40
0.9
100
AcDbArc
 50
270.0
 51
90.0
  0
ARC
  5
2AE
330
6B
100
AcDbEntity
  8
0
100
AcDbCircle
 10
28.189783
 20
60.915288
 30
0.0
 40
0.9
100
AcDbArc
 50
90.0
 51
270.0
  0
ARC
  5
2AF
330
6B
100
AcDbEntity
  8
0
100
AcDbCircle
 10
44.389783
 20
57.315288
 30
0.0
 40
0.9
100
AcDbArc
 50
270.0
 51
90.0
  0
ARC
  5
2B0
330
6B
100
AcDbEntity
  8
0
100
AcDbCircle
 10
28.189783
 20
57.315288
 30
0.0
 40
0.9
100
AcDbArc
 50
90.0
 51
270.0
  0
ARC
  5
2B1
330
6B
100
AcDbEntity
  8
0
100
AcDbCircle
 10
44.389783
 20
53.715288
 30
0.0
 40
0.9
100
AcDbArc
 50
270.0
 51
90.0
  0
ARC
  5
2B2
330
6B
100
AcDbEntity
  8
0
100
AcDbCircle
 10
28.189783
 20
53.715288
 30
0.0
 40
0.9
100
AcDbArc
 50
90.0
 51
270.0
  0
LINE
  5
2B3
330
6B
100
AcDbEntity
  8
0
100
AcDbLine
 10
24.910936
 20
72.615288
 30
0.0
 11
8.710936
 21
72.615288
 31
0.0
  0
LINE
  5
2B4
330
6B
100
AcDbEntity
  8
0
100
AcDbLine
 10
24.910936
 20
70.815288
 30
0.0
 11
8.710936
 21
70.815288
 31
0.0
  0
LINE
  5
2B5
330
6B
100
AcDbEntity
  8
0
100
AcDbLine
 10
24.910936
 20
69.015288
 30
0.0
 11
8.710936
 21
69.015288
 31
0.0
  0
LINE
  5
2B6
330
6B
100
AcDbEntity
  8
0
100
AcDbLine
 10
24.910936
 20
67.215288
 30
0.0
 11
8.710936
 21
67.215288
 31
0.0
  0
LINE
  5
2B7
330
6B
100
AcDbEntity
  8
0
100
AcDbLine
 10
24.910936
 20
65.415288
 30
0.0
 11
8.710936
 21
65.415288
 31
0.0
  0
LINE
  5
2B8
330
6B
100
AcDbEntity
  8
0
100
AcDbLine
 10
24.910936
 20
63.615288
 30
0.0
 11
8.710936
 21
63.615288
 31
0.0
  0
LINE
  5
2B9
330
6B
100
AcDbEntity
  8
0
100
AcDbLine
 10
24.910936
 20
61.815288
 30
0.0
 11
8.710936
 21
61.815288
 31
0.0
  0
LINE
  5
2BA
330
6B
100
AcDbEntity
  8
0
100
AcDbLine
 10
24.910936
 20
60.01528799999999
 30
0.0
 11
8.710936
 21
60.01528799999999
 31
0.0
  0
LINE
  5
2BB
330
6B
100
AcDbEntity
  8
0
100
AcDbLine
 10
24.910936
 20
58.215288
 30
0.0
 11
8.710936
 21
58.215288
 31
0.0
  0
LINE
  5
2BC
330
6B
100
AcDbEntity
  8
0
100
AcDbLine
 10
24.910936
 20
56.415288
 30
0.0
 11
8.710936
 21
56.415288
 31
0.0
  0
LINE
  5
2BD
330
6B
100
AcDbEntity
  8
0
100
AcDbLine
 10
24.910936
 20
54.61528799999999
 30
0.0
 11
8.710936
 21
54.61528799999999
 31
0.0
  0
LINE
  5
2BE
330
6B
100
AcDbEntity
  8
0
100
AcDbLine
 10
24.910936
 20
52.815288
 30
0.0
 11
8.710936
 21
52.815288
 31
0.0
  0
ARC
  5
2BF
330
6B
100
AcDbEntity
  8
0
100
AcDbCircle
 10
8.710936
 20
71.715288
 30
0.0
 40
0.9
100
AcDbArc
 50
90.0
 51
270.0
  0
ARC
  5
2C0
330
6B
100
AcDbEntity
  8
0
100
AcDbCircle
 10
24.910936
 20
71.715288
 30
0.0
 40
0.9
100
AcDbArc
 50
270.0
 51
90.0
  0
ARC
  5
2C1
330
6B
100
AcDbEntity
  8
0
100
AcDbCircle
 10
8.710936
 20
68.11528800000001
 30
0.0
 40
0.9
100
AcDbArc
 50
90.0
 51
270.0
  0
ARC
  5
2C2
330
6B
100
AcDbEntity
  8
0
100
AcDbCircle
 10
24.910936
 20
68.11528800000001
 30
0.0
 40
0.9
100
AcDbArc
 50
270.0
 51
90.0
  0
ARC
  5
2C3
330
6B
100
AcDbEntity
  8
0
100
AcDbCircle
 10
8.710936
 20
64.515288
 30
0.0
 40
0.9
100
AcDbArc
 50
90.0
 51
270.0
  0
ARC
  5
2C4
330
6B
100
AcDbEntity
  8
0
100
AcDbCircle
 10
24.910936
 20
64.515288
 30
0.0
 40
0.9
100
AcDbArc
 50
270.0
 51
90.0
  0
ARC
  5
2C5
330
6B
100
AcDbEntity
  8
0
100
AcDbCircle
 10
8.710936
 20
60.915288
 30
0.0
 40
0.9
100
AcDbArc
 50
90.0
 51
270.0
  0
ARC
  5
2C6
330
6B
100
AcDbEntity
  8
0
100
AcDbCircle
 10
24.910936
 20
60.915288
 30
0.0
 40
0.9
100
AcDbArc
 50
270.0
 51
90.0
  0
ARC
  5
2C7
330
6B
100
AcDbEntity
  8
0
100
AcDbCircle
 10
8.710936
 20
57.315288
 30
0.0
 40
0.9
100
AcDbArc
 50
90.0
 51
270.0
  0
ARC
  5
2C8
330
6B
100
AcDbEntity
  8
0
100
AcDbCircle
 10
24.910936
 20
57.315288
 30
0.0
 40
0.9
100
AcDbArc
 50
270.0
 51
90.0
  0
ARC
  5
2C9
330
6B
100
AcDbEntity
  8
0
100
AcDbCircle
 10
8.710936
 20
53.715288
 30
0.0
 40
0.9
100
AcDbArc
 50
90.0
 51
270.0
  0
ARC
  5
2CA
330
6B
100
AcDbEntity
  8
0
100
AcDbCircle
 10
24.910936
 20
53.715288
 30
0.0
 40
0.9
100
AcDbArc
 50
270.0
 51
90.0
  0
LINE
  5
2CB
330
6B
100
AcDbEntity
  8
0
 62
     3
100
AcDbLine
 10
-110.536927
 20
37.691806
 30
0.0
 11
-108.005132
 21
40.223602
 31
0.0
  0
TEXT
  5
2CC
330
6B
100
AcDbEntity
  8
0
100
AcDbText
 10
-120.455084
 20
57.473384
 30
0.0
 40
2.24
  1
急速充電
 41
0.833333
100
AcDbText
  0
TEXT
  5
2CD
330
6B
100
AcDbEntity
  8
0
100
AcDbText
 10
-124.414206
 20
46.53691099999998
 30
0.0
 40
2.24
  1
通常充電
 41
0.833333
100
AcDbText
  0
TEXT
  5
2CE
330
6B
100
AcDbEntity
  8
0
100
AcDbText
 10
-122.26153
 20
34.929408
 30
0.0
 40
2.24
  1
通常充電弱
 41
0.833333
100
AcDbText
  0
TEXT
  5
2CF
330
6B
100
AcDbEntity
  8
0
100
AcDbText
 10
-161.258185
 20
28.811566
 30
0.0
 40
1.843199999999999
  1
INPUT AC100V 240VA
 41
1.104295
100
AcDbText
  0
TEXT
  5
2D0
330
6B
100
AcDbEntity
  8
0
100
AcDbText
 10
-160.898806
 20
26.04206
 30
0.0
 40
1.843199999999999
  1
OUTPUT 12V 10AMAX
 41
1.111110999999997
100
AcDbText
  0
TEXT
  5
2D1
330
6B
100
AcDbEntity
  8
0
 62
     3
100
AcDbText
 10
125.2755966722369
 20
-56.01440400000001
 30
0.0
 40
3.2
  1
12V(26～80Ah)
  7
高3.2
100
AcDbText
  0
LINE
  5
2D7
330
6B
100
AcDbEntity
  8
0
100
AcDbLine
 10
8.937046
 20
11.98444
 30
0.0
 11
-2.219184999999999
 21
-4.708517999999997
 31
0.0
  0
CIRCLE
  5
2D8
330
6B
100
AcDbEntity
  8
0
100
AcDbCircle
 10
-4.997441
 20
-8.865594999999997
 30
0.0
 40
5.0
  0
TEXT
  5
2D9
330
6B
100
AcDbEntity
  8
0
 62
     4
100
AcDbText
 10
-7.997441
 20
-11.13782803954737
 30
0.0
 40
4.5
  1
13
  7
高4.5
100
AcDbText
  0
LINE
  5
2DA
330
6B
100
AcDbEntity
  8
0
 62
     3
100
AcDbLine
 10
-21.84617797086653
 20
-138.5
 30
0.0
 11
-21.84617797086652
 21
-68.5
 31
0.0
  0
LINE
  5
2DB
330
6B
100
AcDbEntity
  8
0
 62
     3
100
AcDbLine
 10
25.761467
 20
99.84419800000001
 30
0.0
 11
24.829237
 21
86.5057
 31
0.0
  0
LINE
  5
2DC
330
6B
100
AcDbEntity
  8
0
 62
     3
100
AcDbLine
 10
62.514029
 20
99.84419800000001
 30
0.0
 11
63.446259
 21
86.5057
 31
0.0
  0
TEXT
  5
2DD
330
6B
100
AcDbEntity
  8
0
100
AcDbText
 10
-109.202573
 20
62.764648
 30
0.0
 40
3.2
  1
エンジン始動
 41
0.833333
100
AcDbText
  0
TEXT
  5
2DE
330
6B
100
AcDbEntity
  8
0
100
AcDbText
 10
-83.949978
 20
69.13755
 30
0.0
 40
2.457599999999998
  1
ONLY
 41
0.888108
100
AcDbText
  0
TEXT
  5
2DF
330
6B
100
AcDbEntity
  8
0
100
AcDbText
 10
-84.718947
 20
72.503108
 30
0.0
 40
3.455999999999998
  1
12V
100
AcDbText
  0
TEXT
  5
2E0
330
6B
100
AcDbEntity
  8
0
100
AcDbText
 10
-110.260963
 20
28.239679
 30
0.0
 40
3.2
  1
充電スイッチ
 41
0.833333
100
AcDbText
  0
CIRCLE
  5
2E1
330
6B
100
AcDbEntity
  8
0
100
AcDbCircle
 10
-149.489286
 20
45.15058599999998
 30
0.0
 40
1.5
  0
CIRCLE
  5
2E2
330
6B
100
AcDbEntity
  8
0
 62
     3
100
AcDbCircle
 10
-100.633614
 20
47.59511999999999
 30
0.0
 40
14.0054
  0
TEXT
  5
2E3
330
6B
100
AcDbEntity
  8
0
 62
     3
100
AcDbText
 10
-89.42463399999999
 20
78.954553
 30
0.0
 40
5.4
  1
60
 41
0.6241
100
AcDbText
  0
TEXT
  5
2E4
330
6B
100
AcDbEntity
  8
0
 62
     3
100
AcDbText
 10
-145.845232
 20
20.006374
 30
0.0
 40
4.32
  1
NB-60
 41
1.034483
100
AcDbText
  0
LINE
  5
2E5
330
6B
100
AcDbEntity
  8
0
 62
     3
100
AcDbLine
 10
-65.84308399999999
 20
36.144252
 30
0.0
 11
-65.84308399999999
 21
31.410326
 31
0.0
  0
CIRCLE
  5
2E6
330
6B
100
AcDbEntity
  8
0
 62
     3
100
AcDbCircle
 10
-65.84308399999999
 20
47.59511999999999
 30
0.0
 40
9.824628999999999
  0
LINE
  5
2E7
330
6B
100
AcDbEntity
  8
0
 62
     3
100
AcDbLine
 10
-63.76240899999999
 20
63.645614
 30
0.0
 11
-63.76240899999999
 21
58.855367
 31
0.0
  0
LINE
  5
2E8
330
6B
100
AcDbEntity
  8
0
 62
     3
100
AcDbLine
 10
-72.53612199999998
 20
62.331158
 30
0.0
 11
-70.326032
 21
58.131987
 31
0.0
  0
ARC
  5
2E9
330
6B
100
AcDbEntity
  8
0
 62
     3
100
AcDbCircle
 10
-65.84308399999999
 20
47.59511999999999
 30
0.0
 40
16.184794
100
AcDbArc
 50
114.427322
 51
82.61376099999997
  0
ARC
  5
2EA
330
6B
100
AcDbEntity
  8
0
 62
     3
100
AcDbCircle
 10
-65.84308399999999
 20
47.59511999999999
 30
0.0
 40
11.450868
100
AcDbArc
 50
113.047502
 51
79.530937
  0
LINE
  5
2EB
330
6B
100
AcDbEntity
  8
0
 62
     3
100
AcDbLine
 10
-60.397104
 20
57.668038
 30
0.0
 11
-58.14567099999999
 21
61.832304
 31
0.0
  0
LINE
  5
2EC
330
6B
100
AcDbEntity
  8
0
 62
     3
100
AcDbLine
 10
-57.16239999999999
 20
55.062924
 30
0.0
 11
-53.573701
 21
58.150204
 31
0.0
  0
LINE
  5
2ED
330
6B
100
AcDbEntity
  8
0
 62
     3
100
AcDbLine
 10
-54.922664
 20
51.03994199999998
 30
0.0
 11
-50.408031
 21
52.464073
 31
0.0
  0
LINE
  5
2EE
330
6B
100
AcDbEntity
  8
0
 62
     3
100
AcDbLine
 10
-77.293952
 20
47.59511999999999
 30
0.0
 11
-82.02787800000001
 21
47.59511999999999
 31
0.0
  0
LINE
  5
2EF
330
6B
100
AcDbEntity
  8
0
 62
     3
100
AcDbLine
 10
-54.392216
 20
47.59511999999999
 30
0.0
 11
-49.65829
 21
47.59511999999999
 31
0.0
  0
LINE
  5
2F0
330
6B
100
AcDbEntity
  8
0
 62
     3
100
AcDbLine
 10
-60.397104
 20
37.522202
 30
0.0
 11
-58.14567099999999
 21
33.357936
 31
0.0
  0
LINE
  5
2F1
330
6B
100
AcDbEntity
  8
0
 62
     3
100
AcDbLine
 10
-57.16239999999999
 20
40.127316
 30
0.0
 11
-53.573701
 21
37.040036
 31
0.0
  0
LINE
  5
2F2
330
6B
100
AcDbEntity
  8
0
 62
     3
100
AcDbLine
 10
-54.922664
 20
44.150298
 30
0.0
 11
-50.408031
 21
42.72616699999999
 31
0.0
  0
LINE
  5
2F3
330
6B
100
AcDbEntity
  8
0
 62
     3
100
AcDbLine
 10
-71.28906399999998
 20
37.522202
 30
0.0
 11
-73.540497
 21
33.357936
 31
0.0
  0
LINE
  5
2F4
330
6B
100
AcDbEntity
  8
0
 62
     3
100
AcDbLine
 10
-74.523769
 20
40.127316
 30
0.0
 11
-78.11246800000002
 21
37.040036
 31
0.0
  0
LINE
  5
2F5
330
6B
100
AcDbEntity
  8
0
 62
     3
100
AcDbLine
 10
-76.763504
 20
44.150298
 30
0.0
 11
-81.278137
 21
42.72616699999999
 31
0.0
  0
LINE
  5
2F6
330
6B
100
AcDbEntity
  8
0
 62
     3
100
AcDbLine
 10
-74.523769
 20
55.062924
 30
0.0
 11
-78.11246800000002
 21
58.150204
 31
0.0
  0
LINE
  5
2F7
330
6B
100
AcDbEntity
  8
0
 62
     3
100
AcDbLine
 10
-76.763504
 20
51.03994199999998
 30
0.0
 11
-81.278137
 21
52.464073
 31
0.0
  0
LINE
  5
2F8
330
6B
100
AcDbEntity
  8
0
100
AcDbLine
 10
-42.322252
 20
62.53273499999998
 30
0.0
 11
-59.612897
 21
62.53273499999998
 31
0.0
  0
LINE
  5
2F9
330
6B
100
AcDbEntity
  8
0
100
AcDbLine
 10
-72.64221500000002
 20
62.53273499999998
 30
0.0
 11
-162.322252
 21
62.53273499999998
 31
0.0
  0
LINE
  5
2FA
330
6B
100
AcDbEntity
  8
0
100
AcDbLine
 10
-42.322252
 20
32.017283
 30
0.0
 11
-61.452348
 21
32.017283
 31
0.0
  0
LINE
  5
2FB
330
6B
100
AcDbEntity
  8
0
100
AcDbLine
 10
-70.23382099999999
 20
32.017283
 30
0.0
 11
-162.322252
 21
32.017283
 31
0.0
  0
TEXT
  5
2FC
330
6B
100
AcDbEntity
  8
0
100
AcDbText
 10
-71.36284499999998
 20
27.411825
 30
0.0
 40
3.2
  1
タイマー
 41
0.833333
100
AcDbText
  0
TEXT
  5
2FD
330
6B
100
AcDbEntity
  8
0
 62
     3
100
AcDbText
 10
125.2755966722369
 20
-42.708804
 30
0.0
 40
3.2
  1
NB-60
  7
高3.2
100
AcDbText
  0
TEXT
  5
2FE
330
6B
100
AcDbEntity
  8
0
 62
     3
100
AcDbText
 10
125.2755966722369
 20
-62.69080399999999
 30
0.0
 40
3.2
  1
17A
  7
高3.2
100
AcDbText
  0
TEXT
  5
2FF
330
6B
100
AcDbEntity
  8
0
 62
     3
100
AcDbText
 10
125.2755966722369
 20
-69.32000399999999
 30
0.0
 40
3.2
  1
60A(10sec)MAX
  7
高3.2
100
AcDbText
  0
TEXT
  5
300
330
6B
100
AcDbEntity
  8
0
 62
     3
100
AcDbText
 10
125.2755966722369
 20
-75.97280400000002
 30
0.0
 40
3.2
  1
サーモスタット
  7
高3.2
100
AcDbText
  0
TEXT
  5
301
330
6B
100
AcDbEntity
  8
0
 62
     3
100
AcDbText
 10
110.863537
 20
-113.776674
 30
0.0
 40
4.5
  1
NB-60
  7
高4.5
100
AcDbText
  0
TEXT
  5
302
330
6B
100
AcDbEntity
  8
0
 62
     3
100
AcDbText
 10
151.3570884590033
 20
-137.46624
 30
0.0
 40
6.299999999999998
  1
NB-60
  7
高6.3
100
AcDbText
  0
LINE
  5
303
330
6B
100
AcDbEntity
  8
0
 62
     3
100
AcDbLine
 10
92.41828167223699
 20
-89.825604
 30
0.0
 11
168.0497589973631
 21
-89.82560400000002
 31
0.0
  0
TEXT
  5
304
330
6B
100
AcDbEntity
  8
0
 62
     3
100
AcDbText
 10
125.2755966722369
 20
-89.32560399999998
 30
0.0
 40
3.2
  1
6.4kg
  7
高3.2
100
AcDbText
  0
TEXT
  5
305
330
6B
100
AcDbEntity
  8
0
 62
     3
100
AcDbText
 10
93.91828167223698
 20
-89.32560399999998
 30
0.0
 40
3.2
  1
質　　　　　量
  7
高3.2
100
AcDbText
  0
LINE
  5
306
330
6B
100
AcDbEntity
  8
0
 62
     3
100
AcDbLine
 10
168.0497589973631
 20
-36.55600399999999
 30
0.0
 11
168.0497589973631
 21
-89.825604
 31
0.0
  0
LINE
  5
307
330
6B
100
AcDbEntity
  8
0
 62
     3
100
AcDbLine
 10
92.41828167223699
 20
-36.55600399999999
 30
0.0
 11
92.41828167223699
 21
-89.825604
 31
0.0
  0
LINE
  5
308
330
6B
100
AcDbEntity
  8
0
100
AcDbLine
 10
92.41828167223699
 20
-83.125604
 30
0.0
 11
168.0497589973631
 21
-83.12560400000002
 31
0.0
  0
LINE
  5
309
330
6B
100
AcDbEntity
  8
0
100
AcDbLine
 10
123.7755966722369
 20
-36.55600399999999
 30
0.0
 11
123.7755966722369
 21
-89.825604
 31
0.0
  0
TEXT
  5
30A
330
6B
100
AcDbEntity
  8
0
 62
     3
100
AcDbText
 10
93.91828167223698
 20
-82.62560400000003
 30
0.0
 40
3.2
  1
タイマー機能
  7
高3.2
100
AcDbText
  0
TEXT
  5
30B
330
6B
100
AcDbEntity
  8
0
 62
     3
100
AcDbText
 10
125.2755966722369
 20
-82.62560400000003
 30
0.0
 40
3.2
  1
12時間
  7
高3.2
100
AcDbText
  0
LINE
  5
31A
330
6B
100
AcDbEntity
  8
0
100
AcDbLine
 10
-99.13012100000001
 20
56.88394999999999
 30
0.0
 11
-81.70865400000002
 21
108.926478
 31
0.0
  0
CIRCLE
  5
31B
330
6B
100
AcDbEntity
  8
0
100
AcDbCircle
 10
-80.121453
 20
113.667869
 30
0.0
 40
5.0
  0
TEXT
  5
31C
330
6B
100
AcDbEntity
  8
0
 62
     4
100
AcDbText
 10
-82.22229578922499
 20
110.4336877478582
 30
0.0
 40
6.299999999999998
  1
4
  7
高6.3
100
AcDbText
  0
LINE
  5
322
330
6B
100
AcDbEntity
  8
0
100
AcDbLine
 10
-150.261458
 20
80.539234
 30
0.0
 11
-145.777393
 21
108.729946
 31
0.0
  0
CIRCLE
  5
323
330
6B
100
AcDbEntity
  8
0
100
AcDbCircle
 10
-144.991959
 20
113.667869
 30
0.0
 40
5.0
  0
TEXT
  5
324
330
6B
100
AcDbEntity
  8
0
 62
     4
100
AcDbText
 10
-146.0976121244114
 20
110.4423524315398
 30
0.0
 40
6.299999999999998
  1
1
  7
高6.3
100
AcDbText
  0
CIRCLE
  5
32B
330
6B
100
AcDbEntity
  8
0
100
AcDbCircle
 10
-58.825736
 20
113.667869
 30
0.0
 40
5.0
  0
TEXT
  5
32C
330
6B
100
AcDbEntity
  8
0
 62
     4
100
AcDbText
 10
-60.926578789225
 20
110.4336877478582
 30
0.0
 40
6.299999999999998
  1
5
  7
高6.3
100
AcDbText
  0
CIRCLE
  5
333
330
6B
100
AcDbEntity
  8
0
100
AcDbCircle
 10
-45.6909251431647
 20
113.414349
 30
0.0
 40
5.0
  0
TEXT
  5
334
330
6B
100
AcDbEntity
  8
0
 62
     4
100
AcDbText
 10
-47.79176793238971
 20
110.1801677478582
 30
0.0
 40
6.299999999999998
  1
6
  7
高6.3
100
AcDbText
  0
CIRCLE
  5
33B
330
6B
100
AcDbEntity
  8
0
100
AcDbCircle
 10
-33.58728891327234
 20
113.667869
 30
0.0
 40
5.0
  0
TEXT
  5
33C
330
6B
100
AcDbEntity
  8
0
 62
     4
100
AcDbText
 10
-35.68813170249735
 20
110.4336877478582
 30
0.0
 40
6.299999999999998
  1
7
  7
高6.3
100
AcDbText
  0
LINE
  5
342
330
6B
100
AcDbEntity
  8
0
100
AcDbLine
 10
17.797749
 20
95.47072599999999
 30
0.0
 11
12.618647
 21
108.998389
 31
0.0
  0
CIRCLE
  5
343
330
6B
100
AcDbEntity
  8
0
100
AcDbCircle
 10
10.830923
 20
113.667869
 30
0.0
 40
5.0
  0
TEXT
  5
344
330
6B
100
AcDbEntity
  8
0
 62
     4
100
AcDbText
 10
8.730080210775
 20
110.4336877478582
 30
0.0
 40
6.299999999999998
  1
9
  7
高6.3
100
AcDbText
  0
LINE
  5
34A
330
6B
100
AcDbEntity
  8
0
100
AcDbLine
 10
79.083415
 20
81.48676
 30
0.0
 11
90.10030999999999
 21
109.025566
 31
0.0
  0
CIRCLE
  5
34B
330
6B
100
AcDbEntity
  8
0
100
AcDbCircle
 10
91.957462
 20
113.667869
 30
0.0
 40
5.0
  0
TEXT
  5
34C
330
6B
100
AcDbEntity
  8
0
 62
     4
100
AcDbText
 10
89.36297242783121
 20
111.3084837861352
 30
0.0
 40
4.5
  1
10
  7
高4.5
100
AcDbText
  0
LINE
  5
352
330
6B
100
AcDbEntity
  8
0
100
AcDbLine
 10
113.448336
 20
24.884991
 30
0.0
 11
118.110089
 21
45.38914000000001
 31
0.0
  0
CIRCLE
  5
353
330
6B
100
AcDbEntity
  8
0
100
AcDbCircle
 10
119.218583
 20
50.264716
 30
0.0
 40
5.0
  0
TEXT
  5
354
330
6B
100
AcDbEntity
  8
0
 62
     4
100
AcDbText
 10
117.0079918097258
 20
47.99248396045263
 30
0.0
 40
4.5
  1
11
  7
高4.5
100
AcDbText
  0
LINE
  5
35A
330
6B
100
AcDbEntity
  8
0
100
AcDbLine
 10
132.652102
 20
32.752938
 30
0.0
 11
137.342363
 21
45.175986
 31
0.0
  0
CIRCLE
  5
35B
330
6B
100
AcDbEntity
  8
0
100
AcDbCircle
 10
139.108414
 20
49.853706
 30
0.0
 40
5.0
  0
TEXT
  5
35C
330
6B
100
AcDbEntity
  8
0
 62
     4
100
AcDbText
 10
136.1084139999999
 20
47.58147296045263
 30
0.0
 40
4.5
  1
12
  7
高4.5
100
AcDbText
  0
TEXT
  5
35D
330
6B
100
AcDbEntity
  8
0
100
AcDbText
 10
-140.327228
 20
40.62841099999999
 30
0.0
 40
2.24
  1
60A MAX
 41
1.122994999999997
100
AcDbText
  0
TEXT
  5
35E
330
6B
100
AcDbEntity
  8
0
100
AcDbText
 10
-140.591063
 20
33.784718
 30
0.0
 40
2.24
  1
17A MAX
 41
1.153845999999999
100
AcDbText
  0
TEXT
  5
35F
330
6B
100
AcDbEntity
  8
0
100
AcDbText
 10
-157.02168
 20
53.96488399999999
 30
0.0
 40
2.24
  1
サーモスタット
 41
0.833333
100
AcDbText
  0
LINE
  5
365
330
6B
100
AcDbEntity
  8
0
100
AcDbLine
 10
-135.768867
 20
53.74779499999998
 30
0.0
 11
-113.525759
 21
108.758822
 31
0.0
  0
CIRCLE
  5
366
330
6B
100
AcDbEntity
  8
0
100
AcDbCircle
 10
-111.651479
 20
113.394237
 30
0.0
 40
5.0
  0
TEXT
  5
367
330
6B
100
AcDbEntity
  8
0
 62
     4
100
AcDbText
 10
-113.752321789225
 20
110.1600557478582
 30
0.0
 40
6.299999999999998
  1
3
  7
高6.3
100
AcDbText
  0
LINE
  5
36D
330
6B
100
AcDbEntity
  8
0
100
AcDbLine
 10
-149.007509
 20
46.694276
 30
0.0
 11
-130.066042
 21
108.612951
 31
0.0
  0
CIRCLE
  5
36E
330
6B
100
AcDbEntity
  8
0
100
AcDbCircle
 10
-128.603405
 20
113.394237
 30
0.0
 40
5.0
  0
TEXT
  5
36F
330
6B
100
AcDbEntity
  8
0
 62
     4
100
AcDbText
 10
-130.704247789225
 20
110.1600557478582
 30
0.0
 40
6.299999999999998
  1
2
  7
高6.3
100
AcDbText
  0
TEXT
  5
370
330
6B
100
AcDbEntity
  8
0
 62
     3
100
AcDbText
 10
-98.56619170998158
 20
-138.0
 30
0.0
 40
3.2
  1
個数
 41
0.8
  7
高3.2
100
AcDbText
  0
TEXT
  5
371
330
6B
100
AcDbEntity
  8
0
 62
     3
100
AcDbText
 10
-132.2475406518705
 20
-138.0
 30
0.0
 40
3.2
  1
備　　　考
 41
0.8
  7
高3.2
100
AcDbText
  0
TEXT
  5
372
330
6B
100
AcDbEntity
  8
0
 62
     3
100
AcDbText
 10
-149.0965962922695
 20
-138.0
 30
0.0
 40
3.2
  1
材　質
 41
0.8
  7
高3.2
100
AcDbText
  0
TEXT
  5
373
330
6B
100
AcDbEntity
  8
0
 62
     3
100
AcDbText
 10
-186.0887986133379
 20
-138.0
 30
0.0
 40
3.2
  1
部　　品　　名
 41
0.8
  7
高3.2
100
AcDbText
  0
TEXT
  5
374
330
6B
100
AcDbEntity
  8
0
 62
     3
100
AcDbText
 10
-193.5
 20
-138.0
 30
0.0
 40
3.2
  1
No
 41
0.8
  7
高3.2
100
AcDbText
  0
TEXT
  5
375
330
6B
100
AcDbEntity
  8
0
 62
     3
100
AcDbText
 10
-132.2475406518705
 20
-83.0
 30
0.0
 40
3.2
  1
1.25sqx2芯x2m
 41
0.8
  7
高3.2
100
AcDbText
  0
TEXT
  5
376
330
6B
100
AcDbEntity
  8
0
 62
     3
100
AcDbText
 10
-98.56619170998158
 20
-88.0
 30
0.0
 40
3.2
  1
1
 41
0.8
  7
高3.2
100
AcDbText
  0
TEXT
  5
377
330
6B
100
AcDbEntity
  8
0
 62
     3
100
AcDbText
 10
-98.56619170998158
 20
-93.0
 30
0.0
 40
3.2
  1
1
 41
0.8
  7
高3.2
100
AcDbText
  0
TEXT
  5
378
330
6B
100
AcDbEntity
  8
0
 62
     3
100
AcDbText
 10
-98.56619170998158
 20
-103.0
 30
0.0
 40
3.2
  1
1
 41
0.8
  7
高3.2
100
AcDbText
  0
TEXT
  5
379
330
6B
100
AcDbEntity
  8
0
 62
     3
100
AcDbText
 10
-98.56619170998158
 20
-108.0
 30
0.0
 40
3.2
  1
1
 41
0.8
  7
高3.2
100
AcDbText
  0
TEXT
  5
37A
330
6B
100
AcDbEntity
  8
0
 62
     3
100
AcDbText
 10
-98.56619170998158
 20
-113.0
 30
0.0
 40
3.2
  1
1
 41
0.8
  7
高3.2
100
AcDbText
  0
TEXT
  5
37B
330
6B
100
AcDbEntity
  8
0
 62
     3
100
AcDbText
 10
-98.56619170998158
 20
-118.0
 30
0.0
 40
3.2
  1
1
 41
0.8
  7
高3.2
100
AcDbText
  0
TEXT
  5
37C
330
6B
100
AcDbEntity
  8
0
 62
     3
100
AcDbText
 10
-98.56619170998158
 20
-123.0
 30
0.0
 40
3.2
  1
1
 41
0.8
  7
高3.2
100
AcDbText
  0
TEXT
  5
37D
330
6B
100
AcDbEntity
  8
0
 62
     3
100
AcDbText
 10
-98.56619170998158
 20
-128.0
 30
0.0
 40
3.2
  1
1
 41
0.8
  7
高3.2
100
AcDbText
  0
TEXT
  5
37E
330
6B
100
AcDbEntity
  8
0
 62
     3
100
AcDbText
 10
-98.56619170998158
 20
-133.0
 30
0.0
 40
3.2
  1
1
 41
0.8
  7
高3.2
100
AcDbText
  0
LINE
  5
37F
330
6B
100
AcDbEntity
  8
0
100
AcDbLine
 10
-100.0661917099816
 20
-138.5
 30
0.0
 11
-100.0661917099815
 21
-68.5
 31
0.0
  0
TEXT
  5
380
330
6B
100
AcDbEntity
  8
0
 62
     3
100
AcDbText
 10
-98.56619170998158
 20
-73.0
 30
0.0
 40
3.2
  1
4
 41
0.8
  7
高3.2
100
AcDbText
  0
TEXT
  5
381
330
6B
100
AcDbEntity
  8
0
 62
     3
100
AcDbText
 10
-98.56619170998158
 20
-78.0
 30
0.0
 40
3.2
  1
2
 41
0.8
  7
高3.2
100
AcDbText
  0
TEXT
  5
382
330
6B
100
AcDbEntity
  8
0
 62
     3
100
AcDbText
 10
-98.56619170998158
 20
-83.0
 30
0.0
 40
3.2
  1
1
 41
0.8
  7
高3.2
100
AcDbText
  0
TEXT
  5
383
330
6B
100
AcDbEntity
  8
0
 62
     3
100
AcDbText
 10
-193.5
 20
-133.0
 30
0.0
 40
3.2
  1
1
 41
0.8
  7
高3.2
100
AcDbText
  0
TEXT
  5
384
330
6B
100
AcDbEntity
  8
0
 62
     3
100
AcDbText
 10
-193.5
 20
-128.0
 30
0.0
 40
3.2
  1
2
 41
0.8
  7
高3.2
100
AcDbText
  0
TEXT
  5
385
330
6B
100
AcDbEntity
  8
0
 62
     3
100
AcDbText
 10
-193.5
 20
-123.0
 30
0.0
 40
3.2
  1
3
 41
0.8
  7
高3.2
100
AcDbText
  0
TEXT
  5
386
330
6B
100
AcDbEntity
  8
0
 62
     3
100
AcDbText
 10
-193.5
 20
-118.0
 30
0.0
 40
3.2
  1
4
 41
0.8
  7
高3.2
100
AcDbText
  0
TEXT
  5
387
330
6B
100
AcDbEntity
  8
0
 62
     3
100
AcDbText
 10
-193.5
 20
-113.0
 30
0.0
 40
3.2
  1
5
 41
0.8
  7
高3.2
100
AcDbText
  0
TEXT
  5
388
330
6B
100
AcDbEntity
  8
0
 62
     3
100
AcDbText
 10
-193.5
 20
-108.0
 30
0.0
 40
3.2
  1
6
 41
0.8
  7
高3.2
100
AcDbText
  0
TEXT
  5
389
330
6B
100
AcDbEntity
  8
0
 62
     3
100
AcDbText
 10
-193.5
 20
-103.0
 30
0.0
 40
3.2
  1
7
 41
0.8
  7
高3.2
100
AcDbText
  0
TEXT
  5
38A
330
6B
100
AcDbEntity
  8
0
 62
     3
100
AcDbText
 10
-193.5
 20
-98.0
 30
0.0
 40
3.2
  1
8
 41
0.8
  7
高3.2
100
AcDbText
  0
TEXT
  5
38B
330
6B
100
AcDbEntity
  8
0
 62
     3
100
AcDbText
 10
-193.5
 20
-93.0
 30
0.0
 40
3.2
  1
9
 41
0.8
  7
高3.2
100
AcDbText
  0
TEXT
  5
38C
330
6B
100
AcDbEntity
  8
0
 62
     3
100
AcDbText
 10
-193.5
 20
-88.0
 30
0.0
 40
3.2
  1
10
 41
0.8
  7
高3.2
100
AcDbText
  0
TEXT
  5
38D
330
6B
100
AcDbEntity
  8
0
 62
     3
100
AcDbText
 10
-186.0887986133379
 20
-113.0
 30
0.0
 40
3.2
  1
前面パネル兼シャーシ
 41
0.8
  7
高3.2
100
AcDbText
  0
TEXT
  5
38E
330
6B
100
AcDbEntity
  8
0
 62
     3
100
AcDbText
 10
-186.0887986133379
 20
-88.0
 30
0.0
 40
3.2
  1
本体カバー
 41
0.8
  7
高3.2
100
AcDbText
  0
TEXT
  5
38F
330
6B
100
AcDbEntity
  8
0
 62
     3
100
AcDbText
 10
-186.0887986133379
 20
-93.0
 30
0.0
 40
3.2
  1
アーチグリップ
 41
0.8
  7
高3.2
100
AcDbText
  0
TEXT
  5
390
330
6B
100
AcDbEntity
  8
0
 62
     3
100
AcDbText
 10
-186.0887986133379
 20
-133.0
 30
0.0
 40
3.2
  1
直流電圧計
 41
0.8
  7
高3.2
100
AcDbText
  0
TEXT
  5
391
330
6B
100
AcDbEntity
  8
0
 62
     3
100
AcDbText
 10
-186.0887986133379
 20
-108.0
 30
0.0
 40
3.2
  1
電源スイッチ
 41
0.8
  7
高3.2
100
AcDbText
  0
TEXT
  5
392
330
6B
100
AcDbEntity
  8
0
 62
     3
100
AcDbText
 10
-186.0887986133379
 20
-73.0
 30
0.0
 40
3.2
  1
ゴム足
 41
0.8
  7
高3.2
100
AcDbText
  0
TEXT
  5
393
330
6B
100
AcDbEntity
  8
0
 62
     3
100
AcDbText
 10
-186.0887986133379
 20
-83.0
 30
0.0
 40
3.2
  1
プラグ付き入力コード
 41
0.8
  7
高3.2
100
AcDbText
  0
TEXT
  5
394
330
6B
100
AcDbEntity
  8
0
 62
     3
100
AcDbText
 10
-186.0887986133379
 20
-78.0
 30
0.0
 40
3.2
  1
クリップ付き出力コード
 41
0.8
  7
高3.2
100
AcDbText
  0
TEXT
  5
396
330
6B
100
AcDbEntity
  8
0
 62
     3
100
AcDbText
 10
-149.0965962922695
 20
-83.0
 30
0.0
 40
3.2
  1
VCTFK
 41
0.8
  7
高3.2
100
AcDbText
  0
TEXT
  5
397
330
6B
100
AcDbEntity
  8
0
 62
     3
100
AcDbText
 10
-149.0965962922695
 20
-73.0
 30
0.0
 40
3.2
  1
合成ゴム
 41
0.8
  7
高3.2
100
AcDbText
  0
TEXT
  5
398
330
6B
100
AcDbEntity
  8
0
 62
     3
100
AcDbText
 10
-149.0965962922695
 20
-93.0
 30
0.0
 40
3.2
  1
PA樹脂
 41
0.8
  7
高3.2
100
AcDbText
  0
TEXT
  5
399
330
6B
100
AcDbEntity
  8
0
 62
     3
100
AcDbText
 10
-149.0965962922695
 20
-88.0
 30
0.0
 40
3.2
  1
SPCC
 41
0.8
  7
高3.2
100
AcDbText
  0
TEXT
  5
39A
330
6B
100
AcDbEntity
  8
0
 62
     3
100
AcDbText
 10
-149.0965962922695
 20
-113.0
 30
0.0
 40
3.2
  1
SPCC
 41
0.8
  7
高3.2
100
AcDbText
  0
TEXT
  5
39B
330
6B
100
AcDbEntity
  8
0
 62
     3
100
AcDbText
 10
-132.2475406518705
 20
-108.0
 30
0.0
 40
3.2
  1
電源ランプ付き
 41
0.8
  7
高3.2
100
AcDbText
  0
TEXT
  5
39C
330
6B
100
AcDbEntity
  8
0
 62
     3
100
AcDbText
 10
-132.2475406518705
 20
-78.0
 30
0.0
 40
3.2
  1
5.5sqx2m赤、黒
 41
0.8
  7
高3.2
100
AcDbText
  0
TEXT
  5
39D
330
6B
100
AcDbEntity
  8
0
 62
     3
100
AcDbText
 10
-186.0887986133379
 20
-118.0
 30
0.0
 40
3.2
  1
充電スイッチツマミ
 41
0.8
  7
高3.2
100
AcDbText
  0
TEXT
  5
39E
330
6B
100
AcDbEntity
  8
0
 62
     3
100
AcDbText
 10
-186.0887986133379
 20
-123.0
 30
0.0
 40
3.2
  1
異常表示ランプ
 41
0.8
  7
高3.2
100
AcDbText
  0
TEXT
  5
39F
330
6B
100
AcDbEntity
  8
0
 62
     3
100
AcDbText
 10
-193.5
 20
-83.0
 30
0.0
 40
3.2
  1
11
 41
0.8
  7
高3.2
100
AcDbText
  0
TEXT
  5
3A0
330
6B
100
AcDbEntity
  8
0
 62
     3
100
AcDbText
 10
-193.5
 20
-78.0
 30
0.0
 40
3.2
  1
12
 41
0.8
  7
高3.2
100
AcDbText
  0
TEXT
  5
3A1
330
6B
100
AcDbEntity
  8
0
 62
     3
100
AcDbText
 10
-132.2475406518705
 20
-88.0
 30
0.0
 40
3.2
  1
焼付塗装
 41
0.8
  7
高3.2
100
AcDbText
  0
TEXT
  5
3A2
330
6B
100
AcDbEntity
  8
0
 62
     3
100
AcDbText
 10
-132.2475406518705
 20
-118.0
 30
0.0
 40
3.2
  1
エンジンスタート兼用
 41
0.8
  7
高3.2
100
AcDbText
  0
TEXT
  5
3A3
330
6B
100
AcDbEntity
  8
0
 62
     3
100
AcDbText
 10
-186.0887986133379
 20
-128.0
 30
0.0
 40
3.2
  1
サーモスタット
 41
0.8
  7
高3.2
100
AcDbText
  0
LINE
  5
3A4
330
6B
100
AcDbEntity
  8
0
100
AcDbLine
 10
-150.5965962922695
 20
-138.5
 30
0.0
 11
-150.5965962922695
 21
-68.5
 31
0.0
  0
LINE
  5
3A5
330
6B
100
AcDbEntity
  8
0
100
AcDbLine
 10
-133.7475406518706
 20
-138.5
 30
0.0
 11
-133.7475406518705
 21
-68.5
 31
0.0
  0
LINE
  5
3A6
330
6B
100
AcDbEntity
  8
0
100
AcDbLine
 10
-187.5887986133379
 20
-138.5
 30
0.0
 11
-187.5887986133379
 21
-68.5
 31
0.0
  0
TEXT
  5
3A7
330
6B
100
AcDbEntity
  8
0
 62
     3
100
AcDbText
 10
-186.0887986133379
 20
-103.0
 30
0.0
 40
3.2
  1
タイマーツマミ
 41
0.8
  7
高3.2
100
AcDbText
  0
TEXT
  5
3A8
330
6B
100
AcDbEntity
  8
0
 62
     3
100
AcDbText
 10
-132.2475406518705
 20
-103.0
 30
0.0
 40
3.2
  1
12時間
 41
0.8
  7
高3.2
100
AcDbText
  0
TEXT
  5
3A9
330
6B
100
AcDbEntity
  8
0
 62
     3
100
AcDbText
 10
-132.2475406518705
 20
-113.0
 30
0.0
 40
3.2
  1
シルク印刷
 41
0.8
  7
高3.2
100
AcDbText
  0
TEXT
  5
3AA
330
6B
100
AcDbEntity
  8
0
 62
     3
100
AcDbText
 10
-132.2475406518705
 20
-73.0
 30
0.0
 40
3.2
  1
M4ビス
 41
0.8
  7
高3.2
100
AcDbText
  0
LINE
  5
3AB
330
6B
100
AcDbEntity
  8
0
 62
     3
100
AcDbLine
 10
194.899964
 20
-92.834277
 30
0.0
 11
143.3006
 21
-92.834277
 31
0.0
  0
TEXT
  5
3AC
330
6B
100
AcDbEntity
  8
0
 62
     3
100
AcDbText
 10
149.7351262331474
 20
-98.278192
 30
0.0
 40
4.5
  1
コード
  7
高4.5
100
AcDbText
  0
LINE
  5
3AD
330
6B
100
AcDbEntity
  8
0
 62
     3
100
AcDbLine
 10
169.3006
 20
-98.834277
 30
0.0
 11
169.3006
 21
-92.834277
 31
0.0
  0
LINE
  5
3AE
330
6B
100
AcDbEntity
  8
0
 62
     3
100
AcDbLine
 10
143.3006
 20
-98.834277
 30
0.0
 11
143.3006
 21
-92.834277
 31
0.0
  0
LINE
  5
3AF
330
6B
100
AcDbEntity
  8
0
 62
     7
100
AcDbLine
 10
-195.0
 20
-73.5
 30
0.0
 11
-21.84617797086653
 21
-73.5
 31
0.0
  0
LINE
  5
3B0
330
6B
100
AcDbEntity
  8
0
 62
     3
100
AcDbLine
 10
-195.0
 20
-133.5
 30
0.0
 11
-21.84617797086653
 21
-133.5
 31
0.0
  0
LINE
  5
3B1
330
6B
100
AcDbEntity
  8
0
100
AcDbLine
 10
-195.0
 20
-88.49999999999999
 30
0.0
 11
-21.84617797086653
 21
-88.49999999999999
 31
0.0
  0
LINE
  5
3B2
330
6B
100
AcDbEntity
  8
0
100
AcDbLine
 10
-195.0
 20
-128.5
 30
0.0
 11
-21.84617797086653
 21
-128.5
 31
0.0
  0
LINE
  5
3B3
330
6B
100
AcDbEntity
  8
0
100
AcDbLine
 10
-195.0
 20
-123.5
 30
0.0
 11
-21.84617797086653
 21
-123.5
 31
0.0
  0
LINE
  5
3B4
330
6B
100
AcDbEntity
  8
0
100
AcDbLine
 10
-195.0
 20
-118.5
 30
0.0
 11
-21.84617797086653
 21
-118.5
 31
0.0
  0
LINE
  5
3B5
330
6B
100
AcDbEntity
  8
0
100
AcDbLine
 10
-195.0
 20
-113.5
 30
0.0
 11
-21.84617797086653
 21
-113.5
 31
0.0
  0
LINE
  5
3B6
330
6B
100
AcDbEntity
  8
0
100
AcDbLine
 10
-195.0
 20
-108.5
 30
0.0
 11
-21.84617797086653
 21
-108.5
 31
0.0
  0
LINE
  5
3B7
330
6B
100
AcDbEntity
  8
0
100
AcDbLine
 10
-195.0
 20
-103.5
 30
0.0
 11
-21.84617797086653
 21
-103.5
 31
0.0
  0
LINE
  5
3B8
330
6B
100
AcDbEntity
  8
0
100
AcDbLine
 10
-195.0
 20
-98.50000000000001
 30
0.0
 11
-21.84617797086653
 21
-98.50000000000001
 31
0.0
  0
LINE
  5
3B9
330
6B
100
AcDbEntity
  8
0
100
AcDbLine
 10
-195.0
 20
-93.49999999999999
 30
0.0
 11
-21.84617797086653
 21
-93.49999999999999
 31
0.0
  0
LINE
  5
3BA
330
6B
100
AcDbEntity
  8
0
100
AcDbLine
 10
-195.0
 20
-78.5
 30
0.0
 11
-21.84617797086653
 21
-78.5
 31
0.0
  0
LINE
  5
3BB
330
6B
100
AcDbEntity
  8
0
100
AcDbLine
 10
-195.0
 20
-83.49999999999999
 30
0.0
 11
-21.84617797086653
 21
-83.49999999999999
 31
0.0
  0
TEXT
  5
3BC
330
6B
100
AcDbEntity
  8
0
 62
     3
100
AcDbText
 10
174.0171729068408
 20
-98.335921
 30
0.0
 40
4.5
  1
6530
  7
高4.5
100
AcDbText
  0
TEXT
  5
49A
330
6B
100
AcDbEntity
  8
0
 62
     3
100
AcDbText
 10
182.5
 20
129.0
 30
0.0
 40
3.2
  1
担　当
  7
高3.2
100
AcDbText
  0
TEXT
  5
49B
330
6B
100
AcDbEntity
  8
0
 62
     3
100
AcDbText
 10
138.5
 20
129.0
 30
0.0
 40
3.2
  1
変更・追記内容
  7
高3.2
100
AcDbText
  0
TEXT
  5
49C
330
6B
100
AcDbEntity
  8
0
 62
     3
100
AcDbText
 10
113.6135150003392
 20
124.3294614900917
 30
0.0
 40
2.0
  1
1
  7
高2
100
AcDbText
  0
TEXT
  5
49D
330
6B
100
AcDbEntity
  8
0
 62
     3
100
AcDbText
 10
113.3050035235819
 20
119.1596447778188
 30
0.0
 40
2.0
  1
2
  7
高2
100
AcDbText
  0
TEXT
  5
49E
330
6B
100
AcDbEntity
  8
0
 62
     3
100
AcDbText
 10
120.5
 20
129.0
 30
0.0
 40
3.2
  1
日　付
  7
高3.2
100
AcDbText
  0
TEXT
  5
49F
330
6B
100
AcDbEntity
  8
0
 62
     3
100
AcDbText
 10
120.5
 20
134.0
 30
0.0
 40
3.2
  1
図　　　　面　　　　略　　　　歴
  7
高3.2
100
AcDbText
  0
TEXT
  5
4A0
330
6B
100
AcDbEntity
  8
0
 62
     3
100
AcDbText
 10
110.5
 20
129.0
 30
0.0
 40
3.2
  1
記号
  7
高3.2
100
AcDbText
  0
LINE
  5
4A1
330
6B
100
AcDbEntity
  8
0
100
AcDbLine
 10
114.0
 20
122.2908960000001
 30
0.0
 11
112.1
 21
119.0
 31
0.0
  0
LINE
  5
4A2
330
6B
100
AcDbEntity
  8
0
100
AcDbLine
 10
114.0
 20
122.2908960000001
 30
0.0
 11
115.9
 21
119.0
 31
0.0
  0
LINE
  5
4A3
330
6B
100
AcDbEntity
  8
0
100
AcDbLine
 10
112.1
 20
119.0
 30
0.0
 11
115.9
 21
119.0
 31
0.0
  0
LINE
  5
4A4
330
6B
100
AcDbEntity
  8
0
100
AcDbLine
 10
114.0
 20
127.2908970000001
 30
0.0
 11
112.1
 21
124.0
 31
0.0
  0
LINE
  5
4A5
330
6B
100
AcDbEntity
  8
0
100
AcDbLine
 10
114.0
 20
127.2908970000001
 30
0.0
 11
115.9
 21
124.0
 31
0.0
  0
LINE
  5
4A6
330
6B
100
AcDbEntity
  8
0
100
AcDbLine
 10
112.1
 20
124.0
 30
0.0
 11
115.9
 21
124.0
 31
0.0
  0
LINE
  5
4A7
330
6B
100
AcDbEntity
  8
0
 62
     3
100
AcDbLine
 10
109.0
 20
133.5
 30
0.0
 11
195.0
 21
133.5
 31
0.0
  0
LINE
  5
4A8
330
6B
100
AcDbEntity
  8
0
 62
     3
100
AcDbLine
 10
109.0
 20
128.5
 30
0.0
 11
195.0
 21
128.5
 31
0.0
  0
LINE
  5
4A9
330
6B
100
AcDbEntity
  8
0
 62
     7
100
AcDbLine
 10
109.0
 20
123.5
 30
0.0
 11
195.0
 21
123.5
 31
0.0
  0
LINE
  5
4AA
330
6B
100
AcDbEntity
  8
0
 62
     3
100
AcDbLine
 10
109.0
 20
118.5
 30
0.0
 11
195.0
 21
118.5
 31
0.0
  0
LINE
  5
4AB
330
6B
100
AcDbEntity
  8
0
 62
     7
100
AcDbLine
 10
180.9999999999999
 20
118.5
 30
0.0
 11
181.0
 21
133.5
 31
0.0
  0
LINE
  5
4AC
330
6B
100
AcDbEntity
  8
0
 62
     7
100
AcDbLine
 10
137.0
 20
118.5
 30
0.0
 11
137.0
 21
133.5
 31
0.0
  0
LINE
  5
4AD
330
6B
100
AcDbEntity
  8
0
 62
     7
100
AcDbLine
 10
119.0
 20
118.5
 30
0.0
 11
119.0
 21
133.5
 31
0.0
  0
LINE
  5
4AE
330
6B
100
AcDbEntity
  8
0
 62
     3
100
AcDbLine
 10
109.0
 20
118.5
 30
0.0
 11
109.0
 21
138.5
 31
0.0
  0
TEXT
  5
69A
330
6B
100
AcDbEntity
  8
0
 62
     3
100
AcDbText
 10
-89.82796205771057
 20
-138.0
 30
0.0
 40
3.2
  1
コード
 41
0.8
  7
高3.2
100
AcDbText
  0
TEXT
  5
69B
330
6B
100
AcDbEntity
  8
0
 62
     3
100
AcDbText
 10
-89.82796205771057
 20
-88.0
 30
0.0
 40
3.2
  1
-
 41
0.8
  7
高3.2
100
AcDbText
  0
TEXT
  5
69C
330
6B
100
AcDbEntity
  8
0
 62
     3
100
AcDbText
 10
-89.82796205771057
 20
-93.0
 30
0.0
 40
3.2
  1
-
 41
0.8
  7
高3.2
100
AcDbText
  0
TEXT
  5
69D
330
6B
100
AcDbEntity
  8
0
 62
     3
100
AcDbText
 10
-89.82796205771057
 20
-103.0
 30
0.0
 40
3.2
  1
-
 41
0.8
  7
高3.2
100
AcDbText
  0
TEXT
  5
69E
330
6B
100
AcDbEntity
  8
0
 62
     3
100
AcDbText
 10
-89.82796205771057
 20
-108.0
 30
0.0
 40
3.2
  1
52530
 41
0.8
  7
高3.2
100
AcDbText
  0
TEXT
  5
69F
330
6B
100
AcDbEntity
  8
0
 62
     3
100
AcDbText
 10
-89.82796205771057
 20
-113.0
 30
0.0
 40
3.2
  1
-
 41
0.8
  7
高3.2
100
AcDbText
  0
TEXT
  5
6A0
330
6B
100
AcDbEntity
  8
0
 62
     3
100
AcDbText
 10
-89.82796205771057
 20
-118.0
 30
0.0
 40
3.2
  1
-
 41
0.8
  7
高3.2
100
AcDbText
  0
TEXT
  5
6A1
330
6B
100
AcDbEntity
  8
0
 62
     3
100
AcDbText
 10
-89.82796205771057
 20
-123.0
 30
0.0
 40
3.2
  1
-
 41
0.8
  7
高3.2
100
AcDbText
  0
TEXT
  5
6A2
330
6B
100
AcDbEntity
  8
0
 62
     3
100
AcDbText
 10
-89.82796205771057
 20
-128.0
 30
0.0
 40
3.2
  1
-
 41
0.8
  7
高3.2
100
AcDbText
  0
TEXT
  5
6A3
330
6B
100
AcDbEntity
  8
0
 62
     3
100
AcDbText
 10
-89.82796205771057
 20
-133.0
 30
0.0
 40
3.2
  1
55595
 41
0.8
  7
高3.2
100
AcDbText
  0
LINE
  5
6A4
330
6B
100
AcDbEntity
  8
0
100
AcDbLine
 10
-91.32796205771059
 20
-138.5
 30
0.0
 11
-91.32796205771049
 21
-68.5
 31
0.0
  0
TEXT
  5
6A5
330
6B
100
AcDbEntity
  8
0
 62
     3
100
AcDbText
 10
-89.82796205771057
 20
-73.0
 30
0.0
 40
3.2
  1
53813
 41
0.8
  7
高3.2
100
AcDbText
  0
TEXT
  5
6A6
330
6B
100
AcDbEntity
  8
0
 62
     3
100
AcDbText
 10
-89.82796205771057
 20
-78.0
 30
0.0
 40
3.2
  1
-
 41
0.8
  7
高3.2
100
AcDbText
  0
TEXT
  5
6A7
330
6B
100
AcDbEntity
  8
0
 62
     3
100
AcDbText
 10
-89.82796205771057
 20
-83.0
 30
0.0
 40
3.2
  1
-
 41
0.8
  7
高3.2
100
AcDbText
  0
TEXT
  5
6A8
330
6B
100
AcDbEntity
  8
0
 62
     3
100
AcDbText
 10
-73.94395298197934
 20
-138.0
 30
0.0
 40
3.2
  1
個数
 41
0.6
  7
高3.2
100
AcDbText
  0
TEXT
  5
6A9
330
6B
100
AcDbEntity
  8
0
 62
     3
100
AcDbText
 10
-73.94395298197934
 20
-88.0
 30
0.0
 40
3.2
  1
-
 41
0.6
  7
高3.2
100
AcDbText
  0
TEXT
  5
6AA
330
6B
100
AcDbEntity
  8
0
 62
     3
100
AcDbText
 10
-73.94395298197934
 20
-93.0
 30
0.0
 40
3.2
  1
-
 41
0.6
  7
高3.2
100
AcDbText
  0
TEXT
  5
6AB
330
6B
100
AcDbEntity
  8
0
 62
     3
100
AcDbText
 10
-73.94395298197934
 20
-103.0
 30
0.0
 40
3.2
  1
-
 41
0.6
  7
高3.2
100
AcDbText
  0
TEXT
  5
6AC
330
6B
100
AcDbEntity
  8
0
 62
     3
100
AcDbText
 10
-73.94395298197934
 20
-108.0
 30
0.0
 40
3.2
  1
スイッチ(SW用)
 41
0.6
  7
高3.2
100
AcDbText
  0
TEXT
  5
6AD
330
6B
100
AcDbEntity
  8
0
 62
     3
100
AcDbText
 10
-73.94395298197934
 20
-113.0
 30
0.0
 40
3.2
  1
-
 41
0.6
  7
高3.2
100
AcDbText
  0
TEXT
  5
6AE
330
6B
100
AcDbEntity
  8
0
 62
     3
100
AcDbText
 10
-73.94395298197934
 20
-118.0
 30
0.0
 40
3.2
  1
-
 41
0.6
  7
高3.2
100
AcDbText
  0
TEXT
  5
6AF
330
6B
100
AcDbEntity
  8
0
 62
     3
100
AcDbText
 10
-73.94395298197934
 20
-123.0
 30
0.0
 40
3.2
  1
-
 41
0.6
  7
高3.2
100
AcDbText
  0
TEXT
  5
6B0
330
6B
100
AcDbEntity
  8
0
 62
     3
100
AcDbText
 10
-73.94395298197934
 20
-128.0
 30
0.0
 40
3.2
  1
-
 41
0.6
  7
高3.2
100
AcDbText
  0
TEXT
  5
6B1
330
6B
100
AcDbEntity
  8
0
 62
     3
100
AcDbText
 10
-73.94395298197934
 20
-133.0
 30
0.0
 40
3.2
  1
NB-40/50/60兼用　電圧メーター
 41
0.6
  7
高3.2
100
AcDbText
  0
LINE
  5
6B2
330
6B
100
AcDbEntity
  8
0
100
AcDbLine
 10
-75.44395298197938
 20
-138.5
 30
0.0
 11
-75.44395298197925
 21
-68.5
 31
0.0
  0
TEXT
  5
6B3
330
6B
100
AcDbEntity
  8
0
 62
     3
100
AcDbText
 10
-73.94395298197934
 20
-73.0
 30
0.0
 40
3.2
  1
M-E20用脚ゴム(1/4)
 41
0.6
  7
高3.2
100
AcDbText
  0
TEXT
  5
6B4
330
6B
100
AcDbEntity
  8
0
 62
     3
100
AcDbText
 10
-73.94395298197934
 20
-78.0
 30
0.0
 40
3.2
  1
-
 41
0.6
  7
高3.2
100
AcDbText
  0
TEXT
  5
6B5
330
6B
100
AcDbEntity
  8
0
 62
     3
100
AcDbText
 10
-73.94395298197934
 20
-83.0
 30
0.0
 40
3.2
  1
-
 41
0.6
  7
高3.2
100
AcDbText
  0
CIRCLE
  5
716
330
6B
100
AcDbEntity
  8
0
100
AcDbCircle
 10
-21.11662146602247
 20
113.667869
 30
0.0
 40
5.0
  0
TEXT
  5
717
330
6B
100
AcDbEntity
  8
0
 62
     4
100
AcDbText
 10
-23.21746425524747
 20
110.4336877478582
 30
0.0
 40
6.299999999999998
  1
8
  7
高6.3
100
AcDbText
  0
LINE
  5
727
330
6B
100
AcDbEntity
  8
0
 62
     3
100
AcDbLine
 10
-195.0
 20
-68.5
 30
0.0
 11
-21.84617797086653
 21
-68.5
 31
0.0
  0
TEXT
  5
728
330
6B
100
AcDbEntity
  8
0
 62
     3
100
AcDbText
 10
-193.5
 20
-73.0
 30
0.0
 40
3.2
  1
13
 41
0.8
  7
高3.2
100
AcDbText
  0
TEXT
  5
729
330
6B
100
AcDbEntity
  8
0
 62
     3
100
AcDbText
 10
-98.56619170998158
 20
-98.0
 30
0.0
 40
3.2
  1
1
 41
0.8
  7
高3.2
100
AcDbText
  0
TEXT
  5
72A
330
6B
100
AcDbEntity
  8
0
 62
     3
100
AcDbText
 10
-186.0887986133379
 20
-98.0
 30
0.0
 40
3.2
  1
タイマースイッチ
 41
0.8
  7
高3.2
100
AcDbText
  0
TEXT
  5
72B
330
6B
100
AcDbEntity
  8
0
 62
     3
100
AcDbText
 10
-132.2475406518705
 20
-98.0
 30
0.0
 40
3.2
  1
内部
 41
0.8
  7
高3.2
100
AcDbText
  0
TEXT
  5
72C
330
6B
100
AcDbEntity
  8
0
 62
     3
100
AcDbText
 10
-89.82796205771057
 20
-98.0
 30
0.0
 40
3.2
  1
54170
 41
0.8
  7
高3.2
100
AcDbText
  0
TEXT
  5
72D
330
6B
100
AcDbEntity
  8
0
 62
     3
100
AcDbText
 10
-73.94395298197934
 20
-98.0
 30
0.0
 40
3.2
  1
充電器用タイマー(NB-200.150.60用)
 41
0.6
  7
高3.2
100
AcDbText
  0
TEXT
  5
7ED
330
6B
100
AcDbEntity
  8
0
 62
     3
100
AcDbText
 10
-149.0965962922695
 20
-78.00000000000001
 30
0.0
 40
3.2
  1
VSF
 41
0.8
  7
高3.2
100
AcDbText
  0
LINE
  5
8FD
330
6B
100
AcDbEntity
  8
0
100
AcDbLine
 10
-148.93491
 20
48.76355499999998
 30
0.0
 11
-149.007509
 21
46.694276
 31
0.0
  0
LINE
  5
8FE
330
6B
100
AcDbEntity
  8
0
100
AcDbLine
 10
-149.007509
 20
46.694276
 30
0.0
 11
-147.909997
 21
48.45002499999999
 31
0.0
  0
LINE
  5
8FF
330
6B
100
AcDbEntity
  8
0
100
AcDbLine
 10
-135.515978
 20
55.80284599999998
 30
0.0
 11
-135.768867
 21
53.74779499999998
 31
0.0
  0
LINE
  5
900
330
6B
100
AcDbEntity
  8
0
100
AcDbLine
 10
-135.768867
 20
53.74779499999998
 30
0.0
 11
-134.522333
 21
55.401077
 31
0.0
  0
LINE
  5
901
330
6B
100
AcDbEntity
  8
0
100
AcDbLine
 10
132.8571659999999
 20
34.813311
 30
0.0
 11
132.652102
 21
32.752938
 31
0.0
  0
LINE
  5
902
330
6B
100
AcDbEntity
  8
0
100
AcDbLine
 10
132.652102
 20
32.752938
 30
0.0
 11
133.859879
 21
34.434742
 31
0.0
  0
LINE
  5
903
330
6B
100
AcDbEntity
  8
0
100
AcDbLine
 10
113.369171
 20
26.95403
 30
0.0
 11
113.448336
 21
24.884991
 31
0.0
  0
LINE
  5
904
330
6B
100
AcDbEntity
  8
0
100
AcDbLine
 10
113.448336
 20
24.884991
 30
0.0
 11
114.414296
 21
26.716413
 31
0.0
  0
LINE
  5
905
330
6B
100
AcDbEntity
  8
0
100
AcDbLine
 10
79.328716
 20
83.542731
 30
0.0
 11
79.083415
 21
81.48676
 31
0.0
  0
LINE
  5
906
330
6B
100
AcDbEntity
  8
0
100
AcDbLine
 10
79.083415
 20
81.48676
 30
0.0
 11
80.323837
 21
83.14463299999998
 31
0.0
  0
LINE
  5
907
330
6B
100
AcDbEntity
  8
0
100
AcDbLine
 10
16.582187
 20
97.14691
 30
0.0
 11
17.797749
 21
95.47072599999999
 31
0.0
  0
LINE
  5
908
330
6B
100
AcDbEntity
  8
0
100
AcDbLine
 10
17.797749
 20
95.47072599999999
 30
0.0
 11
17.583133
 21
97.53012599999999
 31
0.0
  0
LINE
  5
909
330
6B
100
AcDbEntity
  8
0
100
AcDbLine
 10
-150.476529
 20
82.59858599999999
 30
0.0
 11
-150.261458
 21
80.539234
 31
0.0
  0
LINE
  5
90A
330
6B
100
AcDbEntity
  8
0
100
AcDbLine
 10
-150.261458
 20
80.539234
 30
0.0
 11
-149.418039
 21
82.43022100000002
 31
0.0
  0
LINE
  5
90B
330
6B
100
AcDbEntity
  8
0
100
AcDbLine
 10
-99.00342100000001
 20
58.95062199999999
 30
0.0
 11
-99.13012100000001
 21
56.88394999999999
 31
0.0
  0
LINE
  5
90C
330
6B
100
AcDbEntity
  8
0
100
AcDbLine
 10
-99.13012100000001
 20
56.88394999999999
 30
0.0
 11
-97.98705900000001
 21
58.610391
 31
0.0
  0
LINE
  5
90D
330
6B
100
AcDbEntity
  8
0
100
AcDbLine
 10
110.698839
 20
28.754955
 30
0.0
 11
112.182613
 21
27.826025
 31
0.0
  0
LINE
  5
90E
330
6B
100
AcDbEntity
  8
0
100
AcDbLine
 10
112.182613
 20
27.826025
 30
0.0
 11
113.523057
 21
27.78612
 31
0.0
  0
LINE
  5
90F
330
6B
100
AcDbEntity
  8
0
100
AcDbLine
 10
113.523057
 20
27.78612
 30
0.0
 11
113.961339
 21
28.12223
 31
0.0
  0
LINE
  5
910
330
6B
100
AcDbEntity
  8
0
100
AcDbLine
 10
113.961339
 20
28.12223
 30
0.0
 11
114.406953
 21
28.441742
 31
0.0
  0
LINE
  5
911
330
6B
100
AcDbEntity
  8
0
100
AcDbLine
 10
114.406953
 20
28.441742
 30
0.0
 11
115.396629
 21
28.446085
 31
0.0
  0
LINE
  5
912
330
6B
100
AcDbEntity
  8
0
100
AcDbLine
 10
115.396629
 20
28.446085
 30
0.0
 11
116.487956
 21
27.929455
 31
0.0
  0
LINE
  5
913
330
6B
100
AcDbEntity
  8
0
100
AcDbLine
 10
8.271297999999998
 20
10.023836
 30
0.0
 11
8.937046
 21
11.98444
 31
0.0
  0
LINE
  5
914
330
6B
100
AcDbEntity
  8
0
100
AcDbLine
 10
8.937046
 20
11.98444
 30
0.0
 11
7.380188999999997
 21
10.619382
 31
0.0
  0
LINE
  5
915
330
6B
100
AcDbEntity
  8
0
100
AcDbLine
 10
110.40915
 20
8.452261999999999
 30
0.0
 11
111.892924
 21
7.523333
 31
0.0
  0
LINE
  5
916
330
6B
100
AcDbEntity
  8
0
100
AcDbLine
 10
111.892924
 20
7.523333
 30
0.0
 11
113.233368
 21
7.483427999999999
 31
0.0
  0
LINE
  5
917
330
6B
100
AcDbEntity
  8
0
100
AcDbLine
 10
113.233368
 20
7.483427999999999
 30
0.0
 11
113.67165
 21
7.819536999999997
 31
0.0
  0
LINE
  5
918
330
6B
100
AcDbEntity
  8
0
100
AcDbLine
 10
113.67165
 20
7.819536999999997
 30
0.0
 11
114.117264
 21
8.139049999999999
 31
0.0
  0
LINE
  5
919
330
6B
100
AcDbEntity
  8
0
100
AcDbLine
 10
114.117264
 20
8.139049999999999
 30
0.0
 11
115.10694
 21
8.143392999999999
 31
0.0
  0
LINE
  5
91A
330
6B
100
AcDbEntity
  8
0
100
AcDbLine
 10
115.10694
 20
8.143392999999999
 30
0.0
 11
116.198266
 21
7.626761999999997
 31
0.0
  0
LINE
  5
91B
330
6B
100
AcDbEntity
  8
0
100
AcDbLine
 10
110.324211
 20
10.164312
 30
0.0
 11
111.807985
 21
9.235383
 31
0.0
  0
LINE
  5
91C
330
6B
100
AcDbEntity
  8
0
100
AcDbLine
 10
111.807985
 20
9.235383
 30
0.0
 11
113.148429
 21
9.195477999999999
 31
0.0
  0
LINE
  5
91D
330
6B
100
AcDbEntity
  8
0
100
AcDbLine
 10
113.148429
 20
9.195477999999999
 30
0.0
 11
113.586711
 21
9.531587
 31
0.0
  0
LINE
  5
91E
330
6B
100
AcDbEntity
  8
0
100
AcDbLine
 10
113.586711
 20
9.531587
 30
0.0
 11
114.032325
 21
9.8511
 31
0.0
  0
LINE
  5
91F
330
6B
100
AcDbEntity
  8
0
100
AcDbLine
 10
114.032325
 20
9.8511
 30
0.0
 11
115.022001
 21
9.855442
 31
0.0
  0
LINE
  5
920
330
6B
100
AcDbEntity
  8
0
100
AcDbLine
 10
115.022001
 20
9.855442
 30
0.0
 11
116.113327
 21
9.338811999999999
 31
0.0
  0
LINE
  5
921
330
6B
100
AcDbEntity
  8
0
100
AcDbLine
 10
138.9668
 20
20.812448
 30
0.0
 11
140.450573
 21
19.883519
 31
0.0
  0
LINE
  5
922
330
6B
100
AcDbEntity
  8
0
100
AcDbLine
 10
140.450573
 20
19.883519
 30
0.0
 11
141.7910179999999
 21
19.843614
 31
0.0
  0
LINE
  5
923
330
6B
100
AcDbEntity
  8
0
100
AcDbLine
 10
141.7910179999999
 20
19.843614
 30
0.0
 11
142.2293
 21
20.179723
 31
0.0
  0
LINE
  5
924
330
6B
100
AcDbEntity
  8
0
100
AcDbLine
 10
142.2293
 20
20.179723
 30
0.0
 11
142.6749129999999
 21
20.499236
 31
0.0
  0
LINE
  5
925
330
6B
100
AcDbEntity
  8
0
100
AcDbLine
 10
142.6749129999999
 20
20.499236
 30
0.0
 11
143.66459
 21
20.503579
 31
0.0
  0
LINE
  5
926
330
6B
100
AcDbEntity
  8
0
100
AcDbLine
 10
143.66459
 20
20.503579
 30
0.0
 11
144.755916
 21
19.986948
 31
0.0
  0
LINE
  5
927
330
6B
100
AcDbEntity
  8
0
100
AcDbLine
 10
138.881861
 20
22.524498
 30
0.0
 11
140.365635
 21
21.595569
 31
0.0
  0
LINE
  5
928
330
6B
100
AcDbEntity
  8
0
100
AcDbLine
 10
140.365635
 20
21.595569
 30
0.0
 11
141.706079
 21
21.555664
 31
0.0
  0
LINE
  5
929
330
6B
100
AcDbEntity
  8
0
100
AcDbLine
 10
141.706079
 20
21.555664
 30
0.0
 11
142.144361
 21
21.891773
 31
0.0
  0
LINE
  5
92A
330
6B
100
AcDbEntity
  8
0
100
AcDbLine
 10
142.144361
 20
21.891773
 30
0.0
 11
142.589974
 21
22.211286
 31
0.0
  0
LINE
  5
92B
330
6B
100
AcDbEntity
  8
0
100
AcDbLine
 10
142.589974
 20
22.211286
 30
0.0
 11
143.579651
 21
22.215628
 31
0.0
  0
LINE
  5
92C
330
6B
100
AcDbEntity
  8
0
100
AcDbLine
 10
143.579651
 20
22.215628
 30
0.0
 11
144.670977
 21
21.698998
 31
0.0
  0
LINE
  5
92D
330
6B
100
AcDbEntity
  8
0
100
AcDbLine
 10
158.356756
 20
22.840364
 30
0.0
 11
159.84053
 21
21.911435
 31
0.0
  0
LINE
  5
92E
330
6B
100
AcDbEntity
  8
0
100
AcDbLine
 10
159.84053
 20
21.911435
 30
0.0
 11
161.180974
 21
21.87153
 31
0.0
  0
LINE
  5
92F
330
6B
100
AcDbEntity
  8
0
100
AcDbLine
 10
161.180974
 20
21.87153
 30
0.0
 11
161.619256
 21
22.207639
 31
0.0
  0
LINE
  5
930
330
6B
100
AcDbEntity
  8
0
100
AcDbLine
 10
161.619256
 20
22.207639
 30
0.0
 11
162.06487
 21
22.527152
 31
0.0
  0
LINE
  5
931
330
6B
100
AcDbEntity
  8
0
100
AcDbLine
 10
162.06487
 20
22.527152
 30
0.0
 11
163.054546
 21
22.531495
 31
0.0
  0
LINE
  5
932
330
6B
100
AcDbEntity
  8
0
100
AcDbLine
 10
163.054546
 20
22.531495
 30
0.0
 11
164.145872
 21
22.014864
 31
0.0
  0
LINE
  5
933
330
6B
100
AcDbEntity
  8
0
100
AcDbLine
 10
158.441695
 20
21.128315
 30
0.0
 11
159.925469
 21
20.199386
 31
0.0
  0
LINE
  5
934
330
6B
100
AcDbEntity
  8
0
100
AcDbLine
 10
159.925469
 20
20.199386
 30
0.0
 11
161.265913
 21
20.159481
 31
0.0
  0
LINE
  5
935
330
6B
100
AcDbEntity
  8
0
100
AcDbLine
 10
161.265913
 20
20.159481
 30
0.0
 11
161.704195
 21
20.49559
 31
0.0
  0
LINE
  5
936
330
6B
100
AcDbEntity
  8
0
100
AcDbLine
 10
161.704195
 20
20.49559
 30
0.0
 11
162.149809
 21
20.815103
 31
0.0
  0
LINE
  5
937
330
6B
100
AcDbEntity
  8
0
100
AcDbLine
 10
162.149809
 20
20.815103
 30
0.0
 11
163.139485
 21
20.819445
 31
0.0
  0
LINE
  5
938
330
6B
100
AcDbEntity
  8
0
100
AcDbLine
 10
163.139485
 20
20.819445
 30
0.0
 11
164.230811
 21
20.302815
 31
0.0
  0
LINE
  5
939
330
6B
100
AcDbEntity
  8
0
100
AcDbLine
 10
-155.142583
 20
12.267111
 30
0.0
 11
-173.842834
 21
12.26711100000001
 31
0.0
  0
LINE
  5
93A
330
6B
100
AcDbEntity
  8
0
100
AcDbLine
 10
-105.951791
 20
104.397808
 30
0.0
 11
-173.842834
 21
104.397808
 31
0.0
  0
LINE
  5
93B
330
6B
100
AcDbEntity
  8
0
100
AcDbLine
 10
-172.592834
 20
14.76711100000001
 30
0.0
 11
-172.592834
 21
101.897808
 31
0.0
  0
LINE
  5
93F
330
6B
100
AcDbEntity
  8
0
100
AcDbLine
 10
-8.362251999999998
 20
25.217111
 30
0.0
 11
-8.362251999999999
 21
3.257422000000001
 31
0.0
  0
LINE
  5
940
330
6B
100
AcDbEntity
  8
0
100
AcDbLine
 10
96.637748
 20
19.217111
 30
0.0
 11
96.637748
 21
3.257422000000001
 31
0.0
  0
LINE
  5
941
330
6B
100
AcDbEntity
  8
0
100
AcDbLine
 10
-5.862251999999999
 20
4.507422
 30
0.0
 11
94.137748
 21
4.507422
 31
0.0
  0
LINE
  5
945
330
6B
100
AcDbEntity
  8
0
100
AcDbLine
 10
-163.282252
 20
19.217111
 30
0.0
 11
-163.282252
 21
3.257422000000001
 31
0.0
  0
LINE
  5
946
330
6B
100
AcDbEntity
  8
0
100
AcDbLine
 10
-41.36225200000001
 20
19.217111
 30
0.0
 11
-41.36225200000001
 21
3.257422000000001
 31
0.0
  0
LINE
  5
947
330
6B
100
AcDbEntity
  8
0
100
AcDbLine
 10
-160.782252
 20
4.507422
 30
0.0
 11
-43.86225200000001
 21
4.507422
 31
0.0
  0
LINE
  5
94B
330
6B
100
AcDbEntity
  8
0
100
AcDbLine
 10
-53.73514632164916
 20
53.23989694581233
 30
0.0
 11
-23.49165682272416
 21
109.2679591083753
 31
0.0
1001
ACAD
1000
DSTYLE
1002
{
1070
   147
1040
0.625
1070
    77
1070
     0
1002
}
  0
LINE
  5
94C
330
6B
100
AcDbEntity
  8
0
  6
ByBlock
 62
     0
370
    -2
100
AcDbLine
 10
-53.14567059387368
 20
52.9217027714159
 30
0.0
 11
-54.922664
 21
51.03994199999998
 31
0.0
  0
LINE
  5
94D
330
6B
100
AcDbEntity
  8
0
  6
ByBlock
 62
     0
370
    -2
100
AcDbLine
 10
-54.922664
 20
51.03994199999998
 30
0.0
 11
-54.32462204942463
 21
53.55809112020875
 31
0.0
  0
LINE
  5
94E
330
6B
100
AcDbEntity
  8
0
  6
ByBlock
 62
     0
370
    -2
100
AcDbLine
 10
-54.922664
 20
51.03994199999998
 30
0.0
 11
-53.73514632164916
 21
53.23989694581233
 31
0.0
  0
LINE
  5
94F
330
6B
100
AcDbEntity
  8
0
100
AcDbLine
 10
-61.44979546822195
 20
50.30877028870236
 30
0.0
 11
-35.60004404312177
 21
109.0908812583444
 31
0.0
1001
ACAD
1000
DSTYLE
1002
{
1070
   341
1005
720
1070
   147
1040
0.625
1070
    77
1070
     0
1002
}
  0
LINE
  5
951
330
6B
100
AcDbEntity
  8
0
100
AcDbLine
 10
-71.70401225053137
 20
81.77616994611822
 30
0.0
 11
-60.69791828851763
 21
109.0316061214996
 31
0.0
1001
ACAD
1000
DSTYLE
1002
{
1070
   341
1005
720
1070
   147
1040
0.625
1070
    77
1070
     0
1002
}
  0
LINE
  5
953
330
6B
100
AcDbEntity
  8
0
100
AcDbLine
 10
-52.13378389753354
 20
83.58227020900679
 30
0.0
 11
-46.74644334809764
 21
108.5270305819864
 31
0.0
1001
ACAD
1000
DSTYLE
1002
{
1070
   147
1040
0.625
1070
    77
1070
     0
1002
}
  0
LINE
  5
954
330
6B
100
AcDbEntity
  8
0
  6
ByBlock
 62
     0
370
    -2
100
AcDbLine
 10
-51.47900785613938
 20
83.44085768525999
 30
0.0
 11
-52.66154300000001
 21
81.13861099999999
 31
0.0
  0
LINE
  5
955
330
6B
100
AcDbEntity
  8
0
  6
ByBlock
 62
     0
370
    -2
100
AcDbLine
 10
-52.66154300000001
 20
81.13861099999999
 30
0.0
 11
-52.7885599389277
 21
83.72368273275359
 31
0.0
  0
LINE
  5
956
330
6B
100
AcDbEntity
  8
0
  6
ByBlock
 62
     0
370
    -2
100
AcDbLine
 10
-52.66154300000001
 20
81.13861099999999
 30
0.0
 11
-52.13378389753354
 21
83.58227020900679
 31
0.0
  0
TEXT
  5
957
330
6B
100
AcDbEntity
  8
0
 62
     4
100
AcDbText
 10
-173.217834
 20
54.83245949999998
 30
0.0
 40
3.0
  1
155
 50
90.0
100
AcDbText
  0
LINE
  5
958
330
6B
100
AcDbEntity
  8
0
  6
ByBlock
 62
     0
370
    -2
100
AcDbLine
 10
-173.2627065
 20
101.897808
 30
0.0
 11
-172.592834
 21
104.397808
 31
0.0
  0
LINE
  5
959
330
6B
100
AcDbEntity
  8
0
  6
ByBlock
 62
     0
370
    -2
100
AcDbLine
 10
-172.592834
 20
104.397808
 30
0.0
 11
-171.9229615
 21
101.897808
 31
0.0
  0
LINE
  5
95A
330
6B
100
AcDbEntity
  8
0
  6
ByBlock
 62
     0
370
    -2
100
AcDbLine
 10
-172.592834
 20
104.397808
 30
0.0
 11
-172.592834
 21
101.897808
 31
0.0
  0
LINE
  5
95B
330
6B
100
AcDbEntity
  8
0
  6
ByBlock
 62
     0
370
    -2
100
AcDbLine
 10
-171.9229615
 20
14.76711100000001
 30
0.0
 11
-172.592834
 21
12.26711100000001
 31
0.0
  0
LINE
  5
95C
330
6B
100
AcDbEntity
  8
0
  6
ByBlock
 62
     0
370
    -2
100
AcDbLine
 10
-172.592834
 20
12.26711100000001
 30
0.0
 11
-173.2627065
 21
14.76711100000001
 31
0.0
  0
LINE
  5
95D
330
6B
100
AcDbEntity
  8
0
  6
ByBlock
 62
     0
370
    -2
100
AcDbLine
 10
-172.592834
 20
12.26711100000001
 30
0.0
 11
-172.592834
 21
14.76711100000001
 31
0.0
  0
TEXT
  5
95E
330
6B
100
AcDbEntity
  8
0
 62
     4
100
AcDbText
 10
40.637748
 20
5.132422
 30
0.0
 40
3.0
  1
175
100
AcDbText
  0
LINE
  5
95F
330
6B
100
AcDbEntity
  8
0
  6
ByBlock
 62
     0
370
    -2
100
AcDbLine
 10
94.137748
 20
5.1772945
 30
0.0
 11
96.637748
 21
4.507422
 31
0.0
  0
LINE
  5
960
330
6B
100
AcDbEntity
  8
0
  6
ByBlock
 62
     0
370
    -2
100
AcDbLine
 10
96.637748
 20
4.507422
 30
0.0
 11
94.137748
 21
3.8375495
 31
0.0
  0
LINE
  5
961
330
6B
100
AcDbEntity
  8
0
  6
ByBlock
 62
     0
370
    -2
100
AcDbLine
 10
96.637748
 20
4.507422
 30
0.0
 11
94.137748
 21
4.507422
 31
0.0
  0
LINE
  5
962
330
6B
100
AcDbEntity
  8
0
  6
ByBlock
 62
     0
370
    -2
100
AcDbLine
 10
-5.862251999999999
 20
3.837549499999999
 30
0.0
 11
-8.362251999999999
 21
4.507422
 31
0.0
  0
LINE
  5
963
330
6B
100
AcDbEntity
  8
0
  6
ByBlock
 62
     0
370
    -2
100
AcDbLine
 10
-8.362251999999999
 20
4.507422
 30
0.0
 11
-5.862251999999999
 21
5.177294499999999
 31
0.0
  0
LINE
  5
964
330
6B
100
AcDbEntity
  8
0
  6
ByBlock
 62
     0
370
    -2
100
AcDbLine
 10
-8.362251999999999
 20
4.507422
 30
0.0
 11
-5.862251999999999
 21
4.507422
 31
0.0
  0
TEXT
  5
965
330
6B
100
AcDbEntity
  8
0
 62
     4
100
AcDbText
 10
-106.072252
 20
5.132422
 30
0.0
 40
3.0
  1
202
100
AcDbText
  0
LINE
  5
966
330
6B
100
AcDbEntity
  8
0
  6
ByBlock
 62
     0
370
    -2
100
AcDbLine
 10
-43.86225200000001
 20
5.1772945
 30
0.0
 11
-41.36225200000001
 21
4.507422
 31
0.0
  0
LINE
  5
967
330
6B
100
AcDbEntity
  8
0
  6
ByBlock
 62
     0
370
    -2
100
AcDbLine
 10
-41.36225200000001
 20
4.507422
 30
0.0
 11
-43.86225200000001
 21
3.8375495
 31
0.0
  0
LINE
  5
968
330
6B
100
AcDbEntity
  8
0
  6
ByBlock
 62
     0
370
    -2
100
AcDbLine
 10
-41.36225200000001
 20
4.507422
 30
0.0
 11
-43.86225200000001
 21
4.507422
 31
0.0
  0
LINE
  5
969
330
6B
100
AcDbEntity
  8
0
  6
ByBlock
 62
     0
370
    -2
100
AcDbLine
 10
-160.782252
 20
3.837549499999999
 30
0.0
 11
-163.282252
 21
4.507422
 31
0.0
  0
LINE
  5
96A
330
6B
100
AcDbEntity
  8
0
  6
ByBlock
 62
     0
370
    -2
100
AcDbLine
 10
-163.282252
 20
4.507422
 30
0.0
 11
-160.782252
 21
5.177294499999999
 31
0.0
  0
LINE
  5
96B
330
6B
100
AcDbEntity
  8
0
  6
ByBlock
 62
     0
370
    -2
100
AcDbLine
 10
-163.282252
 20
4.507422
 30
0.0
 11
-160.782252
 21
4.507422
 31
0.0
  0
ARC
  5
96C
330
6B
100
AcDbEntity
  8
0
  6
ByBlock
 62
     0
100
AcDbCircle
 10
-61.44979546822195
 20
50.30877028870236
 30
0.0
 40
0.1562500000000015
100
AcDbArc
 50
66.2622474023164
 51
246.2622474023164
  0
ARC
  5
96D
330
6B
100
AcDbEntity
  8
0
  6
ByBlock
 62
     0
100
AcDbCircle
 10
-61.44979546822195
 20
50.30877028870236
 30
0.0
 40
0.1562500000000015
100
AcDbArc
 50
246.2622474023164
 51
66.2622474023164
  0
ARC
  5
96E
330
6B
100
AcDbEntity
  8
0
  6
ByBlock
 62
     0
100
AcDbCircle
 10
-71.70401225053137
 20
81.77616994611822
 30
0.0
 40
0.1562500000000028
100
AcDbArc
 50
68.01051322987106
 51
248.0105132298711
  0
ARC
  5
96F
330
6B
100
AcDbEntity
  8
0
  6
ByBlock
 62
     0
100
AcDbCircle
 10
-71.70401225053137
 20
81.77616994611822
 30
0.0
 40
0.1562500000000028
100
AcDbArc
 50
248.0105132298711
 51
68.01051322987106
  0
ENDSEC
  0
SECTION
  2
OBJECTS
  0
DICTIONARY
  5
C
330
0
100
AcDbDictionary
281
     1
  3
ACAD_2007HEADERVARS_RT
350
973
  3
ACAD_COLOR
350
62
  3
ACAD_GROUP
350
D
  3
ACAD_LAYOUT
350
61
  3
ACAD_MATERIAL
350
10
  3
ACAD_MLEADERSTYLE
350
65
  3
ACAD_MLINESTYLE
350
5E
  3
ACAD_PLOTSETTINGS
350
60
  3
ACAD_PLOTSTYLENAME
350
E
  3
ACAD_SCALELIST
350
42
  3
ACAD_TABLESTYLE
350
63
  3
ACAD_VISUALSTYLE
350
29
  3
ACDB_RECOMPOSE_DATA
350
971
  3
AcDbVariableDictionary
350
62D
  3
DWGPROPS
350
972
  0
DICTIONARY
  5
465
330
2
100
AcDbDictionary
280
     1
281
     1
  3
ACAD_LAYERSTATES
360
466
  0
DICTIONARY
  5
62B
330
54
100
AcDbDictionary
280
     1
281
     1
  3
ADSK_XREC_LAYER_RECONCILED
360
62C
  0
DICTIONARY
  5
5F9
330
6B
100
AcDbDictionary
280
     1
281
     1
  3
ACAD_SORTENTS
360
5FA
  0
DICTIONARY
  5
973
102
{ACAD_REACTORS
330
C
102
}
330
C
100
AcDbDictionary
281
     1
  3
DIMARCSYM
350
975
  3
DIMFXL
350
974
  3
DIMJOGANG
350
976
  3
INTERFEREVPVS
350
977
  0
DICTIONARY
  5
62
102
{ACAD_REACTORS
330
C
102
}
330
C
100
AcDbDictionary
281
     1
  0
DICTIONARY
  5
D
102
{ACAD_REACTORS
330
C
102
}
330
C
100
AcDbDictionary
281
     1
  0
DICTIONARY
  5
61
102
{ACAD_REACTORS
330
C
102
}
330
C
100
AcDbDictionary
281
     1
  3
Model
350
6E
  3
レイアウト1
350
6A
  0
DICTIONARY
  5
10
102
{ACAD_REACTORS
330
C
102
}
330
C
100
AcDbDictionary
281
     1
  3
ByBlock
350
19
  3
ByLayer
350
11
  3
Global
350
21
  0
DICTIONARY
  5
65
102
{ACAD_REACTORS
330
C
102
}
330
C
100
AcDbDictionary
281
     1
  3
Standard
350
66
  0
DICTIONARY
  5
5E
102
{ACAD_REACTORS
330
C
102
}
330
C
100
AcDbDictionary
281
     1
  3
Standard
350
5F
  0
DICTIONARY
  5
60
102
{ACAD_REACTORS
330
C
102
}
330
C
100
AcDbDictionary
281
     1
  0
ACDBDICTIONARYWDFLT
  5
E
102
{ACAD_REACTORS
330
C
102
}
330
C
100
AcDbDictionary
281
     1
  3
Normal
350
F
100
AcDbDictionaryWithDefault
340
F
  0
DICTIONARY
  5
42
102
{ACAD_REACTORS
330
C
102
}
330
C
100
AcDbDictionary
281
     1
  3
A0
350
43
  3
A1
350
44
  3
A2
350
45
  3
A3
350
46
  3
A4
350
47
  3
A5
350
48
  3
A6
350
49
  3
A7
350
4A
  3
A8
350
4B
  3
A9
350
4C
  3
B0
350
4D
  3
B1
350
4E
  3
B2
350
4F
  3
B3
350
50
  3
B4
350
51
  3
B5
350
52
  3
B6
350
53
  0
DICTIONARY
  5
63
102
{ACAD_REACTORS
330
C
102
}
330
C
100
AcDbDictionary
281
     1
  3
Standard
350
64
  0
DICTIONARY
  5
29
102
{ACAD_REACTORS
330
C
102
}
330
C
100
AcDbDictionary
281
     1
  3
2dWireframe
350
2F
  3
3D Hidden
350
7D0
  3
3dWireframe
350
462
  3
Basic
350
2E
  3
Brighten
350
35
  3
ColorChange
350
39
  3
Conceptual
350
32
  3
Dim
350
34
  3
EdgeColorOff
350
41
  3
Facepattern
350
38
  3
Flat
350
2A
  3
FlatWithEdges
350
2B
  3
Gouraud
350
2C
  3
GouraudWithEdges
350
2D
  3
Hidden
350
31
  3
JitterOff
350
3F
  3
Linepattern
350
37
  3
OverhangOff
350
40
  3
Realistic
350
33
  3
Shaded
350
3E
  3
Shaded with edges
350
3D
  3
Shades of Gray
350
3A
  3
Sketchy
350
3B
  3
Thicken
350
36
  3
Wireframe
350
30
  3
X-Ray
350
3C
  0
XRECORD
  5
971
102
{ACAD_REACTORS
330
C
102
}
330
C
100
AcDbXrecord
280
     1
 90
        1
330
64
  0
DICTIONARY
  5
62D
102
{ACAD_REACTORS
330
C
102
}
330
C
100
AcDbDictionary
281
     1
  3
CANNOSCALE
350
630
  3
CMLEADERSTYLE
350
62F
  3
CTABLESTYLE
350
62E
  3
DIMASSOC
350
633
  3
INDEXCTL
350
632
  3
LOFTANG1
350
870
  3
LOFTANG2
350
871
  3
SORTENTS
350
631
  3
XCLIPFRAME
350
872
  0
XRECORD
  5
972
102
{ACAD_REACTORS
330
C
102
}
330
C
100
AcDbXrecord
280
     1
  1
DWGPROPS COOKIE
  2

  3

  4

  6

  7

  8
imamura
  9

300
=
301
=
302
=
303
=
304
=
305
=
306
=
307
=
308
=
309
=
 40
0.1077196990740741
 41
2456346.566138657
 42
2459893.542760035
  1

 90
        0
  0
DICTIONARY
  5
466
102
{ACAD_REACTORS
330
465
102
}
330
465
100
AcDbDictionary
281
     1
  0
XRECORD
  5
62C
102
{ACAD_REACTORS
330
62B
102
}
330
62B
100
AcDbXrecord
280
     1
290
     1
  0
SORTENTSTABLE
  5
5FA
102
{ACAD_REACTORS
330
5F9
102
}
330
5F9
100
AcDbSortentsTable
330
6B
331
957
  5
E1
331
953
  5
95C
331
94F
  5
964
331
6A5
  5
946
331
94B
  5
968
331
6A1
  5
93A
331
3A6
  5
906
331
367
  5
4AB
331
69D
  5
936
331
3A2
  5
902
331
32C
  5
3AE
331
2ED
  5
37D
331
2B6
  5
306
331
277
  5
2C2
331
39E
  5
8FE
331
35F
  5
4A6
331
2E9
  5
379
331
2B2
  5
302
331
273
  5
2BE
331
23C
  5
287
331
1FD
  5
248
331
1C5
  5
21C
331
186
  5
1EC
331
39A
  5
8FA
331
35B
  5
4A2
331
324
  5
3AC
331
2E5
  5
375
331
2AE
  5
2FE
331
26F
  5
2BA
331
238
  5
283
331
1F9
  5
244
331
1C1
  5
218
331
182
  5
1E8
331
EC
  5
165
331
2E1
  5
371
331
2AA
  5
2FA
331
26B
  5
2B6
331
234
  5
27F
331
1F5
  5
240
331
1BD
  5
214
331
17E
  5
1E4
331
E8
  5
145
331
230
  5
27B
331
1F1
  5
23C
331
1B9
  5
210
331
17A
  5
1E0
331
E4
  5
141
331
E0
  5
107
331
91D
  5
1A7
331
919
  5
1B0
331
915
  5
1AC
331
911
  5
3A1
331
396
  5
8F6
331
72C
  5
96D
331
392
  5
72D
331
31C
  5
3A7
331
2A6
  5
2F6
331
728
  5
969
331
4AD
  5
931
331
38E
  5
729
331
2A2
  5
2F2
331
22C
  5
277
331
4A9
  5
92D
331
38A
  5
716
331
353
  5
49D
331
2DD
  5
36D
331
29E
  5
2EE
331
267
  5
2B2
331
228
  5
273
331
1B1
  5
20C
331
2D9
  5
35F
331
29A
  5
2EA
331
263
  5
2AE
331
224
  5
26F
331
1EC
  5
237
331
1AD
  5
208
331
176
  5
1DC
331
220
  5
26B
331
1E8
  5
233
331
1A9
  5
204
331
172
  5
1D8
331
727
  5
910
331
90D
  5
39D
331
DE
  5
105
331
909
  5
3A8
331
DA
  5
101
331
905
  5
3B8
331
901
  5
49F
331
940
  5
CF
331
96E
  5
95E
331
4A5
  5
929
331
96A
  5
C2
331
386
  5
6B2
331
4A1
  5
925
331
382
  5
6AE
331
34B
  5
3BB
331
296
  5
2E6
331
25F
  5
2AA
331
49D
  5
921
331
37E
  5
6AA
331
308
  5
399
331
2D1
  5
35A
331
292
  5
2E2
331
25B
  5
2A6
331
21C
  5
267
331
1E4
  5
22F
331
1A5
  5
202
331
16E
  5
1CF
331
37A
  5
6A6
331
343
  5
3B6
331
304
  5
394
331
2CD
  5
34C
331
28E
  5
2DE
331
257
  5
2A2
331
218
  5
263
331
1E0
  5
22B
331
1A1
  5
200
331
16A
  5
1C4
331
300
  5
390
331
2C9
  5
343
331
28A
  5
2DA
331
253
  5
29E
331
214
  5
25F
331
1DC
  5
227
331
19D
  5
1FC
331
166
  5
1C0
331
107
  5
180
331
210
  5
25B
331
1D8
  5
223
331
199
  5
1F8
331
103
  5
17C
331
D6
  5
FD
331
D2
  5
F9
331
3BC
  5
91D
331
8FD
  5
4AC
331
CE
  5
F5
331
3B8
  5
919
331
938
  5
188
331
CA
  5
F1
331
934
  5
184
331
930
  5
18C
331
966
  5
C7
331
962
  5
D1
331
6B4
  5
955
331
95E
  5
D7
331
6B0
  5
951
331
95A
  5
E0
331
3B5
  5
916
331
376
  5
6A2
331
6AC
  5
94D
331
3B1
  5
912
331
372
  5
69E
331
33B
  5
3B1
331
2FC
  5
38C
331
2C5
  5
334
331
286
  5
2D1
331
24F
  5
29A
331
6A8
  5
949
331
3AD
  5
90D
331
36E
  5
69A
331
2F8
  5
388
331
2C1
  5
324
331
282
  5
2CD
331
24B
  5
296
331
20C
  5
257
331
146
  5
1BC
331
FF
  5
178
331
3A9
  5
909
331
333
  5
3AF
331
2F4
  5
384
331
2BD
  5
31B
331
27E
  5
2C9
331
247
  5
292
331
208
  5
253
331
142
  5
1B4
331
FB
  5
174
331
2F0
  5
380
331
2B9
  5
309
331
27A
  5
2C5
331
243
  5
28E
331
204
  5
24F
331
18D
  5
1F3
331
F7
  5
170
331
200
  5
24B
331
189
  5
1EF
331
F3
  5
16C
331
C6
  5
ED
331
BC
  5
E3
331
C2
  5
E9
331
92C
  5
19B
331
928
  5
190
331
924
  5
19F
331
920
  5
1AB
331
956
  5
95B
331
94E
  5
967
331
6A4
  5
945
331
6A0
  5
939
331
3A5
  5
905
331
366
  5
4AA
331
69C
  5
935
331
3A1
  5
901
331
32B
  5
3AD
331
2EC
  5
37C
331
2B5
  5
305
331
276
  5
2C1
331
23F
  5
28A
331
39D
  5
8FD
331
35E
  5
4A5
331
2E8
  5
378
331
2B1
  5
301
331
272
  5
2BD
331
23B
  5
286
331
1FC
  5
247
331
1C4
  5
21B
331
185
  5
1EB
331
EF
  5
168
331
399
  5
8F9
331
35A
  5
4A1
331
323
  5
3AB
331
2E4
  5
374
331
2AD
  5
2FD
331
26E
  5
2B9
331
237
  5
282
331
1F8
  5
243
331
1C0
  5
217
331
181
  5
1E7
331
EB
  5
164
331
2E0
  5
370
331
2A9
  5
2F9
331
26A
  5
2B5
331
233
  5
27E
331
1F4
  5
23F
331
1BC
  5
213
331
17D
  5
1E3
331
E7
  5
144
331
1F0
  5
23B
331
179
  5
1DF
331
E3
  5
140
331
91C
  5
1A5
331
918
  5
1AF
331
914
  5
35C
331
910
  5
3A0
331
72B
  5
96C
331
391
  5
72C
331
31B
  5
3A6
331
2A5
  5
2F5
331
22F
  5
27A
331
4AC
  5
930
331
38D
  5
728
331
2A1
  5
2F1
331
22B
  5
276
331
1B4
  5
20F
331
4A8
  5
92C
331
389
  5
6B5
331
352
  5
49C
331
2DC
  5
367
331
29D
  5
2ED
331
266
  5
2B1
331
227
  5
272
331
1EF
  5
23A
331
1B0
  5
20B
331
2D8
  5
35E
331
299
  5
2E9
331
262
  5
2AD
331
223
  5
26E
331
1EB
  5
236
331
1AC
  5
207
331
175
  5
1DB
331
171
  5
1D7
331
90C
  5
3A4
331
DD
  5
104
331
D9
  5
100
331
908
  5
3B4
331
947
  5
BD
331
904
  5
49B
331
900
  5
4A8
331
96D
  5
963
331
717
  5
958
331
969
  5
C1
331
4A4
  5
928
331
385
  5
6B1
331
4A0
  5
924
331
381
  5
6AD
331
34A
  5
3BA
331
30B
  5
39C
331
295
  5
2E5
331
25E
  5
2A9
331
21F
  5
26A
331
1E7
  5
232
331
49C
  5
920
331
37D
  5
6A9
331
307
  5
398
331
2D0
  5
354
331
291
  5
2E1
331
25A
  5
2A5
331
21B
  5
266
331
1E3
  5
22E
331
16D
  5
1C9
331
379
  5
6A5
331
342
  5
3B5
331
303
  5
393
331
2CC
  5
34B
331
28D
  5
2DD
331
256
  5
2A1
331
217
  5
262
331
1DF
  5
22A
331
1A0
  5
1FF
331
169
  5
1C3
331
2C8
  5
342
331
289
  5
2D9
331
252
  5
29D
331
213
  5
25E
331
1DB
  5
226
331
19C
  5
1FB
331
165
  5
1BF
331
106
  5
17F
331
198
  5
1F7
331
102
  5
17B
331
D5
  5
FC
331
D1
  5
F8
331
93F
  5
CE
331
3BB
  5
91C
331
CD
  5
F4
331
93B
  5
DA
331
937
  5
187
331
C9
  5
F0
331
933
  5
183
331
965
  5
CD
331
961
  5
D6
331
6B3
  5
954
331
95D
  5
DD
331
6AF
  5
950
331
959
  5
DF
331
3B4
  5
915
331
375
  5
6A1
331
2FF
  5
38F
331
6AB
  5
94C
331
3B0
  5
911
331
371
  5
69D
331
2FB
  5
38B
331
2C4
  5
333
331
285
  5
2D0
331
24E
  5
299
331
20F
  5
25A
331
1D7
  5
222
331
3AC
  5
90C
331
36D
  5
4AE
331
2F7
  5
387
331
2C0
  5
323
331
281
  5
2CC
331
24A
  5
295
331
20B
  5
256
331
145
  5
1BB
331
FE
  5
177
331
3A8
  5
908
331
2F3
  5
383
331
2BC
  5
31A
331
27D
  5
2C8
331
246
  5
291
331
207
  5
252
331
1CF
  5
21F
331
190
  5
1F6
331
141
  5
1B3
331
FA
  5
173
331
2B8
  5
308
331
279
  5
2C4
331
242
  5
28D
331
203
  5
24E
331
18C
  5
1F2
331
F6
  5
16F
331
188
  5
1EE
331
F2
  5
16B
331
BF
  5
E6
331
C5
  5
EC
331
BB
  5
E2
331
92F
  5
18B
331
C1
  5
E8
331
7ED
  5
96F
331
92B
  5
19A
331
927
  5
18F
331
923
  5
19E
331
955
  5
95A
331
951
  5
961
331
6A7
  5
948
331
94D
  5
966
331
6A3
  5
944
331
69F
  5
938
331
3A4
  5
904
331
365
  5
4A9
331
2EF
  5
37F
331
69B
  5
934
331
3A0
  5
900
331
2EB
  5
37B
331
2B4
  5
304
331
275
  5
2C0
331
23E
  5
289
331
1FF
  5
24A
331
1C7
  5
21D
331
39C
  5
8FC
331
35D
  5
4A4
331
2E7
  5
377
331
2B0
  5
300
331
271
  5
2BC
331
23A
  5
285
331
1FB
  5
246
331
1C3
  5
21A
331
184
  5
1EA
331
EE
  5
167
331
398
  5
8F8
331
322
  5
3AA
331
2E3
  5
373
331
2AC
  5
2FC
331
26D
  5
2B8
331
236
  5
281
331
1F7
  5
242
331
1BF
  5
216
331
180
  5
1E6
331
EA
  5
163
331
2A8
  5
2F8
331
269
  5
2B4
331
232
  5
27D
331
1F3
  5
23E
331
1BB
  5
212
331
17C
  5
1E2
331
E6
  5
143
331
178
  5
1DE
331
E2
  5
109
331
91F
  5
1AA
331
91B
  5
1A2
331
917
  5
1AE
331
913
  5
35B
331
394
  5
8F5
331
72A
  5
96B
331
390
  5
72B
331
31A
  5
3A5
331
2A4
  5
2F4
331
22E
  5
279
331
4AB
  5
92F
331
38C
  5
71E
331
2DF
  5
36F
331
2A0
  5
2F0
331
22A
  5
275
331
1B3
  5
20E
331
388
  5
6B4
331
2DB
  5
366
331
29C
  5
2EC
331
265
  5
2B0
331
226
  5
271
331
1EE
  5
239
331
1AF
  5
20A
331
298
  5
2E8
331
261
  5
2AC
331
222
  5
26D
331
1EA
  5
235
331
1AB
  5
206
331
174
  5
1DA
331
170
  5
1D6
331
90F
  5
39F
331
90B
  5
3A3
331
DC
  5
103
331
D8
  5
FF
331
907
  5
3B3
331
946
  5
BC
331
903
  5
49A
331
96C
  5
962
331
4A7
  5
92B
331
716
  5
957
331
968
  5
C9
331
4A3
  5
927
331
384
  5
6B0
331
2D7
  5
35D
331
49F
  5
923
331
380
  5
6AC
331
30A
  5
39B
331
294
  5
2E4
331
25D
  5
2A8
331
21E
  5
269
331
1E6
  5
231
331
1A7
  5
203
331
49B
  5
91F
331
37C
  5
6A8
331
306
  5
397
331
2CF
  5
353
331
290
  5
2E0
331
259
  5
2A4
331
21A
  5
265
331
1E2
  5
22D
331
16C
  5
1C7
331
378
  5
6A4
331
302
  5
392
331
2CB
  5
34A
331
28C
  5
2DC
331
255
  5
2A0
331
216
  5
261
331
1DE
  5
229
331
19F
  5
1FE
331
168
  5
1C2
331
109
  5
182
331
288
  5
2D8
331
251
  5
29C
331
212
  5
25D
331
1DA
  5
225
331
19B
  5
1FA
331
164
  5
1BE
331
105
  5
17E
331
101
  5
17A
331
D4
  5
FB
331
8FF
  5
4A7
331
D0
  5
F7
331
3BA
  5
91B
331
CC
  5
F3
331
93A
  5
D9
331
936
  5
186
331
C8
  5
EF
331
932
  5
18E
331
964
  5
D3
331
960
  5
D5
331
6B2
  5
953
331
95C
  5
DC
331
3B7
  5
918
331
6AE
  5
94F
331
958
  5
DE
331
3B3
  5
914
331
374
  5
6A0
331
2FE
  5
38E
331
2C7
  5
33C
331
6AA
  5
94B
331
3AF
  5
90F
331
370
  5
69C
331
2FA
  5
38A
331
2C3
  5
32C
331
284
  5
2CF
331
24D
  5
298
331
20E
  5
259
331
1D6
  5
221
331
3AB
  5
90B
331
2F6
  5
386
331
2BF
  5
322
331
280
  5
2CB
331
249
  5
294
331
20A
  5
255
331
144
  5
1BA
331
FD
  5
176
331
2F2
  5
382
331
2BB
  5
30B
331
27C
  5
2C7
331
245
  5
290
331
206
  5
251
331
18F
  5
1F5
331
140
  5
1B2
331
F9
  5
172
331
278
  5
2C3
331
241
  5
28C
331
202
  5
24D
331
18B
  5
1F1
331
F5
  5
16E
331
F1
  5
16A
331
BE
  5
E5
331
C4
  5
EB
331
92E
  5
18A
331
C0
  5
E7
331
92A
  5
199
331
926
  5
1A1
331
922
  5
19D
331
954
  5
959
331
6A6
  5
947
331
94C
  5
965
331
6A2
  5
93B
331
3A7
  5
907
331
69E
  5
937
331
3A3
  5
903
331
2EE
  5
37E
331
2B7
  5
307
331
69A
  5
933
331
39F
  5
8FF
331
2EA
  5
37A
331
2B3
  5
303
331
274
  5
2BF
331
23D
  5
288
331
1FE
  5
249
331
187
  5
1ED
331
39B
  5
8FB
331
35C
  5
4A3
331
2E6
  5
376
331
2AF
  5
2FF
331
270
  5
2BB
331
239
  5
284
331
1FA
  5
245
331
1C2
  5
219
331
183
  5
1E9
331
ED
  5
166
331
2E2
  5
372
331
2AB
  5
2FB
331
26C
  5
2B7
331
235
  5
280
331
1F6
  5
241
331
1BE
  5
215
331
17F
  5
1E5
331
E9
  5
146
331
268
  5
2B3
331
231
  5
27C
331
1F2
  5
23D
331
1BA
  5
211
331
17B
  5
1E1
331
E5
  5
142
331
E1
  5
108
331
91E
  5
1A9
331
91A
  5
1B1
331
916
  5
1AD
331
912
  5
3A2
331
397
  5
8F7
331
72D
  5
96E
331
393
  5
7ED
331
2A7
  5
2F7
331
729
  5
96A
331
4AE
  5
932
331
38F
  5
72A
331
2A3
  5
2F3
331
22D
  5
278
331
4AA
  5
92E
331
38B
  5
717
331
354
  5
49E
331
2DE
  5
36E
331
29F
  5
2EF
331
229
  5
274
331
1B2
  5
20D
331
2DA
  5
365
331
29B
  5
2EB
331
264
  5
2AF
331
225
  5
270
331
1ED
  5
238
331
1AE
  5
209
331
177
  5
1DD
331
260
  5
2AB
331
221
  5
26C
331
1E9
  5
234
331
1AA
  5
205
331
173
  5
1D9
331
90E
  5
39E
331
DF
  5
106
331
90A
  5
3A9
331
DB
  5
102
331
906
  5
3B9
331
945
  5
BB
331
902
  5
4A0
331
941
  5
D0
331
96F
  5
960
331
4A6
  5
92A
331
96B
  5
C3
331
387
  5
6B3
331
4A2
  5
926
331
383
  5
6AF
331
34C
  5
3BC
331
297
  5
2E7
331
49E
  5
922
331
37F
  5
6AB
331
309
  5
39A
331
293
  5
2E3
331
25C
  5
2A7
331
21D
  5
268
331
1E5
  5
230
331
16F
  5
1D5
331
49A
  5
91E
331
37B
  5
6A7
331
344
  5
3B7
331
305
  5
396
331
2CE
  5
352
331
28F
  5
2DF
331
258
  5
2A3
331
219
  5
264
331
1E1
  5
22C
331
1A2
  5
201
331
16B
  5
1C5
331
301
  5
391
331
2CA
  5
344
331
28B
  5
2DB
331
254
  5
29F
331
215
  5
260
331
1DD
  5
228
331
19E
  5
1FD
331
167
  5
1C1
331
108
  5
181
331
250
  5
29B
331
211
  5
25C
331
1D9
  5
224
331
19A
  5
1F9
331
163
  5
1BD
331
104
  5
17D
331
100
  5
179
331
D7
  5
FE
331
D3
  5
FA
331
8FE
  5
4AD
331
CF
  5
F6
331
3B9
  5
91A
331
CB
  5
F2
331
939
  5
D8
331
935
  5
185
331
931
  5
18D
331
967
  5
C8
331
963
  5
D2
331
6B5
  5
956
331
95F
  5
D4
331
6B1
  5
952
331
95B
  5
DB
331
3B6
  5
917
331
377
  5
6A3
331
6AD
  5
94E
331
3B2
  5
913
331
373
  5
69F
331
33C
  5
3B2
331
2FD
  5
38D
331
2C6
  5
33B
331
287
  5
2D7
331
6A9
  5
94A
331
3AE
  5
90E
331
36F
  5
69B
331
2F9
  5
389
331
2C2
  5
32B
331
283
  5
2CE
331
24C
  5
297
331
20D
  5
258
331
1D5
  5
220
331
3AA
  5
90A
331
334
  5
3B0
331
2F5
  5
385
331
2BE
  5
31C
331
27F
  5
2CA
331
248
  5
293
331
209
  5
254
331
143
  5
1B9
331
FC
  5
175
331
2F1
  5
381
331
2BA
  5
30A
331
27B
  5
2C6
331
244
  5
28F
331
205
  5
250
331
18E
  5
1F4
331
F8
  5
171
331
240
  5
28B
331
201
  5
24C
331
1C9
  5
21E
331
18A
  5
1F0
331
F4
  5
16D
331
F0
  5
169
331
C7
  5
EE
331
BD
  5
E4
331
C3
  5
EA
331
92D
  5
189
331
929
  5
198
331
925
  5
1A0
331
921
  5
19C
  0
XRECORD
  5
975
102
{ACAD_REACTORS
330
973
102
}
330
973
100
AcDbXrecord
280
     1
 70
     2
  0
XRECORD
  5
974
102
{ACAD_REACTORS
330
973
102
}
330
973
100
AcDbXrecord
280
     1
 40
1.25
  0
XRECORD
  5
976
102
{ACAD_REACTORS
330
973
102
}
330
973
100
AcDbXrecord
280
     1
 40
1.570796326794896
  0
XRECORD
  5
977
102
{ACAD_REACTORS
330
973
102
}
330
973
100
AcDbXrecord
280
     1
340
462
  0
LAYOUT
  5
6E
102
{ACAD_XDICTIONARY
360
9AB
102
}
102
{ACAD_REACTORS
330
61
102
}
330
61
100
AcDbPlotSettings
  1

  2
FX DP 205
  4

  6

 40
0.0
 41
0.0
 42
0.0
 43
0.0
 44
0.0
 45
0.0
 46
0.0
 47
0.0
 48
0.0
 49
0.0
140
0.0
141
0.0
142
1.0
143
1.0
 70
  1712
 72
     0
 73
     0
 74
     0
  7

 75
     0
147
1.0
148
0.0
149
0.0
100
AcDbLayout
  1
Model
 70
     1
 71
     0
 10
0.0
 20
0.0
 11
12.0
 21
9.0
 12
0.0
 22
0.0
 32
0.0
 14
0.0
 24
0.0
 34
0.0
 15
0.0
 25
0.0
 35
0.0
146
0.0
 13
0.0
 23
0.0
 33
0.0
 16
1.0
 26
0.0
 36
0.0
 17
0.0
 27
1.0
 37
0.0
 76
     0
330
6B
331
8B
  0
LAYOUT
  5
6A
102
{ACAD_XDICTIONARY
360
9A9
102
}
102
{ACAD_REACTORS
330
61
102
}
330
61
100
AcDbPlotSettings
  1

  2
FX DP 205
  4

  6

 40
0.0
 41
0.0
 42
0.0
 43
0.0
 44
0.0
 45
0.0
 46
0.0
 47
0.0
 48
0.0
 49
0.0
140
0.0
141
0.0
142
1.0
143
1.0
 70
   688
 72
     0
 73
     0
 74
     5
  7

 75
    16
147
1.0
148
0.0
149
0.0
100
AcDbLayout
  1
レイアウト1
 70
     1
 71
     1
 10
0.0
 20
0.0
 11
12.0
 21
9.0
 12
0.0
 22
0.0
 32
0.0
 14
1.000000000000000E+20
 24
1.000000000000000E+20
 34
1.000000000000000E+20
 15
-1.000000000000000E+20
 25
-1.000000000000000E+20
 35
-1.000000000000000E+20
146
0.0
 13
0.0
 23
0.0
 33
0.0
 16
1.0
 26
0.0
 36
0.0
 17
0.0
 27
1.0
 37
0.0
 76
     0
330
67
  0
MATERIAL
  5
19
102
{ACAD_XDICTIONARY
360
1A
102
}
102
{ACAD_REACTORS
330
10
102
}
330
10
100
AcDbMaterial
  1
ByBlock
 72
     0
 43
0.0208333333333333
 43
0.0
 43
0.0
 43
0.0
 43
0.0
 43
0.0208333333333333
 43
0.0
 43
0.0
 43
0.0
 43
0.0
 43
1.0
 43
0.0
 43
0.0
 43
0.0
 43
0.0
 43
1.0
 77
     0
 47
0.0208333333333333
 47
0.0
 47
0.0
 47
0.0
 47
0.0
 47
0.0208333333333333
 47
0.0
 47
0.0
 47
0.0
 47
0.0
 47
1.0
 47
0.0
 47
0.0
 47
0.0
 47
0.0
 47
1.0
171
     0
 49
0.0208333333333333
 49
0.0
 49
0.0
 49
0.0
 49
0.0
 49
0.0208333333333333
 49
0.0
 49
0.0
 49
0.0
 49
0.0
 49
1.0
 49
0.0
 49
0.0
 49
0.0
 49
0.0
 49
1.0
175
     0
142
0.0208333333333333
142
0.0
142
0.0
142
0.0
142
0.0
142
0.0208333333333333
142
0.0
142
0.0
142
0.0
142
0.0
142
1.0
142
0.0
142
0.0
142
0.0
142
0.0
142
1.0
179
     0
144
0.0208333333333333
144
0.0
144
0.0
144
0.0
144
0.0
144
0.0208333333333333
144
0.0
144
0.0
144
0.0
144
0.0
144
1.0
144
0.0
144
0.0
144
0.0
144
0.0
144
1.0
147
0.0208333333333333
147
0.0
147
0.0
147
0.0
147
0.0
147
0.0208333333333333
147
0.0
147
0.0
147
0.0
147
0.0
147
1.0
147
0.0
147
0.0
147
0.0
147
0.0
147
1.0
  0
MATERIAL
  5
11
102
{ACAD_XDICTIONARY
360
12
102
}
102
{ACAD_REACTORS
330
10
102
}
330
10
100
AcDbMaterial
  1
ByLayer
 72
     0
 43
0.0208333333333333
 43
0.0
 43
0.0
 43
0.0
 43
0.0
 43
0.0208333333333333
 43
0.0
 43
0.0
 43
0.0
 43
0.0
 43
1.0
 43
0.0
 43
0.0
 43
0.0
 43
0.0
 43
1.0
 77
     0
 47
0.0208333333333333
 47
0.0
 47
0.0
 47
0.0
 47
0.0
 47
0.0208333333333333
 47
0.0
 47
0.0
 47
0.0
 47
0.0
 47
1.0
 47
0.0
 47
0.0
 47
0.0
 47
0.0
 47
1.0
171
     0
 49
0.0208333333333333
 49
0.0
 49
0.0
 49
0.0
 49
0.0
 49
0.0208333333333333
 49
0.0
 49
0.0
 49
0.0
 49
0.0
 49
1.0
 49
0.0
 49
0.0
 49
0.0
 49
0.0
 49
1.0
175
     0
142
0.0208333333333333
142
0.0
142
0.0
142
0.0
142
0.0
142
0.0208333333333333
142
0.0
142
0.0
142
0.0
142
0.0
142
1.0
142
0.0
142
0.0
142
0.0
142
0.0
142
1.0
179
     0
144
0.0208333333333333
144
0.0
144
0.0
144
0.0
144
0.0
144
0.0208333333333333
144
0.0
144
0.0
144
0.0
144
0.0
144
1.0
144
0.0
144
0.0
144
0.0
144
0.0
144
1.0
147
0.0208333333333333
147
0.0
147
0.0
147
0.0
147
0.0
147
0.0208333333333333
147
0.0
147
0.0
147
0.0
147
0.0
147
1.0
147
0.0
147
0.0
147
0.0
147
0.0
147
1.0
  0
MATERIAL
  5
21
102
{ACAD_XDICTIONARY
360
22
102
}
102
{ACAD_REACTORS
330
10
102
}
330
10
100
AcDbMaterial
  1
Global
 72
     0
 43
0.0208333333333333
 43
0.0
 43
0.0
 43
0.0
 43
0.0
 43
0.0208333333333333
 43
0.0
 43
0.0
 43
0.0
 43
0.0
 43
1.0
 43
0.0
 43
0.0
 43
0.0
 43
0.0
 43
1.0
 77
     0
 47
0.0208333333333333
 47
0.0
 47
0.0
 47
0.0
 47
0.0
 47
0.0208333333333333
 47
0.0
 47
0.0
 47
0.0
 47
0.0
 47
1.0
 47
0.0
 47
0.0
 47
0.0
 47
0.0
 47
1.0
171
     0
 49
0.0208333333333333
 49
0.0
 49
0.0
 49
0.0
 49
0.0
 49
0.0208333333333333
 49
0.0
 49
0.0
 49
0.0
 49
0.0
 49
1.0
 49
0.0
 49
0.0
 49
0.0
 49
0.0
 49
1.0
175
     0
142
0.0208333333333333
142
0.0
142
0.0
142
0.0
142
0.0
142
0.0208333333333333
142
0.0
142
0.0
142
0.0
142
0.0
142
1.0
142
0.0
142
0.0
142
0.0
142
0.0
142
1.0
179
     0
144
0.0208333333333333
144
0.0
144
0.0
144
0.0
144
0.0
144
0.0208333333333333
144
0.0
144
0.0
144
0.0
144
0.0
144
1.0
144
0.0
144
0.0
144
0.0
144
0.0
144
1.0
147
0.0208333333333333
147
0.0
147
0.0
147
0.0
147
0.0
147
0.0208333333333333
147
0.0
147
0.0
147
0.0
147
0.0
147
1.0
147
0.0
147
0.0
147
0.0
147
0.0
147
1.0
  0
MLEADERSTYLE
  5
66
102
{ACAD_REACTORS
330
65
102
}
330
65
100
AcDbMLeaderStyle
170
     2
171
     1
172
     0
 90
        2
 40
0.0
 41
0.0
173
     1
 91
-1056964608
340
5A
 92
       -2
290
     1
 42
0.09
291
     1
 43
0.36
  3
Standard
 44
0.18
300

342
55
174
     1
178
     6
175
     1
176
     0
 93
-1056964608
 45
0.18
292
     0
297
     0
 46
0.18
 94
-1056964608
 47
1.0
 49
1.0
140
1.0
293
     1
141
0.0
294
     1
177
     0
142
1.0
295
     0
296
     0
143
0.125
1001
ACAD_MLEADERVER
1070
     2
  0
MLINESTYLE
  5
5F
102
{ACAD_REACTORS
330
5E
102
}
330
5E
100
AcDbMlineStyle
  2
STANDARD
 70
     0
  3

 62
   256
 51
90.0
 52
90.0
 71
     2
 49
0.5
 62
   256
  6
BYLAYER
 49
-0.5
 62
   256
  6
BYLAYER
  0
ACDBPLACEHOLDER
  5
F
102
{ACAD_REACTORS
330
E
102
}
330
E
  0
SCALE
  5
43
102
{ACAD_REACTORS
330
42
102
}
330
42
100
AcDbScale
 70
     0
300
1:1
140
1.0
141
1.0
290
     1
  0
SCALE
  5
44
102
{ACAD_REACTORS
330
42
102
}
330
42
100
AcDbScale
 70
     0
300
1/128" = 1'-0"
140
0.0078125
141
12.0
290
     0
  0
SCALE
  5
45
102
{ACAD_REACTORS
330
42
102
}
330
42
100
AcDbScale
 70
     0
300
1/64" = 1'-0"
140
0.015625
141
12.0
290
     0
  0
SCALE
  5
46
102
{ACAD_REACTORS
330
42
102
}
330
42
100
AcDbScale
 70
     0
300
1/32" = 1'-0"
140
0.03125
141
12.0
290
     0
  0
SCALE
  5
47
102
{ACAD_REACTORS
330
42
102
}
330
42
100
AcDbScale
 70
     0
300
1/16" = 1'-0"
140
0.0625
141
12.0
290
     0
  0
SCALE
  5
48
102
{ACAD_REACTORS
330
42
102
}
330
42
100
AcDbScale
 70
     0
300
3/32" = 1'-0"
140
0.09375
141
12.0
290
     0
  0
SCALE
  5
49
102
{ACAD_REACTORS
330
42
102
}
330
42
100
AcDbScale
 70
     0
300
1/8" = 1'-0"
140
0.125
141
12.0
290
     0
  0
SCALE
  5
4A
102
{ACAD_REACTORS
330
42
102
}
330
42
100
AcDbScale
 70
     0
300
3/16" = 1'-0"
140
0.1875
141
12.0
290
     0
  0
SCALE
  5
4B
102
{ACAD_REACTORS
330
42
102
}
330
42
100
AcDbScale
 70
     0
300
1/4" = 1'-0"
140
0.25
141
12.0
290
     0
  0
SCALE
  5
4C
102
{ACAD_REACTORS
330
42
102
}
330
42
100
AcDbScale
 70
     0
300
3/8" = 1'-0"
140
0.375
141
12.0
290
     0
  0
SCALE
  5
4D
102
{ACAD_REACTORS
330
42
102
}
330
42
100
AcDbScale
 70
     0
300
1/2" = 1'-0"
140
0.5
141
12.0
290
     0
  0
SCALE
  5
4E
102
{ACAD_REACTORS
330
42
102
}
330
42
100
AcDbScale
 70
     0
300
3/4" = 1'-0"
140
0.75
141
12.0
290
     0
  0
SCALE
  5
4F
102
{ACAD_REACTORS
330
42
102
}
330
42
100
AcDbScale
 70
     0
300
1" = 1'-0"
140
1.0
141
12.0
290
     0
  0
SCALE
  5
50
102
{ACAD_REACTORS
330
42
102
}
330
42
100
AcDbScale
 70
     0
300
1-1/2" = 1'-0"
140
1.5
141
12.0
290
     0
  0
SCALE
  5
51
102
{ACAD_REACTORS
330
42
102
}
330
42
100
AcDbScale
 70
     0
300
3" = 1'-0"
140
3.0
141
12.0
290
     0
  0
SCALE
  5
52
102
{ACAD_REACTORS
330
42
102
}
330
42
100
AcDbScale
 70
     0
300
6" = 1'-0"
140
6.0
141
12.0
290
     0
  0
SCALE
  5
53
102
{ACAD_REACTORS
330
42
102
}
330
42
100
AcDbScale
 70
     0
300
1'-0" = 1'-0"
140
12.0
141
12.0
290
     0
  0
TABLESTYLE
  5
64
102
{ACAD_XDICTIONARY
360
635
102
}
102
{ACAD_REACTORS
330
63
102
}
330
63
100
AcDbTableStyle
  3
Standard
 70
     0
 71
     0
 40
0.06
 41
0.06
280
     0
281
     0
  7
STANDARD
140
0.18
170
     2
 62
     0
 63
     7
283
     0
274
    -2
284
     1
 64
     0
275
    -2
285
     1
 65
     0
276
    -2
286
     1
 66
     0
277
    -2
287
     1
 67
     0
278
    -2
288
     1
 68
     0
279
    -2
289
     1
 69
     0
  7
STANDARD
140
0.25
170
     5
 62
     0
 63
     7
283
     0
274
    -2
284
     1
 64
     0
275
    -2
285
     1
 65
     0
276
    -2
286
     1
 66
     0
277
    -2
287
     1
 67
     0
278
    -2
288
     1
 68
     0
279
    -2
289
     1
 69
     0
  7
STANDARD
140
0.18
170
     5
 62
     0
 63
     7
283
     0
274
    -2
284
     1
 64
     0
275
    -2
285
     1
 65
     0
276
    -2
286
     1
 66
     0
277
    -2
287
     1
 67
     0
278
    -2
288
     1
 68
     0
279
    -2
289
     1
 69
     0
  0
VISUALSTYLE
  5
2F
102
{ACAD_XDICTIONARY
360
982
102
}
102
{ACAD_REACTORS
330
29
102
}
330
29
100
AcDbVisualStyle
  2

 70
     4
 71
     0
 72
     2
 73
     0
 90
        0
 40
-0.6
 41
-30.0
 62
     5
 63
     7
 74
     1
 91
        4
 64
     7
 65
   257
 75
     1
175
     1
 42
1.0
 92
        0
 66
   257
 43
1.0
 76
     1
 77
     6
 78
     2
 67
     7
 79
     5
170
     0
171
     0
290
     0
174
     0
 93
        1
 44
0.0
173
     0
291
     0
 45
0.0
1001
ACAD
1000
AcDbSavedByObjectVersion
1070
     0
  0
VISUALSTYLE
  5
7D0
102
{ACAD_XDICTIONARY
360
9AF
102
}
102
{ACAD_REACTORS
330
29
102
}
330
29
100
AcDbVisualStyle
  2

 70
     6
 71
     1
 72
     2
 73
     2
 90
        0
 40
-0.6
 41
-30.0
 62
     5
 63
     7
 74
     2
 91
        2
 64
     7
 65
   257
 75
     2
175
     1
 42
40.0
 92
        0
 66
   257
 43
1.0
 76
     1
 77
     6
 78
     2
 67
     7
 79
     3
170
     0
171
     0
290
     0
174
     0
 93
        1
 44
0.0
173
     0
291
     0
 45
0.0
1001
ACAD
1000
AcDbSavedByObjectVersion
1070
     0
  0
VISUALSTYLE
  5
462
102
{ACAD_XDICTIONARY
360
9AD
102
}
102
{ACAD_REACTORS
330
29
102
}
330
29
100
AcDbVisualStyle
  2

 70
     5
 71
     0
 72
     2
 73
     1
 90
        0
 40
-0.6
 41
-30.0
 62
     5
 63
     7
 74
     1
 91
        4
 64
     7
 65
   257
 75
     1
175
     1
 42
1.0
 92
        0
 66
   257
 43
1.0
 76
     1
 77
     6
 78
     2
 67
     7
 79
     5
170
     0
171
     0
290
     0
174
     0
 93
        1
 44
0.0
173
     0
291
     0
 45
0.0
1001
ACAD
1000
AcDbSavedByObjectVersion
1070
     0
  0
VISUALSTYLE
  5
2E
102
{ACAD_XDICTIONARY
360
980
102
}
102
{ACAD_REACTORS
330
29
102
}
330
29
100
AcDbVisualStyle
  2

 70
     7
 71
     1
 72
     0
 73
     1
 90
        0
 40
-0.6
 41
-30.0
 62
     5
 63
     7
 74
     0
 91
        4
 64
     7
 65
   257
 75
     1
175
     1
 42
1.0
 92
        8
 66
     7
 43
1.0
 76
     1
 77
     6
 78
     2
 67
     7
 79
     5
170
     0
171
     0
290
     0
174
     0
 93
        1
 44
0.0
173
     0
291
     1
 45
0.0
1001
ACAD
1000
AcDbSavedByObjectVersion
1070
     0
  0
VISUALSTYLE
  5
35
102
{ACAD_XDICTIONARY
360
98E
102
}
102
{ACAD_REACTORS
330
29
102
}
330
29
100
AcDbVisualStyle
  2

 70
    12
 71
     2
 72
     2
 73
     0
 90
        0
 40
-0.6
 41
-30.0
 62
     5
 63
     7
 74
     1
 91
        4
 64
     7
 65
   257
 75
     1
175
     1
 42
1.0
 92
        8
 66
     7
 43
1.0
 76
     1
 77
     6
 78
     2
 67
     7
 79
     5
170
     0
171
     0
290
     0
174
     0
 93
        1
 44
50.0
173
     0
291
     1
 45
0.0
1001
ACAD
1000
AcDbSavedByObjectVersion
1070
     0
  0
VISUALSTYLE
  5
39
102
{ACAD_XDICTIONARY
360
996
102
}
102
{ACAD_REACTORS
330
29
102
}
330
29
100
AcDbVisualStyle
  2

 70
    16
 71
     2
 72
     2
 73
     3
 90
        0
 40
-0.6
 41
-30.0
 62
     5
 63
     8
 74
     1
 91
        4
 64
     7
 65
   257
 75
     1
175
     1
 42
1.0
 92
        8
 66
     8
 43
1.0
 76
     1
 77
     6
 78
     2
 67
     7
 79
     5
170
     0
171
     0
290
     0
174
     0
 93
        1
 44
0.0
173
     0
291
     1
 45
0.0
1001
ACAD
1000
AcDbSavedByObjectVersion
1070
     0
  0
VISUALSTYLE
  5
32
102
{ACAD_XDICTIONARY
360
988
102
}
102
{ACAD_REACTORS
330
29
102
}
330
29
100
AcDbVisualStyle
  2

 70
     9
 71
     3
 72
     2
 73
     0
 90
        0
 40
-0.6
 41
-30.0
 62
     5
 63
     7
 74
     2
 91
        2
 64
     7
 65
   257
 75
     1
175
     1
 42
179.0
 92
        8
 66
     7
 43
1.0
 76
     1
 77
     6
 78
     2
 67
     7
 79
     3
170
     0
171
     0
290
     0
174
     0
 93
        1
 44
0.0
173
     0
291
     0
 45
0.0
1001
ACAD
1000
AcDbSavedByObjectVersion
1070
     0
  0
VISUALSTYLE
  5
34
102
{ACAD_XDICTIONARY
360
98C
102
}
102
{ACAD_REACTORS
330
29
102
}
330
29
100
AcDbVisualStyle
  2

 70
    11
 71
     2
 72
     2
 73
     0
 90
        0
 40
-0.6
 41
-30.0
 62
     5
 63
     7
 74
     1
 91
        4
 64
     7
 65
   257
 75
     1
175
     1
 42
1.0
 92
        8
 66
     7
 43
1.0
 76
     1
 77
     6
 78
     2
 67
     7
 79
     5
170
     0
171
     0
290
     0
174
     0
 93
        1
 44
-50.0
173
     0
291
     1
 45
0.0
1001
ACAD
1000
AcDbSavedByObjectVersion
1070
     0
  0
VISUALSTYLE
  5
41
102
{ACAD_XDICTIONARY
360
9A6
102
}
102
{ACAD_REACTORS
330
29
102
}
330
29
100
AcDbVisualStyle
  2

 70
    22
 71
     2
 72
     2
 73
     0
 90
        0
 40
-0.6
 41
-30.0
 62
     5
 63
     7
 74
     1
 91
        4
 64
     7
 65
   257
 75
     1
175
     1
 42
1.0
 92
        8
 66
     7
 43
1.0
 76
     1
 77
     6
 78
     2
 67
     7
 79
     5
170
     0
171
     0
290
     0
174
     0
 93
        1
 44
0.0
173
     0
291
     1
 45
0.0
1001
ACAD
1000
AcDbSavedByObjectVersion
1070
     0
  0
VISUALSTYLE
  5
38
102
{ACAD_XDICTIONARY
360
994
102
}
102
{ACAD_REACTORS
330
29
102
}
330
29
100
AcDbVisualStyle
  2

 70
    15
 71
     2
 72
     2
 73
     0
 90
        0
 40
-0.6
 41
-30.0
 62
     5
 63
     7
 74
     1
 91
        4
 64
     7
 65
   257
 75
     1
175
     1
 42
1.0
 92
        8
 66
     7
 43
1.0
 76
     1
 77
     6
 78
     2
 67
     7
 79
     5
170
     0
171
     0
290
     0
174
     0
 93
        1
 44
0.0
173
     0
291
     1
 45
0.0
1001
ACAD
1000
AcDbSavedByObjectVersion
1070
     0
  0
VISUALSTYLE
  5
2A
102
{ACAD_XDICTIONARY
360
978
102
}
102
{ACAD_REACTORS
330
29
102
}
330
29
100
AcDbVisualStyle
  2

 70
     0
 71
     2
 72
     1
 73
     1
 90
        2
 40
-0.6
 41
30.0
 62
     5
 63
     7
 74
     0
 91
        0
 64
     7
 65
   257
 75
     1
175
     1
 42
1.0
 92
        8
 66
     7
 43
1.0
 76
     1
 77
     6
 78
     2
 67
     7
 79
     5
170
     0
171
     0
290
     0
174
     0
 93
       13
 44
0.0
173
     0
291
     1
 45
0.0
1001
ACAD
1000
AcDbSavedByObjectVersion
1070
     0
  0
VISUALSTYLE
  5
2B
102
{ACAD_XDICTIONARY
360
97A
102
}
102
{ACAD_REACTORS
330
29
102
}
330
29
100
AcDbVisualStyle
  2

 70
     1
 71
     2
 72
     1
 73
     1
 90
        2
 40
-0.6
 41
30.0
 62
     5
 63
     7
 74
     1
 91
        0
 64
     7
 65
   257
 75
     1
175
     1
 42
1.0
 92
        0
 66
   257
 43
1.0
 76
     1
 77
     6
 78
     2
 67
     7
 79
     5
170
     0
171
     0
290
     0
174
     0
 93
       13
 44
0.0
173
     0
291
     1
 45
0.0
1001
ACAD
1000
AcDbSavedByObjectVersion
1070
     0
  0
VISUALSTYLE
  5
2C
102
{ACAD_XDICTIONARY
360
97C
102
}
102
{ACAD_REACTORS
330
29
102
}
330
29
100
AcDbVisualStyle
  2

 70
     2
 71
     2
 72
     2
 73
     1
 90
        2
 40
-0.6
 41
30.0
 62
     5
 63
     7
 74
     0
 91
        0
 64
     7
 65
   257
 75
     1
175
     1
 42
1.0
 92
        0
 66
     7
 43
1.0
 76
     1
 77
     6
 78
     2
 67
     7
 79
     5
170
     0
171
     0
290
     0
174
     0
 93
       13
 44
0.0
173
     0
291
     1
 45
0.0
1001
ACAD
1000
AcDbSavedByObjectVersion
1070
     0
  0
VISUALSTYLE
  5
2D
102
{ACAD_XDICTIONARY
360
97E
102
}
102
{ACAD_REACTORS
330
29
102
}
330
29
100
AcDbVisualStyle
  2

 70
     3
 71
     2
 72
     2
 73
     1
 90
        2
 40
-0.6
 41
30.0
 62
     5
 63
     7
 74
     1
 91
        0
 64
     7
 65
   257
 75
     1
175
     1
 42
1.0
 92
        0
 66
   257
 43
1.0
 76
     1
 77
     6
 78
     2
 67
     7
 79
     5
170
     0
171
     0
290
     0
174
     0
 93
       13
 44
0.0
173
     0
291
     1
 45
0.0
1001
ACAD
1000
AcDbSavedByObjectVersion
1070
     0
  0
VISUALSTYLE
  5
31
102
{ACAD_XDICTIONARY
360
986
102
}
102
{ACAD_REACTORS
330
29
102
}
330
29
100
AcDbVisualStyle
  2

 70
     6
 71
     1
 72
     2
 73
     2
 90
        0
 40
-0.6
 41
-30.0
 62
     5
 63
     7
 74
     2
 91
        2
 64
     7
 65
   257
 75
     2
175
     1
 42
40.0
 92
        0
 66
   257
 43
1.0
 76
     1
 77
     6
 78
     2
 67
     7
 79
     3
170
     0
171
     0
290
     0
174
     0
 93
        1
 44
0.0
173
     0
291
     0
 45
0.0
1001
ACAD
1000
AcDbSavedByObjectVersion
1070
     0
  0
VISUALSTYLE
  5
3F
102
{ACAD_XDICTIONARY
360
9A2
102
}
102
{ACAD_REACTORS
330
29
102
}
330
29
100
AcDbVisualStyle
  2

 70
    20
 71
     2
 72
     2
 73
     0
 90
        0
 40
-0.6
 41
-30.0
 62
     5
 63
     7
 74
     1
 91
        4
 64
     7
 65
   257
 75
     1
175
     1
 42
1.0
 92
       10
 66
     7
 43
1.0
 76
     1
 77
     6
 78
     2
 67
     7
 79
     5
170
     0
171
     0
290
     0
174
     0
 93
        1
 44
0.0
173
     0
291
     1
 45
0.0
1001
ACAD
1000
AcDbSavedByObjectVersion
1070
     0
  0
VISUALSTYLE
  5
37
102
{ACAD_XDICTIONARY
360
992
102
}
102
{ACAD_REACTORS
330
29
102
}
330
29
100
AcDbVisualStyle
  2

 70
    14
 71
     2
 72
     2
 73
     0
 90
        0
 40
-0.6
 41
-30.0
 62
     5
 63
     7
 74
     1
 91
        4
 64
     7
 65
   257
 75
     7
175
     7
 42
1.0
 92
        8
 66
     7
 43
1.0
 76
     1
 77
     6
 78
     2
 67
     7
 79
     5
170
     0
171
     0
290
     0
174
     0
 93
        1
 44
0.0
173
     0
291
     1
 45
0.0
1001
ACAD
1000
AcDbSavedByObjectVersion
1070
     0
  0
VISUALSTYLE
  5
40
102
{ACAD_XDICTIONARY
360
9A4
102
}
102
{ACAD_REACTORS
330
29
102
}
330
29
100
AcDbVisualStyle
  2

 70
    21
 71
     2
 72
     2
 73
     0
 90
        0
 40
-0.6
 41
-30.0
 62
     5
 63
     7
 74
     1
 91
        4
 64
     7
 65
   257
 75
     1
175
     1
 42
1.0
 92
        9
 66
     7
 43
1.0
 76
     1
 77
     6
 78
     2
 67
     7
 79
     5
170
     0
171
     0
290
     0
174
     0
 93
        1
 44
0.0
173
     0
291
     1
 45
0.0
1001
ACAD
1000
AcDbSavedByObjectVersion
1070
     0
  0
VISUALSTYLE
  5
33
102
{ACAD_XDICTIONARY
360
98A
102
}
102
{ACAD_REACTORS
330
29
102
}
330
29
100
AcDbVisualStyle
  2

 70
     8
 71
     2
 72
     3
 73
     0
 90
        2
 40
-0.6
 41
30.0
 62
     5
 63
     7
 74
     0
 91
        0
 64
     7
 65
   257
 75
     1
175
     1
 42
1.0
 92
        8
 66
   257
 43
1.0
 76
     1
 77
     6
 78
     2
 67
     7
 79
     3
170
     0
171
     0
290
     0
174
     0
 93
       13
 44
0.0
173
     0
291
     0
 45
0.0
1001
ACAD
1000
AcDbSavedByObjectVersion
1070
     0
  0
VISUALSTYLE
  5
3E
102
{ACAD_XDICTIONARY
360
9A0
102
}
102
{ACAD_REACTORS
330
29
102
}
330
29
100
AcDbVisualStyle
  2

 70
    27
 71
     2
 72
     2
 73
     1
 90
        2
 40
-0.6
 41
30.0
 62
     5
 63
     7
 74
     0
 91
        4
 64
     7
 65
   257
 75
     1
175
     1
 42
1.0
 92
        8
 66
   257
 43
1.0
 76
     1
 77
     6
 78
     2
 67
     8
 79
     3
170
     0
171
     0
290
     0
174
     0
 93
        5
 44
0.0
173
     0
291
     0
 45
0.0
1001
ACAD
1000
AcDbSavedByObjectVersion
1070
     0
  0
VISUALSTYLE
  5
3D
102
{ACAD_XDICTIONARY
360
99E
102
}
102
{ACAD_REACTORS
330
29
102
}
330
29
100
AcDbVisualStyle
  2

 70
    26
 71
     2
 72
     2
 73
     1
 90
        2
 40
-0.6
 41
30.0
 62
     5
 63
     7
 74
     1
 91
       10
 64
     7
 65
   257
 75
     2
175
     1
 42
1.0
 92
        8
 66
   257
 43
1.0
 76
     1
 77
     6
 78
     2
 67
     7
 79
     3
170
     0
171
     0
290
     0
174
     0
 93
        5
 44
0.0
173
     0
291
     0
 45
0.0
1001
ACAD
1000
AcDbSavedByObjectVersion
1070
     0
  0
VISUALSTYLE
  5
3A
102
{ACAD_XDICTIONARY
360
998
102
}
102
{ACAD_REACTORS
330
29
102
}
330
29
100
AcDbVisualStyle
  2

 70
    23
 71
     2
 72
     2
 73
     3
 90
        0
 40
-0.6
 41
-30.0
 62
     5
 63
     7
 74
     2
 91
        2
 64
     7
 65
     7
 75
     1
175
     1
 42
40.0
 92
        8
 66
     7
 43
1.0
 76
     1
 77
     6
 78
     2
 67
     7
 79
     3
170
     0
171
     0
290
     0
174
     0
 93
        1
 44
0.0
173
     0
291
     0
 45
0.0
1001
ACAD
1000
AcDbSavedByObjectVersion
1070
     0
  0
VISUALSTYLE
  5
3B
102
{ACAD_XDICTIONARY
360
99A
102
}
102
{ACAD_REACTORS
330
29
102
}
330
29
100
AcDbVisualStyle
  2

 70
    24
 71
     1
 72
     2
 73
     2
 90
        0
 40
-0.6
 41
-30.0
 62
     5
 63
     7
 74
     2
 91
        2
 64
     7
 65
     7
 75
     1
175
     1
 42
40.0
 92
       11
 66
     7
 43
1.0
 76
     1
 77
     6
 78
     2
 67
     7
 79
     6
170
     0
171
     0
290
     0
174
     0
 93
        1
 44
0.0
173
     0
291
     0
 45
0.0
1001
ACAD
1000
AcDbSavedByObjectVersion
1070
     0
  0
VISUALSTYLE
  5
36
102
{ACAD_XDICTIONARY
360
990
102
}
102
{ACAD_REACTORS
330
29
102
}
330
29
100
AcDbVisualStyle
  2

 70
    13
 71
     2
 72
     2
 73
     0
 90
        0
 40
-0.6
 41
-30.0
 62
     5
 63
     7
 74
     1
 91
        4
 64
     7
 65
   257
 75
     1
175
     1
 42
1.0
 92
       12
 66
     7
 43
1.0
 76
     1
 77
     6
 78
     2
 67
     7
 79
     5
170
     0
171
     0
290
     0
174
     0
 93
        1
 44
0.0
173
     0
291
     1
 45
0.0
1001
ACAD
1000
AcDbSavedByObjectVersion
1070
     0
  0
VISUALSTYLE
  5
30
102
{ACAD_XDICTIONARY
360
984
102
}
102
{ACAD_REACTORS
330
29
102
}
330
29
100
AcDbVisualStyle
  2

 70
     5
 71
     0
 72
     2
 73
     0
 90
        0
 40
-0.6
 41
-30.0
 62
     5
 63
     7
 74
     1
 91
        4
 64
     7
 65
   257
 75
     1
175
     1
 42
1.0
 92
        0
 66
   257
 43
1.0
 76
     1
 77
     6
 78
     2
 67
     7
 79
     3
170
     0
171
     0
290
     0
174
     0
 93
        1
 44
0.0
173
     0
291
     0
 45
0.0
1001
ACAD
1000
AcDbSavedByObjectVersion
1070
     0
  0
VISUALSTYLE
  5
3C
102
{ACAD_XDICTIONARY
360
99C
102
}
102
{ACAD_REACTORS
330
29
102
}
330
29
100
AcDbVisualStyle
  2

 70
    25
 71
     2
 72
     2
 73
     1
 90
        1
 40
0.5
 41
-30.0
 62
     5
 63
     7
 74
     1
 91
        0
 64
     7
 65
   257
 75
     1
175
     1
 42
1.0
 92
        8
 66
     7
 43
1.0
 76
     1
 77
     6
 78
     2
 67
     7
 79
     3
170
     0
171
     0
290
     0
174
     0
 93
       13
 44
0.0
173
     0
291
     0
 45
0.0
1001
ACAD
1000
AcDbSavedByObjectVersion
1070
     0
  0
DICTIONARYVAR
  5
630
102
{ACAD_REACTORS
330
62D
102
}
330
62D
100
DictionaryVariables
280
     0
  1
1:1
  0
DICTIONARYVAR
  5
62F
102
{ACAD_REACTORS
330
62D
102
}
330
62D
100
DictionaryVariables
280
     0
  1
STANDARD
  0
DICTIONARYVAR
  5
62E
102
{ACAD_REACTORS
330
62D
102
}
330
62D
100
DictionaryVariables
280
     0
  1
STANDARD
  0
DICTIONARYVAR
  5
633
102
{ACAD_REACTORS
330
62D
102
}
330
62D
100
DictionaryVariables
280
     0
  1
1
  0
DICTIONARYVAR
  5
632
102
{ACAD_REACTORS
330
62D
102
}
330
62D
100
DictionaryVariables
280
     0
  1
0
  0
DICTIONARYVAR
  5
870
102
{ACAD_REACTORS
330
62D
102
}
330
62D
100
DictionaryVariables
280
     0
  1
1.570796
  0
DICTIONARYVAR
  5
871
102
{ACAD_REACTORS
330
62D
102
}
330
62D
100
DictionaryVariables
280
     0
  1
1.570796
  0
DICTIONARYVAR
  5
631
102
{ACAD_REACTORS
330
62D
102
}
330
62D
100
DictionaryVariables
280
     0
  1
127
  0
DICTIONARYVAR
  5
872
102
{ACAD_REACTORS
330
62D
102
}
330
62D
100
DictionaryVariables
280
     0
  1
2
  0
DICTIONARY
  5
9AB
330
6E
100
AcDbDictionary
280
     1
281
     1
  3
ACAD_XREC_ROUNDTRIP
360
9AC
  0
DICTIONARY
  5
9A9
330
6A
100
AcDbDictionary
280
     1
281
     1
  3
ACAD_XREC_ROUNDTRIP
360
9AA
  0
DICTIONARY
  5
1A
330
19
100
AcDbDictionary
280
     1
281
     1
  3
ACAD_XREC_ROUNDTRIP
360
63E
  3
BUMPTILE
360
1C
  3
DIFFUSETILE
360
1B
  3
OPACITYTILE
360
1F
  3
REFLECTIONTILE
360
1E
  3
REFRACTIONTILE
360
20
  3
SPECULARTILE
360
1D
  0
DICTIONARY
  5
12
330
11
100
AcDbDictionary
280
     1
281
     1
  3
ACAD_XREC_ROUNDTRIP
360
63D
  3
BUMPTILE
360
14
  3
DIFFUSETILE
360
13
  3
OPACITYTILE
360
17
  3
REFLECTIONTILE
360
16
  3
REFRACTIONTILE
360
18
  3
SPECULARTILE
360
15
  0
DICTIONARY
  5
22
330
21
100
AcDbDictionary
280
     1
281
     1
  3
ACAD_XREC_ROUNDTRIP
360
63F
  3
BUMPTILE
360
24
  3
DIFFUSETILE
360
23
  3
OPACITYTILE
360
27
  3
REFLECTIONTILE
360
26
  3
REFRACTIONTILE
360
28
  3
SPECULARTILE
360
25
  0
DICTIONARY
  5
635
330
64
100
AcDbDictionary
280
     1
281
     1
  3
ACAD_ROUNDTRIP_2008_TABLESTYLE_CELLSTYLEMAP
360
970
  3
ACAD_XREC_ROUNDTRIP
360
9A8
  0
DICTIONARY
  5
982
330
2F
100
AcDbDictionary
280
     1
281
     1
  3
ACAD_XREC_ROUNDTRIP
360
983
  0
DICTIONARY
  5
9AF
330
7D0
100
AcDbDictionary
280
     1
281
     1
  3
ACAD_XREC_ROUNDTRIP
360
9B0
  0
DICTIONARY
  5
9AD
330
462
100
AcDbDictionary
280
     1
281
     1
  3
ACAD_XREC_ROUNDTRIP
360
9AE
  0
DICTIONARY
  5
980
330
2E
100
AcDbDictionary
280
     1
281
     1
  3
ACAD_XREC_ROUNDTRIP
360
981
  0
DICTIONARY
  5
98E
330
35
100
AcDbDictionary
280
     1
281
     1
  3
ACAD_XREC_ROUNDTRIP
360
98F
  0
DICTIONARY
  5
996
330
39
100
AcDbDictionary
280
     1
281
     1
  3
ACAD_XREC_ROUNDTRIP
360
997
  0
DICTIONARY
  5
988
330
32
100
AcDbDictionary
280
     1
281
     1
  3
ACAD_XREC_ROUNDTRIP
360
989
  0
DICTIONARY
  5
98C
330
34
100
AcDbDictionary
280
     1
281
     1
  3
ACAD_XREC_ROUNDTRIP
360
98D
  0
DICTIONARY
  5
9A6
330
41
100
AcDbDictionary
280
     1
281
     1
  3
ACAD_XREC_ROUNDTRIP
360
9A7
  0
DICTIONARY
  5
994
330
38
100
AcDbDictionary
280
     1
281
     1
  3
ACAD_XREC_ROUNDTRIP
360
995
  0
DICTIONARY
  5
978
330
2A
100
AcDbDictionary
280
     1
281
     1
  3
ACAD_XREC_ROUNDTRIP
360
979
  0
DICTIONARY
  5
97A
330
2B
100
AcDbDictionary
280
     1
281
     1
  3
ACAD_XREC_ROUNDTRIP
360
97B
  0
DICTIONARY
  5
97C
330
2C
100
AcDbDictionary
280
     1
281
     1
  3
ACAD_XREC_ROUNDTRIP
360
97D
  0
DICTIONARY
  5
97E
330
2D
100
AcDbDictionary
280
     1
281
     1
  3
ACAD_XREC_ROUNDTRIP
360
97F
  0
DICTIONARY
  5
986
330
31
100
AcDbDictionary
280
     1
281
     1
  3
ACAD_XREC_ROUNDTRIP
360
987
  0
DICTIONARY
  5
9A2
330
3F
100
AcDbDictionary
280
     1
281
     1
  3
ACAD_XREC_ROUNDTRIP
360
9A3
  0
DICTIONARY
  5
992
330
37
100
AcDbDictionary
280
     1
281
     1
  3
ACAD_XREC_ROUNDTRIP
360
993
  0
DICTIONARY
  5
9A4
330
40
100
AcDbDictionary
280
     1
281
     1
  3
ACAD_XREC_ROUNDTRIP
360
9A5
  0
DICTIONARY
  5
98A
330
33
100
AcDbDictionary
280
     1
281
     1
  3
ACAD_XREC_ROUNDTRIP
360
98B
  0
DICTIONARY
  5
9A0
330
3E
100
AcDbDictionary
280
     1
281
     1
  3
ACAD_XREC_ROUNDTRIP
360
9A1
  0
DICTIONARY
  5
99E
330
3D
100
AcDbDictionary
280
     1
281
     1
  3
ACAD_XREC_ROUNDTRIP
360
99F
  0
DICTIONARY
  5
998
330
3A
100
AcDbDictionary
280
     1
281
     1
  3
ACAD_XREC_ROUNDTRIP
360
999
  0
DICTIONARY
  5
99A
330
3B
100
AcDbDictionary
280
     1
281
     1
  3
ACAD_XREC_ROUNDTRIP
360
99B
  0
DICTIONARY
  5
990
330
36
100
AcDbDictionary
280
     1
281
     1
  3
ACAD_XREC_ROUNDTRIP
360
991
  0
DICTIONARY
  5
984
330
30
100
AcDbDictionary
280
     1
281
     1
  3
ACAD_XREC_ROUNDTRIP
360
985
  0
DICTIONARY
  5
99C
330
3C
100
AcDbDictionary
280
     1
281
     1
  3
ACAD_XREC_ROUNDTRIP
360
99D
  0
XRECORD
  5
9AC
102
{ACAD_REACTORS
330
9AB
102
}
330
9AB
100
AcDbXrecord
280
     1
102
SHADEPLOT
 70
     0
102
SHADEPLOTRESLEVEL
 70
     2
102
SHADEPLOTCUSTOMDPI
 70
   300
  0
XRECORD
  5
9AA
102
{ACAD_REACTORS
330
9A9
102
}
330
9A9
100
AcDbXrecord
280
     1
102
SHADEPLOT
 70
     0
102
SHADEPLOTRESLEVEL
 70
     2
102
SHADEPLOTCUSTOMDPI
 70
   300
  0
XRECORD
  5
63E
102
{ACAD_REACTORS
330
1A
102
}
330
1A
100
AcDbXrecord
280
     1
102
MATERIAL
148
0.0
149
0.0
149
0.0
 93
        0
 94
      127
282
     0
 72
     0
 77
     0
171
     0
175
     0
179
     0
273
     0
  0
XRECORD
  5
1C
102
{ACAD_REACTORS
330
1A
102
}
330
1A
100
AcDbXrecord
280
     1
270
     1
271
     1
  0
XRECORD
  5
1B
102
{ACAD_REACTORS
330
1A
102
}
330
1A
100
AcDbXrecord
280
     1
270
     1
271
     1
  0
XRECORD
  5
1F
102
{ACAD_REACTORS
330
1A
102
}
330
1A
100
AcDbXrecord
280
     1
270
     1
271
     1
  0
XRECORD
  5
1E
102
{ACAD_REACTORS
330
1A
102
}
330
1A
100
AcDbXrecord
280
     1
270
     1
271
     1
  0
XRECORD
  5
20
102
{ACAD_REACTORS
330
1A
102
}
330
1A
100
AcDbXrecord
280
     1
270
     1
271
     1
  0
XRECORD
  5
1D
102
{ACAD_REACTORS
330
1A
102
}
330
1A
100
AcDbXrecord
280
     1
270
     1
271
     1
  0
XRECORD
  5
63D
102
{ACAD_REACTORS
330
12
102
}
330
12
100
AcDbXrecord
280
     1
102
MATERIAL
148
0.0
149
0.0
149
0.0
 93
        0
 94
      127
282
     0
 72
     0
 77
     0
171
     0
175
     0
179
     0
273
     0
  0
XRECORD
  5
14
102
{ACAD_REACTORS
330
12
102
}
330
12
100
AcDbXrecord
280
     1
270
     1
271
     1
  0
XRECORD
  5
13
102
{ACAD_REACTORS
330
12
102
}
330
12
100
AcDbXrecord
280
     1
270
     1
271
     1
  0
XRECORD
  5
17
102
{ACAD_REACTORS
330
12
102
}
330
12
100
AcDbXrecord
280
     1
270
     1
271
     1
  0
XRECORD
  5
16
102
{ACAD_REACTORS
330
12
102
}
330
12
100
AcDbXrecord
280
     1
270
     1
271
     1
  0
XRECORD
  5
18
102
{ACAD_REACTORS
330
12
102
}
330
12
100
AcDbXrecord
280
     1
270
     1
271
     1
  0
XRECORD
  5
15
102
{ACAD_REACTORS
330
12
102
}
330
12
100
AcDbXrecord
280
     1
270
     1
271
     1
  0
XRECORD
  5
63F
102
{ACAD_REACTORS
330
22
102
}
330
22
100
AcDbXrecord
280
     1
102
MATERIAL
148
0.0
149
0.0
149
0.0
 93
        0
 94
      127
282
     0
 72
     0
 77
     0
171
     0
175
     0
179
     0
273
     0
  0
XRECORD
  5
24
102
{ACAD_REACTORS
330
22
102
}
330
22
100
AcDbXrecord
280
     1
270
     1
271
     1
  0
XRECORD
  5
23
102
{ACAD_REACTORS
330
22
102
}
330
22
100
AcDbXrecord
280
     1
270
     1
271
     1
  0
XRECORD
  5
27
102
{ACAD_REACTORS
330
22
102
}
330
22
100
AcDbXrecord
280
     1
270
     1
271
     1
  0
XRECORD
  5
26
102
{ACAD_REACTORS
330
22
102
}
330
22
100
AcDbXrecord
280
     1
270
     1
271
     1
  0
XRECORD
  5
28
102
{ACAD_REACTORS
330
22
102
}
330
22
100
AcDbXrecord
280
     1
270
     1
271
     1
  0
XRECORD
  5
25
102
{ACAD_REACTORS
330
22
102
}
330
22
100
AcDbXrecord
280
     1
270
     1
271
     1
  0
CELLSTYLEMAP
  5
970
102
{ACAD_REACTORS
330
635
102
}
330
635
100
AcDbCellStyleMap
 90
        3
300
CELLSTYLE
  1
TABLEFORMAT_BEGIN
 90
        5
170
     1
 91
        0
 92
    32768
 62
   257
 93
        1
300
CONTENTFORMAT
  1
CONTENTFORMAT_BEGIN
 90
        0
 91
        0
 92
      512
 93
        0
300

 40
0.0
140
1.0
 94
        5
 62
     0
340
55
144
0.25
309
CONTENTFORMAT_END
171
     1
301
MARGIN
  1
CELLMARGIN_BEGIN
 40
0.06
 40
0.06
 40
0.06
 40
0.06
 40
0.18
 40
0.18
309
CELLMARGIN_END
 94
        6
 95
        1
302
GRIDFORMAT
  1
GRIDFORMAT_BEGIN
 90
        0
 91
        1
 62
     0
 92
       -2
340
0
 93
        0
 40
0.045
309
GRIDFORMAT_END
 95
        2
302
GRIDFORMAT
  1
GRIDFORMAT_BEGIN
 90
        0
 91
        1
 62
     0
 92
       -2
340
0
 93
        0
 40
0.045
309
GRIDFORMAT_END
 95
        4
302
GRIDFORMAT
  1
GRIDFORMAT_BEGIN
 90
        0
 91
        1
 62
     0
 92
       -2
340
0
 93
        0
 40
0.045
309
GRIDFORMAT_END
 95
        8
302
GRIDFORMAT
  1
GRIDFORMAT_BEGIN
 90
        0
 91
        1
 62
     0
 92
       -2
340
0
 93
        0
 40
0.045
309
GRIDFORMAT_END
 95
       16
302
GRIDFORMAT
  1
GRIDFORMAT_BEGIN
 90
        0
 91
        1
 62
     0
 92
       -2
340
0
 93
        0
 40
0.045
309
GRIDFORMAT_END
 95
       32
302
GRIDFORMAT
  1
GRIDFORMAT_BEGIN
 90
        0
 91
        1
 62
     0
 92
       -2
340
0
 93
        0
 40
0.045
309
GRIDFORMAT_END
309
TABLEFORMAT_END
  1
CELLSTYLE_BEGIN
 90
        1
 91
        1
300
_TITLE
309
CELLSTYLE_END
300
CELLSTYLE
  1
TABLEFORMAT_BEGIN
 90
        5
170
     1
 91
        0
 92
        0
 62
   257
 93
        1
300
CONTENTFORMAT
  1
CONTENTFORMAT_BEGIN
 90
        0
 91
        0
 92
      512
 93
        0
300

 40
0.0
140
1.0
 94
        5
 62
     0
340
55
144
0.18
309
CONTENTFORMAT_END
171
     1
301
MARGIN
  1
CELLMARGIN_BEGIN
 40
0.06
 40
0.06
 40
0.06
 40
0.06
 40
0.18
 40
0.18
309
CELLMARGIN_END
 94
        6
 95
        1
302
GRIDFORMAT
  1
GRIDFORMAT_BEGIN
 90
        0
 91
        1
 62
     0
 92
       -2
340
0
 93
        0
 40
0.045
309
GRIDFORMAT_END
 95
        2
302
GRIDFORMAT
  1
GRIDFORMAT_BEGIN
 90
        0
 91
        1
 62
     0
 92
       -2
340
0
 93
        0
 40
0.045
309
GRIDFORMAT_END
 95
        4
302
GRIDFORMAT
  1
GRIDFORMAT_BEGIN
 90
        0
 91
        1
 62
     0
 92
       -2
340
0
 93
        0
 40
0.045
309
GRIDFORMAT_END
 95
        8
302
GRIDFORMAT
  1
GRIDFORMAT_BEGIN
 90
        0
 91
        1
 62
     0
 92
       -2
340
0
 93
        0
 40
0.045
309
GRIDFORMAT_END
 95
       16
302
GRIDFORMAT
  1
GRIDFORMAT_BEGIN
 90
        0
 91
        1
 62
     0
 92
       -2
340
0
 93
        0
 40
0.045
309
GRIDFORMAT_END
 95
       32
302
GRIDFORMAT
  1
GRIDFORMAT_BEGIN
 90
        0
 91
        1
 62
     0
 92
       -2
340
0
 93
        0
 40
0.045
309
GRIDFORMAT_END
309
TABLEFORMAT_END
  1
CELLSTYLE_BEGIN
 90
        2
 91
        1
300
_HEADER
309
CELLSTYLE_END
300
CELLSTYLE
  1
TABLEFORMAT_BEGIN
 90
        5
170
     1
 91
        0
 92
        0
 62
   257
 93
        1
300
CONTENTFORMAT
  1
CONTENTFORMAT_BEGIN
 90
        0
 91
        0
 92
      512
 93
        0
300

 40
0.0
140
1.0
 94
        2
 62
     0
340
55
144
0.18
309
CONTENTFORMAT_END
171
     1
301
MARGIN
  1
CELLMARGIN_BEGIN
 40
0.06
 40
0.06
 40
0.06
 40
0.06
 40
0.18
 40
0.18
309
CELLMARGIN_END
 94
        6
 95
        1
302
GRIDFORMAT
  1
GRIDFORMAT_BEGIN
 90
        0
 91
        1
 62
     0
 92
       -2
340
0
 93
        0
 40
0.045
309
GRIDFORMAT_END
 95
        2
302
GRIDFORMAT
  1
GRIDFORMAT_BEGIN
 90
        0
 91
        1
 62
     0
 92
       -2
340
0
 93
        0
 40
0.045
309
GRIDFORMAT_END
 95
        4
302
GRIDFORMAT
  1
GRIDFORMAT_BEGIN
 90
        0
 91
        1
 62
     0
 92
       -2
340
0
 93
        0
 40
0.045
309
GRIDFORMAT_END
 95
        8
302
GRIDFORMAT
  1
GRIDFORMAT_BEGIN
 90
        0
 91
        1
 62
     0
 92
       -2
340
0
 93
        0
 40
0.045
309
GRIDFORMAT_END
 95
       16
302
GRIDFORMAT
  1
GRIDFORMAT_BEGIN
 90
        0
 91
        1
 62
     0
 92
       -2
340
0
 93
        0
 40
0.045
309
GRIDFORMAT_END
 95
       32
302
GRIDFORMAT
  1
GRIDFORMAT_BEGIN
 90
        0
 91
        1
 62
     0
 92
       -2
340
0
 93
        0
 40
0.045
309
GRIDFORMAT_END
309
TABLEFORMAT_END
  1
CELLSTYLE_BEGIN
 90
        3
 91
        2
300
_DATA
309
CELLSTYLE_END
  0
XRECORD
  5
9A8
102
{ACAD_REACTORS
330
635
102
}
330
635
100
AcDbXrecord
280
     1
102
ACAD_ROUNDTRIP_PRE2007_TABLESTYLE
 90
      512
 91
        0
  1

 92
      512
 93
        0
  2

 94
      512
 95
        0
  3

  0
XRECORD
  5
983
102
{ACAD_REACTORS
330
982
102
}
330
982
100
AcDbXrecord
280
     1
102
RTVSPropertyOp0
 70
     1
102
RTVSPropertyOp1
 70
     1
102
RTVSPropertyOp2
 70
     1
102
RTVSPropertyOp3
 70
     1
102
RTVSPropertyOp4
 70
     1
102
RTVSPropertyOp5
 70
     1
102
RTVSPropertyOp6
 70
     1
102
RTVSPropertyOp7
 70
     1
102
RTVSPropertyOp8
 70
     1
102
RTVSPropertyOp9
 70
     1
102
RTVSPropertyOp10
 70
     1
102
RTVSPropertyOp11
 70
     1
102
RTVSPropertyOp12
 70
     1
102
RTVSPropertyOp13
 70
     1
102
RTVSPropertyOp14
 70
     1
102
RTVSPropertyOp15
 70
     1
102
RTVSPropertyOp16
 70
     1
102
RTVSPropertyOp17
 70
     1
102
RTVSPropertyOp18
 70
     1
102
RTVSPropertyOp19
 70
     1
102
RTVSPropertyOp20
 70
     1
102
RTVSPropertyOp21
 70
     1
102
RTVSPropertyOp22
 70
     1
102
RTVSPropertyOp23
 70
     1
102
RTVSPropertyOp24
 70
     1
102
RTVSPropertyOp25
 70
     1
102
RTVSPropertyOp26
 70
     1
102
RTVSPropertyOp27
 70
     1
102
RTVSPropertyOp28
 70
     1
102
RTVSPropertyOp29
 70
     1
102
RTVSPropertyOp30
 70
     1
102
RTVSPropertyOp31
 70
     1
102
RTVSPropertyOp32
 70
     1
  0
XRECORD
  5
9B0
102
{ACAD_REACTORS
330
9AF
102
}
330
9AF
100
AcDbXrecord
280
     1
102
RTVSPropertyOp0
 70
     1
102
RTVSPropertyOp1
 70
     1
102
RTVSPropertyOp2
 70
     1
102
RTVSPropertyOp3
 70
     1
102
RTVSPropertyOp4
 70
     1
102
RTVSPropertyOp5
 70
     1
102
RTVSPropertyOp6
 70
     1
102
RTVSPropertyOp7
 70
     1
102
RTVSPropertyOp8
 70
     1
102
RTVSPropertyOp9
 70
     1
102
RTVSPropertyOp10
 70
     1
102
RTVSPropertyOp11
 70
     1
102
RTVSPropertyOp12
 70
     1
102
RTVSPropertyOp13
 70
     1
102
RTVSPropertyOp14
 70
     1
102
RTVSPropertyOp15
 70
     1
102
RTVSPropertyOp16
 70
     1
102
RTVSPropertyOp17
 70
     1
102
RTVSPropertyOp18
 70
     1
102
RTVSPropertyOp19
 70
     1
102
RTVSPropertyOp20
 70
     1
102
RTVSPropertyOp21
 70
     1
102
RTVSPropertyOp22
 70
     1
102
RTVSPropertyOp23
 70
     1
102
RTVSPropertyOp24
 70
     1
102
RTVSPropertyOp25
 70
     1
102
RTVSPropertyOp26
 70
     1
102
RTVSPropertyOp27
 70
     1
102
RTVSPropertyOp28
 70
     1
102
RTVSPropertyOp29
 70
     1
102
RTVSPropertyOp30
 70
     1
102
RTVSPropertyOp31
 70
     1
102
RTVSPropertyOp32
 70
     1
  0
XRECORD
  5
9AE
102
{ACAD_REACTORS
330
9AD
102
}
330
9AD
100
AcDbXrecord
280
     1
102
RTVSPropertyOp0
 70
     1
102
RTVSPropertyOp1
 70
     1
102
RTVSPropertyOp2
 70
     1
102
RTVSPropertyOp3
 70
     1
102
RTVSPropertyOp4
 70
     1
102
RTVSPropertyOp5
 70
     1
102
RTVSPropertyOp6
 70
     1
102
RTVSPropertyOp7
 70
     1
102
RTVSPropertyOp8
 70
     1
102
RTVSPropertyOp9
 70
     1
102
RTVSPropertyOp10
 70
     1
102
RTVSPropertyOp11
 70
     1
102
RTVSPropertyOp12
 70
     1
102
RTVSPropertyOp13
 70
     1
102
RTVSPropertyOp14
 70
     1
102
RTVSPropertyOp15
 70
     1
102
RTVSPropertyOp16
 70
     1
102
RTVSPropertyOp17
 70
     1
102
RTVSPropertyOp18
 70
     1
102
RTVSPropertyOp19
 70
     1
102
RTVSPropertyOp20
 70
     1
102
RTVSPropertyOp21
 70
     1
102
RTVSPropertyOp22
 70
     1
102
RTVSPropertyOp23
 70
     1
102
RTVSPropertyOp24
 70
     1
102
RTVSPropertyOp25
 70
     1
102
RTVSPropertyOp26
 70
     1
102
RTVSPropertyOp27
 70
     1
102
RTVSPropertyOp28
 70
     1
102
RTVSPropertyOp29
 70
     1
102
RTVSPropertyOp30
 70
     1
102
RTVSPropertyOp31
 70
     1
102
RTVSPropertyOp32
 70
     1
  0
XRECORD
  5
981
102
{ACAD_REACTORS
330
980
102
}
330
980
100
AcDbXrecord
280
     1
102
RTVSPropertyOp0
 70
     1
102
RTVSPropertyOp1
 70
     1
102
RTVSPropertyOp2
 70
     1
102
RTVSPropertyOp3
 70
     1
102
RTVSPropertyOp4
 70
     1
102
RTVSPropertyOp5
 70
     1
102
RTVSPropertyOp6
 70
     1
102
RTVSPropertyOp7
 70
     1
102
RTVSPropertyOp8
 70
     1
102
RTVSPropertyOp9
 70
     1
102
RTVSPropertyOp10
 70
     1
102
RTVSPropertyOp11
 70
     1
102
RTVSPropertyOp12
 70
     1
102
RTVSPropertyOp13
 70
     1
102
RTVSPropertyOp14
 70
     1
102
RTVSPropertyOp15
 70
     1
102
RTVSPropertyOp16
 70
     1
102
RTVSPropertyOp17
 70
     1
102
RTVSPropertyOp18
 70
     1
102
RTVSPropertyOp19
 70
     1
102
RTVSPropertyOp20
 70
     1
102
RTVSPropertyOp21
 70
     1
102
RTVSPropertyOp22
 70
     1
102
RTVSPropertyOp23
 70
     1
102
RTVSPropertyOp24
 70
     1
102
RTVSPropertyOp25
 70
     1
102
RTVSPropertyOp26
 70
     1
102
RTVSPropertyOp27
 70
     1
102
RTVSPropertyOp28
 70
     1
102
RTVSPropertyOp29
 70
     1
102
RTVSPropertyOp30
 70
     1
102
RTVSPropertyOp31
 70
     1
102
RTVSPropertyOp32
 70
     1
  0
XRECORD
  5
98F
102
{ACAD_REACTORS
330
98E
102
}
330
98E
100
AcDbXrecord
280
     1
102
RTVSPropertyOp0
 70
     1
102
RTVSPropertyOp1
 70
     1
102
RTVSPropertyOp2
 70
     1
102
RTVSPropertyOp3
 70
     1
102
RTVSPropertyOp4
 70
     1
102
RTVSPropertyOp5
 70
     1
102
RTVSPropertyOp6
 70
     1
102
RTVSPropertyOp7
 70
     1
102
RTVSPropertyOp8
 70
     1
102
RTVSPropertyOp9
 70
     1
102
RTVSPropertyOp10
 70
     1
102
RTVSPropertyOp11
 70
     1
102
RTVSPropertyOp12
 70
     1
102
RTVSPropertyOp13
 70
     1
102
RTVSPropertyOp14
 70
     1
102
RTVSPropertyOp15
 70
     1
102
RTVSPropertyOp16
 70
     1
102
RTVSPropertyOp17
 70
     1
102
RTVSPropertyOp18
 70
     1
102
RTVSPropertyOp19
 70
     1
102
RTVSPropertyOp20
 70
     1
102
RTVSPropertyOp21
 70
     1
102
RTVSPropertyOp22
 70
     1
102
RTVSPropertyOp23
 70
     1
102
RTVSPropertyOp24
 70
     1
102
RTVSPropertyOp25
 70
     1
102
RTVSPropertyOp26
 70
     1
102
RTVSPropertyOp27
 70
     1
102
RTVSPropertyOp28
 70
     1
102
RTVSPropertyOp29
 70
     1
102
RTVSPropertyOp30
 70
     1
102
RTVSPropertyOp31
 70
     1
102
RTVSPropertyOp32
 70
     1
  0
XRECORD
  5
997
102
{ACAD_REACTORS
330
996
102
}
330
996
100
AcDbXrecord
280
     1
102
RTVSPropertyOp0
 70
     1
102
RTVSPropertyOp1
 70
     1
102
RTVSPropertyOp2
 70
     1
102
RTVSPropertyOp3
 70
     1
102
RTVSPropertyOp4
 70
     1
102
RTVSPropertyOp5
 70
     1
102
RTVSPropertyOp6
 70
     1
102
RTVSPropertyOp7
 70
     1
102
RTVSPropertyOp8
 70
     1
102
RTVSPropertyOp9
 70
     1
102
RTVSPropertyOp10
 70
     1
102
RTVSPropertyOp11
 70
     1
102
RTVSPropertyOp12
 70
     1
102
RTVSPropertyOp13
 70
     1
102
RTVSPropertyOp14
 70
     1
102
RTVSPropertyOp15
 70
     1
102
RTVSPropertyOp16
 70
     1
102
RTVSPropertyOp17
 70
     1
102
RTVSPropertyOp18
 70
     1
102
RTVSPropertyOp19
 70
     1
102
RTVSPropertyOp20
 70
     1
102
RTVSPropertyOp21
 70
     1
102
RTVSPropertyOp22
 70
     1
102
RTVSPropertyOp23
 70
     1
102
RTVSPropertyOp24
 70
     1
102
RTVSPropertyOp25
 70
     1
102
RTVSPropertyOp26
 70
     1
102
RTVSPropertyOp27
 70
     1
102
RTVSPropertyOp28
 70
     1
102
RTVSPropertyOp29
 70
     1
102
RTVSPropertyOp30
 70
     1
102
RTVSPropertyOp31
 70
     1
102
RTVSPropertyOp32
 70
     1
  0
XRECORD
  5
989
102
{ACAD_REACTORS
330
988
102
}
330
988
100
AcDbXrecord
280
     1
102
RTVSPropertyOp0
 70
     1
102
RTVSPropertyOp1
 70
     1
102
RTVSPropertyOp2
 70
     1
102
RTVSPropertyOp3
 70
     1
102
RTVSPropertyOp4
 70
     1
102
RTVSPropertyOp5
 70
     1
102
RTVSPropertyOp6
 70
     1
102
RTVSPropertyOp7
 70
     1
102
RTVSPropertyOp8
 70
     1
102
RTVSPropertyOp9
 70
     1
102
RTVSPropertyOp10
 70
     1
102
RTVSPropertyOp11
 70
     1
102
RTVSPropertyOp12
 70
     1
102
RTVSPropertyOp13
 70
     1
102
RTVSPropertyOp14
 70
     1
102
RTVSPropertyOp15
 70
     1
102
RTVSPropertyOp16
 70
     1
102
RTVSPropertyOp17
 70
     1
102
RTVSPropertyOp18
 70
     1
102
RTVSPropertyOp19
 70
     1
102
RTVSPropertyOp20
 70
     1
102
RTVSPropertyOp21
 70
     1
102
RTVSPropertyOp22
 70
     1
102
RTVSPropertyOp23
 70
     1
102
RTVSPropertyOp24
 70
     1
102
RTVSPropertyOp25
 70
     1
102
RTVSPropertyOp26
 70
     1
102
RTVSPropertyOp27
 70
     1
102
RTVSPropertyOp28
 70
     1
102
RTVSPropertyOp29
 70
     1
102
RTVSPropertyOp30
 70
     1
102
RTVSPropertyOp31
 70
     1
102
RTVSPropertyOp32
 70
     1
  0
XRECORD
  5
98D
102
{ACAD_REACTORS
330
98C
102
}
330
98C
100
AcDbXrecord
280
     1
102
RTVSPropertyOp0
 70
     1
102
RTVSPropertyOp1
 70
     1
102
RTVSPropertyOp2
 70
     1
102
RTVSPropertyOp3
 70
     1
102
RTVSPropertyOp4
 70
     1
102
RTVSPropertyOp5
 70
     1
102
RTVSPropertyOp6
 70
     1
102
RTVSPropertyOp7
 70
     1
102
RTVSPropertyOp8
 70
     1
102
RTVSPropertyOp9
 70
     1
102
RTVSPropertyOp10
 70
     1
102
RTVSPropertyOp11
 70
     1
102
RTVSPropertyOp12
 70
     1
102
RTVSPropertyOp13
 70
     1
102
RTVSPropertyOp14
 70
     1
102
RTVSPropertyOp15
 70
     1
102
RTVSPropertyOp16
 70
     1
102
RTVSPropertyOp17
 70
     1
102
RTVSPropertyOp18
 70
     1
102
RTVSPropertyOp19
 70
     1
102
RTVSPropertyOp20
 70
     1
102
RTVSPropertyOp21
 70
     1
102
RTVSPropertyOp22
 70
     1
102
RTVSPropertyOp23
 70
     1
102
RTVSPropertyOp24
 70
     1
102
RTVSPropertyOp25
 70
     1
102
RTVSPropertyOp26
 70
     1
102
RTVSPropertyOp27
 70
     1
102
RTVSPropertyOp28
 70
     1
102
RTVSPropertyOp29
 70
     1
102
RTVSPropertyOp30
 70
     1
102
RTVSPropertyOp31
 70
     1
102
RTVSPropertyOp32
 70
     1
  0
XRECORD
  5
9A7
102
{ACAD_REACTORS
330
9A6
102
}
330
9A6
100
AcDbXrecord
280
     1
102
RTVSPropertyOp0
 70
     0
102
RTVSPropertyOp1
 70
     0
102
RTVSPropertyOp2
 70
     0
102
RTVSPropertyOp3
 70
     0
102
RTVSPropertyOp4
 70
     0
102
RTVSPropertyOp5
 70
     0
102
RTVSPropertyOp6
 70
     0
102
RTVSPropertyOp7
 70
     0
102
RTVSPropertyOp8
 70
     0
102
RTVSPropertyOp9
 70
     0
102
RTVSPropertyOp10
 70
     0
102
RTVSPropertyOp11
 70
     0
102
RTVSPropertyOp12
 70
     0
102
RTVSPropertyOp13
 70
     0
102
RTVSPropertyOp14
 70
     2
102
RTVSPropertyOp15
 70
     0
102
RTVSPropertyOp16
 70
     0
102
RTVSPropertyOp17
 70
     0
102
RTVSPropertyOp18
 70
     0
102
RTVSPropertyOp19
 70
     0
102
RTVSPropertyOp20
 70
     0
102
RTVSPropertyOp21
 70
     0
102
RTVSPropertyOp22
 70
     0
102
RTVSPropertyOp23
 70
     0
102
RTVSPropertyOp24
 70
     0
102
RTVSPropertyOp25
 70
     0
102
RTVSPropertyOp26
 70
     0
102
RTVSPropertyOp27
 70
     0
102
RTVSPropertyOp28
 70
     0
102
RTVSPropertyOp29
 70
     0
102
RTVSPropertyOp30
 70
     0
102
RTVSPropertyOp31
 70
     0
102
RTVSPropertyOp32
 70
     0
  0
XRECORD
  5
995
102
{ACAD_REACTORS
330
994
102
}
330
994
100
AcDbXrecord
280
     1
102
RTVSPropertyOp0
 70
     1
102
RTVSPropertyOp1
 70
     1
102
RTVSPropertyOp2
 70
     1
102
RTVSPropertyOp3
 70
     1
102
RTVSPropertyOp4
 70
     1
102
RTVSPropertyOp5
 70
     1
102
RTVSPropertyOp6
 70
     1
102
RTVSPropertyOp7
 70
     1
102
RTVSPropertyOp8
 70
     1
102
RTVSPropertyOp9
 70
     1
102
RTVSPropertyOp10
 70
     1
102
RTVSPropertyOp11
 70
     1
102
RTVSPropertyOp12
 70
     1
102
RTVSPropertyOp13
 70
     1
102
RTVSPropertyOp14
 70
     1
102
RTVSPropertyOp15
 70
     1
102
RTVSPropertyOp16
 70
     1
102
RTVSPropertyOp17
 70
     1
102
RTVSPropertyOp18
 70
     1
102
RTVSPropertyOp19
 70
     1
102
RTVSPropertyOp20
 70
     1
102
RTVSPropertyOp21
 70
     1
102
RTVSPropertyOp22
 70
     1
102
RTVSPropertyOp23
 70
     1
102
RTVSPropertyOp24
 70
     1
102
RTVSPropertyOp25
 70
     1
102
RTVSPropertyOp26
 70
     1
102
RTVSPropertyOp27
 70
     1
102
RTVSPropertyOp28
 70
     1
102
RTVSPropertyOp29
 70
     1
102
RTVSPropertyOp30
 70
     1
102
RTVSPropertyOp31
 70
     1
102
RTVSPropertyOp32
 70
     1
  0
XRECORD
  5
979
102
{ACAD_REACTORS
330
978
102
}
330
978
100
AcDbXrecord
280
     1
102
RTVSPropertyOp0
 70
     1
102
RTVSPropertyOp1
 70
     1
102
RTVSPropertyOp2
 70
     1
102
RTVSPropertyOp3
 70
     1
102
RTVSPropertyOp4
 70
     1
102
RTVSPropertyOp5
 70
     1
102
RTVSPropertyOp6
 70
     1
102
RTVSPropertyOp7
 70
     1
102
RTVSPropertyOp8
 70
     1
102
RTVSPropertyOp9
 70
     1
102
RTVSPropertyOp10
 70
     1
102
RTVSPropertyOp11
 70
     1
102
RTVSPropertyOp12
 70
     1
102
RTVSPropertyOp13
 70
     1
102
RTVSPropertyOp14
 70
     1
102
RTVSPropertyOp15
 70
     1
102
RTVSPropertyOp16
 70
     1
102
RTVSPropertyOp17
 70
     1
102
RTVSPropertyOp18
 70
     1
102
RTVSPropertyOp19
 70
     1
102
RTVSPropertyOp20
 70
     1
102
RTVSPropertyOp21
 70
     1
102
RTVSPropertyOp22
 70
     1
102
RTVSPropertyOp23
 70
     1
102
RTVSPropertyOp24
 70
     1
102
RTVSPropertyOp25
 70
     1
102
RTVSPropertyOp26
 70
     1
102
RTVSPropertyOp27
 70
     1
102
RTVSPropertyOp28
 70
     1
102
RTVSPropertyOp29
 70
     1
102
RTVSPropertyOp30
 70
     1
102
RTVSPropertyOp31
 70
     1
102
RTVSPropertyOp32
 70
     1
  0
XRECORD
  5
97B
102
{ACAD_REACTORS
330
97A
102
}
330
97A
100
AcDbXrecord
280
     1
102
RTVSPropertyOp0
 70
     1
102
RTVSPropertyOp1
 70
     1
102
RTVSPropertyOp2
 70
     1
102
RTVSPropertyOp3
 70
     1
102
RTVSPropertyOp4
 70
     1
102
RTVSPropertyOp5
 70
     1
102
RTVSPropertyOp6
 70
     1
102
RTVSPropertyOp7
 70
     1
102
RTVSPropertyOp8
 70
     1
102
RTVSPropertyOp9
 70
     1
102
RTVSPropertyOp10
 70
     1
102
RTVSPropertyOp11
 70
     1
102
RTVSPropertyOp12
 70
     1
102
RTVSPropertyOp13
 70
     1
102
RTVSPropertyOp14
 70
     1
102
RTVSPropertyOp15
 70
     1
102
RTVSPropertyOp16
 70
     1
102
RTVSPropertyOp17
 70
     1
102
RTVSPropertyOp18
 70
     1
102
RTVSPropertyOp19
 70
     1
102
RTVSPropertyOp20
 70
     1
102
RTVSPropertyOp21
 70
     1
102
RTVSPropertyOp22
 70
     1
102
RTVSPropertyOp23
 70
     1
102
RTVSPropertyOp24
 70
     1
102
RTVSPropertyOp25
 70
     1
102
RTVSPropertyOp26
 70
     1
102
RTVSPropertyOp27
 70
     1
102
RTVSPropertyOp28
 70
     1
102
RTVSPropertyOp29
 70
     1
102
RTVSPropertyOp30
 70
     1
102
RTVSPropertyOp31
 70
     1
102
RTVSPropertyOp32
 70
     1
  0
XRECORD
  5
97D
102
{ACAD_REACTORS
330
97C
102
}
330
97C
100
AcDbXrecord
280
     1
102
RTVSPropertyOp0
 70
     1
102
RTVSPropertyOp1
 70
     1
102
RTVSPropertyOp2
 70
     1
102
RTVSPropertyOp3
 70
     1
102
RTVSPropertyOp4
 70
     1
102
RTVSPropertyOp5
 70
     1
102
RTVSPropertyOp6
 70
     1
102
RTVSPropertyOp7
 70
     1
102
RTVSPropertyOp8
 70
     1
102
RTVSPropertyOp9
 70
     1
102
RTVSPropertyOp10
 70
     1
102
RTVSPropertyOp11
 70
     1
102
RTVSPropertyOp12
 70
     1
102
RTVSPropertyOp13
 70
     1
102
RTVSPropertyOp14
 70
     1
102
RTVSPropertyOp15
 70
     1
102
RTVSPropertyOp16
 70
     1
102
RTVSPropertyOp17
 70
     1
102
RTVSPropertyOp18
 70
     1
102
RTVSPropertyOp19
 70
     1
102
RTVSPropertyOp20
 70
     1
102
RTVSPropertyOp21
 70
     1
102
RTVSPropertyOp22
 70
     1
102
RTVSPropertyOp23
 70
     1
102
RTVSPropertyOp24
 70
     1
102
RTVSPropertyOp25
 70
     1
102
RTVSPropertyOp26
 70
     1
102
RTVSPropertyOp27
 70
     1
102
RTVSPropertyOp28
 70
     1
102
RTVSPropertyOp29
 70
     1
102
RTVSPropertyOp30
 70
     1
102
RTVSPropertyOp31
 70
     1
102
RTVSPropertyOp32
 70
     1
  0
XRECORD
  5
97F
102
{ACAD_REACTORS
330
97E
102
}
330
97E
100
AcDbXrecord
280
     1
102
RTVSPropertyOp0
 70
     1
102
RTVSPropertyOp1
 70
     1
102
RTVSPropertyOp2
 70
     1
102
RTVSPropertyOp3
 70
     1
102
RTVSPropertyOp4
 70
     1
102
RTVSPropertyOp5
 70
     1
102
RTVSPropertyOp6
 70
     1
102
RTVSPropertyOp7
 70
     1
102
RTVSPropertyOp8
 70
     1
102
RTVSPropertyOp9
 70
     1
102
RTVSPropertyOp10
 70
     1
102
RTVSPropertyOp11
 70
     1
102
RTVSPropertyOp12
 70
     1
102
RTVSPropertyOp13
 70
     1
102
RTVSPropertyOp14
 70
     1
102
RTVSPropertyOp15
 70
     1
102
RTVSPropertyOp16
 70
     1
102
RTVSPropertyOp17
 70
     1
102
RTVSPropertyOp18
 70
     1
102
RTVSPropertyOp19
 70
     1
102
RTVSPropertyOp20
 70
     1
102
RTVSPropertyOp21
 70
     1
102
RTVSPropertyOp22
 70
     1
102
RTVSPropertyOp23
 70
     1
102
RTVSPropertyOp24
 70
     1
102
RTVSPropertyOp25
 70
     1
102
RTVSPropertyOp26
 70
     1
102
RTVSPropertyOp27
 70
     1
102
RTVSPropertyOp28
 70
     1
102
RTVSPropertyOp29
 70
     1
102
RTVSPropertyOp30
 70
     1
102
RTVSPropertyOp31
 70
     1
102
RTVSPropertyOp32
 70
     1
  0
XRECORD
  5
987
102
{ACAD_REACTORS
330
986
102
}
330
986
100
AcDbXrecord
280
     1
102
RTVSPropertyOp0
 70
     1
102
RTVSPropertyOp1
 70
     1
102
RTVSPropertyOp2
 70
     1
102
RTVSPropertyOp3
 70
     1
102
RTVSPropertyOp4
 70
     1
102
RTVSPropertyOp5
 70
     1
102
RTVSPropertyOp6
 70
     1
102
RTVSPropertyOp7
 70
     1
102
RTVSPropertyOp8
 70
     1
102
RTVSPropertyOp9
 70
     1
102
RTVSPropertyOp10
 70
     1
102
RTVSPropertyOp11
 70
     1
102
RTVSPropertyOp12
 70
     1
102
RTVSPropertyOp13
 70
     1
102
RTVSPropertyOp14
 70
     1
102
RTVSPropertyOp15
 70
     1
102
RTVSPropertyOp16
 70
     1
102
RTVSPropertyOp17
 70
     1
102
RTVSPropertyOp18
 70
     1
102
RTVSPropertyOp19
 70
     1
102
RTVSPropertyOp20
 70
     1
102
RTVSPropertyOp21
 70
     1
102
RTVSPropertyOp22
 70
     1
102
RTVSPropertyOp23
 70
     1
102
RTVSPropertyOp24
 70
     1
102
RTVSPropertyOp25
 70
     1
102
RTVSPropertyOp26
 70
     1
102
RTVSPropertyOp27
 70
     1
102
RTVSPropertyOp28
 70
     1
102
RTVSPropertyOp29
 70
     1
102
RTVSPropertyOp30
 70
     1
102
RTVSPropertyOp31
 70
     1
102
RTVSPropertyOp32
 70
     1
  0
XRECORD
  5
9A3
102
{ACAD_REACTORS
330
9A2
102
}
330
9A2
100
AcDbXrecord
280
     1
102
RTVSPropertyOp0
 70
     0
102
RTVSPropertyOp1
 70
     0
102
RTVSPropertyOp2
 70
     0
102
RTVSPropertyOp3
 70
     0
102
RTVSPropertyOp4
 70
     0
102
RTVSPropertyOp5
 70
     0
102
RTVSPropertyOp6
 70
     0
102
RTVSPropertyOp7
 70
     0
102
RTVSPropertyOp8
 70
     0
102
RTVSPropertyOp9
 70
     0
102
RTVSPropertyOp10
 70
     0
102
RTVSPropertyOp11
 70
     0
102
RTVSPropertyOp12
 70
     0
102
RTVSPropertyOp13
 70
     0
102
RTVSPropertyOp14
 70
     2
102
RTVSPropertyOp15
 70
     0
102
RTVSPropertyOp16
 70
     0
102
RTVSPropertyOp17
 70
     0
102
RTVSPropertyOp18
 70
     0
102
RTVSPropertyOp19
 70
     0
102
RTVSPropertyOp20
 70
     0
102
RTVSPropertyOp21
 70
     0
102
RTVSPropertyOp22
 70
     0
102
RTVSPropertyOp23
 70
     0
102
RTVSPropertyOp24
 70
     0
102
RTVSPropertyOp25
 70
     0
102
RTVSPropertyOp26
 70
     0
102
RTVSPropertyOp27
 70
     0
102
RTVSPropertyOp28
 70
     0
102
RTVSPropertyOp29
 70
     0
102
RTVSPropertyOp30
 70
     0
102
RTVSPropertyOp31
 70
     0
102
RTVSPropertyOp32
 70
     0
  0
XRECORD
  5
993
102
{ACAD_REACTORS
330
992
102
}
330
992
100
AcDbXrecord
280
     1
102
RTVSPropertyOp0
 70
     1
102
RTVSPropertyOp1
 70
     1
102
RTVSPropertyOp2
 70
     1
102
RTVSPropertyOp3
 70
     1
102
RTVSPropertyOp4
 70
     1
102
RTVSPropertyOp5
 70
     1
102
RTVSPropertyOp6
 70
     1
102
RTVSPropertyOp7
 70
     1
102
RTVSPropertyOp8
 70
     1
102
RTVSPropertyOp9
 70
     1
102
RTVSPropertyOp10
 70
     1
102
RTVSPropertyOp11
 70
     1
102
RTVSPropertyOp12
 70
     1
102
RTVSPropertyOp13
 70
     1
102
RTVSPropertyOp14
 70
     1
102
RTVSPropertyOp15
 70
     1
102
RTVSPropertyOp16
 70
     1
102
RTVSPropertyOp17
 70
     1
102
RTVSPropertyOp18
 70
     1
102
RTVSPropertyOp19
 70
     1
102
RTVSPropertyOp20
 70
     1
102
RTVSPropertyOp21
 70
     1
102
RTVSPropertyOp22
 70
     1
102
RTVSPropertyOp23
 70
     1
102
RTVSPropertyOp24
 70
     1
102
RTVSPropertyOp25
 70
     1
102
RTVSPropertyOp26
 70
     1
102
RTVSPropertyOp27
 70
     1
102
RTVSPropertyOp28
 70
     1
102
RTVSPropertyOp29
 70
     1
102
RTVSPropertyOp30
 70
     1
102
RTVSPropertyOp31
 70
     1
102
RTVSPropertyOp32
 70
     1
  0
XRECORD
  5
9A5
102
{ACAD_REACTORS
330
9A4
102
}
330
9A4
100
AcDbXrecord
280
     1
102
RTVSPropertyOp0
 70
     0
102
RTVSPropertyOp1
 70
     0
102
RTVSPropertyOp2
 70
     0
102
RTVSPropertyOp3
 70
     0
102
RTVSPropertyOp4
 70
     0
102
RTVSPropertyOp5
 70
     0
102
RTVSPropertyOp6
 70
     0
102
RTVSPropertyOp7
 70
     0
102
RTVSPropertyOp8
 70
     0
102
RTVSPropertyOp9
 70
     0
102
RTVSPropertyOp10
 70
     0
102
RTVSPropertyOp11
 70
     0
102
RTVSPropertyOp12
 70
     0
102
RTVSPropertyOp13
 70
     0
102
RTVSPropertyOp14
 70
     2
102
RTVSPropertyOp15
 70
     0
102
RTVSPropertyOp16
 70
     0
102
RTVSPropertyOp17
 70
     0
102
RTVSPropertyOp18
 70
     0
102
RTVSPropertyOp19
 70
     0
102
RTVSPropertyOp20
 70
     0
102
RTVSPropertyOp21
 70
     0
102
RTVSPropertyOp22
 70
     0
102
RTVSPropertyOp23
 70
     0
102
RTVSPropertyOp24
 70
     0
102
RTVSPropertyOp25
 70
     0
102
RTVSPropertyOp26
 70
     0
102
RTVSPropertyOp27
 70
     0
102
RTVSPropertyOp28
 70
     0
102
RTVSPropertyOp29
 70
     0
102
RTVSPropertyOp30
 70
     0
102
RTVSPropertyOp31
 70
     0
102
RTVSPropertyOp32
 70
     0
  0
XRECORD
  5
98B
102
{ACAD_REACTORS
330
98A
102
}
330
98A
100
AcDbXrecord
280
     1
102
RTVSPropertyOp0
 70
     1
102
RTVSPropertyOp1
 70
     1
102
RTVSPropertyOp2
 70
     1
102
RTVSPropertyOp3
 70
     1
102
RTVSPropertyOp4
 70
     1
102
RTVSPropertyOp5
 70
     1
102
RTVSPropertyOp6
 70
     1
102
RTVSPropertyOp7
 70
     1
102
RTVSPropertyOp8
 70
     1
102
RTVSPropertyOp9
 70
     1
102
RTVSPropertyOp10
 70
     1
102
RTVSPropertyOp11
 70
     1
102
RTVSPropertyOp12
 70
     1
102
RTVSPropertyOp13
 70
     1
102
RTVSPropertyOp14
 70
     1
102
RTVSPropertyOp15
 70
     1
102
RTVSPropertyOp16
 70
     1
102
RTVSPropertyOp17
 70
     1
102
RTVSPropertyOp18
 70
     1
102
RTVSPropertyOp19
 70
     1
102
RTVSPropertyOp20
 70
     1
102
RTVSPropertyOp21
 70
     1
102
RTVSPropertyOp22
 70
     1
102
RTVSPropertyOp23
 70
     1
102
RTVSPropertyOp24
 70
     1
102
RTVSPropertyOp25
 70
     1
102
RTVSPropertyOp26
 70
     1
102
RTVSPropertyOp27
 70
     1
102
RTVSPropertyOp28
 70
     1
102
RTVSPropertyOp29
 70
     1
102
RTVSPropertyOp30
 70
     1
102
RTVSPropertyOp31
 70
     1
102
RTVSPropertyOp32
 70
     1
  0
XRECORD
  5
9A1
102
{ACAD_REACTORS
330
9A0
102
}
330
9A0
100
AcDbXrecord
280
     1
102
RTVSPropertyOp0
 70
     1
102
RTVSPropertyOp1
 70
     1
102
RTVSPropertyOp2
 70
     1
102
RTVSPropertyOp3
 70
     1
102
RTVSPropertyOp4
 70
     1
102
RTVSPropertyOp5
 70
     1
102
RTVSPropertyOp6
 70
     1
102
RTVSPropertyOp7
 70
     1
102
RTVSPropertyOp8
 70
     1
102
RTVSPropertyOp9
 70
     1
102
RTVSPropertyOp10
 70
     1
102
RTVSPropertyOp11
 70
     1
102
RTVSPropertyOp12
 70
     1
102
RTVSPropertyOp13
 70
     1
102
RTVSPropertyOp14
 70
     1
102
RTVSPropertyOp15
 70
     1
102
RTVSPropertyOp16
 70
     1
102
RTVSPropertyOp17
 70
     1
102
RTVSPropertyOp18
 70
     1
102
RTVSPropertyOp19
 70
     1
102
RTVSPropertyOp20
 70
     1
102
RTVSPropertyOp21
 70
     1
102
RTVSPropertyOp22
 70
     1
102
RTVSPropertyOp23
 70
     1
102
RTVSPropertyOp24
 70
     1
102
RTVSPropertyOp25
 70
     1
102
RTVSPropertyOp26
 70
     1
102
RTVSPropertyOp27
 70
     1
102
RTVSPropertyOp28
 70
     1
102
RTVSPropertyOp29
 70
     1
102
RTVSPropertyOp30
 70
     1
102
RTVSPropertyOp31
 70
     1
102
RTVSPropertyOp32
 70
     1
  0
XRECORD
  5
99F
102
{ACAD_REACTORS
330
99E
102
}
330
99E
100
AcDbXrecord
280
     1
102
RTVSPropertyOp0
 70
     1
102
RTVSPropertyOp1
 70
     1
102
RTVSPropertyOp2
 70
     1
102
RTVSPropertyOp3
 70
     1
102
RTVSPropertyOp4
 70
     1
102
RTVSPropertyOp5
 70
     1
102
RTVSPropertyOp6
 70
     1
102
RTVSPropertyOp7
 70
     1
102
RTVSPropertyOp8
 70
     1
102
RTVSPropertyOp9
 70
     1
102
RTVSPropertyOp10
 70
     1
102
RTVSPropertyOp11
 70
     1
102
RTVSPropertyOp12
 70
     1
102
RTVSPropertyOp13
 70
     1
102
RTVSPropertyOp14
 70
     1
102
RTVSPropertyOp15
 70
     1
102
RTVSPropertyOp16
 70
     1
102
RTVSPropertyOp17
 70
     1
102
RTVSPropertyOp18
 70
     1
102
RTVSPropertyOp19
 70
     1
102
RTVSPropertyOp20
 70
     1
102
RTVSPropertyOp21
 70
     1
102
RTVSPropertyOp22
 70
     1
102
RTVSPropertyOp23
 70
     1
102
RTVSPropertyOp24
 70
     1
102
RTVSPropertyOp25
 70
     1
102
RTVSPropertyOp26
 70
     1
102
RTVSPropertyOp27
 70
     1
102
RTVSPropertyOp28
 70
     1
102
RTVSPropertyOp29
 70
     1
102
RTVSPropertyOp30
 70
     1
102
RTVSPropertyOp31
 70
     1
102
RTVSPropertyOp32
 70
     1
  0
XRECORD
  5
999
102
{ACAD_REACTORS
330
998
102
}
330
998
100
AcDbXrecord
280
     1
102
RTVSPropertyOp0
 70
     1
102
RTVSPropertyOp1
 70
     1
102
RTVSPropertyOp2
 70
     1
102
RTVSPropertyOp3
 70
     1
102
RTVSPropertyOp4
 70
     1
102
RTVSPropertyOp5
 70
     1
102
RTVSPropertyOp6
 70
     1
102
RTVSPropertyOp7
 70
     1
102
RTVSPropertyOp8
 70
     1
102
RTVSPropertyOp9
 70
     1
102
RTVSPropertyOp10
 70
     1
102
RTVSPropertyOp11
 70
     1
102
RTVSPropertyOp12
 70
     1
102
RTVSPropertyOp13
 70
     1
102
RTVSPropertyOp14
 70
     1
102
RTVSPropertyOp15
 70
     1
102
RTVSPropertyOp16
 70
     1
102
RTVSPropertyOp17
 70
     1
102
RTVSPropertyOp18
 70
     1
102
RTVSPropertyOp19
 70
     1
102
RTVSPropertyOp20
 70
     1
102
RTVSPropertyOp21
 70
     1
102
RTVSPropertyOp22
 70
     1
102
RTVSPropertyOp23
 70
     1
102
RTVSPropertyOp24
 70
     1
102
RTVSPropertyOp25
 70
     1
102
RTVSPropertyOp26
 70
     1
102
RTVSPropertyOp27
 70
     1
102
RTVSPropertyOp28
 70
     1
102
RTVSPropertyOp29
 70
     1
102
RTVSPropertyOp30
 70
     1
102
RTVSPropertyOp31
 70
     1
102
RTVSPropertyOp32
 70
     1
  0
XRECORD
  5
99B
102
{ACAD_REACTORS
330
99A
102
}
330
99A
100
AcDbXrecord
280
     1
102
RTVSPropertyOp0
 70
     1
102
RTVSPropertyOp1
 70
     1
102
RTVSPropertyOp2
 70
     1
102
RTVSPropertyOp3
 70
     1
102
RTVSPropertyOp4
 70
     1
102
RTVSPropertyOp5
 70
     1
102
RTVSPropertyOp6
 70
     1
102
RTVSPropertyOp7
 70
     1
102
RTVSPropertyOp8
 70
     1
102
RTVSPropertyOp9
 70
     1
102
RTVSPropertyOp10
 70
     1
102
RTVSPropertyOp11
 70
     1
102
RTVSPropertyOp12
 70
     1
102
RTVSPropertyOp13
 70
     1
102
RTVSPropertyOp14
 70
     1
102
RTVSPropertyOp15
 70
     1
102
RTVSPropertyOp16
 70
     1
102
RTVSPropertyOp17
 70
     1
102
RTVSPropertyOp18
 70
     1
102
RTVSPropertyOp19
 70
     1
102
RTVSPropertyOp20
 70
     1
102
RTVSPropertyOp21
 70
     1
102
RTVSPropertyOp22
 70
     1
102
RTVSPropertyOp23
 70
     1
102
RTVSPropertyOp24
 70
     1
102
RTVSPropertyOp25
 70
     1
102
RTVSPropertyOp26
 70
     1
102
RTVSPropertyOp27
 70
     1
102
RTVSPropertyOp28
 70
     1
102
RTVSPropertyOp29
 70
     1
102
RTVSPropertyOp30
 70
     1
102
RTVSPropertyOp31
 70
     1
102
RTVSPropertyOp32
 70
     1
  0
XRECORD
  5
991
102
{ACAD_REACTORS
330
990
102
}
330
990
100
AcDbXrecord
280
     1
102
RTVSPropertyOp0
 70
     1
102
RTVSPropertyOp1
 70
     1
102
RTVSPropertyOp2
 70
     1
102
RTVSPropertyOp3
 70
     1
102
RTVSPropertyOp4
 70
     1
102
RTVSPropertyOp5
 70
     1
102
RTVSPropertyOp6
 70
     1
102
RTVSPropertyOp7
 70
     1
102
RTVSPropertyOp8
 70
     1
102
RTVSPropertyOp9
 70
     1
102
RTVSPropertyOp10
 70
     1
102
RTVSPropertyOp11
 70
     1
102
RTVSPropertyOp12
 70
     1
102
RTVSPropertyOp13
 70
     1
102
RTVSPropertyOp14
 70
     1
102
RTVSPropertyOp15
 70
     1
102
RTVSPropertyOp16
 70
     1
102
RTVSPropertyOp17
 70
     1
102
RTVSPropertyOp18
 70
     1
102
RTVSPropertyOp19
 70
     1
102
RTVSPropertyOp20
 70
     1
102
RTVSPropertyOp21
 70
     1
102
RTVSPropertyOp22
 70
     1
102
RTVSPropertyOp23
 70
     1
102
RTVSPropertyOp24
 70
     1
102
RTVSPropertyOp25
 70
     1
102
RTVSPropertyOp26
 70
     1
102
RTVSPropertyOp27
 70
     1
102
RTVSPropertyOp28
 70
     1
102
RTVSPropertyOp29
 70
     1
102
RTVSPropertyOp30
 70
     1
102
RTVSPropertyOp31
 70
     1
102
RTVSPropertyOp32
 70
     1
  0
XRECORD
  5
985
102
{ACAD_REACTORS
330
984
102
}
330
984
100
AcDbXrecord
280
     1
102
RTVSPropertyOp0
 70
     1
102
RTVSPropertyOp1
 70
     1
102
RTVSPropertyOp2
 70
     1
102
RTVSPropertyOp3
 70
     1
102
RTVSPropertyOp4
 70
     1
102
RTVSPropertyOp5
 70
     1
102
RTVSPropertyOp6
 70
     1
102
RTVSPropertyOp7
 70
     1
102
RTVSPropertyOp8
 70
     1
102
RTVSPropertyOp9
 70
     1
102
RTVSPropertyOp10
 70
     1
102
RTVSPropertyOp11
 70
     1
102
RTVSPropertyOp12
 70
     1
102
RTVSPropertyOp13
 70
     1
102
RTVSPropertyOp14
 70
     1
102
RTVSPropertyOp15
 70
     1
102
RTVSPropertyOp16
 70
     1
102
RTVSPropertyOp17
 70
     1
102
RTVSPropertyOp18
 70
     1
102
RTVSPropertyOp19
 70
     1
102
RTVSPropertyOp20
 70
     1
102
RTVSPropertyOp21
 70
     1
102
RTVSPropertyOp22
 70
     1
102
RTVSPropertyOp23
 70
     1
102
RTVSPropertyOp24
 70
     1
102
RTVSPropertyOp25
 70
     1
102
RTVSPropertyOp26
 70
     1
102
RTVSPropertyOp27
 70
     1
102
RTVSPropertyOp28
 70
     1
102
RTVSPropertyOp29
 70
     1
102
RTVSPropertyOp30
 70
     1
102
RTVSPropertyOp31
 70
     1
102
RTVSPropertyOp32
 70
     1
  0
XRECORD
  5
99D
102
{ACAD_REACTORS
330
99C
102
}
330
99C
100
AcDbXrecord
280
     1
102
RTVSPropertyOp0
 70
     1
102
RTVSPropertyOp1
 70
     1
102
RTVSPropertyOp2
 70
     1
102
RTVSPropertyOp3
 70
     1
102
RTVSPropertyOp4
 70
     1
102
RTVSPropertyOp5
 70
     1
102
RTVSPropertyOp6
 70
     1
102
RTVSPropertyOp7
 70
     1
102
RTVSPropertyOp8
 70
     1
102
RTVSPropertyOp9
 70
     1
102
RTVSPropertyOp10
 70
     1
102
RTVSPropertyOp11
 70
     1
102
RTVSPropertyOp12
 70
     1
102
RTVSPropertyOp13
 70
     1
102
RTVSPropertyOp14
 70
     1
102
RTVSPropertyOp15
 70
     1
102
RTVSPropertyOp16
 70
     1
102
RTVSPropertyOp17
 70
     1
102
RTVSPropertyOp18
 70
     1
102
RTVSPropertyOp19
 70
     1
102
RTVSPropertyOp20
 70
     1
102
RTVSPropertyOp21
 70
     1
102
RTVSPropertyOp22
 70
     1
102
RTVSPropertyOp23
 70
     1
102
RTVSPropertyOp24
 70
     1
102
RTVSPropertyOp25
 70
     1
102
RTVSPropertyOp26
 70
     1
102
RTVSPropertyOp27
 70
     1
102
RTVSPropertyOp28
 70
     1
102
RTVSPropertyOp29
 70
     1
102
RTVSPropertyOp30
 70
     1
102
RTVSPropertyOp31
 70
     1
102
RTVSPropertyOp32
 70
     1
  0
ENDSEC
  0
EOF
