  0
SECTION
  2
HEADER
  9
$ACADVER
  1
AC1015
  9
$ACADMAINTVER
 70
    20
  9
$DWGCODEPAGE
  3
ANSI_932
  9
$INSBASE
 10
0.0
 20
0.0
 30
0.0
  9
$EXTMIN
 10
-210.0
 20
-138.5
 30
0.0
  9
$EXTMAX
 10
195.0
 20
138.5
 30
0.0
  9
$LIMMIN
 10
-210.001
 20
-138.501
  9
$LIMMAX
 10
195.0009999999999
 20
138.501
  9
$ORTHOMODE
 70
     1
  9
$REGENMODE
 70
     1
  9
$FILLMODE
 70
     1
  9
$QTEXTMODE
 70
     0
  9
$MIRRTEXT
 70
     0
  9
$LTSCALE
 40
6.75
  9
$ATTMODE
 70
     1
  9
$TEXTSIZE
 40
3.2
  9
$TRACEWID
 40
0.05
  9
$TEXTSTYLE
  7
高3.2
  9
$CLAYER
  8
0
  9
$CELTYPE
  6
ByLayer
  9
$CECOLOR
 62
   256
  9
$CELTSCALE
 40
1.0
  9
$DISPSILH
 70
     0
  9
$DIMSCALE
 40
1.0
  9
$DIMASZ
 40
2.5
  9
$DIMEXO
 40
0.25
  9
$DIMDLI
 40
0.2
  9
$DIMRND
 40
0.0
  9
$DIMDLE
 40
0.0
  9
$DIMEXE
 40
1.25
  9
$DIMTP
 40
0.0
  9
$DIMTM
 40
0.0
  9
$DIMTXT
 40
3.0
  9
$DIMCEN
 40
0.0
  9
$DIMTSZ
 40
0.0
  9
$DIMTOL
 70
     0
  9
$DIMLIM
 70
     0
  9
$DIMTIH
 70
     0
  9
$DIMTOH
 70
     0
  9
$DIMSE1
 70
     0
  9
$DIMSE2
 70
     0
  9
$DIMTAD
 70
     3
  9
$DIMZIN
 70
     8
  9
$DIMBLK
  1
Open30
  9
$DIMASO
 70
     1
  9
$DIMSHO
 70
     1
  9
$DIMPOST
  1

  9
$DIMAPOST
  1

  9
$DIMALT
 70
     0
  9
$DIMALTD
 70
     3
  9
$DIMALTF
 40
0.03937007874016
  9
$DIMLFAC
 40
1.0
  9
$DIMTOFL
 70
     1
  9
$DIMTVP
 40
0.0
  9
$DIMTIX
 70
     0
  9
$DIMSOXD
 70
     0
  9
$DIMSAH
 70
     0
  9
$DIMBLK1
  1

  9
$DIMBLK2
  1

  9
$DIMSTYLE
  2
FREE
  9
$DIMCLRD
 70
     0
  9
$DIMCLRE
 70
     0
  9
$DIMCLRT
 70
     4
  9
$DIMTFAC
 40
1.0
  9
$DIMGAP
 40
0.625
  9
$DIMJUST
 70
     0
  9
$DIMSD1
 70
     0
  9
$DIMSD2
 70
     0
  9
$DIMTOLJ
 70
     0
  9
$DIMTZIN
 70
     8
  9
$DIMALTZ
 70
     0
  9
$DIMALTTZ
 70
     0
  9
$DIMUPT
 70
     1
  9
$DIMDEC
 70
     2
  9
$DIMTDEC
 70
     2
  9
$DIMALTU
 70
     2
  9
$DIMALTTD
 70
     3
  9
$DIMTXSTY
  7
STANDARD
  9
$DIMAUNIT
 70
     0
  9
$DIMADEC
 70
     1
  9
$DIMALTRND
 40
0.0
  9
$DIMAZIN
 70
     2
  9
$DIMDSEP
 70
    46
  9
$DIMATFIT
 70
     0
  9
$DIMFRAC
 70
     0
  9
$DIMLDRBLK
  1
Open30
  9
$DIMLUNIT
 70
     2
  9
$DIMLWD
 70
    -2
  9
$DIMLWE
 70
    -2
  9
$DIMTMOVE
 70
     0
  9
$LUNITS
 70
     2
  9
$LUPREC
 70
     4
  9
$SKETCHINC
 40
0.1
  9
$FILLETRAD
 40
0.0
  9
$AUNITS
 70
     0
  9
$AUPREC
 70
     0
  9
$MENU
  1
.
  9
$ELEVATION
 40
0.0
  9
$PELEVATION
 40
0.0
  9
$THICKNESS
 40
0.0
  9
$LIMCHECK
 70
     0
  9
$CHAMFERA
 40
0.0
  9
$CHAMFERB
 40
0.0
  9
$CHAMFERC
 40
0.0
  9
$CHAMFERD
 40
0.0
  9
$SKPOLY
 70
     0
  9
$TDCREATE
 40
2456346.552041019
  9
$TDUCREATE
 40
2456346.177041019
  9
$TDUPDATE
 40
2459893.543177454
  9
$TDUUPDATE
 40
2459893.168177454
  9
$TDINDWG
 40
0.1041752894
  9
$TDUSRTIMER
 40
0.1041669329
  9
$USRTIMER
 70
     1
  9
$ANGBASE
 50
0.0
  9
$ANGDIR
 70
     0
  9
$PDMODE
 70
     0
  9
$PDSIZE
 40
0.0
  9
$PLINEWID
 40
0.0
  9
$SPLFRAME
 70
     0
  9
$SPLINETYPE
 70
     6
  9
$SPLINESEGS
 70
     8
  9
$HANDSEED
  5
B0F
  9
$SURFTAB1
 70
     6
  9
$SURFTAB2
 70
     6
  9
$SURFTYPE
 70
     6
  9
$SURFU
 70
     6
  9
$SURFV
 70
     6
  9
$UCSBASE
  2

  9
$UCSNAME
  2

  9
$UCSORG
 10
0.0
 20
0.0
 30
0.0
  9
$UCSXDIR
 10
1.0
 20
0.0
 30
0.0
  9
$UCSYDIR
 10
0.0
 20
1.0
 30
0.0
  9
$UCSORTHOREF
  2

  9
$UCSORTHOVIEW
 70
     0
  9
$UCSORGTOP
 10
0.0
 20
0.0
 30
0.0
  9
$UCSORGBOTTOM
 10
0.0
 20
0.0
 30
0.0
  9
$UCSORGLEFT
 10
0.0
 20
0.0
 30
0.0
  9
$UCSORGRIGHT
 10
0.0
 20
0.0
 30
0.0
  9
$UCSORGFRONT
 10
0.0
 20
0.0
 30
0.0
  9
$UCSORGBACK
 10
0.0
 20
0.0
 30
0.0
  9
$PUCSBASE
  2

  9
$PUCSNAME
  2

  9
$PUCSORG
 10
0.0
 20
0.0
 30
0.0
  9
$PUCSXDIR
 10
1.0
 20
0.0
 30
0.0
  9
$PUCSYDIR
 10
0.0
 20
1.0
 30
0.0
  9
$PUCSORTHOREF
  2

  9
$PUCSORTHOVIEW
 70
     0
  9
$PUCSORGTOP
 10
0.0
 20
0.0
 30
0.0
  9
$PUCSORGBOTTOM
 10
0.0
 20
0.0
 30
0.0
  9
$PUCSORGLEFT
 10
0.0
 20
0.0
 30
0.0
  9
$PUCSORGRIGHT
 10
0.0
 20
0.0
 30
0.0
  9
$PUCSORGFRONT
 10
0.0
 20
0.0
 30
0.0
  9
$PUCSORGBACK
 10
0.0
 20
0.0
 30
0.0
  9
$USERI1
 70
     0
  9
$USERI2
 70
     0
  9
$USERI3
 70
     0
  9
$USERI4
 70
     0
  9
$USERI5
 70
     0
  9
$USERR1
 40
0.0
  9
$USERR2
 40
0.0
  9
$USERR3
 40
0.0
  9
$USERR4
 40
0.0
  9
$USERR5
 40
0.0
  9
$WORLDVIEW
 70
     1
  9
$SHADEDGE
 70
     3
  9
$SHADEDIF
 70
    70
  9
$TILEMODE
 70
     1
  9
$MAXACTVP
 70
    64
  9
$PINSBASE
 10
0.0
 20
0.0
 30
0.0
  9
$PLIMCHECK
 70
     0
  9
$PEXTMIN
 10
1.000000000000000E+20
 20
1.000000000000000E+20
 30
1.000000000000000E+20
  9
$PEXTMAX
 10
-1.000000000000000E+20
 20
-1.000000000000000E+20
 30
-1.000000000000000E+20
  9
$PLIMMIN
 10
0.0
 20
0.0
  9
$PLIMMAX
 10
12.0
 20
9.0
  9
$UNITMODE
 70
     0
  9
$VISRETAIN
 70
     1
  9
$PLINEGEN
 70
     0
  9
$PSLTSCALE
 70
     1
  9
$TREEDEPTH
 70
  3020
  9
$CMLSTYLE
  2
Standard
  9
$CMLJUST
 70
     0
  9
$CMLSCALE
 40
1.0
  9
$PROXYGRAPHICS
 70
     1
  9
$MEASUREMENT
 70
     0
  9
$CELWEIGHT
370
    -1
  9
$ENDCAPS
280
     0
  9
$JOINSTYLE
280
     0
  9
$LWDISPLAY
290
     0
  9
$INSUNITS
 70
     0
  9
$HYPERLINKBASE
  1

  9
$STYLESHEET
  1

  9
$XEDIT
290
     1
  9
$CEPSNTYPE
380
     0
  9
$PSTYLEMODE
290
     1
  9
$FINGERPRINTGUID
  2
{DC253FF0-2488-4570-AED9-CA346F5CD179}
  9
$VERSIONGUID
  2
{50C17E77-AB00-43A4-ABF9-B3CB3AF5CA55}
  9
$EXTNAMES
290
     1
  9
$PSVPSCALE
 40
0.0
  9
$OLESTARTUP
290
     0
  0
ENDSEC
  0
SECTION
  2
CLASSES
  0
CLASS
  1
ACDBDICTIONARYWDFLT
  2
AcDbDictionaryWithDefault
  3
ObjectDBX Classes
 90
        0
280
     0
281
     0
  0
CLASS
  1
MATERIAL
  2
AcDbMaterial
  3
ObjectDBX Classes
 90
     1153
280
     0
281
     0
  0
CLASS
  1
VISUALSTYLE
  2
AcDbVisualStyle
  3
ObjectDBX Classes
 90
     4095
280
     0
281
     0
  0
CLASS
  1
SCALE
  2
AcDbScale
  3
ObjectDBX Classes
 90
     1153
280
     0
281
     0
  0
CLASS
  1
TABLESTYLE
  2
AcDbTableStyle
  3
ObjectDBX Classes
 90
     4095
280
     0
281
     0
  0
CLASS
  1
MLEADERSTYLE
  2
AcDbMLeaderStyle
  3
ACDB_MLEADERSTYLE_CLASS
 90
     4095
280
     0
281
     0
  0
CLASS
  1
SORTENTSTABLE
  2
AcDbSortentsTable
  3
ObjectDBX Classes
 90
        0
280
     0
281
     0
  0
CLASS
  1
DICTIONARYVAR
  2
AcDbDictionaryVar
  3
ObjectDBX Classes
 90
        0
280
     0
281
     0
  0
CLASS
  1
CELLSTYLEMAP
  2
AcDbCellStyleMap
  3
ObjectDBX Classes
 90
     1152
280
     0
281
     0
  0
CLASS
  1
ACDBPLACEHOLDER
  2
AcDbPlaceHolder
  3
ObjectDBX Classes
 90
        0
280
     0
281
     0
  0
CLASS
  1
LAYOUT
  2
AcDbLayout
  3
ObjectDBX Classes
 90
        0
280
     0
281
     0
  0
ENDSEC
  0
SECTION
  2
TABLES
  0
TABLE
  2
VPORT
  5
8
330
0
100
AcDbSymbolTable
 70
     1
  0
VPORT
  5
8B
330
8
100
AcDbSymbolTableRecord
100
AcDbViewportTableRecord
  2
*Active
 70
     0
 10
0.0
 20
0.0
 11
1.0
 21
1.0
 12
-23.89580755705737
 22
-20.34712990205469
 13
0.0
 23
0.0
 14
1.0
 24
1.0
 15
0.0
 25
0.0
 16
0.0
 26
0.0
 36
1.0
 17
0.0
 27
0.0
 37
0.0
 40
568.7145988984668
 41
1.201101928374655
 42
50.0
 43
0.0
 44
0.0
 50
0.0
 51
0.0
 71
     0
 72
   100
 73
     1
 74
     1
 75
     0
 76
     0
 77
     0
 78
     0
281
     0
 65
     1
110
0.0
120
0.0
130
0.0
111
1.0
121
0.0
131
0.0
112
0.0
122
1.0
132
0.0
 79
     0
146
0.0
  0
ENDTAB
  0
TABLE
  2
LTYPE
  5
5
330
0
100
AcDbSymbolTable
 70
     2
  0
LTYPE
  5
5A
330
5
100
AcDbSymbolTableRecord
100
AcDbLinetypeTableRecord
  2
ByBlock
 70
     0
  3

 72
    65
 73
     0
 40
0.0
  0
LTYPE
  5
5B
330
5
100
AcDbSymbolTableRecord
100
AcDbLinetypeTableRecord
  2
ByLayer
 70
     0
  3

 72
    65
 73
     0
 40
0.0
  0
LTYPE
  5
5C
330
5
100
AcDbSymbolTableRecord
100
AcDbLinetypeTableRecord
  2
CONTINUOUS
 70
     0
  3
Solid-line
 72
    65
 73
     0
 40
0.0
  0
ENDTAB
  0
TABLE
  2
LAYER
  5
2
102
{ACAD_XDICTIONARY
360
447
102
}
330
0
100
AcDbSymbolTable
 70
     2
  0
LAYER
  5
54
102
{ACAD_XDICTIONARY
360
606
102
}
330
2
100
AcDbSymbolTableRecord
100
AcDbLayerTableRecord
  2
0
 70
     0
 62
     7
  6
CONTINUOUS
370
    -3
390
F
  0
LAYER
  5
430
330
2
100
AcDbSymbolTableRecord
100
AcDbLayerTableRecord
  2
Defpoints
 70
     0
 62
     7
  6
CONTINUOUS
290
     0
370
    -3
390
F
  0
ENDTAB
  0
TABLE
  2
STYLE
  5
3
330
0
100
AcDbSymbolTable
 70
     6
  0
STYLE
  5
55
330
3
100
AcDbSymbolTableRecord
100
AcDbTextStyleTableRecord
  2
STANDARD
 70
     0
 40
0.0
 41
1.0
 50
0.0
 71
     0
 42
0.2
  3
TXT
  4
BIGFONT
  0
STYLE
  5
431
330
3
100
AcDbSymbolTableRecord
100
AcDbTextStyleTableRecord
  2
高3.2
 70
     0
 40
3.2
 41
1.0
 50
0.0
 71
     0
 42
3.2
  3
txt.shx
  4
bigfont.shx
  0
STYLE
  5
432
330
3
100
AcDbSymbolTableRecord
100
AcDbTextStyleTableRecord
  2
高6.3
 70
     0
 40
6.299999999999998
 41
1.0
 50
0.0
 71
     0
 42
6.299999999999998
  3
txt.shx
  4
bigfont.shx
  0
STYLE
  5
434
330
3
100
AcDbSymbolTableRecord
100
AcDbTextStyleTableRecord
  2
高4.5
 70
     0
 40
4.5
 41
1.0
 50
0.0
 71
     0
 42
6.299999999999998
  3
txt.shx
  4
bigfont.shx
  0
STYLE
  5
435
330
3
100
AcDbSymbolTableRecord
100
AcDbTextStyleTableRecord
  2
高2
 70
     0
 40
2.0
 41
1.0
 50
0.0
 71
     0
 42
2.0
  3
txt.shx
  4
bigfont.shx
  0
STYLE
  5
77C
330
3
100
AcDbSymbolTableRecord
100
AcDbTextStyleTableRecord
  2
高2.5
 70
     0
 40
2.5
 41
1.0
 50
0.0
 71
     0
 42
0.2
  3
txt.shx
  4
bigfont.shx
  0
ENDTAB
  0
TABLE
  2
VIEW
  5
6
330
0
100
AcDbSymbolTable
 70
     0
  0
ENDTAB
  0
TABLE
  2
UCS
  5
7
330
0
100
AcDbSymbolTable
 70
     0
  0
ENDTAB
  0
TABLE
  2
APPID
  5
9
330
0
100
AcDbSymbolTable
 70
    10
  0
APPID
  5
56
330
9
100
AcDbSymbolTableRecord
100
AcDbRegAppTableRecord
  2
ACAD
 70
     0
  0
APPID
  5
5D
330
9
100
AcDbSymbolTableRecord
100
AcDbRegAppTableRecord
  2
AcadAnnotative
 70
     0
  0
APPID
  5
440
330
9
100
AcDbSymbolTableRecord
100
AcDbRegAppTableRecord
  2
ACAD_DSTYLE_DIMJOGGED_JOGANGLE_SYMBOL
 70
     0
  0
APPID
  5
441
330
9
100
AcDbSymbolTableRecord
100
AcDbRegAppTableRecord
  2
ACAD_DSTYLE_DIMJAG
 70
     0
  0
APPID
  5
442
330
9
100
AcDbSymbolTableRecord
100
AcDbRegAppTableRecord
  2
ACAD_DSTYLE_DIMBREAK
 70
     0
  0
APPID
  5
443
330
9
100
AcDbSymbolTableRecord
100
AcDbRegAppTableRecord
  2
ACAD_DSTYLE_DIMTALN
 70
     0
  0
APPID
  5
587
330
9
100
AcDbSymbolTableRecord
100
AcDbRegAppTableRecord
  2
ACAD_EXEMPT_FROM_CAD_STANDARDS
 70
     0
  0
APPID
  5
64C
330
9
100
AcDbSymbolTableRecord
100
AcDbRegAppTableRecord
  2
ACAD_MLEADERVER
 70
     0
  0
APPID
  5
651
330
9
100
AcDbSymbolTableRecord
100
AcDbRegAppTableRecord
  2
ACAD_DSTYLE_DIMARC_LENGTH_SYMBOL
 70
     0
  0
APPID
  5
652
330
9
100
AcDbSymbolTableRecord
100
AcDbRegAppTableRecord
  2
ACAD_DSTYLE_DIMEXT_LENGTH
 70
     0
  0
ENDTAB
  0
TABLE
  2
DIMSTYLE
  5
A
330
0
100
AcDbSymbolTable
 70
    11
100
AcDbDimStyleTable
 71
     1
340
43F
  0
DIMSTYLE
105
57
330
A
100
AcDbSymbolTableRecord
100
AcDbDimStyleTableRecord
  2
Standard
 70
     0
340
55
  0
DIMSTYLE
105
43F
330
A
100
AcDbSymbolTableRecord
100
AcDbDimStyleTableRecord
  2
FREE
 70
     0
 41
2.5
 42
0.25
 43
0.2
 44
1.25
 73
     0
 74
     0
 77
     3
 78
     8
 79
     2
140
3.0
141
0.0
143
0.03937007874016
147
0.625
171
     3
172
     1
178
     4
179
     1
271
     2
272
     2
274
     3
283
     0
284
     8
288
     1
289
     0
340
55
341
3A0
342
3A0
1001
ACAD_DSTYLE_DIMBREAK
1070
   391
1040
3.75
1001
ACAD_DSTYLE_DIMJAG
1070
   388
1040
1.5
1001
ACAD_DSTYLE_DIMTALN
1070
   392
1070
     0
1001
ACAD_DSTYLE_DIMARC_LENGTH_SYMBOL
1070
   379
1070
     2
1001
ACAD_DSTYLE_DIMEXT_LENGTH
1070
   378
1040
1.25
1001
ACAD_DSTYLE_DIMJOGGED_JOGANGLE_SYMBOL
1070
   384
1040
1.570796326794896
  0
DIMSTYLE
105
77D
330
A
100
AcDbSymbolTableRecord
100
AcDbDimStyleTableRecord
  2
1：1
 70
     0
 41
2.5
 42
0.25
 43
0.2
 44
1.25
 73
     0
 74
     0
 77
     3
 78
     8
 79
     2
140
3.0
141
0.0
143
0.03937007874016
147
0.625
171
     3
172
     1
178
     4
179
     1
271
     2
272
     2
274
     3
283
     0
284
     8
288
     1
289
     0
340
55
341
3A0
342
3A0
1001
ACAD_DSTYLE_DIMARC_LENGTH_SYMBOL
1070
   379
1070
     2
1001
ACAD_DSTYLE_DIMEXT_LENGTH
1070
   378
1040
1.25
1001
ACAD_DSTYLE_DIMJOGGED_JOGANGLE_SYMBOL
1070
   384
1040
1.570796326794896
  0
DIMSTYLE
105
77E
330
A
100
AcDbSymbolTableRecord
100
AcDbDimStyleTableRecord
  2
2：1
 70
     0
 41
2.5
 42
0.25
 43
0.2
 44
1.25
 73
     0
 74
     0
 77
     3
 78
     8
 79
     2
140
3.0
141
0.0
143
0.03937007874016
144
0.5
147
0.625
171
     3
172
     1
178
     4
179
     1
271
     2
272
     2
274
     3
283
     0
284
     8
288
     1
289
     0
340
55
341
3A0
342
3A0
1001
ACAD_DSTYLE_DIMARC_LENGTH_SYMBOL
1070
   379
1070
     2
1001
ACAD_DSTYLE_DIMEXT_LENGTH
1070
   378
1040
1.25
1001
ACAD_DSTYLE_DIMJOGGED_JOGANGLE_SYMBOL
1070
   384
1040
1.570796326794896
  0
DIMSTYLE
105
77F
330
A
100
AcDbSymbolTableRecord
100
AcDbDimStyleTableRecord
  2
5：1
 70
     0
 41
2.5
 42
0.25
 43
0.2
 44
1.25
 73
     0
 74
     0
 77
     3
 78
     8
 79
     2
140
3.0
141
0.0
143
0.03937007874016
144
0.2
147
0.625
171
     3
172
     1
178
     4
179
     1
271
     2
272
     2
274
     3
283
     0
284
     8
288
     1
289
     0
340
55
341
3A0
342
3A0
1001
ACAD_DSTYLE_DIMARC_LENGTH_SYMBOL
1070
   379
1070
     2
1001
ACAD_DSTYLE_DIMEXT_LENGTH
1070
   378
1040
1.25
1001
ACAD_DSTYLE_DIMJOGGED_JOGANGLE_SYMBOL
1070
   384
1040
1.570796326794896
  0
DIMSTYLE
105
780
330
A
100
AcDbSymbolTableRecord
100
AcDbDimStyleTableRecord
  2
10：1
 70
     0
 41
2.5
 42
0.25
 43
0.2
 44
1.25
 73
     0
 74
     0
 77
     3
 78
     8
 79
     2
140
3.0
141
0.0
143
0.03937007874016
144
0.1
147
0.625
171
     3
172
     1
178
     4
179
     1
271
     2
272
     2
274
     3
283
     0
284
     8
288
     1
289
     0
340
55
341
3A0
342
3A0
1001
ACAD_DSTYLE_DIMARC_LENGTH_SYMBOL
1070
   379
1070
     2
1001
ACAD_DSTYLE_DIMEXT_LENGTH
1070
   378
1040
1.25
1001
ACAD_DSTYLE_DIMJOGGED_JOGANGLE_SYMBOL
1070
   384
1040
1.570796326794896
  0
DIMSTYLE
105
781
330
A
100
AcDbSymbolTableRecord
100
AcDbDimStyleTableRecord
  2
1／2
 70
     0
 41
2.5
 42
0.25
 43
0.2
 44
1.25
 73
     0
 74
     0
 77
     3
 78
     8
 79
     2
140
3.0
141
0.0
143
0.03937007874016
144
2.0
147
0.625
171
     3
172
     1
178
     4
179
     1
271
     2
272
     2
274
     3
283
     0
284
     8
288
     1
289
     0
340
55
341
3A0
342
3A0
1001
ACAD_DSTYLE_DIMARC_LENGTH_SYMBOL
1070
   379
1070
     2
1001
ACAD_DSTYLE_DIMEXT_LENGTH
1070
   378
1040
1.25
1001
ACAD_DSTYLE_DIMJOGGED_JOGANGLE_SYMBOL
1070
   384
1040
1.570796326794896
  0
DIMSTYLE
105
782
330
A
100
AcDbSymbolTableRecord
100
AcDbDimStyleTableRecord
  2
1／5
 70
     0
 41
2.5
 42
0.25
 43
0.2
 44
1.25
 73
     0
 74
     0
 77
     3
 78
     8
 79
     2
140
3.0
141
0.0
143
0.03937007874016
144
5.0
147
0.625
171
     3
172
     1
178
     4
179
     1
271
     2
272
     2
274
     3
283
     0
284
     8
288
     1
289
     0
340
55
341
3A0
342
3A0
1001
ACAD_DSTYLE_DIMARC_LENGTH_SYMBOL
1070
   379
1070
     2
1001
ACAD_DSTYLE_DIMEXT_LENGTH
1070
   378
1040
1.25
1001
ACAD_DSTYLE_DIMJOGGED_JOGANGLE_SYMBOL
1070
   384
1040
1.570796326794896
  0
DIMSTYLE
105
783
330
A
100
AcDbSymbolTableRecord
100
AcDbDimStyleTableRecord
  2
1／10
 70
     0
 41
2.5
 42
0.25
 43
0.2
 44
1.25
 73
     0
 74
     0
 77
     3
 78
     8
 79
     2
140
3.0
141
0.0
143
0.03937007874016
144
10.0
147
0.625
171
     3
172
     1
178
     4
179
     1
271
     2
272
     2
274
     3
283
     0
284
     8
288
     1
289
     0
340
55
341
3A0
342
3A0
1001
ACAD_DSTYLE_DIMARC_LENGTH_SYMBOL
1070
   379
1070
     2
1001
ACAD_DSTYLE_DIMEXT_LENGTH
1070
   378
1040
1.25
1001
ACAD_DSTYLE_DIMJOGGED_JOGANGLE_SYMBOL
1070
   384
1040
1.570796326794896
  0
DIMSTYLE
105
784
330
A
100
AcDbSymbolTableRecord
100
AcDbDimStyleTableRecord
  2
1／4
 70
     0
 41
2.5
 42
0.25
 43
0.2
 44
1.25
 73
     0
 74
     0
 77
     3
 78
     8
 79
     2
140
3.0
141
0.0
143
0.03937007874016
144
4.0
147
0.625
171
     3
172
     1
178
     4
179
     1
271
     2
272
     2
274
     3
283
     0
284
     8
288
     1
289
     0
340
55
341
3A0
342
3A0
1001
ACAD_DSTYLE_DIMARC_LENGTH_SYMBOL
1070
   379
1070
     2
1001
ACAD_DSTYLE_DIMEXT_LENGTH
1070
   378
1040
1.25
1001
ACAD_DSTYLE_DIMJOGGED_JOGANGLE_SYMBOL
1070
   384
1040
1.570796326794896
  0
DIMSTYLE
105
785
330
A
100
AcDbSymbolTableRecord
100
AcDbDimStyleTableRecord
  2
1／3
 70
     0
 41
2.5
 42
0.25
 43
0.2
 44
1.25
 73
     0
 74
     0
 77
     3
 78
     8
 79
     2
140
3.0
141
0.0
143
0.03937007874016
144
3.0
147
0.625
171
     3
172
     1
178
     4
179
     1
271
     2
272
     2
274
     3
283
     0
284
     8
288
     1
289
     0
340
55
341
3A0
342
3A0
1001
ACAD_DSTYLE_DIMARC_LENGTH_SYMBOL
1070
   379
1070
     2
1001
ACAD_DSTYLE_DIMEXT_LENGTH
1070
   378
1040
1.25
1001
ACAD_DSTYLE_DIMJOGGED_JOGANGLE_SYMBOL
1070
   384
1040
1.570796326794896
  0
ENDTAB
  0
TABLE
  2
BLOCK_RECORD
  5
1
330
0
100
AcDbSymbolTable
 70
    24
  0
BLOCK_RECORD
  5
6B
102
{ACAD_XDICTIONARY
360
5DB
102
}
330
1
100
AcDbSymbolTableRecord
100
AcDbBlockTableRecord
  2
*Model_Space
340
6E
  0
BLOCK_RECORD
  5
67
330
1
100
AcDbSymbolTableRecord
100
AcDbBlockTableRecord
  2
*Paper_Space
340
6A
  0
BLOCK_RECORD
  5
3A0
330
1
100
AcDbSymbolTableRecord
100
AcDbBlockTableRecord
  2
_Open30
340
0
102
{BLKREFS
331
6F9
331
6FA
331
707
331
708
331
715
331
716
331
723
331
724
331
731
331
732
331
73F
331
740
331
74D
331
74E
331
75B
331
75C
331
769
331
76A
331
775
331
776
331
831
331
832
331
83C
331
83D
331
847
331
848
331
852
331
853
331
85D
331
85E
331
868
331
869
331
873
331
874
331
87E
331
87F
331
889
331
88A
331
892
331
893
331
9B0
331
9B1
331
9CC
331
9CD
331
9D5
331
9D6
102
}
  0
BLOCK_RECORD
  5
589
330
1
100
AcDbSymbolTableRecord
100
AcDbBlockTableRecord
  2
*D1
340
0
  0
BLOCK_RECORD
  5
596
330
1
100
AcDbSymbolTableRecord
100
AcDbBlockTableRecord
  2
*D2
340
0
  0
BLOCK_RECORD
  5
5A3
330
1
100
AcDbSymbolTableRecord
100
AcDbBlockTableRecord
  2
*D3
340
0
  0
BLOCK_RECORD
  5
6F2
330
1
100
AcDbSymbolTableRecord
100
AcDbBlockTableRecord
  2
*D4
340
0
  0
BLOCK_RECORD
  5
700
330
1
100
AcDbSymbolTableRecord
100
AcDbBlockTableRecord
  2
*D5
340
0
  0
BLOCK_RECORD
  5
70E
330
1
100
AcDbSymbolTableRecord
100
AcDbBlockTableRecord
  2
*D6
340
0
  0
BLOCK_RECORD
  5
71C
330
1
100
AcDbSymbolTableRecord
100
AcDbBlockTableRecord
  2
*D7
340
0
  0
BLOCK_RECORD
  5
72A
330
1
100
AcDbSymbolTableRecord
100
AcDbBlockTableRecord
  2
*D8
340
0
  0
BLOCK_RECORD
  5
738
330
1
100
AcDbSymbolTableRecord
100
AcDbBlockTableRecord
  2
*D9
340
0
  0
BLOCK_RECORD
  5
746
330
1
100
AcDbSymbolTableRecord
100
AcDbBlockTableRecord
  2
*D10
340
0
  0
BLOCK_RECORD
  5
754
330
1
100
AcDbSymbolTableRecord
100
AcDbBlockTableRecord
  2
*D11
340
0
  0
BLOCK_RECORD
  5
762
330
1
100
AcDbSymbolTableRecord
100
AcDbBlockTableRecord
  2
*D12
340
0
  0
BLOCK_RECORD
  5
770
330
1
100
AcDbSymbolTableRecord
100
AcDbBlockTableRecord
  2
*D13
340
0
  0
BLOCK_RECORD
  5
7A2
330
1
100
AcDbSymbolTableRecord
100
AcDbBlockTableRecord
  2
*D14
340
0
  0
BLOCK_RECORD
  5
7B0
330
1
100
AcDbSymbolTableRecord
100
AcDbBlockTableRecord
  2
*D15
340
0
  0
BLOCK_RECORD
  5
7BE
330
1
100
AcDbSymbolTableRecord
100
AcDbBlockTableRecord
  2
*D16
340
0
  0
BLOCK_RECORD
  5
7CC
330
1
100
AcDbSymbolTableRecord
100
AcDbBlockTableRecord
  2
*D17
340
0
  0
BLOCK_RECORD
  5
7DA
330
1
100
AcDbSymbolTableRecord
100
AcDbBlockTableRecord
  2
*D18
340
0
  0
BLOCK_RECORD
  5
7E8
330
1
100
AcDbSymbolTableRecord
100
AcDbBlockTableRecord
  2
*D19
340
0
  0
BLOCK_RECORD
  5
7F6
330
1
100
AcDbSymbolTableRecord
100
AcDbBlockTableRecord
  2
*D20
340
0
  0
BLOCK_RECORD
  5
804
330
1
100
AcDbSymbolTableRecord
100
AcDbBlockTableRecord
  2
*D21
340
0
  0
BLOCK_RECORD
  5
812
330
1
100
AcDbSymbolTableRecord
100
AcDbBlockTableRecord
  2
*D22
340
0
  0
BLOCK_RECORD
  5
820
330
1
100
AcDbSymbolTableRecord
100
AcDbBlockTableRecord
  2
*D23
340
0
  0
ENDTAB
  0
ENDSEC
  0
SECTION
  2
BLOCKS
  0
BLOCK
  5
6C
330
6B
100
AcDbEntity
  8
0
100
AcDbBlockBegin
  2
*Model_Space
 70
     0
 10
0.0
 20
0.0
 30
0.0
  3
*Model_Space
  1

  0
ENDBLK
  5
6D
330
6B
100
AcDbEntity
  8
0
100
AcDbBlockEnd
  0
BLOCK
  5
68
330
67
100
AcDbEntity
 67
     1
  8
0
100
AcDbBlockBegin
  2
*Paper_Space
 70
     0
 10
0.0
 20
0.0
 30
0.0
  3
*Paper_Space
  1

  0
ENDBLK
  5
69
330
67
100
AcDbEntity
 67
     1
  8
0
100
AcDbBlockEnd
  0
BLOCK
  5
3A1
330
3A0
100
AcDbEntity
  8
0
100
AcDbBlockBegin
  2
_Open30
 70
     0
 10
0.0
 20
0.0
 30
0.0
  3
_Open30
  1

  0
LINE
  5
3A2
330
3A0
100
AcDbEntity
  8
0
  6
ByBlock
 62
     0
370
    -2
100
AcDbLine
 10
-1.0
 20
0.267949
 30
0.0
 11
0.0
 21
0.0
 31
0.0
  0
LINE
  5
3A3
330
3A0
100
AcDbEntity
  8
0
  6
ByBlock
 62
     0
370
    -2
100
AcDbLine
 10
0.0
 20
0.0
 30
0.0
 11
-1.0
 21
-0.267949
 31
0.0
  0
LINE
  5
3A4
330
3A0
100
AcDbEntity
  8
0
  6
ByBlock
 62
     0
370
    -2
100
AcDbLine
 10
0.0
 20
0.0
 30
0.0
 11
-1.0
 21
0.0
 31
0.0
  0
ENDBLK
  5
3A5
330
3A0
100
AcDbEntity
  8
0
100
AcDbBlockEnd
  0
BLOCK
  5
58A
330
589
100
AcDbEntity
  8
0
100
AcDbBlockBegin
  2
*D1
 70
     1
 10
0.0
 20
0.0
 30
0.0
  3
*D1
  1

  0
LINE
  5
9C9
330
589
100
AcDbEntity
  8
0
 62
     0
370
    -2
100
AcDbLine
 10
-8.362251999999998
 20
25.217111
 30
0.0
 11
-8.362251999999999
 21
3.257422000000001
 31
0.0
  0
LINE
  5
9CA
330
589
100
AcDbEntity
  8
0
 62
     0
370
    -2
100
AcDbLine
 10
96.637748
 20
19.217111
 30
0.0
 11
96.637748
 21
3.257422000000001
 31
0.0
  0
LINE
  5
9CB
330
589
100
AcDbEntity
  8
0
 62
     0
370
    -2
100
AcDbLine
 10
-5.862251999999999
 20
4.507422
 30
0.0
 11
94.137748
 21
4.507422
 31
0.0
  0
INSERT
  5
9CC
330
589
100
AcDbEntity
  8
0
 62
     0
370
    -2
100
AcDbBlockReference
  2
_Open30
 10
-8.362251999999999
 20
4.507422
 30
0.0
 41
2.5
 42
2.5
 43
2.5
 50
180.0
  0
INSERT
  5
9CD
330
589
100
AcDbEntity
  8
0
 62
     0
370
    -2
100
AcDbBlockReference
  2
_Open30
 10
96.637748
 20
4.507422
 30
0.0
 41
2.5
 42
2.5
 43
2.5
  0
MTEXT
  5
9CE
330
589
100
AcDbEntity
  8
0
 62
     4
100
AcDbMText
 10
44.137748
 20
6.632422
 30
0.0
 40
3.0
 41
0.0
 71
     5
 72
     1
  1
175
 73
     1
 44
1.0
1001
ACAD
1000
MTEXTBEGIN
1070
    73
1070
     1
1070
    44
1040
1.0
1070
    74
1070
     0
1000
MTEXTEND
  0
POINT
  5
9CF
330
589
100
AcDbEntity
  8
Defpoints
 62
     0
100
AcDbPoint
 10
-8.362251999999998
 20
25.467111
 30
0.0
  0
POINT
  5
9D0
330
589
100
AcDbEntity
  8
Defpoints
 62
     0
100
AcDbPoint
 10
96.637748
 20
19.467111
 30
0.0
  0
POINT
  5
9D1
330
589
100
AcDbEntity
  8
Defpoints
 62
     0
100
AcDbPoint
 10
96.637748
 20
4.507422
 30
0.0
  0
ENDBLK
  5
58B
330
589
100
AcDbEntity
  8
0
100
AcDbBlockEnd
  0
BLOCK
  5
597
330
596
100
AcDbEntity
  8
0
100
AcDbBlockBegin
  2
*D2
 70
     1
 10
0.0
 20
0.0
 30
0.0
  3
*D2
  1

  0
LINE
  5
9D2
330
596
100
AcDbEntity
  8
0
 62
     0
370
    -2
100
AcDbLine
 10
-163.282252
 20
19.217111
 30
0.0
 11
-163.282252
 21
3.257422000000001
 31
0.0
  0
LINE
  5
9D3
330
596
100
AcDbEntity
  8
0
 62
     0
370
    -2
100
AcDbLine
 10
-41.36225200000001
 20
19.217111
 30
0.0
 11
-41.36225200000001
 21
3.257422000000001
 31
0.0
  0
LINE
  5
9D4
330
596
100
AcDbEntity
  8
0
 62
     0
370
    -2
100
AcDbLine
 10
-160.782252
 20
4.507422
 30
0.0
 11
-43.86225200000001
 21
4.507422
 31
0.0
  0
INSERT
  5
9D5
330
596
100
AcDbEntity
  8
0
 62
     0
370
    -2
100
AcDbBlockReference
  2
_Open30
 10
-163.282252
 20
4.507422
 30
0.0
 41
2.5
 42
2.5
 43
2.5
 50
180.0
  0
INSERT
  5
9D6
330
596
100
AcDbEntity
  8
0
 62
     0
370
    -2
100
AcDbBlockReference
  2
_Open30
 10
-41.36225200000001
 20
4.507422
 30
0.0
 41
2.5
 42
2.5
 43
2.5
  0
MTEXT
  5
9D7
330
596
100
AcDbEntity
  8
0
 62
     4
100
AcDbMText
 10
-102.322252
 20
6.632422
 30
0.0
 40
3.0
 41
0.0
 71
     5
 72
     1
  1
202
 73
     1
 44
1.0
1001
ACAD
1000
MTEXTBEGIN
1070
    73
1070
     1
1070
    44
1040
1.0
1070
    74
1070
     0
1000
MTEXTEND
  0
POINT
  5
9D8
330
596
100
AcDbEntity
  8
Defpoints
 62
     0
100
AcDbPoint
 10
-163.282252
 20
19.467111
 30
0.0
  0
POINT
  5
9D9
330
596
100
AcDbEntity
  8
Defpoints
 62
     0
100
AcDbPoint
 10
-41.36225200000001
 20
19.467111
 30
0.0
  0
POINT
  5
9DA
330
596
100
AcDbEntity
  8
Defpoints
 62
     0
100
AcDbPoint
 10
-41.36225200000001
 20
4.507422
 30
0.0
  0
ENDBLK
  5
598
330
596
100
AcDbEntity
  8
0
100
AcDbBlockEnd
  0
BLOCK
  5
5A4
330
5A3
100
AcDbEntity
  8
0
100
AcDbBlockBegin
  2
*D3
 70
     1
 10
0.0
 20
0.0
 30
0.0
  3
*D3
  1

  0
LINE
  5
9AD
330
5A3
100
AcDbEntity
  8
0
 62
     0
370
    -2
100
AcDbLine
 10
-155.142583
 20
12.267111
 30
0.0
 11
-173.842834
 21
12.26711100000001
 31
0.0
  0
LINE
  5
9AE
330
5A3
100
AcDbEntity
  8
0
 62
     0
370
    -2
100
AcDbLine
 10
-105.951791
 20
104.397808
 30
0.0
 11
-173.842834
 21
104.397808
 31
0.0
  0
LINE
  5
9AF
330
5A3
100
AcDbEntity
  8
0
 62
     0
370
    -2
100
AcDbLine
 10
-172.592834
 20
14.76711100000001
 30
0.0
 11
-172.592834
 21
101.897808
 31
0.0
  0
INSERT
  5
9B0
330
5A3
100
AcDbEntity
  8
0
 62
     0
370
    -2
100
AcDbBlockReference
  2
_Open30
 10
-172.592834
 20
12.26711100000001
 30
0.0
 41
2.5
 42
2.5
 43
2.5
 50
270.0
  0
INSERT
  5
9B1
330
5A3
100
AcDbEntity
  8
0
 62
     0
370
    -2
100
AcDbBlockReference
  2
_Open30
 10
-172.592834
 20
104.397808
 30
0.0
 41
2.5
 42
2.5
 43
2.5
 50
90.0
  0
MTEXT
  5
9B2
330
5A3
100
AcDbEntity
  8
0
 62
     4
100
AcDbMText
 10
-174.717834
 20
58.33245949999998
 30
0.0
 40
3.0
 41
0.0
 71
     5
 72
     1
  1
155
 11
0.0000000000000001
 21
1.0
 31
0.0
 73
     1
 44
1.0
1001
ACAD
1000
MTEXTBEGIN
1070
    73
1070
     1
1070
    44
1040
1.0
1070
    74
1070
     0
1000
MTEXTEND
  0
POINT
  5
9B3
330
5A3
100
AcDbEntity
  8
Defpoints
 62
     0
100
AcDbPoint
 10
-154.892583
 20
12.267111
 30
0.0
  0
POINT
  5
9B4
330
5A3
100
AcDbEntity
  8
Defpoints
 62
     0
100
AcDbPoint
 10
-105.701791
 20
104.397808
 30
0.0
  0
POINT
  5
9B5
330
5A3
100
AcDbEntity
  8
Defpoints
 62
     0
100
AcDbPoint
 10
-172.592834
 20
104.397808
 30
0.0
  0
ENDBLK
  5
5A5
330
5A3
100
AcDbEntity
  8
0
100
AcDbBlockEnd
  0
BLOCK
  5
6F3
330
6F2
100
AcDbEntity
  8
0
100
AcDbBlockBegin
  2
*D4
 70
     1
 10
0.0
 20
0.0
 30
0.0
  3
*D4
  1

  0
LINE
  5
6F4
330
6F2
100
AcDbEntity
  8
0
 62
     0
370
    -2
100
AcDbLine
 10
-178.2339678749101
 20
-812.0370112307897
 30
0.0
 11
-178.2339678749101
 21
-814.9466426527986
 31
0.0
  0
LINE
  5
6F5
330
6F2
100
AcDbEntity
  8
0
 62
     0
370
    -2
100
AcDbLine
 10
-180.6911549290304
 20
-812.0370112307897
 30
0.0
 11
-180.6911549290304
 21
-814.9466426527986
 31
0.0
  0
LINE
  5
6F6
330
6F2
100
AcDbEntity
  8
0
 62
     0
370
    -2
100
AcDbLine
 10
-175.7339678749101
 20
-813.6966426527985
 30
0.0
 11
-173.2339678749101
 21
-813.6966426527985
 31
0.0
  0
LINE
  5
6F7
330
6F2
100
AcDbEntity
  8
0
 62
     0
370
    -2
100
AcDbLine
 10
-183.1911549290304
 20
-813.6966426527985
 30
0.0
 11
-195.9411549290304
 21
-813.6966426527985
 31
0.0
  0
LINE
  5
6F8
330
6F2
100
AcDbEntity
  8
0
 62
     0
370
    -2
100
AcDbLine
 10
-178.2339678749101
 20
-813.6966426527985
 30
0.0
 11
-180.6911549290304
 21
-813.6966426527985
 31
0.0
  0
INSERT
  5
6F9
330
6F2
100
AcDbEntity
  8
0
 62
     0
370
    -2
100
AcDbBlockReference
  2
_Open30
 10
-178.2339678749101
 20
-813.6966426527985
 30
0.0
 41
2.5
 42
2.5
 43
2.5
 50
180.0
  0
INSERT
  5
6FA
330
6F2
100
AcDbEntity
  8
0
 62
     0
370
    -2
100
AcDbBlockReference
  2
_Open30
 10
-180.6911549290304
 20
-813.6966426527985
 30
0.0
 41
2.5
 42
2.5
 43
2.5
  0
MTEXT
  5
6FB
330
6F2
100
AcDbEntity
  8
0
 62
     4
100
AcDbMText
 10
-190.8161549290304
 20
-811.5716426527985
 30
0.0
 40
3.0
 41
0.0
 71
     5
 72
     1
  1
2.46
 73
     1
 44
1.0
1001
ACAD
1000
MTEXTBEGIN
1070
    73
1070
     1
1070
    44
1040
1.0
1070
    74
1070
     0
1000
MTEXTEND
  0
POINT
  5
6FC
330
6F2
100
AcDbEntity
  8
Defpoints
 62
     0
100
AcDbPoint
 10
-178.2339678749101
 20
-811.7870112307898
 30
0.0
  0
POINT
  5
6FD
330
6F2
100
AcDbEntity
  8
Defpoints
 62
     0
100
AcDbPoint
 10
-180.6911549290304
 20
-811.7870112307898
 30
0.0
  0
POINT
  5
6FE
330
6F2
100
AcDbEntity
  8
Defpoints
 62
     0
100
AcDbPoint
 10
-180.6911549290304
 20
-813.6966426527985
 30
0.0
  0
ENDBLK
  5
6FF
330
6F2
100
AcDbEntity
  8
0
100
AcDbBlockEnd
  0
BLOCK
  5
701
330
700
100
AcDbEntity
  8
0
100
AcDbBlockBegin
  2
*D5
 70
     1
 10
0.0
 20
0.0
 30
0.0
  3
*D5
  1

  0
LINE
  5
702
330
700
100
AcDbEntity
  8
0
 62
     0
370
    -2
100
AcDbLine
 10
-176.5958429688369
 20
-817.4931008035521
 30
0.0
 11
-176.5958429688369
 21
-820.0389928730155
 31
0.0
  0
LINE
  5
703
330
700
100
AcDbEntity
  8
0
 62
     0
370
    -2
100
AcDbLine
 10
-179.6900787669798
 20
-817.4931008035521
 30
0.0
 11
-179.6900787669798
 21
-820.0389928730155
 31
0.0
  0
LINE
  5
704
330
700
100
AcDbEntity
  8
0
 62
     0
370
    -2
100
AcDbLine
 10
-174.0958429688369
 20
-818.7889928730154
 30
0.0
 11
-171.5958429688369
 21
-818.7889928730154
 31
0.0
  0
LINE
  5
705
330
700
100
AcDbEntity
  8
0
 62
     0
370
    -2
100
AcDbLine
 10
-182.1900787669798
 20
-818.7889928730154
 30
0.0
 11
-196.0234121003131
 21
-818.7889928730154
 31
0.0
  0
LINE
  5
706
330
700
100
AcDbEntity
  8
0
 62
     0
370
    -2
100
AcDbLine
 10
-176.5958429688369
 20
-818.7889928730154
 30
0.0
 11
-179.6900787669798
 21
-818.7889928730154
 31
0.0
  0
INSERT
  5
707
330
700
100
AcDbEntity
  8
0
 62
     0
370
    -2
100
AcDbBlockReference
  2
_Open30
 10
-176.5958429688369
 20
-818.7889928730154
 30
0.0
 41
2.5
 42
2.5
 43
2.5
 50
180.0
  0
INSERT
  5
708
330
700
100
AcDbEntity
  8
0
 62
     0
370
    -2
100
AcDbBlockReference
  2
_Open30
 10
-179.6900787669798
 20
-818.7889928730154
 30
0.0
 41
2.5
 42
2.5
 43
2.5
  0
MTEXT
  5
709
330
700
100
AcDbEntity
  8
0
 62
     4
100
AcDbMText
 10
-190.8150787669798
 20
-816.9139928730155
 30
0.0
 40
2.5
 41
0.0
 71
     5
 72
     1
  1
15.47
  7
高2.5
 73
     1
 44
1.0
1001
ACAD
1000
MTEXTBEGIN
1070
    73
1070
     1
1070
    44
1040
1.0
1070
    74
1070
     0
1000
MTEXTEND
  0
POINT
  5
70A
330
700
100
AcDbEntity
  8
Defpoints
 62
     0
100
AcDbPoint
 10
-176.5958429688369
 20
-817.2431008035522
 30
0.0
  0
POINT
  5
70B
330
700
100
AcDbEntity
  8
Defpoints
 62
     0
100
AcDbPoint
 10
-179.6900787669798
 20
-817.2431008035522
 30
0.0
  0
POINT
  5
70C
330
700
100
AcDbEntity
  8
Defpoints
 62
     0
100
AcDbPoint
 10
-179.6900787669798
 20
-818.7889928730154
 30
0.0
  0
ENDBLK
  5
70D
330
700
100
AcDbEntity
  8
0
100
AcDbBlockEnd
  0
BLOCK
  5
70F
330
70E
100
AcDbEntity
  8
0
100
AcDbBlockBegin
  2
*D6
 70
     1
 10
0.0
 20
0.0
 30
0.0
  3
*D6
  1

  0
LINE
  5
710
330
70E
100
AcDbEntity
  8
0
 62
     0
370
    -2
100
AcDbLine
 10
-174.8667113607514
 20
-822.9491905193986
 30
0.0
 11
-174.8667113607514
 21
-825.2222781817659
 31
0.0
  0
LINE
  5
711
330
70E
100
AcDbEntity
  8
0
 62
     0
370
    -2
100
AcDbLine
 10
-178.8710163139432
 20
-822.9491905193986
 30
0.0
 11
-178.8710163139432
 21
-825.2222781817659
 31
0.0
  0
LINE
  5
712
330
70E
100
AcDbEntity
  8
0
 62
     0
370
    -2
100
AcDbLine
 10
-172.3667113607514
 20
-823.9722781817658
 30
0.0
 11
-169.8667113607514
 21
-823.9722781817658
 31
0.0
  0
LINE
  5
713
330
70E
100
AcDbEntity
  8
0
 62
     0
370
    -2
100
AcDbLine
 10
-181.3710163139432
 20
-823.9722781817658
 30
0.0
 11
-193.1210163139432
 21
-823.9722781817658
 31
0.0
  0
LINE
  5
714
330
70E
100
AcDbEntity
  8
0
 62
     0
370
    -2
100
AcDbLine
 10
-174.8667113607514
 20
-823.9722781817658
 30
0.0
 11
-178.8710163139432
 21
-823.9722781817658
 31
0.0
  0
INSERT
  5
715
330
70E
100
AcDbEntity
  8
0
 62
     0
370
    -2
100
AcDbBlockReference
  2
_Open30
 10
-174.8667113607514
 20
-823.9722781817658
 30
0.0
 41
2.5
 42
2.5
 43
2.5
 50
180.0
  0
INSERT
  5
716
330
70E
100
AcDbEntity
  8
0
 62
     0
370
    -2
100
AcDbBlockReference
  2
_Open30
 10
-178.8710163139432
 20
-823.9722781817658
 30
0.0
 41
2.5
 42
2.5
 43
2.5
  0
MTEXT
  5
717
330
70E
100
AcDbEntity
  8
0
 62
     4
100
AcDbMText
 10
-188.4960163139432
 20
-821.7472781817658
 30
0.0
 40
3.2
 41
0.0
 71
     5
 72
     1
  1
8.01
  7
高3.2
 73
     1
 44
1.0
1001
ACAD
1000
MTEXTBEGIN
1070
    73
1070
     1
1070
    44
1040
1.0
1070
    74
1070
     0
1000
MTEXTEND
  0
POINT
  5
718
330
70E
100
AcDbEntity
  8
Defpoints
 62
     0
100
AcDbPoint
 10
-174.8667113607514
 20
-822.6991905193985
 30
0.0
  0
POINT
  5
719
330
70E
100
AcDbEntity
  8
Defpoints
 62
     0
100
AcDbPoint
 10
-178.8710163139432
 20
-822.6991905193985
 30
0.0
  0
POINT
  5
71A
330
70E
100
AcDbEntity
  8
Defpoints
 62
     0
100
AcDbPoint
 10
-178.8710163139432
 20
-823.9722781817658
 30
0.0
  0
ENDBLK
  5
71B
330
70E
100
AcDbEntity
  8
0
100
AcDbBlockEnd
  0
BLOCK
  5
71D
330
71C
100
AcDbEntity
  8
0
100
AcDbBlockBegin
  2
*D7
 70
     1
 10
0.0
 20
0.0
 30
0.0
  3
*D7
  1

  0
LINE
  5
71E
330
71C
100
AcDbEntity
  8
0
 62
     0
370
    -2
100
AcDbLine
 10
-174.9577180627636
 20
-828.2234104874302
 30
0.0
 11
-174.9577180627636
 21
-830.0418239948866
 31
0.0
  0
LINE
  5
71F
330
71C
100
AcDbEntity
  8
0
 62
     0
370
    -2
100
AcDbLine
 10
-179.6900787669798
 20
-828.2234104874302
 30
0.0
 11
-179.6900787669798
 21
-830.0418239948866
 31
0.0
  0
LINE
  5
720
330
71C
100
AcDbEntity
  8
0
 62
     0
370
    -2
100
AcDbLine
 10
-172.4577180627636
 20
-828.7918239948865
 30
0.0
 11
-169.9577180627637
 21
-828.7918239948865
 31
0.0
  0
LINE
  5
721
330
71C
100
AcDbEntity
  8
0
 62
     0
370
    -2
100
AcDbLine
 10
-182.1900787669798
 20
-828.7918239948865
 30
0.0
 11
-203.9400787669798
 21
-828.7918239948865
 31
0.0
  0
LINE
  5
722
330
71C
100
AcDbEntity
  8
0
 62
     0
370
    -2
100
AcDbLine
 10
-174.9577180627636
 20
-828.7918239948865
 30
0.0
 11
-179.6900787669798
 21
-828.7918239948865
 31
0.0
  0
INSERT
  5
723
330
71C
100
AcDbEntity
  8
0
 62
     0
370
    -2
100
AcDbBlockReference
  2
_Open30
 10
-174.9577180627636
 20
-828.7918239948865
 30
0.0
 41
2.5
 42
2.5
 43
2.5
 50
180.0
  0
INSERT
  5
724
330
71C
100
AcDbEntity
  8
0
 62
     0
370
    -2
100
AcDbBlockReference
  2
_Open30
 10
-179.6900787669798
 20
-828.7918239948865
 30
0.0
 41
2.5
 42
2.5
 43
2.5
  0
MTEXT
  5
725
330
71C
100
AcDbEntity
  8
0
 62
     4
100
AcDbMText
 10
-194.3150787669798
 20
-825.9168239948866
 30
0.0
 40
4.5
 41
0.0
 71
     5
 72
     1
  1
47.32
  7
高4.5
 73
     1
 44
1.0
1001
ACAD
1000
MTEXTBEGIN
1070
    73
1070
     1
1070
    44
1040
1.0
1070
    74
1070
     0
1000
MTEXTEND
  0
POINT
  5
726
330
71C
100
AcDbEntity
  8
Defpoints
 62
     0
100
AcDbPoint
 10
-174.9577180627636
 20
-827.9734104874302
 30
0.0
  0
POINT
  5
727
330
71C
100
AcDbEntity
  8
Defpoints
 62
     0
100
AcDbPoint
 10
-179.6900787669798
 20
-827.9734104874302
 30
0.0
  0
POINT
  5
728
330
71C
100
AcDbEntity
  8
Defpoints
 62
     0
100
AcDbPoint
 10
-179.6900787669798
 20
-828.7918239948865
 30
0.0
  0
ENDBLK
  5
729
330
71C
100
AcDbEntity
  8
0
100
AcDbBlockEnd
  0
BLOCK
  5
72B
330
72A
100
AcDbEntity
  8
0
100
AcDbBlockBegin
  2
*D8
 70
     1
 10
0.0
 20
0.0
 30
0.0
  3
*D8
  1

  0
LINE
  5
72C
330
72A
100
AcDbEntity
  8
0
 62
     0
370
    -2
100
AcDbLine
 10
-153.4800817947562
 20
-812.0370112307897
 30
0.0
 11
-153.4800817947562
 21
-814.9466426527986
 31
0.0
  0
LINE
  5
72D
330
72A
100
AcDbEntity
  8
0
 62
     0
370
    -2
100
AcDbLine
 10
-155.9372688488765
 20
-812.0370112307897
 30
0.0
 11
-155.9372688488765
 21
-814.9466426527986
 31
0.0
  0
LINE
  5
72E
330
72A
100
AcDbEntity
  8
0
 62
     0
370
    -2
100
AcDbLine
 10
-150.9800817947562
 20
-813.6966426527985
 30
0.0
 11
-148.4800817947562
 21
-813.6966426527985
 31
0.0
  0
LINE
  5
72F
330
72A
100
AcDbEntity
  8
0
 62
     0
370
    -2
100
AcDbLine
 10
-158.4372688488765
 20
-813.6966426527985
 30
0.0
 11
-180.0372688488765
 21
-813.6966426527985
 31
0.0
  0
LINE
  5
730
330
72A
100
AcDbEntity
  8
0
 62
     0
370
    -2
100
AcDbLine
 10
-153.4800817947562
 20
-813.6966426527985
 30
0.0
 11
-155.9372688488765
 21
-813.6966426527985
 31
0.0
  0
INSERT
  5
731
330
72A
100
AcDbEntity
  8
0
 62
     0
370
    -2
100
AcDbBlockReference
  2
_Open30
 10
-153.4800817947562
 20
-813.6966426527985
 30
0.0
 41
2.5
 42
2.5
 43
2.5
 50
180.0
  0
INSERT
  5
732
330
72A
100
AcDbEntity
  8
0
 62
     0
370
    -2
100
AcDbBlockReference
  2
_Open30
 10
-155.9372688488765
 20
-813.6966426527985
 30
0.0
 41
2.5
 42
2.5
 43
2.5
  0
MTEXT
  5
733
330
72A
100
AcDbEntity
  8
0
 62
     4
100
AcDbMText
 10
-170.4872688488765
 20
-809.9216426527986
 30
0.0
 40
6.299999999999998
 41
0.0
 71
     5
 72
     1
  1
0.25
  7
高6.3
 73
     1
 44
1.0
1001
ACAD
1000
MTEXTBEGIN
1070
    73
1070
     1
1070
    44
1040
1.0
1070
    74
1070
     0
1000
MTEXTEND
  0
POINT
  5
734
330
72A
100
AcDbEntity
  8
Defpoints
 62
     0
100
AcDbPoint
 10
-153.4800817947562
 20
-811.7870112307898
 30
0.0
  0
POINT
  5
735
330
72A
100
AcDbEntity
  8
Defpoints
 62
     0
100
AcDbPoint
 10
-155.9372688488765
 20
-811.7870112307898
 30
0.0
  0
POINT
  5
736
330
72A
100
AcDbEntity
  8
Defpoints
 62
     0
100
AcDbPoint
 10
-155.9372688488765
 20
-813.6966426527985
 30
0.0
  0
ENDBLK
  5
737
330
72A
100
AcDbEntity
  8
0
100
AcDbBlockEnd
  0
BLOCK
  5
739
330
738
100
AcDbEntity
  8
0
100
AcDbBlockBegin
  2
*D9
 70
     1
 10
0.0
 20
0.0
 30
0.0
  3
*D9
  1

  0
LINE
  5
73A
330
738
100
AcDbEntity
  8
0
 62
     0
370
    -2
100
AcDbLine
 10
-151.841956888683
 20
-817.4931008035521
 30
0.0
 11
-151.841956888683
 21
-820.0389928730155
 31
0.0
  0
LINE
  5
73B
330
738
100
AcDbEntity
  8
0
 62
     0
370
    -2
100
AcDbLine
 10
-154.9361926868259
 20
-817.4931008035521
 30
0.0
 11
-154.9361926868259
 21
-820.0389928730155
 31
0.0
  0
LINE
  5
73C
330
738
100
AcDbEntity
  8
0
 62
     0
370
    -2
100
AcDbLine
 10
-149.341956888683
 20
-818.7889928730154
 30
0.0
 11
-146.841956888683
 21
-818.7889928730154
 31
0.0
  0
LINE
  5
73D
330
738
100
AcDbEntity
  8
0
 62
     0
370
    -2
100
AcDbLine
 10
-157.4361926868259
 20
-818.7889928730154
 30
0.0
 11
-169.4361926868259
 21
-818.7889928730154
 31
0.0
  0
LINE
  5
73E
330
738
100
AcDbEntity
  8
0
 62
     0
370
    -2
100
AcDbLine
 10
-151.841956888683
 20
-818.7889928730154
 30
0.0
 11
-154.9361926868259
 21
-818.7889928730154
 31
0.0
  0
INSERT
  5
73F
330
738
100
AcDbEntity
  8
0
 62
     0
370
    -2
100
AcDbBlockReference
  2
_Open30
 10
-151.841956888683
 20
-818.7889928730154
 30
0.0
 41
2.5
 42
2.5
 43
2.5
 50
180.0
  0
INSERT
  5
740
330
738
100
AcDbEntity
  8
0
 62
     0
370
    -2
100
AcDbBlockReference
  2
_Open30
 10
-154.9361926868259
 20
-818.7889928730154
 30
0.0
 41
2.5
 42
2.5
 43
2.5
  0
MTEXT
  5
741
330
738
100
AcDbEntity
  8
0
 62
     4
100
AcDbMText
 10
-164.8111926868259
 20
-816.6639928730154
 30
0.0
 40
3.0
 41
0.0
 71
     5
 72
     1
  1
1.55
 73
     1
 44
1.0
1001
ACAD
1000
MTEXTBEGIN
1070
    73
1070
     1
1070
    44
1040
1.0
1070
    74
1070
     0
1000
MTEXTEND
  0
POINT
  5
742
330
738
100
AcDbEntity
  8
Defpoints
 62
     0
100
AcDbPoint
 10
-151.841956888683
 20
-817.2431008035522
 30
0.0
  0
POINT
  5
743
330
738
100
AcDbEntity
  8
Defpoints
 62
     0
100
AcDbPoint
 10
-154.9361926868259
 20
-817.2431008035522
 30
0.0
  0
POINT
  5
744
330
738
100
AcDbEntity
  8
Defpoints
 62
     0
100
AcDbPoint
 10
-154.9361926868259
 20
-818.7889928730154
 30
0.0
  0
ENDBLK
  5
745
330
738
100
AcDbEntity
  8
0
100
AcDbBlockEnd
  0
BLOCK
  5
747
330
746
100
AcDbEntity
  8
0
100
AcDbBlockBegin
  2
*D10
 70
     1
 10
0.0
 20
0.0
 30
0.0
  3
*D10
  1

  0
LINE
  5
748
330
746
100
AcDbEntity
  8
0
 62
     0
370
    -2
100
AcDbLine
 10
-150.1128252805975
 20
-822.9491905193986
 30
0.0
 11
-150.1128252805975
 21
-825.2222781817659
 31
0.0
  0
LINE
  5
749
330
746
100
AcDbEntity
  8
0
 62
     0
370
    -2
100
AcDbLine
 10
-154.1171302337894
 20
-822.9491905193986
 30
0.0
 11
-154.1171302337894
 21
-825.2222781817659
 31
0.0
  0
LINE
  5
74A
330
746
100
AcDbEntity
  8
0
 62
     0
370
    -2
100
AcDbLine
 10
-147.6128252805976
 20
-823.9722781817658
 30
0.0
 11
-145.1128252805975
 21
-823.9722781817658
 31
0.0
  0
LINE
  5
74B
330
746
100
AcDbEntity
  8
0
 62
     0
370
    -2
100
AcDbLine
 10
-156.6171302337894
 20
-823.9722781817658
 30
0.0
 11
-164.9504635671227
 21
-823.9722781817658
 31
0.0
  0
LINE
  5
74C
330
746
100
AcDbEntity
  8
0
 62
     0
370
    -2
100
AcDbLine
 10
-150.1128252805975
 20
-823.9722781817658
 30
0.0
 11
-154.1171302337894
 21
-823.9722781817658
 31
0.0
  0
INSERT
  5
74D
330
746
100
AcDbEntity
  8
0
 62
     0
370
    -2
100
AcDbBlockReference
  2
_Open30
 10
-150.1128252805975
 20
-823.9722781817658
 30
0.0
 41
2.5
 42
2.5
 43
2.5
 50
180.0
  0
INSERT
  5
74E
330
746
100
AcDbEntity
  8
0
 62
     0
370
    -2
100
AcDbBlockReference
  2
_Open30
 10
-154.1171302337894
 20
-823.9722781817658
 30
0.0
 41
2.5
 42
2.5
 43
2.5
  0
MTEXT
  5
74F
330
746
100
AcDbEntity
  8
0
 62
     4
100
AcDbMText
 10
-162.4921302337894
 20
-822.3472781817658
 30
0.0
 40
2.0
 41
0.0
 71
     5
 72
     1
  1
0.8
  7
高2
 73
     1
 44
1.0
1001
ACAD
1000
MTEXTBEGIN
1070
    73
1070
     1
1070
    44
1040
1.0
1070
    74
1070
     0
1000
MTEXTEND
  0
POINT
  5
750
330
746
100
AcDbEntity
  8
Defpoints
 62
     0
100
AcDbPoint
 10
-150.1128252805975
 20
-822.6991905193985
 30
0.0
  0
POINT
  5
751
330
746
100
AcDbEntity
  8
Defpoints
 62
     0
100
AcDbPoint
 10
-154.1171302337894
 20
-822.6991905193985
 30
0.0
  0
POINT
  5
752
330
746
100
AcDbEntity
  8
Defpoints
 62
     0
100
AcDbPoint
 10
-154.1171302337894
 20
-823.9722781817658
 30
0.0
  0
ENDBLK
  5
753
330
746
100
AcDbEntity
  8
0
100
AcDbBlockEnd
  0
BLOCK
  5
755
330
754
100
AcDbEntity
  8
0
100
AcDbBlockBegin
  2
*D11
 70
     1
 10
0.0
 20
0.0
 30
0.0
  3
*D11
  1

  0
LINE
  5
756
330
754
100
AcDbEntity
  8
0
 62
     0
370
    -2
100
AcDbLine
 10
-150.2038319826098
 20
-828.2234104874302
 30
0.0
 11
-150.2038319826098
 21
-830.0418239948866
 31
0.0
  0
LINE
  5
757
330
754
100
AcDbEntity
  8
0
 62
     0
370
    -2
100
AcDbLine
 10
-154.9361926868259
 20
-828.2234104874302
 30
0.0
 11
-154.9361926868259
 21
-830.0418239948866
 31
0.0
  0
LINE
  5
758
330
754
100
AcDbEntity
  8
0
 62
     0
370
    -2
100
AcDbLine
 10
-147.7038319826099
 20
-828.7918239948865
 30
0.0
 11
-145.2038319826098
 21
-828.7918239948865
 31
0.0
  0
LINE
  5
759
330
754
100
AcDbEntity
  8
0
 62
     0
370
    -2
100
AcDbLine
 10
-157.4361926868259
 20
-828.7918239948865
 30
0.0
 11
-172.1861926868259
 21
-828.7918239948865
 31
0.0
  0
LINE
  5
75A
330
754
100
AcDbEntity
  8
0
 62
     0
370
    -2
100
AcDbLine
 10
-150.2038319826098
 20
-828.7918239948865
 30
0.0
 11
-154.9361926868259
 21
-828.7918239948865
 31
0.0
  0
INSERT
  5
75B
330
754
100
AcDbEntity
  8
0
 62
     0
370
    -2
100
AcDbBlockReference
  2
_Open30
 10
-150.2038319826098
 20
-828.7918239948865
 30
0.0
 41
2.5
 42
2.5
 43
2.5
 50
180.0
  0
INSERT
  5
75C
330
754
100
AcDbEntity
  8
0
 62
     0
370
    -2
100
AcDbBlockReference
  2
_Open30
 10
-154.9361926868259
 20
-828.7918239948865
 30
0.0
 41
2.5
 42
2.5
 43
2.5
  0
MTEXT
  5
75D
330
754
100
AcDbEntity
  8
0
 62
     4
100
AcDbMText
 10
-166.0611926868259
 20
-826.6668239948867
 30
0.0
 40
3.0
 41
0.0
 71
     5
 72
     1
  1
18.93
 73
     1
 44
1.0
1001
ACAD
1000
MTEXTBEGIN
1070
    73
1070
     1
1070
    44
1040
1.0
1070
    74
1070
     0
1000
MTEXTEND
  0
POINT
  5
75E
330
754
100
AcDbEntity
  8
Defpoints
 62
     0
100
AcDbPoint
 10
-150.2038319826098
 20
-827.9734104874302
 30
0.0
  0
POINT
  5
75F
330
754
100
AcDbEntity
  8
Defpoints
 62
     0
100
AcDbPoint
 10
-154.9361926868259
 20
-827.9734104874302
 30
0.0
  0
POINT
  5
760
330
754
100
AcDbEntity
  8
Defpoints
 62
     0
100
AcDbPoint
 10
-154.9361926868259
 20
-828.7918239948865
 30
0.0
  0
ENDBLK
  5
761
330
754
100
AcDbEntity
  8
0
100
AcDbBlockEnd
  0
BLOCK
  5
763
330
762
100
AcDbEntity
  8
0
100
AcDbBlockBegin
  2
*D12
 70
     1
 10
0.0
 20
0.0
 30
0.0
  3
*D12
  1

  0
LINE
  5
764
330
762
100
AcDbEntity
  8
0
 62
     0
370
    -2
100
AcDbLine
 10
-153.0082588337482
 20
-833.2792506940199
 30
0.0
 11
-153.0082588337482
 21
-835.5891717708955
 31
0.0
  0
LINE
  5
765
330
762
100
AcDbEntity
  8
0
 62
     0
370
    -2
100
AcDbLine
 10
-157.5969340358961
 20
-833.2792506940199
 30
0.0
 11
-157.5969340358961
 21
-835.5891717708955
 31
0.0
  0
LINE
  5
766
330
762
100
AcDbEntity
  8
0
 62
     0
370
    -2
100
AcDbLine
 10
-150.5082588337482
 20
-834.3391717708955
 30
0.0
 11
-148.0082588337482
 21
-834.3391717708955
 31
0.0
  0
LINE
  5
767
330
762
100
AcDbEntity
  8
0
 62
     0
370
    -2
100
AcDbLine
 10
-160.0969340358961
 20
-834.3391717708955
 30
0.0
 11
-174.8469340358961
 21
-834.3391717708955
 31
0.0
  0
LINE
  5
768
330
762
100
AcDbEntity
  8
0
 62
     0
370
    -2
100
AcDbLine
 10
-153.0082588337482
 20
-834.3391717708955
 30
0.0
 11
-157.5969340358961
 21
-834.3391717708955
 31
0.0
  0
INSERT
  5
769
330
762
100
AcDbEntity
  8
0
 62
     0
370
    -2
100
AcDbBlockReference
  2
_Open30
 10
-153.0082588337482
 20
-834.3391717708955
 30
0.0
 41
2.5
 42
2.5
 43
2.5
 50
180.0
  0
INSERT
  5
76A
330
762
100
AcDbEntity
  8
0
 62
     0
370
    -2
100
AcDbBlockReference
  2
_Open30
 10
-157.5969340358961
 20
-834.3391717708955
 30
0.0
 41
2.5
 42
2.5
 43
2.5
  0
MTEXT
  5
76B
330
762
100
AcDbEntity
  8
0
 62
     4
100
AcDbMText
 10
-168.7219340358961
 20
-832.2141717708955
 30
0.0
 40
3.0
 41
0.0
 71
     5
 72
     1
  1
13.77
 73
     1
 44
1.0
1001
ACAD
1000
MTEXTBEGIN
1070
    73
1070
     1
1070
    44
1040
1.0
1070
    74
1070
     0
1000
MTEXTEND
  0
POINT
  5
76C
330
762
100
AcDbEntity
  8
Defpoints
 62
     0
100
AcDbPoint
 10
-153.0082588337482
 20
-833.0292506940201
 30
0.0
  0
POINT
  5
76D
330
762
100
AcDbEntity
  8
Defpoints
 62
     0
100
AcDbPoint
 10
-157.5969340358961
 20
-833.0292506940201
 30
0.0
  0
POINT
  5
76E
330
762
100
AcDbEntity
  8
Defpoints
 62
     0
100
AcDbPoint
 10
-157.5969340358961
 20
-834.3391717708955
 30
0.0
  0
ENDBLK
  5
76F
330
762
100
AcDbEntity
  8
0
100
AcDbBlockEnd
  0
BLOCK
  5
771
330
770
100
AcDbEntity
  8
0
100
AcDbBlockBegin
  2
*D13
 70
     1
 10
0.0
 20
0.0
 30
0.0
  3
*D13
  1

  0
LINE
  5
772
330
770
100
AcDbEntity
  8
0
 62
     0
370
    -2
100
AcDbLine
 10
-160.1045416668985
 20
-802.3497593757458
 30
0.0
 11
-160.1045416668985
 21
-794.9532258978079
 31
0.0
  0
LINE
  5
773
330
770
100
AcDbEntity
  8
0
 62
     0
370
    -2
100
AcDbLine
 10
-170.0430160363884
 20
-802.3497593757458
 30
0.0
 11
-170.0430160363884
 21
-794.9532258978079
 31
0.0
  0
LINE
  5
774
330
770
100
AcDbEntity
  8
0
 62
     0
370
    -2
100
AcDbLine
 10
-162.6045416668985
 20
-796.2032258978077
 30
0.0
 11
-167.5430160363885
 21
-796.2032258978077
 31
0.0
  0
INSERT
  5
775
330
770
100
AcDbEntity
  8
0
 62
     0
370
    -2
100
AcDbBlockReference
  2
_Open30
 10
-160.1045416668985
 20
-796.2032258978077
 30
0.0
 41
2.5
 42
2.5
 43
2.5
  0
INSERT
  5
776
330
770
100
AcDbEntity
  8
0
 62
     0
370
    -2
100
AcDbBlockReference
  2
_Open30
 10
-170.0430160363884
 20
-796.2032258978077
 30
0.0
 41
2.5
 42
2.5
 43
2.5
 50
180.0
  0
MTEXT
  5
777
330
770
100
AcDbEntity
  8
0
 62
     4
100
AcDbMText
 10
-165.0737788516435
 20
-793.1282258978077
 30
0.0
 40
3.0
 41
0.0
 71
     5
 72
     1
  1
9.94\H0.7X;\S+0^ -0.02;
 73
     1
 44
1.0
1001
ACAD
1000
MTEXTBEGIN
1070
    73
1070
     1
1070
    44
1040
1.0
1070
    74
1070
     0
1000
MTEXTEND
  0
POINT
  5
778
330
770
100
AcDbEntity
  8
Defpoints
 62
     0
100
AcDbPoint
 10
-160.1045416668985
 20
-802.5997593757455
 30
0.0
  0
POINT
  5
779
330
770
100
AcDbEntity
  8
Defpoints
 62
     0
100
AcDbPoint
 10
-170.0430160363884
 20
-802.5997593757455
 30
0.0
  0
POINT
  5
77A
330
770
100
AcDbEntity
  8
Defpoints
 62
     0
100
AcDbPoint
 10
-170.0430160363884
 20
-796.2032258978077
 30
0.0
  0
ENDBLK
  5
77B
330
770
100
AcDbEntity
  8
0
100
AcDbBlockEnd
  0
BLOCK
  5
7A3
330
7A2
100
AcDbEntity
  8
0
100
AcDbBlockBegin
  2
*D14
 70
     1
 10
0.0
 20
0.0
 30
0.0
  3
*D14
  1

  0
LINE
  5
82C
330
7A2
100
AcDbEntity
  8
0
 62
     0
370
    -2
100
AcDbLine
 10
263.7301508313161
 20
-17.37249216283555
 30
0.0
 11
263.7301508313161
 21
-20.28212358484438
 31
0.0
  0
LINE
  5
82D
330
7A2
100
AcDbEntity
  8
0
 62
     0
370
    -2
100
AcDbLine
 10
261.2729637771957
 20
-17.37249216283555
 30
0.0
 11
261.2729637771957
 21
-20.28212358484438
 31
0.0
  0
LINE
  5
82E
330
7A2
100
AcDbEntity
  8
0
 62
     0
370
    -2
100
AcDbLine
 10
266.2301508313161
 20
-19.03212358484438
 30
0.0
 11
268.7301508313161
 21
-19.03212358484438
 31
0.0
  0
LINE
  5
82F
330
7A2
100
AcDbEntity
  8
0
 62
     0
370
    -2
100
AcDbLine
 10
258.7729637771957
 20
-19.03212358484438
 30
0.0
 11
246.0229637771957
 21
-19.03212358484438
 31
0.0
  0
LINE
  5
830
330
7A2
100
AcDbEntity
  8
0
 62
     0
370
    -2
100
AcDbLine
 10
263.7301508313161
 20
-19.03212358484438
 30
0.0
 11
261.2729637771957
 21
-19.03212358484438
 31
0.0
  0
INSERT
  5
831
330
7A2
100
AcDbEntity
  8
0
 62
     0
370
    -2
100
AcDbBlockReference
  2
_Open30
 10
263.7301508313161
 20
-19.03212358484438
 30
0.0
 41
2.5
 42
2.5
 43
2.5
 50
180.0
  0
INSERT
  5
832
330
7A2
100
AcDbEntity
  8
0
 62
     0
370
    -2
100
AcDbBlockReference
  2
_Open30
 10
261.2729637771957
 20
-19.03212358484438
 30
0.0
 41
2.5
 42
2.5
 43
2.5
  0
MTEXT
  5
833
330
7A2
100
AcDbEntity
  8
0
 62
     4
100
AcDbMText
 10
251.1479637771957
 20
-16.90712358484438
 30
0.0
 40
3.0
 41
0.0
 71
     5
 72
     1
  1
2.46
 73
     1
 44
1.0
1001
ACAD
1000
MTEXTBEGIN
1070
    73
1070
     1
1070
    44
1040
1.0
1070
    74
1070
     0
1000
MTEXTEND
  0
POINT
  5
834
330
7A2
100
AcDbEntity
  8
Defpoints
 62
     0
100
AcDbPoint
 10
263.7301508313161
 20
-17.12249216283555
 30
0.0
  0
POINT
  5
835
330
7A2
100
AcDbEntity
  8
Defpoints
 62
     0
100
AcDbPoint
 10
261.2729637771957
 20
-17.12249216283555
 30
0.0
  0
POINT
  5
836
330
7A2
100
AcDbEntity
  8
Defpoints
 62
     0
100
AcDbPoint
 10
261.2729637771957
 20
-19.03212358484438
 30
0.0
  0
ENDBLK
  5
7A4
330
7A2
100
AcDbEntity
  8
0
100
AcDbBlockEnd
  0
BLOCK
  5
7B1
330
7B0
100
AcDbEntity
  8
0
100
AcDbBlockBegin
  2
*D15
 70
     1
 10
0.0
 20
0.0
 30
0.0
  3
*D15
  1

  0
LINE
  5
837
330
7B0
100
AcDbEntity
  8
0
 62
     0
370
    -2
100
AcDbLine
 10
265.3682757373892
 20
-22.82858173559794
 30
0.0
 11
265.3682757373892
 21
-25.37447380506126
 31
0.0
  0
LINE
  5
838
330
7B0
100
AcDbEntity
  8
0
 62
     0
370
    -2
100
AcDbLine
 10
262.2740399392463
 20
-22.82858173559794
 30
0.0
 11
262.2740399392463
 21
-25.37447380506126
 31
0.0
  0
LINE
  5
839
330
7B0
100
AcDbEntity
  8
0
 62
     0
370
    -2
100
AcDbLine
 10
267.8682757373892
 20
-24.12447380506126
 30
0.0
 11
270.3682757373893
 21
-24.12447380506126
 31
0.0
  0
LINE
  5
83A
330
7B0
100
AcDbEntity
  8
0
 62
     0
370
    -2
100
AcDbLine
 10
259.7740399392463
 20
-24.12447380506126
 30
0.0
 11
245.940706605913
 21
-24.12447380506126
 31
0.0
  0
LINE
  5
83B
330
7B0
100
AcDbEntity
  8
0
 62
     0
370
    -2
100
AcDbLine
 10
265.3682757373892
 20
-24.12447380506126
 30
0.0
 11
262.2740399392463
 21
-24.12447380506126
 31
0.0
  0
INSERT
  5
83C
330
7B0
100
AcDbEntity
  8
0
 62
     0
370
    -2
100
AcDbBlockReference
  2
_Open30
 10
265.3682757373892
 20
-24.12447380506126
 30
0.0
 41
2.5
 42
2.5
 43
2.5
 50
180.0
  0
INSERT
  5
83D
330
7B0
100
AcDbEntity
  8
0
 62
     0
370
    -2
100
AcDbBlockReference
  2
_Open30
 10
262.2740399392463
 20
-24.12447380506126
 30
0.0
 41
2.5
 42
2.5
 43
2.5
  0
MTEXT
  5
83E
330
7B0
100
AcDbEntity
  8
0
 62
     4
100
AcDbMText
 10
251.1490399392463
 20
-22.24947380506126
 30
0.0
 40
2.5
 41
0.0
 71
     5
 72
     1
  1
15.47
  7
高2.5
 73
     1
 44
1.0
1001
ACAD
1000
MTEXTBEGIN
1070
    73
1070
     1
1070
    44
1040
1.0
1070
    74
1070
     0
1000
MTEXTEND
  0
POINT
  5
83F
330
7B0
100
AcDbEntity
  8
Defpoints
 62
     0
100
AcDbPoint
 10
265.3682757373892
 20
-22.57858173559794
 30
0.0
  0
POINT
  5
840
330
7B0
100
AcDbEntity
  8
Defpoints
 62
     0
100
AcDbPoint
 10
262.2740399392463
 20
-22.57858173559794
 30
0.0
  0
POINT
  5
841
330
7B0
100
AcDbEntity
  8
Defpoints
 62
     0
100
AcDbPoint
 10
262.2740399392463
 20
-24.12447380506126
 30
0.0
  0
ENDBLK
  5
7B2
330
7B0
100
AcDbEntity
  8
0
100
AcDbBlockEnd
  0
BLOCK
  5
7BF
330
7BE
100
AcDbEntity
  8
0
100
AcDbBlockBegin
  2
*D16
 70
     1
 10
0.0
 20
0.0
 30
0.0
  3
*D16
  1

  0
LINE
  5
842
330
7BE
100
AcDbEntity
  8
0
 62
     0
370
    -2
100
AcDbLine
 10
267.0974073454747
 20
-28.28467145144441
 30
0.0
 11
267.0974073454747
 21
-30.5577591138117
 31
0.0
  0
LINE
  5
843
330
7BE
100
AcDbEntity
  8
0
 62
     0
370
    -2
100
AcDbLine
 10
263.0931023922829
 20
-28.28467145144441
 30
0.0
 11
263.0931023922829
 21
-30.5577591138117
 31
0.0
  0
LINE
  5
844
330
7BE
100
AcDbEntity
  8
0
 62
     0
370
    -2
100
AcDbLine
 10
269.5974073454747
 20
-29.3077591138117
 30
0.0
 11
272.0974073454747
 21
-29.3077591138117
 31
0.0
  0
LINE
  5
845
330
7BE
100
AcDbEntity
  8
0
 62
     0
370
    -2
100
AcDbLine
 10
260.5931023922829
 20
-29.3077591138117
 30
0.0
 11
248.8431023922829
 21
-29.3077591138117
 31
0.0
  0
LINE
  5
846
330
7BE
100
AcDbEntity
  8
0
 62
     0
370
    -2
100
AcDbLine
 10
267.0974073454747
 20
-29.3077591138117
 30
0.0
 11
263.0931023922829
 21
-29.3077591138117
 31
0.0
  0
INSERT
  5
847
330
7BE
100
AcDbEntity
  8
0
 62
     0
370
    -2
100
AcDbBlockReference
  2
_Open30
 10
267.0974073454747
 20
-29.3077591138117
 30
0.0
 41
2.5
 42
2.5
 43
2.5
 50
180.0
  0
INSERT
  5
848
330
7BE
100
AcDbEntity
  8
0
 62
     0
370
    -2
100
AcDbBlockReference
  2
_Open30
 10
263.0931023922829
 20
-29.3077591138117
 30
0.0
 41
2.5
 42
2.5
 43
2.5
  0
MTEXT
  5
849
330
7BE
100
AcDbEntity
  8
0
 62
     4
100
AcDbMText
 10
253.4681023922829
 20
-27.0827591138117
 30
0.0
 40
3.2
 41
0.0
 71
     5
 72
     1
  1
8.01
  7
高3.2
 73
     1
 44
1.0
1001
ACAD
1000
MTEXTBEGIN
1070
    73
1070
     1
1070
    44
1040
1.0
1070
    74
1070
     0
1000
MTEXTEND
  0
POINT
  5
84A
330
7BE
100
AcDbEntity
  8
Defpoints
 62
     0
100
AcDbPoint
 10
267.0974073454747
 20
-28.03467145144441
 30
0.0
  0
POINT
  5
84B
330
7BE
100
AcDbEntity
  8
Defpoints
 62
     0
100
AcDbPoint
 10
263.0931023922829
 20
-28.03467145144441
 30
0.0
  0
POINT
  5
84C
330
7BE
100
AcDbEntity
  8
Defpoints
 62
     0
100
AcDbPoint
 10
263.0931023922829
 20
-29.3077591138117
 30
0.0
  0
ENDBLK
  5
7C0
330
7BE
100
AcDbEntity
  8
0
100
AcDbBlockEnd
  0
BLOCK
  5
7CD
330
7CC
100
AcDbEntity
  8
0
100
AcDbBlockBegin
  2
*D17
 70
     1
 10
0.0
 20
0.0
 30
0.0
  3
*D17
  1

  0
LINE
  5
84D
330
7CC
100
AcDbEntity
  8
0
 62
     0
370
    -2
100
AcDbLine
 10
267.0064006434624
 20
-33.55889141947603
 30
0.0
 11
267.0064006434624
 21
-35.37730492693242
 31
0.0
  0
LINE
  5
84E
330
7CC
100
AcDbEntity
  8
0
 62
     0
370
    -2
100
AcDbLine
 10
262.2740399392463
 20
-33.55889141947603
 30
0.0
 11
262.2740399392463
 21
-35.37730492693242
 31
0.0
  0
LINE
  5
84F
330
7CC
100
AcDbEntity
  8
0
 62
     0
370
    -2
100
AcDbLine
 10
269.5064006434624
 20
-34.12730492693242
 30
0.0
 11
272.0064006434624
 21
-34.12730492693242
 31
0.0
  0
LINE
  5
850
330
7CC
100
AcDbEntity
  8
0
 62
     0
370
    -2
100
AcDbLine
 10
259.7740399392463
 20
-34.12730492693242
 30
0.0
 11
238.0240399392463
 21
-34.12730492693242
 31
0.0
  0
LINE
  5
851
330
7CC
100
AcDbEntity
  8
0
 62
     0
370
    -2
100
AcDbLine
 10
267.0064006434624
 20
-34.12730492693242
 30
0.0
 11
262.2740399392463
 21
-34.12730492693242
 31
0.0
  0
INSERT
  5
852
330
7CC
100
AcDbEntity
  8
0
 62
     0
370
    -2
100
AcDbBlockReference
  2
_Open30
 10
267.0064006434624
 20
-34.12730492693242
 30
0.0
 41
2.5
 42
2.5
 43
2.5
 50
180.0
  0
INSERT
  5
853
330
7CC
100
AcDbEntity
  8
0
 62
     0
370
    -2
100
AcDbBlockReference
  2
_Open30
 10
262.2740399392463
 20
-34.12730492693242
 30
0.0
 41
2.5
 42
2.5
 43
2.5
  0
MTEXT
  5
854
330
7CC
100
AcDbEntity
  8
0
 62
     4
100
AcDbMText
 10
247.6490399392464
 20
-31.25230492693243
 30
0.0
 40
4.5
 41
0.0
 71
     5
 72
     1
  1
47.32
  7
高4.5
 73
     1
 44
1.0
1001
ACAD
1000
MTEXTBEGIN
1070
    73
1070
     1
1070
    44
1040
1.0
1070
    74
1070
     0
1000
MTEXTEND
  0
POINT
  5
855
330
7CC
100
AcDbEntity
  8
Defpoints
 62
     0
100
AcDbPoint
 10
267.0064006434624
 20
-33.30889141947603
 30
0.0
  0
POINT
  5
856
330
7CC
100
AcDbEntity
  8
Defpoints
 62
     0
100
AcDbPoint
 10
262.2740399392463
 20
-33.30889141947603
 30
0.0
  0
POINT
  5
857
330
7CC
100
AcDbEntity
  8
Defpoints
 62
     0
100
AcDbPoint
 10
262.2740399392463
 20
-34.12730492693242
 30
0.0
  0
ENDBLK
  5
7CE
330
7CC
100
AcDbEntity
  8
0
100
AcDbBlockEnd
  0
BLOCK
  5
7DB
330
7DA
100
AcDbEntity
  8
0
100
AcDbBlockBegin
  2
*D18
 70
     1
 10
0.0
 20
0.0
 30
0.0
  3
*D18
  1

  0
LINE
  5
858
330
7DA
100
AcDbEntity
  8
0
 62
     0
370
    -2
100
AcDbLine
 10
288.4840369114699
 20
-17.37249216283555
 30
0.0
 11
288.4840369114699
 21
-20.28212358484438
 31
0.0
  0
LINE
  5
859
330
7DA
100
AcDbEntity
  8
0
 62
     0
370
    -2
100
AcDbLine
 10
286.0268498573496
 20
-17.37249216283555
 30
0.0
 11
286.0268498573496
 21
-20.28212358484438
 31
0.0
  0
LINE
  5
85A
330
7DA
100
AcDbEntity
  8
0
 62
     0
370
    -2
100
AcDbLine
 10
290.9840369114699
 20
-19.03212358484438
 30
0.0
 11
293.4840369114699
 21
-19.03212358484438
 31
0.0
  0
LINE
  5
85B
330
7DA
100
AcDbEntity
  8
0
 62
     0
370
    -2
100
AcDbLine
 10
283.5268498573496
 20
-19.03212358484438
 30
0.0
 11
261.9268498573496
 21
-19.03212358484438
 31
0.0
  0
LINE
  5
85C
330
7DA
100
AcDbEntity
  8
0
 62
     0
370
    -2
100
AcDbLine
 10
288.4840369114699
 20
-19.03212358484438
 30
0.0
 11
286.0268498573496
 21
-19.03212358484438
 31
0.0
  0
INSERT
  5
85D
330
7DA
100
AcDbEntity
  8
0
 62
     0
370
    -2
100
AcDbBlockReference
  2
_Open30
 10
288.4840369114699
 20
-19.03212358484438
 30
0.0
 41
2.5
 42
2.5
 43
2.5
 50
180.0
  0
INSERT
  5
85E
330
7DA
100
AcDbEntity
  8
0
 62
     0
370
    -2
100
AcDbBlockReference
  2
_Open30
 10
286.0268498573496
 20
-19.03212358484438
 30
0.0
 41
2.5
 42
2.5
 43
2.5
  0
MTEXT
  5
85F
330
7DA
100
AcDbEntity
  8
0
 62
     4
100
AcDbMText
 10
271.4768498573496
 20
-15.25712358484438
 30
0.0
 40
6.299999999999998
 41
0.0
 71
     5
 72
     1
  1
0.25
  7
高6.3
 73
     1
 44
1.0
1001
ACAD
1000
MTEXTBEGIN
1070
    73
1070
     1
1070
    44
1040
1.0
1070
    74
1070
     0
1000
MTEXTEND
  0
POINT
  5
860
330
7DA
100
AcDbEntity
  8
Defpoints
 62
     0
100
AcDbPoint
 10
288.4840369114699
 20
-17.12249216283555
 30
0.0
  0
POINT
  5
861
330
7DA
100
AcDbEntity
  8
Defpoints
 62
     0
100
AcDbPoint
 10
286.0268498573496
 20
-17.12249216283555
 30
0.0
  0
POINT
  5
862
330
7DA
100
AcDbEntity
  8
Defpoints
 62
     0
100
AcDbPoint
 10
286.0268498573496
 20
-19.03212358484438
 30
0.0
  0
ENDBLK
  5
7DC
330
7DA
100
AcDbEntity
  8
0
100
AcDbBlockEnd
  0
BLOCK
  5
7E9
330
7E8
100
AcDbEntity
  8
0
100
AcDbBlockBegin
  2
*D19
 70
     1
 10
0.0
 20
0.0
 30
0.0
  3
*D19
  1

  0
LINE
  5
863
330
7E8
100
AcDbEntity
  8
0
 62
     0
370
    -2
100
AcDbLine
 10
290.1221618175431
 20
-22.82858173559794
 30
0.0
 11
290.1221618175431
 21
-25.37447380506126
 31
0.0
  0
LINE
  5
864
330
7E8
100
AcDbEntity
  8
0
 62
     0
370
    -2
100
AcDbLine
 10
287.0279260194002
 20
-22.82858173559794
 30
0.0
 11
287.0279260194002
 21
-25.37447380506126
 31
0.0
  0
LINE
  5
865
330
7E8
100
AcDbEntity
  8
0
 62
     0
370
    -2
100
AcDbLine
 10
292.6221618175431
 20
-24.12447380506126
 30
0.0
 11
295.1221618175431
 21
-24.12447380506126
 31
0.0
  0
LINE
  5
866
330
7E8
100
AcDbEntity
  8
0
 62
     0
370
    -2
100
AcDbLine
 10
284.5279260194002
 20
-24.12447380506126
 30
0.0
 11
272.5279260194002
 21
-24.12447380506126
 31
0.0
  0
LINE
  5
867
330
7E8
100
AcDbEntity
  8
0
 62
     0
370
    -2
100
AcDbLine
 10
290.1221618175431
 20
-24.12447380506126
 30
0.0
 11
287.0279260194002
 21
-24.12447380506126
 31
0.0
  0
INSERT
  5
868
330
7E8
100
AcDbEntity
  8
0
 62
     0
370
    -2
100
AcDbBlockReference
  2
_Open30
 10
290.1221618175431
 20
-24.12447380506126
 30
0.0
 41
2.5
 42
2.5
 43
2.5
 50
180.0
  0
INSERT
  5
869
330
7E8
100
AcDbEntity
  8
0
 62
     0
370
    -2
100
AcDbBlockReference
  2
_Open30
 10
287.0279260194002
 20
-24.12447380506126
 30
0.0
 41
2.5
 42
2.5
 43
2.5
  0
MTEXT
  5
86A
330
7E8
100
AcDbEntity
  8
0
 62
     4
100
AcDbMText
 10
277.1529260194002
 20
-21.99947380506126
 30
0.0
 40
3.0
 41
0.0
 71
     5
 72
     1
  1
1.55
 73
     1
 44
1.0
1001
ACAD
1000
MTEXTBEGIN
1070
    73
1070
     1
1070
    44
1040
1.0
1070
    74
1070
     0
1000
MTEXTEND
  0
POINT
  5
86B
330
7E8
100
AcDbEntity
  8
Defpoints
 62
     0
100
AcDbPoint
 10
290.1221618175431
 20
-22.57858173559794
 30
0.0
  0
POINT
  5
86C
330
7E8
100
AcDbEntity
  8
Defpoints
 62
     0
100
AcDbPoint
 10
287.0279260194002
 20
-22.57858173559794
 30
0.0
  0
POINT
  5
86D
330
7E8
100
AcDbEntity
  8
Defpoints
 62
     0
100
AcDbPoint
 10
287.0279260194002
 20
-24.12447380506126
 30
0.0
  0
ENDBLK
  5
7EA
330
7E8
100
AcDbEntity
  8
0
100
AcDbBlockEnd
  0
BLOCK
  5
7F7
330
7F6
100
AcDbEntity
  8
0
100
AcDbBlockBegin
  2
*D20
 70
     1
 10
0.0
 20
0.0
 30
0.0
  3
*D20
  1

  0
LINE
  5
86E
330
7F6
100
AcDbEntity
  8
0
 62
     0
370
    -2
100
AcDbLine
 10
291.8512934256286
 20
-28.28467145144441
 30
0.0
 11
291.8512934256286
 21
-30.5577591138117
 31
0.0
  0
LINE
  5
86F
330
7F6
100
AcDbEntity
  8
0
 62
     0
370
    -2
100
AcDbLine
 10
287.8469884724367
 20
-28.28467145144441
 30
0.0
 11
287.8469884724367
 21
-30.5577591138117
 31
0.0
  0
LINE
  5
870
330
7F6
100
AcDbEntity
  8
0
 62
     0
370
    -2
100
AcDbLine
 10
294.3512934256286
 20
-29.3077591138117
 30
0.0
 11
296.8512934256286
 21
-29.3077591138117
 31
0.0
  0
LINE
  5
871
330
7F6
100
AcDbEntity
  8
0
 62
     0
370
    -2
100
AcDbLine
 10
285.3469884724368
 20
-29.3077591138117
 30
0.0
 11
277.0136551391034
 21
-29.3077591138117
 31
0.0
  0
LINE
  5
872
330
7F6
100
AcDbEntity
  8
0
 62
     0
370
    -2
100
AcDbLine
 10
291.8512934256286
 20
-29.3077591138117
 30
0.0
 11
287.8469884724367
 21
-29.3077591138117
 31
0.0
  0
INSERT
  5
873
330
7F6
100
AcDbEntity
  8
0
 62
     0
370
    -2
100
AcDbBlockReference
  2
_Open30
 10
291.8512934256286
 20
-29.3077591138117
 30
0.0
 41
2.5
 42
2.5
 43
2.5
 50
180.0
  0
INSERT
  5
874
330
7F6
100
AcDbEntity
  8
0
 62
     0
370
    -2
100
AcDbBlockReference
  2
_Open30
 10
287.8469884724367
 20
-29.3077591138117
 30
0.0
 41
2.5
 42
2.5
 43
2.5
  0
MTEXT
  5
875
330
7F6
100
AcDbEntity
  8
0
 62
     4
100
AcDbMText
 10
279.4719884724368
 20
-27.6827591138117
 30
0.0
 40
2.0
 41
0.0
 71
     5
 72
     1
  1
0.8
  7
高2
 73
     1
 44
1.0
1001
ACAD
1000
MTEXTBEGIN
1070
    73
1070
     1
1070
    44
1040
1.0
1070
    74
1070
     0
1000
MTEXTEND
  0
POINT
  5
876
330
7F6
100
AcDbEntity
  8
Defpoints
 62
     0
100
AcDbPoint
 10
291.8512934256286
 20
-28.03467145144441
 30
0.0
  0
POINT
  5
877
330
7F6
100
AcDbEntity
  8
Defpoints
 62
     0
100
AcDbPoint
 10
287.8469884724367
 20
-28.03467145144441
 30
0.0
  0
POINT
  5
878
330
7F6
100
AcDbEntity
  8
Defpoints
 62
     0
100
AcDbPoint
 10
287.8469884724367
 20
-29.3077591138117
 30
0.0
  0
ENDBLK
  5
7F8
330
7F6
100
AcDbEntity
  8
0
100
AcDbBlockEnd
  0
BLOCK
  5
805
330
804
100
AcDbEntity
  8
0
100
AcDbBlockBegin
  2
*D21
 70
     1
 10
0.0
 20
0.0
 30
0.0
  3
*D21
  1

  0
LINE
  5
879
330
804
100
AcDbEntity
  8
0
 62
     0
370
    -2
100
AcDbLine
 10
291.7602867236163
 20
-33.55889141947603
 30
0.0
 11
291.7602867236163
 21
-35.37730492693242
 31
0.0
  0
LINE
  5
87A
330
804
100
AcDbEntity
  8
0
 62
     0
370
    -2
100
AcDbLine
 10
287.0279260194002
 20
-33.55889141947603
 30
0.0
 11
287.0279260194002
 21
-35.37730492693242
 31
0.0
  0
LINE
  5
87B
330
804
100
AcDbEntity
  8
0
 62
     0
370
    -2
100
AcDbLine
 10
294.2602867236163
 20
-34.12730492693242
 30
0.0
 11
296.7602867236163
 21
-34.12730492693242
 31
0.0
  0
LINE
  5
87C
330
804
100
AcDbEntity
  8
0
 62
     0
370
    -2
100
AcDbLine
 10
284.5279260194002
 20
-34.12730492693242
 30
0.0
 11
269.7779260194002
 21
-34.12730492693242
 31
0.0
  0
LINE
  5
87D
330
804
100
AcDbEntity
  8
0
 62
     0
370
    -2
100
AcDbLine
 10
291.7602867236163
 20
-34.12730492693242
 30
0.0
 11
287.0279260194002
 21
-34.12730492693242
 31
0.0
  0
INSERT
  5
87E
330
804
100
AcDbEntity
  8
0
 62
     0
370
    -2
100
AcDbBlockReference
  2
_Open30
 10
291.7602867236163
 20
-34.12730492693242
 30
0.0
 41
2.5
 42
2.5
 43
2.5
 50
180.0
  0
INSERT
  5
87F
330
804
100
AcDbEntity
  8
0
 62
     0
370
    -2
100
AcDbBlockReference
  2
_Open30
 10
287.0279260194002
 20
-34.12730492693242
 30
0.0
 41
2.5
 42
2.5
 43
2.5
  0
MTEXT
  5
880
330
804
100
AcDbEntity
  8
0
 62
     4
100
AcDbMText
 10
275.9029260194002
 20
-32.00230492693243
 30
0.0
 40
3.0
 41
0.0
 71
     5
 72
     1
  1
18.93
 73
     1
 44
1.0
1001
ACAD
1000
MTEXTBEGIN
1070
    73
1070
     1
1070
    44
1040
1.0
1070
    74
1070
     0
1000
MTEXTEND
  0
POINT
  5
881
330
804
100
AcDbEntity
  8
Defpoints
 62
     0
100
AcDbPoint
 10
291.7602867236163
 20
-33.30889141947603
 30
0.0
  0
POINT
  5
882
330
804
100
AcDbEntity
  8
Defpoints
 62
     0
100
AcDbPoint
 10
287.0279260194002
 20
-33.30889141947603
 30
0.0
  0
POINT
  5
883
330
804
100
AcDbEntity
  8
Defpoints
 62
     0
100
AcDbPoint
 10
287.0279260194002
 20
-34.12730492693242
 30
0.0
  0
ENDBLK
  5
806
330
804
100
AcDbEntity
  8
0
100
AcDbBlockEnd
  0
BLOCK
  5
813
330
812
100
AcDbEntity
  8
0
100
AcDbBlockBegin
  2
*D22
 70
     1
 10
0.0
 20
0.0
 30
0.0
  3
*D22
  1

  0
LINE
  5
884
330
812
100
AcDbEntity
  8
0
 62
     0
370
    -2
100
AcDbLine
 10
288.955859872478
 20
-38.61473162606581
 30
0.0
 11
288.955859872478
 21
-40.92465270294133
 31
0.0
  0
LINE
  5
885
330
812
100
AcDbEntity
  8
0
 62
     0
370
    -2
100
AcDbLine
 10
284.3671846703301
 20
-38.61473162606581
 30
0.0
 11
284.3671846703301
 21
-40.92465270294133
 31
0.0
  0
LINE
  5
886
330
812
100
AcDbEntity
  8
0
 62
     0
370
    -2
100
AcDbLine
 10
291.4558598724779
 20
-39.67465270294133
 30
0.0
 11
293.9558598724779
 21
-39.67465270294133
 31
0.0
  0
LINE
  5
887
330
812
100
AcDbEntity
  8
0
 62
     0
370
    -2
100
AcDbLine
 10
281.8671846703301
 20
-39.67465270294133
 30
0.0
 11
267.11718467033
 21
-39.67465270294133
 31
0.0
  0
LINE
  5
888
330
812
100
AcDbEntity
  8
0
 62
     0
370
    -2
100
AcDbLine
 10
288.955859872478
 20
-39.67465270294133
 30
0.0
 11
284.3671846703301
 21
-39.67465270294133
 31
0.0
  0
INSERT
  5
889
330
812
100
AcDbEntity
  8
0
 62
     0
370
    -2
100
AcDbBlockReference
  2
_Open30
 10
288.955859872478
 20
-39.67465270294133
 30
0.0
 41
2.5
 42
2.5
 43
2.5
 50
180.0
  0
INSERT
  5
88A
330
812
100
AcDbEntity
  8
0
 62
     0
370
    -2
100
AcDbBlockReference
  2
_Open30
 10
284.3671846703301
 20
-39.67465270294133
 30
0.0
 41
2.5
 42
2.5
 43
2.5
  0
MTEXT
  5
88B
330
812
100
AcDbEntity
  8
0
 62
     4
100
AcDbMText
 10
273.2421846703301
 20
-37.54965270294133
 30
0.0
 40
3.0
 41
0.0
 71
     5
 72
     1
  1
13.77
 73
     1
 44
1.0
1001
ACAD
1000
MTEXTBEGIN
1070
    73
1070
     1
1070
    44
1040
1.0
1070
    74
1070
     0
1000
MTEXTEND
  0
POINT
  5
88C
330
812
100
AcDbEntity
  8
Defpoints
 62
     0
100
AcDbPoint
 10
288.955859872478
 20
-38.3647316260658
 30
0.0
  0
POINT
  5
88D
330
812
100
AcDbEntity
  8
Defpoints
 62
     0
100
AcDbPoint
 10
284.3671846703301
 20
-38.3647316260658
 30
0.0
  0
POINT
  5
88E
330
812
100
AcDbEntity
  8
Defpoints
 62
     0
100
AcDbPoint
 10
284.3671846703301
 20
-39.67465270294133
 30
0.0
  0
ENDBLK
  5
814
330
812
100
AcDbEntity
  8
0
100
AcDbBlockEnd
  0
BLOCK
  5
821
330
820
100
AcDbEntity
  8
0
100
AcDbBlockBegin
  2
*D23
 70
     1
 10
0.0
 20
0.0
 30
0.0
  3
*D23
  1

  0
LINE
  5
88F
330
820
100
AcDbEntity
  8
0
 62
     0
370
    -2
100
AcDbLine
 10
281.8595770393276
 20
-7.685240307791445
 30
0.0
 11
281.8595770393276
 21
-0.2887068298537088
 31
0.0
  0
LINE
  5
890
330
820
100
AcDbEntity
  8
0
 62
     0
370
    -2
100
AcDbLine
 10
271.9211026698376
 20
-7.685240307791445
 30
0.0
 11
271.9211026698376
 21
-0.2887068298537088
 31
0.0
  0
LINE
  5
891
330
820
100
AcDbEntity
  8
0
 62
     0
370
    -2
100
AcDbLine
 10
279.3595770393277
 20
-1.538706829853708
 30
0.0
 11
274.4211026698376
 21
-1.538706829853708
 31
0.0
  0
INSERT
  5
892
330
820
100
AcDbEntity
  8
0
 62
     0
370
    -2
100
AcDbBlockReference
  2
_Open30
 10
281.8595770393276
 20
-1.538706829853708
 30
0.0
 41
2.5
 42
2.5
 43
2.5
  0
INSERT
  5
893
330
820
100
AcDbEntity
  8
0
 62
     0
370
    -2
100
AcDbBlockReference
  2
_Open30
 10
271.9211026698376
 20
-1.538706829853708
 30
0.0
 41
2.5
 42
2.5
 43
2.5
 50
180.0
  0
MTEXT
  5
894
330
820
100
AcDbEntity
  8
0
 62
     4
100
AcDbMText
 10
276.8903398545826
 20
1.53629317014629
 30
0.0
 40
3.0
 41
0.0
 71
     5
 72
     1
  1
9.94\H0.7X;\S+0^ -0.02;
 73
     1
 44
1.0
1001
ACAD
1000
MTEXTBEGIN
1070
    73
1070
     1
1070
    44
1040
1.0
1070
    74
1070
     0
1000
MTEXTEND
  0
POINT
  5
895
330
820
100
AcDbEntity
  8
Defpoints
 62
     0
100
AcDbPoint
 10
281.8595770393276
 20
-7.935240307791445
 30
0.0
  0
POINT
  5
896
330
820
100
AcDbEntity
  8
Defpoints
 62
     0
100
AcDbPoint
 10
271.9211026698376
 20
-7.935240307791445
 30
0.0
  0
POINT
  5
897
330
820
100
AcDbEntity
  8
Defpoints
 62
     0
100
AcDbPoint
 10
271.9211026698376
 20
-1.538706829853708
 30
0.0
  0
ENDBLK
  5
822
330
820
100
AcDbEntity
  8
0
100
AcDbBlockEnd
  0
ENDSEC
  0
SECTION
  2
ENTITIES
  0
TEXT
  5
BB
330
6B
100
AcDbEntity
  8
0
 62
     3
100
AcDbText
 10
128.614454
 20
-127.506079
 30
0.0
 40
3.2
  1
FREE
  7
高3.2
100
AcDbText
  0
LINE
  5
BC
330
6B
100
AcDbEntity
  8
0
100
AcDbLine
 10
115.450939
 20
-43.044593
 30
0.0
 11
115.450939
 21
-89.61419300000001
 31
0.0
  0
LINE
  5
BD
330
6B
100
AcDbEntity
  8
0
 62
     3
100
AcDbLine
 10
159.7387930586044
 20
-43.044593
 30
0.0
 11
159.7387930586044
 21
-89.61419300000001
 31
0.0
  0
TEXT
  5
BE
330
6B
100
AcDbEntity
  8
0
 62
     3
100
AcDbText
 10
-129.9575
 20
77.889381
 30
0.0
 40
5.4
  1
SuperBooster
 41
0.6594479999999999
100
AcDbText
  0
LINE
  5
BF
330
6B
100
AcDbEntity
  8
0
 62
     3
100
AcDbLine
 10
-78.914354
 20
75.2715
 30
0.0
 11
-87.57420000000001
 21
75.2715
 31
0.0
  0
LINE
  5
C0
330
6B
100
AcDbEntity
  8
0
 62
     3
100
AcDbLine
 10
-87.57420000000001
 20
66.58399300000001
 30
0.0
 11
-78.914354
 21
66.58399300000001
 31
0.0
  0
LINE
  5
C1
330
6B
100
AcDbEntity
  8
0
 62
     3
100
AcDbLine
 10
-89.1102
 20
68.119993
 30
0.0
 11
-89.1102
 21
73.7355
 31
0.0
  0
LINE
  5
C2
330
6B
100
AcDbEntity
  8
0
 62
     3
100
AcDbLine
 10
-77.378354
 20
68.119993
 30
0.0
 11
-77.378354
 21
73.7355
 31
0.0
  0
ARC
  5
C3
330
6B
100
AcDbEntity
  8
0
 62
     3
100
AcDbCircle
 10
-87.57420000000001
 20
73.7355
 30
0.0
 40
1.536
100
AcDbArc
 50
90.0
 51
180.0
  0
ARC
  5
C4
330
6B
100
AcDbEntity
  8
0
 62
     3
100
AcDbCircle
 10
-78.914354
 20
73.7355
 30
0.0
 40
1.536
100
AcDbArc
 50
0.0
 51
90.0
  0
ARC
  5
C5
330
6B
100
AcDbEntity
  8
0
 62
     3
100
AcDbCircle
 10
-78.914354
 20
68.119993
 30
0.0
 40
1.536
100
AcDbArc
 50
270.0
 51
0.0
  0
ARC
  5
C6
330
6B
100
AcDbEntity
  8
0
 62
     3
100
AcDbCircle
 10
-87.57420000000001
 20
68.119993
 30
0.0
 40
1.536
100
AcDbArc
 50
180.0
 51
270.0
  0
TEXT
  5
C7
330
6B
100
AcDbEntity
  8
0
 62
     3
100
AcDbText
 10
106.6122836938202
 20
-106.078746
 30
0.0
 40
4.5
  1
急速充電器
  7
高4.5
100
AcDbText
  0
ARC
  5
C8
330
6B
100
AcDbEntity
  8
0
 62
     3
100
AcDbCircle
 10
109.400656
 20
-5.931919
 30
0.0
 40
1.169999999999999
100
AcDbArc
 50
291.595
 51
68.405
  0
ARC
  5
C9
330
6B
100
AcDbEntity
  8
0
 62
     3
100
AcDbCircle
 10
116.584656
 20
-11.996919
 30
0.0
 40
8.39
100
AcDbArc
 50
143.61
 51
181.907
  0
ARC
  5
CA
330
6B
100
AcDbEntity
  8
0
 62
     3
100
AcDbCircle
 10
115.336656
 20
-5.931919
 30
0.0
 40
1.169999999999999
100
AcDbArc
 50
111.595
 51
248.405
  0
ARC
  5
CB
330
6B
100
AcDbEntity
  8
0
 62
     3
100
AcDbCircle
 10
108.152656
 20
-11.996919
 30
0.0
 40
8.39
100
AcDbArc
 50
358.093
 51
36.39
  0
LINE
  5
CC
330
6B
100
AcDbEntity
  8
0
 62
     3
100
AcDbLine
 10
111.099656
 20
-1.218919
 30
0.0
 11
113.637656
 21
-1.218919
 31
0.0
  0
LINE
  5
CD
330
6B
100
AcDbEntity
  8
0
 62
     3
100
AcDbLine
 10
113.637656
 20
-1.218919
 30
0.0
 11
113.999656
 21
-4.480919
 31
0.0
  0
LINE
  5
CE
330
6B
100
AcDbEntity
  8
0
 62
     3
100
AcDbLine
 10
113.999656
 20
-4.480919
 30
0.0
 11
110.736656
 21
-4.480919
 31
0.0
  0
LINE
  5
CF
330
6B
100
AcDbEntity
  8
0
 62
     3
100
AcDbLine
 10
110.736656
 20
-4.480919
 30
0.0
 11
111.099656
 21
-1.218919
 31
0.0
  0
LINE
  5
D0
330
6B
100
AcDbEntity
  8
0
 62
     3
100
AcDbLine
 10
110.736656
 20
-4.480919
 30
0.0
 11
109.830656
 21
-4.480919
 31
0.0
  0
LINE
  5
D1
330
6B
100
AcDbEntity
  8
0
 62
     3
100
AcDbLine
 10
109.830656
 20
-4.480919
 30
0.0
 11
109.830656
 21
-4.843919
 31
0.0
  0
LINE
  5
D2
330
6B
100
AcDbEntity
  8
0
 62
     3
100
AcDbLine
 10
114.906656
 20
-4.843919
 30
0.0
 11
114.906656
 21
-4.480919
 31
0.0
  0
LINE
  5
D3
330
6B
100
AcDbEntity
  8
0
 62
     3
100
AcDbLine
 10
114.906656
 20
-4.480919
 30
0.0
 11
113.999656
 21
-4.480919
 31
0.0
  0
LINE
  5
D4
330
6B
100
AcDbEntity
  8
0
 62
     3
100
AcDbLine
 10
108.199656
 20
-12.275919
 30
0.0
 11
116.537656
 21
-12.275919
 31
0.0
  0
LINE
  5
D5
330
6B
100
AcDbEntity
  8
0
 62
     3
100
AcDbLine
 10
113.456656
 20
3.491080999999998
 30
0.0
 11
113.456656
 21
-1.218919
 31
0.0
  0
LINE
  5
D6
330
6B
100
AcDbEntity
  8
0
 62
     3
100
AcDbLine
 10
111.280656
 20
2.503081
 30
0.0
 11
111.280656
 21
-1.218919
 31
0.0
  0
LINE
  5
D7
330
6B
100
AcDbEntity
  8
0
 62
     3
100
AcDbLine
 10
163.810256
 20
16.904709
 30
0.0
 11
158.910256
 21
16.904709
 31
0.0
  0
LINE
  5
D8
330
6B
100
AcDbEntity
  8
0
 62
     3
100
AcDbLine
 10
158.910256
 20
16.904709
 30
0.0
 11
158.910256
 21
-0.5952910000000001
 31
0.0
  0
LINE
  5
D9
330
6B
100
AcDbEntity
  8
0
 62
     3
100
AcDbLine
 10
163.810256
 20
16.904709
 30
0.0
 11
163.810256
 21
-0.5952910000000001
 31
0.0
  0
LINE
  5
DA
330
6B
100
AcDbEntity
  8
0
 62
     3
100
AcDbLine
 10
163.810256
 20
-0.5952910000000001
 30
0.0
 11
158.910256
 21
-0.5952910000000001
 31
0.0
  0
LINE
  5
DB
330
6B
100
AcDbEntity
  8
0
 62
     3
100
AcDbLine
 10
162.653256
 20
-0.660291
 30
0.0
 11
162.653256
 21
-6.545291
 31
0.0
  0
LINE
  5
DC
330
6B
100
AcDbEntity
  8
0
 62
     3
100
AcDbLine
 10
162.653256
 20
-6.545291
 30
0.0
 11
164.262256
 21
-15.030291
 31
0.0
  0
LINE
  5
DD
330
6B
100
AcDbEntity
  8
0
 62
     3
100
AcDbLine
 10
164.217256
 20
-15.076291
 30
0.0
 11
161.801256
 21
-17.578291
 31
0.0
  0
LINE
  5
DE
330
6B
100
AcDbEntity
  8
0
 62
     3
100
AcDbLine
 10
158.475256
 20
-16.297291
 30
0.0
 11
161.699256
 21
-17.600291
 31
0.0
  0
LINE
  5
DF
330
6B
100
AcDbEntity
  8
0
 62
     3
100
AcDbLine
 10
156.433256
 20
-7.868291
 30
0.0
 11
158.415256
 21
-16.273291
 31
0.0
  0
LINE
  5
E0
330
6B
100
AcDbEntity
  8
0
 62
     3
100
AcDbLine
 10
154.039256
 20
-2.491290999999999
 30
0.0
 11
156.433256
 21
-7.868291
 31
0.0
  0
LINE
  5
E1
330
6B
100
AcDbEntity
  8
0
 62
     3
100
AcDbLine
 10
156.743256
 20
-1.217290999999999
 30
0.0
 11
158.928256
 21
-4.311291
 31
0.0
  0
LINE
  5
E2
330
6B
100
AcDbEntity
  8
0
 62
     3
100
AcDbLine
 10
152.957256
 20
-2.902290999999998
 30
0.0
 11
157.433256
 21
-0.9092909999999999
 31
0.0
  0
LINE
  5
E3
330
6B
100
AcDbEntity
  8
0
 62
     3
100
AcDbLine
 10
150.315256
 20
15.077709
 30
0.0
 11
157.433256
 21
-0.9092909999999999
 31
0.0
  0
LINE
  5
E4
330
6B
100
AcDbEntity
  8
0
 62
     3
100
AcDbLine
 10
145.839256
 20
13.084709
 30
0.0
 11
152.957256
 21
-2.902290999999998
 31
0.0
  0
LINE
  5
E5
330
6B
100
AcDbEntity
  8
0
 62
     3
100
AcDbLine
 10
145.839256
 20
13.084709
 30
0.0
 11
150.315256
 21
15.077709
 31
0.0
  0
LINE
  5
E6
330
6B
100
AcDbEntity
  8
0
 62
     3
100
AcDbLine
 10
159.665256
 20
-0.5952910000000001
 30
0.0
 11
158.512256
 21
-6.409291
 31
0.0
  0
LINE
  5
E7
330
6B
100
AcDbEntity
  8
0
 62
     3
100
AcDbLine
 10
162.160256
 20
-14.644291
 30
0.0
 11
158.512256
 21
-6.409291
 31
0.0
  0
LINE
  5
E8
330
6B
100
AcDbEntity
  8
0
 62
     3
100
AcDbLine
 10
162.160256
 20
-14.644291
 30
0.0
 11
161.801256
 21
-17.578291
 31
0.0
  0
LINE
  5
E9
330
6B
100
AcDbEntity
  8
0
 62
     3
100
AcDbLine
 10
160.178256
 20
-15.065291
 30
0.0
 11
161.699256
 21
-17.600291
 31
0.0
  0
LINE
  5
EA
330
6B
100
AcDbEntity
  8
0
 62
     3
100
AcDbLine
 10
160.178256
 20
-15.065291
 30
0.0
 11
160.169256
 21
-10.150291
 31
0.0
  0
LINE
  5
EB
330
6B
100
AcDbEntity
  8
0
 62
     3
100
AcDbLine
 10
144.303256
 20
12.435709
 30
0.0
 11
139.403256
 21
12.435709
 31
0.0
  0
LINE
  5
EC
330
6B
100
AcDbEntity
  8
0
 62
     3
100
AcDbLine
 10
139.403256
 20
12.435709
 30
0.0
 11
139.403256
 21
-5.064291
 31
0.0
  0
LINE
  5
ED
330
6B
100
AcDbEntity
  8
0
 62
     3
100
AcDbLine
 10
144.303256
 20
12.435709
 30
0.0
 11
144.303256
 21
-5.064291
 31
0.0
  0
LINE
  5
EE
330
6B
100
AcDbEntity
  8
0
 62
     3
100
AcDbLine
 10
144.303256
 20
-5.064291
 30
0.0
 11
139.403256
 21
-5.064291
 31
0.0
  0
LINE
  5
EF
330
6B
100
AcDbEntity
  8
0
 62
     3
100
AcDbLine
 10
143.147256
 20
-5.128290999999999
 30
0.0
 11
143.147256
 21
-11.014291
 31
0.0
  0
LINE
  5
F0
330
6B
100
AcDbEntity
  8
0
 62
     3
100
AcDbLine
 10
143.147256
 20
-11.014291
 30
0.0
 11
144.755256
 21
-19.499291
 31
0.0
  0
LINE
  5
F1
330
6B
100
AcDbEntity
  8
0
 62
     3
100
AcDbLine
 10
144.710256
 20
-19.545291
 30
0.0
 11
142.295256
 21
-22.047291
 31
0.0
  0
LINE
  5
F2
330
6B
100
AcDbEntity
  8
0
 62
     3
100
AcDbLine
 10
138.968256
 20
-20.766291
 30
0.0
 11
142.192256
 21
-22.068291
 31
0.0
  0
LINE
  5
F3
330
6B
100
AcDbEntity
  8
0
 62
     3
100
AcDbLine
 10
136.927256
 20
-12.336291
 30
0.0
 11
138.908256
 21
-20.741291
 31
0.0
  0
LINE
  5
F4
330
6B
100
AcDbEntity
  8
0
 62
     3
100
AcDbLine
 10
134.533256
 20
-6.959291
 30
0.0
 11
136.927256
 21
-12.336291
 31
0.0
  0
LINE
  5
F5
330
6B
100
AcDbEntity
  8
0
 62
     3
100
AcDbLine
 10
137.237256
 20
-5.685291
 30
0.0
 11
139.422256
 21
-8.780291
 31
0.0
  0
LINE
  5
F6
330
6B
100
AcDbEntity
  8
0
 62
     3
100
AcDbLine
 10
133.450256
 20
-7.371291
 30
0.0
 11
137.927256
 21
-5.378290999999999
 31
0.0
  0
LINE
  5
F7
330
6B
100
AcDbEntity
  8
0
 62
     3
100
AcDbLine
 10
130.809256
 20
10.608709
 30
0.0
 11
137.927256
 21
-5.378290999999999
 31
0.0
  0
LINE
  5
F8
330
6B
100
AcDbEntity
  8
0
 62
     3
100
AcDbLine
 10
126.332256
 20
8.615708999999997
 30
0.0
 11
133.450256
 21
-7.371291
 31
0.0
  0
LINE
  5
F9
330
6B
100
AcDbEntity
  8
0
 62
     3
100
AcDbLine
 10
126.332256
 20
8.615708999999997
 30
0.0
 11
130.809256
 21
10.608709
 31
0.0
  0
LINE
  5
FA
330
6B
100
AcDbEntity
  8
0
 62
     3
100
AcDbLine
 10
140.159256
 20
-5.064291
 30
0.0
 11
139.005256
 21
-10.878291
 31
0.0
  0
LINE
  5
FB
330
6B
100
AcDbEntity
  8
0
 62
     3
100
AcDbLine
 10
142.654256
 20
-19.113291
 30
0.0
 11
139.005256
 21
-10.878291
 31
0.0
  0
LINE
  5
FC
330
6B
100
AcDbEntity
  8
0
 62
     3
100
AcDbLine
 10
142.654256
 20
-19.113291
 30
0.0
 11
142.295256
 21
-22.047291
 31
0.0
  0
LINE
  5
FD
330
6B
100
AcDbEntity
  8
0
 62
     3
100
AcDbLine
 10
140.672256
 20
-19.534291
 30
0.0
 11
142.192256
 21
-22.068291
 31
0.0
  0
LINE
  5
FE
330
6B
100
AcDbEntity
  8
0
 62
     3
100
AcDbLine
 10
140.672256
 20
-19.534291
 30
0.0
 11
140.663256
 21
-14.619291
 31
0.0
  0
LINE
  5
FF
330
6B
100
AcDbEntity
  8
0
 62
     3
100
AcDbLine
 10
99.63774800000001
 20
33.290709
 30
0.0
 11
151.293256
 21
33.290709
 31
0.0
  0
LINE
  5
100
330
6B
100
AcDbEntity
  8
0
 62
     3
100
AcDbLine
 10
120.154256
 20
30.423709
 30
0.0
 11
99.63774800000001
 21
30.423709
 31
0.0
  0
LINE
  5
101
330
6B
100
AcDbEntity
  8
0
 62
     3
100
AcDbLine
 10
131.920256
 20
30.423709
 30
0.0
 11
120.154256
 21
30.423709
 31
0.0
  0
ARC
  5
102
330
6B
100
AcDbEntity
  8
0
 62
     3
100
AcDbCircle
 10
131.920256
 20
21.923709
 30
0.0
 40
8.5
100
AcDbArc
 50
0.0
 51
90.0
  0
ARC
  5
103
330
6B
100
AcDbEntity
  8
0
 62
     3
100
AcDbCircle
 10
131.787256
 20
21.790709
 30
0.0
 40
11.5
100
AcDbArc
 50
2.494829
 51
90.0
  0
LINE
  5
104
330
6B
100
AcDbEntity
  8
0
 62
     3
100
AcDbLine
 10
143.287256
 20
20.589717
 30
0.0
 11
143.287256
 21
12.435709
 31
0.0
  0
LINE
  5
105
330
6B
100
AcDbEntity
  8
0
 62
     3
100
AcDbLine
 10
140.420256
 20
19.897051
 30
0.0
 11
140.420256
 21
12.435709
 31
0.0
  0
ARC
  5
106
330
6B
100
AcDbEntity
  8
0
 62
     3
100
AcDbCircle
 10
151.426256
 20
21.923709
 30
0.0
 40
8.5
100
AcDbArc
 50
0.0
 51
90.0
  0
ARC
  5
107
330
6B
100
AcDbEntity
  8
0
 62
     3
100
AcDbCircle
 10
151.293256
 20
21.790709
 30
0.0
 40
11.5
100
AcDbArc
 50
4.060119999999998
 51
90.0
  0
LINE
  5
108
330
6B
100
AcDbEntity
  8
0
 62
     3
100
AcDbLine
 10
159.926256
 20
20.199036
 30
0.0
 11
159.926256
 21
16.904709
 31
0.0
  0
LINE
  5
109
330
6B
100
AcDbEntity
  8
0
 62
     3
100
AcDbLine
 10
162.793256
 20
20.901614
 30
0.0
 11
162.793256
 21
16.904709
 31
0.0
  0
LINE
  5
10A
330
6B
100
AcDbEntity
  8
0
 62
     3
100
AcDbLine
 10
151.426256
 20
30.423709
 30
0.0
 11
139.384711
 21
30.423709
 31
0.0
  0
LINE
  5
141
330
6B
100
AcDbEntity
  8
0
 62
     3
100
AcDbLine
 10
111.280656
 20
4.444008999999998
 30
0.0
 11
111.280656
 21
24.052041
 31
0.0
  0
LINE
  5
142
330
6B
100
AcDbEntity
  8
0
 62
     3
100
AcDbLine
 10
113.456657
 20
5.32932
 30
0.0
 11
113.456657
 21
23.977719
 31
0.0
  0
ARC
  5
143
330
6B
100
AcDbEntity
  8
0
 62
     3
100
AcDbCircle
 10
98.63774800000001
 20
34.667111
 30
0.0
 40
1.0
100
AcDbArc
 50
0.0
 51
90.0
  0
ARC
  5
144
330
6B
100
AcDbEntity
  8
0
 62
     3
100
AcDbCircle
 10
98.63774800000001
 20
28.267111
 30
0.0
 40
1.0
100
AcDbArc
 50
270.0
 51
0.0
  0
TEXT
  5
145
330
6B
100
AcDbEntity
  8
0
 62
     3
100
AcDbText
 10
157.820396
 20
-127.696106
 30
0.0
 40
3.2
  1
1995.4.26
  7
高3.2
100
AcDbText
  0
TEXT
  5
148
330
6B
100
AcDbEntity
  8
0
 62
     3
100
AcDbText
 10
85.59362400000003
 20
-75.808593
 30
0.0
 40
3.2
  1
セルスタート時電流
 41
0.8
  7
高3.2
100
AcDbText
  0
TEXT
  5
149
330
6B
100
AcDbEntity
  8
0
 62
     3
100
AcDbText
 10
85.59362400000003
 20
-82.46139300000001
 30
0.0
 40
3.2
  1
保護機能
  7
高3.2
100
AcDbText
  0
LINE
  5
166
330
6B
100
AcDbEntity
  8
0
 62
     3
100
AcDbLine
 10
-8.362251999999998
 20
25.467111
 30
0.0
 11
-2.362252
 21
19.467111
 31
0.0
  0
LINE
  5
167
330
6B
100
AcDbEntity
  8
0
 62
     3
100
AcDbLine
 10
-136.2237
 20
81.62254899999998
 30
0.0
 11
-136.2237
 21
68.422549
 31
0.0
  0
LINE
  5
168
330
6B
100
AcDbEntity
  8
0
 62
     3
100
AcDbLine
 10
-136.2237
 20
81.62254899999998
 30
0.0
 11
-158.4237
 21
81.62254899999998
 31
0.0
  0
LINE
  5
169
330
6B
100
AcDbEntity
  8
0
 62
     3
100
AcDbLine
 10
-158.4237
 20
68.422549
 30
0.0
 11
-158.4237
 21
81.62254899999998
 31
0.0
  0
LINE
  5
16A
330
6B
100
AcDbEntity
  8
0
 62
     3
100
AcDbLine
 10
-136.2237
 20
68.422549
 30
0.0
 11
-158.4237
 21
68.422549
 31
0.0
  0
LINE
  5
16B
330
6B
100
AcDbEntity
  8
0
 62
     3
100
AcDbLine
 10
-41.36225200000001
 20
19.467111
 30
0.0
 11
-163.282252
 21
19.467111
 31
0.0
  0
LINE
  5
16C
330
6B
100
AcDbEntity
  8
0
100
AcDbLine
 10
-92.46035199999999
 20
56.54029799999999
 30
0.0
 11
-99.180352
 21
56.54029799999999
 31
0.0
  0
LINE
  5
16D
330
6B
100
AcDbEntity
  8
0
100
AcDbLine
 10
-99.180352
 20
42.62029799999999
 30
0.0
 11
-99.180352
 21
56.54029799999999
 31
0.0
  0
LINE
  5
16E
330
6B
100
AcDbEntity
  8
0
100
AcDbLine
 10
-92.46035199999999
 20
56.54029799999999
 30
0.0
 11
-92.46035199999999
 21
42.62029799999999
 31
0.0
  0
LINE
  5
16F
330
6B
100
AcDbEntity
  8
0
100
AcDbLine
 10
-92.46035199999999
 20
42.62029799999999
 30
0.0
 11
-99.180352
 21
42.62029799999999
 31
0.0
  0
LINE
  5
170
330
6B
100
AcDbEntity
  8
0
100
AcDbLine
 10
163.810256
 20
13.054709
 30
0.0
 11
158.910256
 21
13.054709
 31
0.0
  0
LINE
  5
171
330
6B
100
AcDbEntity
  8
0
100
AcDbLine
 10
163.810256
 20
11.654709
 30
0.0
 11
158.910256
 21
11.654709
 31
0.0
  0
LINE
  5
172
330
6B
100
AcDbEntity
  8
0
100
AcDbLine
 10
163.810256
 20
10.254709
 30
0.0
 11
158.910256
 21
10.254709
 31
0.0
  0
LINE
  5
173
330
6B
100
AcDbEntity
  8
0
100
AcDbLine
 10
163.810256
 20
8.854708999999997
 30
0.0
 11
158.910256
 21
8.854708999999997
 31
0.0
  0
LINE
  5
174
330
6B
100
AcDbEntity
  8
0
100
AcDbLine
 10
163.810256
 20
7.454708999999997
 30
0.0
 11
158.910256
 21
7.454708999999997
 31
0.0
  0
LINE
  5
175
330
6B
100
AcDbEntity
  8
0
100
AcDbLine
 10
163.810256
 20
6.054708999999999
 30
0.0
 11
158.910256
 21
6.054708999999999
 31
0.0
  0
LINE
  5
176
330
6B
100
AcDbEntity
  8
0
100
AcDbLine
 10
163.810256
 20
4.654708999999998
 30
0.0
 11
158.910256
 21
4.654708999999998
 31
0.0
  0
LINE
  5
177
330
6B
100
AcDbEntity
  8
0
100
AcDbLine
 10
163.810256
 20
3.254709
 30
0.0
 11
158.910256
 21
3.254709
 31
0.0
  0
LINE
  5
178
330
6B
100
AcDbEntity
  8
0
100
AcDbLine
 10
163.810256
 20
1.854708999999999
 30
0.0
 11
158.910256
 21
1.854708999999999
 31
0.0
  0
LINE
  5
179
330
6B
100
AcDbEntity
  8
0
100
AcDbLine
 10
147.405256
 20
9.567708999999997
 30
0.0
 11
151.881256
 21
11.560709
 31
0.0
  0
LINE
  5
17A
330
6B
100
AcDbEntity
  8
0
100
AcDbLine
 10
147.974256
 20
8.288708999999997
 30
0.0
 11
152.450256
 21
10.281709
 31
0.0
  0
LINE
  5
17B
330
6B
100
AcDbEntity
  8
0
100
AcDbLine
 10
148.544256
 20
7.009708999999999
 30
0.0
 11
153.020256
 21
9.002708999999997
 31
0.0
  0
LINE
  5
17C
330
6B
100
AcDbEntity
  8
0
100
AcDbLine
 10
149.113256
 20
5.730709
 30
0.0
 11
153.589256
 21
7.723708999999997
 31
0.0
  0
LINE
  5
17D
330
6B
100
AcDbEntity
  8
0
100
AcDbLine
 10
149.682256
 20
4.451708999999999
 30
0.0
 11
154.159256
 21
6.444708999999997
 31
0.0
  0
LINE
  5
17E
330
6B
100
AcDbEntity
  8
0
100
AcDbLine
 10
150.821256
 20
1.893709
 30
0.0
 11
155.298256
 21
3.886708999999998
 31
0.0
  0
LINE
  5
17F
330
6B
100
AcDbEntity
  8
0
100
AcDbLine
 10
151.391256
 20
0.6147090000000001
 30
0.0
 11
155.867256
 21
2.607708999999998
 31
0.0
  0
LINE
  5
180
330
6B
100
AcDbEntity
  8
0
100
AcDbLine
 10
151.960216
 20
-0.6653090000000002
 30
0.0
 11
156.437216
 21
1.327690999999999
 31
0.0
  0
LINE
  5
181
330
6B
100
AcDbEntity
  8
0
100
AcDbLine
 10
150.252256
 20
3.172709
 30
0.0
 11
154.728256
 21
5.165708999999996
 31
0.0
  0
LINE
  5
182
330
6B
100
AcDbEntity
  8
0
100
AcDbLine
 10
144.303256
 20
8.585708999999999
 30
0.0
 11
139.403256
 21
8.585708999999999
 31
0.0
  0
LINE
  5
183
330
6B
100
AcDbEntity
  8
0
100
AcDbLine
 10
144.303256
 20
7.185708999999999
 30
0.0
 11
139.403256
 21
7.185708999999999
 31
0.0
  0
LINE
  5
184
330
6B
100
AcDbEntity
  8
0
100
AcDbLine
 10
144.303256
 20
5.785708999999997
 30
0.0
 11
139.403256
 21
5.785708999999997
 31
0.0
  0
LINE
  5
185
330
6B
100
AcDbEntity
  8
0
100
AcDbLine
 10
144.303256
 20
4.385708999999998
 30
0.0
 11
139.403256
 21
4.385708999999998
 31
0.0
  0
LINE
  5
186
330
6B
100
AcDbEntity
  8
0
100
AcDbLine
 10
144.303256
 20
2.985708999999998
 30
0.0
 11
139.403256
 21
2.985708999999998
 31
0.0
  0
LINE
  5
187
330
6B
100
AcDbEntity
  8
0
100
AcDbLine
 10
144.303256
 20
1.585709
 30
0.0
 11
139.403256
 21
1.585709
 31
0.0
  0
LINE
  5
188
330
6B
100
AcDbEntity
  8
0
100
AcDbLine
 10
144.303256
 20
0.185709
 30
0.0
 11
139.403256
 21
0.185709
 31
0.0
  0
LINE
  5
189
330
6B
100
AcDbEntity
  8
0
100
AcDbLine
 10
144.303256
 20
-1.214291
 30
0.0
 11
139.403256
 21
-1.214291
 31
0.0
  0
LINE
  5
18A
330
6B
100
AcDbEntity
  8
0
100
AcDbLine
 10
144.303256
 20
-2.614291
 30
0.0
 11
139.403256
 21
-2.614291
 31
0.0
  0
LINE
  5
18B
330
6B
100
AcDbEntity
  8
0
100
AcDbLine
 10
127.898256
 20
5.098708999999998
 30
0.0
 11
132.375256
 21
7.091708999999998
 31
0.0
  0
LINE
  5
18C
330
6B
100
AcDbEntity
  8
0
100
AcDbLine
 10
128.468256
 20
3.819708999999998
 30
0.0
 11
132.944256
 21
5.812708999999999
 31
0.0
  0
LINE
  5
18D
330
6B
100
AcDbEntity
  8
0
100
AcDbLine
 10
129.037256
 20
2.540709
 30
0.0
 11
133.514256
 21
4.533708999999999
 31
0.0
  0
LINE
  5
18E
330
6B
100
AcDbEntity
  8
0
100
AcDbLine
 10
129.607256
 20
1.261708999999997
 30
0.0
 11
134.083256
 21
3.254709
 31
0.0
  0
LINE
  5
18F
330
6B
100
AcDbEntity
  8
0
100
AcDbLine
 10
130.176256
 20
-0.017291
 30
0.0
 11
134.652256
 21
1.975708999999999
 31
0.0
  0
LINE
  5
190
330
6B
100
AcDbEntity
  8
0
100
AcDbLine
 10
130.746256
 20
-1.296291
 30
0.0
 11
135.222256
 21
0.6967090000000003
 31
0.0
  0
LINE
  5
191
330
6B
100
AcDbEntity
  8
0
100
AcDbLine
 10
131.315256
 20
-2.575290999999999
 30
0.0
 11
135.791256
 21
-0.5822910000000002
 31
0.0
  0
LINE
  5
192
330
6B
100
AcDbEntity
  8
0
100
AcDbLine
 10
131.884256
 20
-3.854291
 30
0.0
 11
136.361256
 21
-1.861290999999999
 31
0.0
  0
LINE
  5
193
330
6B
100
AcDbEntity
  8
0
100
AcDbLine
 10
132.453844
 20
-5.132474
 30
0.0
 11
136.930844
 21
-3.139474
 31
0.0
  0
LINE
  5
19B
330
6B
100
AcDbEntity
  8
0
100
AcDbLine
 10
109.830656
 20
-4.843919
 30
0.0
 11
114.906656
 21
-4.843919
 31
0.0
  0
LINE
  5
19C
330
6B
100
AcDbEntity
  8
0
100
AcDbLine
 10
110.736656
 20
-12.275919
 30
0.0
 11
110.736656
 21
-16.988919
 31
0.0
  0
LINE
  5
19D
330
6B
100
AcDbEntity
  8
0
100
AcDbLine
 10
110.736656
 20
-16.988919
 30
0.0
 11
110.011656
 21
-16.988919
 31
0.0
  0
LINE
  5
19E
330
6B
100
AcDbEntity
  8
0
100
AcDbLine
 10
110.011656
 20
-16.988919
 30
0.0
 11
110.011656
 21
-12.275919
 31
0.0
  0
LINE
  5
19F
330
6B
100
AcDbEntity
  8
0
100
AcDbLine
 10
114.725656
 20
-12.275919
 30
0.0
 11
114.725656
 21
-16.988919
 31
0.0
  0
LINE
  5
1A0
330
6B
100
AcDbEntity
  8
0
100
AcDbLine
 10
114.725656
 20
-16.988919
 30
0.0
 11
113.999656
 21
-16.988919
 31
0.0
  0
LINE
  5
1A1
330
6B
100
AcDbEntity
  8
0
100
AcDbLine
 10
113.999656
 20
-16.988919
 30
0.0
 11
113.999656
 21
-12.275919
 31
0.0
  0
LINE
  5
1A2
330
6B
100
AcDbEntity
  8
0
100
AcDbLine
 10
-98.22035200000001
 20
49.580298
 30
0.0
 11
-93.42035199999999
 21
49.580298
 31
0.0
  0
TEXT
  5
1A3
330
6B
100
AcDbEntity
  8
0
100
AcDbText
 10
-161.188906
 20
21.111978
 30
0.0
 40
3.072
  1
MODEL
100
AcDbText
  0
TEXT
  5
1A4
330
6B
100
AcDbEntity
  8
0
100
AcDbText
 10
-87.007737
 20
21.783349
 30
0.0
 40
3.839999999999998
  1
NICHIDO IND.CO.LTD
 41
0.708249
100
AcDbText
  0
LINE
  5
1A5
330
6B
100
AcDbEntity
  8
0
100
AcDbLine
 10
104.7366824494845
 20
-41.305928
 30
0.0
 11
142.5366824494845
 21
-41.305928
 31
0.0
  0
LINE
  5
1A8
330
6B
100
AcDbEntity
  8
0
 62
     3
100
AcDbLine
 10
169.300637
 20
-121.834277
 30
0.0
 11
169.300637
 21
-98.834277
 31
0.0
  0
LINE
  5
1AA
330
6B
100
AcDbEntity
  8
0
 62
     3
100
AcDbLine
 10
116.247027
 20
-128.834277
 30
0.0
 11
116.247027
 21
-114.834277
 31
0.0
  0
TEXT
  5
1AC
330
6B
100
AcDbEntity
  8
0
 62
     3
100
AcDbText
 10
145.310955
 20
-102.629161
 30
0.0
 40
2.0
  1
A
 41
0.7
100
AcDbText
  0
TEXT
  5
1AD
330
6B
100
AcDbEntity
  8
0
 62
     3
100
AcDbText
 10
147.846241
 20
-102.629161
 30
0.0
 40
2.0
  1
P
 41
0.7
100
AcDbText
  0
TEXT
  5
1AE
330
6B
100
AcDbEntity
  8
0
 62
     3
100
AcDbText
 10
150.381527
 20
-102.629161
 30
0.0
 40
2.0
  1
P
 41
0.7
100
AcDbText
  0
TEXT
  5
1AF
330
6B
100
AcDbEntity
  8
0
 62
     3
100
AcDbText
 10
152.916813
 20
-102.629161
 30
0.0
 40
2.0
  1
D
 41
0.7
100
AcDbText
  0
TEXT
  5
1B0
330
6B
100
AcDbEntity
  8
0
 62
     3
100
AcDbText
 10
158.285496
 20
-102.629161
 30
0.0
 40
2.0
  1
C
 41
0.7
100
AcDbText
  0
TEXT
  5
1B1
330
6B
100
AcDbEntity
  8
0
 62
     3
100
AcDbText
 10
160.820783
 20
-102.629161
 30
0.0
 40
2.0
  1
H
 41
0.7
100
AcDbText
  0
TEXT
  5
1B2
330
6B
100
AcDbEntity
  8
0
 62
     3
100
AcDbText
 10
163.356069
 20
-102.629161
 30
0.0
 40
2.0
  1
C
 41
0.7
100
AcDbText
  0
TEXT
  5
1B3
330
6B
100
AcDbEntity
  8
0
 62
     3
100
AcDbText
 10
165.891355
 20
-102.629161
 30
0.0
 40
2.0
  1
K
 41
0.7
100
AcDbText
  0
TEXT
  5
1B4
330
6B
100
AcDbEntity
  8
0
 62
     3
100
AcDbText
 10
171.565322
 20
-102.629161
 30
0.0
 40
2.0
  1
DESN
 41
1.216762999999998
100
AcDbText
  0
TEXT
  5
1B5
330
6B
100
AcDbEntity
  8
0
 62
     3
100
AcDbText
 10
86.558963
 20
-131.975659
 30
0.0
 40
2.0
  1
NICHIDO IND.CO.LTD
 41
1.274876
100
AcDbText
  0
LINE
  5
1B6
330
6B
100
AcDbEntity
  8
0
 62
     3
100
AcDbLine
 10
96.94199199999999
 20
-98.834277
 30
0.0
 11
96.94199199999999
 21
-121.834277
 31
0.0
  0
LINE
  5
1B7
330
6B
100
AcDbEntity
  8
0
 62
     3
100
AcDbLine
 10
143.300637
 20
-98.834277
 30
0.0
 11
143.300637
 21
-138.5
 31
0.0
  0
LINE
  5
1BC
330
6B
100
AcDbEntity
  8
0
 62
     3
100
AcDbLine
 10
156.300637
 20
-98.834277
 30
0.0
 11
156.300637
 21
-128.834277
 31
0.0
  0
TEXT
  5
1BD
330
6B
100
AcDbEntity
  8
0
 62
     3
100
AcDbText
 10
144.413081
 20
-127.969591
 30
0.0
 40
3.2
  1
作成日
 41
1.017225999999997
100
AcDbText
  0
LINE
  5
1BE
330
6B
100
AcDbEntity
  8
0
 62
     3
100
AcDbLine
 10
195.0
 20
-98.834277
 30
0.0
 11
83.696558
 21
-98.834277
 31
0.0
  0
LINE
  5
1BF
330
6B
100
AcDbEntity
  8
0
 62
     3
100
AcDbLine
 10
182.300637
 20
-121.834277
 30
0.0
 11
182.300637
 21
-98.834277
 31
0.0
  0
TEXT
  5
1C0
330
6B
100
AcDbEntity
  8
0
 62
     3
100
AcDbText
 10
185.62444
 20
-102.543343
 30
0.0
 40
1.8
  1
D
 41
0.666667
100
AcDbText
  0
TEXT
  5
1C1
330
6B
100
AcDbEntity
  8
0
 62
     3
100
AcDbText
 10
188.441068
 20
-102.543343
 30
0.0
 40
1.8
  1
E
 41
0.666667
100
AcDbText
  0
TEXT
  5
1C2
330
6B
100
AcDbEntity
  8
0
 62
     3
100
AcDbText
 10
191.257696
 20
-102.543343
 30
0.0
 40
1.8
  1
F
 41
0.666667
100
AcDbText
  0
TEXT
  5
1C3
330
6B
100
AcDbEntity
  8
0
 62
     3
100
AcDbText
 10
185.62444
 20
-106.535896
 30
0.0
 40
3.2
  1
製図
 41
1.076369
100
AcDbText
  0
LINE
  5
1C4
330
6B
100
AcDbEntity
  8
0
 62
     3
100
AcDbLine
 10
83.696558
 20
-98.834277
 30
0.0
 11
83.696558
 21
-138.5
 31
0.0
  0
TEXT
  5
1C5
330
6B
100
AcDbEntity
  8
0
 62
     3
100
AcDbText
 10
85.07321000000002
 20
-138.167535
 30
0.0
 40
5.0
  1
日動工業株式会社
 41
0.833333
100
AcDbText
  0
LINE
  5
1C6
330
6B
100
AcDbEntity
  8
0
 62
     3
100
AcDbLine
 10
126.578961
 20
-114.834277
 30
0.0
 11
126.578961
 21
-138.5
 31
0.0
  0
LINE
  5
1C7
330
6B
100
AcDbEntity
  8
0
 62
     3
100
AcDbLine
 10
126.578961
 20
-133.667139
 30
0.0
 11
143.300637
 21
-133.667139
 31
0.0
  0
TEXT
  5
1C8
330
6B
100
AcDbEntity
  8
0
 62
     3
100
AcDbText
 10
127.165563
 20
-132.850708
 30
0.0
 40
3.2
  1
出図コード
 41
0.8356860000000001
100
AcDbText
  0
LINE
  5
1CA
330
6B
100
AcDbEntity
  8
0
 62
     3
100
AcDbLine
 10
83.696558
 20
-128.834277
 30
0.0
 11
195.0
 21
-128.834277
 31
0.0
  0
LINE
  5
1CC
330
6B
100
AcDbEntity
  8
0
 62
     3
100
AcDbLine
 10
83.696558
 20
-107.834277
 30
0.0
 11
195.0
 21
-107.834277
 31
0.0
  0
LINE
  5
1D2
330
6B
100
AcDbEntity
  8
0
 62
     3
100
AcDbLine
 10
83.696558
 20
-114.834277
 30
0.0
 11
143.300637
 21
-114.834277
 31
0.0
  0
LINE
  5
1D8
330
6B
100
AcDbEntity
  8
0
 62
     3
100
AcDbLine
 10
83.696558
 20
-121.834277
 30
0.0
 11
195.0
 21
-121.834277
 31
0.0
  0
TEXT
  5
1D9
330
6B
100
AcDbEntity
  8
0
 62
     3
100
AcDbText
 10
127.033015
 20
-138.1501814205201
 30
0.0
 40
3.2
  1
ZK-A3X
 41
0.8112849999999999
100
AcDbText
  0
TEXT
  5
1DA
330
6B
100
AcDbEntity
  8
0
 62
     3
100
AcDbText
 10
85.513954
 20
-102.664752
 30
0.0
 40
2.0
  1
CONPONENTS
 41
0.5331600000000001
100
AcDbText
  0
TEXT
  5
1DB
330
6B
100
AcDbEntity
  8
0
 62
     3
100
AcDbText
 10
85.164228
 20
-121.596928
 30
0.0
 40
3.0
  1
材
 41
0.833333
100
AcDbText
  0
TEXT
  5
1DC
330
6B
100
AcDbEntity
  8
0
 62
     3
100
AcDbText
 10
92.69986999999998
 20
-121.596928
 30
0.0
 40
3.0
  1
質
 41
0.833333
100
AcDbText
  0
TEXT
  5
1DD
330
6B
100
AcDbEntity
  8
0
 62
     3
100
AcDbText
 10
85.25229799999998
 20
-110.972404
 30
0.0
 40
2.0
  1
MODEL
 41
1.031072999999999
100
AcDbText
  0
TEXT
  5
1DE
330
6B
100
AcDbEntity
  8
0
 62
     3
100
AcDbText
 10
85.164228
 20
-117.91462
 30
0.0
 40
2.0
  1
MATERIAL
 41
0.659278
100
AcDbText
  0
TEXT
  5
1DF
330
6B
100
AcDbEntity
  8
0
 62
     3
100
AcDbText
 10
116.471508
 20
-121.596928
 30
0.0
 40
3.0
  1
備
 41
0.833333
100
AcDbText
  0
TEXT
  5
1E0
330
6B
100
AcDbEntity
  8
0
 62
     3
100
AcDbText
 10
123.20451
 20
-121.596928
 30
0.0
 40
3.0
  1
考
 41
0.833333
100
AcDbText
  0
TEXT
  5
1E1
330
6B
100
AcDbEntity
  8
0
 62
     3
100
AcDbText
 10
116.7098135198946
 20
-117.91462
 30
0.0
 40
2.0
  1
REMARKS
 41
0.675794
100
AcDbText
  0
TEXT
  5
1E2
330
6B
100
AcDbEntity
  8
0
 62
     3
100
AcDbText
 10
86.75395700000001
 20
-124.834741
 30
0.0
 40
2.0
  1
3AD
 41
1.42614
100
AcDbText
  0
TEXT
  5
1E3
330
6B
100
AcDbEntity
  8
0
 62
     3
100
AcDbText
 10
96.06493700000001
 20
-124.669007
 30
0.0
 40
2.0
  1
ANGLE
 41
1.669883999999995
100
AcDbText
  0
TEXT
  5
1E4
330
6B
100
AcDbEntity
  8
0
 62
     3
100
AcDbText
 10
116.998824
 20
-125.045848
 30
0.0
 40
2.0
  1
SCALE
 41
0.7719630000000001
100
AcDbText
  0
TEXT
  5
1E5
330
6B
100
AcDbEntity
  8
0
 62
     3
100
AcDbText
 10
86.440087
 20
-128.834277
 30
0.0
 40
3.0
  1
第
 41
0.833333
100
AcDbText
  0
TEXT
  5
1E6
330
6B
100
AcDbEntity
  8
0
 62
     3
100
AcDbText
 10
94.22693700000001
 20
-128.834277
 30
0.0
 40
3.0
  1
三
 41
0.833333
100
AcDbText
  0
TEXT
  5
1E7
330
6B
100
AcDbEntity
  8
0
 62
     3
100
AcDbText
 10
102.013787
 20
-128.834277
 30
0.0
 40
3.0
  1
角
 41
0.833333
100
AcDbText
  0
TEXT
  5
1E8
330
6B
100
AcDbEntity
  8
0
 62
     3
100
AcDbText
 10
109.800637
 20
-128.834277
 30
0.0
 40
3.0
  1
法
 41
0.833333
100
AcDbText
  0
TEXT
  5
1E9
330
6B
100
AcDbEntity
  8
0
 62
     3
100
AcDbText
 10
116.862029
 20
-128.545848
 30
0.0
 40
3.0
  1
尺
 41
0.833333
100
AcDbText
  0
TEXT
  5
1EA
330
6B
100
AcDbEntity
  8
0
 62
     3
100
AcDbText
 10
123.59503
 20
-128.545848
 30
0.0
 40
3.0
  1
度
 41
0.833333
100
AcDbText
  0
TEXT
  5
1EB
330
6B
100
AcDbEntity
  8
0
 62
     3
100
AcDbText
 10
146.178301
 20
-106.376549
 30
0.0
 40
3.0
  1
承認
 41
1.089472999999999
100
AcDbText
  0
TEXT
  5
1EC
330
6B
100
AcDbEntity
  8
0
 62
     3
100
AcDbText
 10
159.421181
 20
-106.434277
 30
0.0
 40
3.0
  1
検図
 41
0.931761
100
AcDbText
  0
TEXT
  5
1ED
330
6B
100
AcDbEntity
  8
0
 62
     3
100
AcDbText
 10
172.421578
 20
-106.434277
 30
0.0
 40
3.0
  1
設
 41
0.833333
100
AcDbText
  0
TEXT
  5
1EE
330
6B
100
AcDbEntity
  8
0
 62
     3
100
AcDbText
 10
176.911446
 20
-106.434277
 30
0.0
 40
3.0
  1
計
 41
0.833333
100
AcDbText
  0
TEXT
  5
1EF
330
6B
100
AcDbEntity
  8
0
 62
     3
100
AcDbText
 10
85.584061
 20
-106.261725
 30
0.0
 40
3.0
  1
品
 41
0.833333
100
AcDbText
  0
TEXT
  5
1F0
330
6B
100
AcDbEntity
  8
0
 62
     3
100
AcDbText
 10
93.119703
 20
-106.261725
 30
0.0
 40
3.0
  1
名
 41
0.833333
100
AcDbText
  0
TEXT
  5
1F1
330
6B
100
AcDbEntity
  8
0
 62
     3
100
AcDbText
 10
85.25229799999998
 20
-114.4338873804555
 30
0.0
 40
3.0
  1
型
 41
0.833333
100
AcDbText
  0
TEXT
  5
1F2
330
6B
100
AcDbEntity
  8
0
 62
     3
100
AcDbText
 10
92.80038899999999
 20
-114.4338873804555
 30
0.0
 40
3.0
  1
式
 41
0.833333
100
AcDbText
  0
LINE
  5
1F3
330
6B
100
AcDbEntity
  8
0
 62
     3
100
AcDbLine
 10
-207.401924
 20
2.0
 30
0.0
 11
-210.0
 21
0.5
 31
0.0
  0
LINE
  5
1F4
330
6B
100
AcDbEntity
  8
0
 62
     3
100
AcDbLine
 10
-207.401924
 20
2.0
 30
0.0
 11
-210.0
 21
3.5
 31
0.0
  0
LINE
  5
1F5
330
6B
100
AcDbEntity
  8
0
 62
     3
100
AcDbLine
 10
-210.0
 20
0.5
 30
0.0
 11
-210.0
 21
3.5
 31
0.0
  0
LINE
  5
1F6
330
6B
100
AcDbEntity
  8
0
 62
     3
100
AcDbLine
 10
-41.36225200000001
 20
82.42711099999999
 30
0.0
 11
-41.36225200000001
 21
19.467111
 31
0.0
  0
LINE
  5
1F7
330
6B
100
AcDbEntity
  8
0
 62
     3
100
AcDbLine
 10
-45.362252
 20
86.42711099999997
 30
0.0
 11
-159.282252
 21
86.42711099999997
 31
0.0
  0
LINE
  5
1F8
330
6B
100
AcDbEntity
  8
0
 62
     3
100
AcDbLine
 10
-163.282252
 20
82.42711099999999
 30
0.0
 11
-163.282252
 21
19.467111
 31
0.0
  0
ARC
  5
1F9
330
6B
100
AcDbEntity
  8
0
100
AcDbCircle
 10
-147.3231
 20
62.438123
 30
0.0
 40
15.0
100
AcDbArc
 50
56.88572900000001
 51
118.861039
  0
LINE
  5
1FA
330
6B
100
AcDbEntity
  8
0
100
AcDbLine
 10
-148.466261
 20
78.296975
 30
0.0
 11
-148.54471
 21
79.19365
 31
0.0
  0
LINE
  5
1FB
330
6B
100
AcDbEntity
  8
0
100
AcDbLine
 10
-149.604866
 20
78.173546
 30
0.0
 11
-149.761218
 21
79.060264
 31
0.0
  0
LINE
  5
1FC
330
6B
100
AcDbEntity
  8
0
100
AcDbLine
 10
-150.735134
 20
77.967709
 30
0.0
 11
-150.9683
 21
78.83789499999998
 31
0.0
  0
LINE
  5
1FD
330
6B
100
AcDbEntity
  8
0
100
AcDbLine
 10
-151.852721
 20
77.67926899999998
 30
0.0
 11
-152.161068
 21
78.52644399999999
 31
0.0
  0
LINE
  5
1FE
330
6B
100
AcDbEntity
  8
0
100
AcDbLine
 10
-152.953073
 20
77.30800600000002
 30
0.0
 11
-153.334428
 21
78.125824
 31
0.0
  0
LINE
  5
1FF
330
6B
100
AcDbEntity
  8
0
100
AcDbLine
 10
-139.564373
 20
76.31660100000002
 30
0.0
 11
-139.045648
 21
77.057418
 31
0.0
  0
LINE
  5
200
330
6B
100
AcDbEntity
  8
0
100
AcDbLine
 10
-140.615501
 20
76.85402100000001
 30
0.0
 11
-140.163843
 21
77.63631499999998
 31
0.0
  0
LINE
  5
201
330
6B
100
AcDbEntity
  8
0
100
AcDbLine
 10
-142.075318
 20
76.490197
 30
0.0
 11
-141.312486
 21
78.126097
 31
0.0
  0
LINE
  5
202
330
6B
100
AcDbEntity
  8
0
100
AcDbLine
 10
-142.794237
 20
77.67949399999998
 30
0.0
 11
-142.48589
 21
78.52667199999998
 31
0.0
  0
LINE
  5
203
330
6B
100
AcDbEntity
  8
0
100
AcDbLine
 10
-143.911859
 20
77.967883
 30
0.0
 11
-143.678693
 21
78.838071
 31
0.0
  0
LINE
  5
204
330
6B
100
AcDbEntity
  8
0
100
AcDbLine
 10
-145.042153
 20
78.173665
 30
0.0
 11
-144.885801
 21
79.060385
 31
0.0
  0
LINE
  5
205
330
6B
100
AcDbEntity
  8
0
100
AcDbLine
 10
-146.180774
 20
78.29703499999998
 30
0.0
 11
-146.102326
 21
79.19371099999998
 31
0.0
  0
LINE
  5
206
330
6B
100
AcDbEntity
  8
0
100
AcDbLine
 10
-137.963927
 20
76.389678
 30
0.0
 11
-139.128441
 21
75.001863
 31
0.0
  0
ARC
  5
207
330
6B
100
AcDbEntity
  8
0
100
AcDbCircle
 10
-147.3231
 20
62.438123
 30
0.0
 40
15.9
100
AcDbArc
 50
56.49424200000001
 51
118.861039
  0
LINE
  5
208
330
6B
100
AcDbEntity
  8
0
 62
     3
100
AcDbLine
 10
-150.9237
 20
69.62254899999999
 30
0.0
 11
-150.9237
 21
68.422549
 31
0.0
  0
LINE
  5
209
330
6B
100
AcDbEntity
  8
0
 62
     3
100
AcDbLine
 10
-143.7237
 20
69.62254899999999
 30
0.0
 11
-143.7237
 21
68.422549
 31
0.0
  0
LINE
  5
20A
330
6B
100
AcDbEntity
  8
0
 62
     3
100
AcDbLine
 10
98.63774800000001
 20
35.667111
 30
0.0
 11
96.637748
 21
35.667111
 31
0.0
  0
LINE
  5
20B
330
6B
100
AcDbEntity
  8
0
 62
     3
100
AcDbLine
 10
99.63774800000001
 20
28.267111
 30
0.0
 11
99.63774800000001
 21
34.667111
 31
0.0
  0
LINE
  5
20C
330
6B
100
AcDbEntity
  8
0
 62
     3
100
AcDbLine
 10
98.63774800000001
 20
27.267111
 30
0.0
 11
96.637748
 21
27.267111
 31
0.0
  0
LINE
  5
20D
330
6B
100
AcDbEntity
  8
0
 62
     3
100
AcDbLine
 10
-2.362252
 20
19.467111
 30
0.0
 11
96.637748
 21
19.467111
 31
0.0
  0
LINE
  5
20E
330
6B
100
AcDbEntity
  8
0
 62
     3
100
AcDbLine
 10
79.47205100000002
 20
12.79269
 30
0.0
 11
78.637748
 21
19.467111
 31
0.0
  0
ARC
  5
20F
330
6B
100
AcDbEntity
  8
0
 62
     3
100
AcDbCircle
 10
80.067417
 20
12.867111
 30
0.0
 40
0.6
100
AcDbArc
 50
187.1250159999999
 51
270.0
  0
LINE
  5
210
330
6B
100
AcDbEntity
  8
0
 62
     3
100
AcDbLine
 10
89.20807899999998
 20
12.267111
 30
0.0
 11
80.067417
 21
12.267111
 31
0.0
  0
LINE
  5
211
330
6B
100
AcDbEntity
  8
0
 62
     3
100
AcDbLine
 10
-59.487949
 20
12.79269
 30
0.0
 11
-60.322252
 21
19.467111
 31
0.0
  0
ARC
  5
212
330
6B
100
AcDbEntity
  8
0
 62
     3
100
AcDbCircle
 10
-58.89258299999998
 20
12.867111
 30
0.0
 40
0.6
100
AcDbArc
 50
187.1250159999999
 51
270.0
  0
LINE
  5
213
330
6B
100
AcDbEntity
  8
0
 62
     3
100
AcDbLine
 10
-49.75192100000001
 20
12.267111
 30
0.0
 11
-58.89258299999998
 21
12.267111
 31
0.0
  0
ARC
  5
214
330
6B
100
AcDbEntity
  8
0
 62
     3
100
AcDbCircle
 10
-49.75192100000001
 20
12.867111
 30
0.0
 40
0.6
100
AcDbArc
 50
270.0
 51
352.874984
  0
LINE
  5
215
330
6B
100
AcDbEntity
  8
0
 62
     3
100
AcDbLine
 10
-49.15655499999999
 20
12.79269
 30
0.0
 11
-48.32225199999999
 21
19.467111
 31
0.0
  0
ARC
  5
216
330
6B
100
AcDbEntity
  8
0
 62
     3
100
AcDbCircle
 10
-145.751921
 20
12.867111
 30
0.0
 40
0.6
100
AcDbArc
 50
270.0
 51
352.874984
  0
LINE
  5
217
330
6B
100
AcDbEntity
  8
0
 62
     3
100
AcDbLine
 10
-145.751921
 20
12.267111
 30
0.0
 11
-154.892583
 21
12.267111
 31
0.0
  0
ARC
  5
218
330
6B
100
AcDbEntity
  8
0
 62
     3
100
AcDbCircle
 10
-154.892583
 20
12.867111
 30
0.0
 40
0.6
100
AcDbArc
 50
187.1250159999999
 51
270.0
  0
LINE
  5
219
330
6B
100
AcDbEntity
  8
0
 62
     3
100
AcDbLine
 10
-155.487949
 20
12.79269
 30
0.0
 11
-156.322252
 21
19.467111
 31
0.0
  0
LINE
  5
21A
330
6B
100
AcDbEntity
  8
0
 62
     3
100
AcDbLine
 10
-145.156555
 20
12.79269
 30
0.0
 11
-144.322252
 21
19.467111
 31
0.0
  0
LINE
  5
21B
330
6B
100
AcDbEntity
  8
0
 62
     3
100
AcDbLine
 10
-8.362251999999998
 20
86.42711099999997
 30
0.0
 11
96.637748
 21
86.42711099999997
 31
0.0
  0
LINE
  5
21C
330
6B
100
AcDbEntity
  8
0
 62
     3
100
AcDbLine
 10
4.472051
 20
12.79269
 30
0.0
 11
3.637748
 21
19.467111
 31
0.0
  0
ARC
  5
21D
330
6B
100
AcDbEntity
  8
0
 62
     3
100
AcDbCircle
 10
5.067416999999998
 20
12.867111
 30
0.0
 40
0.6
100
AcDbArc
 50
187.1250159999999
 51
270.0
  0
LINE
  5
21E
330
6B
100
AcDbEntity
  8
0
 62
     3
100
AcDbLine
 10
14.208079
 20
12.267111
 30
0.0
 11
5.067416999999998
 21
12.267111
 31
0.0
  0
LINE
  5
21F
330
6B
100
AcDbEntity
  8
0
 62
     3
100
AcDbLine
 10
14.803445
 20
12.79269
 30
0.0
 11
15.637748
 21
19.467111
 31
0.0
  0
ARC
  5
220
330
6B
100
AcDbEntity
  8
0
 62
     3
100
AcDbCircle
 10
14.208079
 20
12.867111
 30
0.0
 40
0.6
100
AcDbArc
 50
270.0
 51
352.874984
  0
LINE
  5
221
330
6B
100
AcDbEntity
  8
0
 62
     3
100
AcDbLine
 10
89.80344499999999
 20
12.79269
 30
0.0
 11
90.637748
 21
19.467111
 31
0.0
  0
ARC
  5
222
330
6B
100
AcDbEntity
  8
0
 62
     3
100
AcDbCircle
 10
89.20807899999998
 20
12.867111
 30
0.0
 40
0.6
100
AcDbArc
 50
270.0
 51
352.874984
  0
LINE
  5
223
330
6B
100
AcDbEntity
  8
0
 62
     3
100
AcDbLine
 10
96.637748
 20
19.467111
 30
0.0
 11
96.637748
 21
86.42711099999997
 31
0.0
  0
LINE
  5
224
330
6B
100
AcDbEntity
  8
0
100
AcDbLine
 10
-136.8237
 20
81.022549
 30
0.0
 11
-136.8237
 21
69.02254899999999
 31
0.0
  0
LINE
  5
225
330
6B
100
AcDbEntity
  8
0
100
AcDbLine
 10
-136.8237
 20
69.02254899999999
 30
0.0
 11
-143.7237
 21
69.02254899999999
 31
0.0
  0
LINE
  5
226
330
6B
100
AcDbEntity
  8
0
100
AcDbLine
 10
-143.7237
 20
69.62254899999999
 30
0.0
 11
-150.9237
 21
69.62254899999999
 31
0.0
  0
LINE
  5
227
330
6B
100
AcDbEntity
  8
0
100
AcDbLine
 10
-150.9237
 20
69.02254899999999
 30
0.0
 11
-157.8237
 21
69.02254899999999
 31
0.0
  0
LINE
  5
228
330
6B
100
AcDbEntity
  8
0
100
AcDbLine
 10
-157.8237
 20
69.02254899999999
 30
0.0
 11
-157.8237
 21
81.022549
 31
0.0
  0
LINE
  5
229
330
6B
100
AcDbEntity
  8
0
100
AcDbLine
 10
-136.8237
 20
81.022549
 30
0.0
 11
-157.8237
 21
81.022549
 31
0.0
  0
LINE
  5
22A
330
6B
100
AcDbEntity
  8
0
100
AcDbLine
 10
-98.22035200000001
 20
44.78029799999998
 30
0.0
 11
-98.22035200000001
 21
54.38029799999998
 31
0.0
  0
LINE
  5
22B
330
6B
100
AcDbEntity
  8
0
100
AcDbLine
 10
-93.42035199999999
 20
54.38029799999998
 30
0.0
 11
-93.42035199999999
 21
44.78029799999998
 31
0.0
  0
LINE
  5
22C
330
6B
100
AcDbEntity
  8
0
100
AcDbLine
 10
-93.42035199999999
 20
54.38029799999998
 30
0.0
 11
-98.22035200000001
 21
54.38029799999998
 31
0.0
  0
LINE
  5
22D
330
6B
100
AcDbEntity
  8
0
100
AcDbLine
 10
-93.42035199999999
 20
44.78029799999998
 30
0.0
 11
-98.22035200000001
 21
44.78029799999998
 31
0.0
  0
CIRCLE
  5
22E
330
6B
100
AcDbEntity
  8
0
100
AcDbCircle
 10
0.6377480000000002
 20
73.827111
 30
0.0
 40
1.5
  0
CIRCLE
  5
22F
330
6B
100
AcDbEntity
  8
0
100
AcDbCircle
 10
3.637748
 20
22.467111
 30
0.0
 40
1.5
  0
CIRCLE
  5
230
330
6B
100
AcDbEntity
  8
0
100
AcDbCircle
 10
78.637748
 20
22.467111
 30
0.0
 40
1.5
  0
CIRCLE
  5
231
330
6B
100
AcDbEntity
  8
0
100
AcDbCircle
 10
93.63774799999999
 20
73.827111
 30
0.0
 40
1.5
  0
LINE
  5
232
330
6B
100
AcDbEntity
  8
0
100
AcDbLine
 10
63.716816
 20
72.615288
 30
0.0
 11
47.516816
 21
72.615288
 31
0.0
  0
LINE
  5
233
330
6B
100
AcDbEntity
  8
0
100
AcDbLine
 10
63.716816
 20
70.815288
 30
0.0
 11
47.516816
 21
70.815288
 31
0.0
  0
LINE
  5
234
330
6B
100
AcDbEntity
  8
0
100
AcDbLine
 10
63.716816
 20
69.015288
 30
0.0
 11
47.516816
 21
69.015288
 31
0.0
  0
LINE
  5
235
330
6B
100
AcDbEntity
  8
0
100
AcDbLine
 10
63.716816
 20
67.215288
 30
0.0
 11
47.516816
 21
67.215288
 31
0.0
  0
LINE
  5
236
330
6B
100
AcDbEntity
  8
0
100
AcDbLine
 10
63.716816
 20
65.415288
 30
0.0
 11
47.516816
 21
65.415288
 31
0.0
  0
LINE
  5
237
330
6B
100
AcDbEntity
  8
0
100
AcDbLine
 10
63.716816
 20
63.615288
 30
0.0
 11
47.516816
 21
63.615288
 31
0.0
  0
LINE
  5
238
330
6B
100
AcDbEntity
  8
0
100
AcDbLine
 10
63.716816
 20
61.815288
 30
0.0
 11
47.516816
 21
61.815288
 31
0.0
  0
LINE
  5
239
330
6B
100
AcDbEntity
  8
0
100
AcDbLine
 10
63.716816
 20
60.01528799999999
 30
0.0
 11
47.516816
 21
60.01528799999999
 31
0.0
  0
LINE
  5
23A
330
6B
100
AcDbEntity
  8
0
100
AcDbLine
 10
63.716816
 20
58.215288
 30
0.0
 11
47.516816
 21
58.215288
 31
0.0
  0
LINE
  5
23B
330
6B
100
AcDbEntity
  8
0
100
AcDbLine
 10
63.716816
 20
56.415288
 30
0.0
 11
47.516816
 21
56.415288
 31
0.0
  0
LINE
  5
23C
330
6B
100
AcDbEntity
  8
0
100
AcDbLine
 10
63.716816
 20
54.61528799999999
 30
0.0
 11
47.516816
 21
54.61528799999999
 31
0.0
  0
LINE
  5
23D
330
6B
100
AcDbEntity
  8
0
100
AcDbLine
 10
63.716816
 20
52.815288
 30
0.0
 11
47.516816
 21
52.815288
 31
0.0
  0
ARC
  5
23E
330
6B
100
AcDbEntity
  8
0
100
AcDbCircle
 10
47.516816
 20
71.715288
 30
0.0
 40
0.9
100
AcDbArc
 50
90.0
 51
270.0
  0
ARC
  5
23F
330
6B
100
AcDbEntity
  8
0
100
AcDbCircle
 10
63.716816
 20
71.715288
 30
0.0
 40
0.9
100
AcDbArc
 50
270.0
 51
90.0
  0
ARC
  5
240
330
6B
100
AcDbEntity
  8
0
100
AcDbCircle
 10
47.516816
 20
68.11528800000001
 30
0.0
 40
0.9
100
AcDbArc
 50
90.0
 51
270.0
  0
ARC
  5
241
330
6B
100
AcDbEntity
  8
0
100
AcDbCircle
 10
63.716816
 20
68.11528800000001
 30
0.0
 40
0.9
100
AcDbArc
 50
270.0
 51
90.0
  0
ARC
  5
242
330
6B
100
AcDbEntity
  8
0
100
AcDbCircle
 10
47.516816
 20
64.515288
 30
0.0
 40
0.9
100
AcDbArc
 50
90.0
 51
270.0
  0
ARC
  5
243
330
6B
100
AcDbEntity
  8
0
100
AcDbCircle
 10
63.716816
 20
64.515288
 30
0.0
 40
0.9
100
AcDbArc
 50
270.0
 51
90.0
  0
ARC
  5
244
330
6B
100
AcDbEntity
  8
0
100
AcDbCircle
 10
47.516816
 20
60.915288
 30
0.0
 40
0.9
100
AcDbArc
 50
90.0
 51
270.0
  0
ARC
  5
245
330
6B
100
AcDbEntity
  8
0
100
AcDbCircle
 10
63.716816
 20
60.915288
 30
0.0
 40
0.9
100
AcDbArc
 50
270.0
 51
90.0
  0
ARC
  5
246
330
6B
100
AcDbEntity
  8
0
100
AcDbCircle
 10
47.516816
 20
57.315288
 30
0.0
 40
0.9
100
AcDbArc
 50
90.0
 51
270.0
  0
ARC
  5
247
330
6B
100
AcDbEntity
  8
0
100
AcDbCircle
 10
63.716816
 20
57.315288
 30
0.0
 40
0.9
100
AcDbArc
 50
270.0
 51
90.0
  0
ARC
  5
248
330
6B
100
AcDbEntity
  8
0
100
AcDbCircle
 10
47.516816
 20
53.715288
 30
0.0
 40
0.9
100
AcDbArc
 50
90.0
 51
270.0
  0
ARC
  5
249
330
6B
100
AcDbEntity
  8
0
100
AcDbCircle
 10
63.716816
 20
53.715288
 30
0.0
 40
0.9
100
AcDbArc
 50
270.0
 51
90.0
  0
LINE
  5
24A
330
6B
100
AcDbEntity
  8
0
100
AcDbLine
 10
-149.555192
 20
68.422549
 30
0.0
 11
-155.601154
 21
77.05707700000002
 31
0.0
  0
LINE
  5
24B
330
6B
100
AcDbEntity
  8
0
100
AcDbLine
 10
-154.031362
 20
76.85371299999999
 30
0.0
 11
-154.483017
 21
77.636004
 31
0.0
  0
TEXT
  5
24C
330
6B
100
AcDbEntity
  8
0
100
AcDbText
 10
-155.601154
 20
77.05707700000002
 30
0.0
 40
1.919999999999999
  1
0
 50
35.0
 41
1.199999999999999
100
AcDbText
  0
LINE
  5
24D
330
6B
100
AcDbEntity
  8
0
 62
     3
100
AcDbLine
 10
-195.0
 20
138.5
 30
0.0
 11
-195.0
 21
-138.5
 31
0.0
  0
LINE
  5
24E
330
6B
100
AcDbEntity
  8
0
 62
     3
100
AcDbLine
 10
195.0
 20
-138.5
 30
0.0
 11
195.0
 21
138.5
 31
0.0
  0
LINE
  5
24F
330
6B
100
AcDbEntity
  8
0
 62
     3
100
AcDbLine
 10
-195.0
 20
138.5
 30
0.0
 11
195.0
 21
138.5
 31
0.0
  0
LINE
  5
250
330
6B
100
AcDbEntity
  8
0
 62
     3
100
AcDbLine
 10
-195.0
 20
-138.5
 30
0.0
 11
195.0
 21
-138.5
 31
0.0
  0
LINE
  5
251
330
6B
100
AcDbEntity
  8
0
 62
     3
100
AcDbLine
 10
-8.362251999999998
 20
25.467111
 30
0.0
 11
-8.362251999999998
 21
86.42711099999997
 31
0.0
  0
LINE
  5
252
330
6B
100
AcDbEntity
  8
0
 62
     3
100
AcDbLine
 10
84.093624
 20
-43.044593
 30
0.0
 11
84.09362399999997
 21
-89.61419300000001
 31
0.0
  0
LINE
  5
253
330
6B
100
AcDbEntity
  8
0
100
AcDbLine
 10
84.093624
 20
-49.697393
 30
0.0
 11
159.7387930586044
 21
-49.697393
 31
0.0
  0
LINE
  5
254
330
6B
100
AcDbEntity
  8
0
100
AcDbLine
 10
84.093624
 20
-56.350193
 30
0.0
 11
159.7387930586044
 21
-56.350193
 31
0.0
  0
LINE
  5
255
330
6B
100
AcDbEntity
  8
0
100
AcDbLine
 10
84.093624
 20
-63.002993
 30
0.0
 11
159.7387930586044
 21
-63.002993
 31
0.0
  0
LINE
  5
256
330
6B
100
AcDbEntity
  8
0
100
AcDbLine
 10
84.093624
 20
-69.655793
 30
0.0
 11
159.7387930586044
 21
-69.655793
 31
0.0
  0
TEXT
  5
257
330
6B
100
AcDbEntity
  8
0
 62
     3
100
AcDbText
 10
85.59362400000003
 20
-49.19739299999999
 30
0.0
 40
3.2
  1
型　　　　　式
  7
高3.2
100
AcDbText
  0
TEXT
  5
258
330
6B
100
AcDbEntity
  8
0
 62
     3
100
AcDbText
 10
85.59362400000003
 20
-55.850193
 30
0.0
 40
3.2
  1
入　力　電　圧
  7
高3.2
100
AcDbText
  0
TEXT
  5
259
330
6B
100
AcDbEntity
  8
0
 62
     3
100
AcDbText
 10
85.59362400000003
 20
-89.114193
 30
0.0
 40
3.2
  1
質　　　　　量
  7
高3.2
100
AcDbText
  0
LINE
  5
25A
330
6B
100
AcDbEntity
  8
0
100
AcDbLine
 10
84.093624
 20
-82.961393
 30
0.0
 11
159.7387930586044
 21
-82.96139300000001
 31
0.0
  0
LINE
  5
25C
330
6B
100
AcDbEntity
  8
0
100
AcDbLine
 10
84.093624
 20
-76.308593
 30
0.0
 11
159.7387930586044
 21
-76.30859300000001
 31
0.0
  0
TEXT
  5
25D
330
6B
100
AcDbEntity
  8
0
 62
     3
100
AcDbText
 10
85.59362400000003
 20
-62.502993
 30
0.0
 40
3.2
  1
適応バッテリー
  7
高3.2
100
AcDbText
  0
TEXT
  5
25E
330
6B
100
AcDbEntity
  8
0
 62
     3
100
AcDbText
 10
85.59362400000003
 20
-69.155793
 30
0.0
 40
3.2
  1
最大充電電流
  7
高3.2
100
AcDbText
  0
LINE
  5
25F
330
6B
100
AcDbEntity
  8
0
 62
     3
100
AcDbLine
 10
84.093624
 20
-89.61419300000001
 30
0.0
 11
159.7387930586044
 21
-89.61419300000001
 31
0.0
  0
TEXT
  5
260
330
6B
100
AcDbEntity
  8
0
 62
     3
100
AcDbText
 10
116.950939
 20
-55.850193
 30
0.0
 40
3.2
  1
AC100V 50/60Hz
  7
高3.2
100
AcDbText
  0
TEXT
  5
261
330
6B
100
AcDbEntity
  8
0
 62
     3
100
AcDbText
 10
104.7366824494845
 20
-40.50443933043107
 30
0.0
 40
4.5
  1
主　　仕　　様
  7
高4.5
100
AcDbText
  0
LINE
  5
262
330
6B
100
AcDbEntity
  8
0
 62
     3
100
AcDbLine
 10
84.093624
 20
-43.044593
 30
0.0
 11
159.7387930586044
 21
-43.044593
 31
0.0
  0
TEXT
  5
263
330
6B
100
AcDbEntity
  8
0
 62
     3
100
AcDbText
 10
116.950939
 20
-49.19739299999999
 30
0.0
 40
3.2
  1
NB-50
  7
高3.2
100
AcDbText
  0
TEXT
  5
264
330
6B
100
AcDbEntity
  8
0
 62
     3
100
AcDbText
 10
116.9509389999999
 20
-75.808593
 30
0.0
 40
3.2
  1
50A(10sec)MAX
  7
高3.2
100
AcDbText
  0
TEXT
  5
265
330
6B
100
AcDbEntity
  8
0
 62
     3
100
AcDbText
 10
109.0958741504678
 20
-113.776674
 30
0.0
 40
4.5
  1
NB-50
  7
高4.5
100
AcDbText
  0
TEXT
  5
266
330
6B
100
AcDbEntity
  8
0
 62
     3
100
AcDbText
 10
152.595455848636
 20
-137.46624
 30
0.0
 40
6.299999999999998
  1
NB-50
  7
高6.3
100
AcDbText
  0
TEXT
  5
267
330
6B
100
AcDbEntity
  8
0
 62
     3
100
AcDbText
 10
101.024488
 20
-121.337527
 30
0.0
 40
3.2
  1
別　掲
 41
0.833333
100
AcDbText
  0
TEXT
  5
268
330
6B
100
AcDbEntity
  8
0
 62
     3
100
AcDbText
 10
116.950939
 20
-69.155793
 30
0.0
 40
3.2
  1
15A
  7
高3.2
100
AcDbText
  0
TEXT
  5
269
330
6B
100
AcDbEntity
  8
0
 62
     3
100
AcDbText
 10
116.9509389999999
 20
-82.46139300000001
 30
0.0
 40
3.2
  1
NFB
  7
高3.2
100
AcDbText
  0
TEXT
  5
26A
330
6B
100
AcDbEntity
  8
0
 62
     3
100
AcDbText
 10
116.9509389999999
 20
-89.114193
 30
0.0
 40
3.2
  1
6.2kg
  7
高3.2
100
AcDbText
  0
ARC
  5
26B
330
6B
100
AcDbEntity
  8
0
 62
     3
100
AcDbCircle
 10
-159.282252
 20
82.42711099999999
 30
0.0
 40
4.0
100
AcDbArc
 50
90.0
 51
180.0
  0
ARC
  5
26C
330
6B
100
AcDbEntity
  8
0
 62
     3
100
AcDbCircle
 10
-45.362252
 20
82.42711099999999
 30
0.0
 40
4.0
100
AcDbArc
 50
0.0
 51
90.0
  0
TEXT
  5
26D
330
6B
100
AcDbEntity
  8
0
100
AcDbText
 10
-98.43283300000001
 20
57.90288499999999
 30
0.0
 40
2.24
  1
ON
100
AcDbText
  0
TEXT
  5
26E
330
6B
100
AcDbEntity
  8
0
100
AcDbText
 10
-99.030424
 20
38.780738
 30
0.0
 40
2.24
  1
OFF
100
AcDbText
  0
LINE
  5
26F
330
6B
100
AcDbEntity
  8
0
 62
     3
100
AcDbLine
 10
-76.92482700000002
 20
48.52994699999999
 30
0.0
 11
-71.69128
 21
48.52994699999999
 31
0.0
  0
LINE
  5
270
330
6B
100
AcDbEntity
  8
0
 62
     3
100
AcDbLine
 10
-61.26637800000001
 20
64.18839699999999
 30
0.0
 11
-61.26637800000001
 21
58.95484899999999
 31
0.0
  0
CIRCLE
  5
271
330
6B
100
AcDbEntity
  8
0
 62
     3
100
AcDbCircle
 10
-61.27139
 20
79.87058499999998
 30
0.0
 40
3.273941999999999
  0
LINE
  5
272
330
6B
100
AcDbEntity
  8
0
 62
     3
100
AcDbLine
 10
-72.33857399999997
 20
59.602143
 30
0.0
 11
-68.63789699999999
 21
55.901466
 31
0.0
  0
ARC
  5
273
330
6B
100
AcDbEntity
  8
0
 62
     3
100
AcDbCircle
 10
-61.26637800000001
 20
48.52994699999999
 30
0.0
 40
15.658449
100
AcDbArc
 50
298.113246
 51
241.886754
  0
LINE
  5
274
330
6B
100
AcDbEntity
  8
0
100
AcDbLine
 10
-45.322252
 20
85.46711100000001
 30
0.0
 11
-159.322252
 21
85.46711100000001
 31
0.0
  0
ARC
  5
275
330
6B
100
AcDbEntity
  8
0
100
AcDbCircle
 10
-45.322252
 20
82.467111
 30
0.0
 40
3.0
100
AcDbArc
 50
0.0
 51
90.0
  0
LINE
  5
276
330
6B
100
AcDbEntity
  8
0
100
AcDbLine
 10
-42.322252
 20
82.467111
 30
0.0
 11
-42.322252
 21
19.467111
 31
0.0
  0
ARC
  5
277
330
6B
100
AcDbEntity
  8
0
100
AcDbCircle
 10
-159.322252
 20
82.467111
 30
0.0
 40
3.0
100
AcDbArc
 50
90.0
 51
180.0
  0
LINE
  5
278
330
6B
100
AcDbEntity
  8
0
100
AcDbLine
 10
-162.322252
 20
82.467111
 30
0.0
 11
-162.322252
 21
19.467111
 31
0.0
  0
LINE
  5
279
330
6B
100
AcDbEntity
  8
0
100
AcDbLine
 10
-42.322252
 20
64.532735
 30
0.0
 11
-162.322252
 21
64.532735
 31
0.0
  0
LINE
  5
27A
330
6B
100
AcDbEntity
  8
0
100
AcDbLine
 10
-162.322252
 20
27.599316
 30
0.0
 11
-42.322252
 21
27.599316
 31
0.0
  0
LINE
  5
27B
330
6B
100
AcDbEntity
  8
0
100
AcDbLine
 10
-42.322252
 20
34.017283
 30
0.0
 11
-162.322252
 21
34.017283
 31
0.0
  0
TEXT
  5
27C
330
6B
100
AcDbEntity
  8
0
 62
     3
100
AcDbText
 10
-133.058797
 20
65.396447
 30
0.0
 40
5.4
  1
エンジンスタータ付き
 41
0.6052020000000004
100
AcDbText
  0
TEXT
  5
27D
330
6B
100
AcDbEntity
  8
0
 62
     3
100
AcDbText
 10
-132.099786
 20
71.298744
 30
0.0
 40
4.5
  1
急速充電器
 41
0.833333
100
AcDbText
  0
CIRCLE
  5
27E
330
6B
100
AcDbEntity
  8
0
 62
     3
100
AcDbCircle
 10
-61.26637800000001
 20
48.52994699999999
 30
0.0
 40
10.424901
  0
LINE
  5
27F
330
6B
100
AcDbEntity
  8
0
 62
     3
100
AcDbLine
 10
-65.925614
 20
44.203517
 30
0.0
 11
-55.765676
 21
55.341819
 31
0.0
  0
CIRCLE
  5
280
330
6B
100
AcDbEntity
  8
0
100
AcDbCircle
 10
-61.26637800000001
 20
48.52994699999999
 30
0.0
 40
9.392077999999999
  0
CIRCLE
  5
281
330
6B
100
AcDbEntity
  8
0
100
AcDbCircle
 10
-66.804709
 20
43.23097199999998
 30
0.0
 40
1.310974
  0
LINE
  5
282
330
6B
100
AcDbEntity
  8
0
 62
     3
100
AcDbLine
 10
61.52581899999999
 20
100.691095
 30
0.0
 11
26.749677
 21
100.691095
 31
0.0
  0
LINE
  5
283
330
6B
100
AcDbEntity
  8
0
 62
     3
100
AcDbLine
 10
66.09325600000001
 20
104.397808
 30
0.0
 11
22.18224
 21
104.397808
 31
0.0
  0
ARC
  5
284
330
6B
100
AcDbEntity
  8
0
 62
     3
100
AcDbCircle
 10
26.749677
 20
99.691095
 30
0.0
 40
1.0
100
AcDbArc
 50
90.0
 51
171.193207
  0
ARC
  5
285
330
6B
100
AcDbEntity
  8
0
 62
     3
100
AcDbCircle
 10
61.52581899999999
 20
99.691095
 30
0.0
 40
1.0
100
AcDbArc
 50
8.806792999999997
 51
90.0
  0
ARC
  5
286
330
6B
100
AcDbEntity
  8
0
 62
     3
100
AcDbCircle
 10
22.18224
 20
102.397808
 30
0.0
 40
2.0
100
AcDbArc
 50
90.0
 51
156.691624
  0
ARC
  5
287
330
6B
100
AcDbEntity
  8
0
 62
     3
100
AcDbCircle
 10
66.09325600000001
 20
102.397808
 30
0.0
 40
2.0
100
AcDbArc
 50
23.308376
 51
90.0
  0
LINE
  5
288
330
6B
100
AcDbEntity
  8
0
 62
     3
100
AcDbLine
 10
-98.94271299999999
 20
104.397808
 30
0.0
 11
-105.701791
 21
104.397808
 31
0.0
  0
LINE
  5
289
330
6B
100
AcDbEntity
  8
0
 62
     3
100
AcDbLine
 10
-106.699772
 20
103.461316
 30
0.0
 11
-107.783767
 21
86.42711099999997
 31
0.0
  0
LINE
  5
28A
330
6B
100
AcDbEntity
  8
0
 62
     3
100
AcDbLine
 10
-97.944732
 20
103.461316
 30
0.0
 11
-96.86073700000001
 21
86.42711099999997
 31
0.0
  0
ARC
  5
28B
330
6B
100
AcDbEntity
  8
0
 62
     3
100
AcDbCircle
 10
-105.701791
 20
103.397808
 30
0.0
 40
1.0
100
AcDbArc
 50
90.0
 51
176.358815
  0
ARC
  5
28C
330
6B
100
AcDbEntity
  8
0
 62
     3
100
AcDbCircle
 10
-98.94271299999999
 20
103.397808
 30
0.0
 40
1.0
100
AcDbArc
 50
3.641185
 51
90.0
  0
LINE
  5
28D
330
6B
100
AcDbEntity
  8
0
 62
     3
100
AcDbLine
 10
67.93003299999999
 20
103.189167
 30
0.0
 11
73.73204900000001
 21
86.42711099999997
 31
0.0
  0
LINE
  5
28E
330
6B
100
AcDbEntity
  8
0
 62
     3
100
AcDbLine
 10
20.345463
 20
103.189167
 30
0.0
 11
14.543447
 21
86.42711099999997
 31
0.0
  0
CIRCLE
  5
28F
330
6B
100
AcDbEntity
  8
0
 62
     3
100
AcDbCircle
 10
-138.675809
 20
50.40439
 30
0.0
 40
2.353775
  0
TEXT
  5
290
330
6B
100
AcDbEntity
  8
0
100
AcDbText
 10
-158.345728
 20
52.767579
 30
0.0
 40
2.24
  1
ON
100
AcDbText
  0
TEXT
  5
291
330
6B
100
AcDbEntity
  8
0
100
AcDbText
 10
-159.274351
 20
43.84020699999999
 30
0.0
 40
2.24
  1
OFF
100
AcDbText
  0
TEXT
  5
292
330
6B
100
AcDbEntity
  8
0
100
AcDbText
 10
-154.954945
 20
59.64743000000001
 30
0.0
 40
2.24
  1
ブレーカー
 41
0.833333
100
AcDbText
  0
TEXT
  5
293
330
6B
100
AcDbEntity
  8
0
100
AcDbText
 10
-141.476182
 20
55.25155600000001
 30
0.0
 40
2.303999999999998
  1
エラー
 41
0.833333
100
AcDbText
  0
TEXT
  5
294
330
6B
100
AcDbEntity
  8
0
100
AcDbText
 10
-125.508634
 20
53.405513
 30
0.0
 40
2.24
  1
エンジンスタート
 41
0.833333
100
AcDbText
  0
TEXT
  5
295
330
6B
100
AcDbEntity
  8
0
100
AcDbText
 10
-125.645256
 20
45.15268999999999
 30
0.0
 40
2.24
  1
充電電流
 41
0.833333
100
AcDbText
  0
TEXT
  5
296
330
6B
100
AcDbEntity
  8
0
100
AcDbText
 10
-125.508634
 20
50.515103
 30
0.0
 40
2.24
  1
50A MAX
 41
1.122994999999997
100
AcDbText
  0
TEXT
  5
297
330
6B
100
AcDbEntity
  8
0
100
AcDbText
 10
-125.875806
 20
42.309244
 30
0.0
 40
2.24
  1
10A MAX
 41
1.186441
100
AcDbText
  0
LINE
  5
298
330
6B
100
AcDbEntity
  8
0
100
AcDbLine
 10
67.57297499999999
 20
72.615288
 30
0.0
 11
83.772975
 21
72.615288
 31
0.0
  0
LINE
  5
299
330
6B
100
AcDbEntity
  8
0
100
AcDbLine
 10
67.57297499999999
 20
70.815288
 30
0.0
 11
83.772975
 21
70.815288
 31
0.0
  0
LINE
  5
29A
330
6B
100
AcDbEntity
  8
0
100
AcDbLine
 10
67.57297499999999
 20
69.015288
 30
0.0
 11
83.772975
 21
69.015288
 31
0.0
  0
LINE
  5
29B
330
6B
100
AcDbEntity
  8
0
100
AcDbLine
 10
67.57297499999999
 20
67.215288
 30
0.0
 11
83.772975
 21
67.215288
 31
0.0
  0
LINE
  5
29C
330
6B
100
AcDbEntity
  8
0
100
AcDbLine
 10
67.57297499999999
 20
65.415288
 30
0.0
 11
83.772975
 21
65.415288
 31
0.0
  0
LINE
  5
29D
330
6B
100
AcDbEntity
  8
0
100
AcDbLine
 10
67.57297499999999
 20
63.615288
 30
0.0
 11
83.772975
 21
63.615288
 31
0.0
  0
LINE
  5
29E
330
6B
100
AcDbEntity
  8
0
100
AcDbLine
 10
67.57297499999999
 20
61.815288
 30
0.0
 11
83.772975
 21
61.815288
 31
0.0
  0
LINE
  5
29F
330
6B
100
AcDbEntity
  8
0
100
AcDbLine
 10
67.57297499999999
 20
60.01528799999999
 30
0.0
 11
83.772975
 21
60.01528799999999
 31
0.0
  0
LINE
  5
2A0
330
6B
100
AcDbEntity
  8
0
100
AcDbLine
 10
67.57297499999999
 20
58.215288
 30
0.0
 11
83.772975
 21
58.215288
 31
0.0
  0
LINE
  5
2A1
330
6B
100
AcDbEntity
  8
0
100
AcDbLine
 10
67.57297499999999
 20
56.415288
 30
0.0
 11
83.772975
 21
56.415288
 31
0.0
  0
LINE
  5
2A2
330
6B
100
AcDbEntity
  8
0
100
AcDbLine
 10
67.57297499999999
 20
54.61528799999999
 30
0.0
 11
83.772975
 21
54.61528799999999
 31
0.0
  0
LINE
  5
2A3
330
6B
100
AcDbEntity
  8
0
100
AcDbLine
 10
67.57297499999999
 20
52.815288
 30
0.0
 11
83.772975
 21
52.815288
 31
0.0
  0
ARC
  5
2A4
330
6B
100
AcDbEntity
  8
0
100
AcDbCircle
 10
83.772975
 20
71.715288
 30
0.0
 40
0.9
100
AcDbArc
 50
270.0
 51
90.0
  0
ARC
  5
2A5
330
6B
100
AcDbEntity
  8
0
100
AcDbCircle
 10
67.57297499999999
 20
71.715288
 30
0.0
 40
0.9
100
AcDbArc
 50
90.0
 51
270.0
  0
ARC
  5
2A6
330
6B
100
AcDbEntity
  8
0
100
AcDbCircle
 10
83.772975
 20
68.11528800000001
 30
0.0
 40
0.9
100
AcDbArc
 50
270.0
 51
90.0
  0
ARC
  5
2A7
330
6B
100
AcDbEntity
  8
0
100
AcDbCircle
 10
67.57297499999999
 20
68.11528800000001
 30
0.0
 40
0.9
100
AcDbArc
 50
90.0
 51
270.0
  0
ARC
  5
2A8
330
6B
100
AcDbEntity
  8
0
100
AcDbCircle
 10
83.772975
 20
64.515288
 30
0.0
 40
0.9
100
AcDbArc
 50
270.0
 51
90.0
  0
ARC
  5
2A9
330
6B
100
AcDbEntity
  8
0
100
AcDbCircle
 10
67.57297499999999
 20
64.515288
 30
0.0
 40
0.9
100
AcDbArc
 50
90.0
 51
270.0
  0
ARC
  5
2AA
330
6B
100
AcDbEntity
  8
0
100
AcDbCircle
 10
83.772975
 20
60.915288
 30
0.0
 40
0.9
100
AcDbArc
 50
270.0
 51
90.0
  0
ARC
  5
2AB
330
6B
100
AcDbEntity
  8
0
100
AcDbCircle
 10
67.57297499999999
 20
60.915288
 30
0.0
 40
0.9
100
AcDbArc
 50
90.0
 51
270.0
  0
ARC
  5
2AC
330
6B
100
AcDbEntity
  8
0
100
AcDbCircle
 10
83.772975
 20
57.315288
 30
0.0
 40
0.9
100
AcDbArc
 50
270.0
 51
90.0
  0
ARC
  5
2AD
330
6B
100
AcDbEntity
  8
0
100
AcDbCircle
 10
67.57297499999999
 20
57.315288
 30
0.0
 40
0.9
100
AcDbArc
 50
90.0
 51
270.0
  0
ARC
  5
2AE
330
6B
100
AcDbEntity
  8
0
100
AcDbCircle
 10
83.772975
 20
53.715288
 30
0.0
 40
0.9
100
AcDbArc
 50
270.0
 51
90.0
  0
ARC
  5
2AF
330
6B
100
AcDbEntity
  8
0
100
AcDbCircle
 10
67.57297499999999
 20
53.715288
 30
0.0
 40
0.9
100
AcDbArc
 50
90.0
 51
270.0
  0
LINE
  5
2B0
330
6B
100
AcDbEntity
  8
0
100
AcDbLine
 10
28.189783
 20
72.615288
 30
0.0
 11
44.389783
 21
72.615288
 31
0.0
  0
LINE
  5
2B1
330
6B
100
AcDbEntity
  8
0
100
AcDbLine
 10
28.189783
 20
70.815288
 30
0.0
 11
44.389783
 21
70.815288
 31
0.0
  0
LINE
  5
2B2
330
6B
100
AcDbEntity
  8
0
100
AcDbLine
 10
28.189783
 20
69.015288
 30
0.0
 11
44.389783
 21
69.015288
 31
0.0
  0
LINE
  5
2B3
330
6B
100
AcDbEntity
  8
0
100
AcDbLine
 10
28.189783
 20
67.215288
 30
0.0
 11
44.389783
 21
67.215288
 31
0.0
  0
LINE
  5
2B4
330
6B
100
AcDbEntity
  8
0
100
AcDbLine
 10
28.189783
 20
65.415288
 30
0.0
 11
44.389783
 21
65.415288
 31
0.0
  0
LINE
  5
2B5
330
6B
100
AcDbEntity
  8
0
100
AcDbLine
 10
28.189783
 20
63.615288
 30
0.0
 11
44.389783
 21
63.615288
 31
0.0
  0
LINE
  5
2B6
330
6B
100
AcDbEntity
  8
0
100
AcDbLine
 10
28.189783
 20
61.815288
 30
0.0
 11
44.389783
 21
61.815288
 31
0.0
  0
LINE
  5
2B7
330
6B
100
AcDbEntity
  8
0
100
AcDbLine
 10
28.189783
 20
60.01528799999999
 30
0.0
 11
44.389783
 21
60.01528799999999
 31
0.0
  0
LINE
  5
2B8
330
6B
100
AcDbEntity
  8
0
100
AcDbLine
 10
28.189783
 20
58.215288
 30
0.0
 11
44.389783
 21
58.215288
 31
0.0
  0
LINE
  5
2B9
330
6B
100
AcDbEntity
  8
0
100
AcDbLine
 10
28.189783
 20
56.415288
 30
0.0
 11
44.389783
 21
56.415288
 31
0.0
  0
LINE
  5
2BA
330
6B
100
AcDbEntity
  8
0
100
AcDbLine
 10
28.189783
 20
54.61528799999999
 30
0.0
 11
44.389783
 21
54.61528799999999
 31
0.0
  0
LINE
  5
2BB
330
6B
100
AcDbEntity
  8
0
100
AcDbLine
 10
28.189783
 20
52.815288
 30
0.0
 11
44.389783
 21
52.815288
 31
0.0
  0
ARC
  5
2BC
330
6B
100
AcDbEntity
  8
0
100
AcDbCircle
 10
44.389783
 20
71.715288
 30
0.0
 40
0.9
100
AcDbArc
 50
270.0
 51
90.0
  0
ARC
  5
2BD
330
6B
100
AcDbEntity
  8
0
100
AcDbCircle
 10
28.189783
 20
71.715288
 30
0.0
 40
0.9
100
AcDbArc
 50
90.0
 51
270.0
  0
ARC
  5
2BE
330
6B
100
AcDbEntity
  8
0
100
AcDbCircle
 10
44.389783
 20
68.11528800000001
 30
0.0
 40
0.9
100
AcDbArc
 50
270.0
 51
90.0
  0
ARC
  5
2BF
330
6B
100
AcDbEntity
  8
0
100
AcDbCircle
 10
28.189783
 20
68.11528800000001
 30
0.0
 40
0.9
100
AcDbArc
 50
90.0
 51
270.0
  0
ARC
  5
2C0
330
6B
100
AcDbEntity
  8
0
100
AcDbCircle
 10
44.389783
 20
64.515288
 30
0.0
 40
0.9
100
AcDbArc
 50
270.0
 51
90.0
  0
ARC
  5
2C1
330
6B
100
AcDbEntity
  8
0
100
AcDbCircle
 10
28.189783
 20
64.515288
 30
0.0
 40
0.9
100
AcDbArc
 50
90.0
 51
270.0
  0
ARC
  5
2C2
330
6B
100
AcDbEntity
  8
0
100
AcDbCircle
 10
44.389783
 20
60.915288
 30
0.0
 40
0.9
100
AcDbArc
 50
270.0
 51
90.0
  0
ARC
  5
2C3
330
6B
100
AcDbEntity
  8
0
100
AcDbCircle
 10
28.189783
 20
60.915288
 30
0.0
 40
0.9
100
AcDbArc
 50
90.0
 51
270.0
  0
ARC
  5
2C4
330
6B
100
AcDbEntity
  8
0
100
AcDbCircle
 10
44.389783
 20
57.315288
 30
0.0
 40
0.9
100
AcDbArc
 50
270.0
 51
90.0
  0
ARC
  5
2C5
330
6B
100
AcDbEntity
  8
0
100
AcDbCircle
 10
28.189783
 20
57.315288
 30
0.0
 40
0.9
100
AcDbArc
 50
90.0
 51
270.0
  0
ARC
  5
2C6
330
6B
100
AcDbEntity
  8
0
100
AcDbCircle
 10
44.389783
 20
53.715288
 30
0.0
 40
0.9
100
AcDbArc
 50
270.0
 51
90.0
  0
ARC
  5
2C7
330
6B
100
AcDbEntity
  8
0
100
AcDbCircle
 10
28.189783
 20
53.715288
 30
0.0
 40
0.9
100
AcDbArc
 50
90.0
 51
270.0
  0
LINE
  5
2C8
330
6B
100
AcDbEntity
  8
0
100
AcDbLine
 10
24.910936
 20
72.615288
 30
0.0
 11
8.710936
 21
72.615288
 31
0.0
  0
LINE
  5
2C9
330
6B
100
AcDbEntity
  8
0
100
AcDbLine
 10
24.910936
 20
70.815288
 30
0.0
 11
8.710936
 21
70.815288
 31
0.0
  0
LINE
  5
2CA
330
6B
100
AcDbEntity
  8
0
100
AcDbLine
 10
24.910936
 20
69.015288
 30
0.0
 11
8.710936
 21
69.015288
 31
0.0
  0
LINE
  5
2CB
330
6B
100
AcDbEntity
  8
0
100
AcDbLine
 10
24.910936
 20
67.215288
 30
0.0
 11
8.710936
 21
67.215288
 31
0.0
  0
LINE
  5
2CC
330
6B
100
AcDbEntity
  8
0
100
AcDbLine
 10
24.910936
 20
65.415288
 30
0.0
 11
8.710936
 21
65.415288
 31
0.0
  0
LINE
  5
2CD
330
6B
100
AcDbEntity
  8
0
100
AcDbLine
 10
24.910936
 20
63.615288
 30
0.0
 11
8.710936
 21
63.615288
 31
0.0
  0
LINE
  5
2CE
330
6B
100
AcDbEntity
  8
0
100
AcDbLine
 10
24.910936
 20
61.815288
 30
0.0
 11
8.710936
 21
61.815288
 31
0.0
  0
LINE
  5
2CF
330
6B
100
AcDbEntity
  8
0
100
AcDbLine
 10
24.910936
 20
60.01528799999999
 30
0.0
 11
8.710936
 21
60.01528799999999
 31
0.0
  0
LINE
  5
2D0
330
6B
100
AcDbEntity
  8
0
100
AcDbLine
 10
24.910936
 20
58.215288
 30
0.0
 11
8.710936
 21
58.215288
 31
0.0
  0
LINE
  5
2D1
330
6B
100
AcDbEntity
  8
0
100
AcDbLine
 10
24.910936
 20
56.415288
 30
0.0
 11
8.710936
 21
56.415288
 31
0.0
  0
LINE
  5
2D2
330
6B
100
AcDbEntity
  8
0
100
AcDbLine
 10
24.910936
 20
54.61528799999999
 30
0.0
 11
8.710936
 21
54.61528799999999
 31
0.0
  0
LINE
  5
2D3
330
6B
100
AcDbEntity
  8
0
100
AcDbLine
 10
24.910936
 20
52.815288
 30
0.0
 11
8.710936
 21
52.815288
 31
0.0
  0
ARC
  5
2D4
330
6B
100
AcDbEntity
  8
0
100
AcDbCircle
 10
8.710936
 20
71.715288
 30
0.0
 40
0.9
100
AcDbArc
 50
90.0
 51
270.0
  0
ARC
  5
2D5
330
6B
100
AcDbEntity
  8
0
100
AcDbCircle
 10
24.910936
 20
71.715288
 30
0.0
 40
0.9
100
AcDbArc
 50
270.0
 51
90.0
  0
ARC
  5
2D6
330
6B
100
AcDbEntity
  8
0
100
AcDbCircle
 10
8.710936
 20
68.11528800000001
 30
0.0
 40
0.9
100
AcDbArc
 50
90.0
 51
270.0
  0
ARC
  5
2D7
330
6B
100
AcDbEntity
  8
0
100
AcDbCircle
 10
24.910936
 20
68.11528800000001
 30
0.0
 40
0.9
100
AcDbArc
 50
270.0
 51
90.0
  0
ARC
  5
2D8
330
6B
100
AcDbEntity
  8
0
100
AcDbCircle
 10
8.710936
 20
64.515288
 30
0.0
 40
0.9
100
AcDbArc
 50
90.0
 51
270.0
  0
ARC
  5
2D9
330
6B
100
AcDbEntity
  8
0
100
AcDbCircle
 10
24.910936
 20
64.515288
 30
0.0
 40
0.9
100
AcDbArc
 50
270.0
 51
90.0
  0
ARC
  5
2DA
330
6B
100
AcDbEntity
  8
0
100
AcDbCircle
 10
8.710936
 20
60.915288
 30
0.0
 40
0.9
100
AcDbArc
 50
90.0
 51
270.0
  0
ARC
  5
2DB
330
6B
100
AcDbEntity
  8
0
100
AcDbCircle
 10
24.910936
 20
60.915288
 30
0.0
 40
0.9
100
AcDbArc
 50
270.0
 51
90.0
  0
ARC
  5
2DC
330
6B
100
AcDbEntity
  8
0
100
AcDbCircle
 10
8.710936
 20
57.315288
 30
0.0
 40
0.9
100
AcDbArc
 50
90.0
 51
270.0
  0
ARC
  5
2DD
330
6B
100
AcDbEntity
  8
0
100
AcDbCircle
 10
24.910936
 20
57.315288
 30
0.0
 40
0.9
100
AcDbArc
 50
270.0
 51
90.0
  0
ARC
  5
2DE
330
6B
100
AcDbEntity
  8
0
100
AcDbCircle
 10
8.710936
 20
53.715288
 30
0.0
 40
0.9
100
AcDbArc
 50
90.0
 51
270.0
  0
ARC
  5
2DF
330
6B
100
AcDbEntity
  8
0
100
AcDbCircle
 10
24.910936
 20
53.715288
 30
0.0
 40
0.9
100
AcDbArc
 50
270.0
 51
90.0
  0
LINE
  5
2E0
330
6B
100
AcDbEntity
  8
0
 62
     3
100
AcDbLine
 10
-72.33857399999997
 20
37.457752
 30
0.0
 11
-68.63789699999999
 21
41.15842899999999
 31
0.0
  0
TEXT
  5
2E1
330
6B
100
AcDbEntity
  8
0
100
AcDbText
 10
-83.516221
 20
60.124629
 30
0.0
 40
2.24
  1
急速充電
 41
0.833333
100
AcDbText
  0
TEXT
  5
2E2
330
6B
100
AcDbEntity
  8
0
100
AcDbText
 10
-87.24354400000001
 20
47.350319
 30
0.0
 40
2.24
  1
通常充電
 41
0.833333
100
AcDbText
  0
TEXT
  5
2E3
330
6B
100
AcDbEntity
  8
0
100
AcDbText
 10
-84.85355
 20
36.040844
 30
0.0
 40
2.24
  1
通常充電弱
 41
0.833333
100
AcDbText
  0
TEXT
  5
2E4
330
6B
100
AcDbEntity
  8
0
100
AcDbText
 10
-161.550693
 20
29.569784
 30
0.0
 40
1.843199999999999
  1
INPUT AC100V 240VA
 41
1.104295
100
AcDbText
  0
TEXT
  5
2E5
330
6B
100
AcDbEntity
  8
0
100
AcDbText
 10
-123.0161889999999
 20
29.697769
 30
0.0
 40
1.843199999999999
  1
OUTPUT 12V 10AMAX
 41
1.111110999999997
100
AcDbText
  0
LINE
  5
2EB
330
6B
100
AcDbEntity
  8
0
100
AcDbLine
 10
-59.597735
 20
54.021333
 30
0.0
 11
-44.076146
 21
108.470073
 31
0.0
  0
CIRCLE
  5
2EC
330
6B
100
AcDbEntity
  8
0
100
AcDbCircle
 10
-42.705414
 20
113.278513
 30
0.0
 40
5.0
  0
TEXT
  5
2ED
330
6B
100
AcDbEntity
  8
0
 62
     4
100
AcDbText
 10
-44.90417093139011
 20
110.0163748504393
 30
0.0
 40
6.299999999999998
  1
6
  7
高6.3
100
AcDbText
  0
TEXT
  5
2EE
330
6B
100
AcDbEntity
  8
0
 62
     3
100
AcDbText
 10
116.950939
 20
-62.502993
 30
0.0
 40
3.2
  1
12V(26～80Ah)
  7
高3.2
100
AcDbText
  0
LINE
  5
2F4
330
6B
100
AcDbEntity
  8
0
100
AcDbLine
 10
-150.261458
 20
80.539234
 30
0.0
 11
-145.074925
 21
108.363181
 31
0.0
  0
CIRCLE
  5
2F5
330
6B
100
AcDbEntity
  8
0
100
AcDbCircle
 10
-144.15868
 20
113.278513
 30
0.0
 40
5.0
  0
TEXT
  5
2F6
330
6B
100
AcDbEntity
  8
0
 62
     4
100
AcDbText
 10
-145.2623522860392
 20
110.1177349815776
 30
0.0
 40
6.299999999999998
  1
1
  7
高6.3
100
AcDbText
  0
LINE
  5
2FC
330
6B
100
AcDbEntity
  8
0
100
AcDbLine
 10
-149.261154
 20
51.164964
 30
0.0
 11
-132.358367
 21
108.482698
 31
0.0
  0
CIRCLE
  5
2FD
330
6B
100
AcDbEntity
  8
0
100
AcDbCircle
 10
-130.944099
 20
113.278513
 30
0.0
 40
5.0
  0
TEXT
  5
2FE
330
6B
100
AcDbEntity
  8
0
 62
     4
100
AcDbText
 10
-133.1428559313901
 20
110.0163748504393
 30
0.0
 40
6.299999999999998
  1
2
  7
高6.3
100
AcDbText
  0
LINE
  5
304
330
6B
100
AcDbEntity
  8
0
100
AcDbLine
 10
-137.388963
 20
51.98728
 30
0.0
 11
-120.43635
 21
108.489428
 31
0.0
  0
CIRCLE
  5
305
330
6B
100
AcDbEntity
  8
0
100
AcDbCircle
 10
-118.999458
 20
113.278513
 30
0.0
 40
5.0
  0
TEXT
  5
306
330
6B
100
AcDbEntity
  8
0
 62
     4
100
AcDbText
 10
-121.1982149313901
 20
110.0163748504393
 30
0.0
 40
6.299999999999998
  1
3
  7
高6.3
100
AcDbText
  0
LINE
  5
30C
330
6B
100
AcDbEntity
  8
0
100
AcDbLine
 10
-94.14852399999999
 20
54.69531899999999
 30
0.0
 11
-78.298201
 21
108.482425
 31
0.0
  0
CIRCLE
  5
30D
330
6B
100
AcDbEntity
  8
0
100
AcDbCircle
 10
-76.88486000000001
 20
113.278513
 30
0.0
 40
5.0
  0
TEXT
  5
30E
330
6B
100
AcDbEntity
  8
0
 62
     4
100
AcDbText
 10
-79.08361693139011
 20
110.0163748504393
 30
0.0
 40
6.299999999999998
  1
4
  7
高6.3
100
AcDbText
  0
LINE
  5
314
330
6B
100
AcDbEntity
  8
0
100
AcDbLine
 10
-60.69696
 20
80.74251999999999
 30
0.0
 11
-55.732175
 21
108.357414
 31
0.0
  0
CIRCLE
  5
315
330
6B
100
AcDbEntity
  8
0
100
AcDbCircle
 10
-54.847427
 20
113.278513
 30
0.0
 40
5.0
  0
TEXT
  5
316
330
6B
100
AcDbEntity
  8
0
 62
     4
100
AcDbText
 10
-57.04618393139011
 20
110.0163748504393
 30
0.0
 40
6.299999999999998
  1
5
  7
高6.3
100
AcDbText
  0
LINE
  5
31C
330
6B
100
AcDbEntity
  8
0
100
AcDbLine
 10
-46.473459
 20
78.532545
 30
0.0
 11
-31.898964
 21
108.7743
 31
0.0
  0
CIRCLE
  5
31D
330
6B
100
AcDbEntity
  8
0
100
AcDbCircle
 10
-29.728236
 20
113.278513
 30
0.0
 40
5.0
  0
TEXT
  5
31E
330
6B
100
AcDbEntity
  8
0
 62
     4
100
AcDbText
 10
-31.92699293139011
 20
110.0163748504393
 30
0.0
 40
6.299999999999998
  1
7
  7
高6.3
100
AcDbText
  0
LINE
  5
324
330
6B
100
AcDbEntity
  8
0
100
AcDbLine
 10
3.319216999999998
 20
87.102622
 30
0.0
 11
-4.893791
 21
108.607568
 31
0.0
  0
CIRCLE
  5
325
330
6B
100
AcDbEntity
  8
0
100
AcDbCircle
 10
-6.677683999999997
 20
113.278513
 30
0.0
 40
5.0
  0
TEXT
  5
326
330
6B
100
AcDbEntity
  8
0
 62
     4
100
AcDbText
 10
-8.876440931390105
 20
110.0163748504393
 30
0.0
 40
6.299999999999998
  1
8
  7
高6.3
100
AcDbText
  0
LINE
  5
32C
330
6B
100
AcDbEntity
  8
0
100
AcDbLine
 10
17.797749
 20
95.47072599999999
 30
0.0
 11
13.619346
 21
108.516781
 31
0.0
  0
CIRCLE
  5
32D
330
6B
100
AcDbEntity
  8
0
100
AcDbCircle
 10
12.094254
 20
113.278513
 30
0.0
 40
5.0
  0
TEXT
  5
32E
330
6B
100
AcDbEntity
  8
0
 62
     4
100
AcDbText
 10
9.895497068609891
 20
110.0163748504393
 30
0.0
 40
6.299999999999998
  1
9
  7
高6.3
100
AcDbText
  0
LINE
  5
334
330
6B
100
AcDbEntity
  8
0
100
AcDbLine
 10
111.280656
 20
1.080909
 30
0.0
 11
103.240416
 21
-5.434881999999999
 31
0.0
  0
CIRCLE
  5
335
330
6B
100
AcDbEntity
  8
0
100
AcDbCircle
 10
99.35585299999999
 20
-8.582924
 30
0.0
 40
5.0
  0
TEXT
  5
336
330
6B
100
AcDbEntity
  8
0
 62
     4
100
AcDbText
 10
97.14339763865995
 20
-10.76590303985017
 30
0.0
 40
4.5
  1
11
  7
高4.5
100
AcDbText
  0
LINE
  5
33C
330
6B
100
AcDbEntity
  8
0
100
AcDbLine
 10
83.75497499999999
 20
12.267111
 30
0.0
 11
72.59874499999998
 21
-4.425845999999999
 31
0.0
  0
CIRCLE
  5
33D
330
6B
100
AcDbEntity
  8
0
100
AcDbCircle
 10
69.82048899999999
 20
-8.582924
 30
0.0
 40
5.0
  0
TEXT
  5
33E
330
6B
100
AcDbEntity
  8
0
 62
     4
100
AcDbText
 10
66.82048899999999
 20
-10.89086319156361
 30
0.0
 40
4.5
  1
12
  7
高4.5
100
AcDbText
  0
LINE
  5
33F
330
6B
100
AcDbEntity
  8
0
 62
     3
100
AcDbLine
 10
-23.16275352916196
 20
-138.5
 30
0.0
 11
-23.16275352916196
 21
-73.5
 31
0.0
  0
LINE
  5
345
330
6B
100
AcDbEntity
  8
0
100
AcDbLine
 10
122.664933
 20
33.290709
 30
0.0
 11
131.775524
 21
46.204219
 31
0.0
  0
CIRCLE
  5
346
330
6B
100
AcDbEntity
  8
0
100
AcDbCircle
 10
134.65792
 20
50.289778
 30
0.0
 40
5.0
  0
TEXT
  5
347
330
6B
100
AcDbEntity
  8
0
 62
     4
100
AcDbText
 10
131.65792
 20
47.98183780843639
 30
0.0
 40
4.5
  1
10
  7
高4.5
100
AcDbText
  0
LINE
  5
348
330
6B
100
AcDbEntity
  8
0
 62
     3
100
AcDbLine
 10
25.761467
 20
99.84419800000001
 30
0.0
 11
24.829237
 21
86.5057
 31
0.0
  0
LINE
  5
349
330
6B
100
AcDbEntity
  8
0
 62
     3
100
AcDbLine
 10
62.514029
 20
99.84419800000001
 30
0.0
 11
63.446259
 21
86.5057
 31
0.0
  0
TEXT
  5
34A
330
6B
100
AcDbEntity
  8
0
 62
     3
100
AcDbText
 10
-85.986278
 20
77.889381
 30
0.0
 40
5.4
  1
50
 41
0.6241
100
AcDbText
  0
TEXT
  5
34B
330
6B
100
AcDbEntity
  8
0
100
AcDbText
 10
-70.60248299999997
 20
64.76464799999999
 30
0.0
 40
3.2
  1
エンジン始動
 41
0.833333
100
AcDbText
  0
TEXT
  5
34C
330
6B
100
AcDbEntity
  8
0
100
AcDbText
 10
-65.897749
 20
72.33779
 30
0.0
 40
3.2
  1
充電中
 41
0.833333
100
AcDbText
  0
TEXT
  5
34D
330
6B
100
AcDbEntity
  8
0
100
AcDbText
 10
-87.802261
 20
67.23900400000001
 30
0.0
 40
2.457599999999998
  1
ONLY
 41
0.888108
100
AcDbText
  0
TEXT
  5
34E
330
6B
100
AcDbEntity
  8
0
100
AcDbText
 10
-88.571229
 20
70.604562
 30
0.0
 40
3.455999999999998
  1
12V
100
AcDbText
  0
TEXT
  5
34F
330
6B
100
AcDbEntity
  8
0
100
AcDbText
 10
-70.12106300000001
 20
30.361098
 30
0.0
 40
3.2
  1
充電スイッチ
 41
0.833333
100
AcDbText
  0
CIRCLE
  5
350
330
6B
100
AcDbEntity
  8
0
100
AcDbCircle
 10
-149.489286
 20
49.62127399999999
 30
0.0
 40
1.5
  0
TEXT
  5
351
330
6B
100
AcDbEntity
  8
0
 62
     3
100
AcDbText
 10
-145.370595
 20
20.779039
 30
0.0
 40
4.32
  1
NB-50
 41
1.034483
100
AcDbText
  0
TEXT
  5
352
330
6B
100
AcDbEntity
  8
0
 62
     3
100
AcDbText
 10
-100.0316991893095
 20
-138.0
 30
0.0
 40
3.2
  1
個数
 41
0.8
  7
高3.2
100
AcDbText
  0
TEXT
  5
353
330
6B
100
AcDbEntity
  8
0
 62
     3
100
AcDbText
 10
-133.8411592758343
 20
-138.0
 30
0.0
 40
3.2
  1
備　　　考
 41
0.8
  7
高3.2
100
AcDbText
  0
TEXT
  5
354
330
6B
100
AcDbEntity
  8
0
 62
     3
100
AcDbText
 10
-149.8089524753508
 20
-138.0
 30
0.0
 40
3.2
  1
材　質
 41
0.8
  7
高3.2
100
AcDbText
  0
TEXT
  5
355
330
6B
100
AcDbEntity
  8
0
 62
     3
100
AcDbText
 10
-186.6570205956695
 20
-138.0
 30
0.0
 40
3.2
  1
部　　品　　名
 41
0.8
  7
高3.2
100
AcDbText
  0
TEXT
  5
356
330
6B
100
AcDbEntity
  8
0
 62
     3
100
AcDbText
 10
-193.5
 20
-138.0
 30
0.0
 40
3.2
  1
No
 41
0.8
  7
高3.2
100
AcDbText
  0
TEXT
  5
357
330
6B
100
AcDbEntity
  8
0
 62
     3
100
AcDbText
 10
-100.0316991893095
 20
-88.0
 30
0.0
 40
3.2
  1
2
 41
0.8
  7
高3.2
100
AcDbText
  0
TEXT
  5
358
330
6B
100
AcDbEntity
  8
0
 62
     3
100
AcDbText
 10
-100.0316991893095
 20
-93.0
 30
0.0
 40
3.2
  1
1
 41
0.8
  7
高3.2
100
AcDbText
  0
TEXT
  5
359
330
6B
100
AcDbEntity
  8
0
 62
     3
100
AcDbText
 10
-100.0316991893095
 20
-98.0
 30
0.0
 40
3.2
  1
1
 41
0.8
  7
高3.2
100
AcDbText
  0
TEXT
  5
35A
330
6B
100
AcDbEntity
  8
0
 62
     3
100
AcDbText
 10
-100.0316991893095
 20
-103.0
 30
0.0
 40
3.2
  1
1
 41
0.8
  7
高3.2
100
AcDbText
  0
TEXT
  5
35B
330
6B
100
AcDbEntity
  8
0
 62
     3
100
AcDbText
 10
-100.0316991893095
 20
-108.0
 30
0.0
 40
3.2
  1
1
 41
0.8
  7
高3.2
100
AcDbText
  0
TEXT
  5
35C
330
6B
100
AcDbEntity
  8
0
 62
     3
100
AcDbText
 10
-100.0316991893095
 20
-113.0
 30
0.0
 40
3.2
  1
1
 41
0.8
  7
高3.2
100
AcDbText
  0
TEXT
  5
35D
330
6B
100
AcDbEntity
  8
0
 62
     3
100
AcDbText
 10
-100.0316991893095
 20
-118.0
 30
0.0
 40
3.2
  1
1
 41
0.8
  7
高3.2
100
AcDbText
  0
TEXT
  5
35E
330
6B
100
AcDbEntity
  8
0
 62
     3
100
AcDbText
 10
-100.0316991893095
 20
-123.0
 30
0.0
 40
3.2
  1
1
 41
0.8
  7
高3.2
100
AcDbText
  0
TEXT
  5
35F
330
6B
100
AcDbEntity
  8
0
 62
     3
100
AcDbText
 10
-100.0316991893095
 20
-128.0
 30
0.0
 40
3.2
  1
1
 41
0.8
  7
高3.2
100
AcDbText
  0
TEXT
  5
360
330
6B
100
AcDbEntity
  8
0
 62
     3
100
AcDbText
 10
-100.0316991893095
 20
-133.0
 30
0.0
 40
3.2
  1
1
 41
0.8
  7
高3.2
100
AcDbText
  0
TEXT
  5
361
330
6B
100
AcDbEntity
  8
0
 62
     3
100
AcDbText
 10
-100.0316991893095
 20
-83.0
 30
0.0
 40
3.2
  1
1
 41
0.8
  7
高3.2
100
AcDbText
  0
LINE
  5
362
330
6B
100
AcDbEntity
  8
0
100
AcDbLine
 10
-101.5316991893095
 20
-138.5
 30
0.0
 11
-101.5316991893095
 21
-73.5
 31
0.0
  0
TEXT
  5
363
330
6B
100
AcDbEntity
  8
0
 62
     3
100
AcDbText
 10
-100.0316991893095
 20
-78.0
 30
0.0
 40
3.2
  1
4
 41
0.8
  7
高3.2
100
AcDbText
  0
TEXT
  5
364
330
6B
100
AcDbEntity
  8
0
 62
     3
100
AcDbText
 10
-193.5
 20
-133.0
 30
0.0
 40
3.2
  1
1
 41
0.8
  7
高3.2
100
AcDbText
  0
TEXT
  5
365
330
6B
100
AcDbEntity
  8
0
 62
     3
100
AcDbText
 10
-193.5
 20
-128.0
 30
0.0
 40
3.2
  1
2
 41
0.8
  7
高3.2
100
AcDbText
  0
TEXT
  5
366
330
6B
100
AcDbEntity
  8
0
 62
     3
100
AcDbText
 10
-193.5
 20
-123.0
 30
0.0
 40
3.2
  1
3
 41
0.8
  7
高3.2
100
AcDbText
  0
TEXT
  5
367
330
6B
100
AcDbEntity
  8
0
 62
     3
100
AcDbText
 10
-193.5
 20
-118.0
 30
0.0
 40
3.2
  1
4
 41
0.8
  7
高3.2
100
AcDbText
  0
TEXT
  5
368
330
6B
100
AcDbEntity
  8
0
 62
     3
100
AcDbText
 10
-193.5
 20
-113.0
 30
0.0
 40
3.2
  1
5
 41
0.8
  7
高3.2
100
AcDbText
  0
TEXT
  5
369
330
6B
100
AcDbEntity
  8
0
 62
     3
100
AcDbText
 10
-193.5
 20
-108.0
 30
0.0
 40
3.2
  1
6
 41
0.8
  7
高3.2
100
AcDbText
  0
TEXT
  5
36A
330
6B
100
AcDbEntity
  8
0
 62
     3
100
AcDbText
 10
-193.5
 20
-103.0
 30
0.0
 40
3.2
  1
7
 41
0.8
  7
高3.2
100
AcDbText
  0
TEXT
  5
36B
330
6B
100
AcDbEntity
  8
0
 62
     3
100
AcDbText
 10
-193.5
 20
-98.0
 30
0.0
 40
3.2
  1
8
 41
0.8
  7
高3.2
100
AcDbText
  0
TEXT
  5
36C
330
6B
100
AcDbEntity
  8
0
 62
     3
100
AcDbText
 10
-193.5
 20
-93.0
 30
0.0
 40
3.2
  1
9
 41
0.8
  7
高3.2
100
AcDbText
  0
TEXT
  5
36D
330
6B
100
AcDbEntity
  8
0
 62
     3
100
AcDbText
 10
-193.5
 20
-88.0
 30
0.0
 40
3.2
  1
10
 41
0.8
  7
高3.2
100
AcDbText
  0
TEXT
  5
36E
330
6B
100
AcDbEntity
  8
0
 62
     3
100
AcDbText
 10
-186.6570205956695
 20
-103.0
 30
0.0
 40
3.2
  1
前面パネル兼シャーシ
 41
0.8
  7
高3.2
100
AcDbText
  0
TEXT
  5
36F
330
6B
100
AcDbEntity
  8
0
 62
     3
100
AcDbText
 10
-186.6570205956695
 20
-98.0
 30
0.0
 40
3.2
  1
本体カバー
 41
0.8
  7
高3.2
100
AcDbText
  0
TEXT
  5
370
330
6B
100
AcDbEntity
  8
0
 62
     3
100
AcDbText
 10
-186.6570205956695
 20
-93.0
 30
0.0
 40
3.2
  1
アーチグリップ
 41
0.8
  7
高3.2
100
AcDbText
  0
TEXT
  5
371
330
6B
100
AcDbEntity
  8
0
 62
     3
100
AcDbText
 10
-186.6570205956695
 20
-133.0
 30
0.0
 40
3.2
  1
直流電圧計
 41
0.8
  7
高3.2
100
AcDbText
  0
TEXT
  5
372
330
6B
100
AcDbEntity
  8
0
 62
     3
100
AcDbText
 10
-186.6570205956695
 20
-118.0
 30
0.0
 40
3.2
  1
電源スイッチ
 41
0.8
  7
高3.2
100
AcDbText
  0
TEXT
  5
373
330
6B
100
AcDbEntity
  8
0
 62
     3
100
AcDbText
 10
-186.6570205956695
 20
-78.0
 30
0.0
 40
3.2
  1
ゴム足
 41
0.8
  7
高3.2
100
AcDbText
  0
TEXT
  5
374
330
6B
100
AcDbEntity
  8
0
 62
     3
100
AcDbText
 10
-186.6570205956695
 20
-128.0
 30
0.0
 40
3.2
  1
ノーヒューズブレーカー
 41
0.8
  7
高3.2
100
AcDbText
  0
TEXT
  5
375
330
6B
100
AcDbEntity
  8
0
 62
     3
100
AcDbText
 10
-186.6570205956695
 20
-83.0
 30
0.0
 40
3.2
  1
プラグ付き入力コード
 41
0.8
  7
高3.2
100
AcDbText
  0
TEXT
  5
376
330
6B
100
AcDbEntity
  8
0
 62
     3
100
AcDbText
 10
-186.6570205956695
 20
-88.0
 30
0.0
 40
3.2
  1
クリップ付き出力コード
 41
0.8
  7
高3.2
100
AcDbText
  0
TEXT
  5
377
330
6B
100
AcDbEntity
  8
0
 62
     3
100
AcDbText
 10
-112.9402308769458
 20
-88.0
 30
0.0
 40
3.2
  1
赤、黒
 41
0.8
  7
高3.2
100
AcDbText
  0
TEXT
  5
378
330
6B
100
AcDbEntity
  8
0
 62
     3
100
AcDbText
 10
-149.8089524753508
 20
-83.0
 30
0.0
 40
3.2
  1
VCTFK
 41
0.8
  7
高3.2
100
AcDbText
  0
TEXT
  5
379
330
6B
100
AcDbEntity
  8
0
 62
     3
100
AcDbText
 10
-149.8089524753508
 20
-78.0
 30
0.0
 40
3.2
  1
合成ゴム
 41
0.8
  7
高3.2
100
AcDbText
  0
TEXT
  5
37A
330
6B
100
AcDbEntity
  8
0
 62
     3
100
AcDbText
 10
-149.8089524753508
 20
-93.0
 30
0.0
 40
3.2
  1
PA樹脂
 41
0.8
  7
高3.2
100
AcDbText
  0
TEXT
  5
37B
330
6B
100
AcDbEntity
  8
0
 62
     3
100
AcDbText
 10
-149.8089524753508
 20
-98.0
 30
0.0
 40
3.2
  1
SPCC
 41
0.8
  7
高3.2
100
AcDbText
  0
TEXT
  5
37C
330
6B
100
AcDbEntity
  8
0
 62
     3
100
AcDbText
 10
-149.8089524753508
 20
-103.0
 30
0.0
 40
3.2
  1
SPCC
 41
0.8
  7
高3.2
100
AcDbText
  0
TEXT
  5
37D
330
6B
100
AcDbEntity
  8
0
 62
     3
100
AcDbText
 10
-133.8411592758343
 20
-128.0
 30
0.0
 40
3.2
  1
5A
 41
0.8
  7
高3.2
100
AcDbText
  0
TEXT
  5
37E
330
6B
100
AcDbEntity
  8
0
 62
     3
100
AcDbText
 10
-133.8411592758343
 20
-83.0
 30
0.0
 40
3.2
  1
1.25sqx2芯x2m
 41
0.8
  7
高3.2
100
AcDbText
  0
TEXT
  5
37F
330
6B
100
AcDbEntity
  8
0
 62
     3
100
AcDbText
 10
-133.8411592758343
 20
-88.0
 30
0.0
 40
3.2
  1
5.5sqx2m
 41
0.8
  7
高3.2
100
AcDbText
  0
TEXT
  5
380
330
6B
100
AcDbEntity
  8
0
 62
     3
100
AcDbText
 10
-186.6570205956695
 20
-108.0
 30
0.0
 40
3.2
  1
充電スイッチ(ツマミ)
 41
0.8
  7
高3.2
100
AcDbText
  0
TEXT
  5
381
330
6B
100
AcDbEntity
  8
0
 62
     3
100
AcDbText
 10
-186.6570205956695
 20
-123.0
 30
0.0
 40
3.2
  1
異常表示ランプ
 41
0.8
  7
高3.2
100
AcDbText
  0
TEXT
  5
382
330
6B
100
AcDbEntity
  8
0
 62
     3
100
AcDbText
 10
-186.6570205956695
 20
-113.0
 30
0.0
 40
3.2
  1
充電中表示ランプ
 41
0.8
  7
高3.2
100
AcDbText
  0
TEXT
  5
383
330
6B
100
AcDbEntity
  8
0
 62
     3
100
AcDbText
 10
-193.5
 20
-83.0
 30
0.0
 40
3.2
  1
11
 41
0.8
  7
高3.2
100
AcDbText
  0
TEXT
  5
384
330
6B
100
AcDbEntity
  8
0
 62
     3
100
AcDbText
 10
-193.5
 20
-78.0
 30
0.0
 40
3.2
  1
12
 41
0.8
  7
高3.2
100
AcDbText
  0
TEXT
  5
385
330
6B
100
AcDbEntity
  8
0
 62
     3
100
AcDbText
 10
-133.8411592758342
 20
-103.0
 30
0.0
 40
3.2
  1
焼付塗装
 41
0.8
  7
高3.2
100
AcDbText
  0
TEXT
  5
386
330
6B
100
AcDbEntity
  8
0
 62
     3
100
AcDbText
 10
-133.8411592758343
 20
-98.0
 30
0.0
 40
3.2
  1
焼付塗装
 41
0.8
  7
高3.2
100
AcDbText
  0
LINE
  5
387
330
6B
100
AcDbEntity
  8
0
100
AcDbLine
 10
-135.3411592758343
 20
-138.5
 30
0.0
 11
-135.3411592758342
 21
-73.5
 31
0.0
  0
LINE
  5
388
330
6B
100
AcDbEntity
  8
0
100
AcDbLine
 10
-151.3089524753508
 20
-138.5
 30
0.0
 11
-151.3089524753508
 21
-73.5
 31
0.0
  0
LINE
  5
389
330
6B
100
AcDbEntity
  8
0
100
AcDbLine
 10
-188.1570205956695
 20
-138.5
 30
0.0
 11
-188.1570205956695
 21
-73.5
 31
0.0
  0
TEXT
  5
38A
330
6B
100
AcDbEntity
  8
0
 62
     3
100
AcDbText
 10
-133.8411592758343
 20
-108.0
 30
0.0
 40
3.2
  1
エンジンスタート兼用
 41
0.8
  7
高3.2
100
AcDbText
  0
TEXT
  5
38B
330
6B
100
AcDbEntity
  8
0
 62
     3
100
AcDbText
 10
-133.8411592758343
 20
-118.0
 30
0.0
 40
3.2
  1
電源ランプ付き
 41
0.8
  7
高3.2
100
AcDbText
  0
TEXT
  5
38C
330
6B
100
AcDbEntity
  8
0
 62
     3
100
AcDbText
 10
-133.8411592758343
 20
-78.0
 30
0.0
 40
3.2
  1
M４ビス
 41
0.8
  7
高3.2
100
AcDbText
  0
LINE
  5
38D
330
6B
100
AcDbEntity
  8
0
 62
     3
100
AcDbLine
 10
194.899964
 20
-92.834277
 30
0.0
 11
143.3006
 21
-92.834277
 31
0.0
  0
TEXT
  5
38E
330
6B
100
AcDbEntity
  8
0
 62
     3
100
AcDbText
 10
149.0149740159545
 20
-98.278192
 30
0.0
 40
4.5
  1
コード
  7
高4.5
100
AcDbText
  0
LINE
  5
38F
330
6B
100
AcDbEntity
  8
0
 62
     3
100
AcDbLine
 10
169.3006
 20
-98.834277
 30
0.0
 11
169.3006
 21
-92.834277
 31
0.0
  0
LINE
  5
390
330
6B
100
AcDbEntity
  8
0
 62
     3
100
AcDbLine
 10
143.3006
 20
-98.834277
 30
0.0
 11
143.3006
 21
-92.834277
 31
0.0
  0
LINE
  5
391
330
6B
100
AcDbEntity
  8
0
 62
     3
100
AcDbLine
 10
-195.0
 20
-73.5
 30
0.0
 11
-23.16275352916203
 21
-73.5
 31
0.0
  0
LINE
  5
392
330
6B
100
AcDbEntity
  8
0
100
AcDbLine
 10
-195.0
 20
-88.49999999999999
 30
0.0
 11
-23.16275352916203
 21
-88.49999999999999
 31
0.0
  0
LINE
  5
393
330
6B
100
AcDbEntity
  8
0
100
AcDbLine
 10
-195.0
 20
-128.5
 30
0.0
 11
-23.16275352916196
 21
-128.5
 31
0.0
  0
LINE
  5
394
330
6B
100
AcDbEntity
  8
0
100
AcDbLine
 10
-195.0
 20
-123.5
 30
0.0
 11
-23.16275352916196
 21
-123.5
 31
0.0
  0
LINE
  5
395
330
6B
100
AcDbEntity
  8
0
100
AcDbLine
 10
-195.0
 20
-118.5
 30
0.0
 11
-23.16275352916196
 21
-118.5
 31
0.0
  0
LINE
  5
396
330
6B
100
AcDbEntity
  8
0
100
AcDbLine
 10
-195.0
 20
-113.5
 30
0.0
 11
-23.16275352916196
 21
-113.5
 31
0.0
  0
LINE
  5
397
330
6B
100
AcDbEntity
  8
0
100
AcDbLine
 10
-195.0
 20
-108.5
 30
0.0
 11
-23.16275352916196
 21
-108.5
 31
0.0
  0
LINE
  5
398
330
6B
100
AcDbEntity
  8
0
100
AcDbLine
 10
-195.0
 20
-103.5
 30
0.0
 11
-23.16275352916199
 21
-103.5
 31
0.0
  0
LINE
  5
399
330
6B
100
AcDbEntity
  8
0
100
AcDbLine
 10
-195.0
 20
-98.50000000000001
 30
0.0
 11
-23.16275352916203
 21
-98.50000000000001
 31
0.0
  0
LINE
  5
39A
330
6B
100
AcDbEntity
  8
0
100
AcDbLine
 10
-195.0
 20
-93.49999999999999
 30
0.0
 11
-23.16275352916203
 21
-93.49999999999999
 31
0.0
  0
LINE
  5
39B
330
6B
100
AcDbEntity
  8
0
100
AcDbLine
 10
-195.0
 20
-78.5
 30
0.0
 11
-23.16275352916203
 21
-78.5
 31
0.0
  0
LINE
  5
39C
330
6B
100
AcDbEntity
  8
0
100
AcDbLine
 10
-195.0
 20
-83.49999999999999
 30
0.0
 11
-23.16275352916203
 21
-83.49999999999999
 31
0.0
  0
LINE
  5
39D
330
6B
100
AcDbEntity
  8
0
 62
     3
100
AcDbLine
 10
-195.0
 20
-133.5
 30
0.0
 11
-23.16275352916196
 21
-133.5
 31
0.0
  0
TEXT
  5
39E
330
6B
100
AcDbEntity
  8
0
 62
     3
100
AcDbText
 10
174.2173832784124
 20
-98.335921
 30
0.0
 40
4.5
  1
6525
  7
高4.5
100
AcDbText
  0
TEXT
  5
47C
330
6B
100
AcDbEntity
  8
0
 62
     3
100
AcDbText
 10
182.5
 20
129.0
 30
0.0
 40
3.2
  1
担　当
  7
高3.2
100
AcDbText
  0
TEXT
  5
47D
330
6B
100
AcDbEntity
  8
0
 62
     3
100
AcDbText
 10
138.5
 20
129.0
 30
0.0
 40
3.2
  1
変更・追記内容
  7
高3.2
100
AcDbText
  0
TEXT
  5
47E
330
6B
100
AcDbEntity
  8
0
 62
     3
100
AcDbText
 10
113.6135150003392
 20
124.3294614900917
 30
0.0
 40
2.0
  1
1
  7
高2
100
AcDbText
  0
TEXT
  5
47F
330
6B
100
AcDbEntity
  8
0
 62
     3
100
AcDbText
 10
113.3050035235819
 20
119.1596447778188
 30
0.0
 40
2.0
  1
2
  7
高2
100
AcDbText
  0
TEXT
  5
480
330
6B
100
AcDbEntity
  8
0
 62
     3
100
AcDbText
 10
120.5
 20
129.0
 30
0.0
 40
3.2
  1
日　付
  7
高3.2
100
AcDbText
  0
TEXT
  5
481
330
6B
100
AcDbEntity
  8
0
 62
     3
100
AcDbText
 10
120.5
 20
134.0
 30
0.0
 40
3.2
  1
図　　　　面　　　　略　　　　歴
  7
高3.2
100
AcDbText
  0
TEXT
  5
482
330
6B
100
AcDbEntity
  8
0
 62
     3
100
AcDbText
 10
110.5
 20
129.0
 30
0.0
 40
3.2
  1
記号
  7
高3.2
100
AcDbText
  0
LINE
  5
483
330
6B
100
AcDbEntity
  8
0
100
AcDbLine
 10
114.0
 20
122.2908960000001
 30
0.0
 11
112.1
 21
119.0
 31
0.0
  0
LINE
  5
484
330
6B
100
AcDbEntity
  8
0
100
AcDbLine
 10
114.0
 20
122.2908960000001
 30
0.0
 11
115.9
 21
119.0
 31
0.0
  0
LINE
  5
485
330
6B
100
AcDbEntity
  8
0
100
AcDbLine
 10
112.1
 20
119.0
 30
0.0
 11
115.9
 21
119.0
 31
0.0
  0
LINE
  5
486
330
6B
100
AcDbEntity
  8
0
100
AcDbLine
 10
114.0
 20
127.2908970000001
 30
0.0
 11
112.1
 21
124.0
 31
0.0
  0
LINE
  5
487
330
6B
100
AcDbEntity
  8
0
100
AcDbLine
 10
114.0
 20
127.2908970000001
 30
0.0
 11
115.9
 21
124.0
 31
0.0
  0
LINE
  5
488
330
6B
100
AcDbEntity
  8
0
100
AcDbLine
 10
112.1
 20
124.0
 30
0.0
 11
115.9
 21
124.0
 31
0.0
  0
LINE
  5
489
330
6B
100
AcDbEntity
  8
0
 62
     3
100
AcDbLine
 10
109.0
 20
133.5
 30
0.0
 11
195.0
 21
133.5
 31
0.0
  0
LINE
  5
48A
330
6B
100
AcDbEntity
  8
0
 62
     3
100
AcDbLine
 10
109.0
 20
128.5
 30
0.0
 11
195.0
 21
128.5
 31
0.0
  0
LINE
  5
48B
330
6B
100
AcDbEntity
  8
0
 62
     7
100
AcDbLine
 10
109.0
 20
123.5
 30
0.0
 11
195.0
 21
123.5
 31
0.0
  0
LINE
  5
48C
330
6B
100
AcDbEntity
  8
0
 62
     3
100
AcDbLine
 10
109.0
 20
118.5
 30
0.0
 11
195.0
 21
118.5
 31
0.0
  0
LINE
  5
48D
330
6B
100
AcDbEntity
  8
0
 62
     7
100
AcDbLine
 10
180.9999999999999
 20
118.5
 30
0.0
 11
181.0
 21
133.5
 31
0.0
  0
LINE
  5
48E
330
6B
100
AcDbEntity
  8
0
 62
     7
100
AcDbLine
 10
137.0
 20
118.5
 30
0.0
 11
137.0
 21
133.5
 31
0.0
  0
LINE
  5
48F
330
6B
100
AcDbEntity
  8
0
 62
     7
100
AcDbLine
 10
119.0
 20
118.5
 30
0.0
 11
119.0
 21
133.5
 31
0.0
  0
LINE
  5
490
330
6B
100
AcDbEntity
  8
0
 62
     3
100
AcDbLine
 10
109.0
 20
118.5
 30
0.0
 11
109.0
 21
138.5
 31
0.0
  0
TEXT
  5
675
330
6B
100
AcDbEntity
  8
0
 62
     3
100
AcDbText
 10
-91.55466840870243
 20
-138.0
 30
0.0
 40
3.2
  1
コード
 41
0.8
  7
高3.2
100
AcDbText
  0
TEXT
  5
676
330
6B
100
AcDbEntity
  8
0
 62
     3
100
AcDbText
 10
-91.55466840870243
 20
-88.0
 30
0.0
 40
3.2
  1
-
 41
0.8
  7
高3.2
100
AcDbText
  0
TEXT
  5
677
330
6B
100
AcDbEntity
  8
0
 62
     3
100
AcDbText
 10
-91.55466840870243
 20
-93.0
 30
0.0
 40
3.2
  1
-
 41
0.8
  7
高3.2
100
AcDbText
  0
TEXT
  5
678
330
6B
100
AcDbEntity
  8
0
 62
     3
100
AcDbText
 10
-91.55466840870243
 20
-98.0
 30
0.0
 40
3.2
  1
-
 41
0.8
  7
高3.2
100
AcDbText
  0
TEXT
  5
679
330
6B
100
AcDbEntity
  8
0
 62
     3
100
AcDbText
 10
-91.55466840870243
 20
-103.0
 30
0.0
 40
3.2
  1
-
 41
0.8
  7
高3.2
100
AcDbText
  0
TEXT
  5
67A
330
6B
100
AcDbEntity
  8
0
 62
     3
100
AcDbText
 10
-91.55466840870243
 20
-108.0
 30
0.0
 40
3.2
  1
54289
 41
0.8
  7
高3.2
100
AcDbText
  0
TEXT
  5
67B
330
6B
100
AcDbEntity
  8
0
 62
     3
100
AcDbText
 10
-91.55466840870243
 20
-113.0
 30
0.0
 40
3.2
  1
-
 41
0.8
  7
高3.2
100
AcDbText
  0
TEXT
  5
67C
330
6B
100
AcDbEntity
  8
0
 62
     3
100
AcDbText
 10
-91.55466840870243
 20
-118.0
 30
0.0
 40
3.2
  1
52530
 41
0.8
  7
高3.2
100
AcDbText
  0
TEXT
  5
67D
330
6B
100
AcDbEntity
  8
0
 62
     3
100
AcDbText
 10
-91.55466840870243
 20
-123.0
 30
0.0
 40
3.2
  1
-
 41
0.8
  7
高3.2
100
AcDbText
  0
TEXT
  5
67E
330
6B
100
AcDbEntity
  8
0
 62
     3
100
AcDbText
 10
-91.55466840870243
 20
-128.0
 30
0.0
 40
3.2
  1
-
 41
0.8
  7
高3.2
100
AcDbText
  0
TEXT
  5
67F
330
6B
100
AcDbEntity
  8
0
 62
     3
100
AcDbText
 10
-91.55466840870243
 20
-133.0
 30
0.0
 40
3.2
  1
55595
 41
0.8
  7
高3.2
100
AcDbText
  0
TEXT
  5
680
330
6B
100
AcDbEntity
  8
0
 62
     3
100
AcDbText
 10
-91.55466840870243
 20
-83.0
 30
0.0
 40
3.2
  1
57357
 41
0.8
  7
高3.2
100
AcDbText
  0
LINE
  5
681
330
6B
100
AcDbEntity
  8
0
100
AcDbLine
 10
-93.05466840870249
 20
-138.5
 30
0.0
 11
-93.05466840870249
 21
-73.5
 31
0.0
  0
TEXT
  5
682
330
6B
100
AcDbEntity
  8
0
 62
     3
100
AcDbText
 10
-91.55466840870243
 20
-78.0
 30
0.0
 40
3.2
  1
53813
 41
0.8
  7
高3.2
100
AcDbText
  0
TEXT
  5
683
330
6B
100
AcDbEntity
  8
0
 62
     3
100
AcDbText
 10
-75.22086991237698
 20
-138.0
 30
0.0
 40
3.2
  1
コード番号名称
 41
0.6
  7
高3.2
100
AcDbText
  0
TEXT
  5
684
330
6B
100
AcDbEntity
  8
0
 62
     3
100
AcDbText
 10
-75.22086991237698
 20
-88.0
 30
0.0
 40
3.2
  1
-
 41
0.6
  7
高3.2
100
AcDbText
  0
TEXT
  5
685
330
6B
100
AcDbEntity
  8
0
 62
     3
100
AcDbText
 10
-75.22086991237698
 20
-93.0
 30
0.0
 40
3.2
  1
-
 41
0.6
  7
高3.2
100
AcDbText
  0
TEXT
  5
686
330
6B
100
AcDbEntity
  8
0
 62
     3
100
AcDbText
 10
-75.22086991237698
 20
-98.0
 30
0.0
 40
3.2
  1
-
 41
0.6
  7
高3.2
100
AcDbText
  0
TEXT
  5
687
330
6B
100
AcDbEntity
  8
0
 62
     3
100
AcDbText
 10
-75.22086991237698
 20
-103.0
 30
0.0
 40
3.2
  1
-
 41
0.6
  7
高3.2
100
AcDbText
  0
TEXT
  5
688
330
6B
100
AcDbEntity
  8
0
 62
     3
100
AcDbText
 10
-75.22086991237698
 20
-108.0
 30
0.0
 40
3.2
  1
NB-120/150用 ロータリースイッチ部ツマミ
 41
0.6
  7
高3.2
100
AcDbText
  0
TEXT
  5
689
330
6B
100
AcDbEntity
  8
0
 62
     3
100
AcDbText
 10
-75.22086991237698
 20
-113.0
 30
0.0
 40
3.2
  1
-
 41
0.6
  7
高3.2
100
AcDbText
  0
TEXT
  5
68A
330
6B
100
AcDbEntity
  8
0
 62
     3
100
AcDbText
 10
-75.22086991237698
 20
-118.0
 30
0.0
 40
3.2
  1
スイッチ(SW用)
 41
0.6
  7
高3.2
100
AcDbText
  0
TEXT
  5
68B
330
6B
100
AcDbEntity
  8
0
 62
     3
100
AcDbText
 10
-75.22086991237698
 20
-123.0
 30
0.0
 40
3.2
  1
-
 41
0.6
  7
高3.2
100
AcDbText
  0
TEXT
  5
68C
330
6B
100
AcDbEntity
  8
0
 62
     3
100
AcDbText
 10
-75.22086991237698
 20
-128.0
 30
0.0
 40
3.2
  1
-
 41
0.6
  7
高3.2
100
AcDbText
  0
TEXT
  5
68D
330
6B
100
AcDbEntity
  8
0
 62
     3
100
AcDbText
 10
-75.22086991237698
 20
-133.0
 30
0.0
 40
3.2
  1
NB-40/50/60兼用　電圧メーター
 41
0.6
  7
高3.2
100
AcDbText
  0
TEXT
  5
68E
330
6B
100
AcDbEntity
  8
0
 62
     3
100
AcDbText
 10
-75.22086991237698
 20
-83.0
 30
0.0
 40
3.2
  1
-
 41
0.6
  7
高3.2
100
AcDbText
  0
LINE
  5
68F
330
6B
100
AcDbEntity
  8
0
100
AcDbLine
 10
-76.72086991237701
 20
-138.5
 30
0.0
 11
-76.72086991237701
 21
-73.5
 31
0.0
  0
TEXT
  5
690
330
6B
100
AcDbEntity
  8
0
 62
     3
100
AcDbText
 10
-75.22086991237698
 20
-78.0
 30
0.0
 40
3.2
  1
M-E20用脚ゴム(1/4)
 41
0.6
  7
高3.2
100
AcDbText
  0
TEXT
  5
95B
330
6B
100
AcDbEntity
  8
0
 62
     3
100
AcDbText
 10
-149.8089524753508
 20
-88.0
 30
0.0
 40
3.2
  1
VSF
 41
0.8
  7
高3.2
100
AcDbText
  0
LINE
  5
A69
330
6B
100
AcDbEntity
  8
0
100
AcDbLine
 10
123.380003
 20
35.233867
 30
0.0
 11
122.664933
 21
33.290709
 31
0.0
  0
LINE
  5
A6A
330
6B
100
AcDbEntity
  8
0
100
AcDbLine
 10
122.664933
 20
33.290709
 30
0.0
 11
124.255781
 21
34.615998
 31
0.0
  0
LINE
  5
A6B
330
6B
100
AcDbEntity
  8
0
100
AcDbLine
 10
83.08922700000001
 20
10.306508
 30
0.0
 11
83.75497499999999
 21
12.267111
 31
0.0
  0
LINE
  5
A6C
330
6B
100
AcDbEntity
  8
0
100
AcDbLine
 10
83.75497499999999
 20
12.267111
 30
0.0
 11
82.198118
 21
10.902053
 31
0.0
  0
LINE
  5
A6D
330
6B
100
AcDbEntity
  8
0
100
AcDbLine
 10
110.064236
 20
-0.5946540000000004
 30
0.0
 11
111.280656
 21
1.080909
 31
0.0
  0
LINE
  5
A6E
330
6B
100
AcDbEntity
  8
0
100
AcDbLine
 10
111.280656
 20
1.080909
 30
0.0
 11
109.389424
 21
0.238039
 31
0.0
  0
LINE
  5
A6F
330
6B
100
AcDbEntity
  8
0
100
AcDbLine
 10
16.677352
 20
97.21195999999999
 30
0.0
 11
17.797749
 21
95.47072599999999
 31
0.0
  0
LINE
  5
A70
330
6B
100
AcDbEntity
  8
0
100
AcDbLine
 10
17.797749
 20
95.47072599999999
 30
0.0
 11
17.698073
 21
97.53887800000001
 31
0.0
  0
LINE
  5
A71
330
6B
100
AcDbEntity
  8
0
100
AcDbLine
 10
2.105029999999999
 20
88.779803
 30
0.0
 11
3.319216999999998
 21
87.102622
 31
0.0
  0
LINE
  5
A72
330
6B
100
AcDbEntity
  8
0
100
AcDbLine
 10
3.319216999999998
 20
87.102622
 30
0.0
 11
3.106291
 21
89.16219699999997
 31
0.0
  0
LINE
  5
A73
330
6B
100
AcDbEntity
  8
0
100
AcDbLine
 10
-46.087928
 20
80.56688800000001
 30
0.0
 11
-46.473459
 21
78.532545
 31
0.0
  0
LINE
  5
A74
330
6B
100
AcDbEntity
  8
0
100
AcDbLine
 10
-46.473459
 20
78.532545
 30
0.0
 11
-45.122407
 21
80.101572
 31
0.0
  0
LINE
  5
A75
330
6B
100
AcDbEntity
  8
0
100
AcDbLine
 10
-60.870503
 20
82.80578699999997
 30
0.0
 11
-60.69696
 21
80.74251999999999
 31
0.0
  0
LINE
  5
A76
330
6B
100
AcDbEntity
  8
0
100
AcDbLine
 10
-60.69696
 20
80.74251999999999
 30
0.0
 11
-59.81561899999999
 21
82.61613299999998
 31
0.0
  0
LINE
  5
A77
330
6B
100
AcDbEntity
  8
0
100
AcDbLine
 10
-94.097231
 20
56.765236
 30
0.0
 11
-94.14852399999999
 21
54.69531899999999
 31
0.0
  0
LINE
  5
A78
330
6B
100
AcDbEntity
  8
0
100
AcDbLine
 10
-94.14852399999999
 20
54.69531899999999
 30
0.0
 11
-93.06914500000001
 21
56.46227299999999
 31
0.0
  0
LINE
  5
A79
330
6B
100
AcDbEntity
  8
0
100
AcDbLine
 10
-137.327498
 20
54.05692
 30
0.0
 11
-137.388963
 21
51.98728
 31
0.0
  0
LINE
  5
A7A
330
6B
100
AcDbEntity
  8
0
100
AcDbLine
 10
-137.388963
 20
51.98728
 30
0.0
 11
-136.300913
 21
53.74890799999999
 31
0.0
  0
LINE
  5
A7B
330
6B
100
AcDbEntity
  8
0
100
AcDbLine
 10
-149.20946
 20
53.234871
 30
0.0
 11
-149.261154
 21
51.164964
 31
0.0
  0
LINE
  5
A7C
330
6B
100
AcDbEntity
  8
0
100
AcDbLine
 10
-149.261154
 20
51.164964
 30
0.0
 11
-148.181432
 21
52.93170899999999
 31
0.0
  0
LINE
  5
A7D
330
6B
100
AcDbEntity
  8
0
100
AcDbLine
 10
-150.421784
 20
82.60356999999997
 30
0.0
 11
-150.261458
 21
80.539234
 31
0.0
  0
LINE
  5
A7E
330
6B
100
AcDbEntity
  8
0
100
AcDbLine
 10
-150.261458
 20
80.539234
 30
0.0
 11
-149.368136
 21
82.407164
 31
0.0
  0
LINE
  5
A7F
330
6B
100
AcDbEntity
  8
0
100
AcDbLine
 10
-59.56480899999998
 20
56.09162399999998
 30
0.0
 11
-59.597735
 21
54.021333
 31
0.0
  0
LINE
  5
A80
330
6B
100
AcDbEntity
  8
0
100
AcDbLine
 10
-59.597735
 20
54.021333
 30
0.0
 11
-58.534075
 21
55.79779399999999
 31
0.0
  0
LINE
  5
A81
330
6B
100
AcDbEntity
  8
0
100
AcDbLine
 10
109.333609
 20
3.831276
 30
0.0
 11
110.817382
 21
2.902347
 31
0.0
  0
LINE
  5
A82
330
6B
100
AcDbEntity
  8
0
100
AcDbLine
 10
110.817382
 20
2.902347
 30
0.0
 11
112.157827
 21
2.862441999999998
 31
0.0
  0
LINE
  5
A83
330
6B
100
AcDbEntity
  8
0
100
AcDbLine
 10
112.157827
 20
2.862441999999998
 30
0.0
 11
112.596109
 21
3.198550999999998
 31
0.0
  0
LINE
  5
A84
330
6B
100
AcDbEntity
  8
0
100
AcDbLine
 10
112.596109
 20
3.198550999999998
 30
0.0
 11
113.041722
 21
3.518063999999998
 31
0.0
  0
LINE
  5
A85
330
6B
100
AcDbEntity
  8
0
100
AcDbLine
 10
113.041722
 20
3.518063999999998
 30
0.0
 11
114.031399
 21
3.522406999999998
 31
0.0
  0
LINE
  5
A86
330
6B
100
AcDbEntity
  8
0
100
AcDbLine
 10
114.031399
 20
3.522406999999998
 30
0.0
 11
115.122725
 21
3.005776
 31
0.0
  0
LINE
  5
A87
330
6B
100
AcDbEntity
  8
0
100
AcDbLine
 10
109.24867
 20
5.543326
 30
0.0
 11
110.732444
 21
4.614397
 31
0.0
  0
LINE
  5
A88
330
6B
100
AcDbEntity
  8
0
100
AcDbLine
 10
110.732444
 20
4.614397
 30
0.0
 11
112.072888
 21
4.574491
 31
0.0
  0
LINE
  5
A89
330
6B
100
AcDbEntity
  8
0
100
AcDbLine
 10
112.072888
 20
4.574491
 30
0.0
 11
112.51117
 21
4.910600999999997
 31
0.0
  0
LINE
  5
A8A
330
6B
100
AcDbEntity
  8
0
100
AcDbLine
 10
112.51117
 20
4.910600999999997
 30
0.0
 11
112.956783
 21
5.230112999999998
 31
0.0
  0
LINE
  5
A8B
330
6B
100
AcDbEntity
  8
0
100
AcDbLine
 10
112.956783
 20
5.230112999999998
 30
0.0
 11
113.94646
 21
5.234455999999997
 31
0.0
  0
LINE
  5
A8C
330
6B
100
AcDbEntity
  8
0
100
AcDbLine
 10
113.94646
 20
5.234455999999997
 30
0.0
 11
115.037786
 21
4.717826
 31
0.0
  0
LINE
  5
A8D
330
6B
100
AcDbEntity
  8
0
100
AcDbLine
 10
138.9668
 20
20.812448
 30
0.0
 11
140.450573
 21
19.883519
 31
0.0
  0
LINE
  5
A8E
330
6B
100
AcDbEntity
  8
0
100
AcDbLine
 10
140.450573
 20
19.883519
 30
0.0
 11
141.7910179999999
 21
19.843614
 31
0.0
  0
LINE
  5
A8F
330
6B
100
AcDbEntity
  8
0
100
AcDbLine
 10
141.7910179999999
 20
19.843614
 30
0.0
 11
142.2293
 21
20.179723
 31
0.0
  0
LINE
  5
A90
330
6B
100
AcDbEntity
  8
0
100
AcDbLine
 10
142.2293
 20
20.179723
 30
0.0
 11
142.6749129999999
 21
20.499236
 31
0.0
  0
LINE
  5
A91
330
6B
100
AcDbEntity
  8
0
100
AcDbLine
 10
142.6749129999999
 20
20.499236
 30
0.0
 11
143.66459
 21
20.503579
 31
0.0
  0
LINE
  5
A92
330
6B
100
AcDbEntity
  8
0
100
AcDbLine
 10
143.66459
 20
20.503579
 30
0.0
 11
144.755916
 21
19.986948
 31
0.0
  0
LINE
  5
A93
330
6B
100
AcDbEntity
  8
0
100
AcDbLine
 10
138.881861
 20
22.524498
 30
0.0
 11
140.365635
 21
21.595569
 31
0.0
  0
LINE
  5
A94
330
6B
100
AcDbEntity
  8
0
100
AcDbLine
 10
140.365635
 20
21.595569
 30
0.0
 11
141.706079
 21
21.555664
 31
0.0
  0
LINE
  5
A95
330
6B
100
AcDbEntity
  8
0
100
AcDbLine
 10
141.706079
 20
21.555664
 30
0.0
 11
142.144361
 21
21.891773
 31
0.0
  0
LINE
  5
A96
330
6B
100
AcDbEntity
  8
0
100
AcDbLine
 10
142.144361
 20
21.891773
 30
0.0
 11
142.589974
 21
22.211286
 31
0.0
  0
LINE
  5
A97
330
6B
100
AcDbEntity
  8
0
100
AcDbLine
 10
142.589974
 20
22.211286
 30
0.0
 11
143.579651
 21
22.215628
 31
0.0
  0
LINE
  5
A98
330
6B
100
AcDbEntity
  8
0
100
AcDbLine
 10
143.579651
 20
22.215628
 30
0.0
 11
144.670977
 21
21.698998
 31
0.0
  0
LINE
  5
A99
330
6B
100
AcDbEntity
  8
0
100
AcDbLine
 10
158.356756
 20
22.840364
 30
0.0
 11
159.84053
 21
21.911435
 31
0.0
  0
LINE
  5
A9A
330
6B
100
AcDbEntity
  8
0
100
AcDbLine
 10
159.84053
 20
21.911435
 30
0.0
 11
161.180974
 21
21.87153
 31
0.0
  0
LINE
  5
A9B
330
6B
100
AcDbEntity
  8
0
100
AcDbLine
 10
161.180974
 20
21.87153
 30
0.0
 11
161.619256
 21
22.207639
 31
0.0
  0
LINE
  5
A9C
330
6B
100
AcDbEntity
  8
0
100
AcDbLine
 10
161.619256
 20
22.207639
 30
0.0
 11
162.06487
 21
22.527152
 31
0.0
  0
LINE
  5
A9D
330
6B
100
AcDbEntity
  8
0
100
AcDbLine
 10
162.06487
 20
22.527152
 30
0.0
 11
163.054546
 21
22.531495
 31
0.0
  0
LINE
  5
A9E
330
6B
100
AcDbEntity
  8
0
100
AcDbLine
 10
163.054546
 20
22.531495
 30
0.0
 11
164.145872
 21
22.014864
 31
0.0
  0
LINE
  5
A9F
330
6B
100
AcDbEntity
  8
0
100
AcDbLine
 10
158.441695
 20
21.128315
 30
0.0
 11
159.925469
 21
20.199386
 31
0.0
  0
LINE
  5
AA0
330
6B
100
AcDbEntity
  8
0
100
AcDbLine
 10
159.925469
 20
20.199386
 30
0.0
 11
161.265913
 21
20.159481
 31
0.0
  0
LINE
  5
AA1
330
6B
100
AcDbEntity
  8
0
100
AcDbLine
 10
161.265913
 20
20.159481
 30
0.0
 11
161.704195
 21
20.49559
 31
0.0
  0
LINE
  5
AA2
330
6B
100
AcDbEntity
  8
0
100
AcDbLine
 10
161.704195
 20
20.49559
 30
0.0
 11
162.149809
 21
20.815103
 31
0.0
  0
LINE
  5
AA3
330
6B
100
AcDbEntity
  8
0
100
AcDbLine
 10
162.149809
 20
20.815103
 30
0.0
 11
163.139485
 21
20.819445
 31
0.0
  0
LINE
  5
AA4
330
6B
100
AcDbEntity
  8
0
100
AcDbLine
 10
163.139485
 20
20.819445
 30
0.0
 11
164.230811
 21
20.302815
 31
0.0
  0
LINE
  5
AA5
330
6B
100
AcDbEntity
  8
0
100
AcDbLine
 10
-155.142583
 20
12.267111
 30
0.0
 11
-173.842834
 21
12.26711100000001
 31
0.0
  0
LINE
  5
AA6
330
6B
100
AcDbEntity
  8
0
100
AcDbLine
 10
-105.951791
 20
104.397808
 30
0.0
 11
-173.842834
 21
104.397808
 31
0.0
  0
LINE
  5
AA7
330
6B
100
AcDbEntity
  8
0
100
AcDbLine
 10
-172.592834
 20
14.76711100000001
 30
0.0
 11
-172.592834
 21
101.897808
 31
0.0
  0
LINE
  5
AAB
330
6B
100
AcDbEntity
  8
0
100
AcDbLine
 10
-8.362251999999998
 20
25.217111
 30
0.0
 11
-8.362251999999999
 21
3.257422000000001
 31
0.0
  0
LINE
  5
AAC
330
6B
100
AcDbEntity
  8
0
100
AcDbLine
 10
96.637748
 20
19.217111
 30
0.0
 11
96.637748
 21
3.257422000000001
 31
0.0
  0
LINE
  5
AAD
330
6B
100
AcDbEntity
  8
0
100
AcDbLine
 10
-5.862251999999999
 20
4.507422
 30
0.0
 11
94.137748
 21
4.507422
 31
0.0
  0
LINE
  5
AB1
330
6B
100
AcDbEntity
  8
0
100
AcDbLine
 10
-163.282252
 20
19.217111
 30
0.0
 11
-163.282252
 21
3.257422000000001
 31
0.0
  0
LINE
  5
AB2
330
6B
100
AcDbEntity
  8
0
100
AcDbLine
 10
-41.36225200000001
 20
19.217111
 30
0.0
 11
-41.36225200000001
 21
3.257422000000001
 31
0.0
  0
LINE
  5
AB3
330
6B
100
AcDbEntity
  8
0
100
AcDbLine
 10
-160.782252
 20
4.507422
 30
0.0
 11
-43.86225200000001
 21
4.507422
 31
0.0
  0
TEXT
  5
AB7
330
6B
100
AcDbEntity
  8
0
 62
     4
100
AcDbText
 10
-173.217834
 20
54.83245949999998
 30
0.0
 40
3.0
  1
155
 50
90.0
100
AcDbText
  0
LINE
  5
AB8
330
6B
100
AcDbEntity
  8
0
  6
ByBlock
 62
     0
370
    -2
100
AcDbLine
 10
-173.2627065
 20
101.897808
 30
0.0
 11
-172.592834
 21
104.397808
 31
0.0
  0
LINE
  5
AB9
330
6B
100
AcDbEntity
  8
0
  6
ByBlock
 62
     0
370
    -2
100
AcDbLine
 10
-172.592834
 20
104.397808
 30
0.0
 11
-171.9229615
 21
101.897808
 31
0.0
  0
LINE
  5
ABA
330
6B
100
AcDbEntity
  8
0
  6
ByBlock
 62
     0
370
    -2
100
AcDbLine
 10
-172.592834
 20
104.397808
 30
0.0
 11
-172.592834
 21
101.897808
 31
0.0
  0
LINE
  5
ABB
330
6B
100
AcDbEntity
  8
0
  6
ByBlock
 62
     0
370
    -2
100
AcDbLine
 10
-171.9229615
 20
14.76711100000001
 30
0.0
 11
-172.592834
 21
12.26711100000001
 31
0.0
  0
LINE
  5
ABC
330
6B
100
AcDbEntity
  8
0
  6
ByBlock
 62
     0
370
    -2
100
AcDbLine
 10
-172.592834
 20
12.26711100000001
 30
0.0
 11
-173.2627065
 21
14.76711100000001
 31
0.0
  0
LINE
  5
ABD
330
6B
100
AcDbEntity
  8
0
  6
ByBlock
 62
     0
370
    -2
100
AcDbLine
 10
-172.592834
 20
12.26711100000001
 30
0.0
 11
-172.592834
 21
14.76711100000001
 31
0.0
  0
TEXT
  5
ABE
330
6B
100
AcDbEntity
  8
0
 62
     4
100
AcDbText
 10
40.637748
 20
5.132422
 30
0.0
 40
3.0
  1
175
100
AcDbText
  0
LINE
  5
ABF
330
6B
100
AcDbEntity
  8
0
  6
ByBlock
 62
     0
370
    -2
100
AcDbLine
 10
94.137748
 20
5.1772945
 30
0.0
 11
96.637748
 21
4.507422
 31
0.0
  0
LINE
  5
AC0
330
6B
100
AcDbEntity
  8
0
  6
ByBlock
 62
     0
370
    -2
100
AcDbLine
 10
96.637748
 20
4.507422
 30
0.0
 11
94.137748
 21
3.8375495
 31
0.0
  0
LINE
  5
AC1
330
6B
100
AcDbEntity
  8
0
  6
ByBlock
 62
     0
370
    -2
100
AcDbLine
 10
96.637748
 20
4.507422
 30
0.0
 11
94.137748
 21
4.507422
 31
0.0
  0
LINE
  5
AC2
330
6B
100
AcDbEntity
  8
0
  6
ByBlock
 62
     0
370
    -2
100
AcDbLine
 10
-5.862251999999999
 20
3.837549499999999
 30
0.0
 11
-8.362251999999999
 21
4.507422
 31
0.0
  0
LINE
  5
AC3
330
6B
100
AcDbEntity
  8
0
  6
ByBlock
 62
     0
370
    -2
100
AcDbLine
 10
-8.362251999999999
 20
4.507422
 30
0.0
 11
-5.862251999999999
 21
5.177294499999999
 31
0.0
  0
LINE
  5
AC4
330
6B
100
AcDbEntity
  8
0
  6
ByBlock
 62
     0
370
    -2
100
AcDbLine
 10
-8.362251999999999
 20
4.507422
 30
0.0
 11
-5.862251999999999
 21
4.507422
 31
0.0
  0
TEXT
  5
AC5
330
6B
100
AcDbEntity
  8
0
 62
     4
100
AcDbText
 10
-106.072252
 20
5.132422
 30
0.0
 40
3.0
  1
202
100
AcDbText
  0
LINE
  5
AC6
330
6B
100
AcDbEntity
  8
0
  6
ByBlock
 62
     0
370
    -2
100
AcDbLine
 10
-43.86225200000001
 20
5.1772945
 30
0.0
 11
-41.36225200000001
 21
4.507422
 31
0.0
  0
LINE
  5
AC7
330
6B
100
AcDbEntity
  8
0
  6
ByBlock
 62
     0
370
    -2
100
AcDbLine
 10
-41.36225200000001
 20
4.507422
 30
0.0
 11
-43.86225200000001
 21
3.8375495
 31
0.0
  0
LINE
  5
AC8
330
6B
100
AcDbEntity
  8
0
  6
ByBlock
 62
     0
370
    -2
100
AcDbLine
 10
-41.36225200000001
 20
4.507422
 30
0.0
 11
-43.86225200000001
 21
4.507422
 31
0.0
  0
LINE
  5
AC9
330
6B
100
AcDbEntity
  8
0
  6
ByBlock
 62
     0
370
    -2
100
AcDbLine
 10
-160.782252
 20
3.837549499999999
 30
0.0
 11
-163.282252
 21
4.507422
 31
0.0
  0
LINE
  5
ACA
330
6B
100
AcDbEntity
  8
0
  6
ByBlock
 62
     0
370
    -2
100
AcDbLine
 10
-163.282252
 20
4.507422
 30
0.0
 11
-160.782252
 21
5.177294499999999
 31
0.0
  0
LINE
  5
ACB
330
6B
100
AcDbEntity
  8
0
  6
ByBlock
 62
     0
370
    -2
100
AcDbLine
 10
-163.282252
 20
4.507422
 30
0.0
 11
-160.782252
 21
4.507422
 31
0.0
  0
ENDSEC
  0
SECTION
  2
OBJECTS
  0
DICTIONARY
  5
C
330
0
100
AcDbDictionary
281
     1
  3
ACAD_2007HEADERVARS_RT
350
AD0
  3
ACAD_COLOR
350
62
  3
ACAD_GROUP
350
D
  3
ACAD_LAYOUT
350
61
  3
ACAD_MATERIAL
350
10
  3
ACAD_MLEADERSTYLE
350
65
  3
ACAD_MLINESTYLE
350
5E
  3
ACAD_PLOTSETTINGS
350
60
  3
ACAD_PLOTSTYLENAME
350
E
  3
ACAD_SCALELIST
350
42
  3
ACAD_TABLESTYLE
350
63
  3
ACAD_VISUALSTYLE
350
29
  3
ACDB_RECOMPOSE_DATA
350
ACE
  3
AcDbVariableDictionary
350
608
  3
DWGPROPS
350
ACF
  0
DICTIONARY
  5
447
330
2
100
AcDbDictionary
280
     1
281
     1
  3
ACAD_LAYERSTATES
360
448
  0
DICTIONARY
  5
606
330
54
100
AcDbDictionary
280
     1
281
     1
  3
ADSK_XREC_LAYER_RECONCILED
360
607
  0
DICTIONARY
  5
5DB
330
6B
100
AcDbDictionary
280
     1
281
     1
  3
ACAD_SORTENTS
360
5DC
  0
DICTIONARY
  5
AD0
102
{ACAD_REACTORS
330
C
102
}
330
C
100
AcDbDictionary
281
     1
  3
DIMARCSYM
350
AD2
  3
DIMFXL
350
AD1
  3
DIMJOGANG
350
AD3
  3
INTERFEREVPVS
350
AD4
  0
DICTIONARY
  5
62
102
{ACAD_REACTORS
330
C
102
}
330
C
100
AcDbDictionary
281
     1
  0
DICTIONARY
  5
D
102
{ACAD_REACTORS
330
C
102
}
330
C
100
AcDbDictionary
281
     1
  0
DICTIONARY
  5
61
102
{ACAD_REACTORS
330
C
102
}
330
C
100
AcDbDictionary
281
     1
  3
Model
350
6E
  3
レイアウト1
350
6A
  0
DICTIONARY
  5
10
102
{ACAD_REACTORS
330
C
102
}
330
C
100
AcDbDictionary
281
     1
  3
ByBlock
350
19
  3
ByLayer
350
11
  3
Global
350
21
  0
DICTIONARY
  5
65
102
{ACAD_REACTORS
330
C
102
}
330
C
100
AcDbDictionary
281
     1
  3
Standard
350
66
  0
DICTIONARY
  5
5E
102
{ACAD_REACTORS
330
C
102
}
330
C
100
AcDbDictionary
281
     1
  3
Standard
350
5F
  0
DICTIONARY
  5
60
102
{ACAD_REACTORS
330
C
102
}
330
C
100
AcDbDictionary
281
     1
  0
ACDBDICTIONARYWDFLT
  5
E
102
{ACAD_REACTORS
330
C
102
}
330
C
100
AcDbDictionary
281
     1
  3
Normal
350
F
100
AcDbDictionaryWithDefault
340
F
  0
DICTIONARY
  5
42
102
{ACAD_REACTORS
330
C
102
}
330
C
100
AcDbDictionary
281
     1
  3
A0
350
43
  3
A1
350
44
  3
A2
350
45
  3
A3
350
46
  3
A4
350
47
  3
A5
350
48
  3
A6
350
49
  3
A7
350
4A
  3
A8
350
4B
  3
A9
350
4C
  3
B0
350
4D
  3
B1
350
4E
  3
B2
350
4F
  3
B3
350
50
  3
B4
350
51
  3
B5
350
52
  3
B6
350
53
  0
DICTIONARY
  5
63
102
{ACAD_REACTORS
330
C
102
}
330
C
100
AcDbDictionary
281
     1
  3
Standard
350
64
  3
部品表
350
786
  0
DICTIONARY
  5
29
102
{ACAD_REACTORS
330
C
102
}
330
C
100
AcDbDictionary
281
     1
  3
2dWireframe
350
2F
  3
3D Hidden
350
93E
  3
3dWireframe
350
444
  3
Basic
350
2E
  3
Brighten
350
35
  3
ColorChange
350
39
  3
Conceptual
350
32
  3
Dim
350
34
  3
EdgeColorOff
350
41
  3
Facepattern
350
38
  3
Flat
350
2A
  3
FlatWithEdges
350
2B
  3
Gouraud
350
2C
  3
GouraudWithEdges
350
2D
  3
Hidden
350
31
  3
JitterOff
350
3F
  3
Linepattern
350
37
  3
OverhangOff
350
40
  3
Realistic
350
33
  3
Shaded
350
3E
  3
Shaded with edges
350
3D
  3
Shades of Gray
350
3A
  3
Sketchy
350
3B
  3
Thicken
350
36
  3
Wireframe
350
30
  3
X-Ray
350
3C
  0
XRECORD
  5
ACE
102
{ACAD_REACTORS
330
C
102
}
330
C
100
AcDbXrecord
280
     1
 90
        1
330
64
330
786
  0
DICTIONARY
  5
608
102
{ACAD_REACTORS
330
C
102
}
330
C
100
AcDbDictionary
281
     1
  3
CANNOSCALE
350
60B
  3
CMLEADERSTYLE
350
60A
  3
CTABLESTYLE
350
609
  3
DIMASSOC
350
60E
  3
INDEXCTL
350
60D
  3
LOFTANG1
350
9E0
  3
LOFTANG2
350
9E1
  3
SORTENTS
350
60C
  3
XCLIPFRAME
350
9E2
  0
XRECORD
  5
ACF
102
{ACAD_REACTORS
330
C
102
}
330
C
100
AcDbXrecord
280
     1
  1
DWGPROPS COOKIE
  2

  3

  4

  6

  7

  8
imamura
  9

300
=
301
=
302
=
303
=
304
=
305
=
306
=
307
=
308
=
309
=
 40
0.1041751736111111
 41
2456346.552041019
 42
2459893.543177454
  1

 90
        0
  0
DICTIONARY
  5
448
102
{ACAD_REACTORS
330
447
102
}
330
447
100
AcDbDictionary
281
     1
  0
XRECORD
  5
607
102
{ACAD_REACTORS
330
606
102
}
330
606
100
AcDbXrecord
280
     1
290
     1
  0
SORTENTSTABLE
  5
5DC
102
{ACAD_REACTORS
330
5DB
102
}
330
5DB
100
AcDbSortentsTable
330
6B
331
48C
  5
AAA
331
488
  5
AA6
331
37D
  5
A78
331
33E
  5
481
331
484
  5
AA2
331
379
  5
A74
331
2C4
  5
34B
331
28D
  5
2D8
331
24E
  5
29A
331
217
  5
263
331
480
  5
A9E
331
375
  5
A70
331
336
  5
47C
331
2C0
  5
347
331
289
  5
2D4
331
24A
  5
296
331
213
  5
25F
331
19D
  5
1FC
331
371
  5
A6C
331
2BC
  5
33E
331
285
  5
2D0
331
246
  5
292
331
20F
  5
25A
331
CC
  5
F3
331
2B8
  5
335
331
281
  5
2CC
331
242
  5
28E
331
20B
  5
256
331
1CC
  5
221
331
107
  5
182
331
C8
  5
EF
331
A94
  5
193
331
ACB
  5
C3
331
1C8
  5
21F
331
191
  5
1F7
331
142
  5
1B6
331
103
  5
17E
331
C4
  5
EB
331
A90
  5
1A2
331
AC7
  5
C8
331
C0
  5
E7
331
A8C
  5
1AE
331
AC3
  5
D2
331
A88
  5
1A8
331
68F
  5
AC9
331
36D
  5
95B
331
68B
  5
AC5
331
369
  5
68D
331
27D
  5
2C8
331
207
  5
252
331
47C
  5
A9A
331
365
  5
689
331
32E
  5
39A
331
279
  5
2C4
331
203
  5
24E
331
18D
  5
1F3
331
FF
  5
17A
331
361
  5
685
331
2EB
  5
36F
331
2B4
  5
32C
331
275
  5
2C0
331
23E
  5
28A
331
1FF
  5
24A
331
189
  5
1EF
331
FB
  5
176
331
2B0
  5
31E
331
271
  5
2BC
331
23A
  5
286
331
1FB
  5
246
331
1C4
  5
21B
331
185
  5
1EB
331
A84
  5
1B2
331
F7
  5
172
331
1C0
  5
217
331
181
  5
1E7
331
F3
  5
16E
331
A80
  5
36E
331
ABF
  5
D4
331
A7C
  5
379
331
ABB
  5
DB
331
A78
  5
383
331
687
  5
AC1
331
683
  5
ABD
331
67F
  5
AB9
331
39C
  5
A97
331
35D
  5
681
331
326
  5
395
331
67B
  5
AB5
331
398
  5
A93
331
359
  5
67D
331
2E3
  5
36A
331
2AC
  5
315
331
26D
  5
2B8
331
236
  5
282
331
1F7
  5
242
331
394
  5
A8F
331
355
  5
679
331
31E
  5
390
331
2DF
  5
366
331
2A8
  5
30C
331
269
  5
2B4
331
232
  5
27E
331
1F3
  5
23E
331
1BC
  5
213
331
17D
  5
1E3
331
EF
  5
16A
331
390
  5
A8B
331
351
  5
675
331
2DB
  5
362
331
2A4
  5
2FE
331
265
  5
2B0
331
22E
  5
27A
331
1EF
  5
23A
331
BF
  5
E6
331
179
  5
1DF
331
EB
  5
166
331
AB7
  5
E1
331
2A0
  5
2F5
331
261
  5
2AC
331
22A
  5
276
331
1EB
  5
236
331
BB
  5
E2
331
1B4
  5
20F
331
175
  5
1DB
331
E7
  5
144
331
A74
  5
38D
331
AB3
  5
BD
331
1B0
  5
20B
331
171
  5
1D2
331
A70
  5
397
331
E3
  5
10A
331
A6C
  5
47E
331
AAB
  5
CE
331
677
  5
AB1
331
38C
  5
A87
331
34D
  5
48D
331
316
  5
38B
331
2D7
  5
35E
331
388
  5
A83
331
349
  5
489
331
2D3
  5
35A
331
29C
  5
2EC
331
25D
  5
2A8
331
226
  5
272
331
1E7
  5
232
331
384
  5
A7F
331
345
  5
485
331
30E
  5
386
331
2CF
  5
356
331
298
  5
2E3
331
259
  5
2A5
331
222
  5
26E
331
1E3
  5
22E
331
1AC
  5
207
331
16D
  5
1C7
331
DF
  5
106
331
380
  5
A7B
331
2CB
  5
352
331
294
  5
2DF
331
255
  5
2A1
331
21E
  5
26A
331
1DF
  5
22A
331
1A8
  5
205
331
169
  5
1C3
331
DB
  5
102
331
AA7
  5
DA
331
290
  5
2DB
331
251
  5
29D
331
21A
  5
266
331
1DB
  5
226
331
1A4
  5
203
331
AA3
  5
18A
331
D7
  5
FE
331
1A0
  5
1FF
331
A9F
  5
186
331
D3
  5
FA
331
A9B
  5
18E
331
48F
  5
AAD
331
48B
  5
AA9
331
487
  5
AA5
331
37C
  5
A77
331
33D
  5
480
331
306
  5
381
331
2C7
  5
34E
331
483
  5
AA1
331
378
  5
A73
331
2C3
  5
34A
331
28C
  5
2D7
331
24D
  5
299
331
216
  5
262
331
374
  5
A6F
331
335
  5
39E
331
2FE
  5
37C
331
2BF
  5
346
331
288
  5
2D3
331
249
  5
295
331
212
  5
25E
331
19C
  5
1FB
331
CF
  5
F6
331
370
  5
A6B
331
2BB
  5
33D
331
284
  5
2CF
331
245
  5
291
331
20E
  5
259
331
149
  5
1BF
331
10A
  5
185
331
A97
  5
19D
331
CB
  5
F2
331
280
  5
2CB
331
241
  5
28D
331
20A
  5
255
331
145
  5
1BD
331
106
  5
181
331
C7
  5
EE
331
A93
  5
192
331
ACA
  5
C2
331
190
  5
1F6
331
141
  5
1B5
331
102
  5
17D
331
C3
  5
EA
331
A8F
  5
1A1
331
AC6
  5
C7
331
A8B
  5
1AD
331
AC2
  5
D1
331
68E
  5
AC8
331
36C
  5
690
331
2F6
  5
377
331
68A
  5
AC4
331
47F
  5
A9D
331
368
  5
68C
331
27C
  5
2C7
331
206
  5
251
331
364
  5
688
331
32D
  5
399
331
2EE
  5
372
331
2B7
  5
334
331
278
  5
2C3
331
202
  5
24D
331
18C
  5
1F2
331
FE
  5
179
331
360
  5
684
331
2B3
  5
326
331
274
  5
2BF
331
23D
  5
289
331
1FE
  5
249
331
1C7
  5
21E
331
188
  5
1EE
331
A87
  5
1A5
331
FA
  5
175
331
270
  5
2BB
331
239
  5
285
331
1FA
  5
245
331
1C3
  5
21A
331
184
  5
1EA
331
A83
  5
1B1
331
F6
  5
171
331
180
  5
1E6
331
F2
  5
16D
331
A7F
  5
36D
331
ABE
  5
D7
331
A7B
  5
378
331
ABA
  5
E0
331
686
  5
AC0
331
682
  5
ABC
331
67E
  5
AB8
331
39B
  5
A96
331
35C
  5
680
331
325
  5
394
331
2AF
  5
31D
331
67A
  5
AB4
331
397
  5
A92
331
358
  5
67C
331
2E2
  5
369
331
2AB
  5
314
331
26C
  5
2B7
331
235
  5
281
331
1F6
  5
241
331
1BF
  5
216
331
393
  5
A8E
331
354
  5
678
331
31D
  5
38F
331
2DE
  5
365
331
2A7
  5
306
331
268
  5
2B3
331
231
  5
27D
331
1F2
  5
23D
331
17C
  5
1E2
331
EE
  5
169
331
350
  5
490
331
2DA
  5
361
331
2A3
  5
2FD
331
264
  5
2AF
331
22D
  5
279
331
1EE
  5
239
331
BE
  5
E5
331
1B7
  5
212
331
178
  5
1DE
331
A77
  5
382
331
EA
  5
149
331
260
  5
2AB
331
229
  5
275
331
1EA
  5
235
331
1B3
  5
20E
331
174
  5
1DA
331
E6
  5
143
331
A73
  5
38C
331
AB2
  5
BC
331
170
  5
1CC
331
A6F
  5
396
331
E2
  5
109
331
A6B
  5
47D
331
676
  5
AB0
331
38F
  5
A8A
331
38B
  5
A86
331
34C
  5
48C
331
315
  5
38A
331
2D6
  5
35D
331
29F
  5
2F4
331
387
  5
A82
331
348
  5
488
331
2D2
  5
359
331
29B
  5
2EB
331
25C
  5
2A7
331
225
  5
271
331
1E6
  5
231
331
1AF
  5
20A
331
383
  5
A7E
331
30D
  5
385
331
2CE
  5
355
331
297
  5
2E2
331
258
  5
2A4
331
221
  5
26D
331
1E2
  5
22D
331
16C
  5
1C6
331
DE
  5
105
331
2CA
  5
351
331
293
  5
2DE
331
254
  5
2A0
331
21D
  5
269
331
1DE
  5
229
331
168
  5
1C2
331
DA
  5
101
331
AA6
  5
D9
331
250
  5
29C
331
219
  5
265
331
1DA
  5
225
331
1A3
  5
202
331
AA2
  5
189
331
D6
  5
FD
331
A9E
  5
191
331
D2
  5
F9
331
A9A
  5
18D
331
48E
  5
AAC
331
48A
  5
AA8
331
37F
  5
A7A
331
486
  5
AA4
331
37B
  5
A76
331
33C
  5
47F
331
305
  5
380
331
2C6
  5
34D
331
28F
  5
2DA
331
482
  5
AA0
331
377
  5
A72
331
2C2
  5
349
331
28B
  5
2D6
331
24C
  5
298
331
215
  5
261
331
19F
  5
1FE
331
373
  5
A6E
331
334
  5
39D
331
2FD
  5
37B
331
2BE
  5
345
331
287
  5
2D2
331
248
  5
294
331
211
  5
25D
331
1D2
  5
222
331
19B
  5
1FA
331
CE
  5
F5
331
2BA
  5
33C
331
283
  5
2CE
331
244
  5
290
331
20D
  5
258
331
148
  5
1BE
331
109
  5
184
331
A96
  5
19C
331
CA
  5
F1
331
240
  5
28C
331
209
  5
254
331
1CA
  5
220
331
193
  5
1F9
331
144
  5
1BC
331
105
  5
180
331
C6
  5
ED
331
A92
  5
1A4
331
AC9
  5
C1
331
101
  5
17C
331
C2
  5
E9
331
A8E
  5
1A0
331
AC5
  5
CD
331
A8A
  5
1AC
331
AC1
  5
D6
331
36F
  5
A6A
331
68D
  5
AC7
331
36B
  5
68F
331
2F5
  5
376
331
27F
  5
2CA
331
689
  5
AC3
331
47E
  5
A9C
331
367
  5
68B
331
27B
  5
2C6
331
205
  5
250
331
18F
  5
1F5
331
363
  5
687
331
32C
  5
398
331
2ED
  5
371
331
2B6
  5
32E
331
277
  5
2C2
331
201
  5
24C
331
18B
  5
1F1
331
FD
  5
178
331
2B2
  5
325
331
273
  5
2BE
331
23C
  5
288
331
1FD
  5
248
331
1C6
  5
21D
331
187
  5
1ED
331
A86
  5
1B4
331
F9
  5
174
331
238
  5
284
331
1F9
  5
244
331
1C2
  5
219
331
183
  5
1E9
331
A82
  5
1B0
331
F5
  5
170
331
F1
  5
16C
331
A7E
  5
374
331
ABD
  5
DD
331
A7A
  5
37E
331
AB9
  5
DF
331
685
  5
ABF
331
681
  5
ABB
331
39E
  5
A99
331
35F
  5
683
331
67D
  5
AB7
331
39A
  5
A95
331
35B
  5
67F
331
324
  5
393
331
2E5
  5
36C
331
2AE
  5
31C
331
26F
  5
2BA
331
679
  5
AB3
331
396
  5
A91
331
357
  5
67B
331
2E1
  5
368
331
2AA
  5
30E
331
26B
  5
2B6
331
234
  5
280
331
1F5
  5
240
331
1BE
  5
215
331
17F
  5
1E5
331
392
  5
A8D
331
353
  5
677
331
31C
  5
38E
331
2DD
  5
364
331
2A6
  5
305
331
267
  5
2B2
331
230
  5
27C
331
1F1
  5
23C
331
17B
  5
1E1
331
ED
  5
168
331
2D9
  5
360
331
2A2
  5
2FC
331
263
  5
2AE
331
22C
  5
278
331
1ED
  5
238
331
BD
  5
E4
331
1B6
  5
211
331
177
  5
1DD
331
A76
  5
388
331
E9
  5
148
331
228
  5
274
331
1E9
  5
234
331
1B2
  5
20D
331
173
  5
1D9
331
E5
  5
142
331
A72
  5
392
331
AB1
  5
BB
331
E1
  5
108
331
A6E
  5
39C
331
AAD
  5
D0
331
A6A
  5
484
331
675
  5
AAF
331
38E
  5
A89
331
34F
  5
48F
331
38A
  5
A85
331
34B
  5
48B
331
314
  5
389
331
2D5
  5
35C
331
29E
  5
2EE
331
25F
  5
2AA
331
386
  5
A81
331
347
  5
487
331
2D1
  5
358
331
29A
  5
2E5
331
224
  5
270
331
1E5
  5
230
331
1AE
  5
209
331
16F
  5
1CA
331
382
  5
A7D
331
30C
  5
384
331
2CD
  5
354
331
296
  5
2E1
331
257
  5
2A3
331
220
  5
26C
331
1E1
  5
22C
331
1AA
  5
206
331
16B
  5
1C5
331
DD
  5
104
331
2C9
  5
350
331
292
  5
2DD
331
253
  5
29F
331
21C
  5
268
331
1DD
  5
228
331
167
  5
1C1
331
D9
  5
100
331
AA5
  5
D8
331
218
  5
264
331
1D9
  5
224
331
1A2
  5
201
331
AA1
  5
188
331
D5
  5
FC
331
A9D
  5
190
331
D1
  5
F8
331
A99
  5
18C
331
48D
  5
AAB
331
489
  5
AA7
331
37E
  5
A79
331
33F
  5
482
331
485
  5
AA3
331
37A
  5
A75
331
304
  5
37F
331
2C5
  5
34C
331
28E
  5
2D9
331
24F
  5
29B
331
481
  5
A9F
331
376
  5
A71
331
2C1
  5
348
331
28A
  5
2D5
331
24B
  5
297
331
214
  5
260
331
19E
  5
1FD
331
372
  5
A6D
331
2FC
  5
37A
331
2BD
  5
33F
331
286
  5
2D1
331
247
  5
293
331
210
  5
25C
331
CD
  5
F4
331
2B9
  5
336
331
282
  5
2CD
331
243
  5
28F
331
20C
  5
257
331
108
  5
183
331
A95
  5
19B
331
C9
  5
F0
331
208
  5
253
331
192
  5
1F8
331
143
  5
1B7
331
104
  5
17F
331
C5
  5
EC
331
A91
  5
1A3
331
AC8
  5
C9
331
100
  5
17B
331
C1
  5
E8
331
A8D
  5
19F
331
AC4
  5
D3
331
A89
  5
1AA
331
AC0
  5
D5
331
690
  5
ACA
331
36E
  5
A69
331
68C
  5
AC6
331
36A
  5
68E
331
2F4
  5
375
331
27E
  5
2C9
331
688
  5
AC2
331
47D
  5
A9B
331
366
  5
68A
331
27A
  5
2C5
331
204
  5
24F
331
18E
  5
1F4
331
362
  5
686
331
2EC
  5
370
331
2B5
  5
32D
331
276
  5
2C1
331
23F
  5
28B
331
200
  5
24B
331
18A
  5
1F0
331
FC
  5
177
331
2B1
  5
324
331
272
  5
2BD
331
23B
  5
287
331
1FC
  5
247
331
1C5
  5
21C
331
186
  5
1EC
331
A85
  5
1B3
331
F8
  5
173
331
1F8
  5
243
331
1C1
  5
218
331
182
  5
1E8
331
A81
  5
1AF
331
F4
  5
16F
331
F0
  5
16B
331
A7D
  5
373
331
ABC
  5
DC
331
A79
  5
37D
331
AB8
  5
DE
331
684
  5
ABE
331
680
  5
ABA
331
39D
  5
A98
331
35E
  5
682
331
67C
  5
AB6
331
399
  5
A94
331
35A
  5
67E
331
2E4
  5
36B
331
2AD
  5
316
331
26E
  5
2B9
331
237
  5
283
331
678
  5
AB2
331
395
  5
A90
331
356
  5
67A
331
2E0
  5
367
331
2A9
  5
30D
331
26A
  5
2B5
331
233
  5
27F
331
1F4
  5
23F
331
1BD
  5
214
331
17E
  5
1E4
331
391
  5
A8C
331
352
  5
676
331
2DC
  5
363
331
2A5
  5
304
331
266
  5
2B1
331
22F
  5
27B
331
1F0
  5
23B
331
17A
  5
1E0
331
EC
  5
167
331
2D8
  5
35F
331
2A1
  5
2F6
331
262
  5
2AD
331
22B
  5
277
331
1EC
  5
237
331
BC
  5
E3
331
1B5
  5
210
331
176
  5
1DC
331
E8
  5
145
331
A75
  5
387
331
1E8
  5
233
331
1B1
  5
20C
331
172
  5
1D8
331
A71
  5
391
331
E4
  5
141
331
E0
  5
107
331
A6D
  5
39B
331
AAC
  5
CF
331
A69
  5
483
331
38D
  5
A88
331
34E
  5
48E
331
389
  5
A84
331
95B
  5
ACB
331
34A
  5
48A
331
2D4
  5
35B
331
29D
  5
2ED
331
25E
  5
2A9
331
227
  5
273
331
490
  5
AAE
331
385
  5
A80
331
346
  5
486
331
2D0
  5
357
331
299
  5
2E4
331
25A
  5
2A6
331
223
  5
26F
331
1E4
  5
22F
331
1AD
  5
208
331
16E
  5
1C8
331
381
  5
A7C
331
2CC
  5
353
331
295
  5
2E0
331
256
  5
2A2
331
21F
  5
26B
331
1E0
  5
22B
331
16A
  5
1C4
331
DC
  5
103
331
2C8
  5
34F
331
291
  5
2DC
331
252
  5
29E
331
21B
  5
267
331
1DC
  5
227
331
1A5
  5
204
331
166
  5
1C0
331
AA4
  5
18B
331
D8
  5
FF
331
1D8
  5
223
331
1A1
  5
200
331
AA0
  5
187
331
D4
  5
FB
331
A9C
  5
18F
331
D0
  5
F7
331
A98
  5
19E
  0
XRECORD
  5
AD2
102
{ACAD_REACTORS
330
AD0
102
}
330
AD0
100
AcDbXrecord
280
     1
 70
     2
  0
XRECORD
  5
AD1
102
{ACAD_REACTORS
330
AD0
102
}
330
AD0
100
AcDbXrecord
280
     1
 40
1.25
  0
XRECORD
  5
AD3
102
{ACAD_REACTORS
330
AD0
102
}
330
AD0
100
AcDbXrecord
280
     1
 40
1.570796326794896
  0
XRECORD
  5
AD4
102
{ACAD_REACTORS
330
AD0
102
}
330
AD0
100
AcDbXrecord
280
     1
340
444
  0
LAYOUT
  5
6E
102
{ACAD_XDICTIONARY
360
B08
102
}
102
{ACAD_REACTORS
330
61
102
}
330
61
100
AcDbPlotSettings
  1

  2
FX DP 205
  4

  6

 40
0.0
 41
0.0
 42
0.0
 43
0.0
 44
0.0
 45
0.0
 46
0.0
 47
0.0
 48
0.0
 49
0.0
140
0.0
141
0.0
142
1.0
143
1.0
 70
  1712
 72
     0
 73
     0
 74
     0
  7

 75
     0
147
1.0
148
0.0
149
0.0
100
AcDbLayout
  1
Model
 70
     1
 71
     0
 10
0.0
 20
0.0
 11
12.0
 21
9.0
 12
0.0
 22
0.0
 32
0.0
 14
0.0
 24
0.0
 34
0.0
 15
0.0
 25
0.0
 35
0.0
146
0.0
 13
0.0
 23
0.0
 33
0.0
 16
1.0
 26
0.0
 36
0.0
 17
0.0
 27
1.0
 37
0.0
 76
     0
330
6B
331
8B
  0
LAYOUT
  5
6A
102
{ACAD_XDICTIONARY
360
B06
102
}
102
{ACAD_REACTORS
330
61
102
}
330
61
100
AcDbPlotSettings
  1

  2
FX DP 205
  4

  6

 40
0.0
 41
0.0
 42
0.0
 43
0.0
 44
0.0
 45
0.0
 46
0.0
 47
0.0
 48
0.0
 49
0.0
140
0.0
141
0.0
142
1.0
143
1.0
 70
   688
 72
     0
 73
     0
 74
     5
  7

 75
    16
147
1.0
148
0.0
149
0.0
100
AcDbLayout
  1
レイアウト1
 70
     1
 71
     1
 10
0.0
 20
0.0
 11
12.0
 21
9.0
 12
0.0
 22
0.0
 32
0.0
 14
1.000000000000000E+20
 24
1.000000000000000E+20
 34
1.000000000000000E+20
 15
-1.000000000000000E+20
 25
-1.000000000000000E+20
 35
-1.000000000000000E+20
146
0.0
 13
0.0
 23
0.0
 33
0.0
 16
1.0
 26
0.0
 36
0.0
 17
0.0
 27
1.0
 37
0.0
 76
     0
330
67
  0
MATERIAL
  5
19
102
{ACAD_XDICTIONARY
360
1A
102
}
102
{ACAD_REACTORS
330
10
102
}
330
10
100
AcDbMaterial
  1
ByBlock
 72
     0
 43
0.0208333333333333
 43
0.0
 43
0.0
 43
0.0
 43
0.0
 43
0.0208333333333333
 43
0.0
 43
0.0
 43
0.0
 43
0.0
 43
1.0
 43
0.0
 43
0.0
 43
0.0
 43
0.0
 43
1.0
 77
     0
 47
0.0208333333333333
 47
0.0
 47
0.0
 47
0.0
 47
0.0
 47
0.0208333333333333
 47
0.0
 47
0.0
 47
0.0
 47
0.0
 47
1.0
 47
0.0
 47
0.0
 47
0.0
 47
0.0
 47
1.0
171
     0
 49
0.0208333333333333
 49
0.0
 49
0.0
 49
0.0
 49
0.0
 49
0.0208333333333333
 49
0.0
 49
0.0
 49
0.0
 49
0.0
 49
1.0
 49
0.0
 49
0.0
 49
0.0
 49
0.0
 49
1.0
175
     0
142
0.0208333333333333
142
0.0
142
0.0
142
0.0
142
0.0
142
0.0208333333333333
142
0.0
142
0.0
142
0.0
142
0.0
142
1.0
142
0.0
142
0.0
142
0.0
142
0.0
142
1.0
179
     0
144
0.0208333333333333
144
0.0
144
0.0
144
0.0
144
0.0
144
0.0208333333333333
144
0.0
144
0.0
144
0.0
144
0.0
144
1.0
144
0.0
144
0.0
144
0.0
144
0.0
144
1.0
147
0.0208333333333333
147
0.0
147
0.0
147
0.0
147
0.0
147
0.0208333333333333
147
0.0
147
0.0
147
0.0
147
0.0
147
1.0
147
0.0
147
0.0
147
0.0
147
0.0
147
1.0
  0
MATERIAL
  5
11
102
{ACAD_XDICTIONARY
360
12
102
}
102
{ACAD_REACTORS
330
10
102
}
330
10
100
AcDbMaterial
  1
ByLayer
 72
     0
 43
0.0208333333333333
 43
0.0
 43
0.0
 43
0.0
 43
0.0
 43
0.0208333333333333
 43
0.0
 43
0.0
 43
0.0
 43
0.0
 43
1.0
 43
0.0
 43
0.0
 43
0.0
 43
0.0
 43
1.0
 77
     0
 47
0.0208333333333333
 47
0.0
 47
0.0
 47
0.0
 47
0.0
 47
0.0208333333333333
 47
0.0
 47
0.0
 47
0.0
 47
0.0
 47
1.0
 47
0.0
 47
0.0
 47
0.0
 47
0.0
 47
1.0
171
     0
 49
0.0208333333333333
 49
0.0
 49
0.0
 49
0.0
 49
0.0
 49
0.0208333333333333
 49
0.0
 49
0.0
 49
0.0
 49
0.0
 49
1.0
 49
0.0
 49
0.0
 49
0.0
 49
0.0
 49
1.0
175
     0
142
0.0208333333333333
142
0.0
142
0.0
142
0.0
142
0.0
142
0.0208333333333333
142
0.0
142
0.0
142
0.0
142
0.0
142
1.0
142
0.0
142
0.0
142
0.0
142
0.0
142
1.0
179
     0
144
0.0208333333333333
144
0.0
144
0.0
144
0.0
144
0.0
144
0.0208333333333333
144
0.0
144
0.0
144
0.0
144
0.0
144
1.0
144
0.0
144
0.0
144
0.0
144
0.0
144
1.0
147
0.0208333333333333
147
0.0
147
0.0
147
0.0
147
0.0
147
0.0208333333333333
147
0.0
147
0.0
147
0.0
147
0.0
147
1.0
147
0.0
147
0.0
147
0.0
147
0.0
147
1.0
  0
MATERIAL
  5
21
102
{ACAD_XDICTIONARY
360
22
102
}
102
{ACAD_REACTORS
330
10
102
}
330
10
100
AcDbMaterial
  1
Global
 72
     0
 43
0.0208333333333333
 43
0.0
 43
0.0
 43
0.0
 43
0.0
 43
0.0208333333333333
 43
0.0
 43
0.0
 43
0.0
 43
0.0
 43
1.0
 43
0.0
 43
0.0
 43
0.0
 43
0.0
 43
1.0
 77
     0
 47
0.0208333333333333
 47
0.0
 47
0.0
 47
0.0
 47
0.0
 47
0.0208333333333333
 47
0.0
 47
0.0
 47
0.0
 47
0.0
 47
1.0
 47
0.0
 47
0.0
 47
0.0
 47
0.0
 47
1.0
171
     0
 49
0.0208333333333333
 49
0.0
 49
0.0
 49
0.0
 49
0.0
 49
0.0208333333333333
 49
0.0
 49
0.0
 49
0.0
 49
0.0
 49
1.0
 49
0.0
 49
0.0
 49
0.0
 49
0.0
 49
1.0
175
     0
142
0.0208333333333333
142
0.0
142
0.0
142
0.0
142
0.0
142
0.0208333333333333
142
0.0
142
0.0
142
0.0
142
0.0
142
1.0
142
0.0
142
0.0
142
0.0
142
0.0
142
1.0
179
     0
144
0.0208333333333333
144
0.0
144
0.0
144
0.0
144
0.0
144
0.0208333333333333
144
0.0
144
0.0
144
0.0
144
0.0
144
1.0
144
0.0
144
0.0
144
0.0
144
0.0
144
1.0
147
0.0208333333333333
147
0.0
147
0.0
147
0.0
147
0.0
147
0.0208333333333333
147
0.0
147
0.0
147
0.0
147
0.0
147
1.0
147
0.0
147
0.0
147
0.0
147
0.0
147
1.0
  0
MLEADERSTYLE
  5
66
102
{ACAD_REACTORS
330
65
102
}
330
65
100
AcDbMLeaderStyle
170
     2
171
     1
172
     0
 90
        2
 40
0.0
 41
0.0
173
     1
 91
-1056964608
340
5A
 92
       -2
290
     1
 42
0.09
291
     1
 43
0.36
  3
Standard
 44
0.18
300

342
55
174
     1
178
     6
175
     1
176
     0
 93
-1056964608
 45
0.18
292
     0
297
     0
 46
0.18
 94
-1056964608
 47
1.0
 49
1.0
140
1.0
293
     1
141
0.0
294
     1
177
     0
142
1.0
295
     0
296
     0
143
0.125
1001
ACAD_MLEADERVER
1070
     2
  0
MLINESTYLE
  5
5F
102
{ACAD_REACTORS
330
5E
102
}
330
5E
100
AcDbMlineStyle
  2
STANDARD
 70
     0
  3

 62
   256
 51
90.0
 52
90.0
 71
     2
 49
0.5
 62
   256
  6
BYLAYER
 49
-0.5
 62
   256
  6
BYLAYER
  0
ACDBPLACEHOLDER
  5
F
102
{ACAD_REACTORS
330
E
102
}
330
E
  0
SCALE
  5
43
102
{ACAD_REACTORS
330
42
102
}
330
42
100
AcDbScale
 70
     0
300
1:1
140
1.0
141
1.0
290
     1
  0
SCALE
  5
44
102
{ACAD_REACTORS
330
42
102
}
330
42
100
AcDbScale
 70
     0
300
1/128" = 1'-0"
140
0.0078125
141
12.0
290
     0
  0
SCALE
  5
45
102
{ACAD_REACTORS
330
42
102
}
330
42
100
AcDbScale
 70
     0
300
1/64" = 1'-0"
140
0.015625
141
12.0
290
     0
  0
SCALE
  5
46
102
{ACAD_REACTORS
330
42
102
}
330
42
100
AcDbScale
 70
     0
300
1/32" = 1'-0"
140
0.03125
141
12.0
290
     0
  0
SCALE
  5
47
102
{ACAD_REACTORS
330
42
102
}
330
42
100
AcDbScale
 70
     0
300
1/16" = 1'-0"
140
0.0625
141
12.0
290
     0
  0
SCALE
  5
48
102
{ACAD_REACTORS
330
42
102
}
330
42
100
AcDbScale
 70
     0
300
3/32" = 1'-0"
140
0.09375
141
12.0
290
     0
  0
SCALE
  5
49
102
{ACAD_REACTORS
330
42
102
}
330
42
100
AcDbScale
 70
     0
300
1/8" = 1'-0"
140
0.125
141
12.0
290
     0
  0
SCALE
  5
4A
102
{ACAD_REACTORS
330
42
102
}
330
42
100
AcDbScale
 70
     0
300
3/16" = 1'-0"
140
0.1875
141
12.0
290
     0
  0
SCALE
  5
4B
102
{ACAD_REACTORS
330
42
102
}
330
42
100
AcDbScale
 70
     0
300
1/4" = 1'-0"
140
0.25
141
12.0
290
     0
  0
SCALE
  5
4C
102
{ACAD_REACTORS
330
42
102
}
330
42
100
AcDbScale
 70
     0
300
3/8" = 1'-0"
140
0.375
141
12.0
290
     0
  0
SCALE
  5
4D
102
{ACAD_REACTORS
330
42
102
}
330
42
100
AcDbScale
 70
     0
300
1/2" = 1'-0"
140
0.5
141
12.0
290
     0
  0
SCALE
  5
4E
102
{ACAD_REACTORS
330
42
102
}
330
42
100
AcDbScale
 70
     0
300
3/4" = 1'-0"
140
0.75
141
12.0
290
     0
  0
SCALE
  5
4F
102
{ACAD_REACTORS
330
42
102
}
330
42
100
AcDbScale
 70
     0
300
1" = 1'-0"
140
1.0
141
12.0
290
     0
  0
SCALE
  5
50
102
{ACAD_REACTORS
330
42
102
}
330
42
100
AcDbScale
 70
     0
300
1-1/2" = 1'-0"
140
1.5
141
12.0
290
     0
  0
SCALE
  5
51
102
{ACAD_REACTORS
330
42
102
}
330
42
100
AcDbScale
 70
     0
300
3" = 1'-0"
140
3.0
141
12.0
290
     0
  0
SCALE
  5
52
102
{ACAD_REACTORS
330
42
102
}
330
42
100
AcDbScale
 70
     0
300
6" = 1'-0"
140
6.0
141
12.0
290
     0
  0
SCALE
  5
53
102
{ACAD_REACTORS
330
42
102
}
330
42
100
AcDbScale
 70
     0
300
1'-0" = 1'-0"
140
12.0
141
12.0
290
     0
  0
TABLESTYLE
  5
64
102
{ACAD_XDICTIONARY
360
610
102
}
102
{ACAD_REACTORS
330
63
102
}
330
63
100
AcDbTableStyle
  3
Standard
 70
     0
 71
     0
 40
0.06
 41
0.06
280
     0
281
     0
  7
STANDARD
140
0.18
170
     2
 62
     0
 63
     7
283
     0
274
    -2
284
     1
 64
     0
275
    -2
285
     1
 65
     0
276
    -2
286
     1
 66
     0
277
    -2
287
     1
 67
     0
278
    -2
288
     1
 68
     0
279
    -2
289
     1
 69
     0
  7
STANDARD
140
0.25
170
     5
 62
     0
 63
     7
283
     0
274
    -2
284
     1
 64
     0
275
    -2
285
     1
 65
     0
276
    -2
286
     1
 66
     0
277
    -2
287
     1
 67
     0
278
    -2
288
     1
 68
     0
279
    -2
289
     1
 69
     0
  7
STANDARD
140
0.18
170
     5
 62
     0
 63
     7
283
     0
274
    -2
284
     1
 64
     0
275
    -2
285
     1
 65
     0
276
    -2
286
     1
 66
     0
277
    -2
287
     1
 67
     0
278
    -2
288
     1
 68
     0
279
    -2
289
     1
 69
     0
  0
TABLESTYLE
  5
786
102
{ACAD_XDICTIONARY
360
787
102
}
102
{ACAD_REACTORS
330
63
102
}
330
63
100
AcDbTableStyle
  3
Standard
 70
     1
 71
     0
 40
1.5
 41
0.5
280
     0
281
     0
  7
高3.2
140
0.18
170
     7
 62
     3
 63
     7
283
     0
274
    -2
284
     1
 64
     3
275
    -2
285
     1
 65
     7
276
    -2
286
     1
 66
     3
277
    -2
287
     1
 67
     3
278
    -2
288
     1
 68
     7
279
    -2
289
     1
 69
     3
  7
高3.2
140
0.25
170
     8
 62
     3
 63
     7
283
     0
274
    -2
284
     1
 64
     0
275
    -2
285
     1
 65
     0
276
    -2
286
     1
 66
     0
277
    -2
287
     1
 67
     0
278
    -2
288
     1
 68
     0
279
    -2
289
     1
 69
     0
  7
高3.2
140
0.18
170
     7
 62
     3
 63
     7
283
     0
274
    -2
284
     1
 64
     3
275
    -2
285
     1
 65
     7
276
    -2
286
     1
 66
     3
277
    -2
287
     1
 67
     3
278
    -2
288
     1
 68
     7
279
    -2
289
     1
 69
     3
  0
VISUALSTYLE
  5
2F
102
{ACAD_XDICTIONARY
360
ADF
102
}
102
{ACAD_REACTORS
330
29
102
}
330
29
100
AcDbVisualStyle
  2

 70
     4
 71
     0
 72
     2
 73
     0
 90
        0
 40
-0.6
 41
-30.0
 62
     5
 63
     7
 74
     1
 91
        4
 64
     7
 65
   257
 75
     1
175
     1
 42
1.0
 92
        0
 66
   257
 43
1.0
 76
     1
 77
     6
 78
     2
 67
     7
 79
     5
170
     0
171
     0
290
     0
174
     0
 93
        1
 44
0.0
173
     0
291
     0
 45
0.0
1001
ACAD
1000
AcDbSavedByObjectVersion
1070
     0
  0
VISUALSTYLE
  5
93E
102
{ACAD_XDICTIONARY
360
B0D
102
}
102
{ACAD_REACTORS
330
29
102
}
330
29
100
AcDbVisualStyle
  2

 70
     6
 71
     1
 72
     2
 73
     2
 90
        0
 40
-0.6
 41
-30.0
 62
     5
 63
     7
 74
     2
 91
        2
 64
     7
 65
   257
 75
     2
175
     1
 42
40.0
 92
        0
 66
   257
 43
1.0
 76
     1
 77
     6
 78
     2
 67
     7
 79
     3
170
     0
171
     0
290
     0
174
     0
 93
        1
 44
0.0
173
     0
291
     0
 45
0.0
1001
ACAD
1000
AcDbSavedByObjectVersion
1070
     0
  0
VISUALSTYLE
  5
444
102
{ACAD_XDICTIONARY
360
B0A
102
}
102
{ACAD_REACTORS
330
29
102
}
330
29
100
AcDbVisualStyle
  2

 70
     5
 71
     0
 72
     2
 73
     1
 90
        0
 40
-0.6
 41
-30.0
 62
     5
 63
     7
 74
     1
 91
        4
 64
     7
 65
   257
 75
     1
175
     1
 42
1.0
 92
        0
 66
   257
 43
1.0
 76
     1
 77
     6
 78
     2
 67
     7
 79
     5
170
     0
171
     0
290
     0
174
     0
 93
        1
 44
0.0
173
     0
291
     0
 45
0.0
1001
ACAD
1000
AcDbSavedByObjectVersion
1070
     0
  0
VISUALSTYLE
  5
2E
102
{ACAD_XDICTIONARY
360
ADD
102
}
102
{ACAD_REACTORS
330
29
102
}
330
29
100
AcDbVisualStyle
  2

 70
     7
 71
     1
 72
     0
 73
     1
 90
        0
 40
-0.6
 41
-30.0
 62
     5
 63
     7
 74
     0
 91
        4
 64
     7
 65
   257
 75
     1
175
     1
 42
1.0
 92
        8
 66
     7
 43
1.0
 76
     1
 77
     6
 78
     2
 67
     7
 79
     5
170
     0
171
     0
290
     0
174
     0
 93
        1
 44
0.0
173
     0
291
     1
 45
0.0
1001
ACAD
1000
AcDbSavedByObjectVersion
1070
     0
  0
VISUALSTYLE
  5
35
102
{ACAD_XDICTIONARY
360
AEB
102
}
102
{ACAD_REACTORS
330
29
102
}
330
29
100
AcDbVisualStyle
  2

 70
    12
 71
     2
 72
     2
 73
     0
 90
        0
 40
-0.6
 41
-30.0
 62
     5
 63
     7
 74
     1
 91
        4
 64
     7
 65
   257
 75
     1
175
     1
 42
1.0
 92
        8
 66
     7
 43
1.0
 76
     1
 77
     6
 78
     2
 67
     7
 79
     5
170
     0
171
     0
290
     0
174
     0
 93
        1
 44
50.0
173
     0
291
     1
 45
0.0
1001
ACAD
1000
AcDbSavedByObjectVersion
1070
     0
  0
VISUALSTYLE
  5
39
102
{ACAD_XDICTIONARY
360
AF3
102
}
102
{ACAD_REACTORS
330
29
102
}
330
29
100
AcDbVisualStyle
  2

 70
    16
 71
     2
 72
     2
 73
     3
 90
        0
 40
-0.6
 41
-30.0
 62
     5
 63
     8
 74
     1
 91
        4
 64
     7
 65
   257
 75
     1
175
     1
 42
1.0
 92
        8
 66
     8
 43
1.0
 76
     1
 77
     6
 78
     2
 67
     7
 79
     5
170
     0
171
     0
290
     0
174
     0
 93
        1
 44
0.0
173
     0
291
     1
 45
0.0
1001
ACAD
1000
AcDbSavedByObjectVersion
1070
     0
  0
VISUALSTYLE
  5
32
102
{ACAD_XDICTIONARY
360
AE5
102
}
102
{ACAD_REACTORS
330
29
102
}
330
29
100
AcDbVisualStyle
  2

 70
     9
 71
     3
 72
     2
 73
     0
 90
        0
 40
-0.6
 41
-30.0
 62
     5
 63
     7
 74
     2
 91
        2
 64
     7
 65
   257
 75
     1
175
     1
 42
179.0
 92
        8
 66
     7
 43
1.0
 76
     1
 77
     6
 78
     2
 67
     7
 79
     3
170
     0
171
     0
290
     0
174
     0
 93
        1
 44
0.0
173
     0
291
     0
 45
0.0
1001
ACAD
1000
AcDbSavedByObjectVersion
1070
     0
  0
VISUALSTYLE
  5
34
102
{ACAD_XDICTIONARY
360
AE9
102
}
102
{ACAD_REACTORS
330
29
102
}
330
29
100
AcDbVisualStyle
  2

 70
    11
 71
     2
 72
     2
 73
     0
 90
        0
 40
-0.6
 41
-30.0
 62
     5
 63
     7
 74
     1
 91
        4
 64
     7
 65
   257
 75
     1
175
     1
 42
1.0
 92
        8
 66
     7
 43
1.0
 76
     1
 77
     6
 78
     2
 67
     7
 79
     5
170
     0
171
     0
290
     0
174
     0
 93
        1
 44
-50.0
173
     0
291
     1
 45
0.0
1001
ACAD
1000
AcDbSavedByObjectVersion
1070
     0
  0
VISUALSTYLE
  5
41
102
{ACAD_XDICTIONARY
360
B03
102
}
102
{ACAD_REACTORS
330
29
102
}
330
29
100
AcDbVisualStyle
  2

 70
    22
 71
     2
 72
     2
 73
     0
 90
        0
 40
-0.6
 41
-30.0
 62
     5
 63
     7
 74
     1
 91
        4
 64
     7
 65
   257
 75
     1
175
     1
 42
1.0
 92
        8
 66
     7
 43
1.0
 76
     1
 77
     6
 78
     2
 67
     7
 79
     5
170
     0
171
     0
290
     0
174
     0
 93
        1
 44
0.0
173
     0
291
     1
 45
0.0
1001
ACAD
1000
AcDbSavedByObjectVersion
1070
     0
  0
VISUALSTYLE
  5
38
102
{ACAD_XDICTIONARY
360
AF1
102
}
102
{ACAD_REACTORS
330
29
102
}
330
29
100
AcDbVisualStyle
  2

 70
    15
 71
     2
 72
     2
 73
     0
 90
        0
 40
-0.6
 41
-30.0
 62
     5
 63
     7
 74
     1
 91
        4
 64
     7
 65
   257
 75
     1
175
     1
 42
1.0
 92
        8
 66
     7
 43
1.0
 76
     1
 77
     6
 78
     2
 67
     7
 79
     5
170
     0
171
     0
290
     0
174
     0
 93
        1
 44
0.0
173
     0
291
     1
 45
0.0
1001
ACAD
1000
AcDbSavedByObjectVersion
1070
     0
  0
VISUALSTYLE
  5
2A
102
{ACAD_XDICTIONARY
360
AD5
102
}
102
{ACAD_REACTORS
330
29
102
}
330
29
100
AcDbVisualStyle
  2

 70
     0
 71
     2
 72
     1
 73
     1
 90
        2
 40
-0.6
 41
30.0
 62
     5
 63
     7
 74
     0
 91
        0
 64
     7
 65
   257
 75
     1
175
     1
 42
1.0
 92
        8
 66
     7
 43
1.0
 76
     1
 77
     6
 78
     2
 67
     7
 79
     5
170
     0
171
     0
290
     0
174
     0
 93
       13
 44
0.0
173
     0
291
     1
 45
0.0
1001
ACAD
1000
AcDbSavedByObjectVersion
1070
     0
  0
VISUALSTYLE
  5
2B
102
{ACAD_XDICTIONARY
360
AD7
102
}
102
{ACAD_REACTORS
330
29
102
}
330
29
100
AcDbVisualStyle
  2

 70
     1
 71
     2
 72
     1
 73
     1
 90
        2
 40
-0.6
 41
30.0
 62
     5
 63
     7
 74
     1
 91
        0
 64
     7
 65
   257
 75
     1
175
     1
 42
1.0
 92
        0
 66
   257
 43
1.0
 76
     1
 77
     6
 78
     2
 67
     7
 79
     5
170
     0
171
     0
290
     0
174
     0
 93
       13
 44
0.0
173
     0
291
     1
 45
0.0
1001
ACAD
1000
AcDbSavedByObjectVersion
1070
     0
  0
VISUALSTYLE
  5
2C
102
{ACAD_XDICTIONARY
360
AD9
102
}
102
{ACAD_REACTORS
330
29
102
}
330
29
100
AcDbVisualStyle
  2

 70
     2
 71
     2
 72
     2
 73
     1
 90
        2
 40
-0.6
 41
30.0
 62
     5
 63
     7
 74
     0
 91
        0
 64
     7
 65
   257
 75
     1
175
     1
 42
1.0
 92
        0
 66
     7
 43
1.0
 76
     1
 77
     6
 78
     2
 67
     7
 79
     5
170
     0
171
     0
290
     0
174
     0
 93
       13
 44
0.0
173
     0
291
     1
 45
0.0
1001
ACAD
1000
AcDbSavedByObjectVersion
1070
     0
  0
VISUALSTYLE
  5
2D
102
{ACAD_XDICTIONARY
360
ADB
102
}
102
{ACAD_REACTORS
330
29
102
}
330
29
100
AcDbVisualStyle
  2

 70
     3
 71
     2
 72
     2
 73
     1
 90
        2
 40
-0.6
 41
30.0
 62
     5
 63
     7
 74
     1
 91
        0
 64
     7
 65
   257
 75
     1
175
     1
 42
1.0
 92
        0
 66
   257
 43
1.0
 76
     1
 77
     6
 78
     2
 67
     7
 79
     5
170
     0
171
     0
290
     0
174
     0
 93
       13
 44
0.0
173
     0
291
     1
 45
0.0
1001
ACAD
1000
AcDbSavedByObjectVersion
1070
     0
  0
VISUALSTYLE
  5
31
102
{ACAD_XDICTIONARY
360
AE3
102
}
102
{ACAD_REACTORS
330
29
102
}
330
29
100
AcDbVisualStyle
  2

 70
     6
 71
     1
 72
     2
 73
     2
 90
        0
 40
-0.6
 41
-30.0
 62
     5
 63
     7
 74
     2
 91
        2
 64
     7
 65
   257
 75
     2
175
     1
 42
40.0
 92
        0
 66
   257
 43
1.0
 76
     1
 77
     6
 78
     2
 67
     7
 79
     3
170
     0
171
     0
290
     0
174
     0
 93
        1
 44
0.0
173
     0
291
     0
 45
0.0
1001
ACAD
1000
AcDbSavedByObjectVersion
1070
     0
  0
VISUALSTYLE
  5
3F
102
{ACAD_XDICTIONARY
360
AFF
102
}
102
{ACAD_REACTORS
330
29
102
}
330
29
100
AcDbVisualStyle
  2

 70
    20
 71
     2
 72
     2
 73
     0
 90
        0
 40
-0.6
 41
-30.0
 62
     5
 63
     7
 74
     1
 91
        4
 64
     7
 65
   257
 75
     1
175
     1
 42
1.0
 92
       10
 66
     7
 43
1.0
 76
     1
 77
     6
 78
     2
 67
     7
 79
     5
170
     0
171
     0
290
     0
174
     0
 93
        1
 44
0.0
173
     0
291
     1
 45
0.0
1001
ACAD
1000
AcDbSavedByObjectVersion
1070
     0
  0
VISUALSTYLE
  5
37
102
{ACAD_XDICTIONARY
360
AEF
102
}
102
{ACAD_REACTORS
330
29
102
}
330
29
100
AcDbVisualStyle
  2

 70
    14
 71
     2
 72
     2
 73
     0
 90
        0
 40
-0.6
 41
-30.0
 62
     5
 63
     7
 74
     1
 91
        4
 64
     7
 65
   257
 75
     7
175
     7
 42
1.0
 92
        8
 66
     7
 43
1.0
 76
     1
 77
     6
 78
     2
 67
     7
 79
     5
170
     0
171
     0
290
     0
174
     0
 93
        1
 44
0.0
173
     0
291
     1
 45
0.0
1001
ACAD
1000
AcDbSavedByObjectVersion
1070
     0
  0
VISUALSTYLE
  5
40
102
{ACAD_XDICTIONARY
360
B01
102
}
102
{ACAD_REACTORS
330
29
102
}
330
29
100
AcDbVisualStyle
  2

 70
    21
 71
     2
 72
     2
 73
     0
 90
        0
 40
-0.6
 41
-30.0
 62
     5
 63
     7
 74
     1
 91
        4
 64
     7
 65
   257
 75
     1
175
     1
 42
1.0
 92
        9
 66
     7
 43
1.0
 76
     1
 77
     6
 78
     2
 67
     7
 79
     5
170
     0
171
     0
290
     0
174
     0
 93
        1
 44
0.0
173
     0
291
     1
 45
0.0
1001
ACAD
1000
AcDbSavedByObjectVersion
1070
     0
  0
VISUALSTYLE
  5
33
102
{ACAD_XDICTIONARY
360
AE7
102
}
102
{ACAD_REACTORS
330
29
102
}
330
29
100
AcDbVisualStyle
  2

 70
     8
 71
     2
 72
     3
 73
     0
 90
        2
 40
-0.6
 41
30.0
 62
     5
 63
     7
 74
     0
 91
        0
 64
     7
 65
   257
 75
     1
175
     1
 42
1.0
 92
        8
 66
   257
 43
1.0
 76
     1
 77
     6
 78
     2
 67
     7
 79
     3
170
     0
171
     0
290
     0
174
     0
 93
       13
 44
0.0
173
     0
291
     0
 45
0.0
1001
ACAD
1000
AcDbSavedByObjectVersion
1070
     0
  0
VISUALSTYLE
  5
3E
102
{ACAD_XDICTIONARY
360
AFD
102
}
102
{ACAD_REACTORS
330
29
102
}
330
29
100
AcDbVisualStyle
  2

 70
    27
 71
     2
 72
     2
 73
     1
 90
        2
 40
-0.6
 41
30.0
 62
     5
 63
     7
 74
     0
 91
        4
 64
     7
 65
   257
 75
     1
175
     1
 42
1.0
 92
        8
 66
   257
 43
1.0
 76
     1
 77
     6
 78
     2
 67
     8
 79
     3
170
     0
171
     0
290
     0
174
     0
 93
        5
 44
0.0
173
     0
291
     0
 45
0.0
1001
ACAD
1000
AcDbSavedByObjectVersion
1070
     0
  0
VISUALSTYLE
  5
3D
102
{ACAD_XDICTIONARY
360
AFB
102
}
102
{ACAD_REACTORS
330
29
102
}
330
29
100
AcDbVisualStyle
  2

 70
    26
 71
     2
 72
     2
 73
     1
 90
        2
 40
-0.6
 41
30.0
 62
     5
 63
     7
 74
     1
 91
       10
 64
     7
 65
   257
 75
     2
175
     1
 42
1.0
 92
        8
 66
   257
 43
1.0
 76
     1
 77
     6
 78
     2
 67
     7
 79
     3
170
     0
171
     0
290
     0
174
     0
 93
        5
 44
0.0
173
     0
291
     0
 45
0.0
1001
ACAD
1000
AcDbSavedByObjectVersion
1070
     0
  0
VISUALSTYLE
  5
3A
102
{ACAD_XDICTIONARY
360
AF5
102
}
102
{ACAD_REACTORS
330
29
102
}
330
29
100
AcDbVisualStyle
  2

 70
    23
 71
     2
 72
     2
 73
     3
 90
        0
 40
-0.6
 41
-30.0
 62
     5
 63
     7
 74
     2
 91
        2
 64
     7
 65
     7
 75
     1
175
     1
 42
40.0
 92
        8
 66
     7
 43
1.0
 76
     1
 77
     6
 78
     2
 67
     7
 79
     3
170
     0
171
     0
290
     0
174
     0
 93
        1
 44
0.0
173
     0
291
     0
 45
0.0
1001
ACAD
1000
AcDbSavedByObjectVersion
1070
     0
  0
VISUALSTYLE
  5
3B
102
{ACAD_XDICTIONARY
360
AF7
102
}
102
{ACAD_REACTORS
330
29
102
}
330
29
100
AcDbVisualStyle
  2

 70
    24
 71
     1
 72
     2
 73
     2
 90
        0
 40
-0.6
 41
-30.0
 62
     5
 63
     7
 74
     2
 91
        2
 64
     7
 65
     7
 75
     1
175
     1
 42
40.0
 92
       11
 66
     7
 43
1.0
 76
     1
 77
     6
 78
     2
 67
     7
 79
     6
170
     0
171
     0
290
     0
174
     0
 93
        1
 44
0.0
173
     0
291
     0
 45
0.0
1001
ACAD
1000
AcDbSavedByObjectVersion
1070
     0
  0
VISUALSTYLE
  5
36
102
{ACAD_XDICTIONARY
360
AED
102
}
102
{ACAD_REACTORS
330
29
102
}
330
29
100
AcDbVisualStyle
  2

 70
    13
 71
     2
 72
     2
 73
     0
 90
        0
 40
-0.6
 41
-30.0
 62
     5
 63
     7
 74
     1
 91
        4
 64
     7
 65
   257
 75
     1
175
     1
 42
1.0
 92
       12
 66
     7
 43
1.0
 76
     1
 77
     6
 78
     2
 67
     7
 79
     5
170
     0
171
     0
290
     0
174
     0
 93
        1
 44
0.0
173
     0
291
     1
 45
0.0
1001
ACAD
1000
AcDbSavedByObjectVersion
1070
     0
  0
VISUALSTYLE
  5
30
102
{ACAD_XDICTIONARY
360
AE1
102
}
102
{ACAD_REACTORS
330
29
102
}
330
29
100
AcDbVisualStyle
  2

 70
     5
 71
     0
 72
     2
 73
     0
 90
        0
 40
-0.6
 41
-30.0
 62
     5
 63
     7
 74
     1
 91
        4
 64
     7
 65
   257
 75
     1
175
     1
 42
1.0
 92
        0
 66
   257
 43
1.0
 76
     1
 77
     6
 78
     2
 67
     7
 79
     3
170
     0
171
     0
290
     0
174
     0
 93
        1
 44
0.0
173
     0
291
     0
 45
0.0
1001
ACAD
1000
AcDbSavedByObjectVersion
1070
     0
  0
VISUALSTYLE
  5
3C
102
{ACAD_XDICTIONARY
360
AF9
102
}
102
{ACAD_REACTORS
330
29
102
}
330
29
100
AcDbVisualStyle
  2

 70
    25
 71
     2
 72
     2
 73
     1
 90
        1
 40
0.5
 41
-30.0
 62
     5
 63
     7
 74
     1
 91
        0
 64
     7
 65
   257
 75
     1
175
     1
 42
1.0
 92
        8
 66
     7
 43
1.0
 76
     1
 77
     6
 78
     2
 67
     7
 79
     3
170
     0
171
     0
290
     0
174
     0
 93
       13
 44
0.0
173
     0
291
     0
 45
0.0
1001
ACAD
1000
AcDbSavedByObjectVersion
1070
     0
  0
DICTIONARYVAR
  5
60B
102
{ACAD_REACTORS
330
608
102
}
330
608
100
DictionaryVariables
280
     0
  1
1:1
  0
DICTIONARYVAR
  5
60A
102
{ACAD_REACTORS
330
608
102
}
330
608
100
DictionaryVariables
280
     0
  1
STANDARD
  0
DICTIONARYVAR
  5
609
102
{ACAD_REACTORS
330
608
102
}
330
608
100
DictionaryVariables
280
     0
  1
STANDARD
  0
DICTIONARYVAR
  5
60E
102
{ACAD_REACTORS
330
608
102
}
330
608
100
DictionaryVariables
280
     0
  1
1
  0
DICTIONARYVAR
  5
60D
102
{ACAD_REACTORS
330
608
102
}
330
608
100
DictionaryVariables
280
     0
  1
0
  0
DICTIONARYVAR
  5
9E0
102
{ACAD_REACTORS
330
608
102
}
330
608
100
DictionaryVariables
280
     0
  1
1.570796
  0
DICTIONARYVAR
  5
9E1
102
{ACAD_REACTORS
330
608
102
}
330
608
100
DictionaryVariables
280
     0
  1
1.570796
  0
DICTIONARYVAR
  5
60C
102
{ACAD_REACTORS
330
608
102
}
330
608
100
DictionaryVariables
280
     0
  1
127
  0
DICTIONARYVAR
  5
9E2
102
{ACAD_REACTORS
330
608
102
}
330
608
100
DictionaryVariables
280
     0
  1
2
  0
DICTIONARY
  5
B08
330
6E
100
AcDbDictionary
280
     1
281
     1
  3
ACAD_XREC_ROUNDTRIP
360
B09
  0
DICTIONARY
  5
B06
330
6A
100
AcDbDictionary
280
     1
281
     1
  3
ACAD_XREC_ROUNDTRIP
360
B07
  0
DICTIONARY
  5
1A
330
19
100
AcDbDictionary
280
     1
281
     1
  3
ACAD_XREC_ROUNDTRIP
360
619
  3
BUMPTILE
360
1C
  3
DIFFUSETILE
360
1B
  3
OPACITYTILE
360
1F
  3
REFLECTIONTILE
360
1E
  3
REFRACTIONTILE
360
20
  3
SPECULARTILE
360
1D
  0
DICTIONARY
  5
12
330
11
100
AcDbDictionary
280
     1
281
     1
  3
ACAD_XREC_ROUNDTRIP
360
618
  3
BUMPTILE
360
14
  3
DIFFUSETILE
360
13
  3
OPACITYTILE
360
17
  3
REFLECTIONTILE
360
16
  3
REFRACTIONTILE
360
18
  3
SPECULARTILE
360
15
  0
DICTIONARY
  5
22
330
21
100
AcDbDictionary
280
     1
281
     1
  3
ACAD_XREC_ROUNDTRIP
360
61A
  3
BUMPTILE
360
24
  3
DIFFUSETILE
360
23
  3
OPACITYTILE
360
27
  3
REFLECTIONTILE
360
26
  3
REFRACTIONTILE
360
28
  3
SPECULARTILE
360
25
  0
DICTIONARY
  5
610
330
64
100
AcDbDictionary
280
     1
281
     1
  3
ACAD_ROUNDTRIP_2008_TABLESTYLE_CELLSTYLEMAP
360
ACC
  3
ACAD_XREC_ROUNDTRIP
360
B05
  0
DICTIONARY
  5
787
330
786
100
AcDbDictionary
280
     1
281
     1
  3
ACAD_ROUNDTRIP_2008_TABLESTYLE_CELLSTYLEMAP
360
ACD
  3
ACAD_XREC_ROUNDTRIP
360
B0C
  0
DICTIONARY
  5
ADF
330
2F
100
AcDbDictionary
280
     1
281
     1
  3
ACAD_XREC_ROUNDTRIP
360
AE0
  0
DICTIONARY
  5
B0D
330
93E
100
AcDbDictionary
280
     1
281
     1
  3
ACAD_XREC_ROUNDTRIP
360
B0E
  0
DICTIONARY
  5
B0A
330
444
100
AcDbDictionary
280
     1
281
     1
  3
ACAD_XREC_ROUNDTRIP
360
B0B
  0
DICTIONARY
  5
ADD
330
2E
100
AcDbDictionary
280
     1
281
     1
  3
ACAD_XREC_ROUNDTRIP
360
ADE
  0
DICTIONARY
  5
AEB
330
35
100
AcDbDictionary
280
     1
281
     1
  3
ACAD_XREC_ROUNDTRIP
360
AEC
  0
DICTIONARY
  5
AF3
330
39
100
AcDbDictionary
280
     1
281
     1
  3
ACAD_XREC_ROUNDTRIP
360
AF4
  0
DICTIONARY
  5
AE5
330
32
100
AcDbDictionary
280
     1
281
     1
  3
ACAD_XREC_ROUNDTRIP
360
AE6
  0
DICTIONARY
  5
AE9
330
34
100
AcDbDictionary
280
     1
281
     1
  3
ACAD_XREC_ROUNDTRIP
360
AEA
  0
DICTIONARY
  5
B03
330
41
100
AcDbDictionary
280
     1
281
     1
  3
ACAD_XREC_ROUNDTRIP
360
B04
  0
DICTIONARY
  5
AF1
330
38
100
AcDbDictionary
280
     1
281
     1
  3
ACAD_XREC_ROUNDTRIP
360
AF2
  0
DICTIONARY
  5
AD5
330
2A
100
AcDbDictionary
280
     1
281
     1
  3
ACAD_XREC_ROUNDTRIP
360
AD6
  0
DICTIONARY
  5
AD7
330
2B
100
AcDbDictionary
280
     1
281
     1
  3
ACAD_XREC_ROUNDTRIP
360
AD8
  0
DICTIONARY
  5
AD9
330
2C
100
AcDbDictionary
280
     1
281
     1
  3
ACAD_XREC_ROUNDTRIP
360
ADA
  0
DICTIONARY
  5
ADB
330
2D
100
AcDbDictionary
280
     1
281
     1
  3
ACAD_XREC_ROUNDTRIP
360
ADC
  0
DICTIONARY
  5
AE3
330
31
100
AcDbDictionary
280
     1
281
     1
  3
ACAD_XREC_ROUNDTRIP
360
AE4
  0
DICTIONARY
  5
AFF
330
3F
100
AcDbDictionary
280
     1
281
     1
  3
ACAD_XREC_ROUNDTRIP
360
B00
  0
DICTIONARY
  5
AEF
330
37
100
AcDbDictionary
280
     1
281
     1
  3
ACAD_XREC_ROUNDTRIP
360
AF0
  0
DICTIONARY
  5
B01
330
40
100
AcDbDictionary
280
     1
281
     1
  3
ACAD_XREC_ROUNDTRIP
360
B02
  0
DICTIONARY
  5
AE7
330
33
100
AcDbDictionary
280
     1
281
     1
  3
ACAD_XREC_ROUNDTRIP
360
AE8
  0
DICTIONARY
  5
AFD
330
3E
100
AcDbDictionary
280
     1
281
     1
  3
ACAD_XREC_ROUNDTRIP
360
AFE
  0
DICTIONARY
  5
AFB
330
3D
100
AcDbDictionary
280
     1
281
     1
  3
ACAD_XREC_ROUNDTRIP
360
AFC
  0
DICTIONARY
  5
AF5
330
3A
100
AcDbDictionary
280
     1
281
     1
  3
ACAD_XREC_ROUNDTRIP
360
AF6
  0
DICTIONARY
  5
AF7
330
3B
100
AcDbDictionary
280
     1
281
     1
  3
ACAD_XREC_ROUNDTRIP
360
AF8
  0
DICTIONARY
  5
AED
330
36
100
AcDbDictionary
280
     1
281
     1
  3
ACAD_XREC_ROUNDTRIP
360
AEE
  0
DICTIONARY
  5
AE1
330
30
100
AcDbDictionary
280
     1
281
     1
  3
ACAD_XREC_ROUNDTRIP
360
AE2
  0
DICTIONARY
  5
AF9
330
3C
100
AcDbDictionary
280
     1
281
     1
  3
ACAD_XREC_ROUNDTRIP
360
AFA
  0
XRECORD
  5
B09
102
{ACAD_REACTORS
330
B08
102
}
330
B08
100
AcDbXrecord
280
     1
102
SHADEPLOT
 70
     0
102
SHADEPLOTRESLEVEL
 70
     2
102
SHADEPLOTCUSTOMDPI
 70
   300
  0
XRECORD
  5
B07
102
{ACAD_REACTORS
330
B06
102
}
330
B06
100
AcDbXrecord
280
     1
102
SHADEPLOT
 70
     0
102
SHADEPLOTRESLEVEL
 70
     2
102
SHADEPLOTCUSTOMDPI
 70
   300
  0
XRECORD
  5
619
102
{ACAD_REACTORS
330
1A
102
}
330
1A
100
AcDbXrecord
280
     1
102
MATERIAL
148
0.0
149
0.0
149
0.0
 93
        0
 94
      127
282
     0
 72
     0
 77
     0
171
     0
175
     0
179
     0
273
     0
  0
XRECORD
  5
1C
102
{ACAD_REACTORS
330
1A
102
}
330
1A
100
AcDbXrecord
280
     1
270
     1
271
     1
  0
XRECORD
  5
1B
102
{ACAD_REACTORS
330
1A
102
}
330
1A
100
AcDbXrecord
280
     1
270
     1
271
     1
  0
XRECORD
  5
1F
102
{ACAD_REACTORS
330
1A
102
}
330
1A
100
AcDbXrecord
280
     1
270
     1
271
     1
  0
XRECORD
  5
1E
102
{ACAD_REACTORS
330
1A
102
}
330
1A
100
AcDbXrecord
280
     1
270
     1
271
     1
  0
XRECORD
  5
20
102
{ACAD_REACTORS
330
1A
102
}
330
1A
100
AcDbXrecord
280
     1
270
     1
271
     1
  0
XRECORD
  5
1D
102
{ACAD_REACTORS
330
1A
102
}
330
1A
100
AcDbXrecord
280
     1
270
     1
271
     1
  0
XRECORD
  5
618
102
{ACAD_REACTORS
330
12
102
}
330
12
100
AcDbXrecord
280
     1
102
MATERIAL
148
0.0
149
0.0
149
0.0
 93
        0
 94
      127
282
     0
 72
     0
 77
     0
171
     0
175
     0
179
     0
273
     0
  0
XRECORD
  5
14
102
{ACAD_REACTORS
330
12
102
}
330
12
100
AcDbXrecord
280
     1
270
     1
271
     1
  0
XRECORD
  5
13
102
{ACAD_REACTORS
330
12
102
}
330
12
100
AcDbXrecord
280
     1
270
     1
271
     1
  0
XRECORD
  5
17
102
{ACAD_REACTORS
330
12
102
}
330
12
100
AcDbXrecord
280
     1
270
     1
271
     1
  0
XRECORD
  5
16
102
{ACAD_REACTORS
330
12
102
}
330
12
100
AcDbXrecord
280
     1
270
     1
271
     1
  0
XRECORD
  5
18
102
{ACAD_REACTORS
330
12
102
}
330
12
100
AcDbXrecord
280
     1
270
     1
271
     1
  0
XRECORD
  5
15
102
{ACAD_REACTORS
330
12
102
}
330
12
100
AcDbXrecord
280
     1
270
     1
271
     1
  0
XRECORD
  5
61A
102
{ACAD_REACTORS
330
22
102
}
330
22
100
AcDbXrecord
280
     1
102
MATERIAL
148
0.0
149
0.0
149
0.0
 93
        0
 94
      127
282
     0
 72
     0
 77
     0
171
     0
175
     0
179
     0
273
     0
  0
XRECORD
  5
24
102
{ACAD_REACTORS
330
22
102
}
330
22
100
AcDbXrecord
280
     1
270
     1
271
     1
  0
XRECORD
  5
23
102
{ACAD_REACTORS
330
22
102
}
330
22
100
AcDbXrecord
280
     1
270
     1
271
     1
  0
XRECORD
  5
27
102
{ACAD_REACTORS
330
22
102
}
330
22
100
AcDbXrecord
280
     1
270
     1
271
     1
  0
XRECORD
  5
26
102
{ACAD_REACTORS
330
22
102
}
330
22
100
AcDbXrecord
280
     1
270
     1
271
     1
  0
XRECORD
  5
28
102
{ACAD_REACTORS
330
22
102
}
330
22
100
AcDbXrecord
280
     1
270
     1
271
     1
  0
XRECORD
  5
25
102
{ACAD_REACTORS
330
22
102
}
330
22
100
AcDbXrecord
280
     1
270
     1
271
     1
  0
CELLSTYLEMAP
  5
ACC
102
{ACAD_REACTORS
330
610
102
}
330
610
100
AcDbCellStyleMap
 90
        3
300
CELLSTYLE
  1
TABLEFORMAT_BEGIN
 90
        5
170
     1
 91
        0
 92
    32768
 62
   257
 93
        1
300
CONTENTFORMAT
  1
CONTENTFORMAT_BEGIN
 90
        0
 91
        0
 92
      512
 93
        0
300

 40
0.0
140
1.0
 94
        5
 62
     0
340
55
144
0.25
309
CONTENTFORMAT_END
171
     1
301
MARGIN
  1
CELLMARGIN_BEGIN
 40
0.06
 40
0.06
 40
0.06
 40
0.06
 40
0.18
 40
0.18
309
CELLMARGIN_END
 94
        6
 95
        1
302
GRIDFORMAT
  1
GRIDFORMAT_BEGIN
 90
        0
 91
        1
 62
     0
 92
       -2
340
0
 93
        0
 40
0.045
309
GRIDFORMAT_END
 95
        2
302
GRIDFORMAT
  1
GRIDFORMAT_BEGIN
 90
        0
 91
        1
 62
     0
 92
       -2
340
0
 93
        0
 40
0.045
309
GRIDFORMAT_END
 95
        4
302
GRIDFORMAT
  1
GRIDFORMAT_BEGIN
 90
        0
 91
        1
 62
     0
 92
       -2
340
0
 93
        0
 40
0.045
309
GRIDFORMAT_END
 95
        8
302
GRIDFORMAT
  1
GRIDFORMAT_BEGIN
 90
        0
 91
        1
 62
     0
 92
       -2
340
0
 93
        0
 40
0.045
309
GRIDFORMAT_END
 95
       16
302
GRIDFORMAT
  1
GRIDFORMAT_BEGIN
 90
        0
 91
        1
 62
     0
 92
       -2
340
0
 93
        0
 40
0.045
309
GRIDFORMAT_END
 95
       32
302
GRIDFORMAT
  1
GRIDFORMAT_BEGIN
 90
        0
 91
        1
 62
     0
 92
       -2
340
0
 93
        0
 40
0.045
309
GRIDFORMAT_END
309
TABLEFORMAT_END
  1
CELLSTYLE_BEGIN
 90
        1
 91
        1
300
_TITLE
309
CELLSTYLE_END
300
CELLSTYLE
  1
TABLEFORMAT_BEGIN
 90
        5
170
     1
 91
        0
 92
        0
 62
   257
 93
        1
300
CONTENTFORMAT
  1
CONTENTFORMAT_BEGIN
 90
        0
 91
        0
 92
      512
 93
        0
300

 40
0.0
140
1.0
 94
        5
 62
     0
340
55
144
0.18
309
CONTENTFORMAT_END
171
     1
301
MARGIN
  1
CELLMARGIN_BEGIN
 40
0.06
 40
0.06
 40
0.06
 40
0.06
 40
0.18
 40
0.18
309
CELLMARGIN_END
 94
        6
 95
        1
302
GRIDFORMAT
  1
GRIDFORMAT_BEGIN
 90
        0
 91
        1
 62
     0
 92
       -2
340
0
 93
        0
 40
0.045
309
GRIDFORMAT_END
 95
        2
302
GRIDFORMAT
  1
GRIDFORMAT_BEGIN
 90
        0
 91
        1
 62
     0
 92
       -2
340
0
 93
        0
 40
0.045
309
GRIDFORMAT_END
 95
        4
302
GRIDFORMAT
  1
GRIDFORMAT_BEGIN
 90
        0
 91
        1
 62
     0
 92
       -2
340
0
 93
        0
 40
0.045
309
GRIDFORMAT_END
 95
        8
302
GRIDFORMAT
  1
GRIDFORMAT_BEGIN
 90
        0
 91
        1
 62
     0
 92
       -2
340
0
 93
        0
 40
0.045
309
GRIDFORMAT_END
 95
       16
302
GRIDFORMAT
  1
GRIDFORMAT_BEGIN
 90
        0
 91
        1
 62
     0
 92
       -2
340
0
 93
        0
 40
0.045
309
GRIDFORMAT_END
 95
       32
302
GRIDFORMAT
  1
GRIDFORMAT_BEGIN
 90
        0
 91
        1
 62
     0
 92
       -2
340
0
 93
        0
 40
0.045
309
GRIDFORMAT_END
309
TABLEFORMAT_END
  1
CELLSTYLE_BEGIN
 90
        2
 91
        1
300
_HEADER
309
CELLSTYLE_END
300
CELLSTYLE
  1
TABLEFORMAT_BEGIN
 90
        5
170
     1
 91
        0
 92
        0
 62
   257
 93
        1
300
CONTENTFORMAT
  1
CONTENTFORMAT_BEGIN
 90
        0
 91
        0
 92
      512
 93
        0
300

 40
0.0
140
1.0
 94
        2
 62
     0
340
55
144
0.18
309
CONTENTFORMAT_END
171
     1
301
MARGIN
  1
CELLMARGIN_BEGIN
 40
0.06
 40
0.06
 40
0.06
 40
0.06
 40
0.18
 40
0.18
309
CELLMARGIN_END
 94
        6
 95
        1
302
GRIDFORMAT
  1
GRIDFORMAT_BEGIN
 90
        0
 91
        1
 62
     0
 92
       -2
340
0
 93
        0
 40
0.045
309
GRIDFORMAT_END
 95
        2
302
GRIDFORMAT
  1
GRIDFORMAT_BEGIN
 90
        0
 91
        1
 62
     0
 92
       -2
340
0
 93
        0
 40
0.045
309
GRIDFORMAT_END
 95
        4
302
GRIDFORMAT
  1
GRIDFORMAT_BEGIN
 90
        0
 91
        1
 62
     0
 92
       -2
340
0
 93
        0
 40
0.045
309
GRIDFORMAT_END
 95
        8
302
GRIDFORMAT
  1
GRIDFORMAT_BEGIN
 90
        0
 91
        1
 62
     0
 92
       -2
340
0
 93
        0
 40
0.045
309
GRIDFORMAT_END
 95
       16
302
GRIDFORMAT
  1
GRIDFORMAT_BEGIN
 90
        0
 91
        1
 62
     0
 92
       -2
340
0
 93
        0
 40
0.045
309
GRIDFORMAT_END
 95
       32
302
GRIDFORMAT
  1
GRIDFORMAT_BEGIN
 90
        0
 91
        1
 62
     0
 92
       -2
340
0
 93
        0
 40
0.045
309
GRIDFORMAT_END
309
TABLEFORMAT_END
  1
CELLSTYLE_BEGIN
 90
        3
 91
        2
300
_DATA
309
CELLSTYLE_END
  0
XRECORD
  5
B05
102
{ACAD_REACTORS
330
610
102
}
330
610
100
AcDbXrecord
280
     1
102
ACAD_ROUNDTRIP_PRE2007_TABLESTYLE
 90
      512
 91
        0
  1

 92
      512
 93
        0
  2

 94
      512
 95
        0
  3

  0
CELLSTYLEMAP
  5
ACD
102
{ACAD_REACTORS
330
787
102
}
330
787
100
AcDbCellStyleMap
 90
        3
300
CELLSTYLE
  1
TABLEFORMAT_BEGIN
 90
        5
170
     1
 91
        0
 92
    32768
 62
   257
 93
        1
300
CONTENTFORMAT
  1
CONTENTFORMAT_BEGIN
 90
        0
 91
        0
 92
      512
 93
        0
300

 40
0.0
140
1.0
 94
        8
 62
     3
340
431
144
0.25
309
CONTENTFORMAT_END
171
     1
301
MARGIN
  1
CELLMARGIN_BEGIN
 40
0.5
 40
10.0
 40
0.06
 40
0.06
 40
0.18
 40
0.18
309
CELLMARGIN_END
 94
        6
 95
        1
302
GRIDFORMAT
  1
GRIDFORMAT_BEGIN
 90
        0
 91
        1
 62
     0
 92
       -2
340
0
 93
        0
 40
0.045
309
GRIDFORMAT_END
 95
        2
302
GRIDFORMAT
  1
GRIDFORMAT_BEGIN
 90
        0
 91
        1
 62
     0
 92
       -2
340
0
 93
        0
 40
0.045
309
GRIDFORMAT_END
 95
        4
302
GRIDFORMAT
  1
GRIDFORMAT_BEGIN
 90
        0
 91
        1
 62
     0
 92
       -2
340
0
 93
        0
 40
0.045
309
GRIDFORMAT_END
 95
        8
302
GRIDFORMAT
  1
GRIDFORMAT_BEGIN
 90
        0
 91
        1
 62
     0
 92
       -2
340
0
 93
        0
 40
0.045
309
GRIDFORMAT_END
 95
       16
302
GRIDFORMAT
  1
GRIDFORMAT_BEGIN
 90
        0
 91
        1
 62
     0
 92
       -2
340
0
 93
        0
 40
0.045
309
GRIDFORMAT_END
 95
       32
302
GRIDFORMAT
  1
GRIDFORMAT_BEGIN
 90
        0
 91
        1
 62
     0
 92
       -2
340
0
 93
        0
 40
0.045
309
GRIDFORMAT_END
309
TABLEFORMAT_END
  1
CELLSTYLE_BEGIN
 90
        1
 91
        1
300
_TITLE
309
CELLSTYLE_END
300
CELLSTYLE
  1
TABLEFORMAT_BEGIN
 90
        5
170
     1
 91
        0
 92
        0
 62
   257
 93
        1
300
CONTENTFORMAT
  1
CONTENTFORMAT_BEGIN
 90
        0
 91
        0
 92
      512
 93
        0
300

 40
0.0
140
1.0
 94
        7
 62
     3
340
431
144
0.18
309
CONTENTFORMAT_END
171
     1
301
MARGIN
  1
CELLMARGIN_BEGIN
 40
0.5
 40
1.5
 40
0.06
 40
0.06
 40
0.18
 40
0.18
309
CELLMARGIN_END
 94
        6
 95
        1
302
GRIDFORMAT
  1
GRIDFORMAT_BEGIN
 90
        0
 91
        1
 62
     3
 92
       -2
340
5A
 93
        0
 40
0.045
309
GRIDFORMAT_END
 95
        2
302
GRIDFORMAT
  1
GRIDFORMAT_BEGIN
 90
        0
 91
        1
 62
     7
 92
       -2
340
5A
 93
        0
 40
0.045
309
GRIDFORMAT_END
 95
        4
302
GRIDFORMAT
  1
GRIDFORMAT_BEGIN
 90
        0
 91
        1
 62
     3
 92
       -2
340
5A
 93
        0
 40
0.045
309
GRIDFORMAT_END
 95
        8
302
GRIDFORMAT
  1
GRIDFORMAT_BEGIN
 90
        0
 91
        1
 62
     3
 92
       -2
340
5A
 93
        0
 40
0.045
309
GRIDFORMAT_END
 95
       16
302
GRIDFORMAT
  1
GRIDFORMAT_BEGIN
 90
        0
 91
        1
 62
     7
 92
       -2
340
5A
 93
        0
 40
0.045
309
GRIDFORMAT_END
 95
       32
302
GRIDFORMAT
  1
GRIDFORMAT_BEGIN
 90
        0
 91
        1
 62
     3
 92
       -2
340
5A
 93
        0
 40
0.045
309
GRIDFORMAT_END
309
TABLEFORMAT_END
  1
CELLSTYLE_BEGIN
 90
        2
 91
        1
300
_HEADER
309
CELLSTYLE_END
300
CELLSTYLE
  1
TABLEFORMAT_BEGIN
 90
        5
170
     1
 91
        0
 92
        0
 62
   257
 93
        1
300
CONTENTFORMAT
  1
CONTENTFORMAT_BEGIN
 90
        0
 91
        0
 92
      512
 93
        0
300

 40
0.0
140
1.0
 94
        7
 62
     3
340
431
144
0.18
309
CONTENTFORMAT_END
171
     1
301
MARGIN
  1
CELLMARGIN_BEGIN
 40
0.5
 40
1.5
 40
0.06
 40
0.06
 40
0.18
 40
0.18
309
CELLMARGIN_END
 94
        6
 95
        1
302
GRIDFORMAT
  1
GRIDFORMAT_BEGIN
 90
        0
 91
        1
 62
     3
 92
       -2
340
5A
 93
        0
 40
0.045
309
GRIDFORMAT_END
 95
        2
302
GRIDFORMAT
  1
GRIDFORMAT_BEGIN
 90
        0
 91
        1
 62
     7
 92
       -2
340
5A
 93
        0
 40
0.045
309
GRIDFORMAT_END
 95
        4
302
GRIDFORMAT
  1
GRIDFORMAT_BEGIN
 90
        0
 91
        1
 62
     3
 92
       -2
340
5A
 93
        0
 40
0.045
309
GRIDFORMAT_END
 95
        8
302
GRIDFORMAT
  1
GRIDFORMAT_BEGIN
 90
        0
 91
        1
 62
     3
 92
       -2
340
5A
 93
        0
 40
0.045
309
GRIDFORMAT_END
 95
       16
302
GRIDFORMAT
  1
GRIDFORMAT_BEGIN
 90
        0
 91
        1
 62
     7
 92
       -2
340
5A
 93
        0
 40
0.045
309
GRIDFORMAT_END
 95
       32
302
GRIDFORMAT
  1
GRIDFORMAT_BEGIN
 90
        0
 91
        1
 62
     3
 92
       -2
340
5A
 93
        0
 40
0.045
309
GRIDFORMAT_END
309
TABLEFORMAT_END
  1
CELLSTYLE_BEGIN
 90
        3
 91
        2
300
_DATA
309
CELLSTYLE_END
  0
XRECORD
  5
B0C
102
{ACAD_REACTORS
330
787
102
}
330
787
100
AcDbXrecord
280
     1
102
ACAD_ROUNDTRIP_PRE2007_TABLESTYLE
 90
      512
 91
        0
  1

 92
      512
 93
        0
  2

 94
      512
 95
        0
  3

  0
XRECORD
  5
AE0
102
{ACAD_REACTORS
330
ADF
102
}
330
ADF
100
AcDbXrecord
280
     1
102
RTVSPropertyOp0
 70
     1
102
RTVSPropertyOp1
 70
     1
102
RTVSPropertyOp2
 70
     1
102
RTVSPropertyOp3
 70
     1
102
RTVSPropertyOp4
 70
     1
102
RTVSPropertyOp5
 70
     1
102
RTVSPropertyOp6
 70
     1
102
RTVSPropertyOp7
 70
     1
102
RTVSPropertyOp8
 70
     1
102
RTVSPropertyOp9
 70
     1
102
RTVSPropertyOp10
 70
     1
102
RTVSPropertyOp11
 70
     1
102
RTVSPropertyOp12
 70
     1
102
RTVSPropertyOp13
 70
     1
102
RTVSPropertyOp14
 70
     1
102
RTVSPropertyOp15
 70
     1
102
RTVSPropertyOp16
 70
     1
102
RTVSPropertyOp17
 70
     1
102
RTVSPropertyOp18
 70
     1
102
RTVSPropertyOp19
 70
     1
102
RTVSPropertyOp20
 70
     1
102
RTVSPropertyOp21
 70
     1
102
RTVSPropertyOp22
 70
     1
102
RTVSPropertyOp23
 70
     1
102
RTVSPropertyOp24
 70
     1
102
RTVSPropertyOp25
 70
     1
102
RTVSPropertyOp26
 70
     1
102
RTVSPropertyOp27
 70
     1
102
RTVSPropertyOp28
 70
     1
102
RTVSPropertyOp29
 70
     1
102
RTVSPropertyOp30
 70
     1
102
RTVSPropertyOp31
 70
     1
102
RTVSPropertyOp32
 70
     1
  0
XRECORD
  5
B0E
102
{ACAD_REACTORS
330
B0D
102
}
330
B0D
100
AcDbXrecord
280
     1
102
RTVSPropertyOp0
 70
     1
102
RTVSPropertyOp1
 70
     1
102
RTVSPropertyOp2
 70
     1
102
RTVSPropertyOp3
 70
     1
102
RTVSPropertyOp4
 70
     1
102
RTVSPropertyOp5
 70
     1
102
RTVSPropertyOp6
 70
     1
102
RTVSPropertyOp7
 70
     1
102
RTVSPropertyOp8
 70
     1
102
RTVSPropertyOp9
 70
     1
102
RTVSPropertyOp10
 70
     1
102
RTVSPropertyOp11
 70
     1
102
RTVSPropertyOp12
 70
     1
102
RTVSPropertyOp13
 70
     1
102
RTVSPropertyOp14
 70
     1
102
RTVSPropertyOp15
 70
     1
102
RTVSPropertyOp16
 70
     1
102
RTVSPropertyOp17
 70
     1
102
RTVSPropertyOp18
 70
     1
102
RTVSPropertyOp19
 70
     1
102
RTVSPropertyOp20
 70
     1
102
RTVSPropertyOp21
 70
     1
102
RTVSPropertyOp22
 70
     1
102
RTVSPropertyOp23
 70
     1
102
RTVSPropertyOp24
 70
     1
102
RTVSPropertyOp25
 70
     1
102
RTVSPropertyOp26
 70
     1
102
RTVSPropertyOp27
 70
     1
102
RTVSPropertyOp28
 70
     1
102
RTVSPropertyOp29
 70
     1
102
RTVSPropertyOp30
 70
     1
102
RTVSPropertyOp31
 70
     1
102
RTVSPropertyOp32
 70
     1
  0
XRECORD
  5
B0B
102
{ACAD_REACTORS
330
B0A
102
}
330
B0A
100
AcDbXrecord
280
     1
102
RTVSPropertyOp0
 70
     1
102
RTVSPropertyOp1
 70
     1
102
RTVSPropertyOp2
 70
     1
102
RTVSPropertyOp3
 70
     1
102
RTVSPropertyOp4
 70
     1
102
RTVSPropertyOp5
 70
     1
102
RTVSPropertyOp6
 70
     1
102
RTVSPropertyOp7
 70
     1
102
RTVSPropertyOp8
 70
     1
102
RTVSPropertyOp9
 70
     1
102
RTVSPropertyOp10
 70
     1
102
RTVSPropertyOp11
 70
     1
102
RTVSPropertyOp12
 70
     1
102
RTVSPropertyOp13
 70
     1
102
RTVSPropertyOp14
 70
     1
102
RTVSPropertyOp15
 70
     1
102
RTVSPropertyOp16
 70
     1
102
RTVSPropertyOp17
 70
     1
102
RTVSPropertyOp18
 70
     1
102
RTVSPropertyOp19
 70
     1
102
RTVSPropertyOp20
 70
     1
102
RTVSPropertyOp21
 70
     1
102
RTVSPropertyOp22
 70
     1
102
RTVSPropertyOp23
 70
     1
102
RTVSPropertyOp24
 70
     1
102
RTVSPropertyOp25
 70
     1
102
RTVSPropertyOp26
 70
     1
102
RTVSPropertyOp27
 70
     1
102
RTVSPropertyOp28
 70
     1
102
RTVSPropertyOp29
 70
     1
102
RTVSPropertyOp30
 70
     1
102
RTVSPropertyOp31
 70
     1
102
RTVSPropertyOp32
 70
     1
  0
XRECORD
  5
ADE
102
{ACAD_REACTORS
330
ADD
102
}
330
ADD
100
AcDbXrecord
280
     1
102
RTVSPropertyOp0
 70
     1
102
RTVSPropertyOp1
 70
     1
102
RTVSPropertyOp2
 70
     1
102
RTVSPropertyOp3
 70
     1
102
RTVSPropertyOp4
 70
     1
102
RTVSPropertyOp5
 70
     1
102
RTVSPropertyOp6
 70
     1
102
RTVSPropertyOp7
 70
     1
102
RTVSPropertyOp8
 70
     1
102
RTVSPropertyOp9
 70
     1
102
RTVSPropertyOp10
 70
     1
102
RTVSPropertyOp11
 70
     1
102
RTVSPropertyOp12
 70
     1
102
RTVSPropertyOp13
 70
     1
102
RTVSPropertyOp14
 70
     1
102
RTVSPropertyOp15
 70
     1
102
RTVSPropertyOp16
 70
     1
102
RTVSPropertyOp17
 70
     1
102
RTVSPropertyOp18
 70
     1
102
RTVSPropertyOp19
 70
     1
102
RTVSPropertyOp20
 70
     1
102
RTVSPropertyOp21
 70
     1
102
RTVSPropertyOp22
 70
     1
102
RTVSPropertyOp23
 70
     1
102
RTVSPropertyOp24
 70
     1
102
RTVSPropertyOp25
 70
     1
102
RTVSPropertyOp26
 70
     1
102
RTVSPropertyOp27
 70
     1
102
RTVSPropertyOp28
 70
     1
102
RTVSPropertyOp29
 70
     1
102
RTVSPropertyOp30
 70
     1
102
RTVSPropertyOp31
 70
     1
102
RTVSPropertyOp32
 70
     1
  0
XRECORD
  5
AEC
102
{ACAD_REACTORS
330
AEB
102
}
330
AEB
100
AcDbXrecord
280
     1
102
RTVSPropertyOp0
 70
     1
102
RTVSPropertyOp1
 70
     1
102
RTVSPropertyOp2
 70
     1
102
RTVSPropertyOp3
 70
     1
102
RTVSPropertyOp4
 70
     1
102
RTVSPropertyOp5
 70
     1
102
RTVSPropertyOp6
 70
     1
102
RTVSPropertyOp7
 70
     1
102
RTVSPropertyOp8
 70
     1
102
RTVSPropertyOp9
 70
     1
102
RTVSPropertyOp10
 70
     1
102
RTVSPropertyOp11
 70
     1
102
RTVSPropertyOp12
 70
     1
102
RTVSPropertyOp13
 70
     1
102
RTVSPropertyOp14
 70
     1
102
RTVSPropertyOp15
 70
     1
102
RTVSPropertyOp16
 70
     1
102
RTVSPropertyOp17
 70
     1
102
RTVSPropertyOp18
 70
     1
102
RTVSPropertyOp19
 70
     1
102
RTVSPropertyOp20
 70
     1
102
RTVSPropertyOp21
 70
     1
102
RTVSPropertyOp22
 70
     1
102
RTVSPropertyOp23
 70
     1
102
RTVSPropertyOp24
 70
     1
102
RTVSPropertyOp25
 70
     1
102
RTVSPropertyOp26
 70
     1
102
RTVSPropertyOp27
 70
     1
102
RTVSPropertyOp28
 70
     1
102
RTVSPropertyOp29
 70
     1
102
RTVSPropertyOp30
 70
     1
102
RTVSPropertyOp31
 70
     1
102
RTVSPropertyOp32
 70
     1
  0
XRECORD
  5
AF4
102
{ACAD_REACTORS
330
AF3
102
}
330
AF3
100
AcDbXrecord
280
     1
102
RTVSPropertyOp0
 70
     1
102
RTVSPropertyOp1
 70
     1
102
RTVSPropertyOp2
 70
     1
102
RTVSPropertyOp3
 70
     1
102
RTVSPropertyOp4
 70
     1
102
RTVSPropertyOp5
 70
     1
102
RTVSPropertyOp6
 70
     1
102
RTVSPropertyOp7
 70
     1
102
RTVSPropertyOp8
 70
     1
102
RTVSPropertyOp9
 70
     1
102
RTVSPropertyOp10
 70
     1
102
RTVSPropertyOp11
 70
     1
102
RTVSPropertyOp12
 70
     1
102
RTVSPropertyOp13
 70
     1
102
RTVSPropertyOp14
 70
     1
102
RTVSPropertyOp15
 70
     1
102
RTVSPropertyOp16
 70
     1
102
RTVSPropertyOp17
 70
     1
102
RTVSPropertyOp18
 70
     1
102
RTVSPropertyOp19
 70
     1
102
RTVSPropertyOp20
 70
     1
102
RTVSPropertyOp21
 70
     1
102
RTVSPropertyOp22
 70
     1
102
RTVSPropertyOp23
 70
     1
102
RTVSPropertyOp24
 70
     1
102
RTVSPropertyOp25
 70
     1
102
RTVSPropertyOp26
 70
     1
102
RTVSPropertyOp27
 70
     1
102
RTVSPropertyOp28
 70
     1
102
RTVSPropertyOp29
 70
     1
102
RTVSPropertyOp30
 70
     1
102
RTVSPropertyOp31
 70
     1
102
RTVSPropertyOp32
 70
     1
  0
XRECORD
  5
AE6
102
{ACAD_REACTORS
330
AE5
102
}
330
AE5
100
AcDbXrecord
280
     1
102
RTVSPropertyOp0
 70
     1
102
RTVSPropertyOp1
 70
     1
102
RTVSPropertyOp2
 70
     1
102
RTVSPropertyOp3
 70
     1
102
RTVSPropertyOp4
 70
     1
102
RTVSPropertyOp5
 70
     1
102
RTVSPropertyOp6
 70
     1
102
RTVSPropertyOp7
 70
     1
102
RTVSPropertyOp8
 70
     1
102
RTVSPropertyOp9
 70
     1
102
RTVSPropertyOp10
 70
     1
102
RTVSPropertyOp11
 70
     1
102
RTVSPropertyOp12
 70
     1
102
RTVSPropertyOp13
 70
     1
102
RTVSPropertyOp14
 70
     1
102
RTVSPropertyOp15
 70
     1
102
RTVSPropertyOp16
 70
     1
102
RTVSPropertyOp17
 70
     1
102
RTVSPropertyOp18
 70
     1
102
RTVSPropertyOp19
 70
     1
102
RTVSPropertyOp20
 70
     1
102
RTVSPropertyOp21
 70
     1
102
RTVSPropertyOp22
 70
     1
102
RTVSPropertyOp23
 70
     1
102
RTVSPropertyOp24
 70
     1
102
RTVSPropertyOp25
 70
     1
102
RTVSPropertyOp26
 70
     1
102
RTVSPropertyOp27
 70
     1
102
RTVSPropertyOp28
 70
     1
102
RTVSPropertyOp29
 70
     1
102
RTVSPropertyOp30
 70
     1
102
RTVSPropertyOp31
 70
     1
102
RTVSPropertyOp32
 70
     1
  0
XRECORD
  5
AEA
102
{ACAD_REACTORS
330
AE9
102
}
330
AE9
100
AcDbXrecord
280
     1
102
RTVSPropertyOp0
 70
     1
102
RTVSPropertyOp1
 70
     1
102
RTVSPropertyOp2
 70
     1
102
RTVSPropertyOp3
 70
     1
102
RTVSPropertyOp4
 70
     1
102
RTVSPropertyOp5
 70
     1
102
RTVSPropertyOp6
 70
     1
102
RTVSPropertyOp7
 70
     1
102
RTVSPropertyOp8
 70
     1
102
RTVSPropertyOp9
 70
     1
102
RTVSPropertyOp10
 70
     1
102
RTVSPropertyOp11
 70
     1
102
RTVSPropertyOp12
 70
     1
102
RTVSPropertyOp13
 70
     1
102
RTVSPropertyOp14
 70
     1
102
RTVSPropertyOp15
 70
     1
102
RTVSPropertyOp16
 70
     1
102
RTVSPropertyOp17
 70
     1
102
RTVSPropertyOp18
 70
     1
102
RTVSPropertyOp19
 70
     1
102
RTVSPropertyOp20
 70
     1
102
RTVSPropertyOp21
 70
     1
102
RTVSPropertyOp22
 70
     1
102
RTVSPropertyOp23
 70
     1
102
RTVSPropertyOp24
 70
     1
102
RTVSPropertyOp25
 70
     1
102
RTVSPropertyOp26
 70
     1
102
RTVSPropertyOp27
 70
     1
102
RTVSPropertyOp28
 70
     1
102
RTVSPropertyOp29
 70
     1
102
RTVSPropertyOp30
 70
     1
102
RTVSPropertyOp31
 70
     1
102
RTVSPropertyOp32
 70
     1
  0
XRECORD
  5
B04
102
{ACAD_REACTORS
330
B03
102
}
330
B03
100
AcDbXrecord
280
     1
102
RTVSPropertyOp0
 70
     0
102
RTVSPropertyOp1
 70
     0
102
RTVSPropertyOp2
 70
     0
102
RTVSPropertyOp3
 70
     0
102
RTVSPropertyOp4
 70
     0
102
RTVSPropertyOp5
 70
     0
102
RTVSPropertyOp6
 70
     0
102
RTVSPropertyOp7
 70
     0
102
RTVSPropertyOp8
 70
     0
102
RTVSPropertyOp9
 70
     0
102
RTVSPropertyOp10
 70
     0
102
RTVSPropertyOp11
 70
     0
102
RTVSPropertyOp12
 70
     0
102
RTVSPropertyOp13
 70
     0
102
RTVSPropertyOp14
 70
     2
102
RTVSPropertyOp15
 70
     0
102
RTVSPropertyOp16
 70
     0
102
RTVSPropertyOp17
 70
     0
102
RTVSPropertyOp18
 70
     0
102
RTVSPropertyOp19
 70
     0
102
RTVSPropertyOp20
 70
     0
102
RTVSPropertyOp21
 70
     0
102
RTVSPropertyOp22
 70
     0
102
RTVSPropertyOp23
 70
     0
102
RTVSPropertyOp24
 70
     0
102
RTVSPropertyOp25
 70
     0
102
RTVSPropertyOp26
 70
     0
102
RTVSPropertyOp27
 70
     0
102
RTVSPropertyOp28
 70
     0
102
RTVSPropertyOp29
 70
     0
102
RTVSPropertyOp30
 70
     0
102
RTVSPropertyOp31
 70
     0
102
RTVSPropertyOp32
 70
     0
  0
XRECORD
  5
AF2
102
{ACAD_REACTORS
330
AF1
102
}
330
AF1
100
AcDbXrecord
280
     1
102
RTVSPropertyOp0
 70
     1
102
RTVSPropertyOp1
 70
     1
102
RTVSPropertyOp2
 70
     1
102
RTVSPropertyOp3
 70
     1
102
RTVSPropertyOp4
 70
     1
102
RTVSPropertyOp5
 70
     1
102
RTVSPropertyOp6
 70
     1
102
RTVSPropertyOp7
 70
     1
102
RTVSPropertyOp8
 70
     1
102
RTVSPropertyOp9
 70
     1
102
RTVSPropertyOp10
 70
     1
102
RTVSPropertyOp11
 70
     1
102
RTVSPropertyOp12
 70
     1
102
RTVSPropertyOp13
 70
     1
102
RTVSPropertyOp14
 70
     1
102
RTVSPropertyOp15
 70
     1
102
RTVSPropertyOp16
 70
     1
102
RTVSPropertyOp17
 70
     1
102
RTVSPropertyOp18
 70
     1
102
RTVSPropertyOp19
 70
     1
102
RTVSPropertyOp20
 70
     1
102
RTVSPropertyOp21
 70
     1
102
RTVSPropertyOp22
 70
     1
102
RTVSPropertyOp23
 70
     1
102
RTVSPropertyOp24
 70
     1
102
RTVSPropertyOp25
 70
     1
102
RTVSPropertyOp26
 70
     1
102
RTVSPropertyOp27
 70
     1
102
RTVSPropertyOp28
 70
     1
102
RTVSPropertyOp29
 70
     1
102
RTVSPropertyOp30
 70
     1
102
RTVSPropertyOp31
 70
     1
102
RTVSPropertyOp32
 70
     1
  0
XRECORD
  5
AD6
102
{ACAD_REACTORS
330
AD5
102
}
330
AD5
100
AcDbXrecord
280
     1
102
RTVSPropertyOp0
 70
     1
102
RTVSPropertyOp1
 70
     1
102
RTVSPropertyOp2
 70
     1
102
RTVSPropertyOp3
 70
     1
102
RTVSPropertyOp4
 70
     1
102
RTVSPropertyOp5
 70
     1
102
RTVSPropertyOp6
 70
     1
102
RTVSPropertyOp7
 70
     1
102
RTVSPropertyOp8
 70
     1
102
RTVSPropertyOp9
 70
     1
102
RTVSPropertyOp10
 70
     1
102
RTVSPropertyOp11
 70
     1
102
RTVSPropertyOp12
 70
     1
102
RTVSPropertyOp13
 70
     1
102
RTVSPropertyOp14
 70
     1
102
RTVSPropertyOp15
 70
     1
102
RTVSPropertyOp16
 70
     1
102
RTVSPropertyOp17
 70
     1
102
RTVSPropertyOp18
 70
     1
102
RTVSPropertyOp19
 70
     1
102
RTVSPropertyOp20
 70
     1
102
RTVSPropertyOp21
 70
     1
102
RTVSPropertyOp22
 70
     1
102
RTVSPropertyOp23
 70
     1
102
RTVSPropertyOp24
 70
     1
102
RTVSPropertyOp25
 70
     1
102
RTVSPropertyOp26
 70
     1
102
RTVSPropertyOp27
 70
     1
102
RTVSPropertyOp28
 70
     1
102
RTVSPropertyOp29
 70
     1
102
RTVSPropertyOp30
 70
     1
102
RTVSPropertyOp31
 70
     1
102
RTVSPropertyOp32
 70
     1
  0
XRECORD
  5
AD8
102
{ACAD_REACTORS
330
AD7
102
}
330
AD7
100
AcDbXrecord
280
     1
102
RTVSPropertyOp0
 70
     1
102
RTVSPropertyOp1
 70
     1
102
RTVSPropertyOp2
 70
     1
102
RTVSPropertyOp3
 70
     1
102
RTVSPropertyOp4
 70
     1
102
RTVSPropertyOp5
 70
     1
102
RTVSPropertyOp6
 70
     1
102
RTVSPropertyOp7
 70
     1
102
RTVSPropertyOp8
 70
     1
102
RTVSPropertyOp9
 70
     1
102
RTVSPropertyOp10
 70
     1
102
RTVSPropertyOp11
 70
     1
102
RTVSPropertyOp12
 70
     1
102
RTVSPropertyOp13
 70
     1
102
RTVSPropertyOp14
 70
     1
102
RTVSPropertyOp15
 70
     1
102
RTVSPropertyOp16
 70
     1
102
RTVSPropertyOp17
 70
     1
102
RTVSPropertyOp18
 70
     1
102
RTVSPropertyOp19
 70
     1
102
RTVSPropertyOp20
 70
     1
102
RTVSPropertyOp21
 70
     1
102
RTVSPropertyOp22
 70
     1
102
RTVSPropertyOp23
 70
     1
102
RTVSPropertyOp24
 70
     1
102
RTVSPropertyOp25
 70
     1
102
RTVSPropertyOp26
 70
     1
102
RTVSPropertyOp27
 70
     1
102
RTVSPropertyOp28
 70
     1
102
RTVSPropertyOp29
 70
     1
102
RTVSPropertyOp30
 70
     1
102
RTVSPropertyOp31
 70
     1
102
RTVSPropertyOp32
 70
     1
  0
XRECORD
  5
ADA
102
{ACAD_REACTORS
330
AD9
102
}
330
AD9
100
AcDbXrecord
280
     1
102
RTVSPropertyOp0
 70
     1
102
RTVSPropertyOp1
 70
     1
102
RTVSPropertyOp2
 70
     1
102
RTVSPropertyOp3
 70
     1
102
RTVSPropertyOp4
 70
     1
102
RTVSPropertyOp5
 70
     1
102
RTVSPropertyOp6
 70
     1
102
RTVSPropertyOp7
 70
     1
102
RTVSPropertyOp8
 70
     1
102
RTVSPropertyOp9
 70
     1
102
RTVSPropertyOp10
 70
     1
102
RTVSPropertyOp11
 70
     1
102
RTVSPropertyOp12
 70
     1
102
RTVSPropertyOp13
 70
     1
102
RTVSPropertyOp14
 70
     1
102
RTVSPropertyOp15
 70
     1
102
RTVSPropertyOp16
 70
     1
102
RTVSPropertyOp17
 70
     1
102
RTVSPropertyOp18
 70
     1
102
RTVSPropertyOp19
 70
     1
102
RTVSPropertyOp20
 70
     1
102
RTVSPropertyOp21
 70
     1
102
RTVSPropertyOp22
 70
     1
102
RTVSPropertyOp23
 70
     1
102
RTVSPropertyOp24
 70
     1
102
RTVSPropertyOp25
 70
     1
102
RTVSPropertyOp26
 70
     1
102
RTVSPropertyOp27
 70
     1
102
RTVSPropertyOp28
 70
     1
102
RTVSPropertyOp29
 70
     1
102
RTVSPropertyOp30
 70
     1
102
RTVSPropertyOp31
 70
     1
102
RTVSPropertyOp32
 70
     1
  0
XRECORD
  5
ADC
102
{ACAD_REACTORS
330
ADB
102
}
330
ADB
100
AcDbXrecord
280
     1
102
RTVSPropertyOp0
 70
     1
102
RTVSPropertyOp1
 70
     1
102
RTVSPropertyOp2
 70
     1
102
RTVSPropertyOp3
 70
     1
102
RTVSPropertyOp4
 70
     1
102
RTVSPropertyOp5
 70
     1
102
RTVSPropertyOp6
 70
     1
102
RTVSPropertyOp7
 70
     1
102
RTVSPropertyOp8
 70
     1
102
RTVSPropertyOp9
 70
     1
102
RTVSPropertyOp10
 70
     1
102
RTVSPropertyOp11
 70
     1
102
RTVSPropertyOp12
 70
     1
102
RTVSPropertyOp13
 70
     1
102
RTVSPropertyOp14
 70
     1
102
RTVSPropertyOp15
 70
     1
102
RTVSPropertyOp16
 70
     1
102
RTVSPropertyOp17
 70
     1
102
RTVSPropertyOp18
 70
     1
102
RTVSPropertyOp19
 70
     1
102
RTVSPropertyOp20
 70
     1
102
RTVSPropertyOp21
 70
     1
102
RTVSPropertyOp22
 70
     1
102
RTVSPropertyOp23
 70
     1
102
RTVSPropertyOp24
 70
     1
102
RTVSPropertyOp25
 70
     1
102
RTVSPropertyOp26
 70
     1
102
RTVSPropertyOp27
 70
     1
102
RTVSPropertyOp28
 70
     1
102
RTVSPropertyOp29
 70
     1
102
RTVSPropertyOp30
 70
     1
102
RTVSPropertyOp31
 70
     1
102
RTVSPropertyOp32
 70
     1
  0
XRECORD
  5
AE4
102
{ACAD_REACTORS
330
AE3
102
}
330
AE3
100
AcDbXrecord
280
     1
102
RTVSPropertyOp0
 70
     1
102
RTVSPropertyOp1
 70
     1
102
RTVSPropertyOp2
 70
     1
102
RTVSPropertyOp3
 70
     1
102
RTVSPropertyOp4
 70
     1
102
RTVSPropertyOp5
 70
     1
102
RTVSPropertyOp6
 70
     1
102
RTVSPropertyOp7
 70
     1
102
RTVSPropertyOp8
 70
     1
102
RTVSPropertyOp9
 70
     1
102
RTVSPropertyOp10
 70
     1
102
RTVSPropertyOp11
 70
     1
102
RTVSPropertyOp12
 70
     1
102
RTVSPropertyOp13
 70
     1
102
RTVSPropertyOp14
 70
     1
102
RTVSPropertyOp15
 70
     1
102
RTVSPropertyOp16
 70
     1
102
RTVSPropertyOp17
 70
     1
102
RTVSPropertyOp18
 70
     1
102
RTVSPropertyOp19
 70
     1
102
RTVSPropertyOp20
 70
     1
102
RTVSPropertyOp21
 70
     1
102
RTVSPropertyOp22
 70
     1
102
RTVSPropertyOp23
 70
     1
102
RTVSPropertyOp24
 70
     1
102
RTVSPropertyOp25
 70
     1
102
RTVSPropertyOp26
 70
     1
102
RTVSPropertyOp27
 70
     1
102
RTVSPropertyOp28
 70
     1
102
RTVSPropertyOp29
 70
     1
102
RTVSPropertyOp30
 70
     1
102
RTVSPropertyOp31
 70
     1
102
RTVSPropertyOp32
 70
     1
  0
XRECORD
  5
B00
102
{ACAD_REACTORS
330
AFF
102
}
330
AFF
100
AcDbXrecord
280
     1
102
RTVSPropertyOp0
 70
     0
102
RTVSPropertyOp1
 70
     0
102
RTVSPropertyOp2
 70
     0
102
RTVSPropertyOp3
 70
     0
102
RTVSPropertyOp4
 70
     0
102
RTVSPropertyOp5
 70
     0
102
RTVSPropertyOp6
 70
     0
102
RTVSPropertyOp7
 70
     0
102
RTVSPropertyOp8
 70
     0
102
RTVSPropertyOp9
 70
     0
102
RTVSPropertyOp10
 70
     0
102
RTVSPropertyOp11
 70
     0
102
RTVSPropertyOp12
 70
     0
102
RTVSPropertyOp13
 70
     0
102
RTVSPropertyOp14
 70
     2
102
RTVSPropertyOp15
 70
     0
102
RTVSPropertyOp16
 70
     0
102
RTVSPropertyOp17
 70
     0
102
RTVSPropertyOp18
 70
     0
102
RTVSPropertyOp19
 70
     0
102
RTVSPropertyOp20
 70
     0
102
RTVSPropertyOp21
 70
     0
102
RTVSPropertyOp22
 70
     0
102
RTVSPropertyOp23
 70
     0
102
RTVSPropertyOp24
 70
     0
102
RTVSPropertyOp25
 70
     0
102
RTVSPropertyOp26
 70
     0
102
RTVSPropertyOp27
 70
     0
102
RTVSPropertyOp28
 70
     0
102
RTVSPropertyOp29
 70
     0
102
RTVSPropertyOp30
 70
     0
102
RTVSPropertyOp31
 70
     0
102
RTVSPropertyOp32
 70
     0
  0
XRECORD
  5
AF0
102
{ACAD_REACTORS
330
AEF
102
}
330
AEF
100
AcDbXrecord
280
     1
102
RTVSPropertyOp0
 70
     1
102
RTVSPropertyOp1
 70
     1
102
RTVSPropertyOp2
 70
     1
102
RTVSPropertyOp3
 70
     1
102
RTVSPropertyOp4
 70
     1
102
RTVSPropertyOp5
 70
     1
102
RTVSPropertyOp6
 70
     1
102
RTVSPropertyOp7
 70
     1
102
RTVSPropertyOp8
 70
     1
102
RTVSPropertyOp9
 70
     1
102
RTVSPropertyOp10
 70
     1
102
RTVSPropertyOp11
 70
     1
102
RTVSPropertyOp12
 70
     1
102
RTVSPropertyOp13
 70
     1
102
RTVSPropertyOp14
 70
     1
102
RTVSPropertyOp15
 70
     1
102
RTVSPropertyOp16
 70
     1
102
RTVSPropertyOp17
 70
     1
102
RTVSPropertyOp18
 70
     1
102
RTVSPropertyOp19
 70
     1
102
RTVSPropertyOp20
 70
     1
102
RTVSPropertyOp21
 70
     1
102
RTVSPropertyOp22
 70
     1
102
RTVSPropertyOp23
 70
     1
102
RTVSPropertyOp24
 70
     1
102
RTVSPropertyOp25
 70
     1
102
RTVSPropertyOp26
 70
     1
102
RTVSPropertyOp27
 70
     1
102
RTVSPropertyOp28
 70
     1
102
RTVSPropertyOp29
 70
     1
102
RTVSPropertyOp30
 70
     1
102
RTVSPropertyOp31
 70
     1
102
RTVSPropertyOp32
 70
     1
  0
XRECORD
  5
B02
102
{ACAD_REACTORS
330
B01
102
}
330
B01
100
AcDbXrecord
280
     1
102
RTVSPropertyOp0
 70
     0
102
RTVSPropertyOp1
 70
     0
102
RTVSPropertyOp2
 70
     0
102
RTVSPropertyOp3
 70
     0
102
RTVSPropertyOp4
 70
     0
102
RTVSPropertyOp5
 70
     0
102
RTVSPropertyOp6
 70
     0
102
RTVSPropertyOp7
 70
     0
102
RTVSPropertyOp8
 70
     0
102
RTVSPropertyOp9
 70
     0
102
RTVSPropertyOp10
 70
     0
102
RTVSPropertyOp11
 70
     0
102
RTVSPropertyOp12
 70
     0
102
RTVSPropertyOp13
 70
     0
102
RTVSPropertyOp14
 70
     2
102
RTVSPropertyOp15
 70
     0
102
RTVSPropertyOp16
 70
     0
102
RTVSPropertyOp17
 70
     0
102
RTVSPropertyOp18
 70
     0
102
RTVSPropertyOp19
 70
     0
102
RTVSPropertyOp20
 70
     0
102
RTVSPropertyOp21
 70
     0
102
RTVSPropertyOp22
 70
     0
102
RTVSPropertyOp23
 70
     0
102
RTVSPropertyOp24
 70
     0
102
RTVSPropertyOp25
 70
     0
102
RTVSPropertyOp26
 70
     0
102
RTVSPropertyOp27
 70
     0
102
RTVSPropertyOp28
 70
     0
102
RTVSPropertyOp29
 70
     0
102
RTVSPropertyOp30
 70
     0
102
RTVSPropertyOp31
 70
     0
102
RTVSPropertyOp32
 70
     0
  0
XRECORD
  5
AE8
102
{ACAD_REACTORS
330
AE7
102
}
330
AE7
100
AcDbXrecord
280
     1
102
RTVSPropertyOp0
 70
     1
102
RTVSPropertyOp1
 70
     1
102
RTVSPropertyOp2
 70
     1
102
RTVSPropertyOp3
 70
     1
102
RTVSPropertyOp4
 70
     1
102
RTVSPropertyOp5
 70
     1
102
RTVSPropertyOp6
 70
     1
102
RTVSPropertyOp7
 70
     1
102
RTVSPropertyOp8
 70
     1
102
RTVSPropertyOp9
 70
     1
102
RTVSPropertyOp10
 70
     1
102
RTVSPropertyOp11
 70
     1
102
RTVSPropertyOp12
 70
     1
102
RTVSPropertyOp13
 70
     1
102
RTVSPropertyOp14
 70
     1
102
RTVSPropertyOp15
 70
     1
102
RTVSPropertyOp16
 70
     1
102
RTVSPropertyOp17
 70
     1
102
RTVSPropertyOp18
 70
     1
102
RTVSPropertyOp19
 70
     1
102
RTVSPropertyOp20
 70
     1
102
RTVSPropertyOp21
 70
     1
102
RTVSPropertyOp22
 70
     1
102
RTVSPropertyOp23
 70
     1
102
RTVSPropertyOp24
 70
     1
102
RTVSPropertyOp25
 70
     1
102
RTVSPropertyOp26
 70
     1
102
RTVSPropertyOp27
 70
     1
102
RTVSPropertyOp28
 70
     1
102
RTVSPropertyOp29
 70
     1
102
RTVSPropertyOp30
 70
     1
102
RTVSPropertyOp31
 70
     1
102
RTVSPropertyOp32
 70
     1
  0
XRECORD
  5
AFE
102
{ACAD_REACTORS
330
AFD
102
}
330
AFD
100
AcDbXrecord
280
     1
102
RTVSPropertyOp0
 70
     1
102
RTVSPropertyOp1
 70
     1
102
RTVSPropertyOp2
 70
     1
102
RTVSPropertyOp3
 70
     1
102
RTVSPropertyOp4
 70
     1
102
RTVSPropertyOp5
 70
     1
102
RTVSPropertyOp6
 70
     1
102
RTVSPropertyOp7
 70
     1
102
RTVSPropertyOp8
 70
     1
102
RTVSPropertyOp9
 70
     1
102
RTVSPropertyOp10
 70
     1
102
RTVSPropertyOp11
 70
     1
102
RTVSPropertyOp12
 70
     1
102
RTVSPropertyOp13
 70
     1
102
RTVSPropertyOp14
 70
     1
102
RTVSPropertyOp15
 70
     1
102
RTVSPropertyOp16
 70
     1
102
RTVSPropertyOp17
 70
     1
102
RTVSPropertyOp18
 70
     1
102
RTVSPropertyOp19
 70
     1
102
RTVSPropertyOp20
 70
     1
102
RTVSPropertyOp21
 70
     1
102
RTVSPropertyOp22
 70
     1
102
RTVSPropertyOp23
 70
     1
102
RTVSPropertyOp24
 70
     1
102
RTVSPropertyOp25
 70
     1
102
RTVSPropertyOp26
 70
     1
102
RTVSPropertyOp27
 70
     1
102
RTVSPropertyOp28
 70
     1
102
RTVSPropertyOp29
 70
     1
102
RTVSPropertyOp30
 70
     1
102
RTVSPropertyOp31
 70
     1
102
RTVSPropertyOp32
 70
     1
  0
XRECORD
  5
AFC
102
{ACAD_REACTORS
330
AFB
102
}
330
AFB
100
AcDbXrecord
280
     1
102
RTVSPropertyOp0
 70
     1
102
RTVSPropertyOp1
 70
     1
102
RTVSPropertyOp2
 70
     1
102
RTVSPropertyOp3
 70
     1
102
RTVSPropertyOp4
 70
     1
102
RTVSPropertyOp5
 70
     1
102
RTVSPropertyOp6
 70
     1
102
RTVSPropertyOp7
 70
     1
102
RTVSPropertyOp8
 70
     1
102
RTVSPropertyOp9
 70
     1
102
RTVSPropertyOp10
 70
     1
102
RTVSPropertyOp11
 70
     1
102
RTVSPropertyOp12
 70
     1
102
RTVSPropertyOp13
 70
     1
102
RTVSPropertyOp14
 70
     1
102
RTVSPropertyOp15
 70
     1
102
RTVSPropertyOp16
 70
     1
102
RTVSPropertyOp17
 70
     1
102
RTVSPropertyOp18
 70
     1
102
RTVSPropertyOp19
 70
     1
102
RTVSPropertyOp20
 70
     1
102
RTVSPropertyOp21
 70
     1
102
RTVSPropertyOp22
 70
     1
102
RTVSPropertyOp23
 70
     1
102
RTVSPropertyOp24
 70
     1
102
RTVSPropertyOp25
 70
     1
102
RTVSPropertyOp26
 70
     1
102
RTVSPropertyOp27
 70
     1
102
RTVSPropertyOp28
 70
     1
102
RTVSPropertyOp29
 70
     1
102
RTVSPropertyOp30
 70
     1
102
RTVSPropertyOp31
 70
     1
102
RTVSPropertyOp32
 70
     1
  0
XRECORD
  5
AF6
102
{ACAD_REACTORS
330
AF5
102
}
330
AF5
100
AcDbXrecord
280
     1
102
RTVSPropertyOp0
 70
     1
102
RTVSPropertyOp1
 70
     1
102
RTVSPropertyOp2
 70
     1
102
RTVSPropertyOp3
 70
     1
102
RTVSPropertyOp4
 70
     1
102
RTVSPropertyOp5
 70
     1
102
RTVSPropertyOp6
 70
     1
102
RTVSPropertyOp7
 70
     1
102
RTVSPropertyOp8
 70
     1
102
RTVSPropertyOp9
 70
     1
102
RTVSPropertyOp10
 70
     1
102
RTVSPropertyOp11
 70
     1
102
RTVSPropertyOp12
 70
     1
102
RTVSPropertyOp13
 70
     1
102
RTVSPropertyOp14
 70
     1
102
RTVSPropertyOp15
 70
     1
102
RTVSPropertyOp16
 70
     1
102
RTVSPropertyOp17
 70
     1
102
RTVSPropertyOp18
 70
     1
102
RTVSPropertyOp19
 70
     1
102
RTVSPropertyOp20
 70
     1
102
RTVSPropertyOp21
 70
     1
102
RTVSPropertyOp22
 70
     1
102
RTVSPropertyOp23
 70
     1
102
RTVSPropertyOp24
 70
     1
102
RTVSPropertyOp25
 70
     1
102
RTVSPropertyOp26
 70
     1
102
RTVSPropertyOp27
 70
     1
102
RTVSPropertyOp28
 70
     1
102
RTVSPropertyOp29
 70
     1
102
RTVSPropertyOp30
 70
     1
102
RTVSPropertyOp31
 70
     1
102
RTVSPropertyOp32
 70
     1
  0
XRECORD
  5
AF8
102
{ACAD_REACTORS
330
AF7
102
}
330
AF7
100
AcDbXrecord
280
     1
102
RTVSPropertyOp0
 70
     1
102
RTVSPropertyOp1
 70
     1
102
RTVSPropertyOp2
 70
     1
102
RTVSPropertyOp3
 70
     1
102
RTVSPropertyOp4
 70
     1
102
RTVSPropertyOp5
 70
     1
102
RTVSPropertyOp6
 70
     1
102
RTVSPropertyOp7
 70
     1
102
RTVSPropertyOp8
 70
     1
102
RTVSPropertyOp9
 70
     1
102
RTVSPropertyOp10
 70
     1
102
RTVSPropertyOp11
 70
     1
102
RTVSPropertyOp12
 70
     1
102
RTVSPropertyOp13
 70
     1
102
RTVSPropertyOp14
 70
     1
102
RTVSPropertyOp15
 70
     1
102
RTVSPropertyOp16
 70
     1
102
RTVSPropertyOp17
 70
     1
102
RTVSPropertyOp18
 70
     1
102
RTVSPropertyOp19
 70
     1
102
RTVSPropertyOp20
 70
     1
102
RTVSPropertyOp21
 70
     1
102
RTVSPropertyOp22
 70
     1
102
RTVSPropertyOp23
 70
     1
102
RTVSPropertyOp24
 70
     1
102
RTVSPropertyOp25
 70
     1
102
RTVSPropertyOp26
 70
     1
102
RTVSPropertyOp27
 70
     1
102
RTVSPropertyOp28
 70
     1
102
RTVSPropertyOp29
 70
     1
102
RTVSPropertyOp30
 70
     1
102
RTVSPropertyOp31
 70
     1
102
RTVSPropertyOp32
 70
     1
  0
XRECORD
  5
AEE
102
{ACAD_REACTORS
330
AED
102
}
330
AED
100
AcDbXrecord
280
     1
102
RTVSPropertyOp0
 70
     1
102
RTVSPropertyOp1
 70
     1
102
RTVSPropertyOp2
 70
     1
102
RTVSPropertyOp3
 70
     1
102
RTVSPropertyOp4
 70
     1
102
RTVSPropertyOp5
 70
     1
102
RTVSPropertyOp6
 70
     1
102
RTVSPropertyOp7
 70
     1
102
RTVSPropertyOp8
 70
     1
102
RTVSPropertyOp9
 70
     1
102
RTVSPropertyOp10
 70
     1
102
RTVSPropertyOp11
 70
     1
102
RTVSPropertyOp12
 70
     1
102
RTVSPropertyOp13
 70
     1
102
RTVSPropertyOp14
 70
     1
102
RTVSPropertyOp15
 70
     1
102
RTVSPropertyOp16
 70
     1
102
RTVSPropertyOp17
 70
     1
102
RTVSPropertyOp18
 70
     1
102
RTVSPropertyOp19
 70
     1
102
RTVSPropertyOp20
 70
     1
102
RTVSPropertyOp21
 70
     1
102
RTVSPropertyOp22
 70
     1
102
RTVSPropertyOp23
 70
     1
102
RTVSPropertyOp24
 70
     1
102
RTVSPropertyOp25
 70
     1
102
RTVSPropertyOp26
 70
     1
102
RTVSPropertyOp27
 70
     1
102
RTVSPropertyOp28
 70
     1
102
RTVSPropertyOp29
 70
     1
102
RTVSPropertyOp30
 70
     1
102
RTVSPropertyOp31
 70
     1
102
RTVSPropertyOp32
 70
     1
  0
XRECORD
  5
AE2
102
{ACAD_REACTORS
330
AE1
102
}
330
AE1
100
AcDbXrecord
280
     1
102
RTVSPropertyOp0
 70
     1
102
RTVSPropertyOp1
 70
     1
102
RTVSPropertyOp2
 70
     1
102
RTVSPropertyOp3
 70
     1
102
RTVSPropertyOp4
 70
     1
102
RTVSPropertyOp5
 70
     1
102
RTVSPropertyOp6
 70
     1
102
RTVSPropertyOp7
 70
     1
102
RTVSPropertyOp8
 70
     1
102
RTVSPropertyOp9
 70
     1
102
RTVSPropertyOp10
 70
     1
102
RTVSPropertyOp11
 70
     1
102
RTVSPropertyOp12
 70
     1
102
RTVSPropertyOp13
 70
     1
102
RTVSPropertyOp14
 70
     1
102
RTVSPropertyOp15
 70
     1
102
RTVSPropertyOp16
 70
     1
102
RTVSPropertyOp17
 70
     1
102
RTVSPropertyOp18
 70
     1
102
RTVSPropertyOp19
 70
     1
102
RTVSPropertyOp20
 70
     1
102
RTVSPropertyOp21
 70
     1
102
RTVSPropertyOp22
 70
     1
102
RTVSPropertyOp23
 70
     1
102
RTVSPropertyOp24
 70
     1
102
RTVSPropertyOp25
 70
     1
102
RTVSPropertyOp26
 70
     1
102
RTVSPropertyOp27
 70
     1
102
RTVSPropertyOp28
 70
     1
102
RTVSPropertyOp29
 70
     1
102
RTVSPropertyOp30
 70
     1
102
RTVSPropertyOp31
 70
     1
102
RTVSPropertyOp32
 70
     1
  0
XRECORD
  5
AFA
102
{ACAD_REACTORS
330
AF9
102
}
330
AF9
100
AcDbXrecord
280
     1
102
RTVSPropertyOp0
 70
     1
102
RTVSPropertyOp1
 70
     1
102
RTVSPropertyOp2
 70
     1
102
RTVSPropertyOp3
 70
     1
102
RTVSPropertyOp4
 70
     1
102
RTVSPropertyOp5
 70
     1
102
RTVSPropertyOp6
 70
     1
102
RTVSPropertyOp7
 70
     1
102
RTVSPropertyOp8
 70
     1
102
RTVSPropertyOp9
 70
     1
102
RTVSPropertyOp10
 70
     1
102
RTVSPropertyOp11
 70
     1
102
RTVSPropertyOp12
 70
     1
102
RTVSPropertyOp13
 70
     1
102
RTVSPropertyOp14
 70
     1
102
RTVSPropertyOp15
 70
     1
102
RTVSPropertyOp16
 70
     1
102
RTVSPropertyOp17
 70
     1
102
RTVSPropertyOp18
 70
     1
102
RTVSPropertyOp19
 70
     1
102
RTVSPropertyOp20
 70
     1
102
RTVSPropertyOp21
 70
     1
102
RTVSPropertyOp22
 70
     1
102
RTVSPropertyOp23
 70
     1
102
RTVSPropertyOp24
 70
     1
102
RTVSPropertyOp25
 70
     1
102
RTVSPropertyOp26
 70
     1
102
RTVSPropertyOp27
 70
     1
102
RTVSPropertyOp28
 70
     1
102
RTVSPropertyOp29
 70
     1
102
RTVSPropertyOp30
 70
     1
102
RTVSPropertyOp31
 70
     1
102
RTVSPropertyOp32
 70
     1
  0
ENDSEC
  0
EOF
