  0
SECTION
  2
HEADER
  9
$ACADVER
  1
AC1015
  9
$ACADMAINTVER
 70
    20
  9
$DWGCODEPAGE
  3
ANSI_932
  9
$INSBASE
 10
0.0
 20
0.0
 30
0.0
  9
$EXTMIN
 10
-210.0
 20
-138.5
 30
0.0
  9
$EXTMAX
 10
195.0
 20
138.5
 30
0.0
  9
$LIMMIN
 10
-210.001
 20
-138.501
  9
$LIMMAX
 10
195.0009999999999
 20
138.501
  9
$ORTHOMODE
 70
     1
  9
$REGENMODE
 70
     1
  9
$FILLMODE
 70
     1
  9
$QTEXTMODE
 70
     0
  9
$MIRRTEXT
 70
     0
  9
$LTSCALE
 40
6.75
  9
$ATTMODE
 70
     1
  9
$TEXTSIZE
 40
3.2
  9
$TRACEWID
 40
0.05
  9
$TEXTSTYLE
  7
高3.2
  9
$CLAYER
  8
0
  9
$CELTYPE
  6
ByLayer
  9
$CECOLOR
 62
   256
  9
$CELTSCALE
 40
1.0
  9
$DISPSILH
 70
     0
  9
$DIMSCALE
 40
1.0
  9
$DIMASZ
 40
2.5
  9
$DIMEXO
 40
0.25
  9
$DIMDLI
 40
0.2
  9
$DIMRND
 40
0.0
  9
$DIMDLE
 40
0.0
  9
$DIMEXE
 40
1.25
  9
$DIMTP
 40
0.0
  9
$DIMTM
 40
0.0
  9
$DIMTXT
 40
3.0
  9
$DIMCEN
 40
0.0
  9
$DIMTSZ
 40
0.0
  9
$DIMTOL
 70
     0
  9
$DIMLIM
 70
     0
  9
$DIMTIH
 70
     0
  9
$DIMTOH
 70
     0
  9
$DIMSE1
 70
     0
  9
$DIMSE2
 70
     0
  9
$DIMTAD
 70
     3
  9
$DIMZIN
 70
     8
  9
$DIMBLK
  1
Open30
  9
$DIMASO
 70
     1
  9
$DIMSHO
 70
     1
  9
$DIMPOST
  1

  9
$DIMAPOST
  1

  9
$DIMALT
 70
     0
  9
$DIMALTD
 70
     3
  9
$DIMALTF
 40
0.03937007874016
  9
$DIMLFAC
 40
1.0
  9
$DIMTOFL
 70
     1
  9
$DIMTVP
 40
0.0
  9
$DIMTIX
 70
     0
  9
$DIMSOXD
 70
     0
  9
$DIMSAH
 70
     0
  9
$DIMBLK1
  1

  9
$DIMBLK2
  1

  9
$DIMSTYLE
  2
FREE
  9
$DIMCLRD
 70
     0
  9
$DIMCLRE
 70
     0
  9
$DIMCLRT
 70
     4
  9
$DIMTFAC
 40
1.0
  9
$DIMGAP
 40
0.625
  9
$DIMJUST
 70
     0
  9
$DIMSD1
 70
     0
  9
$DIMSD2
 70
     0
  9
$DIMTOLJ
 70
     0
  9
$DIMTZIN
 70
     8
  9
$DIMALTZ
 70
     0
  9
$DIMALTTZ
 70
     0
  9
$DIMUPT
 70
     1
  9
$DIMDEC
 70
     2
  9
$DIMTDEC
 70
     2
  9
$DIMALTU
 70
     2
  9
$DIMALTTD
 70
     3
  9
$DIMTXSTY
  7
STANDARD
  9
$DIMAUNIT
 70
     0
  9
$DIMADEC
 70
     1
  9
$DIMALTRND
 40
0.0
  9
$DIMAZIN
 70
     2
  9
$DIMDSEP
 70
    46
  9
$DIMATFIT
 70
     0
  9
$DIMFRAC
 70
     0
  9
$DIMLDRBLK
  1
Open30
  9
$DIMLUNIT
 70
     2
  9
$DIMLWD
 70
    -2
  9
$DIMLWE
 70
    -2
  9
$DIMTMOVE
 70
     0
  9
$LUNITS
 70
     2
  9
$LUPREC
 70
     4
  9
$SKETCHINC
 40
0.1
  9
$FILLETRAD
 40
0.0
  9
$AUNITS
 70
     0
  9
$AUPREC
 70
     0
  9
$MENU
  1
.
  9
$ELEVATION
 40
0.0
  9
$PELEVATION
 40
0.0
  9
$THICKNESS
 40
0.0
  9
$LIMCHECK
 70
     0
  9
$CHAMFERA
 40
0.0
  9
$CHAMFERB
 40
0.0
  9
$CHAMFERC
 40
0.0
  9
$CHAMFERD
 40
0.0
  9
$SKPOLY
 70
     0
  9
$TDCREATE
 40
2456346.494181273
  9
$TDUCREATE
 40
2456346.119181273
  9
$TDUPDATE
 40
2459893.543567327
  9
$TDUUPDATE
 40
2459893.168567326
  9
$TDINDWG
 40
0.1480853935
  9
$TDUSRTIMER
 40
0.1480785185
  9
$USRTIMER
 70
     1
  9
$ANGBASE
 50
0.0
  9
$ANGDIR
 70
     0
  9
$PDMODE
 70
     0
  9
$PDSIZE
 40
0.0
  9
$PLINEWID
 40
0.0
  9
$SPLFRAME
 70
     0
  9
$SPLINETYPE
 70
     6
  9
$SPLINESEGS
 70
     8
  9
$HANDSEED
  5
AF0
  9
$SURFTAB1
 70
     6
  9
$SURFTAB2
 70
     6
  9
$SURFTYPE
 70
     6
  9
$SURFU
 70
     6
  9
$SURFV
 70
     6
  9
$UCSBASE
  2

  9
$UCSNAME
  2

  9
$UCSORG
 10
0.0
 20
0.0
 30
0.0
  9
$UCSXDIR
 10
1.0
 20
0.0
 30
0.0
  9
$UCSYDIR
 10
0.0
 20
1.0
 30
0.0
  9
$UCSORTHOREF
  2

  9
$UCSORTHOVIEW
 70
     0
  9
$UCSORGTOP
 10
0.0
 20
0.0
 30
0.0
  9
$UCSORGBOTTOM
 10
0.0
 20
0.0
 30
0.0
  9
$UCSORGLEFT
 10
0.0
 20
0.0
 30
0.0
  9
$UCSORGRIGHT
 10
0.0
 20
0.0
 30
0.0
  9
$UCSORGFRONT
 10
0.0
 20
0.0
 30
0.0
  9
$UCSORGBACK
 10
0.0
 20
0.0
 30
0.0
  9
$PUCSBASE
  2

  9
$PUCSNAME
  2

  9
$PUCSORG
 10
0.0
 20
0.0
 30
0.0
  9
$PUCSXDIR
 10
1.0
 20
0.0
 30
0.0
  9
$PUCSYDIR
 10
0.0
 20
1.0
 30
0.0
  9
$PUCSORTHOREF
  2

  9
$PUCSORTHOVIEW
 70
     0
  9
$PUCSORGTOP
 10
0.0
 20
0.0
 30
0.0
  9
$PUCSORGBOTTOM
 10
0.0
 20
0.0
 30
0.0
  9
$PUCSORGLEFT
 10
0.0
 20
0.0
 30
0.0
  9
$PUCSORGRIGHT
 10
0.0
 20
0.0
 30
0.0
  9
$PUCSORGFRONT
 10
0.0
 20
0.0
 30
0.0
  9
$PUCSORGBACK
 10
0.0
 20
0.0
 30
0.0
  9
$USERI1
 70
     0
  9
$USERI2
 70
     0
  9
$USERI3
 70
     0
  9
$USERI4
 70
     0
  9
$USERI5
 70
     0
  9
$USERR1
 40
0.0
  9
$USERR2
 40
0.0
  9
$USERR3
 40
0.0
  9
$USERR4
 40
0.0
  9
$USERR5
 40
0.0
  9
$WORLDVIEW
 70
     1
  9
$SHADEDGE
 70
     3
  9
$SHADEDIF
 70
    70
  9
$TILEMODE
 70
     1
  9
$MAXACTVP
 70
    64
  9
$PINSBASE
 10
0.0
 20
0.0
 30
0.0
  9
$PLIMCHECK
 70
     0
  9
$PEXTMIN
 10
1.000000000000000E+20
 20
1.000000000000000E+20
 30
1.000000000000000E+20
  9
$PEXTMAX
 10
-1.000000000000000E+20
 20
-1.000000000000000E+20
 30
-1.000000000000000E+20
  9
$PLIMMIN
 10
0.0
 20
0.0
  9
$PLIMMAX
 10
12.0
 20
9.0
  9
$UNITMODE
 70
     0
  9
$VISRETAIN
 70
     1
  9
$PLINEGEN
 70
     0
  9
$PSLTSCALE
 70
     1
  9
$TREEDEPTH
 70
  3020
  9
$CMLSTYLE
  2
Standard
  9
$CMLJUST
 70
     0
  9
$CMLSCALE
 40
1.0
  9
$PROXYGRAPHICS
 70
     1
  9
$MEASUREMENT
 70
     0
  9
$CELWEIGHT
370
    -1
  9
$ENDCAPS
280
     0
  9
$JOINSTYLE
280
     0
  9
$LWDISPLAY
290
     0
  9
$INSUNITS
 70
     0
  9
$HYPERLINKBASE
  1

  9
$STYLESHEET
  1
N-PLOT.CTB
  9
$XEDIT
290
     1
  9
$CEPSNTYPE
380
     0
  9
$PSTYLEMODE
290
     1
  9
$FINGERPRINTGUID
  2
{1A34AD50-B9BE-48D6-A651-BC30A7D33E02}
  9
$VERSIONGUID
  2
{D308E961-E8D1-4C5B-B04F-D55D91CAA38A}
  9
$EXTNAMES
290
     1
  9
$PSVPSCALE
 40
0.0
  9
$OLESTARTUP
290
     0
  0
ENDSEC
  0
SECTION
  2
CLASSES
  0
CLASS
  1
ACDBDICTIONARYWDFLT
  2
AcDbDictionaryWithDefault
  3
ObjectDBX Classes
 90
        0
280
     0
281
     0
  0
CLASS
  1
MATERIAL
  2
AcDbMaterial
  3
ObjectDBX Classes
 90
     1153
280
     0
281
     0
  0
CLASS
  1
VISUALSTYLE
  2
AcDbVisualStyle
  3
ObjectDBX Classes
 90
     4095
280
     0
281
     0
  0
CLASS
  1
SCALE
  2
AcDbScale
  3
ObjectDBX Classes
 90
     1153
280
     0
281
     0
  0
CLASS
  1
TABLESTYLE
  2
AcDbTableStyle
  3
ObjectDBX Classes
 90
     4095
280
     0
281
     0
  0
CLASS
  1
MLEADERSTYLE
  2
AcDbMLeaderStyle
  3
ACDB_MLEADERSTYLE_CLASS
 90
     4095
280
     0
281
     0
  0
CLASS
  1
SORTENTSTABLE
  2
AcDbSortentsTable
  3
ObjectDBX Classes
 90
        0
280
     0
281
     0
  0
CLASS
  1
DICTIONARYVAR
  2
AcDbDictionaryVar
  3
ObjectDBX Classes
 90
        0
280
     0
281
     0
  0
CLASS
  1
CELLSTYLEMAP
  2
AcDbCellStyleMap
  3
ObjectDBX Classes
 90
     1152
280
     0
281
     0
  0
CLASS
  1
ACDBPLACEHOLDER
  2
AcDbPlaceHolder
  3
ObjectDBX Classes
 90
        0
280
     0
281
     0
  0
CLASS
  1
LAYOUT
  2
AcDbLayout
  3
ObjectDBX Classes
 90
        0
280
     0
281
     0
  0
ENDSEC
  0
SECTION
  2
TABLES
  0
TABLE
  2
VPORT
  5
8
330
0
100
AcDbSymbolTable
 70
     1
  0
VPORT
  5
8B
330
8
100
AcDbSymbolTableRecord
100
AcDbViewportTableRecord
  2
*Active
 70
     0
 10
0.0
 20
0.0
 11
1.0
 21
1.0
 12
20.50411925262006
 22
-7.045170886801258
 13
0.0
 23
0.0
 14
1.0
 24
1.0
 15
0.0
 25
0.0
 16
0.0
 26
0.0
 36
1.0
 17
0.0
 27
0.0
 37
0.0
 40
461.0734925360739
 41
1.431309904153354
 42
50.0
 43
0.0
 44
0.0
 50
0.0
 51
0.0
 71
     0
 72
   100
 73
     1
 74
     1
 75
     0
 76
     0
 77
     0
 78
     0
281
     0
 65
     1
110
0.0
120
0.0
130
0.0
111
1.0
121
0.0
131
0.0
112
0.0
122
1.0
132
0.0
 79
     0
146
0.0
  0
ENDTAB
  0
TABLE
  2
LTYPE
  5
5
330
0
100
AcDbSymbolTable
 70
     1
  0
LTYPE
  5
5A
330
5
100
AcDbSymbolTableRecord
100
AcDbLinetypeTableRecord
  2
ByBlock
 70
     0
  3

 72
    65
 73
     0
 40
0.0
  0
LTYPE
  5
5B
330
5
100
AcDbSymbolTableRecord
100
AcDbLinetypeTableRecord
  2
ByLayer
 70
     0
  3

 72
    65
 73
     0
 40
0.0
  0
LTYPE
  5
5C
330
5
100
AcDbSymbolTableRecord
100
AcDbLinetypeTableRecord
  2
CONTINUOUS
 70
     0
  3
Solid-line
 72
    65
 73
     0
 40
0.0
  0
ENDTAB
  0
TABLE
  2
LAYER
  5
2
102
{ACAD_XDICTIONARY
360
42A
102
}
330
0
100
AcDbSymbolTable
 70
     2
  0
LAYER
  5
54
102
{ACAD_XDICTIONARY
360
5EF
102
}
330
2
100
AcDbSymbolTableRecord
100
AcDbLayerTableRecord
  2
0
 70
     0
 62
     7
  6
CONTINUOUS
370
    -3
390
F
  0
LAYER
  5
413
330
2
100
AcDbSymbolTableRecord
100
AcDbLayerTableRecord
  2
Defpoints
 70
     0
 62
     7
  6
CONTINUOUS
290
     0
370
    -3
390
F
  0
ENDTAB
  0
TABLE
  2
STYLE
  5
3
330
0
100
AcDbSymbolTable
 70
     6
  0
STYLE
  5
55
330
3
100
AcDbSymbolTableRecord
100
AcDbTextStyleTableRecord
  2
STANDARD
 70
     0
 40
0.0
 41
1.0
 50
0.0
 71
     0
 42
0.2
  3
TXT
  4
BIGFONT
  0
STYLE
  5
414
330
3
100
AcDbSymbolTableRecord
100
AcDbTextStyleTableRecord
  2
高3.2
 70
     0
 40
3.2
 41
1.0
 50
0.0
 71
     0
 42
3.2
  3
txt.shx
  4
bigfont.shx
  0
STYLE
  5
415
330
3
100
AcDbSymbolTableRecord
100
AcDbTextStyleTableRecord
  2
高6.3
 70
     0
 40
6.299999999999998
 41
1.0
 50
0.0
 71
     0
 42
6.299999999999998
  3
txt.shx
  4
bigfont.shx
  0
STYLE
  5
416
330
3
100
AcDbSymbolTableRecord
100
AcDbTextStyleTableRecord
  2
高2.5
 70
     0
 40
2.5
 41
1.0
 50
0.0
 71
     0
 42
0.2
  3
txt.shx
  4
bigfont.shx
  0
STYLE
  5
417
330
3
100
AcDbSymbolTableRecord
100
AcDbTextStyleTableRecord
  2
高4.5
 70
     0
 40
4.5
 41
1.0
 50
0.0
 71
     0
 42
6.299999999999998
  3
txt.shx
  4
bigfont.shx
  0
STYLE
  5
418
330
3
100
AcDbSymbolTableRecord
100
AcDbTextStyleTableRecord
  2
高2
 70
     0
 40
2.0
 41
1.0
 50
0.0
 71
     0
 42
2.0
  3
txt.shx
  4
bigfont.shx
  0
ENDTAB
  0
TABLE
  2
VIEW
  5
6
330
0
100
AcDbSymbolTable
 70
     0
  0
ENDTAB
  0
TABLE
  2
UCS
  5
7
330
0
100
AcDbSymbolTable
 70
     0
  0
ENDTAB
  0
TABLE
  2
APPID
  5
9
330
0
100
AcDbSymbolTable
 70
    11
  0
APPID
  5
56
330
9
100
AcDbSymbolTableRecord
100
AcDbRegAppTableRecord
  2
ACAD
 70
     0
  0
APPID
  5
5D
330
9
100
AcDbSymbolTableRecord
100
AcDbRegAppTableRecord
  2
AcadAnnotative
 70
     0
  0
APPID
  5
423
330
9
100
AcDbSymbolTableRecord
100
AcDbRegAppTableRecord
  2
ACAD_DSTYLE_DIMJOGGED_JOGANGLE_SYMBOL
 70
     0
  0
APPID
  5
424
330
9
100
AcDbSymbolTableRecord
100
AcDbRegAppTableRecord
  2
ACAD_DSTYLE_DIMJAG
 70
     0
  0
APPID
  5
425
330
9
100
AcDbSymbolTableRecord
100
AcDbRegAppTableRecord
  2
ACAD_DSTYLE_DIMBREAK
 70
     0
  0
APPID
  5
426
330
9
100
AcDbSymbolTableRecord
100
AcDbRegAppTableRecord
  2
ACAD_DSTYLE_DIMTALN
 70
     0
  0
APPID
  5
56B
330
9
100
AcDbSymbolTableRecord
100
AcDbRegAppTableRecord
  2
ACAD_EXEMPT_FROM_CAD_STANDARDS
 70
     0
  0
APPID
  5
635
330
9
100
AcDbSymbolTableRecord
100
AcDbRegAppTableRecord
  2
ACAD_MLEADERVER
 70
     0
  0
APPID
  5
63A
330
9
100
AcDbSymbolTableRecord
100
AcDbRegAppTableRecord
  2
ACAD_DSTYLE_DIMARC_LENGTH_SYMBOL
 70
     0
  0
APPID
  5
63B
330
9
100
AcDbSymbolTableRecord
100
AcDbRegAppTableRecord
  2
ACAD_DSTYLE_DIMEXT_LENGTH
 70
     0
  0
APPID
  5
99F
330
9
100
AcDbSymbolTableRecord
100
AcDbRegAppTableRecord
  2
ACAD_PSEXT
 70
     0
  0
ENDTAB
  0
TABLE
  2
DIMSTYLE
  5
A
330
0
100
AcDbSymbolTable
 70
    11
100
AcDbDimStyleTable
 71
     2
340
422
340
57
  0
DIMSTYLE
105
57
330
A
100
AcDbSymbolTableRecord
100
AcDbDimStyleTableRecord
  2
Standard
 70
     0
340
55
  0
DIMSTYLE
105
422
330
A
100
AcDbSymbolTableRecord
100
AcDbDimStyleTableRecord
  2
FREE
 70
     0
 41
2.5
 42
0.25
 43
0.2
 44
1.25
 73
     0
 74
     0
 77
     3
 78
     8
 79
     2
140
3.0
141
0.0
143
0.03937007874016
147
0.625
171
     3
172
     1
178
     4
179
     1
271
     2
272
     2
274
     3
283
     0
284
     8
288
     1
289
     0
340
55
341
383
342
383
1001
ACAD_DSTYLE_DIMBREAK
1070
   391
1040
3.75
1001
ACAD_DSTYLE_DIMJAG
1070
   388
1040
1.5
1001
ACAD_DSTYLE_DIMTALN
1070
   392
1070
     0
1001
ACAD_DSTYLE_DIMARC_LENGTH_SYMBOL
1070
   379
1070
     2
1001
ACAD_DSTYLE_DIMEXT_LENGTH
1070
   378
1040
1.25
1001
ACAD_DSTYLE_DIMJOGGED_JOGANGLE_SYMBOL
1070
   384
1040
1.570796326794896
  0
DIMSTYLE
105
7C1
330
A
100
AcDbSymbolTableRecord
100
AcDbDimStyleTableRecord
  2
1：1
 70
     0
 41
2.5
 42
0.25
 43
0.2
 44
1.25
 73
     0
 74
     0
 77
     3
 78
     8
 79
     2
140
3.0
141
0.0
143
0.03937007874016
147
0.625
171
     3
172
     1
178
     4
179
     1
271
     2
272
     2
274
     3
283
     0
284
     8
288
     1
289
     0
340
55
341
383
342
383
1001
ACAD_DSTYLE_DIMARC_LENGTH_SYMBOL
1070
   379
1070
     2
1001
ACAD_DSTYLE_DIMEXT_LENGTH
1070
   378
1040
1.25
1001
ACAD_DSTYLE_DIMJOGGED_JOGANGLE_SYMBOL
1070
   384
1040
1.570796326794896
  0
DIMSTYLE
105
7C2
330
A
100
AcDbSymbolTableRecord
100
AcDbDimStyleTableRecord
  2
2：1
 70
     0
 41
2.5
 42
0.25
 43
0.2
 44
1.25
 73
     0
 74
     0
 77
     3
 78
     8
 79
     2
140
3.0
141
0.0
143
0.03937007874016
144
0.5
147
0.625
171
     3
172
     1
178
     4
179
     1
271
     2
272
     2
274
     3
283
     0
284
     8
288
     1
289
     0
340
55
341
383
342
383
1001
ACAD_DSTYLE_DIMARC_LENGTH_SYMBOL
1070
   379
1070
     2
1001
ACAD_DSTYLE_DIMEXT_LENGTH
1070
   378
1040
1.25
1001
ACAD_DSTYLE_DIMJOGGED_JOGANGLE_SYMBOL
1070
   384
1040
1.570796326794896
  0
DIMSTYLE
105
7C3
330
A
100
AcDbSymbolTableRecord
100
AcDbDimStyleTableRecord
  2
5：1
 70
     0
 41
2.5
 42
0.25
 43
0.2
 44
1.25
 73
     0
 74
     0
 77
     3
 78
     8
 79
     2
140
3.0
141
0.0
143
0.03937007874016
144
0.2
147
0.625
171
     3
172
     1
178
     4
179
     1
271
     2
272
     2
274
     3
283
     0
284
     8
288
     1
289
     0
340
55
341
383
342
383
1001
ACAD_DSTYLE_DIMARC_LENGTH_SYMBOL
1070
   379
1070
     2
1001
ACAD_DSTYLE_DIMEXT_LENGTH
1070
   378
1040
1.25
1001
ACAD_DSTYLE_DIMJOGGED_JOGANGLE_SYMBOL
1070
   384
1040
1.570796326794896
  0
DIMSTYLE
105
7C4
330
A
100
AcDbSymbolTableRecord
100
AcDbDimStyleTableRecord
  2
10：1
 70
     0
 41
2.5
 42
0.25
 43
0.2
 44
1.25
 73
     0
 74
     0
 77
     3
 78
     8
 79
     2
140
3.0
141
0.0
143
0.03937007874016
144
0.1
147
0.625
171
     3
172
     1
178
     4
179
     1
271
     2
272
     2
274
     3
283
     0
284
     8
288
     1
289
     0
340
55
341
383
342
383
1001
ACAD_DSTYLE_DIMARC_LENGTH_SYMBOL
1070
   379
1070
     2
1001
ACAD_DSTYLE_DIMEXT_LENGTH
1070
   378
1040
1.25
1001
ACAD_DSTYLE_DIMJOGGED_JOGANGLE_SYMBOL
1070
   384
1040
1.570796326794896
  0
DIMSTYLE
105
7C5
330
A
100
AcDbSymbolTableRecord
100
AcDbDimStyleTableRecord
  2
1／2
 70
     0
 41
2.5
 42
0.25
 43
0.2
 44
1.25
 73
     0
 74
     0
 77
     3
 78
     8
 79
     2
140
3.0
141
0.0
143
0.03937007874016
144
2.0
147
0.625
171
     3
172
     1
178
     4
179
     1
271
     2
272
     2
274
     3
283
     0
284
     8
288
     1
289
     0
340
55
341
383
342
383
1001
ACAD_DSTYLE_DIMARC_LENGTH_SYMBOL
1070
   379
1070
     2
1001
ACAD_DSTYLE_DIMEXT_LENGTH
1070
   378
1040
1.25
1001
ACAD_DSTYLE_DIMJOGGED_JOGANGLE_SYMBOL
1070
   384
1040
1.570796326794896
  0
DIMSTYLE
105
7C6
330
A
100
AcDbSymbolTableRecord
100
AcDbDimStyleTableRecord
  2
1／5
 70
     0
 41
2.5
 42
0.25
 43
0.2
 44
1.25
 73
     0
 74
     0
 77
     3
 78
     8
 79
     2
140
3.0
141
0.0
143
0.03937007874016
144
5.0
147
0.625
171
     3
172
     1
178
     4
179
     1
271
     2
272
     2
274
     3
283
     0
284
     8
288
     1
289
     0
340
55
341
383
342
383
1001
ACAD_DSTYLE_DIMARC_LENGTH_SYMBOL
1070
   379
1070
     2
1001
ACAD_DSTYLE_DIMEXT_LENGTH
1070
   378
1040
1.25
1001
ACAD_DSTYLE_DIMJOGGED_JOGANGLE_SYMBOL
1070
   384
1040
1.570796326794896
  0
DIMSTYLE
105
7C7
330
A
100
AcDbSymbolTableRecord
100
AcDbDimStyleTableRecord
  2
1／10
 70
     0
 41
2.5
 42
0.25
 43
0.2
 44
1.25
 73
     0
 74
     0
 77
     3
 78
     8
 79
     2
140
3.0
141
0.0
143
0.03937007874016
144
10.0
147
0.625
171
     3
172
     1
178
     4
179
     1
271
     2
272
     2
274
     3
283
     0
284
     8
288
     1
289
     0
340
55
341
383
342
383
1001
ACAD_DSTYLE_DIMARC_LENGTH_SYMBOL
1070
   379
1070
     2
1001
ACAD_DSTYLE_DIMEXT_LENGTH
1070
   378
1040
1.25
1001
ACAD_DSTYLE_DIMJOGGED_JOGANGLE_SYMBOL
1070
   384
1040
1.570796326794896
  0
DIMSTYLE
105
7C8
330
A
100
AcDbSymbolTableRecord
100
AcDbDimStyleTableRecord
  2
1／4
 70
     0
 41
2.5
 42
0.25
 43
0.2
 44
1.25
 73
     0
 74
     0
 77
     3
 78
     8
 79
     2
140
3.0
141
0.0
143
0.03937007874016
144
4.0
147
0.625
171
     3
172
     1
178
     4
179
     1
271
     2
272
     2
274
     3
283
     0
284
     8
288
     1
289
     0
340
55
341
383
342
383
1001
ACAD_DSTYLE_DIMARC_LENGTH_SYMBOL
1070
   379
1070
     2
1001
ACAD_DSTYLE_DIMEXT_LENGTH
1070
   378
1040
1.25
1001
ACAD_DSTYLE_DIMJOGGED_JOGANGLE_SYMBOL
1070
   384
1040
1.570796326794896
  0
DIMSTYLE
105
7C9
330
A
100
AcDbSymbolTableRecord
100
AcDbDimStyleTableRecord
  2
1／3
 70
     0
 41
2.5
 42
0.25
 43
0.2
 44
1.25
 73
     0
 74
     0
 77
     3
 78
     8
 79
     2
140
3.0
141
0.0
143
0.03937007874016
144
3.0
147
0.625
171
     3
172
     1
178
     4
179
     1
271
     2
272
     2
274
     3
283
     0
284
     8
288
     1
289
     0
340
55
341
383
342
383
1001
ACAD_DSTYLE_DIMARC_LENGTH_SYMBOL
1070
   379
1070
     2
1001
ACAD_DSTYLE_DIMEXT_LENGTH
1070
   378
1040
1.25
1001
ACAD_DSTYLE_DIMJOGGED_JOGANGLE_SYMBOL
1070
   384
1040
1.570796326794896
  0
ENDTAB
  0
TABLE
  2
BLOCK_RECORD
  5
1
330
0
100
AcDbSymbolTable
 70
    24
  0
BLOCK_RECORD
  5
6B
102
{ACAD_XDICTIONARY
360
5BF
102
}
330
1
100
AcDbSymbolTableRecord
100
AcDbBlockTableRecord
  2
*Model_Space
340
6E
  0
BLOCK_RECORD
  5
67
330
1
100
AcDbSymbolTableRecord
100
AcDbBlockTableRecord
  2
*Paper_Space
340
6A
  0
BLOCK_RECORD
  5
383
330
1
100
AcDbSymbolTableRecord
100
AcDbBlockTableRecord
  2
_Open30
340
0
102
{BLKREFS
331
74D
331
75A
331
75B
331
768
331
769
331
776
331
777
331
784
331
785
331
792
331
793
331
7A0
331
7A1
331
7AE
331
7AF
331
7BA
331
7BB
331
73E
331
73F
331
74C
331
875
331
876
331
880
331
881
331
88B
331
88C
331
896
331
897
331
8A1
331
8A2
331
8AC
331
8AD
331
8B7
331
8B8
331
8C2
331
8C3
331
8CD
331
8CE
331
8D6
331
8D7
331
986
331
987
331
98F
331
990
331
9BA
331
9BB
102
}
  0
BLOCK_RECORD
  5
57B
330
1
100
AcDbSymbolTableRecord
100
AcDbBlockTableRecord
  2
*D1
340
0
  0
BLOCK_RECORD
  5
588
330
1
100
AcDbSymbolTableRecord
100
AcDbBlockTableRecord
  2
*D2
340
0
  0
BLOCK_RECORD
  5
595
330
1
100
AcDbSymbolTableRecord
100
AcDbBlockTableRecord
  2
*D3
340
0
  0
BLOCK_RECORD
  5
737
330
1
100
AcDbSymbolTableRecord
100
AcDbBlockTableRecord
  2
*D4
340
0
  0
BLOCK_RECORD
  5
745
330
1
100
AcDbSymbolTableRecord
100
AcDbBlockTableRecord
  2
*D5
340
0
  0
BLOCK_RECORD
  5
753
330
1
100
AcDbSymbolTableRecord
100
AcDbBlockTableRecord
  2
*D6
340
0
  0
BLOCK_RECORD
  5
761
330
1
100
AcDbSymbolTableRecord
100
AcDbBlockTableRecord
  2
*D7
340
0
  0
BLOCK_RECORD
  5
76F
330
1
100
AcDbSymbolTableRecord
100
AcDbBlockTableRecord
  2
*D8
340
0
  0
BLOCK_RECORD
  5
77D
330
1
100
AcDbSymbolTableRecord
100
AcDbBlockTableRecord
  2
*D9
340
0
  0
BLOCK_RECORD
  5
78B
330
1
100
AcDbSymbolTableRecord
100
AcDbBlockTableRecord
  2
*D10
340
0
  0
BLOCK_RECORD
  5
799
330
1
100
AcDbSymbolTableRecord
100
AcDbBlockTableRecord
  2
*D11
340
0
  0
BLOCK_RECORD
  5
7A7
330
1
100
AcDbSymbolTableRecord
100
AcDbBlockTableRecord
  2
*D12
340
0
  0
BLOCK_RECORD
  5
7B5
330
1
100
AcDbSymbolTableRecord
100
AcDbBlockTableRecord
  2
*D13
340
0
  0
BLOCK_RECORD
  5
7E6
330
1
100
AcDbSymbolTableRecord
100
AcDbBlockTableRecord
  2
*D14
340
0
  0
BLOCK_RECORD
  5
7F4
330
1
100
AcDbSymbolTableRecord
100
AcDbBlockTableRecord
  2
*D15
340
0
  0
BLOCK_RECORD
  5
802
330
1
100
AcDbSymbolTableRecord
100
AcDbBlockTableRecord
  2
*D16
340
0
  0
BLOCK_RECORD
  5
810
330
1
100
AcDbSymbolTableRecord
100
AcDbBlockTableRecord
  2
*D17
340
0
  0
BLOCK_RECORD
  5
81E
330
1
100
AcDbSymbolTableRecord
100
AcDbBlockTableRecord
  2
*D18
340
0
  0
BLOCK_RECORD
  5
82C
330
1
100
AcDbSymbolTableRecord
100
AcDbBlockTableRecord
  2
*D19
340
0
  0
BLOCK_RECORD
  5
83A
330
1
100
AcDbSymbolTableRecord
100
AcDbBlockTableRecord
  2
*D20
340
0
  0
BLOCK_RECORD
  5
848
330
1
100
AcDbSymbolTableRecord
100
AcDbBlockTableRecord
  2
*D21
340
0
  0
BLOCK_RECORD
  5
856
330
1
100
AcDbSymbolTableRecord
100
AcDbBlockTableRecord
  2
*D22
340
0
  0
BLOCK_RECORD
  5
864
330
1
100
AcDbSymbolTableRecord
100
AcDbBlockTableRecord
  2
*D23
340
0
  0
ENDTAB
  0
ENDSEC
  0
SECTION
  2
BLOCKS
  0
BLOCK
  5
6C
330
6B
100
AcDbEntity
  8
0
100
AcDbBlockBegin
  2
*Model_Space
 70
     0
 10
0.0
 20
0.0
 30
0.0
  3
*Model_Space
  1

  0
ENDBLK
  5
6D
330
6B
100
AcDbEntity
  8
0
100
AcDbBlockEnd
  0
BLOCK
  5
68
330
67
100
AcDbEntity
 67
     1
  8
0
100
AcDbBlockBegin
  2
*Paper_Space
 70
     0
 10
0.0
 20
0.0
 30
0.0
  3
*Paper_Space
  1

  0
ENDBLK
  5
69
330
67
100
AcDbEntity
 67
     1
  8
0
100
AcDbBlockEnd
  0
BLOCK
  5
384
330
383
100
AcDbEntity
  8
0
100
AcDbBlockBegin
  2
_Open30
 70
     0
 10
0.0
 20
0.0
 30
0.0
  3
_Open30
  1

  0
LINE
  5
385
330
383
100
AcDbEntity
  8
0
  6
ByBlock
 62
     0
370
    -2
100
AcDbLine
 10
-1.0
 20
0.267949
 30
0.0
 11
0.0
 21
0.0
 31
0.0
  0
LINE
  5
386
330
383
100
AcDbEntity
  8
0
  6
ByBlock
 62
     0
370
    -2
100
AcDbLine
 10
0.0
 20
0.0
 30
0.0
 11
-1.0
 21
-0.267949
 31
0.0
  0
LINE
  5
387
330
383
100
AcDbEntity
  8
0
  6
ByBlock
 62
     0
370
    -2
100
AcDbLine
 10
0.0
 20
0.0
 30
0.0
 11
-1.0
 21
0.0
 31
0.0
  0
ENDBLK
  5
388
330
383
100
AcDbEntity
  8
0
100
AcDbBlockEnd
  0
BLOCK
  5
57C
330
57B
100
AcDbEntity
  8
0
100
AcDbBlockBegin
  2
*D1
 70
     1
 10
0.0
 20
0.0
 30
0.0
  3
*D1
  1

  0
LINE
  5
9B7
330
57B
100
AcDbEntity
  8
0
 62
     0
370
    -2
100
AcDbLine
 10
-8.362251999999998
 20
25.217111
 30
0.0
 11
-8.362251999999999
 21
3.257422000000001
 31
0.0
  0
LINE
  5
9B8
330
57B
100
AcDbEntity
  8
0
 62
     0
370
    -2
100
AcDbLine
 10
96.637748
 20
19.217111
 30
0.0
 11
96.637748
 21
3.257422000000001
 31
0.0
  0
LINE
  5
9B9
330
57B
100
AcDbEntity
  8
0
 62
     0
370
    -2
100
AcDbLine
 10
-5.862251999999999
 20
4.507422
 30
0.0
 11
94.137748
 21
4.507422
 31
0.0
  0
INSERT
  5
9BA
330
57B
100
AcDbEntity
  8
0
 62
     0
370
    -2
100
AcDbBlockReference
  2
_Open30
 10
-8.362251999999999
 20
4.507422
 30
0.0
 41
2.5
 42
2.5
 43
2.5
 50
180.0
  0
INSERT
  5
9BB
330
57B
100
AcDbEntity
  8
0
 62
     0
370
    -2
100
AcDbBlockReference
  2
_Open30
 10
96.637748
 20
4.507422
 30
0.0
 41
2.5
 42
2.5
 43
2.5
  0
MTEXT
  5
9BC
330
57B
100
AcDbEntity
  8
0
 62
     4
100
AcDbMText
 10
44.137748
 20
6.632422
 30
0.0
 40
3.0
 41
0.0
 71
     5
 72
     1
  1
190
 73
     1
 44
1.0
1001
ACAD
1000
MTEXTBEGIN
1070
    73
1070
     1
1070
    44
1040
1.0
1070
    74
1070
     0
1000
MTEXTEND
  0
POINT
  5
9BD
330
57B
100
AcDbEntity
  8
Defpoints
 62
     0
100
AcDbPoint
 10
-8.362251999999998
 20
25.467111
 30
0.0
  0
POINT
  5
9BE
330
57B
100
AcDbEntity
  8
Defpoints
 62
     0
100
AcDbPoint
 10
96.637748
 20
19.467111
 30
0.0
  0
POINT
  5
9BF
330
57B
100
AcDbEntity
  8
Defpoints
 62
     0
100
AcDbPoint
 10
96.637748
 20
4.507422
 30
0.0
  0
ENDBLK
  5
57D
330
57B
100
AcDbEntity
  8
0
100
AcDbBlockEnd
  0
BLOCK
  5
589
330
588
100
AcDbEntity
  8
0
100
AcDbBlockBegin
  2
*D2
 70
     1
 10
0.0
 20
0.0
 30
0.0
  3
*D2
  1

  0
LINE
  5
98C
330
588
100
AcDbEntity
  8
0
 62
     0
370
    -2
100
AcDbLine
 10
-153.282252
 20
19.217111
 30
0.0
 11
-153.282252
 21
3.257422000000001
 31
0.0
  0
LINE
  5
98D
330
588
100
AcDbEntity
  8
0
 62
     0
370
    -2
100
AcDbLine
 10
-41.36225200000001
 20
19.217111
 30
0.0
 11
-41.36225200000001
 21
3.257422000000001
 31
0.0
  0
LINE
  5
98E
330
588
100
AcDbEntity
  8
0
 62
     0
370
    -2
100
AcDbLine
 10
-150.782252
 20
4.507422
 30
0.0
 11
-43.86225200000001
 21
4.507422
 31
0.0
  0
INSERT
  5
98F
330
588
100
AcDbEntity
  8
0
 62
     0
370
    -2
100
AcDbBlockReference
  2
_Open30
 10
-153.282252
 20
4.507422
 30
0.0
 41
2.5
 42
2.5
 43
2.5
 50
180.0
  0
INSERT
  5
990
330
588
100
AcDbEntity
  8
0
 62
     0
370
    -2
100
AcDbBlockReference
  2
_Open30
 10
-41.36225200000001
 20
4.507422
 30
0.0
 41
2.5
 42
2.5
 43
2.5
  0
MTEXT
  5
991
330
588
100
AcDbEntity
  8
0
 62
     4
100
AcDbMText
 10
-97.32225200000002
 20
6.632422
 30
0.0
 40
3.0
 41
0.0
 71
     5
 72
     1
  1
200
 73
     1
 44
1.0
1001
ACAD
1000
MTEXTBEGIN
1070
    73
1070
     1
1070
    44
1040
1.0
1070
    74
1070
     0
1000
MTEXTEND
  0
POINT
  5
992
330
588
100
AcDbEntity
  8
Defpoints
 62
     0
100
AcDbPoint
 10
-153.282252
 20
19.467111
 30
0.0
  0
POINT
  5
993
330
588
100
AcDbEntity
  8
Defpoints
 62
     0
100
AcDbPoint
 10
-41.36225200000001
 20
19.467111
 30
0.0
  0
POINT
  5
994
330
588
100
AcDbEntity
  8
Defpoints
 62
     0
100
AcDbPoint
 10
-41.36225200000001
 20
4.507422
 30
0.0
  0
ENDBLK
  5
58A
330
588
100
AcDbEntity
  8
0
100
AcDbBlockEnd
  0
BLOCK
  5
596
330
595
100
AcDbEntity
  8
0
100
AcDbBlockBegin
  2
*D3
 70
     1
 10
0.0
 20
0.0
 30
0.0
  3
*D3
  1

  0
LINE
  5
983
330
595
100
AcDbEntity
  8
0
 62
     0
370
    -2
100
AcDbLine
 10
-145.142583
 20
12.267111
 30
0.0
 11
-163.7506939999999
 21
12.267111
 31
0.0
  0
LINE
  5
984
330
595
100
AcDbEntity
  8
0
 62
     0
370
    -2
100
AcDbLine
 10
-103.917315
 20
91.81026499999999
 30
0.0
 11
-163.7506939999999
 21
91.81026499999999
 31
0.0
  0
LINE
  5
985
330
595
100
AcDbEntity
  8
0
 62
     0
370
    -2
100
AcDbLine
 10
-162.500694
 20
14.767111
 30
0.0
 11
-162.500694
 21
89.31026500000001
 31
0.0
  0
INSERT
  5
986
330
595
100
AcDbEntity
  8
0
 62
     0
370
    -2
100
AcDbBlockReference
  2
_Open30
 10
-162.500694
 20
12.267111
 30
0.0
 41
2.5
 42
2.5
 43
2.5
 50
270.0
  0
INSERT
  5
987
330
595
100
AcDbEntity
  8
0
 62
     0
370
    -2
100
AcDbBlockReference
  2
_Open30
 10
-162.500694
 20
91.81026499999999
 30
0.0
 41
2.5
 42
2.5
 43
2.5
 50
90.0
  0
MTEXT
  5
988
330
595
100
AcDbEntity
  8
0
 62
     4
100
AcDbMText
 10
-164.6256939999999
 20
52.03868799999998
 30
0.0
 40
3.0
 41
0.0
 71
     5
 72
     1
  1
125
 11
0.0000000000000001
 21
1.0
 31
0.0
 73
     1
 44
1.0
1001
ACAD
1000
MTEXTBEGIN
1070
    73
1070
     1
1070
    44
1040
1.0
1070
    74
1070
     0
1000
MTEXTEND
  0
POINT
  5
989
330
595
100
AcDbEntity
  8
Defpoints
 62
     0
100
AcDbPoint
 10
-144.892583
 20
12.267111
 30
0.0
  0
POINT
  5
98A
330
595
100
AcDbEntity
  8
Defpoints
 62
     0
100
AcDbPoint
 10
-103.667315
 20
91.81026499999999
 30
0.0
  0
POINT
  5
98B
330
595
100
AcDbEntity
  8
Defpoints
 62
     0
100
AcDbPoint
 10
-162.500694
 20
91.81026499999999
 30
0.0
  0
ENDBLK
  5
597
330
595
100
AcDbEntity
  8
0
100
AcDbBlockEnd
  0
BLOCK
  5
738
330
737
100
AcDbEntity
  8
0
100
AcDbBlockBegin
  2
*D4
 70
     1
 10
0.0
 20
0.0
 30
0.0
  3
*D4
  1

  0
LINE
  5
739
330
737
100
AcDbEntity
  8
0
 62
     0
370
    -2
100
AcDbLine
 10
-178.2339678749101
 20
-812.0370112307897
 30
0.0
 11
-178.2339678749101
 21
-814.9466426527986
 31
0.0
  0
LINE
  5
73A
330
737
100
AcDbEntity
  8
0
 62
     0
370
    -2
100
AcDbLine
 10
-180.6911549290304
 20
-812.0370112307897
 30
0.0
 11
-180.6911549290304
 21
-814.9466426527986
 31
0.0
  0
LINE
  5
73B
330
737
100
AcDbEntity
  8
0
 62
     0
370
    -2
100
AcDbLine
 10
-175.7339678749101
 20
-813.6966426527985
 30
0.0
 11
-173.2339678749101
 21
-813.6966426527985
 31
0.0
  0
LINE
  5
73C
330
737
100
AcDbEntity
  8
0
 62
     0
370
    -2
100
AcDbLine
 10
-183.1911549290304
 20
-813.6966426527985
 30
0.0
 11
-195.9411549290304
 21
-813.6966426527985
 31
0.0
  0
LINE
  5
73D
330
737
100
AcDbEntity
  8
0
 62
     0
370
    -2
100
AcDbLine
 10
-178.2339678749101
 20
-813.6966426527985
 30
0.0
 11
-180.6911549290304
 21
-813.6966426527985
 31
0.0
  0
INSERT
  5
73E
330
737
100
AcDbEntity
  8
0
 62
     0
370
    -2
100
AcDbBlockReference
  2
_Open30
 10
-178.2339678749101
 20
-813.6966426527985
 30
0.0
 41
2.5
 42
2.5
 43
2.5
 50
180.0
  0
INSERT
  5
73F
330
737
100
AcDbEntity
  8
0
 62
     0
370
    -2
100
AcDbBlockReference
  2
_Open30
 10
-180.6911549290304
 20
-813.6966426527985
 30
0.0
 41
2.5
 42
2.5
 43
2.5
  0
MTEXT
  5
740
330
737
100
AcDbEntity
  8
0
 62
     4
100
AcDbMText
 10
-190.8161549290304
 20
-811.5716426527985
 30
0.0
 40
3.0
 41
0.0
 71
     5
 72
     1
  1
2.46
 73
     1
 44
1.0
1001
ACAD
1000
MTEXTBEGIN
1070
    73
1070
     1
1070
    44
1040
1.0
1070
    74
1070
     0
1000
MTEXTEND
  0
POINT
  5
741
330
737
100
AcDbEntity
  8
Defpoints
 62
     0
100
AcDbPoint
 10
-178.2339678749101
 20
-811.7870112307898
 30
0.0
  0
POINT
  5
742
330
737
100
AcDbEntity
  8
Defpoints
 62
     0
100
AcDbPoint
 10
-180.6911549290304
 20
-811.7870112307898
 30
0.0
  0
POINT
  5
743
330
737
100
AcDbEntity
  8
Defpoints
 62
     0
100
AcDbPoint
 10
-180.6911549290304
 20
-813.6966426527985
 30
0.0
  0
ENDBLK
  5
744
330
737
100
AcDbEntity
  8
0
100
AcDbBlockEnd
  0
BLOCK
  5
746
330
745
100
AcDbEntity
  8
0
100
AcDbBlockBegin
  2
*D5
 70
     1
 10
0.0
 20
0.0
 30
0.0
  3
*D5
  1

  0
LINE
  5
747
330
745
100
AcDbEntity
  8
0
 62
     0
370
    -2
100
AcDbLine
 10
-176.5958429688369
 20
-817.4931008035521
 30
0.0
 11
-176.5958429688369
 21
-820.0389928730155
 31
0.0
  0
LINE
  5
748
330
745
100
AcDbEntity
  8
0
 62
     0
370
    -2
100
AcDbLine
 10
-179.6900787669798
 20
-817.4931008035521
 30
0.0
 11
-179.6900787669798
 21
-820.0389928730155
 31
0.0
  0
LINE
  5
749
330
745
100
AcDbEntity
  8
0
 62
     0
370
    -2
100
AcDbLine
 10
-174.0958429688369
 20
-818.7889928730154
 30
0.0
 11
-171.5958429688369
 21
-818.7889928730154
 31
0.0
  0
LINE
  5
74A
330
745
100
AcDbEntity
  8
0
 62
     0
370
    -2
100
AcDbLine
 10
-182.1900787669798
 20
-818.7889928730154
 30
0.0
 11
-196.0234121003131
 21
-818.7889928730154
 31
0.0
  0
LINE
  5
74B
330
745
100
AcDbEntity
  8
0
 62
     0
370
    -2
100
AcDbLine
 10
-176.5958429688369
 20
-818.7889928730154
 30
0.0
 11
-179.6900787669798
 21
-818.7889928730154
 31
0.0
  0
INSERT
  5
74C
330
745
100
AcDbEntity
  8
0
 62
     0
370
    -2
100
AcDbBlockReference
  2
_Open30
 10
-176.5958429688369
 20
-818.7889928730154
 30
0.0
 41
2.5
 42
2.5
 43
2.5
 50
180.0
  0
INSERT
  5
74D
330
745
100
AcDbEntity
  8
0
 62
     0
370
    -2
100
AcDbBlockReference
  2
_Open30
 10
-179.6900787669798
 20
-818.7889928730154
 30
0.0
 41
2.5
 42
2.5
 43
2.5
  0
MTEXT
  5
74E
330
745
100
AcDbEntity
  8
0
 62
     4
100
AcDbMText
 10
-190.8150787669798
 20
-816.9139928730155
 30
0.0
 40
2.5
 41
0.0
 71
     5
 72
     1
  1
15.47
  7
高2.5
 73
     1
 44
1.0
1001
ACAD
1000
MTEXTBEGIN
1070
    73
1070
     1
1070
    44
1040
1.0
1070
    74
1070
     0
1000
MTEXTEND
  0
POINT
  5
74F
330
745
100
AcDbEntity
  8
Defpoints
 62
     0
100
AcDbPoint
 10
-176.5958429688369
 20
-817.2431008035522
 30
0.0
  0
POINT
  5
750
330
745
100
AcDbEntity
  8
Defpoints
 62
     0
100
AcDbPoint
 10
-179.6900787669798
 20
-817.2431008035522
 30
0.0
  0
POINT
  5
751
330
745
100
AcDbEntity
  8
Defpoints
 62
     0
100
AcDbPoint
 10
-179.6900787669798
 20
-818.7889928730154
 30
0.0
  0
ENDBLK
  5
752
330
745
100
AcDbEntity
  8
0
100
AcDbBlockEnd
  0
BLOCK
  5
754
330
753
100
AcDbEntity
  8
0
100
AcDbBlockBegin
  2
*D6
 70
     1
 10
0.0
 20
0.0
 30
0.0
  3
*D6
  1

  0
LINE
  5
755
330
753
100
AcDbEntity
  8
0
 62
     0
370
    -2
100
AcDbLine
 10
-174.8667113607514
 20
-822.9491905193986
 30
0.0
 11
-174.8667113607514
 21
-825.2222781817659
 31
0.0
  0
LINE
  5
756
330
753
100
AcDbEntity
  8
0
 62
     0
370
    -2
100
AcDbLine
 10
-178.8710163139432
 20
-822.9491905193986
 30
0.0
 11
-178.8710163139432
 21
-825.2222781817659
 31
0.0
  0
LINE
  5
757
330
753
100
AcDbEntity
  8
0
 62
     0
370
    -2
100
AcDbLine
 10
-172.3667113607514
 20
-823.9722781817658
 30
0.0
 11
-169.8667113607514
 21
-823.9722781817658
 31
0.0
  0
LINE
  5
758
330
753
100
AcDbEntity
  8
0
 62
     0
370
    -2
100
AcDbLine
 10
-181.3710163139432
 20
-823.9722781817658
 30
0.0
 11
-193.1210163139432
 21
-823.9722781817658
 31
0.0
  0
LINE
  5
759
330
753
100
AcDbEntity
  8
0
 62
     0
370
    -2
100
AcDbLine
 10
-174.8667113607514
 20
-823.9722781817658
 30
0.0
 11
-178.8710163139432
 21
-823.9722781817658
 31
0.0
  0
INSERT
  5
75A
330
753
100
AcDbEntity
  8
0
 62
     0
370
    -2
100
AcDbBlockReference
  2
_Open30
 10
-174.8667113607514
 20
-823.9722781817658
 30
0.0
 41
2.5
 42
2.5
 43
2.5
 50
180.0
  0
INSERT
  5
75B
330
753
100
AcDbEntity
  8
0
 62
     0
370
    -2
100
AcDbBlockReference
  2
_Open30
 10
-178.8710163139432
 20
-823.9722781817658
 30
0.0
 41
2.5
 42
2.5
 43
2.5
  0
MTEXT
  5
75C
330
753
100
AcDbEntity
  8
0
 62
     4
100
AcDbMText
 10
-188.4960163139432
 20
-821.7472781817658
 30
0.0
 40
3.2
 41
0.0
 71
     5
 72
     1
  1
8.01
  7
高3.2
 73
     1
 44
1.0
1001
ACAD
1000
MTEXTBEGIN
1070
    73
1070
     1
1070
    44
1040
1.0
1070
    74
1070
     0
1000
MTEXTEND
  0
POINT
  5
75D
330
753
100
AcDbEntity
  8
Defpoints
 62
     0
100
AcDbPoint
 10
-174.8667113607514
 20
-822.6991905193985
 30
0.0
  0
POINT
  5
75E
330
753
100
AcDbEntity
  8
Defpoints
 62
     0
100
AcDbPoint
 10
-178.8710163139432
 20
-822.6991905193985
 30
0.0
  0
POINT
  5
75F
330
753
100
AcDbEntity
  8
Defpoints
 62
     0
100
AcDbPoint
 10
-178.8710163139432
 20
-823.9722781817658
 30
0.0
  0
ENDBLK
  5
760
330
753
100
AcDbEntity
  8
0
100
AcDbBlockEnd
  0
BLOCK
  5
762
330
761
100
AcDbEntity
  8
0
100
AcDbBlockBegin
  2
*D7
 70
     1
 10
0.0
 20
0.0
 30
0.0
  3
*D7
  1

  0
LINE
  5
763
330
761
100
AcDbEntity
  8
0
 62
     0
370
    -2
100
AcDbLine
 10
-174.9577180627636
 20
-828.2234104874302
 30
0.0
 11
-174.9577180627636
 21
-830.0418239948866
 31
0.0
  0
LINE
  5
764
330
761
100
AcDbEntity
  8
0
 62
     0
370
    -2
100
AcDbLine
 10
-179.6900787669798
 20
-828.2234104874302
 30
0.0
 11
-179.6900787669798
 21
-830.0418239948866
 31
0.0
  0
LINE
  5
765
330
761
100
AcDbEntity
  8
0
 62
     0
370
    -2
100
AcDbLine
 10
-172.4577180627636
 20
-828.7918239948865
 30
0.0
 11
-169.9577180627637
 21
-828.7918239948865
 31
0.0
  0
LINE
  5
766
330
761
100
AcDbEntity
  8
0
 62
     0
370
    -2
100
AcDbLine
 10
-182.1900787669798
 20
-828.7918239948865
 30
0.0
 11
-203.9400787669798
 21
-828.7918239948865
 31
0.0
  0
LINE
  5
767
330
761
100
AcDbEntity
  8
0
 62
     0
370
    -2
100
AcDbLine
 10
-174.9577180627636
 20
-828.7918239948865
 30
0.0
 11
-179.6900787669798
 21
-828.7918239948865
 31
0.0
  0
INSERT
  5
768
330
761
100
AcDbEntity
  8
0
 62
     0
370
    -2
100
AcDbBlockReference
  2
_Open30
 10
-174.9577180627636
 20
-828.7918239948865
 30
0.0
 41
2.5
 42
2.5
 43
2.5
 50
180.0
  0
INSERT
  5
769
330
761
100
AcDbEntity
  8
0
 62
     0
370
    -2
100
AcDbBlockReference
  2
_Open30
 10
-179.6900787669798
 20
-828.7918239948865
 30
0.0
 41
2.5
 42
2.5
 43
2.5
  0
MTEXT
  5
76A
330
761
100
AcDbEntity
  8
0
 62
     4
100
AcDbMText
 10
-194.3150787669798
 20
-825.9168239948866
 30
0.0
 40
4.5
 41
0.0
 71
     5
 72
     1
  1
47.32
  7
高4.5
 73
     1
 44
1.0
1001
ACAD
1000
MTEXTBEGIN
1070
    73
1070
     1
1070
    44
1040
1.0
1070
    74
1070
     0
1000
MTEXTEND
  0
POINT
  5
76B
330
761
100
AcDbEntity
  8
Defpoints
 62
     0
100
AcDbPoint
 10
-174.9577180627636
 20
-827.9734104874302
 30
0.0
  0
POINT
  5
76C
330
761
100
AcDbEntity
  8
Defpoints
 62
     0
100
AcDbPoint
 10
-179.6900787669798
 20
-827.9734104874302
 30
0.0
  0
POINT
  5
76D
330
761
100
AcDbEntity
  8
Defpoints
 62
     0
100
AcDbPoint
 10
-179.6900787669798
 20
-828.7918239948865
 30
0.0
  0
ENDBLK
  5
76E
330
761
100
AcDbEntity
  8
0
100
AcDbBlockEnd
  0
BLOCK
  5
770
330
76F
100
AcDbEntity
  8
0
100
AcDbBlockBegin
  2
*D8
 70
     1
 10
0.0
 20
0.0
 30
0.0
  3
*D8
  1

  0
LINE
  5
771
330
76F
100
AcDbEntity
  8
0
 62
     0
370
    -2
100
AcDbLine
 10
-153.4800817947562
 20
-812.0370112307897
 30
0.0
 11
-153.4800817947562
 21
-814.9466426527986
 31
0.0
  0
LINE
  5
772
330
76F
100
AcDbEntity
  8
0
 62
     0
370
    -2
100
AcDbLine
 10
-155.9372688488765
 20
-812.0370112307897
 30
0.0
 11
-155.9372688488765
 21
-814.9466426527986
 31
0.0
  0
LINE
  5
773
330
76F
100
AcDbEntity
  8
0
 62
     0
370
    -2
100
AcDbLine
 10
-150.9800817947562
 20
-813.6966426527985
 30
0.0
 11
-148.4800817947562
 21
-813.6966426527985
 31
0.0
  0
LINE
  5
774
330
76F
100
AcDbEntity
  8
0
 62
     0
370
    -2
100
AcDbLine
 10
-158.4372688488765
 20
-813.6966426527985
 30
0.0
 11
-180.0372688488765
 21
-813.6966426527985
 31
0.0
  0
LINE
  5
775
330
76F
100
AcDbEntity
  8
0
 62
     0
370
    -2
100
AcDbLine
 10
-153.4800817947562
 20
-813.6966426527985
 30
0.0
 11
-155.9372688488765
 21
-813.6966426527985
 31
0.0
  0
INSERT
  5
776
330
76F
100
AcDbEntity
  8
0
 62
     0
370
    -2
100
AcDbBlockReference
  2
_Open30
 10
-153.4800817947562
 20
-813.6966426527985
 30
0.0
 41
2.5
 42
2.5
 43
2.5
 50
180.0
  0
INSERT
  5
777
330
76F
100
AcDbEntity
  8
0
 62
     0
370
    -2
100
AcDbBlockReference
  2
_Open30
 10
-155.9372688488765
 20
-813.6966426527985
 30
0.0
 41
2.5
 42
2.5
 43
2.5
  0
MTEXT
  5
778
330
76F
100
AcDbEntity
  8
0
 62
     4
100
AcDbMText
 10
-170.4872688488765
 20
-809.9216426527986
 30
0.0
 40
6.299999999999998
 41
0.0
 71
     5
 72
     1
  1
0.25
  7
高6.3
 73
     1
 44
1.0
1001
ACAD
1000
MTEXTBEGIN
1070
    73
1070
     1
1070
    44
1040
1.0
1070
    74
1070
     0
1000
MTEXTEND
  0
POINT
  5
779
330
76F
100
AcDbEntity
  8
Defpoints
 62
     0
100
AcDbPoint
 10
-153.4800817947562
 20
-811.7870112307898
 30
0.0
  0
POINT
  5
77A
330
76F
100
AcDbEntity
  8
Defpoints
 62
     0
100
AcDbPoint
 10
-155.9372688488765
 20
-811.7870112307898
 30
0.0
  0
POINT
  5
77B
330
76F
100
AcDbEntity
  8
Defpoints
 62
     0
100
AcDbPoint
 10
-155.9372688488765
 20
-813.6966426527985
 30
0.0
  0
ENDBLK
  5
77C
330
76F
100
AcDbEntity
  8
0
100
AcDbBlockEnd
  0
BLOCK
  5
77E
330
77D
100
AcDbEntity
  8
0
100
AcDbBlockBegin
  2
*D9
 70
     1
 10
0.0
 20
0.0
 30
0.0
  3
*D9
  1

  0
LINE
  5
77F
330
77D
100
AcDbEntity
  8
0
 62
     0
370
    -2
100
AcDbLine
 10
-151.841956888683
 20
-817.4931008035521
 30
0.0
 11
-151.841956888683
 21
-820.0389928730155
 31
0.0
  0
LINE
  5
780
330
77D
100
AcDbEntity
  8
0
 62
     0
370
    -2
100
AcDbLine
 10
-154.9361926868259
 20
-817.4931008035521
 30
0.0
 11
-154.9361926868259
 21
-820.0389928730155
 31
0.0
  0
LINE
  5
781
330
77D
100
AcDbEntity
  8
0
 62
     0
370
    -2
100
AcDbLine
 10
-149.341956888683
 20
-818.7889928730154
 30
0.0
 11
-146.841956888683
 21
-818.7889928730154
 31
0.0
  0
LINE
  5
782
330
77D
100
AcDbEntity
  8
0
 62
     0
370
    -2
100
AcDbLine
 10
-157.4361926868259
 20
-818.7889928730154
 30
0.0
 11
-169.4361926868259
 21
-818.7889928730154
 31
0.0
  0
LINE
  5
783
330
77D
100
AcDbEntity
  8
0
 62
     0
370
    -2
100
AcDbLine
 10
-151.841956888683
 20
-818.7889928730154
 30
0.0
 11
-154.9361926868259
 21
-818.7889928730154
 31
0.0
  0
INSERT
  5
784
330
77D
100
AcDbEntity
  8
0
 62
     0
370
    -2
100
AcDbBlockReference
  2
_Open30
 10
-151.841956888683
 20
-818.7889928730154
 30
0.0
 41
2.5
 42
2.5
 43
2.5
 50
180.0
  0
INSERT
  5
785
330
77D
100
AcDbEntity
  8
0
 62
     0
370
    -2
100
AcDbBlockReference
  2
_Open30
 10
-154.9361926868259
 20
-818.7889928730154
 30
0.0
 41
2.5
 42
2.5
 43
2.5
  0
MTEXT
  5
786
330
77D
100
AcDbEntity
  8
0
 62
     4
100
AcDbMText
 10
-164.8111926868259
 20
-816.6639928730154
 30
0.0
 40
3.0
 41
0.0
 71
     5
 72
     1
  1
1.55
 73
     1
 44
1.0
1001
ACAD
1000
MTEXTBEGIN
1070
    73
1070
     1
1070
    44
1040
1.0
1070
    74
1070
     0
1000
MTEXTEND
  0
POINT
  5
787
330
77D
100
AcDbEntity
  8
Defpoints
 62
     0
100
AcDbPoint
 10
-151.841956888683
 20
-817.2431008035522
 30
0.0
  0
POINT
  5
788
330
77D
100
AcDbEntity
  8
Defpoints
 62
     0
100
AcDbPoint
 10
-154.9361926868259
 20
-817.2431008035522
 30
0.0
  0
POINT
  5
789
330
77D
100
AcDbEntity
  8
Defpoints
 62
     0
100
AcDbPoint
 10
-154.9361926868259
 20
-818.7889928730154
 30
0.0
  0
ENDBLK
  5
78A
330
77D
100
AcDbEntity
  8
0
100
AcDbBlockEnd
  0
BLOCK
  5
78C
330
78B
100
AcDbEntity
  8
0
100
AcDbBlockBegin
  2
*D10
 70
     1
 10
0.0
 20
0.0
 30
0.0
  3
*D10
  1

  0
LINE
  5
78D
330
78B
100
AcDbEntity
  8
0
 62
     0
370
    -2
100
AcDbLine
 10
-150.1128252805975
 20
-822.9491905193986
 30
0.0
 11
-150.1128252805975
 21
-825.2222781817659
 31
0.0
  0
LINE
  5
78E
330
78B
100
AcDbEntity
  8
0
 62
     0
370
    -2
100
AcDbLine
 10
-154.1171302337894
 20
-822.9491905193986
 30
0.0
 11
-154.1171302337894
 21
-825.2222781817659
 31
0.0
  0
LINE
  5
78F
330
78B
100
AcDbEntity
  8
0
 62
     0
370
    -2
100
AcDbLine
 10
-147.6128252805976
 20
-823.9722781817658
 30
0.0
 11
-145.1128252805975
 21
-823.9722781817658
 31
0.0
  0
LINE
  5
790
330
78B
100
AcDbEntity
  8
0
 62
     0
370
    -2
100
AcDbLine
 10
-156.6171302337894
 20
-823.9722781817658
 30
0.0
 11
-164.9504635671227
 21
-823.9722781817658
 31
0.0
  0
LINE
  5
791
330
78B
100
AcDbEntity
  8
0
 62
     0
370
    -2
100
AcDbLine
 10
-150.1128252805975
 20
-823.9722781817658
 30
0.0
 11
-154.1171302337894
 21
-823.9722781817658
 31
0.0
  0
INSERT
  5
792
330
78B
100
AcDbEntity
  8
0
 62
     0
370
    -2
100
AcDbBlockReference
  2
_Open30
 10
-150.1128252805975
 20
-823.9722781817658
 30
0.0
 41
2.5
 42
2.5
 43
2.5
 50
180.0
  0
INSERT
  5
793
330
78B
100
AcDbEntity
  8
0
 62
     0
370
    -2
100
AcDbBlockReference
  2
_Open30
 10
-154.1171302337894
 20
-823.9722781817658
 30
0.0
 41
2.5
 42
2.5
 43
2.5
  0
MTEXT
  5
794
330
78B
100
AcDbEntity
  8
0
 62
     4
100
AcDbMText
 10
-162.4921302337894
 20
-822.3472781817658
 30
0.0
 40
2.0
 41
0.0
 71
     5
 72
     1
  1
0.8
  7
高2
 73
     1
 44
1.0
1001
ACAD
1000
MTEXTBEGIN
1070
    73
1070
     1
1070
    44
1040
1.0
1070
    74
1070
     0
1000
MTEXTEND
  0
POINT
  5
795
330
78B
100
AcDbEntity
  8
Defpoints
 62
     0
100
AcDbPoint
 10
-150.1128252805975
 20
-822.6991905193985
 30
0.0
  0
POINT
  5
796
330
78B
100
AcDbEntity
  8
Defpoints
 62
     0
100
AcDbPoint
 10
-154.1171302337894
 20
-822.6991905193985
 30
0.0
  0
POINT
  5
797
330
78B
100
AcDbEntity
  8
Defpoints
 62
     0
100
AcDbPoint
 10
-154.1171302337894
 20
-823.9722781817658
 30
0.0
  0
ENDBLK
  5
798
330
78B
100
AcDbEntity
  8
0
100
AcDbBlockEnd
  0
BLOCK
  5
79A
330
799
100
AcDbEntity
  8
0
100
AcDbBlockBegin
  2
*D11
 70
     1
 10
0.0
 20
0.0
 30
0.0
  3
*D11
  1

  0
LINE
  5
79B
330
799
100
AcDbEntity
  8
0
 62
     0
370
    -2
100
AcDbLine
 10
-150.2038319826098
 20
-828.2234104874302
 30
0.0
 11
-150.2038319826098
 21
-830.0418239948866
 31
0.0
  0
LINE
  5
79C
330
799
100
AcDbEntity
  8
0
 62
     0
370
    -2
100
AcDbLine
 10
-154.9361926868259
 20
-828.2234104874302
 30
0.0
 11
-154.9361926868259
 21
-830.0418239948866
 31
0.0
  0
LINE
  5
79D
330
799
100
AcDbEntity
  8
0
 62
     0
370
    -2
100
AcDbLine
 10
-147.7038319826099
 20
-828.7918239948865
 30
0.0
 11
-145.2038319826098
 21
-828.7918239948865
 31
0.0
  0
LINE
  5
79E
330
799
100
AcDbEntity
  8
0
 62
     0
370
    -2
100
AcDbLine
 10
-157.4361926868259
 20
-828.7918239948865
 30
0.0
 11
-172.1861926868259
 21
-828.7918239948865
 31
0.0
  0
LINE
  5
79F
330
799
100
AcDbEntity
  8
0
 62
     0
370
    -2
100
AcDbLine
 10
-150.2038319826098
 20
-828.7918239948865
 30
0.0
 11
-154.9361926868259
 21
-828.7918239948865
 31
0.0
  0
INSERT
  5
7A0
330
799
100
AcDbEntity
  8
0
 62
     0
370
    -2
100
AcDbBlockReference
  2
_Open30
 10
-150.2038319826098
 20
-828.7918239948865
 30
0.0
 41
2.5
 42
2.5
 43
2.5
 50
180.0
  0
INSERT
  5
7A1
330
799
100
AcDbEntity
  8
0
 62
     0
370
    -2
100
AcDbBlockReference
  2
_Open30
 10
-154.9361926868259
 20
-828.7918239948865
 30
0.0
 41
2.5
 42
2.5
 43
2.5
  0
MTEXT
  5
7A2
330
799
100
AcDbEntity
  8
0
 62
     4
100
AcDbMText
 10
-166.0611926868259
 20
-826.6668239948867
 30
0.0
 40
3.0
 41
0.0
 71
     5
 72
     1
  1
18.93
 73
     1
 44
1.0
1001
ACAD
1000
MTEXTBEGIN
1070
    73
1070
     1
1070
    44
1040
1.0
1070
    74
1070
     0
1000
MTEXTEND
  0
POINT
  5
7A3
330
799
100
AcDbEntity
  8
Defpoints
 62
     0
100
AcDbPoint
 10
-150.2038319826098
 20
-827.9734104874302
 30
0.0
  0
POINT
  5
7A4
330
799
100
AcDbEntity
  8
Defpoints
 62
     0
100
AcDbPoint
 10
-154.9361926868259
 20
-827.9734104874302
 30
0.0
  0
POINT
  5
7A5
330
799
100
AcDbEntity
  8
Defpoints
 62
     0
100
AcDbPoint
 10
-154.9361926868259
 20
-828.7918239948865
 30
0.0
  0
ENDBLK
  5
7A6
330
799
100
AcDbEntity
  8
0
100
AcDbBlockEnd
  0
BLOCK
  5
7A8
330
7A7
100
AcDbEntity
  8
0
100
AcDbBlockBegin
  2
*D12
 70
     1
 10
0.0
 20
0.0
 30
0.0
  3
*D12
  1

  0
LINE
  5
7A9
330
7A7
100
AcDbEntity
  8
0
 62
     0
370
    -2
100
AcDbLine
 10
-153.0082588337482
 20
-833.2792506940199
 30
0.0
 11
-153.0082588337482
 21
-835.5891717708955
 31
0.0
  0
LINE
  5
7AA
330
7A7
100
AcDbEntity
  8
0
 62
     0
370
    -2
100
AcDbLine
 10
-157.5969340358961
 20
-833.2792506940199
 30
0.0
 11
-157.5969340358961
 21
-835.5891717708955
 31
0.0
  0
LINE
  5
7AB
330
7A7
100
AcDbEntity
  8
0
 62
     0
370
    -2
100
AcDbLine
 10
-150.5082588337482
 20
-834.3391717708955
 30
0.0
 11
-148.0082588337482
 21
-834.3391717708955
 31
0.0
  0
LINE
  5
7AC
330
7A7
100
AcDbEntity
  8
0
 62
     0
370
    -2
100
AcDbLine
 10
-160.0969340358961
 20
-834.3391717708955
 30
0.0
 11
-174.8469340358961
 21
-834.3391717708955
 31
0.0
  0
LINE
  5
7AD
330
7A7
100
AcDbEntity
  8
0
 62
     0
370
    -2
100
AcDbLine
 10
-153.0082588337482
 20
-834.3391717708955
 30
0.0
 11
-157.5969340358961
 21
-834.3391717708955
 31
0.0
  0
INSERT
  5
7AE
330
7A7
100
AcDbEntity
  8
0
 62
     0
370
    -2
100
AcDbBlockReference
  2
_Open30
 10
-153.0082588337482
 20
-834.3391717708955
 30
0.0
 41
2.5
 42
2.5
 43
2.5
 50
180.0
  0
INSERT
  5
7AF
330
7A7
100
AcDbEntity
  8
0
 62
     0
370
    -2
100
AcDbBlockReference
  2
_Open30
 10
-157.5969340358961
 20
-834.3391717708955
 30
0.0
 41
2.5
 42
2.5
 43
2.5
  0
MTEXT
  5
7B0
330
7A7
100
AcDbEntity
  8
0
 62
     4
100
AcDbMText
 10
-168.7219340358961
 20
-832.2141717708955
 30
0.0
 40
3.0
 41
0.0
 71
     5
 72
     1
  1
13.77
 73
     1
 44
1.0
1001
ACAD
1000
MTEXTBEGIN
1070
    73
1070
     1
1070
    44
1040
1.0
1070
    74
1070
     0
1000
MTEXTEND
  0
POINT
  5
7B1
330
7A7
100
AcDbEntity
  8
Defpoints
 62
     0
100
AcDbPoint
 10
-153.0082588337482
 20
-833.0292506940201
 30
0.0
  0
POINT
  5
7B2
330
7A7
100
AcDbEntity
  8
Defpoints
 62
     0
100
AcDbPoint
 10
-157.5969340358961
 20
-833.0292506940201
 30
0.0
  0
POINT
  5
7B3
330
7A7
100
AcDbEntity
  8
Defpoints
 62
     0
100
AcDbPoint
 10
-157.5969340358961
 20
-834.3391717708955
 30
0.0
  0
ENDBLK
  5
7B4
330
7A7
100
AcDbEntity
  8
0
100
AcDbBlockEnd
  0
BLOCK
  5
7B6
330
7B5
100
AcDbEntity
  8
0
100
AcDbBlockBegin
  2
*D13
 70
     1
 10
0.0
 20
0.0
 30
0.0
  3
*D13
  1

  0
LINE
  5
7B7
330
7B5
100
AcDbEntity
  8
0
 62
     0
370
    -2
100
AcDbLine
 10
-160.1045416668985
 20
-802.3497593757458
 30
0.0
 11
-160.1045416668985
 21
-794.9532258978079
 31
0.0
  0
LINE
  5
7B8
330
7B5
100
AcDbEntity
  8
0
 62
     0
370
    -2
100
AcDbLine
 10
-170.0430160363884
 20
-802.3497593757458
 30
0.0
 11
-170.0430160363884
 21
-794.9532258978079
 31
0.0
  0
LINE
  5
7B9
330
7B5
100
AcDbEntity
  8
0
 62
     0
370
    -2
100
AcDbLine
 10
-162.6045416668985
 20
-796.2032258978077
 30
0.0
 11
-167.5430160363885
 21
-796.2032258978077
 31
0.0
  0
INSERT
  5
7BA
330
7B5
100
AcDbEntity
  8
0
 62
     0
370
    -2
100
AcDbBlockReference
  2
_Open30
 10
-160.1045416668985
 20
-796.2032258978077
 30
0.0
 41
2.5
 42
2.5
 43
2.5
  0
INSERT
  5
7BB
330
7B5
100
AcDbEntity
  8
0
 62
     0
370
    -2
100
AcDbBlockReference
  2
_Open30
 10
-170.0430160363884
 20
-796.2032258978077
 30
0.0
 41
2.5
 42
2.5
 43
2.5
 50
180.0
  0
MTEXT
  5
7BC
330
7B5
100
AcDbEntity
  8
0
 62
     4
100
AcDbMText
 10
-165.0737788516435
 20
-793.1282258978077
 30
0.0
 40
3.0
 41
0.0
 71
     5
 72
     1
  1
9.94\H0.7X;\S+0^ -0.02;
 73
     1
 44
1.0
1001
ACAD
1000
MTEXTBEGIN
1070
    73
1070
     1
1070
    44
1040
1.0
1070
    74
1070
     0
1000
MTEXTEND
  0
POINT
  5
7BD
330
7B5
100
AcDbEntity
  8
Defpoints
 62
     0
100
AcDbPoint
 10
-160.1045416668985
 20
-802.5997593757455
 30
0.0
  0
POINT
  5
7BE
330
7B5
100
AcDbEntity
  8
Defpoints
 62
     0
100
AcDbPoint
 10
-170.0430160363884
 20
-802.5997593757455
 30
0.0
  0
POINT
  5
7BF
330
7B5
100
AcDbEntity
  8
Defpoints
 62
     0
100
AcDbPoint
 10
-170.0430160363884
 20
-796.2032258978077
 30
0.0
  0
ENDBLK
  5
7C0
330
7B5
100
AcDbEntity
  8
0
100
AcDbBlockEnd
  0
BLOCK
  5
7E7
330
7E6
100
AcDbEntity
  8
0
100
AcDbBlockBegin
  2
*D14
 70
     1
 10
0.0
 20
0.0
 30
0.0
  3
*D14
  1

  0
LINE
  5
870
330
7E6
100
AcDbEntity
  8
0
 62
     0
370
    -2
100
AcDbLine
 10
253.5098424161473
 20
-11.44587560816978
 30
0.0
 11
253.5098424161473
 21
-14.35550703017861
 31
0.0
  0
LINE
  5
871
330
7E6
100
AcDbEntity
  8
0
 62
     0
370
    -2
100
AcDbLine
 10
251.052655362027
 20
-11.44587560816978
 30
0.0
 11
251.052655362027
 21
-14.35550703017861
 31
0.0
  0
LINE
  5
872
330
7E6
100
AcDbEntity
  8
0
 62
     0
370
    -2
100
AcDbLine
 10
256.0098424161473
 20
-13.10550703017861
 30
0.0
 11
258.5098424161472
 21
-13.10550703017861
 31
0.0
  0
LINE
  5
873
330
7E6
100
AcDbEntity
  8
0
 62
     0
370
    -2
100
AcDbLine
 10
248.5526553620269
 20
-13.10550703017861
 30
0.0
 11
235.8026553620269
 21
-13.10550703017861
 31
0.0
  0
LINE
  5
874
330
7E6
100
AcDbEntity
  8
0
 62
     0
370
    -2
100
AcDbLine
 10
253.5098424161473
 20
-13.10550703017861
 30
0.0
 11
251.052655362027
 21
-13.10550703017861
 31
0.0
  0
INSERT
  5
875
330
7E6
100
AcDbEntity
  8
0
 62
     0
370
    -2
100
AcDbBlockReference
  2
_Open30
 10
253.5098424161473
 20
-13.10550703017861
 30
0.0
 41
2.5
 42
2.5
 43
2.5
 50
180.0
  0
INSERT
  5
876
330
7E6
100
AcDbEntity
  8
0
 62
     0
370
    -2
100
AcDbBlockReference
  2
_Open30
 10
251.052655362027
 20
-13.10550703017861
 30
0.0
 41
2.5
 42
2.5
 43
2.5
  0
MTEXT
  5
877
330
7E6
100
AcDbEntity
  8
0
 62
     4
100
AcDbMText
 10
240.9276553620269
 20
-10.98050703017861
 30
0.0
 40
3.0
 41
0.0
 71
     5
 72
     1
  1
2.46
 73
     1
 44
1.0
1001
ACAD
1000
MTEXTBEGIN
1070
    73
1070
     1
1070
    44
1040
1.0
1070
    74
1070
     0
1000
MTEXTEND
  0
POINT
  5
878
330
7E6
100
AcDbEntity
  8
Defpoints
 62
     0
100
AcDbPoint
 10
253.5098424161473
 20
-11.19587560816978
 30
0.0
  0
POINT
  5
879
330
7E6
100
AcDbEntity
  8
Defpoints
 62
     0
100
AcDbPoint
 10
251.052655362027
 20
-11.19587560816978
 30
0.0
  0
POINT
  5
87A
330
7E6
100
AcDbEntity
  8
Defpoints
 62
     0
100
AcDbPoint
 10
251.052655362027
 20
-13.10550703017861
 30
0.0
  0
ENDBLK
  5
7E8
330
7E6
100
AcDbEntity
  8
0
100
AcDbBlockEnd
  0
BLOCK
  5
7F5
330
7F4
100
AcDbEntity
  8
0
100
AcDbBlockBegin
  2
*D15
 70
     1
 10
0.0
 20
0.0
 30
0.0
  3
*D15
  1

  0
LINE
  5
87B
330
7F4
100
AcDbEntity
  8
0
 62
     0
370
    -2
100
AcDbLine
 10
255.1479673222204
 20
-16.90196518093216
 30
0.0
 11
255.1479673222204
 21
-19.44785725039549
 31
0.0
  0
LINE
  5
87C
330
7F4
100
AcDbEntity
  8
0
 62
     0
370
    -2
100
AcDbLine
 10
252.0537315240775
 20
-16.90196518093216
 30
0.0
 11
252.0537315240775
 21
-19.44785725039549
 31
0.0
  0
LINE
  5
87D
330
7F4
100
AcDbEntity
  8
0
 62
     0
370
    -2
100
AcDbLine
 10
257.6479673222205
 20
-18.19785725039549
 30
0.0
 11
260.1479673222204
 21
-18.19785725039549
 31
0.0
  0
LINE
  5
87E
330
7F4
100
AcDbEntity
  8
0
 62
     0
370
    -2
100
AcDbLine
 10
249.5537315240775
 20
-18.19785725039549
 30
0.0
 11
235.7203981907442
 21
-18.19785725039549
 31
0.0
  0
LINE
  5
87F
330
7F4
100
AcDbEntity
  8
0
 62
     0
370
    -2
100
AcDbLine
 10
255.1479673222204
 20
-18.19785725039549
 30
0.0
 11
252.0537315240775
 21
-18.19785725039549
 31
0.0
  0
INSERT
  5
880
330
7F4
100
AcDbEntity
  8
0
 62
     0
370
    -2
100
AcDbBlockReference
  2
_Open30
 10
255.1479673222204
 20
-18.19785725039549
 30
0.0
 41
2.5
 42
2.5
 43
2.5
 50
180.0
  0
INSERT
  5
881
330
7F4
100
AcDbEntity
  8
0
 62
     0
370
    -2
100
AcDbBlockReference
  2
_Open30
 10
252.0537315240775
 20
-18.19785725039549
 30
0.0
 41
2.5
 42
2.5
 43
2.5
  0
MTEXT
  5
882
330
7F4
100
AcDbEntity
  8
0
 62
     4
100
AcDbMText
 10
240.9287315240775
 20
-16.32285725039549
 30
0.0
 40
2.5
 41
0.0
 71
     5
 72
     1
  1
15.47
  7
高2.5
 73
     1
 44
1.0
1001
ACAD
1000
MTEXTBEGIN
1070
    73
1070
     1
1070
    44
1040
1.0
1070
    74
1070
     0
1000
MTEXTEND
  0
POINT
  5
883
330
7F4
100
AcDbEntity
  8
Defpoints
 62
     0
100
AcDbPoint
 10
255.1479673222204
 20
-16.65196518093216
 30
0.0
  0
POINT
  5
884
330
7F4
100
AcDbEntity
  8
Defpoints
 62
     0
100
AcDbPoint
 10
252.0537315240775
 20
-16.65196518093216
 30
0.0
  0
POINT
  5
885
330
7F4
100
AcDbEntity
  8
Defpoints
 62
     0
100
AcDbPoint
 10
252.0537315240775
 20
-18.19785725039549
 30
0.0
  0
ENDBLK
  5
7F6
330
7F4
100
AcDbEntity
  8
0
100
AcDbBlockEnd
  0
BLOCK
  5
803
330
802
100
AcDbEntity
  8
0
100
AcDbBlockBegin
  2
*D16
 70
     1
 10
0.0
 20
0.0
 30
0.0
  3
*D16
  1

  0
LINE
  5
886
330
802
100
AcDbEntity
  8
0
 62
     0
370
    -2
100
AcDbLine
 10
256.8770989303059
 20
-22.35805489677864
 30
0.0
 11
256.8770989303059
 21
-24.63114255914593
 31
0.0
  0
LINE
  5
887
330
802
100
AcDbEntity
  8
0
 62
     0
370
    -2
100
AcDbLine
 10
252.8727939771141
 20
-22.35805489677864
 30
0.0
 11
252.8727939771141
 21
-24.63114255914593
 31
0.0
  0
LINE
  5
888
330
802
100
AcDbEntity
  8
0
 62
     0
370
    -2
100
AcDbLine
 10
259.3770989303059
 20
-23.38114255914593
 30
0.0
 11
261.8770989303059
 21
-23.38114255914593
 31
0.0
  0
LINE
  5
889
330
802
100
AcDbEntity
  8
0
 62
     0
370
    -2
100
AcDbLine
 10
250.3727939771141
 20
-23.38114255914593
 30
0.0
 11
238.6227939771141
 21
-23.38114255914593
 31
0.0
  0
LINE
  5
88A
330
802
100
AcDbEntity
  8
0
 62
     0
370
    -2
100
AcDbLine
 10
256.8770989303059
 20
-23.38114255914593
 30
0.0
 11
252.8727939771141
 21
-23.38114255914593
 31
0.0
  0
INSERT
  5
88B
330
802
100
AcDbEntity
  8
0
 62
     0
370
    -2
100
AcDbBlockReference
  2
_Open30
 10
256.8770989303059
 20
-23.38114255914593
 30
0.0
 41
2.5
 42
2.5
 43
2.5
 50
180.0
  0
INSERT
  5
88C
330
802
100
AcDbEntity
  8
0
 62
     0
370
    -2
100
AcDbBlockReference
  2
_Open30
 10
252.8727939771141
 20
-23.38114255914593
 30
0.0
 41
2.5
 42
2.5
 43
2.5
  0
MTEXT
  5
88D
330
802
100
AcDbEntity
  8
0
 62
     4
100
AcDbMText
 10
243.2477939771141
 20
-21.15614255914593
 30
0.0
 40
3.2
 41
0.0
 71
     5
 72
     1
  1
8.01
  7
高3.2
 73
     1
 44
1.0
1001
ACAD
1000
MTEXTBEGIN
1070
    73
1070
     1
1070
    44
1040
1.0
1070
    74
1070
     0
1000
MTEXTEND
  0
POINT
  5
88E
330
802
100
AcDbEntity
  8
Defpoints
 62
     0
100
AcDbPoint
 10
256.8770989303059
 20
-22.10805489677864
 30
0.0
  0
POINT
  5
88F
330
802
100
AcDbEntity
  8
Defpoints
 62
     0
100
AcDbPoint
 10
252.8727939771141
 20
-22.10805489677864
 30
0.0
  0
POINT
  5
890
330
802
100
AcDbEntity
  8
Defpoints
 62
     0
100
AcDbPoint
 10
252.8727939771141
 20
-23.38114255914593
 30
0.0
  0
ENDBLK
  5
804
330
802
100
AcDbEntity
  8
0
100
AcDbBlockEnd
  0
BLOCK
  5
811
330
810
100
AcDbEntity
  8
0
100
AcDbBlockBegin
  2
*D17
 70
     1
 10
0.0
 20
0.0
 30
0.0
  3
*D17
  1

  0
LINE
  5
891
330
810
100
AcDbEntity
  8
0
 62
     0
370
    -2
100
AcDbLine
 10
256.7860922282936
 20
-27.63227486481027
 30
0.0
 11
256.7860922282936
 21
-29.45068837226666
 31
0.0
  0
LINE
  5
892
330
810
100
AcDbEntity
  8
0
 62
     0
370
    -2
100
AcDbLine
 10
252.0537315240775
 20
-27.63227486481027
 30
0.0
 11
252.0537315240775
 21
-29.45068837226666
 31
0.0
  0
LINE
  5
893
330
810
100
AcDbEntity
  8
0
 62
     0
370
    -2
100
AcDbLine
 10
259.2860922282936
 20
-28.20068837226666
 30
0.0
 11
261.7860922282936
 21
-28.20068837226666
 31
0.0
  0
LINE
  5
894
330
810
100
AcDbEntity
  8
0
 62
     0
370
    -2
100
AcDbLine
 10
249.5537315240775
 20
-28.20068837226666
 30
0.0
 11
227.8037315240776
 21
-28.20068837226666
 31
0.0
  0
LINE
  5
895
330
810
100
AcDbEntity
  8
0
 62
     0
370
    -2
100
AcDbLine
 10
256.7860922282936
 20
-28.20068837226666
 30
0.0
 11
252.0537315240775
 21
-28.20068837226666
 31
0.0
  0
INSERT
  5
896
330
810
100
AcDbEntity
  8
0
 62
     0
370
    -2
100
AcDbBlockReference
  2
_Open30
 10
256.7860922282936
 20
-28.20068837226666
 30
0.0
 41
2.5
 42
2.5
 43
2.5
 50
180.0
  0
INSERT
  5
897
330
810
100
AcDbEntity
  8
0
 62
     0
370
    -2
100
AcDbBlockReference
  2
_Open30
 10
252.0537315240775
 20
-28.20068837226666
 30
0.0
 41
2.5
 42
2.5
 43
2.5
  0
MTEXT
  5
898
330
810
100
AcDbEntity
  8
0
 62
     4
100
AcDbMText
 10
237.4287315240775
 20
-25.32568837226666
 30
0.0
 40
4.5
 41
0.0
 71
     5
 72
     1
  1
47.32
  7
高4.5
 73
     1
 44
1.0
1001
ACAD
1000
MTEXTBEGIN
1070
    73
1070
     1
1070
    44
1040
1.0
1070
    74
1070
     0
1000
MTEXTEND
  0
POINT
  5
899
330
810
100
AcDbEntity
  8
Defpoints
 62
     0
100
AcDbPoint
 10
256.7860922282936
 20
-27.38227486481026
 30
0.0
  0
POINT
  5
89A
330
810
100
AcDbEntity
  8
Defpoints
 62
     0
100
AcDbPoint
 10
252.0537315240775
 20
-27.38227486481026
 30
0.0
  0
POINT
  5
89B
330
810
100
AcDbEntity
  8
Defpoints
 62
     0
100
AcDbPoint
 10
252.0537315240775
 20
-28.20068837226666
 30
0.0
  0
ENDBLK
  5
812
330
810
100
AcDbEntity
  8
0
100
AcDbBlockEnd
  0
BLOCK
  5
81F
330
81E
100
AcDbEntity
  8
0
100
AcDbBlockBegin
  2
*D18
 70
     1
 10
0.0
 20
0.0
 30
0.0
  3
*D18
  1

  0
LINE
  5
89C
330
81E
100
AcDbEntity
  8
0
 62
     0
370
    -2
100
AcDbLine
 10
278.2637284963011
 20
-11.44587560816978
 30
0.0
 11
278.2637284963011
 21
-14.35550703017861
 31
0.0
  0
LINE
  5
89D
330
81E
100
AcDbEntity
  8
0
 62
     0
370
    -2
100
AcDbLine
 10
275.8065414421809
 20
-11.44587560816978
 30
0.0
 11
275.8065414421809
 21
-14.35550703017861
 31
0.0
  0
LINE
  5
89E
330
81E
100
AcDbEntity
  8
0
 62
     0
370
    -2
100
AcDbLine
 10
280.7637284963011
 20
-13.10550703017861
 30
0.0
 11
283.2637284963011
 21
-13.10550703017861
 31
0.0
  0
LINE
  5
89F
330
81E
100
AcDbEntity
  8
0
 62
     0
370
    -2
100
AcDbLine
 10
273.3065414421808
 20
-13.10550703017861
 30
0.0
 11
251.7065414421808
 21
-13.10550703017861
 31
0.0
  0
LINE
  5
8A0
330
81E
100
AcDbEntity
  8
0
 62
     0
370
    -2
100
AcDbLine
 10
278.2637284963011
 20
-13.10550703017861
 30
0.0
 11
275.8065414421809
 21
-13.10550703017861
 31
0.0
  0
INSERT
  5
8A1
330
81E
100
AcDbEntity
  8
0
 62
     0
370
    -2
100
AcDbBlockReference
  2
_Open30
 10
278.2637284963011
 20
-13.10550703017861
 30
0.0
 41
2.5
 42
2.5
 43
2.5
 50
180.0
  0
INSERT
  5
8A2
330
81E
100
AcDbEntity
  8
0
 62
     0
370
    -2
100
AcDbBlockReference
  2
_Open30
 10
275.8065414421809
 20
-13.10550703017861
 30
0.0
 41
2.5
 42
2.5
 43
2.5
  0
MTEXT
  5
8A3
330
81E
100
AcDbEntity
  8
0
 62
     4
100
AcDbMText
 10
261.2565414421808
 20
-9.330507030178617
 30
0.0
 40
6.299999999999998
 41
0.0
 71
     5
 72
     1
  1
0.25
  7
高6.3
 73
     1
 44
1.0
1001
ACAD
1000
MTEXTBEGIN
1070
    73
1070
     1
1070
    44
1040
1.0
1070
    74
1070
     0
1000
MTEXTEND
  0
POINT
  5
8A4
330
81E
100
AcDbEntity
  8
Defpoints
 62
     0
100
AcDbPoint
 10
278.2637284963011
 20
-11.19587560816978
 30
0.0
  0
POINT
  5
8A5
330
81E
100
AcDbEntity
  8
Defpoints
 62
     0
100
AcDbPoint
 10
275.8065414421809
 20
-11.19587560816978
 30
0.0
  0
POINT
  5
8A6
330
81E
100
AcDbEntity
  8
Defpoints
 62
     0
100
AcDbPoint
 10
275.8065414421809
 20
-13.10550703017861
 30
0.0
  0
ENDBLK
  5
820
330
81E
100
AcDbEntity
  8
0
100
AcDbBlockEnd
  0
BLOCK
  5
82D
330
82C
100
AcDbEntity
  8
0
100
AcDbBlockBegin
  2
*D19
 70
     1
 10
0.0
 20
0.0
 30
0.0
  3
*D19
  1

  0
LINE
  5
8A7
330
82C
100
AcDbEntity
  8
0
 62
     0
370
    -2
100
AcDbLine
 10
279.9018534023743
 20
-16.90196518093216
 30
0.0
 11
279.9018534023743
 21
-19.44785725039549
 31
0.0
  0
LINE
  5
8A8
330
82C
100
AcDbEntity
  8
0
 62
     0
370
    -2
100
AcDbLine
 10
276.8076176042314
 20
-16.90196518093216
 30
0.0
 11
276.8076176042314
 21
-19.44785725039549
 31
0.0
  0
LINE
  5
8A9
330
82C
100
AcDbEntity
  8
0
 62
     0
370
    -2
100
AcDbLine
 10
282.4018534023743
 20
-18.19785725039549
 30
0.0
 11
284.9018534023743
 21
-18.19785725039549
 31
0.0
  0
LINE
  5
8AA
330
82C
100
AcDbEntity
  8
0
 62
     0
370
    -2
100
AcDbLine
 10
274.3076176042314
 20
-18.19785725039549
 30
0.0
 11
262.3076176042314
 21
-18.19785725039549
 31
0.0
  0
LINE
  5
8AB
330
82C
100
AcDbEntity
  8
0
 62
     0
370
    -2
100
AcDbLine
 10
279.9018534023743
 20
-18.19785725039549
 30
0.0
 11
276.8076176042314
 21
-18.19785725039549
 31
0.0
  0
INSERT
  5
8AC
330
82C
100
AcDbEntity
  8
0
 62
     0
370
    -2
100
AcDbBlockReference
  2
_Open30
 10
279.9018534023743
 20
-18.19785725039549
 30
0.0
 41
2.5
 42
2.5
 43
2.5
 50
180.0
  0
INSERT
  5
8AD
330
82C
100
AcDbEntity
  8
0
 62
     0
370
    -2
100
AcDbBlockReference
  2
_Open30
 10
276.8076176042314
 20
-18.19785725039549
 30
0.0
 41
2.5
 42
2.5
 43
2.5
  0
MTEXT
  5
8AE
330
82C
100
AcDbEntity
  8
0
 62
     4
100
AcDbMText
 10
266.9326176042314
 20
-16.07285725039548
 30
0.0
 40
3.0
 41
0.0
 71
     5
 72
     1
  1
1.55
 73
     1
 44
1.0
1001
ACAD
1000
MTEXTBEGIN
1070
    73
1070
     1
1070
    44
1040
1.0
1070
    74
1070
     0
1000
MTEXTEND
  0
POINT
  5
8AF
330
82C
100
AcDbEntity
  8
Defpoints
 62
     0
100
AcDbPoint
 10
279.9018534023743
 20
-16.65196518093216
 30
0.0
  0
POINT
  5
8B0
330
82C
100
AcDbEntity
  8
Defpoints
 62
     0
100
AcDbPoint
 10
276.8076176042314
 20
-16.65196518093216
 30
0.0
  0
POINT
  5
8B1
330
82C
100
AcDbEntity
  8
Defpoints
 62
     0
100
AcDbPoint
 10
276.8076176042314
 20
-18.19785725039549
 30
0.0
  0
ENDBLK
  5
82E
330
82C
100
AcDbEntity
  8
0
100
AcDbBlockEnd
  0
BLOCK
  5
83B
330
83A
100
AcDbEntity
  8
0
100
AcDbBlockBegin
  2
*D20
 70
     1
 10
0.0
 20
0.0
 30
0.0
  3
*D20
  1

  0
LINE
  5
8B2
330
83A
100
AcDbEntity
  8
0
 62
     0
370
    -2
100
AcDbLine
 10
281.6309850104598
 20
-22.35805489677864
 30
0.0
 11
281.6309850104598
 21
-24.63114255914593
 31
0.0
  0
LINE
  5
8B3
330
83A
100
AcDbEntity
  8
0
 62
     0
370
    -2
100
AcDbLine
 10
277.6266800572679
 20
-22.35805489677864
 30
0.0
 11
277.6266800572679
 21
-24.63114255914593
 31
0.0
  0
LINE
  5
8B4
330
83A
100
AcDbEntity
  8
0
 62
     0
370
    -2
100
AcDbLine
 10
284.1309850104598
 20
-23.38114255914593
 30
0.0
 11
286.6309850104597
 21
-23.38114255914593
 31
0.0
  0
LINE
  5
8B5
330
83A
100
AcDbEntity
  8
0
 62
     0
370
    -2
100
AcDbLine
 10
275.1266800572679
 20
-23.38114255914593
 30
0.0
 11
266.7933467239346
 21
-23.38114255914593
 31
0.0
  0
LINE
  5
8B6
330
83A
100
AcDbEntity
  8
0
 62
     0
370
    -2
100
AcDbLine
 10
281.6309850104598
 20
-23.38114255914593
 30
0.0
 11
277.6266800572679
 21
-23.38114255914593
 31
0.0
  0
INSERT
  5
8B7
330
83A
100
AcDbEntity
  8
0
 62
     0
370
    -2
100
AcDbBlockReference
  2
_Open30
 10
281.6309850104598
 20
-23.38114255914593
 30
0.0
 41
2.5
 42
2.5
 43
2.5
 50
180.0
  0
INSERT
  5
8B8
330
83A
100
AcDbEntity
  8
0
 62
     0
370
    -2
100
AcDbBlockReference
  2
_Open30
 10
277.6266800572679
 20
-23.38114255914593
 30
0.0
 41
2.5
 42
2.5
 43
2.5
  0
MTEXT
  5
8B9
330
83A
100
AcDbEntity
  8
0
 62
     4
100
AcDbMText
 10
269.251680057268
 20
-21.75614255914593
 30
0.0
 40
2.0
 41
0.0
 71
     5
 72
     1
  1
0.8
  7
高2
 73
     1
 44
1.0
1001
ACAD
1000
MTEXTBEGIN
1070
    73
1070
     1
1070
    44
1040
1.0
1070
    74
1070
     0
1000
MTEXTEND
  0
POINT
  5
8BA
330
83A
100
AcDbEntity
  8
Defpoints
 62
     0
100
AcDbPoint
 10
281.6309850104598
 20
-22.10805489677864
 30
0.0
  0
POINT
  5
8BB
330
83A
100
AcDbEntity
  8
Defpoints
 62
     0
100
AcDbPoint
 10
277.6266800572679
 20
-22.10805489677864
 30
0.0
  0
POINT
  5
8BC
330
83A
100
AcDbEntity
  8
Defpoints
 62
     0
100
AcDbPoint
 10
277.6266800572679
 20
-23.38114255914593
 30
0.0
  0
ENDBLK
  5
83C
330
83A
100
AcDbEntity
  8
0
100
AcDbBlockEnd
  0
BLOCK
  5
849
330
848
100
AcDbEntity
  8
0
100
AcDbBlockBegin
  2
*D21
 70
     1
 10
0.0
 20
0.0
 30
0.0
  3
*D21
  1

  0
LINE
  5
8BD
330
848
100
AcDbEntity
  8
0
 62
     0
370
    -2
100
AcDbLine
 10
281.5399783084475
 20
-27.63227486481027
 30
0.0
 11
281.5399783084475
 21
-29.45068837226666
 31
0.0
  0
LINE
  5
8BE
330
848
100
AcDbEntity
  8
0
 62
     0
370
    -2
100
AcDbLine
 10
276.8076176042314
 20
-27.63227486481027
 30
0.0
 11
276.8076176042314
 21
-29.45068837226666
 31
0.0
  0
LINE
  5
8BF
330
848
100
AcDbEntity
  8
0
 62
     0
370
    -2
100
AcDbLine
 10
284.0399783084475
 20
-28.20068837226666
 30
0.0
 11
286.5399783084475
 21
-28.20068837226666
 31
0.0
  0
LINE
  5
8C0
330
848
100
AcDbEntity
  8
0
 62
     0
370
    -2
100
AcDbLine
 10
274.3076176042314
 20
-28.20068837226666
 30
0.0
 11
259.5576176042314
 21
-28.20068837226666
 31
0.0
  0
LINE
  5
8C1
330
848
100
AcDbEntity
  8
0
 62
     0
370
    -2
100
AcDbLine
 10
281.5399783084475
 20
-28.20068837226666
 30
0.0
 11
276.8076176042314
 21
-28.20068837226666
 31
0.0
  0
INSERT
  5
8C2
330
848
100
AcDbEntity
  8
0
 62
     0
370
    -2
100
AcDbBlockReference
  2
_Open30
 10
281.5399783084475
 20
-28.20068837226666
 30
0.0
 41
2.5
 42
2.5
 43
2.5
 50
180.0
  0
INSERT
  5
8C3
330
848
100
AcDbEntity
  8
0
 62
     0
370
    -2
100
AcDbBlockReference
  2
_Open30
 10
276.8076176042314
 20
-28.20068837226666
 30
0.0
 41
2.5
 42
2.5
 43
2.5
  0
MTEXT
  5
8C4
330
848
100
AcDbEntity
  8
0
 62
     4
100
AcDbMText
 10
265.6826176042315
 20
-26.07568837226665
 30
0.0
 40
3.0
 41
0.0
 71
     5
 72
     1
  1
18.93
 73
     1
 44
1.0
1001
ACAD
1000
MTEXTBEGIN
1070
    73
1070
     1
1070
    44
1040
1.0
1070
    74
1070
     0
1000
MTEXTEND
  0
POINT
  5
8C5
330
848
100
AcDbEntity
  8
Defpoints
 62
     0
100
AcDbPoint
 10
281.5399783084475
 20
-27.38227486481026
 30
0.0
  0
POINT
  5
8C6
330
848
100
AcDbEntity
  8
Defpoints
 62
     0
100
AcDbPoint
 10
276.8076176042314
 20
-27.38227486481026
 30
0.0
  0
POINT
  5
8C7
330
848
100
AcDbEntity
  8
Defpoints
 62
     0
100
AcDbPoint
 10
276.8076176042314
 20
-28.20068837226666
 30
0.0
  0
ENDBLK
  5
84A
330
848
100
AcDbEntity
  8
0
100
AcDbBlockEnd
  0
BLOCK
  5
857
330
856
100
AcDbEntity
  8
0
100
AcDbBlockBegin
  2
*D22
 70
     1
 10
0.0
 20
0.0
 30
0.0
  3
*D22
  1

  0
LINE
  5
8C8
330
856
100
AcDbEntity
  8
0
 62
     0
370
    -2
100
AcDbLine
 10
278.7355514573091
 20
-32.68811507140004
 30
0.0
 11
278.7355514573091
 21
-34.99803614827556
 31
0.0
  0
LINE
  5
8C9
330
856
100
AcDbEntity
  8
0
 62
     0
370
    -2
100
AcDbLine
 10
274.1468762551613
 20
-32.68811507140004
 30
0.0
 11
274.1468762551613
 21
-34.99803614827556
 31
0.0
  0
LINE
  5
8CA
330
856
100
AcDbEntity
  8
0
 62
     0
370
    -2
100
AcDbLine
 10
281.2355514573091
 20
-33.74803614827556
 30
0.0
 11
283.7355514573092
 21
-33.74803614827556
 31
0.0
  0
LINE
  5
8CB
330
856
100
AcDbEntity
  8
0
 62
     0
370
    -2
100
AcDbLine
 10
271.6468762551613
 20
-33.74803614827556
 30
0.0
 11
256.8968762551611
 21
-33.74803614827556
 31
0.0
  0
LINE
  5
8CC
330
856
100
AcDbEntity
  8
0
 62
     0
370
    -2
100
AcDbLine
 10
278.7355514573091
 20
-33.74803614827556
 30
0.0
 11
274.1468762551613
 21
-33.74803614827556
 31
0.0
  0
INSERT
  5
8CD
330
856
100
AcDbEntity
  8
0
 62
     0
370
    -2
100
AcDbBlockReference
  2
_Open30
 10
278.7355514573091
 20
-33.74803614827556
 30
0.0
 41
2.5
 42
2.5
 43
2.5
 50
180.0
  0
INSERT
  5
8CE
330
856
100
AcDbEntity
  8
0
 62
     0
370
    -2
100
AcDbBlockReference
  2
_Open30
 10
274.1468762551613
 20
-33.74803614827556
 30
0.0
 41
2.5
 42
2.5
 43
2.5
  0
MTEXT
  5
8CF
330
856
100
AcDbEntity
  8
0
 62
     4
100
AcDbMText
 10
263.0218762551613
 20
-31.62303614827556
 30
0.0
 40
3.0
 41
0.0
 71
     5
 72
     1
  1
13.77
 73
     1
 44
1.0
1001
ACAD
1000
MTEXTBEGIN
1070
    73
1070
     1
1070
    44
1040
1.0
1070
    74
1070
     0
1000
MTEXTEND
  0
POINT
  5
8D0
330
856
100
AcDbEntity
  8
Defpoints
 62
     0
100
AcDbPoint
 10
278.7355514573091
 20
-32.43811507140004
 30
0.0
  0
POINT
  5
8D1
330
856
100
AcDbEntity
  8
Defpoints
 62
     0
100
AcDbPoint
 10
274.1468762551613
 20
-32.43811507140004
 30
0.0
  0
POINT
  5
8D2
330
856
100
AcDbEntity
  8
Defpoints
 62
     0
100
AcDbPoint
 10
274.1468762551613
 20
-33.74803614827556
 30
0.0
  0
ENDBLK
  5
858
330
856
100
AcDbEntity
  8
0
100
AcDbBlockEnd
  0
BLOCK
  5
865
330
864
100
AcDbEntity
  8
0
100
AcDbBlockBegin
  2
*D23
 70
     1
 10
0.0
 20
0.0
 30
0.0
  3
*D23
  1

  0
LINE
  5
8D3
330
864
100
AcDbEntity
  8
0
 62
     0
370
    -2
100
AcDbLine
 10
271.6392686241588
 20
-1.758623753125674
 30
0.0
 11
271.6392686241588
 21
5.637909724812061
 31
0.0
  0
LINE
  5
8D4
330
864
100
AcDbEntity
  8
0
 62
     0
370
    -2
100
AcDbLine
 10
261.7007942546688
 20
-1.758623753125674
 30
0.0
 11
261.7007942546688
 21
5.637909724812061
 31
0.0
  0
LINE
  5
8D5
330
864
100
AcDbEntity
  8
0
 62
     0
370
    -2
100
AcDbLine
 10
269.1392686241588
 20
4.387909724812061
 30
0.0
 11
264.2007942546688
 21
4.387909724812061
 31
0.0
  0
INSERT
  5
8D6
330
864
100
AcDbEntity
  8
0
 62
     0
370
    -2
100
AcDbBlockReference
  2
_Open30
 10
271.6392686241588
 20
4.387909724812061
 30
0.0
 41
2.5
 42
2.5
 43
2.5
  0
INSERT
  5
8D7
330
864
100
AcDbEntity
  8
0
 62
     0
370
    -2
100
AcDbBlockReference
  2
_Open30
 10
261.7007942546688
 20
4.387909724812061
 30
0.0
 41
2.5
 42
2.5
 43
2.5
 50
180.0
  0
MTEXT
  5
8D8
330
864
100
AcDbEntity
  8
0
 62
     4
100
AcDbMText
 10
266.6700314394138
 20
7.462909724812058
 30
0.0
 40
3.0
 41
0.0
 71
     5
 72
     1
  1
9.94\H0.7X;\S+0^ -0.02;
 73
     1
 44
1.0
1001
ACAD
1000
MTEXTBEGIN
1070
    73
1070
     1
1070
    44
1040
1.0
1070
    74
1070
     0
1000
MTEXTEND
  0
POINT
  5
8D9
330
864
100
AcDbEntity
  8
Defpoints
 62
     0
100
AcDbPoint
 10
271.6392686241588
 20
-2.008623753125675
 30
0.0
  0
POINT
  5
8DA
330
864
100
AcDbEntity
  8
Defpoints
 62
     0
100
AcDbPoint
 10
261.7007942546688
 20
-2.008623753125675
 30
0.0
  0
POINT
  5
8DB
330
864
100
AcDbEntity
  8
Defpoints
 62
     0
100
AcDbPoint
 10
261.7007942546688
 20
4.387909724812061
 30
0.0
  0
ENDBLK
  5
866
330
864
100
AcDbEntity
  8
0
100
AcDbBlockEnd
  0
ENDSEC
  0
SECTION
  2
ENTITIES
  0
TEXT
  5
BB
330
6B
100
AcDbEntity
  8
0
 62
     3
100
AcDbText
 10
128.614454
 20
-127.506079
 30
0.0
 40
3.2
  1
FREE
  7
高3.2
100
AcDbText
  0
LINE
  5
BC
330
6B
100
AcDbEntity
  8
0
100
AcDbLine
 10
115.086036
 20
-39.822142
 30
0.0
 11
115.086036
 21
-86.39174200000002
 31
0.0
  0
LINE
  5
BD
330
6B
100
AcDbEntity
  8
0
 62
     3
100
AcDbLine
 10
159.089862185893
 20
-39.822142
 30
0.0
 11
159.089862185893
 21
-86.39174200000002
 31
0.0
  0
LINE
  5
BE
330
6B
100
AcDbEntity
  8
0
 62
     3
100
AcDbLine
 10
-42.322252
 20
63.532735
 30
0.0
 11
-152.322252
 21
63.532735
 31
0.0
  0
LINE
  5
BF
330
6B
100
AcDbEntity
  8
0
 62
     3
100
AcDbLine
 10
-115.163897
 20
52.79106999999999
 30
0.0
 11
-105.563897
 21
52.79106999999999
 31
0.0
  0
LINE
  5
C0
330
6B
100
AcDbEntity
  8
0
 62
     3
100
AcDbLine
 10
-115.163897
 20
38.196844
 30
0.0
 11
-105.563897
 21
38.196844
 31
0.0
  0
LINE
  5
C1
330
6B
100
AcDbEntity
  8
0
 62
     3
100
AcDbLine
 10
-152.322252
 20
28.599316
 30
0.0
 11
-42.322252
 21
28.599316
 31
0.0
  0
LINE
  5
C2
330
6B
100
AcDbEntity
  8
0
 62
     3
100
AcDbLine
 10
-89.81466899999999
 20
89.722457
 30
0.0
 11
-104.829835
 21
89.722457
 31
0.0
  0
LINE
  5
C3
330
6B
100
AcDbEntity
  8
0
 62
     3
100
AcDbLine
 10
-88.61466899999998
 20
88.52245699999995
 30
0.0
 11
-88.61466899999998
 21
86.42711099999997
 31
0.0
  0
ARC
  5
C4
330
6B
100
AcDbEntity
  8
0
 62
     3
100
AcDbCircle
 10
-89.81466899999999
 20
88.52245699999995
 30
0.0
 40
1.199999999999999
100
AcDbArc
 50
0.0
 51
90.0
  0
LINE
  5
C5
330
6B
100
AcDbEntity
  8
0
 62
     3
100
AcDbLine
 10
-106.029835
 20
88.52245699999995
 30
0.0
 11
-106.029835
 21
86.42711099999997
 31
0.0
  0
ARC
  5
C6
330
6B
100
AcDbEntity
  8
0
 62
     3
100
AcDbCircle
 10
-104.829835
 20
88.52245699999995
 30
0.0
 40
1.199999999999999
100
AcDbArc
 50
90.0
 51
180.0
  0
LINE
  5
C7
330
6B
100
AcDbEntity
  8
0
 62
     3
100
AcDbLine
 10
-90.977189
 20
91.81026499999999
 30
0.0
 11
-103.667315
 21
91.81026499999999
 31
0.0
  0
LINE
  5
C8
330
6B
100
AcDbEntity
  8
0
 62
     3
100
AcDbLine
 10
-90.977189
 20
89.722457
 30
0.0
 11
-90.977189
 21
91.81026499999999
 31
0.0
  0
LINE
  5
C9
330
6B
100
AcDbEntity
  8
0
 62
     3
100
AcDbLine
 10
-103.667315
 20
91.81026499999999
 30
0.0
 11
-103.667315
 21
89.722457
 31
0.0
  0
LINE
  5
CA
330
6B
100
AcDbEntity
  8
0
 62
     3
100
AcDbLine
 10
82.95715200000001
 20
88.52245699999995
 30
0.0
 11
82.95715200000001
 21
86.42711099999997
 31
0.0
  0
LINE
  5
CB
330
6B
100
AcDbEntity
  8
0
 62
     3
100
AcDbLine
 10
9.637748
 20
88.52245699999995
 30
0.0
 11
9.637748
 21
86.42711099999997
 31
0.0
  0
LINE
  5
CC
330
6B
100
AcDbEntity
  8
0
 62
     3
100
AcDbLine
 10
73.05145300000003
 20
89.722457
 30
0.0
 11
73.05145300000003
 21
86.42711099999997
 31
0.0
  0
LINE
  5
CD
330
6B
100
AcDbEntity
  8
0
 62
     3
100
AcDbLine
 10
19.543447
 20
89.722457
 30
0.0
 11
19.543447
 21
86.42711099999997
 31
0.0
  0
ARC
  5
CE
330
6B
100
AcDbEntity
  8
0
 62
     3
100
AcDbCircle
 10
81.757152
 20
88.52245699999995
 30
0.0
 40
1.199999999999999
100
AcDbArc
 50
0.0
 51
90.0
  0
ARC
  5
CF
330
6B
100
AcDbEntity
  8
0
 62
     3
100
AcDbCircle
 10
10.837748
 20
88.52245699999995
 30
0.0
 40
1.199999999999999
100
AcDbArc
 50
90.0
 51
180.0
  0
LINE
  5
D0
330
6B
100
AcDbEntity
  8
0
 62
     3
100
AcDbLine
 10
10.837748
 20
89.722457
 30
0.0
 11
19.543447
 21
89.722457
 31
0.0
  0
LINE
  5
D1
330
6B
100
AcDbEntity
  8
0
 62
     3
100
AcDbLine
 10
73.05145300000003
 20
89.722457
 30
0.0
 11
81.757152
 21
89.722457
 31
0.0
  0
ARC
  5
D2
330
6B
100
AcDbEntity
  8
0
 62
     3
100
AcDbCircle
 10
46.29744999999998
 20
-36.731558
 30
0.0
 40
128.541823
100
AcDbArc
 50
77.98694199999999
 51
102.013058
  0
ARC
  5
D3
330
6B
100
AcDbEntity
  8
0
 62
     3
100
AcDbCircle
 10
46.29744999999998
 20
-36.731558
 30
0.0
 40
126.741823
100
AcDbArc
 50
77.98694199999999
 51
102.013058
  0
TEXT
  5
D4
330
6B
100
AcDbEntity
  8
0
 62
     3
100
AcDbText
 10
-145.791464
 20
77.61683199999997
 30
0.0
 40
5.4
  1
SuperBooster
 41
0.6594479999999999
100
AcDbText
  0
TEXT
  5
D5
330
6B
100
AcDbEntity
  8
0
 62
     3
100
AcDbText
 10
-101.820242
 20
77.61683199999997
 30
0.0
 40
5.4
  1
40
 41
0.6241
100
AcDbText
  0
TEXT
  5
D6
330
6B
100
AcDbEntity
  8
0
 62
     3
100
AcDbText
 10
-145.791464
 20
69.147441
 30
0.0
 40
5.4
  1
エンジンスタート付き充電器
 41
0.6052020000000004
100
AcDbText
  0
TEXT
  5
D7
330
6B
100
AcDbEntity
  8
0
 62
     3
100
AcDbText
 10
-146.479291
 20
19.902752
 30
0.0
 40
4.32
  1
NB-40
 41
1.034483
100
AcDbText
  0
TEXT
  5
D8
330
6B
100
AcDbEntity
  8
0
 62
     3
100
AcDbText
 10
-98.49362300000001
 20
47.647159
 30
0.0
 40
5.4
  1
12V
100
AcDbText
  0
LINE
  5
D9
330
6B
100
AcDbEntity
  8
0
 62
     3
100
AcDbLine
 10
-83.40475500000001
 20
54.93924899999999
 30
0.0
 11
-96.935766
 21
54.93924899999999
 31
0.0
  0
LINE
  5
DA
330
6B
100
AcDbEntity
  8
0
 62
     3
100
AcDbLine
 10
-96.935766
 20
41.36502
 30
0.0
 11
-83.40475500000001
 21
41.36502
 31
0.0
  0
LINE
  5
DB
330
6B
100
AcDbEntity
  8
0
 62
     3
100
AcDbLine
 10
-99.33576600000002
 20
43.76502
 30
0.0
 11
-99.33576600000002
 21
52.539249
 31
0.0
  0
LINE
  5
DC
330
6B
100
AcDbEntity
  8
0
 62
     3
100
AcDbLine
 10
-81.00475499999998
 20
43.76502
 30
0.0
 11
-81.00475499999998
 21
52.539249
 31
0.0
  0
ARC
  5
DD
330
6B
100
AcDbEntity
  8
0
 62
     3
100
AcDbCircle
 10
-96.935766
 20
52.539249
 30
0.0
 40
2.399999999999999
100
AcDbArc
 50
90.0
 51
180.0
  0
ARC
  5
DE
330
6B
100
AcDbEntity
  8
0
 62
     3
100
AcDbCircle
 10
-83.40475500000001
 20
52.539249
 30
0.0
 40
2.399999999999999
100
AcDbArc
 50
0.0
 51
90.0
  0
ARC
  5
DF
330
6B
100
AcDbEntity
  8
0
 62
     3
100
AcDbCircle
 10
-83.40475500000001
 20
43.76502
 30
0.0
 40
2.399999999999999
100
AcDbArc
 50
270.0
 51
0.0
  0
ARC
  5
E0
330
6B
100
AcDbEntity
  8
0
 62
     3
100
AcDbCircle
 10
-96.935766
 20
43.76502
 30
0.0
 40
2.399999999999999
100
AcDbArc
 50
180.0
 51
270.0
  0
TEXT
  5
E1
330
6B
100
AcDbEntity
  8
0
 62
     3
100
AcDbText
 10
-97.29210999999999
 20
42.38847299999997
 30
0.0
 40
3.839999999999998
  1
ONLY
 41
0.888108
100
AcDbText
  0
TEXT
  5
E2
330
6B
100
AcDbEntity
  8
0
 62
     3
100
AcDbText
 10
110.269414
 20
-106.078746
 30
0.0
 40
4.5
  1
急速充電器
  7
高4.5
100
AcDbText
  0
TEXT
  5
E3
330
6B
100
AcDbEntity
  8
0
 62
     3
100
AcDbText
 10
110.863537
 20
-113.776674
 30
0.0
 40
4.5
  1
NB-40
  7
高4.5
100
AcDbText
  0
ARC
  5
E4
330
6B
100
AcDbEntity
  8
0
 62
     3
100
AcDbCircle
 10
109.400656
 20
-5.931919
 30
0.0
 40
1.169999999999999
100
AcDbArc
 50
291.595
 51
68.405
  0
ARC
  5
E5
330
6B
100
AcDbEntity
  8
0
 62
     3
100
AcDbCircle
 10
116.584656
 20
-11.996919
 30
0.0
 40
8.39
100
AcDbArc
 50
143.61
 51
181.907
  0
ARC
  5
E6
330
6B
100
AcDbEntity
  8
0
 62
     3
100
AcDbCircle
 10
115.336656
 20
-5.931919
 30
0.0
 40
1.169999999999999
100
AcDbArc
 50
111.595
 51
248.405
  0
ARC
  5
E7
330
6B
100
AcDbEntity
  8
0
 62
     3
100
AcDbCircle
 10
108.152656
 20
-11.996919
 30
0.0
 40
8.39
100
AcDbArc
 50
358.093
 51
36.39
  0
LINE
  5
E8
330
6B
100
AcDbEntity
  8
0
 62
     3
100
AcDbLine
 10
111.099656
 20
-1.218919
 30
0.0
 11
113.637656
 21
-1.218919
 31
0.0
  0
LINE
  5
E9
330
6B
100
AcDbEntity
  8
0
 62
     3
100
AcDbLine
 10
113.637656
 20
-1.218919
 30
0.0
 11
113.999656
 21
-4.480919
 31
0.0
  0
LINE
  5
EA
330
6B
100
AcDbEntity
  8
0
 62
     3
100
AcDbLine
 10
113.999656
 20
-4.480919
 30
0.0
 11
110.736656
 21
-4.480919
 31
0.0
  0
LINE
  5
EB
330
6B
100
AcDbEntity
  8
0
 62
     3
100
AcDbLine
 10
110.736656
 20
-4.480919
 30
0.0
 11
111.099656
 21
-1.218919
 31
0.0
  0
LINE
  5
EC
330
6B
100
AcDbEntity
  8
0
 62
     3
100
AcDbLine
 10
110.736656
 20
-4.480919
 30
0.0
 11
109.830656
 21
-4.480919
 31
0.0
  0
LINE
  5
ED
330
6B
100
AcDbEntity
  8
0
 62
     3
100
AcDbLine
 10
109.830656
 20
-4.480919
 30
0.0
 11
109.830656
 21
-4.843919
 31
0.0
  0
LINE
  5
EE
330
6B
100
AcDbEntity
  8
0
 62
     3
100
AcDbLine
 10
114.906656
 20
-4.843919
 30
0.0
 11
114.906656
 21
-4.480919
 31
0.0
  0
LINE
  5
EF
330
6B
100
AcDbEntity
  8
0
 62
     3
100
AcDbLine
 10
114.906656
 20
-4.480919
 30
0.0
 11
113.999656
 21
-4.480919
 31
0.0
  0
LINE
  5
F0
330
6B
100
AcDbEntity
  8
0
 62
     3
100
AcDbLine
 10
108.199656
 20
-12.275919
 30
0.0
 11
116.537656
 21
-12.275919
 31
0.0
  0
LINE
  5
F1
330
6B
100
AcDbEntity
  8
0
 62
     3
100
AcDbLine
 10
113.456656
 20
3.491080999999998
 30
0.0
 11
113.456656
 21
-1.218919
 31
0.0
  0
LINE
  5
F2
330
6B
100
AcDbEntity
  8
0
 62
     3
100
AcDbLine
 10
111.280656
 20
2.503081
 30
0.0
 11
111.280656
 21
-1.218919
 31
0.0
  0
LINE
  5
F3
330
6B
100
AcDbEntity
  8
0
 62
     3
100
AcDbLine
 10
163.810256
 20
16.904709
 30
0.0
 11
158.910256
 21
16.904709
 31
0.0
  0
LINE
  5
F4
330
6B
100
AcDbEntity
  8
0
 62
     3
100
AcDbLine
 10
158.910256
 20
16.904709
 30
0.0
 11
158.910256
 21
-0.5952910000000001
 31
0.0
  0
LINE
  5
F5
330
6B
100
AcDbEntity
  8
0
 62
     3
100
AcDbLine
 10
163.810256
 20
16.904709
 30
0.0
 11
163.810256
 21
-0.5952910000000001
 31
0.0
  0
LINE
  5
F6
330
6B
100
AcDbEntity
  8
0
 62
     3
100
AcDbLine
 10
163.810256
 20
-0.5952910000000001
 30
0.0
 11
158.910256
 21
-0.5952910000000001
 31
0.0
  0
LINE
  5
F7
330
6B
100
AcDbEntity
  8
0
 62
     3
100
AcDbLine
 10
162.653256
 20
-0.660291
 30
0.0
 11
162.653256
 21
-6.545291
 31
0.0
  0
LINE
  5
F8
330
6B
100
AcDbEntity
  8
0
 62
     3
100
AcDbLine
 10
162.653256
 20
-6.545291
 30
0.0
 11
164.262256
 21
-15.030291
 31
0.0
  0
LINE
  5
F9
330
6B
100
AcDbEntity
  8
0
 62
     3
100
AcDbLine
 10
164.217256
 20
-15.076291
 30
0.0
 11
161.801256
 21
-17.578291
 31
0.0
  0
LINE
  5
FA
330
6B
100
AcDbEntity
  8
0
 62
     3
100
AcDbLine
 10
158.475256
 20
-16.297291
 30
0.0
 11
161.699256
 21
-17.600291
 31
0.0
  0
LINE
  5
FB
330
6B
100
AcDbEntity
  8
0
 62
     3
100
AcDbLine
 10
156.433256
 20
-7.868291
 30
0.0
 11
158.415256
 21
-16.273291
 31
0.0
  0
LINE
  5
FC
330
6B
100
AcDbEntity
  8
0
 62
     3
100
AcDbLine
 10
154.039256
 20
-2.491290999999999
 30
0.0
 11
156.433256
 21
-7.868291
 31
0.0
  0
LINE
  5
FD
330
6B
100
AcDbEntity
  8
0
 62
     3
100
AcDbLine
 10
156.743256
 20
-1.217290999999999
 30
0.0
 11
158.928256
 21
-4.311291
 31
0.0
  0
LINE
  5
FE
330
6B
100
AcDbEntity
  8
0
 62
     3
100
AcDbLine
 10
152.957256
 20
-2.902290999999998
 30
0.0
 11
157.433256
 21
-0.9092909999999999
 31
0.0
  0
LINE
  5
FF
330
6B
100
AcDbEntity
  8
0
 62
     3
100
AcDbLine
 10
150.315256
 20
15.077709
 30
0.0
 11
157.433256
 21
-0.9092909999999999
 31
0.0
  0
LINE
  5
100
330
6B
100
AcDbEntity
  8
0
 62
     3
100
AcDbLine
 10
145.839256
 20
13.084709
 30
0.0
 11
152.957256
 21
-2.902290999999998
 31
0.0
  0
LINE
  5
101
330
6B
100
AcDbEntity
  8
0
 62
     3
100
AcDbLine
 10
145.839256
 20
13.084709
 30
0.0
 11
150.315256
 21
15.077709
 31
0.0
  0
LINE
  5
102
330
6B
100
AcDbEntity
  8
0
 62
     3
100
AcDbLine
 10
159.665256
 20
-0.5952910000000001
 30
0.0
 11
158.512256
 21
-6.409291
 31
0.0
  0
LINE
  5
103
330
6B
100
AcDbEntity
  8
0
 62
     3
100
AcDbLine
 10
162.160256
 20
-14.644291
 30
0.0
 11
158.512256
 21
-6.409291
 31
0.0
  0
LINE
  5
104
330
6B
100
AcDbEntity
  8
0
 62
     3
100
AcDbLine
 10
162.160256
 20
-14.644291
 30
0.0
 11
161.801256
 21
-17.578291
 31
0.0
  0
LINE
  5
105
330
6B
100
AcDbEntity
  8
0
 62
     3
100
AcDbLine
 10
160.178256
 20
-15.065291
 30
0.0
 11
161.699256
 21
-17.600291
 31
0.0
  0
LINE
  5
106
330
6B
100
AcDbEntity
  8
0
 62
     3
100
AcDbLine
 10
160.178256
 20
-15.065291
 30
0.0
 11
160.169256
 21
-10.150291
 31
0.0
  0
LINE
  5
107
330
6B
100
AcDbEntity
  8
0
 62
     3
100
AcDbLine
 10
144.303256
 20
12.435709
 30
0.0
 11
139.403256
 21
12.435709
 31
0.0
  0
LINE
  5
108
330
6B
100
AcDbEntity
  8
0
 62
     3
100
AcDbLine
 10
139.403256
 20
12.435709
 30
0.0
 11
139.403256
 21
-5.064291
 31
0.0
  0
LINE
  5
109
330
6B
100
AcDbEntity
  8
0
 62
     3
100
AcDbLine
 10
144.303256
 20
12.435709
 30
0.0
 11
144.303256
 21
-5.064291
 31
0.0
  0
LINE
  5
10A
330
6B
100
AcDbEntity
  8
0
 62
     3
100
AcDbLine
 10
144.303256
 20
-5.064291
 30
0.0
 11
139.403256
 21
-5.064291
 31
0.0
  0
LINE
  5
10B
330
6B
100
AcDbEntity
  8
0
 62
     3
100
AcDbLine
 10
143.147256
 20
-5.128290999999999
 30
0.0
 11
143.147256
 21
-11.014291
 31
0.0
  0
LINE
  5
10C
330
6B
100
AcDbEntity
  8
0
 62
     3
100
AcDbLine
 10
143.147256
 20
-11.014291
 30
0.0
 11
144.755256
 21
-19.499291
 31
0.0
  0
LINE
  5
10D
330
6B
100
AcDbEntity
  8
0
 62
     3
100
AcDbLine
 10
144.710256
 20
-19.545291
 30
0.0
 11
142.295256
 21
-22.047291
 31
0.0
  0
LINE
  5
10E
330
6B
100
AcDbEntity
  8
0
 62
     3
100
AcDbLine
 10
138.968256
 20
-20.766291
 30
0.0
 11
142.192256
 21
-22.068291
 31
0.0
  0
LINE
  5
10F
330
6B
100
AcDbEntity
  8
0
 62
     3
100
AcDbLine
 10
136.927256
 20
-12.336291
 30
0.0
 11
138.908256
 21
-20.741291
 31
0.0
  0
LINE
  5
110
330
6B
100
AcDbEntity
  8
0
 62
     3
100
AcDbLine
 10
134.533256
 20
-6.959291
 30
0.0
 11
136.927256
 21
-12.336291
 31
0.0
  0
LINE
  5
111
330
6B
100
AcDbEntity
  8
0
 62
     3
100
AcDbLine
 10
137.237256
 20
-5.685291
 30
0.0
 11
139.422256
 21
-8.780291
 31
0.0
  0
LINE
  5
112
330
6B
100
AcDbEntity
  8
0
 62
     3
100
AcDbLine
 10
133.450256
 20
-7.371291
 30
0.0
 11
137.927256
 21
-5.378290999999999
 31
0.0
  0
LINE
  5
113
330
6B
100
AcDbEntity
  8
0
 62
     3
100
AcDbLine
 10
130.809256
 20
10.608709
 30
0.0
 11
137.927256
 21
-5.378290999999999
 31
0.0
  0
LINE
  5
114
330
6B
100
AcDbEntity
  8
0
 62
     3
100
AcDbLine
 10
126.332256
 20
8.615708999999997
 30
0.0
 11
133.450256
 21
-7.371291
 31
0.0
  0
LINE
  5
115
330
6B
100
AcDbEntity
  8
0
 62
     3
100
AcDbLine
 10
126.332256
 20
8.615708999999997
 30
0.0
 11
130.809256
 21
10.608709
 31
0.0
  0
LINE
  5
116
330
6B
100
AcDbEntity
  8
0
 62
     3
100
AcDbLine
 10
140.159256
 20
-5.064291
 30
0.0
 11
139.005256
 21
-10.878291
 31
0.0
  0
LINE
  5
117
330
6B
100
AcDbEntity
  8
0
 62
     3
100
AcDbLine
 10
142.654256
 20
-19.113291
 30
0.0
 11
139.005256
 21
-10.878291
 31
0.0
  0
LINE
  5
118
330
6B
100
AcDbEntity
  8
0
 62
     3
100
AcDbLine
 10
142.654256
 20
-19.113291
 30
0.0
 11
142.295256
 21
-22.047291
 31
0.0
  0
LINE
  5
119
330
6B
100
AcDbEntity
  8
0
 62
     3
100
AcDbLine
 10
140.672256
 20
-19.534291
 30
0.0
 11
142.192256
 21
-22.068291
 31
0.0
  0
LINE
  5
11A
330
6B
100
AcDbEntity
  8
0
 62
     3
100
AcDbLine
 10
140.672256
 20
-19.534291
 30
0.0
 11
140.663256
 21
-14.619291
 31
0.0
  0
LINE
  5
11B
330
6B
100
AcDbEntity
  8
0
 62
     3
100
AcDbLine
 10
99.63774800000001
 20
33.290709
 30
0.0
 11
151.293256
 21
33.290709
 31
0.0
  0
LINE
  5
11C
330
6B
100
AcDbEntity
  8
0
 62
     3
100
AcDbLine
 10
120.154256
 20
30.423709
 30
0.0
 11
99.63774800000001
 21
30.423709
 31
0.0
  0
LINE
  5
11D
330
6B
100
AcDbEntity
  8
0
 62
     3
100
AcDbLine
 10
131.920256
 20
30.423709
 30
0.0
 11
120.154256
 21
30.423709
 31
0.0
  0
ARC
  5
11E
330
6B
100
AcDbEntity
  8
0
 62
     3
100
AcDbCircle
 10
131.920256
 20
21.923709
 30
0.0
 40
8.5
100
AcDbArc
 50
0.0
 51
90.0
  0
ARC
  5
11F
330
6B
100
AcDbEntity
  8
0
 62
     3
100
AcDbCircle
 10
131.787256
 20
21.790709
 30
0.0
 40
11.5
100
AcDbArc
 50
2.494829
 51
90.0
  0
LINE
  5
120
330
6B
100
AcDbEntity
  8
0
 62
     3
100
AcDbLine
 10
143.287256
 20
20.589717
 30
0.0
 11
143.287256
 21
12.435709
 31
0.0
  0
LINE
  5
121
330
6B
100
AcDbEntity
  8
0
 62
     3
100
AcDbLine
 10
140.420256
 20
19.897051
 30
0.0
 11
140.420256
 21
12.435709
 31
0.0
  0
ARC
  5
122
330
6B
100
AcDbEntity
  8
0
 62
     3
100
AcDbCircle
 10
151.426256
 20
21.923709
 30
0.0
 40
8.5
100
AcDbArc
 50
0.0
 51
90.0
  0
ARC
  5
123
330
6B
100
AcDbEntity
  8
0
 62
     3
100
AcDbCircle
 10
151.293256
 20
21.790709
 30
0.0
 40
11.5
100
AcDbArc
 50
4.060119999999998
 51
90.0
  0
LINE
  5
124
330
6B
100
AcDbEntity
  8
0
 62
     3
100
AcDbLine
 10
159.926256
 20
20.199036
 30
0.0
 11
159.926256
 21
16.904709
 31
0.0
  0
LINE
  5
125
330
6B
100
AcDbEntity
  8
0
 62
     3
100
AcDbLine
 10
162.793256
 20
20.901614
 30
0.0
 11
162.793256
 21
16.904709
 31
0.0
  0
LINE
  5
126
330
6B
100
AcDbEntity
  8
0
 62
     3
100
AcDbLine
 10
151.426256
 20
30.423709
 30
0.0
 11
139.384711
 21
30.423709
 31
0.0
  0
LINE
  5
15D
330
6B
100
AcDbEntity
  8
0
 62
     3
100
AcDbLine
 10
111.280656
 20
4.444008999999998
 30
0.0
 11
111.280656
 21
24.052041
 31
0.0
  0
LINE
  5
15E
330
6B
100
AcDbEntity
  8
0
 62
     3
100
AcDbLine
 10
113.456657
 20
5.32932
 30
0.0
 11
113.456657
 21
23.977719
 31
0.0
  0
ARC
  5
15F
330
6B
100
AcDbEntity
  8
0
 62
     3
100
AcDbCircle
 10
98.63774800000001
 20
34.667111
 30
0.0
 40
1.0
100
AcDbArc
 50
0.0
 51
90.0
  0
ARC
  5
160
330
6B
100
AcDbEntity
  8
0
 62
     3
100
AcDbCircle
 10
98.63774800000001
 20
28.267111
 30
0.0
 40
1.0
100
AcDbArc
 50
270.0
 51
0.0
  0
TEXT
  5
161
330
6B
100
AcDbEntity
  8
0
 62
     3
100
AcDbText
 10
157.820396
 20
-127.696106
 30
0.0
 40
3.2
  1
1995.4.26
  7
高3.2
100
AcDbText
  0
TEXT
  5
164
330
6B
100
AcDbEntity
  8
0
 62
     3
100
AcDbText
 10
85.22871999999997
 20
-72.58614200000002
 30
0.0
 40
3.2
  1
セルスタート時電流
 41
0.8
  7
高3.2
100
AcDbText
  0
TEXT
  5
165
330
6B
100
AcDbEntity
  8
0
 62
     3
100
AcDbText
 10
116.586036
 20
-72.58614200000002
 30
0.0
 40
3.2
  1
40A(10sec)MAX
  7
高3.2
100
AcDbText
  0
TEXT
  5
16A
330
6B
100
AcDbEntity
  8
0
 62
     3
100
AcDbText
 10
116.586036
 20
-79.23894200000002
 30
0.0
 40
3.2
  1
管ヒューズ8A
  7
高3.2
100
AcDbText
  0
LINE
  5
184
330
6B
100
AcDbEntity
  8
0
 62
     3
100
AcDbLine
 10
-8.362251999999998
 20
25.467111
 30
0.0
 11
-2.362252
 21
19.467111
 31
0.0
  0
LINE
  5
18A
330
6B
100
AcDbEntity
  8
0
100
AcDbLine
 10
97.431525
 20
51.27382199999999
 30
0.0
 11
110.955902
 21
63.512737
 31
0.0
  0
CIRCLE
  5
18B
330
6B
100
AcDbEntity
  8
0
100
AcDbCircle
 10
114.66323
 20
66.867692
 30
0.0
 40
5.0
  0
TEXT
  5
18C
330
6B
100
AcDbEntity
  8
0
 62
     4
100
AcDbText
 10
112.5644592185928
 20
63.64696743939289
 30
0.0
 40
6.299999999999998
  1
8
  7
高6.3
100
AcDbText
  0
LINE
  5
192
330
6B
100
AcDbEntity
  8
0
100
AcDbLine
 10
122.664933
 20
33.290709
 30
0.0
 11
133.868948
 21
61.902925
 31
0.0
  0
CIRCLE
  5
193
330
6B
100
AcDbEntity
  8
0
100
AcDbCircle
 10
135.692064
 20
66.5587
 30
0.0
 40
5.0
  0
TEXT
  5
194
330
6B
100
AcDbEntity
  8
0
 62
     4
100
AcDbText
 10
133.0974646245629
 20
64.28206113449494
 30
0.0
 40
4.5
  1
10
  7
高4.5
100
AcDbText
  0
LINE
  5
19A
330
6B
100
AcDbEntity
  8
0
100
AcDbLine
 10
111.280656
 20
1.080909
 30
0.0
 11
103.240416
 21
-5.434881999999999
 31
0.0
  0
CIRCLE
  5
19B
330
6B
100
AcDbEntity
  8
0
100
AcDbCircle
 10
99.35585299999999
 20
-8.582924
 30
0.0
 40
5.0
  0
TEXT
  5
19C
330
6B
100
AcDbEntity
  8
0
 62
     4
100
AcDbText
 10
97.25708221859278
 20
-11.80364856060711
 30
0.0
 40
6.299999999999998
  1
9
  7
高6.3
100
AcDbText
  0
LINE
  5
1A2
330
6B
100
AcDbEntity
  8
0
100
AcDbLine
 10
83.75497499999999
 20
12.267111
 30
0.0
 11
72.59874499999998
 21
-4.425845999999999
 31
0.0
  0
CIRCLE
  5
1A3
330
6B
100
AcDbEntity
  8
0
100
AcDbCircle
 10
69.82048899999999
 20
-8.582924
 30
0.0
 40
5.0
  0
TEXT
  5
1A4
330
6B
100
AcDbEntity
  8
0
 62
     4
100
AcDbText
 10
67.72171821859278
 20
-11.80364856060711
 30
0.0
 40
6.299999999999998
  1
7
  7
高6.3
100
AcDbText
  0
LINE
  5
1AA
330
6B
100
AcDbEntity
  8
0
100
AcDbLine
 10
34.246017
 20
19.467111
 30
0.0
 11
20.331004
 21
-4.269471
 31
0.0
  0
CIRCLE
  5
1AB
330
6B
100
AcDbEntity
  8
0
100
AcDbCircle
 10
17.802344
 20
-8.582924
 30
0.0
 40
5.0
  0
TEXT
  5
1AC
330
6B
100
AcDbEntity
  8
0
 62
     4
100
AcDbText
 10
15.70357321859279
 20
-11.80364856060711
 30
0.0
 40
6.299999999999998
  1
2
  7
高6.3
100
AcDbText
  0
LINE
  5
1B2
330
6B
100
AcDbEntity
  8
0
100
AcDbLine
 10
-106.163897
 20
40.973087
 30
0.0
 11
-87.14813900000001
 21
-3.978012999999998
 31
0.0
  0
CIRCLE
  5
1B3
330
6B
100
AcDbEntity
  8
0
100
AcDbCircle
 10
-85.20011399999999
 20
-8.582924
 30
0.0
 40
5.0
  0
TEXT
  5
1B4
330
6B
100
AcDbEntity
  8
0
 62
     4
100
AcDbText
 10
-87.2988847814072
 20
-11.80364856060711
 30
0.0
 40
6.299999999999998
  1
6
  7
高6.3
100
AcDbText
  0
LINE
  5
1BA
330
6B
100
AcDbEntity
  8
0
100
AcDbLine
 10
-119.053857
 20
19.467111
 30
0.0
 11
-110.537647
 21
-3.885530999999998
 31
0.0
  0
CIRCLE
  5
1BB
330
6B
100
AcDbEntity
  8
0
100
AcDbCircle
 10
-108.824608
 20
-8.582924
 30
0.0
 40
5.0
  0
TEXT
  5
1BC
330
6B
100
AcDbEntity
  8
0
 62
     4
100
AcDbText
 10
-109.9020110302108
 20
-11.83784573859338
 30
0.0
 40
6.299999999999998
  1
1
  7
高6.3
100
AcDbText
  0
LINE
  5
1C2
330
6B
100
AcDbEntity
  8
0
100
AcDbLine
 10
-139.938278
 20
38.86553
 30
0.0
 11
-125.916468
 21
-3.832516
 31
0.0
  0
CIRCLE
  5
1C3
330
6B
100
AcDbEntity
  8
0
100
AcDbCircle
 10
-124.356459
 20
-8.582924
 30
0.0
 40
5.0
  0
TEXT
  5
1C4
330
6B
100
AcDbEntity
  8
0
 62
     4
100
AcDbText
 10
-126.4552297814072
 20
-11.80364856060711
 30
0.0
 40
6.299999999999998
  1
5
  7
高6.3
100
AcDbText
  0
LINE
  5
1CA
330
6B
100
AcDbEntity
  8
0
100
AcDbLine
 10
28.988959
 20
90.63961799999999
 30
0.0
 11
24.668155
 21
99.694417
 31
0.0
  0
CIRCLE
  5
1CB
330
6B
100
AcDbEntity
  8
0
100
AcDbCircle
 10
22.514834
 20
104.206978
 30
0.0
 40
5.0
  0
TEXT
  5
1CC
330
6B
100
AcDbEntity
  8
0
 62
     4
100
AcDbText
 10
20.41606321859279
 20
100.9862534393929
 30
0.0
 40
6.299999999999998
  1
3
  7
高6.3
100
AcDbText
  0
LINE
  5
1D2
330
6B
100
AcDbEntity
  8
0
100
AcDbLine
 10
-57.72488199999999
 20
82.090627
 30
0.0
 11
-65.699771
 21
100.850174
 31
0.0
  0
CIRCLE
  5
1D3
330
6B
100
AcDbEntity
  8
0
100
AcDbCircle
 10
-67.655907
 20
105.451645
 30
0.0
 40
5.0
  0
TEXT
  5
1D4
330
6B
100
AcDbEntity
  8
0
 62
     4
100
AcDbText
 10
-69.75467778140721
 20
102.2309204393929
 30
0.0
 40
6.299999999999998
  1
4
  7
高6.3
100
AcDbText
  0
TEXT
  5
1D5
330
6B
100
AcDbEntity
  8
0
 62
     3
100
AcDbText
 10
-128.394408
 20
63.95558799999999
 30
0.0
 40
3.839999999999998
  1
適合バッテリー　２６Ａｈ～６０Ａｈ
 41
0.6818
100
AcDbText
  0
LINE
  5
1D6
330
6B
100
AcDbEntity
  8
0
 62
     3
100
AcDbLine
 10
-47.522858
 20
82.090627
 30
0.0
 11
-47.522858
 21
68.890627
 31
0.0
  0
LINE
  5
1D7
330
6B
100
AcDbEntity
  8
0
 62
     3
100
AcDbLine
 10
-47.522858
 20
82.090627
 30
0.0
 11
-69.722858
 21
82.090627
 31
0.0
  0
LINE
  5
1D8
330
6B
100
AcDbEntity
  8
0
 62
     3
100
AcDbLine
 10
-69.722858
 20
68.890627
 30
0.0
 11
-69.722858
 21
82.090627
 31
0.0
  0
LINE
  5
1D9
330
6B
100
AcDbEntity
  8
0
 62
     3
100
AcDbLine
 10
-47.522858
 20
68.890627
 30
0.0
 11
-69.722858
 21
68.890627
 31
0.0
  0
LINE
  5
1DA
330
6B
100
AcDbEntity
  8
0
 62
     3
100
AcDbLine
 10
-41.36225200000001
 20
19.467111
 30
0.0
 11
-153.282252
 21
19.467111
 31
0.0
  0
LINE
  5
1DB
330
6B
100
AcDbEntity
  8
0
100
AcDbLine
 10
-106.163897
 20
52.110401
 30
0.0
 11
-114.563897
 21
52.110401
 31
0.0
  0
LINE
  5
1DC
330
6B
100
AcDbEntity
  8
0
100
AcDbLine
 10
-114.563897
 20
38.877513
 30
0.0
 11
-114.563897
 21
52.110401
 31
0.0
  0
LINE
  5
1DD
330
6B
100
AcDbEntity
  8
0
100
AcDbLine
 10
-106.163897
 20
52.110401
 30
0.0
 11
-106.163897
 21
38.877513
 31
0.0
  0
LINE
  5
1DE
330
6B
100
AcDbEntity
  8
0
100
AcDbLine
 10
-106.163897
 20
38.877513
 30
0.0
 11
-114.563897
 21
38.877513
 31
0.0
  0
LINE
  5
1DF
330
6B
100
AcDbEntity
  8
0
100
AcDbLine
 10
-135.315136
 20
53.56553
 30
0.0
 11
-143.715136
 21
53.56553
 31
0.0
  0
LINE
  5
1E0
330
6B
100
AcDbEntity
  8
0
100
AcDbLine
 10
-143.715136
 20
36.16553
 30
0.0
 11
-143.715136
 21
53.56553
 31
0.0
  0
LINE
  5
1E1
330
6B
100
AcDbEntity
  8
0
100
AcDbLine
 10
-135.315136
 20
53.56553
 30
0.0
 11
-135.315136
 21
36.16553
 31
0.0
  0
LINE
  5
1E2
330
6B
100
AcDbEntity
  8
0
100
AcDbLine
 10
-135.315136
 20
36.16553
 30
0.0
 11
-143.715136
 21
36.16553
 31
0.0
  0
LINE
  5
1E3
330
6B
100
AcDbEntity
  8
0
100
AcDbLine
 10
-152.322252
 20
19.467111
 30
0.0
 11
-152.322252
 21
85.46711100000001
 31
0.0
  0
LINE
  5
1E4
330
6B
100
AcDbEntity
  8
0
100
AcDbLine
 10
-42.322252
 20
85.46711100000001
 30
0.0
 11
-152.322252
 21
85.46711100000001
 31
0.0
  0
LINE
  5
1E5
330
6B
100
AcDbEntity
  8
0
100
AcDbLine
 10
-42.322252
 20
85.46711100000001
 30
0.0
 11
-42.322252
 21
19.467111
 31
0.0
  0
LINE
  5
1E6
330
6B
100
AcDbEntity
  8
0
100
AcDbLine
 10
163.810256
 20
13.054709
 30
0.0
 11
158.910256
 21
13.054709
 31
0.0
  0
LINE
  5
1E7
330
6B
100
AcDbEntity
  8
0
100
AcDbLine
 10
163.810256
 20
11.654709
 30
0.0
 11
158.910256
 21
11.654709
 31
0.0
  0
LINE
  5
1E8
330
6B
100
AcDbEntity
  8
0
100
AcDbLine
 10
163.810256
 20
10.254709
 30
0.0
 11
158.910256
 21
10.254709
 31
0.0
  0
LINE
  5
1E9
330
6B
100
AcDbEntity
  8
0
100
AcDbLine
 10
163.810256
 20
8.854708999999997
 30
0.0
 11
158.910256
 21
8.854708999999997
 31
0.0
  0
LINE
  5
1EA
330
6B
100
AcDbEntity
  8
0
100
AcDbLine
 10
163.810256
 20
7.454708999999997
 30
0.0
 11
158.910256
 21
7.454708999999997
 31
0.0
  0
LINE
  5
1EB
330
6B
100
AcDbEntity
  8
0
100
AcDbLine
 10
163.810256
 20
6.054708999999999
 30
0.0
 11
158.910256
 21
6.054708999999999
 31
0.0
  0
LINE
  5
1EC
330
6B
100
AcDbEntity
  8
0
100
AcDbLine
 10
163.810256
 20
4.654708999999998
 30
0.0
 11
158.910256
 21
4.654708999999998
 31
0.0
  0
LINE
  5
1ED
330
6B
100
AcDbEntity
  8
0
100
AcDbLine
 10
163.810256
 20
3.254709
 30
0.0
 11
158.910256
 21
3.254709
 31
0.0
  0
LINE
  5
1EE
330
6B
100
AcDbEntity
  8
0
100
AcDbLine
 10
163.810256
 20
1.854708999999999
 30
0.0
 11
158.910256
 21
1.854708999999999
 31
0.0
  0
LINE
  5
1EF
330
6B
100
AcDbEntity
  8
0
100
AcDbLine
 10
147.405256
 20
9.567708999999997
 30
0.0
 11
151.881256
 21
11.560709
 31
0.0
  0
LINE
  5
1F0
330
6B
100
AcDbEntity
  8
0
100
AcDbLine
 10
147.974256
 20
8.288708999999997
 30
0.0
 11
152.450256
 21
10.281709
 31
0.0
  0
LINE
  5
1F1
330
6B
100
AcDbEntity
  8
0
100
AcDbLine
 10
148.544256
 20
7.009708999999999
 30
0.0
 11
153.020256
 21
9.002708999999997
 31
0.0
  0
LINE
  5
1F2
330
6B
100
AcDbEntity
  8
0
100
AcDbLine
 10
149.113256
 20
5.730709
 30
0.0
 11
153.589256
 21
7.723708999999997
 31
0.0
  0
LINE
  5
1F3
330
6B
100
AcDbEntity
  8
0
100
AcDbLine
 10
149.682256
 20
4.451708999999999
 30
0.0
 11
154.159256
 21
6.444708999999997
 31
0.0
  0
LINE
  5
1F4
330
6B
100
AcDbEntity
  8
0
100
AcDbLine
 10
150.821256
 20
1.893709
 30
0.0
 11
155.298256
 21
3.886708999999998
 31
0.0
  0
LINE
  5
1F5
330
6B
100
AcDbEntity
  8
0
100
AcDbLine
 10
151.391256
 20
0.6147090000000001
 30
0.0
 11
155.867256
 21
2.607708999999998
 31
0.0
  0
LINE
  5
1F6
330
6B
100
AcDbEntity
  8
0
100
AcDbLine
 10
151.960216
 20
-0.6653090000000002
 30
0.0
 11
156.437216
 21
1.327690999999999
 31
0.0
  0
LINE
  5
1F7
330
6B
100
AcDbEntity
  8
0
100
AcDbLine
 10
150.252256
 20
3.172709
 30
0.0
 11
154.728256
 21
5.165708999999996
 31
0.0
  0
LINE
  5
1F8
330
6B
100
AcDbEntity
  8
0
100
AcDbLine
 10
144.303256
 20
8.585708999999999
 30
0.0
 11
139.403256
 21
8.585708999999999
 31
0.0
  0
LINE
  5
1F9
330
6B
100
AcDbEntity
  8
0
100
AcDbLine
 10
144.303256
 20
7.185708999999999
 30
0.0
 11
139.403256
 21
7.185708999999999
 31
0.0
  0
LINE
  5
1FA
330
6B
100
AcDbEntity
  8
0
100
AcDbLine
 10
144.303256
 20
5.785708999999997
 30
0.0
 11
139.403256
 21
5.785708999999997
 31
0.0
  0
LINE
  5
1FB
330
6B
100
AcDbEntity
  8
0
100
AcDbLine
 10
144.303256
 20
4.385708999999998
 30
0.0
 11
139.403256
 21
4.385708999999998
 31
0.0
  0
LINE
  5
1FC
330
6B
100
AcDbEntity
  8
0
100
AcDbLine
 10
144.303256
 20
2.985708999999998
 30
0.0
 11
139.403256
 21
2.985708999999998
 31
0.0
  0
LINE
  5
1FD
330
6B
100
AcDbEntity
  8
0
100
AcDbLine
 10
144.303256
 20
1.585709
 30
0.0
 11
139.403256
 21
1.585709
 31
0.0
  0
LINE
  5
1FE
330
6B
100
AcDbEntity
  8
0
100
AcDbLine
 10
144.303256
 20
0.185709
 30
0.0
 11
139.403256
 21
0.185709
 31
0.0
  0
LINE
  5
1FF
330
6B
100
AcDbEntity
  8
0
100
AcDbLine
 10
144.303256
 20
-1.214291
 30
0.0
 11
139.403256
 21
-1.214291
 31
0.0
  0
LINE
  5
200
330
6B
100
AcDbEntity
  8
0
100
AcDbLine
 10
144.303256
 20
-2.614291
 30
0.0
 11
139.403256
 21
-2.614291
 31
0.0
  0
LINE
  5
201
330
6B
100
AcDbEntity
  8
0
100
AcDbLine
 10
127.898256
 20
5.098708999999998
 30
0.0
 11
132.375256
 21
7.091708999999998
 31
0.0
  0
LINE
  5
202
330
6B
100
AcDbEntity
  8
0
100
AcDbLine
 10
128.468256
 20
3.819708999999998
 30
0.0
 11
132.944256
 21
5.812708999999999
 31
0.0
  0
LINE
  5
203
330
6B
100
AcDbEntity
  8
0
100
AcDbLine
 10
129.037256
 20
2.540709
 30
0.0
 11
133.514256
 21
4.533708999999999
 31
0.0
  0
LINE
  5
204
330
6B
100
AcDbEntity
  8
0
100
AcDbLine
 10
129.607256
 20
1.261708999999997
 30
0.0
 11
134.083256
 21
3.254709
 31
0.0
  0
LINE
  5
205
330
6B
100
AcDbEntity
  8
0
100
AcDbLine
 10
130.176256
 20
-0.017291
 30
0.0
 11
134.652256
 21
1.975708999999999
 31
0.0
  0
LINE
  5
206
330
6B
100
AcDbEntity
  8
0
100
AcDbLine
 10
130.746256
 20
-1.296291
 30
0.0
 11
135.222256
 21
0.6967090000000003
 31
0.0
  0
LINE
  5
207
330
6B
100
AcDbEntity
  8
0
100
AcDbLine
 10
131.315256
 20
-2.575290999999999
 30
0.0
 11
135.791256
 21
-0.5822910000000002
 31
0.0
  0
LINE
  5
208
330
6B
100
AcDbEntity
  8
0
100
AcDbLine
 10
131.884256
 20
-3.854291
 30
0.0
 11
136.361256
 21
-1.861290999999999
 31
0.0
  0
LINE
  5
209
330
6B
100
AcDbEntity
  8
0
100
AcDbLine
 10
132.453844
 20
-5.132474
 30
0.0
 11
136.930844
 21
-3.139474
 31
0.0
  0
TEXT
  5
20A
330
6B
100
AcDbEntity
  8
0
 62
     3
100
AcDbText
 10
152.2113351619436
 20
-137.596075
 30
0.0
 40
6.299999999999998
  1
NB-40
  7
高6.3
100
AcDbText
  0
ARC
  5
212
330
6B
100
AcDbEntity
  8
0
100
AcDbCircle
 10
96.987673
 20
46.97477
 30
0.0
 40
0.5
100
AcDbArc
 50
270.0
 51
0.0
  0
ARC
  5
213
330
6B
100
AcDbEntity
  8
0
100
AcDbCircle
 10
96.987673
 20
54.37477
 30
0.0
 40
0.5
100
AcDbArc
 50
0.0
 51
90.0
  0
LINE
  5
214
330
6B
100
AcDbEntity
  8
0
100
AcDbLine
 10
109.830656
 20
-4.843919
 30
0.0
 11
114.906656
 21
-4.843919
 31
0.0
  0
LINE
  5
215
330
6B
100
AcDbEntity
  8
0
100
AcDbLine
 10
110.736656
 20
-12.275919
 30
0.0
 11
110.736656
 21
-16.988919
 31
0.0
  0
LINE
  5
216
330
6B
100
AcDbEntity
  8
0
100
AcDbLine
 10
110.736656
 20
-16.988919
 30
0.0
 11
110.011656
 21
-16.988919
 31
0.0
  0
LINE
  5
217
330
6B
100
AcDbEntity
  8
0
100
AcDbLine
 10
110.011656
 20
-16.988919
 30
0.0
 11
110.011656
 21
-12.275919
 31
0.0
  0
LINE
  5
218
330
6B
100
AcDbEntity
  8
0
100
AcDbLine
 10
114.725656
 20
-12.275919
 30
0.0
 11
114.725656
 21
-16.988919
 31
0.0
  0
LINE
  5
219
330
6B
100
AcDbEntity
  8
0
100
AcDbLine
 10
114.725656
 20
-16.988919
 30
0.0
 11
113.999656
 21
-16.988919
 31
0.0
  0
LINE
  5
21A
330
6B
100
AcDbEntity
  8
0
100
AcDbLine
 10
113.999656
 20
-16.988919
 30
0.0
 11
113.999656
 21
-12.275919
 31
0.0
  0
TEXT
  5
21B
330
6B
100
AcDbEntity
  8
0
100
AcDbText
 10
-65.864141
 20
63.746409
 30
0.0
 40
3.839999999999998
  1
直流電圧計
 41
0.6818
100
AcDbText
  0
TEXT
  5
21C
330
6B
100
AcDbEntity
  8
0
100
AcDbText
 10
-79.64437099999997
 20
56.85129
 30
0.0
 40
3.839999999999998
  1
エンジンスタート
 41
0.6818
100
AcDbText
  0
TEXT
  5
21D
330
6B
100
AcDbEntity
  8
0
100
AcDbText
 10
-121.67359
 20
56.074579
 30
0.0
 40
3.839999999999998
  1
エンジンスタート
 41
0.6818
100
AcDbText
  0
LINE
  5
21E
330
6B
100
AcDbEntity
  8
0
100
AcDbLine
 10
-113.363897
 20
49.55789199999999
 30
0.0
 11
-107.363897
 21
49.55789199999999
 31
0.0
  0
LINE
  5
21F
330
6B
100
AcDbEntity
  8
0
100
AcDbLine
 10
-113.363897
 20
45.493957
 30
0.0
 11
-107.363897
 21
45.493957
 31
0.0
  0
LINE
  5
220
330
6B
100
AcDbEntity
  8
0
100
AcDbLine
 10
-113.363897
 20
41.43002199999999
 30
0.0
 11
-107.363897
 21
41.43002199999999
 31
0.0
  0
LINE
  5
221
330
6B
100
AcDbEntity
  8
0
100
AcDbLine
 10
-142.515136
 20
44.86552999999999
 30
0.0
 11
-136.515136
 21
44.86552999999999
 31
0.0
  0
TEXT
  5
222
330
6B
100
AcDbEntity
  8
0
100
AcDbText
 10
-79.90672700000001
 20
40.66476
 30
0.0
 40
3.839999999999998
  1
8A MAX
 41
1.111110999999997
100
AcDbText
  0
TEXT
  5
223
330
6B
100
AcDbEntity
  8
0
100
AcDbText
 10
-79.90672700000001
 20
46.117656
 30
0.0
 40
3.839999999999998
  1
充電電流
 41
0.833333
100
AcDbText
  0
TEXT
  5
224
330
6B
100
AcDbEntity
  8
0
100
AcDbText
 10
-79.90672700000001
 20
51.80259
 30
0.0
 40
3.839999999999998
  1
40A MAX 10SEC
 41
0.8687669999999998
100
AcDbText
  0
TEXT
  5
225
330
6B
100
AcDbEntity
  8
0
100
AcDbText
 10
-117.76209
 20
32.754749
 30
0.0
 40
3.839999999999998
  1
通常充電
 41
0.833333
100
AcDbText
  0
TEXT
  5
226
330
6B
100
AcDbEntity
  8
0
100
AcDbText
 10
-149.784671
 20
24.911033
 30
0.0
 40
3.072
  1
MODEL
100
AcDbText
  0
TEXT
  5
227
330
6B
100
AcDbEntity
  8
0
100
AcDbText
 10
-87.007737
 20
21.783349
 30
0.0
 40
3.839999999999998
  1
NICHIDO IND.CO.LTD
 41
0.708249
100
AcDbText
  0
LINE
  5
228
330
6B
100
AcDbEntity
  8
0
100
AcDbLine
 10
102.7629559449229
 20
-38.083477
 30
0.0
 11
140.5629559449229
 21
-38.083477
 31
0.0
  0
LINE
  5
22B
330
6B
100
AcDbEntity
  8
0
 62
     3
100
AcDbLine
 10
169.300637
 20
-121.834277
 30
0.0
 11
169.300637
 21
-98.834277
 31
0.0
  0
LINE
  5
22D
330
6B
100
AcDbEntity
  8
0
 62
     3
100
AcDbLine
 10
116.247027
 20
-128.834277
 30
0.0
 11
116.247027
 21
-114.834277
 31
0.0
  0
TEXT
  5
22F
330
6B
100
AcDbEntity
  8
0
 62
     3
100
AcDbText
 10
145.310955
 20
-102.629161
 30
0.0
 40
2.0
  1
A
 41
0.7
100
AcDbText
  0
TEXT
  5
230
330
6B
100
AcDbEntity
  8
0
 62
     3
100
AcDbText
 10
147.846241
 20
-102.629161
 30
0.0
 40
2.0
  1
P
 41
0.7
100
AcDbText
  0
TEXT
  5
231
330
6B
100
AcDbEntity
  8
0
 62
     3
100
AcDbText
 10
150.381527
 20
-102.629161
 30
0.0
 40
2.0
  1
P
 41
0.7
100
AcDbText
  0
TEXT
  5
232
330
6B
100
AcDbEntity
  8
0
 62
     3
100
AcDbText
 10
152.916813
 20
-102.629161
 30
0.0
 40
2.0
  1
D
 41
0.7
100
AcDbText
  0
TEXT
  5
233
330
6B
100
AcDbEntity
  8
0
 62
     3
100
AcDbText
 10
158.285496
 20
-102.629161
 30
0.0
 40
2.0
  1
C
 41
0.7
100
AcDbText
  0
TEXT
  5
234
330
6B
100
AcDbEntity
  8
0
 62
     3
100
AcDbText
 10
160.820783
 20
-102.629161
 30
0.0
 40
2.0
  1
H
 41
0.7
100
AcDbText
  0
TEXT
  5
235
330
6B
100
AcDbEntity
  8
0
 62
     3
100
AcDbText
 10
163.356069
 20
-102.629161
 30
0.0
 40
2.0
  1
C
 41
0.7
100
AcDbText
  0
TEXT
  5
236
330
6B
100
AcDbEntity
  8
0
 62
     3
100
AcDbText
 10
165.891355
 20
-102.629161
 30
0.0
 40
2.0
  1
K
 41
0.7
100
AcDbText
  0
TEXT
  5
237
330
6B
100
AcDbEntity
  8
0
 62
     3
100
AcDbText
 10
171.565322
 20
-102.629161
 30
0.0
 40
2.0
  1
DESN
 41
1.216762999999998
100
AcDbText
  0
TEXT
  5
238
330
6B
100
AcDbEntity
  8
0
 62
     3
100
AcDbText
 10
86.558963
 20
-131.975659
 30
0.0
 40
2.0
  1
NICHIDO IND.CO.LTD
 41
1.274876
100
AcDbText
  0
LINE
  5
239
330
6B
100
AcDbEntity
  8
0
 62
     3
100
AcDbLine
 10
96.94199199999999
 20
-98.834277
 30
0.0
 11
96.94199199999999
 21
-121.834277
 31
0.0
  0
LINE
  5
23A
330
6B
100
AcDbEntity
  8
0
 62
     3
100
AcDbLine
 10
143.300637
 20
-98.834277
 30
0.0
 11
143.300637
 21
-138.5
 31
0.0
  0
LINE
  5
23F
330
6B
100
AcDbEntity
  8
0
 62
     3
100
AcDbLine
 10
156.300637
 20
-98.834277
 30
0.0
 11
156.300637
 21
-128.834277
 31
0.0
  0
TEXT
  5
240
330
6B
100
AcDbEntity
  8
0
 62
     3
100
AcDbText
 10
144.413081
 20
-127.969591
 30
0.0
 40
3.2
  1
作成日
 41
1.017225999999997
100
AcDbText
  0
LINE
  5
241
330
6B
100
AcDbEntity
  8
0
 62
     3
100
AcDbLine
 10
195.0
 20
-98.834277
 30
0.0
 11
83.696558
 21
-98.834277
 31
0.0
  0
LINE
  5
242
330
6B
100
AcDbEntity
  8
0
 62
     3
100
AcDbLine
 10
182.300637
 20
-121.834277
 30
0.0
 11
182.300637
 21
-98.834277
 31
0.0
  0
TEXT
  5
243
330
6B
100
AcDbEntity
  8
0
 62
     3
100
AcDbText
 10
185.62444
 20
-102.543343
 30
0.0
 40
1.8
  1
D
 41
0.666667
100
AcDbText
  0
TEXT
  5
244
330
6B
100
AcDbEntity
  8
0
 62
     3
100
AcDbText
 10
188.441068
 20
-102.543343
 30
0.0
 40
1.8
  1
E
 41
0.666667
100
AcDbText
  0
TEXT
  5
245
330
6B
100
AcDbEntity
  8
0
 62
     3
100
AcDbText
 10
191.257696
 20
-102.543343
 30
0.0
 40
1.8
  1
F
 41
0.666667
100
AcDbText
  0
TEXT
  5
246
330
6B
100
AcDbEntity
  8
0
 62
     3
100
AcDbText
 10
185.62444
 20
-106.535896
 30
0.0
 40
3.2
  1
製図
 41
1.076369
100
AcDbText
  0
LINE
  5
247
330
6B
100
AcDbEntity
  8
0
 62
     3
100
AcDbLine
 10
83.696558
 20
-98.834277
 30
0.0
 11
83.696558
 21
-138.5
 31
0.0
  0
TEXT
  5
248
330
6B
100
AcDbEntity
  8
0
 62
     3
100
AcDbText
 10
85.07321000000002
 20
-138.167535
 30
0.0
 40
5.0
  1
日動工業株式会社
 41
0.833333
100
AcDbText
  0
LINE
  5
249
330
6B
100
AcDbEntity
  8
0
 62
     3
100
AcDbLine
 10
126.578961
 20
-114.834277
 30
0.0
 11
126.578961
 21
-138.5
 31
0.0
  0
LINE
  5
24A
330
6B
100
AcDbEntity
  8
0
 62
     3
100
AcDbLine
 10
126.578961
 20
-133.667139
 30
0.0
 11
143.300637
 21
-133.667139
 31
0.0
  0
TEXT
  5
24B
330
6B
100
AcDbEntity
  8
0
 62
     3
100
AcDbText
 10
127.165563
 20
-132.850708
 30
0.0
 40
3.2
  1
出図コード
 41
0.8356860000000001
100
AcDbText
  0
LINE
  5
24D
330
6B
100
AcDbEntity
  8
0
 62
     3
100
AcDbLine
 10
83.696558
 20
-128.834277
 30
0.0
 11
195.0
 21
-128.834277
 31
0.0
  0
LINE
  5
24F
330
6B
100
AcDbEntity
  8
0
 62
     3
100
AcDbLine
 10
83.696558
 20
-107.834277
 30
0.0
 11
195.0
 21
-107.834277
 31
0.0
  0
LINE
  5
255
330
6B
100
AcDbEntity
  8
0
 62
     3
100
AcDbLine
 10
83.696558
 20
-114.834277
 30
0.0
 11
143.300637
 21
-114.834277
 31
0.0
  0
LINE
  5
25B
330
6B
100
AcDbEntity
  8
0
 62
     3
100
AcDbLine
 10
83.696558
 20
-121.834277
 30
0.0
 11
195.0
 21
-121.834277
 31
0.0
  0
TEXT
  5
25C
330
6B
100
AcDbEntity
  8
0
 62
     3
100
AcDbText
 10
127.033015
 20
-138.1245966156708
 30
0.0
 40
3.2
  1
ZK-A3X
 41
0.8112849999999999
100
AcDbText
  0
TEXT
  5
25D
330
6B
100
AcDbEntity
  8
0
 62
     3
100
AcDbText
 10
85.513954
 20
-102.664752
 30
0.0
 40
2.0
  1
CONPONENTS
 41
0.5331600000000001
100
AcDbText
  0
TEXT
  5
25E
330
6B
100
AcDbEntity
  8
0
 62
     3
100
AcDbText
 10
85.164228
 20
-121.596928
 30
0.0
 40
3.0
  1
材
 41
0.833333
100
AcDbText
  0
TEXT
  5
25F
330
6B
100
AcDbEntity
  8
0
 62
     3
100
AcDbText
 10
92.69986999999998
 20
-121.596928
 30
0.0
 40
3.0
  1
質
 41
0.833333
100
AcDbText
  0
TEXT
  5
260
330
6B
100
AcDbEntity
  8
0
 62
     3
100
AcDbText
 10
85.25229799999998
 20
-110.972404
 30
0.0
 40
2.0
  1
MODEL
 41
1.031072999999999
100
AcDbText
  0
TEXT
  5
261
330
6B
100
AcDbEntity
  8
0
 62
     3
100
AcDbText
 10
85.164228
 20
-117.91462
 30
0.0
 40
2.0
  1
MATERIAL
 41
0.659278
100
AcDbText
  0
TEXT
  5
262
330
6B
100
AcDbEntity
  8
0
 62
     3
100
AcDbText
 10
116.471508
 20
-121.596928
 30
0.0
 40
3.0
  1
備
 41
0.833333
100
AcDbText
  0
TEXT
  5
263
330
6B
100
AcDbEntity
  8
0
 62
     3
100
AcDbText
 10
123.20451
 20
-121.596928
 30
0.0
 40
3.0
  1
考
 41
0.833333
100
AcDbText
  0
TEXT
  5
264
330
6B
100
AcDbEntity
  8
0
 62
     3
100
AcDbText
 10
116.8610570097405
 20
-117.91462
 30
0.0
 40
2.0
  1
REMARKS
 41
0.675794
100
AcDbText
  0
TEXT
  5
265
330
6B
100
AcDbEntity
  8
0
 62
     3
100
AcDbText
 10
86.75395700000001
 20
-124.834741
 30
0.0
 40
2.0
  1
3AD
 41
1.42614
100
AcDbText
  0
TEXT
  5
266
330
6B
100
AcDbEntity
  8
0
 62
     3
100
AcDbText
 10
96.06493700000001
 20
-124.669007
 30
0.0
 40
2.0
  1
ANGLE
 41
1.669883999999995
100
AcDbText
  0
TEXT
  5
267
330
6B
100
AcDbEntity
  8
0
 62
     3
100
AcDbText
 10
116.998824
 20
-125.045848
 30
0.0
 40
2.0
  1
SCALE
 41
0.7719630000000001
100
AcDbText
  0
TEXT
  5
268
330
6B
100
AcDbEntity
  8
0
 62
     3
100
AcDbText
 10
86.440087
 20
-128.834277
 30
0.0
 40
3.0
  1
第
 41
0.833333
100
AcDbText
  0
TEXT
  5
269
330
6B
100
AcDbEntity
  8
0
 62
     3
100
AcDbText
 10
94.22693700000001
 20
-128.834277
 30
0.0
 40
3.0
  1
三
 41
0.833333
100
AcDbText
  0
TEXT
  5
26A
330
6B
100
AcDbEntity
  8
0
 62
     3
100
AcDbText
 10
102.013787
 20
-128.834277
 30
0.0
 40
3.0
  1
角
 41
0.833333
100
AcDbText
  0
TEXT
  5
26B
330
6B
100
AcDbEntity
  8
0
 62
     3
100
AcDbText
 10
109.800637
 20
-128.834277
 30
0.0
 40
3.0
  1
法
 41
0.833333
100
AcDbText
  0
TEXT
  5
26C
330
6B
100
AcDbEntity
  8
0
 62
     3
100
AcDbText
 10
116.862029
 20
-128.545848
 30
0.0
 40
3.0
  1
尺
 41
0.833333
100
AcDbText
  0
TEXT
  5
26D
330
6B
100
AcDbEntity
  8
0
 62
     3
100
AcDbText
 10
123.59503
 20
-128.545848
 30
0.0
 40
3.0
  1
度
 41
0.833333
100
AcDbText
  0
TEXT
  5
26E
330
6B
100
AcDbEntity
  8
0
 62
     3
100
AcDbText
 10
146.178301
 20
-106.376549
 30
0.0
 40
3.0
  1
承認
 41
1.089472999999999
100
AcDbText
  0
TEXT
  5
26F
330
6B
100
AcDbEntity
  8
0
 62
     3
100
AcDbText
 10
159.421181
 20
-106.434277
 30
0.0
 40
3.0
  1
検図
 41
0.931761
100
AcDbText
  0
TEXT
  5
270
330
6B
100
AcDbEntity
  8
0
 62
     3
100
AcDbText
 10
172.421578
 20
-106.434277
 30
0.0
 40
3.0
  1
設
 41
0.833333
100
AcDbText
  0
TEXT
  5
271
330
6B
100
AcDbEntity
  8
0
 62
     3
100
AcDbText
 10
176.911446
 20
-106.434277
 30
0.0
 40
3.0
  1
計
 41
0.833333
100
AcDbText
  0
TEXT
  5
272
330
6B
100
AcDbEntity
  8
0
 62
     3
100
AcDbText
 10
85.584061
 20
-106.261725
 30
0.0
 40
3.0
  1
品
 41
0.833333
100
AcDbText
  0
TEXT
  5
273
330
6B
100
AcDbEntity
  8
0
 62
     3
100
AcDbText
 10
93.119703
 20
-106.261725
 30
0.0
 40
3.0
  1
名
 41
0.833333
100
AcDbText
  0
TEXT
  5
274
330
6B
100
AcDbEntity
  8
0
 62
     3
100
AcDbText
 10
85.25229799999998
 20
-114.4174355834577
 30
0.0
 40
3.0
  1
型
 41
0.833333
100
AcDbText
  0
TEXT
  5
275
330
6B
100
AcDbEntity
  8
0
 62
     3
100
AcDbText
 10
92.80038899999999
 20
-114.4174355834577
 30
0.0
 40
3.0
  1
式
 41
0.833333
100
AcDbText
  0
LINE
  5
276
330
6B
100
AcDbEntity
  8
0
 62
     3
100
AcDbLine
 10
-207.401924
 20
2.0
 30
0.0
 11
-210.0
 21
0.5
 31
0.0
  0
LINE
  5
277
330
6B
100
AcDbEntity
  8
0
 62
     3
100
AcDbLine
 10
-207.401924
 20
2.0
 30
0.0
 11
-210.0
 21
3.5
 31
0.0
  0
LINE
  5
278
330
6B
100
AcDbEntity
  8
0
 62
     3
100
AcDbLine
 10
-210.0
 20
0.5
 30
0.0
 11
-210.0
 21
3.5
 31
0.0
  0
LINE
  5
279
330
6B
100
AcDbEntity
  8
0
 62
     3
100
AcDbLine
 10
-41.36225200000001
 20
85.827111
 30
0.0
 11
-41.36225200000001
 21
19.467111
 31
0.0
  0
LINE
  5
27A
330
6B
100
AcDbEntity
  8
0
 62
     3
100
AcDbLine
 10
-152.682252
 20
86.42711099999997
 30
0.0
 11
-41.96225199999999
 21
86.42711099999997
 31
0.0
  0
LINE
  5
27B
330
6B
100
AcDbEntity
  8
0
 62
     3
100
AcDbLine
 10
-153.282252
 20
85.827111
 30
0.0
 11
-153.282252
 21
19.467111
 31
0.0
  0
TEXT
  5
27C
330
6B
100
AcDbEntity
  8
0
100
AcDbText
 10
-142.849549
 20
55.77117099999998
 30
0.0
 40
3.839999999999998
  1
ON
100
AcDbText
  0
ARC
  5
27D
330
6B
100
AcDbEntity
  8
0
100
AcDbCircle
 10
-58.622258
 20
62.906202
 30
0.0
 40
15.0
100
AcDbArc
 50
56.88572900000001
 51
118.861039
  0
LINE
  5
27E
330
6B
100
AcDbEntity
  8
0
100
AcDbLine
 10
-59.765418
 20
78.76505300000002
 30
0.0
 11
-59.843867
 21
79.66172799999998
 31
0.0
  0
LINE
  5
27F
330
6B
100
AcDbEntity
  8
0
100
AcDbLine
 10
-60.904023
 20
78.641625
 30
0.0
 11
-61.060376
 21
79.52834300000002
 31
0.0
  0
LINE
  5
280
330
6B
100
AcDbEntity
  8
0
100
AcDbLine
 10
-62.034292
 20
78.43578700000001
 30
0.0
 11
-62.26745699999999
 21
79.30597299999998
 31
0.0
  0
LINE
  5
281
330
6B
100
AcDbEntity
  8
0
100
AcDbLine
 10
-63.151879
 20
78.147348
 30
0.0
 11
-63.460225
 21
78.994522
 31
0.0
  0
LINE
  5
282
330
6B
100
AcDbEntity
  8
0
100
AcDbLine
 10
-64.25223000000001
 20
77.776084
 30
0.0
 11
-64.633585
 21
78.59390199999999
 31
0.0
  0
LINE
  5
283
330
6B
100
AcDbEntity
  8
0
100
AcDbLine
 10
-50.863531
 20
76.78468000000002
 30
0.0
 11
-50.344805
 21
77.52549599999998
 31
0.0
  0
LINE
  5
284
330
6B
100
AcDbEntity
  8
0
100
AcDbLine
 10
-51.914658
 20
77.32209899999998
 30
0.0
 11
-51.463001
 21
78.10439399999999
 31
0.0
  0
LINE
  5
285
330
6B
100
AcDbEntity
  8
0
100
AcDbLine
 10
-53.37447499999999
 20
76.958275
 30
0.0
 11
-52.611643
 21
78.59417500000002
 31
0.0
  0
LINE
  5
286
330
6B
100
AcDbEntity
  8
0
100
AcDbLine
 10
-54.093394
 20
78.147573
 30
0.0
 11
-53.785047
 21
78.99474999999998
 31
0.0
  0
LINE
  5
287
330
6B
100
AcDbEntity
  8
0
100
AcDbLine
 10
-55.211017
 20
78.43596099999998
 30
0.0
 11
-54.97785
 21
79.30615
 31
0.0
  0
LINE
  5
288
330
6B
100
AcDbEntity
  8
0
100
AcDbLine
 10
-56.341311
 20
78.64174399999997
 30
0.0
 11
-56.18495799999998
 21
79.528463
 31
0.0
  0
LINE
  5
289
330
6B
100
AcDbEntity
  8
0
100
AcDbLine
 10
-57.47993199999999
 20
78.765114
 30
0.0
 11
-57.401483
 21
79.661789
 31
0.0
  0
LINE
  5
28A
330
6B
100
AcDbEntity
  8
0
100
AcDbLine
 10
-49.26308399999999
 20
76.85775600000003
 30
0.0
 11
-50.427599
 21
75.469942
 31
0.0
  0
ARC
  5
28B
330
6B
100
AcDbEntity
  8
0
100
AcDbCircle
 10
-58.622258
 20
62.906202
 30
0.0
 40
15.9
100
AcDbArc
 50
56.49424200000001
 51
118.861039
  0
LINE
  5
28C
330
6B
100
AcDbEntity
  8
0
 62
     3
100
AcDbLine
 10
-62.22285799999998
 20
70.090627
 30
0.0
 11
-62.22285799999998
 21
68.890627
 31
0.0
  0
LINE
  5
28D
330
6B
100
AcDbEntity
  8
0
 62
     3
100
AcDbLine
 10
-55.02285799999999
 20
70.090627
 30
0.0
 11
-55.02285799999999
 21
68.890627
 31
0.0
  0
LINE
  5
28E
330
6B
100
AcDbEntity
  8
0
 62
     3
100
AcDbLine
 10
98.63774800000001
 20
35.667111
 30
0.0
 11
96.637748
 21
35.667111
 31
0.0
  0
LINE
  5
28F
330
6B
100
AcDbEntity
  8
0
 62
     3
100
AcDbLine
 10
99.63774800000001
 20
28.267111
 30
0.0
 11
99.63774800000001
 21
34.667111
 31
0.0
  0
LINE
  5
290
330
6B
100
AcDbEntity
  8
0
 62
     3
100
AcDbLine
 10
98.63774800000001
 20
27.267111
 30
0.0
 11
96.637748
 21
27.267111
 31
0.0
  0
LINE
  5
291
330
6B
100
AcDbEntity
  8
0
 62
     3
100
AcDbLine
 10
-2.362252
 20
19.467111
 30
0.0
 11
96.637748
 21
19.467111
 31
0.0
  0
LINE
  5
292
330
6B
100
AcDbEntity
  8
0
 62
     3
100
AcDbLine
 10
79.47205100000002
 20
12.79269
 30
0.0
 11
78.637748
 21
19.467111
 31
0.0
  0
ARC
  5
293
330
6B
100
AcDbEntity
  8
0
 62
     3
100
AcDbCircle
 10
80.067417
 20
12.867111
 30
0.0
 40
0.6
100
AcDbArc
 50
187.1250159999999
 51
270.0
  0
LINE
  5
294
330
6B
100
AcDbEntity
  8
0
 62
     3
100
AcDbLine
 10
89.20807899999998
 20
12.267111
 30
0.0
 11
80.067417
 21
12.267111
 31
0.0
  0
LINE
  5
295
330
6B
100
AcDbEntity
  8
0
 62
     3
100
AcDbLine
 10
-59.487949
 20
12.79269
 30
0.0
 11
-60.322252
 21
19.467111
 31
0.0
  0
ARC
  5
296
330
6B
100
AcDbEntity
  8
0
 62
     3
100
AcDbCircle
 10
-58.89258299999998
 20
12.867111
 30
0.0
 40
0.6
100
AcDbArc
 50
187.1250159999999
 51
270.0
  0
LINE
  5
297
330
6B
100
AcDbEntity
  8
0
 62
     3
100
AcDbLine
 10
-49.75192100000001
 20
12.267111
 30
0.0
 11
-58.89258299999998
 21
12.267111
 31
0.0
  0
ARC
  5
298
330
6B
100
AcDbEntity
  8
0
 62
     3
100
AcDbCircle
 10
-49.75192100000001
 20
12.867111
 30
0.0
 40
0.6
100
AcDbArc
 50
270.0
 51
352.874984
  0
LINE
  5
299
330
6B
100
AcDbEntity
  8
0
 62
     3
100
AcDbLine
 10
-49.15655499999999
 20
12.79269
 30
0.0
 11
-48.32225199999999
 21
19.467111
 31
0.0
  0
ARC
  5
29A
330
6B
100
AcDbEntity
  8
0
 62
     3
100
AcDbCircle
 10
-140.751921
 20
12.867111
 30
0.0
 40
0.6
100
AcDbArc
 50
270.0
 51
352.874984
  0
LINE
  5
29B
330
6B
100
AcDbEntity
  8
0
 62
     3
100
AcDbLine
 10
-135.751921
 20
12.267111
 30
0.0
 11
-144.892583
 21
12.267111
 31
0.0
  0
ARC
  5
29C
330
6B
100
AcDbEntity
  8
0
 62
     3
100
AcDbCircle
 10
-144.892583
 20
12.867111
 30
0.0
 40
0.6
100
AcDbArc
 50
187.1250159999999
 51
270.0
  0
LINE
  5
29D
330
6B
100
AcDbEntity
  8
0
 62
     3
100
AcDbLine
 10
-145.487949
 20
12.79269
 30
0.0
 11
-146.322252
 21
19.467111
 31
0.0
  0
LINE
  5
29E
330
6B
100
AcDbEntity
  8
0
 62
     3
100
AcDbLine
 10
-135.156555
 20
12.79269
 30
0.0
 11
-134.322252
 21
19.467111
 31
0.0
  0
LINE
  5
29F
330
6B
100
AcDbEntity
  8
0
 62
     3
100
AcDbLine
 10
-8.362251999999998
 20
86.42711099999997
 30
0.0
 11
96.637748
 21
86.42711099999997
 31
0.0
  0
LINE
  5
2A0
330
6B
100
AcDbEntity
  8
0
 62
     3
100
AcDbLine
 10
4.472051
 20
12.79269
 30
0.0
 11
3.637748
 21
19.467111
 31
0.0
  0
ARC
  5
2A1
330
6B
100
AcDbEntity
  8
0
 62
     3
100
AcDbCircle
 10
5.067416999999998
 20
12.867111
 30
0.0
 40
0.6
100
AcDbArc
 50
187.1250159999999
 51
270.0
  0
LINE
  5
2A2
330
6B
100
AcDbEntity
  8
0
 62
     3
100
AcDbLine
 10
14.208079
 20
12.267111
 30
0.0
 11
5.067416999999998
 21
12.267111
 31
0.0
  0
LINE
  5
2A3
330
6B
100
AcDbEntity
  8
0
 62
     3
100
AcDbLine
 10
14.803445
 20
12.79269
 30
0.0
 11
15.637748
 21
19.467111
 31
0.0
  0
ARC
  5
2A4
330
6B
100
AcDbEntity
  8
0
 62
     3
100
AcDbCircle
 10
14.208079
 20
12.867111
 30
0.0
 40
0.6
100
AcDbArc
 50
270.0
 51
352.874984
  0
LINE
  5
2A5
330
6B
100
AcDbEntity
  8
0
 62
     3
100
AcDbLine
 10
89.80344499999999
 20
12.79269
 30
0.0
 11
90.637748
 21
19.467111
 31
0.0
  0
ARC
  5
2A6
330
6B
100
AcDbEntity
  8
0
 62
     3
100
AcDbCircle
 10
89.20807899999998
 20
12.867111
 30
0.0
 40
0.6
100
AcDbArc
 50
270.0
 51
352.874984
  0
LINE
  5
2A7
330
6B
100
AcDbEntity
  8
0
 62
     3
100
AcDbLine
 10
-144.315136
 20
35.26553
 30
0.0
 11
-144.315136
 21
54.46553
 31
0.0
  0
LINE
  5
2A8
330
6B
100
AcDbEntity
  8
0
 62
     3
100
AcDbLine
 10
-134.715136
 20
35.26553
 30
0.0
 11
-144.315136
 21
35.26553
 31
0.0
  0
LINE
  5
2A9
330
6B
100
AcDbEntity
  8
0
 62
     3
100
AcDbLine
 10
-134.715136
 20
54.46553
 30
0.0
 11
-144.315136
 21
54.46553
 31
0.0
  0
LINE
  5
2AA
330
6B
100
AcDbEntity
  8
0
 62
     3
100
AcDbLine
 10
-134.715136
 20
54.46553
 30
0.0
 11
-134.715136
 21
35.26553
 31
0.0
  0
ARC
  5
2AB
330
6B
100
AcDbEntity
  8
0
 62
     3
100
AcDbCircle
 10
-41.96225199999999
 20
85.827111
 30
0.0
 40
0.6
100
AcDbArc
 50
0.0
 51
90.0
  0
ARC
  5
2AC
330
6B
100
AcDbEntity
  8
0
 62
     3
100
AcDbCircle
 10
-152.682252
 20
85.827111
 30
0.0
 40
0.6
100
AcDbArc
 50
90.0
 51
180.0
  0
LINE
  5
2AD
330
6B
100
AcDbEntity
  8
0
 62
     3
100
AcDbLine
 10
96.637748
 20
19.467111
 30
0.0
 11
96.637748
 21
86.42711099999997
 31
0.0
  0
LINE
  5
2AE
330
6B
100
AcDbEntity
  8
0
 62
     3
100
AcDbLine
 10
-115.163897
 20
38.196844
 30
0.0
 11
-115.163897
 21
52.79106999999999
 31
0.0
  0
LINE
  5
2AF
330
6B
100
AcDbEntity
  8
0
 62
     3
100
AcDbLine
 10
-105.563897
 20
52.79106999999999
 30
0.0
 11
-105.563897
 21
38.196844
 31
0.0
  0
LINE
  5
2B0
330
6B
100
AcDbEntity
  8
0
100
AcDbLine
 10
-48.122858
 20
81.49062699999998
 30
0.0
 11
-48.122858
 21
69.490627
 31
0.0
  0
LINE
  5
2B1
330
6B
100
AcDbEntity
  8
0
100
AcDbLine
 10
-48.122858
 20
69.490627
 30
0.0
 11
-55.02285799999999
 21
69.490627
 31
0.0
  0
LINE
  5
2B2
330
6B
100
AcDbEntity
  8
0
100
AcDbLine
 10
-55.02285799999999
 20
70.090627
 30
0.0
 11
-62.22285799999998
 21
70.090627
 31
0.0
  0
LINE
  5
2B3
330
6B
100
AcDbEntity
  8
0
100
AcDbLine
 10
-62.22285799999998
 20
69.490627
 30
0.0
 11
-69.12285799999999
 21
69.490627
 31
0.0
  0
LINE
  5
2B4
330
6B
100
AcDbEntity
  8
0
100
AcDbLine
 10
-69.12285799999999
 20
69.490627
 30
0.0
 11
-69.12285799999999
 21
81.49062699999998
 31
0.0
  0
LINE
  5
2B5
330
6B
100
AcDbEntity
  8
0
100
AcDbLine
 10
-48.122858
 20
81.49062699999998
 30
0.0
 11
-69.12285799999999
 21
81.49062699999998
 31
0.0
  0
LINE
  5
2B6
330
6B
100
AcDbEntity
  8
0
100
AcDbLine
 10
-142.515136
 20
38.86553
 30
0.0
 11
-142.515136
 21
50.86553
 31
0.0
  0
LINE
  5
2B7
330
6B
100
AcDbEntity
  8
0
100
AcDbLine
 10
-136.515136
 20
50.86553
 30
0.0
 11
-136.515136
 21
38.86553
 31
0.0
  0
LINE
  5
2B8
330
6B
100
AcDbEntity
  8
0
100
AcDbLine
 10
-136.515136
 20
50.86553
 30
0.0
 11
-142.515136
 21
50.86553
 31
0.0
  0
LINE
  5
2B9
330
6B
100
AcDbEntity
  8
0
100
AcDbLine
 10
-136.515136
 20
38.86553
 30
0.0
 11
-142.515136
 21
38.86553
 31
0.0
  0
CIRCLE
  5
2BA
330
6B
100
AcDbEntity
  8
0
100
AcDbCircle
 10
0.6377480000000002
 20
73.827111
 30
0.0
 40
1.5
  0
CIRCLE
  5
2BB
330
6B
100
AcDbEntity
  8
0
100
AcDbCircle
 10
3.637748
 20
22.467111
 30
0.0
 40
1.5
  0
CIRCLE
  5
2BC
330
6B
100
AcDbEntity
  8
0
100
AcDbCircle
 10
78.637748
 20
22.467111
 30
0.0
 40
1.5
  0
CIRCLE
  5
2BD
330
6B
100
AcDbEntity
  8
0
100
AcDbCircle
 10
93.63774799999999
 20
73.827111
 30
0.0
 40
1.5
  0
LINE
  5
2BE
330
6B
100
AcDbEntity
  8
0
100
AcDbLine
 10
87.637748
 20
51.327111
 30
0.0
 11
87.637748
 21
67.527111
 31
0.0
  0
LINE
  5
2BF
330
6B
100
AcDbEntity
  8
0
100
AcDbLine
 10
85.837748
 20
51.327111
 30
0.0
 11
85.837748
 21
67.527111
 31
0.0
  0
LINE
  5
2C0
330
6B
100
AcDbEntity
  8
0
100
AcDbLine
 10
84.03774799999998
 20
51.327111
 30
0.0
 11
84.03774799999998
 21
67.527111
 31
0.0
  0
LINE
  5
2C1
330
6B
100
AcDbEntity
  8
0
100
AcDbLine
 10
82.23774799999999
 20
51.327111
 30
0.0
 11
82.23774799999999
 21
67.527111
 31
0.0
  0
LINE
  5
2C2
330
6B
100
AcDbEntity
  8
0
100
AcDbLine
 10
80.43774799999999
 20
51.327111
 30
0.0
 11
80.43774799999999
 21
67.527111
 31
0.0
  0
LINE
  5
2C3
330
6B
100
AcDbEntity
  8
0
100
AcDbLine
 10
78.637748
 20
51.327111
 30
0.0
 11
78.637748
 21
67.527111
 31
0.0
  0
LINE
  5
2C4
330
6B
100
AcDbEntity
  8
0
100
AcDbLine
 10
76.83774800000001
 20
51.327111
 30
0.0
 11
76.83774800000001
 21
67.527111
 31
0.0
  0
LINE
  5
2C5
330
6B
100
AcDbEntity
  8
0
100
AcDbLine
 10
75.03774799999998
 20
51.327111
 30
0.0
 11
75.03774799999998
 21
67.527111
 31
0.0
  0
LINE
  5
2C6
330
6B
100
AcDbEntity
  8
0
100
AcDbLine
 10
73.23774799999998
 20
51.327111
 30
0.0
 11
73.23774799999998
 21
67.527111
 31
0.0
  0
LINE
  5
2C7
330
6B
100
AcDbEntity
  8
0
100
AcDbLine
 10
71.437748
 20
51.327111
 30
0.0
 11
71.437748
 21
67.527111
 31
0.0
  0
LINE
  5
2C8
330
6B
100
AcDbEntity
  8
0
100
AcDbLine
 10
69.637748
 20
51.327111
 30
0.0
 11
69.637748
 21
67.527111
 31
0.0
  0
LINE
  5
2C9
330
6B
100
AcDbEntity
  8
0
100
AcDbLine
 10
67.837748
 20
51.327111
 30
0.0
 11
67.837748
 21
67.527111
 31
0.0
  0
LINE
  5
2CA
330
6B
100
AcDbEntity
  8
0
100
AcDbLine
 10
66.037748
 20
51.327111
 30
0.0
 11
66.037748
 21
67.527111
 31
0.0
  0
LINE
  5
2CB
330
6B
100
AcDbEntity
  8
0
100
AcDbLine
 10
6.637747999999997
 20
51.327111
 30
0.0
 11
6.637747999999997
 21
67.527111
 31
0.0
  0
LINE
  5
2CC
330
6B
100
AcDbEntity
  8
0
100
AcDbLine
 10
64.237748
 20
51.327111
 30
0.0
 11
64.237748
 21
67.527111
 31
0.0
  0
LINE
  5
2CD
330
6B
100
AcDbEntity
  8
0
100
AcDbLine
 10
62.437748
 20
51.327111
 30
0.0
 11
62.437748
 21
67.527111
 31
0.0
  0
LINE
  5
2CE
330
6B
100
AcDbEntity
  8
0
100
AcDbLine
 10
60.637748
 20
51.327111
 30
0.0
 11
60.637748
 21
67.527111
 31
0.0
  0
LINE
  5
2CF
330
6B
100
AcDbEntity
  8
0
100
AcDbLine
 10
58.837748
 20
51.327111
 30
0.0
 11
58.837748
 21
67.527111
 31
0.0
  0
LINE
  5
2D0
330
6B
100
AcDbEntity
  8
0
100
AcDbLine
 10
57.037748
 20
51.327111
 30
0.0
 11
57.037748
 21
67.527111
 31
0.0
  0
LINE
  5
2D1
330
6B
100
AcDbEntity
  8
0
100
AcDbLine
 10
55.23774799999999
 20
51.327111
 30
0.0
 11
55.23774799999999
 21
67.527111
 31
0.0
  0
LINE
  5
2D2
330
6B
100
AcDbEntity
  8
0
100
AcDbLine
 10
53.437748
 20
51.327111
 30
0.0
 11
53.437748
 21
67.527111
 31
0.0
  0
LINE
  5
2D3
330
6B
100
AcDbEntity
  8
0
100
AcDbLine
 10
51.63774799999998
 20
51.327111
 30
0.0
 11
51.63774799999998
 21
67.527111
 31
0.0
  0
LINE
  5
2D4
330
6B
100
AcDbEntity
  8
0
100
AcDbLine
 10
49.83774799999999
 20
51.327111
 30
0.0
 11
49.83774799999999
 21
67.527111
 31
0.0
  0
LINE
  5
2D5
330
6B
100
AcDbEntity
  8
0
100
AcDbLine
 10
48.037748
 20
51.327111
 30
0.0
 11
48.037748
 21
67.527111
 31
0.0
  0
LINE
  5
2D6
330
6B
100
AcDbEntity
  8
0
100
AcDbLine
 10
46.23774799999998
 20
51.327111
 30
0.0
 11
46.23774799999998
 21
67.527111
 31
0.0
  0
LINE
  5
2D7
330
6B
100
AcDbEntity
  8
0
100
AcDbLine
 10
44.43774799999999
 20
51.327111
 30
0.0
 11
44.43774799999999
 21
67.527111
 31
0.0
  0
LINE
  5
2D8
330
6B
100
AcDbEntity
  8
0
100
AcDbLine
 10
42.63774799999999
 20
51.327111
 30
0.0
 11
42.63774799999999
 21
67.527111
 31
0.0
  0
LINE
  5
2D9
330
6B
100
AcDbEntity
  8
0
100
AcDbLine
 10
40.83774799999999
 20
51.327111
 30
0.0
 11
40.83774799999999
 21
67.527111
 31
0.0
  0
LINE
  5
2DA
330
6B
100
AcDbEntity
  8
0
100
AcDbLine
 10
39.037748
 20
51.327111
 30
0.0
 11
39.037748
 21
67.527111
 31
0.0
  0
LINE
  5
2DB
330
6B
100
AcDbEntity
  8
0
100
AcDbLine
 10
37.237748
 20
51.327111
 30
0.0
 11
37.237748
 21
67.527111
 31
0.0
  0
LINE
  5
2DC
330
6B
100
AcDbEntity
  8
0
100
AcDbLine
 10
35.437748
 20
51.327111
 30
0.0
 11
35.437748
 21
67.527111
 31
0.0
  0
LINE
  5
2DD
330
6B
100
AcDbEntity
  8
0
100
AcDbLine
 10
33.637748
 20
51.327111
 30
0.0
 11
33.637748
 21
67.527111
 31
0.0
  0
LINE
  5
2DE
330
6B
100
AcDbEntity
  8
0
100
AcDbLine
 10
31.837748
 20
51.327111
 30
0.0
 11
31.837748
 21
67.527111
 31
0.0
  0
LINE
  5
2DF
330
6B
100
AcDbEntity
  8
0
100
AcDbLine
 10
30.037748
 20
51.327111
 30
0.0
 11
30.037748
 21
67.527111
 31
0.0
  0
LINE
  5
2E0
330
6B
100
AcDbEntity
  8
0
100
AcDbLine
 10
28.237748
 20
51.327111
 30
0.0
 11
28.237748
 21
67.527111
 31
0.0
  0
LINE
  5
2E1
330
6B
100
AcDbEntity
  8
0
100
AcDbLine
 10
26.437748
 20
51.327111
 30
0.0
 11
26.437748
 21
67.527111
 31
0.0
  0
LINE
  5
2E2
330
6B
100
AcDbEntity
  8
0
100
AcDbLine
 10
24.637748
 20
51.327111
 30
0.0
 11
24.637748
 21
67.527111
 31
0.0
  0
LINE
  5
2E3
330
6B
100
AcDbEntity
  8
0
100
AcDbLine
 10
22.837748
 20
51.327111
 30
0.0
 11
22.837748
 21
67.527111
 31
0.0
  0
LINE
  5
2E4
330
6B
100
AcDbEntity
  8
0
100
AcDbLine
 10
21.037748
 20
51.327111
 30
0.0
 11
21.037748
 21
67.527111
 31
0.0
  0
LINE
  5
2E5
330
6B
100
AcDbEntity
  8
0
100
AcDbLine
 10
19.237748
 20
51.327111
 30
0.0
 11
19.237748
 21
67.527111
 31
0.0
  0
LINE
  5
2E6
330
6B
100
AcDbEntity
  8
0
100
AcDbLine
 10
17.437748
 20
51.327111
 30
0.0
 11
17.437748
 21
67.527111
 31
0.0
  0
LINE
  5
2E7
330
6B
100
AcDbEntity
  8
0
100
AcDbLine
 10
15.637748
 20
51.327111
 30
0.0
 11
15.637748
 21
67.527111
 31
0.0
  0
LINE
  5
2E8
330
6B
100
AcDbEntity
  8
0
100
AcDbLine
 10
13.837748
 20
51.327111
 30
0.0
 11
13.837748
 21
67.527111
 31
0.0
  0
LINE
  5
2E9
330
6B
100
AcDbEntity
  8
0
100
AcDbLine
 10
12.037748
 20
51.327111
 30
0.0
 11
12.037748
 21
67.527111
 31
0.0
  0
LINE
  5
2EA
330
6B
100
AcDbEntity
  8
0
100
AcDbLine
 10
10.237748
 20
51.327111
 30
0.0
 11
10.237748
 21
67.527111
 31
0.0
  0
LINE
  5
2EB
330
6B
100
AcDbEntity
  8
0
100
AcDbLine
 10
8.437747999999999
 20
51.327111
 30
0.0
 11
8.437747999999999
 21
67.527111
 31
0.0
  0
ARC
  5
2EC
330
6B
100
AcDbEntity
  8
0
100
AcDbCircle
 10
86.737748
 20
67.527111
 30
0.0
 40
0.9
100
AcDbArc
 50
0.0
 51
180.0
  0
ARC
  5
2ED
330
6B
100
AcDbEntity
  8
0
100
AcDbCircle
 10
86.737748
 20
51.327111
 30
0.0
 40
0.9
100
AcDbArc
 50
180.0
 51
0.0
  0
ARC
  5
2EE
330
6B
100
AcDbEntity
  8
0
100
AcDbCircle
 10
83.137748
 20
67.527111
 30
0.0
 40
0.9
100
AcDbArc
 50
0.0
 51
180.0
  0
ARC
  5
2EF
330
6B
100
AcDbEntity
  8
0
100
AcDbCircle
 10
83.137748
 20
51.327111
 30
0.0
 40
0.9
100
AcDbArc
 50
180.0
 51
0.0
  0
ARC
  5
2F0
330
6B
100
AcDbEntity
  8
0
100
AcDbCircle
 10
79.53774799999997
 20
67.527111
 30
0.0
 40
0.9
100
AcDbArc
 50
0.0
 51
180.0
  0
ARC
  5
2F1
330
6B
100
AcDbEntity
  8
0
100
AcDbCircle
 10
79.53774799999997
 20
51.327111
 30
0.0
 40
0.9
100
AcDbArc
 50
180.0
 51
0.0
  0
ARC
  5
2F2
330
6B
100
AcDbEntity
  8
0
100
AcDbCircle
 10
75.937748
 20
67.527111
 30
0.0
 40
0.9
100
AcDbArc
 50
0.0
 51
180.0
  0
ARC
  5
2F3
330
6B
100
AcDbEntity
  8
0
100
AcDbCircle
 10
75.937748
 20
51.327111
 30
0.0
 40
0.9
100
AcDbArc
 50
180.0
 51
0.0
  0
ARC
  5
2F4
330
6B
100
AcDbEntity
  8
0
100
AcDbCircle
 10
72.337748
 20
67.527111
 30
0.0
 40
0.9
100
AcDbArc
 50
0.0
 51
180.0
  0
ARC
  5
2F5
330
6B
100
AcDbEntity
  8
0
100
AcDbCircle
 10
72.337748
 20
51.327111
 30
0.0
 40
0.9
100
AcDbArc
 50
180.0
 51
0.0
  0
ARC
  5
2F6
330
6B
100
AcDbEntity
  8
0
100
AcDbCircle
 10
68.73774799999999
 20
67.527111
 30
0.0
 40
0.9
100
AcDbArc
 50
0.0
 51
180.0
  0
ARC
  5
2F7
330
6B
100
AcDbEntity
  8
0
100
AcDbCircle
 10
68.73774799999999
 20
51.327111
 30
0.0
 40
0.9
100
AcDbArc
 50
180.0
 51
0.0
  0
ARC
  5
2F8
330
6B
100
AcDbEntity
  8
0
100
AcDbCircle
 10
65.137748
 20
67.527111
 30
0.0
 40
0.9
100
AcDbArc
 50
0.0
 51
180.0
  0
ARC
  5
2F9
330
6B
100
AcDbEntity
  8
0
100
AcDbCircle
 10
65.137748
 20
51.327111
 30
0.0
 40
0.9
100
AcDbArc
 50
180.0
 51
0.0
  0
ARC
  5
2FA
330
6B
100
AcDbEntity
  8
0
100
AcDbCircle
 10
61.537748
 20
67.527111
 30
0.0
 40
0.9
100
AcDbArc
 50
0.0
 51
180.0
  0
ARC
  5
2FB
330
6B
100
AcDbEntity
  8
0
100
AcDbCircle
 10
61.537748
 20
51.327111
 30
0.0
 40
0.9
100
AcDbArc
 50
180.0
 51
0.0
  0
ARC
  5
2FC
330
6B
100
AcDbEntity
  8
0
100
AcDbCircle
 10
57.937748
 20
67.527111
 30
0.0
 40
0.9
100
AcDbArc
 50
0.0
 51
180.0
  0
ARC
  5
2FD
330
6B
100
AcDbEntity
  8
0
100
AcDbCircle
 10
57.937748
 20
51.327111
 30
0.0
 40
0.9
100
AcDbArc
 50
180.0
 51
0.0
  0
ARC
  5
2FE
330
6B
100
AcDbEntity
  8
0
100
AcDbCircle
 10
54.337748
 20
67.527111
 30
0.0
 40
0.9
100
AcDbArc
 50
0.0
 51
180.0
  0
ARC
  5
2FF
330
6B
100
AcDbEntity
  8
0
100
AcDbCircle
 10
54.337748
 20
51.327111
 30
0.0
 40
0.9
100
AcDbArc
 50
180.0
 51
0.0
  0
ARC
  5
300
330
6B
100
AcDbEntity
  8
0
100
AcDbCircle
 10
50.73774799999998
 20
67.527111
 30
0.0
 40
0.9
100
AcDbArc
 50
0.0
 51
180.0
  0
ARC
  5
301
330
6B
100
AcDbEntity
  8
0
100
AcDbCircle
 10
50.73774799999998
 20
51.327111
 30
0.0
 40
0.9
100
AcDbArc
 50
180.0
 51
0.0
  0
ARC
  5
302
330
6B
100
AcDbEntity
  8
0
100
AcDbCircle
 10
47.13774799999998
 20
67.527111
 30
0.0
 40
0.9
100
AcDbArc
 50
0.0
 51
180.0
  0
ARC
  5
303
330
6B
100
AcDbEntity
  8
0
100
AcDbCircle
 10
47.13774799999998
 20
51.327111
 30
0.0
 40
0.9
100
AcDbArc
 50
180.0
 51
0.0
  0
ARC
  5
304
330
6B
100
AcDbEntity
  8
0
100
AcDbCircle
 10
43.537748
 20
67.527111
 30
0.0
 40
0.9
100
AcDbArc
 50
0.0
 51
180.0
  0
ARC
  5
305
330
6B
100
AcDbEntity
  8
0
100
AcDbCircle
 10
43.537748
 20
51.327111
 30
0.0
 40
0.9
100
AcDbArc
 50
180.0
 51
0.0
  0
ARC
  5
306
330
6B
100
AcDbEntity
  8
0
100
AcDbCircle
 10
39.937748
 20
67.527111
 30
0.0
 40
0.9
100
AcDbArc
 50
0.0
 51
180.0
  0
ARC
  5
307
330
6B
100
AcDbEntity
  8
0
100
AcDbCircle
 10
39.937748
 20
51.327111
 30
0.0
 40
0.9
100
AcDbArc
 50
180.0
 51
0.0
  0
ARC
  5
308
330
6B
100
AcDbEntity
  8
0
100
AcDbCircle
 10
36.337748
 20
67.527111
 30
0.0
 40
0.9
100
AcDbArc
 50
0.0
 51
180.0
  0
ARC
  5
309
330
6B
100
AcDbEntity
  8
0
100
AcDbCircle
 10
36.337748
 20
51.327111
 30
0.0
 40
0.9
100
AcDbArc
 50
180.0
 51
0.0
  0
ARC
  5
30A
330
6B
100
AcDbEntity
  8
0
100
AcDbCircle
 10
32.737748
 20
67.527111
 30
0.0
 40
0.9
100
AcDbArc
 50
0.0
 51
180.0
  0
ARC
  5
30B
330
6B
100
AcDbEntity
  8
0
100
AcDbCircle
 10
32.737748
 20
51.327111
 30
0.0
 40
0.9
100
AcDbArc
 50
180.0
 51
0.0
  0
ARC
  5
30C
330
6B
100
AcDbEntity
  8
0
100
AcDbCircle
 10
29.137748
 20
67.527111
 30
0.0
 40
0.9
100
AcDbArc
 50
0.0
 51
180.0
  0
ARC
  5
30D
330
6B
100
AcDbEntity
  8
0
100
AcDbCircle
 10
29.137748
 20
51.327111
 30
0.0
 40
0.9
100
AcDbArc
 50
180.0
 51
0.0
  0
ARC
  5
30E
330
6B
100
AcDbEntity
  8
0
100
AcDbCircle
 10
25.537748
 20
67.527111
 30
0.0
 40
0.9
100
AcDbArc
 50
0.0
 51
180.0
  0
ARC
  5
30F
330
6B
100
AcDbEntity
  8
0
100
AcDbCircle
 10
25.537748
 20
51.327111
 30
0.0
 40
0.9
100
AcDbArc
 50
180.0
 51
0.0
  0
ARC
  5
310
330
6B
100
AcDbEntity
  8
0
100
AcDbCircle
 10
21.937748
 20
67.527111
 30
0.0
 40
0.9
100
AcDbArc
 50
0.0
 51
180.0
  0
ARC
  5
311
330
6B
100
AcDbEntity
  8
0
100
AcDbCircle
 10
21.937748
 20
51.327111
 30
0.0
 40
0.9
100
AcDbArc
 50
180.0
 51
0.0
  0
ARC
  5
312
330
6B
100
AcDbEntity
  8
0
100
AcDbCircle
 10
18.337748
 20
67.527111
 30
0.0
 40
0.9
100
AcDbArc
 50
0.0
 51
180.0
  0
ARC
  5
313
330
6B
100
AcDbEntity
  8
0
100
AcDbCircle
 10
18.337748
 20
51.327111
 30
0.0
 40
0.9
100
AcDbArc
 50
180.0
 51
0.0
  0
ARC
  5
314
330
6B
100
AcDbEntity
  8
0
100
AcDbCircle
 10
14.737748
 20
67.527111
 30
0.0
 40
0.9
100
AcDbArc
 50
0.0
 51
180.0
  0
ARC
  5
315
330
6B
100
AcDbEntity
  8
0
100
AcDbCircle
 10
14.737748
 20
51.327111
 30
0.0
 40
0.9
100
AcDbArc
 50
180.0
 51
0.0
  0
ARC
  5
316
330
6B
100
AcDbEntity
  8
0
100
AcDbCircle
 10
11.137748
 20
67.527111
 30
0.0
 40
0.9
100
AcDbArc
 50
0.0
 51
180.0
  0
ARC
  5
317
330
6B
100
AcDbEntity
  8
0
100
AcDbCircle
 10
11.137748
 20
51.327111
 30
0.0
 40
0.9
100
AcDbArc
 50
180.0
 51
0.0
  0
ARC
  5
318
330
6B
100
AcDbEntity
  8
0
100
AcDbCircle
 10
7.537747999999997
 20
67.527111
 30
0.0
 40
0.9
100
AcDbArc
 50
0.0
 51
180.0
  0
ARC
  5
319
330
6B
100
AcDbEntity
  8
0
100
AcDbCircle
 10
7.537747999999997
 20
51.327111
 30
0.0
 40
0.9
100
AcDbArc
 50
180.0
 51
0.0
  0
LINE
  5
31A
330
6B
100
AcDbEntity
  8
0
100
AcDbLine
 10
-113.363897
 20
41.43002199999999
 30
0.0
 11
-113.363897
 21
49.55789199999999
 31
0.0
  0
LINE
  5
31B
330
6B
100
AcDbEntity
  8
0
100
AcDbLine
 10
-107.363897
 20
49.55789199999999
 30
0.0
 11
-107.363897
 21
41.43002199999999
 31
0.0
  0
LINE
  5
31C
330
6B
100
AcDbEntity
  8
0
100
AcDbLine
 10
97.487673
 20
46.97477
 30
0.0
 11
97.487673
 21
54.37477
 31
0.0
  0
LINE
  5
31D
330
6B
100
AcDbEntity
  8
0
100
AcDbLine
 10
96.987673
 20
46.47477
 30
0.0
 11
96.637748
 21
46.47477
 31
0.0
  0
LINE
  5
31E
330
6B
100
AcDbEntity
  8
0
100
AcDbLine
 10
96.987673
 20
54.87477
 30
0.0
 11
96.637748
 21
54.87477
 31
0.0
  0
LINE
  5
31F
330
6B
100
AcDbEntity
  8
0
100
AcDbLine
 10
-60.854349
 20
68.890627
 30
0.0
 11
-66.900311
 21
77.52515600000002
 31
0.0
  0
LINE
  5
320
330
6B
100
AcDbEntity
  8
0
100
AcDbLine
 10
-65.330519
 20
77.321791
 30
0.0
 11
-65.782175
 21
78.10408199999997
 31
0.0
  0
TEXT
  5
321
330
6B
100
AcDbEntity
  8
0
100
AcDbText
 10
-66.900311
 20
77.52515600000002
 30
0.0
 40
1.919999999999999
  1
0
 50
35.0
 41
1.199999999999999
100
AcDbText
  0
LINE
  5
322
330
6B
100
AcDbEntity
  8
0
 62
     3
100
AcDbLine
 10
-195.0
 20
138.5
 30
0.0
 11
-195.0
 21
-138.5
 31
0.0
  0
LINE
  5
323
330
6B
100
AcDbEntity
  8
0
 62
     3
100
AcDbLine
 10
195.0
 20
-138.5
 30
0.0
 11
195.0
 21
138.5
 31
0.0
  0
LINE
  5
324
330
6B
100
AcDbEntity
  8
0
 62
     3
100
AcDbLine
 10
-195.0
 20
138.5
 30
0.0
 11
195.0
 21
138.5
 31
0.0
  0
LINE
  5
325
330
6B
100
AcDbEntity
  8
0
 62
     3
100
AcDbLine
 10
-195.0
 20
-138.5
 30
0.0
 11
195.0
 21
-138.5
 31
0.0
  0
LINE
  5
326
330
6B
100
AcDbEntity
  8
0
 62
     3
100
AcDbLine
 10
-8.362251999999998
 20
25.467111
 30
0.0
 11
-8.362251999999998
 21
86.42711099999997
 31
0.0
  0
TEXT
  5
327
330
6B
100
AcDbEntity
  8
0
100
AcDbText
 10
-145.00911
 20
30.512522
 30
0.0
 40
3.839999999999998
  1
OFF
100
AcDbText
  0
LINE
  5
328
330
6B
100
AcDbEntity
  8
0
 62
     3
100
AcDbLine
 10
83.72871999999999
 20
-39.822142
 30
0.0
 11
83.72871999999999
 21
-86.39174200000002
 31
0.0
  0
LINE
  5
329
330
6B
100
AcDbEntity
  8
0
100
AcDbLine
 10
83.72871999999999
 20
-46.47494199999999
 30
0.0
 11
159.089862185893
 21
-46.47494199999999
 31
0.0
  0
LINE
  5
32A
330
6B
100
AcDbEntity
  8
0
100
AcDbLine
 10
83.72871999999999
 20
-53.127742
 30
0.0
 11
159.089862185893
 21
-53.12774199999999
 31
0.0
  0
LINE
  5
32B
330
6B
100
AcDbEntity
  8
0
100
AcDbLine
 10
83.72871999999999
 20
-59.780542
 30
0.0
 11
159.089862185893
 21
-59.78054199999998
 31
0.0
  0
LINE
  5
32C
330
6B
100
AcDbEntity
  8
0
100
AcDbLine
 10
83.72871999999999
 20
-66.43334200000001
 30
0.0
 11
159.089862185893
 21
-66.43334200000001
 31
0.0
  0
TEXT
  5
32D
330
6B
100
AcDbEntity
  8
0
 62
     3
100
AcDbText
 10
85.22871999999997
 20
-45.97494199999998
 30
0.0
 40
3.2
  1
型　　　　　式
  7
高3.2
100
AcDbText
  0
TEXT
  5
32E
330
6B
100
AcDbEntity
  8
0
 62
     3
100
AcDbText
 10
85.22871999999997
 20
-52.627742
 30
0.0
 40
3.2
  1
入　力　電　圧
  7
高3.2
100
AcDbText
  0
TEXT
  5
32F
330
6B
100
AcDbEntity
  8
0
 62
     3
100
AcDbText
 10
85.22871999999997
 20
-85.891742
 30
0.0
 40
3.2
  1
質　　　　　量
  7
高3.2
100
AcDbText
  0
LINE
  5
330
330
6B
100
AcDbEntity
  8
0
100
AcDbLine
 10
83.72871999999999
 20
-79.73894200000002
 30
0.0
 11
159.089862185893
 21
-79.73894200000002
 31
0.0
  0
LINE
  5
332
330
6B
100
AcDbEntity
  8
0
100
AcDbLine
 10
83.72871999999999
 20
-73.086142
 30
0.0
 11
159.089862185893
 21
-73.086142
 31
0.0
  0
TEXT
  5
333
330
6B
100
AcDbEntity
  8
0
 62
     3
100
AcDbText
 10
85.22871999999997
 20
-59.280542
 30
0.0
 40
3.2
  1
適応バッテリー
  7
高3.2
100
AcDbText
  0
TEXT
  5
334
330
6B
100
AcDbEntity
  8
0
 62
     3
100
AcDbText
 10
85.22871999999997
 20
-65.93334200000001
 30
0.0
 40
3.2
  1
最大充電電流
  7
高3.2
100
AcDbText
  0
LINE
  5
335
330
6B
100
AcDbEntity
  8
0
 62
     3
100
AcDbLine
 10
83.72871999999999
 20
-86.39174200000002
 30
0.0
 11
159.089862185893
 21
-86.39174200000002
 31
0.0
  0
TEXT
  5
336
330
6B
100
AcDbEntity
  8
0
 62
     3
100
AcDbText
 10
116.586036
 20
-45.97494199999998
 30
0.0
 40
3.2
  1
NB-40
  7
高3.2
100
AcDbText
  0
TEXT
  5
337
330
6B
100
AcDbEntity
  8
0
 62
     3
100
AcDbText
 10
116.586036
 20
-52.627742
 30
0.0
 40
3.2
  1
AC100V 50/60Hz
  7
高3.2
100
AcDbText
  0
TEXT
  5
338
330
6B
100
AcDbEntity
  8
0
 62
     3
100
AcDbText
 10
102.7890211471276
 20
-37.53976862764897
 30
0.0
 40
4.5
  1
主　　仕　　様
  7
高4.5
100
AcDbText
  0
TEXT
  5
339
330
6B
100
AcDbEntity
  8
0
 62
     3
100
AcDbText
 10
116.586036
 20
-65.93334200000001
 30
0.0
 40
3.2
  1
8A
  7
高3.2
100
AcDbText
  0
TEXT
  5
33A
330
6B
100
AcDbEntity
  8
0
 62
     3
100
AcDbText
 10
116.586036
 20
-85.891742
 30
0.0
 40
3.2
  1
4.5kg
  7
高3.2
100
AcDbText
  0
TEXT
  5
33B
330
6B
100
AcDbEntity
  8
0
 62
     3
100
AcDbText
 10
116.586036
 20
-59.280542
 30
0.0
 40
3.2
  1
12V(26～60Ah)
  7
高3.2
100
AcDbText
  0
LINE
  5
33C
330
6B
100
AcDbEntity
  8
0
 62
     3
100
AcDbLine
 10
83.72871999999999
 20
-39.822142
 30
0.0
 11
159.089862185893
 21
-39.822142
 31
0.0
  0
LINE
  5
33D
330
6B
100
AcDbEntity
  8
0
 62
     3
100
AcDbLine
 10
-1.75203677255169
 20
-138.5
 30
0.0
 11
-1.75203677255169
 21
-83.49999999999999
 31
0.0
  0
TEXT
  5
33E
330
6B
100
AcDbEntity
  8
0
 62
     3
100
AcDbText
 10
-73.8969269636085
 20
-138.0
 30
0.0
 40
3.2
  1
個数
 41
0.8
  7
高3.2
100
AcDbText
  0
TEXT
  5
33F
330
6B
100
AcDbEntity
  8
0
 62
     3
100
AcDbText
 10
-132.5352213238761
 20
-138.0
 30
0.0
 40
3.2
  1
備　　　　　考
 41
0.8
  7
高3.2
100
AcDbText
  0
TEXT
  5
340
330
6B
100
AcDbEntity
  8
0
 62
     3
100
AcDbText
 10
-149.142730060516
 20
-138.0
 30
0.0
 40
3.2
  1
材　　質
 41
0.8
  7
高3.2
100
AcDbText
  0
TEXT
  5
341
330
6B
100
AcDbEntity
  8
0
 62
     3
100
AcDbText
 10
-186.1576710602016
 20
-138.0
 30
0.0
 40
3.2
  1
部　　品　　名
 41
0.8
  7
高3.2
100
AcDbText
  0
TEXT
  5
342
330
6B
100
AcDbEntity
  8
0
 62
     3
100
AcDbText
 10
-193.5
 20
-138.0
 30
0.0
 40
3.2
  1
No
 41
0.8
  7
高3.2
100
AcDbText
  0
TEXT
  5
343
330
6B
100
AcDbEntity
  8
0
 62
     3
100
AcDbText
 10
-73.8969269636085
 20
-133.0
 30
0.0
 40
3.2
  1
1
 41
0.8
  7
高3.2
100
AcDbText
  0
TEXT
  5
344
330
6B
100
AcDbEntity
  8
0
 62
     3
100
AcDbText
 10
-73.8969269636085
 20
-128.0
 30
0.0
 40
3.2
  1
1
 41
0.8
  7
高3.2
100
AcDbText
  0
TEXT
  5
345
330
6B
100
AcDbEntity
  8
0
 62
     3
100
AcDbText
 10
-73.8969269636085
 20
-123.0
 30
0.0
 40
3.2
  1
1
 41
0.8
  7
高3.2
100
AcDbText
  0
TEXT
  5
346
330
6B
100
AcDbEntity
  8
0
 62
     3
100
AcDbText
 10
-73.8969269636085
 20
-118.0
 30
0.0
 40
3.2
  1
1
 41
0.8
  7
高3.2
100
AcDbText
  0
TEXT
  5
347
330
6B
100
AcDbEntity
  8
0
 62
     3
100
AcDbText
 10
-73.8969269636085
 20
-113.0
 30
0.0
 40
3.2
  1
1
 41
0.8
  7
高3.2
100
AcDbText
  0
TEXT
  5
348
330
6B
100
AcDbEntity
  8
0
 62
     3
100
AcDbText
 10
-73.8969269636085
 20
-108.0
 30
0.0
 40
3.2
  1
1
 41
0.8
  7
高3.2
100
AcDbText
  0
TEXT
  5
349
330
6B
100
AcDbEntity
  8
0
 62
     3
100
AcDbText
 10
-73.8969269636085
 20
-103.0
 30
0.0
 40
3.2
  1
1
 41
0.8
  7
高3.2
100
AcDbText
  0
TEXT
  5
34A
330
6B
100
AcDbEntity
  8
0
 62
     3
100
AcDbText
 10
-73.8969269636085
 20
-98.0
 30
0.0
 40
3.2
  1
1
 41
0.8
  7
高3.2
100
AcDbText
  0
TEXT
  5
34B
330
6B
100
AcDbEntity
  8
0
 62
     3
100
AcDbText
 10
-73.8969269636085
 20
-93.0
 30
0.0
 40
3.2
  1
1
 41
0.8
  7
高3.2
100
AcDbText
  0
TEXT
  5
34C
330
6B
100
AcDbEntity
  8
0
 62
     3
100
AcDbText
 10
-73.8969269636085
 20
-88.0
 30
0.0
 40
3.2
  1
2
 41
0.8
  7
高3.2
100
AcDbText
  0
LINE
  5
34D
330
6B
100
AcDbEntity
  8
0
100
AcDbLine
 10
-75.39692696360851
 20
-138.5
 30
0.0
 11
-75.39692696360851
 21
-83.49999999999999
 31
0.0
  0
TEXT
  5
34E
330
6B
100
AcDbEntity
  8
0
 62
     3
100
AcDbText
 10
-193.5
 20
-133.0
 30
0.0
 40
3.2
  1
1
 41
0.8
  7
高3.2
100
AcDbText
  0
TEXT
  5
34F
330
6B
100
AcDbEntity
  8
0
 62
     3
100
AcDbText
 10
-193.5
 20
-128.0
 30
0.0
 40
3.2
  1
2
 41
0.8
  7
高3.2
100
AcDbText
  0
TEXT
  5
350
330
6B
100
AcDbEntity
  8
0
 62
     3
100
AcDbText
 10
-193.5
 20
-123.0
 30
0.0
 40
3.2
  1
3
 41
0.8
  7
高3.2
100
AcDbText
  0
TEXT
  5
351
330
6B
100
AcDbEntity
  8
0
 62
     3
100
AcDbText
 10
-193.5
 20
-118.0
 30
0.0
 40
3.2
  1
4
 41
0.8
  7
高3.2
100
AcDbText
  0
TEXT
  5
352
330
6B
100
AcDbEntity
  8
0
 62
     3
100
AcDbText
 10
-193.5
 20
-113.0
 30
0.0
 40
3.2
  1
5
 41
0.8
  7
高3.2
100
AcDbText
  0
TEXT
  5
353
330
6B
100
AcDbEntity
  8
0
 62
     3
100
AcDbText
 10
-193.5
 20
-108.0
 30
0.0
 40
3.2
  1
6
 41
0.8
  7
高3.2
100
AcDbText
  0
TEXT
  5
354
330
6B
100
AcDbEntity
  8
0
 62
     3
100
AcDbText
 10
-193.5
 20
-103.0
 30
0.0
 40
3.2
  1
7
 41
0.8
  7
高3.2
100
AcDbText
  0
TEXT
  5
355
330
6B
100
AcDbEntity
  8
0
 62
     3
100
AcDbText
 10
-193.5
 20
-98.0
 30
0.0
 40
3.2
  1
8
 41
0.8
  7
高3.2
100
AcDbText
  0
TEXT
  5
356
330
6B
100
AcDbEntity
  8
0
 62
     3
100
AcDbText
 10
-193.5
 20
-93.0
 30
0.0
 40
3.2
  1
9
 41
0.8
  7
高3.2
100
AcDbText
  0
TEXT
  5
357
330
6B
100
AcDbEntity
  8
0
 62
     3
100
AcDbText
 10
-193.5
 20
-88.0
 30
0.0
 40
3.2
  1
10
 41
0.8
  7
高3.2
100
AcDbText
  0
TEXT
  5
358
330
6B
100
AcDbEntity
  8
0
 62
     3
100
AcDbText
 10
-186.1576710602016
 20
-88.0
 30
0.0
 40
3.2
  1
クリップ付き出力コード
 41
0.8
  7
高3.2
100
AcDbText
  0
TEXT
  5
359
330
6B
100
AcDbEntity
  8
0
 62
     3
100
AcDbText
 10
-186.1576710602016
 20
-93.0
 30
0.0
 40
3.2
  1
プラグ付き入力コード
 41
0.8
  7
高3.2
100
AcDbText
  0
TEXT
  5
35A
330
6B
100
AcDbEntity
  8
0
 62
     3
100
AcDbText
 10
-186.1576710602016
 20
-98.0
 30
0.0
 40
3.2
  1
管ヒューズ
 41
0.8
  7
高3.2
100
AcDbText
  0
TEXT
  5
35B
330
6B
100
AcDbEntity
  8
0
 62
     3
100
AcDbText
 10
-186.1576710602016
 20
-103.0
 30
0.0
 40
3.2
  1
ゴム足
 41
0.8
  7
高3.2
100
AcDbText
  0
TEXT
  5
35C
330
6B
100
AcDbEntity
  8
0
 62
     3
100
AcDbText
 10
-186.1576710602016
 20
-108.0
 30
0.0
 40
3.2
  1
切替スイッチ
 41
0.8
  7
高3.2
100
AcDbText
  0
TEXT
  5
35D
330
6B
100
AcDbEntity
  8
0
 62
     3
100
AcDbText
 10
-186.1576710602016
 20
-113.0
 30
0.0
 40
3.2
  1
電源スイッチ
 41
0.8
  7
高3.2
100
AcDbText
  0
TEXT
  5
35E
330
6B
100
AcDbEntity
  8
0
 62
     3
100
AcDbText
 10
-186.1576710602016
 20
-118.0
 30
0.0
 40
3.2
  1
直流電圧計
 41
0.8
  7
高3.2
100
AcDbText
  0
TEXT
  5
35F
330
6B
100
AcDbEntity
  8
0
 62
     3
100
AcDbText
 10
-186.1576710602016
 20
-123.0
 30
0.0
 40
3.2
  1
ハンドル取手
 41
0.8
  7
高3.2
100
AcDbText
  0
TEXT
  5
360
330
6B
100
AcDbEntity
  8
0
 62
     3
100
AcDbText
 10
-186.1576710602016
 20
-128.0
 30
0.0
 40
3.2
  1
本体カバー
 41
0.8
  7
高3.2
100
AcDbText
  0
TEXT
  5
361
330
6B
100
AcDbEntity
  8
0
 62
     3
100
AcDbText
 10
-186.1576710602016
 20
-133.0
 30
0.0
 40
3.2
  1
前面パネル兼シャーシ
 41
0.8
  7
高3.2
100
AcDbText
  0
TEXT
  5
362
330
6B
100
AcDbEntity
  8
0
 62
     3
100
AcDbText
 10
-149.142730060516
 20
-133.0
 30
0.0
 40
3.2
  1
SPCC
 41
0.8
  7
高3.2
100
AcDbText
  0
TEXT
  5
363
330
6B
100
AcDbEntity
  8
0
 62
     3
100
AcDbText
 10
-149.142730060516
 20
-128.0
 30
0.0
 40
3.2
  1
SPCC
 41
0.8
  7
高3.2
100
AcDbText
  0
TEXT
  5
364
330
6B
100
AcDbEntity
  8
0
 62
     3
100
AcDbText
 10
-149.142730060516
 20
-123.0
 30
0.0
 40
3.2
  1
樹脂
 41
0.8
  7
高3.2
100
AcDbText
  0
TEXT
  5
365
330
6B
100
AcDbEntity
  8
0
 62
     3
100
AcDbText
 10
-149.142730060516
 20
-103.0
 30
0.0
 40
3.2
  1
合成ゴム
 41
0.8
  7
高3.2
100
AcDbText
  0
TEXT
  5
366
330
6B
100
AcDbEntity
  8
0
 62
     3
100
AcDbText
 10
-149.142730060516
 20
-93.0
 30
0.0
 40
3.2
  1
VFF
 41
0.8
  7
高3.2
100
AcDbText
  0
TEXT
  5
367
330
6B
100
AcDbEntity
  8
0
 62
     3
100
AcDbText
 10
-149.142730060516
 20
-88.0
 30
0.0
 40
3.2
  1
VSF
 41
0.8
  7
高3.2
100
AcDbText
  0
TEXT
  5
368
330
6B
100
AcDbEntity
  8
0
 62
     3
100
AcDbText
 10
-132.5352213238761
 20
-88.0
 30
0.0
 40
3.2
  1
3.5sqx1.7m
 41
0.8
  7
高3.2
100
AcDbText
  0
TEXT
  5
369
330
6B
100
AcDbEntity
  8
0
 62
     3
100
AcDbText
 10
-132.5352213238761
 20
-93.0
 30
0.0
 40
3.2
  1
0.75sqx2芯x1.5m
 41
0.8
  7
高3.2
100
AcDbText
  0
TEXT
  5
36A
330
6B
100
AcDbEntity
  8
0
 62
     3
100
AcDbText
 10
-132.5352213238761
 20
-98.0
 30
0.0
 40
3.2
  1
125V 8A
 41
0.8
  7
高3.2
100
AcDbText
  0
TEXT
  5
36B
330
6B
100
AcDbEntity
  8
0
 62
     3
100
AcDbText
 10
-132.5352213238761
 20
-108.0
 30
0.0
 40
3.2
  1
バッテリー充電、エンジンスタート兼用
 41
0.8
  7
高3.2
100
AcDbText
  0
TEXT
  5
36C
330
6B
100
AcDbEntity
  8
0
 62
     3
100
AcDbText
 10
-132.5352213238761
 20
-113.0
 30
0.0
 40
3.2
  1
電源ランプ付き
 41
0.8
  7
高3.2
100
AcDbText
  0
TEXT
  5
36D
330
6B
100
AcDbEntity
  8
0
 62
     3
100
AcDbText
 10
-132.5352213238761
 20
-128.0
 30
0.0
 40
3.2
  1
焼付塗装
 41
0.8
  7
高3.2
100
AcDbText
  0
TEXT
  5
36E
330
6B
100
AcDbEntity
  8
0
 62
     3
100
AcDbText
 10
-132.5352213238761
 20
-133.0
 30
0.0
 40
3.2
  1
焼付塗装
 41
0.8
  7
高3.2
100
AcDbText
  0
LINE
  5
36F
330
6B
100
AcDbEntity
  8
0
100
AcDbLine
 10
-134.0352213238761
 20
-138.5
 30
0.0
 11
-134.0352213238761
 21
-83.49999999999999
 31
0.0
  0
LINE
  5
370
330
6B
100
AcDbEntity
  8
0
100
AcDbLine
 10
-150.642730060516
 20
-138.5
 30
0.0
 11
-150.642730060516
 21
-83.49999999999999
 31
0.0
  0
LINE
  5
371
330
6B
100
AcDbEntity
  8
0
100
AcDbLine
 10
-187.6576710602016
 20
-138.5
 30
0.0
 11
-187.6576710602016
 21
-83.49999999999999
 31
0.0
  0
LINE
  5
372
330
6B
100
AcDbEntity
  8
0
 62
     3
100
AcDbLine
 10
194.899964
 20
-92.834277
 30
0.0
 11
143.3006
 21
-92.834277
 31
0.0
  0
TEXT
  5
373
330
6B
100
AcDbEntity
  8
0
 62
     3
100
AcDbText
 10
148.7888818598601
 20
-98.278192
 30
0.0
 40
4.5
  1
コード
  7
高4.5
100
AcDbText
  0
LINE
  5
374
330
6B
100
AcDbEntity
  8
0
 62
     3
100
AcDbLine
 10
169.3006
 20
-98.834277
 30
0.0
 11
169.3006
 21
-92.834277
 31
0.0
  0
LINE
  5
375
330
6B
100
AcDbEntity
  8
0
 62
     3
100
AcDbLine
 10
143.3006
 20
-98.834277
 30
0.0
 11
143.3006
 21
-92.834277
 31
0.0
  0
LINE
  5
376
330
6B
100
AcDbEntity
  8
0
 62
     3
100
AcDbLine
 10
-195.0
 20
-83.49999999999999
 30
0.0
 11
-1.75203677255169
 21
-83.49999999999999
 31
0.0
  0
LINE
  5
377
330
6B
100
AcDbEntity
  8
0
 62
     3
100
AcDbLine
 10
-195.0
 20
-133.5
 30
0.0
 11
-1.75203677255169
 21
-133.5
 31
0.0
  0
LINE
  5
378
330
6B
100
AcDbEntity
  8
0
100
AcDbLine
 10
-195.0
 20
-88.49999999999999
 30
0.0
 11
-1.75203677255169
 21
-88.49999999999999
 31
0.0
  0
LINE
  5
379
330
6B
100
AcDbEntity
  8
0
100
AcDbLine
 10
-195.0
 20
-128.5
 30
0.0
 11
-1.75203677255169
 21
-128.5
 31
0.0
  0
LINE
  5
37A
330
6B
100
AcDbEntity
  8
0
100
AcDbLine
 10
-195.0
 20
-123.5
 30
0.0
 11
-1.75203677255169
 21
-123.5
 31
0.0
  0
LINE
  5
37B
330
6B
100
AcDbEntity
  8
0
100
AcDbLine
 10
-195.0
 20
-118.5
 30
0.0
 11
-1.75203677255169
 21
-118.5
 31
0.0
  0
LINE
  5
37C
330
6B
100
AcDbEntity
  8
0
100
AcDbLine
 10
-195.0
 20
-113.5
 30
0.0
 11
-1.75203677255169
 21
-113.5
 31
0.0
  0
LINE
  5
37D
330
6B
100
AcDbEntity
  8
0
100
AcDbLine
 10
-195.0
 20
-108.5
 30
0.0
 11
-1.75203677255169
 21
-108.5
 31
0.0
  0
LINE
  5
37E
330
6B
100
AcDbEntity
  8
0
100
AcDbLine
 10
-195.0
 20
-103.5
 30
0.0
 11
-1.75203677255169
 21
-103.5
 31
0.0
  0
LINE
  5
37F
330
6B
100
AcDbEntity
  8
0
100
AcDbLine
 10
-195.0
 20
-98.50000000000001
 30
0.0
 11
-1.75203677255169
 21
-98.50000000000001
 31
0.0
  0
LINE
  5
380
330
6B
100
AcDbEntity
  8
0
100
AcDbLine
 10
-195.0
 20
-93.49999999999999
 30
0.0
 11
-1.75203677255169
 21
-93.49999999999999
 31
0.0
  0
TEXT
  5
381
330
6B
100
AcDbEntity
  8
0
 62
     3
100
AcDbText
 10
174.1710456490314
 20
-98.335921
 30
0.0
 40
4.5
  1
6526
  7
高4.5
100
AcDbText
  0
TEXT
  5
45F
330
6B
100
AcDbEntity
  8
0
 62
     3
100
AcDbText
 10
182.5
 20
129.0
 30
0.0
 40
3.2
  1
担　当
  7
高3.2
100
AcDbText
  0
TEXT
  5
460
330
6B
100
AcDbEntity
  8
0
 62
     3
100
AcDbText
 10
138.5
 20
129.0
 30
0.0
 40
3.2
  1
変更・追記内容
  7
高3.2
100
AcDbText
  0
TEXT
  5
461
330
6B
100
AcDbEntity
  8
0
 62
     3
100
AcDbText
 10
113.6135150003392
 20
124.3294614900917
 30
0.0
 40
2.0
  1
1
  7
高2
100
AcDbText
  0
TEXT
  5
462
330
6B
100
AcDbEntity
  8
0
 62
     3
100
AcDbText
 10
113.3050035235819
 20
119.1596447778188
 30
0.0
 40
2.0
  1
2
  7
高2
100
AcDbText
  0
TEXT
  5
463
330
6B
100
AcDbEntity
  8
0
 62
     3
100
AcDbText
 10
120.5
 20
129.0
 30
0.0
 40
3.2
  1
日　付
  7
高3.2
100
AcDbText
  0
TEXT
  5
464
330
6B
100
AcDbEntity
  8
0
 62
     3
100
AcDbText
 10
120.5
 20
134.0
 30
0.0
 40
3.2
  1
図　　　　面　　　　略　　　　歴
  7
高3.2
100
AcDbText
  0
TEXT
  5
465
330
6B
100
AcDbEntity
  8
0
 62
     3
100
AcDbText
 10
110.5
 20
129.0
 30
0.0
 40
3.2
  1
記号
  7
高3.2
100
AcDbText
  0
LINE
  5
466
330
6B
100
AcDbEntity
  8
0
100
AcDbLine
 10
114.0
 20
122.2908960000001
 30
0.0
 11
112.1
 21
119.0
 31
0.0
  0
LINE
  5
467
330
6B
100
AcDbEntity
  8
0
100
AcDbLine
 10
114.0
 20
122.2908960000001
 30
0.0
 11
115.9
 21
119.0
 31
0.0
  0
LINE
  5
468
330
6B
100
AcDbEntity
  8
0
100
AcDbLine
 10
112.1
 20
119.0
 30
0.0
 11
115.9
 21
119.0
 31
0.0
  0
LINE
  5
469
330
6B
100
AcDbEntity
  8
0
100
AcDbLine
 10
114.0
 20
127.2908970000001
 30
0.0
 11
112.1
 21
124.0
 31
0.0
  0
LINE
  5
46A
330
6B
100
AcDbEntity
  8
0
100
AcDbLine
 10
114.0
 20
127.2908970000001
 30
0.0
 11
115.9
 21
124.0
 31
0.0
  0
LINE
  5
46B
330
6B
100
AcDbEntity
  8
0
100
AcDbLine
 10
112.1
 20
124.0
 30
0.0
 11
115.9
 21
124.0
 31
0.0
  0
LINE
  5
46C
330
6B
100
AcDbEntity
  8
0
 62
     3
100
AcDbLine
 10
109.0
 20
133.5
 30
0.0
 11
195.0
 21
133.5
 31
0.0
  0
LINE
  5
46D
330
6B
100
AcDbEntity
  8
0
 62
     3
100
AcDbLine
 10
109.0
 20
128.5
 30
0.0
 11
195.0
 21
128.5
 31
0.0
  0
LINE
  5
46E
330
6B
100
AcDbEntity
  8
0
 62
     7
100
AcDbLine
 10
109.0
 20
123.5
 30
0.0
 11
195.0
 21
123.5
 31
0.0
  0
LINE
  5
46F
330
6B
100
AcDbEntity
  8
0
 62
     3
100
AcDbLine
 10
109.0
 20
118.5
 30
0.0
 11
195.0
 21
118.5
 31
0.0
  0
LINE
  5
470
330
6B
100
AcDbEntity
  8
0
 62
     7
100
AcDbLine
 10
180.9999999999999
 20
118.5
 30
0.0
 11
181.0
 21
133.5
 31
0.0
  0
LINE
  5
471
330
6B
100
AcDbEntity
  8
0
 62
     7
100
AcDbLine
 10
137.0
 20
118.5
 30
0.0
 11
137.0
 21
133.5
 31
0.0
  0
LINE
  5
472
330
6B
100
AcDbEntity
  8
0
 62
     7
100
AcDbLine
 10
119.0
 20
118.5
 30
0.0
 11
119.0
 21
133.5
 31
0.0
  0
LINE
  5
473
330
6B
100
AcDbEntity
  8
0
 62
     3
100
AcDbLine
 10
109.0
 20
118.5
 30
0.0
 11
109.0
 21
138.5
 31
0.0
  0
TEXT
  5
56A
330
6B
100
AcDbEntity
  8
0
 62
     3
100
AcDbText
 10
85.22871999999997
 20
-79.23894200000002
 30
0.0
 40
3.2
  1
保　護　機　能
  7
高3.2
100
AcDbText
  0
TEXT
  5
65F
330
6B
100
AcDbEntity
  8
0
 62
     3
100
AcDbText
 10
-65.11014100085947
 20
-138.0
 30
0.0
 40
3.2
  1
コード
 41
0.8
  7
高3.2
100
AcDbText
  0
TEXT
  5
660
330
6B
100
AcDbEntity
  8
0
 62
     3
100
AcDbText
 10
-65.11014100085947
 20
-133.0
 30
0.0
 40
3.2
  1
-
 41
0.8
  7
高3.2
100
AcDbText
  0
TEXT
  5
661
330
6B
100
AcDbEntity
  8
0
 62
     3
100
AcDbText
 10
-65.11014100085947
 20
-128.0
 30
0.0
 40
3.2
  1
-
 41
0.8
  7
高3.2
100
AcDbText
  0
TEXT
  5
662
330
6B
100
AcDbEntity
  8
0
 62
     3
100
AcDbText
 10
-65.11014100085947
 20
-123.0
 30
0.0
 40
3.2
  1
-
 41
0.8
  7
高3.2
100
AcDbText
  0
TEXT
  5
663
330
6B
100
AcDbEntity
  8
0
 62
     3
100
AcDbText
 10
-65.11014100085947
 20
-118.0
 30
0.0
 40
3.2
  1
55595
 41
0.8
  7
高3.2
100
AcDbText
  0
TEXT
  5
664
330
6B
100
AcDbEntity
  8
0
 62
     3
100
AcDbText
 10
-65.11014100085947
 20
-113.0
 30
0.0
 40
3.2
  1
52530
 41
0.8
  7
高3.2
100
AcDbText
  0
TEXT
  5
665
330
6B
100
AcDbEntity
  8
0
 62
     3
100
AcDbText
 10
-65.11014100085947
 20
-108.0
 30
0.0
 40
3.2
  1
-
 41
0.8
  7
高3.2
100
AcDbText
  0
TEXT
  5
666
330
6B
100
AcDbEntity
  8
0
 62
     3
100
AcDbText
 10
-65.11014100085947
 20
-103.0
 30
0.0
 40
3.2
  1
54927
 41
0.8
  7
高3.2
100
AcDbText
  0
TEXT
  5
667
330
6B
100
AcDbEntity
  8
0
 62
     3
100
AcDbText
 10
-65.11014100085947
 20
-98.0
 30
0.0
 40
3.2
  1
-
 41
0.8
  7
高3.2
100
AcDbText
  0
TEXT
  5
668
330
6B
100
AcDbEntity
  8
0
 62
     3
100
AcDbText
 10
-65.11014100085947
 20
-93.0
 30
0.0
 40
3.2
  1
-
 41
0.8
  7
高3.2
100
AcDbText
  0
TEXT
  5
669
330
6B
100
AcDbEntity
  8
0
 62
     3
100
AcDbText
 10
-65.11014100085947
 20
-88.0
 30
0.0
 40
3.2
  1
-
 41
0.8
  7
高3.2
100
AcDbText
  0
LINE
  5
66A
330
6B
100
AcDbEntity
  8
0
100
AcDbLine
 10
-66.61014100085947
 20
-138.5
 30
0.0
 11
-66.61014100085947
 21
-83.49999999999999
 31
0.0
  0
TEXT
  5
66B
330
6B
100
AcDbEntity
  8
0
 62
     3
100
AcDbText
 10
-49.38255996866597
 20
-138.0
 30
0.0
 40
3.2
  1
コード番号名称
 41
0.6
  7
高3.2
100
AcDbText
  0
TEXT
  5
66C
330
6B
100
AcDbEntity
  8
0
 62
     3
100
AcDbText
 10
-49.38255996866597
 20
-133.0
 30
0.0
 40
3.2
  1
-
 41
0.6
  7
高3.2
100
AcDbText
  0
TEXT
  5
66D
330
6B
100
AcDbEntity
  8
0
 62
     3
100
AcDbText
 10
-49.38255996866597
 20
-128.0
 30
0.0
 40
3.2
  1
-
 41
0.6
  7
高3.2
100
AcDbText
  0
TEXT
  5
66E
330
6B
100
AcDbEntity
  8
0
 62
     3
100
AcDbText
 10
-49.38255996866597
 20
-123.0
 30
0.0
 40
3.2
  1
-
 41
0.6
  7
高3.2
100
AcDbText
  0
TEXT
  5
66F
330
6B
100
AcDbEntity
  8
0
 62
     3
100
AcDbText
 10
-49.38255996866597
 20
-118.0
 30
0.0
 40
3.2
  1
NB-40/50/60兼用　電圧メーター
 41
0.6
  7
高3.2
100
AcDbText
  0
TEXT
  5
670
330
6B
100
AcDbEntity
  8
0
 62
     3
100
AcDbText
 10
-49.38255996866597
 20
-113.0
 30
0.0
 40
3.2
  1
スイッチ(SW用)
 41
0.6
  7
高3.2
100
AcDbText
  0
TEXT
  5
671
330
6B
100
AcDbEntity
  8
0
 62
     3
100
AcDbText
 10
-49.38255996866597
 20
-108.0
 30
0.0
 40
3.2
  1
-
 41
0.6
  7
高3.2
100
AcDbText
  0
TEXT
  5
672
330
6B
100
AcDbEntity
  8
0
 62
     3
100
AcDbText
 10
-49.38255996866597
 20
-103.0
 30
0.0
 40
3.2
  1
RTB-100/200/300兼用 脚ゴム(1/4)
 41
0.6
  7
高3.2
100
AcDbText
  0
TEXT
  5
673
330
6B
100
AcDbEntity
  8
0
 62
     3
100
AcDbText
 10
-49.38255996866597
 20
-98.0
 30
0.0
 40
3.2
  1
-
 41
0.6
  7
高3.2
100
AcDbText
  0
TEXT
  5
674
330
6B
100
AcDbEntity
  8
0
 62
     3
100
AcDbText
 10
-49.38255996866597
 20
-93.0
 30
0.0
 40
3.2
  1
-
 41
0.6
  7
高3.2
100
AcDbText
  0
TEXT
  5
675
330
6B
100
AcDbEntity
  8
0
 62
     3
100
AcDbText
 10
-49.38255996866597
 20
-88.0
 30
0.0
 40
3.2
  1
-
 41
0.6
  7
高3.2
100
AcDbText
  0
LINE
  5
676
330
6B
100
AcDbEntity
  8
0
100
AcDbLine
 10
-50.882559968666
 20
-138.5
 30
0.0
 11
-50.882559968666
 21
-83.49999999999999
 31
0.0
  0
TEXT
  5
9A8
330
6B
100
AcDbEntity
  8
0
 62
     3
100
AcDbText
 10
-107.591477433818
 20
-88.0
 30
0.0
 40
3.2
  1
赤、黒
 41
0.8
  7
高3.2
100
AcDbText
  0
LINE
  5
A4E
330
6B
100
AcDbEntity
  8
0
100
AcDbLine
 10
-59.00051999999998
 20
83.72155699999998
 30
0.0
 11
-57.72488199999999
 21
82.090627
 31
0.0
  0
LINE
  5
A4F
330
6B
100
AcDbEntity
  8
0
100
AcDbLine
 10
-57.72488199999999
 20
82.090627
 30
0.0
 11
-58.014152
 21
84.140873
 31
0.0
  0
LINE
  5
A50
330
6B
100
AcDbEntity
  8
0
100
AcDbLine
 10
27.64397600000001
 20
92.21384999999999
 30
0.0
 11
28.988959
 21
90.63961799999999
 31
0.0
  0
LINE
  5
A51
330
6B
100
AcDbEntity
  8
0
100
AcDbLine
 10
28.988959
 20
90.63961799999999
 30
0.0
 11
28.611286
 21
92.675435
 31
0.0
  0
LINE
  5
A52
330
6B
100
AcDbEntity
  8
0
100
AcDbLine
 10
-138.805127
 20
37.132568
 30
0.0
 11
-139.938278
 21
38.86553
 31
0.0
  0
LINE
  5
A53
330
6B
100
AcDbEntity
  8
0
100
AcDbLine
 10
-139.938278
 20
38.86553
 30
0.0
 11
-139.823422
 21
36.79816500000001
 31
0.0
  0
LINE
  5
A54
330
6B
100
AcDbEntity
  8
0
100
AcDbLine
 10
-117.865176
 20
17.771757
 30
0.0
 11
-119.053857
 21
19.467111
 31
0.0
  0
LINE
  5
A55
330
6B
100
AcDbEntity
  8
0
100
AcDbLine
 10
-119.053857
 20
19.467111
 30
0.0
 11
-118.872106
 21
17.404551
 31
0.0
  0
LINE
  5
A56
330
6B
100
AcDbEntity
  8
0
100
AcDbLine
 10
-104.891134
 20
39.339911
 30
0.0
 11
-106.163897
 21
40.973087
 31
0.0
  0
LINE
  5
A57
330
6B
100
AcDbEntity
  8
0
100
AcDbLine
 10
-106.163897
 20
40.973087
 30
0.0
 11
-105.87824
 21
38.922334
 31
0.0
  0
LINE
  5
A58
330
6B
100
AcDbEntity
  8
0
100
AcDbLine
 10
33.696868
 20
17.470709
 30
0.0
 11
34.246017
 21
19.467111
 31
0.0
  0
LINE
  5
A59
330
6B
100
AcDbEntity
  8
0
100
AcDbLine
 10
34.246017
 20
19.467111
 30
0.0
 11
32.772239
 21
18.012751
 31
0.0
  0
LINE
  5
A5A
330
6B
100
AcDbEntity
  8
0
100
AcDbLine
 10
83.08922700000001
 20
10.306508
 30
0.0
 11
83.75497499999999
 21
12.267111
 31
0.0
  0
LINE
  5
A5B
330
6B
100
AcDbEntity
  8
0
100
AcDbLine
 10
83.75497499999999
 20
12.267111
 30
0.0
 11
82.198118
 21
10.902053
 31
0.0
  0
LINE
  5
A5C
330
6B
100
AcDbEntity
  8
0
100
AcDbLine
 10
110.064236
 20
-0.5946540000000004
 30
0.0
 11
111.280656
 21
1.080909
 31
0.0
  0
LINE
  5
A5D
330
6B
100
AcDbEntity
  8
0
100
AcDbLine
 10
111.280656
 20
1.080909
 30
0.0
 11
109.389424
 21
0.238039
 31
0.0
  0
LINE
  5
A5E
330
6B
100
AcDbEntity
  8
0
100
AcDbLine
 10
122.895175
 20
35.34842000000001
 30
0.0
 11
122.664933
 21
33.290709
 31
0.0
  0
LINE
  5
A5F
330
6B
100
AcDbEntity
  8
0
100
AcDbLine
 10
122.664933
 20
33.290709
 30
0.0
 11
123.893184
 21
34.957618
 31
0.0
  0
LINE
  5
A60
330
6B
100
AcDbEntity
  8
0
100
AcDbLine
 10
98.55487400000001
 20
53.013154
 30
0.0
 11
97.431525
 21
51.27382199999999
 31
0.0
  0
LINE
  5
A61
330
6B
100
AcDbEntity
  8
0
100
AcDbLine
 10
97.431525
 20
51.27382199999999
 30
0.0
 11
99.27403900000001
 21
52.218454
 31
0.0
  0
LINE
  5
A62
330
6B
100
AcDbEntity
  8
0
100
AcDbLine
 10
109.333609
 20
3.831276
 30
0.0
 11
110.817382
 21
2.902347
 31
0.0
  0
LINE
  5
A63
330
6B
100
AcDbEntity
  8
0
100
AcDbLine
 10
110.817382
 20
2.902347
 30
0.0
 11
112.157827
 21
2.862441999999998
 31
0.0
  0
LINE
  5
A64
330
6B
100
AcDbEntity
  8
0
100
AcDbLine
 10
112.157827
 20
2.862441999999998
 30
0.0
 11
112.596109
 21
3.198550999999998
 31
0.0
  0
LINE
  5
A65
330
6B
100
AcDbEntity
  8
0
100
AcDbLine
 10
112.596109
 20
3.198550999999998
 30
0.0
 11
113.041722
 21
3.518063999999998
 31
0.0
  0
LINE
  5
A66
330
6B
100
AcDbEntity
  8
0
100
AcDbLine
 10
113.041722
 20
3.518063999999998
 30
0.0
 11
114.031399
 21
3.522406999999998
 31
0.0
  0
LINE
  5
A67
330
6B
100
AcDbEntity
  8
0
100
AcDbLine
 10
114.031399
 20
3.522406999999998
 30
0.0
 11
115.122725
 21
3.005776
 31
0.0
  0
LINE
  5
A68
330
6B
100
AcDbEntity
  8
0
100
AcDbLine
 10
109.24867
 20
5.543326
 30
0.0
 11
110.732444
 21
4.614397
 31
0.0
  0
LINE
  5
A69
330
6B
100
AcDbEntity
  8
0
100
AcDbLine
 10
110.732444
 20
4.614397
 30
0.0
 11
112.072888
 21
4.574491
 31
0.0
  0
LINE
  5
A6A
330
6B
100
AcDbEntity
  8
0
100
AcDbLine
 10
112.072888
 20
4.574491
 30
0.0
 11
112.51117
 21
4.910600999999997
 31
0.0
  0
LINE
  5
A6B
330
6B
100
AcDbEntity
  8
0
100
AcDbLine
 10
112.51117
 20
4.910600999999997
 30
0.0
 11
112.956783
 21
5.230112999999998
 31
0.0
  0
LINE
  5
A6C
330
6B
100
AcDbEntity
  8
0
100
AcDbLine
 10
112.956783
 20
5.230112999999998
 30
0.0
 11
113.94646
 21
5.234455999999997
 31
0.0
  0
LINE
  5
A6D
330
6B
100
AcDbEntity
  8
0
100
AcDbLine
 10
113.94646
 20
5.234455999999997
 30
0.0
 11
115.037786
 21
4.717826
 31
0.0
  0
LINE
  5
A6E
330
6B
100
AcDbEntity
  8
0
100
AcDbLine
 10
138.9668
 20
20.812448
 30
0.0
 11
140.450573
 21
19.883519
 31
0.0
  0
LINE
  5
A6F
330
6B
100
AcDbEntity
  8
0
100
AcDbLine
 10
140.450573
 20
19.883519
 30
0.0
 11
141.7910179999999
 21
19.843614
 31
0.0
  0
LINE
  5
A70
330
6B
100
AcDbEntity
  8
0
100
AcDbLine
 10
141.7910179999999
 20
19.843614
 30
0.0
 11
142.2293
 21
20.179723
 31
0.0
  0
LINE
  5
A71
330
6B
100
AcDbEntity
  8
0
100
AcDbLine
 10
142.2293
 20
20.179723
 30
0.0
 11
142.6749129999999
 21
20.499236
 31
0.0
  0
LINE
  5
A72
330
6B
100
AcDbEntity
  8
0
100
AcDbLine
 10
142.6749129999999
 20
20.499236
 30
0.0
 11
143.66459
 21
20.503579
 31
0.0
  0
LINE
  5
A73
330
6B
100
AcDbEntity
  8
0
100
AcDbLine
 10
143.66459
 20
20.503579
 30
0.0
 11
144.755916
 21
19.986948
 31
0.0
  0
LINE
  5
A74
330
6B
100
AcDbEntity
  8
0
100
AcDbLine
 10
138.881861
 20
22.524498
 30
0.0
 11
140.365635
 21
21.595569
 31
0.0
  0
LINE
  5
A75
330
6B
100
AcDbEntity
  8
0
100
AcDbLine
 10
140.365635
 20
21.595569
 30
0.0
 11
141.706079
 21
21.555664
 31
0.0
  0
LINE
  5
A76
330
6B
100
AcDbEntity
  8
0
100
AcDbLine
 10
141.706079
 20
21.555664
 30
0.0
 11
142.144361
 21
21.891773
 31
0.0
  0
LINE
  5
A77
330
6B
100
AcDbEntity
  8
0
100
AcDbLine
 10
142.144361
 20
21.891773
 30
0.0
 11
142.589974
 21
22.211286
 31
0.0
  0
LINE
  5
A78
330
6B
100
AcDbEntity
  8
0
100
AcDbLine
 10
142.589974
 20
22.211286
 30
0.0
 11
143.579651
 21
22.215628
 31
0.0
  0
LINE
  5
A79
330
6B
100
AcDbEntity
  8
0
100
AcDbLine
 10
143.579651
 20
22.215628
 30
0.0
 11
144.670977
 21
21.698998
 31
0.0
  0
LINE
  5
A7A
330
6B
100
AcDbEntity
  8
0
100
AcDbLine
 10
158.356756
 20
22.840364
 30
0.0
 11
159.84053
 21
21.911435
 31
0.0
  0
LINE
  5
A7B
330
6B
100
AcDbEntity
  8
0
100
AcDbLine
 10
159.84053
 20
21.911435
 30
0.0
 11
161.180974
 21
21.87153
 31
0.0
  0
LINE
  5
A7C
330
6B
100
AcDbEntity
  8
0
100
AcDbLine
 10
161.180974
 20
21.87153
 30
0.0
 11
161.619256
 21
22.207639
 31
0.0
  0
LINE
  5
A7D
330
6B
100
AcDbEntity
  8
0
100
AcDbLine
 10
161.619256
 20
22.207639
 30
0.0
 11
162.06487
 21
22.527152
 31
0.0
  0
LINE
  5
A7E
330
6B
100
AcDbEntity
  8
0
100
AcDbLine
 10
162.06487
 20
22.527152
 30
0.0
 11
163.054546
 21
22.531495
 31
0.0
  0
LINE
  5
A7F
330
6B
100
AcDbEntity
  8
0
100
AcDbLine
 10
163.054546
 20
22.531495
 30
0.0
 11
164.145872
 21
22.014864
 31
0.0
  0
LINE
  5
A80
330
6B
100
AcDbEntity
  8
0
100
AcDbLine
 10
158.441695
 20
21.128315
 30
0.0
 11
159.925469
 21
20.199386
 31
0.0
  0
LINE
  5
A81
330
6B
100
AcDbEntity
  8
0
100
AcDbLine
 10
159.925469
 20
20.199386
 30
0.0
 11
161.265913
 21
20.159481
 31
0.0
  0
LINE
  5
A82
330
6B
100
AcDbEntity
  8
0
100
AcDbLine
 10
161.265913
 20
20.159481
 30
0.0
 11
161.704195
 21
20.49559
 31
0.0
  0
LINE
  5
A83
330
6B
100
AcDbEntity
  8
0
100
AcDbLine
 10
161.704195
 20
20.49559
 30
0.0
 11
162.149809
 21
20.815103
 31
0.0
  0
LINE
  5
A84
330
6B
100
AcDbEntity
  8
0
100
AcDbLine
 10
162.149809
 20
20.815103
 30
0.0
 11
163.139485
 21
20.819445
 31
0.0
  0
LINE
  5
A85
330
6B
100
AcDbEntity
  8
0
100
AcDbLine
 10
163.139485
 20
20.819445
 30
0.0
 11
164.230811
 21
20.302815
 31
0.0
  0
LINE
  5
A86
330
6B
100
AcDbEntity
  8
0
100
AcDbLine
 10
-145.142583
 20
12.267111
 30
0.0
 11
-163.7506939999999
 21
12.267111
 31
0.0
  0
LINE
  5
A87
330
6B
100
AcDbEntity
  8
0
100
AcDbLine
 10
-103.917315
 20
91.81026499999999
 30
0.0
 11
-163.7506939999999
 21
91.81026499999999
 31
0.0
  0
LINE
  5
A88
330
6B
100
AcDbEntity
  8
0
100
AcDbLine
 10
-162.500694
 20
14.767111
 30
0.0
 11
-162.500694
 21
89.31026500000001
 31
0.0
  0
LINE
  5
A8C
330
6B
100
AcDbEntity
  8
0
100
AcDbLine
 10
-153.282252
 20
19.217111
 30
0.0
 11
-153.282252
 21
3.257422000000001
 31
0.0
  0
LINE
  5
A8D
330
6B
100
AcDbEntity
  8
0
100
AcDbLine
 10
-41.36225200000001
 20
19.217111
 30
0.0
 11
-41.36225200000001
 21
3.257422000000001
 31
0.0
  0
LINE
  5
A8E
330
6B
100
AcDbEntity
  8
0
100
AcDbLine
 10
-150.782252
 20
4.507422
 30
0.0
 11
-43.86225200000001
 21
4.507422
 31
0.0
  0
LINE
  5
A92
330
6B
100
AcDbEntity
  8
0
100
AcDbLine
 10
-8.362251999999998
 20
25.217111
 30
0.0
 11
-8.362251999999999
 21
3.257422000000001
 31
0.0
  0
LINE
  5
A93
330
6B
100
AcDbEntity
  8
0
100
AcDbLine
 10
96.637748
 20
19.217111
 30
0.0
 11
96.637748
 21
3.257422000000001
 31
0.0
  0
LINE
  5
A94
330
6B
100
AcDbEntity
  8
0
100
AcDbLine
 10
-5.862251999999999
 20
4.507422
 30
0.0
 11
94.137748
 21
4.507422
 31
0.0
  0
TEXT
  5
A98
330
6B
100
AcDbEntity
  8
0
 62
     4
100
AcDbText
 10
-163.125694
 20
48.53868799999998
 30
0.0
 40
3.0
  1
125
 50
90.0
100
AcDbText
  0
LINE
  5
A99
330
6B
100
AcDbEntity
  8
0
  6
ByBlock
 62
     0
370
    -2
100
AcDbLine
 10
-163.1705665
 20
89.31026499999999
 30
0.0
 11
-162.500694
 21
91.81026499999999
 31
0.0
  0
LINE
  5
A9A
330
6B
100
AcDbEntity
  8
0
  6
ByBlock
 62
     0
370
    -2
100
AcDbLine
 10
-162.500694
 20
91.81026499999999
 30
0.0
 11
-161.8308215
 21
89.31026499999999
 31
0.0
  0
LINE
  5
A9B
330
6B
100
AcDbEntity
  8
0
  6
ByBlock
 62
     0
370
    -2
100
AcDbLine
 10
-162.500694
 20
91.81026499999999
 30
0.0
 11
-162.500694
 21
89.31026499999999
 31
0.0
  0
LINE
  5
A9C
330
6B
100
AcDbEntity
  8
0
  6
ByBlock
 62
     0
370
    -2
100
AcDbLine
 10
-161.8308215
 20
14.767111
 30
0.0
 11
-162.500694
 21
12.267111
 31
0.0
  0
LINE
  5
A9D
330
6B
100
AcDbEntity
  8
0
  6
ByBlock
 62
     0
370
    -2
100
AcDbLine
 10
-162.500694
 20
12.267111
 30
0.0
 11
-163.1705665
 21
14.767111
 31
0.0
  0
LINE
  5
A9E
330
6B
100
AcDbEntity
  8
0
  6
ByBlock
 62
     0
370
    -2
100
AcDbLine
 10
-162.500694
 20
12.267111
 30
0.0
 11
-162.500694
 21
14.767111
 31
0.0
  0
TEXT
  5
A9F
330
6B
100
AcDbEntity
  8
0
 62
     4
100
AcDbText
 10
-100.822252
 20
5.132422
 30
0.0
 40
3.0
  1
200
100
AcDbText
  0
LINE
  5
AA0
330
6B
100
AcDbEntity
  8
0
  6
ByBlock
 62
     0
370
    -2
100
AcDbLine
 10
-43.86225200000001
 20
5.1772945
 30
0.0
 11
-41.36225200000001
 21
4.507422
 31
0.0
  0
LINE
  5
AA1
330
6B
100
AcDbEntity
  8
0
  6
ByBlock
 62
     0
370
    -2
100
AcDbLine
 10
-41.36225200000001
 20
4.507422
 30
0.0
 11
-43.86225200000001
 21
3.8375495
 31
0.0
  0
LINE
  5
AA2
330
6B
100
AcDbEntity
  8
0
  6
ByBlock
 62
     0
370
    -2
100
AcDbLine
 10
-41.36225200000001
 20
4.507422
 30
0.0
 11
-43.86225200000001
 21
4.507422
 31
0.0
  0
LINE
  5
AA3
330
6B
100
AcDbEntity
  8
0
  6
ByBlock
 62
     0
370
    -2
100
AcDbLine
 10
-150.782252
 20
3.837549499999999
 30
0.0
 11
-153.282252
 21
4.507422
 31
0.0
  0
LINE
  5
AA4
330
6B
100
AcDbEntity
  8
0
  6
ByBlock
 62
     0
370
    -2
100
AcDbLine
 10
-153.282252
 20
4.507422
 30
0.0
 11
-150.782252
 21
5.177294499999999
 31
0.0
  0
LINE
  5
AA5
330
6B
100
AcDbEntity
  8
0
  6
ByBlock
 62
     0
370
    -2
100
AcDbLine
 10
-153.282252
 20
4.507422
 30
0.0
 11
-150.782252
 21
4.507422
 31
0.0
  0
TEXT
  5
AA6
330
6B
100
AcDbEntity
  8
0
 62
     4
100
AcDbText
 10
40.887748
 20
5.132422
 30
0.0
 40
3.0
  1
190
100
AcDbText
  0
LINE
  5
AA7
330
6B
100
AcDbEntity
  8
0
  6
ByBlock
 62
     0
370
    -2
100
AcDbLine
 10
94.137748
 20
5.1772945
 30
0.0
 11
96.637748
 21
4.507422
 31
0.0
  0
LINE
  5
AA8
330
6B
100
AcDbEntity
  8
0
  6
ByBlock
 62
     0
370
    -2
100
AcDbLine
 10
96.637748
 20
4.507422
 30
0.0
 11
94.137748
 21
3.8375495
 31
0.0
  0
LINE
  5
AA9
330
6B
100
AcDbEntity
  8
0
  6
ByBlock
 62
     0
370
    -2
100
AcDbLine
 10
96.637748
 20
4.507422
 30
0.0
 11
94.137748
 21
4.507422
 31
0.0
  0
LINE
  5
AAA
330
6B
100
AcDbEntity
  8
0
  6
ByBlock
 62
     0
370
    -2
100
AcDbLine
 10
-5.862251999999999
 20
3.837549499999999
 30
0.0
 11
-8.362251999999999
 21
4.507422
 31
0.0
  0
LINE
  5
AAB
330
6B
100
AcDbEntity
  8
0
  6
ByBlock
 62
     0
370
    -2
100
AcDbLine
 10
-8.362251999999999
 20
4.507422
 30
0.0
 11
-5.862251999999999
 21
5.177294499999999
 31
0.0
  0
LINE
  5
AAC
330
6B
100
AcDbEntity
  8
0
  6
ByBlock
 62
     0
370
    -2
100
AcDbLine
 10
-8.362251999999999
 20
4.507422
 30
0.0
 11
-5.862251999999999
 21
4.507422
 31
0.0
  0
ENDSEC
  0
SECTION
  2
OBJECTS
  0
DICTIONARY
  5
C
330
0
100
AcDbDictionary
281
     1
  3
ACAD_2007HEADERVARS_RT
350
AB1
  3
ACAD_COLOR
350
62
  3
ACAD_GROUP
350
D
  3
ACAD_LAYOUT
350
61
  3
ACAD_MATERIAL
350
10
  3
ACAD_MLEADERSTYLE
350
65
  3
ACAD_MLINESTYLE
350
5E
  3
ACAD_PLOTSETTINGS
350
60
  3
ACAD_PLOTSTYLENAME
350
E
  3
ACAD_SCALELIST
350
42
  3
ACAD_TABLESTYLE
350
63
  3
ACAD_VISUALSTYLE
350
29
  3
ACDB_RECOMPOSE_DATA
350
AAF
  3
AcDbVariableDictionary
350
5F1
  3
DWGPROPS
350
AB0
  0
DICTIONARY
  5
42A
330
2
100
AcDbDictionary
280
     1
281
     1
  3
ACAD_LAYERSTATES
360
42B
  0
DICTIONARY
  5
5EF
330
54
100
AcDbDictionary
280
     1
281
     1
  3
ADSK_XREC_LAYER_RECONCILED
360
5F0
  0
DICTIONARY
  5
5BF
330
6B
100
AcDbDictionary
280
     1
281
     1
  3
ACAD_SORTENTS
360
5C0
  0
DICTIONARY
  5
AB1
102
{ACAD_REACTORS
330
C
102
}
330
C
100
AcDbDictionary
281
     1
  3
DIMARCSYM
350
AB3
  3
DIMFXL
350
AB2
  3
DIMJOGANG
350
AB4
  3
INTERFEREVPVS
350
AB5
  0
DICTIONARY
  5
62
102
{ACAD_REACTORS
330
C
102
}
330
C
100
AcDbDictionary
281
     1
  0
DICTIONARY
  5
D
102
{ACAD_REACTORS
330
C
102
}
330
C
100
AcDbDictionary
281
     1
  0
DICTIONARY
  5
61
102
{ACAD_REACTORS
330
C
102
}
330
C
100
AcDbDictionary
281
     1
  3
Model
350
6E
  3
レイアウト1
350
6A
  0
DICTIONARY
  5
10
102
{ACAD_REACTORS
330
C
102
}
330
C
100
AcDbDictionary
281
     1
  3
ByBlock
350
19
  3
ByLayer
350
11
  3
Global
350
21
  0
DICTIONARY
  5
65
102
{ACAD_REACTORS
330
C
102
}
330
C
100
AcDbDictionary
281
     1
  3
Standard
350
66
  0
DICTIONARY
  5
5E
102
{ACAD_REACTORS
330
C
102
}
330
C
100
AcDbDictionary
281
     1
  3
Standard
350
5F
  0
DICTIONARY
  5
60
102
{ACAD_REACTORS
330
C
102
}
330
C
100
AcDbDictionary
281
     1
  0
ACDBDICTIONARYWDFLT
  5
E
102
{ACAD_REACTORS
330
C
102
}
330
C
100
AcDbDictionary
281
     1
  3
Normal
350
F
100
AcDbDictionaryWithDefault
340
F
  0
DICTIONARY
  5
42
102
{ACAD_REACTORS
330
C
102
}
330
C
100
AcDbDictionary
281
     1
  3
A0
350
43
  3
A1
350
44
  3
A2
350
45
  3
A3
350
46
  3
A4
350
47
  3
A5
350
48
  3
A6
350
49
  3
A7
350
4A
  3
A8
350
4B
  3
A9
350
4C
  3
B0
350
4D
  3
B1
350
4E
  3
B2
350
4F
  3
B3
350
50
  3
B4
350
51
  3
B5
350
52
  3
B6
350
53
  0
DICTIONARY
  5
63
102
{ACAD_REACTORS
330
C
102
}
330
C
100
AcDbDictionary
281
     1
  3
Standard
350
64
  3
部品表
350
7CA
  0
DICTIONARY
  5
29
102
{ACAD_REACTORS
330
C
102
}
330
C
100
AcDbDictionary
281
     1
  3
2dWireframe
350
2F
  3
3D Hidden
350
982
  3
3dWireframe
350
427
  3
Basic
350
2E
  3
Brighten
350
35
  3
ColorChange
350
39
  3
Conceptual
350
32
  3
Dim
350
34
  3
EdgeColorOff
350
41
  3
Facepattern
350
38
  3
Flat
350
2A
  3
FlatWithEdges
350
2B
  3
Gouraud
350
2C
  3
GouraudWithEdges
350
2D
  3
Hidden
350
31
  3
JitterOff
350
3F
  3
Linepattern
350
37
  3
OverhangOff
350
40
  3
Realistic
350
33
  3
Shaded
350
3E
  3
Shaded with edges
350
3D
  3
Shades of Gray
350
3A
  3
Sketchy
350
3B
  3
Thicken
350
36
  3
Wireframe
350
30
  3
X-Ray
350
3C
  0
XRECORD
  5
AAF
102
{ACAD_REACTORS
330
C
102
}
330
C
100
AcDbXrecord
280
     1
 90
        1
330
64
330
7CA
  0
DICTIONARY
  5
5F1
102
{ACAD_REACTORS
330
C
102
}
330
C
100
AcDbDictionary
281
     1
  3
CANNOSCALE
350
5F4
  3
CMLEADERSTYLE
350
5F3
  3
CTABLESTYLE
350
5F2
  3
DIMASSOC
350
5F7
  3
INDEXCTL
350
5F6
  3
LOFTANG1
350
9C4
  3
LOFTANG2
350
9C5
  3
LONGITUDE
350
9C6
  3
SORTENTS
350
5F5
  3
XCLIPFRAME
350
9C7
  0
XRECORD
  5
AB0
102
{ACAD_REACTORS
330
C
102
}
330
C
100
AcDbXrecord
280
     1
  1
DWGPROPS COOKIE
  2

  3

  4

  6

  7

  8
imamura
  9

300
=
301
=
302
=
303
=
304
=
305
=
306
=
307
=
308
=
309
=
 40
0.1480852083333333
 41
2456346.494181273
 42
2459893.543567327
  1

 90
        0
  0
DICTIONARY
  5
42B
102
{ACAD_REACTORS
330
42A
102
}
330
42A
100
AcDbDictionary
281
     1
  0
XRECORD
  5
5F0
102
{ACAD_REACTORS
330
5EF
102
}
330
5EF
100
AcDbXrecord
280
     1
290
     1
  0
SORTENTSTABLE
  5
5C0
102
{ACAD_REACTORS
330
5BF
102
}
330
5BF
100
AcDbSortentsTable
330
6B
331
10E
  5
194
331
CF
  5
F6
331
10A
  5
18B
331
674
  5
AA9
331
CB
  5
F2
331
37D
  5
A79
331
33E
  5
664
331
A5E
  5
207
331
307
  5
367
331
106
  5
165
331
670
  5
AA5
331
C7
  5
EE
331
379
  5
A75
331
33A
  5
660
331
A5A
  5
218
331
303
  5
363
331
2C4
  5
323
331
28D
  5
2EC
331
102
  5
15F
331
66C
  5
AA1
331
C3
  5
EA
331
375
  5
A71
331
336
  5
472
331
A56
  5
222
331
2FF
  5
35F
331
2C0
  5
31F
331
289
  5
2E8
331
24A
  5
2B5
331
217
  5
28A
331
668
  5
A9D
331
371
  5
A6D
331
332
  5
46E
331
A52
  5
230
331
2FB
  5
35B
331
2BC
  5
31B
331
285
  5
2E4
331
246
  5
2B1
331
213
  5
286
331
1D4
  5
242
331
2B8
  5
317
331
281
  5
2E0
331
242
  5
2AD
331
AAA
  5
C1
331
1CC
  5
239
331
FE
  5
125
331
664
  5
A99
331
FA
  5
121
331
36D
  5
A69
331
2F7
  5
357
331
A4E
  5
23A
331
660
  5
A95
331
F6
  5
11D
331
369
  5
A65
331
2F3
  5
353
331
27D
  5
2DC
331
AA6
  5
CD
331
365
  5
A61
331
A85
  5
1DA
331
F2
  5
119
331
32E
  5
46B
331
2EF
  5
34F
331
279
  5
2D8
331
207
  5
281
331
AA2
  5
D6
331
361
  5
A5D
331
A81
  5
1D6
331
32A
  5
467
331
2EB
  5
34B
331
2B4
  5
313
331
275
  5
2D4
331
203
  5
27D
331
A9E
  5
DD
331
2B0
  5
30F
331
271
  5
2D0
331
1FF
  5
279
331
A9A
  5
DF
331
23A
  5
2A9
331
1FB
  5
275
331
1C4
  5
234
331
EE
  5
115
331
35D
  5
A59
331
A7D
  5
1DE
331
EA
  5
111
331
326
  5
463
331
2E7
  5
347
331
125
  5
1D3
331
470
  5
A8F
331
E6
  5
10D
331
359
  5
A55
331
A79
  5
1E6
331
322
  5
45F
331
2E3
  5
343
331
2AC
  5
30B
331
26D
  5
2CC
331
BF
  5
E6
331
121
  5
1CA
331
46C
  5
A8B
331
E2
  5
109
331
355
  5
A51
331
A75
  5
1E2
331
31E
  5
37E
331
2DF
  5
33F
331
2A8
  5
307
331
269
  5
2C8
331
236
  5
2A5
331
BB
  5
E2
331
1F7
  5
271
331
A92
  5
BB
331
468
  5
A87
331
351
  5
9A8
331
A71
  5
1EA
331
31A
  5
37A
331
2DB
  5
33B
331
2A4
  5
303
331
265
  5
2C4
331
232
  5
2A1
331
A8E
  5
D0
331
1F3
  5
26D
331
1BC
  5
22F
331
2A0
  5
2FF
331
261
  5
2C0
331
1EF
  5
269
331
1EB
  5
265
331
1B4
  5
226
331
165
  5
1FF
331
161
  5
1FD
331
11D
  5
1BC
331
DE
  5
105
331
119
  5
1B3
331
464
  5
A83
331
DA
  5
101
331
34D
  5
673
331
A6D
  5
1F2
331
316
  5
376
331
2D7
  5
337
331
115
  5
1AA
331
460
  5
A7F
331
D6
  5
FD
331
349
  5
66F
331
A69
  5
1EE
331
312
  5
372
331
2D3
  5
333
331
29C
  5
2FB
331
25D
  5
2BC
331
111
  5
19C
331
345
  5
66B
331
A65
  5
1F6
331
D2
  5
F9
331
30E
  5
36E
331
2CF
  5
32E
331
298
  5
2F7
331
226
  5
299
331
1E7
  5
261
331
341
  5
667
331
A61
  5
203
331
30A
  5
36A
331
2CB
  5
32A
331
294
  5
2F3
331
255
  5
2B9
331
222
  5
295
331
1E3
  5
25D
331
1AC
  5
221
331
15D
  5
1F9
331
290
  5
2EF
331
21E
  5
291
331
1DF
  5
24F
331
21A
  5
28D
331
1DB
  5
249
331
1A4
  5
21C
331
10D
  5
193
331
CE
  5
F5
331
109
  5
18A
331
673
  5
AA8
331
CA
  5
F1
331
37C
  5
A78
331
33D
  5
663
331
A5D
  5
214
331
306
  5
366
331
2C7
  5
326
331
105
  5
164
331
66F
  5
AA4
331
C6
  5
ED
331
378
  5
A74
331
339
  5
65F
331
A59
  5
21E
331
302
  5
362
331
2C3
  5
322
331
28C
  5
2EB
331
24D
  5
2B7
331
101
  5
15E
331
66B
  5
AA0
331
C2
  5
E9
331
374
  5
A70
331
335
  5
471
331
A55
  5
228
331
2FE
  5
35E
331
2BF
  5
31E
331
288
  5
2E7
331
249
  5
2B4
331
216
  5
289
331
1D7
  5
245
331
370
  5
A6C
331
2FA
  5
35A
331
A51
  5
236
331
2BB
  5
31A
331
284
  5
2E3
331
245
  5
2B0
331
212
  5
285
331
1D3
  5
241
331
19C
  5
217
331
280
  5
2DF
331
241
  5
2AC
331
AA9
  5
C9
331
20A
  5
284
331
1CB
  5
238
331
194
  5
212
331
667
  5
A9C
331
FD
  5
124
331
663
  5
A98
331
F9
  5
120
331
36C
  5
A68
331
2F6
  5
356
331
65F
  5
A94
331
F5
  5
11C
331
368
  5
A64
331
2F2
  5
352
331
27C
  5
2DB
331
AA5
  5
D3
331
364
  5
A60
331
A84
  5
1D9
331
F1
  5
118
331
32D
  5
46A
331
2EE
  5
34E
331
2B7
  5
316
331
278
  5
2D7
331
206
  5
280
331
AA1
  5
D5
331
360
  5
A5C
331
A80
  5
1D5
331
329
  5
466
331
2EA
  5
34A
331
2B3
  5
312
331
274
  5
2D3
331
202
  5
27C
331
A9D
  5
DC
331
18C
  5
206
331
270
  5
2CF
331
1FE
  5
278
331
A99
  5
DE
331
239
  5
2A8
331
1FA
  5
274
331
1C3
  5
233
331
184
  5
201
331
ED
  5
114
331
473
  5
A92
331
E9
  5
110
331
35C
  5
A58
331
A7C
  5
1DD
331
325
  5
462
331
2E6
  5
346
331
2AF
  5
30E
331
124
  5
1D2
331
46F
  5
A8E
331
E5
  5
10C
331
358
  5
A54
331
A78
  5
1E5
331
321
  5
381
331
2E2
  5
342
331
2AB
  5
30A
331
26C
  5
2CB
331
BE
  5
E5
331
120
  5
1C4
331
46B
  5
A8A
331
E1
  5
108
331
354
  5
A50
331
A74
  5
1E1
331
31D
  5
37D
331
2DE
  5
33E
331
2A7
  5
306
331
268
  5
2C7
331
235
  5
2A4
331
1F6
  5
270
331
350
  5
676
331
A70
  5
1E9
331
319
  5
379
331
2DA
  5
33A
331
2A3
  5
302
331
264
  5
2C3
331
231
  5
2A0
331
A8D
  5
CF
331
1F2
  5
26C
331
1BB
  5
22D
331
260
  5
2BF
331
22D
  5
29D
331
1EE
  5
268
331
1EA
  5
264
331
1B3
  5
225
331
164
  5
1FE
331
160
  5
1FC
331
11C
  5
1BB
331
467
  5
A86
331
DD
  5
104
331
118
  5
1B2
331
463
  5
A82
331
D9
  5
100
331
34C
  5
672
331
A6C
  5
1F1
331
315
  5
375
331
2D6
  5
336
331
29F
  5
2FE
331
114
  5
1A4
331
45F
  5
A7E
331
D5
  5
FC
331
348
  5
66E
331
A68
  5
1ED
331
311
  5
371
331
2D2
  5
332
331
29B
  5
2FA
331
25C
  5
2BB
331
110
  5
19B
331
344
  5
66A
331
A64
  5
1F5
331
D1
  5
F8
331
30D
  5
36D
331
2CE
  5
32D
331
297
  5
2F6
331
225
  5
298
331
1E6
  5
260
331
340
  5
666
331
A60
  5
202
331
309
  5
369
331
2CA
  5
329
331
293
  5
2F2
331
221
  5
294
331
1E2
  5
25C
331
1AB
  5
220
331
21D
  5
290
331
1DE
  5
24D
331
219
  5
28C
331
1DA
  5
248
331
1A3
  5
21B
331
10C
  5
192
331
676
  5
AAB
331
CD
  5
F4
331
37F
  5
A7B
331
108
  5
184
331
672
  5
AA7
331
C9
  5
F0
331
37B
  5
A77
331
33C
  5
662
331
A5C
  5
213
331
305
  5
365
331
2C6
  5
325
331
28F
  5
2EE
331
104
  5
161
331
66E
  5
AA3
331
C5
  5
EC
331
377
  5
A73
331
338
  5
56A
331
A58
  5
21D
331
301
  5
361
331
2C2
  5
321
331
28B
  5
2EA
331
100
  5
15D
331
66A
  5
A9F
331
C1
  5
E8
331
373
  5
A6F
331
334
  5
470
331
A54
  5
227
331
2FD
  5
35D
331
2BE
  5
31D
331
287
  5
2E6
331
248
  5
2B3
331
215
  5
288
331
1D6
  5
244
331
330
  5
46D
331
A50
  5
235
331
2F9
  5
359
331
2BA
  5
319
331
283
  5
2E2
331
244
  5
2AF
331
AAC
  5
C3
331
1D2
  5
240
331
19B
  5
216
331
240
  5
2AB
331
AA8
  5
C8
331
209
  5
283
331
1CA
  5
237
331
193
  5
20A
331
666
  5
A9B
331
FC
  5
123
331
36F
  5
A6B
331
662
  5
A97
331
F8
  5
11F
331
36B
  5
A67
331
2F5
  5
355
331
27F
  5
2DE
331
F4
  5
11B
331
367
  5
A63
331
A87
  5
D9
331
2F1
  5
351
331
27B
  5
2DA
331
AA4
  5
D2
331
363
  5
A5F
331
A83
  5
1D8
331
F0
  5
117
331
32C
  5
469
331
2ED
  5
34D
331
2B6
  5
315
331
277
  5
2D6
331
205
  5
27F
331
AA0
  5
D4
331
328
  5
465
331
2E9
  5
349
331
2B2
  5
311
331
273
  5
2D2
331
201
  5
27B
331
A9C
  5
DB
331
18B
  5
205
331
56A
  5
A93
331
381
  5
A7D
331
A98
  5
E1
331
1FD
  5
277
331
238
  5
2A7
331
1F9
  5
273
331
1C2
  5
232
331
35F
  5
A5B
331
A7F
  5
1E0
331
EC
  5
113
331
472
  5
A91
331
E8
  5
10F
331
35B
  5
A57
331
A7B
  5
1DC
331
324
  5
461
331
2E5
  5
345
331
2AE
  5
30D
331
26F
  5
2CE
331
123
  5
1CC
331
46E
  5
A8D
331
E4
  5
10B
331
357
  5
A53
331
A77
  5
1E4
331
320
  5
380
331
2E1
  5
341
331
2AA
  5
309
331
26B
  5
2CA
331
BD
  5
E4
331
A94
  5
BD
331
46A
  5
A89
331
E0
  5
107
331
353
  5
A4F
331
A73
  5
1EC
331
31C
  5
37C
331
2DD
  5
33D
331
2A6
  5
305
331
267
  5
2C6
331
234
  5
2A3
331
1F5
  5
26F
331
318
  5
378
331
2D9
  5
339
331
2A2
  5
301
331
263
  5
2C2
331
230
  5
29F
331
A8C
  5
CE
331
1F1
  5
26B
331
1BA
  5
22B
331
1ED
  5
267
331
A88
  5
DA
331
228
  5
29B
331
1E9
  5
263
331
1B2
  5
224
331
11F
  5
1C3
331
11B
  5
1BA
331
466
  5
A85
331
DC
  5
103
331
34F
  5
675
331
A6F
  5
1E8
331
117
  5
1AC
331
462
  5
A81
331
D8
  5
FF
331
34B
  5
671
331
A6B
  5
1F0
331
314
  5
374
331
2D5
  5
335
331
29E
  5
2FD
331
25F
  5
2BE
331
113
  5
1A3
331
347
  5
66D
331
A67
  5
1F8
331
D4
  5
FB
331
310
  5
370
331
2D1
  5
330
331
29A
  5
2F9
331
25B
  5
2BA
331
343
  5
669
331
A63
  5
1F4
331
D0
  5
F7
331
30C
  5
36C
331
2CD
  5
32C
331
296
  5
2F5
331
224
  5
297
331
1E5
  5
25F
331
15F
  5
1FB
331
308
  5
368
331
2C9
  5
328
331
292
  5
2F1
331
220
  5
293
331
1E1
  5
25B
331
1AA
  5
21F
331
21C
  5
28F
331
1DD
  5
24B
331
218
  5
28B
331
1D9
  5
247
331
1A2
  5
21A
331
10F
  5
19A
331
10B
  5
18C
331
675
  5
AAA
331
CC
  5
F3
331
37E
  5
A7A
331
33F
  5
665
331
A5F
  5
208
331
107
  5
16A
331
671
  5
AA6
331
C8
  5
EF
331
37A
  5
A76
331
33B
  5
661
331
A5B
  5
219
331
304
  5
364
331
2C5
  5
324
331
28E
  5
2ED
331
24F
  5
2B8
331
103
  5
160
331
66D
  5
AA2
331
C4
  5
EB
331
376
  5
A72
331
337
  5
473
331
A57
  5
223
331
300
  5
360
331
2C1
  5
320
331
28A
  5
2E9
331
24B
  5
2B6
331
669
  5
A9E
331
C0
  5
E7
331
372
  5
A6E
331
333
  5
46F
331
A53
  5
231
331
2FC
  5
35C
331
2BD
  5
31C
331
286
  5
2E5
331
247
  5
2B2
331
214
  5
287
331
1D5
  5
243
331
2F8
  5
358
331
2B9
  5
318
331
282
  5
2E1
331
243
  5
2AE
331
AAB
  5
C2
331
19A
  5
215
331
208
  5
282
331
192
  5
209
331
9A8
  5
AAC
331
FF
  5
126
331
665
  5
A9A
331
FB
  5
122
331
36E
  5
A6A
331
A4F
  5
23F
331
661
  5
A96
331
F7
  5
11E
331
36A
  5
A66
331
2F4
  5
354
331
27E
  5
2DD
331
AA7
  5
C7
331
F3
  5
11A
331
366
  5
A62
331
A86
  5
D8
331
32F
  5
46C
331
2F0
  5
350
331
27A
  5
2D9
331
AA3
  5
D1
331
362
  5
A5E
331
A82
  5
1D7
331
32B
  5
468
331
2EC
  5
34C
331
2B5
  5
314
331
276
  5
2D5
331
204
  5
27E
331
A9F
  5
D7
331
2E8
  5
348
331
2B1
  5
310
331
272
  5
2D1
331
23F
  5
2AA
331
A9B
  5
E0
331
200
  5
27A
331
18A
  5
204
331
380
  5
A7C
331
1FC
  5
276
331
1F8
  5
272
331
EF
  5
116
331
35E
  5
A5A
331
A7E
  5
1DF
331
EB
  5
112
331
327
  5
464
331
126
  5
1D4
331
471
  5
A90
331
E7
  5
10E
331
35A
  5
A56
331
A7A
  5
1DB
331
323
  5
460
331
2E4
  5
344
331
2AD
  5
30C
331
26E
  5
2CD
331
122
  5
1CB
331
46D
  5
A8C
331
E3
  5
10A
331
356
  5
A52
331
A76
  5
1E3
331
31F
  5
37F
331
2E0
  5
340
331
2A9
  5
308
331
26A
  5
2C9
331
237
  5
2A6
331
BC
  5
E3
331
A93
  5
BC
331
469
  5
A88
331
352
  5
A4E
331
A72
  5
1EB
331
31B
  5
37B
331
2DC
  5
33C
331
2A5
  5
304
331
266
  5
2C5
331
233
  5
2A2
331
1F4
  5
26E
331
2D8
  5
338
331
2A1
  5
300
331
262
  5
2C1
331
22F
  5
29E
331
1F0
  5
26A
331
16A
  5
200
331
22B
  5
29C
331
1EC
  5
266
331
1E8
  5
262
331
11E
  5
1C2
331
DF
  5
106
331
11A
  5
1B4
331
465
  5
A84
331
DB
  5
102
331
34E
  5
674
331
A6E
  5
1E7
331
317
  5
377
331
116
  5
1AB
331
461
  5
A80
331
D7
  5
FE
331
34A
  5
670
331
A6A
  5
1EF
331
313
  5
373
331
2D4
  5
334
331
29D
  5
2FC
331
25E
  5
2BD
331
112
  5
1A2
331
346
  5
66C
331
A66
  5
1F7
331
D3
  5
FA
331
30F
  5
36F
331
2D0
  5
32F
331
299
  5
2F8
331
227
  5
29A
331
342
  5
668
331
A62
  5
1F3
331
30B
  5
36B
331
2CC
  5
32B
331
295
  5
2F4
331
223
  5
296
331
1E4
  5
25E
331
15E
  5
1FA
331
2C8
  5
327
331
291
  5
2F0
331
21F
  5
292
331
1E0
  5
255
331
21B
  5
28E
331
1DC
  5
24A
331
1D8
  5
246
  0
XRECORD
  5
AB3
102
{ACAD_REACTORS
330
AB1
102
}
330
AB1
100
AcDbXrecord
280
     1
 70
     2
  0
XRECORD
  5
AB2
102
{ACAD_REACTORS
330
AB1
102
}
330
AB1
100
AcDbXrecord
280
     1
 40
1.25
  0
XRECORD
  5
AB4
102
{ACAD_REACTORS
330
AB1
102
}
330
AB1
100
AcDbXrecord
280
     1
 40
1.570796326794896
  0
XRECORD
  5
AB5
102
{ACAD_REACTORS
330
AB1
102
}
330
AB1
100
AcDbXrecord
280
     1
340
427
  0
LAYOUT
  5
6E
102
{ACAD_XDICTIONARY
360
AE9
102
}
102
{ACAD_REACTORS
330
61
102
}
330
61
100
AcDbPlotSettings
  1

  2
none_device
  4
Letter_(8.50_x_11.00_Inches)
  6

 40
6.349999904632567
 41
6.349999904632567
 42
6.350006103515625
 43
6.350006103515625
 44
215.8999938964844
 45
279.3999938964844
 46
0.0
 47
0.0
 48
0.0
 49
0.0
140
0.0
141
0.0
142
1.0
143
57.83326914001946
 70
 11952
 72
     0
 73
     1
 74
     0
  7

 75
     0
147
0.0172910854750215
148
6684.514977400896
149
4803.174531396514
100
AcDbLayout
  1
Model
 70
     1
 71
     0
 10
0.0
 20
0.0
 11
12.0
 21
9.0
 12
0.0
 22
0.0
 32
0.0
 14
0.0
 24
0.0
 34
0.0
 15
0.0
 25
0.0
 35
0.0
146
0.0
 13
0.0
 23
0.0
 33
0.0
 16
1.0
 26
0.0
 36
0.0
 17
0.0
 27
1.0
 37
0.0
 76
     0
330
6B
331
8B
1001
ACAD_PSEXT
1000
なし
1000
なし
1000
適切ではありません
1000
新しいプロッタ環境設定名を選択しない限り、レイアウトは印刷されません。
1070
     0
  0
LAYOUT
  5
6A
102
{ACAD_XDICTIONARY
360
AE7
102
}
102
{ACAD_REACTORS
330
61
102
}
330
61
100
AcDbPlotSettings
  1

  2
FX DP 205
  4

  6

 40
0.0
 41
0.0
 42
0.0
 43
0.0
 44
0.0
 45
0.0
 46
0.0
 47
0.0
 48
0.0
 49
0.0
140
0.0
141
0.0
142
1.0
143
1.0
 70
   688
 72
     0
 73
     0
 74
     5
  7

 75
    16
147
1.0
148
0.0
149
0.0
100
AcDbLayout
  1
レイアウト1
 70
     1
 71
     1
 10
0.0
 20
0.0
 11
12.0
 21
9.0
 12
0.0
 22
0.0
 32
0.0
 14
1.000000000000000E+20
 24
1.000000000000000E+20
 34
1.000000000000000E+20
 15
-1.000000000000000E+20
 25
-1.000000000000000E+20
 35
-1.000000000000000E+20
146
0.0
 13
0.0
 23
0.0
 33
0.0
 16
1.0
 26
0.0
 36
0.0
 17
0.0
 27
1.0
 37
0.0
 76
     0
330
67
  0
MATERIAL
  5
19
102
{ACAD_XDICTIONARY
360
1A
102
}
102
{ACAD_REACTORS
330
10
102
}
330
10
100
AcDbMaterial
  1
ByBlock
 72
     0
 43
0.0208333333333333
 43
0.0
 43
0.0
 43
0.0
 43
0.0
 43
0.0208333333333333
 43
0.0
 43
0.0
 43
0.0
 43
0.0
 43
1.0
 43
0.0
 43
0.0
 43
0.0
 43
0.0
 43
1.0
 77
     0
 47
0.0208333333333333
 47
0.0
 47
0.0
 47
0.0
 47
0.0
 47
0.0208333333333333
 47
0.0
 47
0.0
 47
0.0
 47
0.0
 47
1.0
 47
0.0
 47
0.0
 47
0.0
 47
0.0
 47
1.0
171
     0
 49
0.0208333333333333
 49
0.0
 49
0.0
 49
0.0
 49
0.0
 49
0.0208333333333333
 49
0.0
 49
0.0
 49
0.0
 49
0.0
 49
1.0
 49
0.0
 49
0.0
 49
0.0
 49
0.0
 49
1.0
175
     0
142
0.0208333333333333
142
0.0
142
0.0
142
0.0
142
0.0
142
0.0208333333333333
142
0.0
142
0.0
142
0.0
142
0.0
142
1.0
142
0.0
142
0.0
142
0.0
142
0.0
142
1.0
179
     0
144
0.0208333333333333
144
0.0
144
0.0
144
0.0
144
0.0
144
0.0208333333333333
144
0.0
144
0.0
144
0.0
144
0.0
144
1.0
144
0.0
144
0.0
144
0.0
144
0.0
144
1.0
147
0.0208333333333333
147
0.0
147
0.0
147
0.0
147
0.0
147
0.0208333333333333
147
0.0
147
0.0
147
0.0
147
0.0
147
1.0
147
0.0
147
0.0
147
0.0
147
0.0
147
1.0
  0
MATERIAL
  5
11
102
{ACAD_XDICTIONARY
360
12
102
}
102
{ACAD_REACTORS
330
10
102
}
330
10
100
AcDbMaterial
  1
ByLayer
 72
     0
 43
0.0208333333333333
 43
0.0
 43
0.0
 43
0.0
 43
0.0
 43
0.0208333333333333
 43
0.0
 43
0.0
 43
0.0
 43
0.0
 43
1.0
 43
0.0
 43
0.0
 43
0.0
 43
0.0
 43
1.0
 77
     0
 47
0.0208333333333333
 47
0.0
 47
0.0
 47
0.0
 47
0.0
 47
0.0208333333333333
 47
0.0
 47
0.0
 47
0.0
 47
0.0
 47
1.0
 47
0.0
 47
0.0
 47
0.0
 47
0.0
 47
1.0
171
     0
 49
0.0208333333333333
 49
0.0
 49
0.0
 49
0.0
 49
0.0
 49
0.0208333333333333
 49
0.0
 49
0.0
 49
0.0
 49
0.0
 49
1.0
 49
0.0
 49
0.0
 49
0.0
 49
0.0
 49
1.0
175
     0
142
0.0208333333333333
142
0.0
142
0.0
142
0.0
142
0.0
142
0.0208333333333333
142
0.0
142
0.0
142
0.0
142
0.0
142
1.0
142
0.0
142
0.0
142
0.0
142
0.0
142
1.0
179
     0
144
0.0208333333333333
144
0.0
144
0.0
144
0.0
144
0.0
144
0.0208333333333333
144
0.0
144
0.0
144
0.0
144
0.0
144
1.0
144
0.0
144
0.0
144
0.0
144
0.0
144
1.0
147
0.0208333333333333
147
0.0
147
0.0
147
0.0
147
0.0
147
0.0208333333333333
147
0.0
147
0.0
147
0.0
147
0.0
147
1.0
147
0.0
147
0.0
147
0.0
147
0.0
147
1.0
  0
MATERIAL
  5
21
102
{ACAD_XDICTIONARY
360
22
102
}
102
{ACAD_REACTORS
330
10
102
}
330
10
100
AcDbMaterial
  1
Global
 72
     0
 43
0.0208333333333333
 43
0.0
 43
0.0
 43
0.0
 43
0.0
 43
0.0208333333333333
 43
0.0
 43
0.0
 43
0.0
 43
0.0
 43
1.0
 43
0.0
 43
0.0
 43
0.0
 43
0.0
 43
1.0
 77
     0
 47
0.0208333333333333
 47
0.0
 47
0.0
 47
0.0
 47
0.0
 47
0.0208333333333333
 47
0.0
 47
0.0
 47
0.0
 47
0.0
 47
1.0
 47
0.0
 47
0.0
 47
0.0
 47
0.0
 47
1.0
171
     0
 49
0.0208333333333333
 49
0.0
 49
0.0
 49
0.0
 49
0.0
 49
0.0208333333333333
 49
0.0
 49
0.0
 49
0.0
 49
0.0
 49
1.0
 49
0.0
 49
0.0
 49
0.0
 49
0.0
 49
1.0
175
     0
142
0.0208333333333333
142
0.0
142
0.0
142
0.0
142
0.0
142
0.0208333333333333
142
0.0
142
0.0
142
0.0
142
0.0
142
1.0
142
0.0
142
0.0
142
0.0
142
0.0
142
1.0
179
     0
144
0.0208333333333333
144
0.0
144
0.0
144
0.0
144
0.0
144
0.0208333333333333
144
0.0
144
0.0
144
0.0
144
0.0
144
1.0
144
0.0
144
0.0
144
0.0
144
0.0
144
1.0
147
0.0208333333333333
147
0.0
147
0.0
147
0.0
147
0.0
147
0.0208333333333333
147
0.0
147
0.0
147
0.0
147
0.0
147
1.0
147
0.0
147
0.0
147
0.0
147
0.0
147
1.0
  0
MLEADERSTYLE
  5
66
102
{ACAD_REACTORS
330
65
102
}
330
65
100
AcDbMLeaderStyle
170
     2
171
     1
172
     0
 90
        2
 40
0.0
 41
0.0
173
     1
 91
-1056964608
340
5A
 92
       -2
290
     1
 42
0.09
291
     1
 43
0.36
  3
Standard
 44
0.18
300

342
55
174
     1
178
     6
175
     1
176
     0
 93
-1056964608
 45
0.18
292
     0
297
     0
 46
0.18
 94
-1056964608
 47
1.0
 49
1.0
140
1.0
293
     1
141
0.0
294
     1
177
     0
142
1.0
295
     0
296
     0
143
0.125
1001
ACAD_MLEADERVER
1070
     2
  0
MLINESTYLE
  5
5F
102
{ACAD_REACTORS
330
5E
102
}
330
5E
100
AcDbMlineStyle
  2
STANDARD
 70
     0
  3

 62
   256
 51
90.0
 52
90.0
 71
     2
 49
0.5
 62
   256
  6
BYLAYER
 49
-0.5
 62
   256
  6
BYLAYER
  0
ACDBPLACEHOLDER
  5
F
102
{ACAD_REACTORS
330
E
102
}
330
E
  0
SCALE
  5
43
102
{ACAD_REACTORS
330
42
102
}
330
42
100
AcDbScale
 70
     0
300
1:1
140
1.0
141
1.0
290
     1
  0
SCALE
  5
44
102
{ACAD_REACTORS
330
42
102
}
330
42
100
AcDbScale
 70
     0
300
1/128" = 1'-0"
140
0.0078125
141
12.0
290
     0
  0
SCALE
  5
45
102
{ACAD_REACTORS
330
42
102
}
330
42
100
AcDbScale
 70
     0
300
1/64" = 1'-0"
140
0.015625
141
12.0
290
     0
  0
SCALE
  5
46
102
{ACAD_REACTORS
330
42
102
}
330
42
100
AcDbScale
 70
     0
300
1/32" = 1'-0"
140
0.03125
141
12.0
290
     0
  0
SCALE
  5
47
102
{ACAD_REACTORS
330
42
102
}
330
42
100
AcDbScale
 70
     0
300
1/16" = 1'-0"
140
0.0625
141
12.0
290
     0
  0
SCALE
  5
48
102
{ACAD_REACTORS
330
42
102
}
330
42
100
AcDbScale
 70
     0
300
3/32" = 1'-0"
140
0.09375
141
12.0
290
     0
  0
SCALE
  5
49
102
{ACAD_REACTORS
330
42
102
}
330
42
100
AcDbScale
 70
     0
300
1/8" = 1'-0"
140
0.125
141
12.0
290
     0
  0
SCALE
  5
4A
102
{ACAD_REACTORS
330
42
102
}
330
42
100
AcDbScale
 70
     0
300
3/16" = 1'-0"
140
0.1875
141
12.0
290
     0
  0
SCALE
  5
4B
102
{ACAD_REACTORS
330
42
102
}
330
42
100
AcDbScale
 70
     0
300
1/4" = 1'-0"
140
0.25
141
12.0
290
     0
  0
SCALE
  5
4C
102
{ACAD_REACTORS
330
42
102
}
330
42
100
AcDbScale
 70
     0
300
3/8" = 1'-0"
140
0.375
141
12.0
290
     0
  0
SCALE
  5
4D
102
{ACAD_REACTORS
330
42
102
}
330
42
100
AcDbScale
 70
     0
300
1/2" = 1'-0"
140
0.5
141
12.0
290
     0
  0
SCALE
  5
4E
102
{ACAD_REACTORS
330
42
102
}
330
42
100
AcDbScale
 70
     0
300
3/4" = 1'-0"
140
0.75
141
12.0
290
     0
  0
SCALE
  5
4F
102
{ACAD_REACTORS
330
42
102
}
330
42
100
AcDbScale
 70
     0
300
1" = 1'-0"
140
1.0
141
12.0
290
     0
  0
SCALE
  5
50
102
{ACAD_REACTORS
330
42
102
}
330
42
100
AcDbScale
 70
     0
300
1-1/2" = 1'-0"
140
1.5
141
12.0
290
     0
  0
SCALE
  5
51
102
{ACAD_REACTORS
330
42
102
}
330
42
100
AcDbScale
 70
     0
300
3" = 1'-0"
140
3.0
141
12.0
290
     0
  0
SCALE
  5
52
102
{ACAD_REACTORS
330
42
102
}
330
42
100
AcDbScale
 70
     0
300
6" = 1'-0"
140
6.0
141
12.0
290
     0
  0
SCALE
  5
53
102
{ACAD_REACTORS
330
42
102
}
330
42
100
AcDbScale
 70
     0
300
1'-0" = 1'-0"
140
12.0
141
12.0
290
     0
  0
TABLESTYLE
  5
64
102
{ACAD_XDICTIONARY
360
5F9
102
}
102
{ACAD_REACTORS
330
63
102
}
330
63
100
AcDbTableStyle
  3
Standard
 70
     0
 71
     0
 40
0.06
 41
0.06
280
     0
281
     0
  7
STANDARD
140
0.18
170
     2
 62
     0
 63
     7
283
     0
274
    -2
284
     1
 64
     0
275
    -2
285
     1
 65
     0
276
    -2
286
     1
 66
     0
277
    -2
287
     1
 67
     0
278
    -2
288
     1
 68
     0
279
    -2
289
     1
 69
     0
  7
STANDARD
140
0.25
170
     5
 62
     0
 63
     7
283
     0
274
    -2
284
     1
 64
     0
275
    -2
285
     1
 65
     0
276
    -2
286
     1
 66
     0
277
    -2
287
     1
 67
     0
278
    -2
288
     1
 68
     0
279
    -2
289
     1
 69
     0
  7
STANDARD
140
0.18
170
     5
 62
     0
 63
     7
283
     0
274
    -2
284
     1
 64
     0
275
    -2
285
     1
 65
     0
276
    -2
286
     1
 66
     0
277
    -2
287
     1
 67
     0
278
    -2
288
     1
 68
     0
279
    -2
289
     1
 69
     0
  0
TABLESTYLE
  5
7CA
102
{ACAD_XDICTIONARY
360
7CB
102
}
102
{ACAD_REACTORS
330
63
102
}
330
63
100
AcDbTableStyle
  3
Standard
 70
     1
 71
     0
 40
1.5
 41
0.5
280
     0
281
     0
  7
高3.2
140
0.18
170
     7
 62
     3
 63
     7
283
     0
274
    -2
284
     1
 64
     3
275
    -2
285
     1
 65
     7
276
    -2
286
     1
 66
     3
277
    -2
287
     1
 67
     3
278
    -2
288
     1
 68
     7
279
    -2
289
     1
 69
     3
  7
高3.2
140
0.25
170
     8
 62
     3
 63
     7
283
     0
274
    -2
284
     1
 64
     0
275
    -2
285
     1
 65
     0
276
    -2
286
     1
 66
     0
277
    -2
287
     1
 67
     0
278
    -2
288
     1
 68
     0
279
    -2
289
     1
 69
     0
  7
高3.2
140
0.18
170
     7
 62
     3
 63
     7
283
     0
274
    -2
284
     1
 64
     3
275
    -2
285
     1
 65
     7
276
    -2
286
     1
 66
     3
277
    -2
287
     1
 67
     3
278
    -2
288
     1
 68
     7
279
    -2
289
     1
 69
     3
  0
VISUALSTYLE
  5
2F
102
{ACAD_XDICTIONARY
360
AC0
102
}
102
{ACAD_REACTORS
330
29
102
}
330
29
100
AcDbVisualStyle
  2

 70
     4
 71
     0
 72
     2
 73
     0
 90
        0
 40
-0.6
 41
-30.0
 62
     5
 63
     7
 74
     1
 91
        4
 64
     7
 65
   257
 75
     1
175
     1
 42
1.0
 92
        0
 66
   257
 43
1.0
 76
     1
 77
     6
 78
     2
 67
     7
 79
     5
170
     0
171
     0
290
     0
174
     0
 93
        1
 44
0.0
173
     0
291
     0
 45
0.0
1001
ACAD
1000
AcDbSavedByObjectVersion
1070
     0
  0
VISUALSTYLE
  5
982
102
{ACAD_XDICTIONARY
360
AEE
102
}
102
{ACAD_REACTORS
330
29
102
}
330
29
100
AcDbVisualStyle
  2

 70
     6
 71
     1
 72
     2
 73
     2
 90
        0
 40
-0.6
 41
-30.0
 62
     5
 63
     7
 74
     2
 91
        2
 64
     7
 65
   257
 75
     2
175
     1
 42
40.0
 92
        0
 66
   257
 43
1.0
 76
     1
 77
     6
 78
     2
 67
     7
 79
     3
170
     0
171
     0
290
     0
174
     0
 93
        1
 44
0.0
173
     0
291
     0
 45
0.0
1001
ACAD
1000
AcDbSavedByObjectVersion
1070
     0
  0
VISUALSTYLE
  5
427
102
{ACAD_XDICTIONARY
360
AEB
102
}
102
{ACAD_REACTORS
330
29
102
}
330
29
100
AcDbVisualStyle
  2

 70
     5
 71
     0
 72
     2
 73
     1
 90
        0
 40
-0.6
 41
-30.0
 62
     5
 63
     7
 74
     1
 91
        4
 64
     7
 65
   257
 75
     1
175
     1
 42
1.0
 92
        0
 66
   257
 43
1.0
 76
     1
 77
     6
 78
     2
 67
     7
 79
     5
170
     0
171
     0
290
     0
174
     0
 93
        1
 44
0.0
173
     0
291
     0
 45
0.0
1001
ACAD
1000
AcDbSavedByObjectVersion
1070
     0
  0
VISUALSTYLE
  5
2E
102
{ACAD_XDICTIONARY
360
ABE
102
}
102
{ACAD_REACTORS
330
29
102
}
330
29
100
AcDbVisualStyle
  2

 70
     7
 71
     1
 72
     0
 73
     1
 90
        0
 40
-0.6
 41
-30.0
 62
     5
 63
     7
 74
     0
 91
        4
 64
     7
 65
   257
 75
     1
175
     1
 42
1.0
 92
        8
 66
     7
 43
1.0
 76
     1
 77
     6
 78
     2
 67
     7
 79
     5
170
     0
171
     0
290
     0
174
     0
 93
        1
 44
0.0
173
     0
291
     1
 45
0.0
1001
ACAD
1000
AcDbSavedByObjectVersion
1070
     0
  0
VISUALSTYLE
  5
35
102
{ACAD_XDICTIONARY
360
ACC
102
}
102
{ACAD_REACTORS
330
29
102
}
330
29
100
AcDbVisualStyle
  2

 70
    12
 71
     2
 72
     2
 73
     0
 90
        0
 40
-0.6
 41
-30.0
 62
     5
 63
     7
 74
     1
 91
        4
 64
     7
 65
   257
 75
     1
175
     1
 42
1.0
 92
        8
 66
     7
 43
1.0
 76
     1
 77
     6
 78
     2
 67
     7
 79
     5
170
     0
171
     0
290
     0
174
     0
 93
        1
 44
50.0
173
     0
291
     1
 45
0.0
1001
ACAD
1000
AcDbSavedByObjectVersion
1070
     0
  0
VISUALSTYLE
  5
39
102
{ACAD_XDICTIONARY
360
AD4
102
}
102
{ACAD_REACTORS
330
29
102
}
330
29
100
AcDbVisualStyle
  2

 70
    16
 71
     2
 72
     2
 73
     3
 90
        0
 40
-0.6
 41
-30.0
 62
     5
 63
     8
 74
     1
 91
        4
 64
     7
 65
   257
 75
     1
175
     1
 42
1.0
 92
        8
 66
     8
 43
1.0
 76
     1
 77
     6
 78
     2
 67
     7
 79
     5
170
     0
171
     0
290
     0
174
     0
 93
        1
 44
0.0
173
     0
291
     1
 45
0.0
1001
ACAD
1000
AcDbSavedByObjectVersion
1070
     0
  0
VISUALSTYLE
  5
32
102
{ACAD_XDICTIONARY
360
AC6
102
}
102
{ACAD_REACTORS
330
29
102
}
330
29
100
AcDbVisualStyle
  2

 70
     9
 71
     3
 72
     2
 73
     0
 90
        0
 40
-0.6
 41
-30.0
 62
     5
 63
     7
 74
     2
 91
        2
 64
     7
 65
   257
 75
     1
175
     1
 42
179.0
 92
        8
 66
     7
 43
1.0
 76
     1
 77
     6
 78
     2
 67
     7
 79
     3
170
     0
171
     0
290
     0
174
     0
 93
        1
 44
0.0
173
     0
291
     0
 45
0.0
1001
ACAD
1000
AcDbSavedByObjectVersion
1070
     0
  0
VISUALSTYLE
  5
34
102
{ACAD_XDICTIONARY
360
ACA
102
}
102
{ACAD_REACTORS
330
29
102
}
330
29
100
AcDbVisualStyle
  2

 70
    11
 71
     2
 72
     2
 73
     0
 90
        0
 40
-0.6
 41
-30.0
 62
     5
 63
     7
 74
     1
 91
        4
 64
     7
 65
   257
 75
     1
175
     1
 42
1.0
 92
        8
 66
     7
 43
1.0
 76
     1
 77
     6
 78
     2
 67
     7
 79
     5
170
     0
171
     0
290
     0
174
     0
 93
        1
 44
-50.0
173
     0
291
     1
 45
0.0
1001
ACAD
1000
AcDbSavedByObjectVersion
1070
     0
  0
VISUALSTYLE
  5
41
102
{ACAD_XDICTIONARY
360
AE4
102
}
102
{ACAD_REACTORS
330
29
102
}
330
29
100
AcDbVisualStyle
  2

 70
    22
 71
     2
 72
     2
 73
     0
 90
        0
 40
-0.6
 41
-30.0
 62
     5
 63
     7
 74
     1
 91
        4
 64
     7
 65
   257
 75
     1
175
     1
 42
1.0
 92
        8
 66
     7
 43
1.0
 76
     1
 77
     6
 78
     2
 67
     7
 79
     5
170
     0
171
     0
290
     0
174
     0
 93
        1
 44
0.0
173
     0
291
     1
 45
0.0
1001
ACAD
1000
AcDbSavedByObjectVersion
1070
     0
  0
VISUALSTYLE
  5
38
102
{ACAD_XDICTIONARY
360
AD2
102
}
102
{ACAD_REACTORS
330
29
102
}
330
29
100
AcDbVisualStyle
  2

 70
    15
 71
     2
 72
     2
 73
     0
 90
        0
 40
-0.6
 41
-30.0
 62
     5
 63
     7
 74
     1
 91
        4
 64
     7
 65
   257
 75
     1
175
     1
 42
1.0
 92
        8
 66
     7
 43
1.0
 76
     1
 77
     6
 78
     2
 67
     7
 79
     5
170
     0
171
     0
290
     0
174
     0
 93
        1
 44
0.0
173
     0
291
     1
 45
0.0
1001
ACAD
1000
AcDbSavedByObjectVersion
1070
     0
  0
VISUALSTYLE
  5
2A
102
{ACAD_XDICTIONARY
360
AB6
102
}
102
{ACAD_REACTORS
330
29
102
}
330
29
100
AcDbVisualStyle
  2

 70
     0
 71
     2
 72
     1
 73
     1
 90
        2
 40
-0.6
 41
30.0
 62
     5
 63
     7
 74
     0
 91
        0
 64
     7
 65
   257
 75
     1
175
     1
 42
1.0
 92
        8
 66
     7
 43
1.0
 76
     1
 77
     6
 78
     2
 67
     7
 79
     5
170
     0
171
     0
290
     0
174
     0
 93
       13
 44
0.0
173
     0
291
     1
 45
0.0
1001
ACAD
1000
AcDbSavedByObjectVersion
1070
     0
  0
VISUALSTYLE
  5
2B
102
{ACAD_XDICTIONARY
360
AB8
102
}
102
{ACAD_REACTORS
330
29
102
}
330
29
100
AcDbVisualStyle
  2

 70
     1
 71
     2
 72
     1
 73
     1
 90
        2
 40
-0.6
 41
30.0
 62
     5
 63
     7
 74
     1
 91
        0
 64
     7
 65
   257
 75
     1
175
     1
 42
1.0
 92
        0
 66
   257
 43
1.0
 76
     1
 77
     6
 78
     2
 67
     7
 79
     5
170
     0
171
     0
290
     0
174
     0
 93
       13
 44
0.0
173
     0
291
     1
 45
0.0
1001
ACAD
1000
AcDbSavedByObjectVersion
1070
     0
  0
VISUALSTYLE
  5
2C
102
{ACAD_XDICTIONARY
360
ABA
102
}
102
{ACAD_REACTORS
330
29
102
}
330
29
100
AcDbVisualStyle
  2

 70
     2
 71
     2
 72
     2
 73
     1
 90
        2
 40
-0.6
 41
30.0
 62
     5
 63
     7
 74
     0
 91
        0
 64
     7
 65
   257
 75
     1
175
     1
 42
1.0
 92
        0
 66
     7
 43
1.0
 76
     1
 77
     6
 78
     2
 67
     7
 79
     5
170
     0
171
     0
290
     0
174
     0
 93
       13
 44
0.0
173
     0
291
     1
 45
0.0
1001
ACAD
1000
AcDbSavedByObjectVersion
1070
     0
  0
VISUALSTYLE
  5
2D
102
{ACAD_XDICTIONARY
360
ABC
102
}
102
{ACAD_REACTORS
330
29
102
}
330
29
100
AcDbVisualStyle
  2

 70
     3
 71
     2
 72
     2
 73
     1
 90
        2
 40
-0.6
 41
30.0
 62
     5
 63
     7
 74
     1
 91
        0
 64
     7
 65
   257
 75
     1
175
     1
 42
1.0
 92
        0
 66
   257
 43
1.0
 76
     1
 77
     6
 78
     2
 67
     7
 79
     5
170
     0
171
     0
290
     0
174
     0
 93
       13
 44
0.0
173
     0
291
     1
 45
0.0
1001
ACAD
1000
AcDbSavedByObjectVersion
1070
     0
  0
VISUALSTYLE
  5
31
102
{ACAD_XDICTIONARY
360
AC4
102
}
102
{ACAD_REACTORS
330
29
102
}
330
29
100
AcDbVisualStyle
  2

 70
     6
 71
     1
 72
     2
 73
     2
 90
        0
 40
-0.6
 41
-30.0
 62
     5
 63
     7
 74
     2
 91
        2
 64
     7
 65
   257
 75
     2
175
     1
 42
40.0
 92
        0
 66
   257
 43
1.0
 76
     1
 77
     6
 78
     2
 67
     7
 79
     3
170
     0
171
     0
290
     0
174
     0
 93
        1
 44
0.0
173
     0
291
     0
 45
0.0
1001
ACAD
1000
AcDbSavedByObjectVersion
1070
     0
  0
VISUALSTYLE
  5
3F
102
{ACAD_XDICTIONARY
360
AE0
102
}
102
{ACAD_REACTORS
330
29
102
}
330
29
100
AcDbVisualStyle
  2

 70
    20
 71
     2
 72
     2
 73
     0
 90
        0
 40
-0.6
 41
-30.0
 62
     5
 63
     7
 74
     1
 91
        4
 64
     7
 65
   257
 75
     1
175
     1
 42
1.0
 92
       10
 66
     7
 43
1.0
 76
     1
 77
     6
 78
     2
 67
     7
 79
     5
170
     0
171
     0
290
     0
174
     0
 93
        1
 44
0.0
173
     0
291
     1
 45
0.0
1001
ACAD
1000
AcDbSavedByObjectVersion
1070
     0
  0
VISUALSTYLE
  5
37
102
{ACAD_XDICTIONARY
360
AD0
102
}
102
{ACAD_REACTORS
330
29
102
}
330
29
100
AcDbVisualStyle
  2

 70
    14
 71
     2
 72
     2
 73
     0
 90
        0
 40
-0.6
 41
-30.0
 62
     5
 63
     7
 74
     1
 91
        4
 64
     7
 65
   257
 75
     7
175
     7
 42
1.0
 92
        8
 66
     7
 43
1.0
 76
     1
 77
     6
 78
     2
 67
     7
 79
     5
170
     0
171
     0
290
     0
174
     0
 93
        1
 44
0.0
173
     0
291
     1
 45
0.0
1001
ACAD
1000
AcDbSavedByObjectVersion
1070
     0
  0
VISUALSTYLE
  5
40
102
{ACAD_XDICTIONARY
360
AE2
102
}
102
{ACAD_REACTORS
330
29
102
}
330
29
100
AcDbVisualStyle
  2

 70
    21
 71
     2
 72
     2
 73
     0
 90
        0
 40
-0.6
 41
-30.0
 62
     5
 63
     7
 74
     1
 91
        4
 64
     7
 65
   257
 75
     1
175
     1
 42
1.0
 92
        9
 66
     7
 43
1.0
 76
     1
 77
     6
 78
     2
 67
     7
 79
     5
170
     0
171
     0
290
     0
174
     0
 93
        1
 44
0.0
173
     0
291
     1
 45
0.0
1001
ACAD
1000
AcDbSavedByObjectVersion
1070
     0
  0
VISUALSTYLE
  5
33
102
{ACAD_XDICTIONARY
360
AC8
102
}
102
{ACAD_REACTORS
330
29
102
}
330
29
100
AcDbVisualStyle
  2

 70
     8
 71
     2
 72
     3
 73
     0
 90
        2
 40
-0.6
 41
30.0
 62
     5
 63
     7
 74
     0
 91
        0
 64
     7
 65
   257
 75
     1
175
     1
 42
1.0
 92
        8
 66
   257
 43
1.0
 76
     1
 77
     6
 78
     2
 67
     7
 79
     3
170
     0
171
     0
290
     0
174
     0
 93
       13
 44
0.0
173
     0
291
     0
 45
0.0
1001
ACAD
1000
AcDbSavedByObjectVersion
1070
     0
  0
VISUALSTYLE
  5
3E
102
{ACAD_XDICTIONARY
360
ADE
102
}
102
{ACAD_REACTORS
330
29
102
}
330
29
100
AcDbVisualStyle
  2

 70
    27
 71
     2
 72
     2
 73
     1
 90
        2
 40
-0.6
 41
30.0
 62
     5
 63
     7
 74
     0
 91
        4
 64
     7
 65
   257
 75
     1
175
     1
 42
1.0
 92
        8
 66
   257
 43
1.0
 76
     1
 77
     6
 78
     2
 67
     8
 79
     3
170
     0
171
     0
290
     0
174
     0
 93
        5
 44
0.0
173
     0
291
     0
 45
0.0
1001
ACAD
1000
AcDbSavedByObjectVersion
1070
     0
  0
VISUALSTYLE
  5
3D
102
{ACAD_XDICTIONARY
360
ADC
102
}
102
{ACAD_REACTORS
330
29
102
}
330
29
100
AcDbVisualStyle
  2

 70
    26
 71
     2
 72
     2
 73
     1
 90
        2
 40
-0.6
 41
30.0
 62
     5
 63
     7
 74
     1
 91
       10
 64
     7
 65
   257
 75
     2
175
     1
 42
1.0
 92
        8
 66
   257
 43
1.0
 76
     1
 77
     6
 78
     2
 67
     7
 79
     3
170
     0
171
     0
290
     0
174
     0
 93
        5
 44
0.0
173
     0
291
     0
 45
0.0
1001
ACAD
1000
AcDbSavedByObjectVersion
1070
     0
  0
VISUALSTYLE
  5
3A
102
{ACAD_XDICTIONARY
360
AD6
102
}
102
{ACAD_REACTORS
330
29
102
}
330
29
100
AcDbVisualStyle
  2

 70
    23
 71
     2
 72
     2
 73
     3
 90
        0
 40
-0.6
 41
-30.0
 62
     5
 63
     7
 74
     2
 91
        2
 64
     7
 65
     7
 75
     1
175
     1
 42
40.0
 92
        8
 66
     7
 43
1.0
 76
     1
 77
     6
 78
     2
 67
     7
 79
     3
170
     0
171
     0
290
     0
174
     0
 93
        1
 44
0.0
173
     0
291
     0
 45
0.0
1001
ACAD
1000
AcDbSavedByObjectVersion
1070
     0
  0
VISUALSTYLE
  5
3B
102
{ACAD_XDICTIONARY
360
AD8
102
}
102
{ACAD_REACTORS
330
29
102
}
330
29
100
AcDbVisualStyle
  2

 70
    24
 71
     1
 72
     2
 73
     2
 90
        0
 40
-0.6
 41
-30.0
 62
     5
 63
     7
 74
     2
 91
        2
 64
     7
 65
     7
 75
     1
175
     1
 42
40.0
 92
       11
 66
     7
 43
1.0
 76
     1
 77
     6
 78
     2
 67
     7
 79
     6
170
     0
171
     0
290
     0
174
     0
 93
        1
 44
0.0
173
     0
291
     0
 45
0.0
1001
ACAD
1000
AcDbSavedByObjectVersion
1070
     0
  0
VISUALSTYLE
  5
36
102
{ACAD_XDICTIONARY
360
ACE
102
}
102
{ACAD_REACTORS
330
29
102
}
330
29
100
AcDbVisualStyle
  2

 70
    13
 71
     2
 72
     2
 73
     0
 90
        0
 40
-0.6
 41
-30.0
 62
     5
 63
     7
 74
     1
 91
        4
 64
     7
 65
   257
 75
     1
175
     1
 42
1.0
 92
       12
 66
     7
 43
1.0
 76
     1
 77
     6
 78
     2
 67
     7
 79
     5
170
     0
171
     0
290
     0
174
     0
 93
        1
 44
0.0
173
     0
291
     1
 45
0.0
1001
ACAD
1000
AcDbSavedByObjectVersion
1070
     0
  0
VISUALSTYLE
  5
30
102
{ACAD_XDICTIONARY
360
AC2
102
}
102
{ACAD_REACTORS
330
29
102
}
330
29
100
AcDbVisualStyle
  2

 70
     5
 71
     0
 72
     2
 73
     0
 90
        0
 40
-0.6
 41
-30.0
 62
     5
 63
     7
 74
     1
 91
        4
 64
     7
 65
   257
 75
     1
175
     1
 42
1.0
 92
        0
 66
   257
 43
1.0
 76
     1
 77
     6
 78
     2
 67
     7
 79
     3
170
     0
171
     0
290
     0
174
     0
 93
        1
 44
0.0
173
     0
291
     0
 45
0.0
1001
ACAD
1000
AcDbSavedByObjectVersion
1070
     0
  0
VISUALSTYLE
  5
3C
102
{ACAD_XDICTIONARY
360
ADA
102
}
102
{ACAD_REACTORS
330
29
102
}
330
29
100
AcDbVisualStyle
  2

 70
    25
 71
     2
 72
     2
 73
     1
 90
        1
 40
0.5
 41
-30.0
 62
     5
 63
     7
 74
     1
 91
        0
 64
     7
 65
   257
 75
     1
175
     1
 42
1.0
 92
        8
 66
     7
 43
1.0
 76
     1
 77
     6
 78
     2
 67
     7
 79
     3
170
     0
171
     0
290
     0
174
     0
 93
       13
 44
0.0
173
     0
291
     0
 45
0.0
1001
ACAD
1000
AcDbSavedByObjectVersion
1070
     0
  0
DICTIONARYVAR
  5
5F4
102
{ACAD_REACTORS
330
5F1
102
}
330
5F1
100
DictionaryVariables
280
     0
  1
1:1
  0
DICTIONARYVAR
  5
5F3
102
{ACAD_REACTORS
330
5F1
102
}
330
5F1
100
DictionaryVariables
280
     0
  1
STANDARD
  0
DICTIONARYVAR
  5
5F2
102
{ACAD_REACTORS
330
5F1
102
}
330
5F1
100
DictionaryVariables
280
     0
  1
STANDARD
  0
DICTIONARYVAR
  5
5F7
102
{ACAD_REACTORS
330
5F1
102
}
330
5F1
100
DictionaryVariables
280
     0
  1
1
  0
DICTIONARYVAR
  5
5F6
102
{ACAD_REACTORS
330
5F1
102
}
330
5F1
100
DictionaryVariables
280
     0
  1
0
  0
DICTIONARYVAR
  5
9C4
102
{ACAD_REACTORS
330
5F1
102
}
330
5F1
100
DictionaryVariables
280
     0
  1
1.570796
  0
DICTIONARYVAR
  5
9C5
102
{ACAD_REACTORS
330
5F1
102
}
330
5F1
100
DictionaryVariables
280
     0
  1
1.570796
  0
DICTIONARYVAR
  5
9C6
102
{ACAD_REACTORS
330
5F1
102
}
330
5F1
100
DictionaryVariables
280
     0
  1
-122.394000
  0
DICTIONARYVAR
  5
5F5
102
{ACAD_REACTORS
330
5F1
102
}
330
5F1
100
DictionaryVariables
280
     0
  1
127
  0
DICTIONARYVAR
  5
9C7
102
{ACAD_REACTORS
330
5F1
102
}
330
5F1
100
DictionaryVariables
280
     0
  1
2
  0
DICTIONARY
  5
AE9
330
6E
100
AcDbDictionary
280
     1
281
     1
  3
ACAD_XREC_ROUNDTRIP
360
AEA
  0
DICTIONARY
  5
AE7
330
6A
100
AcDbDictionary
280
     1
281
     1
  3
ACAD_XREC_ROUNDTRIP
360
AE8
  0
DICTIONARY
  5
1A
330
19
100
AcDbDictionary
280
     1
281
     1
  3
ACAD_XREC_ROUNDTRIP
360
602
  3
BUMPTILE
360
1C
  3
DIFFUSETILE
360
1B
  3
OPACITYTILE
360
1F
  3
REFLECTIONTILE
360
1E
  3
REFRACTIONTILE
360
20
  3
SPECULARTILE
360
1D
  0
DICTIONARY
  5
12
330
11
100
AcDbDictionary
280
     1
281
     1
  3
ACAD_XREC_ROUNDTRIP
360
601
  3
BUMPTILE
360
14
  3
DIFFUSETILE
360
13
  3
OPACITYTILE
360
17
  3
REFLECTIONTILE
360
16
  3
REFRACTIONTILE
360
18
  3
SPECULARTILE
360
15
  0
DICTIONARY
  5
22
330
21
100
AcDbDictionary
280
     1
281
     1
  3
ACAD_XREC_ROUNDTRIP
360
603
  3
BUMPTILE
360
24
  3
DIFFUSETILE
360
23
  3
OPACITYTILE
360
27
  3
REFLECTIONTILE
360
26
  3
REFRACTIONTILE
360
28
  3
SPECULARTILE
360
25
  0
DICTIONARY
  5
5F9
330
64
100
AcDbDictionary
280
     1
281
     1
  3
ACAD_ROUNDTRIP_2008_TABLESTYLE_CELLSTYLEMAP
360
AAD
  3
ACAD_XREC_ROUNDTRIP
360
AE6
  0
DICTIONARY
  5
7CB
330
7CA
100
AcDbDictionary
280
     1
281
     1
  3
ACAD_ROUNDTRIP_2008_TABLESTYLE_CELLSTYLEMAP
360
AAE
  3
ACAD_XREC_ROUNDTRIP
360
AED
  0
DICTIONARY
  5
AC0
330
2F
100
AcDbDictionary
280
     1
281
     1
  3
ACAD_XREC_ROUNDTRIP
360
AC1
  0
DICTIONARY
  5
AEE
330
982
100
AcDbDictionary
280
     1
281
     1
  3
ACAD_XREC_ROUNDTRIP
360
AEF
  0
DICTIONARY
  5
AEB
330
427
100
AcDbDictionary
280
     1
281
     1
  3
ACAD_XREC_ROUNDTRIP
360
AEC
  0
DICTIONARY
  5
ABE
330
2E
100
AcDbDictionary
280
     1
281
     1
  3
ACAD_XREC_ROUNDTRIP
360
ABF
  0
DICTIONARY
  5
ACC
330
35
100
AcDbDictionary
280
     1
281
     1
  3
ACAD_XREC_ROUNDTRIP
360
ACD
  0
DICTIONARY
  5
AD4
330
39
100
AcDbDictionary
280
     1
281
     1
  3
ACAD_XREC_ROUNDTRIP
360
AD5
  0
DICTIONARY
  5
AC6
330
32
100
AcDbDictionary
280
     1
281
     1
  3
ACAD_XREC_ROUNDTRIP
360
AC7
  0
DICTIONARY
  5
ACA
330
34
100
AcDbDictionary
280
     1
281
     1
  3
ACAD_XREC_ROUNDTRIP
360
ACB
  0
DICTIONARY
  5
AE4
330
41
100
AcDbDictionary
280
     1
281
     1
  3
ACAD_XREC_ROUNDTRIP
360
AE5
  0
DICTIONARY
  5
AD2
330
38
100
AcDbDictionary
280
     1
281
     1
  3
ACAD_XREC_ROUNDTRIP
360
AD3
  0
DICTIONARY
  5
AB6
330
2A
100
AcDbDictionary
280
     1
281
     1
  3
ACAD_XREC_ROUNDTRIP
360
AB7
  0
DICTIONARY
  5
AB8
330
2B
100
AcDbDictionary
280
     1
281
     1
  3
ACAD_XREC_ROUNDTRIP
360
AB9
  0
DICTIONARY
  5
ABA
330
2C
100
AcDbDictionary
280
     1
281
     1
  3
ACAD_XREC_ROUNDTRIP
360
ABB
  0
DICTIONARY
  5
ABC
330
2D
100
AcDbDictionary
280
     1
281
     1
  3
ACAD_XREC_ROUNDTRIP
360
ABD
  0
DICTIONARY
  5
AC4
330
31
100
AcDbDictionary
280
     1
281
     1
  3
ACAD_XREC_ROUNDTRIP
360
AC5
  0
DICTIONARY
  5
AE0
330
3F
100
AcDbDictionary
280
     1
281
     1
  3
ACAD_XREC_ROUNDTRIP
360
AE1
  0
DICTIONARY
  5
AD0
330
37
100
AcDbDictionary
280
     1
281
     1
  3
ACAD_XREC_ROUNDTRIP
360
AD1
  0
DICTIONARY
  5
AE2
330
40
100
AcDbDictionary
280
     1
281
     1
  3
ACAD_XREC_ROUNDTRIP
360
AE3
  0
DICTIONARY
  5
AC8
330
33
100
AcDbDictionary
280
     1
281
     1
  3
ACAD_XREC_ROUNDTRIP
360
AC9
  0
DICTIONARY
  5
ADE
330
3E
100
AcDbDictionary
280
     1
281
     1
  3
ACAD_XREC_ROUNDTRIP
360
ADF
  0
DICTIONARY
  5
ADC
330
3D
100
AcDbDictionary
280
     1
281
     1
  3
ACAD_XREC_ROUNDTRIP
360
ADD
  0
DICTIONARY
  5
AD6
330
3A
100
AcDbDictionary
280
     1
281
     1
  3
ACAD_XREC_ROUNDTRIP
360
AD7
  0
DICTIONARY
  5
AD8
330
3B
100
AcDbDictionary
280
     1
281
     1
  3
ACAD_XREC_ROUNDTRIP
360
AD9
  0
DICTIONARY
  5
ACE
330
36
100
AcDbDictionary
280
     1
281
     1
  3
ACAD_XREC_ROUNDTRIP
360
ACF
  0
DICTIONARY
  5
AC2
330
30
100
AcDbDictionary
280
     1
281
     1
  3
ACAD_XREC_ROUNDTRIP
360
AC3
  0
DICTIONARY
  5
ADA
330
3C
100
AcDbDictionary
280
     1
281
     1
  3
ACAD_XREC_ROUNDTRIP
360
ADB
  0
XRECORD
  5
AEA
102
{ACAD_REACTORS
330
AE9
102
}
330
AE9
100
AcDbXrecord
280
     1
102
SHADEPLOT
 70
     0
102
SHADEPLOTRESLEVEL
 70
     2
102
SHADEPLOTCUSTOMDPI
 70
   300
  0
XRECORD
  5
AE8
102
{ACAD_REACTORS
330
AE7
102
}
330
AE7
100
AcDbXrecord
280
     1
102
SHADEPLOT
 70
     0
102
SHADEPLOTRESLEVEL
 70
     2
102
SHADEPLOTCUSTOMDPI
 70
   300
  0
XRECORD
  5
602
102
{ACAD_REACTORS
330
1A
102
}
330
1A
100
AcDbXrecord
280
     1
102
MATERIAL
148
0.0
149
0.0
149
0.0
 93
        0
 94
      127
282
     0
 72
     0
 77
     0
171
     0
175
     0
179
     0
273
     0
  0
XRECORD
  5
1C
102
{ACAD_REACTORS
330
1A
102
}
330
1A
100
AcDbXrecord
280
     1
270
     1
271
     1
  0
XRECORD
  5
1B
102
{ACAD_REACTORS
330
1A
102
}
330
1A
100
AcDbXrecord
280
     1
270
     1
271
     1
  0
XRECORD
  5
1F
102
{ACAD_REACTORS
330
1A
102
}
330
1A
100
AcDbXrecord
280
     1
270
     1
271
     1
  0
XRECORD
  5
1E
102
{ACAD_REACTORS
330
1A
102
}
330
1A
100
AcDbXrecord
280
     1
270
     1
271
     1
  0
XRECORD
  5
20
102
{ACAD_REACTORS
330
1A
102
}
330
1A
100
AcDbXrecord
280
     1
270
     1
271
     1
  0
XRECORD
  5
1D
102
{ACAD_REACTORS
330
1A
102
}
330
1A
100
AcDbXrecord
280
     1
270
     1
271
     1
  0
XRECORD
  5
601
102
{ACAD_REACTORS
330
12
102
}
330
12
100
AcDbXrecord
280
     1
102
MATERIAL
148
0.0
149
0.0
149
0.0
 93
        0
 94
      127
282
     0
 72
     0
 77
     0
171
     0
175
     0
179
     0
273
     0
  0
XRECORD
  5
14
102
{ACAD_REACTORS
330
12
102
}
330
12
100
AcDbXrecord
280
     1
270
     1
271
     1
  0
XRECORD
  5
13
102
{ACAD_REACTORS
330
12
102
}
330
12
100
AcDbXrecord
280
     1
270
     1
271
     1
  0
XRECORD
  5
17
102
{ACAD_REACTORS
330
12
102
}
330
12
100
AcDbXrecord
280
     1
270
     1
271
     1
  0
XRECORD
  5
16
102
{ACAD_REACTORS
330
12
102
}
330
12
100
AcDbXrecord
280
     1
270
     1
271
     1
  0
XRECORD
  5
18
102
{ACAD_REACTORS
330
12
102
}
330
12
100
AcDbXrecord
280
     1
270
     1
271
     1
  0
XRECORD
  5
15
102
{ACAD_REACTORS
330
12
102
}
330
12
100
AcDbXrecord
280
     1
270
     1
271
     1
  0
XRECORD
  5
603
102
{ACAD_REACTORS
330
22
102
}
330
22
100
AcDbXrecord
280
     1
102
MATERIAL
148
0.0
149
0.0
149
0.0
 93
        0
 94
      127
282
     0
 72
     0
 77
     0
171
     0
175
     0
179
     0
273
     0
  0
XRECORD
  5
24
102
{ACAD_REACTORS
330
22
102
}
330
22
100
AcDbXrecord
280
     1
270
     1
271
     1
  0
XRECORD
  5
23
102
{ACAD_REACTORS
330
22
102
}
330
22
100
AcDbXrecord
280
     1
270
     1
271
     1
  0
XRECORD
  5
27
102
{ACAD_REACTORS
330
22
102
}
330
22
100
AcDbXrecord
280
     1
270
     1
271
     1
  0
XRECORD
  5
26
102
{ACAD_REACTORS
330
22
102
}
330
22
100
AcDbXrecord
280
     1
270
     1
271
     1
  0
XRECORD
  5
28
102
{ACAD_REACTORS
330
22
102
}
330
22
100
AcDbXrecord
280
     1
270
     1
271
     1
  0
XRECORD
  5
25
102
{ACAD_REACTORS
330
22
102
}
330
22
100
AcDbXrecord
280
     1
270
     1
271
     1
  0
CELLSTYLEMAP
  5
AAD
102
{ACAD_REACTORS
330
5F9
102
}
330
5F9
100
AcDbCellStyleMap
 90
        3
300
CELLSTYLE
  1
TABLEFORMAT_BEGIN
 90
        5
170
     1
 91
        0
 92
    32768
 62
   257
 93
        1
300
CONTENTFORMAT
  1
CONTENTFORMAT_BEGIN
 90
        0
 91
        0
 92
      512
 93
        0
300

 40
0.0
140
1.0
 94
        5
 62
     0
340
55
144
0.25
309
CONTENTFORMAT_END
171
     1
301
MARGIN
  1
CELLMARGIN_BEGIN
 40
0.06
 40
0.06
 40
0.06
 40
0.06
 40
0.18
 40
0.18
309
CELLMARGIN_END
 94
        6
 95
        1
302
GRIDFORMAT
  1
GRIDFORMAT_BEGIN
 90
        0
 91
        1
 62
     0
 92
       -2
340
0
 93
        0
 40
0.045
309
GRIDFORMAT_END
 95
        2
302
GRIDFORMAT
  1
GRIDFORMAT_BEGIN
 90
        0
 91
        1
 62
     0
 92
       -2
340
0
 93
        0
 40
0.045
309
GRIDFORMAT_END
 95
        4
302
GRIDFORMAT
  1
GRIDFORMAT_BEGIN
 90
        0
 91
        1
 62
     0
 92
       -2
340
0
 93
        0
 40
0.045
309
GRIDFORMAT_END
 95
        8
302
GRIDFORMAT
  1
GRIDFORMAT_BEGIN
 90
        0
 91
        1
 62
     0
 92
       -2
340
0
 93
        0
 40
0.045
309
GRIDFORMAT_END
 95
       16
302
GRIDFORMAT
  1
GRIDFORMAT_BEGIN
 90
        0
 91
        1
 62
     0
 92
       -2
340
0
 93
        0
 40
0.045
309
GRIDFORMAT_END
 95
       32
302
GRIDFORMAT
  1
GRIDFORMAT_BEGIN
 90
        0
 91
        1
 62
     0
 92
       -2
340
0
 93
        0
 40
0.045
309
GRIDFORMAT_END
309
TABLEFORMAT_END
  1
CELLSTYLE_BEGIN
 90
        1
 91
        1
300
_TITLE
309
CELLSTYLE_END
300
CELLSTYLE
  1
TABLEFORMAT_BEGIN
 90
        5
170
     1
 91
        0
 92
        0
 62
   257
 93
        1
300
CONTENTFORMAT
  1
CONTENTFORMAT_BEGIN
 90
        0
 91
        0
 92
      512
 93
        0
300

 40
0.0
140
1.0
 94
        5
 62
     0
340
55
144
0.18
309
CONTENTFORMAT_END
171
     1
301
MARGIN
  1
CELLMARGIN_BEGIN
 40
0.06
 40
0.06
 40
0.06
 40
0.06
 40
0.18
 40
0.18
309
CELLMARGIN_END
 94
        6
 95
        1
302
GRIDFORMAT
  1
GRIDFORMAT_BEGIN
 90
        0
 91
        1
 62
     0
 92
       -2
340
0
 93
        0
 40
0.045
309
GRIDFORMAT_END
 95
        2
302
GRIDFORMAT
  1
GRIDFORMAT_BEGIN
 90
        0
 91
        1
 62
     0
 92
       -2
340
0
 93
        0
 40
0.045
309
GRIDFORMAT_END
 95
        4
302
GRIDFORMAT
  1
GRIDFORMAT_BEGIN
 90
        0
 91
        1
 62
     0
 92
       -2
340
0
 93
        0
 40
0.045
309
GRIDFORMAT_END
 95
        8
302
GRIDFORMAT
  1
GRIDFORMAT_BEGIN
 90
        0
 91
        1
 62
     0
 92
       -2
340
0
 93
        0
 40
0.045
309
GRIDFORMAT_END
 95
       16
302
GRIDFORMAT
  1
GRIDFORMAT_BEGIN
 90
        0
 91
        1
 62
     0
 92
       -2
340
0
 93
        0
 40
0.045
309
GRIDFORMAT_END
 95
       32
302
GRIDFORMAT
  1
GRIDFORMAT_BEGIN
 90
        0
 91
        1
 62
     0
 92
       -2
340
0
 93
        0
 40
0.045
309
GRIDFORMAT_END
309
TABLEFORMAT_END
  1
CELLSTYLE_BEGIN
 90
        2
 91
        1
300
_HEADER
309
CELLSTYLE_END
300
CELLSTYLE
  1
TABLEFORMAT_BEGIN
 90
        5
170
     1
 91
        0
 92
        0
 62
   257
 93
        1
300
CONTENTFORMAT
  1
CONTENTFORMAT_BEGIN
 90
        0
 91
        0
 92
      512
 93
        0
300

 40
0.0
140
1.0
 94
        2
 62
     0
340
55
144
0.18
309
CONTENTFORMAT_END
171
     1
301
MARGIN
  1
CELLMARGIN_BEGIN
 40
0.06
 40
0.06
 40
0.06
 40
0.06
 40
0.18
 40
0.18
309
CELLMARGIN_END
 94
        6
 95
        1
302
GRIDFORMAT
  1
GRIDFORMAT_BEGIN
 90
        0
 91
        1
 62
     0
 92
       -2
340
0
 93
        0
 40
0.045
309
GRIDFORMAT_END
 95
        2
302
GRIDFORMAT
  1
GRIDFORMAT_BEGIN
 90
        0
 91
        1
 62
     0
 92
       -2
340
0
 93
        0
 40
0.045
309
GRIDFORMAT_END
 95
        4
302
GRIDFORMAT
  1
GRIDFORMAT_BEGIN
 90
        0
 91
        1
 62
     0
 92
       -2
340
0
 93
        0
 40
0.045
309
GRIDFORMAT_END
 95
        8
302
GRIDFORMAT
  1
GRIDFORMAT_BEGIN
 90
        0
 91
        1
 62
     0
 92
       -2
340
0
 93
        0
 40
0.045
309
GRIDFORMAT_END
 95
       16
302
GRIDFORMAT
  1
GRIDFORMAT_BEGIN
 90
        0
 91
        1
 62
     0
 92
       -2
340
0
 93
        0
 40
0.045
309
GRIDFORMAT_END
 95
       32
302
GRIDFORMAT
  1
GRIDFORMAT_BEGIN
 90
        0
 91
        1
 62
     0
 92
       -2
340
0
 93
        0
 40
0.045
309
GRIDFORMAT_END
309
TABLEFORMAT_END
  1
CELLSTYLE_BEGIN
 90
        3
 91
        2
300
_DATA
309
CELLSTYLE_END
  0
XRECORD
  5
AE6
102
{ACAD_REACTORS
330
5F9
102
}
330
5F9
100
AcDbXrecord
280
     1
102
ACAD_ROUNDTRIP_PRE2007_TABLESTYLE
 90
      512
 91
        0
  1

 92
      512
 93
        0
  2

 94
      512
 95
        0
  3

  0
CELLSTYLEMAP
  5
AAE
102
{ACAD_REACTORS
330
7CB
102
}
330
7CB
100
AcDbCellStyleMap
 90
        3
300
CELLSTYLE
  1
TABLEFORMAT_BEGIN
 90
        5
170
     1
 91
        0
 92
    32768
 62
   257
 93
        1
300
CONTENTFORMAT
  1
CONTENTFORMAT_BEGIN
 90
        0
 91
        0
 92
      512
 93
        0
300

 40
0.0
140
1.0
 94
        8
 62
     3
340
414
144
0.25
309
CONTENTFORMAT_END
171
     1
301
MARGIN
  1
CELLMARGIN_BEGIN
 40
0.5
 40
10.0
 40
0.06
 40
0.06
 40
0.18
 40
0.18
309
CELLMARGIN_END
 94
        6
 95
        1
302
GRIDFORMAT
  1
GRIDFORMAT_BEGIN
 90
        0
 91
        1
 62
     0
 92
       -2
340
0
 93
        0
 40
0.045
309
GRIDFORMAT_END
 95
        2
302
GRIDFORMAT
  1
GRIDFORMAT_BEGIN
 90
        0
 91
        1
 62
     0
 92
       -2
340
0
 93
        0
 40
0.045
309
GRIDFORMAT_END
 95
        4
302
GRIDFORMAT
  1
GRIDFORMAT_BEGIN
 90
        0
 91
        1
 62
     0
 92
       -2
340
0
 93
        0
 40
0.045
309
GRIDFORMAT_END
 95
        8
302
GRIDFORMAT
  1
GRIDFORMAT_BEGIN
 90
        0
 91
        1
 62
     0
 92
       -2
340
0
 93
        0
 40
0.045
309
GRIDFORMAT_END
 95
       16
302
GRIDFORMAT
  1
GRIDFORMAT_BEGIN
 90
        0
 91
        1
 62
     0
 92
       -2
340
0
 93
        0
 40
0.045
309
GRIDFORMAT_END
 95
       32
302
GRIDFORMAT
  1
GRIDFORMAT_BEGIN
 90
        0
 91
        1
 62
     0
 92
       -2
340
0
 93
        0
 40
0.045
309
GRIDFORMAT_END
309
TABLEFORMAT_END
  1
CELLSTYLE_BEGIN
 90
        1
 91
        1
300
_TITLE
309
CELLSTYLE_END
300
CELLSTYLE
  1
TABLEFORMAT_BEGIN
 90
        5
170
     1
 91
        0
 92
        0
 62
   257
 93
        1
300
CONTENTFORMAT
  1
CONTENTFORMAT_BEGIN
 90
        0
 91
        0
 92
      512
 93
        0
300

 40
0.0
140
1.0
 94
        7
 62
     3
340
414
144
0.18
309
CONTENTFORMAT_END
171
     1
301
MARGIN
  1
CELLMARGIN_BEGIN
 40
0.5
 40
1.5
 40
0.06
 40
0.06
 40
0.18
 40
0.18
309
CELLMARGIN_END
 94
        6
 95
        1
302
GRIDFORMAT
  1
GRIDFORMAT_BEGIN
 90
        0
 91
        1
 62
     3
 92
       -2
340
5A
 93
        0
 40
0.045
309
GRIDFORMAT_END
 95
        2
302
GRIDFORMAT
  1
GRIDFORMAT_BEGIN
 90
        0
 91
        1
 62
     7
 92
       -2
340
5A
 93
        0
 40
0.045
309
GRIDFORMAT_END
 95
        4
302
GRIDFORMAT
  1
GRIDFORMAT_BEGIN
 90
        0
 91
        1
 62
     3
 92
       -2
340
5A
 93
        0
 40
0.045
309
GRIDFORMAT_END
 95
        8
302
GRIDFORMAT
  1
GRIDFORMAT_BEGIN
 90
        0
 91
        1
 62
     3
 92
       -2
340
5A
 93
        0
 40
0.045
309
GRIDFORMAT_END
 95
       16
302
GRIDFORMAT
  1
GRIDFORMAT_BEGIN
 90
        0
 91
        1
 62
     7
 92
       -2
340
5A
 93
        0
 40
0.045
309
GRIDFORMAT_END
 95
       32
302
GRIDFORMAT
  1
GRIDFORMAT_BEGIN
 90
        0
 91
        1
 62
     3
 92
       -2
340
5A
 93
        0
 40
0.045
309
GRIDFORMAT_END
309
TABLEFORMAT_END
  1
CELLSTYLE_BEGIN
 90
        2
 91
        1
300
_HEADER
309
CELLSTYLE_END
300
CELLSTYLE
  1
TABLEFORMAT_BEGIN
 90
        5
170
     1
 91
        0
 92
        0
 62
   257
 93
        1
300
CONTENTFORMAT
  1
CONTENTFORMAT_BEGIN
 90
        0
 91
        0
 92
      512
 93
        0
300

 40
0.0
140
1.0
 94
        7
 62
     3
340
414
144
0.18
309
CONTENTFORMAT_END
171
     1
301
MARGIN
  1
CELLMARGIN_BEGIN
 40
0.5
 40
1.5
 40
0.06
 40
0.06
 40
0.18
 40
0.18
309
CELLMARGIN_END
 94
        6
 95
        1
302
GRIDFORMAT
  1
GRIDFORMAT_BEGIN
 90
        0
 91
        1
 62
     3
 92
       -2
340
5A
 93
        0
 40
0.045
309
GRIDFORMAT_END
 95
        2
302
GRIDFORMAT
  1
GRIDFORMAT_BEGIN
 90
        0
 91
        1
 62
     7
 92
       -2
340
5A
 93
        0
 40
0.045
309
GRIDFORMAT_END
 95
        4
302
GRIDFORMAT
  1
GRIDFORMAT_BEGIN
 90
        0
 91
        1
 62
     3
 92
       -2
340
5A
 93
        0
 40
0.045
309
GRIDFORMAT_END
 95
        8
302
GRIDFORMAT
  1
GRIDFORMAT_BEGIN
 90
        0
 91
        1
 62
     3
 92
       -2
340
5A
 93
        0
 40
0.045
309
GRIDFORMAT_END
 95
       16
302
GRIDFORMAT
  1
GRIDFORMAT_BEGIN
 90
        0
 91
        1
 62
     7
 92
       -2
340
5A
 93
        0
 40
0.045
309
GRIDFORMAT_END
 95
       32
302
GRIDFORMAT
  1
GRIDFORMAT_BEGIN
 90
        0
 91
        1
 62
     3
 92
       -2
340
5A
 93
        0
 40
0.045
309
GRIDFORMAT_END
309
TABLEFORMAT_END
  1
CELLSTYLE_BEGIN
 90
        3
 91
        2
300
_DATA
309
CELLSTYLE_END
  0
XRECORD
  5
AED
102
{ACAD_REACTORS
330
7CB
102
}
330
7CB
100
AcDbXrecord
280
     1
102
ACAD_ROUNDTRIP_PRE2007_TABLESTYLE
 90
      512
 91
        0
  1

 92
      512
 93
        0
  2

 94
      512
 95
        0
  3

  0
XRECORD
  5
AC1
102
{ACAD_REACTORS
330
AC0
102
}
330
AC0
100
AcDbXrecord
280
     1
102
RTVSPropertyOp0
 70
     1
102
RTVSPropertyOp1
 70
     1
102
RTVSPropertyOp2
 70
     1
102
RTVSPropertyOp3
 70
     1
102
RTVSPropertyOp4
 70
     1
102
RTVSPropertyOp5
 70
     1
102
RTVSPropertyOp6
 70
     1
102
RTVSPropertyOp7
 70
     1
102
RTVSPropertyOp8
 70
     1
102
RTVSPropertyOp9
 70
     1
102
RTVSPropertyOp10
 70
     1
102
RTVSPropertyOp11
 70
     1
102
RTVSPropertyOp12
 70
     1
102
RTVSPropertyOp13
 70
     1
102
RTVSPropertyOp14
 70
     1
102
RTVSPropertyOp15
 70
     1
102
RTVSPropertyOp16
 70
     1
102
RTVSPropertyOp17
 70
     1
102
RTVSPropertyOp18
 70
     1
102
RTVSPropertyOp19
 70
     1
102
RTVSPropertyOp20
 70
     1
102
RTVSPropertyOp21
 70
     1
102
RTVSPropertyOp22
 70
     1
102
RTVSPropertyOp23
 70
     1
102
RTVSPropertyOp24
 70
     1
102
RTVSPropertyOp25
 70
     1
102
RTVSPropertyOp26
 70
     1
102
RTVSPropertyOp27
 70
     1
102
RTVSPropertyOp28
 70
     1
102
RTVSPropertyOp29
 70
     1
102
RTVSPropertyOp30
 70
     1
102
RTVSPropertyOp31
 70
     1
102
RTVSPropertyOp32
 70
     1
  0
XRECORD
  5
AEF
102
{ACAD_REACTORS
330
AEE
102
}
330
AEE
100
AcDbXrecord
280
     1
102
RTVSPropertyOp0
 70
     1
102
RTVSPropertyOp1
 70
     1
102
RTVSPropertyOp2
 70
     1
102
RTVSPropertyOp3
 70
     1
102
RTVSPropertyOp4
 70
     1
102
RTVSPropertyOp5
 70
     1
102
RTVSPropertyOp6
 70
     1
102
RTVSPropertyOp7
 70
     1
102
RTVSPropertyOp8
 70
     1
102
RTVSPropertyOp9
 70
     1
102
RTVSPropertyOp10
 70
     1
102
RTVSPropertyOp11
 70
     1
102
RTVSPropertyOp12
 70
     1
102
RTVSPropertyOp13
 70
     1
102
RTVSPropertyOp14
 70
     1
102
RTVSPropertyOp15
 70
     1
102
RTVSPropertyOp16
 70
     1
102
RTVSPropertyOp17
 70
     1
102
RTVSPropertyOp18
 70
     1
102
RTVSPropertyOp19
 70
     1
102
RTVSPropertyOp20
 70
     1
102
RTVSPropertyOp21
 70
     1
102
RTVSPropertyOp22
 70
     1
102
RTVSPropertyOp23
 70
     1
102
RTVSPropertyOp24
 70
     1
102
RTVSPropertyOp25
 70
     1
102
RTVSPropertyOp26
 70
     1
102
RTVSPropertyOp27
 70
     1
102
RTVSPropertyOp28
 70
     1
102
RTVSPropertyOp29
 70
     1
102
RTVSPropertyOp30
 70
     1
102
RTVSPropertyOp31
 70
     1
102
RTVSPropertyOp32
 70
     1
  0
XRECORD
  5
AEC
102
{ACAD_REACTORS
330
AEB
102
}
330
AEB
100
AcDbXrecord
280
     1
102
RTVSPropertyOp0
 70
     1
102
RTVSPropertyOp1
 70
     1
102
RTVSPropertyOp2
 70
     1
102
RTVSPropertyOp3
 70
     1
102
RTVSPropertyOp4
 70
     1
102
RTVSPropertyOp5
 70
     1
102
RTVSPropertyOp6
 70
     1
102
RTVSPropertyOp7
 70
     1
102
RTVSPropertyOp8
 70
     1
102
RTVSPropertyOp9
 70
     1
102
RTVSPropertyOp10
 70
     1
102
RTVSPropertyOp11
 70
     1
102
RTVSPropertyOp12
 70
     1
102
RTVSPropertyOp13
 70
     1
102
RTVSPropertyOp14
 70
     1
102
RTVSPropertyOp15
 70
     1
102
RTVSPropertyOp16
 70
     1
102
RTVSPropertyOp17
 70
     1
102
RTVSPropertyOp18
 70
     1
102
RTVSPropertyOp19
 70
     1
102
RTVSPropertyOp20
 70
     1
102
RTVSPropertyOp21
 70
     1
102
RTVSPropertyOp22
 70
     1
102
RTVSPropertyOp23
 70
     1
102
RTVSPropertyOp24
 70
     1
102
RTVSPropertyOp25
 70
     1
102
RTVSPropertyOp26
 70
     1
102
RTVSPropertyOp27
 70
     1
102
RTVSPropertyOp28
 70
     1
102
RTVSPropertyOp29
 70
     1
102
RTVSPropertyOp30
 70
     1
102
RTVSPropertyOp31
 70
     1
102
RTVSPropertyOp32
 70
     1
  0
XRECORD
  5
ABF
102
{ACAD_REACTORS
330
ABE
102
}
330
ABE
100
AcDbXrecord
280
     1
102
RTVSPropertyOp0
 70
     1
102
RTVSPropertyOp1
 70
     1
102
RTVSPropertyOp2
 70
     1
102
RTVSPropertyOp3
 70
     1
102
RTVSPropertyOp4
 70
     1
102
RTVSPropertyOp5
 70
     1
102
RTVSPropertyOp6
 70
     1
102
RTVSPropertyOp7
 70
     1
102
RTVSPropertyOp8
 70
     1
102
RTVSPropertyOp9
 70
     1
102
RTVSPropertyOp10
 70
     1
102
RTVSPropertyOp11
 70
     1
102
RTVSPropertyOp12
 70
     1
102
RTVSPropertyOp13
 70
     1
102
RTVSPropertyOp14
 70
     1
102
RTVSPropertyOp15
 70
     1
102
RTVSPropertyOp16
 70
     1
102
RTVSPropertyOp17
 70
     1
102
RTVSPropertyOp18
 70
     1
102
RTVSPropertyOp19
 70
     1
102
RTVSPropertyOp20
 70
     1
102
RTVSPropertyOp21
 70
     1
102
RTVSPropertyOp22
 70
     1
102
RTVSPropertyOp23
 70
     1
102
RTVSPropertyOp24
 70
     1
102
RTVSPropertyOp25
 70
     1
102
RTVSPropertyOp26
 70
     1
102
RTVSPropertyOp27
 70
     1
102
RTVSPropertyOp28
 70
     1
102
RTVSPropertyOp29
 70
     1
102
RTVSPropertyOp30
 70
     1
102
RTVSPropertyOp31
 70
     1
102
RTVSPropertyOp32
 70
     1
  0
XRECORD
  5
ACD
102
{ACAD_REACTORS
330
ACC
102
}
330
ACC
100
AcDbXrecord
280
     1
102
RTVSPropertyOp0
 70
     1
102
RTVSPropertyOp1
 70
     1
102
RTVSPropertyOp2
 70
     1
102
RTVSPropertyOp3
 70
     1
102
RTVSPropertyOp4
 70
     1
102
RTVSPropertyOp5
 70
     1
102
RTVSPropertyOp6
 70
     1
102
RTVSPropertyOp7
 70
     1
102
RTVSPropertyOp8
 70
     1
102
RTVSPropertyOp9
 70
     1
102
RTVSPropertyOp10
 70
     1
102
RTVSPropertyOp11
 70
     1
102
RTVSPropertyOp12
 70
     1
102
RTVSPropertyOp13
 70
     1
102
RTVSPropertyOp14
 70
     1
102
RTVSPropertyOp15
 70
     1
102
RTVSPropertyOp16
 70
     1
102
RTVSPropertyOp17
 70
     1
102
RTVSPropertyOp18
 70
     1
102
RTVSPropertyOp19
 70
     1
102
RTVSPropertyOp20
 70
     1
102
RTVSPropertyOp21
 70
     1
102
RTVSPropertyOp22
 70
     1
102
RTVSPropertyOp23
 70
     1
102
RTVSPropertyOp24
 70
     1
102
RTVSPropertyOp25
 70
     1
102
RTVSPropertyOp26
 70
     1
102
RTVSPropertyOp27
 70
     1
102
RTVSPropertyOp28
 70
     1
102
RTVSPropertyOp29
 70
     1
102
RTVSPropertyOp30
 70
     1
102
RTVSPropertyOp31
 70
     1
102
RTVSPropertyOp32
 70
     1
  0
XRECORD
  5
AD5
102
{ACAD_REACTORS
330
AD4
102
}
330
AD4
100
AcDbXrecord
280
     1
102
RTVSPropertyOp0
 70
     1
102
RTVSPropertyOp1
 70
     1
102
RTVSPropertyOp2
 70
     1
102
RTVSPropertyOp3
 70
     1
102
RTVSPropertyOp4
 70
     1
102
RTVSPropertyOp5
 70
     1
102
RTVSPropertyOp6
 70
     1
102
RTVSPropertyOp7
 70
     1
102
RTVSPropertyOp8
 70
     1
102
RTVSPropertyOp9
 70
     1
102
RTVSPropertyOp10
 70
     1
102
RTVSPropertyOp11
 70
     1
102
RTVSPropertyOp12
 70
     1
102
RTVSPropertyOp13
 70
     1
102
RTVSPropertyOp14
 70
     1
102
RTVSPropertyOp15
 70
     1
102
RTVSPropertyOp16
 70
     1
102
RTVSPropertyOp17
 70
     1
102
RTVSPropertyOp18
 70
     1
102
RTVSPropertyOp19
 70
     1
102
RTVSPropertyOp20
 70
     1
102
RTVSPropertyOp21
 70
     1
102
RTVSPropertyOp22
 70
     1
102
RTVSPropertyOp23
 70
     1
102
RTVSPropertyOp24
 70
     1
102
RTVSPropertyOp25
 70
     1
102
RTVSPropertyOp26
 70
     1
102
RTVSPropertyOp27
 70
     1
102
RTVSPropertyOp28
 70
     1
102
RTVSPropertyOp29
 70
     1
102
RTVSPropertyOp30
 70
     1
102
RTVSPropertyOp31
 70
     1
102
RTVSPropertyOp32
 70
     1
  0
XRECORD
  5
AC7
102
{ACAD_REACTORS
330
AC6
102
}
330
AC6
100
AcDbXrecord
280
     1
102
RTVSPropertyOp0
 70
     1
102
RTVSPropertyOp1
 70
     1
102
RTVSPropertyOp2
 70
     1
102
RTVSPropertyOp3
 70
     1
102
RTVSPropertyOp4
 70
     1
102
RTVSPropertyOp5
 70
     1
102
RTVSPropertyOp6
 70
     1
102
RTVSPropertyOp7
 70
     1
102
RTVSPropertyOp8
 70
     1
102
RTVSPropertyOp9
 70
     1
102
RTVSPropertyOp10
 70
     1
102
RTVSPropertyOp11
 70
     1
102
RTVSPropertyOp12
 70
     1
102
RTVSPropertyOp13
 70
     1
102
RTVSPropertyOp14
 70
     1
102
RTVSPropertyOp15
 70
     1
102
RTVSPropertyOp16
 70
     1
102
RTVSPropertyOp17
 70
     1
102
RTVSPropertyOp18
 70
     1
102
RTVSPropertyOp19
 70
     1
102
RTVSPropertyOp20
 70
     1
102
RTVSPropertyOp21
 70
     1
102
RTVSPropertyOp22
 70
     1
102
RTVSPropertyOp23
 70
     1
102
RTVSPropertyOp24
 70
     1
102
RTVSPropertyOp25
 70
     1
102
RTVSPropertyOp26
 70
     1
102
RTVSPropertyOp27
 70
     1
102
RTVSPropertyOp28
 70
     1
102
RTVSPropertyOp29
 70
     1
102
RTVSPropertyOp30
 70
     1
102
RTVSPropertyOp31
 70
     1
102
RTVSPropertyOp32
 70
     1
  0
XRECORD
  5
ACB
102
{ACAD_REACTORS
330
ACA
102
}
330
ACA
100
AcDbXrecord
280
     1
102
RTVSPropertyOp0
 70
     1
102
RTVSPropertyOp1
 70
     1
102
RTVSPropertyOp2
 70
     1
102
RTVSPropertyOp3
 70
     1
102
RTVSPropertyOp4
 70
     1
102
RTVSPropertyOp5
 70
     1
102
RTVSPropertyOp6
 70
     1
102
RTVSPropertyOp7
 70
     1
102
RTVSPropertyOp8
 70
     1
102
RTVSPropertyOp9
 70
     1
102
RTVSPropertyOp10
 70
     1
102
RTVSPropertyOp11
 70
     1
102
RTVSPropertyOp12
 70
     1
102
RTVSPropertyOp13
 70
     1
102
RTVSPropertyOp14
 70
     1
102
RTVSPropertyOp15
 70
     1
102
RTVSPropertyOp16
 70
     1
102
RTVSPropertyOp17
 70
     1
102
RTVSPropertyOp18
 70
     1
102
RTVSPropertyOp19
 70
     1
102
RTVSPropertyOp20
 70
     1
102
RTVSPropertyOp21
 70
     1
102
RTVSPropertyOp22
 70
     1
102
RTVSPropertyOp23
 70
     1
102
RTVSPropertyOp24
 70
     1
102
RTVSPropertyOp25
 70
     1
102
RTVSPropertyOp26
 70
     1
102
RTVSPropertyOp27
 70
     1
102
RTVSPropertyOp28
 70
     1
102
RTVSPropertyOp29
 70
     1
102
RTVSPropertyOp30
 70
     1
102
RTVSPropertyOp31
 70
     1
102
RTVSPropertyOp32
 70
     1
  0
XRECORD
  5
AE5
102
{ACAD_REACTORS
330
AE4
102
}
330
AE4
100
AcDbXrecord
280
     1
102
RTVSPropertyOp0
 70
     0
102
RTVSPropertyOp1
 70
     0
102
RTVSPropertyOp2
 70
     0
102
RTVSPropertyOp3
 70
     0
102
RTVSPropertyOp4
 70
     0
102
RTVSPropertyOp5
 70
     0
102
RTVSPropertyOp6
 70
     0
102
RTVSPropertyOp7
 70
     0
102
RTVSPropertyOp8
 70
     0
102
RTVSPropertyOp9
 70
     0
102
RTVSPropertyOp10
 70
     0
102
RTVSPropertyOp11
 70
     0
102
RTVSPropertyOp12
 70
     0
102
RTVSPropertyOp13
 70
     0
102
RTVSPropertyOp14
 70
     2
102
RTVSPropertyOp15
 70
     0
102
RTVSPropertyOp16
 70
     0
102
RTVSPropertyOp17
 70
     0
102
RTVSPropertyOp18
 70
     0
102
RTVSPropertyOp19
 70
     0
102
RTVSPropertyOp20
 70
     0
102
RTVSPropertyOp21
 70
     0
102
RTVSPropertyOp22
 70
     0
102
RTVSPropertyOp23
 70
     0
102
RTVSPropertyOp24
 70
     0
102
RTVSPropertyOp25
 70
     0
102
RTVSPropertyOp26
 70
     0
102
RTVSPropertyOp27
 70
     0
102
RTVSPropertyOp28
 70
     0
102
RTVSPropertyOp29
 70
     0
102
RTVSPropertyOp30
 70
     0
102
RTVSPropertyOp31
 70
     0
102
RTVSPropertyOp32
 70
     0
  0
XRECORD
  5
AD3
102
{ACAD_REACTORS
330
AD2
102
}
330
AD2
100
AcDbXrecord
280
     1
102
RTVSPropertyOp0
 70
     1
102
RTVSPropertyOp1
 70
     1
102
RTVSPropertyOp2
 70
     1
102
RTVSPropertyOp3
 70
     1
102
RTVSPropertyOp4
 70
     1
102
RTVSPropertyOp5
 70
     1
102
RTVSPropertyOp6
 70
     1
102
RTVSPropertyOp7
 70
     1
102
RTVSPropertyOp8
 70
     1
102
RTVSPropertyOp9
 70
     1
102
RTVSPropertyOp10
 70
     1
102
RTVSPropertyOp11
 70
     1
102
RTVSPropertyOp12
 70
     1
102
RTVSPropertyOp13
 70
     1
102
RTVSPropertyOp14
 70
     1
102
RTVSPropertyOp15
 70
     1
102
RTVSPropertyOp16
 70
     1
102
RTVSPropertyOp17
 70
     1
102
RTVSPropertyOp18
 70
     1
102
RTVSPropertyOp19
 70
     1
102
RTVSPropertyOp20
 70
     1
102
RTVSPropertyOp21
 70
     1
102
RTVSPropertyOp22
 70
     1
102
RTVSPropertyOp23
 70
     1
102
RTVSPropertyOp24
 70
     1
102
RTVSPropertyOp25
 70
     1
102
RTVSPropertyOp26
 70
     1
102
RTVSPropertyOp27
 70
     1
102
RTVSPropertyOp28
 70
     1
102
RTVSPropertyOp29
 70
     1
102
RTVSPropertyOp30
 70
     1
102
RTVSPropertyOp31
 70
     1
102
RTVSPropertyOp32
 70
     1
  0
XRECORD
  5
AB7
102
{ACAD_REACTORS
330
AB6
102
}
330
AB6
100
AcDbXrecord
280
     1
102
RTVSPropertyOp0
 70
     1
102
RTVSPropertyOp1
 70
     1
102
RTVSPropertyOp2
 70
     1
102
RTVSPropertyOp3
 70
     1
102
RTVSPropertyOp4
 70
     1
102
RTVSPropertyOp5
 70
     1
102
RTVSPropertyOp6
 70
     1
102
RTVSPropertyOp7
 70
     1
102
RTVSPropertyOp8
 70
     1
102
RTVSPropertyOp9
 70
     1
102
RTVSPropertyOp10
 70
     1
102
RTVSPropertyOp11
 70
     1
102
RTVSPropertyOp12
 70
     1
102
RTVSPropertyOp13
 70
     1
102
RTVSPropertyOp14
 70
     1
102
RTVSPropertyOp15
 70
     1
102
RTVSPropertyOp16
 70
     1
102
RTVSPropertyOp17
 70
     1
102
RTVSPropertyOp18
 70
     1
102
RTVSPropertyOp19
 70
     1
102
RTVSPropertyOp20
 70
     1
102
RTVSPropertyOp21
 70
     1
102
RTVSPropertyOp22
 70
     1
102
RTVSPropertyOp23
 70
     1
102
RTVSPropertyOp24
 70
     1
102
RTVSPropertyOp25
 70
     1
102
RTVSPropertyOp26
 70
     1
102
RTVSPropertyOp27
 70
     1
102
RTVSPropertyOp28
 70
     1
102
RTVSPropertyOp29
 70
     1
102
RTVSPropertyOp30
 70
     1
102
RTVSPropertyOp31
 70
     1
102
RTVSPropertyOp32
 70
     1
  0
XRECORD
  5
AB9
102
{ACAD_REACTORS
330
AB8
102
}
330
AB8
100
AcDbXrecord
280
     1
102
RTVSPropertyOp0
 70
     1
102
RTVSPropertyOp1
 70
     1
102
RTVSPropertyOp2
 70
     1
102
RTVSPropertyOp3
 70
     1
102
RTVSPropertyOp4
 70
     1
102
RTVSPropertyOp5
 70
     1
102
RTVSPropertyOp6
 70
     1
102
RTVSPropertyOp7
 70
     1
102
RTVSPropertyOp8
 70
     1
102
RTVSPropertyOp9
 70
     1
102
RTVSPropertyOp10
 70
     1
102
RTVSPropertyOp11
 70
     1
102
RTVSPropertyOp12
 70
     1
102
RTVSPropertyOp13
 70
     1
102
RTVSPropertyOp14
 70
     1
102
RTVSPropertyOp15
 70
     1
102
RTVSPropertyOp16
 70
     1
102
RTVSPropertyOp17
 70
     1
102
RTVSPropertyOp18
 70
     1
102
RTVSPropertyOp19
 70
     1
102
RTVSPropertyOp20
 70
     1
102
RTVSPropertyOp21
 70
     1
102
RTVSPropertyOp22
 70
     1
102
RTVSPropertyOp23
 70
     1
102
RTVSPropertyOp24
 70
     1
102
RTVSPropertyOp25
 70
     1
102
RTVSPropertyOp26
 70
     1
102
RTVSPropertyOp27
 70
     1
102
RTVSPropertyOp28
 70
     1
102
RTVSPropertyOp29
 70
     1
102
RTVSPropertyOp30
 70
     1
102
RTVSPropertyOp31
 70
     1
102
RTVSPropertyOp32
 70
     1
  0
XRECORD
  5
ABB
102
{ACAD_REACTORS
330
ABA
102
}
330
ABA
100
AcDbXrecord
280
     1
102
RTVSPropertyOp0
 70
     1
102
RTVSPropertyOp1
 70
     1
102
RTVSPropertyOp2
 70
     1
102
RTVSPropertyOp3
 70
     1
102
RTVSPropertyOp4
 70
     1
102
RTVSPropertyOp5
 70
     1
102
RTVSPropertyOp6
 70
     1
102
RTVSPropertyOp7
 70
     1
102
RTVSPropertyOp8
 70
     1
102
RTVSPropertyOp9
 70
     1
102
RTVSPropertyOp10
 70
     1
102
RTVSPropertyOp11
 70
     1
102
RTVSPropertyOp12
 70
     1
102
RTVSPropertyOp13
 70
     1
102
RTVSPropertyOp14
 70
     1
102
RTVSPropertyOp15
 70
     1
102
RTVSPropertyOp16
 70
     1
102
RTVSPropertyOp17
 70
     1
102
RTVSPropertyOp18
 70
     1
102
RTVSPropertyOp19
 70
     1
102
RTVSPropertyOp20
 70
     1
102
RTVSPropertyOp21
 70
     1
102
RTVSPropertyOp22
 70
     1
102
RTVSPropertyOp23
 70
     1
102
RTVSPropertyOp24
 70
     1
102
RTVSPropertyOp25
 70
     1
102
RTVSPropertyOp26
 70
     1
102
RTVSPropertyOp27
 70
     1
102
RTVSPropertyOp28
 70
     1
102
RTVSPropertyOp29
 70
     1
102
RTVSPropertyOp30
 70
     1
102
RTVSPropertyOp31
 70
     1
102
RTVSPropertyOp32
 70
     1
  0
XRECORD
  5
ABD
102
{ACAD_REACTORS
330
ABC
102
}
330
ABC
100
AcDbXrecord
280
     1
102
RTVSPropertyOp0
 70
     1
102
RTVSPropertyOp1
 70
     1
102
RTVSPropertyOp2
 70
     1
102
RTVSPropertyOp3
 70
     1
102
RTVSPropertyOp4
 70
     1
102
RTVSPropertyOp5
 70
     1
102
RTVSPropertyOp6
 70
     1
102
RTVSPropertyOp7
 70
     1
102
RTVSPropertyOp8
 70
     1
102
RTVSPropertyOp9
 70
     1
102
RTVSPropertyOp10
 70
     1
102
RTVSPropertyOp11
 70
     1
102
RTVSPropertyOp12
 70
     1
102
RTVSPropertyOp13
 70
     1
102
RTVSPropertyOp14
 70
     1
102
RTVSPropertyOp15
 70
     1
102
RTVSPropertyOp16
 70
     1
102
RTVSPropertyOp17
 70
     1
102
RTVSPropertyOp18
 70
     1
102
RTVSPropertyOp19
 70
     1
102
RTVSPropertyOp20
 70
     1
102
RTVSPropertyOp21
 70
     1
102
RTVSPropertyOp22
 70
     1
102
RTVSPropertyOp23
 70
     1
102
RTVSPropertyOp24
 70
     1
102
RTVSPropertyOp25
 70
     1
102
RTVSPropertyOp26
 70
     1
102
RTVSPropertyOp27
 70
     1
102
RTVSPropertyOp28
 70
     1
102
RTVSPropertyOp29
 70
     1
102
RTVSPropertyOp30
 70
     1
102
RTVSPropertyOp31
 70
     1
102
RTVSPropertyOp32
 70
     1
  0
XRECORD
  5
AC5
102
{ACAD_REACTORS
330
AC4
102
}
330
AC4
100
AcDbXrecord
280
     1
102
RTVSPropertyOp0
 70
     1
102
RTVSPropertyOp1
 70
     1
102
RTVSPropertyOp2
 70
     1
102
RTVSPropertyOp3
 70
     1
102
RTVSPropertyOp4
 70
     1
102
RTVSPropertyOp5
 70
     1
102
RTVSPropertyOp6
 70
     1
102
RTVSPropertyOp7
 70
     1
102
RTVSPropertyOp8
 70
     1
102
RTVSPropertyOp9
 70
     1
102
RTVSPropertyOp10
 70
     1
102
RTVSPropertyOp11
 70
     1
102
RTVSPropertyOp12
 70
     1
102
RTVSPropertyOp13
 70
     1
102
RTVSPropertyOp14
 70
     1
102
RTVSPropertyOp15
 70
     1
102
RTVSPropertyOp16
 70
     1
102
RTVSPropertyOp17
 70
     1
102
RTVSPropertyOp18
 70
     1
102
RTVSPropertyOp19
 70
     1
102
RTVSPropertyOp20
 70
     1
102
RTVSPropertyOp21
 70
     1
102
RTVSPropertyOp22
 70
     1
102
RTVSPropertyOp23
 70
     1
102
RTVSPropertyOp24
 70
     1
102
RTVSPropertyOp25
 70
     1
102
RTVSPropertyOp26
 70
     1
102
RTVSPropertyOp27
 70
     1
102
RTVSPropertyOp28
 70
     1
102
RTVSPropertyOp29
 70
     1
102
RTVSPropertyOp30
 70
     1
102
RTVSPropertyOp31
 70
     1
102
RTVSPropertyOp32
 70
     1
  0
XRECORD
  5
AE1
102
{ACAD_REACTORS
330
AE0
102
}
330
AE0
100
AcDbXrecord
280
     1
102
RTVSPropertyOp0
 70
     0
102
RTVSPropertyOp1
 70
     0
102
RTVSPropertyOp2
 70
     0
102
RTVSPropertyOp3
 70
     0
102
RTVSPropertyOp4
 70
     0
102
RTVSPropertyOp5
 70
     0
102
RTVSPropertyOp6
 70
     0
102
RTVSPropertyOp7
 70
     0
102
RTVSPropertyOp8
 70
     0
102
RTVSPropertyOp9
 70
     0
102
RTVSPropertyOp10
 70
     0
102
RTVSPropertyOp11
 70
     0
102
RTVSPropertyOp12
 70
     0
102
RTVSPropertyOp13
 70
     0
102
RTVSPropertyOp14
 70
     2
102
RTVSPropertyOp15
 70
     0
102
RTVSPropertyOp16
 70
     0
102
RTVSPropertyOp17
 70
     0
102
RTVSPropertyOp18
 70
     0
102
RTVSPropertyOp19
 70
     0
102
RTVSPropertyOp20
 70
     0
102
RTVSPropertyOp21
 70
     0
102
RTVSPropertyOp22
 70
     0
102
RTVSPropertyOp23
 70
     0
102
RTVSPropertyOp24
 70
     0
102
RTVSPropertyOp25
 70
     0
102
RTVSPropertyOp26
 70
     0
102
RTVSPropertyOp27
 70
     0
102
RTVSPropertyOp28
 70
     0
102
RTVSPropertyOp29
 70
     0
102
RTVSPropertyOp30
 70
     0
102
RTVSPropertyOp31
 70
     0
102
RTVSPropertyOp32
 70
     0
  0
XRECORD
  5
AD1
102
{ACAD_REACTORS
330
AD0
102
}
330
AD0
100
AcDbXrecord
280
     1
102
RTVSPropertyOp0
 70
     1
102
RTVSPropertyOp1
 70
     1
102
RTVSPropertyOp2
 70
     1
102
RTVSPropertyOp3
 70
     1
102
RTVSPropertyOp4
 70
     1
102
RTVSPropertyOp5
 70
     1
102
RTVSPropertyOp6
 70
     1
102
RTVSPropertyOp7
 70
     1
102
RTVSPropertyOp8
 70
     1
102
RTVSPropertyOp9
 70
     1
102
RTVSPropertyOp10
 70
     1
102
RTVSPropertyOp11
 70
     1
102
RTVSPropertyOp12
 70
     1
102
RTVSPropertyOp13
 70
     1
102
RTVSPropertyOp14
 70
     1
102
RTVSPropertyOp15
 70
     1
102
RTVSPropertyOp16
 70
     1
102
RTVSPropertyOp17
 70
     1
102
RTVSPropertyOp18
 70
     1
102
RTVSPropertyOp19
 70
     1
102
RTVSPropertyOp20
 70
     1
102
RTVSPropertyOp21
 70
     1
102
RTVSPropertyOp22
 70
     1
102
RTVSPropertyOp23
 70
     1
102
RTVSPropertyOp24
 70
     1
102
RTVSPropertyOp25
 70
     1
102
RTVSPropertyOp26
 70
     1
102
RTVSPropertyOp27
 70
     1
102
RTVSPropertyOp28
 70
     1
102
RTVSPropertyOp29
 70
     1
102
RTVSPropertyOp30
 70
     1
102
RTVSPropertyOp31
 70
     1
102
RTVSPropertyOp32
 70
     1
  0
XRECORD
  5
AE3
102
{ACAD_REACTORS
330
AE2
102
}
330
AE2
100
AcDbXrecord
280
     1
102
RTVSPropertyOp0
 70
     0
102
RTVSPropertyOp1
 70
     0
102
RTVSPropertyOp2
 70
     0
102
RTVSPropertyOp3
 70
     0
102
RTVSPropertyOp4
 70
     0
102
RTVSPropertyOp5
 70
     0
102
RTVSPropertyOp6
 70
     0
102
RTVSPropertyOp7
 70
     0
102
RTVSPropertyOp8
 70
     0
102
RTVSPropertyOp9
 70
     0
102
RTVSPropertyOp10
 70
     0
102
RTVSPropertyOp11
 70
     0
102
RTVSPropertyOp12
 70
     0
102
RTVSPropertyOp13
 70
     0
102
RTVSPropertyOp14
 70
     2
102
RTVSPropertyOp15
 70
     0
102
RTVSPropertyOp16
 70
     0
102
RTVSPropertyOp17
 70
     0
102
RTVSPropertyOp18
 70
     0
102
RTVSPropertyOp19
 70
     0
102
RTVSPropertyOp20
 70
     0
102
RTVSPropertyOp21
 70
     0
102
RTVSPropertyOp22
 70
     0
102
RTVSPropertyOp23
 70
     0
102
RTVSPropertyOp24
 70
     0
102
RTVSPropertyOp25
 70
     0
102
RTVSPropertyOp26
 70
     0
102
RTVSPropertyOp27
 70
     0
102
RTVSPropertyOp28
 70
     0
102
RTVSPropertyOp29
 70
     0
102
RTVSPropertyOp30
 70
     0
102
RTVSPropertyOp31
 70
     0
102
RTVSPropertyOp32
 70
     0
  0
XRECORD
  5
AC9
102
{ACAD_REACTORS
330
AC8
102
}
330
AC8
100
AcDbXrecord
280
     1
102
RTVSPropertyOp0
 70
     1
102
RTVSPropertyOp1
 70
     1
102
RTVSPropertyOp2
 70
     1
102
RTVSPropertyOp3
 70
     1
102
RTVSPropertyOp4
 70
     1
102
RTVSPropertyOp5
 70
     1
102
RTVSPropertyOp6
 70
     1
102
RTVSPropertyOp7
 70
     1
102
RTVSPropertyOp8
 70
     1
102
RTVSPropertyOp9
 70
     1
102
RTVSPropertyOp10
 70
     1
102
RTVSPropertyOp11
 70
     1
102
RTVSPropertyOp12
 70
     1
102
RTVSPropertyOp13
 70
     1
102
RTVSPropertyOp14
 70
     1
102
RTVSPropertyOp15
 70
     1
102
RTVSPropertyOp16
 70
     1
102
RTVSPropertyOp17
 70
     1
102
RTVSPropertyOp18
 70
     1
102
RTVSPropertyOp19
 70
     1
102
RTVSPropertyOp20
 70
     1
102
RTVSPropertyOp21
 70
     1
102
RTVSPropertyOp22
 70
     1
102
RTVSPropertyOp23
 70
     1
102
RTVSPropertyOp24
 70
     1
102
RTVSPropertyOp25
 70
     1
102
RTVSPropertyOp26
 70
     1
102
RTVSPropertyOp27
 70
     1
102
RTVSPropertyOp28
 70
     1
102
RTVSPropertyOp29
 70
     1
102
RTVSPropertyOp30
 70
     1
102
RTVSPropertyOp31
 70
     1
102
RTVSPropertyOp32
 70
     1
  0
XRECORD
  5
ADF
102
{ACAD_REACTORS
330
ADE
102
}
330
ADE
100
AcDbXrecord
280
     1
102
RTVSPropertyOp0
 70
     1
102
RTVSPropertyOp1
 70
     1
102
RTVSPropertyOp2
 70
     1
102
RTVSPropertyOp3
 70
     1
102
RTVSPropertyOp4
 70
     1
102
RTVSPropertyOp5
 70
     1
102
RTVSPropertyOp6
 70
     1
102
RTVSPropertyOp7
 70
     1
102
RTVSPropertyOp8
 70
     1
102
RTVSPropertyOp9
 70
     1
102
RTVSPropertyOp10
 70
     1
102
RTVSPropertyOp11
 70
     1
102
RTVSPropertyOp12
 70
     1
102
RTVSPropertyOp13
 70
     1
102
RTVSPropertyOp14
 70
     1
102
RTVSPropertyOp15
 70
     1
102
RTVSPropertyOp16
 70
     1
102
RTVSPropertyOp17
 70
     1
102
RTVSPropertyOp18
 70
     1
102
RTVSPropertyOp19
 70
     1
102
RTVSPropertyOp20
 70
     1
102
RTVSPropertyOp21
 70
     1
102
RTVSPropertyOp22
 70
     1
102
RTVSPropertyOp23
 70
     1
102
RTVSPropertyOp24
 70
     1
102
RTVSPropertyOp25
 70
     1
102
RTVSPropertyOp26
 70
     1
102
RTVSPropertyOp27
 70
     1
102
RTVSPropertyOp28
 70
     1
102
RTVSPropertyOp29
 70
     1
102
RTVSPropertyOp30
 70
     1
102
RTVSPropertyOp31
 70
     1
102
RTVSPropertyOp32
 70
     1
  0
XRECORD
  5
ADD
102
{ACAD_REACTORS
330
ADC
102
}
330
ADC
100
AcDbXrecord
280
     1
102
RTVSPropertyOp0
 70
     1
102
RTVSPropertyOp1
 70
     1
102
RTVSPropertyOp2
 70
     1
102
RTVSPropertyOp3
 70
     1
102
RTVSPropertyOp4
 70
     1
102
RTVSPropertyOp5
 70
     1
102
RTVSPropertyOp6
 70
     1
102
RTVSPropertyOp7
 70
     1
102
RTVSPropertyOp8
 70
     1
102
RTVSPropertyOp9
 70
     1
102
RTVSPropertyOp10
 70
     1
102
RTVSPropertyOp11
 70
     1
102
RTVSPropertyOp12
 70
     1
102
RTVSPropertyOp13
 70
     1
102
RTVSPropertyOp14
 70
     1
102
RTVSPropertyOp15
 70
     1
102
RTVSPropertyOp16
 70
     1
102
RTVSPropertyOp17
 70
     1
102
RTVSPropertyOp18
 70
     1
102
RTVSPropertyOp19
 70
     1
102
RTVSPropertyOp20
 70
     1
102
RTVSPropertyOp21
 70
     1
102
RTVSPropertyOp22
 70
     1
102
RTVSPropertyOp23
 70
     1
102
RTVSPropertyOp24
 70
     1
102
RTVSPropertyOp25
 70
     1
102
RTVSPropertyOp26
 70
     1
102
RTVSPropertyOp27
 70
     1
102
RTVSPropertyOp28
 70
     1
102
RTVSPropertyOp29
 70
     1
102
RTVSPropertyOp30
 70
     1
102
RTVSPropertyOp31
 70
     1
102
RTVSPropertyOp32
 70
     1
  0
XRECORD
  5
AD7
102
{ACAD_REACTORS
330
AD6
102
}
330
AD6
100
AcDbXrecord
280
     1
102
RTVSPropertyOp0
 70
     1
102
RTVSPropertyOp1
 70
     1
102
RTVSPropertyOp2
 70
     1
102
RTVSPropertyOp3
 70
     1
102
RTVSPropertyOp4
 70
     1
102
RTVSPropertyOp5
 70
     1
102
RTVSPropertyOp6
 70
     1
102
RTVSPropertyOp7
 70
     1
102
RTVSPropertyOp8
 70
     1
102
RTVSPropertyOp9
 70
     1
102
RTVSPropertyOp10
 70
     1
102
RTVSPropertyOp11
 70
     1
102
RTVSPropertyOp12
 70
     1
102
RTVSPropertyOp13
 70
     1
102
RTVSPropertyOp14
 70
     1
102
RTVSPropertyOp15
 70
     1
102
RTVSPropertyOp16
 70
     1
102
RTVSPropertyOp17
 70
     1
102
RTVSPropertyOp18
 70
     1
102
RTVSPropertyOp19
 70
     1
102
RTVSPropertyOp20
 70
     1
102
RTVSPropertyOp21
 70
     1
102
RTVSPropertyOp22
 70
     1
102
RTVSPropertyOp23
 70
     1
102
RTVSPropertyOp24
 70
     1
102
RTVSPropertyOp25
 70
     1
102
RTVSPropertyOp26
 70
     1
102
RTVSPropertyOp27
 70
     1
102
RTVSPropertyOp28
 70
     1
102
RTVSPropertyOp29
 70
     1
102
RTVSPropertyOp30
 70
     1
102
RTVSPropertyOp31
 70
     1
102
RTVSPropertyOp32
 70
     1
  0
XRECORD
  5
AD9
102
{ACAD_REACTORS
330
AD8
102
}
330
AD8
100
AcDbXrecord
280
     1
102
RTVSPropertyOp0
 70
     1
102
RTVSPropertyOp1
 70
     1
102
RTVSPropertyOp2
 70
     1
102
RTVSPropertyOp3
 70
     1
102
RTVSPropertyOp4
 70
     1
102
RTVSPropertyOp5
 70
     1
102
RTVSPropertyOp6
 70
     1
102
RTVSPropertyOp7
 70
     1
102
RTVSPropertyOp8
 70
     1
102
RTVSPropertyOp9
 70
     1
102
RTVSPropertyOp10
 70
     1
102
RTVSPropertyOp11
 70
     1
102
RTVSPropertyOp12
 70
     1
102
RTVSPropertyOp13
 70
     1
102
RTVSPropertyOp14
 70
     1
102
RTVSPropertyOp15
 70
     1
102
RTVSPropertyOp16
 70
     1
102
RTVSPropertyOp17
 70
     1
102
RTVSPropertyOp18
 70
     1
102
RTVSPropertyOp19
 70
     1
102
RTVSPropertyOp20
 70
     1
102
RTVSPropertyOp21
 70
     1
102
RTVSPropertyOp22
 70
     1
102
RTVSPropertyOp23
 70
     1
102
RTVSPropertyOp24
 70
     1
102
RTVSPropertyOp25
 70
     1
102
RTVSPropertyOp26
 70
     1
102
RTVSPropertyOp27
 70
     1
102
RTVSPropertyOp28
 70
     1
102
RTVSPropertyOp29
 70
     1
102
RTVSPropertyOp30
 70
     1
102
RTVSPropertyOp31
 70
     1
102
RTVSPropertyOp32
 70
     1
  0
XRECORD
  5
ACF
102
{ACAD_REACTORS
330
ACE
102
}
330
ACE
100
AcDbXrecord
280
     1
102
RTVSPropertyOp0
 70
     1
102
RTVSPropertyOp1
 70
     1
102
RTVSPropertyOp2
 70
     1
102
RTVSPropertyOp3
 70
     1
102
RTVSPropertyOp4
 70
     1
102
RTVSPropertyOp5
 70
     1
102
RTVSPropertyOp6
 70
     1
102
RTVSPropertyOp7
 70
     1
102
RTVSPropertyOp8
 70
     1
102
RTVSPropertyOp9
 70
     1
102
RTVSPropertyOp10
 70
     1
102
RTVSPropertyOp11
 70
     1
102
RTVSPropertyOp12
 70
     1
102
RTVSPropertyOp13
 70
     1
102
RTVSPropertyOp14
 70
     1
102
RTVSPropertyOp15
 70
     1
102
RTVSPropertyOp16
 70
     1
102
RTVSPropertyOp17
 70
     1
102
RTVSPropertyOp18
 70
     1
102
RTVSPropertyOp19
 70
     1
102
RTVSPropertyOp20
 70
     1
102
RTVSPropertyOp21
 70
     1
102
RTVSPropertyOp22
 70
     1
102
RTVSPropertyOp23
 70
     1
102
RTVSPropertyOp24
 70
     1
102
RTVSPropertyOp25
 70
     1
102
RTVSPropertyOp26
 70
     1
102
RTVSPropertyOp27
 70
     1
102
RTVSPropertyOp28
 70
     1
102
RTVSPropertyOp29
 70
     1
102
RTVSPropertyOp30
 70
     1
102
RTVSPropertyOp31
 70
     1
102
RTVSPropertyOp32
 70
     1
  0
XRECORD
  5
AC3
102
{ACAD_REACTORS
330
AC2
102
}
330
AC2
100
AcDbXrecord
280
     1
102
RTVSPropertyOp0
 70
     1
102
RTVSPropertyOp1
 70
     1
102
RTVSPropertyOp2
 70
     1
102
RTVSPropertyOp3
 70
     1
102
RTVSPropertyOp4
 70
     1
102
RTVSPropertyOp5
 70
     1
102
RTVSPropertyOp6
 70
     1
102
RTVSPropertyOp7
 70
     1
102
RTVSPropertyOp8
 70
     1
102
RTVSPropertyOp9
 70
     1
102
RTVSPropertyOp10
 70
     1
102
RTVSPropertyOp11
 70
     1
102
RTVSPropertyOp12
 70
     1
102
RTVSPropertyOp13
 70
     1
102
RTVSPropertyOp14
 70
     1
102
RTVSPropertyOp15
 70
     1
102
RTVSPropertyOp16
 70
     1
102
RTVSPropertyOp17
 70
     1
102
RTVSPropertyOp18
 70
     1
102
RTVSPropertyOp19
 70
     1
102
RTVSPropertyOp20
 70
     1
102
RTVSPropertyOp21
 70
     1
102
RTVSPropertyOp22
 70
     1
102
RTVSPropertyOp23
 70
     1
102
RTVSPropertyOp24
 70
     1
102
RTVSPropertyOp25
 70
     1
102
RTVSPropertyOp26
 70
     1
102
RTVSPropertyOp27
 70
     1
102
RTVSPropertyOp28
 70
     1
102
RTVSPropertyOp29
 70
     1
102
RTVSPropertyOp30
 70
     1
102
RTVSPropertyOp31
 70
     1
102
RTVSPropertyOp32
 70
     1
  0
XRECORD
  5
ADB
102
{ACAD_REACTORS
330
ADA
102
}
330
ADA
100
AcDbXrecord
280
     1
102
RTVSPropertyOp0
 70
     1
102
RTVSPropertyOp1
 70
     1
102
RTVSPropertyOp2
 70
     1
102
RTVSPropertyOp3
 70
     1
102
RTVSPropertyOp4
 70
     1
102
RTVSPropertyOp5
 70
     1
102
RTVSPropertyOp6
 70
     1
102
RTVSPropertyOp7
 70
     1
102
RTVSPropertyOp8
 70
     1
102
RTVSPropertyOp9
 70
     1
102
RTVSPropertyOp10
 70
     1
102
RTVSPropertyOp11
 70
     1
102
RTVSPropertyOp12
 70
     1
102
RTVSPropertyOp13
 70
     1
102
RTVSPropertyOp14
 70
     1
102
RTVSPropertyOp15
 70
     1
102
RTVSPropertyOp16
 70
     1
102
RTVSPropertyOp17
 70
     1
102
RTVSPropertyOp18
 70
     1
102
RTVSPropertyOp19
 70
     1
102
RTVSPropertyOp20
 70
     1
102
RTVSPropertyOp21
 70
     1
102
RTVSPropertyOp22
 70
     1
102
RTVSPropertyOp23
 70
     1
102
RTVSPropertyOp24
 70
     1
102
RTVSPropertyOp25
 70
     1
102
RTVSPropertyOp26
 70
     1
102
RTVSPropertyOp27
 70
     1
102
RTVSPropertyOp28
 70
     1
102
RTVSPropertyOp29
 70
     1
102
RTVSPropertyOp30
 70
     1
102
RTVSPropertyOp31
 70
     1
102
RTVSPropertyOp32
 70
     1
  0
ENDSEC
  0
EOF
